999
DXF file: FSW_assy_2.dxf
999
Pro/ENGINEER 2014200 by Parametric Technology Corporation
  0
SECTION
  2
HEADER
  9
$ACADVER
  1
AC1021
  9
$DWGCODEPAGE
  3
ANSI_1252
  9
$EXTMAX
 10
22.0
 20
17.0
 30
0.0
  9
$EXTMIN
 10
0.0
 20
0.0
 30
0.0
  9
$LIMMIN
 10
0.0
 20
0.0
  9
$LIMMAX
 10
22.0
 20
17.0
  9
$VIEWCTR
 10
11.0
 20
8.5
  9
$VIEWSIZE
 40
17.0
  9
$CLAYER
  8
0
  9
$LTSCALE
 40
1.21
  9
$CELTYPE
  6
BYLAYER
  9
$DIMSCALE
 40
1.0
  9
$DIMASZ
 40
0.1875
  9
$DIMEXO
 40
0.0625
  9
$DIMDLI
 40
0.836
  9
$DIMEXE
 40
0.125
  9
$DIMCEN
 40
0.198
  9
$DIMLFAC
 40
1.0
  9
$DIMBLK
  1
_FILLED
  9
$DIMTXT
 40
0.1
  9
$DIMTOL
 70
0
  9
$DIMLIM
 70
0
  9
$DIMTFAC
 40
1.0
  9
$DIMGAP
 40
0.09
  9
$DIMDSEP
 70
46
  9
$AUNITS
 70
0
  9
$PDMODE
 70
3
  9
$PDSIZE
 40
0.3125
  9
$HANDSEED
  5
3AA
  9
$TILEMODE
 70
1
  9
$MEASUREMENT
 70
0
  9
$INSUNITS
 70
1
  0
ENDSEC
  0
SECTION
  2
CLASSES
  0
CLASS
  1
ACDBDICTIONARYWDFLT
  2
AcDbDictionaryWithDefault
  3
AutoCAD 2000
 90
0
 91
1
280
0
281
0
  0
CLASS
  1
ACDBPLACEHOLDER
  2
AcDbPlaceHolder
  3
AutoCAD 2000
 90
0
 91
1
280
0
281
0
  0
CLASS
  1
LAYOUT
  2
AcDbLayout
  3
AutoCAD 2000
 90
0
 91
0
280
0
281
0
  0
CLASS
  1
RASTERVARIABLES
  2
AcDbRasterVariables
  3
ISM
 90
0
 91
1
280
0
281
0
  0
CLASS
  1
IMAGEDEF
  2
AcDbRasterImageDef
  3
ISM
 90
0
 91
1
280
0
281
0
  0
CLASS
  1
IMAGEDEF_REACTOR
  2
AcDbRasterImageDefReactor
  3
ISM
 90
0
 91
1
280
0
281
0
  0
CLASS
  1
IMAGE
  2
AcDbRasterImage
  3
ISM
 90
127
 91
1
280
0
281
1
  0
CLASS
  1
TABLESTYLE
  2
AcDbTableStyle
  3
ObjectDBX Classes
 90
2047
 91
1
280
0
281
0
  0
CLASS
  1
ACAD_TABLE
  2
AcDbTable
  3
ObjectDBX Classes
 90
1025
 91
3
280
0
281
1
  0
ENDSEC
  0
SECTION
  2
TABLES
  0
TABLE
  2
VPORT
  5
8
100
AcDbSymbolTable
 70
2
  0
VPORT
  5
1F4
100
AcDbSymbolTableRecord
100
AcDbViewportTableRecord
  2
*ACTIVE
 70
0
 10
0.0
 20
0.0
 11
1.0
 21
1.0
 12
11.0
 22
8.5
 13
0.0
 23
0.0
 14
1.0
 24
1.0
 15
0.0
 25
0.0
 16
0.0
 26
0.0
 36
1.0
 17
0.0
 27
0.0
 37
0.0
 40
17.0
 41
1.2941176471
 42
50.0
 43
0.0
 44
0.0
 50
0.0
 51
0.0
 71
0
 72
100
 73
1
 74
1
 75
0
 76
0
 77
0
 78
0
  0
ENDTAB
  0
TABLE
  2
LTYPE
  5
5
100
AcDbSymbolTable
 70
6
  0
LTYPE
  5
14
100
AcDbSymbolTableRecord
100
AcDbLinetypeTableRecord
  2
BYBLOCK
 70
0
  3

 72
65
 73
0
 40
0.0
  0
LTYPE
  5
15
100
AcDbSymbolTableRecord
100
AcDbLinetypeTableRecord
  2
BYLAYER
 70
0
  3

 72
65
 73
0
 40
0.0
  0
LTYPE
  5
16
100
AcDbSymbolTableRecord
100
AcDbLinetypeTableRecord
  2
CONTINUOUS
 70
64
  3
Solid line
 72
65
 73
0
 40
0.0
  0
LTYPE
  5
1F5
100
AcDbSymbolTableRecord
100
AcDbLinetypeTableRecord
  2
CENTER
 70
64
  3
____ _ ____ _ ____ _ ____ _ ____ _ ____ _ ____
 72
65
 73
4
 40
0.6
 49
0.375
 74
0
 49
-0.075
 74
0
 49
0.075
 74
0
 49
-0.075
 74
0
  0
LTYPE
  5
1F6
100
AcDbSymbolTableRecord
100
AcDbLinetypeTableRecord
  2
HIDDEN
 70
64
  3
- - - - - - - - - - - - - - - - - - - -
 72
65
 73
2
 40
0.2
 49
0.1
 74
0
 49
-0.1
 74
0
  0
LTYPE
  5
1F7
100
AcDbSymbolTableRecord
100
AcDbLinetypeTableRecord
  2
PHANTOM
 70
64
  3
_____ _ _ _____ _ _ _____ _ _ _____
 72
65
 73
6
 40
0.8
 49
0.45
 74
0
 49
-0.05
 74
0
 49
0.1
 74
0
 49
-0.05
 74
0
 49
0.1
 74
0
 49
-0.05
 74
0
  0
LTYPE
  5
1F8
100
AcDbSymbolTableRecord
100
AcDbLinetypeTableRecord
  2
DOT
 70
64
  3
. . . . . . . . . . . . . . . . . . . .
 72
65
 73
2
 40
0.2
 49
0.1
 74
0
 49
-0.1
 74
0
  0
LTYPE
  5
1F9
100
AcDbSymbolTableRecord
100
AcDbLinetypeTableRecord
  2
DASHED
 70
64
  3
- - - - - - - - - - - - - - - - - - - -
 72
65
 73
2
 40
0.2
 49
0.1
 74
0
 49
-0.1
 74
0
  0
ENDTAB
  0
TABLE
  2
LAYER
  5
2
100
AcDbSymbolTable
 70
36
  0
LAYER
  5
10
100
AcDbSymbolTableRecord
100
AcDbLayerTableRecord
  2
0
 70
0
 62
7
  6
CONTINUOUS
370
-3
390
F
  0
LAYER
  5
1FA
100
AcDbSymbolTableRecord
100
AcDbLayerTableRecord
  2
DEFAULT_1
 70
0
 62
7
  6
CENTER
370
-3
390
F
  0
LAYER
  5
1FB
100
AcDbSymbolTableRecord
100
AcDbLayerTableRecord
  2
DEFAULT_2
 70
0
 62
8
  6
HIDDEN
370
-3
390
F
  0
LAYER
  5
1FC
100
AcDbSymbolTableRecord
100
AcDbLayerTableRecord
  2
DEFAULT_3
 70
0
 62
7
  6
PHANTOM
370
-3
390
F
  0
LAYER
  5
1FD
100
AcDbSymbolTableRecord
100
AcDbLayerTableRecord
  2
01___PRT_ALL_DTM_PLN
 70
0
 62
7
  6
CONTINUOUS
370
-3
390
F
  0
LAYER
  5
1FE
100
AcDbSymbolTableRecord
100
AcDbLayerTableRecord
  2
01___PRT_DEF_DTM_PLN
 70
0
 62
7
  6
CONTINUOUS
370
-3
390
F
  0
LAYER
  5
1FF
100
AcDbSymbolTableRecord
100
AcDbLayerTableRecord
  2
02___PRT_ALL_AXES
 70
0
 62
7
  6
CONTINUOUS
370
-3
390
F
  0
LAYER
  5
200
100
AcDbSymbolTableRecord
100
AcDbLayerTableRecord
  2
03___PRT_ALL_CURVES
 70
0
 62
7
  6
CONTINUOUS
370
-3
390
F
  0
LAYER
  5
201
100
AcDbSymbolTableRecord
100
AcDbLayerTableRecord
  2
04___PRT_ALL_DTM_PNT
 70
0
 62
7
  6
CONTINUOUS
370
-3
390
F
  0
LAYER
  5
202
100
AcDbSymbolTableRecord
100
AcDbLayerTableRecord
  2
05___PRT_ALL_DTM_CSYS
 70
0
 62
7
  6
CONTINUOUS
370
-3
390
F
  0
LAYER
  5
203
100
AcDbSymbolTableRecord
100
AcDbLayerTableRecord
  2
05___PRT_DEF_DTM_CSYS
 70
0
 62
7
  6
CONTINUOUS
370
-3
390
F
  0
LAYER
  5
204
100
AcDbSymbolTableRecord
100
AcDbLayerTableRecord
  2
06___PRT_ALL_SURFS
 70
0
 62
7
  6
CONTINUOUS
370
-3
390
F
  0
LAYER
  5
205
100
AcDbSymbolTableRecord
100
AcDbLayerTableRecord
  2
DATUM_PLANES
 70
0
 62
7
  6
CONTINUOUS
370
-3
390
F
  0
LAYER
  5
206
100
AcDbSymbolTableRecord
100
AcDbLayerTableRecord
  2
PORT_AREAS
 70
0
 62
7
  6
CONTINUOUS
370
-3
390
F
  0
LAYER
  5
207
100
AcDbSymbolTableRecord
100
AcDbLayerTableRecord
  2
SUNNBOMCOSMETIC
 70
0
 62
7
  6
CONTINUOUS
370
-3
390
F
  0
LAYER
  5
208
100
AcDbSymbolTableRecord
100
AcDbLayerTableRecord
  2
SUNNBOMSTAMPING
 70
0
 62
7
  6
CONTINUOUS
370
-3
390
F
  0
LAYER
  5
209
100
AcDbSymbolTableRecord
100
AcDbLayerTableRecord
  2
THREADS
 70
0
 62
7
  6
CONTINUOUS
370
-3
390
F
  0
ENDTAB
  0
TABLE
  2
STYLE
  5
3
100
AcDbSymbolTable
 70
1
  0
STYLE
  5
11
100
AcDbSymbolTableRecord
100
AcDbTextStyleTableRecord
  2
STANDARD
 70
0
 40
0.0
 41
0.8
 50
0.0
 71
0
 42
0.2
  3
txt
  4

  0
STYLE
  5
20A
100
AcDbSymbolTableRecord
100
AcDbTextStyleTableRecord
  2
TEXTSTYLE_1
 70
0
 40
0.0
 41
0.8
 50
0.0
 71
0
 42
0.2
  3
gdt
  4

  0
ENDTAB
  0
TABLE
  2
VIEW
  5
6
100
AcDbSymbolTable
 70
0
  0
ENDTAB
  0
TABLE
  2
UCS
  5
7
100
AcDbSymbolTable
 70
0
  0
ENDTAB
  0
TABLE
  2
APPID
  5
9
100
AcDbSymbolTable
 70
1
  0
APPID
  5
20B
100
AcDbSymbolTableRecord
100
AcDbRegAppTableRecord
  2
ACAD
 70
0
  0
ENDTAB
  0
TABLE
  2
BLOCK_RECORD
  5
1
100
AcDbSymbolTable
 70
0
  0
BLOCK_RECORD
  5
20C
100
AcDbSymbolTableRecord
100
AcDbBlockTableRecord
  2
*Model_Space
  0
BLOCK_RECORD
  5
20D
100
AcDbSymbolTableRecord
100
AcDbBlockTableRecord
  2
*Paper_Space
  0
BLOCK_RECORD
  5
20E
100
AcDbSymbolTableRecord
100
AcDbBlockTableRecord
  2
SUN_FIRST_THIRD_ANGLE_BL0
  0
BLOCK_RECORD
  5
20F
100
AcDbSymbolTableRecord
100
AcDbBlockTableRecord
  2
*T1
  0
BLOCK_RECORD
  5
210
100
AcDbSymbolTableRecord
100
AcDbBlockTableRecord
  2
*T2
  0
BLOCK_RECORD
  5
211
100
AcDbSymbolTableRecord
100
AcDbBlockTableRecord
  2
*T3
  0
ENDTAB
  0
TABLE
  2
DIMSTYLE
  5
A
100
AcDbSymbolTable
 70
1
100
AcDbDimStyleTable
 71
0
  0
DIMSTYLE
105
212
100
AcDbSymbolTableRecord
100
AcDbDimStyleTableRecord
  2
STANDARD
 70
0
  3

  4

 40
1.0
 41
0.1875
 42
0.0625
 43
0.38
 44
0.125
 45
0.0
 46
0.0
 47
0.001
 48
0.001
140
0.1
141
0.09
142
0.0
143
25.4
144
1.0
145
0.0
146
1.0
147
0.09
 71
0.0
 72
0.0
 73
1
 74
1
 75
0
 76
0
 77
0
 78
4
170
0
171
2
172
0
173
0
174
0
175
0
176
0
177
0
178
0
270
2
271
3
272
3
273
2
274
2
275
0
280
0
281
0
282
0
283
1
284
4
285
0
286
0
287
3
288
0
340
11
278
46
  0
ENDTAB
  0
ENDSEC
  0
SECTION
  2
BLOCKS
  0
BLOCK
  5
20
100
AcDbEntity
  8
0
100
AcDbBlockBegin
  2
*Model_Space
 70
0
 10
0.0
 20
0.0
 30
0.0
  3
*Model_Space
  1

  0
ENDBLK
  5
21
100
AcDbEntity
  8
0
100
AcDbBlockEnd
  0
BLOCK
  5
1C
100
AcDbEntity
  8
0
100
AcDbBlockBegin
  2
*Paper_Space
 70
0
 10
0.0
 20
0.0
 30
0.0
  3
*Paper_Space
  1

  0
ENDBLK
  5
1D
100
AcDbEntity
  8
0
100
AcDbBlockEnd
  0
BLOCK
  5
213
100
AcDbEntity
  8
0
100
AcDbBlockBegin
 62
2
  6
CONTINUOUS
  2
SUN_FIRST_THIRD_ANGLE_BL0
 70
64
 10
20.4816717061
 20
1.2289683772
  3
SUN_FIRST_THIRD_ANGLE_BL0
  1

  0
TEXT
  5
214
100
AcDbEntity
  8
0
100
AcDbText
 62
2
  6
CONTINUOUS
 10
19.4750896608
 20
1.4136269581
  7
STANDARD
 40
0.08
  1
FIRST ANGLE
 41
0.8
 72
0
100
AcDbText
  0
TEXT
  5
215
100
AcDbEntity
  8
0
100
AcDbText
 62
2
  6
CONTINUOUS
 10
20.7842537513
 20
1.4047600029
  7
STANDARD
 40
0.08
  1
THIRD ANGLE
 41
0.8
 72
0
100
AcDbText
  0
LINE
  5
216
100
AcDbEntity
  8
0
100
AcDbLine
 62
7
  6
CONTINUOUS
 10
19.4767170086
 20
1.1727031207
 11
19.6334271527
 21
1.1717972817
  0
LINE
  5
217
100
AcDbEntity
  8
0
100
AcDbLine
 62
7
  6
CONTINUOUS
 10
19.6596964832
 20
1.1717972817
 11
19.6950230232
 21
1.171593082
  0
LINE
  5
218
100
AcDbEntity
  8
0
100
AcDbLine
 62
7
  6
CONTINUOUS
 10
19.7194818561
 20
1.1708914427
 11
19.8852396156
 21
1.1699333054
  0
LINE
  5
219
100
AcDbEntity
  8
0
100
AcDbLine
 62
7
  6
CONTINUOUS
 10
19.4758111696
 20
1.2723454088
 11
19.88525039
 21
1.3511534004
  0
LINE
  5
21A
100
AcDbEntity
  8
0
100
AcDbLine
 62
7
  6
CONTINUOUS
 10
19.88525039
 20
1.3511534004
 11
19.8831348489
 21
0.9851647912
  0
LINE
  5
21B
100
AcDbEntity
  8
0
100
AcDbLine
 62
7
  6
CONTINUOUS
 10
19.8831348489
 20
0.9851647912
 11
19.4767170086
 21
1.0658141206
  0
LINE
  5
21C
100
AcDbEntity
  8
0
100
AcDbLine
 62
7
  6
CONTINUOUS
 10
19.4767170086
 20
1.0658141206
 11
19.4779056764
 21
1.2714536432
  0
CIRCLE
  5
21D
100
AcDbEntity
  8
0
100
AcDbCircle
 62
7
  6
CONTINUOUS
 10
20.2068232291
 20
1.1717972817
 40
0.175742101
  0
CIRCLE
  5
21E
100
AcDbEntity
  8
0
100
AcDbCircle
 62
7
  6
CONTINUOUS
 10
20.2068232291
 20
1.1717972817
 40
0.1005522074
  0
LINE
  5
21F
100
AcDbEntity
  8
0
100
AcDbLine
 62
7
  6
CONTINUOUS
 10
20.2077290681
 20
1.3756110529
 11
20.2071171714
 21
1.2379342989
  0
LINE
  5
220
100
AcDbEntity
  8
0
100
AcDbLine
 62
7
  6
CONTINUOUS
 10
20.2077290681
 20
1.2016899681
 11
20.2074674401
 21
1.1428236749
  0
LINE
  5
221
100
AcDbEntity
  8
0
100
AcDbLine
 62
7
  6
CONTINUOUS
 10
20.208634907
 20
1.101141841
 11
20.2080230104
 21
0.963465087
  0
LINE
  5
222
100
AcDbEntity
  8
0
100
AcDbLine
 62
7
  6
CONTINUOUS
 10
20.0066328138
 20
1.1745147986
 11
20.1443095678
 21
1.1739029019
  0
LINE
  5
223
100
AcDbEntity
  8
0
100
AcDbLine
 62
7
  6
CONTINUOUS
 10
20.1832714155
 20
1.1727031207
 11
20.238153505
 21
1.172335442
  0
LINE
  5
224
100
AcDbEntity
  8
0
100
AcDbLine
 62
7
  6
CONTINUOUS
 10
20.2756669918
 20
1.1717972817
 11
20.407916871
 21
1.1712095044
  0
CIRCLE
  5
225
100
AcDbEntity
  8
0
100
AcDbCircle
 62
7
  6
CONTINUOUS
 10
20.7509457401
 20
1.1693297793
 40
0.1722024983
  0
CIRCLE
  5
226
100
AcDbEntity
  8
0
100
AcDbCircle
 62
7
  6
CONTINUOUS
 10
20.7509457401
 20
1.1693297793
 40
0.0985164967
  0
LINE
  5
227
100
AcDbEntity
  8
0
100
AcDbLine
 62
7
  6
CONTINUOUS
 10
20.7169767782
 20
1.170462078
 11
20.7825395137
 21
1.1682766535
  0
LINE
  5
228
100
AcDbEntity
  8
0
100
AcDbLine
 62
7
  6
CONTINUOUS
 10
20.8177513651
 20
1.1693297793
 11
20.947965719
 21
1.1693297793
  0
LINE
  5
229
100
AcDbEntity
  8
0
100
AcDbLine
 62
7
  6
CONTINUOUS
 10
20.6875370113
 20
1.170462078
 11
20.5573226574
 21
1.170462078
  0
LINE
  5
22A
100
AcDbEntity
  8
0
100
AcDbLine
 62
7
  6
CONTINUOUS
 10
20.7486811426
 20
1.1987695462
 11
20.7486811426
 21
1.1432869085
  0
LINE
  5
22B
100
AcDbEntity
  8
0
100
AcDbLine
 62
7
  6
CONTINUOUS
 10
20.7498134414
 20
1.1059210505
 11
20.7498134414
 21
0.9757066966
  0
LINE
  5
22C
100
AcDbEntity
  8
0
100
AcDbLine
 62
7
  6
CONTINUOUS
 10
20.7486811426
 20
1.2338708068
 11
20.7486811426
 21
1.3640851607
  0
LINE
  5
22D
100
AcDbEntity
  8
0
100
AcDbLine
 62
7
  6
CONTINUOUS
 10
21.0702539817
 20
1.2701043662
 11
21.4790138229
 21
1.3448360823
  0
LINE
  5
22E
100
AcDbEntity
  8
0
100
AcDbLine
 62
7
  6
CONTINUOUS
 10
21.4790138229
 20
1.3448360823
 11
21.4790138229
 21
0.9779712941
  0
LINE
  5
22F
100
AcDbEntity
  8
0
100
AcDbLine
 62
7
  6
CONTINUOUS
 10
21.4790138229
 20
0.9779712941
 11
21.069121683
 21
1.0617614
  0
LINE
  5
230
100
AcDbEntity
  8
0
100
AcDbLine
 62
7
  6
CONTINUOUS
 10
21.0702539817
 20
1.2701043662
 11
21.069121683
 21
1.0617614
  0
LINE
  5
231
100
AcDbEntity
  8
0
100
AcDbLine
 62
7
  6
CONTINUOUS
 10
21.4790138229
 20
1.1693297793
 11
21.3159628059
 21
1.1693297793
  0
LINE
  5
232
100
AcDbEntity
  8
0
100
AcDbLine
 62
7
  6
CONTINUOUS
 10
21.2876553377
 20
1.1693297793
 11
21.2502894796
 21
1.1693297793
  0
LINE
  5
233
100
AcDbEntity
  8
0
100
AcDbLine
 62
7
  6
CONTINUOUS
 10
21.2208497126
 20
1.1659328831
 11
21.0713862804
 21
1.1659328831
  0
LINE
  5
234
100
AcDbEntity
  8
0
100
AcDbLine
 62
7
  6
CONTINUOUS
 10
20.4796138713
 20
1.5284908897
 11
20.4766766948
 21
0.9294458646
  0
ENDBLK
  5
235
100
AcDbEntity
  8
0
  6
BYBLOCK
 62
0
100
AcDbBlockEnd
  0
BLOCK
  5
236
100
AcDbEntity
  8
0
100
AcDbBlockBegin
  2
*T1
 70
1
 10
0.0
 20
0.0
  3
*T1
  1

  0
LINE
  5
237
100
AcDbEntity
  8
0
100
AcDbLine
 62
2
  6
CONTINUOUS
 10
9.275
 20
0.0
 11
-0.0
 21
0.0
  0
LINE
  5
238
100
AcDbEntity
  8
0
100
AcDbLine
 62
2
  6
CONTINUOUS
 10
9.275
 20
0.0
 11
9.275
 21
1.25
  0
LINE
  5
239
100
AcDbEntity
  8
0
100
AcDbLine
 62
2
  6
CONTINUOUS
 10
9.275
 20
0.625
 11
-0.0
 21
0.625
  0
LINE
  5
23A
100
AcDbEntity
  8
0
100
AcDbLine
 62
2
  6
CONTINUOUS
 10
9.275
 20
1.25
 11
-0.0
 21
1.25
  0
LINE
  5
23B
100
AcDbEntity
  8
0
100
AcDbLine
 62
2
  6
CONTINUOUS
 10
6.8
 20
0.0
 11
6.8
 21
1.25
  0
LINE
  5
23C
100
AcDbEntity
  8
0
100
AcDbLine
 62
2
  6
CONTINUOUS
 10
6.4
 20
0.0
 11
6.4
 21
0.625
  0
LINE
  5
23D
100
AcDbEntity
  8
0
100
AcDbLine
 62
2
  6
CONTINUOUS
 10
5.9
 20
0.0
 11
5.9
 21
0.625
  0
LINE
  5
23E
100
AcDbEntity
  8
0
100
AcDbLine
 62
2
  6
CONTINUOUS
 10
5.2
 20
0.0
 11
5.2
 21
0.625
  0
LINE
  5
23F
100
AcDbEntity
  8
0
100
AcDbLine
 62
2
  6
CONTINUOUS
 10
4.1
 20
0.0
 11
4.1
 21
1.25
  0
LINE
  5
240
100
AcDbEntity
  8
0
100
AcDbLine
 62
2
  6
CONTINUOUS
 10
-0.0
 20
0.0
 11
-0.0
 21
1.25
  0
MTEXT
  5
241
100
AcDbEntity
  8
0
100
AcDbMText
 62
2
  6
CONTINUOUS
  7
STANDARD
 71
2
 72
1
 10
6.6
 20
0.325
 30
0.0
 11
1.0
 21
0.0
 31
0.0
 44
0.9
  1
2
 40
0.125
 41
0.2
  0
MTEXT
  5
242
100
AcDbEntity
  8
0
100
AcDbMText
 62
2
  6
CONTINUOUS
  7
STANDARD
 71
2
 72
1
 10
6.15
 20
0.325
 30
0.0
 11
1.0
 21
0.0
 31
0.0
 44
0.9
  1
C
 40
0.125
 41
0.2
  0
MTEXT
  5
243
100
AcDbEntity
  8
0
100
AcDbMText
 62
2
  6
CONTINUOUS
  7
STANDARD
 71
2
 72
1
 10
5.55
 20
0.325
 30
0.0
 11
1.0
 21
0.0
 31
0.0
 44
0.9
  1
1.000
 40
0.125
 41
1.0
  0
MTEXT
  5
244
100
AcDbEntity
  8
0
100
AcDbMText
 62
2
  6
CONTINUOUS
  7
STANDARD
 71
2
 72
1
 10
4.65
 20
0.325
 30
0.0
 11
1.0
 21
0.0
 31
0.0
 44
0.9
  1
Jan-15-20
 40
0.125
 41
1.8
  0
MTEXT
  5
245
100
AcDbEntity
  8
0
100
AcDbMText
 62
2
  6
CONTINUOUS
  7
STANDARD
 71
2
 72
1
 10
2.05
 20
0.4625
 30
0.0
 11
1.0
 21
0.0
 31
0.0
 44
0.9
  1
T-10A Subplate ISO 05\PP to T, side ports
 40
0.125
 41
4.2
  0
MTEXT
  5
246
100
AcDbEntity
  8
0
100
AcDbMText
 62
2
  6
CONTINUOUS
  7
STANDARD
 71
1
 72
1
 10
6.45
 20
0.5625
 30
0.0
 11
1.0
 21
0.0
 31
0.0
 44
0.9
  1
SHEET
 40
0.06
 41
0.48
  0
MTEXT
  5
247
100
AcDbEntity
  8
0
100
AcDbMText
 62
2
  6
CONTINUOUS
  7
STANDARD
 71
1
 72
1
 10
5.95
 20
0.5625
 30
0.0
 11
1.0
 21
0.0
 31
0.0
 44
0.9
  1
DWG SIZE
 40
0.06
 41
0.768
  0
MTEXT
  5
248
100
AcDbEntity
  8
0
100
AcDbMText
 62
2
  6
CONTINUOUS
  7
STANDARD
 71
1
 72
1
 10
5.25
 20
0.5625
 30
0.0
 11
1.0
 21
0.0
 31
0.0
 44
0.9
  1
SCALE
 40
0.06
 41
0.48
  0
MTEXT
  5
249
100
AcDbEntity
  8
0
100
AcDbMText
 62
2
  6
CONTINUOUS
  7
STANDARD
 71
1
 72
1
 10
4.15
 20
0.5625
 30
0.0
 11
1.0
 21
0.0
 31
0.0
 44
0.9
  1
DATE
 40
0.06
 41
0.384
  0
MTEXT
  5
24A
100
AcDbEntity
  8
0
100
AcDbMText
 62
2
  6
CONTINUOUS
  7
STANDARD
 71
1
 72
1
 10
0.05
 20
0.5625
 30
0.0
 11
1.0
 21
0.0
 31
0.0
 44
0.9
  1
DESCRIPTION
 40
0.06
 41
1.056
  0
MTEXT
  5
24B
100
AcDbEntity
  8
0
100
AcDbMText
 62
2
  6
CONTINUOUS
  7
STANDARD
 71
2
 72
1
 10
5.45
 20
1.0375
 30
0.0
 11
1.0
 21
0.0
 31
0.0
 44
0.9
  1
ALL DIMENSIONS IN INCH\PVIEWS ARE THIRD ANGLE
 40
0.12
 41
4.224
  0
MTEXT
  5
24C
100
AcDbEntity
  8
0
100
AcDbMText
 62
2
  6
CONTINUOUS
  7
STANDARD
 71
2
 72
1
 10
2.05
 20
0.95
 30
0.0
 11
1.0
 21
0.0
 31
0.0
 44
0.9
  1
FSW
 40
0.125
 41
0.6
  0
MTEXT
  5
24D
100
AcDbEntity
  8
0
100
AcDbMText
 62
2
  6
CONTINUOUS
  7
STANDARD
 71
1
 72
1
 10
0.05
 20
1.1875
 30
0.0
 11
1.0
 21
0.0
 31
0.0
 44
0.9
  1
MODEL
 40
0.06
 41
0.48
  0
ENDBLK
  5
24E
100
AcDbEntity
  8
0
  6
BYBLOCK
 62
0
100
AcDbBlockEnd
  0
BLOCK
  5
24F
100
AcDbEntity
  8
0
100
AcDbBlockBegin
  2
*T2
 70
1
 10
0.0
 20
0.0
  3
*T2
  1

  0
LINE
  5
250
100
AcDbEntity
  8
0
100
AcDbLine
 62
2
  6
CONTINUOUS
 10
0.0
 20
0.0
 11
9.055
 21
0.0
  0
LINE
  5
251
100
AcDbEntity
  8
0
100
AcDbLine
 62
2
  6
CONTINUOUS
 10
0.0
 20
0.0
 11
0.0
 21
-2.594
  0
LINE
  5
252
100
AcDbEntity
  8
0
100
AcDbLine
 62
2
  6
CONTINUOUS
 10
0.0
 20
-0.344
 11
9.055
 21
-0.344
  0
LINE
  5
253
100
AcDbEntity
  8
0
100
AcDbLine
 62
2
  6
CONTINUOUS
 10
0.0
 20
-0.594
 11
9.055
 21
-0.594
  0
LINE
  5
254
100
AcDbEntity
  8
0
100
AcDbLine
 62
2
  6
CONTINUOUS
 10
0.0
 20
-0.844
 11
9.055
 21
-0.844
  0
LINE
  5
255
100
AcDbEntity
  8
0
100
AcDbLine
 62
2
  6
CONTINUOUS
 10
0.0
 20
-1.094
 11
9.055
 21
-1.094
  0
LINE
  5
256
100
AcDbEntity
  8
0
100
AcDbLine
 62
2
  6
CONTINUOUS
 10
0.0
 20
-1.344
 11
9.055
 21
-1.344
  0
LINE
  5
257
100
AcDbEntity
  8
0
100
AcDbLine
 62
2
  6
CONTINUOUS
 10
0.0
 20
-1.594
 11
9.055
 21
-1.594
  0
LINE
  5
258
100
AcDbEntity
  8
0
100
AcDbLine
 62
2
  6
CONTINUOUS
 10
0.0
 20
-1.844
 11
9.055
 21
-1.844
  0
LINE
  5
259
100
AcDbEntity
  8
0
100
AcDbLine
 62
2
  6
CONTINUOUS
 10
0.0
 20
-2.094
 11
9.055
 21
-2.094
  0
LINE
  5
25A
100
AcDbEntity
  8
0
100
AcDbLine
 62
2
  6
CONTINUOUS
 10
0.0
 20
-2.344
 11
9.055
 21
-2.344
  0
LINE
  5
25B
100
AcDbEntity
  8
0
100
AcDbLine
 62
2
  6
CONTINUOUS
 10
0.0
 20
-2.594
 11
9.055
 21
-2.594
  0
LINE
  5
25C
100
AcDbEntity
  8
0
100
AcDbLine
 62
2
  6
CONTINUOUS
 10
3.055
 20
0.0
 11
3.055
 21
-2.594
  0
LINE
  5
25D
100
AcDbEntity
  8
0
100
AcDbLine
 62
2
  6
CONTINUOUS
 10
9.055
 20
0.0
 11
9.055
 21
-2.594
  0
MTEXT
  5
25E
100
AcDbEntity
  8
0
100
AcDbMText
 62
2
  6
CONTINUOUS
  7
STANDARD
 71
2
 72
1
 10
1.5275
 20
-0.0995
 30
0.0
 11
1.0
 21
0.0
 31
0.0
 44
0.9
  1
Technical Data
 40
0.145
 41
3.248
  0
MTEXT
  5
25F
100
AcDbEntity
  8
0
100
AcDbMText
 62
2
  6
CONTINUOUS
  7
STANDARD
 71
2
 72
1
 10
4.555
 20
-0.0995
 30
0.0
 11
1.0
 21
0.0
 31
0.0
 44
0.9
  1
U.S. Units
 40
0.145
 41
2.32
  0
MTEXT
  5
260
100
AcDbEntity
  8
0
100
AcDbMText
 62
2
  6
CONTINUOUS
  7
STANDARD
 71
2
 72
1
 10
7.555
 20
-0.0995
 30
0.0
 11
1.0
 21
0.0
 31
0.0
 44
0.9
  1
Metric Units
 40
0.145
 41
2.784
  0
MTEXT
  5
261
100
AcDbEntity
  8
0
100
AcDbMText
 62
2
  6
CONTINUOUS
  7
STANDARD
 71
2
 72
1
 10
1.5275
 20
-0.4065
 30
0.0
 11
1.0
 21
0.0
 31
0.0
 44
0.9
  1
Cavity
 40
0.125
 41
1.2
  0
MTEXT
  5
262
100
AcDbEntity
  8
0
100
AcDbMText
 62
2
  6
CONTINUOUS
  7
STANDARD
 71
2
 72
1
 10
6.055
 20
-0.4065
 30
0.0
 11
1.0
 21
0.0
 31
0.0
 44
0.9
  1
T-10A
 40
0.125
 41
1.0
  0
MTEXT
  5
263
100
AcDbEntity
  8
0
100
AcDbMText
 62
2
  6
CONTINUOUS
  7
STANDARD
 71
2
 72
1
 10
1.5275
 20
-0.6565
 30
0.0
 11
1.0
 21
0.0
 31
0.0
 44
0.9
  1
Body Features
 40
0.125
 41
2.6
  0
MTEXT
  5
264
100
AcDbEntity
  8
0
100
AcDbMText
 62
2
  6
CONTINUOUS
  7
STANDARD
 71
2
 72
1
 10
6.055
 20
-0.6565
 30
0.0
 11
1.0
 21
0.0
 31
0.0
 44
0.9
  1
P to T, side ports
 40
0.125
 41
3.6
  0
MTEXT
  5
265
100
AcDbEntity
  8
0
100
AcDbMText
 62
2
  6
CONTINUOUS
  7
STANDARD
 71
2
 72
1
 10
1.5275
 20
-0.9065
 30
0.0
 11
1.0
 21
0.0
 31
0.0
 44
0.9
  1
Body Type
 40
0.125
 41
1.8
  0
MTEXT
  5
266
100
AcDbEntity
  8
0
100
AcDbMText
 62
2
  6
CONTINUOUS
  7
STANDARD
 71
2
 72
1
 10
6.055
 20
-0.9065
 30
0.0
 11
1.0
 21
0.0
 31
0.0
 44
0.9
  1
Subplate
 40
0.125
 41
1.6
  0
MTEXT
  5
267
100
AcDbEntity
  8
0
100
AcDbMText
 62
2
  6
CONTINUOUS
  7
STANDARD
 71
2
 72
1
 10
1.5275
 20
-1.1565
 30
0.0
 11
1.0
 21
0.0
 31
0.0
 44
0.9
  1
Interface
 40
0.125
 41
1.8
  0
MTEXT
  5
268
100
AcDbEntity
  8
0
100
AcDbMText
 62
2
  6
CONTINUOUS
  7
STANDARD
 71
2
 72
1
 10
6.055
 20
-1.1565
 30
0.0
 11
1.0
 21
0.0
 31
0.0
 44
0.9
  1
ISO 05
 40
0.125
 41
1.2
  0
MTEXT
  5
269
100
AcDbEntity
  8
0
100
AcDbMText
 62
2
  6
CONTINUOUS
  7
STANDARD
 71
2
 72
1
 10
1.5275
 20
-1.4065
 30
0.0
 11
1.0
 21
0.0
 31
0.0
 44
0.9
  1
Open Cavity Quantity
 40
0.125
 41
4.0
  0
MTEXT
  5
26A
100
AcDbEntity
  8
0
100
AcDbMText
 62
2
  6
CONTINUOUS
  7
STANDARD
 71
2
 72
1
 10
6.055
 20
-1.4065
 30
0.0
 11
1.0
 21
0.0
 31
0.0
 44
0.9
  1
1
 40
0.125
 41
0.2
  0
MTEXT
  5
26B
100
AcDbEntity
  8
0
100
AcDbMText
 62
2
  6
CONTINUOUS
  7
STANDARD
 71
2
 72
1
 10
1.5275
 20
-1.6565
 30
0.0
 11
1.0
 21
0.0
 31
0.0
 44
0.9
  1
Weight
 40
0.125
 41
1.2
  0
MTEXT
  5
26C
100
AcDbEntity
  8
0
100
AcDbMText
 62
2
  6
CONTINUOUS
  7
STANDARD
 71
2
 72
1
 10
4.555
 20
-1.6565
 30
0.0
 11
1.0
 21
0.0
 31
0.0
 44
0.9
  1
3.122 lb.
 40
0.125
 41
1.8
  0
MTEXT
  5
26D
100
AcDbEntity
  8
0
100
AcDbMText
 62
2
  6
CONTINUOUS
  7
STANDARD
 71
2
 72
1
 10
7.555
 20
-1.6565
 30
0.0
 11
1.0
 21
0.0
 31
0.0
 44
0.9
  1
1,416 kg.
 40
0.125
 41
1.8
  0
MTEXT
  5
26E
100
AcDbEntity
  8
0
100
AcDbMText
 62
2
  6
CONTINUOUS
  7
STANDARD
 71
2
 72
1
 10
1.5275
 20
-1.9065
 30
0.0
 11
1.0
 21
0.0
 31
0.0
 44
0.9
  1
Mounting Hole Diameter
 40
0.125
 41
4.4
  0
MTEXT
  5
26F
100
AcDbEntity
  8
0
100
AcDbMText
 62
2
  6
CONTINUOUS
  7
STANDARD
 71
2
 72
1
 10
4.555
 20
-1.9065
 30
0.0
 11
1.0
 21
0.0
 31
0.0
 44
0.9
  1
.44 in.
 40
0.125
 41
1.4
  0
MTEXT
  5
270
100
AcDbEntity
  8
0
100
AcDbMText
 62
2
  6
CONTINUOUS
  7
STANDARD
 71
2
 72
1
 10
7.555
 20
-1.9065
 30
0.0
 11
1.0
 21
0.0
 31
0.0
 44
0.9
  1
11,1 mm
 40
0.125
 41
1.4
  0
MTEXT
  5
271
100
AcDbEntity
  8
0
100
AcDbMText
 62
2
  6
CONTINUOUS
  7
STANDARD
 71
2
 72
1
 10
1.5275
 20
-2.1565
 30
0.0
 11
1.0
 21
0.0
 31
0.0
 44
0.9
  1
Mounting Hole Depth
 40
0.125
 41
3.8
  0
MTEXT
  5
272
100
AcDbEntity
  8
0
100
AcDbMText
 62
2
  6
CONTINUOUS
  7
STANDARD
 71
2
 72
1
 10
6.055
 20
-2.1565
 30
0.0
 11
1.0
 21
0.0
 31
0.0
 44
0.9
  1
Through
 40
0.125
 41
1.4
  0
MTEXT
  5
273
100
AcDbEntity
  8
0
100
AcDbMText
 62
2
  6
CONTINUOUS
  7
STANDARD
 71
2
 72
1
 10
1.5275
 20
-2.4065
 30
0.0
 11
1.0
 21
0.0
 31
0.0
 44
0.9
  1
Mounting Hole Quantity
 40
0.125
 41
4.4
  0
MTEXT
  5
274
100
AcDbEntity
  8
0
100
AcDbMText
 62
2
  6
CONTINUOUS
  7
STANDARD
 71
2
 72
1
 10
6.055
 20
-2.4065
 30
0.0
 11
1.0
 21
0.0
 31
0.0
 44
0.9
  1
4
 40
0.125
 41
0.2
  0
ENDBLK
  5
275
100
AcDbEntity
  8
0
  6
BYBLOCK
 62
0
100
AcDbBlockEnd
  0
BLOCK
  5
276
100
AcDbEntity
  8
0
100
AcDbBlockBegin
  2
*T3
 70
1
 10
0.0
 20
0.0
  3
*T3
  1

  0
LINE
  5
277
100
AcDbEntity
  8
0
100
AcDbLine
 62
2
  6
CONTINUOUS
 10
0.0
 20
0.0
 11
4.6
 21
0.0
  0
LINE
  5
278
100
AcDbEntity
  8
0
100
AcDbLine
 62
2
  6
CONTINUOUS
 10
0.0
 20
0.0
 11
0.0
 21
-0.93775
  0
LINE
  5
279
100
AcDbEntity
  8
0
100
AcDbLine
 62
2
  6
CONTINUOUS
 10
0.0
 20
-0.34375
 11
4.6
 21
-0.34375
  0
LINE
  5
27A
100
AcDbEntity
  8
0
100
AcDbLine
 62
2
  6
CONTINUOUS
 10
0.0
 20
-0.68775
 11
4.6
 21
-0.68775
  0
LINE
  5
27B
100
AcDbEntity
  8
0
100
AcDbLine
 62
2
  6
CONTINUOUS
 10
0.0
 20
-0.93775
 11
4.6
 21
-0.93775
  0
LINE
  5
27C
100
AcDbEntity
  8
0
100
AcDbLine
 62
2
  6
CONTINUOUS
 10
1.3
 20
-0.34375
 11
1.3
 21
-0.93775
  0
LINE
  5
27D
100
AcDbEntity
  8
0
100
AcDbLine
 62
2
  6
CONTINUOUS
 10
3.3
 20
-0.34375
 11
3.3
 21
-0.93775
  0
LINE
  5
27E
100
AcDbEntity
  8
0
100
AcDbLine
 62
2
  6
CONTINUOUS
 10
4.6
 20
0.0
 11
4.6
 21
-0.93775
  0
MTEXT
  5
27F
100
AcDbEntity
  8
0
100
AcDbMText
 62
2
  6
CONTINUOUS
  7
STANDARD
 71
2
 72
1
 10
2.3
 20
-0.099375
 30
0.0
 11
1.0
 21
0.0
 31
0.0
 44
0.9
  1
Port Headings
 40
0.145
 41
3.016
  0
MTEXT
  5
280
100
AcDbEntity
  8
0
100
AcDbMText
 62
2
  6
CONTINUOUS
  7
STANDARD
 71
2
 72
1
 10
0.65
 20
-0.44325
 30
0.0
 11
1.0
 21
0.0
 31
0.0
 44
0.9
  1
Product
 40
0.145
 41
1.624
  0
MTEXT
  5
281
100
AcDbEntity
  8
0
100
AcDbMText
 62
2
  6
CONTINUOUS
  7
STANDARD
 71
2
 72
1
 10
2.3
 20
-0.44325
 30
0.0
 11
1.0
 21
0.0
 31
0.0
 44
0.9
  1
Port
 40
0.145
 41
0.928
  0
MTEXT
  5
282
100
AcDbEntity
  8
0
100
AcDbMText
 62
2
  6
CONTINUOUS
  7
STANDARD
 71
2
 72
1
 10
3.95
 20
-0.44325
 30
0.0
 11
1.0
 21
0.0
 31
0.0
 44
0.9
  1
Size
 40
0.145
 41
0.928
  0
MTEXT
  5
283
100
AcDbEntity
  8
0
100
AcDbMText
 62
2
  6
CONTINUOUS
  7
STANDARD
 71
2
 72
1
 10
0.65
 20
-0.75025
 30
0.0
 11
1.0
 21
0.0
 31
0.0
 44
0.9
  1
FSW
 40
0.125
 41
0.6
  0
MTEXT
  5
284
100
AcDbEntity
  8
0
100
AcDbMText
 62
2
  6
CONTINUOUS
  7
STANDARD
 71
2
 72
1
 10
2.3
 20
-0.75025
 30
0.0
 11
1.0
 21
0.0
 31
0.0
 44
0.9
  1
Ports A, B, P, T
 40
0.125
 41
3.2
  0
MTEXT
  5
285
100
AcDbEntity
  8
0
100
AcDbMText
 62
2
  6
CONTINUOUS
  7
STANDARD
 71
2
 72
1
 10
3.95
 20
-0.75025
 30
0.0
 11
1.0
 21
0.0
 31
0.0
 44
0.9
  1
3/4" BSPP
 40
0.125
 41
1.8
  0
ENDBLK
  5
286
100
AcDbEntity
  8
0
  6
BYBLOCK
 62
0
100
AcDbBlockEnd
  0
ENDSEC
  0
SECTION
  2
ENTITIES
  0
IMAGE
  5
287
100
AcDbEntity
  8
0
100
AcDbRasterImage
 62
7
  6
CONTINUOUS
 10
19.2297077316
 20
0.3094318264
 30
0.0
 11
0.0066666667
 21
0.0
 31
0.0
 12
0.0
 22
0.0066666667
 32
0.0
 13
369.0
 23
92.0
340
       3A7
 70
9
280
0
281
50
282
50
283
0
360
       3A1
 71
1
 91
2
 14
-0.5
 24
-0.5
 14
368.5
 24
91.5
  0
INSERT
  5
288
100
AcDbEntity
  8
0
100
AcDbBlockReference
 62
2
  6
CONTINUOUS
  2
SUN_FIRST_THIRD_ANGLE_BL0
 10
20.4816717061
 20
1.2289683772
  0
ACAD_TABLE
  5
289
100
AcDbEntity
  8
0
 62
2
  6
CONTINUOUS
100
AcDbBlockReference
  2
*T1
 10
12.42375
 20
0.30125
 30
0.0
100
AcDbTable
342
       3A9
343
20F
 11
1.0
 21
0.0
 31
0.0
 90
6
 91
4
 92
6
 93
20
 94
0
 95
0
 96
0
 70
1
 41
0.0
141
0.525
141
0.1
141
0.525
141
0.1
142
4.1
142
1.1
142
0.7
142
0.5
142
0.4
142
2.475
171
1
172
0
173
0
174
0
175
1
176
1
 91
33
178
0
145
0.0
301
CELL_VALUE
 90
4
  1
T-10A Subplate ISO 05\PP to T, side ports
304
ACVALUE_END
170
2
140
0.125
171
1
172
0
173
0
174
0
175
1
176
1
 91
33
178
0
145
0.0
301
CELL_VALUE
 90
4
  1
Jan-15-20
304
ACVALUE_END
170
5
140
0.125
171
1
172
0
173
0
174
0
175
1
176
1
 91
33
178
0
145
0.0
301
CELL_VALUE
 90
4
  1
1.000
304
ACVALUE_END
170
5
140
0.125
171
1
172
0
173
0
174
0
175
1
176
1
 91
33
178
0
145
0.0
301
CELL_VALUE
 90
4
  1
C
304
ACVALUE_END
170
5
140
0.125
171
1
172
0
173
0
174
0
175
1
176
1
 91
33
178
0
145
0.0
301
CELL_VALUE
 90
4
  1
2
304
ACVALUE_END
170
5
140
0.125
171
1
172
0
173
0
174
0
175
1
176
1
 91
33
178
0
145
0.0
301
CELL_VALUE
 90
4
  1
 
304
ACVALUE_END
170
1
140
0.125
171
1
172
0
173
0
174
0
175
1
176
1
 91
33
178
0
145
0.0
301
CELL_VALUE
 90
4
  1
DESCRIPTION
304
ACVALUE_END
170
1
140
0.06
171
1
172
0
173
0
174
0
175
1
176
1
 91
33
178
0
145
0.0
301
CELL_VALUE
 90
4
  1
DATE
304
ACVALUE_END
170
1
140
0.06
171
1
172
0
173
0
174
0
175
1
176
1
 91
33
178
0
145
0.0
301
CELL_VALUE
 90
4
  1
SCALE
304
ACVALUE_END
170
1
140
0.06
171
1
172
0
173
0
174
0
175
1
176
1
 91
33
178
0
145
0.0
301
CELL_VALUE
 90
4
  1
DWG SIZE
304
ACVALUE_END
170
1
140
0.06
171
1
172
0
173
0
174
0
175
1
176
1
 91
33
178
0
145
0.0
301
CELL_VALUE
 90
4
  1
SHEET
304
ACVALUE_END
170
1
140
0.06
171
1
172
0
173
0
174
0
175
1
176
1
 91
33
178
0
145
0.0
301
CELL_VALUE
 90
4
  1
 
304
ACVALUE_END
170
1
140
0.125
171
1
172
0
173
0
174
0
175
1
176
1
 91
33
178
0
145
0.0
301
CELL_VALUE
 90
4
  1
FSW
304
ACVALUE_END
170
5
140
0.125
171
1
172
0
173
0
174
0
175
4
176
1
 91
33
178
0
145
0.0
301
CELL_VALUE
 90
4
  1
ALL DIMENSIONS IN INCH\PVIEWS ARE THIRD ANGLE
304
ACVALUE_END
170
5
140
0.12
171
1
172
0
173
1
174
0
175
1
176
1
 91
1
178
0
145
0.0
170
1
171
1
172
0
173
1
174
0
175
1
176
1
 91
1
178
0
145
0.0
170
1
171
1
172
0
173
1
174
0
175
1
176
1
 91
1
178
0
145
0.0
170
5
171
1
172
0
173
0
174
0
175
1
176
1
 91
33
178
0
145
0.0
301
CELL_VALUE
 90
4
  1
 
304
ACVALUE_END
170
1
140
0.125
171
1
172
0
173
0
174
0
175
1
176
1
 91
33
178
0
145
0.0
301
CELL_VALUE
 90
4
  1
MODEL
304
ACVALUE_END
170
1
140
0.06
171
1
172
0
173
0
174
0
175
1
176
1
 91
33
178
0
145
0.0
301
CELL_VALUE
 90
4
  1
 
304
ACVALUE_END
170
1
140
0.125
171
1
172
0
173
0
174
0
175
1
176
1
 91
33
178
0
145
0.0
301
CELL_VALUE
 90
4
  1
 
304
ACVALUE_END
170
1
140
0.125
171
1
172
0
173
0
174
0
175
1
176
1
 91
33
178
0
145
0.0
301
CELL_VALUE
 90
4
  1
 
304
ACVALUE_END
170
1
140
0.125
171
1
172
0
173
0
174
0
175
1
176
1
 91
33
178
0
145
0.0
301
CELL_VALUE
 90
4
  1
 
304
ACVALUE_END
170
1
140
0.125
171
1
172
0
173
0
174
0
175
1
176
1
 91
33
178
0
145
0.0
301
CELL_VALUE
 90
4
  1
 
304
ACVALUE_END
170
1
140
0.125
  0
ACAD_TABLE
  5
28A
100
AcDbEntity
  8
0
 62
2
  6
CONTINUOUS
100
AcDbBlockReference
  2
*T2
 10
12.4237499994
 20
16.47875
 30
0.0
100
AcDbTable
342
       3A8
343
210
 11
1.0
 21
0.0
 31
0.0
 90
22
 91
10
 92
3
 93
16
 94
0
 95
0
 96
0
 41
0.028
141
0.344
141
0.25
141
0.25
141
0.25
141
0.25
141
0.25
141
0.25
141
0.25
141
0.25
141
0.25
142
3.055
142
3.0
142
3.0
171
1
172
0
173
0
174
0
175
1
176
1
 91
33
178
0
145
0.0
301
CELL_VALUE
 90
4
  1
Technical Data
304
ACVALUE_END
170
5
140
0.145
171
1
172
0
173
0
174
0
175
1
176
1
 91
33
178
0
145
0.0
301
CELL_VALUE
 90
4
  1
U.S. Units
304
ACVALUE_END
170
5
140
0.145
171
1
172
0
173
0
174
0
175
1
176
1
 91
33
178
0
145
0.0
301
CELL_VALUE
 90
4
  1
Metric Units
304
ACVALUE_END
170
5
140
0.145
171
1
172
0
173
0
174
0
175
1
176
1
 91
33
178
0
145
0.0
301
CELL_VALUE
 90
4
  1
Cavity
304
ACVALUE_END
170
5
140
0.125
171
1
172
0
173
0
174
0
175
2
176
1
 91
33
178
0
145
0.0
301
CELL_VALUE
 90
4
  1
T-10A
304
ACVALUE_END
170
5
140
0.125
171
1
172
0
173
1
174
0
175
1
176
1
 91
1
178
0
145
0.0
170
1
171
1
172
0
173
0
174
0
175
1
176
1
 91
33
178
0
145
0.0
301
CELL_VALUE
 90
4
  1
Body Features
304
ACVALUE_END
170
5
140
0.125
171
1
172
0
173
0
174
0
175
2
176
1
 91
33
178
0
145
0.0
301
CELL_VALUE
 90
4
  1
P to T, side ports
304
ACVALUE_END
170
5
140
0.125
171
1
172
0
173
1
174
0
175
1
176
1
 91
1
178
0
145
0.0
170
1
171
1
172
0
173
0
174
0
175
1
176
1
 91
33
178
0
145
0.0
301
CELL_VALUE
 90
4
  1
Body Type
304
ACVALUE_END
170
5
140
0.125
171
1
172
0
173
0
174
0
175
2
176
1
 91
33
178
0
145
0.0
301
CELL_VALUE
 90
4
  1
Subplate
304
ACVALUE_END
170
5
140
0.125
171
1
172
0
173
1
174
0
175
1
176
1
 91
1
178
0
145
0.0
170
1
171
1
172
0
173
0
174
0
175
1
176
1
 91
33
178
0
145
0.0
301
CELL_VALUE
 90
4
  1
Interface
304
ACVALUE_END
170
5
140
0.125
171
1
172
0
173
0
174
0
175
2
176
1
 91
33
178
0
145
0.0
301
CELL_VALUE
 90
4
  1
ISO 05
304
ACVALUE_END
170
5
140
0.125
171
1
172
0
173
1
174
0
175
1
176
1
 91
1
178
0
145
0.0
170
1
171
1
172
0
173
0
174
0
175
1
176
1
 91
33
178
0
145
0.0
301
CELL_VALUE
 90
4
  1
Open Cavity Quantity
304
ACVALUE_END
170
5
140
0.125
171
1
172
0
173
0
174
0
175
2
176
1
 91
33
178
0
145
0.0
301
CELL_VALUE
 90
4
  1
1
304
ACVALUE_END
170
5
140
0.125
171
1
172
0
173
1
174
0
175
1
176
1
 91
1
178
0
145
0.0
170
1
171
1
172
0
173
0
174
0
175
1
176
1
 91
33
178
0
145
0.0
301
CELL_VALUE
 90
4
  1
Weight
304
ACVALUE_END
170
5
140
0.125
171
1
172
0
173
0
174
0
175
1
176
1
 91
33
178
0
145
0.0
301
CELL_VALUE
 90
4
  1
3.122 lb.
304
ACVALUE_END
170
5
140
0.125
171
1
172
0
173
0
174
0
175
1
176
1
 91
33
178
0
145
0.0
301
CELL_VALUE
 90
4
  1
1,416 kg.
304
ACVALUE_END
170
5
140
0.125
171
1
172
0
173
0
174
0
175
1
176
1
 91
33
178
0
145
0.0
301
CELL_VALUE
 90
4
  1
Mounting Hole Diameter
304
ACVALUE_END
170
5
140
0.125
171
1
172
0
173
0
174
0
175
1
176
1
 91
33
178
0
145
0.0
301
CELL_VALUE
 90
4
  1
.44 in.
304
ACVALUE_END
170
5
140
0.125
171
1
172
0
173
0
174
0
175
1
176
1
 91
33
178
0
145
0.0
301
CELL_VALUE
 90
4
  1
11,1 mm
304
ACVALUE_END
170
5
140
0.125
171
1
172
0
173
0
174
0
175
1
176
1
 91
33
178
0
145
0.0
301
CELL_VALUE
 90
4
  1
Mounting Hole Depth
304
ACVALUE_END
170
5
140
0.125
171
1
172
0
173
0
174
0
175
2
176
1
 91
33
178
0
145
0.0
301
CELL_VALUE
 90
4
  1
Through
304
ACVALUE_END
170
5
140
0.125
171
1
172
0
173
1
174
0
175
1
176
1
 91
1
178
0
145
0.0
170
1
171
1
172
0
173
0
174
0
175
1
176
1
 91
33
178
0
145
0.0
301
CELL_VALUE
 90
4
  1
Mounting Hole Quantity
304
ACVALUE_END
170
5
140
0.125
171
1
172
0
173
0
174
0
175
2
176
1
 91
33
178
0
145
0.0
301
CELL_VALUE
 90
4
  1
4
304
ACVALUE_END
170
5
140
0.125
171
1
172
0
173
1
174
0
175
1
176
1
 91
1
178
0
145
0.0
170
1
  0
ACAD_TABLE
  5
28B
100
AcDbEntity
  8
0
 62
2
  6
CONTINUOUS
100
AcDbBlockReference
  2
*T3
 10
0.52125
 20
1.459
 30
0.0
100
AcDbTable
342
       3A8
343
211
 11
1.0
 21
0.0
 31
0.0
 90
22
 91
3
 92
3
 93
16
 94
0
 95
0
 96
0
 41
0.05
141
0.34375
141
0.344
141
0.25
142
1.3
142
2.0
142
1.3
171
1
172
0
173
0
174
0
175
3
176
1
 91
33
178
0
145
0.0
301
CELL_VALUE
 90
4
  1
Port Headings
304
ACVALUE_END
170
5
140
0.145
171
1
172
0
173
1
174
0
175
1
176
1
 91
1
178
0
145
0.0
170
1
171
1
172
0
173
1
174
0
175
1
176
1
 91
1
178
0
145
0.0
170
1
171
1
172
0
173
0
174
0
175
1
176
1
 91
33
178
0
145
0.0
301
CELL_VALUE
 90
4
  1
Product
304
ACVALUE_END
170
5
140
0.145
171
1
172
0
173
0
174
0
175
1
176
1
 91
33
178
0
145
0.0
301
CELL_VALUE
 90
4
  1
Port
304
ACVALUE_END
170
5
140
0.145
171
1
172
0
173
0
174
0
175
1
176
1
 91
33
178
0
145
0.0
301
CELL_VALUE
 90
4
  1
Size
304
ACVALUE_END
170
5
140
0.145
171
1
172
0
173
0
174
0
175
1
176
1
 91
33
178
0
145
0.0
301
CELL_VALUE
 90
4
  1
FSW
304
ACVALUE_END
170
5
140
0.125
171
1
172
0
173
0
174
0
175
1
176
1
 91
33
178
0
145
0.0
301
CELL_VALUE
 90
4
  1
Ports A, B, P, T
304
ACVALUE_END
170
5
140
0.125
171
1
172
0
173
0
174
0
175
1
176
1
 91
33
178
0
145
0.0
301
CELL_VALUE
 90
4
  1
3/4" BSPP
304
ACVALUE_END
170
5
140
0.125
  0
MTEXT
  5
28C
100
AcDbEntity
  8
0
100
AcDbMText
 62
2
  6
CONTINUOUS
  7
STANDARD
 71
1
 72
1
 10
0.52125
 20
5.75995
 30
0.0
 11
1.0
 21
0.0
 31
0.0
 44
0.6
  3
Notes\P \P1. Important: Carefully consider\P   the maximum system pressure. The\P   pressure rating of the manifold is\P   dependent on the manifold material,\P   with the port type/size a secondary\P   consideration. Manifolds\P   constructed of alu
  1
minum are not\P   rated for pressures higher than\P   3000 psi (210 bar), regardless of\P   the port type/size specified.
 40
0.1
 41
3.04
  0
LINE
  5
28D
100
AcDbEntity
  8
0
100
AcDbLine
 62
7
  6
CONTINUOUS
 10
0.30125
 20
0.30125
 11
0.30125
 21
16.69875
  0
LINE
  5
28E
100
AcDbEntity
  8
0
100
AcDbLine
 62
7
  6
CONTINUOUS
 10
0.30125
 20
0.30125
 11
21.69875
 21
0.30125
  0
LINE
  5
28F
100
AcDbEntity
  8
0
100
AcDbLine
 62
7
  6
CONTINUOUS
 10
0.30125
 20
16.69875
 11
21.69875
 21
16.69875
  0
LINE
  5
290
100
AcDbEntity
  8
0
100
AcDbLine
 62
7
  6
CONTINUOUS
 10
21.69875
 20
0.30125
 11
21.69875
 21
16.69875
  0
LINE
  5
291
100
AcDbEntity
  8
0
100
AcDbLine
 62
7
  6
CONTINUOUS
 10
8.785000436
 20
10.533807827
 11
9.3512960299
 21
11.080807399
  0
LINE
  5
292
100
AcDbEntity
  8
02___PRT_ALL_AXES
100
AcDbLine
 62
7
  6
CONTINUOUS
 10
10.0073164946
 20
10.7929615081
 11
10.0066480305
 21
10.7923288954
  0
LINE
  5
293
100
AcDbEntity
  8
02___PRT_ALL_AXES
100
AcDbLine
 62
7
  6
CONTINUOUS
 10
9.9620309985
 20
10.7508195922
 11
10.0073123547
 21
10.7929586477
  0
LINE
  5
294
100
AcDbEntity
  8
0
100
AcDbLine
 62
7
  6
CONTINUOUS
 10
12.6487039701
 20
5.919192601
 11
8.785000436
 21
6.1871413512
  0
LINE
  5
295
100
AcDbEntity
  8
0
100
AcDbLine
 62
4
  6
CONTINUOUS
 10
10.6733855937
 20
6.1431149098
 11
10.7168522574
 21
6.1401004864
  0
LINE
  5
296
100
AcDbEntity
  8
0
100
AcDbLine
 62
7
  6
CONTINUOUS
 10
8.785000436
 20
6.1871413512
 11
8.785000436
 21
10.533807827
  0
LINE
  5
297
100
AcDbEntity
  8
0
100
AcDbLine
 62
4
  6
CONTINUOUS
 10
8.8695189511
 20
7.5673836678
 11
8.8695189511
 21
7.4514725644
  0
LINE
  5
298
100
AcDbEntity
  8
0
100
AcDbLine
 62
4
  6
CONTINUOUS
 10
11.5871056245
 20
6.332820571
 11
11.5595077374
 21
6.3347344909
  0
LINE
  5
299
100
AcDbEntity
  8
0
100
AcDbLine
 62
4
  6
CONTINUOUS
 10
11.5263902951
 20
6.3370311934
 11
11.5098315555
 21
6.3381795458
  0
LINE
  5
29A
100
AcDbEntity
  8
0
100
AcDbLine
 62
4
  6
CONTINUOUS
 10
11.4675148175
 20
6.3411142216
 11
11.4454365226
 21
6.3426453565
  0
LINE
  5
29B
100
AcDbEntity
  8
0
100
AcDbLine
 62
4
  6
CONTINUOUS
 10
11.1436996677
 20
6.3635708785
 11
11.1161017898
 21
6.3654847978
  0
LINE
  5
29C
100
AcDbEntity
  8
0
100
AcDbLine
 62
4
  6
CONTINUOUS
 10
11.3184862533
 20
6.3514493876
 11
11.3516037141
 21
6.3491526839
  0
LINE
  5
29D
100
AcDbEntity
  8
0
100
AcDbLine
 62
4
  6
CONTINUOUS
 10
11.6294223993
 20
6.3298858927
 11
11.6625398416
 21
6.3275891902
  0
LINE
  5
29E
100
AcDbEntity
  8
0
100
AcDbLine
 62
4
  6
CONTINUOUS
 10
11.1933758542
 20
6.3822041297
 11
11.222813593
 21
6.3801626156
  0
LINE
  5
29F
100
AcDbEntity
  8
0
100
AcDbLine
 62
4
  6
CONTINUOUS
 10
11.6515006942
 20
6.3725113705
 11
11.6294223993
 21
6.3740425055
  0
LINE
  5
2A0
100
AcDbEntity
  8
0
100
AcDbLine
 62
4
  6
CONTINUOUS
 10
11.3405645666
 20
6.3940748642
 11
11.3184862533
 21
6.3956060004
  0
LINE
  5
2A1
100
AcDbEntity
  8
0
100
AcDbLine
 62
4
  6
CONTINUOUS
 10
11.1161017898
 20
6.4427588668
 11
11.1436996677
 21
6.4408449475
  0
LINE
  5
2A2
100
AcDbEntity
  8
0
100
AcDbLine
 62
4
  6
CONTINUOUS
 10
11.2522513318
 20
6.433316864
 11
11.29640794
 21
6.4302545928
  0
LINE
  5
2A3
100
AcDbEntity
  8
0
100
AcDbLine
 62
4
  6
CONTINUOUS
 10
11.3184862533
 20
6.4287234566
 11
11.3516037141
 21
6.4264267529
  0
LINE
  5
2A4
100
AcDbEntity
  8
0
100
AcDbLine
 62
4
  6
CONTINUOUS
 10
11.4454365226
 20
6.4199194255
 11
11.4675148175
 21
6.4183882906
  0
LINE
  5
2A5
100
AcDbEntity
  8
0
100
AcDbLine
 62
4
  6
CONTINUOUS
 10
11.5098315555
 20
6.4154536148
 11
11.5263902951
 21
6.4143052623
  0
LINE
  5
2A6
100
AcDbEntity
  8
0
100
AcDbLine
 62
4
  6
CONTINUOUS
 10
11.5595077374
 20
6.4120085599
 11
11.5871056245
 21
6.4100946399
  0
LINE
  5
2A7
100
AcDbEntity
  8
0
100
AcDbLine
 62
4
  6
CONTINUOUS
 10
11.6294223993
 20
6.4071599616
 11
11.6625398416
 21
6.4048632592
  0
LINE
  5
2A8
100
AcDbEntity
  8
0
100
AcDbLine
 62
4
  6
CONTINUOUS
 10
11.3626426824
 20
6.5183900806
 11
11.3847209865
 21
6.516858945
  0
LINE
  5
2A9
100
AcDbEntity
  8
0
100
AcDbLine
 62
4
  6
CONTINUOUS
 10
11.3350448023
 20
6.5644606129
 11
11.3019273438
 21
6.5667573164
  0
LINE
  5
2AA
100
AcDbEntity
  8
0
100
AcDbLine
 62
4
  6
CONTINUOUS
 10
11.3019273438
 20
6.5998747726
 11
11.3350448023
 21
6.597578069
  0
LINE
  5
2AB
100
AcDbEntity
  8
0
100
AcDbLine
 62
4
  6
CONTINUOUS
 10
11.3681622607
 20
6.5952813655
 11
11.3902405694
 21
6.5937502296
  0
LINE
  5
2AC
100
AcDbEntity
  8
0
100
AcDbLine
 62
4
  6
CONTINUOUS
 10
11.071945177
 20
6.4016645278
 11
11.1013829181
 21
6.384904143
  0
LINE
  5
2AD
100
AcDbEntity
  8
0
100
AcDbLine
 62
4
  6
CONTINUOUS
 10
11.3295251373
 20
6.7263830022
 11
11.3405642847
 21
6.7256174347
  0
LINE
  5
2AE
100
AcDbEntity
  8
0
100
AcDbLine
 62
4
  6
CONTINUOUS
 10
11.6993367793
 20
6.7191350656
 11
11.6772584108
 21
6.7206662057
  0
LINE
  5
2AF
100
AcDbEntity
  8
0
100
AcDbLine
 62
4
  6
CONTINUOUS
 10
11.6091836743
 20
6.7253872047
 11
11.5981445269
 21
6.7261527722
  0
LINE
  5
2B0
100
AcDbEntity
  8
0
100
AcDbLine
 62
4
  6
CONTINUOUS
 10
11.5153508658
 20
6.731894532
 11
11.4932725709
 21
6.733425667
  0
LINE
  5
2B1
100
AcDbEntity
  8
0
100
AcDbLine
 62
4
  6
CONTINUOUS
 10
11.4104789098
 20
6.7391674269
 11
11.3884006149
 21
6.7406985619
  0
LINE
  5
2B2
100
AcDbEntity
  8
0
100
AcDbLine
 62
4
  6
CONTINUOUS
 10
11.0369875855
 20
6.7650691382
 11
11.0590658914
 21
6.7635380025
  0
LINE
  5
2B3
100
AcDbEntity
  8
0
100
AcDbLine
 62
4
  6
CONTINUOUS
 10
11.1032224996
 20
6.7604757313
 11
11.1197812345
 21
6.7593273792
  0
LINE
  5
2B4
100
AcDbEntity
  8
0
100
AcDbLine
 62
4
  6
CONTINUOUS
 10
11.5429487528
 20
6.7299806121
 11
11.5705466398
 21
6.7280666921
  0
LINE
  5
2B5
100
AcDbEntity
  8
0
100
AcDbLine
 62
4
  6
CONTINUOUS
 10
11.7269346295
 20
6.7172211482
 11
11.7490129244
 21
6.7156900132
  0
LINE
  5
2B6
100
AcDbEntity
  8
0
100
AcDbLine
 62
4
  6
CONTINUOUS
 10
11.4932725709
 20
6.7610235494
 11
11.5153508658
 21
6.7594924145
  0
LINE
  5
2B7
100
AcDbEntity
  8
0
100
AcDbLine
 62
4
  6
CONTINUOUS
 10
11.5098313105
 20
6.7874730794
 11
11.4822334234
 21
6.7893869993
  0
LINE
  5
2B8
100
AcDbEntity
  8
0
100
AcDbLine
 62
4
  6
CONTINUOUS
 10
11.2743293632
 20
6.8038051949
 11
11.3019272503
 21
6.8018912749
  0
LINE
  5
2B9
100
AcDbEntity
  8
0
100
AcDbLine
 62
4
  6
CONTINUOUS
 10
11.3884006149
 20
6.7958943267
 11
11.4104789098
 21
6.7943631918
  0
LINE
  5
2BA
100
AcDbEntity
  8
0
100
AcDbLine
 62
4
  6
CONTINUOUS
 10
11.4325572415
 20
6.7928320542
 11
11.4546355364
 21
6.7913009193
  0
LINE
  5
2BB
100
AcDbEntity
  8
0
100
AcDbLine
 62
4
  6
CONTINUOUS
 10
11.6772584108
 20
6.7758619705
 11
11.6993367793
 21
6.7743308305
  0
LINE
  5
2BC
100
AcDbEntity
  8
0
100
AcDbLine
 62
4
  6
CONTINUOUS
 10
11.7269346295
 20
6.7724169131
 11
11.7490129244
 21
6.7708857781
  0
LINE
  5
2BD
100
AcDbEntity
  8
0
100
AcDbLine
 62
4
  6
CONTINUOUS
 10
11.0425071621
 20
6.8419604232
 11
11.0645854674
 21
6.8404292876
  0
LINE
  5
2BE
100
AcDbEntity
  8
0
100
AcDbLine
 62
4
  6
CONTINUOUS
 10
11.6423011167
 20
6.8003645712
 11
11.6441409684
 21
6.800236977
  0
LINE
  5
2BF
100
AcDbEntity
  8
0
100
AcDbLine
 62
4
  6
CONTINUOUS
 10
11.1925707548
 20
10.2702496645
 11
11.1780818669
 21
10.2615952159
  0
LINE
  5
2C0
100
AcDbEntity
  8
0
100
AcDbLine
 62
4
  6
CONTINUOUS
 10
11.7490129244
 20
6.741448037
 11
11.7269346295
 21
6.7466588893
  0
LINE
  5
2C1
100
AcDbEntity
  8
0
100
AcDbLine
 62
4
  6
CONTINUOUS
 10
11.6846181365
 20
6.3738943854
 11
11.7140558753
 21
6.3571339996
  0
LINE
  5
2C2
100
AcDbEntity
  8
0
100
AcDbLine
 62
4
  6
CONTINUOUS
 10
11.3884006149
 20
6.7406985619
 11
11.3773614675
 21
6.7469837059
  0
LINE
  5
2C3
100
AcDbEntity
  8
0
100
AcDbLine
 62
4
  6
CONTINUOUS
 10
11.4932725709
 20
6.733425667
 11
11.4822334234
 21
6.7397108111
  0
LINE
  5
2C4
100
AcDbEntity
  8
0
100
AcDbLine
 62
4
  6
CONTINUOUS
 10
11.0701050434
 20
6.7848507411
 11
11.0314680089
 21
6.820647687
  0
LINE
  5
2C5
100
AcDbEntity
  8
0
100
AcDbLine
 62
4
  6
CONTINUOUS
 10
11.3957601432
 20
6.5381716833
 11
11.3571231087
 21
6.5739686292
  0
LINE
  5
2C6
100
AcDbEntity
  8
0
100
AcDbLine
 62
4
  6
CONTINUOUS
 10
11.1436996677
 20
6.4408449475
 11
11.1547388197
 21
6.4290402276
  0
LINE
  5
2C7
100
AcDbEntity
  8
0
100
AcDbLine
 62
4
  6
CONTINUOUS
 10
11.0314680089
 20
6.7709714987
 11
11.0369875855
 21
6.7650691382
  0
LINE
  5
2C8
100
AcDbEntity
  8
0
100
AcDbLine
 62
4
  6
CONTINUOUS
 10
11.4454365226
 20
6.3426453565
 11
11.4343973752
 21
6.3544500772
  0
LINE
  5
2C9
100
AcDbEntity
  8
0
100
AcDbLine
 62
4
  6
CONTINUOUS
 10
11.0921833475
 20
6.7722804523
 11
11.1032224996
 21
6.7604757313
  0
LINE
  5
2CA
100
AcDbEntity
  8
0
100
AcDbLine
 62
4
  6
CONTINUOUS
 10
11.5098315555
 20
6.3381795458
 11
11.4987924081
 21
6.3499842665
  0
LINE
  5
2CB
100
AcDbEntity
  8
0
100
AcDbLine
 62
4
  6
CONTINUOUS
 10
11.1998151988
 20
10.2794065238
 11
11.1925707548
 21
10.2702496645
  0
LINE
  5
2CC
100
AcDbEntity
  8
0
100
AcDbLine
 62
4
  6
CONTINUOUS
 10
8.8332967313
 20
7.5698956873
 11
8.905741171
 21
7.5648716483
  0
LINE
  5
2CD
100
AcDbEntity
  8
0
100
AcDbLine
 62
4
  6
CONTINUOUS
 10
11.7269346295
 20
6.7466588893
 11
11.7214150742
 21
6.7507213891
  0
LINE
  5
2CE
100
AcDbEntity
  8
0
100
AcDbLine
 62
4
  6
CONTINUOUS
 10
11.7545324797
 20
6.7373855372
 11
11.7490129244
 21
6.741448037
  0
LINE
  5
2CF
100
AcDbEntity
  8
0
100
AcDbLine
 62
4
  6
CONTINUOUS
 10
11.3571231087
 20
6.5242924409
 11
11.3626426824
 21
6.5183900806
  0
LINE
  5
2D0
100
AcDbEntity
  8
0
100
AcDbLine
 62
4
  6
CONTINUOUS
 10
11.0645854674
 20
6.8404292876
 11
11.0701050434
 21
6.8345269253
  0
LINE
  5
2D1
100
AcDbEntity
  8
0
100
AcDbLine
 62
4
  6
CONTINUOUS
 10
11.5263902951
 20
6.4143052623
 11
11.5374294425
 21
6.4025005428
  0
LINE
  5
2D2
100
AcDbEntity
  8
0
100
AcDbLine
 62
4
  6
CONTINUOUS
 10
11.3902405694
 20
6.5937502296
 11
11.3957601432
 21
6.5878478675
  0
LINE
  5
2D3
100
AcDbEntity
  8
0
100
AcDbLine
 62
4
  6
CONTINUOUS
 10
11.5871056245
 20
6.4100946399
 11
11.5981447719
 21
6.3982899204
  0
LINE
  5
2D4
100
AcDbEntity
  8
0
100
AcDbLine
 62
4
  6
CONTINUOUS
 10
11.3019272503
 20
6.8018912749
 11
11.307446824
 21
6.7959889128
  0
LINE
  5
2D5
100
AcDbEntity
  8
0
100
AcDbLine
 62
4
  6
CONTINUOUS
 10
10.6951189256
 20
6.2188817659
 11
10.7313411454
 21
6.100458643
  0
LINE
  5
2D6
100
AcDbEntity
  8
0
100
AcDbLine
 62
7
  6
CONTINUOUS
 10
10.217295886
 20
10.8196544285
 11
10.217295886
 21
10.7357864054
  0
LINE
  5
2D7
100
AcDbEntity
  8
0
100
AcDbLine
 62
4
  6
CONTINUOUS
 10
11.5374291607
 20
6.7358829737
 11
11.5429487528
 21
6.7299806121
  0
LINE
  5
2D8
100
AcDbEntity
  8
0
100
AcDbLine
 62
4
  6
CONTINUOUS
 10
11.5981445269
 20
6.7261527722
 11
11.5926249347
 21
6.7320551338
  0
LINE
  5
2D9
100
AcDbEntity
  8
0
100
AcDbLine
 62
4
  6
CONTINUOUS
 10
11.6772584108
 20
6.7206662057
 11
11.6717388555
 21
6.7265685647
  0
LINE
  5
2DA
100
AcDbEntity
  8
0
100
AcDbLine
 62
4
  6
CONTINUOUS
 10
11.7214150742
 20
6.7231235073
 11
11.7269346295
 21
6.7172211482
  0
LINE
  5
2DB
100
AcDbEntity
  8
0
100
AcDbLine
 62
7
  6
CONTINUOUS
 10
10.3918489651
 20
10.8075491313
 11
10.3918489651
 21
10.7502661903
  0
LINE
  5
2DC
100
AcDbEntity
  8
0
100
AcDbLine
 62
4
  6
CONTINUOUS
 10
11.7490129244
 20
6.7708857781
 11
11.7545324797
 21
6.7649834173
  0
LINE
  5
2DD
100
AcDbEntity
  8
0
100
AcDbLine
 62
4
  6
CONTINUOUS
 10
11.4546355364
 20
6.7913009193
 11
11.4583152399
 21
6.7855261527
  0
LINE
  5
2DE
100
AcDbEntity
  8
0
100
AcDbLine
 62
4
  6
CONTINUOUS
 10
11.1528986861
 20
6.834304745
 11
11.1915357206
 21
6.7543511886
  0
LINE
  5
2DF
100
AcDbEntity
  8
0
100
AcDbLine
 62
4
  6
CONTINUOUS
 10
12.4844964966
 20
8.1367550686
 11
12.5352076044
 21
8.1332382413
  0
LINE
  5
2E0
100
AcDbEntity
  8
0
100
AcDbLine
 62
4
  6
CONTINUOUS
 10
11.5153508658
 20
6.7760511449
 11
11.5098313105
 21
6.7874730794
  0
LINE
  5
2E1
100
AcDbEntity
  8
0
100
AcDbLine
 62
4
  6
CONTINUOUS
 10
11.2080947236
 20
6.4363791352
 11
11.2301730369
 21
6.35757393
  0
LINE
  5
2E2
100
AcDbEntity
  8
0
100
AcDbLine
 62
7
  6
CONTINUOUS
 10
12.6487039701
 20
10.2658590769
 11
13.214999564
 21
10.8128586488
  0
LINE
  5
2E3
100
AcDbEntity
  8
0
100
AcDbLine
 62
4
  6
CONTINUOUS
 10
12.4844964966
 20
8.2043698766
 11
12.5352076044
 21
8.2008530493
  0
LINE
  5
2E4
100
AcDbEntity
  8
0
100
AcDbLine
 62
4
  6
CONTINUOUS
 10
12.5352076044
 20
8.2491493447
 11
12.4844964966
 21
8.252666172
  0
LINE
  5
2E5
100
AcDbEntity
  8
0
100
AcDbLine
 62
4
  6
CONTINUOUS
 10
11.3295251373
 20
6.7999773549
 11
11.3460838769
 21
6.7436332376
  0
LINE
  5
2E6
100
AcDbEntity
  8
0
100
AcDbLine
 62
4
  6
CONTINUOUS
 10
11.450955908
 20
6.5674613024
 11
11.4675146292
 21
6.5111171864
  0
LINE
  5
2E7
100
AcDbEntity
  8
0
100
AcDbLine
 62
4
  6
CONTINUOUS
 10
11.4178384473
 20
6.5918363102
 11
11.4343971776
 21
6.5134138894
  0
LINE
  5
2E8
100
AcDbEntity
  8
0
100
AcDbLine
 62
4
  6
CONTINUOUS
 10
11.0314680089
 20
6.820647687
 11
11.0314680089
 21
6.8316868391
  0
LINE
  5
2E9
100
AcDbEntity
  8
0
100
AcDbLine
 62
4
  6
CONTINUOUS
 10
11.0701050434
 20
6.7738115879
 11
11.0701050434
 21
6.7848507411
  0
LINE
  5
2EA
100
AcDbEntity
  8
0
100
AcDbLine
 62
4
  6
CONTINUOUS
 10
11.0921833475
 20
6.8385153681
 11
11.0921833475
 21
6.7722804523
  0
LINE
  5
2EB
100
AcDbEntity
  8
0
100
AcDbLine
 62
4
  6
CONTINUOUS
 10
11.1161017898
 20
6.3654847978
 11
11.1161017898
 21
6.4427588668
  0
LINE
  5
2EC
100
AcDbEntity
  8
0
100
AcDbLine
 62
4
  6
CONTINUOUS
 10
11.130820382
 20
6.7696009649
 11
11.130820382
 21
6.8358358806
  0
LINE
  5
2ED
100
AcDbEntity
  8
0
100
AcDbLine
 62
4
  6
CONTINUOUS
 10
11.141859647
 20
10.2061516837
 11
11.141859647
 21
10.3220627871
  0
LINE
  5
2EE
100
AcDbEntity
  8
0
100
AcDbLine
 62
4
  6
CONTINUOUS
 10
11.1528986861
 20
6.7570306761
 11
11.1528986861
 21
6.834304745
  0
LINE
  5
2EF
100
AcDbEntity
  8
0
100
AcDbLine
 62
4
  6
CONTINUOUS
 10
11.1547388197
 20
6.4290402276
 11
11.1547388197
 21
6.3738444639
  0
LINE
  5
2F0
100
AcDbEntity
  8
0
100
AcDbLine
 62
4
  6
CONTINUOUS
 10
11.1915357206
 20
6.7543511886
 11
11.1915357206
 21
6.8316252576
  0
LINE
  5
2F1
100
AcDbEntity
  8
0
100
AcDbLine
 62
4
  6
CONTINUOUS
 10
11.1998151988
 20
10.2987250364
 11
11.1998151988
 21
10.2794065238
  0
LINE
  5
2F2
100
AcDbEntity
  8
0
100
AcDbLine
 62
4
  6
CONTINUOUS
 10
11.2743293632
 20
6.74860943
 11
11.2743293632
 21
6.825883499
  0
LINE
  5
2F3
100
AcDbEntity
  8
0
100
AcDbLine
 62
4
  6
CONTINUOUS
 10
11.2743296451
 20
6.3545116588
 11
11.2743296451
 21
6.4317857278
  0
LINE
  5
2F4
100
AcDbEntity
  8
0
100
AcDbLine
 62
4
  6
CONTINUOUS
 10
11.3019273438
 20
6.5226007036
 11
11.3019273438
 21
6.5998747726
  0
LINE
  5
2F5
100
AcDbEntity
  8
0
100
AcDbLine
 62
4
  6
CONTINUOUS
 10
11.307446824
 20
6.7959889128
 11
11.307446824
 21
6.7463127263
  0
LINE
  5
2F6
100
AcDbEntity
  8
0
100
AcDbLine
 62
4
  6
CONTINUOUS
 10
11.3184862533
 20
6.3514493876
 11
11.3184862533
 21
6.4287234566
  0
LINE
  5
2F7
100
AcDbEntity
  8
0
100
AcDbLine
 62
4
  6
CONTINUOUS
 10
11.3571231087
 20
6.5739686292
 11
11.3571231087
 21
6.5850077812
  0
LINE
  5
2F8
100
AcDbEntity
  8
0
100
AcDbLine
 62
4
  6
CONTINUOUS
 10
11.3773614675
 20
6.7469837059
 11
11.3773614675
 21
6.7911403159
  0
LINE
  5
2F9
100
AcDbEntity
  8
0
100
AcDbLine
 62
4
  6
CONTINUOUS
 10
11.3957601432
 20
6.5271325301
 11
11.3957601432
 21
6.5381716833
  0
LINE
  5
2FA
100
AcDbEntity
  8
0
100
AcDbLine
 62
4
  6
CONTINUOUS
 10
11.4104789098
 20
6.8164414959
 11
11.4104789098
 21
6.7391674269
  0
LINE
  5
2FB
100
AcDbEntity
  8
0
100
AcDbLine
 62
4
  6
CONTINUOUS
 10
11.4325572415
 20
6.7376362894
 11
11.4325572415
 21
6.7928320542
  0
LINE
  5
2FC
100
AcDbEntity
  8
0
100
AcDbLine
 62
4
  6
CONTINUOUS
 10
11.4343973752
 20
6.3544500772
 11
11.4343973752
 21
6.4096458409
  0
LINE
  5
2FD
100
AcDbEntity
  8
0
100
AcDbLine
 62
4
  6
CONTINUOUS
 10
11.4583152399
 20
6.7855261527
 11
11.4583152399
 21
6.7744870006
  0
LINE
  5
2FE
100
AcDbEntity
  8
0
100
AcDbLine
 62
4
  6
CONTINUOUS
 10
11.4822334234
 20
6.7397108111
 11
11.4822334234
 21
6.7562695409
  0
LINE
  5
2FF
100
AcDbEntity
  8
0
100
AcDbLine
 62
4
  6
CONTINUOUS
 10
10.6588967057
 20
6.1054826819
 11
10.6951189256
 21
6.2188817659
  0
LINE
  5
300
100
AcDbEntity
  8
0
100
AcDbLine
 62
4
  6
CONTINUOUS
 10
11.4987924081
 20
6.3499842665
 11
11.4987924081
 21
6.4051800302
  0
LINE
  5
301
100
AcDbEntity
  8
0
100
AcDbLine
 62
4
  6
CONTINUOUS
 10
11.5153508658
 20
6.731894532
 11
11.5153508658
 21
6.7760511449
  0
LINE
  5
302
100
AcDbEntity
  8
0
100
AcDbLine
 62
4
  6
CONTINUOUS
 10
11.5374291607
 20
6.785559162
 11
11.5374291607
 21
6.7358829737
  0
LINE
  5
303
100
AcDbEntity
  8
0
100
AcDbLine
 62
4
  6
CONTINUOUS
 10
11.5374294425
 20
6.4025005428
 11
11.5374294425
 21
6.3473047791
  0
LINE
  5
304
100
AcDbEntity
  8
0
100
AcDbLine
 62
4
  6
CONTINUOUS
 10
11.5595077374
 20
6.3347344909
 11
11.5595077374
 21
6.4120085599
  0
LINE
  5
305
100
AcDbEntity
  8
0
100
AcDbLine
 62
4
  6
CONTINUOUS
 10
11.5705466398
 20
6.7280666921
 11
11.5705466398
 21
6.783262457
  0
LINE
  5
306
100
AcDbEntity
  8
0
100
AcDbLine
 62
4
  6
CONTINUOUS
 10
11.5926249347
 20
6.7320551338
 11
11.5926249347
 21
6.8038096261
  0
LINE
  5
307
100
AcDbEntity
  8
0
100
AcDbLine
 62
4
  6
CONTINUOUS
 10
11.5981447719
 20
6.3982899204
 11
11.5981447719
 21
6.3430941567
  0
LINE
  5
308
100
AcDbEntity
  8
0
100
AcDbLine
 62
4
  6
CONTINUOUS
 10
11.6294223993
 20
6.3298858927
 11
11.6294223993
 21
6.4071599616
  0
LINE
  5
309
100
AcDbEntity
  8
0
100
AcDbLine
 62
4
  6
CONTINUOUS
 10
11.6423011167
 20
6.7230905022
 11
11.6423011167
 21
6.7782862671
  0
LINE
  5
30A
100
AcDbEntity
  8
0
100
AcDbLine
 62
4
  6
CONTINUOUS
 10
11.6423011167
 20
6.7948449929
 11
11.6423011167
 21
6.8003645712
  0
LINE
  5
30B
100
AcDbEntity
  8
0
100
AcDbLine
 62
4
  6
CONTINUOUS
 10
11.6717388555
 20
6.7265685647
 11
11.6717388555
 21
6.7707251747
  0
LINE
  5
30C
100
AcDbEntity
  8
0
100
AcDbLine
 62
4
  6
CONTINUOUS
 10
11.7214150742
 20
6.7507213891
 11
11.7214150742
 21
6.7672801172
  0
LINE
  5
30D
100
AcDbEntity
  8
0
100
AcDbLine
 62
4
  6
CONTINUOUS
 10
11.7545324797
 20
6.7208268074
 11
11.7545324797
 21
6.7373855372
  0
LINE
  5
30E
100
AcDbEntity
  8
0
100
AcDbLine
 62
4
  6
CONTINUOUS
 10
11.4675146292
 20
6.5111171864
 11
11.4840733688
 21
6.5872429028
  0
LINE
  5
30F
100
AcDbEntity
  8
0
100
AcDbLine
 62
4
  6
CONTINUOUS
 10
11.1860164195
 20
6.3606362018
 11
11.2080947236
 21
6.4363791352
  0
LINE
  5
310
100
AcDbEntity
  8
0
100
AcDbLine
 62
4
  6
CONTINUOUS
 10
11.3405642847
 20
6.7256174347
 11
11.3626425796
 21
6.7976806525
  0
LINE
  5
311
100
AcDbEntity
  8
0
100
AcDbLine
 62
4
  6
CONTINUOUS
 10
11.4343971776
 20
6.5134138894
 11
11.450955908
 21
6.5674613024
  0
LINE
  5
312
100
AcDbEntity
  8
0
100
AcDbLine
 62
4
  6
CONTINUOUS
 10
11.6441409684
 20
6.800236977
 11
11.6423011167
 21
6.7948449929
  0
LINE
  5
313
100
AcDbEntity
  8
0
100
AcDbLine
 62
7
  6
CONTINUOUS
 10
10.0895141994
 20
10.786582107
 11
10.1362855918
 21
10.7414044884
  0
LINE
  5
314
100
AcDbEntity
  8
0
100
AcDbLine
 62
4
  6
CONTINUOUS
 10
12.5496964923
 20
8.1805297255
 11
12.5352076044
 21
8.2008530493
  0
LINE
  5
315
100
AcDbEntity
  8
0
100
AcDbLine
 62
4
  6
CONTINUOUS
 10
12.5424520483
 20
8.2389876845
 11
12.5352076044
 21
8.2491493447
  0
LINE
  5
316
100
AcDbEntity
  8
0
100
AcDbLine
 62
4
  6
CONTINUOUS
 10
12.5352076044
 20
8.2008530493
 11
12.5424520483
 21
8.2100099087
  0
LINE
  5
317
100
AcDbEntity
  8
0
100
AcDbLine
 62
4
  6
CONTINUOUS
 10
11.0314680089
 20
6.8316868391
 11
11.0425071621
 21
6.8419604232
  0
LINE
  5
318
100
AcDbEntity
  8
0
100
AcDbLine
 62
4
  6
CONTINUOUS
 10
11.0590658914
 20
6.7635380025
 11
11.0701050434
 21
6.7738115879
  0
LINE
  5
319
100
AcDbEntity
  8
0
100
AcDbLine
 62
4
  6
CONTINUOUS
 10
11.1197812345
 20
6.7593273792
 11
11.130820382
 21
6.7696009649
  0
LINE
  5
31A
100
AcDbEntity
  8
02___PRT_ALL_AXES
100
AcDbLine
 62
7
  6
CONTINUOUS
 10
10.5661035584
 20
10.7508195922
 11
10.5208222022
 21
10.7929586477
  0
LINE
  5
31B
100
AcDbEntity
  8
0
100
AcDbLine
 62
7
  6
CONTINUOUS
 10
10.4386203575
 20
10.7623715127
 11
10.3918489651
 21
10.8075491313
  0
LINE
  5
31C
100
AcDbEntity
  8
0
100
AcDbLine
 62
4
  6
CONTINUOUS
 10
11.1925707548
 20
10.3088867035
 11
11.1998151988
 21
10.2987250364
  0
LINE
  5
31D
100
AcDbEntity
  8
0
100
AcDbLine
 62
4
  6
CONTINUOUS
 10
12.4844964966
 20
8.252666172
 11
12.4844964966
 21
8.1367550686
  0
LINE
  5
31E
100
AcDbEntity
  8
0
100
AcDbLine
 62
4
  6
CONTINUOUS
 10
12.5424520483
 20
8.2100099087
 11
12.5424520483
 21
8.2389876845
  0
LINE
  5
31F
100
AcDbEntity
  8
0
100
AcDbLine
 62
4
  6
CONTINUOUS
 10
12.5496964923
 20
8.1515519513
 11
12.5496964923
 21
8.1805297255
  0
LINE
  5
320
100
AcDbEntity
  8
0
100
AcDbLine
 62
4
  6
CONTINUOUS
 10
12.5352076044
 20
8.1332382413
 11
12.5496964923
 21
8.1515519513
  0
LINE
  5
321
100
AcDbEntity
  8
0
100
AcDbLine
 62
4
  6
CONTINUOUS
 10
11.1780818669
 20
10.3195507676
 11
11.1925707548
 21
10.3088867035
  0
LINE
  5
322
100
AcDbEntity
  8
0
100
AcDbLine
 62
7
  6
CONTINUOUS
 10
12.6487039701
 20
10.2658590769
 11
12.6487039701
 21
5.919192601
  0
LINE
  5
323
100
AcDbEntity
  8
0
100
AcDbLine
 62
4
  6
CONTINUOUS
 10
11.3571231087
 20
6.5850077812
 11
11.3681622607
 21
6.5952813655
  0
LINE
  5
324
100
AcDbEntity
  8
0
100
AcDbLine
 62
4
  6
CONTINUOUS
 10
11.1547388197
 20
6.3738444639
 11
11.1436996677
 21
6.3635708785
  0
LINE
  5
325
100
AcDbEntity
  8
0
100
AcDbLine
 62
4
  6
CONTINUOUS
 10
11.3847209865
 20
6.516858945
 11
11.3957601432
 21
6.5271325301
  0
LINE
  5
326
100
AcDbEntity
  8
0
100
AcDbLine
 62
4
  6
CONTINUOUS
 10
11.6717388555
 20
6.7707251747
 11
11.6772584108
 21
6.7758619705
  0
LINE
  5
327
100
AcDbEntity
  8
0
100
AcDbLine
 62
4
  6
CONTINUOUS
 10
11.7214150742
 20
6.7672801172
 11
11.7269346295
 21
6.7724169131
  0
LINE
  5
328
100
AcDbEntity
  8
0
100
AcDbLine
 62
4
  6
CONTINUOUS
 10
11.7490129244
 20
6.7156900132
 11
11.7545324797
 21
6.7208268074
  0
LINE
  5
329
100
AcDbEntity
  8
0
100
AcDbLine
 62
4
  6
CONTINUOUS
 10
11.4343973752
 20
6.4096458409
 11
11.4454365226
 21
6.4199194255
  0
LINE
  5
32A
100
AcDbEntity
  8
0
100
AcDbLine
 62
4
  6
CONTINUOUS
 10
11.3773614675
 20
6.7911403159
 11
11.3884006149
 21
6.7958943267
  0
LINE
  5
32B
100
AcDbEntity
  8
0
100
AcDbLine
 62
4
  6
CONTINUOUS
 10
11.4822334234
 20
6.7562695409
 11
11.4932725709
 21
6.7610235494
  0
LINE
  5
32C
100
AcDbEntity
  8
0
100
AcDbLine
 62
4
  6
CONTINUOUS
 10
11.1780818669
 20
10.2615952159
 11
11.141859647
 21
10.2641072354
  0
LINE
  5
32D
100
AcDbEntity
  8
0
100
AcDbLine
 62
4
  6
CONTINUOUS
 10
11.141859647
 20
10.3220627871
 11
11.1780818669
 21
10.3195507676
  0
LINE
  5
32E
100
AcDbEntity
  8
0
100
AcDbLine
 62
4
  6
CONTINUOUS
 10
11.4987924081
 20
6.4051800302
 11
11.5098315555
 21
6.4154536148
  0
LINE
  5
32F
100
AcDbEntity
  8
0
100
AcDbLine
 62
4
  6
CONTINUOUS
 10
11.5374294425
 20
6.3473047791
 11
11.5263902951
 21
6.3370311934
  0
LINE
  5
330
100
AcDbEntity
  8
0
100
AcDbLine
 62
4
  6
CONTINUOUS
 10
11.5981447719
 20
6.3430941567
 11
11.5871056245
 21
6.332820571
  0
LINE
  5
331
100
AcDbEntity
  8
0
100
AcDbLine
 62
4
  6
CONTINUOUS
 10
11.1013829181
 20
6.4143418852
 11
11.071945177
 21
6.4016645278
  0
LINE
  5
332
100
AcDbEntity
  8
0
100
AcDbLine
 62
7
  6
CONTINUOUS
 10
8.785000436
 20
10.533807827
 11
12.6487039701
 21
10.2658590769
  0
LINE
  5
333
100
AcDbEntity
  8
0
100
AcDbLine
 62
7
  6
CONTINUOUS
 10
13.214999564
 20
10.8128586488
 11
13.214999564
 21
6.466192173
  0
LINE
  5
334
100
AcDbEntity
  8
0
100
AcDbLine
 62
4
  6
CONTINUOUS
 10
11.7140558753
 20
6.3571339996
 11
11.6846181365
 21
6.3444566432
  0
LINE
  5
335
100
AcDbEntity
  8
0
100
AcDbLine
 62
7
  6
CONTINUOUS
 10
10.1362855918
 20
10.7414044884
 11
10.3108386708
 21
10.7292991913
  0
LINE
  5
336
100
AcDbEntity
  8
0
100
AcDbLine
 62
7
  6
CONTINUOUS
 10
10.3918489651
 20
10.8075491313
 11
10.217295886
 21
10.8196544285
  0
LINE
  5
337
100
AcDbEntity
  8
0
100
AcDbLine
 62
7
  6
CONTINUOUS
 10
10.3108386708
 20
10.7292991913
 11
10.4386203575
 21
10.7623715127
  0
LINE
  5
338
100
AcDbEntity
  8
0
100
AcDbLine
 62
7
  6
CONTINUOUS
 10
10.217295886
 20
10.8196544285
 11
10.0895141994
 21
10.786582107
  0
LINE
  5
339
100
AcDbEntity
  8
0
100
AcDbLine
 62
7
  6
CONTINUOUS
 10
9.3512960299
 20
11.080807399
 11
13.214999564
 21
10.8128586488
  0
LINE
  5
33A
100
AcDbEntity
  8
0
100
AcDbLine
 62
7
  6
CONTINUOUS
 10
12.6487039701
 20
5.919192601
 11
13.214999564
 21
6.466192173
  0
ARC
  5
33B
100
AcDbEntity
  8
0
100
AcDbCircle
 62
7
  6
CONTINUOUS
 10
10.2225064983
 20
8.21292412
 40
0.1932459114
100
AcDbArc
 50
260.7987006577
 51
262.2720444388
  0
ARC
  5
33C
100
AcDbEntity
  8
0
100
AcDbCircle
 62
7
  6
CONTINUOUS
 10
10.3052258273
 20
8.175217655
 40
0.1883235737
100
AcDbArc
 50
234.7447758223
 51
253.8245865288
  0
ARC
  5
33D
100
AcDbEntity
  8
0
100
AcDbCircle
 62
7
  6
CONTINUOUS
 10
10.3036681585
 20
8.1141379507
 40
0.1449725511
100
AcDbArc
 50
215.8004418253
 51
219.3768224367
  0
ARC
  5
33E
100
AcDbEntity
  8
0
100
AcDbCircle
 62
7
  6
CONTINUOUS
 10
10.0931396227
 20
9.3420785674
 40
0.1157297137
100
AcDbArc
 50
219.8151320998
 51
228.4173171895
  0
ARC
  5
33F
100
AcDbEntity
  8
0
100
AcDbCircle
 62
7
  6
CONTINUOUS
 10
12.1447662693
 20
9.1997977762
 40
0.1157297137
100
AcDbArc
 50
219.8151320998
 51
228.4173171896
  0
ARC
  5
340
100
AcDbEntity
  8
0
100
AcDbCircle
 62
7
  6
CONTINUOUS
 10
12.1447662693
 20
7.4485741844
 40
0.1157297137
100
AcDbArc
 50
219.8151320998
 51
228.4173171896
  0
ARC
  5
341
100
AcDbEntity
  8
0
100
AcDbCircle
 62
7
  6
CONTINUOUS
 10
10.0931396227
 20
7.5908549756
 40
0.1157297137
100
AcDbArc
 50
219.8151320998
 51
228.4173171895
  0
SPLINE
  5
342
100
AcDbEntity
  8
02___PRT_ALL_AXES
100
AcDbSpline
 62
7
  6
CONTINUOUS
 70
0
 71
3
 72
53
 73
49
 74
0
 42
0.0000001
 43
0.0000001
 44
0.0000000001
 40
0.0
 40
0.0
 40
0.0
 40
0.0
 40
0.0077399799
 40
0.016052723
 40
0.0249584452
 40
0.0344694493
 40
0.0445919455
 40
0.0553282332
 40
0.0666760418
 40
0.0786293088
 40
0.0911799795
 40
0.1043171166
 40
0.1180270071
 40
0.1322948172
 40
0.1471037888
 40
0.1624349045
 40
0.1945821942
 40
0.228562875
 40
0.2641846289
 40
0.3012393068
 40
0.3395067188
 40
0.3787566322
 40
0.4187502166
 40
0.4592430662
 40
0.4999866025
 40
0.5407302327
 40
0.5812234957
 40
0.621217678
 40
0.6604684099
 40
0.6987370149
 40
0.7357929206
 40
0.771416211
 40
0.8053987248
 40
0.8375477888
 40
0.852880078
 40
0.867690042
 40
0.881958799
 40
0.8956699692
 40
0.908808293
 40
0.9213600874
 40
0.9333147703
 40
0.9446636624
 40
0.955400558
 40
0.9655241806
 40
0.9750369576
 40
0.9839452147
 40
0.9922603618
 40
1.0
 40
1.0
 40
1.0
 40
1.0
 10
10.5208243414
 20
10.7929565582
 30
0.0
 10
10.5198220443
 20
10.7938893553
 30
0.0
 10
10.517664452
 20
10.7957402984
 30
0.0
 10
10.5141250404
 20
10.7983840808
 30
0.0
 10
10.5101751609
 20
10.8009878407
 30
0.0
 10
10.505821414
 20
10.8035476039
 30
0.0
 10
10.5010706818
 20
10.8060597043
 30
0.0
 10
10.495930352
 20
10.8085197976
 30
0.0
 10
10.4904087208
 20
10.8109240047
 30
0.0
 10
10.4845148133
 20
10.8132686412
 30
0.0
 10
10.4782580708
 20
10.8155495876
 30
0.0
 10
10.4716486953
 20
10.8177630864
 30
0.0
 10
10.4646975786
 20
10.8199057349
 30
0.0
 10
10.457416028
 20
10.8219737669
 30
0.0
 10
10.4498159543
 20
10.8239637271
 30
0.0
 10
10.4391045179
 20
10.8265497562
 30
0.0
 10
10.4250067929
 20
10.8295486189
 30
0.0
 10
10.4072888202
 20
10.8327342827
 30
0.0
 10
10.3886284866
 20
10.8355395223
 30
0.0
 10
10.3691485247
 20
10.8379458572
 30
0.0
 10
10.3489769035
 20
10.8399371521
 30
0.0
 10
10.3282462963
 20
10.8414998232
 30
0.0
 10
10.3070931267
 20
10.8426236842
 30
0.0
 10
10.2856566629
 20
10.8433011571
 30
0.0
 10
10.2640780307
 20
10.8435275305
 30
0.0
 10
10.2424993221
 20
10.8433015651
 30
0.0
 10
10.2210626456
 20
10.8426246288
 30
0.0
 10
10.1999091308
 20
10.8415011473
 30
0.0
 10
10.1791780308
 20
10.8399388907
 30
0.0
 10
10.1590057839
 20
10.8379480975
 30
0.0
 10
10.1395250758
 20
10.8355420888
 30
0.0
 10
10.1208638619
 20
10.8327372499
 30
0.0
 10
10.1031448821
 20
10.8295520343
 30
0.0
 10
10.0890462593
 20
10.8265533359
 30
0.0
 10
10.0783340269
 20
10.8239676366
 30
0.0
 10
10.0707333435
 20
10.8219778275
 30
0.0
 10
10.0634511763
 20
10.8199098852
 30
0.0
 10
10.0564993573
 20
10.8177674682
 30
0.0
 10
10.0498892678
 20
10.8155540961
 30
0.0
 10
10.0436318288
 20
10.8132731383
 30
0.0
 10
10.0377371572
 20
10.8109286943
 30
0.0
 10
10.0322148342
 20
10.8085246954
 30
0.0
 10
10.027073894
 20
10.8060647262
 30
0.0
 10
10.0223223366
 20
10.8035528654
 30
0.0
 10
10.0179675039
 20
10.8009930393
 30
0.0
 10
10.0140165569
 20
10.7983887424
 30
0.0
 10
10.010476157
 20
10.795744942
 30
0.0
 10
10.0083179271
 20
10.7938941801
 30
0.0
 10
10.0073155317
 20
10.7929615775
 30
0.0
  0
SPLINE
  5
343
100
AcDbEntity
  8
02___PRT_ALL_AXES
100
AcDbSpline
 62
7
  6
CONTINUOUS
 70
0
 71
3
 72
23
 73
19
 74
0
 42
0.0000001
 43
0.0000001
 44
0.0000000001
 40
0.0
 40
0.0
 40
0.0
 40
0.0
 40
0.0736647739
 40
0.1430936487
 40
0.2086368851
 40
0.270728476
 40
0.3299061921
 40
0.3868212682
 40
0.4422124387
 40
0.4968853293
 40
0.5516797762
 40
0.6074264519
 40
0.6649107162
 40
0.7248454407
 40
0.7878484149
 40
0.8544372545
 40
0.9250392237
 40
1.0
 40
1.0
 40
1.0
 40
1.0
 10
10.5214865264
 20
10.7566247244
 30
0.0
 10
10.5222294846
 20
10.7573423669
 30
0.0
 10
10.5236283185
 20
10.7587836001
 30
0.0
 10
10.5255051051
 20
10.7610317193
 30
0.0
 10
10.5270934517
 20
10.7632974091
 30
0.0
 10
10.5283903286
 20
10.765578395
 30
0.0
 10
10.5293927632
 20
10.7678725509
 30
0.0
 10
10.5300987806
 20
10.7701771075
 30
0.0
 10
10.5305064511
 20
10.7724890641
 30
0.0
 10
10.5306140283
 20
10.7748047257
 30
0.0
 10
10.5304210957
 20
10.7771197869
 30
0.0
 10
10.5299288166
 20
10.7794300793
 30
0.0
 10
10.5291388204
 20
10.7817319875
 30
0.0
 10
10.5280528857
 20
10.784022374
 30
0.0
 10
10.5266736492
 20
10.7862988972
 30
0.0
 10
10.5250036903
 20
10.7885597103
 30
0.0
 10
10.523045322
 20
10.7908027985
 30
0.0
 10
10.5215938002
 20
10.7922404543
 30
0.0
 10
10.5208243414
 20
10.7929565582
 30
0.0
  0
SPLINE
  5
344
100
AcDbEntity
  8
02___PRT_ALL_AXES
100
AcDbSpline
 62
7
  6
CONTINUOUS
 70
0
 71
3
 72
65
 73
61
 74
0
 42
0.0000001
 43
0.0000001
 44
0.0000000001
 40
0.0
 40
0.0
 40
0.0
 40
0.0
 40
0.0085723643
 40
0.0179216492
 40
0.028075836
 40
0.0390510583
 40
0.0508543353
 40
0.0634854152
 40
0.0769350466
 40
0.0911887195
 40
0.1062274279
 40
0.12202723
 40
0.1385618321
 40
0.155800725
 40
0.173710824
 40
0.1922570097
 40
0.2311015457
 40
0.2720099855
 40
0.3146293227
 40
0.3585850938
 40
0.4034868485
 40
0.4489330893
 40
0.4945159341
 40
0.539825804
 40
0.5844563686
 40
0.6280093224
 40
0.6700990768
 40
0.6904799306
 40
0.7103589787
 40
0.7296934978
 40
0.7484431242
 40
0.7665694983
 40
0.7840357804
 40
0.8008086952
 40
0.816856703
 40
0.8321517329
 40
0.8466695772
 40
0.8603888695
 40
0.873294161
 40
0.8853744714
 40
0.8966253416
 40
0.9070510522
 40
0.9166644869
 40
0.9254924047
 40
0.9335772687
 40
0.9409822728
 40
0.9477979984
 40
0.9510239551
 40
0.9541509498
 40
0.9571994606
 40
0.9601916759
 40
0.9631511386
 40
0.9661022669
 40
0.9690697863
 40
0.9720780213
 40
0.9751502274
 40
0.9783081443
 40
0.9849539939
 40
0.9921525476
 40
1.0
 40
1.0
 40
1.0
 40
1.0
 10
10.5214865264
 20
10.7566247244
 30
0.0
 10
10.5203074848
 20
10.7554858576
 30
0.0
 10
10.517720274
 20
10.7532299178
 30
0.0
 10
10.5133959415
 20
10.7500404029
 30
0.0
 10
10.5084747207
 20
10.7469102316
 30
0.0
 10
10.5029686916
 20
10.7438473031
 30
0.0
 10
10.4968904085
 20
10.7408576958
 30
0.0
 10
10.4902534964
 20
10.7379487397
 30
0.0
 10
10.483073521
 20
10.735126718
 30
0.0
 10
10.4753673552
 20
10.7323986803
 30
0.0
 10
10.4671532881
 20
10.7297714588
 30
0.0
 10
10.458450966
 20
10.7272509239
 30
0.0
 10
10.4492810779
 20
10.7248436677
 30
0.0
 10
10.439665627
 20
10.7225552108
 30
0.0
 10
10.4296276348
 20
10.7203910797
 30
0.0
 10
10.4154933704
 20
10.717636269
 30
0.0
 10
10.3969451323
 20
10.7145601905
 30
0.0
 10
10.3737426773
 20
10.7114925449
 30
0.0
 10
10.3494863694
 20
10.7090243847
 30
0.0
 10
10.3244092925
 20
10.7071798788
 30
0.0
 10
10.2987522403
 20
10.7059771568
 30
0.0
 10
10.272761783
 20
10.7054280329
 30
0.0
 10
10.2466877345
 20
10.7055379515
 30
0.0
 10
10.2207807745
 20
10.7063058765
 30
0.0
 10
10.1952898554
 20
10.7077241595
 30
0.0
 10
10.1704600922
 20
10.7097789526
 30
0.0
 10
10.1503074667
 20
10.7120280052
 30
0.0
 10
10.1347020221
 20
10.714141636
 30
0.0
 10
10.1234349763
 20
10.7158546258
 30
0.0
 10
10.1125064742
 20
10.7177084022
 30
0.0
 10
10.1019427685
 20
10.719698428
 30
0.0
 10
10.0917692303
 20
10.7218196535
 30
0.0
 10
10.0820103249
 20
10.7240673639
 30
0.0
 10
10.0726894172
 20
10.726435647
 30
0.0
 10
10.0638288484
 20
10.728919018
 30
0.0
 10
10.055449825
 20
10.7315115184
 30
0.0
 10
10.047572245
 20
10.7342064834
 30
0.0
 10
10.0402149371
 20
10.7369979724
 30
0.0
 10
10.0333951667
 20
10.7398788001
 30
0.0
 10
10.0271289148
 20
10.7428422672
 30
0.0
 10
10.0214308342
 20
10.7458817262
 30
0.0
 10
10.0163136517
 20
10.7489896611
 30
0.0
 10
10.0117891522
 20
10.7521600888
 30
0.0
 10
10.0078671474
 20
10.7553861908
 30
0.0
 10
10.0045561792
 20
10.7586626703
 30
0.0
 10
10.0018653017
 20
10.7619845815
 30
0.0
 10
10.0001147277
 20
10.7648394976
 30
0.0
 10
9.9990573276
 20
10.7671275921
 30
0.0
 10
9.9984388689
 20
10.7688179949
 30
0.0
 10
9.9979811089
 20
10.7705126638
 30
0.0
 10
9.9976844994
 20
10.7722104679
 30
0.0
 10
9.9975494551
 20
10.7739100916
 30
0.0
 10
9.9975763087
 20
10.7756101655
 30
0.0
 10
9.9977651519
 20
10.7773092743
 30
0.0
 10
9.998115529
 20
10.7790060775
 30
0.0
 10
9.9986270162
 20
10.7806994334
 30
0.0
 10
9.9995382315
 20
10.782989586
 30
0.0
 10
10.0011076886
 20
10.7858526352
 30
0.0
 10
10.0035903839
 20
10.7891883638
 30
0.0
 10
10.0055686932
 20
10.7912863355
 30
0.0
 10
10.0066480305
 20
10.7923288954
 30
0.0
  0
SPLINE
  5
345
100
AcDbEntity
  8
0
100
AcDbSpline
 62
7
  6
CONTINUOUS
 70
0
 71
3
 72
21
 73
17
 74
0
 42
0.0000001
 43
0.0000001
 44
0.0000000001
 40
0.0
 40
0.0
 40
0.0
 40
0.0
 40
0.1273176984
 40
0.2537999461
 40
0.3167619614
 40
0.3795355204
 40
0.4421314992
 40
0.5045621453
 40
0.5668413456
 40
0.6289845231
 40
0.6910084433
 40
0.7529310869
 40
0.8147714401
 40
0.8765493236
 40
0.9382852134
 40
1.0
 40
1.0
 40
1.0
 40
1.0
 10
9.4196137352
 20
10.0667217145
 30
0.0
 10
9.4196137352
 20
10.0599769064
 30
0.0
 10
9.4189698982
 20
10.046522867
 30
0.0
 10
9.416538307
 20
10.0298907699
 30
0.0
 10
9.4136320399
 20
10.0168443463
 30
0.0
 10
9.410981676
 20
10.0072212978
 30
0.0
 10
9.4078636813
 20
9.9977692461
 30
0.0
 10
9.4042852445
 20
9.9885097115
 30
0.0
 10
9.4002546159
 20
9.9794641101
 30
0.0
 10
9.395781008
 20
9.9706533186
 30
0.0
 10
9.3908747699
 20
9.962097647
 30
0.0
 10
9.3855472162
 20
9.9538168131
 30
0.0
 10
9.3798105818
 20
9.9458299785
 30
0.0
 10
9.3736780606
 20
9.938155486
 30
0.0
 10
9.3671640671
 20
9.9308112478
 30
0.0
 10
9.3625761744
 20
9.9261457552
 30
0.0
 10
9.3602246257
 20
9.9238743474
 30
0.0
  0
SPLINE
  5
346
100
AcDbEntity
  8
0
100
AcDbSpline
 62
7
  6
CONTINUOUS
 70
0
 71
3
 72
21
 73
17
 74
0
 42
0.0000001
 43
0.0000001
 44
0.0000000001
 40
0.0
 40
0.0
 40
0.0
 40
0.0
 40
0.1273176984
 40
0.2537999461
 40
0.3167619614
 40
0.3795355204
 40
0.4421314992
 40
0.5045621453
 40
0.5668413456
 40
0.6289845231
 40
0.6910084433
 40
0.7529310869
 40
0.8147714401
 40
0.8765493236
 40
0.9382852134
 40
1.0
 40
1.0
 40
1.0
 40
1.0
 10
12.4371662366
 20
9.8574537378
 30
0.0
 10
12.4371662366
 20
9.8507089297
 30
0.0
 10
12.4365223996
 20
9.8372548902
 30
0.0
 10
12.4340908083
 20
9.8206227932
 30
0.0
 10
12.4311845412
 20
9.8075763695
 30
0.0
 10
12.4285341773
 20
9.7979533211
 30
0.0
 10
12.4254161826
 20
9.7885012693
 30
0.0
 10
12.4218377459
 20
9.7792417348
 30
0.0
 10
12.4178071172
 20
9.7701961334
 30
0.0
 10
12.4133335093
 20
9.7613853418
 30
0.0
 10
12.4084272712
 20
9.7528296703
 30
0.0
 10
12.4030997176
 20
9.7445488364
 30
0.0
 10
12.3973630832
 20
9.7365620018
 30
0.0
 10
12.3912305619
 20
9.7288875093
 30
0.0
 10
12.3847165685
 20
9.721543271
 30
0.0
 10
12.3801286757
 20
9.7168777784
 30
0.0
 10
12.377777127
 20
9.7146063707
 30
0.0
  0
SPLINE
  5
347
100
AcDbEntity
  8
0
100
AcDbSpline
 62
7
  6
CONTINUOUS
 70
0
 71
3
 72
21
 73
17
 74
0
 42
0.0000001
 43
0.0000001
 44
0.0000000001
 40
0.0
 40
0.0
 40
0.0
 40
0.0
 40
0.1273176984
 40
0.2537999461
 40
0.3167619614
 40
0.3795355204
 40
0.4421314992
 40
0.5045621453
 40
0.5668413456
 40
0.6289845231
 40
0.6910084433
 40
0.7529310869
 40
0.8147714401
 40
0.8765493236
 40
0.9382852134
 40
1.0
 40
1.0
 40
1.0
 40
1.0
 10
12.4371662366
 20
6.3569385249
 30
0.0
 10
12.4371662366
 20
6.3501937168
 30
0.0
 10
12.4365223996
 20
6.3367396774
 30
0.0
 10
12.4340908083
 20
6.3201075804
 30
0.0
 10
12.4311845412
 20
6.3070611567
 30
0.0
 10
12.4285341773
 20
6.2974381083
 30
0.0
 10
12.4254161826
 20
6.2879860565
 30
0.0
 10
12.4218377459
 20
6.278726522
 30
0.0
 10
12.4178071172
 20
6.2696809206
 30
0.0
 10
12.4133335093
 20
6.260870129
 30
0.0
 10
12.4084272712
 20
6.2523144575
 30
0.0
 10
12.4030997176
 20
6.2440336236
 30
0.0
 10
12.3973630832
 20
6.236046789
 30
0.0
 10
12.3912305619
 20
6.2283722965
 30
0.0
 10
12.3847165685
 20
6.2210280582
 30
0.0
 10
12.3801286757
 20
6.2163625656
 30
0.0
 10
12.377777127
 20
6.2140911579
 30
0.0
  0
SPLINE
  5
348
100
AcDbEntity
  8
0
100
AcDbSpline
 62
7
  6
CONTINUOUS
 70
0
 71
3
 72
21
 73
17
 74
0
 42
0.0000001
 43
0.0000001
 44
0.0000000001
 40
0.0
 40
0.0
 40
0.0
 40
0.0
 40
0.1273176984
 40
0.2537999461
 40
0.3167619614
 40
0.3795355204
 40
0.4421314992
 40
0.5045621453
 40
0.5668413456
 40
0.6289845231
 40
0.6910084433
 40
0.7529310869
 40
0.8147714401
 40
0.8765493236
 40
0.9382852134
 40
1.0
 40
1.0
 40
1.0
 40
1.0
 10
9.4196137352
 20
6.5662065017
 30
0.0
 10
9.4196137352
 20
6.5594616936
 30
0.0
 10
9.4189698982
 20
6.5460076542
 30
0.0
 10
9.416538307
 20
6.5293755571
 30
0.0
 10
9.4136320399
 20
6.5163291335
 30
0.0
 10
9.410981676
 20
6.506706085
 30
0.0
 10
9.4078636813
 20
6.4972540333
 30
0.0
 10
9.4042852445
 20
6.4879944987
 30
0.0
 10
9.4002546159
 20
6.4789488973
 30
0.0
 10
9.395781008
 20
6.4701381057
 30
0.0
 10
9.3908747699
 20
6.4615824342
 30
0.0
 10
9.3855472162
 20
6.4533016003
 30
0.0
 10
9.3798105818
 20
6.4453147657
 30
0.0
 10
9.3736780606
 20
6.4376402732
 30
0.0
 10
9.3671640671
 20
6.430296035
 30
0.0
 10
9.3625761744
 20
6.4256305424
 30
0.0
 10
9.3602246257
 20
6.4233591346
 30
0.0
  0
SPLINE
  5
349
100
AcDbEntity
  8
0
100
AcDbSpline
 62
7
  6
CONTINUOUS
 70
0
 71
3
 72
21
 73
17
 74
0
 42
0.0000001
 43
0.0000001
 44
0.0000000001
 40
0.0
 40
0.0
 40
0.0
 40
0.0
 40
0.1273176984
 40
0.2537999461
 40
0.3167619614
 40
0.3795355204
 40
0.4421314992
 40
0.5045621453
 40
0.5668413456
 40
0.6289845231
 40
0.6910084433
 40
0.7529310869
 40
0.8147714401
 40
0.8765493236
 40
0.9382852134
 40
1.0
 40
1.0
 40
1.0
 40
1.0
 10
10.2638329987
 20
7.9266046872
 30
0.0
 10
10.2638329987
 20
7.9198598791
 30
0.0
 10
10.2631891616
 20
7.9064058396
 30
0.0
 10
10.2607575704
 20
7.8897737426
 30
0.0
 10
10.2578513033
 20
7.8767273189
 30
0.0
 10
10.2552009394
 20
7.8671042705
 30
0.0
 10
10.2520829447
 20
7.8576522187
 30
0.0
 10
10.248504508
 20
7.8483926842
 30
0.0
 10
10.2444738793
 20
7.8393470828
 30
0.0
 10
10.2400002714
 20
7.8305362912
 30
0.0
 10
10.2350940333
 20
7.8219806197
 30
0.0
 10
10.2297664797
 20
7.8136997858
 30
0.0
 10
10.2240298452
 20
7.8057129512
 30
0.0
 10
10.217897324
 20
7.7980384587
 30
0.0
 10
10.2113833305
 20
7.7906942204
 30
0.0
 10
10.2067954378
 20
7.7860287278
 30
0.0
 10
10.2044438891
 20
7.7837573201
 30
0.0
  0
SPLINE
  5
34A
100
AcDbEntity
  8
0
100
AcDbSpline
 62
7
  6
CONTINUOUS
 70
0
 71
3
 72
21
 73
17
 74
0
 42
0.0000001
 43
0.0000001
 44
0.0000000001
 40
0.0
 40
0.0
 40
0.0
 40
0.0
 40
0.1273176984
 40
0.2537999461
 40
0.3167619614
 40
0.3795355204
 40
0.4421314992
 40
0.5045621453
 40
0.5668413456
 40
0.6289845231
 40
0.6910084433
 40
0.7529310869
 40
0.8147714401
 40
0.8765493236
 40
0.9382852134
 40
1.0
 40
1.0
 40
1.0
 40
1.0
 10
10.7777055162
 20
8.3130771531
 30
0.0
 10
10.7777055162
 20
8.306332345
 30
0.0
 10
10.7770616792
 20
8.2928783056
 30
0.0
 10
10.7746300879
 20
8.2762462086
 30
0.0
 10
10.7717238208
 20
8.2631997849
 30
0.0
 10
10.7690734569
 20
8.2535767364
 30
0.0
 10
10.7659554622
 20
8.2441246847
 30
0.0
 10
10.7623770255
 20
8.2348651502
 30
0.0
 10
10.7583463968
 20
8.2258195488
 30
0.0
 10
10.7538727889
 20
8.2170087572
 30
0.0
 10
10.7489665508
 20
8.2084530857
 30
0.0
 10
10.7436389972
 20
8.2001722518
 30
0.0
 10
10.7379023628
 20
8.1921854172
 30
0.0
 10
10.7317698415
 20
8.1845109247
 30
0.0
 10
10.7252558481
 20
8.1771666864
 30
0.0
 10
10.7206679553
 20
8.1725011938
 30
0.0
 10
10.7183164066
 20
8.1702297861
 30
0.0
  0
SPLINE
  5
34B
100
AcDbEntity
  8
0
100
AcDbSpline
 62
7
  6
CONTINUOUS
 70
0
 71
3
 72
21
 73
17
 74
0
 42
0.0000001
 43
0.0000001
 44
0.0000000001
 40
0.0
 40
0.0
 40
0.0
 40
0.0
 40
0.1273176984
 40
0.2537999461
 40
0.3167619614
 40
0.3795355204
 40
0.4421314992
 40
0.5045621453
 40
0.5668413456
 40
0.6289845231
 40
0.6910084433
 40
0.7529310869
 40
0.8147714401
 40
0.8765493236
 40
0.9382852134
 40
1.0
 40
1.0
 40
1.0
 40
1.0
 10
11.5620372535
 20
8.2586835624
 30
0.0
 10
11.5620372535
 20
8.2519387543
 30
0.0
 10
11.5613934164
 20
8.2384847149
 30
0.0
 10
11.5589618252
 20
8.2218526178
 30
0.0
 10
11.5560555581
 20
8.2088061942
 30
0.0
 10
11.5534051942
 20
8.1991831457
 30
0.0
 10
11.5502871995
 20
8.189731094
 30
0.0
 10
11.5467087628
 20
8.1804715594
 30
0.0
 10
11.5426781341
 20
8.171425958
 30
0.0
 10
11.5382045262
 20
8.1626151665
 30
0.0
 10
11.5332982881
 20
8.1540594949
 30
0.0
 10
11.5279707345
 20
8.145778661
 30
0.0
 10
11.5222341
 20
8.1377918265
 30
0.0
 10
11.5161015788
 20
8.1301173339
 30
0.0
 10
11.5095875853
 20
8.1227730957
 30
0.0
 10
11.5049996926
 20
8.1181076031
 30
0.0
 10
11.5026481439
 20
8.1158361953
 30
0.0
  0
SPLINE
  5
34C
100
AcDbEntity
  8
0
100
AcDbSpline
 62
7
  6
CONTINUOUS
 70
0
 71
3
 72
21
 73
17
 74
0
 42
0.0000001
 43
0.0000001
 44
0.0000000001
 40
0.0
 40
0.0
 40
0.0
 40
0.0
 40
0.1273176984
 40
0.2537999461
 40
0.3167619614
 40
0.3795355204
 40
0.4421314992
 40
0.5045621453
 40
0.5668413456
 40
0.6289845231
 40
0.6910084433
 40
0.7529310869
 40
0.8147714401
 40
0.8765493236
 40
0.9382852134
 40
1.0
 40
1.0
 40
1.0
 40
1.0
 10
11.1698714424
 20
8.8596401959
 30
0.0
 10
11.1698714424
 20
8.8528953878
 30
0.0
 10
11.1692276054
 20
8.8394413484
 30
0.0
 10
11.1667960141
 20
8.8228092514
 30
0.0
 10
11.1638897471
 20
8.8097628277
 30
0.0
 10
11.1612393831
 20
8.8001397792
 30
0.0
 10
11.1581213884
 20
8.7906877275
 30
0.0
 10
11.1545429517
 20
8.781428193
 30
0.0
 10
11.150512323
 20
8.7723825916
 30
0.0
 10
11.1460387152
 20
8.7635718
 30
0.0
 10
11.141132477
 20
8.7550161285
 30
0.0
 10
11.1358049234
 20
8.7467352946
 30
0.0
 10
11.130068289
 20
8.73874846
 30
0.0
 10
11.1239357677
 20
8.7310739675
 30
0.0
 10
11.1174217743
 20
8.7237297292
 30
0.0
 10
11.1128338815
 20
8.7190642366
 30
0.0
 10
11.1104823328
 20
8.7167928289
 30
0.0
  0
SPLINE
  5
34D
100
AcDbEntity
  8
0
100
AcDbSpline
 62
7
  6
CONTINUOUS
 70
0
 71
3
 72
48
 73
44
 74
0
 42
0.0000001
 43
0.0000001
 44
0.0000000001
 40
0.0
 40
0.0
 40
0.0
 40
0.0
 40
0.0958287767
 40
0.1428190415
 40
0.1890973044
 40
0.2345926372
 40
0.2792364825
 40
0.3229620954
 40
0.3657047087
 40
0.407401818
 40
0.4479933573
 40
0.4874219524
 40
0.5256331251
 40
0.5625755503
 40
0.5982013669
 40
0.63246656
 40
0.6653313195
 40
0.6967604983
 40
0.7267241853
 40
0.7551984564
 40
0.7821662274
 40
0.8076183351
 40
0.8197764033
 40
0.8315565605
 40
0.8429605481
 40
0.8539910465
 40
0.8646516431
 40
0.8749469108
 40
0.8848826809
 40
0.8944659692
 40
0.9037052702
 40
0.9126106941
 40
0.9211940359
 40
0.929469141
 40
0.9374519366
 40
0.9451606785
 40
0.959834833
 40
0.9668566842
 40
0.9737035627
 40
0.9804067932
 40
0.9870000362
 40
0.9935188103
 40
1.0
 40
1.0
 40
1.0
 40
1.0
 10
11.3514829847
 20
10.5128397505
 30
0.0
 10
11.3333809979
 20
10.5140951276
 30
0.0
 10
11.3064219066
 20
10.5162667054
 30
0.0
 10
11.2707877226
 20
10.519777878
 30
0.0
 10
11.2446716044
 20
10.5226727362
 30
0.0
 10
11.219034925
 20
10.5258412636
 30
0.0
 10
11.1939205548
 20
10.5292781484
 30
0.0
 10
11.1693704708
 20
10.5329776025
 30
0.0
 10
11.1454256934
 20
10.5369334125
 30
0.0
 10
11.1221262393
 20
10.5411389315
 30
0.0
 10
11.0995110257
 20
10.5455870925
 30
0.0
 10
11.0776178093
 20
10.5502704071
 30
0.0
 10
11.0564831255
 20
10.555180998
 30
0.0
 10
11.0361422292
 20
10.5603106093
 30
0.0
 10
11.0166290239
 20
10.5656506232
 30
0.0
 10
10.9979759895
 20
10.571192054
 30
0.0
 10
10.9802141311
 20
10.5769255899
 30
0.0
 10
10.9633729172
 20
10.582841612
 30
0.0
 10
10.9474802504
 20
10.5889302216
 30
0.0
 10
10.9325622657
 20
10.5951812673
 30
0.0
 10
10.9186437083
 20
10.6015843271
 30
0.0
 10
10.9077359012
 20
10.6071194519
 30
0.0
 10
10.8995396033
 20
10.6116247271
 30
0.0
 10
10.8937505397
 20
10.6149833532
 30
0.0
 10
10.8882279218
 20
10.6183719421
 30
0.0
 10
10.8829740086
 20
10.621789108
 30
0.0
 10
10.8779909623
 20
10.6252334349
 30
0.0
 10
10.8732808664
 20
10.6287035734
 30
0.0
 10
10.8688456249
 20
10.6321980636
 30
0.0
 10
10.8646870931
 20
10.6357155493
 30
0.0
 10
10.8608069906
 20
10.6392546359
 30
0.0
 10
10.8572069017
 20
10.6428138893
 30
0.0
 10
10.8538883761
 20
10.6463920207
 30
0.0
 10
10.8508528382
 20
10.6499874967
 30
0.0
 10
10.8481014247
 20
10.653599346
 30
0.0
 10
10.8448673056
 20
10.6583555439
 30
0.0
 10
10.8421310594
 20
10.663224112
 30
0.0
 10
10.8399631979
 20
10.6681787519
 30
0.0
 10
10.8386505452
 20
10.6718498626
 30
0.0
 10
10.8376286909
 20
10.6755281939
 30
0.0
 10
10.8368981684
 20
10.6792122462
 30
0.0
 10
10.8364596373
 20
10.6828998871
 30
0.0
 10
10.836362084
 20
10.6853625682
 30
0.0
 10
10.8363620864
 20
10.6865898008
 30
0.0
  0
SPLINE
  5
34E
100
AcDbEntity
  8
0
100
AcDbSpline
 62
7
  6
CONTINUOUS
 70
0
 71
3
 72
31
 73
27
 74
0
 42
0.0000001
 43
0.0000001
 44
0.0000000001
 40
0.0
 40
0.0
 40
0.0
 40
0.0
 40
0.0845018904
 40
0.167301158
 40
0.2480799795
 40
0.3265304606
 40
0.4023579462
 40
0.475282401
 40
0.5450409099
 40
0.6113901015
 40
0.6432172375
 40
0.6741112302
 40
0.7040486061
 40
0.7330077048
 40
0.7609690412
 40
0.7879152504
 40
0.8138316265
 40
0.8387060317
 40
0.8625296419
 40
0.8852968756
 40
0.9070063887
 40
0.927661115
 40
0.9472695745
 40
0.9658461645
 40
0.9834128737
 40
1.0
 40
1.0
 40
1.0
 40
1.0
 10
10.1734806874
 20
10.6869768769
 30
0.0
 10
10.1662354797
 20
10.6874793338
 30
0.0
 10
10.1518994959
 20
10.6886012867
 30
0.0
 10
10.1306762465
 20
10.6906585797
 30
0.0
 10
10.1100132829
 20
10.6930665754
 30
0.0
 10
10.0899973926
 20
10.6958150485
 30
0.0
 10
10.0707125535
 20
10.6988923075
 30
0.0
 10
10.0522395538
 20
10.7022852546
 30
0.0
 10
10.0346559015
 20
10.7059794748
 30
0.0
 10
10.0206170096
 20
10.7093408009
 30
0.0
 10
10.0098925084
 20
10.7121782493
 30
0.0
 10
10.0022280865
 20
10.7143421496
 30
0.0
 10
9.9948387986
 20
10.7165690701
 30
0.0
 10
9.9877323741
 20
10.7188567091
 30
0.0
 10
9.9809162471
 20
10.7212026233
 30
0.0
 10
9.9743975439
 20
10.7236043788
 30
0.0
 10
9.9681830585
 20
10.7260594105
 30
0.0
 10
9.9622792717
 20
10.7285651914
 30
0.0
 10
9.9566923029
 20
10.7311190463
 30
0.0
 10
9.951427955
 20
10.7337183797
 30
0.0
 10
9.9464916382
 20
10.736360432
 30
0.0
 10
9.9418884459
 20
10.7390425754
 30
0.0
 10
9.9376230635
 20
10.7417619984
 30
0.0
 10
9.9336998156
 20
10.7445161346
 30
0.0
 10
9.9301228126
 20
10.7473020489
 30
0.0
 10
9.9279092832
 20
10.7492330675
 30
0.0
 10
9.9268656726
 20
10.7502042574
 30
0.0
  0
SPLINE
  5
34F
100
AcDbEntity
  8
0
100
AcDbSpline
 62
7
  6
CONTINUOUS
 70
0
 71
3
 72
53
 73
49
 74
0
 42
0.0000001
 43
0.0000001
 44
0.0000000001
 40
0.0
 40
0.0
 40
0.0
 40
0.0
 40
0.0417740747
 40
0.0840370059
 40
0.1266586015
 40
0.1695066206
 40
0.2124482643
 40
0.2553502464
 40
0.2980794728
 40
0.3405035203
 40
0.3824911749
 40
0.4239129577
 40
0.4646416591
 40
0.5045528794
 40
0.5435255803
 40
0.5814426526
 40
0.6181915072
 40
0.6536646981
 40
0.6877605949
 40
0.7203841254
 40
0.7361164043
 40
0.7514483531
 40
0.7663703757
 40
0.7808733967
 40
0.7949490545
 40
0.8085896209
 40
0.8217881625
 40
0.8345385373
 40
0.8468355031
 40
0.8586748197
 40
0.8700533035
 40
0.880969049
 40
0.8914214554
 40
0.9014115674
 40
0.9109421276
 40
0.9200180273
 40
0.9286464653
 40
0.9368374971
 40
0.9446043876
 40
0.9519642556
 40
0.9589386637
 40
0.9655543233
 40
0.9718438245
 40
0.977846199
 40
0.9836073748
 40
0.9891800477
 40
0.9946230782
 40
1.0
 40
1.0
 40
1.0
 40
1.0
 10
12.80037181
 20
8.329822862
 30
0.0
 10
12.80037181
 20
8.3427887144
 30
0.0
 10
12.8005740905
 20
8.3688725584
 30
0.0
 10
12.8014683411
 20
8.4081760937
 30
0.0
 10
12.8029525723
 20
8.4477954028
 30
0.0
 10
12.8050219245
 20
8.487599359
 30
0.0
 10
12.8076695556
 20
8.5274562526
 30
0.0
 10
12.8108867156
 20
8.5672342329
 30
0.0
 10
12.8146627465
 20
8.6068016951
 30
0.0
 10
12.818985131
 20
8.6460277412
 30
0.0
 10
12.8238395284
 20
8.6847826087
 30
0.0
 10
12.829209823
 20
8.7229381052
 30
0.0
 10
12.8350781763
 20
8.7603680365
 30
0.0
 10
12.8414250849
 20
8.7969486287
 30
0.0
 10
12.8482294439
 20
8.832558943
 30
0.0
 10
12.8554686142
 20
8.8670812912
 30
0.0
 10
12.8631184985
 20
8.90040161
 30
0.0
 10
12.8711536115
 20
8.9324099426
 30
0.0
 10
12.8795471957
 20
8.963000505
 30
0.0
 10
12.8869033787
 20
8.9875149193
 30
0.0
 10
12.8929585549
 20
9.0063326392
 30
0.0
 10
12.8975170472
 20
9.0198588767
 30
0.0
 10
12.9021437615
 20
9.0329579888
 30
0.0
 10
12.9068349485
 20
9.0456191684
 30
0.0
 10
12.9115866621
 20
9.0578319755
 30
0.0
 10
12.9163950074
 20
9.0695863359
 30
0.0
 10
12.9212559743
 20
9.0808725731
 30
0.0
 10
12.9261655537
 20
9.091681398
 30
0.0
 10
12.9311196915
 20
9.1020039272
 30
0.0
 10
12.9361142791
 20
9.1118316982
 30
0.0
 10
12.9411452428
 20
9.1211566516
 30
0.0
 10
12.9462084008
 20
9.1299711893
 30
0.0
 10
12.9512996841
 20
9.1382681061
 30
0.0
 10
12.9564148828
 20
9.1460407002
 30
0.0
 10
12.9615499608
 20
9.1532826483
 30
0.0
 10
12.9667007523
 20
9.1599881596
 30
0.0
 10
12.9718632963
 20
9.1661518086
 30
0.0
 10
12.9770335708
 20
9.1717686909
 30
0.0
 10
12.9822077581
 20
9.1768342504
 30
0.0
 10
12.9873820895
 20
9.1813443604
 30
0.0
 10
12.9925529564
 20
9.1852951957
 30
0.0
 10
12.9977168757
 20
9.1886831434
 30
0.0
 10
13.0028703561
 20
9.1915047993
 30
0.0
 10
13.0080099103
 20
9.1937566738
 30
0.0
 10
13.0131315433
 20
9.195435501
 30
0.0
 10
13.0182310637
 20
9.1965379064
 30
0.0
 10
13.0233022575
 20
9.1970613751
 30
0.0
 10
13.0266691049
 20
9.1970228858
 30
0.0
 10
13.0283339969
 20
9.1969074218
 30
0.0
  0
SPLINE
  5
350
100
AcDbEntity
  8
0
100
AcDbSpline
 62
7
  6
CONTINUOUS
 70
0
 71
3
 72
15
 73
11
 74
0
 42
0.0000001
 43
0.0000001
 44
0.0000000001
 40
0.0
 40
0.0
 40
0.0
 40
0.0
 40
0.1248771465
 40
0.249740813
 40
0.37464622
 40
0.4996318109
 40
0.6247112399
 40
0.7498587255
 40
0.8749988327
 40
1.0
 40
1.0
 40
1.0
 40
1.0
 10
10.1860868215
 20
8.0293342376
 30
0.0
 10
10.1817908818
 20
8.0328200968
 30
0.0
 10
10.1734904132
 20
8.0401584605
 30
0.0
 10
10.1619872938
 20
8.0521469436
 30
0.0
 10
10.1514670003
 20
8.0650127041
 30
0.0
 10
10.1419562885
 20
8.0786516052
 30
0.0
 10
10.133472327
 20
8.0929630898
 30
0.0
 10
10.1260279219
 20
8.1078486928
 30
0.0
 10
10.1196339879
 20
8.123209469
 30
0.0
 10
10.1160739404
 20
8.1337141598
 30
0.0
 10
10.1144721968
 20
8.1390152496
 30
0.0
  0
SPLINE
  5
351
100
AcDbEntity
  8
0
100
AcDbSpline
 62
7
  6
CONTINUOUS
 70
0
 71
3
 72
39
 73
35
 74
0
 42
0.0000001
 43
0.0000001
 44
0.0000000001
 40
0.0
 40
0.0
 40
0.0
 40
0.0
 40
0.0311444246
 40
0.0624434307
 40
0.0938882321
 40
0.1254710247
 40
0.1571788731
 40
0.1889972589
 40
0.2209091738
 40
0.2528958456
 40
0.2849370269
 40
0.317011416
 40
0.349097073
 40
0.3811718411
 40
0.4132137734
 40
0.4452015557
 40
0.477114921
 40
0.508935054
 40
0.5406449744
 40
0.5722298904
 40
0.6036775179
 40
0.634978359
 40
0.666125934
 40
0.6971169583
 40
0.7279514621
 40
0.758632843
 40
0.789167841
 40
0.8195664384
 40
0.8498416796
 40
0.8800094142
 40
0.9100879639
 40
0.9400977227
 40
0.9700606976
 40
1.0
 40
1.0
 40
1.0
 40
1.0
 10
9.9379555461
 20
9.2965022479
 30
0.0
 10
9.9405028938
 20
9.2963255887
 30
0.0
 10
9.9455991935
 20
9.2957849097
 30
0.0
 10
9.9531818253
 20
9.2944230409
 30
0.0
 10
9.9606832774
 20
9.2925153379
 30
0.0
 10
9.968062944
 20
9.2900722687
 30
0.0
 10
9.9752816969
 20
9.2871067833
 30
0.0
 10
9.9823010035
 20
9.2836348156
 30
0.0
 10
9.9890834751
 20
9.2796748864
 30
0.0
 10
9.9955929657
 20
9.2752481438
 30
0.0
 10
10.001794794
 20
9.2703782104
 30
0.0
 10
10.0076559168
 20
9.2650910643
 30
0.0
 10
10.0131451024
 20
9.2594148953
 30
0.0
 10
10.018233094
 20
9.2533799574
 30
0.0
 10
10.0228927642
 20
9.2470184099
 30
0.0
 10
10.0270992579
 20
9.2403641484
 30
0.0
 10
10.0308301213
 20
9.2334526258
 30
0.0
 10
10.0340654328
 20
9.2263206718
 30
0.0
 10
10.0367879052
 20
9.2190062941
 30
0.0
 10
10.0389829719
 20
9.2115484759
 30
0.0
 10
10.0406388652
 20
9.2039869718
 30
0.0
 10
10.0417466804
 20
9.1963620997
 30
0.0
 10
10.0423004251
 20
9.1887145298
 30
0.0
 10
10.0422970521
 20
9.1810850702
 30
0.0
 10
10.0417364885
 20
9.1735144524
 30
0.0
 10
10.0406216421
 20
9.1660431125
 30
0.0
 10
10.0389583796
 20
9.1587109764
 30
0.0
 10
10.0367555009
 20
9.1515572465
 30
0.0
 10
10.0340247011
 20
9.1446201948
 30
0.0
 10
10.0307804992
 20
9.1379369434
 30
0.0
 10
10.0270402146
 20
9.1315433105
 30
0.0
 10
10.0228236963
 20
9.1254734342
 30
0.0
 10
10.0181539152
 20
9.1197602363
 30
0.0
 10
10.0147536939
 20
9.1162081379
 30
0.0
 10
10.0129881701
 20
9.1145027686
 30
0.0
  0
SPLINE
  5
352
100
AcDbEntity
  8
0
100
AcDbSpline
 62
7
  6
CONTINUOUS
 70
0
 71
3
 72
39
 73
35
 74
0
 42
0.0000001
 43
0.0000001
 44
0.0000000001
 40
0.0
 40
0.0
 40
0.0
 40
0.0
 40
0.0311444246
 40
0.0624434307
 40
0.0938882321
 40
0.1254710247
 40
0.1571788731
 40
0.1889972589
 40
0.2209091738
 40
0.2528958456
 40
0.2849370269
 40
0.317011416
 40
0.349097073
 40
0.3811718411
 40
0.4132137734
 40
0.4452015557
 40
0.477114921
 40
0.508935054
 40
0.5406449744
 40
0.5722298904
 40
0.6036775179
 40
0.634978359
 40
0.666125934
 40
0.6971169583
 40
0.7279514621
 40
0.758632843
 40
0.789167841
 40
0.8195664384
 40
0.8498416796
 40
0.8800094142
 40
0.9100879639
 40
0.9400977227
 40
0.9700606976
 40
1.0
 40
1.0
 40
1.0
 40
1.0
 10
11.9895821927
 20
9.1542214567
 30
0.0
 10
11.9921295404
 20
9.1540447975
 30
0.0
 10
11.9972258402
 20
9.1535041185
 30
0.0
 10
12.0048084719
 20
9.1521422497
 30
0.0
 10
12.0123099241
 20
9.1502345467
 30
0.0
 10
12.0196895906
 20
9.1477914775
 30
0.0
 10
12.0269083435
 20
9.1448259921
 30
0.0
 10
12.0339276501
 20
9.1413540244
 30
0.0
 10
12.0407101217
 20
9.1373940952
 30
0.0
 10
12.0472196123
 20
9.1329673526
 30
0.0
 10
12.0534214406
 20
9.1280974192
 30
0.0
 10
12.0592825635
 20
9.1228102731
 30
0.0
 10
12.064771749
 20
9.1171341041
 30
0.0
 10
12.0698597406
 20
9.1110991662
 30
0.0
 10
12.0745194109
 20
9.1047376187
 30
0.0
 10
12.0787259045
 20
9.0980833572
 30
0.0
 10
12.0824567679
 20
9.0911718346
 30
0.0
 10
12.0856920794
 20
9.0840398806
 30
0.0
 10
12.0884145519
 20
9.0767255029
 30
0.0
 10
12.0906096185
 20
9.0692676847
 30
0.0
 10
12.0922655118
 20
9.0617061806
 30
0.0
 10
12.093373327
 20
9.0540813085
 30
0.0
 10
12.0939270717
 20
9.0464337386
 30
0.0
 10
12.0939236988
 20
9.038804279
 30
0.0
 10
12.0933631351
 20
9.0312336613
 30
0.0
 10
12.0922482887
 20
9.0237623213
 30
0.0
 10
12.0905850262
 20
9.0164301852
 30
0.0
 10
12.0883821476
 20
9.0092764553
 30
0.0
 10
12.0856513477
 20
9.0023394036
 30
0.0
 10
12.0824071458
 20
8.9956561522
 30
0.0
 10
12.0786668612
 20
8.9892625193
 30
0.0
 10
12.0744503429
 20
8.983192643
 30
0.0
 10
12.0697805618
 20
8.9774794451
 30
0.0
 10
12.0663803405
 20
8.9739273467
 30
0.0
 10
12.0646148168
 20
8.9722219774
 30
0.0
  0
SPLINE
  5
353
100
AcDbEntity
  8
0
100
AcDbSpline
 62
7
  6
CONTINUOUS
 70
0
 71
3
 72
39
 73
35
 74
0
 42
0.0000001
 43
0.0000001
 44
0.0000000001
 40
0.0
 40
0.0
 40
0.0
 40
0.0
 40
0.0311444246
 40
0.0624434307
 40
0.0938882321
 40
0.1254710247
 40
0.1571788731
 40
0.1889972589
 40
0.2209091738
 40
0.2528958456
 40
0.2849370269
 40
0.317011416
 40
0.349097073
 40
0.3811718411
 40
0.4132137734
 40
0.4452015557
 40
0.477114921
 40
0.508935054
 40
0.5406449744
 40
0.5722298904
 40
0.6036775179
 40
0.634978359
 40
0.666125934
 40
0.6971169583
 40
0.7279514621
 40
0.758632843
 40
0.789167841
 40
0.8195664384
 40
0.8498416796
 40
0.8800094142
 40
0.9100879639
 40
0.9400977227
 40
0.9700606976
 40
1.0
 40
1.0
 40
1.0
 40
1.0
 10
11.9895821927
 20
7.4029978649
 30
0.0
 10
11.9921295404
 20
7.4028212057
 30
0.0
 10
11.9972258402
 20
7.4022805267
 30
0.0
 10
12.0048084719
 20
7.4009186578
 30
0.0
 10
12.0123099241
 20
7.3990109549
 30
0.0
 10
12.0196895906
 20
7.3965678857
 30
0.0
 10
12.0269083435
 20
7.3936024003
 30
0.0
 10
12.0339276501
 20
7.3901304326
 30
0.0
 10
12.0407101217
 20
7.3861705034
 30
0.0
 10
12.0472196123
 20
7.3817437608
 30
0.0
 10
12.0534214406
 20
7.3768738274
 30
0.0
 10
12.0592825635
 20
7.3715866813
 30
0.0
 10
12.064771749
 20
7.3659105123
 30
0.0
 10
12.0698597406
 20
7.3598755744
 30
0.0
 10
12.0745194109
 20
7.3535140269
 30
0.0
 10
12.0787259045
 20
7.3468597654
 30
0.0
 10
12.0824567679
 20
7.3399482428
 30
0.0
 10
12.0856920794
 20
7.3328162888
 30
0.0
 10
12.0884145519
 20
7.3255019111
 30
0.0
 10
12.0906096185
 20
7.3180440929
 30
0.0
 10
12.0922655118
 20
7.3104825887
 30
0.0
 10
12.093373327
 20
7.3028577167
 30
0.0
 10
12.0939270717
 20
7.2952101467
 30
0.0
 10
12.0939236988
 20
7.2875806872
 30
0.0
 10
12.0933631351
 20
7.2800100694
 30
0.0
 10
12.0922482887
 20
7.2725387295
 30
0.0
 10
12.0905850262
 20
7.2652065934
 30
0.0
 10
12.0883821476
 20
7.2580528635
 30
0.0
 10
12.0856513477
 20
7.2511158118
 30
0.0
 10
12.0824071458
 20
7.2444325604
 30
0.0
 10
12.0786668612
 20
7.2380389275
 30
0.0
 10
12.0744503429
 20
7.2319690511
 30
0.0
 10
12.0697805618
 20
7.2262558532
 30
0.0
 10
12.0663803405
 20
7.2227037549
 30
0.0
 10
12.0646148168
 20
7.2209983856
 30
0.0
  0
SPLINE
  5
354
100
AcDbEntity
  8
0
100
AcDbSpline
 62
7
  6
CONTINUOUS
 70
0
 71
3
 72
39
 73
35
 74
0
 42
0.0000001
 43
0.0000001
 44
0.0000000001
 40
0.0
 40
0.0
 40
0.0
 40
0.0
 40
0.0311444246
 40
0.0624434307
 40
0.0938882321
 40
0.1254710247
 40
0.1571788731
 40
0.1889972589
 40
0.2209091738
 40
0.2528958456
 40
0.2849370269
 40
0.317011416
 40
0.349097073
 40
0.3811718411
 40
0.4132137734
 40
0.4452015557
 40
0.477114921
 40
0.508935054
 40
0.5406449744
 40
0.5722298904
 40
0.6036775179
 40
0.634978359
 40
0.666125934
 40
0.6971169583
 40
0.7279514621
 40
0.758632843
 40
0.789167841
 40
0.8195664384
 40
0.8498416796
 40
0.8800094142
 40
0.9100879639
 40
0.9400977227
 40
0.9700606976
 40
1.0
 40
1.0
 40
1.0
 40
1.0
 10
9.9379555461
 20
7.5452786561
 30
0.0
 10
9.9405028938
 20
7.5451019969
 30
0.0
 10
9.9455991935
 20
7.5445613179
 30
0.0
 10
9.9531818253
 20
7.543199449
 30
0.0
 10
9.9606832774
 20
7.5412917461
 30
0.0
 10
9.968062944
 20
7.5388486769
 30
0.0
 10
9.9752816969
 20
7.5358831915
 30
0.0
 10
9.9823010035
 20
7.5324112238
 30
0.0
 10
9.9890834751
 20
7.5284512946
 30
0.0
 10
9.9955929657
 20
7.524024552
 30
0.0
 10
10.001794794
 20
7.5191546186
 30
0.0
 10
10.0076559168
 20
7.5138674725
 30
0.0
 10
10.0131451024
 20
7.5081913035
 30
0.0
 10
10.018233094
 20
7.5021563656
 30
0.0
 10
10.0228927642
 20
7.4957948181
 30
0.0
 10
10.0270992579
 20
7.4891405566
 30
0.0
 10
10.0308301213
 20
7.482229034
 30
0.0
 10
10.0340654328
 20
7.47509708
 30
0.0
 10
10.0367879052
 20
7.4677827023
 30
0.0
 10
10.0389829719
 20
7.4603248841
 30
0.0
 10
10.0406388652
 20
7.4527633799
 30
0.0
 10
10.0417466804
 20
7.4451385079
 30
0.0
 10
10.0423004251
 20
7.4374909379
 30
0.0
 10
10.0422970521
 20
7.4298614784
 30
0.0
 10
10.0417364885
 20
7.4222908606
 30
0.0
 10
10.0406216421
 20
7.4148195207
 30
0.0
 10
10.0389583796
 20
7.4074873846
 30
0.0
 10
10.0367555009
 20
7.4003336547
 30
0.0
 10
10.0340247011
 20
7.393396603
 30
0.0
 10
10.0307804992
 20
7.3867133516
 30
0.0
 10
10.0270402146
 20
7.3803197187
 30
0.0
 10
10.0228236963
 20
7.3742498423
 30
0.0
 10
10.0181539152
 20
7.3685366444
 30
0.0
 10
10.0147536939
 20
7.3649845461
 30
0.0
 10
10.0129881701
 20
7.3632791768
 30
0.0
  0
SPLINE
  5
355
100
AcDbEntity
  8
0
100
AcDbSpline
 62
7
  6
CONTINUOUS
 70
0
 71
3
 72
44
 73
40
 74
0
 42
0.0000001
 43
0.0000001
 44
0.0000000001
 40
0.0
 40
0.0
 40
0.0
 40
0.0
 40
0.0379402003
 40
0.0762770822
 40
0.1149219635
 40
0.1537878053
 40
0.2318244249
 40
0.3096754575
 40
0.3483097213
 40
0.3866316968
 40
0.4245542471
 40
0.4619914082
 40
0.4988586543
 40
0.5350731646
 40
0.5705541044
 40
0.605222904
 40
0.6390035448
 40
0.6718228621
 40
0.7036108656
 40
0.7343010858
 40
0.7638309606
 40
0.7921422739
 40
0.8191816419
 40
0.8449010981
 40
0.8692588072
 40
0.8809162515
 40
0.8922208755
 40
0.9031695737
 40
0.9137599541
 40
0.9239901637
 40
0.9338591886
 40
0.9433667548
 40
0.9525135073
 40
0.9613011467
 40
0.9697324275
 40
0.9778115209
 40
0.9855439574
 40
0.9929370503
 40
1.0
 40
1.0
 40
1.0
 40
1.0
 10
12.8134613824
 20
8.3744664195
 30
0.0
 10
12.8134613824
 20
8.3828639111
 30
0.0
 10
12.813573674
 20
8.3997468924
 30
0.0
 10
12.8140713296
 20
8.425178918
 30
0.0
 10
12.814898036
 20
8.4508074251
 30
0.0
 10
12.8164384516
 20
8.4852017519
 30
0.0
 10
12.8191675696
 20
8.5282256858
 30
0.0
 10
12.8229498451
 20
8.5711184499
 30
0.0
 10
12.8266004309
 20
8.6051884526
 30
0.0
 10
12.8296301272
 20
8.6304347233
 30
0.0
 10
12.8329509022
 20
8.6553770711
 30
0.0
 10
12.8365546763
 20
8.6799547617
 30
0.0
 10
12.840432631
 20
8.7041079022
 30
0.0
 10
12.8445752877
 20
8.727777654
 30
0.0
 10
12.8489725102
 20
8.7509063629
 30
0.0
 10
12.8536135363
 20
8.7734377066
 30
0.0
 10
12.8584870042
 20
8.7953168316
 30
0.0
 10
12.8635809794
 20
8.8164904892
 30
0.0
 10
12.8688829839
 20
8.8369071695
 30
0.0
 10
12.8743800264
 20
8.856517231
 30
0.0
 10
12.8800586354
 20
8.8752730395
 30
0.0
 10
12.8859048883
 20
8.8931290721
 30
0.0
 10
12.8919044557
 20
8.9100421257
 30
0.0
 10
12.8980426451
 20
8.9259711381
 30
0.0
 10
12.9033353387
 20
8.9385712487
 30
0.0
 10
12.9076363963
 20
8.9481213911
 30
0.0
 10
12.9108402261
 20
8.9549093639
 30
0.0
 10
12.9140674497
 20
8.9614237151
 30
0.0
 10
12.9173160685
 20
8.9676605296
 30
0.0
 10
12.9205841692
 20
8.9736160151
 30
0.0
 10
12.9238697266
 20
8.9792865957
 30
0.0
 10
12.927170779
 20
8.9846688497
 30
0.0
 10
12.9304853548
 20
8.9897595355
 30
0.0
 10
12.9338114269
 20
8.9945556237
 30
0.0
 10
12.9371470915
 20
8.9990542113
 30
0.0
 10
12.9404902974
 20
9.0032526495
 30
0.0
 10
12.9438392022
 20
9.0071484287
 30
0.0
 10
12.9471917185
 20
9.0107391399
 30
0.0
 10
12.9494791994
 20
9.012978364
 30
0.0
 10
12.9506235437
 20
9.0140434052
 30
0.0
  0
SPLINE
  5
356
100
AcDbEntity
  8
0
100
AcDbSpline
 62
7
  6
CONTINUOUS
 70
0
 71
3
 72
33
 73
29
 74
0
 42
0.0000001
 43
0.0000001
 44
0.0000000001
 40
0.0
 40
0.0
 40
0.0
 40
0.0
 40
0.0851788688
 40
0.1685805375
 40
0.2498831127
 40
0.3287738906
 40
0.4049542375
 40
0.4781403639
 40
0.5135273622
 40
0.5480675006
 40
0.5817306139
 40
0.6144880446
 40
0.6463125301
 40
0.677178639
 40
0.7070625202
 40
0.7359424497
 40
0.7637986491
 40
0.7906137509
 40
0.816372904
 40
0.8410640446
 40
0.8646784078
 40
0.8872106464
 40
0.9086597459
 40
0.9290292162
 40
0.9483283092
 40
0.9665726446
 40
0.9837856571
 40
1.0
 40
1.0
 40
1.0
 40
1.0
 10
12.8134613824
 20
8.3744664195
 30
0.0
 10
12.8134613824
 20
8.3635885841
 30
0.0
 10
12.8136467418
 20
8.3420593482
 30
0.0
 10
12.8144969085
 20
8.3101574222
 30
0.0
 10
12.8159128674
 20
8.2790792031
 30
0.0
 10
12.8178884851
 20
8.2489554734
 30
0.0
 10
12.8204152398
 20
8.2199131343
 30
0.0
 10
12.822999023
 20
8.1964584205
 30
0.0
 10
12.8253444998
 20
8.1783327134
 30
0.0
 10
12.8272144037
 20
8.1652360428
 30
0.0
 10
12.8292127952
 20
8.1524981575
 30
0.0
 10
12.8313375472
 20
8.1401324455
 30
0.0
 10
12.8335864476
 20
8.1281519167
 30
0.0
 10
12.8359570553
 20
8.1165691651
 30
0.0
 10
12.838446917
 20
8.1053963614
 30
0.0
 10
12.8410533392
 20
8.0946452329
 30
0.0
 10
12.8437736026
 20
8.0843270567
 30
0.0
 10
12.8466048079
 20
8.0744526392
 30
0.0
 10
12.8495439617
 20
8.0650323049
 30
0.0
 10
12.8525879946
 20
8.0560758883
 30
0.0
 10
12.8557336578
 20
8.0475927008
 30
0.0
 10
12.858977736
 20
8.0395915546
 30
0.0
 10
12.8623167818
 20
8.0320806938
 30
0.0
 10
12.8657474563
 20
8.0250678474
 30
0.0
 10
12.869266204
 20
8.0185601767
 30
0.0
 10
12.8728696692
 20
8.0125642054
 30
0.0
 10
12.8765541288
 20
8.0070862756
 30
0.0
 10
12.8791376881
 20
8.0036839725
 30
0.0
 10
12.8804442172
 20
8.0020775361
 30
0.0
  0
SPLINE
  5
357
100
AcDbEntity
  8
0
100
AcDbSpline
 62
7
  6
CONTINUOUS
 70
0
 71
3
 72
33
 73
29
 74
0
 42
0.0000001
 43
0.0000001
 44
0.0000000001
 40
0.0
 40
0.0
 40
0.0
 40
0.0
 40
0.0845018631
 40
0.1673007256
 40
0.2480794268
 40
0.326529699
 40
0.4023569938
 40
0.4752812562
 40
0.5105726094
 40
0.5450411288
 40
0.5786570136
 40
0.6113919322
 40
0.6432189317
 40
0.6741128502
 40
0.7040500787
 40
0.7330090995
 40
0.7609702917
 40
0.7879164106
 40
0.8138326529
 40
0.8387069536
 40
0.8625304388
 40
0.88529756
 40
0.9070069461
 40
0.9276615655
 40
0.9472698847
 40
0.9658463866
 40
0.9834129403
 40
1.0
 40
1.0
 40
1.0
 40
1.0
 10
11.3954821861
 20
10.5244300889
 30
0.0
 10
11.3846143266
 20
10.5251837776
 30
0.0
 10
11.3631103051
 20
10.5268667094
 30
0.0
 10
11.3312753501
 20
10.529952665
 30
0.0
 10
11.3002808592
 20
10.5335646679
 30
0.0
 10
11.2702569244
 20
10.5376873899
 30
0.0
 10
11.2413296926
 20
10.5423033137
 30
0.0
 10
11.2179906838
 20
10.5465899065
 30
0.0
 10
11.1999655805
 20
10.5502616035
 30
0.0
 10
11.1869428488
 20
10.553095968
 30
0.0
 10
11.1742821225
 20
10.5560379582
 30
0.0
 10
11.1619966724
 20
10.5590844658
 30
0.0
 10
11.150099394
 20
10.5622323166
 30
0.0
 10
11.1386027574
 20
10.565478134
 30
0.0
 10
11.127518817
 20
10.5688185568
 30
0.0
 10
11.1168591726
 20
10.5722500052
 30
0.0
 10
11.1066349819
 20
10.5757689103
 30
0.0
 10
11.0968569242
 20
10.5793715411
 30
0.0
 10
11.0875352011
 20
10.5830541151
 30
0.0
 10
11.0786795246
 20
10.5868127917
 30
0.0
 10
11.0702990814
 20
10.5906435948
 30
0.0
 10
11.0624025697
 20
10.5945426037
 30
0.0
 10
11.054998112
 20
10.598505704
 30
0.0
 10
11.0480933369
 20
10.6025289219
 30
0.0
 10
11.0416952935
 20
10.6066080894
 30
0.0
 10
11.0358104318
 20
10.6107392821
 30
0.0
 10
11.0304449739
 20
10.6149182006
 30
0.0
 10
11.0271246834
 20
10.61781472
 30
0.0
 10
11.0255592701
 20
10.6192715099
 30
0.0
  0
SPLINE
  5
358
100
AcDbEntity
  8
0
100
AcDbSpline
 62
7
  6
CONTINUOUS
 70
0
 71
3
 72
45
 73
41
 74
0
 42
0.0000001
 43
0.0000001
 44
0.0000000001
 40
0.0
 40
0.0
 40
0.0
 40
0.0
 40
0.0378656727
 40
0.0761057545
 40
0.1146341264
 40
0.1533665839
 40
0.1922167502
 40
0.2310985205
 40
0.2699255179
 40
0.3086115597
 40
0.3470708675
 40
0.3852183127
 40
0.4229696692
 40
0.4602418598
 40
0.4969532098
 40
0.5330237111
 40
0.568375286
 40
0.6029320527
 40
0.6366206027
 40
0.6693702935
 40
0.7011135585
 40
0.7317862526
 40
0.7613280276
 40
0.7896827384
 40
0.8167989207
 40
0.8426303568
 40
0.8671367615
 40
0.890284645
 40
0.9013413275
 40
0.9120495187
 40
0.9224075138
 40
0.9324142313
 40
0.9420694704
 40
0.9513737633
 40
0.960328697
 40
0.9689368733
 40
0.9772020962
 40
0.9851295947
 40
0.992726045
 40
1.0
 40
1.0
 40
1.0
 40
1.0
 10
11.3954821861
 20
10.5244300889
 30
0.0
 10
11.4037766863
 20
10.5238548634
 30
0.0
 10
11.4204557296
 20
10.5228115603
 30
0.0
 10
11.4455968049
 20
10.521570915
 30
0.0
 10
11.4709420602
 20
10.520648754
 30
0.0
 10
11.4964309259
 20
10.5200472413
 30
0.0
 10
11.5220029573
 20
10.5197678446
 30
0.0
 10
11.5475972343
 20
10.5198112178
 30
0.0
 10
11.5731528919
 20
10.5201772667
 30
0.0
 10
11.598609124
 20
10.5208651121
 30
0.0
 10
11.6239053706
 20
10.5218731068
 30
0.0
 10
11.6489814542
 20
10.523198839
 30
0.0
 10
11.673777723
 20
10.5248391372
 30
0.0
 10
11.6982351933
 20
10.5267900778
 30
0.0
 10
11.7222956915
 20
10.5290469953
 30
0.0
 10
11.7459019958
 20
10.531604487
 30
0.0
 10
11.7689979749
 20
10.5344564277
 30
0.0
 10
11.7915287217
 20
10.5375959872
 30
0.0
 10
11.8134406847
 20
10.5410156454
 30
0.0
 10
11.8346817981
 20
10.5447072097
 30
0.0
 10
11.8552016103
 20
10.5486618353
 30
0.0
 10
11.8749514134
 20
10.5528700426
 30
0.0
 10
11.893884366
 20
10.5573217385
 30
0.0
 10
11.9119556189
 20
10.562006248
 30
0.0
 10
11.9291224026
 20
10.5669123414
 30
0.0
 10
11.9453442477
 20
10.5720282693
 30
0.0
 10
11.9605827473
 20
10.5773417981
 30
0.0
 10
11.9726095846
 20
10.5819921883
 30
0.0
 10
11.9817023017
 20
10.5858116832
 30
0.0
 10
11.988149451
 20
10.5886739492
 30
0.0
 10
11.9943250248
 20
10.5915759646
 30
0.0
 10
12.0002253712
 20
10.5945161037
 30
0.0
 10
12.0058470395
 20
10.5974925541
 30
0.0
 10
12.0111867034
 20
10.6005036379
 30
0.0
 10
12.0162412487
 20
10.6035475482
 30
0.0
 10
12.0210077186
 20
10.6066225321
 30
0.0
 10
12.025483305
 20
10.6097268366
 30
0.0
 10
12.0296654661
 20
10.6128586614
 30
0.0
 10
12.0335516039
 20
10.6160162162
 30
0.0
 10
12.035995653
 20
10.6181834196
 30
0.0
 10
12.0371648752
 20
10.6192715099
 30
0.0
  0
SPLINE
  5
359
100
AcDbEntity
  8
0
100
AcDbSpline
 62
7
  6
CONTINUOUS
 70
0
 71
3
 72
42
 73
38
 74
0
 42
0.0000001
 43
0.0000001
 44
0.0000000001
 40
0.0
 40
0.0
 40
0.0
 40
0.0
 40
0.0299419634
 40
0.0449235299
 40
0.0599142017
 40
0.0899287029
 40
0.1200139772
 40
0.1350926626
 40
0.1501967046
 40
0.1804840506
 40
0.2108978877
 40
0.2414513551
 40
0.2721543675
 40
0.3030134354
 40
0.3340315696
 40
0.3652082675
 40
0.3965395775
 40
0.4280182343
 40
0.4596338596
 40
0.4913732188
 40
0.5232205284
 40
0.5551578047
 40
0.5871652463
 40
0.6192216448
 40
0.6513048151
 40
0.6833920402
 40
0.7154605222
 40
0.747487836
 40
0.7794523759
 40
0.8113337934
 40
0.8431134117
 40
0.8747746318
 40
0.9063032512
 40
0.9376879208
 40
0.9533258
 40
0.9689252634
 40
1.0
 40
1.0
 40
1.0
 40
1.0
 10
9.0559273078
 20
10.2389094697
 30
0.0
 10
9.059560447
 20
10.2424187913
 30
0.0
 10
9.0652243144
 20
10.2474701244
 30
0.0
 10
9.0731564332
 20
10.2537377288
 30
0.0
 10
9.0813411502
 20
10.2596934476
 30
0.0
 10
9.0920208599
 20
10.2665325422
 30
0.0
 10
9.1032198237
 20
10.2725147708
 30
0.0
 10
9.1124560665
 20
10.2767705341
 30
0.0
 10
9.1218831029
 20
10.2806749777
 30
0.0
 10
9.1339775632
 20
10.2848733579
 30
0.0
 10
9.1488821523
 20
10.288786143
 30
0.0
 10
9.1641119617
 20
10.2915580501
 30
0.0
 10
9.1795825903
 20
10.2931737868
 30
0.0
 10
9.1952090545
 20
10.2936247305
 30
0.0
 10
9.2109053729
 20
10.2929085862
 30
0.0
 10
9.2265852752
 20
10.2910294907
 30
0.0
 10
9.2421626073
 20
10.2879979536
 30
0.0
 10
9.2575518164
 20
10.2838307995
 30
0.0
 10
9.2726684104
 20
10.2785510683
 30
0.0
 10
9.2874294161
 20
10.2721878854
 30
0.0
 10
9.3017538281
 20
10.2647762996
 30
0.0
 10
9.3155630467
 20
10.2563570897
 30
0.0
 10
9.3287813043
 20
10.2469765409
 30
0.0
 10
9.3413360748
 20
10.2366861917
 30
0.0
 10
9.3531584679
 20
10.2255425536
 30
0.0
 10
9.3641836019
 20
10.2136068026
 30
0.0
 10
9.3743509567
 20
10.2009444477
 30
0.0
 10
9.3836047024
 20
10.1876249733
 30
0.0
 10
9.3918940032
 20
10.1737214668
 30
0.0
 10
9.3991732945
 20
10.1593102058
 30
0.0
 10
9.4054025299
 20
10.1444703046
 30
0.0
 10
9.410547413
 20
10.1292830653
 30
0.0
 10
9.4145795219
 20
10.1138323518
 30
0.0
 10
9.4169968609
 20
10.1007902746
 30
0.0
 10
9.4183529163
 20
10.0903111237
 30
0.0
 10
9.4193206997
 20
10.0798420005
 30
0.0
 10
9.4196137352
 20
10.0719640558
 30
0.0
 10
9.4196137352
 20
10.0667217145
 30
0.0
  0
SPLINE
  5
35A
100
AcDbEntity
  8
0
100
AcDbSpline
 62
7
  6
CONTINUOUS
 70
0
 71
3
 72
42
 73
38
 74
0
 42
0.0000001
 43
0.0000001
 44
0.0000000001
 40
0.0
 40
0.0
 40
0.0
 40
0.0
 40
0.0299419634
 40
0.0449235299
 40
0.0599142017
 40
0.0899287029
 40
0.1200139772
 40
0.1350926626
 40
0.1501967046
 40
0.1804840506
 40
0.2108978877
 40
0.2414513551
 40
0.2721543675
 40
0.3030134354
 40
0.3340315696
 40
0.3652082675
 40
0.3965395775
 40
0.4280182343
 40
0.4596338596
 40
0.4913732188
 40
0.5232205284
 40
0.5551578047
 40
0.5871652463
 40
0.6192216448
 40
0.6513048151
 40
0.6833920402
 40
0.7154605222
 40
0.747487836
 40
0.7794523759
 40
0.8113337934
 40
0.8431134117
 40
0.8747746318
 40
0.9063032512
 40
0.9376879208
 40
0.9533258
 40
0.9689252634
 40
1.0
 40
1.0
 40
1.0
 40
1.0
 10
12.0734798092
 20
10.029641493
 30
0.0
 10
12.0771129483
 20
10.0331508146
 30
0.0
 10
12.0827768158
 20
10.0382021477
 30
0.0
 10
12.0907089346
 20
10.044469752
 30
0.0
 10
12.0988936515
 20
10.0504254708
 30
0.0
 10
12.1095733613
 20
10.0572645655
 30
0.0
 10
12.120772325
 20
10.0632467941
 30
0.0
 10
12.1300085678
 20
10.0675025574
 30
0.0
 10
12.1394356043
 20
10.0714070009
 30
0.0
 10
12.1515300645
 20
10.0756053812
 30
0.0
 10
12.1664346536
 20
10.0795181663
 30
0.0
 10
12.1816644631
 20
10.0822900734
 30
0.0
 10
12.1971350916
 20
10.0839058101
 30
0.0
 10
12.2127615558
 20
10.0843567538
 30
0.0
 10
12.2284578743
 20
10.0836406095
 30
0.0
 10
12.2441377766
 20
10.081761514
 30
0.0
 10
12.2597151086
 20
10.0787299769
 30
0.0
 10
12.2751043177
 20
10.0745628227
 30
0.0
 10
12.2902209117
 20
10.0692830915
 30
0.0
 10
12.3049819175
 20
10.0629199087
 30
0.0
 10
12.3193063294
 20
10.0555083229
 30
0.0
 10
12.3331155481
 20
10.047089113
 30
0.0
 10
12.3463338056
 20
10.0377085641
 30
0.0
 10
12.3588885762
 20
10.027418215
 30
0.0
 10
12.3707109692
 20
10.0162745768
 30
0.0
 10
12.3817361032
 20
10.0043388259
 30
0.0
 10
12.391903458
 20
9.9916764709
 30
0.0
 10
12.4011572037
 20
9.9783569965
 30
0.0
 10
12.4094465046
 20
9.9644534901
 30
0.0
 10
12.4167257959
 20
9.9500422291
 30
0.0
 10
12.4229550312
 20
9.9352023279
 30
0.0
 10
12.4280999143
 20
9.9200150885
 30
0.0
 10
12.4321320233
 20
9.9045643751
 30
0.0
 10
12.4345493622
 20
9.8915222979
 30
0.0
 10
12.4359054176
 20
9.881043147
 30
0.0
 10
12.4368732011
 20
9.8705740238
 30
0.0
 10
12.4371662366
 20
9.862696079
 30
0.0
 10
12.4371662366
 20
9.8574537378
 30
0.0
  0
SPLINE
  5
35B
100
AcDbEntity
  8
0
100
AcDbSpline
 62
7
  6
CONTINUOUS
 70
0
 71
3
 72
42
 73
38
 74
0
 42
0.0000001
 43
0.0000001
 44
0.0000000001
 40
0.0
 40
0.0
 40
0.0
 40
0.0
 40
0.0299419634
 40
0.0449235299
 40
0.0599142017
 40
0.0899287029
 40
0.1200139772
 40
0.1350926626
 40
0.1501967046
 40
0.1804840506
 40
0.2108978877
 40
0.2414513551
 40
0.2721543675
 40
0.3030134354
 40
0.3340315696
 40
0.3652082675
 40
0.3965395775
 40
0.4280182343
 40
0.4596338596
 40
0.4913732188
 40
0.5232205284
 40
0.5551578047
 40
0.5871652463
 40
0.6192216448
 40
0.6513048151
 40
0.6833920402
 40
0.7154605222
 40
0.747487836
 40
0.7794523759
 40
0.8113337934
 40
0.8431134117
 40
0.8747746318
 40
0.9063032512
 40
0.9376879208
 40
0.9533258
 40
0.9689252634
 40
1.0
 40
1.0
 40
1.0
 40
1.0
 10
12.0734798092
 20
6.5291262802
 30
0.0
 10
12.0771129483
 20
6.5326356017
 30
0.0
 10
12.0827768158
 20
6.5376869349
 30
0.0
 10
12.0907089346
 20
6.5439545392
 30
0.0
 10
12.0988936515
 20
6.549910258
 30
0.0
 10
12.1095733613
 20
6.5567493527
 30
0.0
 10
12.120772325
 20
6.5627315813
 30
0.0
 10
12.1300085678
 20
6.5669873446
 30
0.0
 10
12.1394356043
 20
6.5708917881
 30
0.0
 10
12.1515300645
 20
6.5750901684
 30
0.0
 10
12.1664346536
 20
6.5790029535
 30
0.0
 10
12.1816644631
 20
6.5817748606
 30
0.0
 10
12.1971350916
 20
6.5833905973
 30
0.0
 10
12.2127615558
 20
6.583841541
 30
0.0
 10
12.2284578743
 20
6.5831253966
 30
0.0
 10
12.2441377766
 20
6.5812463012
 30
0.0
 10
12.2597151086
 20
6.5782147641
 30
0.0
 10
12.2751043177
 20
6.5740476099
 30
0.0
 10
12.2902209117
 20
6.5687678787
 30
0.0
 10
12.3049819175
 20
6.5624046958
 30
0.0
 10
12.3193063294
 20
6.5549931101
 30
0.0
 10
12.3331155481
 20
6.5465739002
 30
0.0
 10
12.3463338056
 20
6.5371933513
 30
0.0
 10
12.3588885762
 20
6.5269030022
 30
0.0
 10
12.3707109692
 20
6.515759364
 30
0.0
 10
12.3817361032
 20
6.503823613
 30
0.0
 10
12.391903458
 20
6.4911612581
 30
0.0
 10
12.4011572037
 20
6.4778417837
 30
0.0
 10
12.4094465046
 20
6.4639382772
 30
0.0
 10
12.4167257959
 20
6.4495270162
 30
0.0
 10
12.4229550312
 20
6.434687115
 30
0.0
 10
12.4280999143
 20
6.4194998757
 30
0.0
 10
12.4321320233
 20
6.4040491623
 30
0.0
 10
12.4345493622
 20
6.3910070851
 30
0.0
 10
12.4359054176
 20
6.3805279341
 30
0.0
 10
12.4368732011
 20
6.3700588109
 30
0.0
 10
12.4371662366
 20
6.3621808662
 30
0.0
 10
12.4371662366
 20
6.3569385249
 30
0.0
  0
SPLINE
  5
35C
100
AcDbEntity
  8
0
100
AcDbSpline
 62
7
  6
CONTINUOUS
 70
0
 71
3
 72
42
 73
38
 74
0
 42
0.0000001
 43
0.0000001
 44
0.0000000001
 40
0.0
 40
0.0
 40
0.0
 40
0.0
 40
0.0299419634
 40
0.0449235299
 40
0.0599142017
 40
0.0899287029
 40
0.1200139772
 40
0.1350926626
 40
0.1501967046
 40
0.1804840506
 40
0.2108978877
 40
0.2414513551
 40
0.2721543675
 40
0.3030134354
 40
0.3340315696
 40
0.3652082675
 40
0.3965395775
 40
0.4280182343
 40
0.4596338596
 40
0.4913732188
 40
0.5232205284
 40
0.5551578047
 40
0.5871652463
 40
0.6192216448
 40
0.6513048151
 40
0.6833920402
 40
0.7154605222
 40
0.747487836
 40
0.7794523759
 40
0.8113337934
 40
0.8431134117
 40
0.8747746318
 40
0.9063032512
 40
0.9376879208
 40
0.9533258
 40
0.9689252634
 40
1.0
 40
1.0
 40
1.0
 40
1.0
 10
9.0559273078
 20
6.7383942569
 30
0.0
 10
9.059560447
 20
6.7419035785
 30
0.0
 10
9.0652243144
 20
6.7469549116
 30
0.0
 10
9.0731564332
 20
6.753222516
 30
0.0
 10
9.0813411502
 20
6.7591782348
 30
0.0
 10
9.0920208599
 20
6.7660173294
 30
0.0
 10
9.1032198237
 20
6.771999558
 30
0.0
 10
9.1124560665
 20
6.7762553213
 30
0.0
 10
9.1218831029
 20
6.7801597649
 30
0.0
 10
9.1339775632
 20
6.7843581451
 30
0.0
 10
9.1488821523
 20
6.7882709302
 30
0.0
 10
9.1641119617
 20
6.7910428373
 30
0.0
 10
9.1795825903
 20
6.792658574
 30
0.0
 10
9.1952090545
 20
6.7931095177
 30
0.0
 10
9.2109053729
 20
6.7923933734
 30
0.0
 10
9.2265852752
 20
6.7905142779
 30
0.0
 10
9.2421626073
 20
6.7874827408
 30
0.0
 10
9.2575518164
 20
6.7833155867
 30
0.0
 10
9.2726684104
 20
6.7780358554
 30
0.0
 10
9.2874294161
 20
6.7716726726
 30
0.0
 10
9.3017538281
 20
6.7642610868
 30
0.0
 10
9.3155630467
 20
6.7558418769
 30
0.0
 10
9.3287813043
 20
6.7464613281
 30
0.0
 10
9.3413360748
 20
6.7361709789
 30
0.0
 10
9.3531584679
 20
6.7250273408
 30
0.0
 10
9.3641836019
 20
6.7130915898
 30
0.0
 10
9.3743509567
 20
6.7004292349
 30
0.0
 10
9.3836047024
 20
6.6871097605
 30
0.0
 10
9.3918940032
 20
6.673206254
 30
0.0
 10
9.3991732945
 20
6.658794993
 30
0.0
 10
9.4054025299
 20
6.6439550918
 30
0.0
 10
9.410547413
 20
6.6287678525
 30
0.0
 10
9.4145795219
 20
6.613317139
 30
0.0
 10
9.4169968609
 20
6.6002750618
 30
0.0
 10
9.4183529163
 20
6.5897959109
 30
0.0
 10
9.4193206997
 20
6.5793267877
 30
0.0
 10
9.4196137352
 20
6.571448843
 30
0.0
 10
9.4196137352
 20
6.5662065017
 30
0.0
  0
SPLINE
  5
35D
100
AcDbEntity
  8
0
100
AcDbSpline
 62
7
  6
CONTINUOUS
 70
0
 71
3
 72
42
 73
38
 74
0
 42
0.0000001
 43
0.0000001
 44
0.0000000001
 40
0.0
 40
0.0
 40
0.0
 40
0.0
 40
0.0299419634
 40
0.0449235299
 40
0.0599142017
 40
0.0899287029
 40
0.1200139772
 40
0.1350926626
 40
0.1501967046
 40
0.1804840506
 40
0.2108978877
 40
0.2414513551
 40
0.2721543675
 40
0.3030134354
 40
0.3340315696
 40
0.3652082675
 40
0.3965395775
 40
0.4280182343
 40
0.4596338596
 40
0.4913732188
 40
0.5232205284
 40
0.5551578047
 40
0.5871652463
 40
0.6192216448
 40
0.6513048151
 40
0.6833920402
 40
0.7154605222
 40
0.747487836
 40
0.7794523759
 40
0.8113337934
 40
0.8431134117
 40
0.8747746318
 40
0.9063032512
 40
0.9376879208
 40
0.9533258
 40
0.9689252634
 40
1.0
 40
1.0
 40
1.0
 40
1.0
 10
9.9001465712
 20
8.0987924424
 30
0.0
 10
9.9037797104
 20
8.102301764
 30
0.0
 10
9.9094435778
 20
8.1073530971
 30
0.0
 10
9.9173756966
 20
8.1136207014
 30
0.0
 10
9.9255604136
 20
8.1195764202
 30
0.0
 10
9.9362401234
 20
8.1264155149
 30
0.0
 10
9.9474390871
 20
8.1323977435
 30
0.0
 10
9.9566753299
 20
8.1366535068
 30
0.0
 10
9.9661023663
 20
8.1405579503
 30
0.0
 10
9.9781968266
 20
8.1447563306
 30
0.0
 10
9.9931014157
 20
8.1486691157
 30
0.0
 10
10.0083312252
 20
8.1514410228
 30
0.0
 10
10.0238018537
 20
8.1530567595
 30
0.0
 10
10.0394283179
 20
8.1535077032
 30
0.0
 10
10.0551246364
 20
8.1527915589
 30
0.0
 10
10.0708045387
 20
8.1509124634
 30
0.0
 10
10.0863818707
 20
8.1478809263
 30
0.0
 10
10.1017710798
 20
8.1437137721
 30
0.0
 10
10.1168876738
 20
8.1384340409
 30
0.0
 10
10.1316486796
 20
8.1320708581
 30
0.0
 10
10.1459730915
 20
8.1246592723
 30
0.0
 10
10.1597823102
 20
8.1162400624
 30
0.0
 10
10.1730005677
 20
8.1068595135
 30
0.0
 10
10.1855553383
 20
8.0965691644
 30
0.0
 10
10.1973777313
 20
8.0854255262
 30
0.0
 10
10.2084028653
 20
8.0734897753
 30
0.0
 10
10.2185702201
 20
8.0608274203
 30
0.0
 10
10.2278239658
 20
8.0475079459
 30
0.0
 10
10.2361132666
 20
8.0336044395
 30
0.0
 10
10.2433925579
 20
8.0191931785
 30
0.0
 10
10.2496217933
 20
8.0043532773
 30
0.0
 10
10.2547666764
 20
7.9891660379
 30
0.0
 10
10.2587987854
 20
7.9737153245
 30
0.0
 10
10.2612161243
 20
7.9606732473
 30
0.0
 10
10.2625721797
 20
7.9501940964
 30
0.0
 10
10.2635399632
 20
7.9397249732
 30
0.0
 10
10.2638329987
 20
7.9318470284
 30
0.0
 10
10.2638329987
 20
7.9266046872
 30
0.0
  0
SPLINE
  5
35E
100
AcDbEntity
  8
0
100
AcDbSpline
 62
7
  6
CONTINUOUS
 70
0
 71
3
 72
42
 73
38
 74
0
 42
0.0000001
 43
0.0000001
 44
0.0000000001
 40
0.0
 40
0.0
 40
0.0
 40
0.0
 40
0.0299419634
 40
0.0449235299
 40
0.0599142017
 40
0.0899287029
 40
0.1200139772
 40
0.1350926626
 40
0.1501967046
 40
0.1804840506
 40
0.2108978877
 40
0.2414513551
 40
0.2721543675
 40
0.3030134354
 40
0.3340315696
 40
0.3652082675
 40
0.3965395775
 40
0.4280182343
 40
0.4596338596
 40
0.4913732188
 40
0.5232205284
 40
0.5551578047
 40
0.5871652463
 40
0.6192216448
 40
0.6513048151
 40
0.6833920402
 40
0.7154605222
 40
0.747487836
 40
0.7794523759
 40
0.8113337934
 40
0.8431134117
 40
0.8747746318
 40
0.9063032512
 40
0.9376879208
 40
0.9533258
 40
0.9689252634
 40
1.0
 40
1.0
 40
1.0
 40
1.0
 10
10.4140190888
 20
8.4852649084
 30
0.0
 10
10.4176522279
 20
8.4887742299
 30
0.0
 10
10.4233160954
 20
8.4938255631
 30
0.0
 10
10.4312482142
 20
8.5000931674
 30
0.0
 10
10.4394329311
 20
8.5060488862
 30
0.0
 10
10.4501126409
 20
8.5128879809
 30
0.0
 10
10.4613116046
 20
8.5188702094
 30
0.0
 10
10.4705478474
 20
8.5231259728
 30
0.0
 10
10.4799748839
 20
8.5270304163
 30
0.0
 10
10.4920693441
 20
8.5312287966
 30
0.0
 10
10.5069739332
 20
8.5351415817
 30
0.0
 10
10.5222037427
 20
8.5379134887
 30
0.0
 10
10.5376743712
 20
8.5395292254
 30
0.0
 10
10.5533008354
 20
8.5399801691
 30
0.0
 10
10.5689971539
 20
8.5392640248
 30
0.0
 10
10.5846770562
 20
8.5373849294
 30
0.0
 10
10.6002543882
 20
8.5343533922
 30
0.0
 10
10.6156435973
 20
8.5301862381
 30
0.0
 10
10.6307601913
 20
8.5249065069
 30
0.0
 10
10.6455211971
 20
8.518543324
 30
0.0
 10
10.659845609
 20
8.5111317383
 30
0.0
 10
10.6736548277
 20
8.5027125284
 30
0.0
 10
10.6868730852
 20
8.4933319795
 30
0.0
 10
10.6994278558
 20
8.4830416304
 30
0.0
 10
10.7112502488
 20
8.4718979922
 30
0.0
 10
10.7222753828
 20
8.4599622412
 30
0.0
 10
10.7324427376
 20
8.4472998863
 30
0.0
 10
10.7416964833
 20
8.4339804119
 30
0.0
 10
10.7499857842
 20
8.4200769054
 30
0.0
 10
10.7572650755
 20
8.4056656444
 30
0.0
 10
10.7634943108
 20
8.3908257432
 30
0.0
 10
10.7686391939
 20
8.3756385039
 30
0.0
 10
10.7726713029
 20
8.3601877905
 30
0.0
 10
10.7750886418
 20
8.3471457133
 30
0.0
 10
10.7764446972
 20
8.3366665623
 30
0.0
 10
10.7774124807
 20
8.3261974391
 30
0.0
 10
10.7777055162
 20
8.3183194944
 30
0.0
 10
10.7777055162
 20
8.3130771531
 30
0.0
  0
SPLINE
  5
35F
100
AcDbEntity
  8
0
100
AcDbSpline
 62
7
  6
CONTINUOUS
 70
0
 71
3
 72
18
 73
14
 74
0
 42
0.0000001
 43
0.0000001
 44
0.0000000001
 40
0.0
 40
0.0
 40
0.0
 40
0.0
 40
0.064936263
 40
0.1294303641
 40
0.1935299256
 40
0.2572765344
 40
0.3838091034
 40
0.5092649998
 40
0.6337251518
 40
0.7571464505
 40
0.8184279012
 40
0.8793692697
 40
1.0
 40
1.0
 40
1.0
 40
1.0
 10
10.766915116
 20
8.3800083314
 30
0.0
 10
10.7647740051
 20
8.3815418978
 30
0.0
 10
10.7605897421
 20
8.3847168985
 30
0.0
 10
10.7545982448
 20
8.3897927865
 30
0.0
 10
10.7489145457
 20
8.3951412017
 30
0.0
 10
10.7417654306
 20
8.4025846422
 30
0.0
 10
10.7335818479
 20
8.4124615195
 30
0.0
 10
10.7249513646
 20
8.4250799502
 30
0.0
 10
10.7175070378
 20
8.4382855697
 30
0.0
 10
10.7122577847
 20
8.4496886269
 30
0.0
 10
10.7086297788
 20
8.4589696606
 30
0.0
 10
10.7053979853
 20
8.4682757695
 30
0.0
 10
10.7033763059
 20
8.475366414
 30
0.0
 10
10.7022122697
 20
8.4801184223
 30
0.0
  0
SPLINE
  5
360
100
AcDbEntity
  8
0
100
AcDbSpline
 62
7
  6
CONTINUOUS
 70
0
 71
3
 72
42
 73
38
 74
0
 42
0.0000001
 43
0.0000001
 44
0.0000000001
 40
0.0
 40
0.0
 40
0.0
 40
0.0
 40
0.0299419634
 40
0.0449235299
 40
0.0599142017
 40
0.0899287029
 40
0.1200139772
 40
0.1350926626
 40
0.1501967046
 40
0.1804840506
 40
0.2108978877
 40
0.2414513551
 40
0.2721543675
 40
0.3030134354
 40
0.3340315696
 40
0.3652082675
 40
0.3965395775
 40
0.4280182343
 40
0.4596338596
 40
0.4913732188
 40
0.5232205284
 40
0.5551578047
 40
0.5871652463
 40
0.6192216448
 40
0.6513048151
 40
0.6833920402
 40
0.7154605222
 40
0.747487836
 40
0.7794523759
 40
0.8113337934
 40
0.8431134117
 40
0.8747746318
 40
0.9063032512
 40
0.9376879208
 40
0.9533258
 40
0.9689252634
 40
1.0
 40
1.0
 40
1.0
 40
1.0
 10
11.198350826
 20
8.4308713176
 30
0.0
 10
11.2019839652
 20
8.4343806392
 30
0.0
 10
11.2076478326
 20
8.4394319723
 30
0.0
 10
11.2155799514
 20
8.4456995767
 30
0.0
 10
11.2237646684
 20
8.4516552955
 30
0.0
 10
11.2344443782
 20
8.4584943901
 30
0.0
 10
11.2456433419
 20
8.4644766187
 30
0.0
 10
11.2548795847
 20
8.468732382
 30
0.0
 10
11.2643066211
 20
8.4726368256
 30
0.0
 10
11.2764010814
 20
8.4768352058
 30
0.0
 10
11.2913056705
 20
8.480747991
 30
0.0
 10
11.30653548
 20
8.483519898
 30
0.0
 10
11.3220061085
 20
8.4851356347
 30
0.0
 10
11.3376325727
 20
8.4855865784
 30
0.0
 10
11.3533288912
 20
8.4848704341
 30
0.0
 10
11.3690087935
 20
8.4829913386
 30
0.0
 10
11.3845861255
 20
8.4799598015
 30
0.0
 10
11.3999753346
 20
8.4757926474
 30
0.0
 10
11.4150919286
 20
8.4705129162
 30
0.0
 10
11.4298529344
 20
8.4641497333
 30
0.0
 10
11.4441773463
 20
8.4567381475
 30
0.0
 10
11.457986565
 20
8.4483189376
 30
0.0
 10
11.4712048225
 20
8.4389383888
 30
0.0
 10
11.4837595931
 20
8.4286480396
 30
0.0
 10
11.4955819861
 20
8.4175044015
 30
0.0
 10
11.5066071201
 20
8.4055686505
 30
0.0
 10
11.5167744749
 20
8.3929062956
 30
0.0
 10
11.5260282206
 20
8.3795868212
 30
0.0
 10
11.5343175214
 20
8.3656833147
 30
0.0
 10
11.5415968127
 20
8.3512720537
 30
0.0
 10
11.5478260481
 20
8.3364321525
 30
0.0
 10
11.5529709312
 20
8.3212449132
 30
0.0
 10
11.5570030402
 20
8.3057941997
 30
0.0
 10
11.5594203791
 20
8.2927521225
 30
0.0
 10
11.5607764345
 20
8.2822729716
 30
0.0
 10
11.561744218
 20
8.2718038484
 30
0.0
 10
11.5620372535
 20
8.2639259037
 30
0.0
 10
11.5620372535
 20
8.2586835624
 30
0.0
  0
SPLINE
  5
361
100
AcDbEntity
  8
0
100
AcDbSpline
 62
7
  6
CONTINUOUS
 70
0
 71
3
 72
42
 73
38
 74
0
 42
0.0000001
 43
0.0000001
 44
0.0000000001
 40
0.0
 40
0.0
 40
0.0
 40
0.0
 40
0.0299419634
 40
0.0449235299
 40
0.0599142017
 40
0.0899287029
 40
0.1200139772
 40
0.1350926626
 40
0.1501967046
 40
0.1804840506
 40
0.2108978877
 40
0.2414513551
 40
0.2721543675
 40
0.3030134354
 40
0.3340315696
 40
0.3652082675
 40
0.3965395775
 40
0.4280182343
 40
0.4596338596
 40
0.4913732188
 40
0.5232205284
 40
0.5551578047
 40
0.5871652463
 40
0.6192216448
 40
0.6513048151
 40
0.6833920402
 40
0.7154605222
 40
0.747487836
 40
0.7794523759
 40
0.8113337934
 40
0.8431134117
 40
0.8747746318
 40
0.9063032512
 40
0.9376879208
 40
0.9533258
 40
0.9689252634
 40
1.0
 40
1.0
 40
1.0
 40
1.0
 10
10.806185015
 20
9.0318279512
 30
0.0
 10
10.8098181541
 20
9.0353372727
 30
0.0
 10
10.8154820216
 20
9.0403886059
 30
0.0
 10
10.8234141404
 20
9.0466562102
 30
0.0
 10
10.8315988573
 20
9.052611929
 30
0.0
 10
10.8422785671
 20
9.0594510237
 30
0.0
 10
10.8534775309
 20
9.0654332522
 30
0.0
 10
10.8627137736
 20
9.0696890156
 30
0.0
 10
10.8721408101
 20
9.0735934591
 30
0.0
 10
10.8842352704
 20
9.0777918394
 30
0.0
 10
10.8991398594
 20
9.0817046245
 30
0.0
 10
10.9143696689
 20
9.0844765315
 30
0.0
 10
10.9298402975
 20
9.0860922682
 30
0.0
 10
10.9454667616
 20
9.0865432119
 30
0.0
 10
10.9611630801
 20
9.0858270676
 30
0.0
 10
10.9768429824
 20
9.0839479722
 30
0.0
 10
10.9924203144
 20
9.0809164351
 30
0.0
 10
11.0078095235
 20
9.0767492809
 30
0.0
 10
11.0229261176
 20
9.0714695497
 30
0.0
 10
11.0376871233
 20
9.0651063668
 30
0.0
 10
11.0520115352
 20
9.0576947811
 30
0.0
 10
11.0658207539
 20
9.0492755712
 30
0.0
 10
11.0790390114
 20
9.0398950223
 30
0.0
 10
11.091593782
 20
9.0296046732
 30
0.0
 10
11.1034161751
 20
9.018461035
 30
0.0
 10
11.1144413091
 20
9.006525284
 30
0.0
 10
11.1246086639
 20
8.9938629291
 30
0.0
 10
11.1338624096
 20
8.9805434547
 30
0.0
 10
11.1421517104
 20
8.9666399482
 30
0.0
 10
11.1494310017
 20
8.9522286872
 30
0.0
 10
11.155660237
 20
8.937388786
 30
0.0
 10
11.1608051201
 20
8.9222015467
 30
0.0
 10
11.1648372291
 20
8.9067508333
 30
0.0
 10
11.167254568
 20
8.8937087561
 30
0.0
 10
11.1686106234
 20
8.8832296051
 30
0.0
 10
11.1695784069
 20
8.8727604819
 30
0.0
 10
11.1698714424
 20
8.8648825372
 30
0.0
 10
11.1698714424
 20
8.8596401959
 30
0.0
  0
SPLINE
  5
362
100
AcDbEntity
  8
0
100
AcDbSpline
 62
7
  6
CONTINUOUS
 70
0
 71
3
 72
15
 73
11
 74
0
 42
0.0000001
 43
0.0000001
 44
0.0000000001
 40
0.0
 40
0.0
 40
0.0
 40
0.0
 40
0.1233171246
 40
0.246817186
 40
0.370674996
 40
0.4950495944
 40
0.6200773049
 40
0.7458671643
 40
0.8724927461
 40
1.0
 40
1.0
 40
1.0
 40
1.0
 10
9.862922922
 20
9.2698617363
 30
0.0
 10
9.8653464611
 20
9.2722027014
 30
0.0
 10
9.8704536441
 20
9.276630619
 30
0.0
 10
9.8787890432
 20
9.2824167324
 30
0.0
 10
9.8877207226
 20
9.287294329
 30
0.0
 10
9.8971572366
 20
9.2912133022
 30
0.0
 10
9.9070034004
 20
9.2941347526
 30
0.0
 10
9.9171600317
 20
9.2960294509
 30
0.0
 10
9.9275234537
 20
9.296878975
 30
0.0
 10
9.9344798837
 20
9.2967432859
 30
0.0
 10
9.9379555461
 20
9.2965022479
 30
0.0
  0
SPLINE
  5
363
100
AcDbEntity
  8
0
100
AcDbSpline
 62
7
  6
CONTINUOUS
 70
0
 71
3
 72
15
 73
11
 74
0
 42
0.0000001
 43
0.0000001
 44
0.0000000001
 40
0.0
 40
0.0
 40
0.0
 40
0.0
 40
0.1233171246
 40
0.246817186
 40
0.370674996
 40
0.4950495944
 40
0.6200773049
 40
0.7458671643
 40
0.8724927461
 40
1.0
 40
1.0
 40
1.0
 40
1.0
 10
11.9145495686
 20
9.1275809451
 30
0.0
 10
11.9169731077
 20
9.1299219102
 30
0.0
 10
11.9220802908
 20
9.1343498278
 30
0.0
 10
11.9304156898
 20
9.1401359412
 30
0.0
 10
11.9393473693
 20
9.1450135378
 30
0.0
 10
11.9487838833
 20
9.148932511
 30
0.0
 10
11.958630047
 20
9.1518539614
 30
0.0
 10
11.9687866783
 20
9.1537486597
 30
0.0
 10
11.9791501003
 20
9.1545981838
 30
0.0
 10
11.9861065304
 20
9.1544624947
 30
0.0
 10
11.9895821927
 20
9.1542214567
 30
0.0
  0
SPLINE
  5
364
100
AcDbEntity
  8
0
100
AcDbSpline
 62
7
  6
CONTINUOUS
 70
0
 71
3
 72
15
 73
11
 74
0
 42
0.0000001
 43
0.0000001
 44
0.0000000001
 40
0.0
 40
0.0
 40
0.0
 40
0.0
 40
0.1233171246
 40
0.246817186
 40
0.370674996
 40
0.4950495944
 40
0.6200773049
 40
0.7458671643
 40
0.8724927461
 40
1.0
 40
1.0
 40
1.0
 40
1.0
 10
11.9145495686
 20
7.3763573533
 30
0.0
 10
11.9169731077
 20
7.3786983184
 30
0.0
 10
11.9220802908
 20
7.383126236
 30
0.0
 10
11.9304156898
 20
7.3889123494
 30
0.0
 10
11.9393473693
 20
7.393789946
 30
0.0
 10
11.9487838833
 20
7.3977089191
 30
0.0
 10
11.958630047
 20
7.4006303696
 30
0.0
 10
11.9687866783
 20
7.4025250679
 30
0.0
 10
11.9791501003
 20
7.403374592
 30
0.0
 10
11.9861065304
 20
7.4032389029
 30
0.0
 10
11.9895821927
 20
7.4029978649
 30
0.0
  0
SPLINE
  5
365
100
AcDbEntity
  8
0
100
AcDbSpline
 62
7
  6
CONTINUOUS
 70
0
 71
3
 72
15
 73
11
 74
0
 42
0.0000001
 43
0.0000001
 44
0.0000000001
 40
0.0
 40
0.0
 40
0.0
 40
0.0
 40
0.1233171246
 40
0.246817186
 40
0.370674996
 40
0.4950495944
 40
0.6200773049
 40
0.7458671643
 40
0.8724927461
 40
1.0
 40
1.0
 40
1.0
 40
1.0
 10
9.862922922
 20
7.5186381445
 30
0.0
 10
9.8653464611
 20
7.5209791095
 30
0.0
 10
9.8704536441
 20
7.5254070272
 30
0.0
 10
9.8787890432
 20
7.5311931406
 30
0.0
 10
9.8877207226
 20
7.5360707372
 30
0.0
 10
9.8971572366
 20
7.5399897103
 30
0.0
 10
9.9070034004
 20
7.5429111607
 30
0.0
 10
9.9171600317
 20
7.5448058591
 30
0.0
 10
9.9275234537
 20
7.5456553832
 30
0.0
 10
9.9344798837
 20
7.5455196941
 30
0.0
 10
9.9379555461
 20
7.5452786561
 30
0.0
  0
SPLINE
  5
366
100
AcDbEntity
  8
0
100
AcDbSpline
 62
7
  6
CONTINUOUS
 70
0
 71
3
 72
38
 73
34
 74
0
 42
0.0000001
 43
0.0000001
 44
0.0000000001
 40
0.0
 40
0.0
 40
0.0
 40
0.0
 40
0.0072740291
 40
0.0148705467
 40
0.0227981199
 40
0.0310634322
 40
0.0396716723
 40
0.0486267104
 40
0.0579310866
 40
0.0675864128
 40
0.087949966
 40
0.1097139675
 40
0.1328621013
 40
0.1573687464
 40
0.1832004224
 40
0.2103168751
 40
0.2386718919
 40
0.2682139819
 40
0.29888699
 40
0.3306305745
 40
0.3633806086
 40
0.3970695153
 40
0.4316266425
 40
0.4669785851
 40
0.5030494707
 40
0.5397612151
 40
0.5770337978
 40
0.6147855483
 40
0.6913914982
 40
0.7689038028
 40
0.8466350203
 40
0.9238949572
 40
1.0
 40
1.0
 40
1.0
 40
1.0
 10
10.60126921
 20
10.7502045503
 30
0.0
 10
10.600489729
 20
10.7494791563
 30
0.0
 10
10.5988603639
 20
10.7480343554
 30
0.0
 10
10.5962696122
 20
10.7459293145
 30
0.0
 10
10.5934815091
 20
10.743841428
 30
0.0
 10
10.5904977844
 20
10.7417718997
 30
0.0
 10
10.5873201488
 20
10.7397218934
 30
0.0
 10
10.5839504493
 20
10.7376926367
 30
0.0
 10
10.5803906767
 20
10.7356852211
 30
0.0
 10
10.5753029355
 20
10.7329915466
 30
0.0
 10
10.568472729
 20
10.7296972835
 30
0.0
 10
10.5596944079
 20
10.7259170458
 30
0.0
 10
10.5502145517
 20
10.7222513931
 30
0.0
 10
10.540055482
 20
10.7187090366
 30
0.0
 10
10.5292409492
 20
10.7152984098
 30
0.0
 10
10.517796424
 20
10.7120276766
 30
0.0
 10
10.5057489201
 20
10.7089046717
 30
0.0
 10
10.493126947
 20
10.7059368739
 30
0.0
 10
10.4799604112
 20
10.7031313991
 30
0.0
 10
10.466280537
 20
10.7004949759
 30
0.0
 10
10.4521197926
 20
10.6980339319
 30
0.0
 10
10.4375118133
 20
10.695754159
 30
0.0
 10
10.422491312
 20
10.6936611165
 30
0.0
 10
10.4070939893
 20
10.6917598186
 30
0.0
 10
10.3913564458
 20
10.6900548223
 30
0.0
 10
10.375316112
 20
10.6885502168
 30
0.0
 10
10.3590111067
 20
10.6872495715
 30
0.0
 10
10.3368628536
 20
10.6857845111
 30
0.0
 10
10.3088027551
 20
10.6844890419
 30
0.0
 10
10.2748676198
 20
10.6837902543
 30
0.0
 10
10.2408297394
 20
10.6839467487
 30
0.0
 10
10.2070128179
 20
10.6849569615
 30
0.0
 10
10.1845944798
 20
10.6862061328
 30
0.0
 10
10.1734806874
 20
10.6869768769
 30
0.0
  0
SPLINE
  5
367
100
AcDbEntity
  8
0
100
AcDbSpline
 62
7
  6
CONTINUOUS
 70
0
 71
3
 72
11
 73
7
 74
0
 42
0.0000001
 43
0.0000001
 44
0.0000000001
 40
0.0
 40
0.0
 40
0.0
 40
0.0
 40
0.2580106012
 40
0.5092247017
 40
0.7557920603
 40
1.0
 40
1.0
 40
1.0
 40
1.0
 10
12.0086797096
 20
10.5990978973
 30
0.0
 10
12.0091192651
 20
10.6001695068
 30
0.0
 10
12.009895169
 20
10.6023237515
 30
0.0
 10
12.0107408716
 20
10.6056148523
 30
0.0
 10
12.0112488994
 20
10.6089122357
 30
0.0
 10
12.0113620665
 20
10.6111170307
 30
0.0
 10
12.0113620712
 20
10.6122133236
 30
0.0
  0
SPLINE
  5
368
100
AcDbEntity
  8
0
100
AcDbSpline
 62
7
  6
CONTINUOUS
 70
0
 71
3
 72
53
 73
49
 74
0
 42
0.0000001
 43
0.0000001
 44
0.0000000001
 40
0.0
 40
0.0
 40
0.0
 40
0.0
 40
0.0055575334
 40
0.0111779591
 40
0.0169218931
 40
0.0228457847
 40
0.029000565
 40
0.0354309743
 40
0.0421754345
 40
0.0492662879
 40
0.0567303589
 40
0.0645894686
 40
0.0728611764
 40
0.0815592161
 40
0.0906941791
 40
0.1002737964
 40
0.1103034837
 40
0.1207865163
 40
0.1317244176
 40
0.1431170941
 40
0.1549630719
 40
0.1672596408
 40
0.1800029545
 40
0.1931882087
 40
0.2068096306
 40
0.2208606897
 40
0.2353340137
 40
0.2502216112
 40
0.2655147581
 40
0.2812041995
 40
0.3137312779
 40
0.3477186146
 40
0.3830737319
 40
0.419697545
 40
0.4574851157
 40
0.4963263298
 40
0.5361065238
 40
0.5767070763
 40
0.6180059734
 40
0.6598783563
 40
0.7021970576
 40
0.7448331294
 40
0.7876563632
 40
0.8305358211
 40
0.8733403081
 40
0.9159390405
 40
0.9582017244
 40
1.0
 40
1.0
 40
1.0
 40
1.0
 10
12.2263620589
 20
10.686589434
 30
0.0
 10
12.2263620555
 20
10.6848701404
 30
0.0
 10
12.226169555
 20
10.6814091032
 30
0.0
 10
12.2253055748
 20
10.6762360265
 30
0.0
 10
12.2238678506
 20
10.6710744827
 30
0.0
 10
12.2218591341
 20
10.6659304683
 30
0.0
 10
12.2192827476
 20
10.6608081511
 30
0.0
 10
12.2161421709
 20
10.6557114445
 30
0.0
 10
12.2124409396
 20
10.6506438777
 30
0.0
 10
12.2081827402
 20
10.6456088148
 30
0.0
 10
12.2033713136
 20
10.6406097138
 30
0.0
 10
12.1980107634
 20
10.6356499665
 30
0.0
 10
12.1921053792
 20
10.6307332097
 30
0.0
 10
12.1856599494
 20
10.6258629804
 30
0.0
 10
12.1786795526
 20
10.6210430585
 30
0.0
 10
12.1711697962
 20
10.6162770858
 30
0.0
 10
12.1631366437
 20
10.6115688811
 30
0.0
 10
12.1545865606
 20
10.6069221299
 30
0.0
 10
12.1455264083
 20
10.6023406035
 30
0.0
 10
12.1359635073
 20
10.5978279802
 30
0.0
 10
12.1259055938
 20
10.5933879288
 30
0.0
 10
12.1153608234
 20
10.5890240803
 30
0.0
 10
12.1043377713
 20
10.584739971
 30
0.0
 10
12.0928454014
 20
10.5805391505
 30
0.0
 10
12.0808930888
 20
10.5764250082
 30
0.0
 10
12.0684905754
 20
10.5724009812
 30
0.0
 10
12.0556479953
 20
10.5684703065
 30
0.0
 10
12.0423758386
 20
10.5646362851
 30
0.0
 10
12.0286849452
 20
10.5609019758
 30
0.0
 10
12.0096579006
 20
10.5560011305
 30
0.0
 10
11.9849033319
 20
10.5501619381
 30
0.0
 10
11.9540595155
 20
10.5436806811
 30
0.0
 10
11.9218314929
 20
10.537665191
 30
0.0
 10
11.8883247647
 20
10.5321353554
 30
0.0
 10
11.8536488433
 20
10.5271094832
 30
0.0
 10
11.8179172056
 20
10.5226041973
 30
0.0
 10
11.781246813
 20
10.5186343942
 30
0.0
 10
11.7437577432
 20
10.5152131941
 30
0.0
 10
11.7055727814
 20
10.5123519
 30
0.0
 10
11.666817013
 20
10.5100599625
 30
0.0
 10
11.6276174087
 20
10.5083449495
 30
0.0
 10
11.5881024043
 20
10.5072125236
 30
0.0
 10
11.5484014748
 20
10.5066664218
 30
0.0
 10
11.5086447142
 20
10.5067084496
 30
0.0
 10
11.4689623844
 20
10.5073384622
 30
0.0
 10
11.4294845328
 20
10.5085543922
 30
0.0
 10
11.3903405753
 20
10.510352203
 30
0.0
 10
11.3643828291
 20
10.5119451433
 30
0.0
 10
11.3514829847
 20
10.5128397505
 30
0.0
  0
SPLINE
  5
369
100
AcDbEntity
  8
0
100
AcDbSpline
 62
7
  6
CONTINUOUS
 70
0
 71
3
 72
11
 73
7
 74
0
 42
0.0000001
 43
0.0000001
 44
0.0000000001
 40
0.0
 40
0.0
 40
0.0
 40
0.0
 40
0.2580844875
 40
0.5093101537
 40
0.7558460213
 40
1.0
 40
1.0
 40
1.0
 40
1.0
 10
11.0540706451
 20
10.5990341753
 30
0.0
 10
11.0536268601
 20
10.6001108064
 30
0.0
 10
11.0528434183
 20
10.6022752119
 30
0.0
 10
11.0519894168
 20
10.6055824067
 30
0.0
 10
11.0514763619
 20
10.6088959779
 30
0.0
 10
11.0513620694
 20
10.6111116715
 30
0.0
 10
11.0513620741
 20
10.6122133236
 30
0.0
  0
SPLINE
  5
36A
100
AcDbEntity
  8
0
100
AcDbSpline
 62
7
  6
CONTINUOUS
 70
0
 71
3
 72
11
 73
7
 74
0
 42
0.0000001
 43
0.0000001
 44
0.0000000001
 40
0.0
 40
0.0
 40
0.0
 40
0.0
 40
0.256336411
 40
0.5072846295
 40
0.7545692895
 40
1.0
 40
1.0
 40
1.0
 40
1.0
 10
12.8620363247
 20
8.0325671916
 30
0.0
 10
12.8628974114
 20
8.0321869819
 30
0.0
 10
12.8646322736
 20
8.0315018019
 30
0.0
 10
12.8672893034
 20
8.0307041239
 30
0.0
 10
12.8699668328
 20
8.0301500853
 30
0.0
 10
12.8717671674
 20
8.0299432206
 30
0.0
 10
12.8726662524
 20
8.0298808656
 30
0.0
  0
SPLINE
  5
36B
100
AcDbEntity
  8
0
100
AcDbSpline
 62
7
  6
CONTINUOUS
 70
0
 71
3
 72
49
 73
45
 74
0
 42
0.0000001
 43
0.0000001
 44
0.0000000001
 40
0.0
 40
0.0
 40
0.0
 40
0.0
 40
0.0063158739
 40
0.0126706599
 40
0.0191024896
 40
0.0256480301
 40
0.0323419112
 40
0.039216248
 40
0.0536140773
 40
0.06119479
 40
0.0690565573
 40
0.0772176635
 40
0.0856940531
 40
0.0944994572
 40
0.1036455587
 40
0.1131423452
 40
0.122998104
 40
0.1332197191
 40
0.1438128355
 40
0.1547818436
 40
0.1661302067
 40
0.1778604088
 40
0.1899740704
 40
0.2024721524
 40
0.215354813
 40
0.2422706486
 40
0.2707129033
 40
0.3006638566
 40
0.3320991037
 40
0.3649883645
 40
0.3992962141
 40
0.4349826582
 40
0.4720035847
 40
0.5103111049
 40
0.5498539072
 40
0.5905775763
 40
0.6324248432
 40
0.6753357844
 40
0.7192480525
 40
0.764097054
 40
0.809816243
 40
0.856337252
 40
0.9035893524
 40
1.0
 40
1.0
 40
1.0
 40
1.0
 10
12.932167799
 20
7.8102380359
 30
0.0
 10
12.9309931199
 20
7.8103195026
 30
0.0
 10
12.9286420744
 20
7.810579078
 30
0.0
 10
12.9251418616
 20
7.8112557196
 30
0.0
 10
12.9216650384
 20
7.8122195346
 30
0.0
 10
12.9182136455
 20
7.8134698028
 30
0.0
 10
12.9147890488
 20
7.8150058158
 30
0.0
 10
12.910190707
 20
7.8174707536
 30
0.0
 10
12.9057172738
 20
7.8204882655
 30
0.0
 10
12.9013880925
 20
7.8239850368
 30
0.0
 10
12.8981181365
 20
7.8269332681
 30
0.0
 10
12.8948830635
 20
7.8301600715
 30
0.0
 10
12.8916837357
 20
7.8336643522
 30
0.0
 10
12.8885214578
 20
7.837444587
 30
0.0
 10
12.8853973463
 20
7.841499211
 30
0.0
 10
12.8823126696
 20
7.8458266099
 30
0.0
 10
12.8792685797
 20
7.8504249991
 30
0.0
 10
12.8762662739
 20
7.8552925183
 30
0.0
 10
12.8733069842
 20
7.8604272135
 30
0.0
 10
12.870391835
 20
7.8658269725
 30
0.0
 10
12.8675220466
 20
7.8714896212
 30
0.0
 10
12.8646987689
 20
7.877412848
 30
0.0
 10
12.8619231281
 20
7.8835942257
 30
0.0
 10
12.8591962826
 20
7.8900312582
 30
0.0
 10
12.855574029
 20
7.8990839293
 30
0.0
 10
12.851187862
 20
7.9110296259
 30
0.0
 10
12.8462104062
 20
7.9261379984
 30
0.0
 10
12.8414530646
 20
7.9421976987
 30
0.0
 10
12.8369237189
 20
7.9591823837
 30
0.0
 10
12.8326298739
 20
7.9770643652
 30
0.0
 10
12.8285786662
 20
7.9958143373
 30
0.0
 10
12.8247768409
 20
8.0154015461
 30
0.0
 10
12.8212307404
 20
8.0357938158
 30
0.0
 10
12.8179462692
 20
8.0569576076
 30
0.0
 10
12.8149288947
 20
8.0788580828
 30
0.0
 10
12.812183646
 20
8.1014591755
 30
0.0
 10
12.8097151055
 20
8.1247236523
 30
0.0
 10
12.8075273875
 20
8.1486131712
 30
0.0
 10
12.8056241328
 20
8.1730883384
 30
0.0
 10
12.80400851
 20
8.1981088022
 30
0.0
 10
12.8026832263
 20
8.223633299
 30
0.0
 10
12.8016504823
 20
8.24961971
 30
0.0
 10
12.8006593216
 20
8.2850633479
 30
0.0
 10
12.80037181
 20
8.311848533
 30
0.0
 10
12.80037181
 20
8.329822862
 30
0.0
  0
SPLINE
  5
36C
100
AcDbEntity
  8
0
100
AcDbSpline
 62
7
  6
CONTINUOUS
 70
0
 71
3
 72
11
 73
7
 74
0
 42
0.0000001
 43
0.0000001
 44
0.0000000001
 40
0.0
 40
0.0
 40
0.0
 40
0.0
 40
0.2561801717
 40
0.5071037162
 40
0.7544554855
 40
1.0
 40
1.0
 40
1.0
 40
1.0
 10
12.9283272066
 20
8.986427776
 30
0.0
 10
12.9292208229
 20
8.9866781155
 30
0.0
 10
12.9310101265
 20
8.9871043929
 30
0.0
 10
12.9337155085
 20
8.9875142055
 30
0.0
 10
12.9364078378
 20
8.9876862714
 30
0.0
 10
12.9381955959
 20
8.987642161
 30
0.0
 10
12.9390829559
 20
8.9875806191
 30
0.0
  0
SPLINE
  5
36D
100
AcDbEntity
  8
0
100
AcDbSpline
 62
7
  6
CONTINUOUS
 70
0
 71
3
 72
39
 73
35
 74
0
 42
0.0000001
 43
0.0000001
 44
0.0000000001
 40
0.0
 40
0.0
 40
0.0
 40
0.0
 40
0.0311444246
 40
0.0624434307
 40
0.0938882321
 40
0.1254710247
 40
0.1571788731
 40
0.1889972589
 40
0.2209091738
 40
0.2528958456
 40
0.2849370269
 40
0.317011416
 40
0.349097073
 40
0.3811718411
 40
0.4132137734
 40
0.4452015557
 40
0.477114921
 40
0.508935054
 40
0.5406449744
 40
0.5722298904
 40
0.6036775179
 40
0.634978359
 40
0.666125934
 40
0.6971169583
 40
0.7279514621
 40
0.758632843
 40
0.789167841
 40
0.8195664384
 40
0.8498416796
 40
0.8800094142
 40
0.9100879639
 40
0.9400977227
 40
0.9700606976
 40
1.0
 40
1.0
 40
1.0
 40
1.0
 10
11.9895821927
 20
7.194357874
 30
0.0
 10
11.987034845
 20
7.1945345332
 30
0.0
 10
11.9819385452
 20
7.1950752122
 30
0.0
 10
11.9743559134
 20
7.1964370811
 30
0.0
 10
11.9668544613
 20
7.198344784
 30
0.0
 10
11.9594747948
 20
7.2007878532
 30
0.0
 10
11.9522560418
 20
7.2037533386
 30
0.0
 10
11.9452367352
 20
7.2072253063
 30
0.0
 10
11.9384542637
 20
7.2111852355
 30
0.0
 10
11.931944773
 20
7.2156119781
 30
0.0
 10
11.9257429447
 20
7.2204819115
 30
0.0
 10
11.9198818219
 20
7.2257690576
 30
0.0
 10
11.9143926364
 20
7.2314452266
 30
0.0
 10
11.9093046447
 20
7.2374801645
 30
0.0
 10
11.9046449745
 20
7.243841712
 30
0.0
 10
11.9004384808
 20
7.2504959735
 30
0.0
 10
11.8967076174
 20
7.2574074961
 30
0.0
 10
11.893472306
 20
7.2645394501
 30
0.0
 10
11.8907498335
 20
7.2718538278
 30
0.0
 10
11.8885547669
 20
7.279311646
 30
0.0
 10
11.8868988735
 20
7.2868731502
 30
0.0
 10
11.8857910584
 20
7.2944980222
 30
0.0
 10
11.8852373136
 20
7.3021455922
 30
0.0
 10
11.8852406866
 20
7.3097750517
 30
0.0
 10
11.8858012503
 20
7.3173456695
 30
0.0
 10
11.8869160966
 20
7.3248170094
 30
0.0
 10
11.8885793591
 20
7.3321491455
 30
0.0
 10
11.8907822378
 20
7.3393028754
 30
0.0
 10
11.8935130377
 20
7.3462399271
 30
0.0
 10
11.8967572395
 20
7.3529231785
 30
0.0
 10
11.9004975241
 20
7.3593168114
 30
0.0
 10
11.9047140425
 20
7.3653866878
 30
0.0
 10
11.9093838235
 20
7.3710998857
 30
0.0
 10
11.9127840448
 20
7.374651984
 30
0.0
 10
11.9145495686
 20
7.3763573533
 30
0.0
  0
SPLINE
  5
36E
100
AcDbEntity
  8
0
100
AcDbSpline
 62
7
  6
CONTINUOUS
 70
0
 71
3
 72
39
 73
35
 74
0
 42
0.0000001
 43
0.0000001
 44
0.0000000001
 40
0.0
 40
0.0
 40
0.0
 40
0.0
 40
0.0314026163
 40
0.0630094802
 40
0.0948071156
 40
0.1267734443
 40
0.1588809719
 40
0.1910970226
 40
0.2233851133
 40
0.2557062446
 40
0.2880202668
 40
0.3202872758
 40
0.3524690062
 40
0.3845301827
 40
0.4164397934
 40
0.4481722512
 40
0.4797084083
 40
0.5110363787
 40
0.5421521198
 40
0.5730597435
 40
0.6037715204
 40
0.6343075558
 40
0.6646951112
 40
0.69496759
 40
0.7251632189
 40
0.7553234785
 40
0.7854913552
 40
0.8157095102
 40
0.8460184684
 40
0.8764549241
 40
0.9070502294
 40
0.9378293436
 40
0.9688091107
 40
1.0
 40
1.0
 40
1.0
 40
1.0
 10
11.9841469972
 20
9.1692559043
 30
0.0
 10
11.9882368057
 20
9.1689722751
 30
0.0
 10
11.9964205034
 20
9.1680001314
 30
0.0
 10
12.0085311286
 20
9.1653597814
 30
0.0
 10
12.02040701
 20
9.1615579954
 30
0.0
 10
12.0319326256
 20
9.1566316128
 30
0.0
 10
12.0429977453
 20
9.150628238
 30
0.0
 10
12.0534961046
 20
9.1436057011
 30
0.0
 10
12.0633270354
 20
9.1356315769
 30
0.0
 10
12.0723962127
 20
9.1267824851
 30
0.0
 10
12.080616593
 20
9.1171433807
 30
0.0
 10
12.0879092116
 20
9.106806751
 30
0.0
 10
12.0942039778
 20
9.0958717768
 30
0.0
 10
12.0994403072
 20
9.0844433686
 30
0.0
 10
12.103567689
 20
9.0726311818
 30
0.0
 10
12.1065461666
 20
9.0605485921
 30
0.0
 10
12.1083467478
 20
9.0483116439
 30
0.0
 10
12.1089517296
 20
9.03603796
 30
0.0
 10
12.1083548409
 20
9.0238456256
 30
0.0
 10
12.1065613466
 20
9.0118520794
 30
0.0
 10
12.1035880289
 20
9.0001729995
 30
0.0
 10
12.0994631276
 20
8.9889211743
 30
0.0
 10
12.094226085
 20
8.9782053922
 30
0.0
 10
12.0879271852
 20
8.9681293671
 30
0.0
 10
12.0806271007
 20
8.958790691
 30
0.0
 10
12.072396323
 20
8.9502798331
 30
0.0
 10
12.0633144971
 20
8.9426791711
 30
0.0
 10
12.0534695638
 20
8.9360621867
 30
0.0
 10
12.04295688
 20
8.9304927238
 30
0.0
 10
12.0318781939
 20
8.9260243874
 30
0.0
 10
12.0203407862
 20
8.9226999566
 30
0.0
 10
12.0084558046
 20
8.920551161
 30
0.0
 10
11.9963393922
 20
8.9195980311
 30
0.0
 10
11.9882092308
 20
8.9197653095
 30
0.0
 10
11.9841469972
 20
8.9200470263
 30
0.0
  0
SPLINE
  5
36F
100
AcDbEntity
  8
0
100
AcDbSpline
 62
7
  6
CONTINUOUS
 70
0
 71
3
 72
21
 73
17
 74
0
 42
0.0000001
 43
0.0000001
 44
0.0000000001
 40
0.0
 40
0.0
 40
0.0
 40
0.0
 40
0.1273176984
 40
0.2537999461
 40
0.3167619614
 40
0.3795355204
 40
0.4421314992
 40
0.5045621453
 40
0.5668413456
 40
0.6289845231
 40
0.6910084433
 40
0.7529310869
 40
0.8147714401
 40
0.8765493236
 40
0.9382852134
 40
1.0
 40
1.0
 40
1.0
 40
1.0
 10
12.0140906996
 20
6.3862789131
 30
0.0
 10
12.0140906996
 20
6.3930237212
 30
0.0
 10
12.0147345366
 20
6.4064777606
 30
0.0
 10
12.0171661279
 20
6.4231098577
 30
0.0
 10
12.0200723949
 20
6.4361562813
 30
0.0
 10
12.0227227589
 20
6.4457793298
 30
0.0
 10
12.0258407535
 20
6.4552313815
 30
0.0
 10
12.0294191903
 20
6.4644909161
 30
0.0
 10
12.033449819
 20
6.4735365175
 30
0.0
 10
12.0379234268
 20
6.482347309
 30
0.0
 10
12.0428296649
 20
6.4909029806
 30
0.0
 10
12.0481572186
 20
6.4991838145
 30
0.0
 10
12.053893853
 20
6.507170649
 30
0.0
 10
12.0600263743
 20
6.5148451416
 30
0.0
 10
12.0665403677
 20
6.5221893798
 30
0.0
 10
12.0711282605
 20
6.5268548724
 30
0.0
 10
12.0734798092
 20
6.5291262802
 30
0.0
  0
SPLINE
  5
370
100
AcDbEntity
  8
0
100
AcDbSpline
 62
7
  6
CONTINUOUS
 70
0
 71
3
 72
39
 73
35
 74
0
 42
0.0000001
 43
0.0000001
 44
0.0000000001
 40
0.0
 40
0.0
 40
0.0
 40
0.0
 40
0.0314026163
 40
0.0630094802
 40
0.0948071156
 40
0.1267734443
 40
0.1588809719
 40
0.1910970226
 40
0.2233851133
 40
0.2557062446
 40
0.2880202668
 40
0.3202872758
 40
0.3524690062
 40
0.3845301827
 40
0.4164397934
 40
0.4481722512
 40
0.4797084083
 40
0.5110363787
 40
0.5421521198
 40
0.5730597435
 40
0.6037715204
 40
0.6343075558
 40
0.6646951112
 40
0.69496759
 40
0.7251632189
 40
0.7553234785
 40
0.7854913552
 40
0.8157095102
 40
0.8460184684
 40
0.8764549241
 40
0.9070502294
 40
0.9378293436
 40
0.9688091107
 40
1.0
 40
1.0
 40
1.0
 40
1.0
 10
11.9841469972
 20
8.9200470263
 30
0.0
 10
11.9800571887
 20
8.9203306555
 30
0.0
 10
11.971873491
 20
8.9213027992
 30
0.0
 10
11.9597628658
 20
8.9239431492
 30
0.0
 10
11.9478869845
 20
8.9277449352
 30
0.0
 10
11.9363613688
 20
8.9326713178
 30
0.0
 10
11.9252962492
 20
8.9386746926
 30
0.0
 10
11.9147978898
 20
8.9456972295
 30
0.0
 10
11.904966959
 20
8.9536713536
 30
0.0
 10
11.8958977817
 20
8.9625204455
 30
0.0
 10
11.8876774014
 20
8.9721595499
 30
0.0
 10
11.8803847828
 20
8.9824961796
 30
0.0
 10
11.8740900166
 20
8.9934311538
 30
0.0
 10
11.8688536872
 20
9.0048595619
 30
0.0
 10
11.8647263054
 20
9.0166717488
 30
0.0
 10
11.8617478278
 20
9.0287543385
 30
0.0
 10
11.8599472467
 20
9.0409912867
 30
0.0
 10
11.8593422648
 20
9.0532649706
 30
0.0
 10
11.8599391535
 20
9.065457305
 30
0.0
 10
11.8617326478
 20
9.0774508512
 30
0.0
 10
11.8647059656
 20
9.0891299311
 30
0.0
 10
11.8688308668
 20
9.1003817563
 30
0.0
 10
11.8740679094
 20
9.1110975384
 30
0.0
 10
11.8803668092
 20
9.1211735635
 30
0.0
 10
11.8876668937
 20
9.1305122396
 30
0.0
 10
11.8958976715
 20
9.1390230974
 30
0.0
 10
11.9049794974
 20
9.1466237595
 30
0.0
 10
11.9148244306
 20
9.1532407439
 30
0.0
 10
11.9253371145
 20
9.1588102068
 30
0.0
 10
11.9364158005
 20
9.1632785432
 30
0.0
 10
11.9479532082
 20
9.166602974
 30
0.0
 10
11.9598381899
 20
9.1687517696
 30
0.0
 10
11.9719546023
 20
9.1697048994
 30
0.0
 10
11.9800847636
 20
9.1695376211
 30
0.0
 10
11.9841469972
 20
9.1692559043
 30
0.0
  0
SPLINE
  5
371
100
AcDbEntity
  8
0
100
AcDbSpline
 62
7
  6
CONTINUOUS
 70
0
 71
3
 72
54
 73
50
 74
0
 42
0.0000001
 43
0.0000001
 44
0.0000000001
 40
0.0
 40
0.0
 40
0.0
 40
0.0
 40
0.0528972703
 40
0.1050236102
 40
0.1562586956
 40
0.2064912169
 40
0.2556095761
 40
0.3035068022
 40
0.3500797459
 40
0.3952296382
 40
0.4388626511
 40
0.4808903716
 40
0.5212304867
 40
0.5598074629
 40
0.5965533244
 40
0.6314086405
 40
0.6643237754
 40
0.6952605309
 40
0.7241941465
 40
0.7379074947
 40
0.7511184105
 40
0.7638289449
 40
0.7760428194
 40
0.7877653084
 40
0.7990038589
 40
0.8097680706
 40
0.8200700738
 40
0.8299250591
 40
0.8393513485
 40
0.8483711549
 40
0.8570108247
 40
0.8653012609
 40
0.8732784613
 40
0.8809834857
 40
0.8884626614
 40
0.8957671673
 40
0.9029523224
 40
0.9100765681
 40
0.9171999641
 40
0.9243826074
 40
0.9316829711
 40
0.9391565341
 40
0.9468545557
 40
0.954823507
 40
0.9631046608
 40
0.9717340359
 40
0.9807428048
 40
0.9901573598
 40
1.0
 40
1.0
 40
1.0
 40
1.0
 10
10.3546538695
 20
10.8619767429
 30
0.0
 10
10.3601825139
 20
10.8615933301
 30
0.0
 10
10.3711542348
 20
10.8607577908
 30
0.0
 10
10.3874593667
 20
10.8592864356
 30
0.0
 10
10.4034639483
 20
10.8576088338
 30
0.0
 10
10.4191287322
 20
10.855729183
 30
0.0
 10
10.4344157574
 20
10.8536520351
 30
0.0
 10
10.4492877268
 20
10.8513825065
 30
0.0
 10
10.4637084619
 20
10.8489261698
 30
0.0
 10
10.4776428785
 20
10.8462890562
 30
0.0
 10
10.491057089
 20
10.8434776434
 30
0.0
 10
10.5039184958
 20
10.8404988304
 30
0.0
 10
10.516195882
 20
10.8373599375
 30
0.0
 10
10.5278594947
 20
10.8340686793
 30
0.0
 10
10.53888113
 20
10.830633133
 30
0.0
 10
10.5492341815
 20
10.8270617174
 30
0.0
 10
10.5588938435
 20
10.8233631403
 30
0.0
 10
10.5678368251
 20
10.8195464143
 30
0.0
 10
10.5747939163
 20
10.8162180778
 30
0.0
 10
10.5799746894
 20
10.813495318
 30
0.0
 10
10.5835981518
 20
10.8114660801
 30
0.0
 10
10.5870271014
 20
10.8094142945
 30
0.0
 10
10.5902595139
 20
10.8073412026
 30
0.0
 10
10.5932934247
 20
10.805247975
 30
0.0
 10
10.5961270458
 20
10.8031358756
 30
0.0
 10
10.598758687
 20
10.8010061164
 30
0.0
 10
10.6011867469
 20
10.7988598721
 30
0.0
 10
10.6034098115
 20
10.7966983991
 30
0.0
 10
10.6054264739
 20
10.7945228187
 30
0.0
 10
10.6072354967
 20
10.7923343326
 30
0.0
 10
10.6088357075
 20
10.7901341022
 30
0.0
 10
10.6102259243
 20
10.7879232471
 30
0.0
 10
10.6114051569
 20
10.7857030084
 30
0.0
 10
10.6123723076
 20
10.7834745853
 30
0.0
 10
10.6131264399
 20
10.7812393471
 30
0.0
 10
10.6136667274
 20
10.7789987837
 30
0.0
 10
10.6139923731
 20
10.776754522
 30
0.0
 10
10.6141030257
 20
10.7745083681
 30
0.0
 10
10.6139984363
 20
10.7722621835
 30
0.0
 10
10.6136787809
 20
10.7700178526
 30
0.0
 10
10.6131445691
 20
10.7677771487
 30
0.0
 10
10.6123963958
 20
10.765541751
 30
0.0
 10
10.6114352248
 20
10.7633131168
 30
0.0
 10
10.6102619564
 20
10.7610926171
 30
0.0
 10
10.6088776169
 20
10.7588815068
 30
0.0
 10
10.6072833292
 20
10.7566809369
 30
0.0
 10
10.6054801264
 20
10.7544921121
 30
0.0
 10
10.6034693197
 20
10.7523161943
 30
0.0
 10
10.6020240912
 20
10.7509070515
 30
0.0
 10
10.60126921
 20
10.7502045503
 30
0.0
  0
SPLINE
  5
372
100
AcDbEntity
  8
0
100
AcDbSpline
 62
7
  6
CONTINUOUS
 70
0
 71
3
 72
42
 73
38
 74
0
 42
0.0000001
 43
0.0000001
 44
0.0000000001
 40
0.0
 40
0.0
 40
0.0
 40
0.0
 40
0.0299419634
 40
0.0449235299
 40
0.0599142017
 40
0.0899287029
 40
0.1200139772
 40
0.1350926626
 40
0.1501967046
 40
0.1804840506
 40
0.2108978877
 40
0.2414513551
 40
0.2721543675
 40
0.3030134354
 40
0.3340315696
 40
0.3652082675
 40
0.3965395775
 40
0.4280182343
 40
0.4596338596
 40
0.4913732188
 40
0.5232205284
 40
0.5551578047
 40
0.5871652463
 40
0.6192216448
 40
0.6513048151
 40
0.6833920402
 40
0.7154605222
 40
0.747487836
 40
0.7794523759
 40
0.8113337934
 40
0.8431134117
 40
0.8747746318
 40
0.9063032512
 40
0.9376879208
 40
0.9533258
 40
0.9689252634
 40
1.0
 40
1.0
 40
1.0
 40
1.0
 10
9.3602246257
 20
9.9238743474
 30
0.0
 10
9.3565914865
 20
9.9203650258
 30
0.0
 10
9.3509276191
 20
9.9153136927
 30
0.0
 10
9.3429955003
 20
9.9090460884
 30
0.0
 10
9.3348107833
 20
9.9030903696
 30
0.0
 10
9.3241310735
 20
9.8962512749
 30
0.0
 10
9.3129321098
 20
9.8902690463
 30
0.0
 10
9.303695867
 20
9.886013283
 30
0.0
 10
9.2942688306
 20
9.8821088395
 30
0.0
 10
9.2821743703
 20
9.8779104592
 30
0.0
 10
9.2672697812
 20
9.8739976741
 30
0.0
 10
9.2520399717
 20
9.871225767
 30
0.0
 10
9.2365693432
 20
9.8696100303
 30
0.0
 10
9.220942879
 20
9.8691590866
 30
0.0
 10
9.2052465606
 20
9.8698752309
 30
0.0
 10
9.1895666582
 20
9.8717543264
 30
0.0
 10
9.1739893262
 20
9.8747858635
 30
0.0
 10
9.1586001171
 20
9.8789530177
 30
0.0
 10
9.1434835231
 20
9.8842327489
 30
0.0
 10
9.1287225174
 20
9.8905959317
 30
0.0
 10
9.1143981054
 20
9.8980075175
 30
0.0
 10
9.1005888867
 20
9.9064267274
 30
0.0
 10
9.0873706292
 20
9.9158072763
 30
0.0
 10
9.0748158586
 20
9.9260976254
 30
0.0
 10
9.0629934656
 20
9.9372412636
 30
0.0
 10
9.0519683316
 20
9.9491770145
 30
0.0
 10
9.0418009768
 20
9.9618393695
 30
0.0
 10
9.0325472311
 20
9.9751588439
 30
0.0
 10
9.0242579303
 20
9.9890623503
 30
0.0
 10
9.016978639
 20
10.0034736113
 30
0.0
 10
9.0107494036
 20
10.0183135125
 30
0.0
 10
9.0056045205
 20
10.0335007519
 30
0.0
 10
9.0015724115
 20
10.0489514653
 30
0.0
 10
8.9991550726
 20
10.0619935425
 30
0.0
 10
8.9977990172
 20
10.0724726934
 30
0.0
 10
8.9968312337
 20
10.0829418167
 30
0.0
 10
8.9965381983
 20
10.0908197614
 30
0.0
 10
8.9965381983
 20
10.0960621026
 30
0.0
  0
SPLINE
  5
373
100
AcDbEntity
  8
0
100
AcDbSpline
 62
7
  6
CONTINUOUS
 70
0
 71
3
 72
48
 73
44
 74
0
 42
0.0000001
 43
0.0000001
 44
0.0000000001
 40
0.0
 40
0.0
 40
0.0
 40
0.0
 40
0.0958287767
 40
0.1428190415
 40
0.1890973044
 40
0.2345926372
 40
0.2792364825
 40
0.3229620954
 40
0.3657047087
 40
0.407401818
 40
0.4479933573
 40
0.4874219524
 40
0.5256331251
 40
0.5625755503
 40
0.5982013669
 40
0.63246656
 40
0.6653313195
 40
0.6967604983
 40
0.7267241853
 40
0.7551984564
 40
0.7821662274
 40
0.8076183351
 40
0.8197764033
 40
0.8315565605
 40
0.8429605481
 40
0.8539910465
 40
0.8646516431
 40
0.8749469108
 40
0.8848826809
 40
0.8944659692
 40
0.9037052702
 40
0.9126106941
 40
0.9211940359
 40
0.929469141
 40
0.9374519366
 40
0.9451606785
 40
0.959834833
 40
0.9668566842
 40
0.9737035627
 40
0.9804067932
 40
0.9870000362
 40
0.9935188103
 40
1.0
 40
1.0
 40
1.0
 40
1.0
 10
11.7112411605
 20
10.8603394843
 30
0.0
 10
11.7293431474
 20
10.8590841073
 30
0.0
 10
11.7563022387
 20
10.8569125295
 30
0.0
 10
11.7919364227
 20
10.8534013569
 30
0.0
 10
11.8180525409
 20
10.8505064986
 30
0.0
 10
11.8436892203
 20
10.8473379712
 30
0.0
 10
11.8688035904
 20
10.8439010864
 30
0.0
 10
11.8933536745
 20
10.8402016323
 30
0.0
 10
11.9172984518
 20
10.8362458223
 30
0.0
 10
11.940597906
 20
10.8320403033
 30
0.0
 10
11.9632131196
 20
10.8275921423
 30
0.0
 10
11.9851063359
 20
10.8229088277
 30
0.0
 10
12.0062410197
 20
10.8179982368
 30
0.0
 10
12.0265819161
 20
10.8128686255
 30
0.0
 10
12.0460951213
 20
10.8075286116
 30
0.0
 10
12.0647481558
 20
10.8019871809
 30
0.0
 10
12.0825100142
 20
10.7962536449
 30
0.0
 10
12.0993512281
 20
10.7903376228
 30
0.0
 10
12.1152438949
 20
10.7842490132
 30
0.0
 10
12.1301618795
 20
10.7779979675
 30
0.0
 10
12.144080437
 20
10.7715949077
 30
0.0
 10
12.154988244
 20
10.7660597829
 30
0.0
 10
12.163184542
 20
10.7615545077
 30
0.0
 10
12.1689736056
 20
10.7581958816
 30
0.0
 10
12.1744962234
 20
10.7548072927
 30
0.0
 10
12.1797501366
 20
10.7513901268
 30
0.0
 10
12.184733183
 20
10.7479457999
 30
0.0
 10
12.1894432789
 20
10.7444756614
 30
0.0
 10
12.1938785203
 20
10.7409811712
 30
0.0
 10
12.1980370522
 20
10.7374636855
 30
0.0
 10
12.2019171546
 20
10.7339245989
 30
0.0
 10
12.2055172436
 20
10.7303653455
 30
0.0
 10
12.2088357691
 20
10.7267872141
 30
0.0
 10
12.2118713071
 20
10.7231917382
 30
0.0
 10
12.2146227206
 20
10.7195798888
 30
0.0
 10
12.2178568396
 20
10.7148236909
 30
0.0
 10
12.2205930859
 20
10.7099551228
 30
0.0
 10
12.2227609473
 20
10.7050004829
 30
0.0
 10
12.2240736001
 20
10.7013293722
 30
0.0
 10
12.2250954543
 20
10.6976510409
 30
0.0
 10
12.2258259769
 20
10.6939669886
 30
0.0
 10
12.2262645079
 20
10.6902793477
 30
0.0
 10
12.2263620613
 20
10.6878166666
 30
0.0
 10
12.2263620589
 20
10.686589434
 30
0.0
  0
SPLINE
  5
374
100
AcDbEntity
  8
0
100
AcDbSpline
 62
7
  6
CONTINUOUS
 70
0
 71
3
 72
42
 73
38
 74
0
 42
0.0000001
 43
0.0000001
 44
0.0000000001
 40
0.0
 40
0.0
 40
0.0
 40
0.0
 40
0.0299419634
 40
0.0449235299
 40
0.0599142017
 40
0.0899287029
 40
0.1200139772
 40
0.1350926626
 40
0.1501967046
 40
0.1804840506
 40
0.2108978877
 40
0.2414513551
 40
0.2721543675
 40
0.3030134354
 40
0.3340315696
 40
0.3652082675
 40
0.3965395775
 40
0.4280182343
 40
0.4596338596
 40
0.4913732188
 40
0.5232205284
 40
0.5551578047
 40
0.5871652463
 40
0.6192216448
 40
0.6513048151
 40
0.6833920402
 40
0.7154605222
 40
0.747487836
 40
0.7794523759
 40
0.8113337934
 40
0.8431134117
 40
0.8747746318
 40
0.9063032512
 40
0.9376879208
 40
0.9533258
 40
0.9689252634
 40
1.0
 40
1.0
 40
1.0
 40
1.0
 10
12.377777127
 20
9.7146063707
 30
0.0
 10
12.3741439879
 20
9.7110970491
 30
0.0
 10
12.3684801204
 20
9.706045716
 30
0.0
 10
12.3605480016
 20
9.6997781116
 30
0.0
 10
12.3523632847
 20
9.6938223928
 30
0.0
 10
12.3416835749
 20
9.6869832982
 30
0.0
 10
12.3304846111
 20
9.6810010696
 30
0.0
 10
12.3212483684
 20
9.6767453063
 30
0.0
 10
12.3118213319
 20
9.6728408627
 30
0.0
 10
12.2997268716
 20
9.6686424825
 30
0.0
 10
12.2848222826
 20
9.6647296974
 30
0.0
 10
12.2695924731
 20
9.6619577903
 30
0.0
 10
12.2541218445
 20
9.6603420536
 30
0.0
 10
12.2384953804
 20
9.6598911099
 30
0.0
 10
12.2227990619
 20
9.6606072542
 30
0.0
 10
12.2071191596
 20
9.6624863497
 30
0.0
 10
12.1915418276
 20
9.6655178868
 30
0.0
 10
12.1761526185
 20
9.6696850409
 30
0.0
 10
12.1610360244
 20
9.6749647721
 30
0.0
 10
12.1462750187
 20
9.681327955
 30
0.0
 10
12.1319506068
 20
9.6887395408
 30
0.0
 10
12.1181413881
 20
9.6971587507
 30
0.0
 10
12.1049231306
 20
9.7065392995
 30
0.0
 10
12.09236836
 20
9.7168296487
 30
0.0
 10
12.0805459669
 20
9.7279732868
 30
0.0
 10
12.0695208329
 20
9.7399090378
 30
0.0
 10
12.0593534781
 20
9.7525713927
 30
0.0
 10
12.0500997324
 20
9.7658908671
 30
0.0
 10
12.0418104316
 20
9.7797943736
 30
0.0
 10
12.0345311403
 20
9.7942056346
 30
0.0
 10
12.028301905
 20
9.8090455358
 30
0.0
 10
12.0231570218
 20
9.8242327751
 30
0.0
 10
12.0191249129
 20
9.8396834886
 30
0.0
 10
12.016707574
 20
9.8527255658
 30
0.0
 10
12.0153515186
 20
9.8632047167
 30
0.0
 10
12.0143837351
 20
9.8736738399
 30
0.0
 10
12.0140906996
 20
9.8815517846
 30
0.0
 10
12.0140906996
 20
9.8867941259
 30
0.0
  0
SPLINE
  5
375
100
AcDbEntity
  8
0
100
AcDbSpline
 62
7
  6
CONTINUOUS
 70
0
 71
3
 72
42
 73
38
 74
0
 42
0.0000001
 43
0.0000001
 44
0.0000000001
 40
0.0
 40
0.0
 40
0.0
 40
0.0
 40
0.0299419634
 40
0.0449235299
 40
0.0599142017
 40
0.0899287029
 40
0.1200139772
 40
0.1350926626
 40
0.1501967046
 40
0.1804840506
 40
0.2108978877
 40
0.2414513551
 40
0.2721543675
 40
0.3030134354
 40
0.3340315696
 40
0.3652082675
 40
0.3965395775
 40
0.4280182343
 40
0.4596338596
 40
0.4913732188
 40
0.5232205284
 40
0.5551578047
 40
0.5871652463
 40
0.6192216448
 40
0.6513048151
 40
0.6833920402
 40
0.7154605222
 40
0.747487836
 40
0.7794523759
 40
0.8113337934
 40
0.8431134117
 40
0.8747746318
 40
0.9063032512
 40
0.9376879208
 40
0.9533258
 40
0.9689252634
 40
1.0
 40
1.0
 40
1.0
 40
1.0
 10
12.377777127
 20
6.2140911579
 30
0.0
 10
12.3741439879
 20
6.2105818363
 30
0.0
 10
12.3684801204
 20
6.2055305032
 30
0.0
 10
12.3605480016
 20
6.1992628988
 30
0.0
 10
12.3523632847
 20
6.19330718
 30
0.0
 10
12.3416835749
 20
6.1864680854
 30
0.0
 10
12.3304846111
 20
6.1804858568
 30
0.0
 10
12.3212483684
 20
6.1762300935
 30
0.0
 10
12.3118213319
 20
6.1723256499
 30
0.0
 10
12.2997268716
 20
6.1681272697
 30
0.0
 10
12.2848222826
 20
6.1642144845
 30
0.0
 10
12.2695924731
 20
6.1614425775
 30
0.0
 10
12.2541218445
 20
6.1598268408
 30
0.0
 10
12.2384953804
 20
6.1593758971
 30
0.0
 10
12.2227990619
 20
6.1600920414
 30
0.0
 10
12.2071191596
 20
6.1619711369
 30
0.0
 10
12.1915418276
 20
6.165002674
 30
0.0
 10
12.1761526185
 20
6.1691698281
 30
0.0
 10
12.1610360244
 20
6.1744495593
 30
0.0
 10
12.1462750187
 20
6.1808127422
 30
0.0
 10
12.1319506068
 20
6.188224328
 30
0.0
 10
12.1181413881
 20
6.1966435379
 30
0.0
 10
12.1049231306
 20
6.2060240867
 30
0.0
 10
12.09236836
 20
6.2163144359
 30
0.0
 10
12.0805459669
 20
6.227458074
 30
0.0
 10
12.0695208329
 20
6.239393825
 30
0.0
 10
12.0593534781
 20
6.2520561799
 30
0.0
 10
12.0500997324
 20
6.2653756543
 30
0.0
 10
12.0418104316
 20
6.2792791608
 30
0.0
 10
12.0345311403
 20
6.2936904218
 30
0.0
 10
12.028301905
 20
6.308530323
 30
0.0
 10
12.0231570218
 20
6.3237175623
 30
0.0
 10
12.0191249129
 20
6.3391682758
 30
0.0
 10
12.016707574
 20
6.352210353
 30
0.0
 10
12.0153515186
 20
6.3626895039
 30
0.0
 10
12.0143837351
 20
6.3731586271
 30
0.0
 10
12.0140906996
 20
6.3810365718
 30
0.0
 10
12.0140906996
 20
6.3862789131
 30
0.0
  0
SPLINE
  5
376
100
AcDbEntity
  8
0
100
AcDbSpline
 62
7
  6
CONTINUOUS
 70
0
 71
3
 72
42
 73
38
 74
0
 42
0.0000001
 43
0.0000001
 44
0.0000000001
 40
0.0
 40
0.0
 40
0.0
 40
0.0
 40
0.0299419634
 40
0.0449235299
 40
0.0599142017
 40
0.0899287029
 40
0.1200139772
 40
0.1350926626
 40
0.1501967046
 40
0.1804840506
 40
0.2108978877
 40
0.2414513551
 40
0.2721543675
 40
0.3030134354
 40
0.3340315696
 40
0.3652082675
 40
0.3965395775
 40
0.4280182343
 40
0.4596338596
 40
0.4913732188
 40
0.5232205284
 40
0.5551578047
 40
0.5871652463
 40
0.6192216448
 40
0.6513048151
 40
0.6833920402
 40
0.7154605222
 40
0.747487836
 40
0.7794523759
 40
0.8113337934
 40
0.8431134117
 40
0.8747746318
 40
0.9063032512
 40
0.9376879208
 40
0.9533258
 40
0.9689252634
 40
1.0
 40
1.0
 40
1.0
 40
1.0
 10
9.3602246257
 20
6.4233591346
 30
0.0
 10
9.3565914865
 20
6.419849813
 30
0.0
 10
9.3509276191
 20
6.4147984799
 30
0.0
 10
9.3429955003
 20
6.4085308756
 30
0.0
 10
9.3348107833
 20
6.4025751567
 30
0.0
 10
9.3241310735
 20
6.3957360621
 30
0.0
 10
9.3129321098
 20
6.3897538335
 30
0.0
 10
9.303695867
 20
6.3854980702
 30
0.0
 10
9.2942688306
 20
6.3815936267
 30
0.0
 10
9.2821743703
 20
6.3773952464
 30
0.0
 10
9.2672697812
 20
6.3734824613
 30
0.0
 10
9.2520399717
 20
6.3707105542
 30
0.0
 10
9.2365693432
 20
6.3690948175
 30
0.0
 10
9.220942879
 20
6.3686438738
 30
0.0
 10
9.2052465606
 20
6.3693600181
 30
0.0
 10
9.1895666582
 20
6.3712391136
 30
0.0
 10
9.1739893262
 20
6.3742706507
 30
0.0
 10
9.1586001171
 20
6.3784378048
 30
0.0
 10
9.1434835231
 20
6.3837175361
 30
0.0
 10
9.1287225174
 20
6.3900807189
 30
0.0
 10
9.1143981054
 20
6.3974923047
 30
0.0
 10
9.1005888867
 20
6.4059115146
 30
0.0
 10
9.0873706292
 20
6.4152920635
 30
0.0
 10
9.0748158586
 20
6.4255824126
 30
0.0
 10
9.0629934656
 20
6.4367260508
 30
0.0
 10
9.0519683316
 20
6.4486618017
 30
0.0
 10
9.0418009768
 20
6.4613241566
 30
0.0
 10
9.0325472311
 20
6.474643631
 30
0.0
 10
9.0242579303
 20
6.4885471375
 30
0.0
 10
9.016978639
 20
6.5029583985
 30
0.0
 10
9.0107494036
 20
6.5177982997
 30
0.0
 10
9.0056045205
 20
6.5329855391
 30
0.0
 10
9.0015724115
 20
6.5484362525
 30
0.0
 10
8.9991550726
 20
6.5614783297
 30
0.0
 10
8.9977990172
 20
6.5719574806
 30
0.0
 10
8.9968312337
 20
6.5824266038
 30
0.0
 10
8.9965381983
 20
6.5903045485
 30
0.0
 10
8.9965381983
 20
6.5955468898
 30
0.0
  0
SPLINE
  5
377
100
AcDbEntity
  8
0
100
AcDbSpline
 62
7
  6
CONTINUOUS
 70
0
 71
3
 72
21
 73
17
 74
0
 42
0.0000001
 43
0.0000001
 44
0.0000000001
 40
0.0
 40
0.0
 40
0.0
 40
0.0
 40
0.1273176984
 40
0.2537999461
 40
0.3167619614
 40
0.3795355204
 40
0.4421314992
 40
0.5045621453
 40
0.5668413456
 40
0.6289845231
 40
0.6910084433
 40
0.7529310869
 40
0.8147714401
 40
0.8765493236
 40
0.9382852134
 40
1.0
 40
1.0
 40
1.0
 40
1.0
 10
11.1389617165
 20
8.2880239505
 30
0.0
 10
11.1389617165
 20
8.2947687586
 30
0.0
 10
11.1396055535
 20
8.3082227981
 30
0.0
 10
11.1420371447
 20
8.3248548951
 30
0.0
 10
11.1449434118
 20
8.3379013188
 30
0.0
 10
11.1475937757
 20
8.3475243672
 30
0.0
 10
11.1507117704
 20
8.356976419
 30
0.0
 10
11.1542902072
 20
8.3662359535
 30
0.0
 10
11.1583208358
 20
8.3752815549
 30
0.0
 10
11.1627944437
 20
8.3840923465
 30
0.0
 10
11.1677006818
 20
8.392648018
 30
0.0
 10
11.1730282355
 20
8.4009288519
 30
0.0
 10
11.1787648699
 20
8.4089156865
 30
0.0
 10
11.1848973911
 20
8.416590179
 30
0.0
 10
11.1914113846
 20
8.4239344173
 30
0.0
 10
11.1959992774
 20
8.4285999099
 30
0.0
 10
11.198350826
 20
8.4308713176
 30
0.0
  0
SPLINE
  5
378
100
AcDbEntity
  8
0
100
AcDbSpline
 62
7
  6
CONTINUOUS
 70
0
 71
3
 72
39
 73
35
 74
0
 42
0.0000001
 43
0.0000001
 44
0.0000000001
 40
0.0
 40
0.0
 40
0.0
 40
0.0
 40
0.0311444246
 40
0.0624434307
 40
0.0938882321
 40
0.1254710247
 40
0.1571788731
 40
0.1889972589
 40
0.2209091738
 40
0.2528958456
 40
0.2849370269
 40
0.317011416
 40
0.349097073
 40
0.3811718411
 40
0.4132137734
 40
0.4452015557
 40
0.477114921
 40
0.508935054
 40
0.5406449744
 40
0.5722298904
 40
0.6036775179
 40
0.634978359
 40
0.666125934
 40
0.6971169583
 40
0.7279514621
 40
0.758632843
 40
0.789167841
 40
0.8195664384
 40
0.8498416796
 40
0.8800094142
 40
0.9100879639
 40
0.9400977227
 40
0.9700606976
 40
1.0
 40
1.0
 40
1.0
 40
1.0
 10
11.9895821927
 20
8.9455814659
 30
0.0
 10
11.987034845
 20
8.945758125
 30
0.0
 10
11.9819385452
 20
8.946298804
 30
0.0
 10
11.9743559134
 20
8.9476606729
 30
0.0
 10
11.9668544613
 20
8.9495683759
 30
0.0
 10
11.9594747948
 20
8.952011445
 30
0.0
 10
11.9522560418
 20
8.9549769305
 30
0.0
 10
11.9452367352
 20
8.9584488981
 30
0.0
 10
11.9384542637
 20
8.9624088274
 30
0.0
 10
11.931944773
 20
8.9668355699
 30
0.0
 10
11.9257429447
 20
8.9717055034
 30
0.0
 10
11.9198818219
 20
8.9769926494
 30
0.0
 10
11.9143926364
 20
8.9826688184
 30
0.0
 10
11.9093046447
 20
8.9887037563
 30
0.0
 10
11.9046449745
 20
8.9950653038
 30
0.0
 10
11.9004384808
 20
9.0017195653
 30
0.0
 10
11.8967076174
 20
9.0086310879
 30
0.0
 10
11.893472306
 20
9.015763042
 30
0.0
 10
11.8907498335
 20
9.0230774196
 30
0.0
 10
11.8885547669
 20
9.0305352379
 30
0.0
 10
11.8868988735
 20
9.038096742
 30
0.0
 10
11.8857910584
 20
9.045721614
 30
0.0
 10
11.8852373136
 20
9.053369184
 30
0.0
 10
11.8852406866
 20
9.0609986436
 30
0.0
 10
11.8858012503
 20
9.0685692613
 30
0.0
 10
11.8869160966
 20
9.0760406012
 30
0.0
 10
11.8885793591
 20
9.0833727373
 30
0.0
 10
11.8907822378
 20
9.0905264673
 30
0.0
 10
11.8935130377
 20
9.0974635189
 30
0.0
 10
11.8967572395
 20
9.1041467703
 30
0.0
 10
11.9004975241
 20
9.1105404032
 30
0.0
 10
11.9047140425
 20
9.1166102796
 30
0.0
 10
11.9093838235
 20
9.1223234775
 30
0.0
 10
11.9127840448
 20
9.1258755758
 30
0.0
 10
11.9145495686
 20
9.1275809451
 30
0.0
  0
SPLINE
  5
379
100
AcDbEntity
  8
0
100
AcDbSpline
 62
7
  6
CONTINUOUS
 70
0
 71
3
 72
42
 73
38
 74
0
 42
0.0000001
 43
0.0000001
 44
0.0000000001
 40
0.0
 40
0.0
 40
0.0
 40
0.0
 40
0.0299419634
 40
0.0449235299
 40
0.0599142017
 40
0.0899287029
 40
0.1200139772
 40
0.1350926626
 40
0.1501967046
 40
0.1804840506
 40
0.2108978877
 40
0.2414513551
 40
0.2721543675
 40
0.3030134354
 40
0.3340315696
 40
0.3652082675
 40
0.3965395775
 40
0.4280182343
 40
0.4596338596
 40
0.4913732188
 40
0.5232205284
 40
0.5551578047
 40
0.5871652463
 40
0.6192216448
 40
0.6513048151
 40
0.6833920402
 40
0.7154605222
 40
0.747487836
 40
0.7794523759
 40
0.8113337934
 40
0.8431134117
 40
0.8747746318
 40
0.9063032512
 40
0.9376879208
 40
0.9533258
 40
0.9689252634
 40
1.0
 40
1.0
 40
1.0
 40
1.0
 10
10.2044438891
 20
7.7837573201
 30
0.0
 10
10.2008107499
 20
7.7802479985
 30
0.0
 10
10.1951468825
 20
7.7751966654
 30
0.0
 10
10.1872147637
 20
7.768929061
 30
0.0
 10
10.1790300467
 20
7.7629733422
 30
0.0
 10
10.168350337
 20
7.7561342476
 30
0.0
 10
10.1571513732
 20
7.750152019
 30
0.0
 10
10.1479151304
 20
7.7458962557
 30
0.0
 10
10.138488094
 20
7.7419918121
 30
0.0
 10
10.1263936337
 20
7.7377934319
 30
0.0
 10
10.1114890447
 20
7.7338806468
 30
0.0
 10
10.0962592352
 20
7.7311087397
 30
0.0
 10
10.0807886066
 20
7.729493003
 30
0.0
 10
10.0651621425
 20
7.7290420593
 30
0.0
 10
10.049465824
 20
7.7297582036
 30
0.0
 10
10.0337859217
 20
7.7316372991
 30
0.0
 10
10.0182085896
 20
7.7346688362
 30
0.0
 10
10.0028193805
 20
7.7388359903
 30
0.0
 10
9.9877027865
 20
7.7441157215
 30
0.0
 10
9.9729417808
 20
7.7504789044
 30
0.0
 10
9.9586173688
 20
7.7578904902
 30
0.0
 10
9.9448081502
 20
7.7663097001
 30
0.0
 10
9.9315898926
 20
7.7756902489
 30
0.0
 10
9.9190351221
 20
7.7859805981
 30
0.0
 10
9.907212729
 20
7.7971242362
 30
0.0
 10
9.896187595
 20
7.8090599872
 30
0.0
 10
9.8860202402
 20
7.8217223421
 30
0.0
 10
9.8767664945
 20
7.8350418165
 30
0.0
 10
9.8684771937
 20
7.848945323
 30
0.0
 10
9.8611979024
 20
7.863356584
 30
0.0
 10
9.854968667
 20
7.8781964852
 30
0.0
 10
9.8498237839
 20
7.8933837245
 30
0.0
 10
9.845791675
 20
7.908834438
 30
0.0
 10
9.8433743361
 20
7.9218765152
 30
0.0
 10
9.8420182807
 20
7.9323556661
 30
0.0
 10
9.8410504972
 20
7.9428247893
 30
0.0
 10
9.8407574617
 20
7.950702734
 30
0.0
 10
9.8407574617
 20
7.9559450753
 30
0.0
  0
SPLINE
  5
37A
100
AcDbEntity
  8
0
100
AcDbSpline
 62
7
  6
CONTINUOUS
 70
0
 71
3
 72
39
 73
35
 74
0
 42
0.0000001
 43
0.0000001
 44
0.0000000001
 40
0.0
 40
0.0
 40
0.0
 40
0.0
 40
0.0311444246
 40
0.0624434307
 40
0.0938882321
 40
0.1254710247
 40
0.1571788731
 40
0.1889972589
 40
0.2209091738
 40
0.2528958456
 40
0.2849370269
 40
0.317011416
 40
0.349097073
 40
0.3811718411
 40
0.4132137734
 40
0.4452015557
 40
0.477114921
 40
0.508935054
 40
0.5406449744
 40
0.5722298904
 40
0.6036775179
 40
0.634978359
 40
0.666125934
 40
0.6971169583
 40
0.7279514621
 40
0.758632843
 40
0.789167841
 40
0.8195664384
 40
0.8498416796
 40
0.8800094142
 40
0.9100879639
 40
0.9400977227
 40
0.9700606976
 40
1.0
 40
1.0
 40
1.0
 40
1.0
 10
9.9379555461
 20
7.3366386652
 30
0.0
 10
9.9354081983
 20
7.3368153244
 30
0.0
 10
9.9303118986
 20
7.3373560034
 30
0.0
 10
9.9227292668
 20
7.3387178723
 30
0.0
 10
9.9152278147
 20
7.3406255752
 30
0.0
 10
9.9078481481
 20
7.3430686444
 30
0.0
 10
9.9006293952
 20
7.3460341298
 30
0.0
 10
9.8936100886
 20
7.3495060975
 30
0.0
 10
9.886827617
 20
7.3534660267
 30
0.0
 10
9.8803181264
 20
7.3578927693
 30
0.0
 10
9.8741162981
 20
7.3627627027
 30
0.0
 10
9.8682551753
 20
7.3680498488
 30
0.0
 10
9.8627659897
 20
7.3737260178
 30
0.0
 10
9.8576779981
 20
7.3797609557
 30
0.0
 10
9.8530183279
 20
7.3861225032
 30
0.0
 10
9.8488118342
 20
7.3927767647
 30
0.0
 10
9.8450809708
 20
7.3996882873
 30
0.0
 10
9.8418456593
 20
7.4068202413
 30
0.0
 10
9.8391231869
 20
7.414134619
 30
0.0
 10
9.8369281203
 20
7.4215924372
 30
0.0
 10
9.8352722269
 20
7.4291539413
 30
0.0
 10
9.8341644118
 20
7.4367788134
 30
0.0
 10
9.833610667
 20
7.4444263833
 30
0.0
 10
9.83361404
 20
7.4520558429
 30
0.0
 10
9.8341746036
 20
7.4596264607
 30
0.0
 10
9.83528945
 20
7.4670978006
 30
0.0
 10
9.8369527125
 20
7.4744299367
 30
0.0
 10
9.8391555912
 20
7.4815836666
 30
0.0
 10
9.8418863911
 20
7.4885207183
 30
0.0
 10
9.8451305929
 20
7.4952039697
 30
0.0
 10
9.8488708775
 20
7.5015976026
 30
0.0
 10
9.8530873959
 20
7.507667479
 30
0.0
 10
9.8577571769
 20
7.5133806769
 30
0.0
 10
9.8611573982
 20
7.5169327752
 30
0.0
 10
9.862922922
 20
7.5186381445
 30
0.0
  0
SPLINE
  5
37B
100
AcDbEntity
  8
0
100
AcDbSpline
 62
7
  6
CONTINUOUS
 70
0
 71
3
 72
39
 73
35
 74
0
 42
0.0000001
 43
0.0000001
 44
0.0000000001
 40
0.0
 40
0.0
 40
0.0
 40
0.0
 40
0.0314026163
 40
0.0630094802
 40
0.0948071156
 40
0.1267734443
 40
0.1588809719
 40
0.1910970226
 40
0.2233851133
 40
0.2557062446
 40
0.2880202668
 40
0.3202872758
 40
0.3524690062
 40
0.3845301827
 40
0.4164397934
 40
0.4481722512
 40
0.4797084083
 40
0.5110363787
 40
0.5421521198
 40
0.5730597435
 40
0.6037715204
 40
0.6343075558
 40
0.6646951112
 40
0.69496759
 40
0.7251632189
 40
0.7553234785
 40
0.7854913552
 40
0.8157095102
 40
0.8460184684
 40
0.8764549241
 40
0.9070502294
 40
0.9378293436
 40
0.9688091107
 40
1.0
 40
1.0
 40
1.0
 40
1.0
 10
11.9841469972
 20
7.4180323124
 30
0.0
 10
11.9882368057
 20
7.4177486833
 30
0.0
 10
11.9964205034
 20
7.4167765396
 30
0.0
 10
12.0085311286
 20
7.4141361896
 30
0.0
 10
12.02040701
 20
7.4103344036
 30
0.0
 10
12.0319326256
 20
7.4054080209
 30
0.0
 10
12.0429977453
 20
7.3994046462
 30
0.0
 10
12.0534961046
 20
7.3923821093
 30
0.0
 10
12.0633270354
 20
7.3844079851
 30
0.0
 10
12.0723962127
 20
7.3755588933
 30
0.0
 10
12.080616593
 20
7.3659197889
 30
0.0
 10
12.0879092116
 20
7.3555831591
 30
0.0
 10
12.0942039778
 20
7.344648185
 30
0.0
 10
12.0994403072
 20
7.3332197768
 30
0.0
 10
12.103567689
 20
7.32140759
 30
0.0
 10
12.1065461666
 20
7.3093250003
 30
0.0
 10
12.1083467478
 20
7.2970880521
 30
0.0
 10
12.1089517296
 20
7.2848143682
 30
0.0
 10
12.1083548409
 20
7.2726220338
 30
0.0
 10
12.1065613466
 20
7.2606284876
 30
0.0
 10
12.1035880289
 20
7.2489494077
 30
0.0
 10
12.0994631276
 20
7.2376975825
 30
0.0
 10
12.094226085
 20
7.2269818004
 30
0.0
 10
12.0879271852
 20
7.2169057753
 30
0.0
 10
12.0806271007
 20
7.2075670992
 30
0.0
 10
12.072396323
 20
7.1990562413
 30
0.0
 10
12.0633144971
 20
7.1914555793
 30
0.0
 10
12.0534695638
 20
7.1848385949
 30
0.0
 10
12.04295688
 20
7.1792691319
 30
0.0
 10
12.0318781939
 20
7.1748007956
 30
0.0
 10
12.0203407862
 20
7.1714763647
 30
0.0
 10
12.0084558046
 20
7.1693275692
 30
0.0
 10
11.9963393922
 20
7.1683744393
 30
0.0
 10
11.9882092308
 20
7.1685417176
 30
0.0
 10
11.9841469972
 20
7.1688234345
 30
0.0
  0
SPLINE
  5
37C
100
AcDbEntity
  8
0
100
AcDbSpline
 62
7
  6
CONTINUOUS
 70
0
 71
3
 72
42
 73
38
 74
0
 42
0.0000001
 43
0.0000001
 44
0.0000000001
 40
0.0
 40
0.0
 40
0.0
 40
0.0
 40
0.0299419634
 40
0.0449235299
 40
0.0599142017
 40
0.0899287029
 40
0.1200139772
 40
0.1350926626
 40
0.1501967046
 40
0.1804840506
 40
0.2108978877
 40
0.2414513551
 40
0.2721543675
 40
0.3030134354
 40
0.3340315696
 40
0.3652082675
 40
0.3965395775
 40
0.4280182343
 40
0.4596338596
 40
0.4913732188
 40
0.5232205284
 40
0.5551578047
 40
0.5871652463
 40
0.6192216448
 40
0.6513048151
 40
0.6833920402
 40
0.7154605222
 40
0.747487836
 40
0.7794523759
 40
0.8113337934
 40
0.8431134117
 40
0.8747746318
 40
0.9063032512
 40
0.9376879208
 40
0.9533258
 40
0.9689252634
 40
1.0
 40
1.0
 40
1.0
 40
1.0
 10
10.7183164066
 20
8.1702297861
 30
0.0
 10
10.7146832675
 20
8.1667204645
 30
0.0
 10
10.7090194
 20
8.1616691313
 30
0.0
 10
10.7010872812
 20
8.155401527
 30
0.0
 10
10.6929025643
 20
8.1494458082
 30
0.0
 10
10.6822228545
 20
8.1426067135
 30
0.0
 10
10.6710238907
 20
8.136624485
 30
0.0
 10
10.661787648
 20
8.1323687216
 30
0.0
 10
10.6523606115
 20
8.1284642781
 30
0.0
 10
10.6402661512
 20
8.1242658978
 30
0.0
 10
10.6253615622
 20
8.1203531127
 30
0.0
 10
10.6101317527
 20
8.1175812057
 30
0.0
 10
10.5946611241
 20
8.115965469
 30
0.0
 10
10.57903466
 20
8.1155145253
 30
0.0
 10
10.5633383415
 20
8.1162306696
 30
0.0
 10
10.5476584392
 20
8.118109765
 30
0.0
 10
10.5320811072
 20
8.1211413022
 30
0.0
 10
10.5166918981
 20
8.1253084563
 30
0.0
 10
10.501575304
 20
8.1305881875
 30
0.0
 10
10.4868142983
 20
8.1369513704
 30
0.0
 10
10.4724898864
 20
8.1443629561
 30
0.0
 10
10.4586806677
 20
8.152782166
 30
0.0
 10
10.4454624102
 20
8.1621627149
 30
0.0
 10
10.4329076396
 20
8.172453064
 30
0.0
 10
10.4210852465
 20
8.1835967022
 30
0.0
 10
10.4100601125
 20
8.1955324532
 30
0.0
 10
10.3998927577
 20
8.2081948081
 30
0.0
 10
10.390639012
 20
8.2215142825
 30
0.0
 10
10.3823497112
 20
8.235417789
 30
0.0
 10
10.3750704199
 20
8.24982905
 30
0.0
 10
10.3688411846
 20
8.2646689512
 30
0.0
 10
10.3636963014
 20
8.2798561905
 30
0.0
 10
10.3596641925
 20
8.2953069039
 30
0.0
 10
10.3572468536
 20
8.3083489811
 30
0.0
 10
10.3558907982
 20
8.3188281321
 30
0.0
 10
10.3549230147
 20
8.3292972553
 30
0.0
 10
10.3546299792
 20
8.3371752
 30
0.0
 10
10.3546299792
 20
8.3424175413
 30
0.0
  0
SPLINE
  5
37D
100
AcDbEntity
  8
0
100
AcDbSpline
 62
7
  6
CONTINUOUS
 70
0
 71
3
 72
42
 73
38
 74
0
 42
0.0000001
 43
0.0000001
 44
0.0000000001
 40
0.0
 40
0.0
 40
0.0
 40
0.0
 40
0.0299419634
 40
0.0449235299
 40
0.0599142017
 40
0.0899287029
 40
0.1200139772
 40
0.1350926626
 40
0.1501967046
 40
0.1804840506
 40
0.2108978877
 40
0.2414513551
 40
0.2721543675
 40
0.3030134354
 40
0.3340315696
 40
0.3652082675
 40
0.3965395775
 40
0.4280182343
 40
0.4596338596
 40
0.4913732188
 40
0.5232205284
 40
0.5551578047
 40
0.5871652463
 40
0.6192216448
 40
0.6513048151
 40
0.6833920402
 40
0.7154605222
 40
0.747487836
 40
0.7794523759
 40
0.8113337934
 40
0.8431134117
 40
0.8747746318
 40
0.9063032512
 40
0.9376879208
 40
0.9533258
 40
0.9689252634
 40
1.0
 40
1.0
 40
1.0
 40
1.0
 10
11.5026481439
 20
8.1158361953
 30
0.0
 10
11.4990150047
 20
8.1123268738
 30
0.0
 10
11.4933511373
 20
8.1072755406
 30
0.0
 10
11.4854190185
 20
8.1010079363
 30
0.0
 10
11.4772343015
 20
8.0950522175
 30
0.0
 10
11.4665545918
 20
8.0882131228
 30
0.0
 10
11.455355628
 20
8.0822308942
 30
0.0
 10
11.4461193852
 20
8.0779751309
 30
0.0
 10
11.4366923488
 20
8.0740706874
 30
0.0
 10
11.4245978885
 20
8.0698723071
 30
0.0
 10
11.4096932995
 20
8.065959522
 30
0.0
 10
11.39446349
 20
8.0631876149
 30
0.0
 10
11.3789928614
 20
8.0615718782
 30
0.0
 10
11.3633663973
 20
8.0611209345
 30
0.0
 10
11.3476700788
 20
8.0618370788
 30
0.0
 10
11.3319901765
 20
8.0637161743
 30
0.0
 10
11.3164128445
 20
8.0667477114
 30
0.0
 10
11.3010236353
 20
8.0709148656
 30
0.0
 10
11.2859070413
 20
8.0761945968
 30
0.0
 10
11.2711460356
 20
8.0825577797
 30
0.0
 10
11.2568216236
 20
8.0899693654
 30
0.0
 10
11.243012405
 20
8.0983885753
 30
0.0
 10
11.2297941474
 20
8.1077691242
 30
0.0
 10
11.2172393769
 20
8.1180594733
 30
0.0
 10
11.2054169838
 20
8.1292031115
 30
0.0
 10
11.1943918498
 20
8.1411388624
 30
0.0
 10
11.184224495
 20
8.1538012174
 30
0.0
 10
11.1749707493
 20
8.1671206918
 30
0.0
 10
11.1666814485
 20
8.1810241983
 30
0.0
 10
11.1594021572
 20
8.1954354592
 30
0.0
 10
11.1531729218
 20
8.2102753605
 30
0.0
 10
11.1480280387
 20
8.2254625998
 30
0.0
 10
11.1439959298
 20
8.2409133132
 30
0.0
 10
11.1415785909
 20
8.2539553904
 30
0.0
 10
11.1402225355
 20
8.2644345414
 30
0.0
 10
11.139254752
 20
8.2749036646
 30
0.0
 10
11.1389617165
 20
8.2827816093
 30
0.0
 10
11.1389617165
 20
8.2880239505
 30
0.0
  0
SPLINE
  5
37E
100
AcDbEntity
  8
0
100
AcDbSpline
 62
7
  6
CONTINUOUS
 70
0
 71
3
 72
39
 73
35
 74
0
 42
0.0000001
 43
0.0000001
 44
0.0000000001
 40
0.0
 40
0.0
 40
0.0
 40
0.0
 40
0.0314026163
 40
0.0630094802
 40
0.0948071156
 40
0.1267734443
 40
0.1588809719
 40
0.1910970226
 40
0.2233851133
 40
0.2557062446
 40
0.2880202668
 40
0.3202872758
 40
0.3524690062
 40
0.3845301827
 40
0.4164397934
 40
0.4481722512
 40
0.4797084083
 40
0.5110363787
 40
0.5421521198
 40
0.5730597435
 40
0.6037715204
 40
0.6343075558
 40
0.6646951112
 40
0.69496759
 40
0.7251632189
 40
0.7553234785
 40
0.7854913552
 40
0.8157095102
 40
0.8460184684
 40
0.8764549241
 40
0.9070502294
 40
0.9378293436
 40
0.9688091107
 40
1.0
 40
1.0
 40
1.0
 40
1.0
 10
11.9841469972
 20
7.1688234345
 30
0.0
 10
11.9800571887
 20
7.1691070637
 30
0.0
 10
11.971873491
 20
7.1700792073
 30
0.0
 10
11.9597628658
 20
7.1727195573
 30
0.0
 10
11.9478869845
 20
7.1765213434
 30
0.0
 10
11.9363613688
 20
7.181447726
 30
0.0
 10
11.9252962492
 20
7.1874511008
 30
0.0
 10
11.9147978898
 20
7.1944736376
 30
0.0
 10
11.904966959
 20
7.2024477618
 30
0.0
 10
11.8958977817
 20
7.2112968537
 30
0.0
 10
11.8876774014
 20
7.2209359581
 30
0.0
 10
11.8803847828
 20
7.2312725878
 30
0.0
 10
11.8740900166
 20
7.242207562
 30
0.0
 10
11.8688536872
 20
7.2536359701
 30
0.0
 10
11.8647263054
 20
7.265448157
 30
0.0
 10
11.8617478278
 20
7.2775307467
 30
0.0
 10
11.8599472467
 20
7.2897676949
 30
0.0
 10
11.8593422648
 20
7.3020413788
 30
0.0
 10
11.8599391535
 20
7.3142337132
 30
0.0
 10
11.8617326478
 20
7.3262272594
 30
0.0
 10
11.8647059656
 20
7.3379063393
 30
0.0
 10
11.8688308668
 20
7.3491581644
 30
0.0
 10
11.8740679094
 20
7.3598739466
 30
0.0
 10
11.8803668092
 20
7.3699499717
 30
0.0
 10
11.8876668937
 20
7.3792886477
 30
0.0
 10
11.8958976715
 20
7.3877995056
 30
0.0
 10
11.9049794974
 20
7.3954001677
 30
0.0
 10
11.9148244306
 20
7.4020171521
 30
0.0
 10
11.9253371145
 20
7.407586615
 30
0.0
 10
11.9364158005
 20
7.4120549514
 30
0.0
 10
11.9479532082
 20
7.4153793822
 30
0.0
 10
11.9598381899
 20
7.4175281778
 30
0.0
 10
11.9719546023
 20
7.4184813076
 30
0.0
 10
11.9800847636
 20
7.4183140293
 30
0.0
 10
11.9841469972
 20
7.4180323124
 30
0.0
  0
SPLINE
  5
37F
100
AcDbEntity
  8
0
100
AcDbSpline
 62
7
  6
CONTINUOUS
 70
0
 71
3
 72
21
 73
17
 74
0
 42
0.0000001
 43
0.0000001
 44
0.0000000001
 40
0.0
 40
0.0
 40
0.0
 40
0.0
 40
0.1273176984
 40
0.2537999461
 40
0.3167619614
 40
0.3795355204
 40
0.4421314992
 40
0.5045621453
 40
0.5668413456
 40
0.6289845231
 40
0.6910084433
 40
0.7529310869
 40
0.8147714401
 40
0.8765493236
 40
0.9382852134
 40
1.0
 40
1.0
 40
1.0
 40
1.0
 10
10.7467959054
 20
8.8889805841
 30
0.0
 10
10.7467959054
 20
8.8957253922
 30
0.0
 10
10.7474397424
 20
8.9091794316
 30
0.0
 10
10.7498713337
 20
8.9258115287
 30
0.0
 10
10.7527776008
 20
8.9388579523
 30
0.0
 10
10.7554279647
 20
8.9484810008
 30
0.0
 10
10.7585459594
 20
8.9579330525
 30
0.0
 10
10.7621243961
 20
8.967192587
 30
0.0
 10
10.7661550248
 20
8.9762381885
 30
0.0
 10
10.7706286327
 20
8.98504898
 30
0.0
 10
10.7755348708
 20
8.9936046515
 30
0.0
 10
10.7808624244
 20
9.0018854855
 30
0.0
 10
10.7865990588
 20
9.00987232
 30
0.0
 10
10.7927315801
 20
9.0175468125
 30
0.0
 10
10.7992455735
 20
9.0248910508
 30
0.0
 10
10.8038334663
 20
9.0295565434
 30
0.0
 10
10.806185015
 20
9.0318279512
 30
0.0
  0
SPLINE
  5
380
100
AcDbEntity
  8
0
100
AcDbSpline
 62
7
  6
CONTINUOUS
 70
0
 71
3
 72
21
 73
17
 74
0
 42
0.0000001
 43
0.0000001
 44
0.0000000001
 40
0.0
 40
0.0
 40
0.0
 40
0.0
 40
0.1273176984
 40
0.2537999461
 40
0.3167619614
 40
0.3795355204
 40
0.4421314992
 40
0.5045621453
 40
0.5668413456
 40
0.6289845231
 40
0.6910084433
 40
0.7529310869
 40
0.8147714401
 40
0.8765493236
 40
0.9382852134
 40
1.0
 40
1.0
 40
1.0
 40
1.0
 10
8.9965381983
 20
10.0960621026
 30
0.0
 10
8.9965381983
 20
10.1028069107
 30
0.0
 10
8.9971820353
 20
10.1162609502
 30
0.0
 10
8.9996136265
 20
10.1328930472
 30
0.0
 10
9.0025198936
 20
10.1459394709
 30
0.0
 10
9.0051702575
 20
10.1555625193
 30
0.0
 10
9.0082882522
 20
10.1650145711
 30
0.0
 10
9.0118666889
 20
10.1742741056
 30
0.0
 10
9.0158973176
 20
10.183319707
 30
0.0
 10
9.0203709255
 20
10.1921304986
 30
0.0
 10
9.0252771636
 20
10.2006861701
 30
0.0
 10
9.0306047172
 20
10.208967004
 30
0.0
 10
9.0363413517
 20
10.2169538386
 30
0.0
 10
9.0424738729
 20
10.2246283311
 30
0.0
 10
9.0489878664
 20
10.2319725694
 30
0.0
 10
9.0535757591
 20
10.236638062
 30
0.0
 10
9.0559273078
 20
10.2389094697
 30
0.0
  0
SPLINE
  5
381
100
AcDbEntity
  8
0
100
AcDbSpline
 62
7
  6
CONTINUOUS
 70
0
 71
3
 72
42
 73
38
 74
0
 42
0.0000001
 43
0.0000001
 44
0.0000000001
 40
0.0
 40
0.0
 40
0.0
 40
0.0
 40
0.0299419634
 40
0.0449235299
 40
0.0599142017
 40
0.0899287029
 40
0.1200139772
 40
0.1350926626
 40
0.1501967046
 40
0.1804840506
 40
0.2108978877
 40
0.2414513551
 40
0.2721543675
 40
0.3030134354
 40
0.3340315696
 40
0.3652082675
 40
0.3965395775
 40
0.4280182343
 40
0.4596338596
 40
0.4913732188
 40
0.5232205284
 40
0.5551578047
 40
0.5871652463
 40
0.6192216448
 40
0.6513048151
 40
0.6833920402
 40
0.7154605222
 40
0.747487836
 40
0.7794523759
 40
0.8113337934
 40
0.8431134117
 40
0.8747746318
 40
0.9063032512
 40
0.9376879208
 40
0.9533258
 40
0.9689252634
 40
1.0
 40
1.0
 40
1.0
 40
1.0
 10
11.1104823328
 20
8.7167928289
 30
0.0
 10
11.1068491937
 20
8.7132835073
 30
0.0
 10
11.1011853262
 20
8.7082321741
 30
0.0
 10
11.0932532074
 20
8.7019645698
 30
0.0
 10
11.0850684905
 20
8.696008851
 30
0.0
 10
11.0743887807
 20
8.6891697563
 30
0.0
 10
11.063189817
 20
8.6831875278
 30
0.0
 10
11.0539535742
 20
8.6789317645
 30
0.0
 10
11.0445265377
 20
8.6750273209
 30
0.0
 10
11.0324320774
 20
8.6708289407
 30
0.0
 10
11.0175274884
 20
8.6669161555
 30
0.0
 10
11.0022976789
 20
8.6641442485
 30
0.0
 10
10.9868270504
 20
8.6625285118
 30
0.0
 10
10.9712005862
 20
8.6620775681
 30
0.0
 10
10.9555042677
 20
8.6627937124
 30
0.0
 10
10.9398243654
 20
8.6646728078
 30
0.0
 10
10.9242470334
 20
8.667704345
 30
0.0
 10
10.9088578243
 20
8.6718714991
 30
0.0
 10
10.8937412303
 20
8.6771512303
 30
0.0
 10
10.8789802245
 20
8.6835144132
 30
0.0
 10
10.8646558126
 20
8.690925999
 30
0.0
 10
10.8508465939
 20
8.6993452088
 30
0.0
 10
10.8376283364
 20
8.7087257577
 30
0.0
 10
10.8250735658
 20
8.7190161069
 30
0.0
 10
10.8132511728
 20
8.730159745
 30
0.0
 10
10.8022260388
 20
8.742095496
 30
0.0
 10
10.7920586839
 20
8.7547578509
 30
0.0
 10
10.7828049383
 20
8.7680773253
 30
0.0
 10
10.7745156374
 20
8.7819808318
 30
0.0
 10
10.7672363461
 20
8.7963920928
 30
0.0
 10
10.7610071108
 20
8.811231994
 30
0.0
 10
10.7558622277
 20
8.8264192333
 30
0.0
 10
10.7518301187
 20
8.8418699467
 30
0.0
 10
10.7494127798
 20
8.854912024
 30
0.0
 10
10.7480567244
 20
8.8653911749
 30
0.0
 10
10.7470889409
 20
8.8758602981
 30
0.0
 10
10.7467959054
 20
8.8837382428
 30
0.0
 10
10.7467959054
 20
8.8889805841
 30
0.0
  0
SPLINE
  5
382
100
AcDbEntity
  8
0
100
AcDbSpline
 62
7
  6
CONTINUOUS
 70
0
 71
3
 72
39
 73
35
 74
0
 42
0.0000001
 43
0.0000001
 44
0.0000000001
 40
0.0
 40
0.0
 40
0.0
 40
0.0
 40
0.0314026163
 40
0.0630094802
 40
0.0948071156
 40
0.1267734443
 40
0.1588809719
 40
0.1910970226
 40
0.2233851133
 40
0.2557062446
 40
0.2880202668
 40
0.3202872758
 40
0.3524690062
 40
0.3845301827
 40
0.4164397934
 40
0.4481722512
 40
0.4797084083
 40
0.5110363787
 40
0.5421521198
 40
0.5730597435
 40
0.6037715204
 40
0.6343075558
 40
0.6646951112
 40
0.69496759
 40
0.7251632189
 40
0.7553234785
 40
0.7854913552
 40
0.8157095102
 40
0.8460184684
 40
0.8764549241
 40
0.9070502294
 40
0.9378293436
 40
0.9688091107
 40
1.0
 40
1.0
 40
1.0
 40
1.0
 10
9.9325203506
 20
7.5603131036
 30
0.0
 10
9.9366101591
 20
7.5600294745
 30
0.0
 10
9.9447938568
 20
7.5590573308
 30
0.0
 10
9.956904482
 20
7.5564169808
 30
0.0
 10
9.9687803634
 20
7.5526151948
 30
0.0
 10
9.980305979
 20
7.5476888121
 30
0.0
 10
9.9913710986
 20
7.5416854374
 30
0.0
 10
10.001869458
 20
7.5346629005
 30
0.0
 10
10.0117003888
 20
7.5266887763
 30
0.0
 10
10.0207695661
 20
7.5178396844
 30
0.0
 10
10.0289899464
 20
7.5082005801
 30
0.0
 10
10.036282565
 20
7.4978639503
 30
0.0
 10
10.0425773312
 20
7.4869289762
 30
0.0
 10
10.0478136606
 20
7.475500568
 30
0.0
 10
10.0519410424
 20
7.4636883811
 30
0.0
 10
10.05491952
 20
7.4516057915
 30
0.0
 10
10.0567201011
 20
7.4393688433
 30
0.0
 10
10.057325083
 20
7.4270951593
 30
0.0
 10
10.0567281943
 20
7.414902825
 30
0.0
 10
10.0549347
 20
7.4029092788
 30
0.0
 10
10.0519613823
 20
7.3912301989
 30
0.0
 10
10.047836481
 20
7.3799783737
 30
0.0
 10
10.0425994384
 20
7.3692625916
 30
0.0
 10
10.0363005386
 20
7.3591865664
 30
0.0
 10
10.0290004541
 20
7.3498478904
 30
0.0
 10
10.0207696763
 20
7.3413370325
 30
0.0
 10
10.0116878505
 20
7.3337363705
 30
0.0
 10
10.0018429172
 20
7.3271193861
 30
0.0
 10
9.9913302333
 20
7.3215499231
 30
0.0
 10
9.9802515473
 20
7.3170815868
 30
0.0
 10
9.9687141396
 20
7.3137571559
 30
0.0
 10
9.956829158
 20
7.3116083604
 30
0.0
 10
9.9447127456
 20
7.3106552305
 30
0.0
 10
9.9365825842
 20
7.3108225088
 30
0.0
 10
9.9325203506
 20
7.3111042257
 30
0.0
  0
SPLINE
  5
383
100
AcDbEntity
  8
0
100
AcDbSpline
 62
7
  6
CONTINUOUS
 70
0
 71
3
 72
15
 73
11
 74
0
 42
0.0000001
 43
0.0000001
 44
0.0000000001
 40
0.0
 40
0.0
 40
0.0
 40
0.0
 40
0.1233171246
 40
0.246817186
 40
0.370674996
 40
0.4950495944
 40
0.6200773049
 40
0.7458671643
 40
0.8724927461
 40
1.0
 40
1.0
 40
1.0
 40
1.0
 10
10.0129881701
 20
9.1145027686
 30
0.0
 10
10.010564631
 20
9.1121618036
 30
0.0
 10
10.005457448
 20
9.1077338859
 30
0.0
 10
9.997122049
 20
9.1019477725
 30
0.0
 10
9.9881903695
 20
9.0970701759
 30
0.0
 10
9.9787538555
 20
9.0931512028
 30
0.0
 10
9.9689076917
 20
9.0902297524
 30
0.0
 10
9.9587510604
 20
9.088335054
 30
0.0
 10
9.9483876384
 20
9.08748553
 30
0.0
 10
9.9414312084
 20
9.087621219
 30
0.0
 10
9.9379555461
 20
9.087862257
 30
0.0
  0
SPLINE
  5
384
100
AcDbEntity
  8
0
100
AcDbSpline
 62
7
  6
CONTINUOUS
 70
0
 71
3
 72
53
 73
49
 74
0
 42
0.0000001
 43
0.0000001
 44
0.0000000001
 40
0.0
 40
0.0
 40
0.0
 40
0.0
 40
0.0417740747
 40
0.0840370059
 40
0.1266586015
 40
0.1695066206
 40
0.2124482643
 40
0.2553502464
 40
0.2980794728
 40
0.3405035203
 40
0.3824911749
 40
0.4239129577
 40
0.4646416591
 40
0.5045528794
 40
0.5435255803
 40
0.5814426526
 40
0.6181915072
 40
0.6536646981
 40
0.6877605949
 40
0.7203841254
 40
0.7361164043
 40
0.7514483531
 40
0.7663703757
 40
0.7808733967
 40
0.7949490545
 40
0.8085896209
 40
0.8217881625
 40
0.8345385373
 40
0.8468355031
 40
0.8586748197
 40
0.8700533035
 40
0.880969049
 40
0.8914214554
 40
0.9014115674
 40
0.9109421276
 40
0.9200180273
 40
0.9286464653
 40
0.9368374971
 40
0.9446043876
 40
0.9519642556
 40
0.9589386637
 40
0.9655543233
 40
0.9718438245
 40
0.977846199
 40
0.9836073748
 40
0.9891800477
 40
0.9946230782
 40
1.0
 40
1.0
 40
1.0
 40
1.0
 10
13.1601299858
 20
8.6773225958
 30
0.0
 10
13.1601299858
 20
8.6643567433
 30
0.0
 10
13.1599277053
 20
8.6382728994
 30
0.0
 10
13.1590334547
 20
8.598969364
 30
0.0
 10
13.1575492235
 20
8.5593500549
 30
0.0
 10
13.1554798713
 20
8.5195460988
 30
0.0
 10
13.1528322402
 20
8.4796892051
 30
0.0
 10
13.1496150802
 20
8.4399112248
 30
0.0
 10
13.1458390494
 20
8.4003437626
 30
0.0
 10
13.1415166648
 20
8.3611177165
 30
0.0
 10
13.1366622674
 20
8.3223628491
 30
0.0
 10
13.1312919728
 20
8.2842073525
 30
0.0
 10
13.1254236195
 20
8.2467774213
 30
0.0
 10
13.1190767109
 20
8.2101968291
 30
0.0
 10
13.1122723519
 20
8.1745865147
 30
0.0
 10
13.1050331816
 20
8.1400641666
 30
0.0
 10
13.0973832973
 20
8.1067438477
 30
0.0
 10
13.0893481844
 20
8.0747355151
 30
0.0
 10
13.0809546002
 20
8.0441449527
 30
0.0
 10
13.0735984172
 20
8.0196305384
 30
0.0
 10
13.0675432409
 20
8.0008128185
 30
0.0
 10
13.0629847486
 20
7.9872865811
 30
0.0
 10
13.0583580343
 20
7.974187469
 30
0.0
 10
13.0536668473
 20
7.9615262894
 30
0.0
 10
13.0489151337
 20
7.9493134822
 30
0.0
 10
13.0441067885
 20
7.9375591218
 30
0.0
 10
13.0392458215
 20
7.9262728846
 30
0.0
 10
13.0343362422
 20
7.9154640597
 30
0.0
 10
13.0293821043
 20
7.9051415305
 30
0.0
 10
13.0243875167
 20
7.8953137595
 30
0.0
 10
13.019356553
 20
7.8859888062
 30
0.0
 10
13.014293395
 20
7.8771742684
 30
0.0
 10
13.0092021117
 20
7.8688773517
 30
0.0
 10
13.004086913
 20
7.8611047575
 30
0.0
 10
12.998951835
 20
7.8538628094
 30
0.0
 10
12.9938010436
 20
7.8471572981
 30
0.0
 10
12.9886384996
 20
7.8409936491
 30
0.0
 10
12.983468225
 20
7.8353767668
 30
0.0
 10
12.9782940377
 20
7.8303112073
 30
0.0
 10
12.9731197063
 20
7.8258010973
 30
0.0
 10
12.9679488394
 20
7.821850262
 30
0.0
 10
12.9627849201
 20
7.8184623143
 30
0.0
 10
12.9576314397
 20
7.8156406584
 30
0.0
 10
12.9524918855
 20
7.8133887839
 30
0.0
 10
12.9473702525
 20
7.8117099567
 30
0.0
 10
12.9422707321
 20
7.8106075514
 30
0.0
 10
12.9371995383
 20
7.8100840827
 30
0.0
 10
12.9338326909
 20
7.8101225719
 30
0.0
 10
12.932167799
 20
7.8102380359
 30
0.0
  0
SPLINE
  5
385
100
AcDbEntity
  8
0
100
AcDbSpline
 62
7
  6
CONTINUOUS
 70
0
 71
3
 72
39
 73
35
 74
0
 42
0.0000001
 43
0.0000001
 44
0.0000000001
 40
0.0
 40
0.0
 40
0.0
 40
0.0
 40
0.0314026163
 40
0.0630094802
 40
0.0948071156
 40
0.1267734443
 40
0.1588809719
 40
0.1910970226
 40
0.2233851133
 40
0.2557062446
 40
0.2880202668
 40
0.3202872758
 40
0.3524690062
 40
0.3845301827
 40
0.4164397934
 40
0.4481722512
 40
0.4797084083
 40
0.5110363787
 40
0.5421521198
 40
0.5730597435
 40
0.6037715204
 40
0.6343075558
 40
0.6646951112
 40
0.69496759
 40
0.7251632189
 40
0.7553234785
 40
0.7854913552
 40
0.8157095102
 40
0.8460184684
 40
0.8764549241
 40
0.9070502294
 40
0.9378293436
 40
0.9688091107
 40
1.0
 40
1.0
 40
1.0
 40
1.0
 10
9.9325203506
 20
7.3111042257
 30
0.0
 10
9.9284305421
 20
7.3113878549
 30
0.0
 10
9.9202468444
 20
7.3123599985
 30
0.0
 10
9.9081362192
 20
7.3150003485
 30
0.0
 10
9.8962603378
 20
7.3188021346
 30
0.0
 10
9.8847347222
 20
7.3237285172
 30
0.0
 10
9.8736696026
 20
7.329731892
 30
0.0
 10
9.8631712432
 20
7.3367544288
 30
0.0
 10
9.8533403124
 20
7.344728553
 30
0.0
 10
9.8442711351
 20
7.3535776449
 30
0.0
 10
9.8360507548
 20
7.3632167493
 30
0.0
 10
9.8287581362
 20
7.373553379
 30
0.0
 10
9.82246337
 20
7.3844883532
 30
0.0
 10
9.8172270406
 20
7.3959167613
 30
0.0
 10
9.8130996588
 20
7.4077289482
 30
0.0
 10
9.8101211812
 20
7.4198115379
 30
0.0
 10
9.8083206001
 20
7.4320484861
 30
0.0
 10
9.8077156182
 20
7.44432217
 30
0.0
 10
9.8083125069
 20
7.4565145044
 30
0.0
 10
9.8101060012
 20
7.4685080506
 30
0.0
 10
9.8130793189
 20
7.4801871304
 30
0.0
 10
9.8172042202
 20
7.4914389556
 30
0.0
 10
9.8224412628
 20
7.5021547378
 30
0.0
 10
9.8287401626
 20
7.5122307629
 30
0.0
 10
9.8360402471
 20
7.5215694389
 30
0.0
 10
9.8442710248
 20
7.5300802968
 30
0.0
 10
9.8533528507
 20
7.5376809589
 30
0.0
 10
9.863197784
 20
7.5442979433
 30
0.0
 10
9.8737104679
 20
7.5498674062
 30
0.0
 10
9.8847891539
 20
7.5543357426
 30
0.0
 10
9.8963265616
 20
7.5576601734
 30
0.0
 10
9.9082115432
 20
7.559808969
 30
0.0
 10
9.9203279556
 20
7.5607620988
 30
0.0
 10
9.928458117
 20
7.5605948205
 30
0.0
 10
9.9325203506
 20
7.5603131036
 30
0.0
  0
SPLINE
  5
386
100
AcDbEntity
  8
0
100
AcDbSpline
 62
7
  6
CONTINUOUS
 70
0
 71
3
 72
15
 73
11
 74
0
 42
0.0000001
 43
0.0000001
 44
0.0000000001
 40
0.0
 40
0.0
 40
0.0
 40
0.0
 40
0.1233171246
 40
0.246817186
 40
0.370674996
 40
0.4950495944
 40
0.6200773049
 40
0.7458671643
 40
0.8724927461
 40
1.0
 40
1.0
 40
1.0
 40
1.0
 10
12.0646148168
 20
8.9722219774
 30
0.0
 10
12.0621912776
 20
8.9698810124
 30
0.0
 10
12.0570840946
 20
8.9654530947
 30
0.0
 10
12.0487486956
 20
8.9596669814
 30
0.0
 10
12.0398170161
 20
8.9547893847
 30
0.0
 10
12.0303805021
 20
8.9508704116
 30
0.0
 10
12.0205343383
 20
8.9479489612
 30
0.0
 10
12.010377707
 20
8.9460542628
 30
0.0
 10
12.000014285
 20
8.9452047388
 30
0.0
 10
11.993057855
 20
8.9453404279
 30
0.0
 10
11.9895821927
 20
8.9455814659
 30
0.0
  0
SPLINE
  5
387
100
AcDbEntity
  8
0
100
AcDbSpline
 62
7
  6
CONTINUOUS
 70
0
 71
3
 72
21
 73
17
 74
0
 42
0.0000001
 43
0.0000001
 44
0.0000000001
 40
0.0
 40
0.0
 40
0.0
 40
0.0
 40
0.1273176984
 40
0.2537999461
 40
0.3167619614
 40
0.3795355204
 40
0.4421314992
 40
0.5045621453
 40
0.5668413456
 40
0.6289845231
 40
0.6910084433
 40
0.7529310869
 40
0.8147714401
 40
0.8765493236
 40
0.9382852134
 40
1.0
 40
1.0
 40
1.0
 40
1.0
 10
8.9965381983
 20
6.5955468898
 30
0.0
 10
8.9965381983
 20
6.6022916979
 30
0.0
 10
8.9971820353
 20
6.6157457373
 30
0.0
 10
8.9996136265
 20
6.6323778344
 30
0.0
 10
9.0025198936
 20
6.6454242581
 30
0.0
 10
9.0051702575
 20
6.6550473065
 30
0.0
 10
9.0082882522
 20
6.6644993583
 30
0.0
 10
9.0118666889
 20
6.6737588928
 30
0.0
 10
9.0158973176
 20
6.6828044942
 30
0.0
 10
9.0203709255
 20
6.6916152858
 30
0.0
 10
9.0252771636
 20
6.7001709573
 30
0.0
 10
9.0306047172
 20
6.7084517912
 30
0.0
 10
9.0363413517
 20
6.7164386258
 30
0.0
 10
9.0424738729
 20
6.7241131183
 30
0.0
 10
9.0489878664
 20
6.7314573566
 30
0.0
 10
9.0535757591
 20
6.7361228491
 30
0.0
 10
9.0559273078
 20
6.7383942569
 30
0.0
  0
SPLINE
  5
388
100
AcDbEntity
  8
0
100
AcDbSpline
 62
7
  6
CONTINUOUS
 70
0
 71
3
 72
15
 73
11
 74
0
 42
0.0000001
 43
0.0000001
 44
0.0000000001
 40
0.0
 40
0.0
 40
0.0
 40
0.0
 40
0.1233171246
 40
0.246817186
 40
0.370674996
 40
0.4950495944
 40
0.6200773049
 40
0.7458671643
 40
0.8724927461
 40
1.0
 40
1.0
 40
1.0
 40
1.0
 10
12.0646148168
 20
7.2209983856
 30
0.0
 10
12.0621912776
 20
7.2186574206
 30
0.0
 10
12.0570840946
 20
7.2142295029
 30
0.0
 10
12.0487486956
 20
7.2084433895
 30
0.0
 10
12.0398170161
 20
7.2035657929
 30
0.0
 10
12.0303805021
 20
7.1996468198
 30
0.0
 10
12.0205343383
 20
7.1967253693
 30
0.0
 10
12.010377707
 20
7.194830671
 30
0.0
 10
12.000014285
 20
7.1939811469
 30
0.0
 10
11.993057855
 20
7.194116836
 30
0.0
 10
11.9895821927
 20
7.194357874
 30
0.0
  0
SPLINE
  5
389
100
AcDbEntity
  8
0
100
AcDbSpline
 62
7
  6
CONTINUOUS
 70
0
 71
3
 72
15
 73
11
 74
0
 42
0.0000001
 43
0.0000001
 44
0.0000000001
 40
0.0
 40
0.0
 40
0.0
 40
0.0
 40
0.1233171246
 40
0.246817186
 40
0.370674996
 40
0.4950495944
 40
0.6200773049
 40
0.7458671643
 40
0.8724927461
 40
1.0
 40
1.0
 40
1.0
 40
1.0
 10
10.0129881701
 20
7.3632791768
 30
0.0
 10
10.010564631
 20
7.3609382117
 30
0.0
 10
10.005457448
 20
7.3565102941
 30
0.0
 10
9.997122049
 20
7.3507241807
 30
0.0
 10
9.9881903695
 20
7.3458465841
 30
0.0
 10
9.9787538555
 20
7.341927611
 30
0.0
 10
9.9689076917
 20
7.3390061605
 30
0.0
 10
9.9587510604
 20
7.3371114622
 30
0.0
 10
9.9483876384
 20
7.3362619381
 30
0.0
 10
9.9414312084
 20
7.3363976272
 30
0.0
 10
9.9379555461
 20
7.3366386652
 30
0.0
  0
SPLINE
  5
38A
100
AcDbEntity
  8
0
100
AcDbSpline
 62
7
  6
CONTINUOUS
 70
0
 71
3
 72
39
 73
35
 74
0
 42
0.0000001
 43
0.0000001
 44
0.0000000001
 40
0.0
 40
0.0
 40
0.0
 40
0.0
 40
0.0314026163
 40
0.0630094802
 40
0.0948071156
 40
0.1267734443
 40
0.1588809719
 40
0.1910970226
 40
0.2233851133
 40
0.2557062446
 40
0.2880202668
 40
0.3202872758
 40
0.3524690062
 40
0.3845301827
 40
0.4164397934
 40
0.4481722512
 40
0.4797084083
 40
0.5110363787
 40
0.5421521198
 40
0.5730597435
 40
0.6037715204
 40
0.6343075558
 40
0.6646951112
 40
0.69496759
 40
0.7251632189
 40
0.7553234785
 40
0.7854913552
 40
0.8157095102
 40
0.8460184684
 40
0.8764549241
 40
0.9070502294
 40
0.9378293436
 40
0.9688091107
 40
1.0
 40
1.0
 40
1.0
 40
1.0
 10
9.9325203506
 20
9.3115366955
 30
0.0
 10
9.9366101591
 20
9.3112530663
 30
0.0
 10
9.9447938568
 20
9.3102809226
 30
0.0
 10
9.956904482
 20
9.3076405726
 30
0.0
 10
9.9687803634
 20
9.3038387866
 30
0.0
 10
9.980305979
 20
9.298912404
 30
0.0
 10
9.9913710986
 20
9.2929090292
 30
0.0
 10
10.001869458
 20
9.2858864923
 30
0.0
 10
10.0117003888
 20
9.2779123681
 30
0.0
 10
10.0207695661
 20
9.2690632763
 30
0.0
 10
10.0289899464
 20
9.2594241719
 30
0.0
 10
10.036282565
 20
9.2490875421
 30
0.0
 10
10.0425773312
 20
9.238152568
 30
0.0
 10
10.0478136606
 20
9.2267241598
 30
0.0
 10
10.0519410424
 20
9.214911973
 30
0.0
 10
10.05491952
 20
9.2028293833
 30
0.0
 10
10.0567201011
 20
9.1905924351
 30
0.0
 10
10.057325083
 20
9.1783187512
 30
0.0
 10
10.0567281943
 20
9.1661264168
 30
0.0
 10
10.0549347
 20
9.1541328706
 30
0.0
 10
10.0519613823
 20
9.1424537907
 30
0.0
 10
10.047836481
 20
9.1312019655
 30
0.0
 10
10.0425994384
 20
9.1204861834
 30
0.0
 10
10.0363005386
 20
9.1104101583
 30
0.0
 10
10.0290004541
 20
9.1010714822
 30
0.0
 10
10.0207696763
 20
9.0925606243
 30
0.0
 10
10.0116878505
 20
9.0849599623
 30
0.0
 10
10.0018429172
 20
9.0783429779
 30
0.0
 10
9.9913302333
 20
9.072773515
 30
0.0
 10
9.9802515473
 20
9.0683051786
 30
0.0
 10
9.9687141396
 20
9.0649807478
 30
0.0
 10
9.956829158
 20
9.0628319522
 30
0.0
 10
9.9447127456
 20
9.0618788223
 30
0.0
 10
9.9365825842
 20
9.0620461007
 30
0.0
 10
9.9325203506
 20
9.0623278175
 30
0.0
  0
SPLINE
  5
38B
100
AcDbEntity
  8
0
100
AcDbSpline
 62
7
  6
CONTINUOUS
 70
0
 71
3
 72
39
 73
35
 74
0
 42
0.0000001
 43
0.0000001
 44
0.0000000001
 40
0.0
 40
0.0
 40
0.0
 40
0.0
 40
0.0314026163
 40
0.0630094802
 40
0.0948071156
 40
0.1267734443
 40
0.1588809719
 40
0.1910970226
 40
0.2233851133
 40
0.2557062446
 40
0.2880202668
 40
0.3202872758
 40
0.3524690062
 40
0.3845301827
 40
0.4164397934
 40
0.4481722512
 40
0.4797084083
 40
0.5110363787
 40
0.5421521198
 40
0.5730597435
 40
0.6037715204
 40
0.6343075558
 40
0.6646951112
 40
0.69496759
 40
0.7251632189
 40
0.7553234785
 40
0.7854913552
 40
0.8157095102
 40
0.8460184684
 40
0.8764549241
 40
0.9070502294
 40
0.9378293436
 40
0.9688091107
 40
1.0
 40
1.0
 40
1.0
 40
1.0
 10
9.9325203506
 20
9.0623278175
 30
0.0
 10
9.9284305421
 20
9.0626114467
 30
0.0
 10
9.9202468444
 20
9.0635835903
 30
0.0
 10
9.9081362192
 20
9.0662239403
 30
0.0
 10
9.8962603378
 20
9.0700257264
 30
0.0
 10
9.8847347222
 20
9.074952109
 30
0.0
 10
9.8736696026
 20
9.0809554838
 30
0.0
 10
9.8631712432
 20
9.0879780207
 30
0.0
 10
9.8533403124
 20
9.0959521448
 30
0.0
 10
9.8442711351
 20
9.1048012367
 30
0.0
 10
9.8360507548
 20
9.1144403411
 30
0.0
 10
9.8287581362
 20
9.1247769708
 30
0.0
 10
9.82246337
 20
9.135711945
 30
0.0
 10
9.8172270406
 20
9.1471403531
 30
0.0
 10
9.8130996588
 20
9.15895254
 30
0.0
 10
9.8101211812
 20
9.1710351297
 30
0.0
 10
9.8083206001
 20
9.1832720779
 30
0.0
 10
9.8077156182
 20
9.1955457618
 30
0.0
 10
9.8083125069
 20
9.2077380962
 30
0.0
 10
9.8101060012
 20
9.2197316424
 30
0.0
 10
9.8130793189
 20
9.2314107223
 30
0.0
 10
9.8172042202
 20
9.2426625475
 30
0.0
 10
9.8224412628
 20
9.2533783296
 30
0.0
 10
9.8287401626
 20
9.2634543547
 30
0.0
 10
9.8360402471
 20
9.2727930308
 30
0.0
 10
9.8442710248
 20
9.2813038886
 30
0.0
 10
9.8533528507
 20
9.2889045507
 30
0.0
 10
9.863197784
 20
9.2955215351
 30
0.0
 10
9.8737104679
 20
9.301090998
 30
0.0
 10
9.8847891539
 20
9.3055593344
 30
0.0
 10
9.8963265616
 20
9.3088837652
 30
0.0
 10
9.9082115432
 20
9.3110325608
 30
0.0
 10
9.9203279556
 20
9.3119856906
 30
0.0
 10
9.928458117
 20
9.3118184123
 30
0.0
 10
9.9325203506
 20
9.3115366955
 30
0.0
  0
SPLINE
  5
38C
100
AcDbEntity
  8
0
100
AcDbSpline
 62
7
  6
CONTINUOUS
 70
0
 71
3
 72
55
 73
51
 74
0
 42
0.0000001
 43
0.0000001
 44
0.0000000001
 40
0.0
 40
0.0
 40
0.0
 40
0.0
 40
0.0082491178
 40
0.0160249553
 40
0.0233639829
 40
0.0303114802
 40
0.0369227124
 40
0.0432632191
 40
0.0494084978
 40
0.0554422202
 40
0.0614532215
 40
0.0675314279
 40
0.0737635734
 40
0.0802295678
 40
0.0870001076
 40
0.0941356026
 40
0.1016862967
 40
0.1096929194
 40
0.1181879204
 40
0.1271964447
 40
0.1367376591
 40
0.1468254487
 40
0.1574695253
 40
0.1686757809
 40
0.1804471637
 40
0.1927837889
 40
0.2056836241
 40
0.2191424695
 40
0.2331544853
 40
0.247712128
 40
0.2628065382
 40
0.2784274902
 40
0.2945636526
 40
0.3112025835
 40
0.3459332145
 40
0.3825027187
 40
0.4207806566
 40
0.4606256652
 40
0.5018868761
 40
0.5444051764
 40
0.588014366
 40
0.6325422452
 40
0.6778116579
 40
0.723641506
 40
0.7698477386
 40
0.8162443522
 40
0.8626443093
 40
0.9088606872
 40
0.9547071706
 40
1.0
 40
1.0
 40
1.0
 40
1.0
 10
9.9268656726
 20
10.7502042574
 30
0.0
 10
9.9258680587
 20
10.7511326424
 30
0.0
 10
9.9239846957
 20
10.7529964249
 30
0.0
 10
9.9214393076
 20
10.7559026476
 30
0.0
 10
9.9192626839
 20
10.758831562
 30
0.0
 10
9.9174579897
 20
10.7617807047
 30
0.0
 10
9.916028051
 20
10.7647475016
 30
0.0
 10
9.914975956
 20
10.7677290502
 30
0.0
 10
9.9143044397
 20
10.7707216701
 30
0.0
 10
9.9140157983
 20
10.7737208676
 30
0.0
 10
9.9141110641
 20
10.7767214259
 30
0.0
 10
9.9145899038
 20
10.7797179777
 30
0.0
 10
9.91545059
 20
10.7827056107
 30
0.0
 10
9.9166905299
 20
10.7856802501
 30
0.0
 10
9.9183068033
 20
10.7886386167
 30
0.0
 10
9.9202963904
 20
10.7915780299
 30
0.0
 10
9.9226564062
 20
10.7944960028
 30
0.0
 10
9.9253838488
 20
10.7973901832
 30
0.0
 10
9.9284757009
 20
10.8002580339
 30
0.0
 10
9.9319286017
 20
10.8030970509
 30
0.0
 10
9.9357389956
 20
10.8059044769
 30
0.0
 10
9.939902872
 20
10.8086776467
 30
0.0
 10
9.944415938
 20
10.8114136738
 30
0.0
 10
9.9492734309
 20
10.8141098248
 30
0.0
 10
9.954470272
 20
10.8167631913
 30
0.0
 10
9.9600009377
 20
10.8193710447
 30
0.0
 10
9.965859576
 20
10.8219305289
 30
0.0
 10
9.9720399258
 20
10.8244389655
 30
0.0
 10
9.978535395
 20
10.8268935963
 30
0.0
 10
9.985339017
 20
10.8292918209
 30
0.0
 10
9.9924434989
 20
10.8316310092
 30
0.0
 10
9.999841201
 20
10.8339086522
 30
0.0
 10
10.007524179
 20
10.8361222907
 30
0.0
 10
10.018291819
 20
10.8390267828
 30
0.0
 10
10.0324086195
 20
10.8424679077
 30
0.0
 10
10.0501138975
 20
10.8462494183
 30
0.0
 10
10.0687421101
 20
10.8497232563
 30
0.0
 10
10.0882129623
 20
10.8528742556
 30
0.0
 10
10.1084426554
 20
10.8556886243
 30
0.0
 10
10.1293439855
 20
10.8581540654
 30
0.0
 10
10.1508268199
 20
10.8602598094
 30
0.0
 10
10.1727984754
 20
10.8619966647
 30
0.0
 10
10.1951641348
 20
10.863357053
 30
0.0
 10
10.2178272605
 20
10.8643350408
 30
0.0
 10
10.2406900196
 20
10.8649263643
 30
0.0
 10
10.2636537061
 20
10.8651284438
 30
0.0
 10
10.286619182
 20
10.8649404027
 30
0.0
 10
10.3094872927
 20
10.8643630521
 30
0.0
 10
10.3321592492
 20
10.8633989247
 30
0.0
 10
10.3471893562
 20
10.8624944086
 30
0.0
 10
10.3546538695
 20
10.8619767429
 30
0.0
  0
SPLINE
  5
38D
100
AcDbEntity
  8
0
100
AcDbSpline
 62
7
  6
CONTINUOUS
 70
0
 71
3
 72
21
 73
17
 74
0
 42
0.0000001
 43
0.0000001
 44
0.0000000001
 40
0.0
 40
0.0
 40
0.0
 40
0.0
 40
0.1273176984
 40
0.2537999461
 40
0.3167619614
 40
0.3795355204
 40
0.4421314992
 40
0.5045621453
 40
0.5668413456
 40
0.6289845231
 40
0.6910084433
 40
0.7529310869
 40
0.8147714401
 40
0.8765493236
 40
0.9382852134
 40
1.0
 40
1.0
 40
1.0
 40
1.0
 10
9.8407574617
 20
7.9559450753
 30
0.0
 10
9.8407574617
 20
7.9626898834
 30
0.0
 10
9.8414012987
 20
7.9761439228
 30
0.0
 10
9.8438328899
 20
7.9927760199
 30
0.0
 10
9.846739157
 20
8.0058224435
 30
0.0
 10
9.8493895209
 20
8.015445492
 30
0.0
 10
9.8525075156
 20
8.0248975437
 30
0.0
 10
9.8560859524
 20
8.0341570783
 30
0.0
 10
9.860116581
 20
8.0432026797
 30
0.0
 10
9.8645901889
 20
8.0520134712
 30
0.0
 10
9.869496427
 20
8.0605691428
 30
0.0
 10
9.8748239807
 20
8.0688499767
 30
0.0
 10
9.8805606151
 20
8.0768368113
 30
0.0
 10
9.8866931363
 20
8.0845113038
 30
0.0
 10
9.8932071298
 20
8.091855542
 30
0.0
 10
9.8977950226
 20
8.0965210346
 30
0.0
 10
9.9001465712
 20
8.0987924424
 30
0.0
  0
SPLINE
  5
38E
100
AcDbEntity
  8
0
100
AcDbSpline
 62
7
  6
CONTINUOUS
 70
0
 71
3
 72
40
 73
36
 74
0
 42
0.0000001
 43
0.0000001
 44
0.0000000001
 40
0.0
 40
0.0
 40
0.0
 40
0.0
 40
0.006481348
 40
0.013000284
 40
0.0195936814
 40
0.0262970919
 40
0.0331441392
 40
0.0401661573
 40
0.0548406963
 40
0.0705269491
 40
0.0873812279
 40
0.1055227434
 40
0.1250393438
 40
0.1459933334
 40
0.1684264577
 40
0.1923637003
 40
0.2178164163
 40
0.2447848542
 40
0.2732598683
 40
0.3032242928
 40
0.3346542214
 40
0.3675198086
 40
0.4017858506
 40
0.43741253
 40
0.4743558681
 40
0.512567972
 40
0.5519975143
 40
0.5925900593
 40
0.6342881869
 40
0.677031823
 40
0.7207584926
 40
0.7654034125
 40
0.8108999333
 40
0.9041687456
 40
1.0
 40
1.0
 40
1.0
 40
1.0
 10
12.0113620712
 20
10.6122133236
 30
0.0
 10
12.0113620748
 20
10.6130609083
 30
0.0
 10
12.0112946706
 20
10.614761752
 30
0.0
 10
12.0109917813
 20
10.6173086062
 30
0.0
 10
12.0104872799
 20
10.6198529937
 30
0.0
 10
12.0097814856
 20
10.6223934162
 30
0.0
 10
12.008874923
 20
10.6249288399
 30
0.0
 10
12.0073776423
 20
10.6283508646
 30
0.0
 10
12.0049756265
 20
10.6326245914
 30
0.0
 10
12.0013442266
 20
10.6376322693
 30
0.0
 10
11.9969305126
 20
10.6425896255
 30
0.0
 10
11.9917430498
 20
10.6474903407
 30
0.0
 10
11.9857903888
 20
10.6523287076
 30
0.0
 10
11.9790820074
 20
10.6570981253
 30
0.0
 10
11.9716284425
 20
10.6617916395
 30
0.0
 10
11.9634415308
 20
10.6664020531
 30
0.0
 10
11.9545344085
 20
10.670922072
 30
0.0
 10
11.9449214819
 20
10.6753443446
 30
0.0
 10
11.9346184351
 20
10.6796615916
 30
0.0
 10
11.9236421964
 20
10.6838666739
 30
0.0
 10
11.9120108633
 20
10.6879525638
 30
0.0
 10
11.8997436797
 20
10.6919124036
 30
0.0
 10
11.8868610101
 20
10.6957395735
 30
0.0
 10
11.8733842692
 20
10.6994276412
 30
0.0
 10
11.8593358855
 20
10.702970386
 30
0.0
 10
11.844739277
 20
10.706361869
 30
0.0
 10
11.8296187912
 20
10.7095963909
 30
0.0
 10
11.8139996571
 20
10.7126684925
 30
0.0
 10
11.797907956
 20
10.7155730168
 30
0.0
 10
11.7813705686
 20
10.7183050927
 30
0.0
 10
11.7644151321
 20
10.7208601039
 30
0.0
 10
11.7470699463
 20
10.723233789
 30
0.0
 10
11.7232653883
 20
10.7261757939
 30
0.0
 10
11.6927490042
 20
10.7293603424
 30
0.0
 10
11.6680972151
 20
10.7313462079
 30
0.0
 10
11.6555951118
 20
10.7322132317
 30
0.0
  0
SPLINE
  5
38F
100
AcDbEntity
  8
0
100
AcDbSpline
 62
7
  6
CONTINUOUS
 70
0
 71
3
 72
54
 73
50
 74
0
 42
0.0000001
 43
0.0000001
 44
0.0000000001
 40
0.0
 40
0.0
 40
0.0
 40
0.0
 40
0.0098428351
 40
0.0192575806
 40
0.0282665147
 40
0.0368960664
 40
0.0531355772
 40
0.0608337608
 40
0.0683074526
 40
0.0756079612
 40
0.0827907389
 40
0.0899142657
 40
0.0970386388
 40
0.1042239332
 40
0.1115285603
 40
0.1190078716
 40
0.1267130446
 40
0.1429701109
 40
0.1516099013
 40
0.1606298796
 40
0.1700563465
 40
0.1799114744
 40
0.1902136979
 40
0.2009780636
 40
0.2122168312
 40
0.223939533
 40
0.2361536055
 40
0.2488643894
 40
0.2620755211
 40
0.2757891215
 40
0.2900058228
 40
0.3047251799
 40
0.319945461
 40
0.3356640773
 40
0.3685798091
 40
0.4034357373
 40
0.440182259
 40
0.4787599509
 40
0.5191008219
 40
0.5611293083
 40
0.6047630941
 40
0.6499138023
 40
0.6964876021
 40
0.744385744
 40
0.7935049883
 40
0.8437383861
 40
0.894974631
 40
0.9471013872
 40
1.0
 40
1.0
 40
1.0
 40
1.0
 10
12.0371648752
 20
10.6192715099
 30
0.0
 10
12.0382971997
 20
10.620325263
 30
0.0
 10
12.0404650622
 20
10.6224389998
 30
0.0
 10
12.0434812359
 20
10.625702778
 30
0.0
 10
12.0461862186
 20
10.6289863457
 30
0.0
 10
12.0493110913
 20
10.6332991997
 30
0.0
 10
12.0518989598
 20
10.6377401508
 30
0.0
 10
12.0538556888
 20
10.6422772167
 30
0.0
 10
12.05497798
 20
10.6456304466
 30
0.0
 10
12.0557793172
 20
10.6489914638
 30
0.0
 10
12.0562588209
 20
10.652357972
 30
0.0
 10
12.0564156644
 20
10.6557272479
 30
0.0
 10
12.0562497678
 20
10.6590964843
 30
0.0
 10
12.0557612219
 20
10.6624628746
 30
0.0
 10
12.0549508715
 20
10.6658237029
 30
0.0
 10
12.0538195963
 20
10.6691766755
 30
0.0
 10
12.0518506083
 20
10.67371359
 30
0.0
 10
12.0492508957
 20
10.6781538686
 30
0.0
 10
12.0461146122
 20
10.6824659769
 30
0.0
 10
12.0434008796
 20
10.6857490087
 30
0.0
 10
12.040375936
 20
10.6890122809
 30
0.0
 10
12.0370413522
 20
10.6922545483
 30
0.0
 10
12.0333992417
 20
10.6954738699
 30
0.0
 10
12.0294518074
 20
10.698668548
 30
0.0
 10
12.0252013661
 20
10.7018366785
 30
0.0
 10
12.0206505027
 20
10.7049765225
 30
0.0
 10
12.0158018937
 20
10.7080861743
 30
0.0
 10
12.0106584618
 20
10.7111638426
 30
0.0
 10
12.0052232826
 20
10.7142076894
 30
0.0
 10
11.9994996107
 20
10.7172158635
 30
0.0
 10
11.9934909091
 20
10.7201866141
 30
0.0
 10
11.9872007794
 20
10.7231180671
 30
0.0
 10
11.9806330338
 20
10.7260085497
 30
0.0
 10
11.9713682988
 20
10.7298648032
 30
0.0
 10
11.9591124296
 20
10.7345573139
 30
0.0
 10
11.9435829715
 20
10.7399144469
 30
0.0
 10
11.9270504855
 20
10.7450677709
 30
0.0
 10
11.9095550674
 20
10.7500046589
 30
0.0
 10
11.8911389745
 20
10.7547129957
 30
0.0
 10
11.8718468608
 20
10.7591812173
 30
0.0
 10
11.8517255464
 20
10.7633983465
 30
0.0
 10
11.8308239206
 20
10.7673540227
 30
0.0
 10
11.8091928056
 20
10.7710385288
 30
0.0
 10
11.7868848385
 20
10.7744428153
 30
0.0
 10
11.7639542962
 20
10.7775585389
 30
0.0
 10
11.7404570878
 20
10.7803780273
 30
0.0
 10
11.7164502629
 20
10.7828944185
 30
0.0
 10
11.691992549
 20
10.7851014636
 30
0.0
 10
11.6755349872
 20
10.7863547644
 30
0.0
 10
11.6672419592
 20
10.7869298879
 30
0.0
  0
SPLINE
  5
390
100
AcDbEntity
  8
0
100
AcDbSpline
 62
7
  6
CONTINUOUS
 70
0
 71
3
 72
41
 73
37
 74
0
 42
0.0000001
 43
0.0000001
 44
0.0000000001
 40
0.0
 40
0.0
 40
0.0
 40
0.0
 40
0.0066032194
 40
0.013366597
 40
0.0274619153
 40
0.0424595336
 40
0.0584932403
 40
0.0669339364
 40
0.0756704371
 40
0.0847119023
 40
0.0940660886
 40
0.1037395871
 40
0.1137379771
 40
0.1347248369
 40
0.157055117
 40
0.180743399
 40
0.2057946039
 40
0.2322055939
 40
0.2599663027
 40
0.289060674
 40
0.3194675246
 40
0.3511611233
 40
0.3841115975
 40
0.4182854463
 40
0.453645902
 40
0.4901531321
 40
0.5277645263
 40
0.5664349844
 40
0.606117064
 40
0.6467611143
 40
0.6883155397
 40
0.7307269268
 40
0.7739400906
 40
0.8178984666
 40
0.9078150526
 40
1.0
 40
1.0
 40
1.0
 40
1.0
 10
12.2238311801
 20
10.6710170842
 30
0.0
 10
12.2234494561
 20
10.6721715886
 30
0.0
 10
12.2225971995
 20
10.6744830816
 30
0.0
 10
12.2205458169
 20
10.6791084279
 30
0.0
 10
12.2173132236
 20
10.6848847949
 30
0.0
 10
12.2124857821
 20
10.6916653224
 30
0.0
 10
12.2077205372
 20
10.6971677351
 30
0.0
 10
12.2034409757
 20
10.7015382647
 30
0.0
 10
12.1999309287
 20
10.7048552506
 30
0.0
 10
12.1961769387
 20
10.7081538807
 30
0.0
 10
12.19218026
 20
10.7114331487
 30
0.0
 10
12.1879423694
 20
10.7146919231
 30
0.0
 10
12.1818738814
 20
10.7190789677
 30
0.0
 10
12.1736781032
 20
10.724493685
 30
0.0
 10
12.1630612741
 20
10.7307892166
 30
0.0
 10
12.1515239324
 20
10.7369751312
 30
0.0
 10
12.1390827166
 20
10.7430425824
 30
0.0
 10
12.125755249
 20
10.7489829095
 30
0.0
 10
12.1115606574
 20
10.7547875163
 30
0.0
 10
12.0965193841
 20
10.7604479873
 30
0.0
 10
12.0806531593
 20
10.7659560525
 30
0.0
 10
12.0639849607
 20
10.7713036333
 30
0.0
 10
12.0465389936
 20
10.7764829108
 30
0.0
 10
12.0283406242
 20
10.7814862886
 30
0.0
 10
12.0094163334
 20
10.7863064037
 30
0.0
 10
11.9897936934
 20
10.7909361836
 30
0.0
 10
11.969501317
 20
10.7953688411
 30
0.0
 10
11.9485687992
 20
10.7995978567
 30
0.0
 10
11.927026683
 20
10.8036170094
 30
0.0
 10
11.9049064196
 20
10.8074204149
 30
0.0
 10
11.8822403045
 20
10.8110024896
 30
0.0
 10
11.8590614476
 20
10.8143579492
 30
0.0
 10
11.8354036688
 20
10.8174819172
 30
0.0
 10
11.8030240299
 20
10.8213614615
 30
0.0
 10
11.7616065569
 20
10.8255864477
 30
0.0
 10
11.7281762252
 20
10.8282554046
 30
0.0
 10
11.7112411605
 20
10.8294298553
 30
0.0
  0
SPLINE
  5
391
100
AcDbEntity
  8
0
100
AcDbSpline
 62
7
  6
CONTINUOUS
 70
0
 71
3
 72
21
 73
17
 74
0
 42
0.0000001
 43
0.0000001
 44
0.0000000001
 40
0.0
 40
0.0
 40
0.0
 40
0.0
 40
0.1273176984
 40
0.2537999461
 40
0.3167619614
 40
0.3795355204
 40
0.4421314992
 40
0.5045621453
 40
0.5668413456
 40
0.6289845231
 40
0.6910084433
 40
0.7529310869
 40
0.8147714401
 40
0.8765493236
 40
0.9382852134
 40
1.0
 40
1.0
 40
1.0
 40
1.0
 10
12.0140906996
 20
9.8867941259
 30
0.0
 10
12.0140906996
 20
9.893538934
 30
0.0
 10
12.0147345366
 20
9.9069929734
 30
0.0
 10
12.0171661279
 20
9.9236250705
 30
0.0
 10
12.0200723949
 20
9.9366714941
 30
0.0
 10
12.0227227589
 20
9.9462945426
 30
0.0
 10
12.0258407535
 20
9.9557465943
 30
0.0
 10
12.0294191903
 20
9.9650061289
 30
0.0
 10
12.033449819
 20
9.9740517303
 30
0.0
 10
12.0379234268
 20
9.9828625218
 30
0.0
 10
12.0428296649
 20
9.9914181934
 30
0.0
 10
12.0481572186
 20
9.9996990273
 30
0.0
 10
12.053893853
 20
10.0076858619
 30
0.0
 10
12.0600263743
 20
10.0153603544
 30
0.0
 10
12.0665403677
 20
10.0227045926
 30
0.0
 10
12.0711282605
 20
10.0273700852
 30
0.0
 10
12.0734798092
 20
10.029641493
 30
0.0
  0
SPLINE
  5
392
100
AcDbEntity
  8
0
100
AcDbSpline
 62
7
  6
CONTINUOUS
 70
0
 71
3
 72
51
 73
47
 74
0
 42
0.0000001
 43
0.0000001
 44
0.0000000001
 40
0.0
 40
0.0
 40
0.0
 40
0.0
 40
0.0055575456
 40
0.0111779745
 40
0.0169219226
 40
0.0228458102
 40
0.0290006047
 40
0.0354310077
 40
0.0421754804
 40
0.0492663296
 40
0.0567304103
 40
0.0645895199
 40
0.072861235
 40
0.0815592785
 40
0.0906942485
 40
0.1002738722
 40
0.1103035684
 40
0.1207866089
 40
0.1317245227
 40
0.1431172081
 40
0.1549632025
 40
0.1672597814
 40
0.1800031153
 40
0.1931883816
 40
0.206809826
 40
0.2208609007
 40
0.2502209486
 40
0.2812028056
 40
0.3137299383
 40
0.3477173339
 40
0.3830725137
 40
0.4196963927
 40
0.4574840319
 40
0.4963253169
 40
0.5361055847
 40
0.5767062141
 40
0.6180051911
 40
0.6598776565
 40
0.7021964431
 40
0.7448326008
 40
0.7876559264
 40
0.8305354612
 40
0.8733400729
 40
0.9159387956
 40
0.9582017788
 40
1.0
 40
1.0
 40
1.0
 40
1.0
 10
11.0513620741
 20
10.6122133236
 30
0.0
 10
11.0513620791
 20
10.6134007502
 30
0.0
 10
11.0514950498
 20
10.6157911034
 30
0.0
 10
11.0520916882
 20
10.6193638887
 30
0.0
 10
11.0530846865
 20
10.622928683
 30
0.0
 10
11.0544719448
 20
10.6264814043
 30
0.0
 10
11.056251344
 20
10.6300191029
 30
0.0
 10
11.0584203356
 20
10.6335391517
 30
0.0
 10
11.0609765921
 20
10.6370390399
 30
0.0
 10
11.0639174817
 20
10.6405165099
 30
0.0
 10
11.0672404816
 20
10.6439691185
 30
0.0
 10
11.0709427167
 20
10.6473945658
 30
0.0
 10
11.0750212503
 20
10.6507903092
 30
0.0
 10
11.0794727598
 20
10.6541539268
 30
0.0
 10
11.0842937466
 20
10.6574827945
 30
0.0
 10
11.0894803326
 20
10.6607744063
 30
0.0
 10
11.0950284032
 20
10.6640261169
 30
0.0
 10
11.1009334892
 20
10.6672353894
 30
0.0
 10
11.1071908559
 20
10.6703996087
 30
0.0
 10
11.1137954428
 20
10.6735162478
 30
0.0
 10
11.1207419122
 20
10.6765827562
 30
0.0
 10
11.1280246256
 20
10.6795966454
 30
0.0
 10
11.1356376669
 20
10.682555453
 30
0.0
 10
11.1435748372
 20
10.6854567429
 30
0.0
 10
11.1518296769
 20
10.6882981824
 30
0.0
 10
11.1634209883
 20
10.6920589299
 30
0.0
 10
11.1786624942
 20
10.6965795178
 30
0.0
 10
11.1978477784
 20
10.7016536279
 30
0.0
 10
11.2181246954
 20
10.7064367202
 30
0.0
 10
11.2394269773
 20
10.7109129777
 30
0.0
 10
11.2616851641
 20
10.7150675683
 30
0.0
 10
11.2848265136
 20
10.7188867389
 30
0.0
 10
11.3087753566
 20
10.7223578496
 30
0.0
 10
11.3334533303
 20
10.7254694185
 30
0.0
 10
11.358779653
 20
10.7282111576
 30
0.0
 10
11.3846713945
 20
10.7305740052
 30
0.0
 10
11.4110437533
 20
10.7325501547
 30
0.0
 10
11.4378103395
 20
10.7341330792
 30
0.0
 10
11.4648834608
 20
10.7353175514
 30
0.0
 10
11.4921744141
 20
10.7360996611
 30
0.0
 10
11.5195937741
 20
10.7364768257
 30
0.0
 10
11.5470517021
 20
10.7364478021
 30
0.0
 10
11.5744582029
 20
10.7360126823
 30
0.0
 10
11.6017235294
 20
10.7351729082
 30
0.0
 10
11.6287582143
 20
10.7339312471
 30
0.0
 10
11.6466858918
 20
10.7328310882
 30
0.0
 10
11.6555951118
 20
10.7322132317
 30
0.0
  0
SPLINE
  5
393
100
AcDbEntity
  8
0
100
AcDbSpline
 62
7
  6
CONTINUOUS
 70
0
 71
3
 72
57
 73
53
 74
0
 42
0.0000001
 43
0.0000001
 44
0.0000000001
 40
0.0
 40
0.0
 40
0.0
 40
0.0
 40
0.0082490316
 40
0.0160248414
 40
0.0233637939
 40
0.0303112656
 40
0.0369224454
 40
0.043262926
 40
0.0494081764
 40
0.0554418789
 40
0.0614528673
 40
0.0675310688
 40
0.0737632072
 40
0.0802292121
 40
0.0869997487
 40
0.0941352606
 40
0.1016859567
 40
0.1096925942
 40
0.1181876014
 40
0.1271961379
 40
0.1367373563
 40
0.1468251615
 40
0.15746923
 40
0.1686755082
 40
0.1804468671
 40
0.1927835203
 40
0.2056833202
 40
0.2191421913
 40
0.2331541714
 40
0.2477118263
 40
0.2628062093
 40
0.2784271526
 40
0.2945632987
 40
0.3112022011
 40
0.3283304856
 40
0.3459337859
 40
0.3639969859
 40
0.3825040958
 40
0.4207819723
 40
0.4606269098
 40
0.5018880399
 40
0.5444062511
 40
0.5880153451
 40
0.6325431247
 40
0.6778124354
 40
0.7236421777
 40
0.7698483017
 40
0.8162448021
 40
0.8626446417
 40
0.9088609325
 40
0.9547072079
 40
1.0
 40
1.0
 40
1.0
 40
1.0
 10
11.0255592701
 20
10.6192715099
 30
0.0
 10
11.0240628668
 20
10.6206640784
 30
0.0
 10
11.0212378947
 20
10.6234597896
 30
0.0
 10
11.017419803
 20
10.6278190636
 30
0.0
 10
11.0141549772
 20
10.6322124842
 30
0.0
 10
11.0114479201
 20
10.6366361516
 30
0.0
 10
11.0093031142
 20
10.6410863746
 30
0.0
 10
11.0077249733
 20
10.6455586743
 30
0.0
 10
11.0067177662
 20
10.6500476079
 30
0.0
 10
11.0062848432
 20
10.6545463956
 30
0.0
 10
11.006427764
 20
10.6590472302
 30
0.0
 10
11.0071460955
 20
10.6635420442
 30
0.0
 10
11.0084371214
 20
10.6680235002
 30
0.0
 10
11.0102971081
 20
10.6724854338
 30
0.0
 10
11.0127215174
 20
10.6769229964
 30
0.0
 10
11.015705957
 20
10.6813320896
 30
0.0
 10
11.019245993
 20
10.6857090568
 30
0.0
 10
11.0233371967
 20
10.6900503081
 30
0.0
 10
11.027974995
 20
10.6943520847
 30
0.0
 10
11.0331543764
 20
10.6986105946
 30
0.0
 10
11.0388699862
 20
10.702821735
 30
0.0
 10
11.0451158301
 20
10.7069814664
 30
0.0
 10
11.0518854405
 20
10.7110855206
 30
0.0
 10
11.0591717093
 20
10.7151297092
 30
0.0
 10
11.0669669756
 20
10.7191097863
 30
0.0
 10
11.0752630006
 20
10.7230215175
 30
0.0
 10
11.0840509603
 20
10.7268607775
 30
0.0
 10
11.0933215057
 20
10.7306233833
 30
0.0
 10
11.1030647126
 20
10.734305356
 30
0.0
 10
11.1132701587
 20
10.7379026574
 30
0.0
 10
11.1239268851
 20
10.7414114472
 30
0.0
 10
11.1350234465
 20
10.7448279025
 30
0.0
 10
11.1465479075
 20
10.7481483231
 30
0.0
 10
11.1584878599
 20
10.7513691343
 30
0.0
 10
11.1708304468
 20
10.754486804
 30
0.0
 10
11.1835623577
 20
10.7574979991
 30
0.0
 10
11.1966698834
 20
10.7603994272
 30
0.0
 10
11.2148327783
 20
10.7641596646
 30
0.0
 10
11.2383748614
 20
10.768549724
 30
0.0
 10
11.26758103
 20
10.773276231
 30
0.0
 10
11.2979255733
 20
10.7774977652
 30
0.0
 10
11.3292775331
 20
10.7811959178
 30
0.0
 10
11.3615017546
 20
10.7843545242
 30
0.0
 10
11.3944592027
 20
10.786959799
 30
0.0
 10
11.4280076553
 20
10.7890003724
 30
0.0
 10
11.4620023053
 20
10.7904673451
 30
0.0
 10
11.4962964029
 20
10.7913543229
 30
0.0
 10
11.5307418886
 20
10.7916574367
 30
0.0
 10
11.5651900637
 20
10.7913753732
 30
0.0
 10
11.5994921674
 20
10.7905093453
 30
0.0
 10
11.6335000596
 20
10.7890631602
 30
0.0
 10
11.6560451854
 20
10.7877063868
 30
0.0
 10
11.6672419592
 20
10.7869298879
 30
0.0
  0
SPLINE
  5
394
100
AcDbEntity
  8
0
100
AcDbSpline
 62
7
  6
CONTINUOUS
 70
0
 71
3
 72
52
 73
48
 74
0
 42
0.0000001
 43
0.0000001
 44
0.0000000001
 40
0.0
 40
0.0
 40
0.0
 40
0.0
 40
0.005733484
 40
0.0116768007
 40
0.0178700228
 40
0.0243478933
 40
0.0311399941
 40
0.0382711277
 40
0.0457617908
 40
0.053628672
 40
0.0618851399
 40
0.0705416702
 40
0.0796062476
 40
0.0890846768
 40
0.0989808921
 40
0.1092971633
 40
0.1200343337
 40
0.1311919456
 40
0.142768429
 40
0.1547611687
 40
0.1671666611
 40
0.1799805397
 40
0.1931977122
 40
0.2068123557
 40
0.2208180425
 40
0.2352077133
 40
0.2499737961
 40
0.2651081634
 40
0.2964463801
 40
0.3291490718
 40
0.3631358353
 40
0.3983205639
 40
0.434612069
 40
0.4719146386
 40
0.510128552
 40
0.5491505633
 40
0.5888743629
 40
0.6291910225
 40
0.66998943
 40
0.7111567165
 40
0.7525786776
 40
0.7941401914
 40
0.8357256377
 40
0.8772193028
 40
0.9185058231
 40
0.959470529
 40
1.0
 40
1.0
 40
1.0
 40
1.0
 10
10.8388597388
 20
10.6709162735
 30
0.0
 10
10.8394039768
 20
10.6725732983
 30
0.0
 10
10.8406777488
 20
10.6758956605
 30
0.0
 10
10.8430749321
 20
10.6807816853
 30
0.0
 10
10.845985851
 20
10.6856457452
 30
0.0
 10
10.8494073115
 20
10.6904840526
 30
0.0
 10
10.8533362819
 20
10.6952937758
 30
0.0
 10
10.8577695208
 20
10.7000718622
 30
0.0
 10
10.862703613
 20
10.7048152848
 30
0.0
 10
10.8681348745
 20
10.7095209463
 30
0.0
 10
10.8740593335
 20
10.7141856813
 30
0.0
 10
10.8804726749
 20
10.7188062934
 30
0.0
 10
10.8873702488
 20
10.7233795291
 30
0.0
 10
10.8947470306
 20
10.7279021458
 30
0.0
 10
10.9025976481
 20
10.7323708643
 30
0.0
 10
10.9109163501
 20
10.7367824509
 30
0.0
 10
10.9196970408
 20
10.7411336504
 30
0.0
 10
10.9289332529
 20
10.7454212789
 30
0.0
 10
10.9386181832
 20
10.7496421396
 30
0.0
 10
10.9487446699
 20
10.7537931265
 30
0.0
 10
10.9593052261
 20
10.7578711258
 30
0.0
 10
10.9702920213
 20
10.7618731285
 30
0.0
 10
10.9816969114
 20
10.7657961214
 30
0.0
 10
10.9935114244
 20
10.769637207
 30
0.0
 10
11.0057267878
 20
10.7733934876
 30
0.0
 10
11.0183339135
 20
10.7770621824
 30
0.0
 10
11.0313234421
 20
10.7806405455
 30
0.0
 10
11.0493494856
 20
10.7853422997
 30
0.0
 10
11.0727727567
 20
10.7909607652
 30
0.0
 10
11.1019294318
 20
10.7972261737
 30
0.0
 10
11.1323653615
 20
10.8030717827
 30
0.0
 10
11.1639899046
 20
10.8084800292
 30
0.0
 10
11.1967090387
 20
10.8134346366
 30
0.0
 10
11.2304253656
 20
10.8179207088
 30
0.0
 10
11.265038495
 20
10.8219247613
 30
0.0
 10
11.3004453295
 20
10.8254347637
 30
0.0
 10
11.3365403848
 20
10.828440173
 30
0.0
 10
11.3732161076
 20
10.8309319648
 30
0.0
 10
11.4103632008
 20
10.8329026583
 30
0.0
 10
11.4478709521
 20
10.8343463386
 30
0.0
 10
11.4856275674
 20
10.8352586729
 30
0.0
 10
11.5235205059
 20
10.8356369237
 30
0.0
 10
11.5614368191
 20
10.8354799555
 30
0.0
 10
11.5992634826
 20
10.8347882406
 30
0.0
 10
11.6368877686
 20
10.8335638514
 30
0.0
 10
11.6741974298
 20
10.8318104709
 30
0.0
 10
11.698941735
 20
10.8302828234
 30
0.0
 10
11.7112411605
 20
10.8294298553
 30
0.0
  0
SPLINE
  5
395
100
AcDbEntity
  8
0
100
AcDbSpline
 62
7
  6
CONTINUOUS
 70
0
 71
3
 72
53
 73
49
 74
0
 42
0.0000001
 43
0.0000001
 44
0.0000000001
 40
0.0
 40
0.0
 40
0.0
 40
0.0
 40
0.0055575334
 40
0.0111779591
 40
0.0169218931
 40
0.0228457847
 40
0.029000565
 40
0.0354309743
 40
0.0421754345
 40
0.0492662879
 40
0.0567303589
 40
0.0645894686
 40
0.0728611764
 40
0.0815592161
 40
0.0906941791
 40
0.1002737964
 40
0.1103034837
 40
0.1207865163
 40
0.1317244176
 40
0.1431170941
 40
0.1549630719
 40
0.1672596408
 40
0.1800029545
 40
0.1931882087
 40
0.2068096306
 40
0.2208606897
 40
0.2353340137
 40
0.2502216112
 40
0.2655147581
 40
0.2812041995
 40
0.3137312779
 40
0.3477186146
 40
0.3830737319
 40
0.419697545
 40
0.4574851157
 40
0.4963263298
 40
0.5361065238
 40
0.5767070763
 40
0.6180059734
 40
0.6598783563
 40
0.7021970576
 40
0.7448331294
 40
0.7876563632
 40
0.8305358211
 40
0.8733403081
 40
0.9159390405
 40
0.9582017244
 40
1.0
 40
1.0
 40
1.0
 40
1.0
 10
10.8363620864
 20
10.6865898008
 30
0.0
 10
10.8363620898
 20
10.6883090944
 30
0.0
 10
10.8365545902
 20
10.6917701316
 30
0.0
 10
10.8374185704
 20
10.6969432083
 30
0.0
 10
10.8388562946
 20
10.7021047521
 30
0.0
 10
10.8408650112
 20
10.7072487665
 30
0.0
 10
10.8434413977
 20
10.7123710837
 30
0.0
 10
10.8465819743
 20
10.7174677903
 30
0.0
 10
10.8502832057
 20
10.7225353571
 30
0.0
 10
10.8545414051
 20
10.72757042
 30
0.0
 10
10.8593528316
 20
10.732569521
 30
0.0
 10
10.8647133818
 20
10.7375292683
 30
0.0
 10
10.8706187661
 20
10.7424460251
 30
0.0
 10
10.8770641959
 20
10.7473162544
 30
0.0
 10
10.8840445927
 20
10.7521361764
 30
0.0
 10
10.8915543491
 20
10.756902149
 30
0.0
 10
10.8995875016
 20
10.7616103537
 30
0.0
 10
10.9081375847
 20
10.7662571049
 30
0.0
 10
10.9171977369
 20
10.7708386313
 30
0.0
 10
10.926760638
 20
10.7753512546
 30
0.0
 10
10.9368185514
 20
10.779791306
 30
0.0
 10
10.9473633219
 20
10.7841551545
 30
0.0
 10
10.958386374
 20
10.7884392638
 30
0.0
 10
10.9698787438
 20
10.7926400843
 30
0.0
 10
10.9818310564
 20
10.7967542266
 30
0.0
 10
10.9942335699
 20
10.8007782536
 30
0.0
 10
11.00707615
 20
10.8047089283
 30
0.0
 10
11.0203483067
 20
10.8085429497
 30
0.0
 10
11.0340392
 20
10.8122772591
 30
0.0
 10
11.0530662446
 20
10.8171781043
 30
0.0
 10
11.0778208133
 20
10.8230172967
 30
0.0
 10
11.1086646298
 20
10.8294985537
 30
0.0
 10
11.1408926524
 20
10.8355140438
 30
0.0
 10
11.1743993805
 20
10.8410438794
 30
0.0
 10
11.2090753019
 20
10.8460697516
 30
0.0
 10
11.2448069396
 20
10.8505750375
 30
0.0
 10
11.2814773323
 20
10.8545448406
 30
0.0
 10
11.318966402
 20
10.8579660407
 30
0.0
 10
11.3571513639
 20
10.8608273348
 30
0.0
 10
11.3959071322
 20
10.8631192723
 30
0.0
 10
11.4351067366
 20
10.8648342853
 30
0.0
 10
11.474621741
 20
10.8659667112
 30
0.0
 10
11.5143226704
 20
10.866512813
 30
0.0
 10
11.5540794311
 20
10.8664707852
 30
0.0
 10
11.5937617608
 20
10.8658407726
 30
0.0
 10
11.6332396124
 20
10.8646248426
 30
0.0
 10
11.67238357
 20
10.8628270318
 30
0.0
 10
11.6983413162
 20
10.8612340915
 30
0.0
 10
11.7112411605
 20
10.8603394843
 30
0.0
  0
SPLINE
  5
396
100
AcDbEntity
  8
0
100
AcDbSpline
 62
7
  6
CONTINUOUS
 70
0
 71
3
 72
21
 73
17
 74
0
 42
0.0000001
 43
0.0000001
 44
0.0000000001
 40
0.0
 40
0.0
 40
0.0
 40
0.0
 40
0.1273176984
 40
0.2537999461
 40
0.3167619614
 40
0.3795355204
 40
0.4421314992
 40
0.5045621453
 40
0.5668413456
 40
0.6289845231
 40
0.6910084433
 40
0.7529310869
 40
0.8147714401
 40
0.8765493236
 40
0.9382852134
 40
1.0
 40
1.0
 40
1.0
 40
1.0
 10
10.3546299792
 20
8.3424175413
 30
0.0
 10
10.3546299792
 20
8.3491623494
 30
0.0
 10
10.3552738162
 20
8.3626163888
 30
0.0
 10
10.3577054075
 20
8.3792484859
 30
0.0
 10
10.3606116745
 20
8.3922949095
 30
0.0
 10
10.3632620385
 20
8.401917958
 30
0.0
 10
10.3663800331
 20
8.4113700097
 30
0.0
 10
10.3699584699
 20
8.4206295442
 30
0.0
 10
10.3739890986
 20
8.4296751457
 30
0.0
 10
10.3784627064
 20
8.4384859372
 30
0.0
 10
10.3833689446
 20
8.4470416087
 30
0.0
 10
10.3886964982
 20
8.4553224427
 30
0.0
 10
10.3944331326
 20
8.4633092772
 30
0.0
 10
10.4005656539
 20
8.4709837697
 30
0.0
 10
10.4070796473
 20
8.478328008
 30
0.0
 10
10.4116675401
 20
8.4829935006
 30
0.0
 10
10.4140190888
 20
8.4852649084
 30
0.0
  0
SPLINE
  5
397
100
AcDbEntity
  8
0
100
AcDbSpline
 62
7
  6
CONTINUOUS
 70
0
 71
3
 72
39
 73
35
 74
0
 42
0.0000001
 43
0.0000001
 44
0.0000000001
 40
0.0
 40
0.0
 40
0.0
 40
0.0
 40
0.0311444246
 40
0.0624434307
 40
0.0938882321
 40
0.1254710247
 40
0.1571788731
 40
0.1889972589
 40
0.2209091738
 40
0.2528958456
 40
0.2849370269
 40
0.317011416
 40
0.349097073
 40
0.3811718411
 40
0.4132137734
 40
0.4452015557
 40
0.477114921
 40
0.508935054
 40
0.5406449744
 40
0.5722298904
 40
0.6036775179
 40
0.634978359
 40
0.666125934
 40
0.6971169583
 40
0.7279514621
 40
0.758632843
 40
0.789167841
 40
0.8195664384
 40
0.8498416796
 40
0.8800094142
 40
0.9100879639
 40
0.9400977227
 40
0.9700606976
 40
1.0
 40
1.0
 40
1.0
 40
1.0
 10
9.9379555461
 20
9.087862257
 30
0.0
 10
9.9354081983
 20
9.0880389162
 30
0.0
 10
9.9303118986
 20
9.0885795952
 30
0.0
 10
9.9227292668
 20
9.0899414641
 30
0.0
 10
9.9152278147
 20
9.0918491671
 30
0.0
 10
9.9078481481
 20
9.0942922362
 30
0.0
 10
9.9006293952
 20
9.0972577217
 30
0.0
 10
9.8936100886
 20
9.1007296893
 30
0.0
 10
9.886827617
 20
9.1046896186
 30
0.0
 10
9.8803181264
 20
9.1091163611
 30
0.0
 10
9.8741162981
 20
9.1139862945
 30
0.0
 10
9.8682551753
 20
9.1192734406
 30
0.0
 10
9.8627659897
 20
9.1249496096
 30
0.0
 10
9.8576779981
 20
9.1309845475
 30
0.0
 10
9.8530183279
 20
9.137346095
 30
0.0
 10
9.8488118342
 20
9.1440003565
 30
0.0
 10
9.8450809708
 20
9.1509118791
 30
0.0
 10
9.8418456593
 20
9.1580438331
 30
0.0
 10
9.8391231869
 20
9.1653582108
 30
0.0
 10
9.8369281203
 20
9.172816029
 30
0.0
 10
9.8352722269
 20
9.1803775332
 30
0.0
 10
9.8341644117
 20
9.1880024052
 30
0.0
 10
9.833610667
 20
9.1956499752
 30
0.0
 10
9.83361404
 20
9.2032794347
 30
0.0
 10
9.8341746036
 20
9.2108500525
 30
0.0
 10
9.83528945
 20
9.2183213924
 30
0.0
 10
9.8369527125
 20
9.2256535285
 30
0.0
 10
9.8391555912
 20
9.2328072584
 30
0.0
 10
9.8418863911
 20
9.2397443101
 30
0.0
 10
9.8451305929
 20
9.2464275615
 30
0.0
 10
9.8488708775
 20
9.2528211944
 30
0.0
 10
9.8530873959
 20
9.2588910708
 30
0.0
 10
9.8577571769
 20
9.2646042687
 30
0.0
 10
9.8611573982
 20
9.268156367
 30
0.0
 10
9.862922922
 20
9.2698617363
 30
0.0
  0
SPLINE
  5
398
100
AcDbEntity
  8
0
100
AcDbSpline
 62
7
  6
CONTINUOUS
 70
0
 71
3
 72
50
 73
46
 74
0
 42
0.0000001
 43
0.0000001
 44
0.0000000001
 40
0.0
 40
0.0
 40
0.0
 40
0.0
 40
0.0053769953
 40
0.010820095
 40
0.0163928551
 40
0.0221541027
 40
0.0344342786
 40
0.041050046
 40
0.0480245491
 40
0.0553845306
 40
0.0631515343
 40
0.0713426836
 40
0.0799712541
 40
0.0890472758
 40
0.0985779865
 40
0.108568227
 40
0.1190207986
 40
0.1299366827
 40
0.1413153433
 40
0.1531548112
 40
0.1654519631
 40
0.1782025035
 40
0.191401239
 40
0.2050419855
 40
0.2191178449
 40
0.2485424278
 40
0.2796063452
 40
0.3122303189
 40
0.346326677
 40
0.3818003456
 40
0.4185496927
 40
0.4564672706
 40
0.4954404884
 40
0.5353522358
 40
0.5760814738
 40
0.6175038017
 40
0.6594920084
 40
0.7019166139
 40
0.7446464011
 40
0.7875489503
 40
0.8304911472
 40
0.873339762
 40
0.9159618242
 40
0.9582255132
 40
1.0
 40
1.0
 40
1.0
 40
1.0
 10
12.8726662524
 20
8.0298808656
 30
0.0
 10
12.8738161057
 20
8.0298011187
 30
0.0
 10
12.8761414178
 20
8.0297746042
 30
0.0
 10
12.8796437906
 20
8.0301360618
 30
0.0
 10
12.8831659014
 20
8.0308975828
 30
0.0
 10
12.8879832072
 20
8.0324764724
 30
0.0
 10
12.8927391628
 20
8.034856903
 30
0.0
 10
12.8973779088
 20
8.0379007208
 30
0.0
 10
12.9009496986
 20
8.0406296178
 30
0.0
 10
12.9045231732
 20
8.0437444548
 30
0.0
 10
12.9080967578
 20
8.0472430001
 30
0.0
 10
12.9116675829
 20
8.0511222865
 30
0.0
 10
12.9152330744
 20
8.0553792105
 30
0.0
 10
12.9187904646
 20
8.0600103555
 30
0.0
 10
12.9223369756
 20
8.0650120043
 30
0.0
 10
12.9258697901
 20
8.0703801254
 30
0.0
 10
12.9293860509
 20
8.0761103841
 30
0.0
 10
12.9328829246
 20
8.0821981211
 30
0.0
 10
12.9363575265
 20
8.0886383877
 30
0.0
 10
12.93980704
 20
8.0954259127
 30
0.0
 10
12.9432285851
 20
8.1025551496
 30
0.0
 10
12.9466193853
 20
8.1100202383
 30
0.0
 10
12.9499765813
 20
8.1178150538
 30
0.0
 10
12.9532974788
 20
8.1259331794
 30
0.0
 10
12.9577389624
 20
8.1373489169
 30
0.0
 10
12.9631667977
 20
8.1523857012
 30
0.0
 10
12.96940019
 20
8.1713495274
 30
0.0
 10
12.9754254219
 20
8.1914282456
 30
0.0
 10
12.9812224166
 20
8.2125556093
 30
0.0
 10
12.9867718436
 20
8.2346620602
 30
0.0
 10
12.9920552108
 20
8.2576746549
 30
0.0
 10
12.9970549205
 20
8.2815174187
 30
0.0
 10
13.0017543292
 20
8.3061115837
 30
0.0
 10
13.0061378018
 20
8.3313758663
 30
0.0
 10
13.0101907618
 20
8.3572267416
 30
0.0
 10
13.0138997392
 20
8.383578726
 30
0.0
 10
13.0172524139
 20
8.410344664
 30
0.0
 10
13.0202376553
 20
8.4374360197
 30
0.0
 10
13.0228455595
 20
8.4647631742
 30
0.0
 10
13.0250674798
 20
8.4922357199
 30
0.0
 10
13.0268960596
 20
8.5197627738
 30
0.0
 10
13.0283252464
 20
8.5472532462
 30
0.0
 10
13.0293503323
 20
8.574616238
 30
0.0
 10
13.0299679362
 20
8.6017611055
 30
0.0
 10
13.0301076433
 20
8.6197758512
 30
0.0
 10
13.0301076433
 20
8.6287306504
 30
0.0
  0
SPLINE
  5
399
100
AcDbEntity
  8
0
100
AcDbSpline
 62
7
  6
CONTINUOUS
 70
0
 71
3
 72
57
 73
53
 74
0
 42
0.0000001
 43
0.0000001
 44
0.0000000001
 40
0.0
 40
0.0
 40
0.0
 40
0.0
 40
0.0079607349
 40
0.0154476043
 40
0.02249932
 40
0.0291643271
 40
0.0355016734
 40
0.0415815297
 40
0.0474844017
 40
0.0532989437
 40
0.0591182353
 40
0.0650351156
 40
0.0711375477
 40
0.0775050897
 40
0.0842067585
 40
0.0913005371
 40
0.0988337931
 40
0.1068443626
 40
0.1153618883
 40
0.1244089606
 40
0.1340024329
 40
0.1441541738
 40
0.154872066
 40
0.1661604886
 40
0.1780209269
 40
0.1904523832
 40
0.2034516296
 40
0.2170136362
 40
0.2311315848
 40
0.2457972707
 40
0.2610010558
 40
0.2767321372
 40
0.2929785853
 40
0.3097274222
 40
0.3269647899
 40
0.3446758711
 40
0.3628451328
 40
0.3814561986
 40
0.4199343038
 40
0.4599669892
 40
0.5014010818
 40
0.5440754345
 40
0.5878220486
 40
0.6324671352
 40
0.6778321372
 40
0.7237347256
 40
0.7699897821
 40
0.8164103822
 40
0.8628087101
 40
0.9089972302
 40
0.9547889535
 40
1.0
 40
1.0
 40
1.0
 40
1.0
 10
12.8804442172
 20
8.0020775361
 30
0.0
 10
12.8816878134
 20
8.0005484785
 30
0.0
 10
12.8841962787
 20
7.9976567288
 30
0.0
 10
12.8881518057
 20
7.9937267125
 30
0.0
 10
12.8921776475
 20
7.9903467888
 30
0.0
 10
12.896270499
 20
7.9875216835
 30
0.0
 10
12.9004271968
 20
7.9852561891
 30
0.0
 10
12.9046436336
 20
7.9835551866
 30
0.0
 10
12.9089144729
 20
7.982423406
 30
0.0
 10
12.9132327924
 20
7.9818645424
 30
0.0
 10
12.9175905347
 20
7.9818801704
 30
0.0
 10
12.9219795253
 20
7.9824696428
 30
0.0
 10
12.9263925593
 20
7.9836299664
 30
0.0
 10
12.9308237833
 20
7.9853572825
 30
0.0
 10
12.9352686515
 20
7.9876471456
 30
0.0
 10
12.9397232733
 20
7.9904953789
 30
0.0
 10
12.9441840407
 20
7.99389784
 30
0.0
 10
12.9486473087
 20
7.9978503631
 30
0.0
 10
12.9531091656
 20
8.0023486245
 30
0.0
 10
12.9575656132
 20
8.0073878176
 30
0.0
 10
12.9620123027
 20
8.0129627739
 30
0.0
 10
12.966444903
 20
8.0190676676
 30
0.0
 10
12.9708588378
 20
8.0256961882
 30
0.0
 10
12.9752495596
 20
8.0328413845
 30
0.0
 10
12.9796124472
 20
8.0404957456
 30
0.0
 10
12.9839428431
 20
8.0486511887
 30
0.0
 10
12.9882361717
 20
8.0572990403
 30
0.0
 10
12.9924877619
 20
8.0664301092
 30
0.0
 10
12.9966931072
 20
8.0760346246
 30
0.0
 10
13.0008476137
 20
8.0861023222
 30
0.0
 10
13.0049468389
 20
8.0966223997
 30
0.0
 10
13.0089863336
 20
8.1075835692
 30
0.0
 10
13.0129617262
 20
8.1189740534
 30
0.0
 10
13.0168687437
 20
8.1307815999
 30
0.0
 10
13.020703118
 20
8.14299351
 30
0.0
 10
13.0244607471
 20
8.1555966271
 30
0.0
 10
13.0281375402
 20
8.1685773958
 30
0.0
 10
13.0329806187
 20
8.186569977
 30
0.0
 10
13.0387912178
 20
8.2099054882
 30
0.0
 10
13.0453060529
 20
8.2388804775
 30
0.0
 10
13.0514096976
 20
8.2690055304
 30
0.0
 10
13.0570756574
 20
8.3001507956
 30
0.0
 10
13.0622793195
 20
8.3321821637
 30
0.0
 10
13.0669981074
 20
8.3649615962
 30
0.0
 10
13.0712115606
 20
8.3983478078
 30
0.0
 10
13.0749014276
 20
8.4321968647
 30
0.0
 10
13.0780517416
 20
8.4663628204
 30
0.0
 10
13.0806488823
 20
8.5006983454
 30
0.0
 10
13.0826816495
 20
8.5350553925
 30
0.0
 10
13.0841412741
 20
8.5692857696
 30
0.0
 10
13.0850215284
 20
8.6032418266
 30
0.0
 10
13.0852211554
 20
8.625772827
 30
0.0
 10
13.0852211554
 20
8.6369662184
 30
0.0
  0
SPLINE
  5
39A
100
AcDbEntity
  8
0
100
AcDbSpline
 62
7
  6
CONTINUOUS
 70
0
 71
3
 72
51
 73
47
 74
0
 42
0.0000001
 43
0.0000001
 44
0.0000000001
 40
0.0
 40
0.0
 40
0.0
 40
0.0
 40
0.0055915704
 40
0.0114074038
 40
0.0174876112
 40
0.0238666115
 40
0.03057336
 40
0.037631904
 40
0.0450618643
 40
0.0528790685
 40
0.0610959964
 40
0.0697223116
 40
0.0787651923
 40
0.0882297314
 40
0.0981191618
 40
0.1084351451
 40
0.1191779223
 40
0.1303465175
 40
0.1419388417
 40
0.1539518345
 40
0.1663815408
 40
0.1792232061
 40
0.19247134
 40
0.2061197762
 40
0.2201617308
 40
0.2345898357
 40
0.2645717528
 40
0.2959972246
 40
0.3287901138
 40
0.3628680087
 40
0.3981429077
 40
0.4345218232
 40
0.4719073268
 40
0.5101980546
 40
0.5492891844
 40
0.5890728924
 40
0.6294387957
 40
0.670274386
 40
0.7114654553
 40
0.7528965187
 40
0.794451232
 40
0.8360128132
 40
0.8774644464
 40
0.9186897342
 40
0.9595730228
 40
1.0
 40
1.0
 40
1.0
 40
1.0
 10
12.9168514849
 20
7.8140563405
 30
0.0
 10
12.9184942098
 20
7.8145172336
 30
0.0
 10
12.9218004157
 20
7.8156253063
 30
0.0
 10
12.9266900935
 20
7.8177775298
 30
0.0
 10
12.9315933916
 20
7.8204458438
 30
0.0
 10
12.9365064726
 20
7.8236272932
 30
0.0
 10
12.9414265296
 20
7.8273189528
 30
0.0
 10
12.9463503927
 20
7.8315178142
 30
0.0
 10
12.9512749684
 20
7.8362205943
 30
0.0
 10
12.9561969648
 20
7.8414238194
 30
0.0
 10
12.9611130799
 20
7.8471236455
 30
0.0
 10
12.9660198629
 20
7.8533159404
 30
0.0
 10
12.9709138659
 20
7.8599961733
 30
0.0
 10
12.9757915417
 20
7.8671594795
 30
0.0
 10
12.9806493632
 20
7.8748005989
 30
0.0
 10
12.9854837459
 20
7.8829139219
 30
0.0
 10
12.9902911348
 20
7.8914934583
 30
0.0
 10
12.9950679499
 20
7.9005328669
 30
0.0
 10
12.9998106437
 20
7.9100254439
 30
0.0
 10
13.0045156694
 20
7.9199641398
 30
0.0
 10
13.009179512
 20
7.9303415601
 30
0.0
 10
13.0137986777
 20
7.9411499738
 30
0.0
 10
13.0183697048
 20
7.9523813217
 30
0.0
 10
13.0228891605
 20
7.9640272168
 30
0.0
 10
13.0273536801
 20
7.9760789727
 30
0.0
 10
13.0333048649
 20
7.9928928219
 30
0.0
 10
13.0405675408
 20
8.0148663519
 30
0.0
 10
13.0489040198
 20
8.0423769394
 30
0.0
 10
13.0569443674
 20
8.0712748123
 30
0.0
 10
13.0646643393
 20
8.1014735089
 30
0.0
 10
13.0720406415
 20
8.1328828437
 30
0.0
 10
13.0790510337
 20
8.165408868
 30
0.0
 10
13.0856743867
 20
8.19895426
 30
0.0
 10
13.0918907481
 20
8.2334186008
 30
0.0
 10
13.0976813999
 20
8.2686986908
 30
0.0
 10
13.103028914
 20
8.3046888639
 30
0.0
 10
13.1079172037
 20
8.3412813088
 30
0.0
 10
13.1123315703
 20
8.3783663966
 30
0.0
 10
13.1162587473
 20
8.4158330121
 30
0.0
 10
13.1196869389
 20
8.4535688895
 30
0.0
 10
13.1226058558
 20
8.4914609514
 30
0.0
 10
13.1250067445
 20
8.5293956499
 30
0.0
 10
13.1268824164
 20
8.5672593046
 30
0.0
 10
13.128227264
 20
8.6049384716
 30
0.0
 10
13.1290372864
 20
8.6423201488
 30
0.0
 10
13.1292203568
 20
8.6671307024
 30
0.0
 10
13.1292203568
 20
8.6794661858
 30
0.0
  0
SPLINE
  5
39B
100
AcDbEntity
  8
0
100
AcDbSpline
 62
7
  6
CONTINUOUS
 70
0
 71
3
 72
40
 73
36
 74
0
 42
0.0000001
 43
0.0000001
 44
0.0000000001
 40
0.0
 40
0.0
 40
0.0
 40
0.0
 40
0.0063160387
 40
0.0126709828
 40
0.0191029715
 40
0.0256486875
 40
0.0323427211
 40
0.0392172301
 40
0.0536154077
 40
0.0690525796
 40
0.0856859204
 40
0.103634241
 40
0.1229843769
 40
0.1437972775
 40
0.1661133128
 40
0.1899562556
 40
0.2153363298
 40
0.2422528122
 40
0.2706958135
 40
0.3006475326
 40
0.3320835436
 40
0.364973648
 40
0.3992823811
 40
0.4349697245
 40
0.4719916038
 40
0.5103001057
 40
0.5498439059
 40
0.5905686336
 40
0.6324169878
 40
0.6753290203
 40
0.7192424102
 40
0.7640925656
 40
0.8098130277
 40
0.9035866961
 40
1.0
 40
1.0
 40
1.0
 40
1.0
 10
12.9390829559
 20
8.9875806191
 30
0.0
 10
12.9398942457
 20
8.987524353
 30
0.0
 10
12.9415179868
 20
8.9873450537
 30
0.0
 10
12.9439354067
 20
8.9868777718
 30
0.0
 10
12.946336672
 20
8.9862121328
 30
0.0
 10
12.9487203618
 20
8.9853486093
 30
0.0
 10
12.9510855482
 20
8.9842878189
 30
0.0
 10
12.9542614797
 20
8.9825853462
 30
0.0
 10
12.9581914192
 20
8.9799344184
 30
0.0
 10
12.9627370092
 20
8.9760267793
 30
0.0
 10
12.9671813516
 20
8.9713527233
 30
0.0
 10
12.9715192655
 20
8.9659208608
 30
0.0
 10
12.9757460601
 20
8.9597396983
 30
0.0
 10
12.9798562047
 20
8.9528187821
 30
0.0
 10
12.9838438585
 20
8.9451687317
 30
0.0
 10
12.9877029839
 20
8.9368014574
 30
0.0
 10
12.9914275675
 20
8.9277301779
 30
0.0
 10
12.9950116204
 20
8.9179693616
 30
0.0
 10
12.9984492825
 20
8.9075347113
 30
0.0
 10
13.0017349298
 20
8.8964431429
 30
0.0
 10
13.004863127
 20
8.8847127093
 30
0.0
 10
13.0078286591
 20
8.8723625638
 30
0.0
 10
13.0106266165
 20
8.859412937
 30
0.0
 10
13.0132523463
 20
8.8458850763
 30
0.0
 10
13.0157014523
 20
8.8318012007
 30
0.0
 10
13.0179698659
 20
8.8171844755
 30
0.0
 10
13.0200538175
 20
8.8020589611
 30
0.0
 10
13.0219498157
 20
8.7864495633
 30
0.0
 10
13.0236547038
 20
8.7703819999
 30
0.0
 10
13.0251656564
 20
8.7538827553
 30
0.0
 10
13.0264801343
 20
8.7369790381
 30
0.0
 10
13.0275959713
 20
8.719698685
 30
0.0
 10
13.0288266693
 20
8.6959943297
 30
0.0
 10
13.0298446407
 20
8.6656335166
 30
0.0
 10
13.0301076433
 20
8.6411446056
 30
0.0
 10
13.0301076433
 20
8.6287306504
 30
0.0
  0
SPLINE
  5
39C
100
AcDbEntity
  8
0
100
AcDbSpline
 62
7
  6
CONTINUOUS
 70
0
 71
3
 72
49
 73
45
 74
0
 42
0.0000001
 43
0.0000001
 44
0.0000000001
 40
0.0
 40
0.0
 40
0.0
 40
0.0
 40
0.0063158739
 40
0.0126706599
 40
0.0191024896
 40
0.0256480301
 40
0.0323419112
 40
0.039216248
 40
0.0536140773
 40
0.06119479
 40
0.0690565573
 40
0.0772176635
 40
0.0856940531
 40
0.0944994572
 40
0.1036455587
 40
0.1131423452
 40
0.122998104
 40
0.1332197191
 40
0.1438128355
 40
0.1547818436
 40
0.1661302067
 40
0.1778604088
 40
0.1899740704
 40
0.2024721524
 40
0.215354813
 40
0.2422706486
 40
0.2707129033
 40
0.3006638566
 40
0.3320991037
 40
0.3649883645
 40
0.3992962141
 40
0.4349826582
 40
0.4720035847
 40
0.5103111049
 40
0.5498539072
 40
0.5905775763
 40
0.6324248432
 40
0.6753357844
 40
0.7192480525
 40
0.764097054
 40
0.809816243
 40
0.856337252
 40
0.9035893524
 40
1.0
 40
1.0
 40
1.0
 40
1.0
 10
13.0283339969
 20
9.1969074218
 30
0.0
 10
13.0295086759
 20
9.1968259552
 30
0.0
 10
13.0318597215
 20
9.1965663797
 30
0.0
 10
13.0353599343
 20
9.1958897381
 30
0.0
 10
13.0388367575
 20
9.1949259231
 30
0.0
 10
13.0422881504
 20
9.1936756549
 30
0.0
 10
13.0457127471
 20
9.1921396419
 30
0.0
 10
13.0503110888
 20
9.1896747041
 30
0.0
 10
13.054784522
 20
9.1866571922
 30
0.0
 10
13.0591137034
 20
9.183160421
 30
0.0
 10
13.0623836593
 20
9.1802121896
 30
0.0
 10
13.0656187324
 20
9.1769853862
 30
0.0
 10
13.0688180601
 20
9.1734811056
 30
0.0
 10
13.071980338
 20
9.1697008707
 30
0.0
 10
13.0751044495
 20
9.1656462467
 30
0.0
 10
13.0781891262
 20
9.1613188478
 30
0.0
 10
13.0812332162
 20
9.1567204586
 30
0.0
 10
13.0842355219
 20
9.1518529394
 30
0.0
 10
13.0871948116
 20
9.1467182442
 30
0.0
 10
13.0901099608
 20
9.1413184852
 30
0.0
 10
13.0929797492
 20
9.1356558366
 30
0.0
 10
13.0958030269
 20
9.1297326098
 30
0.0
 10
13.0985786678
 20
9.123551232
 30
0.0
 10
13.1013055132
 20
9.1171141995
 30
0.0
 10
13.1049277668
 20
9.1080615284
 30
0.0
 10
13.1093139338
 20
9.0961158319
 30
0.0
 10
13.1142913896
 20
9.0810074593
 30
0.0
 10
13.1190487312
 20
9.0649477591
 30
0.0
 10
13.123578077
 20
9.0479630741
 30
0.0
 10
13.1278719219
 20
9.0300810925
 30
0.0
 10
13.1319231296
 20
9.0113311204
 30
0.0
 10
13.1357249549
 20
8.9917439116
 30
0.0
 10
13.1392710554
 20
8.9713516419
 30
0.0
 10
13.1425555266
 20
8.9501878501
 30
0.0
 10
13.1455729011
 20
8.9282873749
 30
0.0
 10
13.1483181499
 20
8.9056862822
 30
0.0
 10
13.1507866903
 20
8.8824218054
 30
0.0
 10
13.1529744084
 20
8.8585322865
 30
0.0
 10
13.154877663
 20
8.8340571193
 30
0.0
 10
13.1564932858
 20
8.8090366555
 30
0.0
 10
13.1578185696
 20
8.7835121588
 30
0.0
 10
13.1588513135
 20
8.7575257477
 30
0.0
 10
13.1598424742
 20
8.7220821099
 30
0.0
 10
13.1601299858
 20
8.6952969247
 30
0.0
 10
13.1601299858
 20
8.6773225958
 30
0.0
  0
SPLINE
  5
39D
100
AcDbEntity
  8
0
100
AcDbSpline
 62
7
  6
CONTINUOUS
 70
0
 71
3
 72
39
 73
35
 74
0
 42
0.0000001
 43
0.0000001
 44
0.0000000001
 40
0.0
 40
0.0
 40
0.0
 40
0.0
 40
0.0064690917
 40
0.0131069693
 40
0.0269767391
 40
0.034255632
 40
0.041785769
 40
0.0576554582
 40
0.0746914137
 40
0.0929692363
 40
0.1125436845
 40
0.1334525783
 40
0.1557200418
 40
0.1793589234
 40
0.2043726793
 40
0.2307570039
 40
0.2585009831
 40
0.287587903
 40
0.3179960891
 40
0.3496995193
 40
0.3826681897
 40
0.4168685482
 40
0.4522638979
 40
0.4888146048
 40
0.5264783024
 40
0.5652102069
 40
0.6049632778
 40
0.6456883077
 40
0.6873341821
 40
0.7298480154
 40
0.7731751919
 40
0.8172597375
 40
0.9074676366
 40
1.0
 40
1.0
 40
1.0
 40
1.0
 10
13.0125042982
 20
9.1952976289
 30
0.0
 10
13.013579894
 20
9.1948311714
 30
0.0
 10
13.0157273594
 20
9.1938109054
 30
0.0
 10
13.0200005861
 20
9.1914304252
 30
0.0
 10
13.0241637647
 20
9.1885734135
 30
0.0
 10
13.0282019607
 20
9.1852990656
 30
0.0
 10
13.0323396151
 20
9.1815819364
 30
0.0
 10
13.0374320203
 20
9.1762977244
 30
0.0
 10
13.043307242
 20
9.1691086646
 30
0.0
 10
13.0490445862
 20
9.1609736701
 30
0.0
 10
13.0546370506
 20
9.1519042424
 30
0.0
 10
13.0600778566
 20
9.1419124612
 30
0.0
 10
13.0653598318
 20
9.1310119293
 30
0.0
 10
13.0704758159
 20
9.1192175982
 30
0.0
 10
13.0754187323
 20
9.1065458437
 30
0.0
 10
13.0801816101
 20
9.093014375
 30
0.0
 10
13.0847576478
 20
9.078642218
 30
0.0
 10
13.0891403145
 20
9.0634496945
 30
0.0
 10
13.0933233122
 20
9.0474583539
 30
0.0
 10
13.0973005902
 20
9.0306909273
 30
0.0
 10
13.1010664144
 20
9.0131713077
 30
0.0
 10
13.1046153566
 20
8.9949244991
 30
0.0
 10
13.1079422727
 20
8.9759765613
 30
0.0
 10
13.1110423439
 20
8.9563545824
 30
0.0
 10
13.1139111057
 20
8.9360866394
 30
0.0
 10
13.1165444042
 20
8.9152017408
 30
0.0
 10
13.118938414
 20
8.8937297885
 30
0.0
 10
13.1210896893
 20
8.8717015403
 30
0.0
 10
13.1229951227
 20
8.8491485551
 30
0.0
 10
13.1246519333
 20
8.8261031591
 30
0.0
 10
13.1260577628
 20
8.8025983409
 30
0.0
 10
13.1276065485
 20
8.770445206
 30
0.0
 10
13.1288884247
 20
8.729354547
 30
0.0
 10
13.1292203568
 20
8.6962357194
 30
0.0
 10
13.1292203568
 20
8.6794661858
 30
0.0
  0
SPLINE
  5
39E
100
AcDbEntity
  8
0
100
AcDbSpline
 62
7
  6
CONTINUOUS
 70
0
 71
3
 72
55
 73
51
 74
0
 42
0.0000001
 43
0.0000001
 44
0.0000000001
 40
0.0
 40
0.0
 40
0.0
 40
0.0
 40
0.0095826608
 40
0.0187373583
 40
0.0274872803
 40
0.0358601604
 40
0.0515986989
 40
0.0590565925
 40
0.0662993982
 40
0.0733806564
 40
0.0803579669
 40
0.0872918088
 40
0.0942438817
 40
0.1012753716
 40
0.1084452289
 40
0.1158088056
 40
0.1234167216
 40
0.1313144225
 40
0.1395418451
 40
0.1481336122
 40
0.1571193624
 40
0.1665240413
 40
0.176368611
 40
0.1866702312
 40
0.1974429689
 40
0.2086980285
 40
0.2204441289
 40
0.2326879452
 40
0.2454341033
 40
0.2586857382
 40
0.2724443706
 40
0.2867102844
 40
0.3014826034
 40
0.316759301
 40
0.3325375502
 40
0.3655813492
 40
0.4005759731
 40
0.4374710821
 40
0.4762069568
 40
0.516715656
 40
0.5589219687
 40
0.6027441874
 40
0.6480947579
 40
0.6948808549
 40
0.7430048829
 40
0.7923648777
 40
0.8428552659
 40
0.8943661508
 40
0.9467868286
 40
1.0
 40
1.0
 40
1.0
 40
1.0
 10
12.9506235437
 20
9.0140434052
 30
0.0
 10
12.9517034948
 20
9.0150485156
 30
0.0
 10
12.9538624407
 20
9.016964034
 30
0.0
 10
12.9571747919
 20
9.0196010405
 30
0.0
 10
12.9604841727
 20
9.0219330562
 30
0.0
 10
12.9647991786
 20
9.0245782679
 30
0.0
 10
12.9692013569
 20
9.026690427
 30
0.0
 10
12.9736503252
 20
9.0281782895
 30
0.0
 10
12.9769156142
 20
9.0289622638
 30
0.0
 10
12.980165974
 20
9.0294328922
 30
0.0
 10
12.9833991474
 20
9.0295893318
 30
0.0
 10
12.9866124154
 20
9.0294312768
 30
0.0
 10
12.989803075
 20
9.0289587611
 30
0.0
 10
12.9929684632
 20
9.0281723475
 30
0.0
 10
12.996106166
 20
9.0270731053
 30
0.0
 10
12.9992139567
 20
9.0256622102
 30
0.0
 10
13.0022899807
 20
9.0239412638
 30
0.0
 10
13.0053324744
 20
9.0219117313
 30
0.0
 10
13.0083399042
 20
9.0195752949
 30
0.0
 10
13.0113107756
 20
9.0169336131
 30
0.0
 10
13.0142435773
 20
9.0139883876
 30
0.0
 10
13.0171369097
 20
9.010741503
 30
0.0
 10
13.0199891965
 20
9.0071948348
 30
0.0
 10
13.0227990123
 20
9.0033505218
 30
0.0
 10
13.0255647848
 20
8.9992107644
 30
0.0
 10
13.0282849977
 20
8.994777974
 30
0.0
 10
13.0309581507
 20
8.9900547324
 30
0.0
 10
13.0335826569
 20
8.9850437606
 30
0.0
 10
13.0361570812
 20
8.9797480089
 30
0.0
 10
13.0386798526
 20
8.9741705473
 30
0.0
 10
13.0411495455
 20
8.9683146629
 30
0.0
 10
13.0435646908
 20
8.9621837887
 30
0.0
 10
13.0459238365
 20
8.9557815344
 30
0.0
 10
13.0482256615
 20
8.949111674
 30
0.0
 10
13.0512632353
 20
8.9397218518
 30
0.0
 10
13.0548942034
 20
8.9273361743
 30
0.0
 10
13.0589374485
 20
8.9116926831
 30
0.0
 10
13.062721484
 20
8.8950846411
 30
0.0
 10
13.066237214
 20
8.8775513832
 30
0.0
 10
13.0694761614
 20
8.8591342825
 30
0.0
 10
13.0724305146
 20
8.8398769571
 30
0.0
 10
13.0750931441
 20
8.819825052
 30
0.0
 10
13.077457624
 20
8.7990261452
 30
0.0
 10
13.0795182463
 20
8.7775296194
 30
0.0
 10
13.0812700327
 20
8.7553865502
 30
0.0
 10
13.0827087655
 20
8.7326495402
 30
0.0
 10
13.0838309472
 20
8.7093727246
 30
0.0
 10
13.0846339046
 20
8.6856112635
 30
0.0
 10
13.0851156272
 20
8.6614219287
 30
0.0
 10
13.0852211554
 20
8.6451587191
 30
0.0
 10
13.0852211554
 20
8.6369662184
 30
0.0
  0
SPLINE
  5
39F
100
AcDbEntity
  8
0
100
AcDbSpline
 62
4
  6
CONTINUOUS
 70
0
 71
3
 72
313
 73
309
 74
0
 42
0.0000001
 43
0.0000001
 44
0.0000000001
 40
0.0
 40
0.0
 40
0.0
 40
0.0
 40
0.015625
 40
0.0234375
 40
0.03125
 40
0.0390625
 40
0.046875
 40
0.05078125
 40
0.0546875
 40
0.056640625
 40
0.05859375
 40
0.060546875
 40
0.0615234375
 40
0.0620117188
 40
0.0625
 40
0.0629882812
 40
0.0634765625
 40
0.064453125
 40
0.06640625
 40
0.068359375
 40
0.0703125
 40
0.07421875
 40
0.078125
 40
0.0859375
 40
0.09375
 40
0.1015625
 40
0.109375
 40
0.11328125
 40
0.1171875
 40
0.119140625
 40
0.12109375
 40
0.123046875
 40
0.1240234375
 40
0.1245117188
 40
0.125
 40
0.1254882812
 40
0.1259765625
 40
0.126953125
 40
0.12890625
 40
0.130859375
 40
0.1328125
 40
0.13671875
 40
0.140625
 40
0.1484375
 40
0.15625
 40
0.1640625
 40
0.171875
 40
0.17578125
 40
0.1796875
 40
0.181640625
 40
0.18359375
 40
0.185546875
 40
0.1865234375
 40
0.1870117188
 40
0.1875
 40
0.1879882812
 40
0.1884765625
 40
0.189453125
 40
0.19140625
 40
0.193359375
 40
0.1953125
 40
0.19921875
 40
0.203125
 40
0.2109375
 40
0.21875
 40
0.2265625
 40
0.234375
 40
0.23828125
 40
0.2421875
 40
0.244140625
 40
0.24609375
 40
0.248046875
 40
0.2490234375
 40
0.2495117188
 40
0.25
 40
0.2504882812
 40
0.2509765625
 40
0.251953125
 40
0.25390625
 40
0.255859375
 40
0.2578125
 40
0.26171875
 40
0.265625
 40
0.2734375
 40
0.28125
 40
0.2890625
 40
0.296875
 40
0.30078125
 40
0.3046875
 40
0.306640625
 40
0.30859375
 40
0.310546875
 40
0.3115234375
 40
0.3120117188
 40
0.3125
 40
0.3129882812
 40
0.3134765625
 40
0.314453125
 40
0.31640625
 40
0.318359375
 40
0.3203125
 40
0.32421875
 40
0.328125
 40
0.3359375
 40
0.34375
 40
0.3515625
 40
0.359375
 40
0.36328125
 40
0.3671875
 40
0.369140625
 40
0.37109375
 40
0.373046875
 40
0.3740234375
 40
0.3745117188
 40
0.375
 40
0.3754882812
 40
0.3759765625
 40
0.376953125
 40
0.37890625
 40
0.380859375
 40
0.3828125
 40
0.38671875
 40
0.390625
 40
0.3984375
 40
0.40625
 40
0.4140625
 40
0.421875
 40
0.42578125
 40
0.4296875
 40
0.431640625
 40
0.43359375
 40
0.435546875
 40
0.4365234375
 40
0.4370117188
 40
0.4375
 40
0.4379882812
 40
0.4384765625
 40
0.439453125
 40
0.44140625
 40
0.443359375
 40
0.4453125
 40
0.44921875
 40
0.453125
 40
0.4609375
 40
0.46875
 40
0.4765625
 40
0.484375
 40
0.48828125
 40
0.4921875
 40
0.494140625
 40
0.49609375
 40
0.498046875
 40
0.4990234375
 40
0.4995117188
 40
0.5
 40
0.5004882812
 40
0.5009765625
 40
0.501953125
 40
0.50390625
 40
0.505859375
 40
0.5078125
 40
0.51171875
 40
0.515625
 40
0.5234375
 40
0.53125
 40
0.5390625
 40
0.546875
 40
0.55078125
 40
0.5546875
 40
0.556640625
 40
0.55859375
 40
0.560546875
 40
0.5615234375
 40
0.5620117188
 40
0.5625
 40
0.5629882812
 40
0.5634765625
 40
0.564453125
 40
0.56640625
 40
0.568359375
 40
0.5703125
 40
0.57421875
 40
0.578125
 40
0.5859375
 40
0.59375
 40
0.6015625
 40
0.609375
 40
0.61328125
 40
0.6171875
 40
0.619140625
 40
0.62109375
 40
0.623046875
 40
0.6240234375
 40
0.6245117188
 40
0.625
 40
0.6254882812
 40
0.6259765625
 40
0.626953125
 40
0.62890625
 40
0.630859375
 40
0.6328125
 40
0.63671875
 40
0.640625
 40
0.6484375
 40
0.65625
 40
0.6640625
 40
0.671875
 40
0.67578125
 40
0.6796875
 40
0.681640625
 40
0.68359375
 40
0.685546875
 40
0.6865234375
 40
0.6870117188
 40
0.6875
 40
0.6879882812
 40
0.6884765625
 40
0.689453125
 40
0.69140625
 40
0.693359375
 40
0.6953125
 40
0.69921875
 40
0.703125
 40
0.7109375
 40
0.71875
 40
0.7265625
 40
0.734375
 40
0.73828125
 40
0.7421875
 40
0.744140625
 40
0.74609375
 40
0.748046875
 40
0.7490234375
 40
0.7495117188
 40
0.75
 40
0.7504882812
 40
0.7509765625
 40
0.751953125
 40
0.75390625
 40
0.755859375
 40
0.7578125
 40
0.76171875
 40
0.765625
 40
0.7734375
 40
0.78125
 40
0.7890625
 40
0.796875
 40
0.80078125
 40
0.8046875
 40
0.806640625
 40
0.80859375
 40
0.810546875
 40
0.8115234375
 40
0.8120117188
 40
0.8125
 40
0.8129882812
 40
0.8134765625
 40
0.814453125
 40
0.81640625
 40
0.818359375
 40
0.8203125
 40
0.82421875
 40
0.828125
 40
0.8359375
 40
0.84375
 40
0.8515625
 40
0.859375
 40
0.86328125
 40
0.8671875
 40
0.869140625
 40
0.87109375
 40
0.873046875
 40
0.8740234375
 40
0.8745117188
 40
0.875
 40
0.8754882812
 40
0.8759765625
 40
0.876953125
 40
0.87890625
 40
0.880859375
 40
0.8828125
 40
0.88671875
 40
0.890625
 40
0.8984375
 40
0.90625
 40
0.9140625
 40
0.921875
 40
0.92578125
 40
0.9296875
 40
0.931640625
 40
0.93359375
 40
0.935546875
 40
0.9365234375
 40
0.9370117188
 40
0.9375
 40
0.9379882812
 40
0.9384765625
 40
0.939453125
 40
0.94140625
 40
0.943359375
 40
0.9453125
 40
0.94921875
 40
0.953125
 40
0.9609375
 40
0.96875
 40
0.9765625
 40
0.984375
 40
1.0
 40
1.0
 40
1.0
 40
1.0
 10
11.1094045345
 20
6.9277317354
 30
0.0
 10
11.1073157432
 20
6.9276717858
 30
0.0
 10
11.1041825563
 20
6.9275818615
 30
0.0
 10
11.1000049738
 20
6.9274619619
 30
0.0
 10
11.0968717866
 20
6.9273720388
 30
0.0
 10
11.0937386007
 20
6.9272821094
 30
0.0
 10
11.0911276085
 20
6.9272071879
 30
0.0
 10
11.0890388234
 20
6.9271472067
 30
0.0
 10
11.0877333132
 20
6.9271098185
 30
0.0
 10
11.0866889498
 20
6.9270796787
 30
0.0
 10
11.0859055546
 20
6.9270577017
 30
0.0
 10
11.0852531154
 20
6.9270373903
 30
0.0
 10
11.0847956423
 20
6.9270270919
 30
0.0
 10
11.0845354246
 20
6.927015087
 30
0.0
 10
11.0843368938
 20
6.9270233236
 30
0.0
 10
11.0841512351
 20
6.926965659
 30
0.0
 10
11.0838992002
 20
6.92691176
 30
0.0
 10
11.0834602311
 20
6.9268067266
 30
0.0
 10
11.0828320387
 20
6.9266622783
 30
0.0
 10
11.082078676
 20
6.9264865435
 30
0.0
 10
11.0810740288
 20
6.9262530677
 30
0.0
 10
11.0798182759
 20
6.9259609362
 30
0.0
 10
11.0778090398
 20
6.9254936862
 30
0.0
 10
11.0752975056
 20
6.9249095682
 30
0.0
 10
11.0722836593
 20
6.924208652
 30
0.0
 10
11.0692698167
 20
6.9235077233
 30
0.0
 10
11.0667582734
 20
6.9229236363
 30
0.0
 10
11.0647490556
 20
6.9224563244
 30
0.0
 10
11.0634932561
 20
6.9221643502
 30
0.0
 10
11.0624887044
 20
6.9219305515
 30
0.0
 10
11.0617350501
 20
6.921755803
 30
0.0
 10
11.0611077701
 20
6.9216082692
 30
0.0
 10
11.0606671721
 20
6.9215087438
 30
0.0
 10
11.0604177471
 20
6.9214460195
 30
0.0
 10
11.0602240718
 20
6.9214154633
 30
0.0
 10
11.0600556502
 20
6.9213218854
 30
0.0
 10
11.0598222793
 20
6.9212190976
 30
0.0
 10
11.0594179844
 20
6.9210289768
 30
0.0
 10
11.0588382745
 20
6.9207627303
 30
0.0
 10
11.0581435411
 20
6.9204409426
 30
0.0
 10
11.0572169091
 20
6.9200126928
 30
0.0
 10
11.056058729
 20
6.9194771064
 30
0.0
 10
11.0542055794
 20
6.9186203215
 30
0.0
 10
11.0518891636
 20
6.9175492874
 30
0.0
 10
11.0491094547
 20
6.9162640707
 30
0.0
 10
11.0463297514
 20
6.914978842
 30
0.0
 10
11.0440133218
 20
6.9139078378
 30
0.0
 10
11.0421601998
 20
6.913050993
 30
0.0
 10
11.0410019494
 20
6.9125155588
 30
0.0
 10
11.0400754616
 20
6.9120869967
 30
0.0
 10
11.0393802875
 20
6.9117661632
 30
0.0
 10
11.0388019567
 20
6.9114969311
 30
0.0
 10
11.0383951999
 20
6.9113121401
 30
0.0
 10
11.0381657736
 20
6.9112008125
 30
0.0
 10
11.0379852353
 20
6.911133466
 30
0.0
 10
11.0378370686
 20
6.9110043893
 30
0.0
 10
11.0376282214
 20
6.9108538192
 30
0.0
 10
11.0372679998
 20
6.9105802893
 30
0.0
 10
11.036750647
 20
6.9101947772
 30
0.0
 10
11.036131001
 20
6.9097299177
 30
0.0
 10
11.0353043951
 20
6.9091108892
 30
0.0
 10
11.0342712786
 20
6.9083368351
 30
0.0
 10
11.0326182133
 20
6.9070984986
 30
0.0
 10
11.030551909
 20
6.9055505262
 30
0.0
 10
11.028072331
 20
6.9036929827
 30
0.0
 10
11.025592761
 20
6.9018354287
 30
0.0
 10
11.0235264365
 20
6.9002874824
 30
0.0
 10
11.0218734117
 20
6.8990490937
 30
0.0
 10
11.0208401924
 20
6.8982751723
 30
0.0
 10
11.0200137975
 20
6.8976558714
 30
0.0
 10
11.0193935068
 20
6.8971918443
 30
0.0
 10
11.0188781711
 20
6.8968037279
 30
0.0
 10
11.0185143486
 20
6.8965348472
 30
0.0
 10
11.018311271
 20
6.8963768278
 30
0.0
 10
11.018145382
 20
6.8962706327
 30
0.0
 10
11.018031406
 20
6.8961173467
 30
0.0
 10
11.0178613302
 20
6.8959293912
 30
0.0
 10
11.0175721342
 20
6.8955928159
 30
0.0
 10
11.0171545863
 20
6.8951159952
 30
0.0
 10
11.0166554169
 20
6.8945420978
 30
0.0
 10
11.0159891981
 20
6.8937774994
 30
0.0
 10
11.0151566505
 20
6.8928215465
 30
0.0
 10
11.0138244481
 20
6.8912921365
 30
0.0
 10
11.0121592387
 20
6.8893803345
 30
0.0
 10
11.0101609674
 20
6.8870861899
 30
0.0
 10
11.0081627063
 20
6.884792037
 30
0.0
 10
11.0064974712
 20
6.882880256
 30
0.0
 10
11.0051653202
 20
6.8813508038
 30
0.0
 10
11.004332642
 20
6.8803949581
 30
0.0
 10
11.0036666912
 20
6.8796301399
 30
0.0
 10
11.0031667034
 20
6.8790569139
 30
0.0
 10
11.0027517158
 20
6.8785779925
 30
0.0
 10
11.0024579492
 20
6.8782451673
 30
0.0
 10
11.0022951968
 20
6.8780512032
 30
0.0
 10
11.0021587257
 20
6.8779163737
 30
0.0
 10
11.0020773245
 20
6.877740859
 30
0.0
 10
11.0019495806
 20
6.8775210308
 30
0.0
 10
11.0017349786
 20
6.8771297195
 30
0.0
 10
11.0014237252
 20
6.8765741602
 30
0.0
 10
11.0010522239
 20
6.8759060093
 30
0.0
 10
11.0005561894
 20
6.8750156583
 30
0.0
 10
10.9999363857
 20
6.8739025427
 30
0.0
 10
10.9989445659
 20
6.8721216565
 30
0.0
 10
10.9977048375
 20
6.8698955147
 30
0.0
 10
10.9962171421
 20
6.8672241599
 30
0.0
 10
10.9947294578
 20
6.8645527983
 30
0.0
 10
10.9934897014
 20
6.8623266734
 30
0.0
 10
10.9924979375
 20
6.8605457534
 30
0.0
 10
10.991877992
 20
6.8594327236
 30
0.0
 10
10.9913822485
 20
6.8585421964
 30
0.0
 10
10.991009858
 20
6.857874584
 30
0.0
 10
10.9907013868
 20
6.85731734
 30
0.0
 10
10.9904818181
 20
6.8569290362
 30
0.0
 10
10.9903620321
 20
6.8567043892
 30
0.0
 10
10.9902561869
 20
6.8565436764
 30
0.0
 10
10.9902115234
 20
6.8563532532
 30
0.0
 10
10.9901306313
 20
6.8561097189
 30
0.0
 10
10.9899990132
 20
6.8556787055
 30
0.0
 10
10.9898057889
 20
6.8550654963
 30
0.0
 10
10.9895761449
 20
6.8543285648
 30
0.0
 10
10.9892691756
 20
6.8533463669
 30
0.0
 10
10.9888857302
 20
6.8521184903
 30
0.0
 10
10.9882720688
 20
6.85015396
 30
0.0
 10
10.9875050434
 20
6.8476982721
 30
0.0
 10
10.9865845893
 20
6.844751458
 30
0.0
 10
10.9856641473
 20
6.8418046387
 30
0.0
 10
10.9848970916
 20
6.8393489637
 30
0.0
 10
10.9842834907
 20
6.8373844077
 30
0.0
 10
10.9838998914
 20
6.8361565962
 30
0.0
 10
10.983593238
 20
6.8351742647
 30
0.0
 10
10.9833626291
 20
6.8344377416
 30
0.0
 10
10.9831724236
 20
6.8338232547
 30
0.0
 10
10.9830354166
 20
6.8333945221
 30
0.0
 10
10.9829631588
 20
6.8331473333
 30
0.0
 10
10.9828919733
 20
6.8329681357
 30
0.0
 10
10.9828857405
 20
6.8327652615
 30
0.0
 10
10.9828547738
 20
6.8325030212
 30
0.0
 10
10.9828111381
 20
6.8320402528
 30
0.0
 10
10.9827432826
 20
6.8313811668
 30
0.0
 10
10.9826642182
 20
6.8305894025
 30
0.0
 10
10.9825579739
 20
6.8295340176
 30
0.0
 10
10.9824254511
 20
6.8282146834
 30
0.0
 10
10.9822132567
 20
6.8261038063
 30
0.0
 10
10.9819480681
 20
6.8234651902
 30
0.0
 10
10.9816298169
 20
6.8202988593
 30
0.0
 10
10.9813115784
 20
6.8171325262
 30
0.0
 10
10.9810463581
 20
6.8144939155
 30
0.0
 10
10.9808342272
 20
6.8123830277
 30
0.0
 10
10.9807015429
 20
6.8110637208
 30
0.0
 10
10.9805956301
 20
6.8100082798
 30
0.0
 10
10.9805155529
 20
6.8092166869
 30
0.0
 10
10.9804508664
 20
6.8085570648
 30
0.0
 10
10.9804015735
 20
6.8080952534
 30
0.0
 10
10.980379671
 20
6.8078314798
 30
0.0
 10
10.9803455959
 20
6.8076333154
 30
0.0
 10
10.9803789814
 20
6.8074364282
 30
0.0
 10
10.9803999645
 20
6.8071734664
 30
0.0
 10
10.9804476483
 20
6.8067134909
 30
0.0
 10
10.9805100363
 20
6.8060562745
 30
0.0
 10
10.9805873552
 20
6.8052676612
 30
0.0
 10
10.9806895902
 20
6.8042161606
 30
0.0
 10
10.9808176773
 20
6.8029017905
 30
0.0
 10
10.9810224527
 20
6.8007987951
 30
0.0
 10
10.9812784786
 20
6.798170052
 30
0.0
 10
10.9815856839
 20
6.7950155596
 30
0.0
 10
10.9818929018
 20
6.7918610682
 30
0.0
 10
10.9821488959
 20
6.7892323228
 30
0.0
 10
10.9823537349
 20
6.787129332
 30
0.0
 10
10.9824816605
 20
6.7858149501
 30
0.0
 10
10.9825842271
 20
6.7847634737
 30
0.0
 10
10.9826605328
 20
6.7839747867
 30
0.0
 10
10.982726091
 20
6.783317801
 30
0.0
 10
10.9827681153
 20
6.7828574136
 30
0.0
 10
10.9827981664
 20
6.7825951117
 30
0.0
 10
10.9828036979
 20
6.7823961974
 30
0.0
 10
10.9828742379
 20
6.7822056467
 30
0.0
 10
10.9829456156
 20
6.7819486618
 30
0.0
 10
10.9830810917
 20
6.7815002974
 30
0.0
 10
10.9832691053
 20
6.7808590662
 30
0.0
 10
10.9834970859
 20
6.7800898929
 30
0.0
 10
10.9838002343
 20
6.7790642224
 30
0.0
 10
10.9841794525
 20
6.7777821705
 30
0.0
 10
10.9847860436
 20
6.7757308672
 30
0.0
 10
10.985544337
 20
6.7731667452
 30
0.0
 10
10.9864542642
 20
6.7700897953
 30
0.0
 10
10.9873642035
 20
6.7670128481
 30
0.0
 10
10.9881224666
 20
6.7644487191
 30
0.0
 10
10.9887291183
 20
6.7623974299
 30
0.0
 10
10.9891081825
 20
6.7611153422
 30
0.0
 10
10.989411647
 20
6.7600897452
 30
0.0
 10
10.9896386617
 20
6.7593203473
 30
0.0
 10
10.9898296975
 20
6.758679819
 30
0.0
 10
10.9899597785
 20
6.7582301998
 30
0.0
 10
10.9900398004
 20
6.7579752253
 30
0.0
 10
10.9900837881
 20
6.7577784994
 30
0.0
 10
10.990189046
 20
6.7576027781
 30
0.0
 10
10.9903080182
 20
6.7573611565
 30
0.0
 10
10.9905261769
 20
6.7569417322
 30
0.0
 10
10.9908326264
 20
6.75634077
 30
0.0
 10
10.9912025941
 20
6.7556203793
 30
0.0
 10
10.991695106
 20
6.7546595915
 30
0.0
 10
10.9923110125
 20
6.7534586981
 30
0.0
 10
10.9932963138
 20
6.7515372175
 30
0.0
 10
10.9945279918
 20
6.7491353846
 30
0.0
 10
10.996005982
 20
6.7462531768
 30
0.0
 10
10.9974839838
 20
6.7433709737
 30
0.0
 10
10.9987156329
 20
6.7409691289
 30
0.0
 10
10.9997009921
 20
6.739047672
 30
0.0
 10
11.0003167513
 20
6.7378467185
 30
0.0
 10
11.0008095655
 20
6.7368860541
 30
0.0
 10
11.0011786095
 20
6.7361652866
 30
0.0
 10
11.001487949
 20
6.7355655031
 30
0.0
 10
11.0017009487
 20
6.7351439746
 30
0.0
 10
11.001828187
 20
6.7349057244
 30
0.0
 10
11.0019080539
 20
6.7347196472
 30
0.0
 10
11.002047406
 20
6.7345618165
 30
0.0
 10
11.0022124597
 20
6.7343415228
 30
0.0
 10
11.0025109711
 20
6.7339605993
 30
0.0
 10
11.0029323617
 20
6.733414023
 30
0.0
 10
11.0034401938
 20
6.7327591588
 30
0.0
 10
11.0041165476
 20
6.7318856476
 30
0.0
 10
11.0049622486
 20
6.7307938814
 30
0.0
 10
11.0063152255
 20
6.7290469869
 30
0.0
 10
11.0080064966
 20
6.7268633926
 30
0.0
 10
11.0100359995
 20
6.724243068
 30
0.0
 10
11.0120655122
 20
6.7216227509
 30
0.0
 10
11.0137567586
 20
6.7194391381
 30
0.0
 10
11.015109785
 20
6.7176922806
 30
0.0
 10
11.0159553604
 20
6.7166004203
 30
0.0
 10
11.016631972
 20
6.7157271023
 30
0.0
 10
11.0171390164
 20
6.7150716479
 30
0.0
 10
11.0175628715
 20
6.7145269178
 30
0.0
 10
11.0178569833
 20
6.7141426986
 30
0.0
 10
11.0180290861
 20
6.7139276856
 30
0.0
 10
11.0181467857
 20
6.7137536341
 30
0.0
 10
11.018307976
 20
6.7136284795
 30
0.0
 10
11.0185077263
 20
6.7134445509
 30
0.0
 10
11.0188643574
 20
6.7131306226
 30
0.0
 10
11.0193701351
 20
6.7126779989
 30
0.0
 10
11.0199786501
 20
6.7121366288
 30
0.0
 10
11.0207894509
 20
6.7114141808
 30
0.0
 10
11.0218031411
 20
6.7105113335
 30
0.0
 10
11.0234249397
 20
6.709066659
 30
0.0
 10
11.0254522244
 20
6.7072608569
 30
0.0
 10
11.0278849495
 20
6.7050938755
 30
0.0
 10
11.0303176824
 20
6.7029269039
 30
0.0
 10
11.0323449478
 20
6.7011210775
 30
0.0
 10
11.0339667849
 20
6.6996764516
 30
0.0
 10
11.0349803771
 20
6.6987734806
 30
0.0
 10
11.0357913791
 20
6.6980512866
 30
0.0
 10
11.0363992794
 20
6.6975091407
 30
0.0
 10
11.0369069803
 20
6.697058944
 30
0.0
 10
11.0372601783
 20
6.6967406831
 30
0.0
 10
11.0374654293
 20
6.6965636964
 30
0.0
 10
11.0376097231
 20
6.6964172185
 30
0.0
 10
11.037790883
 20
6.6963232538
 30
0.0
 10
11.0380195703
 20
6.6961796504
 30
0.0
 10
11.0384257643
 20
6.6959368788
 30
0.0
 10
11.0390029091
 20
6.6955856002
 30
0.0
 10
11.0396968236
 20
6.6951659758
 30
0.0
 10
11.0406215747
 20
6.6946058096
 30
0.0
 10
11.0417776739
 20
6.6939058302
 30
0.0
 10
11.043627343
 20
6.6927857354
 30
0.0
 10
11.0459394603
 20
6.6913856611
 30
0.0
 10
11.0487139872
 20
6.6897055515
 30
0.0
 10
11.05148852
 20
6.6880254528
 30
0.0
 10
11.0538006223
 20
6.6866253516
 30
0.0
 10
11.0556503213
 20
6.6855053105
 30
0.0
 10
11.0568063445
 20
6.6848051946
 30
0.0
 10
11.0577312516
 20
6.6842453086
 30
0.0
 10
11.0584246894
 20
6.683824828
 30
0.0
 10
11.059003326
 20
6.6834762282
 30
0.0
 10
11.0594068569
 20
6.6832286746
 30
0.0
 10
11.0596398111
 20
6.6830927331
 30
0.0
 10
11.0598078643
 20
6.6829752334
 30
0.0
 10
11.0600013849
 20
6.6829171492
 30
0.0
 10
11.0602505291
 20
6.6828189789
 30
0.0
 10
11.0606906703
 20
6.6826568369
 30
0.0
 10
11.0613172796
 20
6.6824201571
 30
0.0
 10
11.0620701369
 20
6.6821383022
 30
0.0
 10
11.0630736232
 20
6.681761741
 30
0.0
 10
11.0643280918
 20
6.6812912979
 30
0.0
 10
11.0663351797
 20
6.6805384444
 30
0.0
 10
11.068844061
 20
6.6795974275
 30
0.0
 10
11.0718547088
 20
6.6784681843
 30
0.0
 10
11.074865361
 20
6.6773389529
 30
0.0
 10
11.0773742315
 20
6.6763979064
 30
0.0
 10
11.0793813408
 20
6.675645112
 30
0.0
 10
11.080635755
 20
6.6751745188
 30
0.0
 10
11.0816393531
 20
6.6747982656
 30
0.0
 10
11.082391869
 20
6.6745154696
 30
0.0
 10
11.0830195466
 20
6.6742817344
 30
0.0
 10
11.0834577807
 20
6.6741143358
 30
0.0
 10
11.0837099806
 20
6.6740245879
 30
0.0
 10
11.0838941149
 20
6.6739406327
 30
0.0
 10
11.0840974215
 20
6.6739203005
 30
0.0
 10
11.0843618094
 20
6.6738709984
 30
0.0
 10
11.0848276042
 20
6.6737950598
 30
0.0
 10
11.0854913963
 20
6.6736811701
 30
0.0
 10
11.086288644
 20
6.6735468164
 30
0.0
 10
11.0873513975
 20
6.6733668699
 30
0.0
 10
11.0886799228
 20
6.6731422136
 30
0.0
 10
11.0908055165
 20
6.6727826087
 30
0.0
 10
11.0934625247
 20
6.6723331557
 30
0.0
 10
11.0966509277
 20
6.6717937894
 30
0.0
 10
11.0998393325
 20
6.6712544291
 30
0.0
 10
11.1040905383
 20
6.67053528
 30
0.0
 10
11.1072789428
 20
6.6699959186
 30
0.0
 10
11.1094045458
 20
6.6696363443
 30
0.0
  0
SPLINE
  5
3A0
100
AcDbEntity
  8
0
100
AcDbSpline
 62
4
  6
CONTINUOUS
 70
0
 71
3
 72
313
 73
309
 74
0
 42
0.0000001
 43
0.0000001
 44
0.0000000001
 40
0.0
 40
0.0
 40
0.0
 40
0.0
 40
0.015625
 40
0.0234375
 40
0.03125
 40
0.0390625
 40
0.046875
 40
0.05078125
 40
0.0546875
 40
0.056640625
 40
0.05859375
 40
0.060546875
 40
0.0615234375
 40
0.0620117188
 40
0.0625
 40
0.0629882812
 40
0.0634765625
 40
0.064453125
 40
0.06640625
 40
0.068359375
 40
0.0703125
 40
0.07421875
 40
0.078125
 40
0.0859375
 40
0.09375
 40
0.1015625
 40
0.109375
 40
0.11328125
 40
0.1171875
 40
0.119140625
 40
0.12109375
 40
0.123046875
 40
0.1240234375
 40
0.1245117188
 40
0.125
 40
0.1254882812
 40
0.1259765625
 40
0.126953125
 40
0.12890625
 40
0.130859375
 40
0.1328125
 40
0.13671875
 40
0.140625
 40
0.1484375
 40
0.15625
 40
0.1640625
 40
0.171875
 40
0.17578125
 40
0.1796875
 40
0.181640625
 40
0.18359375
 40
0.185546875
 40
0.1865234375
 40
0.1870117188
 40
0.1875
 40
0.1879882812
 40
0.1884765625
 40
0.189453125
 40
0.19140625
 40
0.193359375
 40
0.1953125
 40
0.19921875
 40
0.203125
 40
0.2109375
 40
0.21875
 40
0.2265625
 40
0.234375
 40
0.23828125
 40
0.2421875
 40
0.244140625
 40
0.24609375
 40
0.248046875
 40
0.2490234375
 40
0.2495117188
 40
0.25
 40
0.2504882812
 40
0.2509765625
 40
0.251953125
 40
0.25390625
 40
0.255859375
 40
0.2578125
 40
0.26171875
 40
0.265625
 40
0.2734375
 40
0.28125
 40
0.2890625
 40
0.296875
 40
0.30078125
 40
0.3046875
 40
0.306640625
 40
0.30859375
 40
0.310546875
 40
0.3115234375
 40
0.3120117188
 40
0.3125
 40
0.3129882812
 40
0.3134765625
 40
0.314453125
 40
0.31640625
 40
0.318359375
 40
0.3203125
 40
0.32421875
 40
0.328125
 40
0.3359375
 40
0.34375
 40
0.3515625
 40
0.359375
 40
0.36328125
 40
0.3671875
 40
0.369140625
 40
0.37109375
 40
0.373046875
 40
0.3740234375
 40
0.3745117188
 40
0.375
 40
0.3754882812
 40
0.3759765625
 40
0.376953125
 40
0.37890625
 40
0.380859375
 40
0.3828125
 40
0.38671875
 40
0.390625
 40
0.3984375
 40
0.40625
 40
0.4140625
 40
0.421875
 40
0.42578125
 40
0.4296875
 40
0.431640625
 40
0.43359375
 40
0.435546875
 40
0.4365234375
 40
0.4370117188
 40
0.4375
 40
0.4379882812
 40
0.4384765625
 40
0.439453125
 40
0.44140625
 40
0.443359375
 40
0.4453125
 40
0.44921875
 40
0.453125
 40
0.4609375
 40
0.46875
 40
0.4765625
 40
0.484375
 40
0.48828125
 40
0.4921875
 40
0.494140625
 40
0.49609375
 40
0.498046875
 40
0.4990234375
 40
0.4995117188
 40
0.5
 40
0.5004882812
 40
0.5009765625
 40
0.501953125
 40
0.50390625
 40
0.505859375
 40
0.5078125
 40
0.51171875
 40
0.515625
 40
0.5234375
 40
0.53125
 40
0.5390625
 40
0.546875
 40
0.55078125
 40
0.5546875
 40
0.556640625
 40
0.55859375
 40
0.560546875
 40
0.5615234375
 40
0.5620117188
 40
0.5625
 40
0.5629882812
 40
0.5634765625
 40
0.564453125
 40
0.56640625
 40
0.568359375
 40
0.5703125
 40
0.57421875
 40
0.578125
 40
0.5859375
 40
0.59375
 40
0.6015625
 40
0.609375
 40
0.61328125
 40
0.6171875
 40
0.619140625
 40
0.62109375
 40
0.623046875
 40
0.6240234375
 40
0.6245117188
 40
0.625
 40
0.6254882812
 40
0.6259765625
 40
0.626953125
 40
0.62890625
 40
0.630859375
 40
0.6328125
 40
0.63671875
 40
0.640625
 40
0.6484375
 40
0.65625
 40
0.6640625
 40
0.671875
 40
0.67578125
 40
0.6796875
 40
0.681640625
 40
0.68359375
 40
0.685546875
 40
0.6865234375
 40
0.6870117188
 40
0.6875
 40
0.6879882812
 40
0.6884765625
 40
0.689453125
 40
0.69140625
 40
0.693359375
 40
0.6953125
 40
0.69921875
 40
0.703125
 40
0.7109375
 40
0.71875
 40
0.7265625
 40
0.734375
 40
0.73828125
 40
0.7421875
 40
0.744140625
 40
0.74609375
 40
0.748046875
 40
0.7490234375
 40
0.7495117188
 40
0.75
 40
0.7504882812
 40
0.7509765625
 40
0.751953125
 40
0.75390625
 40
0.755859375
 40
0.7578125
 40
0.76171875
 40
0.765625
 40
0.7734375
 40
0.78125
 40
0.7890625
 40
0.796875
 40
0.80078125
 40
0.8046875
 40
0.806640625
 40
0.80859375
 40
0.810546875
 40
0.8115234375
 40
0.8120117188
 40
0.8125
 40
0.8129882812
 40
0.8134765625
 40
0.814453125
 40
0.81640625
 40
0.818359375
 40
0.8203125
 40
0.82421875
 40
0.828125
 40
0.8359375
 40
0.84375
 40
0.8515625
 40
0.859375
 40
0.86328125
 40
0.8671875
 40
0.869140625
 40
0.87109375
 40
0.873046875
 40
0.8740234375
 40
0.8745117188
 40
0.875
 40
0.8754882812
 40
0.8759765625
 40
0.876953125
 40
0.87890625
 40
0.880859375
 40
0.8828125
 40
0.88671875
 40
0.890625
 40
0.8984375
 40
0.90625
 40
0.9140625
 40
0.921875
 40
0.92578125
 40
0.9296875
 40
0.931640625
 40
0.93359375
 40
0.935546875
 40
0.9365234375
 40
0.9370117188
 40
0.9375
 40
0.9379882812
 40
0.9384765625
 40
0.939453125
 40
0.94140625
 40
0.943359375
 40
0.9453125
 40
0.94921875
 40
0.953125
 40
0.9609375
 40
0.96875
 40
0.9765625
 40
0.984375
 40
1.0
 40
1.0
 40
1.0
 40
1.0
 10
11.1094045345
 20
6.6696363451
 30
0.0
 10
11.1114933258
 20
6.6696962947
 30
0.0
 10
11.1146265127
 20
6.6697862189
 30
0.0
 10
11.1188040952
 20
6.6699061186
 30
0.0
 10
11.1219372824
 20
6.6699960417
 30
0.0
 10
11.1250704683
 20
6.6700859711
 30
0.0
 10
11.1276814604
 20
6.6701608926
 30
0.0
 10
11.1297702455
 20
6.6702208738
 30
0.0
 10
11.1310757558
 20
6.6702582619
 30
0.0
 10
11.1321201192
 20
6.6702884017
 30
0.0
 10
11.1329035144
 20
6.6703103787
 30
0.0
 10
11.1335559536
 20
6.6703306901
 30
0.0
 10
11.1340134266
 20
6.6703409886
 30
0.0
 10
11.1342736444
 20
6.6703529935
 30
0.0
 10
11.1344721752
 20
6.6703447568
 30
0.0
 10
11.1346578339
 20
6.6704024214
 30
0.0
 10
11.1349098688
 20
6.6704563204
 30
0.0
 10
11.1353488379
 20
6.6705613538
 30
0.0
 10
11.1359770303
 20
6.6707058022
 30
0.0
 10
11.136730393
 20
6.6708815369
 30
0.0
 10
11.1377350402
 20
6.6711150128
 30
0.0
 10
11.1389907931
 20
6.6714071442
 30
0.0
 10
11.1410000292
 20
6.6718743943
 30
0.0
 10
11.1435115634
 20
6.6724585122
 30
0.0
 10
11.1465254096
 20
6.6731594285
 30
0.0
 10
11.1495392523
 20
6.6738603571
 30
0.0
 10
11.1520507956
 20
6.6744444441
 30
0.0
 10
11.1540600134
 20
6.6749117561
 30
0.0
 10
11.1553158128
 20
6.6752037303
 30
0.0
 10
11.1563203645
 20
6.6754375289
 30
0.0
 10
11.1570740189
 20
6.6756122775
 30
0.0
 10
11.1577012989
 20
6.6757598113
 30
0.0
 10
11.1581418968
 20
6.6758593366
 30
0.0
 10
11.1583913218
 20
6.6759220609
 30
0.0
 10
11.1585849972
 20
6.6759526171
 30
0.0
 10
11.1587534188
 20
6.676046195
 30
0.0
 10
11.1589867897
 20
6.6761489828
 30
0.0
 10
11.1593910846
 20
6.6763391036
 30
0.0
 10
11.1599707945
 20
6.6766053501
 30
0.0
 10
11.1606655279
 20
6.6769271379
 30
0.0
 10
11.1615921598
 20
6.6773553877
 30
0.0
 10
11.16275034
 20
6.677890974
 30
0.0
 10
11.1646034896
 20
6.678747759
 30
0.0
 10
11.1669199054
 20
6.679818793
 30
0.0
 10
11.1696996143
 20
6.6811040098
 30
0.0
 10
11.1724793176
 20
6.6823892385
 30
0.0
 10
11.1747957472
 20
6.6834602426
 30
0.0
 10
11.1766488692
 20
6.6843170874
 30
0.0
 10
11.1778071196
 20
6.6848525216
 30
0.0
 10
11.1787336073
 20
6.6852810838
 30
0.0
 10
11.1794287815
 20
6.6856019173
 30
0.0
 10
11.1800071123
 20
6.6858711494
 30
0.0
 10
11.1804138691
 20
6.6860559403
 30
0.0
 10
11.1806432953
 20
6.6861672679
 30
0.0
 10
11.1808238337
 20
6.6862346144
 30
0.0
 10
11.1809720004
 20
6.6863636911
 30
0.0
 10
11.1811808476
 20
6.6865142612
 30
0.0
 10
11.1815410692
 20
6.6867877912
 30
0.0
 10
11.1820584219
 20
6.6871733032
 30
0.0
 10
11.1826780679
 20
6.6876381627
 30
0.0
 10
11.1835046738
 20
6.6882571912
 30
0.0
 10
11.1845377904
 20
6.6890312453
 30
0.0
 10
11.1861908557
 20
6.6902695818
 30
0.0
 10
11.1882571599
 20
6.6918175542
 30
0.0
 10
11.190736738
 20
6.6936750978
 30
0.0
 10
11.1932163079
 20
6.6955326517
 30
0.0
 10
11.1952826324
 20
6.697080598
 30
0.0
 10
11.1969356572
 20
6.6983189867
 30
0.0
 10
11.1979688766
 20
6.6990929081
 30
0.0
 10
11.1987952715
 20
6.6997122091
 30
0.0
 10
11.1994155622
 20
6.7001762362
 30
0.0
 10
11.1999308978
 20
6.7005643526
 30
0.0
 10
11.2002947204
 20
6.7008332333
 30
0.0
 10
11.2004977979
 20
6.7009912526
 30
0.0
 10
11.200663687
 20
6.7010974477
 30
0.0
 10
11.200777663
 20
6.7012507337
 30
0.0
 10
11.2009477388
 20
6.7014386893
 30
0.0
 10
11.2012369347
 20
6.7017752645
 30
0.0
 10
11.2016544826
 20
6.7022520852
 30
0.0
 10
11.2021536521
 20
6.7028259827
 30
0.0
 10
11.2028198708
 20
6.7035905811
 30
0.0
 10
11.2036524184
 20
6.7045465339
 30
0.0
 10
11.2049846209
 20
6.7060759439
 30
0.0
 10
11.2066498303
 20
6.707987746
 30
0.0
 10
11.2086481016
 20
6.7102818905
 30
0.0
 10
11.2106463626
 20
6.7125760435
 30
0.0
 10
11.2123115977
 20
6.7144878245
 30
0.0
 10
11.2136437488
 20
6.7160172766
 30
0.0
 10
11.2144764269
 20
6.7169731224
 30
0.0
 10
11.2151423778
 20
6.7177379405
 30
0.0
 10
11.2156423656
 20
6.7183111666
 30
0.0
 10
11.2160573531
 20
6.718790088
 30
0.0
 10
11.2163511197
 20
6.7191229131
 30
0.0
 10
11.2165138722
 20
6.7193168773
 30
0.0
 10
11.2166503433
 20
6.7194517068
 30
0.0
 10
11.2167317445
 20
6.7196272215
 30
0.0
 10
11.2168594884
 20
6.7198470496
 30
0.0
 10
11.2170740904
 20
6.720238361
 30
0.0
 10
11.2173853438
 20
6.7207939203
 30
0.0
 10
11.217756845
 20
6.7214620711
 30
0.0
 10
11.2182528796
 20
6.7223524221
 30
0.0
 10
11.2188726832
 20
6.7234655378
 30
0.0
 10
11.219864503
 20
6.7252464239
 30
0.0
 10
11.2211042315
 20
6.7274725657
 30
0.0
 10
11.2225919269
 20
6.7301439206
 30
0.0
 10
11.2240796112
 20
6.7328152822
 30
0.0
 10
11.2253193675
 20
6.7350414071
 30
0.0
 10
11.2263111315
 20
6.736822327
 30
0.0
 10
11.226931077
 20
6.7379353568
 30
0.0
 10
11.2274268205
 20
6.7388258841
 30
0.0
 10
11.227799211
 20
6.7394934964
 30
0.0
 10
11.2281076822
 20
6.7400507405
 30
0.0
 10
11.2283272509
 20
6.7404390443
 30
0.0
 10
11.2284470369
 20
6.7406636913
 30
0.0
 10
11.2285528821
 20
6.740824404
 30
0.0
 10
11.2285975455
 20
6.7410148272
 30
0.0
 10
11.2286784377
 20
6.7412583615
 30
0.0
 10
11.2288100558
 20
6.741689375
 30
0.0
 10
11.2290032801
 20
6.7423025841
 30
0.0
 10
11.2292329241
 20
6.7430395156
 30
0.0
 10
11.2295398933
 20
6.7440217135
 30
0.0
 10
11.2299233387
 20
6.7452495901
 30
0.0
 10
11.2305370002
 20
6.7472141205
 30
0.0
 10
11.2313040256
 20
6.7496698083
 30
0.0
 10
11.2322244797
 20
6.7526166225
 30
0.0
 10
11.2331449217
 20
6.7555634417
 30
0.0
 10
11.2339119773
 20
6.7580191168
 30
0.0
 10
11.2345255783
 20
6.7599836727
 30
0.0
 10
11.2349091775
 20
6.7612114842
 30
0.0
 10
11.235215831
 20
6.7621938158
 30
0.0
 10
11.2354464398
 20
6.7629303389
 30
0.0
 10
11.2356366454
 20
6.7635448257
 30
0.0
 10
11.2357736524
 20
6.7639735583
 30
0.0
 10
11.2358459102
 20
6.7642207471
 30
0.0
 10
11.2359170956
 20
6.7643999447
 30
0.0
 10
11.2359233285
 20
6.764602819
 30
0.0
 10
11.2359542951
 20
6.7648650593
 30
0.0
 10
11.2359979309
 20
6.7653278277
 30
0.0
 10
11.2360657864
 20
6.7659869137
 30
0.0
 10
11.2361448508
 20
6.7667786779
 30
0.0
 10
11.236251095
 20
6.7678340629
 30
0.0
 10
11.2363836178
 20
6.769153397
 30
0.0
 10
11.2365958123
 20
6.7712642741
 30
0.0
 10
11.2368610008
 20
6.7739028902
 30
0.0
 10
11.237179252
 20
6.7770692211
 30
0.0
 10
11.2374974905
 20
6.7802355542
 30
0.0
 10
11.2377627108
 20
6.7828741649
 30
0.0
 10
11.2379748417
 20
6.7849850528
 30
0.0
 10
11.2381075261
 20
6.7863043596
 30
0.0
 10
11.2382134388
 20
6.7873598006
 30
0.0
 10
11.2382935161
 20
6.7881513936
 30
0.0
 10
11.2383582026
 20
6.7888110156
 30
0.0
 10
11.2384074955
 20
6.7892728271
 30
0.0
 10
11.2384293979
 20
6.7895366007
 30
0.0
 10
11.2384634731
 20
6.789734765
 30
0.0
 10
11.2384300875
 20
6.7899316522
 30
0.0
 10
11.2384091045
 20
6.790194614
 30
0.0
 10
11.2383614206
 20
6.7906545895
 30
0.0
 10
11.2382990327
 20
6.791311806
 30
0.0
 10
11.2382217138
 20
6.7921004192
 30
0.0
 10
11.2381194788
 20
6.7931519198
 30
0.0
 10
11.2379913916
 20
6.79446629
 30
0.0
 10
11.2377866162
 20
6.7965692853
 30
0.0
 10
11.2375305903
 20
6.7991980284
 30
0.0
 10
11.2372233851
 20
6.8023525208
 30
0.0
 10
11.2369161672
 20
6.8055070123
 30
0.0
 10
11.236660173
 20
6.8081357577
 30
0.0
 10
11.2364553341
 20
6.8102387484
 30
0.0
 10
11.2363274085
 20
6.8115531303
 30
0.0
 10
11.2362248419
 20
6.8126046068
 30
0.0
 10
11.2361485362
 20
6.8133932938
 30
0.0
 10
11.236082978
 20
6.8140502795
 30
0.0
 10
11.2360409537
 20
6.8145106669
 30
0.0
 10
11.2360109026
 20
6.8147729687
 30
0.0
 10
11.2360053711
 20
6.8149718831
 30
0.0
 10
11.235934831
 20
6.8151624338
 30
0.0
 10
11.2358634533
 20
6.8154194187
 30
0.0
 10
11.2357279773
 20
6.8158677831
 30
0.0
 10
11.2355399637
 20
6.8165090143
 30
0.0
 10
11.2353119831
 20
6.8172781875
 30
0.0
 10
11.2350088347
 20
6.8183038581
 30
0.0
 10
11.2346296165
 20
6.8195859099
 30
0.0
 10
11.2340230254
 20
6.8216372132
 30
0.0
 10
11.233264732
 20
6.8242013352
 30
0.0
 10
11.2323548048
 20
6.8272782852
 30
0.0
 10
11.2314448654
 20
6.8303552323
 30
0.0
 10
11.2306866023
 20
6.8329193614
 30
0.0
 10
11.2300799507
 20
6.8349706506
 30
0.0
 10
11.2297008865
 20
6.8362527382
 30
0.0
 10
11.2293974219
 20
6.8372783353
 30
0.0
 10
11.2291704073
 20
6.8380477332
 30
0.0
 10
11.2289793715
 20
6.8386882615
 30
0.0
 10
11.2288492905
 20
6.8391378806
 30
0.0
 10
11.2287692686
 20
6.8393928552
 30
0.0
 10
11.2287252809
 20
6.8395895811
 30
0.0
 10
11.228620023
 20
6.8397653023
 30
0.0
 10
11.2285010508
 20
6.840006924
 30
0.0
 10
11.228282892
 20
6.8404263482
 30
0.0
 10
11.2279764425
 20
6.8410273104
 30
0.0
 10
11.2276064749
 20
6.8417477012
 30
0.0
 10
11.2271139629
 20
6.842708489
 30
0.0
 10
11.2264980565
 20
6.8439093824
 30
0.0
 10
11.2255127552
 20
6.8458308629
 30
0.0
 10
11.2242810771
 20
6.8482326959
 30
0.0
 10
11.2228030869
 20
6.8511149037
 30
0.0
 10
11.2213250852
 20
6.8539971068
 30
0.0
 10
11.2200934361
 20
6.8563989515
 30
0.0
 10
11.2191080768
 20
6.8583204084
 30
0.0
 10
11.2184923177
 20
6.8595213619
 30
0.0
 10
11.2179995034
 20
6.8604820264
 30
0.0
 10
11.2176304594
 20
6.8612027939
 30
0.0
 10
11.21732112
 20
6.8618025774
 30
0.0
 10
11.2171081203
 20
6.8622241058
 30
0.0
 10
11.216980882
 20
6.862462356
 30
0.0
 10
11.216901015
 20
6.8626484332
 30
0.0
 10
11.2167616629
 20
6.862806264
 30
0.0
 10
11.2165966092
 20
6.8630265577
 30
0.0
 10
11.2162980979
 20
6.8634074811
 30
0.0
 10
11.2158767073
 20
6.8639540574
 30
0.0
 10
11.2153688752
 20
6.8646089217
 30
0.0
 10
11.2146925214
 20
6.8654824329
 30
0.0
 10
11.2138468204
 20
6.866574199
 30
0.0
 10
11.2124938434
 20
6.8683210935
 30
0.0
 10
11.2108025723
 20
6.8705046878
 30
0.0
 10
11.2087730695
 20
6.8731250124
 30
0.0
 10
11.2067435567
 20
6.8757453296
 30
0.0
 10
11.2050523104
 20
6.8779289424
 30
0.0
 10
11.203699284
 20
6.8796757999
 30
0.0
 10
11.2028537086
 20
6.8807676601
 30
0.0
 10
11.202177097
 20
6.8816409782
 30
0.0
 10
11.2016700526
 20
6.8822964325
 30
0.0
 10
11.2012461975
 20
6.8828411626
 30
0.0
 10
11.2009520856
 20
6.8832253819
 30
0.0
 10
11.2007799828
 20
6.8834403948
 30
0.0
 10
11.2006622833
 20
6.8836144464
 30
0.0
 10
11.200501093
 20
6.8837396009
 30
0.0
 10
11.2003013427
 20
6.8839235295
 30
0.0
 10
11.1999447116
 20
6.8842374579
 30
0.0
 10
11.1994389339
 20
6.8846900816
 30
0.0
 10
11.1988304189
 20
6.8852314517
 30
0.0
 10
11.1980196181
 20
6.8859538996
 30
0.0
 10
11.1970059279
 20
6.8868567469
 30
0.0
 10
11.1953841293
 20
6.8883014215
 30
0.0
 10
11.1933568446
 20
6.8901072235
 30
0.0
 10
11.1909241194
 20
6.8922742049
 30
0.0
 10
11.1884913866
 20
6.8944411766
 30
0.0
 10
11.1864641212
 20
6.896247003
 30
0.0
 10
11.184842284
 20
6.8976916289
 30
0.0
 10
11.1838286919
 20
6.8985945998
 30
0.0
 10
11.1830176898
 20
6.8993167939
 30
0.0
 10
11.1824097895
 20
6.8998589397
 30
0.0
 10
11.1819020887
 20
6.9003091364
 30
0.0
 10
11.1815488907
 20
6.9006273974
 30
0.0
 10
11.1813436396
 20
6.900804384
 30
0.0
 10
11.1811993458
 20
6.9009508619
 30
0.0
 10
11.1810181859
 20
6.9010448266
 30
0.0
 10
11.1807894987
 20
6.90118843
 30
0.0
 10
11.1803833047
 20
6.9014312017
 30
0.0
 10
11.1798061599
 20
6.9017824802
 30
0.0
 10
11.1791122453
 20
6.9022021046
 30
0.0
 10
11.1781874942
 20
6.9027622709
 30
0.0
 10
11.177031395
 20
6.9034622503
 30
0.0
 10
11.1751817259
 20
6.904582345
 30
0.0
 10
11.1728696087
 20
6.9059824194
 30
0.0
 10
11.1700950818
 20
6.9076625289
 30
0.0
 10
11.167320549
 20
6.9093426277
 30
0.0
 10
11.1650084467
 20
6.9107427289
 30
0.0
 10
11.1631587476
 20
6.9118627699
 30
0.0
 10
11.1620027245
 20
6.9125628859
 30
0.0
 10
11.1610778173
 20
6.9131227719
 30
0.0
 10
11.1603843796
 20
6.9135432524
 30
0.0
 10
11.159805743
 20
6.9138918522
 30
0.0
 10
11.159402212
 20
6.9141394059
 30
0.0
 10
11.1591692578
 20
6.9142753474
 30
0.0
 10
11.1590012047
 20
6.9143928471
 30
0.0
 10
11.1588076841
 20
6.9144509312
 30
0.0
 10
11.1585585399
 20
6.9145491016
 30
0.0
 10
11.1581183987
 20
6.9147112436
 30
0.0
 10
11.1574917894
 20
6.9149479233
 30
0.0
 10
11.1567389321
 20
6.9152297782
 30
0.0
 10
11.1557354458
 20
6.9156063395
 30
0.0
 10
11.1544809771
 20
6.9160767826
 30
0.0
 10
11.1524738892
 20
6.916829636
 30
0.0
 10
11.149965008
 20
6.917770653
 30
0.0
 10
11.1469543601
 20
6.9188998962
 30
0.0
 10
11.143943708
 20
6.9200291276
 30
0.0
 10
11.1414348375
 20
6.920970174
 30
0.0
 10
11.1394277281
 20
6.9217229684
 30
0.0
 10
11.1381733139
 20
6.9221935616
 30
0.0
 10
11.1371697159
 20
6.9225698148
 30
0.0
 10
11.1364172
 20
6.9228526109
 30
0.0
 10
11.1357895224
 20
6.923086346
 30
0.0
 10
11.1353512883
 20
6.9232537446
 30
0.0
 10
11.1350990884
 20
6.9233434925
 30
0.0
 10
11.1349149541
 20
6.9234274478
 30
0.0
 10
11.1347116475
 20
6.92344778
 30
0.0
 10
11.1344472595
 20
6.923497082
 30
0.0
 10
11.1339814648
 20
6.9235730207
 30
0.0
 10
11.1333176727
 20
6.9236869103
 30
0.0
 10
11.1325204249
 20
6.923821264
 30
0.0
 10
11.1314576714
 20
6.9240012105
 30
0.0
 10
11.1301291462
 20
6.9242258669
 30
0.0
 10
11.1280035524
 20
6.9245854717
 30
0.0
 10
11.1253465442
 20
6.9250349247
 30
0.0
 10
11.1221581413
 20
6.9255742911
 30
0.0
 10
11.1189697364
 20
6.9261136513
 30
0.0
 10
11.1147185306
 20
6.9268328004
 30
0.0
 10
11.1115301262
 20
6.9273721618
 30
0.0
 10
11.1094045232
 20
6.9277317362
 30
0.0
  0
ENDSEC
  0
SECTION
  2
OBJECTS
  0
DICTIONARY
  5
C
100
AcDbDictionary
280
0
281
1
  3
ACAD_GROUP
350
D
  3
ACAD_MLINESTYLE
350
17
  3
ACAD_LAYOUT
350
1A
  3
ACAD_PLOTSETTINGS
350
19
  3
ACAD_PLOTSTYLENAME
350
E
  3
ACAD_IMAGE_DICT
350
       3A2
  3
ACAD_IMAGE_VARS
350
       3A3
  3
ACAD_TABLESTYLE
350
       3A4
  0
IMAGEDEF_REACTOR
  5
3A1
100
AcDbRasterImageDefReactor
 90
2
330
287
  0
DICTIONARY
  5
D
102
{ACAD_REACTORS
330
C
102
}
100
AcDbDictionary
280
0
281
1
  0
ACDBDICTIONARYWDFLT
  5
E
102
{ACAD_REACTORS
330
C
102
}
100
AcDbDictionary
281
1
  3
Normal
350
F
100
AcDbDictionaryWithDefault
340
F
  0
DICTIONARY
  5
3A2
330
C
100
AcDbDictionary
281
1
  3
FSW_assy_2_img_1
350
       3A7
  0
RASTERVARIABLES
  5
3A3
330
C
100
AcDbRasterVariables
 90
0
 70
0
 71
1
 72
5
  0
DICTIONARY
  5
17
102
{ACAD_REACTORS
330
C
102
}
100
AcDbDictionary
280
0
281
1
  3
Standard
350
18
  0
DICTIONARY
  5
3A4
330
C
100
AcDbDictionary
281
1
  3
Standard
350
       3A8
  3
Standard1
350
       3A9
  0
DICTIONARY
  5
19
102
{ACAD_REACTORS
330
C
102
}
100
AcDbDictionary
281
1
  0
DICTIONARY
  5
1A
102
{ACAD_REACTORS
330
C
102
}
100
AcDbDictionary
281
1
  3
Model
350
3A5
  3
Layout1
350
3A6
  0
ACDBPLACEHOLDER
  5
F
102
{ACAD_REACTORS
330
E
102
}
  0
MLINESTYLE
  5
18
102
{ACAD_REACTORS
330
17
102
}
100
AcDbMlineStyle
  2
STANDARD
 70
0
  3

 62
256
 51
90.0
 52
90.0
 71
2
 49
0.5
 62
256
  6
BYLAYER
 49
-0.5
 62
256
  6
BYLAYER
  0
LAYOUT
  5
3A5
102
{ACAD_REACTORS
330
1A
102
}
100
AcDbPlotSettings
  1

  2
none_device
  4
ANSI_C_(22.00_x_17.00_Inches)
  6

 40
0.0
 41
0.0
 42
0.0
 43
0.0
 44
558.8
 45
431.8
 46
0.0
 47
0.0
 48
0.0
 49
0.0
140
0.0
141
0.0
142
1.0
143
1.0
 70
1024
 72
0
 73
0
 74
0
  7

 75
0
147
1.0
148
0.0
149
0.0
100
AcDbLayout
  1
Model
 70
0
 71
0
 10
0.0
 20
0.0
 11
22.0
 21
17.0
 12
0.0
 22
0.0
 32
0.0
 14
0.0
 24
0.0
 34
0.0
 15
0.0
 25
0.0
 35
0.0
146
0.0
 13
0.0
 23
0.0
 33
0.0
 16
1.0
 26
0.0
 36
0.0
 17
0.0
 27
1.0
 37
0.0
 76
0
330
20C
345
0
346
0
  0
LAYOUT
  5
3A6
102
{ACAD_REACTORS
330
1A
102
}
100
AcDbPlotSettings
  1

  2
none_device
  4
ANSI_C_(22.00_x_17.00_Inches)
  6

 40
0.0
 41
0.0
 42
0.0
 43
0.0
 44
558.8
 45
431.8
 46
0.0
 47
0.0
 48
0.0
 49
0.0
140
0.0
141
0.0
142
1.0
143
1.0
 70
0
 72
0
 73
0
 74
0
  7

 75
0
147
1.0
148
0.0
149
0.0
100
AcDbLayout
  1
Layout1
 70
0
 71
1
 10
0.0
 20
0.0
 11
22.0
 21
17.0
 12
0.0
 22
0.0
 32
0.0
 14
0.0
 24
0.0
 34
0.0
 15
0.0
 25
0.0
 35
0.0
146
0.0
 13
0.0
 23
0.0
 33
0.0
 16
1.0
 26
0.0
 36
0.0
 17
0.0
 27
1.0
 37
0.0
 76
0
330
20D
345
0
346
0
  0
IMAGEDEF
  5
3A7
102
{ACAD_REACTORS
330
3A2
330
3A1
102
}
100
AcDbRasterImageDef
 90
0
  1
FSW_assy_2_img_1.png
 10
369.0
 20
92.0
 11
0.0066666667
 21
0.0066666667
280
1
281
0
  0
TABLESTYLE
  5
3A8
102
{ACAD_REACTORS
330
3A4
330
28A
330
28B
102
}
330
3A4
100
AcDbTableStyle
  3
Standard
 70
0
 71
0
 40
0.06
 41
0.06
280
1
281
1
  7
Standard
140
0.18
170
1
 62
0
 63
7
283
0
  7
Standard
140
0.18
170
1
 62
0
 63
7
283
0
  7
Standard
140
0.18
170
1
 62
0
 63
7
283
0
  0
TABLESTYLE
  5
3A9
102
{ACAD_REACTORS
330
3A4
330
289
102
}
330
3A4
100
AcDbTableStyle
  3
Standard1
 70
1
 71
0
 40
0.06
 41
0.06
280
1
281
1
  7
Standard
140
0.18
170
1
 62
0
 63
7
283
0
  7
Standard
140
0.18
170
1
 62
0
 63
7
283
0
  7
Standard
140
0.18
170
1
 62
0
 63
7
283
0
  0
ENDSEC
  0
EOF
