999
DXF file: FSV_assy_2.dxf
999
Pro/ENGINEER 2014200 by Parametric Technology Corporation
  0
SECTION
  2
HEADER
  9
$ACADVER
  1
AC1021
  9
$DWGCODEPAGE
  3
ANSI_1252
  9
$EXTMAX
 10
22.0
 20
17.0
 30
0.0
  9
$EXTMIN
 10
0.0
 20
0.0
 30
0.0
  9
$LIMMIN
 10
0.0
 20
0.0
  9
$LIMMAX
 10
22.0
 20
17.0
  9
$VIEWCTR
 10
11.0
 20
8.5
  9
$VIEWSIZE
 40
17.0
  9
$CLAYER
  8
0
  9
$LTSCALE
 40
1.21
  9
$CELTYPE
  6
BYLAYER
  9
$DIMSCALE
 40
1.0
  9
$DIMASZ
 40
0.1875
  9
$DIMEXO
 40
0.0625
  9
$DIMDLI
 40
0.836
  9
$DIMEXE
 40
0.125
  9
$DIMCEN
 40
0.198
  9
$DIMLFAC
 40
1.0
  9
$DIMBLK
  1
_FILLED
  9
$DIMTXT
 40
0.1
  9
$DIMTOL
 70
0
  9
$DIMLIM
 70
0
  9
$DIMTFAC
 40
1.0
  9
$DIMGAP
 40
0.09
  9
$DIMDSEP
 70
46
  9
$AUNITS
 70
0
  9
$PDMODE
 70
3
  9
$PDSIZE
 40
0.3125
  9
$HANDSEED
  5
3AA
  9
$TILEMODE
 70
1
  9
$MEASUREMENT
 70
0
  9
$INSUNITS
 70
1
  0
ENDSEC
  0
SECTION
  2
CLASSES
  0
CLASS
  1
ACDBDICTIONARYWDFLT
  2
AcDbDictionaryWithDefault
  3
AutoCAD 2000
 90
0
 91
1
280
0
281
0
  0
CLASS
  1
ACDBPLACEHOLDER
  2
AcDbPlaceHolder
  3
AutoCAD 2000
 90
0
 91
1
280
0
281
0
  0
CLASS
  1
LAYOUT
  2
AcDbLayout
  3
AutoCAD 2000
 90
0
 91
0
280
0
281
0
  0
CLASS
  1
RASTERVARIABLES
  2
AcDbRasterVariables
  3
ISM
 90
0
 91
1
280
0
281
0
  0
CLASS
  1
IMAGEDEF
  2
AcDbRasterImageDef
  3
ISM
 90
0
 91
1
280
0
281
0
  0
CLASS
  1
IMAGEDEF_REACTOR
  2
AcDbRasterImageDefReactor
  3
ISM
 90
0
 91
1
280
0
281
0
  0
CLASS
  1
IMAGE
  2
AcDbRasterImage
  3
ISM
 90
127
 91
1
280
0
281
1
  0
CLASS
  1
TABLESTYLE
  2
AcDbTableStyle
  3
ObjectDBX Classes
 90
2047
 91
1
280
0
281
0
  0
CLASS
  1
ACAD_TABLE
  2
AcDbTable
  3
ObjectDBX Classes
 90
1025
 91
3
280
0
281
1
  0
ENDSEC
  0
SECTION
  2
TABLES
  0
TABLE
  2
VPORT
  5
8
100
AcDbSymbolTable
 70
2
  0
VPORT
  5
1F4
100
AcDbSymbolTableRecord
100
AcDbViewportTableRecord
  2
*ACTIVE
 70
0
 10
0.0
 20
0.0
 11
1.0
 21
1.0
 12
11.0
 22
8.5
 13
0.0
 23
0.0
 14
1.0
 24
1.0
 15
0.0
 25
0.0
 16
0.0
 26
0.0
 36
1.0
 17
0.0
 27
0.0
 37
0.0
 40
17.0
 41
1.2941176471
 42
50.0
 43
0.0
 44
0.0
 50
0.0
 51
0.0
 71
0
 72
100
 73
1
 74
1
 75
0
 76
0
 77
0
 78
0
  0
ENDTAB
  0
TABLE
  2
LTYPE
  5
5
100
AcDbSymbolTable
 70
6
  0
LTYPE
  5
14
100
AcDbSymbolTableRecord
100
AcDbLinetypeTableRecord
  2
BYBLOCK
 70
0
  3

 72
65
 73
0
 40
0.0
  0
LTYPE
  5
15
100
AcDbSymbolTableRecord
100
AcDbLinetypeTableRecord
  2
BYLAYER
 70
0
  3

 72
65
 73
0
 40
0.0
  0
LTYPE
  5
16
100
AcDbSymbolTableRecord
100
AcDbLinetypeTableRecord
  2
CONTINUOUS
 70
64
  3
Solid line
 72
65
 73
0
 40
0.0
  0
LTYPE
  5
1F5
100
AcDbSymbolTableRecord
100
AcDbLinetypeTableRecord
  2
CENTER
 70
64
  3
____ _ ____ _ ____ _ ____ _ ____ _ ____ _ ____
 72
65
 73
4
 40
0.6
 49
0.375
 74
0
 49
-0.075
 74
0
 49
0.075
 74
0
 49
-0.075
 74
0
  0
LTYPE
  5
1F6
100
AcDbSymbolTableRecord
100
AcDbLinetypeTableRecord
  2
HIDDEN
 70
64
  3
- - - - - - - - - - - - - - - - - - - -
 72
65
 73
2
 40
0.2
 49
0.1
 74
0
 49
-0.1
 74
0
  0
LTYPE
  5
1F7
100
AcDbSymbolTableRecord
100
AcDbLinetypeTableRecord
  2
PHANTOM
 70
64
  3
_____ _ _ _____ _ _ _____ _ _ _____
 72
65
 73
6
 40
0.8
 49
0.45
 74
0
 49
-0.05
 74
0
 49
0.1
 74
0
 49
-0.05
 74
0
 49
0.1
 74
0
 49
-0.05
 74
0
  0
LTYPE
  5
1F8
100
AcDbSymbolTableRecord
100
AcDbLinetypeTableRecord
  2
DOT
 70
64
  3
. . . . . . . . . . . . . . . . . . . .
 72
65
 73
2
 40
0.2
 49
0.1
 74
0
 49
-0.1
 74
0
  0
LTYPE
  5
1F9
100
AcDbSymbolTableRecord
100
AcDbLinetypeTableRecord
  2
DASHED
 70
64
  3
- - - - - - - - - - - - - - - - - - - -
 72
65
 73
2
 40
0.2
 49
0.1
 74
0
 49
-0.1
 74
0
  0
ENDTAB
  0
TABLE
  2
LAYER
  5
2
100
AcDbSymbolTable
 70
36
  0
LAYER
  5
10
100
AcDbSymbolTableRecord
100
AcDbLayerTableRecord
  2
0
 70
0
 62
7
  6
CONTINUOUS
370
-3
390
F
  0
LAYER
  5
1FA
100
AcDbSymbolTableRecord
100
AcDbLayerTableRecord
  2
DEFAULT_1
 70
0
 62
7
  6
CENTER
370
-3
390
F
  0
LAYER
  5
1FB
100
AcDbSymbolTableRecord
100
AcDbLayerTableRecord
  2
DEFAULT_2
 70
0
 62
8
  6
HIDDEN
370
-3
390
F
  0
LAYER
  5
1FC
100
AcDbSymbolTableRecord
100
AcDbLayerTableRecord
  2
DEFAULT_3
 70
0
 62
7
  6
PHANTOM
370
-3
390
F
  0
LAYER
  5
1FD
100
AcDbSymbolTableRecord
100
AcDbLayerTableRecord
  2
01___PRT_ALL_DTM_PLN
 70
0
 62
7
  6
CONTINUOUS
370
-3
390
F
  0
LAYER
  5
1FE
100
AcDbSymbolTableRecord
100
AcDbLayerTableRecord
  2
01___PRT_DEF_DTM_PLN
 70
0
 62
7
  6
CONTINUOUS
370
-3
390
F
  0
LAYER
  5
1FF
100
AcDbSymbolTableRecord
100
AcDbLayerTableRecord
  2
02___PRT_ALL_AXES
 70
0
 62
7
  6
CONTINUOUS
370
-3
390
F
  0
LAYER
  5
200
100
AcDbSymbolTableRecord
100
AcDbLayerTableRecord
  2
03___PRT_ALL_CURVES
 70
0
 62
7
  6
CONTINUOUS
370
-3
390
F
  0
LAYER
  5
201
100
AcDbSymbolTableRecord
100
AcDbLayerTableRecord
  2
04___PRT_ALL_DTM_PNT
 70
0
 62
7
  6
CONTINUOUS
370
-3
390
F
  0
LAYER
  5
202
100
AcDbSymbolTableRecord
100
AcDbLayerTableRecord
  2
05___PRT_ALL_DTM_CSYS
 70
0
 62
7
  6
CONTINUOUS
370
-3
390
F
  0
LAYER
  5
203
100
AcDbSymbolTableRecord
100
AcDbLayerTableRecord
  2
05___PRT_DEF_DTM_CSYS
 70
0
 62
7
  6
CONTINUOUS
370
-3
390
F
  0
LAYER
  5
204
100
AcDbSymbolTableRecord
100
AcDbLayerTableRecord
  2
06___PRT_ALL_SURFS
 70
0
 62
7
  6
CONTINUOUS
370
-3
390
F
  0
LAYER
  5
205
100
AcDbSymbolTableRecord
100
AcDbLayerTableRecord
  2
DATUM_PLANES
 70
0
 62
7
  6
CONTINUOUS
370
-3
390
F
  0
LAYER
  5
206
100
AcDbSymbolTableRecord
100
AcDbLayerTableRecord
  2
PORT_AREAS
 70
0
 62
7
  6
CONTINUOUS
370
-3
390
F
  0
LAYER
  5
207
100
AcDbSymbolTableRecord
100
AcDbLayerTableRecord
  2
SUNNBOMCOSMETIC
 70
0
 62
7
  6
CONTINUOUS
370
-3
390
F
  0
LAYER
  5
208
100
AcDbSymbolTableRecord
100
AcDbLayerTableRecord
  2
SUNNBOMSTAMPING
 70
0
 62
7
  6
CONTINUOUS
370
-3
390
F
  0
LAYER
  5
209
100
AcDbSymbolTableRecord
100
AcDbLayerTableRecord
  2
THREADS
 70
0
 62
7
  6
CONTINUOUS
370
-3
390
F
  0
ENDTAB
  0
TABLE
  2
STYLE
  5
3
100
AcDbSymbolTable
 70
1
  0
STYLE
  5
11
100
AcDbSymbolTableRecord
100
AcDbTextStyleTableRecord
  2
STANDARD
 70
0
 40
0.0
 41
0.8
 50
0.0
 71
0
 42
0.2
  3
txt
  4

  0
STYLE
  5
20A
100
AcDbSymbolTableRecord
100
AcDbTextStyleTableRecord
  2
TEXTSTYLE_1
 70
0
 40
0.0
 41
0.8
 50
0.0
 71
0
 42
0.2
  3
gdt
  4

  0
ENDTAB
  0
TABLE
  2
VIEW
  5
6
100
AcDbSymbolTable
 70
0
  0
ENDTAB
  0
TABLE
  2
UCS
  5
7
100
AcDbSymbolTable
 70
0
  0
ENDTAB
  0
TABLE
  2
APPID
  5
9
100
AcDbSymbolTable
 70
1
  0
APPID
  5
20B
100
AcDbSymbolTableRecord
100
AcDbRegAppTableRecord
  2
ACAD
 70
0
  0
ENDTAB
  0
TABLE
  2
BLOCK_RECORD
  5
1
100
AcDbSymbolTable
 70
0
  0
BLOCK_RECORD
  5
20C
100
AcDbSymbolTableRecord
100
AcDbBlockTableRecord
  2
*Model_Space
  0
BLOCK_RECORD
  5
20D
100
AcDbSymbolTableRecord
100
AcDbBlockTableRecord
  2
*Paper_Space
  0
BLOCK_RECORD
  5
20E
100
AcDbSymbolTableRecord
100
AcDbBlockTableRecord
  2
SUN_FIRST_THIRD_ANGLE_BL0
  0
BLOCK_RECORD
  5
20F
100
AcDbSymbolTableRecord
100
AcDbBlockTableRecord
  2
*T1
  0
BLOCK_RECORD
  5
210
100
AcDbSymbolTableRecord
100
AcDbBlockTableRecord
  2
*T2
  0
BLOCK_RECORD
  5
211
100
AcDbSymbolTableRecord
100
AcDbBlockTableRecord
  2
*T3
  0
ENDTAB
  0
TABLE
  2
DIMSTYLE
  5
A
100
AcDbSymbolTable
 70
1
100
AcDbDimStyleTable
 71
0
  0
DIMSTYLE
105
212
100
AcDbSymbolTableRecord
100
AcDbDimStyleTableRecord
  2
STANDARD
 70
0
  3

  4

 40
1.0
 41
0.1875
 42
0.0625
 43
0.38
 44
0.125
 45
0.0
 46
0.0
 47
0.001
 48
0.001
140
0.1
141
0.09
142
0.0
143
25.4
144
1.0
145
0.0
146
1.0
147
0.09
 71
0.0
 72
0.0
 73
1
 74
1
 75
0
 76
0
 77
0
 78
4
170
0
171
2
172
0
173
0
174
0
175
0
176
0
177
0
178
0
270
2
271
3
272
3
273
2
274
2
275
0
280
0
281
0
282
0
283
1
284
4
285
0
286
0
287
3
288
0
340
11
278
46
  0
ENDTAB
  0
ENDSEC
  0
SECTION
  2
BLOCKS
  0
BLOCK
  5
20
100
AcDbEntity
  8
0
100
AcDbBlockBegin
  2
*Model_Space
 70
0
 10
0.0
 20
0.0
 30
0.0
  3
*Model_Space
  1

  0
ENDBLK
  5
21
100
AcDbEntity
  8
0
100
AcDbBlockEnd
  0
BLOCK
  5
1C
100
AcDbEntity
  8
0
100
AcDbBlockBegin
  2
*Paper_Space
 70
0
 10
0.0
 20
0.0
 30
0.0
  3
*Paper_Space
  1

  0
ENDBLK
  5
1D
100
AcDbEntity
  8
0
100
AcDbBlockEnd
  0
BLOCK
  5
213
100
AcDbEntity
  8
0
100
AcDbBlockBegin
 62
2
  6
CONTINUOUS
  2
SUN_FIRST_THIRD_ANGLE_BL0
 70
64
 10
20.4816717061
 20
1.2289683772
  3
SUN_FIRST_THIRD_ANGLE_BL0
  1

  0
TEXT
  5
214
100
AcDbEntity
  8
0
100
AcDbText
 62
2
  6
CONTINUOUS
 10
19.4750896608
 20
1.4136269581
  7
STANDARD
 40
0.08
  1
FIRST ANGLE
 41
0.8
 72
0
100
AcDbText
  0
TEXT
  5
215
100
AcDbEntity
  8
0
100
AcDbText
 62
2
  6
CONTINUOUS
 10
20.7842537513
 20
1.4047600029
  7
STANDARD
 40
0.08
  1
THIRD ANGLE
 41
0.8
 72
0
100
AcDbText
  0
LINE
  5
216
100
AcDbEntity
  8
0
100
AcDbLine
 62
7
  6
CONTINUOUS
 10
19.4767170086
 20
1.1727031207
 11
19.6334271527
 21
1.1717972817
  0
LINE
  5
217
100
AcDbEntity
  8
0
100
AcDbLine
 62
7
  6
CONTINUOUS
 10
19.6596964832
 20
1.1717972817
 11
19.6950230232
 21
1.171593082
  0
LINE
  5
218
100
AcDbEntity
  8
0
100
AcDbLine
 62
7
  6
CONTINUOUS
 10
19.7194818561
 20
1.1708914427
 11
19.8852396156
 21
1.1699333054
  0
LINE
  5
219
100
AcDbEntity
  8
0
100
AcDbLine
 62
7
  6
CONTINUOUS
 10
19.4758111696
 20
1.2723454088
 11
19.88525039
 21
1.3511534004
  0
LINE
  5
21A
100
AcDbEntity
  8
0
100
AcDbLine
 62
7
  6
CONTINUOUS
 10
19.88525039
 20
1.3511534004
 11
19.8831348489
 21
0.9851647912
  0
LINE
  5
21B
100
AcDbEntity
  8
0
100
AcDbLine
 62
7
  6
CONTINUOUS
 10
19.8831348489
 20
0.9851647912
 11
19.4767170086
 21
1.0658141206
  0
LINE
  5
21C
100
AcDbEntity
  8
0
100
AcDbLine
 62
7
  6
CONTINUOUS
 10
19.4767170086
 20
1.0658141206
 11
19.4779056764
 21
1.2714536432
  0
CIRCLE
  5
21D
100
AcDbEntity
  8
0
100
AcDbCircle
 62
7
  6
CONTINUOUS
 10
20.2068232291
 20
1.1717972817
 40
0.175742101
  0
CIRCLE
  5
21E
100
AcDbEntity
  8
0
100
AcDbCircle
 62
7
  6
CONTINUOUS
 10
20.2068232291
 20
1.1717972817
 40
0.1005522074
  0
LINE
  5
21F
100
AcDbEntity
  8
0
100
AcDbLine
 62
7
  6
CONTINUOUS
 10
20.2077290681
 20
1.3756110529
 11
20.2071171714
 21
1.2379342989
  0
LINE
  5
220
100
AcDbEntity
  8
0
100
AcDbLine
 62
7
  6
CONTINUOUS
 10
20.2077290681
 20
1.2016899681
 11
20.2074674401
 21
1.1428236749
  0
LINE
  5
221
100
AcDbEntity
  8
0
100
AcDbLine
 62
7
  6
CONTINUOUS
 10
20.208634907
 20
1.101141841
 11
20.2080230104
 21
0.963465087
  0
LINE
  5
222
100
AcDbEntity
  8
0
100
AcDbLine
 62
7
  6
CONTINUOUS
 10
20.0066328138
 20
1.1745147986
 11
20.1443095678
 21
1.1739029019
  0
LINE
  5
223
100
AcDbEntity
  8
0
100
AcDbLine
 62
7
  6
CONTINUOUS
 10
20.1832714155
 20
1.1727031207
 11
20.238153505
 21
1.172335442
  0
LINE
  5
224
100
AcDbEntity
  8
0
100
AcDbLine
 62
7
  6
CONTINUOUS
 10
20.2756669918
 20
1.1717972817
 11
20.407916871
 21
1.1712095044
  0
CIRCLE
  5
225
100
AcDbEntity
  8
0
100
AcDbCircle
 62
7
  6
CONTINUOUS
 10
20.7509457401
 20
1.1693297793
 40
0.1722024983
  0
CIRCLE
  5
226
100
AcDbEntity
  8
0
100
AcDbCircle
 62
7
  6
CONTINUOUS
 10
20.7509457401
 20
1.1693297793
 40
0.0985164967
  0
LINE
  5
227
100
AcDbEntity
  8
0
100
AcDbLine
 62
7
  6
CONTINUOUS
 10
20.7169767782
 20
1.170462078
 11
20.7825395137
 21
1.1682766535
  0
LINE
  5
228
100
AcDbEntity
  8
0
100
AcDbLine
 62
7
  6
CONTINUOUS
 10
20.8177513651
 20
1.1693297793
 11
20.947965719
 21
1.1693297793
  0
LINE
  5
229
100
AcDbEntity
  8
0
100
AcDbLine
 62
7
  6
CONTINUOUS
 10
20.6875370113
 20
1.170462078
 11
20.5573226574
 21
1.170462078
  0
LINE
  5
22A
100
AcDbEntity
  8
0
100
AcDbLine
 62
7
  6
CONTINUOUS
 10
20.7486811426
 20
1.1987695462
 11
20.7486811426
 21
1.1432869085
  0
LINE
  5
22B
100
AcDbEntity
  8
0
100
AcDbLine
 62
7
  6
CONTINUOUS
 10
20.7498134414
 20
1.1059210505
 11
20.7498134414
 21
0.9757066966
  0
LINE
  5
22C
100
AcDbEntity
  8
0
100
AcDbLine
 62
7
  6
CONTINUOUS
 10
20.7486811426
 20
1.2338708068
 11
20.7486811426
 21
1.3640851607
  0
LINE
  5
22D
100
AcDbEntity
  8
0
100
AcDbLine
 62
7
  6
CONTINUOUS
 10
21.0702539817
 20
1.2701043662
 11
21.4790138229
 21
1.3448360823
  0
LINE
  5
22E
100
AcDbEntity
  8
0
100
AcDbLine
 62
7
  6
CONTINUOUS
 10
21.4790138229
 20
1.3448360823
 11
21.4790138229
 21
0.9779712941
  0
LINE
  5
22F
100
AcDbEntity
  8
0
100
AcDbLine
 62
7
  6
CONTINUOUS
 10
21.4790138229
 20
0.9779712941
 11
21.069121683
 21
1.0617614
  0
LINE
  5
230
100
AcDbEntity
  8
0
100
AcDbLine
 62
7
  6
CONTINUOUS
 10
21.0702539817
 20
1.2701043662
 11
21.069121683
 21
1.0617614
  0
LINE
  5
231
100
AcDbEntity
  8
0
100
AcDbLine
 62
7
  6
CONTINUOUS
 10
21.4790138229
 20
1.1693297793
 11
21.3159628059
 21
1.1693297793
  0
LINE
  5
232
100
AcDbEntity
  8
0
100
AcDbLine
 62
7
  6
CONTINUOUS
 10
21.2876553377
 20
1.1693297793
 11
21.2502894796
 21
1.1693297793
  0
LINE
  5
233
100
AcDbEntity
  8
0
100
AcDbLine
 62
7
  6
CONTINUOUS
 10
21.2208497126
 20
1.1659328831
 11
21.0713862804
 21
1.1659328831
  0
LINE
  5
234
100
AcDbEntity
  8
0
100
AcDbLine
 62
7
  6
CONTINUOUS
 10
20.4796138713
 20
1.5284908897
 11
20.4766766948
 21
0.9294458646
  0
ENDBLK
  5
235
100
AcDbEntity
  8
0
  6
BYBLOCK
 62
0
100
AcDbBlockEnd
  0
BLOCK
  5
236
100
AcDbEntity
  8
0
100
AcDbBlockBegin
  2
*T1
 70
1
 10
0.0
 20
0.0
  3
*T1
  1

  0
LINE
  5
237
100
AcDbEntity
  8
0
100
AcDbLine
 62
2
  6
CONTINUOUS
 10
9.275
 20
0.0
 11
-0.0
 21
0.0
  0
LINE
  5
238
100
AcDbEntity
  8
0
100
AcDbLine
 62
2
  6
CONTINUOUS
 10
9.275
 20
0.0
 11
9.275
 21
1.25
  0
LINE
  5
239
100
AcDbEntity
  8
0
100
AcDbLine
 62
2
  6
CONTINUOUS
 10
9.275
 20
0.625
 11
-0.0
 21
0.625
  0
LINE
  5
23A
100
AcDbEntity
  8
0
100
AcDbLine
 62
2
  6
CONTINUOUS
 10
9.275
 20
1.25
 11
-0.0
 21
1.25
  0
LINE
  5
23B
100
AcDbEntity
  8
0
100
AcDbLine
 62
2
  6
CONTINUOUS
 10
6.8
 20
0.0
 11
6.8
 21
1.25
  0
LINE
  5
23C
100
AcDbEntity
  8
0
100
AcDbLine
 62
2
  6
CONTINUOUS
 10
6.4
 20
0.0
 11
6.4
 21
0.625
  0
LINE
  5
23D
100
AcDbEntity
  8
0
100
AcDbLine
 62
2
  6
CONTINUOUS
 10
5.9
 20
0.0
 11
5.9
 21
0.625
  0
LINE
  5
23E
100
AcDbEntity
  8
0
100
AcDbLine
 62
2
  6
CONTINUOUS
 10
5.2
 20
0.0
 11
5.2
 21
0.625
  0
LINE
  5
23F
100
AcDbEntity
  8
0
100
AcDbLine
 62
2
  6
CONTINUOUS
 10
4.1
 20
0.0
 11
4.1
 21
1.25
  0
LINE
  5
240
100
AcDbEntity
  8
0
100
AcDbLine
 62
2
  6
CONTINUOUS
 10
-0.0
 20
0.0
 11
-0.0
 21
1.25
  0
MTEXT
  5
241
100
AcDbEntity
  8
0
100
AcDbMText
 62
2
  6
CONTINUOUS
  7
STANDARD
 71
2
 72
1
 10
6.6
 20
0.325
 30
0.0
 11
1.0
 21
0.0
 31
0.0
 44
0.9
  1
2
 40
0.125
 41
0.2
  0
MTEXT
  5
242
100
AcDbEntity
  8
0
100
AcDbMText
 62
2
  6
CONTINUOUS
  7
STANDARD
 71
2
 72
1
 10
6.15
 20
0.325
 30
0.0
 11
1.0
 21
0.0
 31
0.0
 44
0.9
  1
C
 40
0.125
 41
0.2
  0
MTEXT
  5
243
100
AcDbEntity
  8
0
100
AcDbMText
 62
2
  6
CONTINUOUS
  7
STANDARD
 71
2
 72
1
 10
5.55
 20
0.325
 30
0.0
 11
1.0
 21
0.0
 31
0.0
 44
0.9
  1
1.000
 40
0.125
 41
1.0
  0
MTEXT
  5
244
100
AcDbEntity
  8
0
100
AcDbMText
 62
2
  6
CONTINUOUS
  7
STANDARD
 71
2
 72
1
 10
4.65
 20
0.325
 30
0.0
 11
1.0
 21
0.0
 31
0.0
 44
0.9
  1
Jul-22-20
 40
0.125
 41
1.8
  0
MTEXT
  5
245
100
AcDbEntity
  8
0
100
AcDbMText
 62
2
  6
CONTINUOUS
  7
STANDARD
 71
2
 72
1
 10
2.05
 20
0.4625
 30
0.0
 11
1.0
 21
0.0
 31
0.0
 44
0.9
  1
T-10A Subplate ISO 05\PP to T, side ports
 40
0.125
 41
4.2
  0
MTEXT
  5
246
100
AcDbEntity
  8
0
100
AcDbMText
 62
2
  6
CONTINUOUS
  7
STANDARD
 71
1
 72
1
 10
6.45
 20
0.5625
 30
0.0
 11
1.0
 21
0.0
 31
0.0
 44
0.9
  1
SHEET
 40
0.06
 41
0.48
  0
MTEXT
  5
247
100
AcDbEntity
  8
0
100
AcDbMText
 62
2
  6
CONTINUOUS
  7
STANDARD
 71
1
 72
1
 10
5.95
 20
0.5625
 30
0.0
 11
1.0
 21
0.0
 31
0.0
 44
0.9
  1
DWG SIZE
 40
0.06
 41
0.768
  0
MTEXT
  5
248
100
AcDbEntity
  8
0
100
AcDbMText
 62
2
  6
CONTINUOUS
  7
STANDARD
 71
1
 72
1
 10
5.25
 20
0.5625
 30
0.0
 11
1.0
 21
0.0
 31
0.0
 44
0.9
  1
SCALE
 40
0.06
 41
0.48
  0
MTEXT
  5
249
100
AcDbEntity
  8
0
100
AcDbMText
 62
2
  6
CONTINUOUS
  7
STANDARD
 71
1
 72
1
 10
4.15
 20
0.5625
 30
0.0
 11
1.0
 21
0.0
 31
0.0
 44
0.9
  1
DATE
 40
0.06
 41
0.384
  0
MTEXT
  5
24A
100
AcDbEntity
  8
0
100
AcDbMText
 62
2
  6
CONTINUOUS
  7
STANDARD
 71
1
 72
1
 10
0.05
 20
0.5625
 30
0.0
 11
1.0
 21
0.0
 31
0.0
 44
0.9
  1
DESCRIPTION
 40
0.06
 41
1.056
  0
MTEXT
  5
24B
100
AcDbEntity
  8
0
100
AcDbMText
 62
2
  6
CONTINUOUS
  7
STANDARD
 71
2
 72
1
 10
5.45
 20
1.0375
 30
0.0
 11
1.0
 21
0.0
 31
0.0
 44
0.9
  1
ALL DIMENSIONS IN INCH\PVIEWS ARE THIRD ANGLE
 40
0.12
 41
4.224
  0
MTEXT
  5
24C
100
AcDbEntity
  8
0
100
AcDbMText
 62
2
  6
CONTINUOUS
  7
STANDARD
 71
2
 72
1
 10
2.05
 20
0.95
 30
0.0
 11
1.0
 21
0.0
 31
0.0
 44
0.9
  1
FSV
 40
0.125
 41
0.6
  0
MTEXT
  5
24D
100
AcDbEntity
  8
0
100
AcDbMText
 62
2
  6
CONTINUOUS
  7
STANDARD
 71
1
 72
1
 10
0.05
 20
1.1875
 30
0.0
 11
1.0
 21
0.0
 31
0.0
 44
0.9
  1
MODEL
 40
0.06
 41
0.48
  0
ENDBLK
  5
24E
100
AcDbEntity
  8
0
  6
BYBLOCK
 62
0
100
AcDbBlockEnd
  0
BLOCK
  5
24F
100
AcDbEntity
  8
0
100
AcDbBlockBegin
  2
*T2
 70
1
 10
0.0
 20
0.0
  3
*T2
  1

  0
LINE
  5
250
100
AcDbEntity
  8
0
100
AcDbLine
 62
2
  6
CONTINUOUS
 10
0.0
 20
0.0
 11
9.055
 21
0.0
  0
LINE
  5
251
100
AcDbEntity
  8
0
100
AcDbLine
 62
2
  6
CONTINUOUS
 10
0.0
 20
0.0
 11
0.0
 21
-2.594
  0
LINE
  5
252
100
AcDbEntity
  8
0
100
AcDbLine
 62
2
  6
CONTINUOUS
 10
0.0
 20
-0.344
 11
9.055
 21
-0.344
  0
LINE
  5
253
100
AcDbEntity
  8
0
100
AcDbLine
 62
2
  6
CONTINUOUS
 10
0.0
 20
-0.594
 11
9.055
 21
-0.594
  0
LINE
  5
254
100
AcDbEntity
  8
0
100
AcDbLine
 62
2
  6
CONTINUOUS
 10
0.0
 20
-0.844
 11
9.055
 21
-0.844
  0
LINE
  5
255
100
AcDbEntity
  8
0
100
AcDbLine
 62
2
  6
CONTINUOUS
 10
0.0
 20
-1.094
 11
9.055
 21
-1.094
  0
LINE
  5
256
100
AcDbEntity
  8
0
100
AcDbLine
 62
2
  6
CONTINUOUS
 10
0.0
 20
-1.344
 11
9.055
 21
-1.344
  0
LINE
  5
257
100
AcDbEntity
  8
0
100
AcDbLine
 62
2
  6
CONTINUOUS
 10
0.0
 20
-1.594
 11
9.055
 21
-1.594
  0
LINE
  5
258
100
AcDbEntity
  8
0
100
AcDbLine
 62
2
  6
CONTINUOUS
 10
0.0
 20
-1.844
 11
9.055
 21
-1.844
  0
LINE
  5
259
100
AcDbEntity
  8
0
100
AcDbLine
 62
2
  6
CONTINUOUS
 10
0.0
 20
-2.094
 11
9.055
 21
-2.094
  0
LINE
  5
25A
100
AcDbEntity
  8
0
100
AcDbLine
 62
2
  6
CONTINUOUS
 10
0.0
 20
-2.344
 11
9.055
 21
-2.344
  0
LINE
  5
25B
100
AcDbEntity
  8
0
100
AcDbLine
 62
2
  6
CONTINUOUS
 10
0.0
 20
-2.594
 11
9.055
 21
-2.594
  0
LINE
  5
25C
100
AcDbEntity
  8
0
100
AcDbLine
 62
2
  6
CONTINUOUS
 10
3.055
 20
0.0
 11
3.055
 21
-2.594
  0
LINE
  5
25D
100
AcDbEntity
  8
0
100
AcDbLine
 62
2
  6
CONTINUOUS
 10
9.055
 20
0.0
 11
9.055
 21
-2.594
  0
MTEXT
  5
25E
100
AcDbEntity
  8
0
100
AcDbMText
 62
2
  6
CONTINUOUS
  7
STANDARD
 71
2
 72
1
 10
1.5275
 20
-0.0995
 30
0.0
 11
1.0
 21
0.0
 31
0.0
 44
0.9
  1
Technical Data
 40
0.145
 41
3.248
  0
MTEXT
  5
25F
100
AcDbEntity
  8
0
100
AcDbMText
 62
2
  6
CONTINUOUS
  7
STANDARD
 71
2
 72
1
 10
4.555
 20
-0.0995
 30
0.0
 11
1.0
 21
0.0
 31
0.0
 44
0.9
  1
U.S. Units
 40
0.145
 41
2.32
  0
MTEXT
  5
260
100
AcDbEntity
  8
0
100
AcDbMText
 62
2
  6
CONTINUOUS
  7
STANDARD
 71
2
 72
1
 10
7.555
 20
-0.0995
 30
0.0
 11
1.0
 21
0.0
 31
0.0
 44
0.9
  1
Metric Units
 40
0.145
 41
2.784
  0
MTEXT
  5
261
100
AcDbEntity
  8
0
100
AcDbMText
 62
2
  6
CONTINUOUS
  7
STANDARD
 71
2
 72
1
 10
1.5275
 20
-0.4065
 30
0.0
 11
1.0
 21
0.0
 31
0.0
 44
0.9
  1
Cavity
 40
0.125
 41
1.2
  0
MTEXT
  5
262
100
AcDbEntity
  8
0
100
AcDbMText
 62
2
  6
CONTINUOUS
  7
STANDARD
 71
2
 72
1
 10
6.055
 20
-0.4065
 30
0.0
 11
1.0
 21
0.0
 31
0.0
 44
0.9
  1
T-10A
 40
0.125
 41
1.0
  0
MTEXT
  5
263
100
AcDbEntity
  8
0
100
AcDbMText
 62
2
  6
CONTINUOUS
  7
STANDARD
 71
2
 72
1
 10
1.5275
 20
-0.6565
 30
0.0
 11
1.0
 21
0.0
 31
0.0
 44
0.9
  1
Body Features
 40
0.125
 41
2.6
  0
MTEXT
  5
264
100
AcDbEntity
  8
0
100
AcDbMText
 62
2
  6
CONTINUOUS
  7
STANDARD
 71
2
 72
1
 10
6.055
 20
-0.6565
 30
0.0
 11
1.0
 21
0.0
 31
0.0
 44
0.9
  1
P to T, side ports
 40
0.125
 41
3.6
  0
MTEXT
  5
265
100
AcDbEntity
  8
0
100
AcDbMText
 62
2
  6
CONTINUOUS
  7
STANDARD
 71
2
 72
1
 10
1.5275
 20
-0.9065
 30
0.0
 11
1.0
 21
0.0
 31
0.0
 44
0.9
  1
Body Type
 40
0.125
 41
1.8
  0
MTEXT
  5
266
100
AcDbEntity
  8
0
100
AcDbMText
 62
2
  6
CONTINUOUS
  7
STANDARD
 71
2
 72
1
 10
6.055
 20
-0.9065
 30
0.0
 11
1.0
 21
0.0
 31
0.0
 44
0.9
  1
Subplate
 40
0.125
 41
1.6
  0
MTEXT
  5
267
100
AcDbEntity
  8
0
100
AcDbMText
 62
2
  6
CONTINUOUS
  7
STANDARD
 71
2
 72
1
 10
1.5275
 20
-1.1565
 30
0.0
 11
1.0
 21
0.0
 31
0.0
 44
0.9
  1
Interface
 40
0.125
 41
1.8
  0
MTEXT
  5
268
100
AcDbEntity
  8
0
100
AcDbMText
 62
2
  6
CONTINUOUS
  7
STANDARD
 71
2
 72
1
 10
6.055
 20
-1.1565
 30
0.0
 11
1.0
 21
0.0
 31
0.0
 44
0.9
  1
ISO 05
 40
0.125
 41
1.2
  0
MTEXT
  5
269
100
AcDbEntity
  8
0
100
AcDbMText
 62
2
  6
CONTINUOUS
  7
STANDARD
 71
2
 72
1
 10
1.5275
 20
-1.4065
 30
0.0
 11
1.0
 21
0.0
 31
0.0
 44
0.9
  1
Open Cavity Quantity
 40
0.125
 41
4.0
  0
MTEXT
  5
26A
100
AcDbEntity
  8
0
100
AcDbMText
 62
2
  6
CONTINUOUS
  7
STANDARD
 71
2
 72
1
 10
6.055
 20
-1.4065
 30
0.0
 11
1.0
 21
0.0
 31
0.0
 44
0.9
  1
1
 40
0.125
 41
0.2
  0
MTEXT
  5
26B
100
AcDbEntity
  8
0
100
AcDbMText
 62
2
  6
CONTINUOUS
  7
STANDARD
 71
2
 72
1
 10
1.5275
 20
-1.6565
 30
0.0
 11
1.0
 21
0.0
 31
0.0
 44
0.9
  1
Weight
 40
0.125
 41
1.2
  0
MTEXT
  5
26C
100
AcDbEntity
  8
0
100
AcDbMText
 62
2
  6
CONTINUOUS
  7
STANDARD
 71
2
 72
1
 10
4.555
 20
-1.6565
 30
0.0
 11
1.0
 21
0.0
 31
0.0
 44
0.9
  1
2.826 lb.
 40
0.125
 41
1.8
  0
MTEXT
  5
26D
100
AcDbEntity
  8
0
100
AcDbMText
 62
2
  6
CONTINUOUS
  7
STANDARD
 71
2
 72
1
 10
7.555
 20
-1.6565
 30
0.0
 11
1.0
 21
0.0
 31
0.0
 44
0.9
  1
1,282 kg.
 40
0.125
 41
1.8
  0
MTEXT
  5
26E
100
AcDbEntity
  8
0
100
AcDbMText
 62
2
  6
CONTINUOUS
  7
STANDARD
 71
2
 72
1
 10
1.5275
 20
-1.9065
 30
0.0
 11
1.0
 21
0.0
 31
0.0
 44
0.9
  1
Mounting Hole Diameter
 40
0.125
 41
4.4
  0
MTEXT
  5
26F
100
AcDbEntity
  8
0
100
AcDbMText
 62
2
  6
CONTINUOUS
  7
STANDARD
 71
2
 72
1
 10
4.555
 20
-1.9065
 30
0.0
 11
1.0
 21
0.0
 31
0.0
 44
0.9
  1
.44 in.
 40
0.125
 41
1.4
  0
MTEXT
  5
270
100
AcDbEntity
  8
0
100
AcDbMText
 62
2
  6
CONTINUOUS
  7
STANDARD
 71
2
 72
1
 10
7.555
 20
-1.9065
 30
0.0
 11
1.0
 21
0.0
 31
0.0
 44
0.9
  1
11,1 mm
 40
0.125
 41
1.4
  0
MTEXT
  5
271
100
AcDbEntity
  8
0
100
AcDbMText
 62
2
  6
CONTINUOUS
  7
STANDARD
 71
2
 72
1
 10
1.5275
 20
-2.1565
 30
0.0
 11
1.0
 21
0.0
 31
0.0
 44
0.9
  1
Mounting Hole Depth
 40
0.125
 41
3.8
  0
MTEXT
  5
272
100
AcDbEntity
  8
0
100
AcDbMText
 62
2
  6
CONTINUOUS
  7
STANDARD
 71
2
 72
1
 10
6.055
 20
-2.1565
 30
0.0
 11
1.0
 21
0.0
 31
0.0
 44
0.9
  1
Through
 40
0.125
 41
1.4
  0
MTEXT
  5
273
100
AcDbEntity
  8
0
100
AcDbMText
 62
2
  6
CONTINUOUS
  7
STANDARD
 71
2
 72
1
 10
1.5275
 20
-2.4065
 30
0.0
 11
1.0
 21
0.0
 31
0.0
 44
0.9
  1
Mounting Hole Quantity
 40
0.125
 41
4.4
  0
MTEXT
  5
274
100
AcDbEntity
  8
0
100
AcDbMText
 62
2
  6
CONTINUOUS
  7
STANDARD
 71
2
 72
1
 10
6.055
 20
-2.4065
 30
0.0
 11
1.0
 21
0.0
 31
0.0
 44
0.9
  1
4
 40
0.125
 41
0.2
  0
ENDBLK
  5
275
100
AcDbEntity
  8
0
  6
BYBLOCK
 62
0
100
AcDbBlockEnd
  0
BLOCK
  5
276
100
AcDbEntity
  8
0
100
AcDbBlockBegin
  2
*T3
 70
1
 10
0.0
 20
0.0
  3
*T3
  1

  0
LINE
  5
277
100
AcDbEntity
  8
0
100
AcDbLine
 62
2
  6
CONTINUOUS
 10
0.0
 20
0.0
 11
4.6
 21
0.0
  0
LINE
  5
278
100
AcDbEntity
  8
0
100
AcDbLine
 62
2
  6
CONTINUOUS
 10
0.0
 20
0.0
 11
0.0
 21
-0.93775
  0
LINE
  5
279
100
AcDbEntity
  8
0
100
AcDbLine
 62
2
  6
CONTINUOUS
 10
0.0
 20
-0.34375
 11
4.6
 21
-0.34375
  0
LINE
  5
27A
100
AcDbEntity
  8
0
100
AcDbLine
 62
2
  6
CONTINUOUS
 10
0.0
 20
-0.68775
 11
4.6
 21
-0.68775
  0
LINE
  5
27B
100
AcDbEntity
  8
0
100
AcDbLine
 62
2
  6
CONTINUOUS
 10
0.0
 20
-0.93775
 11
4.6
 21
-0.93775
  0
LINE
  5
27C
100
AcDbEntity
  8
0
100
AcDbLine
 62
2
  6
CONTINUOUS
 10
1.3
 20
-0.34375
 11
1.3
 21
-0.93775
  0
LINE
  5
27D
100
AcDbEntity
  8
0
100
AcDbLine
 62
2
  6
CONTINUOUS
 10
3.3
 20
-0.34375
 11
3.3
 21
-0.93775
  0
LINE
  5
27E
100
AcDbEntity
  8
0
100
AcDbLine
 62
2
  6
CONTINUOUS
 10
4.6
 20
0.0
 11
4.6
 21
-0.93775
  0
MTEXT
  5
27F
100
AcDbEntity
  8
0
100
AcDbMText
 62
2
  6
CONTINUOUS
  7
STANDARD
 71
2
 72
1
 10
2.3
 20
-0.099375
 30
0.0
 11
1.0
 21
0.0
 31
0.0
 44
0.9
  1
Port Headings
 40
0.145
 41
3.016
  0
MTEXT
  5
280
100
AcDbEntity
  8
0
100
AcDbMText
 62
2
  6
CONTINUOUS
  7
STANDARD
 71
2
 72
1
 10
0.65
 20
-0.44325
 30
0.0
 11
1.0
 21
0.0
 31
0.0
 44
0.9
  1
Product
 40
0.145
 41
1.624
  0
MTEXT
  5
281
100
AcDbEntity
  8
0
100
AcDbMText
 62
2
  6
CONTINUOUS
  7
STANDARD
 71
2
 72
1
 10
2.3
 20
-0.44325
 30
0.0
 11
1.0
 21
0.0
 31
0.0
 44
0.9
  1
Port
 40
0.145
 41
0.928
  0
MTEXT
  5
282
100
AcDbEntity
  8
0
100
AcDbMText
 62
2
  6
CONTINUOUS
  7
STANDARD
 71
2
 72
1
 10
3.95
 20
-0.44325
 30
0.0
 11
1.0
 21
0.0
 31
0.0
 44
0.9
  1
Size
 40
0.145
 41
0.928
  0
MTEXT
  5
283
100
AcDbEntity
  8
0
100
AcDbMText
 62
2
  6
CONTINUOUS
  7
STANDARD
 71
2
 72
1
 10
0.65
 20
-0.75025
 30
0.0
 11
1.0
 21
0.0
 31
0.0
 44
0.9
  1
FSV
 40
0.125
 41
0.6
  0
MTEXT
  5
284
100
AcDbEntity
  8
0
100
AcDbMText
 62
2
  6
CONTINUOUS
  7
STANDARD
 71
2
 72
1
 10
2.3
 20
-0.75025
 30
0.0
 11
1.0
 21
0.0
 31
0.0
 44
0.9
  1
Ports A, B, P, T
 40
0.125
 41
3.2
  0
MTEXT
  5
285
100
AcDbEntity
  8
0
100
AcDbMText
 62
2
  6
CONTINUOUS
  7
STANDARD
 71
2
 72
1
 10
3.95
 20
-0.75025
 30
0.0
 11
1.0
 21
0.0
 31
0.0
 44
0.9
  1
1/2" BSPP
 40
0.125
 41
1.8
  0
ENDBLK
  5
286
100
AcDbEntity
  8
0
  6
BYBLOCK
 62
0
100
AcDbBlockEnd
  0
ENDSEC
  0
SECTION
  2
ENTITIES
  0
IMAGE
  5
287
100
AcDbEntity
  8
0
100
AcDbRasterImage
 62
7
  6
CONTINUOUS
 10
19.2297077316
 20
0.3094318264
 30
0.0
 11
0.0066666667
 21
0.0
 31
0.0
 12
0.0
 22
0.0066666667
 32
0.0
 13
369.0
 23
92.0
340
       3A7
 70
9
280
0
281
50
282
50
283
0
360
       3A1
 71
1
 91
2
 14
-0.5
 24
-0.5
 14
368.5
 24
91.5
  0
INSERT
  5
288
100
AcDbEntity
  8
0
100
AcDbBlockReference
 62
2
  6
CONTINUOUS
  2
SUN_FIRST_THIRD_ANGLE_BL0
 10
20.4816717061
 20
1.2289683772
  0
ACAD_TABLE
  5
289
100
AcDbEntity
  8
0
 62
2
  6
CONTINUOUS
100
AcDbBlockReference
  2
*T1
 10
12.42375
 20
0.30125
 30
0.0
100
AcDbTable
342
       3A9
343
20F
 11
1.0
 21
0.0
 31
0.0
 90
6
 91
4
 92
6
 93
20
 94
0
 95
0
 96
0
 70
1
 41
0.0
141
0.525
141
0.1
141
0.525
141
0.1
142
4.1
142
1.1
142
0.7
142
0.5
142
0.4
142
2.475
171
1
172
0
173
0
174
0
175
1
176
1
 91
33
178
0
145
0.0
301
CELL_VALUE
 90
4
  1
T-10A Subplate ISO 05\PP to T, side ports
304
ACVALUE_END
170
2
140
0.125
171
1
172
0
173
0
174
0
175
1
176
1
 91
33
178
0
145
0.0
301
CELL_VALUE
 90
4
  1
Jul-22-20
304
ACVALUE_END
170
5
140
0.125
171
1
172
0
173
0
174
0
175
1
176
1
 91
33
178
0
145
0.0
301
CELL_VALUE
 90
4
  1
1.000
304
ACVALUE_END
170
5
140
0.125
171
1
172
0
173
0
174
0
175
1
176
1
 91
33
178
0
145
0.0
301
CELL_VALUE
 90
4
  1
C
304
ACVALUE_END
170
5
140
0.125
171
1
172
0
173
0
174
0
175
1
176
1
 91
33
178
0
145
0.0
301
CELL_VALUE
 90
4
  1
2
304
ACVALUE_END
170
5
140
0.125
171
1
172
0
173
0
174
0
175
1
176
1
 91
33
178
0
145
0.0
301
CELL_VALUE
 90
4
  1
 
304
ACVALUE_END
170
1
140
0.125
171
1
172
0
173
0
174
0
175
1
176
1
 91
33
178
0
145
0.0
301
CELL_VALUE
 90
4
  1
DESCRIPTION
304
ACVALUE_END
170
1
140
0.06
171
1
172
0
173
0
174
0
175
1
176
1
 91
33
178
0
145
0.0
301
CELL_VALUE
 90
4
  1
DATE
304
ACVALUE_END
170
1
140
0.06
171
1
172
0
173
0
174
0
175
1
176
1
 91
33
178
0
145
0.0
301
CELL_VALUE
 90
4
  1
SCALE
304
ACVALUE_END
170
1
140
0.06
171
1
172
0
173
0
174
0
175
1
176
1
 91
33
178
0
145
0.0
301
CELL_VALUE
 90
4
  1
DWG SIZE
304
ACVALUE_END
170
1
140
0.06
171
1
172
0
173
0
174
0
175
1
176
1
 91
33
178
0
145
0.0
301
CELL_VALUE
 90
4
  1
SHEET
304
ACVALUE_END
170
1
140
0.06
171
1
172
0
173
0
174
0
175
1
176
1
 91
33
178
0
145
0.0
301
CELL_VALUE
 90
4
  1
 
304
ACVALUE_END
170
1
140
0.125
171
1
172
0
173
0
174
0
175
1
176
1
 91
33
178
0
145
0.0
301
CELL_VALUE
 90
4
  1
FSV
304
ACVALUE_END
170
5
140
0.125
171
1
172
0
173
0
174
0
175
4
176
1
 91
33
178
0
145
0.0
301
CELL_VALUE
 90
4
  1
ALL DIMENSIONS IN INCH\PVIEWS ARE THIRD ANGLE
304
ACVALUE_END
170
5
140
0.12
171
1
172
0
173
1
174
0
175
1
176
1
 91
1
178
0
145
0.0
170
1
171
1
172
0
173
1
174
0
175
1
176
1
 91
1
178
0
145
0.0
170
1
171
1
172
0
173
1
174
0
175
1
176
1
 91
1
178
0
145
0.0
170
5
171
1
172
0
173
0
174
0
175
1
176
1
 91
33
178
0
145
0.0
301
CELL_VALUE
 90
4
  1
 
304
ACVALUE_END
170
1
140
0.125
171
1
172
0
173
0
174
0
175
1
176
1
 91
33
178
0
145
0.0
301
CELL_VALUE
 90
4
  1
MODEL
304
ACVALUE_END
170
1
140
0.06
171
1
172
0
173
0
174
0
175
1
176
1
 91
33
178
0
145
0.0
301
CELL_VALUE
 90
4
  1
 
304
ACVALUE_END
170
1
140
0.125
171
1
172
0
173
0
174
0
175
1
176
1
 91
33
178
0
145
0.0
301
CELL_VALUE
 90
4
  1
 
304
ACVALUE_END
170
1
140
0.125
171
1
172
0
173
0
174
0
175
1
176
1
 91
33
178
0
145
0.0
301
CELL_VALUE
 90
4
  1
 
304
ACVALUE_END
170
1
140
0.125
171
1
172
0
173
0
174
0
175
1
176
1
 91
33
178
0
145
0.0
301
CELL_VALUE
 90
4
  1
 
304
ACVALUE_END
170
1
140
0.125
171
1
172
0
173
0
174
0
175
1
176
1
 91
33
178
0
145
0.0
301
CELL_VALUE
 90
4
  1
 
304
ACVALUE_END
170
1
140
0.125
  0
ACAD_TABLE
  5
28A
100
AcDbEntity
  8
0
 62
2
  6
CONTINUOUS
100
AcDbBlockReference
  2
*T2
 10
12.4237499994
 20
16.47875
 30
0.0
100
AcDbTable
342
       3A8
343
210
 11
1.0
 21
0.0
 31
0.0
 90
22
 91
10
 92
3
 93
16
 94
0
 95
0
 96
0
 41
0.028
141
0.344
141
0.25
141
0.25
141
0.25
141
0.25
141
0.25
141
0.25
141
0.25
141
0.25
141
0.25
142
3.055
142
3.0
142
3.0
171
1
172
0
173
0
174
0
175
1
176
1
 91
33
178
0
145
0.0
301
CELL_VALUE
 90
4
  1
Technical Data
304
ACVALUE_END
170
5
140
0.145
171
1
172
0
173
0
174
0
175
1
176
1
 91
33
178
0
145
0.0
301
CELL_VALUE
 90
4
  1
U.S. Units
304
ACVALUE_END
170
5
140
0.145
171
1
172
0
173
0
174
0
175
1
176
1
 91
33
178
0
145
0.0
301
CELL_VALUE
 90
4
  1
Metric Units
304
ACVALUE_END
170
5
140
0.145
171
1
172
0
173
0
174
0
175
1
176
1
 91
33
178
0
145
0.0
301
CELL_VALUE
 90
4
  1
Cavity
304
ACVALUE_END
170
5
140
0.125
171
1
172
0
173
0
174
0
175
2
176
1
 91
33
178
0
145
0.0
301
CELL_VALUE
 90
4
  1
T-10A
304
ACVALUE_END
170
5
140
0.125
171
1
172
0
173
1
174
0
175
1
176
1
 91
1
178
0
145
0.0
170
1
171
1
172
0
173
0
174
0
175
1
176
1
 91
33
178
0
145
0.0
301
CELL_VALUE
 90
4
  1
Body Features
304
ACVALUE_END
170
5
140
0.125
171
1
172
0
173
0
174
0
175
2
176
1
 91
33
178
0
145
0.0
301
CELL_VALUE
 90
4
  1
P to T, side ports
304
ACVALUE_END
170
5
140
0.125
171
1
172
0
173
1
174
0
175
1
176
1
 91
1
178
0
145
0.0
170
1
171
1
172
0
173
0
174
0
175
1
176
1
 91
33
178
0
145
0.0
301
CELL_VALUE
 90
4
  1
Body Type
304
ACVALUE_END
170
5
140
0.125
171
1
172
0
173
0
174
0
175
2
176
1
 91
33
178
0
145
0.0
301
CELL_VALUE
 90
4
  1
Subplate
304
ACVALUE_END
170
5
140
0.125
171
1
172
0
173
1
174
0
175
1
176
1
 91
1
178
0
145
0.0
170
1
171
1
172
0
173
0
174
0
175
1
176
1
 91
33
178
0
145
0.0
301
CELL_VALUE
 90
4
  1
Interface
304
ACVALUE_END
170
5
140
0.125
171
1
172
0
173
0
174
0
175
2
176
1
 91
33
178
0
145
0.0
301
CELL_VALUE
 90
4
  1
ISO 05
304
ACVALUE_END
170
5
140
0.125
171
1
172
0
173
1
174
0
175
1
176
1
 91
1
178
0
145
0.0
170
1
171
1
172
0
173
0
174
0
175
1
176
1
 91
33
178
0
145
0.0
301
CELL_VALUE
 90
4
  1
Open Cavity Quantity
304
ACVALUE_END
170
5
140
0.125
171
1
172
0
173
0
174
0
175
2
176
1
 91
33
178
0
145
0.0
301
CELL_VALUE
 90
4
  1
1
304
ACVALUE_END
170
5
140
0.125
171
1
172
0
173
1
174
0
175
1
176
1
 91
1
178
0
145
0.0
170
1
171
1
172
0
173
0
174
0
175
1
176
1
 91
33
178
0
145
0.0
301
CELL_VALUE
 90
4
  1
Weight
304
ACVALUE_END
170
5
140
0.125
171
1
172
0
173
0
174
0
175
1
176
1
 91
33
178
0
145
0.0
301
CELL_VALUE
 90
4
  1
2.826 lb.
304
ACVALUE_END
170
5
140
0.125
171
1
172
0
173
0
174
0
175
1
176
1
 91
33
178
0
145
0.0
301
CELL_VALUE
 90
4
  1
1,282 kg.
304
ACVALUE_END
170
5
140
0.125
171
1
172
0
173
0
174
0
175
1
176
1
 91
33
178
0
145
0.0
301
CELL_VALUE
 90
4
  1
Mounting Hole Diameter
304
ACVALUE_END
170
5
140
0.125
171
1
172
0
173
0
174
0
175
1
176
1
 91
33
178
0
145
0.0
301
CELL_VALUE
 90
4
  1
.44 in.
304
ACVALUE_END
170
5
140
0.125
171
1
172
0
173
0
174
0
175
1
176
1
 91
33
178
0
145
0.0
301
CELL_VALUE
 90
4
  1
11,1 mm
304
ACVALUE_END
170
5
140
0.125
171
1
172
0
173
0
174
0
175
1
176
1
 91
33
178
0
145
0.0
301
CELL_VALUE
 90
4
  1
Mounting Hole Depth
304
ACVALUE_END
170
5
140
0.125
171
1
172
0
173
0
174
0
175
2
176
1
 91
33
178
0
145
0.0
301
CELL_VALUE
 90
4
  1
Through
304
ACVALUE_END
170
5
140
0.125
171
1
172
0
173
1
174
0
175
1
176
1
 91
1
178
0
145
0.0
170
1
171
1
172
0
173
0
174
0
175
1
176
1
 91
33
178
0
145
0.0
301
CELL_VALUE
 90
4
  1
Mounting Hole Quantity
304
ACVALUE_END
170
5
140
0.125
171
1
172
0
173
0
174
0
175
2
176
1
 91
33
178
0
145
0.0
301
CELL_VALUE
 90
4
  1
4
304
ACVALUE_END
170
5
140
0.125
171
1
172
0
173
1
174
0
175
1
176
1
 91
1
178
0
145
0.0
170
1
  0
ACAD_TABLE
  5
28B
100
AcDbEntity
  8
0
 62
2
  6
CONTINUOUS
100
AcDbBlockReference
  2
*T3
 10
0.52125
 20
1.459
 30
0.0
100
AcDbTable
342
       3A8
343
211
 11
1.0
 21
0.0
 31
0.0
 90
22
 91
3
 92
3
 93
16
 94
0
 95
0
 96
0
 41
0.05
141
0.34375
141
0.344
141
0.25
142
1.3
142
2.0
142
1.3
171
1
172
0
173
0
174
0
175
3
176
1
 91
33
178
0
145
0.0
301
CELL_VALUE
 90
4
  1
Port Headings
304
ACVALUE_END
170
5
140
0.145
171
1
172
0
173
1
174
0
175
1
176
1
 91
1
178
0
145
0.0
170
1
171
1
172
0
173
1
174
0
175
1
176
1
 91
1
178
0
145
0.0
170
1
171
1
172
0
173
0
174
0
175
1
176
1
 91
33
178
0
145
0.0
301
CELL_VALUE
 90
4
  1
Product
304
ACVALUE_END
170
5
140
0.145
171
1
172
0
173
0
174
0
175
1
176
1
 91
33
178
0
145
0.0
301
CELL_VALUE
 90
4
  1
Port
304
ACVALUE_END
170
5
140
0.145
171
1
172
0
173
0
174
0
175
1
176
1
 91
33
178
0
145
0.0
301
CELL_VALUE
 90
4
  1
Size
304
ACVALUE_END
170
5
140
0.145
171
1
172
0
173
0
174
0
175
1
176
1
 91
33
178
0
145
0.0
301
CELL_VALUE
 90
4
  1
FSV
304
ACVALUE_END
170
5
140
0.125
171
1
172
0
173
0
174
0
175
1
176
1
 91
33
178
0
145
0.0
301
CELL_VALUE
 90
4
  1
Ports A, B, P, T
304
ACVALUE_END
170
5
140
0.125
171
1
172
0
173
0
174
0
175
1
176
1
 91
33
178
0
145
0.0
301
CELL_VALUE
 90
4
  1
1/2" BSPP
304
ACVALUE_END
170
5
140
0.125
  0
MTEXT
  5
28C
100
AcDbEntity
  8
0
100
AcDbMText
 62
2
  6
CONTINUOUS
  7
STANDARD
 71
1
 72
1
 10
0.52125
 20
5.75995
 30
0.0
 11
1.0
 21
0.0
 31
0.0
 44
0.6
  3
Notes\P \P1. Important: Carefully consider\P   the maximum system pressure. The\P   pressure rating of the manifold is\P   dependent on the manifold material,\P   with the port type/size a secondary\P   consideration. Manifolds\P   constructed of alu
  1
minum are not\P   rated for pressures higher than\P   3000 psi (210 bar), regardless of\P   the port type/size specified.
 40
0.1
 41
3.04
  0
LINE
  5
28D
100
AcDbEntity
  8
0
100
AcDbLine
 62
7
  6
CONTINUOUS
 10
0.30125
 20
0.30125
 11
0.30125
 21
16.69875
  0
LINE
  5
28E
100
AcDbEntity
  8
0
100
AcDbLine
 62
7
  6
CONTINUOUS
 10
0.30125
 20
0.30125
 11
21.69875
 21
0.30125
  0
LINE
  5
28F
100
AcDbEntity
  8
0
100
AcDbLine
 62
7
  6
CONTINUOUS
 10
0.30125
 20
16.69875
 11
21.69875
 21
16.69875
  0
LINE
  5
290
100
AcDbEntity
  8
0
100
AcDbLine
 62
7
  6
CONTINUOUS
 10
21.69875
 20
0.30125
 11
21.69875
 21
16.69875
  0
LINE
  5
291
100
AcDbEntity
  8
0
100
AcDbLine
 62
7
  6
CONTINUOUS
 10
8.8173527899
 20
10.5650578031
 11
9.318943676
 21
11.0495574229
  0
LINE
  5
292
100
AcDbEntity
  8
0
100
AcDbLine
 62
7
  6
CONTINUOUS
 10
10.1606144853
 20
10.8310490793
 11
10.1138431701
 21
10.7858714553
  0
LINE
  5
293
100
AcDbEntity
  8
02___PRT_ALL_AXES
100
AcDbLine
 62
7
  6
CONTINUOUS
 10
9.9863599485
 20
10.7743195548
 11
10.0316413047
 21
10.8164586102
  0
LINE
  5
294
100
AcDbEntity
  8
0
100
AcDbLine
 62
7
  6
CONTINUOUS
 10
12.681056324
 20
5.9504425771
 11
8.8173527899
 21
6.2183913273
  0
LINE
  5
295
100
AcDbEntity
  8
0
100
AcDbLine
 62
7
  6
CONTINUOUS
 10
8.8173527899
 20
10.5650578031
 11
8.8173527899
 21
6.2183913273
  0
LINE
  5
296
100
AcDbEntity
  8
0
100
AcDbLine
 62
7
  6
CONTINUOUS
 10
10.4161779717
 20
10.7649044656
 11
10.4629492869
 21
10.8100820896
  0
LINE
  5
297
100
AcDbEntity
  8
0
100
AcDbLine
 62
4
  6
CONTINUOUS
 10
10.7153971972
 20
6.3185835286
 11
10.758863861
 21
6.3155691053
  0
LINE
  5
298
100
AcDbEntity
  8
0
100
AcDbLine
 62
4
  6
CONTINUOUS
 10
9.0467601898
 20
7.4098893324
 11
9.0467601898
 21
7.293978229
  0
LINE
  5
299
100
AcDbEntity
  8
0
100
AcDbLine
 62
7
  6
CONTINUOUS
 10
10.6264702877
 20
10.7745312568
 11
10.6255967686
 21
10.7737033467
  0
LINE
  5
29A
100
AcDbEntity
  8
0
100
AcDbLine
 62
4
  6
CONTINUOUS
 10
11.7643464924
 20
6.5472077172
 11
11.7367486054
 21
6.5491216372
  0
LINE
  5
29B
100
AcDbEntity
  8
0
100
AcDbLine
 62
4
  6
CONTINUOUS
 10
11.7036311631
 20
6.5514183396
 11
11.6870724235
 21
6.5525666921
  0
LINE
  5
29C
100
AcDbEntity
  8
0
100
AcDbLine
 62
4
  6
CONTINUOUS
 10
11.6447556855
 20
6.5555013678
 11
11.6226773906
 21
6.5570325028
  0
LINE
  5
29D
100
AcDbEntity
  8
0
100
AcDbLine
 62
4
  6
CONTINUOUS
 10
11.3209405357
 20
6.5779580248
 11
11.2933426578
 21
6.5798719441
  0
LINE
  5
29E
100
AcDbEntity
  8
0
100
AcDbLine
 62
4
  6
CONTINUOUS
 10
11.4957271213
 20
6.5658365339
 11
11.5288445821
 21
6.5635398302
  0
LINE
  5
29F
100
AcDbEntity
  8
0
100
AcDbLine
 62
4
  6
CONTINUOUS
 10
11.8066632673
 20
6.5442730389
 11
11.8397807096
 21
6.5419763365
  0
LINE
  5
2A0
100
AcDbEntity
  8
0
100
AcDbLine
 62
4
  6
CONTINUOUS
 10
11.3706167222
 20
6.5965912759
 11
11.400054461
 21
6.5945497618
  0
LINE
  5
2A1
100
AcDbEntity
  8
0
100
AcDbLine
 62
4
  6
CONTINUOUS
 10
11.8287415622
 20
6.5868985168
 11
11.8066632673
 21
6.5884296517
  0
LINE
  5
2A2
100
AcDbEntity
  8
0
100
AcDbLine
 62
4
  6
CONTINUOUS
 10
11.5178054346
 20
6.6084620105
 11
11.4957271213
 21
6.6099931467
  0
LINE
  5
2A3
100
AcDbEntity
  8
0
100
AcDbLine
 62
4
  6
CONTINUOUS
 10
11.2933426578
 20
6.657146013
 11
11.3209405357
 21
6.6552320937
  0
LINE
  5
2A4
100
AcDbEntity
  8
0
100
AcDbLine
 62
4
  6
CONTINUOUS
 10
11.4294921998
 20
6.6477040102
 11
11.473648808
 21
6.6446417391
  0
LINE
  5
2A5
100
AcDbEntity
  8
0
100
AcDbLine
 62
4
  6
CONTINUOUS
 10
11.4957271213
 20
6.6431106028
 11
11.5288445821
 21
6.6408138991
  0
LINE
  5
2A6
100
AcDbEntity
  8
0
100
AcDbLine
 62
4
  6
CONTINUOUS
 10
11.6226773906
 20
6.6343065718
 11
11.6447556855
 21
6.6327754368
  0
LINE
  5
2A7
100
AcDbEntity
  8
0
100
AcDbLine
 62
4
  6
CONTINUOUS
 10
11.6870724235
 20
6.6298407611
 11
11.7036311631
 21
6.6286924086
  0
LINE
  5
2A8
100
AcDbEntity
  8
0
100
AcDbLine
 62
4
  6
CONTINUOUS
 10
11.7367486054
 20
6.6263957061
 11
11.7643464924
 21
6.6244817862
  0
LINE
  5
2A9
100
AcDbEntity
  8
0
100
AcDbLine
 62
4
  6
CONTINUOUS
 10
11.8066632673
 20
6.6215471079
 11
11.8397807096
 21
6.6192504054
  0
LINE
  5
2AA
100
AcDbEntity
  8
0
100
AcDbLine
 62
4
  6
CONTINUOUS
 10
11.550922956
 20
6.7320116414
 11
11.5730012601
 21
6.7304805058
  0
LINE
  5
2AB
100
AcDbEntity
  8
0
100
AcDbLine
 62
4
  6
CONTINUOUS
 10
11.5233250759
 20
6.7780821737
 11
11.4902076174
 21
6.7803788773
  0
LINE
  5
2AC
100
AcDbEntity
  8
0
100
AcDbLine
 62
4
  6
CONTINUOUS
 10
11.4902076174
 20
6.8134963334
 11
11.5233250759
 21
6.8111996299
  0
LINE
  5
2AD
100
AcDbEntity
  8
0
100
AcDbLine
 62
4
  6
CONTINUOUS
 10
11.5564425343
 20
6.8089029263
 11
11.5785208431
 21
6.8073717904
  0
LINE
  5
2AE
100
AcDbEntity
  8
0
100
AcDbLine
 62
4
  6
CONTINUOUS
 10
11.0510563852
 20
10.1686684648
 11
11.0365674973
 21
10.1600140163
  0
LINE
  5
2AF
100
AcDbEntity
  8
0
100
AcDbLine
 62
4
  6
CONTINUOUS
 10
11.5067663507
 20
6.9407701245
 11
11.5178054982
 21
6.940004557
  0
LINE
  5
2B0
100
AcDbEntity
  8
0
100
AcDbLine
 62
4
  6
CONTINUOUS
 10
11.8765779928
 20
6.9335221879
 11
11.8544996242
 21
6.935053328
  0
LINE
  5
2B1
100
AcDbEntity
  8
0
100
AcDbLine
 62
4
  6
CONTINUOUS
 10
11.7864248878
 20
6.939774327
 11
11.7753857403
 21
6.9405398944
  0
LINE
  5
2B2
100
AcDbEntity
  8
0
100
AcDbLine
 62
4
  6
CONTINUOUS
 10
11.6925920792
 20
6.9462816543
 11
11.6705137843
 21
6.9478127893
  0
LINE
  5
2B3
100
AcDbEntity
  8
0
100
AcDbLine
 62
4
  6
CONTINUOUS
 10
11.5877201232
 20
6.9535545492
 11
11.5656418283
 21
6.9550856841
  0
LINE
  5
2B4
100
AcDbEntity
  8
0
100
AcDbLine
 62
4
  6
CONTINUOUS
 10
11.214228799
 20
6.9794562605
 11
11.2363071048
 21
6.9779251248
  0
LINE
  5
2B5
100
AcDbEntity
  8
0
100
AcDbLine
 62
4
  6
CONTINUOUS
 10
11.280463713
 20
6.9748628536
 11
11.297022448
 21
6.9737145014
  0
LINE
  5
2B6
100
AcDbEntity
  8
0
100
AcDbLine
 62
4
  6
CONTINUOUS
 10
11.7201899663
 20
6.9443677344
 11
11.7477878533
 21
6.9424538144
  0
LINE
  5
2B7
100
AcDbEntity
  8
0
100
AcDbLine
 62
4
  6
CONTINUOUS
 10
11.904175843
 20
6.9316082705
 11
11.9262541378
 21
6.9300771355
  0
LINE
  5
2B8
100
AcDbEntity
  8
0
100
AcDbLine
 62
4
  6
CONTINUOUS
 10
11.6705137843
 20
6.9754106717
 11
11.6925920792
 21
6.9738795368
  0
LINE
  5
2B9
100
AcDbEntity
  8
0
100
AcDbLine
 62
4
  6
CONTINUOUS
 10
11.6870725239
 20
7.0018602017
 11
11.6594746369
 21
7.0037741216
  0
LINE
  5
2BA
100
AcDbEntity
  8
0
100
AcDbLine
 62
4
  6
CONTINUOUS
 10
11.4515705767
 20
7.0181923172
 11
11.4791684637
 21
7.0162783972
  0
LINE
  5
2BB
100
AcDbEntity
  8
0
100
AcDbLine
 62
4
  6
CONTINUOUS
 10
11.5656418283
 20
7.010281449
 11
11.5877201232
 21
7.008750314
  0
LINE
  5
2BC
100
AcDbEntity
  8
0
100
AcDbLine
 62
4
  6
CONTINUOUS
 10
11.609798455
 20
7.0072191765
 11
11.6318767499
 21
7.0056880416
  0
LINE
  5
2BD
100
AcDbEntity
  8
0
100
AcDbLine
 62
4
  6
CONTINUOUS
 10
11.8544996242
 20
6.9902490928
 11
11.8765779928
 21
6.9887179528
  0
LINE
  5
2BE
100
AcDbEntity
  8
0
100
AcDbLine
 62
4
  6
CONTINUOUS
 10
11.904175843
 20
6.9868040353
 11
11.9262541378
 21
6.9852729004
  0
LINE
  5
2BF
100
AcDbEntity
  8
0
100
AcDbLine
 62
4
  6
CONTINUOUS
 10
11.2197483756
 20
7.0563475455
 11
11.2418266808
 21
7.0548164098
  0
LINE
  5
2C0
100
AcDbEntity
  8
0
100
AcDbLine
 62
4
  6
CONTINUOUS
 10
11.8195423301
 20
7.0147516935
 11
11.8213821819
 21
7.0146240993
  0
LINE
  5
2C1
100
AcDbEntity
  8
0
100
AcDbLine
 62
4
  6
CONTINUOUS
 10
11.249186045
 20
6.616051674
 11
11.2786237861
 21
6.5992912892
  0
LINE
  5
2C2
100
AcDbEntity
  8
0
100
AcDbLine
 62
4
  6
CONTINUOUS
 10
9.0105379699
 20
7.4124013519
 11
9.0829824096
 21
7.4073773129
  0
LINE
  5
2C3
100
AcDbEntity
  8
0
100
AcDbLine
 62
4
  6
CONTINUOUS
 10
11.9262541378
 20
6.9558351593
 11
11.904175843
 21
6.9610460116
  0
LINE
  5
2C4
100
AcDbEntity
  8
0
100
AcDbLine
 62
4
  6
CONTINUOUS
 10
11.8618590045
 20
6.5882815317
 11
11.8912967433
 21
6.5715211459
  0
LINE
  5
2C5
100
AcDbEntity
  8
0
100
AcDbLine
 62
4
  6
CONTINUOUS
 10
11.0583008292
 20
10.1778253242
 11
11.0510563852
 21
10.1686684648
  0
LINE
  5
2C6
100
AcDbEntity
  8
0
100
AcDbLine
 62
7
  6
CONTINUOUS
 10
11.773920547
 20
10.6784470498
 11
11.7749562332
 21
10.6794286711
  0
LINE
  5
2C7
100
AcDbEntity
  8
0
100
AcDbLine
 62
4
  6
CONTINUOUS
 10
11.5656418283
 20
6.9550856841
 11
11.5546026809
 21
6.9613708282
  0
LINE
  5
2C8
100
AcDbEntity
  8
0
100
AcDbLine
 62
4
  6
CONTINUOUS
 10
11.6705137843
 20
6.9478127893
 11
11.6594746369
 21
6.9540979334
  0
LINE
  5
2C9
100
AcDbEntity
  8
0
100
AcDbLine
 62
4
  6
CONTINUOUS
 10
11.2473462568
 20
6.9992378634
 11
11.2087092224
 21
7.0350348093
  0
LINE
  5
2CA
100
AcDbEntity
  8
0
100
AcDbLine
 62
4
  6
CONTINUOUS
 10
11.5840404168
 20
6.7517932441
 11
11.5454033823
 21
6.78759019
  0
LINE
  5
2CB
100
AcDbEntity
  8
0
100
AcDbLine
 62
4
  6
CONTINUOUS
 10
11.3209405357
 20
6.6552320937
 11
11.3319796877
 21
6.6434273739
  0
LINE
  5
2CC
100
AcDbEntity
  8
0
100
AcDbLine
 62
4
  6
CONTINUOUS
 10
11.2087092224
 20
6.985358621
 11
11.214228799
 21
6.9794562605
  0
LINE
  5
2CD
100
AcDbEntity
  8
0
100
AcDbLine
 62
4
  6
CONTINUOUS
 10
11.6226773906
 20
6.5570325028
 11
11.6116382432
 21
6.5688372235
  0
LINE
  5
2CE
100
AcDbEntity
  8
0
100
AcDbLine
 62
4
  6
CONTINUOUS
 10
10.7371305291
 20
6.3943503847
 11
10.7733527489
 21
6.2759272618
  0
LINE
  5
2CF
100
AcDbEntity
  8
0
100
AcDbLine
 62
7
  6
CONTINUOUS
 10
10.1606144853
 20
10.8310490793
 11
10.1606144853
 21
10.7737661635
  0
LINE
  5
2D0
100
AcDbEntity
  8
0
100
AcDbLine
 62
7
  6
CONTINUOUS
 10
10.3351675437
 20
10.8431543964
 11
10.3351675437
 21
10.7592863634
  0
LINE
  5
2D1
100
AcDbEntity
  8
0
100
AcDbLine
 62
4
  6
CONTINUOUS
 10
11.904175843
 20
6.9610460116
 11
11.8986562877
 21
6.9651085114
  0
LINE
  5
2D2
100
AcDbEntity
  8
0
100
AcDbLine
 62
4
  6
CONTINUOUS
 10
11.9317736931
 20
6.9517726595
 11
11.9262541378
 21
6.9558351593
  0
LINE
  5
2D3
100
AcDbEntity
  8
0
100
AcDbLine
 62
4
  6
CONTINUOUS
 10
11.2694245609
 20
6.9866675746
 11
11.280463713
 21
6.9748628536
  0
LINE
  5
2D4
100
AcDbEntity
  8
0
100
AcDbLine
 62
4
  6
CONTINUOUS
 10
11.6870724235
 20
6.5525666921
 11
11.676033276
 21
6.5643714128
  0
LINE
  5
2D5
100
AcDbEntity
  8
0
100
AcDbLine
 62
4
  6
CONTINUOUS
 10
11.2418266808
 20
7.0548164098
 11
11.2473462568
 21
7.0489140476
  0
LINE
  5
2D6
100
AcDbEntity
  8
0
100
AcDbLine
 62
4
  6
CONTINUOUS
 10
11.5454033823
 20
6.7379140018
 11
11.550922956
 21
6.7320116414
  0
LINE
  5
2D7
100
AcDbEntity
  8
0
100
AcDbLine
 62
4
  6
CONTINUOUS
 10
11.7036311631
 20
6.6286924086
 11
11.7146703105
 21
6.616887689
  0
LINE
  5
2D8
100
AcDbEntity
  8
0
100
AcDbLine
 62
4
  6
CONTINUOUS
 10
11.5785208431
 20
6.8073717904
 11
11.5840404168
 21
6.8014694284
  0
LINE
  5
2D9
100
AcDbEntity
  8
0
100
AcDbLine
 62
4
  6
CONTINUOUS
 10
11.7643464924
 20
6.6244817862
 11
11.7753856399
 21
6.6126770666
  0
LINE
  5
2DA
100
AcDbEntity
  8
0
100
AcDbLine
 62
4
  6
CONTINUOUS
 10
11.4791684637
 20
7.0162783972
 11
11.4846880374
 21
7.0103760351
  0
LINE
  5
2DB
100
AcDbEntity
  8
0
100
AcDbLine
 62
4
  6
CONTINUOUS
 10
11.7146703741
 20
6.950270096
 11
11.7201899663
 21
6.9443677344
  0
LINE
  5
2DC
100
AcDbEntity
  8
0
100
AcDbLine
 62
4
  6
CONTINUOUS
 10
11.7753857403
 20
6.9405398944
 11
11.7698661482
 21
6.9464422561
  0
LINE
  5
2DD
100
AcDbEntity
  8
0
100
AcDbLine
 62
4
  6
CONTINUOUS
 10
11.8544996242
 20
6.935053328
 11
11.8489800689
 21
6.940955687
  0
LINE
  5
2DE
100
AcDbEntity
  8
0
100
AcDbLine
 62
4
  6
CONTINUOUS
 10
12.4395748536
 20
8.1695003607
 11
12.4902859613
 21
8.1659835335
  0
LINE
  5
2DF
100
AcDbEntity
  8
0
100
AcDbLine
 62
4
  6
CONTINUOUS
 10
11.8986562877
 20
6.9375106295
 11
11.904175843
 21
6.9316082705
  0
LINE
  5
2E0
100
AcDbEntity
  8
0
100
AcDbLine
 62
4
  6
CONTINUOUS
 10
11.9262541378
 20
6.9852729004
 11
11.9317736931
 21
6.9793705396
  0
LINE
  5
2E1
100
AcDbEntity
  8
0
100
AcDbLine
 62
4
  6
CONTINUOUS
 10
11.6318767499
 20
7.0056880416
 11
11.6355564534
 21
6.999913275
  0
LINE
  5
2E2
100
AcDbEntity
  8
0
100
AcDbLine
 62
4
  6
CONTINUOUS
 10
11.3301398995
 20
7.0486918673
 11
11.368776934
 21
6.9687383109
  0
LINE
  5
2E3
100
AcDbEntity
  8
0
100
AcDbLine
 62
4
  6
CONTINUOUS
 10
11.0003452775
 20
10.1045704841
 11
11.0003452775
 21
10.2204815875
  0
LINE
  5
2E4
100
AcDbEntity
  8
0
100
AcDbLine
 62
7
  6
CONTINUOUS
 10
13.1826472101
 20
10.7816086727
 11
12.681056324
 21
10.2971090529
  0
LINE
  5
2E5
100
AcDbEntity
  8
0
100
AcDbLine
 62
4
  6
CONTINUOUS
 10
12.4395748536
 20
8.2371151688
 11
12.4902859613
 21
8.2335983415
  0
LINE
  5
2E6
100
AcDbEntity
  8
0
100
AcDbLine
 62
4
  6
CONTINUOUS
 10
12.4902859613
 20
8.2818946369
 11
12.4395748536
 21
8.2854114642
  0
LINE
  5
2E7
100
AcDbEntity
  8
0
100
AcDbLine
 62
4
  6
CONTINUOUS
 10
11.6925920792
 20
6.9904382671
 11
11.6870725239
 21
7.0018602017
  0
LINE
  5
2E8
100
AcDbEntity
  8
0
100
AcDbLine
 62
4
  6
CONTINUOUS
 10
11.3853355916
 20
6.6507662814
 11
11.4074139049
 21
6.5719610762
  0
LINE
  5
2E9
100
AcDbEntity
  8
0
100
AcDbLine
 62
4
  6
CONTINUOUS
 10
11.0583008292
 20
10.1971438368
 11
11.0583008292
 21
10.1778253242
  0
LINE
  5
2EA
100
AcDbEntity
  8
0
100
AcDbLine
 62
4
  6
CONTINUOUS
 10
11.2087092224
 20
7.0350348093
 11
11.2087092224
 21
7.0460739613
  0
LINE
  5
2EB
100
AcDbEntity
  8
0
100
AcDbLine
 62
4
  6
CONTINUOUS
 10
11.2473462568
 20
6.9881987102
 11
11.2473462568
 21
6.9992378634
  0
LINE
  5
2EC
100
AcDbEntity
  8
0
100
AcDbLine
 62
4
  6
CONTINUOUS
 10
11.5067663507
 20
7.0143644772
 11
11.5233250903
 21
6.9580203599
  0
LINE
  5
2ED
100
AcDbEntity
  8
0
100
AcDbLine
 62
4
  6
CONTINUOUS
 10
11.6061187209
 20
6.8054578711
 11
11.628197025
 21
6.7266526666
  0
LINE
  5
2EE
100
AcDbEntity
  8
0
100
AcDbLine
 62
4
  6
CONTINUOUS
 10
11.2694245609
 20
7.0529024904
 11
11.2694245609
 21
6.9866675746
  0
LINE
  5
2EF
100
AcDbEntity
  8
0
100
AcDbLine
 62
4
  6
CONTINUOUS
 10
11.2933426578
 20
6.5798719441
 11
11.2933426578
 21
6.657146013
  0
LINE
  5
2F0
100
AcDbEntity
  8
0
100
AcDbLine
 62
4
  6
CONTINUOUS
 10
11.3080615954
 20
6.9839880872
 11
11.3080615954
 21
7.0502230029
  0
LINE
  5
2F1
100
AcDbEntity
  8
0
100
AcDbLine
 62
4
  6
CONTINUOUS
 10
11.3301398995
 20
6.9714177984
 11
11.3301398995
 21
7.0486918673
  0
LINE
  5
2F2
100
AcDbEntity
  8
0
100
AcDbLine
 62
4
  6
CONTINUOUS
 10
11.3319796877
 20
6.6434273739
 11
11.3319796877
 21
6.5882316102
  0
LINE
  5
2F3
100
AcDbEntity
  8
0
100
AcDbLine
 62
4
  6
CONTINUOUS
 10
11.368776934
 20
6.9687383109
 11
11.368776934
 21
7.0460123799
  0
LINE
  5
2F4
100
AcDbEntity
  8
0
100
AcDbLine
 62
4
  6
CONTINUOUS
 10
11.4515705131
 20
6.5688988051
 11
11.4515705131
 21
6.646172874
  0
LINE
  5
2F5
100
AcDbEntity
  8
0
100
AcDbLine
 62
4
  6
CONTINUOUS
 10
11.4515705767
 20
6.9629965523
 11
11.4515705767
 21
7.0402706213
  0
LINE
  5
2F6
100
AcDbEntity
  8
0
100
AcDbLine
 62
4
  6
CONTINUOUS
 10
10.7009083093
 20
6.2809513008
 11
10.7371305291
 21
6.3943503847
  0
LINE
  5
2F7
100
AcDbEntity
  8
0
100
AcDbLine
 62
4
  6
CONTINUOUS
 10
11.4846880374
 20
7.0103760351
 11
11.4846880374
 21
6.9606998486
  0
LINE
  5
2F8
100
AcDbEntity
  8
0
100
AcDbLine
 62
4
  6
CONTINUOUS
 10
11.4902076174
 20
6.7362222645
 11
11.4902076174
 21
6.8134963334
  0
LINE
  5
2F9
100
AcDbEntity
  8
0
100
AcDbLine
 62
4
  6
CONTINUOUS
 10
11.4957271213
 20
6.5658365339
 11
11.4957271213
 21
6.6431106028
  0
LINE
  5
2FA
100
AcDbEntity
  8
0
100
AcDbLine
 62
4
  6
CONTINUOUS
 10
11.5454033823
 20
6.78759019
 11
11.5454033823
 21
6.7986293421
  0
LINE
  5
2FB
100
AcDbEntity
  8
0
100
AcDbLine
 62
4
  6
CONTINUOUS
 10
11.5546026809
 20
6.9613708282
 11
11.5546026809
 21
7.0055274381
  0
LINE
  5
2FC
100
AcDbEntity
  8
0
100
AcDbLine
 62
4
  6
CONTINUOUS
 10
11.5840404168
 20
6.7407540909
 11
11.5840404168
 21
6.7517932441
  0
LINE
  5
2FD
100
AcDbEntity
  8
0
100
AcDbLine
 62
4
  6
CONTINUOUS
 10
11.5877201232
 20
7.0308286181
 11
11.5877201232
 21
6.9535545492
  0
LINE
  5
2FE
100
AcDbEntity
  8
0
100
AcDbLine
 62
4
  6
CONTINUOUS
 10
11.609798455
 20
6.9520234117
 11
11.609798455
 21
7.0072191765
  0
LINE
  5
2FF
100
AcDbEntity
  8
0
100
AcDbLine
 62
4
  6
CONTINUOUS
 10
11.6116382432
 20
6.5688372235
 11
11.6116382432
 21
6.6240329872
  0
LINE
  5
300
100
AcDbEntity
  8
0
100
AcDbLine
 62
4
  6
CONTINUOUS
 10
11.6355564534
 20
6.999913275
 11
11.6355564534
 21
6.9888741229
  0
LINE
  5
301
100
AcDbEntity
  8
0
100
AcDbLine
 62
4
  6
CONTINUOUS
 10
11.6594746369
 20
6.9540979334
 11
11.6594746369
 21
6.9706566632
  0
LINE
  5
302
100
AcDbEntity
  8
0
100
AcDbLine
 62
4
  6
CONTINUOUS
 10
11.676033276
 20
6.5643714128
 11
11.676033276
 21
6.6195671765
  0
LINE
  5
303
100
AcDbEntity
  8
0
100
AcDbLine
 62
4
  6
CONTINUOUS
 10
11.6925920792
 20
6.9462816543
 11
11.6925920792
 21
6.9904382671
  0
LINE
  5
304
100
AcDbEntity
  8
0
100
AcDbLine
 62
4
  6
CONTINUOUS
 10
11.7146703741
 20
6.9999462842
 11
11.7146703741
 21
6.950270096
  0
LINE
  5
305
100
AcDbEntity
  8
0
100
AcDbLine
 62
4
  6
CONTINUOUS
 10
11.7146703105
 20
6.616887689
 11
11.7146703105
 21
6.5616919253
  0
LINE
  5
306
100
AcDbEntity
  8
0
100
AcDbLine
 62
4
  6
CONTINUOUS
 10
11.7367486054
 20
6.5491216372
 11
11.7367486054
 21
6.6263957061
  0
LINE
  5
307
100
AcDbEntity
  8
0
100
AcDbLine
 62
4
  6
CONTINUOUS
 10
11.7477878533
 20
6.9424538144
 11
11.7477878533
 21
6.9976495793
  0
LINE
  5
308
100
AcDbEntity
  8
0
100
AcDbLine
 62
4
  6
CONTINUOUS
 10
11.7698661482
 20
6.9464422561
 11
11.7698661482
 21
7.0181967484
  0
LINE
  5
309
100
AcDbEntity
  8
0
100
AcDbLine
 62
4
  6
CONTINUOUS
 10
11.7753856399
 20
6.6126770666
 11
11.7753856399
 21
6.5574813029
  0
LINE
  5
30A
100
AcDbEntity
  8
0
100
AcDbLine
 62
4
  6
CONTINUOUS
 10
11.8066632673
 20
6.5442730389
 11
11.8066632673
 21
6.6215471079
  0
LINE
  5
30B
100
AcDbEntity
  8
0
100
AcDbLine
 62
4
  6
CONTINUOUS
 10
11.8195423301
 20
6.9374776245
 11
11.8195423301
 21
6.9926733894
  0
LINE
  5
30C
100
AcDbEntity
  8
0
100
AcDbLine
 62
4
  6
CONTINUOUS
 10
11.8195423301
 20
7.0092321152
 11
11.8195423301
 21
7.0147516935
  0
LINE
  5
30D
100
AcDbEntity
  8
0
100
AcDbLine
 62
4
  6
CONTINUOUS
 10
11.8489800689
 20
6.940955687
 11
11.8489800689
 21
6.9851122969
  0
LINE
  5
30E
100
AcDbEntity
  8
0
100
AcDbLine
 62
4
  6
CONTINUOUS
 10
11.8986562877
 20
6.9651085114
 11
11.8986562877
 21
6.9816672395
  0
LINE
  5
30F
100
AcDbEntity
  8
0
100
AcDbLine
 62
4
  6
CONTINUOUS
 10
11.3632572875
 20
6.5750233481
 11
11.3853355916
 21
6.6507662814
  0
LINE
  5
310
100
AcDbEntity
  8
0
100
AcDbLine
 62
4
  6
CONTINUOUS
 10
11.9317736931
 20
6.9352139297
 11
11.9317736931
 21
6.9517726595
  0
LINE
  5
311
100
AcDbEntity
  8
0
100
AcDbLine
 62
4
  6
CONTINUOUS
 10
11.628197025
 20
6.7266526666
 11
11.6502753291
 21
6.8023955999
  0
LINE
  5
312
100
AcDbEntity
  8
0
100
AcDbLine
 62
4
  6
CONTINUOUS
 10
11.5178054982
 20
6.940004557
 11
11.5398837931
 21
7.0120677748
  0
LINE
  5
313
100
AcDbEntity
  8
0
100
AcDbLine
 62
7
  6
CONTINUOUS
 10
12.9891250331
 20
8.9290037281
 11
12.9901399658
 21
8.9299660355
  0
LINE
  5
314
100
AcDbEntity
  8
0
100
AcDbLine
 62
4
  6
CONTINUOUS
 10
11.0510563852
 20
10.2073055039
 11
11.0583008292
 21
10.1971438368
  0
LINE
  5
315
100
AcDbEntity
  8
0
100
AcDbLine
 62
4
  6
CONTINUOUS
 10
12.5047748493
 20
8.2132750176
 11
12.4902859613
 21
8.2335983415
  0
LINE
  5
316
100
AcDbEntity
  8
0
100
AcDbLine
 62
4
  6
CONTINUOUS
 10
12.4975304053
 20
8.2717329767
 11
12.4902859613
 21
8.2818946369
  0
LINE
  5
317
100
AcDbEntity
  8
0
100
AcDbLine
 62
4
  6
CONTINUOUS
 10
11.8213821819
 20
7.0146240993
 11
11.8195423301
 21
7.0092321152
  0
LINE
  5
318
100
AcDbEntity
  8
0
100
AcDbLine
 62
4
  6
CONTINUOUS
 10
12.4902859613
 20
8.2335983415
 11
12.4975304053
 21
8.2427552008
  0
LINE
  5
319
100
AcDbEntity
  8
0
100
AcDbLine
 62
4
  6
CONTINUOUS
 10
11.2087092224
 20
7.0460739613
 11
11.2197483756
 21
7.0563475455
  0
LINE
  5
31A
100
AcDbEntity
  8
0
100
AcDbLine
 62
4
  6
CONTINUOUS
 10
11.2363071048
 20
6.9779251248
 11
11.2473462568
 21
6.9881987102
  0
LINE
  5
31B
100
AcDbEntity
  8
0
100
AcDbLine
 62
4
  6
CONTINUOUS
 10
11.297022448
 20
6.9737145014
 11
11.3080615954
 21
6.9839880872
  0
LINE
  5
31C
100
AcDbEntity
  8
0
100
AcDbLine
 62
4
  6
CONTINUOUS
 10
12.4395748536
 20
8.2854114642
 11
12.4395748536
 21
8.1695003607
  0
LINE
  5
31D
100
AcDbEntity
  8
0
100
AcDbLine
 62
4
  6
CONTINUOUS
 10
12.4975304053
 20
8.2427552008
 11
12.4975304053
 21
8.2717329767
  0
LINE
  5
31E
100
AcDbEntity
  8
0
100
AcDbLine
 62
4
  6
CONTINUOUS
 10
12.5047748493
 20
8.1842972435
 11
12.5047748493
 21
8.2132750176
  0
LINE
  5
31F
100
AcDbEntity
  8
0
100
AcDbLine
 62
4
  6
CONTINUOUS
 10
12.4902859613
 20
8.1659835335
 11
12.5047748493
 21
8.1842972435
  0
LINE
  5
320
100
AcDbEntity
  8
0
100
AcDbLine
 62
4
  6
CONTINUOUS
 10
11.5546026809
 20
7.0055274381
 11
11.5656418283
 21
7.010281449
  0
LINE
  5
321
100
AcDbEntity
  8
0
100
AcDbLine
 62
4
  6
CONTINUOUS
 10
11.0365674973
 20
10.217969568
 11
11.0510563852
 21
10.2073055039
  0
LINE
  5
322
100
AcDbEntity
  8
02___PRT_ALL_AXES
100
AcDbLine
 62
7
  6
CONTINUOUS
 10
10.5904325085
 20
10.7743195548
 11
10.5451511523
 21
10.8164586102
  0
LINE
  5
323
100
AcDbEntity
  8
0
100
AcDbLine
 62
7
  6
CONTINUOUS
 10
12.681056324
 20
10.2971090529
 11
12.681056324
 21
5.9504425771
  0
LINE
  5
324
100
AcDbEntity
  8
0
100
AcDbLine
 62
4
  6
CONTINUOUS
 10
11.5454033823
 20
6.7986293421
 11
11.5564425343
 21
6.8089029263
  0
LINE
  5
325
100
AcDbEntity
  8
0
100
AcDbLine
 62
4
  6
CONTINUOUS
 10
11.3319796877
 20
6.5882316102
 11
11.3209405357
 21
6.5779580248
  0
LINE
  5
326
100
AcDbEntity
  8
0
100
AcDbLine
 62
4
  6
CONTINUOUS
 10
11.5730012601
 20
6.7304805058
 11
11.5840404168
 21
6.7407540909
  0
LINE
  5
327
100
AcDbEntity
  8
0
100
AcDbLine
 62
4
  6
CONTINUOUS
 10
11.8489800689
 20
6.9851122969
 11
11.8544996242
 21
6.9902490928
  0
LINE
  5
328
100
AcDbEntity
  8
0
100
AcDbLine
 62
4
  6
CONTINUOUS
 10
11.8986562877
 20
6.9816672395
 11
11.904175843
 21
6.9868040353
  0
LINE
  5
329
100
AcDbEntity
  8
0
100
AcDbLine
 62
4
  6
CONTINUOUS
 10
11.9262541378
 20
6.9300771355
 11
11.9317736931
 21
6.9352139297
  0
LINE
  5
32A
100
AcDbEntity
  8
0
100
AcDbLine
 62
4
  6
CONTINUOUS
 10
11.6116382432
 20
6.6240329872
 11
11.6226773906
 21
6.6343065718
  0
LINE
  5
32B
100
AcDbEntity
  8
0
100
AcDbLine
 62
4
  6
CONTINUOUS
 10
11.6594746369
 20
6.9706566632
 11
11.6705137843
 21
6.9754106717
  0
LINE
  5
32C
100
AcDbEntity
  8
0
100
AcDbLine
 62
4
  6
CONTINUOUS
 10
11.0365674973
 20
10.1600140163
 11
11.0003452775
 21
10.1625260358
  0
LINE
  5
32D
100
AcDbEntity
  8
0
100
AcDbLine
 62
4
  6
CONTINUOUS
 10
11.0003452775
 20
10.2204815875
 11
11.0365674973
 21
10.217969568
  0
LINE
  5
32E
100
AcDbEntity
  8
0
100
AcDbLine
 62
4
  6
CONTINUOUS
 10
11.676033276
 20
6.6195671765
 11
11.6870724235
 21
6.6298407611
  0
LINE
  5
32F
100
AcDbEntity
  8
0
100
AcDbLine
 62
4
  6
CONTINUOUS
 10
11.7146703105
 20
6.5616919253
 11
11.7036311631
 21
6.5514183396
  0
LINE
  5
330
100
AcDbEntity
  8
0
100
AcDbLine
 62
4
  6
CONTINUOUS
 10
11.7753856399
 20
6.5574813029
 11
11.7643464924
 21
6.5472077172
  0
LINE
  5
331
100
AcDbEntity
  8
0
100
AcDbLine
 62
4
  6
CONTINUOUS
 10
11.2786237861
 20
6.6287290315
 11
11.249186045
 21
6.616051674
  0
LINE
  5
332
100
AcDbEntity
  8
0
100
AcDbLine
 62
7
  6
CONTINUOUS
 10
12.681056324
 20
10.2971090529
 11
8.8173527899
 21
10.5650578031
  0
LINE
  5
333
100
AcDbEntity
  8
0
100
AcDbLine
 62
7
  6
CONTINUOUS
 10
10.1138431701
 20
10.7858714553
 11
10.2416249133
 21
10.7527991485
  0
LINE
  5
334
100
AcDbEntity
  8
0
100
AcDbLine
 62
7
  6
CONTINUOUS
 10
13.1826472101
 20
10.7816086727
 11
13.1826472101
 21
6.4349421969
  0
LINE
  5
335
100
AcDbEntity
  8
0
100
AcDbLine
 62
4
  6
CONTINUOUS
 10
11.8912967433
 20
6.5715211459
 11
11.8618590045
 21
6.5588437894
  0
LINE
  5
336
100
AcDbEntity
  8
0
100
AcDbLine
 62
7
  6
CONTINUOUS
 10
10.4629492869
 20
10.8100820896
 11
10.3351675437
 21
10.8431543964
  0
LINE
  5
337
100
AcDbEntity
  8
0
100
AcDbLine
 62
7
  6
CONTINUOUS
 10
10.2416249133
 20
10.7527991485
 11
10.4161779717
 21
10.7649044656
  0
LINE
  5
338
100
AcDbEntity
  8
0
100
AcDbLine
 62
7
  6
CONTINUOUS
 10
10.3351675437
 20
10.8431543964
 11
10.1606144853
 21
10.8310490793
  0
LINE
  5
339
100
AcDbEntity
  8
0
100
AcDbLine
 62
7
  6
CONTINUOUS
 10
9.318943676
 20
11.0495574229
 11
13.1826472101
 21
10.7816086727
  0
LINE
  5
33A
100
AcDbEntity
  8
0
100
AcDbLine
 62
7
  6
CONTINUOUS
 10
13.1826472101
 20
6.4349421969
 11
12.681056324
 21
5.9504425771
  0
ARC
  5
33B
100
AcDbEntity
  8
0
100
AcDbCircle
 62
7
  6
CONTINUOUS
 10
10.1254932864
 20
9.3733297753
 40
0.1157315115
100
AcDbArc
 50
219.9769104755
 51
228.2559135507
  0
SPLINE
  5
33C
100
AcDbEntity
  8
02___PRT_ALL_AXES
100
AcDbSpline
 62
7
  6
CONTINUOUS
 70
0
 71
3
 72
31
 73
27
 74
0
 42
0.0000001
 43
0.0000001
 44
0.0000000001
 40
0.0
 40
0.0
 40
0.0
 40
0.0
 40
0.0761008109
 40
0.1533691053
 40
0.2310978206
 40
0.3086118373
 40
0.385218609
 40
0.4602419341
 40
0.5330235663
 40
0.6029315496
 40
0.636620852
 40
0.6693716274
 40
0.7011154811
 40
0.7317891641
 40
0.761331845
 40
0.7896871809
 40
0.8168045223
 40
0.8426365275
 40
0.8671438057
 40
0.8902927164
 40
0.9120569767
 40
0.932421459
 40
0.9513799339
 40
0.9689416195
 40
0.9851326829
 40
1.0
 40
1.0
 40
1.0
 40
1.0
 10
10.3573714471
 20
10.8646017214
 30
0.0
 10
10.348909734
 20
10.8651885432
 30
0.0
 10
10.3318396622
 20
10.8661395957
 30
0.0
 10
10.3060908439
 20
10.8669089932
 30
0.0
 10
10.280173145
 20
10.8670280021
 30
0.0
 10
10.2543344077
 20
10.8664961087
 30
0.0
 10
10.2288188159
 20
10.8653180113
 30
0.0
 10
10.2038690406
 20
10.8635053225
 30
0.0
 10
10.1797219604
 20
10.8610755883
 30
0.0
 10
10.160225565
 20
10.8585261979
 30
0.0
 10
10.1452096235
 20
10.8561828227
 30
0.0
 10
10.1344272577
 20
10.8543090509
 30
0.0
 10
10.1240110588
 20
10.8523015434
 30
0.0
 10
10.1139857043
 20
10.8501654701
 30
0.0
 10
10.1043749798
 20
10.8479057934
 30
0.0
 10
10.0952016808
 20
10.8455277806
 30
0.0
 10
10.0864874533
 20
10.8430375451
 30
0.0
 10
10.078252946
 20
10.8404405497
 30
0.0
 10
10.0705174905
 20
10.837743351
 30
0.0
 10
10.063299194
 20
10.8349523806
 30
0.0
 10
10.0566150102
 20
10.8320738684
 30
0.0
 10
10.0504801839
 20
10.8291151513
 30
0.0
 10
10.0449089485
 20
10.8260825401
 30
0.0
 10
10.0399136303
 20
10.8229828629
 30
0.0
 10
10.0355056007
 20
10.819823414
 30
0.0
 10
10.032855415
 20
10.8175882805
 30
0.0
 10
10.0316423351
 20
10.8164594088
 30
0.0
  0
SPLINE
  5
33D
100
AcDbEntity
  8
02___PRT_ALL_AXES
100
AcDbSpline
 62
7
  6
CONTINUOUS
 70
0
 71
3
 72
27
 73
23
 74
0
 42
0.0000001
 43
0.0000001
 44
0.0000000001
 40
0.0
 40
0.0
 40
0.0
 40
0.0
 40
0.0844845218
 40
0.1673018439
 40
0.248083671
 40
0.3265298449
 40
0.4023565216
 40
0.4752829178
 40
0.5450416431
 40
0.6113914904
 40
0.674110937
 40
0.7330061717
 40
0.7879114074
 40
0.8386996475
 40
0.8625235625
 40
0.8852917996
 40
0.9070024887
 40
0.9276577453
 40
0.9472666875
 40
0.9658444447
 40
0.9834123314
 40
1.0
 40
1.0
 40
1.0
 40
1.0
 10
10.3573714471
 20
10.8646017214
 30
0.0
 10
10.3628868679
 20
10.8642192257
 30
0.0
 10
10.3738024213
 20
10.8633647782
 30
0.0
 10
10.3899622306
 20
10.8617986286
 30
0.0
 10
10.4056962459
 20
10.8599649635
 30
0.0
 10
10.4209363646
 20
10.8578723469
 30
0.0
 10
10.4356197671
 20
10.8555292326
 30
0.0
 10
10.4496853548
 20
10.8529460294
 30
0.0
 10
10.4630739174
 20
10.8501331389
 30
0.0
 10
10.475729428
 20
10.8471031247
 30
0.0
 10
10.4875991492
 20
10.8438683953
 30
0.0
 10
10.4986339633
 20
10.8404431853
 30
0.0
 10
10.508787884
 20
10.8368415269
 30
0.0
 10
10.5166405646
 20
10.8336415301
 30
0.0
 10
10.5224371141
 20
10.8309920382
 30
0.0
 10
10.5264456396
 20
10.8290129202
 30
0.0
 10
10.5302044406
 20
10.8270013454
 30
0.0
 10
10.5337095069
 20
10.8249591294
 30
0.0
 10
10.5369573436
 20
10.8228885026
 30
0.0
 10
10.5399448093
 20
10.8207915584
 30
0.0
 10
10.5426686773
 20
10.8186704321
 30
0.0
 10
10.5443542028
 20
10.8172001132
 30
0.0
 10
10.5451488637
 20
10.8164606416
 30
0.0
  0
SPLINE
  5
33E
100
AcDbEntity
  8
02___PRT_ALL_AXES
100
AcDbSpline
 62
7
  6
CONTINUOUS
 70
0
 71
3
 72
51
 73
47
 74
0
 42
0.0000001
 43
0.0000001
 44
0.0000000001
 40
0.0
 40
0.0
 40
0.0
 40
0.0
 40
0.0082495521
 40
0.0160260799
 40
0.0233656737
 40
0.030313446
 40
0.0369249861
 40
0.0432658774
 40
0.0494113817
 40
0.0554452116
 40
0.0614562819
 40
0.0675344328
 40
0.0737665047
 40
0.0802324928
 40
0.0870028484
 40
0.0941379825
 40
0.1016885136
 40
0.1096950977
 40
0.1181897683
 40
0.1271978543
 40
0.1367389646
 40
0.1468267212
 40
0.1574704194
 40
0.1686762965
 40
0.1804476795
 40
0.1927842828
 40
0.2191400528
 40
0.2477079987
 40
0.2784215071
 40
0.311195593
 40
0.3459260577
 40
0.3824958301
 40
0.4207738374
 40
0.4606191911
 40
0.5018806657
 40
0.544399376
 40
0.5880090416
 40
0.6325374169
 40
0.6778072138
 40
0.7236376287
 40
0.7698451013
 40
0.8162421278
 40
0.862640227
 40
0.9088587448
 40
0.9547152222
 40
1.0
 40
1.0
 40
1.0
 40
1.0
 10
10.5451488637
 20
10.8164606416
 30
0.0
 10
10.5459085372
 20
10.8157537274
 30
0.0
 10
10.5473427268
 20
10.8143345346
 30
0.0
 10
10.5492812376
 20
10.8121217054
 30
0.0
 10
10.5509389502
 20
10.8098915707
 30
0.0
 10
10.5523132424
 20
10.8076459211
 30
0.0
 10
10.553402222
 20
10.8053868775
 30
0.0
 10
10.5542037411
 20
10.8031166709
 30
0.0
 10
10.5547153677
 20
10.8008379689
 30
0.0
 10
10.5549352033
 20
10.7985542437
 30
0.0
 10
10.5548628814
 20
10.7962695208
 30
0.0
 10
10.5544986998
 20
10.7939877984
 30
0.0
 10
10.5538435486
 20
10.7917128744
 30
0.0
 10
10.5528994623
 20
10.7894479172
 30
0.0
 10
10.55166903
 20
10.787195284
 30
0.0
 10
10.550154426
 20
10.7849570114
 30
0.0
 10
10.5483575628
 20
10.7827351653
 30
0.0
 10
10.5462808733
 20
10.7805314852
 30
0.0
 10
10.5439268699
 20
10.7783477329
 30
0.0
 10
10.5412979629
 20
10.7761859074
 30
0.0
 10
10.538396698
 20
10.7740482589
 30
0.0
 10
10.5352262711
 20
10.7719367006
 30
0.0
 10
10.5317900728
 20
10.7698533004
 30
0.0
 10
10.5280915955
 20
10.7678002841
 30
0.0
 10
10.5241346145
 20
10.7657799169
 30
0.0
 10
10.5183922487
 20
10.7630723653
 30
0.0
 10
10.5105848627
 20
10.7598010178
 30
0.0
 10
10.5004574794
 20
10.7561201056
 30
0.0
 10
10.4894173488
 20
10.7526171984
 30
0.0
 10
10.4775115104
 20
10.749308203
 30
0.0
 10
10.4647906442
 20
10.7462070177
 30
0.0
 10
10.4513092238
 20
10.7433276847
 30
0.0
 10
10.4371251198
 20
10.7406824501
 30
0.0
 10
10.4222993542
 20
10.7382831514
 30
0.0
 10
10.4068957582
 20
10.7361401167
 30
0.0
 10
10.3909807343
 20
10.7342627859
 30
0.0
 10
10.374622903
 20
10.7326593772
 30
0.0
 10
10.3578928759
 20
10.7313367925
 30
0.0
 10
10.3408628246
 20
10.7303009569
 30
0.0
 10
10.3236061848
 20
10.7295561671
 30
0.0
 10
10.3061975277
 20
10.7291060105
 30
0.0
 10
10.2887123305
 20
10.72895202
 30
0.0
 10
10.2712256565
 20
10.7290952094
 30
0.0
 10
10.2538119099
 20
10.7295347465
 30
0.0
 10
10.2365483168
 20
10.7302691676
 30
0.0
 10
10.2251036989
 20
10.7309577277
 30
0.0
 10
10.2194210099
 20
10.7313518235
 30
0.0
  0
SPLINE
  5
33F
100
AcDbEntity
  8
02___PRT_ALL_AXES
100
AcDbSpline
 62
7
  6
CONTINUOUS
 70
0
 71
3
 72
39
 73
35
 74
0
 42
0.0000001
 43
0.0000001
 44
0.0000000001
 40
0.0
 40
0.0
 40
0.0
 40
0.0
 40
0.0192535181
 40
0.0368854091
 40
0.0531265331
 40
0.0682867815
 40
0.0755879359
 40
0.0827713323
 40
0.0898954975
 40
0.0970204605
 40
0.10420628
 40
0.1115115158
 40
0.1266838929
 40
0.1429417664
 40
0.1605945724
 40
0.1798708643
 40
0.2009337379
 40
0.2238933713
 40
0.2488165231
 40
0.275741201
 40
0.3046775001
 40
0.3356168974
 40
0.3685356617
 40
0.4033939467
 40
0.440143699
 40
0.4787246364
 40
0.519068367
 40
0.5611005377
 40
0.6047377611
 40
0.6498930879
 40
0.6964715181
 40
0.7934894566
 40
0.8949747659
 40
1.0
 40
1.0
 40
1.0
 40
1.0
 10
10.0316423351
 20
10.8164594088
 30
0.0
 10
10.0305180639
 20
10.8154131811
 30
0.0
 10
10.0284526558
 20
10.8133093258
 30
0.0
 10
10.0258387385
 20
10.8099604127
 30
0.0
 10
10.023862103
 20
10.8065699111
 30
0.0
 10
10.0227412231
 20
10.803675977
 30
0.0
 10
10.0221923084
 20
10.8013729379
 30
0.0
 10
10.0219488925
 20
10.7996639616
 30
0.0
 10
10.0218691945
 20
10.7979536558
 30
0.0
 10
10.0219532304
 20
10.7962433645
 30
0.0
 10
10.0222010652
 20
10.7945344311
 30
0.0
 10
10.0227562237
 20
10.7922313669
 30
0.0
 10
10.0238845206
 20
10.7893375452
 30
0.0
 10
10.0258696978
 20
10.7859475426
 30
0.0
 10
10.0284926178
 20
10.7825992076
 30
0.0
 10
10.0317432336
 20
10.7792967465
 30
0.0
 10
10.0356136009
 20
10.7760445792
 30
0.0
 10
10.0400949501
 20
10.7728485218
 30
0.0
 10
10.0451769748
 20
10.7697142338
 30
0.0
 10
10.0508485573
 20
10.7666492369
 30
0.0
 10
10.0570963661
 20
10.7636599959
 30
0.0
 10
10.0639058722
 20
10.7607536944
 30
0.0
 10
10.0712610129
 20
10.75793761
 30
0.0
 10
10.0791441069
 20
10.7552180351
 30
0.0
 10
10.0875363375
 20
10.7526021636
 30
0.0
 10
10.0964173739
 20
10.7500960799
 30
0.0
 10
10.1057657353
 20
10.7477059079
 30
0.0
 10
10.1155588227
 20
10.7454378474
 30
0.0
 10
10.1257728819
 20
10.7432970093
 30
0.0
 10
10.1363831464
 20
10.7412890344
 30
0.0
 10
10.1512259582
 20
10.7387609738
 30
0.0
 10
10.1705807025
 20
10.7359836507
 30
0.0
 10
10.1946449638
 20
10.7332914802
 30
0.0
 10
10.2110636937
 20
10.7319314053
 30
0.0
 10
10.2194210099
 20
10.7313518235
 30
0.0
  0
SPLINE
  5
340
100
AcDbEntity
  8
0
100
AcDbSpline
 62
7
  6
CONTINUOUS
 70
0
 71
3
 72
85
 73
81
 74
0
 42
0.0000001
 43
0.0000001
 44
0.0000000001
 40
0.0
 40
0.0
 40
0.0
 40
0.0
 40
0.0039801536
 40
0.0081240886
 40
0.0124359635
 40
0.0169193265
 40
0.0215771864
 40
0.0264119179
 40
0.0314251807
 40
0.0366181565
 40
0.0419915475
 40
0.0475456547
 40
0.0532804275
 40
0.0591954177
 40
0.0715624106
 40
0.0846380725
 40
0.0984093703
 40
0.1128599259
 40
0.1279704399
 40
0.1437190257
 40
0.1600814793
 40
0.1770315221
 40
0.1945410006
 40
0.2125800587
 40
0.231117291
 40
0.2501198757
 40
0.2695537098
 40
0.2893835355
 40
0.3095730555
 40
0.3300850431
 40
0.3508814473
 40
0.3719234976
 40
0.3931718126
 40
0.4145865023
 40
0.4577527565
 40
0.5010975085
 40
0.5442934995
 40
0.5657341296
 40
0.5870156851
 40
0.6080981942
 40
0.6289421774
 40
0.6495087485
 40
0.6697597169
 40
0.6896576926
 40
0.7091662002
 40
0.7282497876
 40
0.7468741375
 40
0.7650061872
 40
0.7826142562
 40
0.7996681911
 40
0.8161395201
 40
0.8320016152
 40
0.8472298839
 40
0.8618019934
 40
0.8756981411
 40
0.888901391
 40
0.9013980709
 40
0.9131782826
 40
0.9187981369
 40
0.9242372582
 40
0.9294957859
 40
0.9345743097
 40
0.9394738093
 40
0.9441958086
 40
0.9487423661
 40
0.9531161549
 40
0.9573205873
 40
0.9613598144
 40
0.9652389262
 40
0.9689639795
 40
0.9725421508
 40
0.9759818729
 40
0.9792928946
 40
0.9824864624
 40
0.9855753237
 40
0.9885737978
 40
0.9914977268
 40
0.9943643293
 40
0.9971920085
 40
1.0
 40
1.0
 40
1.0
 40
1.0
 10
11.9488228923
 20
10.6828257922
 30
0.0
 10
11.9476444653
 20
10.6816875191
 30
0.0
 10
11.9451856023
 20
10.679419016
 30
0.0
 10
11.9412816742
 20
10.6761056837
 30
0.0
 10
11.9370910594
 20
10.6728160973
 30
0.0
 10
11.9326160586
 20
10.6695520433
 30
0.0
 10
11.9278588783
 20
10.6663150225
 30
0.0
 10
11.9228218247
 20
10.6631066332
 30
0.0
 10
11.9175074233
 20
10.6599283835
 30
0.0
 10
11.9119183101
 20
10.6567819222
 30
0.0
 10
11.9060572984
 20
10.653668795
 30
0.0
 10
11.8999273256
 20
10.6505905543
 30
0.0
 10
11.8935314404
 20
10.6475487512
 30
0.0
 10
11.8845191529
 20
10.6434831651
 30
0.0
 10
11.8726020957
 20
10.6385149523
 30
0.0
 10
11.857499893
 20
10.6328074219
 30
0.0
 10
11.8414210784
 20
10.6272805771
 30
0.0
 10
11.8243980164
 20
10.6219456333
 30
0.0
 10
11.8064647868
 20
10.6168134339
 30
0.0
 10
11.7876574587
 20
10.6118944284
 30
0.0
 10
11.7680139031
 20
10.6071986297
 30
0.0
 10
11.7475737291
 20
10.6027356024
 30
0.0
 10
11.726378183
 20
10.598514438
 30
0.0
 10
11.7044700614
 20
10.5945437357
 30
0.0
 10
11.6818936224
 20
10.590831586
 30
0.0
 10
11.6586944959
 20
10.5873855454
 30
0.0
 10
11.6349195861
 20
10.5842126254
 30
0.0
 10
11.6106169701
 20
10.5813192828
 30
0.0
 10
11.5858357981
 20
10.578711405
 30
0.0
 10
11.5606261953
 20
10.5763943005
 30
0.0
 10
11.5350391575
 20
10.5743726826
 30
0.0
 10
11.5091264652
 20
10.5726506659
 30
0.0
 10
11.4829405033
 20
10.5712317224
 30
0.0
 10
11.4476401787
 20
10.569743997
 30
0.0
 10
11.4032220237
 20
10.568663381
 30
0.0
 10
11.349824604
 20
10.5686070475
 30
0.0
 10
11.3053813497
 20
10.5695937308
 30
0.0
 10
11.2700413161
 20
10.5710064607
 30
0.0
 10
11.2438113398
 20
10.5723699521
 30
0.0
 10
11.2178450363
 20
10.5740370887
 30
0.0
 10
11.1921948968
 20
10.5760045075
 30
0.0
 10
11.1669128282
 20
10.5782682003
 30
0.0
 10
11.1420499753
 20
10.5808235663
 30
0.0
 10
11.117656634
 20
10.583665411
 30
0.0
 10
11.0937821403
 20
10.5867879494
 30
0.0
 10
11.0704747706
 20
10.5901848246
 30
0.0
 10
11.0477816454
 20
10.5938491218
 30
0.0
 10
11.0257486337
 20
10.5977733812
 30
0.0
 10
11.0044202555
 20
10.601949615
 30
0.0
 10
10.9838395842
 20
10.6063693178
 30
0.0
 10
10.9640481525
 20
10.6110234821
 30
0.0
 10
10.9450858659
 20
10.6159026261
 30
0.0
 10
10.9269909203
 20
10.6209968123
 30
0.0
 10
10.9097997045
 20
10.6262956731
 30
0.0
 10
10.8935467432
 20
10.631788438
 30
0.0
 10
10.8782644822
 20
10.6374639657
 30
0.0
 10
10.8639836233
 20
10.6433107603
 30
0.0
 10
10.8527712183
 20
10.6483927163
 30
0.0
 10
10.8443355195
 20
10.6525449444
 30
0.0
 10
10.8383763141
 20
10.65564557
 30
0.0
 10
10.8326879807
 20
10.6587801
 30
0.0
 10
10.8272733292
 20
10.6619469413
 30
0.0
 10
10.8221350911
 20
10.6651445726
 30
0.0
 10
10.8172758096
 20
10.6683713764
 30
0.0
 10
10.8126979019
 20
10.6716257723
 30
0.0
 10
10.8084036669
 20
10.6749062112
 30
0.0
 10
10.8043951996
 20
10.6782110511
 30
0.0
 10
10.8006745463
 20
10.6815387902
 30
0.0
 10
10.7972435326
 20
10.6848878106
 30
0.0
 10
10.7941039121
 20
10.6882565867
 30
0.0
 10
10.7912573321
 20
10.6916435995
 30
0.0
 10
10.7887052567
 20
10.6950472723
 30
0.0
 10
10.7864491995
 20
10.6984661432
 30
0.0
 10
10.7844904362
 20
10.7018986052
 30
0.0
 10
10.7828302976
 20
10.7053430998
 30
0.0
 10
10.7814699962
 20
10.7087979538
 30
0.0
 10
10.7804105771
 20
10.7122613302
 30
0.0
 10
10.7796531137
 20
10.7157314173
 30
0.0
 10
10.7791982497
 20
10.719205746
 30
0.0
 10
10.7790970057
 20
10.7215268772
 30
0.0
 10
10.7790970001
 20
10.7226827659
 30
0.0
  0
SPLINE
  5
341
100
AcDbEntity
  8
0
100
AcDbSpline
 62
7
  6
CONTINUOUS
 70
0
 71
3
 72
19
 73
15
 74
0
 42
0.0000001
 43
0.0000001
 44
0.0000000001
 40
0.0
 40
0.0
 40
0.0
 40
0.0
 40
0.1504607152
 40
0.2916988954
 40
0.4244197706
 40
0.4878838785
 40
0.549580297
 40
0.6682271827
 40
0.7255606102
 40
0.7817998481
 40
0.8371466355
 40
0.8918135538
 40
0.9460221503
 40
1.0
 40
1.0
 40
1.0
 40
1.0
 10
13.004579848
 20
9.1017985921
 30
0.0
 10
13.0062619778
 20
9.1034234049
 30
0.0
 10
13.0096239335
 20
9.1064720186
 30
0.0
 10
13.0148295919
 20
9.110534652
 30
0.0
 10
13.0192265994
 20
9.1134079632
 30
0.0
 10
13.0227329231
 20
9.1153536871
 30
0.0
 10
13.0261358083
 20
9.1170241202
 30
0.0
 10
13.0295785316
 20
9.1183895549
 30
0.0
 10
13.0330406269
 20
9.1194170419
 30
0.0
 10
13.0356004065
 20
9.1200092815
 30
0.0
 10
13.038151662
 20
9.120431409
 30
0.0
 10
13.0406937234
 20
9.1206831985
 30
0.0
 10
13.0432255619
 20
9.1207645477
 30
0.0
 10
13.0449076425
 20
9.1207050473
 30
0.0
 10
13.0457446462
 20
9.1206469979
 30
0.0
  0
SPLINE
  5
342
100
AcDbEntity
  8
0
100
AcDbSpline
 62
7
  6
CONTINUOUS
 70
0
 71
3
 72
21
 73
17
 74
0
 42
0.0000001
 43
0.0000001
 44
0.0000000001
 40
0.0
 40
0.0
 40
0.0
 40
0.0
 40
0.1273176366
 40
0.2537999756
 40
0.3167619475
 40
0.3795355041
 40
0.4421314991
 40
0.5045621439
 40
0.5668413432
 40
0.6289845283
 40
0.6910084528
 40
0.7529310935
 40
0.8147714495
 40
0.8765493365
 40
0.9382852194
 40
1.0
 40
1.0
 40
1.0
 40
1.0
 10
9.4519660892
 20
10.0979716906
 30
0.0
 10
9.4519660892
 20
10.0912269363
 30
0.0
 10
9.4513222579
 20
10.077772997
 30
0.0
 10
9.4488907161
 20
10.061141021
 30
0.0
 10
9.4459844829
 20
10.0480946898
 30
0.0
 10
9.4433341545
 20
10.0384717113
 30
0.0
 10
9.4402162214
 20
10.0290197172
 30
0.0
 10
9.4366378279
 20
10.0197602446
 30
0.0
 10
9.4326072508
 20
10.0107147018
 30
0.0
 10
9.4281337284
 20
10.0019039494
 30
0.0
 10
9.4232275513
 20
9.9933483269
 30
0.0
 10
9.4179000624
 20
9.9850675398
 30
0.0
 10
9.4121635326
 20
9.9770807209
 30
0.0
 10
9.4060310905
 20
9.9694062582
 30
0.0
 10
9.3995171664
 20
9.9620620593
 30
0.0
 10
9.394929367
 20
9.9573965444
 30
0.0
 10
9.3925778433
 20
9.9551251465
 30
0.0
  0
SPLINE
  5
343
100
AcDbEntity
  8
0
100
AcDbSpline
 62
7
  6
CONTINUOUS
 70
0
 71
3
 72
21
 73
17
 74
0
 42
0.0000001
 43
0.0000001
 44
0.0000000001
 40
0.0
 40
0.0
 40
0.0
 40
0.0
 40
0.1273176366
 40
0.2537999756
 40
0.3167619475
 40
0.3795355041
 40
0.4421314991
 40
0.5045621439
 40
0.5668413432
 40
0.6289845283
 40
0.6910084528
 40
0.7529310935
 40
0.8147714495
 40
0.8765493365
 40
0.9382852194
 40
1.0
 40
1.0
 40
1.0
 40
1.0
 10
12.4695185905
 20
9.8887037138
 30
0.0
 10
12.4695185905
 20
9.8819589596
 30
0.0
 10
12.4688747592
 20
9.8685050202
 30
0.0
 10
12.4664432174
 20
9.8518730443
 30
0.0
 10
12.4635369843
 20
9.8388267131
 30
0.0
 10
12.4608866558
 20
9.8292037346
 30
0.0
 10
12.4577687228
 20
9.8197517404
 30
0.0
 10
12.4541903292
 20
9.8104922678
 30
0.0
 10
12.4501597521
 20
9.8014467251
 30
0.0
 10
12.4456862298
 20
9.7926359726
 30
0.0
 10
12.4407800527
 20
9.7840803502
 30
0.0
 10
12.4354525637
 20
9.775799563
 30
0.0
 10
12.429716034
 20
9.7678127442
 30
0.0
 10
12.4235835919
 20
9.7601382814
 30
0.0
 10
12.4170696678
 20
9.7527940826
 30
0.0
 10
12.4124818683
 20
9.7481285677
 30
0.0
 10
12.4101303446
 20
9.7458571698
 30
0.0
  0
SPLINE
  5
344
100
AcDbEntity
  8
0
100
AcDbSpline
 62
7
  6
CONTINUOUS
 70
0
 71
3
 72
21
 73
17
 74
0
 42
0.0000001
 43
0.0000001
 44
0.0000000001
 40
0.0
 40
0.0
 40
0.0
 40
0.0
 40
0.1273176366
 40
0.2537999756
 40
0.3167619475
 40
0.3795355041
 40
0.4421314991
 40
0.5045621439
 40
0.5668413432
 40
0.6289845283
 40
0.6910084528
 40
0.7529310935
 40
0.8147714495
 40
0.8765493365
 40
0.9382852194
 40
1.0
 40
1.0
 40
1.0
 40
1.0
 10
12.4695185905
 20
6.388188501
 30
0.0
 10
12.4695185905
 20
6.3814437468
 30
0.0
 10
12.4688747592
 20
6.3679898074
 30
0.0
 10
12.4664432174
 20
6.3513578315
 30
0.0
 10
12.4635369843
 20
6.3383115003
 30
0.0
 10
12.4608866558
 20
6.3286885218
 30
0.0
 10
12.4577687228
 20
6.3192365276
 30
0.0
 10
12.4541903292
 20
6.309977055
 30
0.0
 10
12.4501597521
 20
6.3009315123
 30
0.0
 10
12.4456862298
 20
6.2921207598
 30
0.0
 10
12.4407800527
 20
6.2835651374
 30
0.0
 10
12.4354525637
 20
6.2752843502
 30
0.0
 10
12.429716034
 20
6.2672975313
 30
0.0
 10
12.4235835919
 20
6.2596230686
 30
0.0
 10
12.4170696678
 20
6.2522788697
 30
0.0
 10
12.4124818683
 20
6.2476133548
 30
0.0
 10
12.4101303446
 20
6.245341957
 30
0.0
  0
SPLINE
  5
345
100
AcDbEntity
  8
0
100
AcDbSpline
 62
7
  6
CONTINUOUS
 70
0
 71
3
 72
21
 73
17
 74
0
 42
0.0000001
 43
0.0000001
 44
0.0000000001
 40
0.0
 40
0.0
 40
0.0
 40
0.0
 40
0.1273176366
 40
0.2537999756
 40
0.3167619475
 40
0.3795355041
 40
0.4421314991
 40
0.5045621439
 40
0.5668413432
 40
0.6289845283
 40
0.6910084528
 40
0.7529310935
 40
0.8147714495
 40
0.8765493365
 40
0.9382852194
 40
1.0
 40
1.0
 40
1.0
 40
1.0
 10
9.4519660892
 20
6.5974564777
 30
0.0
 10
9.4519660892
 20
6.5907117235
 30
0.0
 10
9.4513222579
 20
6.5772577842
 30
0.0
 10
9.4488907161
 20
6.5606258082
 30
0.0
 10
9.4459844829
 20
6.547579477
 30
0.0
 10
9.4433341545
 20
6.5379564985
 30
0.0
 10
9.4402162214
 20
6.5285045044
 30
0.0
 10
9.4366378279
 20
6.5192450318
 30
0.0
 10
9.4326072508
 20
6.510199489
 30
0.0
 10
9.4281337284
 20
6.5013887365
 30
0.0
 10
9.4232275513
 20
6.4928331141
 30
0.0
 10
9.4179000624
 20
6.4845523269
 30
0.0
 10
9.4121635326
 20
6.4765655081
 30
0.0
 10
9.4060310905
 20
6.4688910453
 30
0.0
 10
9.3995171664
 20
6.4615468465
 30
0.0
 10
9.394929367
 20
6.4568813316
 30
0.0
 10
9.3925778433
 20
6.4546099337
 30
0.0
  0
SPLINE
  5
346
100
AcDbEntity
  8
0
100
AcDbSpline
 62
7
  6
CONTINUOUS
 70
0
 71
3
 72
21
 73
17
 74
0
 42
0.0000001
 43
0.0000001
 44
0.0000000001
 40
0.0
 40
0.0
 40
0.0
 40
0.0
 40
0.1273176366
 40
0.2537999756
 40
0.3167619475
 40
0.3795355041
 40
0.4421314991
 40
0.5045621439
 40
0.5668413432
 40
0.6289845283
 40
0.6910084528
 40
0.7529310935
 40
0.8147714495
 40
0.8765493365
 40
0.9382852194
 40
1.0
 40
1.0
 40
1.0
 40
1.0
 10
10.2961853526
 20
7.9568885771
 30
0.0
 10
10.2961853526
 20
7.9501438228
 30
0.0
 10
10.2955415213
 20
7.9366898835
 30
0.0
 10
10.2931099795
 20
7.9200579075
 30
0.0
 10
10.2902037463
 20
7.9070115763
 30
0.0
 10
10.2875534179
 20
7.8973885978
 30
0.0
 10
10.2844354849
 20
7.8879366037
 30
0.0
 10
10.2808570913
 20
7.8786771311
 30
0.0
 10
10.2768265142
 20
7.8696315883
 30
0.0
 10
10.2723529919
 20
7.8608208358
 30
0.0
 10
10.2674468147
 20
7.8522652134
 30
0.0
 10
10.2621193258
 20
7.8439844262
 30
0.0
 10
10.2563827961
 20
7.8359976074
 30
0.0
 10
10.2502503539
 20
7.8283231446
 30
0.0
 10
10.2437364299
 20
7.8209789458
 30
0.0
 10
10.2391486304
 20
7.8163134309
 30
0.0
 10
10.2367971067
 20
7.814042033
 30
0.0
  0
SPLINE
  5
347
100
AcDbEntity
  8
0
100
AcDbSpline
 62
7
  6
CONTINUOUS
 70
0
 71
3
 72
21
 73
17
 74
0
 42
0.0000001
 43
0.0000001
 44
0.0000000001
 40
0.0
 40
0.0
 40
0.0
 40
0.0
 40
0.1273176366
 40
0.2537999756
 40
0.3167619475
 40
0.3795355041
 40
0.4421314991
 40
0.5045621439
 40
0.5668413432
 40
0.6289845283
 40
0.6910084528
 40
0.7529310935
 40
0.8147714495
 40
0.8765493365
 40
0.9382852194
 40
1.0
 40
1.0
 40
1.0
 40
1.0
 10
10.8100578701
 20
8.3443271292
 30
0.0
 10
10.8100578701
 20
8.337582375
 30
0.0
 10
10.8094140388
 20
8.3241284356
 30
0.0
 10
10.806982497
 20
8.3074964597
 30
0.0
 10
10.8040762639
 20
8.2944501285
 30
0.0
 10
10.8014259354
 20
8.2848271499
 30
0.0
 10
10.7983080024
 20
8.2753751558
 30
0.0
 10
10.7947296088
 20
8.2661156832
 30
0.0
 10
10.7906990317
 20
8.2570701405
 30
0.0
 10
10.7862255094
 20
8.248259388
 30
0.0
 10
10.7813193323
 20
8.2397037656
 30
0.0
 10
10.7759918433
 20
8.2314229784
 30
0.0
 10
10.7702553136
 20
8.2234361595
 30
0.0
 10
10.7641228715
 20
8.2157616968
 30
0.0
 10
10.7576089474
 20
8.2084174979
 30
0.0
 10
10.7530211479
 20
8.203751983
 30
0.0
 10
10.7506696242
 20
8.2014805852
 30
0.0
  0
SPLINE
  5
348
100
AcDbEntity
  8
0
100
AcDbSpline
 62
7
  6
CONTINUOUS
 70
0
 71
3
 72
21
 73
17
 74
0
 42
0.0000001
 43
0.0000001
 44
0.0000000001
 40
0.0
 40
0.0
 40
0.0
 40
0.0
 40
0.1273176366
 40
0.2537999756
 40
0.3167619475
 40
0.3795355041
 40
0.4421314991
 40
0.5045621439
 40
0.5668413432
 40
0.6289845283
 40
0.6910084528
 40
0.7529310935
 40
0.8147714495
 40
0.8765493365
 40
0.9382852194
 40
1.0
 40
1.0
 40
1.0
 40
1.0
 10
11.2022237963
 20
8.890890172
 30
0.0
 10
11.2022237963
 20
8.8841454178
 30
0.0
 10
11.201579965
 20
8.8706914784
 30
0.0
 10
11.1991484232
 20
8.8540595025
 30
0.0
 10
11.1962421901
 20
8.8410131713
 30
0.0
 10
11.1935918616
 20
8.8313901927
 30
0.0
 10
11.1904739286
 20
8.8219381986
 30
0.0
 10
11.1868955351
 20
8.812678726
 30
0.0
 10
11.1828649579
 20
8.8036331833
 30
0.0
 10
11.1783914356
 20
8.7948224308
 30
0.0
 10
11.1734852585
 20
8.7862668084
 30
0.0
 10
11.1681577695
 20
8.7779860212
 30
0.0
 10
11.1624212398
 20
8.7699992023
 30
0.0
 10
11.1562887977
 20
8.7623247396
 30
0.0
 10
11.1497748736
 20
8.7549805407
 30
0.0
 10
11.1451870741
 20
8.7503150258
 30
0.0
 10
11.1428355504
 20
8.748043628
 30
0.0
  0
SPLINE
  5
349
100
AcDbEntity
  8
0
100
AcDbSpline
 62
7
  6
CONTINUOUS
 70
0
 71
3
 72
21
 73
17
 74
0
 42
0.0000001
 43
0.0000001
 44
0.0000000001
 40
0.0
 40
0.0
 40
0.0
 40
0.0
 40
0.1273176366
 40
0.2537999756
 40
0.3167619475
 40
0.3795355041
 40
0.4421314991
 40
0.5045621439
 40
0.5668413432
 40
0.6289845283
 40
0.6910084528
 40
0.7529310935
 40
0.8147714495
 40
0.8765493365
 40
0.9382852194
 40
1.0
 40
1.0
 40
1.0
 40
1.0
 10
11.5943896074
 20
8.2899335385
 30
0.0
 10
11.5943896074
 20
8.2831887842
 30
0.0
 10
11.5937457761
 20
8.2697348449
 30
0.0
 10
11.5913142343
 20
8.2531028689
 30
0.0
 10
11.5884080011
 20
8.2400565378
 30
0.0
 10
11.5857576727
 20
8.2304335592
 30
0.0
 10
11.5826397397
 20
8.2209815651
 30
0.0
 10
11.5790613461
 20
8.2117220925
 30
0.0
 10
11.575030769
 20
8.2026765497
 30
0.0
 10
11.5705572467
 20
8.1938657973
 30
0.0
 10
11.5656510695
 20
8.1853101749
 30
0.0
 10
11.5603235806
 20
8.1770293877
 30
0.0
 10
11.5545870509
 20
8.1690425688
 30
0.0
 10
11.5484546087
 20
8.1613681061
 30
0.0
 10
11.5419406847
 20
8.1540239072
 30
0.0
 10
11.5373528852
 20
8.1493583923
 30
0.0
 10
11.5350013615
 20
8.1470869944
 30
0.0
  0
SPLINE
  5
34A
100
AcDbEntity
  8
0
100
AcDbSpline
 62
7
  6
CONTINUOUS
 70
0
 71
3
 72
22
 73
18
 74
0
 42
0.0000001
 43
0.0000001
 44
0.0000000001
 40
0.0
 40
0.0
 40
0.0
 40
0.0
 40
0.124833987
 40
0.1874021408
 40
0.2499783718
 40
0.3125303183
 40
0.3750428904
 40
0.4375154884
 40
0.4999586753
 40
0.5623901518
 40
0.6248302613
 40
0.6872975013
 40
0.749803621
 40
0.8123491683
 40
0.8749201257
 40
0.9374861091
 40
1.0
 40
1.0
 40
1.0
 40
1.0
 10
10.1355553253
 20
8.1733248717
 30
0.0
 10
10.1378983727
 20
8.1639343882
 30
0.0
 10
10.1422386219
 20
8.1500226069
 30
0.0
 10
10.1496300338
 20
8.1320980157
 30
0.0
 10
10.1559844939
 20
8.1189957266
 30
0.0
 10
10.1631363542
 20
8.1063165166
 30
0.0
 10
10.1710779331
 20
8.0941250061
 30
0.0
 10
10.1797989762
 20
8.0824881342
 30
0.0
 10
10.1892856996
 20
8.0714738923
 30
0.0
 10
10.1995187224
 20
8.0611518586
 30
0.0
 10
10.2104709839
 20
8.0515924661
 30
0.0
 10
10.2221055821
 20
8.0428656608
 30
0.0
 10
10.2343739358
 20
8.0350386365
 30
0.0
 10
10.2472144524
 20
8.0281728575
 30
0.0
 10
10.260552837
 20
8.0223203851
 30
0.0
 10
10.2743015696
 20
8.0175206949
 30
0.0
 10
10.2836867638
 20
8.015035709
 30
0.0
 10
10.2884156936
 20
8.013973753
 30
0.0
  0
SPLINE
  5
34B
100
AcDbEntity
  8
0
100
AcDbSpline
 62
7
  6
CONTINUOUS
 70
0
 71
3
 72
15
 73
11
 74
0
 42
0.0000001
 43
0.0000001
 44
0.0000000001
 40
0.0
 40
0.0
 40
0.0
 40
0.0
 40
0.1273482936
 40
0.2538605366
 40
0.3795879111
 40
0.5046050899
 40
0.6290174366
 40
0.7529533732
 40
0.8765605776
 40
1.0
 40
1.0
 40
1.0
 40
1.0
 10
10.0746278954
 20
9.2161976123
 30
0.0
 10
10.0746278954
 20
9.212871428
 30
0.0
 10
10.0743103131
 20
9.2062362973
 30
0.0
 10
10.0728740697
 20
9.1964112143
 30
0.0
 10
10.0704925389
 20
9.1868329999
 30
0.0
 10
10.0671872275
 20
9.1775912295
 30
0.0
 10
10.0629884773
 20
9.1687711285
 30
0.0
 10
10.0579345493
 20
9.1604541422
 30
0.0
 10
10.0520729524
 20
9.1527182122
 30
0.0
 10
10.0476594786
 20
9.1479926557
 30
0.0
 10
10.0453405279
 20
9.1457527407
 30
0.0
  0
SPLINE
  5
34C
100
AcDbEntity
  8
0
100
AcDbSpline
 62
7
  6
CONTINUOUS
 70
0
 71
3
 72
23
 73
19
 74
0
 42
0.0000001
 43
0.0000001
 44
0.0000000001
 40
0.0
 40
0.0
 40
0.0
 40
0.0
 40
0.0614488807
 40
0.1232974294
 40
0.1855193177
 40
0.2480712672
 40
0.3108995318
 40
0.3739401513
 40
0.4371217414
 40
0.5003679843
 40
0.5636003151
 40
0.6267406524
 40
0.6897141172
 40
0.7524516838
 40
0.8148926113
 40
0.8769871451
 40
0.9386966623
 40
1.0
 40
1.0
 40
1.0
 40
1.0
 10
9.9703079
 20
9.3277522239
 30
0.0
 10
9.9737319254
 20
9.327514767
 30
0.0
 10
9.9805833925
 20
9.3267008805
 30
0.0
 10
9.9907225207
 20
9.3244903532
 30
0.0
 10
10.0006651191
 20
9.3213074617
 30
0.0
 10
10.01031447
 20
9.3171830427
 30
0.0
 10
10.0195782941
 20
9.3121569693
 30
0.0
 10
10.0283676225
 20
9.3062776416
 30
0.0
 10
10.036598166
 20
9.2996016265
 30
0.0
 10
10.0441909591
 20
9.2921930778
 30
0.0
 10
10.0510731334
 20
9.284123127
 30
0.0
 10
10.0571785932
 20
9.275469212
 30
0.0
 10
10.0624486405
 20
9.2663143589
 30
0.0
 10
10.0668325317
 20
9.2567463701
 30
0.0
 10
10.0702880134
 20
9.2468571462
 30
0.0
 10
10.072781589
 20
9.2367412922
 30
0.0
 10
10.074289108
 20
9.226497227
 30
0.0
 10
10.0746278954
 20
9.2196217323
 30
0.0
 10
10.0746278954
 20
9.2161976123
 30
0.0
  0
SPLINE
  5
34D
100
AcDbEntity
  8
0
100
AcDbSpline
 62
7
  6
CONTINUOUS
 70
0
 71
3
 72
15
 73
11
 74
0
 42
0.0000001
 43
0.0000001
 44
0.0000000001
 40
0.0
 40
0.0
 40
0.0
 40
0.0
 40
0.1273482936
 40
0.2538605366
 40
0.3795879111
 40
0.5046050899
 40
0.6290174366
 40
0.7529533732
 40
0.8765605776
 40
1.0
 40
1.0
 40
1.0
 40
1.0
 10
12.126254542
 20
9.0739168211
 30
0.0
 10
12.126254542
 20
9.0705906368
 30
0.0
 10
12.1259369597
 20
9.0639555061
 30
0.0
 10
12.1245007163
 20
9.0541304231
 30
0.0
 10
12.1221191855
 20
9.0445522087
 30
0.0
 10
12.1188138741
 20
9.0353104383
 30
0.0
 10
12.114615124
 20
9.0264903373
 30
0.0
 10
12.1095611959
 20
9.018173351
 30
0.0
 10
12.103699599
 20
9.010437421
 30
0.0
 10
12.0992861253
 20
9.0057118645
 30
0.0
 10
12.0969671745
 20
9.0034719495
 30
0.0
  0
SPLINE
  5
34E
100
AcDbEntity
  8
0
100
AcDbSpline
 62
7
  6
CONTINUOUS
 70
0
 71
3
 72
23
 73
19
 74
0
 42
0.0000001
 43
0.0000001
 44
0.0000000001
 40
0.0
 40
0.0
 40
0.0
 40
0.0
 40
0.0614488807
 40
0.1232974294
 40
0.1855193177
 40
0.2480712672
 40
0.3108995318
 40
0.3739401513
 40
0.4371217414
 40
0.5003679843
 40
0.5636003151
 40
0.6267406524
 40
0.6897141172
 40
0.7524516838
 40
0.8148926113
 40
0.8769871451
 40
0.9386966623
 40
1.0
 40
1.0
 40
1.0
 40
1.0
 10
12.0219345466
 20
9.1854714328
 30
0.0
 10
12.025358572
 20
9.1852339758
 30
0.0
 10
12.0322100391
 20
9.1844200893
 30
0.0
 10
12.0423491674
 20
9.182209562
 30
0.0
 10
12.0522917657
 20
9.1790266705
 30
0.0
 10
12.0619411166
 20
9.1749022515
 30
0.0
 10
12.0712049407
 20
9.1698761781
 30
0.0
 10
12.0799942691
 20
9.1639968504
 30
0.0
 10
12.0882248126
 20
9.1573208353
 30
0.0
 10
12.0958176058
 20
9.1499122866
 30
0.0
 10
12.10269978
 20
9.1418423358
 30
0.0
 10
12.1088052398
 20
9.1331884208
 30
0.0
 10
12.1140752871
 20
9.1240335677
 30
0.0
 10
12.1184591783
 20
9.1144655789
 30
0.0
 10
12.12191466
 20
9.104576355
 30
0.0
 10
12.1244082356
 20
9.0944605011
 30
0.0
 10
12.1259157547
 20
9.0842164358
 30
0.0
 10
12.126254542
 20
9.0773409411
 30
0.0
 10
12.126254542
 20
9.0739168211
 30
0.0
  0
SPLINE
  5
34F
100
AcDbEntity
  8
0
100
AcDbSpline
 62
7
  6
CONTINUOUS
 70
0
 71
3
 72
15
 73
11
 74
0
 42
0.0000001
 43
0.0000001
 44
0.0000000001
 40
0.0
 40
0.0
 40
0.0
 40
0.0
 40
0.1273482936
 40
0.2538605366
 40
0.3795879111
 40
0.5046050899
 40
0.6290174366
 40
0.7529533732
 40
0.8765605776
 40
1.0
 40
1.0
 40
1.0
 40
1.0
 10
12.126254542
 20
7.3226932293
 30
0.0
 10
12.126254542
 20
7.3193670449
 30
0.0
 10
12.1259369597
 20
7.3127319143
 30
0.0
 10
12.1245007163
 20
7.3029068313
 30
0.0
 10
12.1221191855
 20
7.2933286169
 30
0.0
 10
12.1188138741
 20
7.2840868465
 30
0.0
 10
12.114615124
 20
7.2752667455
 30
0.0
 10
12.1095611959
 20
7.2669497592
 30
0.0
 10
12.103699599
 20
7.2592138292
 30
0.0
 10
12.0992861253
 20
7.2544882727
 30
0.0
 10
12.0969671745
 20
7.2522483577
 30
0.0
  0
SPLINE
  5
350
100
AcDbEntity
  8
0
100
AcDbSpline
 62
7
  6
CONTINUOUS
 70
0
 71
3
 72
23
 73
19
 74
0
 42
0.0000001
 43
0.0000001
 44
0.0000000001
 40
0.0
 40
0.0
 40
0.0
 40
0.0
 40
0.0614488807
 40
0.1232974294
 40
0.1855193177
 40
0.2480712672
 40
0.3108995318
 40
0.3739401513
 40
0.4371217414
 40
0.5003679843
 40
0.5636003151
 40
0.6267406524
 40
0.6897141172
 40
0.7524516838
 40
0.8148926113
 40
0.8769871451
 40
0.9386966623
 40
1.0
 40
1.0
 40
1.0
 40
1.0
 10
12.0219345466
 20
7.4342478409
 30
0.0
 10
12.025358572
 20
7.434010384
 30
0.0
 10
12.0322100391
 20
7.4331964975
 30
0.0
 10
12.0423491674
 20
7.4309859702
 30
0.0
 10
12.0522917657
 20
7.4278030787
 30
0.0
 10
12.0619411166
 20
7.4236786597
 30
0.0
 10
12.0712049407
 20
7.4186525863
 30
0.0
 10
12.0799942691
 20
7.4127732586
 30
0.0
 10
12.0882248126
 20
7.4060972434
 30
0.0
 10
12.0958176058
 20
7.3986886948
 30
0.0
 10
12.10269978
 20
7.390618744
 30
0.0
 10
12.1088052398
 20
7.381964829
 30
0.0
 10
12.1140752871
 20
7.3728099759
 30
0.0
 10
12.1184591783
 20
7.3632419871
 30
0.0
 10
12.12191466
 20
7.3533527632
 30
0.0
 10
12.1244082356
 20
7.3432369092
 30
0.0
 10
12.1259157547
 20
7.332992844
 30
0.0
 10
12.126254542
 20
7.3261173493
 30
0.0
 10
12.126254542
 20
7.3226932293
 30
0.0
  0
SPLINE
  5
351
100
AcDbEntity
  8
0
100
AcDbSpline
 62
7
  6
CONTINUOUS
 70
0
 71
3
 72
15
 73
11
 74
0
 42
0.0000001
 43
0.0000001
 44
0.0000000001
 40
0.0
 40
0.0
 40
0.0
 40
0.0
 40
0.1273482936
 40
0.2538605366
 40
0.3795879111
 40
0.5046050899
 40
0.6290174366
 40
0.7529533732
 40
0.8765605776
 40
1.0
 40
1.0
 40
1.0
 40
1.0
 10
10.0746278954
 20
7.4649740205
 30
0.0
 10
10.0746278954
 20
7.4616478361
 30
0.0
 10
10.0743103131
 20
7.4550127055
 30
0.0
 10
10.0728740697
 20
7.4451876225
 30
0.0
 10
10.0704925389
 20
7.4356094081
 30
0.0
 10
10.0671872275
 20
7.4263676377
 30
0.0
 10
10.0629884773
 20
7.4175475367
 30
0.0
 10
10.0579345493
 20
7.4092305504
 30
0.0
 10
10.0520729524
 20
7.4014946204
 30
0.0
 10
10.0476594786
 20
7.3967690639
 30
0.0
 10
10.0453405279
 20
7.3945291489
 30
0.0
  0
SPLINE
  5
352
100
AcDbEntity
  8
0
100
AcDbSpline
 62
7
  6
CONTINUOUS
 70
0
 71
3
 72
23
 73
19
 74
0
 42
0.0000001
 43
0.0000001
 44
0.0000000001
 40
0.0
 40
0.0
 40
0.0
 40
0.0
 40
0.0614488807
 40
0.1232974294
 40
0.1855193177
 40
0.2480712672
 40
0.3108995318
 40
0.3739401513
 40
0.4371217414
 40
0.5003679843
 40
0.5636003151
 40
0.6267406524
 40
0.6897141172
 40
0.7524516838
 40
0.8148926113
 40
0.8769871451
 40
0.9386966623
 40
1.0
 40
1.0
 40
1.0
 40
1.0
 10
9.9703079
 20
7.5765286321
 30
0.0
 10
9.9737319254
 20
7.5762911752
 30
0.0
 10
9.9805833925
 20
7.5754772887
 30
0.0
 10
9.9907225207
 20
7.5732667613
 30
0.0
 10
10.0006651191
 20
7.5700838698
 30
0.0
 10
10.01031447
 20
7.5659594509
 30
0.0
 10
10.0195782941
 20
7.5609333774
 30
0.0
 10
10.0283676225
 20
7.5550540498
 30
0.0
 10
10.036598166
 20
7.5483780346
 30
0.0
 10
10.0441909591
 20
7.540969486
 30
0.0
 10
10.0510731334
 20
7.5328995352
 30
0.0
 10
10.0571785932
 20
7.5242456202
 30
0.0
 10
10.0624486405
 20
7.5150907671
 30
0.0
 10
10.0668325317
 20
7.5055227783
 30
0.0
 10
10.0702880134
 20
7.4956335543
 30
0.0
 10
10.072781589
 20
7.4855177004
 30
0.0
 10
10.074289108
 20
7.4752736352
 30
0.0
 10
10.0746278954
 20
7.4683981405
 30
0.0
 10
10.0746278954
 20
7.4649740205
 30
0.0
  0
SPLINE
  5
353
100
AcDbEntity
  8
0
100
AcDbSpline
 62
7
  6
CONTINUOUS
 70
0
 71
3
 72
22
 73
18
 74
0
 42
0.0000001
 43
0.0000001
 44
0.0000000001
 40
0.0
 40
0.0
 40
0.0
 40
0.0
 40
0.0659495983
 40
0.131225441
 40
0.1959181969
 40
0.2601067854
 40
0.3238578988
 40
0.387224038
 40
0.4502427836
 40
0.5129382153
 40
0.6373322356
 40
0.6990414235
 40
0.7603590952
 40
0.8212199468
 40
0.8815332734
 40
0.9411799191
 40
1.0
 40
1.0
 40
1.0
 40
1.0
 10
10.8036293592
 20
8.3955762623
 30
0.0
 10
10.8006823531
 20
8.3972523645
 30
0.0
 10
10.794938709
 20
8.4008039614
 30
0.0
 10
10.7867659281
 20
8.4067032559
 30
0.0
 10
10.7790882301
 20
8.4130931068
 30
0.0
 10
10.7719082015
 20
8.4199231323
 30
0.0
 10
10.7652245072
 20
8.427146231
 30
0.0
 10
10.7590338949
 20
8.4347178084
 30
0.0
 10
10.7533311542
 20
8.442596279
 30
0.0
 10
10.7463902902
 20
8.4534255023
 30
0.0
 10
10.7403745259
 20
8.4647447198
 30
0.0
 10
10.7352806374
 20
8.4764035192
 30
0.0
 10
10.7319278684
 20
8.4852465697
 30
0.0
 10
10.7290296545
 20
8.4941728119
 30
0.0
 10
10.7265827622
 20
8.5031442167
 30
0.0
 10
10.7245861048
 20
8.512118677
 30
0.0
 10
10.7235471224
 20
8.5181222884
 30
0.0
 10
10.7231044613
 20
8.5211135053
 30
0.0
  0
SPLINE
  5
354
100
AcDbEntity
  8
0
100
AcDbSpline
 62
7
  6
CONTINUOUS
 70
0
 71
3
 72
59
 73
55
 74
0
 42
0.0000001
 43
0.0000001
 44
0.0000000001
 40
0.0
 40
0.0
 40
0.0
 40
0.0
 40
0.0076530952
 40
0.0158948392
 40
0.0247434963
 40
0.0342112984
 40
0.0443040706
 40
0.0550228214
 40
0.0663646806
 40
0.0783233189
 40
0.0908895746
 40
0.1040518163
 40
0.1177961571
 40
0.1321068097
 40
0.1469662493
 40
0.1623553168
 40
0.1782534604
 40
0.1946388179
 40
0.2114882768
 40
0.2287776607
 40
0.2464817743
 40
0.2645744545
 40
0.3018161001
 40
0.340278488
 40
0.379726518
 40
0.4199170074
 40
0.4606007965
 40
0.5015248049
 40
0.5424340438
 40
0.5830736445
 40
0.6231908688
 40
0.6625371465
 40
0.7008701361
 40
0.7379557832
 40
0.7559609066
 40
0.7735713191
 40
0.7907611073
 40
0.8075052682
 40
0.8237798668
 40
0.8395621072
 40
0.8548303757
 40
0.8695644409
 40
0.8837455464
 40
0.8973565014
 40
0.9103819556
 40
0.9228085584
 40
0.9346251614
 40
0.9458232481
 40
0.9563972718
 40
0.9663451278
 40
0.9756689394
 40
0.9843758602
 40
0.9924791921
 40
1.0
 40
1.0
 40
1.0
 40
1.0
 10
12.9891250331
 20
8.9290037281
 30
0.0
 10
12.987608868
 20
8.927539225
 30
0.0
 10
12.9845829083
 20
8.9243687343
 30
0.0
 10
12.9802173095
 20
8.9191298571
 30
0.0
 10
12.9758672619
 20
8.913244025
 30
0.0
 10
12.9715397833
 20
8.9067210385
 30
0.0
 10
12.967241445
 20
8.8995710341
 30
0.0
 10
12.962979215
 20
8.8918054964
 30
0.0
 10
12.9587600447
 20
8.8834369658
 30
0.0
 10
12.9545908446
 20
8.874479074
 30
0.0
 10
12.9504785255
 20
8.864946471
 30
0.0
 10
12.9464299393
 20
8.8548548073
 30
0.0
 10
12.9424517955
 20
8.8442207182
 30
0.0
 10
12.9385507358
 20
8.8330617553
 30
0.0
 10
12.9347332854
 20
8.8213963641
 30
0.0
 10
12.9310057864
 20
8.8092438652
 30
0.0
 10
12.9273744705
 20
8.7966243921
 30
0.0
 10
12.9238454128
 20
8.7835588657
 30
0.0
 10
12.9204244745
 20
8.7700689672
 30
0.0
 10
12.917117382
 20
8.7561770879
 30
0.0
 10
12.9139296348
 20
8.7419062707
 30
0.0
 10
12.909805908
 20
8.7222152467
 30
0.0
 10
12.9049994421
 20
8.6968279905
 30
0.0
 10
12.8998399249
 20
8.6655302529
 30
0.0
 10
12.8952692973
 20
8.6333206041
 30
0.0
 10
12.8913181056
 20
8.6004129527
 30
0.0
 10
12.8880127578
 20
8.5670256923
 30
0.0
 10
12.885375314
 20
8.5333805031
 30
0.0
 10
12.8834233157
 20
8.4997007858
 30
0.0
 10
12.8821696706
 20
8.4662101765
 30
0.0
 10
12.8816226121
 20
8.4331310539
 30
0.0
 10
12.8817855677
 20
8.4006829668
 30
0.0
 10
12.8826572292
 20
8.3690814291
 30
0.0
 10
12.8839815855
 20
8.3433799709
 30
0.0
 10
12.8854020306
 20
8.3234051086
 30
0.0
 10
12.886629033
 20
8.3089117904
 30
0.0
 10
12.8880260167
 20
8.2947828245
 30
0.0
 10
12.8895906877
 20
8.2810416506
 30
0.0
 10
12.8913204038
 20
8.2677110818
 30
0.0
 10
12.8932122471
 20
8.254813233
 30
0.0
 10
12.8952630671
 20
8.2423694968
 30
0.0
 10
12.8974694104
 20
8.230400493
 30
0.0
 10
12.8998275581
 20
8.2189260359
 30
0.0
 10
12.9023335836
 20
8.2079651056
 30
0.0
 10
12.9049832725
 20
8.1975357957
 30
0.0
 10
12.9077721749
 20
8.1876552816
 30
0.0
 10
12.9106956701
 20
8.1783397992
 30
0.0
 10
12.9137488846
 20
8.1696045779
 30
0.0
 10
12.9169267655
 20
8.1614638198
 30
0.0
 10
12.9202241865
 20
8.153930663
 30
0.0
 10
12.9236358225
 20
8.1470171778
 30
0.0
 10
12.9271564971
 20
8.1407341049
 30
0.0
 10
12.930780665
 20
8.1350917613
 30
0.0
 10
12.9333560037
 20
8.1316377413
 30
0.0
 10
12.9346630698
 20
8.1300306273
 30
0.0
  0
SPLINE
  5
355
100
AcDbEntity
  8
0
100
AcDbSpline
 62
7
  6
CONTINUOUS
 70
0
 71
3
 72
59
 73
55
 74
0
 42
0.0000001
 43
0.0000001
 44
0.0000000001
 40
0.0
 40
0.0
 40
0.0
 40
0.0
 40
0.0077405245
 40
0.0160542497
 40
0.024960405
 40
0.0344718839
 40
0.0445951894
 40
0.0553320496
 40
0.0666803118
 40
0.0786343308
 40
0.0911856042
 40
0.1043231538
 40
0.1180337168
 40
0.1323021262
 40
0.1471114588
 40
0.1624431483
 40
0.1782772461
 40
0.1945924619
 40
0.2113662695
 40
0.2285750893
 40
0.2461942852
 40
0.264198285
 40
0.3012535754
 40
0.3395215383
 40
0.3787717061
 40
0.4187655369
 40
0.459258457
 40
0.5000019073
 40
0.5407453406
 40
0.5812382058
 40
0.6212319494
 40
0.6604820047
 40
0.6987498106
 40
0.7358049088
 40
0.7538088165
 40
0.7714279017
 40
0.7886365922
 40
0.8054102913
 40
0.821725369
 40
0.8375593228
 40
0.8528908879
 40
0.8677000574
 40
0.8819683141
 40
0.8956787371
 40
0.9088161038
 40
0.9213672215
 40
0.9333210849
 40
0.9446691544
 40
0.9554058659
 40
0.9655289891
 40
0.9750402793
 40
0.9839463795
 40
0.9922597315
 40
1.0
 40
1.0
 40
1.0
 40
1.0
 10
10.6255968932
 20
10.7737033377
 30
0.0
 10
10.6242803861
 20
10.7724782543
 30
0.0
 10
10.6214463455
 20
10.7700472826
 30
0.0
 10
10.616797212
 20
10.7665753261
 30
0.0
 10
10.6116092052
 20
10.7631557224
 30
0.0
 10
10.6058908402
 20
10.759793896
 30
0.0
 10
10.5996509524
 20
10.7564949095
 30
0.0
 10
10.5928995159
 20
10.753264037
 30
0.0
 10
10.5856473447
 20
10.7501065107
 30
0.0
 10
10.5779061603
 20
10.747027449
 30
0.0
 10
10.5696885246
 20
10.74403191
 30
0.0
 10
10.56100782
 20
10.7411248566
 30
0.0
 10
10.5518782389
 20
10.7383110583
 30
0.0
 10
10.5423147256
 20
10.7355951862
 30
0.0
 10
10.5323329608
 20
10.7329817527
 30
0.0
 10
10.5219493391
 20
10.7304750592
 30
0.0
 10
10.5111809207
 20
10.7280792811
 30
0.0
 10
10.5000454138
 20
10.7257983923
 30
0.0
 10
10.4885611424
 20
10.7236361488
 30
0.0
 10
10.4767470112
 20
10.7215961647
 30
0.0
 10
10.4646224558
 20
10.7196817874
 30
0.0
 10
10.4479087596
 20
10.7172780215
 30
0.0
 10
10.4263871945
 20
10.7146199138
 30
0.0
 10
10.3998949298
 20
10.7120050809
 30
0.0
 10
10.3726685187
 20
10.7099529946
 30
0.0
 10
10.3448872849
 20
10.7084773518
 30
0.0
 10
10.3167340708
 20
10.7075880215
 30
0.0
 10
10.288394258
 20
10.7072909385
 30
0.0
 10
10.2600544587
 20
10.7075880991
 30
0.0
 10
10.2319012844
 20
10.7084775185
 30
0.0
 10
10.2041201143
 20
10.7099532443
 30
0.0
 10
10.1768937916
 20
10.7120054004
 30
0.0
 10
10.1504016423
 20
10.7146203128
 30
0.0
 10
10.1288801897
 20
10.7172784941
 30
0.0
 10
10.1121665917
 20
10.7196822981
 30
0.0
 10
10.10004212
 20
10.7215967111
 30
0.0
 10
10.0882280788
 20
10.72363674
 30
0.0
 10
10.0767438999
 20
10.7257990032
 30
0.0
 10
10.0656084936
 20
10.7280799312
 30
0.0
 10
10.0548401803
 20
10.7304757466
 30
0.0
 10
10.0444566653
 20
10.7329824555
 30
0.0
 10
10.0344750171
 20
10.7355959306
 30
0.0
 10
10.0249116221
 20
10.738311831
 30
0.0
 10
10.0157821601
 20
10.7411256412
 30
0.0
 10
10.0071015871
 20
10.7440327378
 30
0.0
 10
9.9988840804
 20
10.7470282946
 30
0.0
 10
9.9911430257
 20
10.7501073665
 30
0.0
 10
9.9838909988
 20
10.7532649353
 30
0.0
 10
9.9771397014
 20
10.7564958159
 30
0.0
 10
9.9708999533
 20
10.7597948095
 30
0.0
 10
9.9651817281
 20
10.7631566788
 30
0.0
 10
9.9599938947
 20
10.7665762844
 30
0.0
 10
9.9553449339
 20
10.7700482063
 30
0.0
 10
9.9525110535
 20
10.772479142
 30
0.0
 10
9.9511946226
 20
10.7737042199
 30
0.0
  0
SPLINE
  5
356
100
AcDbEntity
  8
0
100
AcDbSpline
 62
7
  6
CONTINUOUS
 70
0
 71
3
 72
18
 73
14
 74
0
 42
0.0000001
 43
0.0000001
 44
0.0000000001
 40
0.0
 40
0.0
 40
0.0
 40
0.0
 40
0.0548627134
 40
0.1099293262
 40
0.1654013673
 40
0.2214755976
 40
0.336133279
 40
0.4553633673
 40
0.5171049701
 40
0.5804366861
 40
0.7123309727
 40
0.8519568969
 40
1.0
 40
1.0
 40
1.0
 40
1.0
 10
11.9690969831
 20
10.7226835717
 30
0.0
 10
11.9690969871
 20
10.7218432576
 30
0.0
 10
11.9690436627
 20
10.7201590208
 30
0.0
 10
11.9688038976
 20
10.717635418
 30
0.0
 10
11.968404319
 20
10.7151132158
 30
0.0
 10
11.9676534329
 20
10.7117289907
 30
0.0
 10
11.9663007127
 20
10.7074873777
 30
0.0
 10
11.9644479814
 20
10.7033459067
 30
0.0
 10
11.962665223
 20
10.700054562
 30
0.0
 10
11.9606238967
 20
10.6966877861
 30
0.0
 10
11.9576598327
 20
10.6924932695
 30
0.0
 10
11.9535273888
 20
10.6875640351
 30
0.0
 10
11.9504538219
 20
10.6844011493
 30
0.0
 10
11.9488228923
 20
10.6828257922
 30
0.0
  0
SPLINE
  5
357
100
AcDbEntity
  8
0
100
AcDbSpline
 62
7
  6
CONTINUOUS
 70
0
 71
3
 72
11
 73
7
 74
0
 42
0.0000001
 43
0.0000001
 44
0.0000000001
 40
0.0
 40
0.0
 40
0.0
 40
0.0
 40
0.2463088638
 40
0.4941114617
 40
0.7448720349
 40
1.0
 40
1.0
 40
1.0
 40
1.0
 10
11.7490969862
 20
10.6685913186
 30
0.0
 10
11.7490969916
 20
10.6679141006
 30
0.0
 10
11.7490419102
 20
10.6665549286
 30
0.0
 10
11.7487943411
 20
10.6645198357
 30
0.0
 10
11.7483820531
 20
10.6624869333
 30
0.0
 10
11.748001412
 20
10.6611475059
 30
0.0
 10
11.7477851806
 20
10.6604801993
 30
0.0
  0
SPLINE
  5
358
100
AcDbEntity
  8
0
100
AcDbSpline
 62
7
  6
CONTINUOUS
 70
0
 71
3
 72
59
 73
55
 74
0
 42
0.0000001
 43
0.0000001
 44
0.0000000001
 40
0.0
 40
0.0
 40
0.0
 40
0.0
 40
0.007740316
 40
0.0160536929
 40
0.0249598372
 40
0.0344711764
 40
0.0445943197
 40
0.0553310781
 40
0.0666791918
 40
0.0786330702
 40
0.0911842349
 40
0.1043216365
 40
0.1180320714
 40
0.1323003724
 40
0.1471095655
 40
0.162441141
 40
0.1782751339
 40
0.1945902242
 40
0.2113639329
 40
0.2285726549
 40
0.2461917433
 40
0.2641956597
 40
0.3012507766
 40
0.339518601
 40
0.3787686521
 40
0.4187623881
 40
0.4592552449
 40
0.4999986602
 40
0.5407420879
 40
0.581234977
 40
0.6212287745
 40
0.660478914
 40
0.6987468338
 40
0.7358020777
 40
0.7538060646
 40
0.7714252425
 40
0.7886340303
 40
0.8054078265
 40
0.8217230209
 40
0.8375570892
 40
0.8528887681
 40
0.8676980767
 40
0.8819664611
 40
0.8956770135
 40
0.9088145381
 40
0.9213657922
 40
0.9333197996
 40
0.9446680395
 40
0.9554048851
 40
0.9655281753
 40
0.9750396416
 40
0.9839457896
 40
0.9922594792
 40
1.0
 40
1.0
 40
1.0
 40
1.0
 10
10.9742725647
 20
10.6784477265
 30
0.0
 10
10.9758334888
 20
10.6769951305
 30
0.0
 10
10.9791937069
 20
10.674112761
 30
0.0
 10
10.9847060708
 20
10.6699960401
 30
0.0
 10
10.9908574055
 20
10.665941381
 30
0.0
 10
10.9976376297
 20
10.6619551847
 30
0.0
 10
11.0050362144
 20
10.6580435107
 30
0.0
 10
11.0130413633
 20
10.6542126295
 30
0.0
 10
11.0216402295
 20
10.6504686728
 30
0.0
 10
11.0308189315
 20
10.6468177641
 30
0.0
 10
11.0405625787
 20
10.6432659136
 30
0.0
 10
11.0508552842
 20
10.6398189413
 30
0.0
 10
11.0616802366
 20
10.6364825602
 30
0.0
 10
11.0730197152
 20
10.6332623047
 30
0.0
 10
11.0848551166
 20
10.6301634789
 30
0.0
 10
11.0971670128
 20
10.6271912363
 30
0.0
 10
11.1099351729
 20
10.6243505112
 30
0.0
 10
11.1231385947
 20
10.6216459868
 30
0.0
 10
11.1367555585
 20
10.6190821625
 30
0.0
 10
11.1507636462
 20
10.6166632987
 30
0.0
 10
11.1651398105
 20
10.6143933512
 30
0.0
 10
11.1849573634
 20
10.611543141
 30
0.0
 10
11.2104756597
 20
10.608391314
 30
0.0
 10
11.2418877766
 20
10.6052908072
 30
0.0
 10
11.2741704034
 20
10.6028575453
 30
0.0
 10
11.3071109132
 20
10.601107771
 30
0.0
 10
11.3404925099
 20
10.6000532026
 30
0.0
 10
11.3740953852
 20
10.5997008671
 30
0.0
 10
11.4076982704
 20
10.6000531284
 30
0.0
 10
11.4410798981
 20
10.6011076425
 30
0.0
 10
11.4740204616
 20
10.6028573477
 30
0.0
 10
11.506303162
 20
10.6052905343
 30
0.0
 10
11.5377153698
 20
10.6083909921
 30
0.0
 10
11.5632337544
 20
10.611542762
 30
0.0
 10
11.5830513922
 20
10.614392937
 30
0.0
 10
11.5974276263
 20
10.616662841
 30
0.0
 10
11.6114357841
 20
10.6190816923
 30
0.0
 10
11.6250528255
 20
10.6216454867
 30
0.0
 10
11.6382563306
 20
10.6243499714
 30
0.0
 10
11.6510245724
 20
10.6271906882
 30
0.0
 10
11.663336559
 20
10.6301629011
 30
0.0
 10
11.6751720561
 20
10.6332616905
 30
0.0
 10
11.6865116263
 20
10.6364819428
 30
0.0
 10
11.697336681
 20
10.6398182941
 30
0.0
 10
11.7076294934
 20
10.643265234
 30
0.0
 10
11.7173732398
 20
10.6468170868
 30
0.0
 10
11.7265520554
 20
10.6504679658
 30
0.0
 10
11.7351510368
 20
10.654211895
 30
0.0
 10
11.7431562927
 20
10.6580427823
 30
0.0
 10
11.7505550031
 20
10.6619544305
 30
0.0
 10
11.7573353317
 20
10.6659406008
 30
0.0
 10
11.7634868076
 20
10.6699952665
 30
0.0
 10
11.7689993378
 20
10.6741120065
 30
0.0
 10
11.7723596868
 20
10.6769944405
 30
0.0
 10
11.7739206848
 20
10.6784470398
 30
0.0
  0
SPLINE
  5
359
100
AcDbEntity
  8
0
100
AcDbSpline
 62
7
  6
CONTINUOUS
 70
0
 71
3
 72
11
 73
7
 74
0
 42
0.0000001
 43
0.0000001
 44
0.0000000001
 40
0.0
 40
0.0
 40
0.0
 40
0.0
 40
0.2463549953
 40
0.494184738
 40
0.7449357575
 40
1.0
 40
1.0
 40
1.0
 40
1.0
 10
10.9990969969
 20
10.6685913186
 30
0.0
 10
10.9990970022
 20
10.6679184588
 30
0.0
 10
10.9991513837
 20
10.6665680958
 30
0.0
 10
10.9993957258
 20
10.664546136
 30
0.0
 10
10.9998027241
 20
10.6625263289
 30
0.0
 10
11.0001785275
 20
10.6611953407
 30
0.0
 10
11.0003920117
 20
10.6605322106
 30
0.0
  0
SPLINE
  5
35A
100
AcDbEntity
  8
0
100
AcDbSpline
 62
7
  6
CONTINUOUS
 70
0
 71
3
 72
9
 73
5
 74
0
 42
0.0000001
 43
0.0000001
 44
0.0000000001
 40
0.0
 40
0.0
 40
0.0
 40
0.0
 40
0.5039150517
 40
1.0
 40
1.0
 40
1.0
 40
1.0
 10
12.9184972816
 20
8.1579427767
 30
0.0
 10
12.9194811984
 20
8.1576111946
 30
0.0
 10
12.9214759758
 20
8.1570712499
 30
0.0
 10
12.9235242702
 20
8.1567932427
 30
0.0
 10
12.9245439737
 20
8.1567225189
 30
0.0
  0
SPLINE
  5
35B
100
AcDbEntity
  8
0
100
AcDbSpline
 62
7
  6
CONTINUOUS
 70
0
 71
3
 72
84
 73
80
 74
0
 42
0.0000001
 43
0.0000001
 44
0.0000000001
 40
0.0
 40
0.0
 40
0.0
 40
0.0
 40
0.0027164264
 40
0.0054532293
 40
0.008230295
 40
0.0110665896
 40
0.0139797932
 40
0.0169861044
 40
0.0201000661
 40
0.0233345812
 40
0.0267009392
 40
0.0302088856
 40
0.0338668056
 40
0.037681768
 40
0.0416597414
 40
0.0458056718
 40
0.050123593
 40
0.0546167913
 40
0.0592877975
 40
0.0641385717
 40
0.0691704988
 40
0.074384467
 40
0.0797809628
 40
0.0853600226
 40
0.0911213815
 40
0.0970644148
 40
0.1094911534
 40
0.122630387
 40
0.136468035
 40
0.1509868331
 40
0.1661667198
 40
0.1819851503
 40
0.1984173662
 40
0.2154366132
 40
0.2330143274
 40
0.2511202956
 40
0.2697227959
 40
0.2887887406
 40
0.3082838034
 40
0.3281725359
 40
0.3484184777
 40
0.3689842604
 40
0.3898317162
 40
0.4109219843
 40
0.4536719359
 40
0.4969138893
 40
0.5403221212
 40
0.5835693222
 40
0.6263297187
 40
0.6474271304
 40
0.6682829869
 40
0.6888584043
 40
0.7091151927
 40
0.7290159604
 40
0.748524216
 40
0.7676044742
 40
0.7862223676
 40
0.8043447661
 40
0.8219399096
 40
0.838977535
 40
0.8554290199
 40
0.8712675451
 40
0.8864682815
 40
0.9010086172
 40
0.9148684112
 40
0.9280303001
 40
0.9404800906
 40
0.946434749
 40
0.9522077946
 40
0.957798564
 40
0.9632067735
 40
0.9684324641
 40
0.9734760551
 40
0.9783384155
 40
0.983020862
 40
0.9875253935
 40
0.9918546029
 40
0.9960115831
 40
1.0
 40
1.0
 40
1.0
 40
1.0
 10
12.9634150498
 20
7.9334983849
 30
0.0
 10
12.9623045562
 20
7.9335754018
 30
0.0
 10
12.9600809284
 20
7.9338305528
 30
0.0
 10
12.956773795
 20
7.9345132509
 30
0.0
 10
12.9534916521
 20
7.9354958432
 30
0.0
 10
12.9502368553
 20
7.9367774093
 30
0.0
 10
12.9470110516
 20
7.9383567351
 30
0.0
 10
12.9438159408
 20
7.9402326741
 30
0.0
 10
12.9406529544
 20
7.9424038177
 30
0.0
 10
12.937523515
 20
7.9448688225
 30
0.0
 10
12.9344289931
 20
7.9476262611
 30
0.0
 10
12.9313706709
 20
7.9506745801
 30
0.0
 10
12.9283499554
 20
7.9540122524
 30
0.0
 10
12.9253681188
 20
7.9576375284
 30
0.0
 10
12.9224265527
 20
7.9615486343
 30
0.0
 10
12.9195266143
 20
7.9657436322
 30
0.0
 10
12.9166696263
 20
7.9702204381
 30
0.0
 10
12.9138570165
 20
7.9749768816
 30
0.0
 10
12.9110900716
 20
7.9800105861
 30
0.0
 10
12.9083701899
 20
7.9853190895
 30
0.0
 10
12.9056986906
 20
7.9908997574
 30
0.0
 10
12.9030768719
 20
7.9967498178
 30
0.0
 10
12.9005060853
 20
8.0028663801
 30
0.0
 10
12.8979875563
 20
8.0092463801
 30
0.0
 10
12.8955225689
 20
8.0158866619
 30
0.0
 10
12.8922603638
 20
8.0252222855
 30
0.0
 10
12.8883374054
 20
8.0375269077
 30
0.0
 10
12.8839296198
 20
8.0530632921
 30
0.0
 10
12.8797631841
 20
8.0695516663
 30
0.0
 10
12.8758465407
 20
8.0869590307
 30
0.0
 10
12.8721876519
 20
8.1052507055
 30
0.0
 10
12.8687939543
 20
8.1243900935
 30
0.0
 10
12.8656723537
 20
8.1443388675
 30
0.0
 10
12.8628292042
 20
8.1650570343
 30
0.0
 10
12.8602702954
 20
8.1865030293
 30
0.0
 10
12.8580008404
 20
8.2086337993
 30
0.0
 10
12.856025455
 20
8.2314048928
 30
0.0
 10
12.8543481596
 20
8.2547705557
 30
0.0
 10
12.8529723708
 20
8.2786838305
 30
0.0
 10
12.8519008952
 20
8.3030966511
 30
0.0
 10
12.8511359229
 20
8.3279599424
 30
0.0
 10
12.8506790269
 20
8.3532237017
 30
0.0
 10
12.8505311189
 20
8.3788371673
 30
0.0
 10
12.8507474248
 20
8.4135412377
 30
0.0
 10
12.8517969163
 20
8.4574140518
 30
0.0
 10
12.8542702904
 20
8.5103874143
 30
0.0
 10
12.857943779
 20
8.5634955212
 30
0.0
 10
12.8627878608
 20
8.6163113477
 30
0.0
 10
12.8677894273
 20
8.6599201853
 30
0.0
 10
12.8723539199
 20
8.6943341936
 30
0.0
 10
12.8760276074
 20
8.719693692
 30
0.0
 10
12.8799593028
 20
8.7446658018
 30
0.0
 10
12.8841411097
 20
8.7692003482
 30
0.0
 10
12.8885645793
 20
8.7932479972
 30
0.0
 10
12.8932207868
 20
8.8167604125
 30
0.0
 10
12.8981003336
 20
8.8396903363
 30
0.0
 10
12.9031933699
 20
8.8619916895
 30
0.0
 10
12.9084896136
 20
8.8836196697
 30
0.0
 10
12.9139783619
 20
8.9045308477
 30
0.0
 10
12.9196485235
 20
8.9246832554
 30
0.0
 10
12.9254886397
 20
8.9440364706
 30
0.0
 10
12.9314869082
 20
8.9625517017
 30
0.0
 10
12.9376312124
 20
8.9801918836
 30
0.0
 10
12.9439091377
 20
8.9969217427
 30
0.0
 10
12.9503080161
 20
9.0127079729
 30
0.0
 10
12.9568149444
 20
9.0275189881
 30
0.0
 10
12.9623962542
 20
9.0391915759
 30
0.0
 10
12.9669140353
 20
9.0480098285
 30
0.0
 10
12.9702708642
 20
9.0542632012
 30
0.0
 10
12.9736449058
 20
9.0602515877
 30
0.0
 10
12.977034466
 20
9.0659720274
 30
0.0
 10
12.9804378649
 20
9.0714216683
 30
0.0
 10
12.9838534288
 20
9.076597784
 30
0.0
 10
12.9872794015
 20
9.0814978236
 30
0.0
 10
12.9907141682
 20
9.0861193436
 30
0.0
 10
12.9941560398
 20
9.090460121
 30
0.0
 10
12.9976034275
 20
9.094518026
 30
0.0
 10
13.0010544681
 20
9.0982908553
 30
0.0
 10
13.0034042921
 20
9.1006630923
 30
0.0
 10
13.004579848
 20
9.1017985921
 30
0.0
  0
SPLINE
  5
35C
100
AcDbEntity
  8
0
100
AcDbSpline
 62
7
  6
CONTINUOUS
 70
0
 71
3
 72
9
 73
5
 74
0
 42
0.0000001
 43
0.0000001
 44
0.0000000001
 40
0.0
 40
0.0
 40
0.0
 40
0.0
 40
0.5039723235
 40
1.0
 40
1.0
 40
1.0
 40
1.0
 10
12.9702286171
 20
8.9045427667
 30
0.0
 10
12.9712563875
 20
8.9047387054
 30
0.0
 10
12.9733218558
 20
8.9050030821
 30
0.0
 10
12.9754047023
 20
8.9049966811
 30
0.0
 10
12.9764320218
 20
8.9049254291
 30
0.0
  0
SPLINE
  5
35D
100
AcDbEntity
  8
0
100
AcDbSpline
 62
7
  6
CONTINUOUS
 70
0
 71
3
 72
42
 73
38
 74
0
 42
0.0000001
 43
0.0000001
 44
0.0000000001
 40
0.0
 40
0.0
 40
0.0
 40
0.0
 40
0.0299419663
 40
0.0449235352
 40
0.0599142051
 40
0.0899287052
 40
0.1200139767
 40
0.135092661
 40
0.150196701
 40
0.1804840414
 40
0.210897872
 40
0.2414513324
 40
0.2721543376
 40
0.3030133986
 40
0.3340315263
 40
0.3652082187
 40
0.3965395244
 40
0.4280181782
 40
0.4596338019
 40
0.4913731609
 40
0.5232204716
 40
0.55515775
 40
0.5871651943
 40
0.6192215961
 40
0.6513047701
 40
0.6833919991
 40
0.7154604852
 40
0.7474878032
 40
0.7794523473
 40
0.8113337692
 40
0.8431133916
 40
0.8747746171
 40
0.9063032365
 40
0.9376879249
 40
0.9533258257
 40
0.968925233
 40
1.0
 40
1.0
 40
1.0
 40
1.0
 10
11.2307023163
 20
8.4621204706
 30
0.0
 10
11.2343354534
 20
8.4656298122
 30
0.0
 10
11.2399992886
 20
8.4706812092
 30
0.0
 10
11.2479314016
 20
8.4769488607
 30
0.0
 10
11.2561160955
 20
8.4829046508
 30
0.0
 10
11.2667957943
 20
8.4897438191
 30
0.0
 10
11.2779947593
 20
8.4957261034
 30
0.0
 10
11.2872309844
 20
8.499981961
 30
0.0
 10
11.2966580381
 20
8.5038864225
 30
0.0
 10
11.3087524962
 20
8.50808489
 30
0.0
 10
11.3236571012
 20
8.5119977485
 30
0.0
 10
11.3388869296
 20
8.5147697335
 30
0.0
 10
11.354357584
 20
8.5163855424
 30
0.0
 10
11.3699840796
 20
8.5168365545
 30
0.0
 10
11.3856804349
 20
8.5161204736
 30
0.0
 10
11.4013603789
 20
8.514241436
 30
0.0
 10
11.4169377569
 20
8.5112099504
 30
0.0
 10
11.4323270155
 20
8.5070428409
 30
0.0
 10
11.4474436617
 20
8.5017631468
 30
0.0
 10
11.4622047212
 20
8.495399993
 30
0.0
 10
11.4765291872
 20
8.4879884279
 30
0.0
 10
11.4903384596
 20
8.4795692309
 30
0.0
 10
11.5035567699
 20
8.4701886879
 30
0.0
 10
11.5161115916
 20
8.4598983382
 30
0.0
 10
11.5279340338
 20
8.4487546937
 30
0.0
 10
11.5389592146
 20
8.4368189311
 30
0.0
 10
11.5491266135
 20
8.4241565598
 30
0.0
 10
11.5583804002
 20
8.4108370647
 30
0.0
 10
11.5666697386
 20
8.3969335337
 30
0.0
 10
11.5739490637
 20
8.3825222448
 30
0.0
 10
11.5801783293
 20
8.3676823125
 30
0.0
 10
11.5853232368
 20
8.3524950399
 30
0.0
 10
11.5893553689
 20
8.3370442893
 30
0.0
 10
11.5917727176
 20
8.3240021752
 30
0.0
 10
11.5931287829
 20
8.3135230032
 30
0.0
 10
11.5940965712
 20
8.3030538562
 30
0.0
 10
11.5943896074
 20
8.2951758972
 30
0.0
 10
11.5943896074
 20
8.2899335385
 30
0.0
  0
SPLINE
  5
35E
100
AcDbEntity
  8
0
100
AcDbSpline
 62
7
  6
CONTINUOUS
 70
0
 71
3
 72
42
 73
38
 74
0
 42
0.0000001
 43
0.0000001
 44
0.0000000001
 40
0.0
 40
0.0
 40
0.0
 40
0.0
 40
0.0299419663
 40
0.0449235352
 40
0.0599142051
 40
0.0899287052
 40
0.1200139767
 40
0.135092661
 40
0.150196701
 40
0.1804840414
 40
0.210897872
 40
0.2414513324
 40
0.2721543376
 40
0.3030133986
 40
0.3340315263
 40
0.3652082187
 40
0.3965395244
 40
0.4280181782
 40
0.4596338019
 40
0.4913731609
 40
0.5232204716
 40
0.55515775
 40
0.5871651943
 40
0.6192215961
 40
0.6513047701
 40
0.6833919991
 40
0.7154604852
 40
0.7474878032
 40
0.7794523473
 40
0.8113337692
 40
0.8431133916
 40
0.8747746171
 40
0.9063032365
 40
0.9376879249
 40
0.9533258257
 40
0.968925233
 40
1.0
 40
1.0
 40
1.0
 40
1.0
 10
10.8385365053
 20
9.0630771042
 30
0.0
 10
10.8421696424
 20
9.0665864457
 30
0.0
 10
10.8478334775
 20
9.0716378428
 30
0.0
 10
10.8557655905
 20
9.0779054943
 30
0.0
 10
10.8639502845
 20
9.0838612844
 30
0.0
 10
10.8746299832
 20
9.0907004526
 30
0.0
 10
10.8858289483
 20
9.0966827369
 30
0.0
 10
10.8950651733
 20
9.1009385945
 30
0.0
 10
10.9044922271
 20
9.1048430561
 30
0.0
 10
10.9165866851
 20
9.1090415235
 30
0.0
 10
10.9314912901
 20
9.112954382
 30
0.0
 10
10.9467211185
 20
9.115726367
 30
0.0
 10
10.962191773
 20
9.1173421759
 30
0.0
 10
10.9778182685
 20
9.1177931881
 30
0.0
 10
10.9935146238
 20
9.1170771071
 30
0.0
 10
11.0091945678
 20
9.1151980695
 30
0.0
 10
11.0247719458
 20
9.1121665839
 30
0.0
 10
11.0401612044
 20
9.1079994744
 30
0.0
 10
11.0552778506
 20
9.1027197803
 30
0.0
 10
11.0700389101
 20
9.0963566266
 30
0.0
 10
11.0843633761
 20
9.0889450614
 30
0.0
 10
11.0981726486
 20
9.0805258644
 30
0.0
 10
11.1113909588
 20
9.0711453214
 30
0.0
 10
11.1239457805
 20
9.0608549717
 30
0.0
 10
11.1357682228
 20
9.0497113272
 30
0.0
 10
11.1467934036
 20
9.0377755646
 30
0.0
 10
11.1569608024
 20
9.0251131933
 30
0.0
 10
11.1662145891
 20
9.0117936983
 30
0.0
 10
11.1745039276
 20
8.9978901673
 30
0.0
 10
11.1817832527
 20
8.9834788783
 30
0.0
 10
11.1880125182
 20
8.9686389461
 30
0.0
 10
11.1931574257
 20
8.9534516735
 30
0.0
 10
11.1971895578
 20
8.9380009229
 30
0.0
 10
11.1996069065
 20
8.9249588088
 30
0.0
 10
11.2009629718
 20
8.9144796367
 30
0.0
 10
11.2019307601
 20
8.9040104897
 30
0.0
 10
11.2022237963
 20
8.8961325308
 30
0.0
 10
11.2022237963
 20
8.890890172
 30
0.0
  0
SPLINE
  5
35F
100
AcDbEntity
  8
0
100
AcDbSpline
 62
7
  6
CONTINUOUS
 70
0
 71
3
 72
42
 73
38
 74
0
 42
0.0000001
 43
0.0000001
 44
0.0000000001
 40
0.0
 40
0.0
 40
0.0
 40
0.0
 40
0.0299419663
 40
0.0449235352
 40
0.0599142051
 40
0.0899287052
 40
0.1200139767
 40
0.135092661
 40
0.150196701
 40
0.1804840414
 40
0.210897872
 40
0.2414513324
 40
0.2721543376
 40
0.3030133986
 40
0.3340315263
 40
0.3652082187
 40
0.3965395244
 40
0.4280181782
 40
0.4596338019
 40
0.4913731609
 40
0.5232204716
 40
0.55515775
 40
0.5871651943
 40
0.6192215961
 40
0.6513047701
 40
0.6833919991
 40
0.7154604852
 40
0.7474878032
 40
0.7794523473
 40
0.8113337692
 40
0.8431133916
 40
0.8747746171
 40
0.9063032365
 40
0.9376879249
 40
0.9533258257
 40
0.968925233
 40
1.0
 40
1.0
 40
1.0
 40
1.0
 10
10.4463705791
 20
8.5165140614
 30
0.0
 10
10.4500037162
 20
8.5200234029
 30
0.0
 10
10.4556675513
 20
8.5250748
 30
0.0
 10
10.4635996643
 20
8.5313424515
 30
0.0
 10
10.4717843583
 20
8.5372982416
 30
0.0
 10
10.482464057
 20
8.5441374098
 30
0.0
 10
10.4936630221
 20
8.5501196941
 30
0.0
 10
10.5028992471
 20
8.5543755517
 30
0.0
 10
10.5123263008
 20
8.5582800133
 30
0.0
 10
10.5244207589
 20
8.5624784807
 30
0.0
 10
10.5393253639
 20
8.5663913392
 30
0.0
 10
10.5545551923
 20
8.5691633242
 30
0.0
 10
10.5700258468
 20
8.5707791331
 30
0.0
 10
10.5856523423
 20
8.5712301453
 30
0.0
 10
10.6013486976
 20
8.5705140643
 30
0.0
 10
10.6170286416
 20
8.5686350267
 30
0.0
 10
10.6326060196
 20
8.5656035411
 30
0.0
 10
10.6479952782
 20
8.5614364316
 30
0.0
 10
10.6631119244
 20
8.5561567375
 30
0.0
 10
10.6778729839
 20
8.5497935838
 30
0.0
 10
10.6921974499
 20
8.5423820186
 30
0.0
 10
10.7060067223
 20
8.5339628216
 30
0.0
 10
10.7192250326
 20
8.5245822786
 30
0.0
 10
10.7317798543
 20
8.5142919289
 30
0.0
 10
10.7436022966
 20
8.5031482844
 30
0.0
 10
10.7546274774
 20
8.4912125218
 30
0.0
 10
10.7647948762
 20
8.4785501505
 30
0.0
 10
10.7740486629
 20
8.4652306555
 30
0.0
 10
10.7823380013
 20
8.4513271245
 30
0.0
 10
10.7896173265
 20
8.4369158355
 30
0.0
 10
10.795846592
 20
8.4220759032
 30
0.0
 10
10.8009914995
 20
8.4068886307
 30
0.0
 10
10.8050236316
 20
8.39143788
 30
0.0
 10
10.8074409803
 20
8.3783957659
 30
0.0
 10
10.8087970456
 20
8.3679165939
 30
0.0
 10
10.8097648339
 20
8.3574474469
 30
0.0
 10
10.8100578701
 20
8.349569488
 30
0.0
 10
10.8100578701
 20
8.3443271292
 30
0.0
  0
SPLINE
  5
360
100
AcDbEntity
  8
0
100
AcDbSpline
 62
7
  6
CONTINUOUS
 70
0
 71
3
 72
42
 73
38
 74
0
 42
0.0000001
 43
0.0000001
 44
0.0000000001
 40
0.0
 40
0.0
 40
0.0
 40
0.0
 40
0.0299419663
 40
0.0449235352
 40
0.0599142051
 40
0.0899287052
 40
0.1200139767
 40
0.135092661
 40
0.150196701
 40
0.1804840414
 40
0.210897872
 40
0.2414513324
 40
0.2721543376
 40
0.3030133986
 40
0.3340315263
 40
0.3652082187
 40
0.3965395244
 40
0.4280181782
 40
0.4596338019
 40
0.4913731609
 40
0.5232204716
 40
0.55515775
 40
0.5871651943
 40
0.6192215961
 40
0.6513047701
 40
0.6833919991
 40
0.7154604852
 40
0.7474878032
 40
0.7794523473
 40
0.8113337692
 40
0.8431133916
 40
0.8747746171
 40
0.9063032365
 40
0.9376879249
 40
0.9533258257
 40
0.968925233
 40
1.0
 40
1.0
 40
1.0
 40
1.0
 10
9.9324980615
 20
8.1290755092
 30
0.0
 10
9.9361311986
 20
8.1325848508
 30
0.0
 10
9.9417950338
 20
8.1376362478
 30
0.0
 10
9.9497271468
 20
8.1439038993
 30
0.0
 10
9.9579118407
 20
8.1498596894
 30
0.0
 10
9.9685915395
 20
8.1566988576
 30
0.0
 10
9.9797905045
 20
8.162681142
 30
0.0
 10
9.9890267296
 20
8.1669369996
 30
0.0
 10
9.9984537833
 20
8.1708414611
 30
0.0
 10
10.0105482414
 20
8.1750399286
 30
0.0
 10
10.0254528464
 20
8.1789527871
 30
0.0
 10
10.0406826748
 20
8.1817247721
 30
0.0
 10
10.0561533292
 20
8.183340581
 30
0.0
 10
10.0717798248
 20
8.1837915931
 30
0.0
 10
10.0874761801
 20
8.1830755122
 30
0.0
 10
10.1031561241
 20
8.1811964745
 30
0.0
 10
10.1187335021
 20
8.178164989
 30
0.0
 10
10.1341227607
 20
8.1739978795
 30
0.0
 10
10.1492394069
 20
8.1687181854
 30
0.0
 10
10.1640004664
 20
8.1623550316
 30
0.0
 10
10.1783249324
 20
8.1549434665
 30
0.0
 10
10.1921342048
 20
8.1465242695
 30
0.0
 10
10.2053525151
 20
8.1371437265
 30
0.0
 10
10.2179073368
 20
8.1268533768
 30
0.0
 10
10.229729779
 20
8.1157097323
 30
0.0
 10
10.2407549598
 20
8.1037739697
 30
0.0
 10
10.2509223587
 20
8.0911115984
 30
0.0
 10
10.2601761454
 20
8.0777921033
 30
0.0
 10
10.2684654838
 20
8.0638885723
 30
0.0
 10
10.2757448089
 20
8.0494772834
 30
0.0
 10
10.2819740745
 20
8.0346373511
 30
0.0
 10
10.287118982
 20
8.0194500785
 30
0.0
 10
10.2911511141
 20
8.0039993279
 30
0.0
 10
10.2935684628
 20
7.9909572138
 30
0.0
 10
10.2949245281
 20
7.9804780417
 30
0.0
 10
10.2958923164
 20
7.9700088948
 30
0.0
 10
10.2961853526
 20
7.9621309358
 30
0.0
 10
10.2961853526
 20
7.9568885771
 30
0.0
  0
SPLINE
  5
361
100
AcDbEntity
  8
0
100
AcDbSpline
 62
7
  6
CONTINUOUS
 70
0
 71
3
 72
15
 73
11
 74
0
 42
0.0000001
 43
0.0000001
 44
0.0000000001
 40
0.0
 40
0.0
 40
0.0
 40
0.0
 40
0.1233171261
 40
0.2468171865
 40
0.3706749939
 40
0.4950495802
 40
0.6200773232
 40
0.7458671315
 40
0.872492731
 40
1.0
 40
1.0
 40
1.0
 40
1.0
 10
9.8952752721
 20
7.5498881245
 30
0.0
 10
9.8976988244
 20
7.552229076
 30
0.0
 10
9.9028059962
 20
7.5566570047
 30
0.0
 10
9.9111414039
 20
7.5624431073
 30
0.0
 10
9.9200730758
 20
7.5673207149
 30
0.0
 10
9.9295095884
 20
7.5712396946
 30
0.0
 10
9.9393557534
 20
7.5741611383
 30
0.0
 10
9.9495123847
 20
7.5760558356
 30
0.0
 10
9.9598758063
 20
7.576905358
 30
0.0
 10
9.9668322373
 20
7.5767696702
 30
0.0
 10
9.9703079
 20
7.5765286321
 30
0.0
  0
SPLINE
  5
362
100
AcDbEntity
  8
0
100
AcDbSpline
 62
7
  6
CONTINUOUS
 70
0
 71
3
 72
15
 73
11
 74
0
 42
0.0000001
 43
0.0000001
 44
0.0000000001
 40
0.0
 40
0.0
 40
0.0
 40
0.0
 40
0.1233171261
 40
0.2468171865
 40
0.3706749939
 40
0.4950495802
 40
0.6200773232
 40
0.7458671315
 40
0.872492731
 40
1.0
 40
1.0
 40
1.0
 40
1.0
 10
11.9469019187
 20
7.4076073333
 30
0.0
 10
11.9493254711
 20
7.4099482848
 30
0.0
 10
11.9544326429
 20
7.4143762135
 30
0.0
 10
11.9627680505
 20
7.4201623161
 30
0.0
 10
11.9716997224
 20
7.4250399237
 30
0.0
 10
11.981136235
 20
7.4289589034
 30
0.0
 10
11.9909824
 20
7.4318803471
 30
0.0
 10
12.0011390313
 20
7.4337750444
 30
0.0
 10
12.011502453
 20
7.4346245668
 30
0.0
 10
12.0184588839
 20
7.434488879
 30
0.0
 10
12.0219345466
 20
7.4342478409
 30
0.0
  0
SPLINE
  5
363
100
AcDbEntity
  8
0
100
AcDbSpline
 62
7
  6
CONTINUOUS
 70
0
 71
3
 72
42
 73
38
 74
0
 42
0.0000001
 43
0.0000001
 44
0.0000000001
 40
0.0
 40
0.0
 40
0.0
 40
0.0
 40
0.0299419663
 40
0.0449235352
 40
0.0599142051
 40
0.0899287052
 40
0.1200139767
 40
0.135092661
 40
0.150196701
 40
0.1804840414
 40
0.210897872
 40
0.2414513324
 40
0.2721543376
 40
0.3030133986
 40
0.3340315263
 40
0.3652082187
 40
0.3965395244
 40
0.4280181782
 40
0.4596338019
 40
0.4913731609
 40
0.5232204716
 40
0.55515775
 40
0.5871651943
 40
0.6192215961
 40
0.6513047701
 40
0.6833919991
 40
0.7154604852
 40
0.7474878032
 40
0.7794523473
 40
0.8113337692
 40
0.8431133916
 40
0.8747746171
 40
0.9063032365
 40
0.9376879249
 40
0.9533258257
 40
0.968925233
 40
1.0
 40
1.0
 40
1.0
 40
1.0
 10
9.0882787981
 20
10.2701586227
 30
0.0
 10
9.0919119352
 20
10.2736679643
 30
0.0
 10
9.0975757703
 20
10.2787193613
 30
0.0
 10
9.1055078834
 20
10.2849870128
 30
0.0
 10
9.1136925773
 20
10.2909428029
 30
0.0
 10
9.1243722761
 20
10.2977819711
 30
0.0
 10
9.1355712411
 20
10.3037642555
 30
0.0
 10
9.1448074662
 20
10.3080201131
 30
0.0
 10
9.1542345199
 20
10.3119245746
 30
0.0
 10
9.1663289779
 20
10.3161230421
 30
0.0
 10
9.1812335829
 20
10.3200359006
 30
0.0
 10
9.1964634114
 20
10.3228078856
 30
0.0
 10
9.2119340658
 20
10.3244236945
 30
0.0
 10
9.2275605614
 20
10.3248747066
 30
0.0
 10
9.2432569167
 20
10.3241586257
 30
0.0
 10
9.2589368607
 20
10.322279588
 30
0.0
 10
9.2745142386
 20
10.3192481025
 30
0.0
 10
9.2899034973
 20
10.315080993
 30
0.0
 10
9.3050201434
 20
10.3098012989
 30
0.0
 10
9.3197812029
 20
10.3034381451
 30
0.0
 10
9.334105669
 20
10.29602658
 30
0.0
 10
9.3479149414
 20
10.287607383
 30
0.0
 10
9.3611332516
 20
10.27822684
 30
0.0
 10
9.3736880734
 20
10.2679364903
 30
0.0
 10
9.3855105156
 20
10.2567928458
 30
0.0
 10
9.3965356964
 20
10.2448570832
 30
0.0
 10
9.4067030953
 20
10.2321947119
 30
0.0
 10
9.415956882
 20
10.2188752168
 30
0.0
 10
9.4242462204
 20
10.2049716858
 30
0.0
 10
9.4315255455
 20
10.1905603969
 30
0.0
 10
9.437754811
 20
10.1757204646
 30
0.0
 10
9.4428997185
 20
10.160533192
 30
0.0
 10
9.4469318507
 20
10.1450824414
 30
0.0
 10
9.4493491994
 20
10.1320403273
 30
0.0
 10
9.4507052647
 20
10.1215611553
 30
0.0
 10
9.451673053
 20
10.1110920083
 30
0.0
 10
9.4519660892
 20
10.1032140493
 30
0.0
 10
9.4519660892
 20
10.0979716906
 30
0.0
  0
SPLINE
  5
364
100
AcDbEntity
  8
0
100
AcDbSpline
 62
7
  6
CONTINUOUS
 70
0
 71
3
 72
42
 73
38
 74
0
 42
0.0000001
 43
0.0000001
 44
0.0000000001
 40
0.0
 40
0.0
 40
0.0
 40
0.0
 40
0.0299419663
 40
0.0449235352
 40
0.0599142051
 40
0.0899287052
 40
0.1200139767
 40
0.135092661
 40
0.150196701
 40
0.1804840414
 40
0.210897872
 40
0.2414513324
 40
0.2721543376
 40
0.3030133986
 40
0.3340315263
 40
0.3652082187
 40
0.3965395244
 40
0.4280181782
 40
0.4596338019
 40
0.4913731609
 40
0.5232204716
 40
0.55515775
 40
0.5871651943
 40
0.6192215961
 40
0.6513047701
 40
0.6833919991
 40
0.7154604852
 40
0.7474878032
 40
0.7794523473
 40
0.8113337692
 40
0.8431133916
 40
0.8747746171
 40
0.9063032365
 40
0.9376879249
 40
0.9533258257
 40
0.968925233
 40
1.0
 40
1.0
 40
1.0
 40
1.0
 10
12.1058312995
 20
10.060890646
 30
0.0
 10
12.1094644366
 20
10.0643999875
 30
0.0
 10
12.1151282717
 20
10.0694513846
 30
0.0
 10
12.1230603847
 20
10.0757190361
 30
0.0
 10
12.1312450787
 20
10.0816748262
 30
0.0
 10
12.1419247774
 20
10.0885139944
 30
0.0
 10
12.1531237425
 20
10.0944962787
 30
0.0
 10
12.1623599675
 20
10.0987521363
 30
0.0
 10
12.1717870212
 20
10.1026565979
 30
0.0
 10
12.1838814793
 20
10.1068550654
 30
0.0
 10
12.1987860843
 20
10.1107679239
 30
0.0
 10
12.2140159127
 20
10.1135399089
 30
0.0
 10
12.2294865672
 20
10.1151557177
 30
0.0
 10
12.2451130627
 20
10.1156067299
 30
0.0
 10
12.260809418
 20
10.114890649
 30
0.0
 10
12.276489362
 20
10.1130116113
 30
0.0
 10
12.29206674
 20
10.1099801257
 30
0.0
 10
12.3074559986
 20
10.1058130162
 30
0.0
 10
12.3225726448
 20
10.1005333222
 30
0.0
 10
12.3373337043
 20
10.0941701684
 30
0.0
 10
12.3516581703
 20
10.0867586033
 30
0.0
 10
12.3654674427
 20
10.0783394063
 30
0.0
 10
12.378685753
 20
10.0689588633
 30
0.0
 10
12.3912405747
 20
10.0586685136
 30
0.0
 10
12.403063017
 20
10.047524869
 30
0.0
 10
12.4140881978
 20
10.0355891064
 30
0.0
 10
12.4242555966
 20
10.0229267352
 30
0.0
 10
12.4335093833
 20
10.0096072401
 30
0.0
 10
12.4417987217
 20
9.9957037091
 30
0.0
 10
12.4490780469
 20
9.9812924201
 30
0.0
 10
12.4553073124
 20
9.9664524879
 30
0.0
 10
12.4604522199
 20
9.9512652153
 30
0.0
 10
12.464484352
 20
9.9358144647
 30
0.0
 10
12.4669017007
 20
9.9227723506
 30
0.0
 10
12.468257766
 20
9.9122931785
 30
0.0
 10
12.4692255543
 20
9.9018240315
 30
0.0
 10
12.4695185905
 20
9.8939460726
 30
0.0
 10
12.4695185905
 20
9.8887037138
 30
0.0
  0
SPLINE
  5
365
100
AcDbEntity
  8
0
100
AcDbSpline
 62
7
  6
CONTINUOUS
 70
0
 71
3
 72
15
 73
11
 74
0
 42
0.0000001
 43
0.0000001
 44
0.0000000001
 40
0.0
 40
0.0
 40
0.0
 40
0.0
 40
0.1233171261
 40
0.2468171865
 40
0.3706749939
 40
0.4950495802
 40
0.6200773232
 40
0.7458671315
 40
0.872492731
 40
1.0
 40
1.0
 40
1.0
 40
1.0
 10
11.9469019187
 20
9.1588309251
 30
0.0
 10
11.9493254711
 20
9.1611718766
 30
0.0
 10
11.9544326429
 20
9.1655998053
 30
0.0
 10
11.9627680505
 20
9.1713859079
 30
0.0
 10
11.9716997224
 20
9.1762635155
 30
0.0
 10
11.981136235
 20
9.1801824952
 30
0.0
 10
11.9909824
 20
9.1831039389
 30
0.0
 10
12.0011390313
 20
9.1849986362
 30
0.0
 10
12.011502453
 20
9.1858481586
 30
0.0
 10
12.0184588839
 20
9.1857124708
 30
0.0
 10
12.0219345466
 20
9.1854714328
 30
0.0
  0
SPLINE
  5
366
100
AcDbEntity
  8
0
100
AcDbSpline
 62
7
  6
CONTINUOUS
 70
0
 71
3
 72
42
 73
38
 74
0
 42
0.0000001
 43
0.0000001
 44
0.0000000001
 40
0.0
 40
0.0
 40
0.0
 40
0.0
 40
0.0299419663
 40
0.0449235352
 40
0.0599142051
 40
0.0899287052
 40
0.1200139767
 40
0.135092661
 40
0.150196701
 40
0.1804840414
 40
0.210897872
 40
0.2414513324
 40
0.2721543376
 40
0.3030133986
 40
0.3340315263
 40
0.3652082187
 40
0.3965395244
 40
0.4280181782
 40
0.4596338019
 40
0.4913731609
 40
0.5232204716
 40
0.55515775
 40
0.5871651943
 40
0.6192215961
 40
0.6513047701
 40
0.6833919991
 40
0.7154604852
 40
0.7474878032
 40
0.7794523473
 40
0.8113337692
 40
0.8431133916
 40
0.8747746171
 40
0.9063032365
 40
0.9376879249
 40
0.9533258257
 40
0.968925233
 40
1.0
 40
1.0
 40
1.0
 40
1.0
 10
12.1058312995
 20
6.5603754332
 30
0.0
 10
12.1094644366
 20
6.5638847747
 30
0.0
 10
12.1151282717
 20
6.5689361718
 30
0.0
 10
12.1230603847
 20
6.5752038233
 30
0.0
 10
12.1312450787
 20
6.5811596134
 30
0.0
 10
12.1419247774
 20
6.5879987816
 30
0.0
 10
12.1531237425
 20
6.5939810659
 30
0.0
 10
12.1623599675
 20
6.5982369235
 30
0.0
 10
12.1717870212
 20
6.6021413851
 30
0.0
 10
12.1838814793
 20
6.6063398525
 30
0.0
 10
12.1987860843
 20
6.610252711
 30
0.0
 10
12.2140159127
 20
6.6130246961
 30
0.0
 10
12.2294865672
 20
6.6146405049
 30
0.0
 10
12.2451130627
 20
6.6150915171
 30
0.0
 10
12.260809418
 20
6.6143754361
 30
0.0
 10
12.276489362
 20
6.6124963985
 30
0.0
 10
12.29206674
 20
6.6094649129
 30
0.0
 10
12.3074559986
 20
6.6052978034
 30
0.0
 10
12.3225726448
 20
6.6000181093
 30
0.0
 10
12.3373337043
 20
6.5936549556
 30
0.0
 10
12.3516581703
 20
6.5862433904
 30
0.0
 10
12.3654674427
 20
6.5778241935
 30
0.0
 10
12.378685753
 20
6.5684436504
 30
0.0
 10
12.3912405747
 20
6.5581533007
 30
0.0
 10
12.403063017
 20
6.5470096562
 30
0.0
 10
12.4140881978
 20
6.5350738936
 30
0.0
 10
12.4242555966
 20
6.5224115223
 30
0.0
 10
12.4335093833
 20
6.5090920273
 30
0.0
 10
12.4417987217
 20
6.4951884963
 30
0.0
 10
12.4490780469
 20
6.4807772073
 30
0.0
 10
12.4553073124
 20
6.4659372751
 30
0.0
 10
12.4604522199
 20
6.4507500025
 30
0.0
 10
12.464484352
 20
6.4352992519
 30
0.0
 10
12.4669017007
 20
6.4222571378
 30
0.0
 10
12.468257766
 20
6.4117779657
 30
0.0
 10
12.4692255543
 20
6.4013088187
 30
0.0
 10
12.4695185905
 20
6.3934308598
 30
0.0
 10
12.4695185905
 20
6.388188501
 30
0.0
  0
SPLINE
  5
367
100
AcDbEntity
  8
0
100
AcDbSpline
 62
7
  6
CONTINUOUS
 70
0
 71
3
 72
15
 73
11
 74
0
 42
0.0000001
 43
0.0000001
 44
0.0000000001
 40
0.0
 40
0.0
 40
0.0
 40
0.0
 40
0.1233171261
 40
0.2468171865
 40
0.3706749939
 40
0.4950495802
 40
0.6200773232
 40
0.7458671315
 40
0.872492731
 40
1.0
 40
1.0
 40
1.0
 40
1.0
 10
9.8952752721
 20
9.3011117163
 30
0.0
 10
9.8976988244
 20
9.3034526678
 30
0.0
 10
9.9028059962
 20
9.3078805965
 30
0.0
 10
9.9111414039
 20
9.3136666991
 30
0.0
 10
9.9200730758
 20
9.3185443067
 30
0.0
 10
9.9295095884
 20
9.3224632864
 30
0.0
 10
9.9393557534
 20
9.3253847301
 30
0.0
 10
9.9495123847
 20
9.3272794274
 30
0.0
 10
9.9598758063
 20
9.3281289498
 30
0.0
 10
9.9668322373
 20
9.327993262
 30
0.0
 10
9.9703079
 20
9.3277522239
 30
0.0
  0
SPLINE
  5
368
100
AcDbEntity
  8
0
100
AcDbSpline
 62
7
  6
CONTINUOUS
 70
0
 71
3
 72
42
 73
38
 74
0
 42
0.0000001
 43
0.0000001
 44
0.0000000001
 40
0.0
 40
0.0
 40
0.0
 40
0.0
 40
0.0299419663
 40
0.0449235352
 40
0.0599142051
 40
0.0899287052
 40
0.1200139767
 40
0.135092661
 40
0.150196701
 40
0.1804840414
 40
0.210897872
 40
0.2414513324
 40
0.2721543376
 40
0.3030133986
 40
0.3340315263
 40
0.3652082187
 40
0.3965395244
 40
0.4280181782
 40
0.4596338019
 40
0.4913731609
 40
0.5232204716
 40
0.55515775
 40
0.5871651943
 40
0.6192215961
 40
0.6513047701
 40
0.6833919991
 40
0.7154604852
 40
0.7474878032
 40
0.7794523473
 40
0.8113337692
 40
0.8431133916
 40
0.8747746171
 40
0.9063032365
 40
0.9376879249
 40
0.9533258257
 40
0.968925233
 40
1.0
 40
1.0
 40
1.0
 40
1.0
 10
9.0882787981
 20
6.7696434099
 30
0.0
 10
9.0919119352
 20
6.7731527514
 30
0.0
 10
9.0975757703
 20
6.7782041485
 30
0.0
 10
9.1055078834
 20
6.7844718
 30
0.0
 10
9.1136925773
 20
6.7904275901
 30
0.0
 10
9.1243722761
 20
6.7972667583
 30
0.0
 10
9.1355712411
 20
6.8032490427
 30
0.0
 10
9.1448074662
 20
6.8075049003
 30
0.0
 10
9.1542345199
 20
6.8114093618
 30
0.0
 10
9.1663289779
 20
6.8156078293
 30
0.0
 10
9.1812335829
 20
6.8195206878
 30
0.0
 10
9.1964634114
 20
6.8222926728
 30
0.0
 10
9.2119340658
 20
6.8239084817
 30
0.0
 10
9.2275605614
 20
6.8243594938
 30
0.0
 10
9.2432569167
 20
6.8236434129
 30
0.0
 10
9.2589368607
 20
6.8217643752
 30
0.0
 10
9.2745142386
 20
6.8187328897
 30
0.0
 10
9.2899034973
 20
6.8145657802
 30
0.0
 10
9.3050201434
 20
6.8092860861
 30
0.0
 10
9.3197812029
 20
6.8029229323
 30
0.0
 10
9.334105669
 20
6.7955113672
 30
0.0
 10
9.3479149414
 20
6.7870921702
 30
0.0
 10
9.3611332516
 20
6.7777116272
 30
0.0
 10
9.3736880734
 20
6.7674212775
 30
0.0
 10
9.3855105156
 20
6.756277633
 30
0.0
 10
9.3965356964
 20
6.7443418704
 30
0.0
 10
9.4067030953
 20
6.7316794991
 30
0.0
 10
9.415956882
 20
6.718360004
 30
0.0
 10
9.4242462204
 20
6.704456473
 30
0.0
 10
9.4315255455
 20
6.6900451841
 30
0.0
 10
9.437754811
 20
6.6752052518
 30
0.0
 10
9.4428997185
 20
6.6600179792
 30
0.0
 10
9.4469318507
 20
6.6445672286
 30
0.0
 10
9.4493491994
 20
6.6315251145
 30
0.0
 10
9.4507052647
 20
6.6210459424
 30
0.0
 10
9.451673053
 20
6.6105767955
 30
0.0
 10
9.4519660892
 20
6.6026988365
 30
0.0
 10
9.4519660892
 20
6.5974564777
 30
0.0
  0
SPLINE
  5
369
100
AcDbEntity
  8
0
100
AcDbSpline
 62
7
  6
CONTINUOUS
 70
0
 71
3
 72
21
 73
17
 74
0
 42
0.0000001
 43
0.0000001
 44
0.0000000001
 40
0.0
 40
0.0
 40
0.0
 40
0.0
 40
0.1273176366
 40
0.2537999756
 40
0.3167619475
 40
0.3795355041
 40
0.4421314991
 40
0.5045621439
 40
0.5668413432
 40
0.6289845283
 40
0.6910084528
 40
0.7529310935
 40
0.8147714495
 40
0.8765493365
 40
0.9382852194
 40
1.0
 40
1.0
 40
1.0
 40
1.0
 10
10.3869823331
 20
8.3736675173
 30
0.0
 10
10.3869823331
 20
8.3804122716
 30
0.0
 10
10.3876261644
 20
8.3938662109
 30
0.0
 10
10.3900577062
 20
8.4104981869
 30
0.0
 10
10.3929639394
 20
8.423544518
 30
0.0
 10
10.3956142678
 20
8.4331674966
 30
0.0
 10
10.3987322009
 20
8.4426194907
 30
0.0
 10
10.4023105944
 20
8.4518789633
 30
0.0
 10
10.4063411715
 20
8.4609245061
 30
0.0
 10
10.4108146939
 20
8.4697352585
 30
0.0
 10
10.415720871
 20
8.478290881
 30
0.0
 10
10.42104836
 20
8.4865716681
 30
0.0
 10
10.4267848897
 20
8.494558487
 30
0.0
 10
10.4329173318
 20
8.5022329497
 30
0.0
 10
10.4394312559
 20
8.5095771486
 30
0.0
 10
10.4440190553
 20
8.5142426635
 30
0.0
 10
10.4463705791
 20
8.5165140614
 30
0.0
  0
SPLINE
  5
36A
100
AcDbEntity
  8
0
100
AcDbSpline
 62
7
  6
CONTINUOUS
 70
0
 71
3
 72
21
 73
17
 74
0
 42
0.0000001
 43
0.0000001
 44
0.0000000001
 40
0.0
 40
0.0
 40
0.0
 40
0.0
 40
0.1273176366
 40
0.2537999756
 40
0.3167619475
 40
0.3795355041
 40
0.4421314991
 40
0.5045621439
 40
0.5668413432
 40
0.6289845283
 40
0.6910084528
 40
0.7529310935
 40
0.8147714495
 40
0.8765493365
 40
0.9382852194
 40
1.0
 40
1.0
 40
1.0
 40
1.0
 10
10.7791482594
 20
8.9202305601
 30
0.0
 10
10.7791482594
 20
8.9269753144
 30
0.0
 10
10.7797920907
 20
8.9404292537
 30
0.0
 10
10.7822236324
 20
8.9570612297
 30
0.0
 10
10.7851298656
 20
8.9701075609
 30
0.0
 10
10.787780194
 20
8.9797305394
 30
0.0
 10
10.7908981271
 20
8.9891825335
 30
0.0
 10
10.7944765206
 20
8.9984420061
 30
0.0
 10
10.7985070977
 20
9.0074875489
 30
0.0
 10
10.8029806201
 20
9.0162983014
 30
0.0
 10
10.8078867972
 20
9.0248539238
 30
0.0
 10
10.8132142862
 20
9.0331347109
 30
0.0
 10
10.8189508159
 20
9.0411215298
 30
0.0
 10
10.825083258
 20
9.0487959925
 30
0.0
 10
10.8315971821
 20
9.0561401914
 30
0.0
 10
10.8361849816
 20
9.0608057063
 30
0.0
 10
10.8385365053
 20
9.0630771042
 30
0.0
  0
SPLINE
  5
36B
100
AcDbEntity
  8
0
100
AcDbSpline
 62
7
  6
CONTINUOUS
 70
0
 71
3
 72
21
 73
17
 74
0
 42
0.0000001
 43
0.0000001
 44
0.0000000001
 40
0.0
 40
0.0
 40
0.0
 40
0.0
 40
0.1273176366
 40
0.2537999756
 40
0.3167619475
 40
0.3795355041
 40
0.4421314991
 40
0.5045621439
 40
0.5668413432
 40
0.6289845283
 40
0.6910084528
 40
0.7529310935
 40
0.8147714495
 40
0.8765493365
 40
0.9382852194
 40
1.0
 40
1.0
 40
1.0
 40
1.0
 10
11.1713140704
 20
8.3192739266
 30
0.0
 10
11.1713140704
 20
8.3260186809
 30
0.0
 10
11.1719579017
 20
8.3394726202
 30
0.0
 10
11.1743894435
 20
8.3561045961
 30
0.0
 10
11.1772956767
 20
8.3691509273
 30
0.0
 10
11.1799460051
 20
8.3787739059
 30
0.0
 10
11.1830639382
 20
8.3882259
 30
0.0
 10
11.1866423317
 20
8.3974853726
 30
0.0
 10
11.1906729088
 20
8.4065309153
 30
0.0
 10
11.1951464311
 20
8.4153416678
 30
0.0
 10
11.2000526083
 20
8.4238972902
 30
0.0
 10
11.2053800972
 20
8.4321780774
 30
0.0
 10
11.211116627
 20
8.4401648963
 30
0.0
 10
11.2172490691
 20
8.447839359
 30
0.0
 10
11.2237629931
 20
8.4551835579
 30
0.0
 10
11.2283507926
 20
8.4598490728
 30
0.0
 10
11.2307023163
 20
8.4621204706
 30
0.0
  0
SPLINE
  5
36C
100
AcDbEntity
  8
0
100
AcDbSpline
 62
7
  6
CONTINUOUS
 70
0
 71
3
 72
21
 73
17
 74
0
 42
0.0000001
 43
0.0000001
 44
0.0000000001
 40
0.0
 40
0.0
 40
0.0
 40
0.0
 40
0.1273176366
 40
0.2537999756
 40
0.3167619475
 40
0.3795355041
 40
0.4421314991
 40
0.5045621439
 40
0.5668413432
 40
0.6289845283
 40
0.6910084528
 40
0.7529310935
 40
0.8147714495
 40
0.8765493365
 40
0.9382852194
 40
1.0
 40
1.0
 40
1.0
 40
1.0
 10
9.0288905522
 20
6.6267968659
 30
0.0
 10
9.0288905522
 20
6.6335416201
 30
0.0
 10
9.0295343835
 20
6.6469955595
 30
0.0
 10
9.0319659253
 20
6.6636275354
 30
0.0
 10
9.0348721584
 20
6.6766738666
 30
0.0
 10
9.0375224869
 20
6.6862968451
 30
0.0
 10
9.0406404199
 20
6.6957488393
 30
0.0
 10
9.0442188135
 20
6.7050083119
 30
0.0
 10
9.0482493906
 20
6.7140538546
 30
0.0
 10
9.0527229129
 20
6.7228646071
 30
0.0
 10
9.0576290901
 20
6.7314202295
 30
0.0
 10
9.062956579
 20
6.7397010167
 30
0.0
 10
9.0686931087
 20
6.7476878355
 30
0.0
 10
9.0748255509
 20
6.7553622983
 30
0.0
 10
9.0813394749
 20
6.7627064972
 30
0.0
 10
9.0859272744
 20
6.7673720121
 30
0.0
 10
9.0882787981
 20
6.7696434099
 30
0.0
  0
SPLINE
  5
36D
100
AcDbEntity
  8
0
100
AcDbSpline
 62
7
  6
CONTINUOUS
 70
0
 71
3
 72
23
 73
19
 74
0
 42
0.0000001
 43
0.0000001
 44
0.0000000001
 40
0.0
 40
0.0
 40
0.0
 40
0.0
 40
0.0749625009
 40
0.1455684839
 40
0.2121600745
 40
0.2751631548
 40
0.3350982506
 40
0.3925832742
 40
0.4483295117
 40
0.5031237972
 40
0.5577983643
 40
0.613191491
 40
0.670106811
 40
0.729278715
 40
0.7913522906
 40
0.8568775564
 40
0.9263090861
 40
1.0
 40
1.0
 40
1.0
 40
1.0
 10
9.9511946226
 20
10.7737042199
 30
0.0
 10
9.9501839518
 20
10.7746447558
 30
0.0
 10
9.9482773739
 20
10.7765330181
 30
0.0
 10
9.9457048252
 20
10.7794789856
 30
0.0
 10
9.9435111076
 20
10.7824482738
 30
0.0
 10
9.9416995209
 20
10.7854383293
 30
0.0
 10
9.9402730569
 20
10.7884464875
 30
0.0
 10
9.9392349443
 20
10.7914696849
 30
0.0
 10
9.9385880869
 20
10.7945040236
 30
0.0
 10
9.9383347891
 20
10.7975446999
 30
0.0
 10
9.9384760476
 20
10.8005861832
 30
0.0
 10
9.9390112766
 20
10.8036228595
 30
0.0
 10
9.9399385657
 20
10.8066496465
 30
0.0
 10
9.9412549965
 20
10.8096624218
 30
0.0
 10
9.9429575057
 20
10.8126578819
 30
0.0
 10
9.9450430068
 20
10.8156334094
 30
0.0
 10
9.9475082894
 20
10.8185861692
 30
0.0
 10
9.9493460089
 20
10.8204793895
 30
0.0
 10
9.9503221693
 20
10.8214222881
 30
0.0
  0
SPLINE
  5
36E
100
AcDbEntity
  8
0
100
AcDbSpline
 62
7
  6
CONTINUOUS
 70
0
 71
3
 72
85
 73
81
 74
0
 42
0.0000001
 43
0.0000001
 44
0.0000000001
 40
0.0
 40
0.0
 40
0.0
 40
0.0
 40
0.0039801536
 40
0.0081240886
 40
0.0124359635
 40
0.0169193265
 40
0.0215771864
 40
0.0264119179
 40
0.0314251807
 40
0.0366181565
 40
0.0419915475
 40
0.0475456547
 40
0.0532804275
 40
0.0591954177
 40
0.0715624106
 40
0.0846380725
 40
0.0984093703
 40
0.1128599259
 40
0.1279704399
 40
0.1437190257
 40
0.1600814793
 40
0.1770315221
 40
0.1945410006
 40
0.2125800587
 40
0.231117291
 40
0.2501198757
 40
0.2695537098
 40
0.2893835355
 40
0.3095730555
 40
0.3300850431
 40
0.3508814473
 40
0.3719234976
 40
0.3931718126
 40
0.4145865023
 40
0.4577527565
 40
0.5010975085
 40
0.5442934995
 40
0.5657341296
 40
0.5870156851
 40
0.6080981942
 40
0.6289421774
 40
0.6495087485
 40
0.6697597169
 40
0.6896576926
 40
0.7091662002
 40
0.7282497876
 40
0.7468741375
 40
0.7650061872
 40
0.7826142562
 40
0.7996681911
 40
0.8161395201
 40
0.8320016152
 40
0.8472298839
 40
0.8618019934
 40
0.8756981411
 40
0.888901391
 40
0.9013980709
 40
0.9131782826
 40
0.9187981369
 40
0.9242372582
 40
0.9294957859
 40
0.9345743097
 40
0.9394738093
 40
0.9441958086
 40
0.9487423661
 40
0.9531161549
 40
0.9573205873
 40
0.9613598144
 40
0.9652389262
 40
0.9689639795
 40
0.9725421508
 40
0.9759818729
 40
0.9792928946
 40
0.9824864624
 40
0.9855753237
 40
0.9885737978
 40
0.9914977268
 40
0.9943643293
 40
0.9971920085
 40
1.0
 40
1.0
 40
1.0
 40
1.0
 10
10.7993710909
 20
10.7625405454
 30
0.0
 10
10.8005495178
 20
10.7636788185
 30
0.0
 10
10.8030083809
 20
10.7659473216
 30
0.0
 10
10.806912309
 20
10.7692606539
 30
0.0
 10
10.8111029238
 20
10.7725502403
 30
0.0
 10
10.8155779246
 20
10.7758142943
 30
0.0
 10
10.8203351049
 20
10.7790513151
 30
0.0
 10
10.8253721585
 20
10.7822597044
 30
0.0
 10
10.8306865599
 20
10.7854379541
 30
0.0
 10
10.8362756731
 20
10.7885844154
 30
0.0
 10
10.8421366848
 20
10.7916975426
 30
0.0
 10
10.8482666575
 20
10.7947757833
 30
0.0
 10
10.8546625428
 20
10.7978175864
 30
0.0
 10
10.8636748302
 20
10.8018831725
 30
0.0
 10
10.8755918874
 20
10.8068513853
 30
0.0
 10
10.8906940901
 20
10.8125589157
 30
0.0
 10
10.9067729048
 20
10.8180857605
 30
0.0
 10
10.9237959668
 20
10.8234207043
 30
0.0
 10
10.9417291964
 20
10.8285529037
 30
0.0
 10
10.9605365245
 20
10.8334719092
 30
0.0
 10
10.98018008
 20
10.8381677079
 30
0.0
 10
11.0006202541
 20
10.8426307352
 30
0.0
 10
11.0218158002
 20
10.8468518996
 30
0.0
 10
11.0437239218
 20
10.8508226019
 30
0.0
 10
11.0663003608
 20
10.8545347516
 30
0.0
 10
11.0894994872
 20
10.8579807922
 30
0.0
 10
11.1132743971
 20
10.8611537122
 30
0.0
 10
11.1375770131
 20
10.8640470548
 30
0.0
 10
11.1623581851
 20
10.8666549326
 30
0.0
 10
11.1875677878
 20
10.8689720371
 30
0.0
 10
11.2131548256
 20
10.870993655
 30
0.0
 10
11.239067518
 20
10.8727156718
 30
0.0
 10
11.2652534798
 20
10.8741346152
 30
0.0
 10
11.3005538045
 20
10.8756223406
 30
0.0
 10
11.3449719594
 20
10.8767029566
 30
0.0
 10
11.3983693791
 20
10.8767592901
 30
0.0
 10
11.4428126334
 20
10.8757726068
 30
0.0
 10
11.4781526671
 20
10.8743598769
 30
0.0
 10
11.5043826433
 20
10.8729963855
 30
0.0
 10
11.5303489469
 20
10.8713292489
 30
0.0
 10
11.5559990863
 20
10.8693618301
 30
0.0
 10
11.581281155
 20
10.8670981373
 30
0.0
 10
11.6061440079
 20
10.8645427713
 30
0.0
 10
11.6305373492
 20
10.8617009266
 30
0.0
 10
11.6544118429
 20
10.8585783882
 30
0.0
 10
11.6777192126
 20
10.855181513
 30
0.0
 10
11.7004123377
 20
10.8515172158
 30
0.0
 10
11.7224453495
 20
10.8475929564
 30
0.0
 10
11.7437737276
 20
10.8434167226
 30
0.0
 10
11.764354399
 20
10.8389970198
 30
0.0
 10
11.7841458307
 20
10.8343428555
 30
0.0
 10
11.8031081173
 20
10.8294637115
 30
0.0
 10
11.8212030628
 20
10.8243695253
 30
0.0
 10
11.8383942786
 20
10.8190706645
 30
0.0
 10
11.85464724
 20
10.8135778996
 30
0.0
 10
11.869929501
 20
10.8079023719
 30
0.0
 10
11.8842103598
 20
10.8020555773
 30
0.0
 10
11.8954227649
 20
10.7969736213
 30
0.0
 10
11.9038584636
 20
10.7928213932
 30
0.0
 10
11.909817669
 20
10.7897207676
 30
0.0
 10
11.9155060024
 20
10.7865862376
 30
0.0
 10
11.9209206539
 20
10.7834193963
 30
0.0
 10
11.926058892
 20
10.780221765
 30
0.0
 10
11.9309181736
 20
10.7769949612
 30
0.0
 10
11.9354960812
 20
10.7737405653
 30
0.0
 10
11.9397903162
 20
10.7704601264
 30
0.0
 10
11.9437987835
 20
10.7671552865
 30
0.0
 10
11.9475194368
 20
10.7638275474
 30
0.0
 10
11.9509504506
 20
10.760478527
 30
0.0
 10
11.954090071
 20
10.7571097509
 30
0.0
 10
11.956936651
 20
10.7537227381
 30
0.0
 10
11.9594887264
 20
10.7503190653
 30
0.0
 10
11.9617447837
 20
10.7469001944
 30
0.0
 10
11.963703547
 20
10.7434677324
 30
0.0
 10
11.9653636856
 20
10.7400232378
 30
0.0
 10
11.9667239869
 20
10.7365683838
 30
0.0
 10
11.9677834061
 20
10.7331050074
 30
0.0
 10
11.9685408694
 20
10.7296349203
 30
0.0
 10
11.9689957335
 20
10.7261605916
 30
0.0
 10
11.9690969775
 20
10.7238394604
 30
0.0
 10
11.9690969831
 20
10.7226835717
 30
0.0
  0
SPLINE
  5
36F
100
AcDbEntity
  8
0
100
AcDbSpline
 62
7
  6
CONTINUOUS
 70
0
 71
3
 72
85
 73
81
 74
0
 42
0.0000001
 43
0.0000001
 44
0.0000000001
 40
0.0
 40
0.0
 40
0.0
 40
0.0
 40
0.0041938785
 40
0.0085762526
 40
0.0131521725
 40
0.0179258276
 40
0.0229006911
 40
0.028079459
 40
0.0334638936
 40
0.0390551032
 40
0.0448536297
 40
0.0508594469
 40
0.0634901079
 40
0.076939214
 40
0.0911923552
 40
0.106230319
 40
0.122029753
 40
0.1385636726
 40
0.1558019084
 40
0.1737114658
 40
0.1922568156
 40
0.2114001318
 40
0.2311015106
 40
0.2513191976
 40
0.2720097753
 40
0.2931283342
 40
0.3146286272
 40
0.3364632445
 40
0.3585837793
 40
0.4034839214
 40
0.4489285174
 40
0.4945096695
 40
0.5398178882
 40
0.5844468655
 40
0.6063822147
 40
0.6279992666
 40
0.64925027
 40
0.6700885783
 40
0.6904688071
 40
0.7103470128
 40
0.7296808753
 40
0.7484298652
 40
0.7665554374
 40
0.7840212502
 40
0.8007934351
 40
0.8168408612
 40
0.8321354498
 40
0.8466525686
 40
0.8603715394
 40
0.8732762803
 40
0.8853560896
 40
0.8910854755
 40
0.8966076785
 40
0.9019233923
 40
0.9070340056
 40
0.911941519
 40
0.9166487657
 40
0.9211594738
 40
0.9254783272
 40
0.9296112421
 40
0.9335653764
 40
0.9373493905
 40
0.9409736255
 40
0.9444501994
 40
0.9477932807
 40
0.9510190948
 40
0.954145996
 40
0.9571943966
 40
0.96018648
 40
0.9631458579
 40
0.966096994
 40
0.9690645833
 40
0.9720728733
 40
0.9751450686
 40
0.9783027827
 40
0.9849468936
 40
0.9884712202
 40
0.992147635
 40
0.9959874677
 40
1.0
 40
1.0
 40
1.0
 40
1.0
 10
9.9503221693
 20
10.8214222881
 30
0.0
 10
9.951079754
 20
10.8221540588
 30
0.0
 10
9.9526666499
 20
10.8236118728
 30
0.0
 10
9.9551975858
 20
10.8257359025
 30
0.0
 10
9.9579288985
 20
10.8278430923
 30
0.0
 10
9.9608588118
 20
10.8299320579
 30
0.0
 10
9.9639855919
 20
10.8320016777
 30
0.0
 10
9.9673074517
 20
10.8340507284
 30
0.0
 10
9.9708224183
 20
10.8360780721
 30
0.0
 10
9.9745284097
 20
10.8380824767
 30
0.0
 10
9.9784232291
 20
10.8400627497
 30
0.0
 10
9.9839583434
 20
10.8427140238
 30
0.0
 10
9.9913411485
 20
10.8459500161
 30
0.0
 10
10.0007706922
 20
10.849656131
 30
0.0
 10
10.0108913773
 20
10.8532387878
 30
0.0
 10
10.0216790238
 20
10.8566893435
 30
0.0
 10
10.033108006
 20
10.8599994434
 30
0.0
 10
10.0451510045
 20
10.8631610697
 30
0.0
 10
10.0577791903
 20
10.8661665548
 30
0.0
 10
10.0709622864
 20
10.8690086036
 30
0.0
 10
10.0846686553
 20
10.8716803136
 30
0.0
 10
10.0988653717
 20
10.8741751985
 30
0.0
 10
10.1135183066
 20
10.8764872124
 30
0.0
 10
10.1285922206
 20
10.8786107488
 30
0.0
 10
10.1440508539
 20
10.8805406573
 30
0.0
 10
10.1598570139
 20
10.8822722551
 30
0.0
 10
10.17597265
 20
10.8838013424
 30
0.0
 10
10.1923589997
 20
10.8851242451
 30
0.0
 10
10.2146256266
 20
10.8866161646
 30
0.0
 10
10.242843812
 20
10.887938825
 30
0.0
 10
10.2769775205
 20
10.8886599825
 30
0.0
 10
10.3112211786
 20
10.8885156076
 30
0.0
 10
10.3452452354
 20
10.8875070934
 30
0.0
 10
10.3733022241
 20
10.8859461692
 30
0.0
 10
10.3953856723
 20
10.8842654169
 30
0.0
 10
10.4115959073
 20
10.8828046531
 30
0.0
 10
10.4275094898
 20
10.881140121
 30
0.0
 10
10.4430881492
 20
10.8792758256
 30
0.0
 10
10.4582943853
 20
10.8772162875
 30
0.0
 10
10.4730916153
 20
10.8749664965
 30
0.0
 10
10.4874442536
 20
10.8725319155
 30
0.0
 10
10.5013177974
 20
10.8699184508
 30
0.0
 10
10.5146789085
 20
10.8671324429
 30
0.0
 10
10.5274955023
 20
10.8641806458
 30
0.0
 10
10.5397368401
 20
10.8610702292
 30
0.0
 10
10.5513736055
 20
10.8578087445
 30
0.0
 10
10.5623779861
 20
10.8544041008
 30
0.0
 10
10.5727237234
 20
10.8508645388
 30
0.0
 10
10.5823863118
 20
10.8471985929
 30
0.0
 10
10.5913427203
 20
10.8434150927
 30
0.0
 10
10.5983186986
 20
10.8401160208
 30
0.0
 10
10.6035203926
 20
10.8374170103
 30
0.0
 10
10.6071629614
 20
10.8354048294
 30
0.0
 10
10.6106137849
 20
10.8333701012
 30
0.0
 10
10.6138708509
 20
10.8313140528
 30
0.0
 10
10.616932212
 20
10.8292378478
 30
0.0
 10
10.6197960657
 20
10.8271426979
 30
0.0
 10
10.622460744
 20
10.8250298305
 30
0.0
 10
10.6249246324
 20
10.8229003783
 30
0.0
 10
10.627186313
 20
10.820755582
 30
0.0
 10
10.6292444028
 20
10.8185965715
 30
0.0
 10
10.6310976264
 20
10.816424494
 30
0.0
 10
10.6327448493
 20
10.8142405302
 30
0.0
 10
10.6341848812
 20
10.8120457597
 30
0.0
 10
10.6354167221
 20
10.8098413893
 30
0.0
 10
10.6364393349
 20
10.8076286022
 30
0.0
 10
10.6372517163
 20
10.805408678
 30
0.0
 10
10.6378530764
 20
10.8031830612
 30
0.0
 10
10.6382425703
 20
10.8009532865
 30
0.0
 10
10.6384197388
 20
10.7987210877
 30
0.0
 10
10.6383843236
 20
10.7964882717
 30
0.0
 10
10.6381363024
 20
10.7942566827
 30
0.0
 10
10.6376761546
 20
10.7920281238
 30
0.0
 10
10.6370043054
 20
10.7898041553
 30
0.0
 10
10.6358076376
 20
10.7867969899
 30
0.0
 10
10.6341920798
 20
10.7838487299
 30
0.0
 10
10.6322188646
 20
10.7809839775
 30
0.0
 10
10.6305026589
 20
10.7788035594
 30
0.0
 10
10.628581057
 20
10.7766358263
 30
0.0
 10
10.6271951139
 20
10.7752313852
 30
0.0
 10
10.6264702877
 20
10.7745312568
 30
0.0
  0
SPLINE
  5
370
100
AcDbEntity
  8
0
100
AcDbSpline
 62
7
  6
CONTINUOUS
 70
0
 71
3
 72
19
 73
15
 74
0
 42
0.0000001
 43
0.0000001
 44
0.0000000001
 40
0.0
 40
0.0
 40
0.0
 40
0.0
 40
0.1504607152
 40
0.2916988954
 40
0.4244197706
 40
0.4878838785
 40
0.549580297
 40
0.6682271827
 40
0.7255606102
 40
0.7817998481
 40
0.8371466355
 40
0.8918135538
 40
0.9460221503
 40
1.0
 40
1.0
 40
1.0
 40
1.0
 10
13.004579848
 20
7.9523467907
 30
0.0
 10
13.0028977181
 20
7.950721978
 30
0.0
 10
12.9995357625
 20
7.9476733643
 30
0.0
 10
12.994330104
 20
7.9436107309
 30
0.0
 10
12.9899330966
 20
7.9407374197
 30
0.0
 10
12.9864267728
 20
7.9387916958
 30
0.0
 10
12.9830238876
 20
7.9371212627
 30
0.0
 10
12.9795811644
 20
7.935755828
 30
0.0
 10
12.976119069
 20
7.9347283409
 30
0.0
 10
12.9735592894
 20
7.9341361013
 30
0.0
 10
12.9710080339
 20
7.9337139738
 30
0.0
 10
12.9684659725
 20
7.9334621844
 30
0.0
 10
12.965934134
 20
7.9333808352
 30
0.0
 10
12.9642520535
 20
7.9334403355
 30
0.0
 10
12.9634150498
 20
7.9334983849
 30
0.0
  0
SPLINE
  5
371
100
AcDbEntity
  8
0
100
AcDbSpline
 62
7
  6
CONTINUOUS
 70
0
 71
3
 72
39
 73
35
 74
0
 42
0.0000001
 43
0.0000001
 44
0.0000000001
 40
0.0
 40
0.0
 40
0.0
 40
0.0
 40
0.0314026163
 40
0.0630094802
 40
0.0948071156
 40
0.1267734443
 40
0.1588809719
 40
0.1910970226
 40
0.2233851133
 40
0.2557062446
 40
0.2880202668
 40
0.3202872758
 40
0.3524690062
 40
0.3845301827
 40
0.4164397934
 40
0.4481722512
 40
0.4797084083
 40
0.5110363787
 40
0.5421521198
 40
0.5730597435
 40
0.6037715204
 40
0.6343075558
 40
0.6646951112
 40
0.69496759
 40
0.7251632189
 40
0.7553234785
 40
0.7854913552
 40
0.8157095102
 40
0.8460184684
 40
0.8764549241
 40
0.9070502294
 40
0.9378293436
 40
0.9688091107
 40
1.0
 40
1.0
 40
1.0
 40
1.0
 10
9.9648727045
 20
9.3427866715
 30
0.0
 10
9.968962513
 20
9.3425030423
 30
0.0
 10
9.9771462107
 20
9.3415308987
 30
0.0
 10
9.9892568359
 20
9.3388905487
 30
0.0
 10
10.0011327173
 20
9.3350887626
 30
0.0
 10
10.0126583329
 20
9.33016238
 30
0.0
 10
10.0237234526
 20
9.3241590053
 30
0.0
 10
10.0342218119
 20
9.3171364684
 30
0.0
 10
10.0440527427
 20
9.3091623442
 30
0.0
 10
10.05312192
 20
9.3003132523
 30
0.0
 10
10.0613423003
 20
9.2906741479
 30
0.0
 10
10.0686349189
 20
9.2803375182
 30
0.0
 10
10.0749296852
 20
9.269402544
 30
0.0
 10
10.0801660146
 20
9.2579741359
 30
0.0
 10
10.0842933963
 20
9.246161949
 30
0.0
 10
10.0872718739
 20
9.2340793593
 30
0.0
 10
10.0890724551
 20
9.2218424111
 30
0.0
 10
10.089677437
 20
9.2095687272
 30
0.0
 10
10.0890805483
 20
9.1973763929
 30
0.0
 10
10.087287054
 20
9.1853828466
 30
0.0
 10
10.0843137362
 20
9.1737037668
 30
0.0
 10
10.080188835
 20
9.1624519416
 30
0.0
 10
10.0749517923
 20
9.1517361595
 30
0.0
 10
10.0686528925
 20
9.1416601343
 30
0.0
 10
10.061352808
 20
9.1323214583
 30
0.0
 10
10.0531220303
 20
9.1238106004
 30
0.0
 10
10.0440402044
 20
9.1162099383
 30
0.0
 10
10.0341952711
 20
9.109592954
 30
0.0
 10
10.0236825873
 20
9.104023491
 30
0.0
 10
10.0126039012
 20
9.0995551547
 30
0.0
 10
10.0010664935
 20
9.0962307238
 30
0.0
 10
9.9891815119
 20
9.0940819282
 30
0.0
 10
9.9770650995
 20
9.0931287984
 30
0.0
 10
9.9689349381
 20
9.0932960767
 30
0.0
 10
9.9648727045
 20
9.0935777936
 30
0.0
  0
SPLINE
  5
372
100
AcDbEntity
  8
0
100
AcDbSpline
 62
7
  6
CONTINUOUS
 70
0
 71
3
 72
18
 73
14
 74
0
 42
0.0000001
 43
0.0000001
 44
0.0000000001
 40
0.0
 40
0.0
 40
0.0
 40
0.0
 40
0.0548627134
 40
0.1099293262
 40
0.1654013673
 40
0.2214755976
 40
0.336133279
 40
0.4553633673
 40
0.5171049701
 40
0.5804366861
 40
0.7123309727
 40
0.8519568969
 40
1.0
 40
1.0
 40
1.0
 40
1.0
 10
10.7790970001
 20
10.7226827659
 30
0.0
 10
10.779096996
 20
10.72352308
 30
0.0
 10
10.7791503204
 20
10.7252073168
 30
0.0
 10
10.7793900856
 20
10.7277309196
 30
0.0
 10
10.7797896642
 20
10.7302531218
 30
0.0
 10
10.7805405503
 20
10.7336373469
 30
0.0
 10
10.7818932705
 20
10.7378789599
 30
0.0
 10
10.7837460017
 20
10.7420204309
 30
0.0
 10
10.7855287602
 20
10.7453117756
 30
0.0
 10
10.7875700865
 20
10.7486785515
 30
0.0
 10
10.7905341504
 20
10.7528730681
 30
0.0
 10
10.7946665943
 20
10.7578023025
 30
0.0
 10
10.7977401613
 20
10.7609651883
 30
0.0
 10
10.7993710909
 20
10.7625405454
 30
0.0
  0
SPLINE
  5
373
100
AcDbEntity
  8
0
100
AcDbSpline
 62
7
  6
CONTINUOUS
 70
0
 71
3
 72
39
 73
35
 74
0
 42
0.0000001
 43
0.0000001
 44
0.0000000001
 40
0.0
 40
0.0
 40
0.0
 40
0.0
 40
0.0314026163
 40
0.0630094802
 40
0.0948071156
 40
0.1267734443
 40
0.1588809719
 40
0.1910970226
 40
0.2233851133
 40
0.2557062446
 40
0.2880202668
 40
0.3202872758
 40
0.3524690062
 40
0.3845301827
 40
0.4164397934
 40
0.4481722512
 40
0.4797084083
 40
0.5110363787
 40
0.5421521198
 40
0.5730597435
 40
0.6037715204
 40
0.6343075558
 40
0.6646951112
 40
0.69496759
 40
0.7251632189
 40
0.7553234785
 40
0.7854913552
 40
0.8157095102
 40
0.8460184684
 40
0.8764549241
 40
0.9070502294
 40
0.9378293436
 40
0.9688091107
 40
1.0
 40
1.0
 40
1.0
 40
1.0
 10
9.9648727045
 20
9.0935777936
 30
0.0
 10
9.9607828961
 20
9.0938614228
 30
0.0
 10
9.9525991984
 20
9.0948335664
 30
0.0
 10
9.9404885731
 20
9.0974739164
 30
0.0
 10
9.9286126918
 20
9.1012757025
 30
0.0
 10
9.9170870761
 20
9.1062020851
 30
0.0
 10
9.9060219565
 20
9.1122054598
 30
0.0
 10
9.8955235971
 20
9.1192279967
 30
0.0
 10
9.8856926663
 20
9.1272021209
 30
0.0
 10
9.8766234891
 20
9.1360512128
 30
0.0
 10
9.8684031088
 20
9.1456903172
 30
0.0
 10
9.8611104902
 20
9.1560269469
 30
0.0
 10
9.8548157239
 20
9.1669619211
 30
0.0
 10
9.8495793945
 20
9.1783903292
 30
0.0
 10
9.8454520128
 20
9.1902025161
 30
0.0
 10
9.8424735351
 20
9.2022851058
 30
0.0
 10
9.840672954
 20
9.214522054
 30
0.0
 10
9.8400679721
 20
9.2267957379
 30
0.0
 10
9.8406648608
 20
9.2389880722
 30
0.0
 10
9.8424583551
 20
9.2509816185
 30
0.0
 10
9.8454316729
 20
9.2626606983
 30
0.0
 10
9.8495565741
 20
9.2739125235
 30
0.0
 10
9.8547936168
 20
9.2846283056
 30
0.0
 10
9.8610925166
 20
9.2947043308
 30
0.0
 10
9.868392601
 20
9.3040430068
 30
0.0
 10
9.8766233788
 20
9.3125538647
 30
0.0
 10
9.8857052047
 20
9.3201545268
 30
0.0
 10
9.8955501379
 20
9.3267715111
 30
0.0
 10
9.9060628218
 20
9.3323409741
 30
0.0
 10
9.9171415079
 20
9.3368093105
 30
0.0
 10
9.9286789156
 20
9.3401337413
 30
0.0
 10
9.9405638972
 20
9.3422825369
 30
0.0
 10
9.9526803096
 20
9.3432356667
 30
0.0
 10
9.9608104709
 20
9.3430683884
 30
0.0
 10
9.9648727045
 20
9.3427866715
 30
0.0
  0
SPLINE
  5
374
100
AcDbEntity
  8
0
100
AcDbSpline
 62
7
  6
CONTINUOUS
 70
0
 71
3
 72
39
 73
35
 74
0
 42
0.0000001
 43
0.0000001
 44
0.0000000001
 40
0.0
 40
0.0
 40
0.0
 40
0.0
 40
0.0314026163
 40
0.0630094802
 40
0.0948071156
 40
0.1267734443
 40
0.1588809719
 40
0.1910970226
 40
0.2233851133
 40
0.2557062446
 40
0.2880202668
 40
0.3202872758
 40
0.3524690062
 40
0.3845301827
 40
0.4164397934
 40
0.4481722512
 40
0.4797084083
 40
0.5110363787
 40
0.5421521198
 40
0.5730597435
 40
0.6037715204
 40
0.6343075558
 40
0.6646951112
 40
0.69496759
 40
0.7251632189
 40
0.7553234785
 40
0.7854913552
 40
0.8157095102
 40
0.8460184684
 40
0.8764549241
 40
0.9070502294
 40
0.9378293436
 40
0.9688091107
 40
1.0
 40
1.0
 40
1.0
 40
1.0
 10
12.0164993511
 20
9.2005058803
 30
0.0
 10
12.0205891596
 20
9.2002222511
 30
0.0
 10
12.0287728573
 20
9.1992501075
 30
0.0
 10
12.0408834825
 20
9.1966097575
 30
0.0
 10
12.0527593639
 20
9.1928079715
 30
0.0
 10
12.0642849795
 20
9.1878815888
 30
0.0
 10
12.0753500992
 20
9.1818782141
 30
0.0
 10
12.0858484586
 20
9.1748556772
 30
0.0
 10
12.0956793894
 20
9.166881553
 30
0.0
 10
12.1047485666
 20
9.1580324611
 30
0.0
 10
12.1129689469
 20
9.1483933568
 30
0.0
 10
12.1202615655
 20
9.138056727
 30
0.0
 10
12.1265563318
 20
9.1271217528
 30
0.0
 10
12.1317926612
 20
9.1156933447
 30
0.0
 10
12.1359200429
 20
9.1038811578
 30
0.0
 10
12.1388985205
 20
9.0917985682
 30
0.0
 10
12.1406991017
 20
9.0795616199
 30
0.0
 10
12.1413040836
 20
9.067287936
 30
0.0
 10
12.1407071949
 20
9.0550956017
 30
0.0
 10
12.1389137006
 20
9.0431020555
 30
0.0
 10
12.1359403828
 20
9.0314229756
 30
0.0
 10
12.1318154816
 20
9.0201711504
 30
0.0
 10
12.1265784389
 20
9.0094553683
 30
0.0
 10
12.1202795391
 20
8.9993793431
 30
0.0
 10
12.1129794546
 20
8.9900406671
 30
0.0
 10
12.1047486769
 20
8.9815298092
 30
0.0
 10
12.095666851
 20
8.9739291472
 30
0.0
 10
12.0858219178
 20
8.9673121628
 30
0.0
 10
12.0753092339
 20
8.9617426998
 30
0.0
 10
12.0642305478
 20
8.9572743635
 30
0.0
 10
12.0526931401
 20
8.9539499326
 30
0.0
 10
12.0408081585
 20
8.9518011371
 30
0.0
 10
12.0286917461
 20
8.9508480072
 30
0.0
 10
12.0205615848
 20
8.9510152855
 30
0.0
 10
12.0164993511
 20
8.9512970024
 30
0.0
  0
SPLINE
  5
375
100
AcDbEntity
  8
0
100
AcDbSpline
 62
7
  6
CONTINUOUS
 70
0
 71
3
 72
15
 73
11
 74
0
 42
0.0000001
 43
0.0000001
 44
0.0000000001
 40
0.0
 40
0.0
 40
0.0
 40
0.0
 40
0.1273482936
 40
0.2538605366
 40
0.3795879111
 40
0.5046050899
 40
0.6290174366
 40
0.7529533732
 40
0.8765605776
 40
1.0
 40
1.0
 40
1.0
 40
1.0
 10
9.8659879046
 20
9.2306668448
 30
0.0
 10
9.8659879046
 20
9.2339930291
 30
0.0
 10
9.8663054869
 20
9.2406281597
 30
0.0
 10
9.8677417303
 20
9.2504532427
 30
0.0
 10
9.8701232611
 20
9.2600314571
 30
0.0
 10
9.8734285725
 20
9.2692732276
 30
0.0
 10
9.8776273227
 20
9.2780933286
 30
0.0
 10
9.8826812507
 20
9.2864103148
 30
0.0
 10
9.8885428476
 20
9.2941462449
 30
0.0
 10
9.8929563214
 20
9.2988718013
 30
0.0
 10
9.8952752721
 20
9.3011117163
 30
0.0
  0
SPLINE
  5
376
100
AcDbEntity
  8
0
100
AcDbSpline
 62
7
  6
CONTINUOUS
 70
0
 71
3
 72
23
 73
19
 74
0
 42
0.0000001
 43
0.0000001
 44
0.0000000001
 40
0.0
 40
0.0
 40
0.0
 40
0.0
 40
0.0614488807
 40
0.1232974294
 40
0.1855193177
 40
0.2480712672
 40
0.3108995318
 40
0.3739401513
 40
0.4371217414
 40
0.5003679843
 40
0.5636003151
 40
0.6267406524
 40
0.6897141172
 40
0.7524516838
 40
0.8148926113
 40
0.8769871451
 40
0.9386966623
 40
1.0
 40
1.0
 40
1.0
 40
1.0
 10
9.9703079
 20
9.1191122331
 30
0.0
 10
9.9668838746
 20
9.1193496901
 30
0.0
 10
9.9600324075
 20
9.1201635765
 30
0.0
 10
9.9498932792
 20
9.1223741039
 30
0.0
 10
9.9399506809
 20
9.1255569954
 30
0.0
 10
9.93030133
 20
9.1296814144
 30
0.0
 10
9.9210375059
 20
9.1347074878
 30
0.0
 10
9.9122481775
 20
9.1405868154
 30
0.0
 10
9.904017634
 20
9.1472628306
 30
0.0
 10
9.8964248409
 20
9.1546713792
 30
0.0
 10
9.8895426666
 20
9.16274133
 30
0.0
 10
9.8834372068
 20
9.1713952451
 30
0.0
 10
9.8781671595
 20
9.1805500982
 30
0.0
 10
9.8737832683
 20
9.1901180869
 30
0.0
 10
9.8703277866
 20
9.2000073109
 30
0.0
 10
9.867834211
 20
9.2101231648
 30
0.0
 10
9.8663266919
 20
9.22036723
 30
0.0
 10
9.8659879046
 20
9.2272427248
 30
0.0
 10
9.8659879046
 20
9.2306668448
 30
0.0
  0
SPLINE
  5
377
100
AcDbEntity
  8
0
100
AcDbSpline
 62
7
  6
CONTINUOUS
 70
0
 71
3
 72
39
 73
35
 74
0
 42
0.0000001
 43
0.0000001
 44
0.0000000001
 40
0.0
 40
0.0
 40
0.0
 40
0.0
 40
0.0314026163
 40
0.0630094802
 40
0.0948071156
 40
0.1267734443
 40
0.1588809719
 40
0.1910970226
 40
0.2233851133
 40
0.2557062446
 40
0.2880202668
 40
0.3202872758
 40
0.3524690062
 40
0.3845301827
 40
0.4164397934
 40
0.4481722512
 40
0.4797084083
 40
0.5110363787
 40
0.5421521198
 40
0.5730597435
 40
0.6037715204
 40
0.6343075558
 40
0.6646951112
 40
0.69496759
 40
0.7251632189
 40
0.7553234785
 40
0.7854913552
 40
0.8157095102
 40
0.8460184684
 40
0.8764549241
 40
0.9070502294
 40
0.9378293436
 40
0.9688091107
 40
1.0
 40
1.0
 40
1.0
 40
1.0
 10
12.0164993511
 20
8.9512970024
 30
0.0
 10
12.0124095427
 20
8.9515806316
 30
0.0
 10
12.004225845
 20
8.9525527752
 30
0.0
 10
11.9921152198
 20
8.9551931252
 30
0.0
 10
11.9802393384
 20
8.9589949113
 30
0.0
 10
11.9687137228
 20
8.9639212939
 30
0.0
 10
11.9576486031
 20
8.9699246686
 30
0.0
 10
11.9471502437
 20
8.9769472055
 30
0.0
 10
11.9373193129
 20
8.9849213297
 30
0.0
 10
11.9282501357
 20
8.9937704216
 30
0.0
 10
11.9200297554
 20
9.003409526
 30
0.0
 10
11.9127371368
 20
9.0137461557
 30
0.0
 10
11.9064423705
 20
9.0246811299
 30
0.0
 10
11.9012060411
 20
9.036109538
 30
0.0
 10
11.8970786594
 20
9.0479217249
 30
0.0
 10
11.8941001818
 20
9.0600043146
 30
0.0
 10
11.8922996006
 20
9.0722412628
 30
0.0
 10
11.8916946187
 20
9.0845149467
 30
0.0
 10
11.8922915074
 20
9.096707281
 30
0.0
 10
11.8940850017
 20
9.1087008273
 30
0.0
 10
11.8970583195
 20
9.1203799071
 30
0.0
 10
11.9011832207
 20
9.1316317323
 30
0.0
 10
11.9064202634
 20
9.1423475144
 30
0.0
 10
11.9127191632
 20
9.1524235396
 30
0.0
 10
11.9200192477
 20
9.1617622156
 30
0.0
 10
11.9282500254
 20
9.1702730735
 30
0.0
 10
11.9373318513
 20
9.1778737356
 30
0.0
 10
11.9471767845
 20
9.1844907199
 30
0.0
 10
11.9576894684
 20
9.1900601829
 30
0.0
 10
11.9687681545
 20
9.1945285193
 30
0.0
 10
11.9803055622
 20
9.1978529501
 30
0.0
 10
11.9921905438
 20
9.2000017457
 30
0.0
 10
12.0043069562
 20
9.2009548755
 30
0.0
 10
12.0124371175
 20
9.2007875972
 30
0.0
 10
12.0164993511
 20
9.2005058803
 30
0.0
  0
SPLINE
  5
378
100
AcDbEntity
  8
0
100
AcDbSpline
 62
7
  6
CONTINUOUS
 70
0
 71
3
 72
39
 73
35
 74
0
 42
0.0000001
 43
0.0000001
 44
0.0000000001
 40
0.0
 40
0.0
 40
0.0
 40
0.0
 40
0.0314026163
 40
0.0630094802
 40
0.0948071156
 40
0.1267734443
 40
0.1588809719
 40
0.1910970226
 40
0.2233851133
 40
0.2557062446
 40
0.2880202668
 40
0.3202872758
 40
0.3524690062
 40
0.3845301827
 40
0.4164397934
 40
0.4481722512
 40
0.4797084083
 40
0.5110363787
 40
0.5421521198
 40
0.5730597435
 40
0.6037715204
 40
0.6343075558
 40
0.6646951112
 40
0.69496759
 40
0.7251632189
 40
0.7553234785
 40
0.7854913552
 40
0.8157095102
 40
0.8460184684
 40
0.8764549241
 40
0.9070502294
 40
0.9378293436
 40
0.9688091107
 40
1.0
 40
1.0
 40
1.0
 40
1.0
 10
12.0164993511
 20
7.4492822885
 30
0.0
 10
12.0205891596
 20
7.4489986593
 30
0.0
 10
12.0287728573
 20
7.4480265157
 30
0.0
 10
12.0408834825
 20
7.4453861657
 30
0.0
 10
12.0527593639
 20
7.4415843796
 30
0.0
 10
12.0642849795
 20
7.436657997
 30
0.0
 10
12.0753500992
 20
7.4306546222
 30
0.0
 10
12.0858484586
 20
7.4236320854
 30
0.0
 10
12.0956793894
 20
7.4156579612
 30
0.0
 10
12.1047485666
 20
7.4068088693
 30
0.0
 10
12.1129689469
 20
7.3971697649
 30
0.0
 10
12.1202615655
 20
7.3868331352
 30
0.0
 10
12.1265563318
 20
7.375898161
 30
0.0
 10
12.1317926612
 20
7.3644697529
 30
0.0
 10
12.1359200429
 20
7.352657566
 30
0.0
 10
12.1388985205
 20
7.3405749763
 30
0.0
 10
12.1406991017
 20
7.3283380281
 30
0.0
 10
12.1413040836
 20
7.3160643442
 30
0.0
 10
12.1407071949
 20
7.3038720098
 30
0.0
 10
12.1389137006
 20
7.2918784636
 30
0.0
 10
12.1359403828
 20
7.2801993838
 30
0.0
 10
12.1318154816
 20
7.2689475586
 30
0.0
 10
12.1265784389
 20
7.2582317764
 30
0.0
 10
12.1202795391
 20
7.2481557513
 30
0.0
 10
12.1129794546
 20
7.2388170753
 30
0.0
 10
12.1047486769
 20
7.2303062174
 30
0.0
 10
12.095666851
 20
7.2227055553
 30
0.0
 10
12.0858219178
 20
7.216088571
 30
0.0
 10
12.0753092339
 20
7.210519108
 30
0.0
 10
12.0642305478
 20
7.2060507716
 30
0.0
 10
12.0526931401
 20
7.2027263408
 30
0.0
 10
12.0408081585
 20
7.2005775452
 30
0.0
 10
12.0286917461
 20
7.1996244154
 30
0.0
 10
12.0205615848
 20
7.1997916937
 30
0.0
 10
12.0164993511
 20
7.2000734106
 30
0.0
  0
SPLINE
  5
379
100
AcDbEntity
  8
0
100
AcDbSpline
 62
7
  6
CONTINUOUS
 70
0
 71
3
 72
21
 73
17
 74
0
 42
0.0000001
 43
0.0000001
 44
0.0000000001
 40
0.0
 40
0.0
 40
0.0
 40
0.0
 40
0.1273176366
 40
0.2537999756
 40
0.3167619475
 40
0.3795355041
 40
0.4421314991
 40
0.5045621439
 40
0.5668413432
 40
0.6289845283
 40
0.6910084528
 40
0.7529310935
 40
0.8147714495
 40
0.8765493365
 40
0.9382852194
 40
1.0
 40
1.0
 40
1.0
 40
1.0
 10
12.0464430535
 20
6.4175288892
 30
0.0
 10
12.0464430535
 20
6.4242736434
 30
0.0
 10
12.0470868848
 20
6.4377275827
 30
0.0
 10
12.0495184266
 20
6.4543595587
 30
0.0
 10
12.0524246598
 20
6.4674058899
 30
0.0
 10
12.0550749882
 20
6.4770288684
 30
0.0
 10
12.0581929213
 20
6.4864808625
 30
0.0
 10
12.0617713148
 20
6.4957403351
 30
0.0
 10
12.0658018919
 20
6.5047858779
 30
0.0
 10
12.0702754143
 20
6.5135966304
 30
0.0
 10
12.0751815914
 20
6.5221522528
 30
0.0
 10
12.0805090804
 20
6.53043304
 30
0.0
 10
12.0862456101
 20
6.5384198588
 30
0.0
 10
12.0923780522
 20
6.5460943216
 30
0.0
 10
12.0988919763
 20
6.5534385204
 30
0.0
 10
12.1034797757
 20
6.5581040353
 30
0.0
 10
12.1058312995
 20
6.5603754332
 30
0.0
  0
SPLINE
  5
37A
100
AcDbEntity
  8
0
100
AcDbSpline
 62
7
  6
CONTINUOUS
 70
0
 71
3
 72
15
 73
11
 74
0
 42
0.0000001
 43
0.0000001
 44
0.0000000001
 40
0.0
 40
0.0
 40
0.0
 40
0.0
 40
0.1273482936
 40
0.2538605366
 40
0.3795879111
 40
0.5046050899
 40
0.6290174366
 40
0.7529533732
 40
0.8765605776
 40
1.0
 40
1.0
 40
1.0
 40
1.0
 10
11.9176145512
 20
9.0883860536
 30
0.0
 10
11.9176145512
 20
9.0917122379
 30
0.0
 10
11.9179321335
 20
9.0983473685
 30
0.0
 10
11.9193683769
 20
9.1081724515
 30
0.0
 10
11.9217499077
 20
9.1177506659
 30
0.0
 10
11.9250552191
 20
9.1269924364
 30
0.0
 10
11.9292539693
 20
9.1358125374
 30
0.0
 10
11.9343078973
 20
9.1441295236
 30
0.0
 10
11.9401694942
 20
9.1518654537
 30
0.0
 10
11.944582968
 20
9.1565910101
 30
0.0
 10
11.9469019187
 20
9.1588309251
 30
0.0
  0
SPLINE
  5
37B
100
AcDbEntity
  8
0
100
AcDbSpline
 62
7
  6
CONTINUOUS
 70
0
 71
3
 72
23
 73
19
 74
0
 42
0.0000001
 43
0.0000001
 44
0.0000000001
 40
0.0
 40
0.0
 40
0.0
 40
0.0
 40
0.0614488807
 40
0.1232974294
 40
0.1855193177
 40
0.2480712672
 40
0.3108995318
 40
0.3739401513
 40
0.4371217414
 40
0.5003679843
 40
0.5636003151
 40
0.6267406524
 40
0.6897141172
 40
0.7524516838
 40
0.8148926113
 40
0.8769871451
 40
0.9386966623
 40
1.0
 40
1.0
 40
1.0
 40
1.0
 10
12.0219345466
 20
8.9768314419
 30
0.0
 10
12.0185105212
 20
8.9770688989
 30
0.0
 10
12.0116590541
 20
8.9778827853
 30
0.0
 10
12.0015199259
 20
8.9800933127
 30
0.0
 10
11.9915773276
 20
8.9832762042
 30
0.0
 10
11.9819279766
 20
8.9874006232
 30
0.0
 10
11.9726641525
 20
8.9924266966
 30
0.0
 10
11.9638748241
 20
8.9983060242
 30
0.0
 10
11.9556442806
 20
9.0049820394
 30
0.0
 10
11.9480514875
 20
9.012390588
 30
0.0
 10
11.9411693132
 20
9.0204605389
 30
0.0
 10
11.9350638535
 20
9.0291144539
 30
0.0
 10
11.9297938062
 20
9.038269307
 30
0.0
 10
11.9254099149
 20
9.0478372958
 30
0.0
 10
11.9219544332
 20
9.0577265197
 30
0.0
 10
11.9194608576
 20
9.0678423736
 30
0.0
 10
11.9179533386
 20
9.0780864388
 30
0.0
 10
11.9176145512
 20
9.0849619336
 30
0.0
 10
11.9176145512
 20
9.0883860536
 30
0.0
  0
SPLINE
  5
37C
100
AcDbEntity
  8
0
100
AcDbSpline
 62
7
  6
CONTINUOUS
 70
0
 71
3
 72
39
 73
35
 74
0
 42
0.0000001
 43
0.0000001
 44
0.0000000001
 40
0.0
 40
0.0
 40
0.0
 40
0.0
 40
0.0314026163
 40
0.0630094802
 40
0.0948071156
 40
0.1267734443
 40
0.1588809719
 40
0.1910970226
 40
0.2233851133
 40
0.2557062446
 40
0.2880202668
 40
0.3202872758
 40
0.3524690062
 40
0.3845301827
 40
0.4164397934
 40
0.4481722512
 40
0.4797084083
 40
0.5110363787
 40
0.5421521198
 40
0.5730597435
 40
0.6037715204
 40
0.6343075558
 40
0.6646951112
 40
0.69496759
 40
0.7251632189
 40
0.7553234785
 40
0.7854913552
 40
0.8157095102
 40
0.8460184684
 40
0.8764549241
 40
0.9070502294
 40
0.9378293436
 40
0.9688091107
 40
1.0
 40
1.0
 40
1.0
 40
1.0
 10
12.0164993511
 20
7.2000734106
 30
0.0
 10
12.0124095427
 20
7.2003570397
 30
0.0
 10
12.004225845
 20
7.2013291834
 30
0.0
 10
11.9921152198
 20
7.2039695334
 30
0.0
 10
11.9802393384
 20
7.2077713194
 30
0.0
 10
11.9687137228
 20
7.2126977021
 30
0.0
 10
11.9576486031
 20
7.2187010768
 30
0.0
 10
11.9471502437
 20
7.2257236137
 30
0.0
 10
11.9373193129
 20
7.2336977379
 30
0.0
 10
11.9282501357
 20
7.2425468298
 30
0.0
 10
11.9200297554
 20
7.2521859341
 30
0.0
 10
11.9127371368
 20
7.2625225639
 30
0.0
 10
11.9064423705
 20
7.273457538
 30
0.0
 10
11.9012060411
 20
7.2848859462
 30
0.0
 10
11.8970786594
 20
7.2966981331
 30
0.0
 10
11.8941001818
 20
7.3087807227
 30
0.0
 10
11.8922996006
 20
7.321017671
 30
0.0
 10
11.8916946187
 20
7.3332913549
 30
0.0
 10
11.8922915074
 20
7.3454836892
 30
0.0
 10
11.8940850017
 20
7.3574772354
 30
0.0
 10
11.8970583195
 20
7.3691563153
 30
0.0
 10
11.9011832207
 20
7.3804081405
 30
0.0
 10
11.9064202634
 20
7.3911239226
 30
0.0
 10
11.9127191632
 20
7.4011999478
 30
0.0
 10
11.9200192477
 20
7.4105386238
 30
0.0
 10
11.9282500254
 20
7.4190494817
 30
0.0
 10
11.9373318513
 20
7.4266501437
 30
0.0
 10
11.9471767845
 20
7.4332671281
 30
0.0
 10
11.9576894684
 20
7.4388365911
 30
0.0
 10
11.9687681545
 20
7.4433049274
 30
0.0
 10
11.9803055622
 20
7.4466293583
 30
0.0
 10
11.9921905438
 20
7.4487781538
 30
0.0
 10
12.0043069562
 20
7.4497312837
 30
0.0
 10
12.0124371175
 20
7.4495640054
 30
0.0
 10
12.0164993511
 20
7.4492822885
 30
0.0
  0
SPLINE
  5
37D
100
AcDbEntity
  8
0
100
AcDbSpline
 62
7
  6
CONTINUOUS
 70
0
 71
3
 72
39
 73
35
 74
0
 42
0.0000001
 43
0.0000001
 44
0.0000000001
 40
0.0
 40
0.0
 40
0.0
 40
0.0
 40
0.0314026163
 40
0.0630094802
 40
0.0948071156
 40
0.1267734443
 40
0.1588809719
 40
0.1910970226
 40
0.2233851133
 40
0.2557062446
 40
0.2880202668
 40
0.3202872758
 40
0.3524690062
 40
0.3845301827
 40
0.4164397934
 40
0.4481722512
 40
0.4797084083
 40
0.5110363787
 40
0.5421521198
 40
0.5730597435
 40
0.6037715204
 40
0.6343075558
 40
0.6646951112
 40
0.69496759
 40
0.7251632189
 40
0.7553234785
 40
0.7854913552
 40
0.8157095102
 40
0.8460184684
 40
0.8764549241
 40
0.9070502294
 40
0.9378293436
 40
0.9688091107
 40
1.0
 40
1.0
 40
1.0
 40
1.0
 10
9.9648727045
 20
7.5915630797
 30
0.0
 10
9.968962513
 20
7.5912794505
 30
0.0
 10
9.9771462107
 20
7.5903073069
 30
0.0
 10
9.9892568359
 20
7.5876669569
 30
0.0
 10
10.0011327173
 20
7.5838651708
 30
0.0
 10
10.0126583329
 20
7.5789387882
 30
0.0
 10
10.0237234526
 20
7.5729354134
 30
0.0
 10
10.0342218119
 20
7.5659128766
 30
0.0
 10
10.0440527427
 20
7.5579387524
 30
0.0
 10
10.05312192
 20
7.5490896605
 30
0.0
 10
10.0613423003
 20
7.5394505561
 30
0.0
 10
10.0686349189
 20
7.5291139264
 30
0.0
 10
10.0749296852
 20
7.5181789522
 30
0.0
 10
10.0801660146
 20
7.5067505441
 30
0.0
 10
10.0842933963
 20
7.4949383572
 30
0.0
 10
10.0872718739
 20
7.4828557675
 30
0.0
 10
10.0890724551
 20
7.4706188193
 30
0.0
 10
10.089677437
 20
7.4583451354
 30
0.0
 10
10.0890805483
 20
7.446152801
 30
0.0
 10
10.087287054
 20
7.4341592548
 30
0.0
 10
10.0843137362
 20
7.4224801749
 30
0.0
 10
10.080188835
 20
7.4112283498
 30
0.0
 10
10.0749517923
 20
7.4005125676
 30
0.0
 10
10.0686528925
 20
7.3904365425
 30
0.0
 10
10.061352808
 20
7.3810978665
 30
0.0
 10
10.0531220303
 20
7.3725870086
 30
0.0
 10
10.0440402044
 20
7.3649863465
 30
0.0
 10
10.0341952711
 20
7.3583693621
 30
0.0
 10
10.0236825873
 20
7.3527998992
 30
0.0
 10
10.0126039012
 20
7.3483315628
 30
0.0
 10
10.0010664935
 20
7.345007132
 30
0.0
 10
9.9891815119
 20
7.3428583364
 30
0.0
 10
9.9770650995
 20
7.3419052066
 30
0.0
 10
9.9689349381
 20
7.3420724849
 30
0.0
 10
9.9648727045
 20
7.3423542018
 30
0.0
  0
SPLINE
  5
37E
100
AcDbEntity
  8
0
100
AcDbSpline
 62
7
  6
CONTINUOUS
 70
0
 71
3
 72
15
 73
11
 74
0
 42
0.0000001
 43
0.0000001
 44
0.0000000001
 40
0.0
 40
0.0
 40
0.0
 40
0.0
 40
0.1273482936
 40
0.2538605366
 40
0.3795879111
 40
0.5046050899
 40
0.6290174366
 40
0.7529533732
 40
0.8765605776
 40
1.0
 40
1.0
 40
1.0
 40
1.0
 10
11.9176145512
 20
7.3371624618
 30
0.0
 10
11.9176145512
 20
7.3404886461
 30
0.0
 10
11.9179321335
 20
7.3471237767
 30
0.0
 10
11.9193683769
 20
7.3569488597
 30
0.0
 10
11.9217499077
 20
7.3665270741
 30
0.0
 10
11.9250552191
 20
7.3757688446
 30
0.0
 10
11.9292539693
 20
7.3845889456
 30
0.0
 10
11.9343078973
 20
7.3929059318
 30
0.0
 10
11.9401694942
 20
7.4006418619
 30
0.0
 10
11.944582968
 20
7.4053674183
 30
0.0
 10
11.9469019187
 20
7.4076073333
 30
0.0
  0
SPLINE
  5
37F
100
AcDbEntity
  8
0
100
AcDbSpline
 62
7
  6
CONTINUOUS
 70
0
 71
3
 72
23
 73
19
 74
0
 42
0.0000001
 43
0.0000001
 44
0.0000000001
 40
0.0
 40
0.0
 40
0.0
 40
0.0
 40
0.0614488807
 40
0.1232974294
 40
0.1855193177
 40
0.2480712672
 40
0.3108995318
 40
0.3739401513
 40
0.4371217414
 40
0.5003679843
 40
0.5636003151
 40
0.6267406524
 40
0.6897141172
 40
0.7524516838
 40
0.8148926113
 40
0.8769871451
 40
0.9386966623
 40
1.0
 40
1.0
 40
1.0
 40
1.0
 10
12.0219345466
 20
7.2256078501
 30
0.0
 10
12.0185105212
 20
7.2258453071
 30
0.0
 10
12.0116590541
 20
7.2266591935
 30
0.0
 10
12.0015199259
 20
7.2288697209
 30
0.0
 10
11.9915773276
 20
7.2320526124
 30
0.0
 10
11.9819279766
 20
7.2361770314
 30
0.0
 10
11.9726641525
 20
7.2412031048
 30
0.0
 10
11.9638748241
 20
7.2470824324
 30
0.0
 10
11.9556442806
 20
7.2537584476
 30
0.0
 10
11.9480514875
 20
7.2611669962
 30
0.0
 10
11.9411693132
 20
7.269236947
 30
0.0
 10
11.9350638535
 20
7.2778908621
 30
0.0
 10
11.9297938062
 20
7.2870457151
 30
0.0
 10
11.9254099149
 20
7.2966137039
 30
0.0
 10
11.9219544332
 20
7.3065029279
 30
0.0
 10
11.9194608576
 20
7.3166187818
 30
0.0
 10
11.9179533386
 20
7.326862847
 30
0.0
 10
11.9176145512
 20
7.3337383418
 30
0.0
 10
11.9176145512
 20
7.3371624618
 30
0.0
  0
SPLINE
  5
380
100
AcDbEntity
  8
0
100
AcDbSpline
 62
7
  6
CONTINUOUS
 70
0
 71
3
 72
15
 73
11
 74
0
 42
0.0000001
 43
0.0000001
 44
0.0000000001
 40
0.0
 40
0.0
 40
0.0
 40
0.0
 40
0.1447866716
 40
0.2828872181
 40
0.4146992942
 40
0.5407186962
 40
0.6615333498
 40
0.7778222101
 40
0.8903566984
 40
1.0
 40
1.0
 40
1.0
 40
1.0
 10
10.7993710909
 20
10.7470857305
 30
0.0
 10
10.7980491325
 20
10.7458088167
 30
0.0
 10
10.7955297085
 20
10.7432469137
 30
0.0
 10
10.7920596961
 20
10.7392840267
 30
0.0
 10
10.7889934942
 20
10.7352968916
 30
0.0
 10
10.7863336807
 20
10.731288158
 30
0.0
 10
10.7840825601
 20
10.7272601326
 30
0.0
 10
10.7822422279
 20
10.7232151869
 30
0.0
 10
10.7808150066
 20
10.7191565548
 30
0.0
 10
10.7801330383
 20
10.7164145009
 30
0.0
 10
10.7798647159
 20
10.7150487718
 30
0.0
  0
SPLINE
  5
381
100
AcDbEntity
  8
0
100
AcDbSpline
 62
7
  6
CONTINUOUS
 70
0
 71
3
 72
82
 73
78
 74
0
 42
0.0000001
 43
0.0000001
 44
0.0000000001
 40
0.0
 40
0.0
 40
0.0
 40
0.0
 40
0.0039355784
 40
0.0080303616
 40
0.0122883394
 40
0.0167129129
 40
0.0213069851
 40
0.0260728869
 40
0.0310122647
 40
0.0361262873
 40
0.0414156923
 40
0.0468808028
 40
0.0525216376
 40
0.0583378291
 40
0.070492984
 40
0.0833385362
 40
0.0968624699
 40
0.1110495656
 40
0.1258817908
 40
0.1413386272
 40
0.1573973491
 40
0.1740332433
 40
0.1912197946
 40
0.2089288371
 40
0.2271307117
 40
0.2457944058
 40
0.2648876737
 40
0.2843771452
 40
0.3042284283
 40
0.3244062252
 40
0.3448744334
 40
0.365596242
 40
0.407649681
 40
0.4502622255
 40
0.4931234743
 40
0.5359206737
 40
0.5783416777
 40
0.5993148238
 40
0.6200786499
 40
0.6405956282
 40
0.6608288237
 40
0.6807419923
 40
0.7002996877
 40
0.719467354
 40
0.7382114262
 40
0.756499436
 40
0.774300135
 40
0.7915836193
 40
0.8083214498
 40
0.8244867931
 40
0.8400545828
 40
0.8550017196
 40
0.8693072807
 40
0.8829527651
 40
0.8959224037
 40
0.9082035513
 40
0.9197871951
 40
0.9253161067
 40
0.9306692436
 40
0.9358468414
 40
0.9408494783
 40
0.9456781633
 40
0.9503344088
 40
0.9548202022
 40
0.9591381776
 40
0.9632916017
 40
0.9672844837
 40
0.9711217059
 40
0.9748090397
 40
0.9783533475
 40
0.9817626297
 40
0.9850461441
 40
0.9882145445
 40
0.9912798827
 40
0.9942557037
 40
0.9971569788
 40
1.0
 40
1.0
 40
1.0
 40
1.0
 10
10.7993710909
 20
10.7470857305
 30
0.0
 10
10.8005292154
 20
10.7482043929
 30
0.0
 10
10.8029439858
 20
10.750433975
 30
0.0
 10
10.8067746533
 20
10.7536919552
 30
0.0
 10
10.8108824918
 20
10.7569270612
 30
0.0
 10
10.8152653202
 20
10.7601375652
 30
0.0
 10
10.8199210305
 20
10.76332205
 30
0.0
 10
10.8248474526
 20
10.7664789888
 30
0.0
 10
10.8300422024
 20
10.7696069494
 30
0.0
 10
10.8355027802
 20
10.7727043889
 30
0.0
 10
10.8412265441
 20
10.7757697931
 30
0.0
 10
10.8472107027
 20
10.7788017228
 30
0.0
 10
10.8534523909
 20
10.7817986794
 30
0.0
 10
10.8622435716
 20
10.7858050578
 30
0.0
 10
10.8738643437
 20
10.7907039659
 30
0.0
 10
10.888587667
 20
10.7963372723
 30
0.0
 10
10.9042590306
 20
10.8017974075
 30
0.0
 10
10.9208479513
 20
10.8070736571
 30
0.0
 10
10.9383223292
 20
10.8121556653
 30
0.0
 10
10.9566481902
 20
10.8170334438
 30
0.0
 10
10.9757898737
 20
10.8216973944
 30
0.0
 10
10.9957100862
 20
10.826138335
 30
0.0
 10
11.0163699836
 20
10.8303475163
 30
0.0
 10
11.0377292442
 20
10.8343166585
 30
0.0
 10
11.0597461586
 20
10.8380379536
 30
0.0
 10
11.0823777212
 20
10.8415040796
 30
0.0
 10
11.105579716
 20
10.8447082149
 30
0.0
 10
11.1293067989
 20
10.8476440521
 30
0.0
 10
11.15351259
 20
10.8503058268
 30
0.0
 10
11.1781497539
 20
10.8526882998
 30
0.0
 10
11.2031701609
 20
10.8547868192
 30
0.0
 10
11.2371420019
 20
10.8572124086
 30
0.0
 10
11.2802034036
 20
10.8594985665
 30
0.0
 10
11.3323604706
 20
10.8610467864
 30
0.0
 10
11.384843758
 20
10.8614005291
 30
0.0
 10
11.4372428887
 20
10.8605570164
 30
0.0
 10
11.4806602504
 20
10.8588557603
 30
0.0
 10
11.5150368032
 20
10.8568945177
 30
0.0
 10
11.5404468566
 20
10.8551367813
 30
0.0
 10
11.5655315419
 20
10.8530902768
 30
0.0
 10
11.5902418464
 20
10.8507589943
 30
0.0
 10
11.6145294428
 20
10.8481475193
 30
0.0
 10
11.6383468526
 20
10.84526099
 30
0.0
 10
11.6616475202
 20
10.8421050845
 30
0.0
 10
11.6843859053
 20
10.838686009
 30
0.0
 10
11.7065175729
 20
10.8350104838
 30
0.0
 10
11.7279992896
 20
10.8310857392
 30
0.0
 10
11.7487891121
 20
10.8269195055
 30
0.0
 10
11.768846467
 20
10.8225199834
 30
0.0
 10
11.7881322297
 20
10.817895833
 30
0.0
 10
11.8066088106
 20
10.813056149
 30
0.0
 10
11.8242402435
 20
10.8080104591
 30
0.0
 10
11.8409922729
 20
10.8027686911
 30
0.0
 10
11.8568323918
 20
10.7973411441
 30
0.0
 10
11.871730033
 20
10.7917384446
 30
0.0
 10
11.8856562604
 20
10.7859715546
 30
0.0
 10
11.8965935816
 20
10.7809634998
 30
0.0
 10
11.9048258529
 20
10.7768740007
 30
0.0
 10
11.9106444341
 20
10.7738205343
 30
0.0
 10
11.9162008248
 20
10.7707345625
 30
0.0
 10
11.9214923409
 20
10.7676175189
 30
0.0
 10
11.9265164152
 20
10.7644708906
 30
0.0
 10
11.9312706548
 20
10.7612962315
 30
0.0
 10
11.9357527356
 20
10.758094982
 30
0.0
 10
11.9399605313
 20
10.7548687007
 30
0.0
 10
11.9438920138
 20
10.7516188772
 30
0.0
 10
11.9475452618
 20
10.748346978
 30
0.0
 10
11.9509185543
 20
10.7450545528
 30
0.0
 10
11.9540101811
 20
10.7417430097
 30
0.0
 10
11.9568186355
 20
10.7384138593
 30
0.0
 10
11.9593424755
 20
10.7350685538
 30
0.0
 10
11.9615802873
 20
10.7317085157
 30
0.0
 10
11.9635308711
 20
10.7283352711
 30
0.0
 10
11.9651929225
 20
10.7249503027
 30
0.0
 10
11.9665653587
 20
10.7215551366
 30
0.0
 10
11.9676470912
 20
10.7181517789
 30
0.0
 10
11.9681782179
 20
10.7158592289
 30
0.0
 10
11.9683932233
 20
10.7147161003
 30
0.0
  0
SPLINE
  5
382
100
AcDbEntity
  8
0
100
AcDbSpline
 62
7
  6
CONTINUOUS
 70
0
 71
3
 72
39
 73
35
 74
0
 42
0.0000001
 43
0.0000001
 44
0.0000000001
 40
0.0
 40
0.0
 40
0.0
 40
0.0
 40
0.0314026163
 40
0.0630094802
 40
0.0948071156
 40
0.1267734443
 40
0.1588809719
 40
0.1910970226
 40
0.2233851133
 40
0.2557062446
 40
0.2880202668
 40
0.3202872758
 40
0.3524690062
 40
0.3845301827
 40
0.4164397934
 40
0.4481722512
 40
0.4797084083
 40
0.5110363787
 40
0.5421521198
 40
0.5730597435
 40
0.6037715204
 40
0.6343075558
 40
0.6646951112
 40
0.69496759
 40
0.7251632189
 40
0.7553234785
 40
0.7854913552
 40
0.8157095102
 40
0.8460184684
 40
0.8764549241
 40
0.9070502294
 40
0.9378293436
 40
0.9688091107
 40
1.0
 40
1.0
 40
1.0
 40
1.0
 10
9.9648727045
 20
7.3423542018
 30
0.0
 10
9.9607828961
 20
7.3426378309
 30
0.0
 10
9.9525991984
 20
7.3436099746
 30
0.0
 10
9.9404885731
 20
7.3462503246
 30
0.0
 10
9.9286126918
 20
7.3500521106
 30
0.0
 10
9.9170870761
 20
7.3549784933
 30
0.0
 10
9.9060219565
 20
7.360981868
 30
0.0
 10
9.8955235971
 20
7.3680044049
 30
0.0
 10
9.8856926663
 20
7.3759785291
 30
0.0
 10
9.8766234891
 20
7.3848276209
 30
0.0
 10
9.8684031088
 20
7.3944667253
 30
0.0
 10
9.8611104902
 20
7.4048033551
 30
0.0
 10
9.8548157239
 20
7.4157383292
 30
0.0
 10
9.8495793945
 20
7.4271667374
 30
0.0
 10
9.8454520128
 20
7.4389789242
 30
0.0
 10
9.8424735351
 20
7.4510615139
 30
0.0
 10
9.840672954
 20
7.4632984621
 30
0.0
 10
9.8400679721
 20
7.4755721461
 30
0.0
 10
9.8406648608
 20
7.4877644804
 30
0.0
 10
9.8424583551
 20
7.4997580266
 30
0.0
 10
9.8454316729
 20
7.5114371065
 30
0.0
 10
9.8495565741
 20
7.5226889317
 30
0.0
 10
9.8547936168
 20
7.5334047138
 30
0.0
 10
9.8610925166
 20
7.5434807389
 30
0.0
 10
9.868392601
 20
7.552819415
 30
0.0
 10
9.8766233788
 20
7.5613302729
 30
0.0
 10
9.8857052047
 20
7.5689309349
 30
0.0
 10
9.8955501379
 20
7.5755479193
 30
0.0
 10
9.9060628218
 20
7.5811173823
 30
0.0
 10
9.9171415079
 20
7.5855857186
 30
0.0
 10
9.9286789156
 20
7.5889101495
 30
0.0
 10
9.9405638972
 20
7.591058945
 30
0.0
 10
9.9526803096
 20
7.5920120749
 30
0.0
 10
9.9608104709
 20
7.5918447966
 30
0.0
 10
9.9648727045
 20
7.5915630797
 30
0.0
  0
SPLINE
  5
383
100
AcDbEntity
  8
0
100
AcDbSpline
 62
7
  6
CONTINUOUS
 70
0
 71
3
 72
21
 73
17
 74
0
 42
0.0000001
 43
0.0000001
 44
0.0000000001
 40
0.0
 40
0.0
 40
0.0
 40
0.0
 40
0.1273176366
 40
0.2537999756
 40
0.3167619475
 40
0.3795355041
 40
0.4421314991
 40
0.5045621439
 40
0.5668413432
 40
0.6289845283
 40
0.6910084528
 40
0.7529310935
 40
0.8147714495
 40
0.8765493365
 40
0.9382852194
 40
1.0
 40
1.0
 40
1.0
 40
1.0
 10
9.8731098156
 20
7.9862289652
 30
0.0
 10
9.8731098156
 20
7.9929737194
 30
0.0
 10
9.8737536469
 20
8.0064276588
 30
0.0
 10
9.8761851887
 20
8.0230596347
 30
0.0
 10
9.8790914219
 20
8.0361059659
 30
0.0
 10
9.8817417503
 20
8.0457289444
 30
0.0
 10
9.8848596834
 20
8.0551809386
 30
0.0
 10
9.8884380769
 20
8.0644404112
 30
0.0
 10
9.892468654
 20
8.0734859539
 30
0.0
 10
9.8969421763
 20
8.0822967064
 30
0.0
 10
9.9018483535
 20
8.0908523288
 30
0.0
 10
9.9071758424
 20
8.099133116
 30
0.0
 10
9.9129123721
 20
8.1071199349
 30
0.0
 10
9.9190448143
 20
8.1147943976
 30
0.0
 10
9.9255587383
 20
8.1221385965
 30
0.0
 10
9.9301465378
 20
8.1268041114
 30
0.0
 10
9.9324980615
 20
8.1290755092
 30
0.0
  0
SPLINE
  5
384
100
AcDbEntity
  8
0
100
AcDbSpline
 62
7
  6
CONTINUOUS
 70
0
 71
3
 72
89
 73
85
 74
0
 42
0.0000001
 43
0.0000001
 44
0.0000000001
 40
0.0
 40
0.0
 40
0.0
 40
0.0
 40
0.0041938808
 40
0.0085762391
 40
0.0131521297
 40
0.017925758
 40
0.0229006078
 40
0.0280793652
 40
0.0334637802
 40
0.0390549736
 40
0.044853475
 40
0.0508592719
 40
0.0570719474
 40
0.0634905652
 40
0.0769396282
 40
0.0911927259
 40
0.1062306387
 40
0.1220300109
 40
0.1385638737
 40
0.1558020567
 40
0.1737115583
 40
0.1922568413
 40
0.2114000847
 40
0.2311013989
 40
0.2513190236
 40
0.2720095335
 40
0.2931280148
 40
0.3146282309
 40
0.3364627777
 40
0.3585832411
 40
0.3809403628
 40
0.4034841897
 40
0.4489286335
 40
0.4945096291
 40
0.5398176979
 40
0.5622426369
 40
0.5844474973
 40
0.6063827745
 40
0.6279997598
 40
0.6492506912
 40
0.6700889203
 40
0.690469076
 40
0.7103472219
 40
0.7296810271
 40
0.748429949
 40
0.7665554475
 40
0.7840212018
 40
0.8007933405
 40
0.8168407187
 40
0.8321352461
 40
0.846652305
 40
0.8603712346
 40
0.873275942
 40
0.8794197365
 40
0.8853564864
 40
0.8910858421
 40
0.8966080256
 40
0.9019237307
 40
0.907034313
 40
0.9119418235
 40
0.9166490471
 40
0.9211597368
 40
0.9254785847
 40
0.9296114753
 40
0.9335656049
 40
0.9373496028
 40
0.940973822
 40
0.9444503904
 40
0.9477934549
 40
0.9510192617
 40
0.9541461515
 40
0.9571945402
 40
0.9601866149
 40
0.9631459822
 40
0.9660971089
 40
0.9690646881
 40
0.9720729676
 40
0.9751451488
 40
0.9783028553
 40
0.9849469507
 40
0.9884712584
 40
0.9921476441
 40
0.9959874634
 40
1.0
 40
1.0
 40
1.0
 40
1.0
 10
10.9732377499
 20
10.7350280368
 30
0.0
 10
10.9741360325
 20
10.7358957111
 30
0.0
 10
10.9760176401
 20
10.7376242661
 30
0.0
 10
10.9790186068
 20
10.7401427597
 30
0.0
 10
10.9822571604
 20
10.7426412763
 30
0.0
 10
10.985731194
 20
10.7451181907
 30
0.0
 10
10.9894386625
 20
10.7475721673
 30
0.0
 10
10.9933774414
 20
10.7500017577
 30
0.0
 10
10.9975451867
 20
10.752405613
 30
0.0
 10
11.0019394374
 20
10.7547822614
 30
0.0
 10
11.0065575739
 20
10.7571302843
 30
0.0
 10
11.0113968318
 20
10.759448318
 30
0.0
 10
11.0164543549
 20
10.7617349468
 30
0.0
 10
11.0235962637
 20
10.7647877344
 30
0.0
 10
11.0330553988
 20
10.7685053082
 30
0.0
 10
11.0450554938
 20
10.7727533135
 30
0.0
 10
11.057846603
 20
10.7768446855
 30
0.0
 10
11.0713980937
 20
10.7807695236
 30
0.0
 10
11.0856776519
 20
10.7845183088
 30
0.0
 10
11.1006510748
 20
10.7880819529
 30
0.0
 10
11.1162824633
 20
10.7914518077
 30
0.0
 10
11.1325342983
 20
10.7946196939
 30
0.0
 10
11.1493675439
 20
10.7975779203
 30
0.0
 10
11.1667417387
 20
10.8003193066
 30
0.0
 10
11.1846150977
 20
10.8028372103
 30
0.0
 10
11.2029446216
 20
10.8051255275
 30
0.0
 10
11.2216862071
 20
10.8071787113
 30
0.0
 10
11.2407947505
 20
10.8089917814
 30
0.0
 10
11.2602242589
 20
10.8105603445
 30
0.0
 10
11.2799279453
 20
10.8118806
 30
0.0
 10
11.2998584114
 20
10.8129493785
 30
0.0
 10
11.3267411966
 20
10.8140383872
 30
0.0
 10
11.360557822
 20
10.8147527084
 30
0.0
 10
11.4011607023
 20
10.8145815113
 30
0.0
 10
11.4348940886
 20
10.8135817728
 30
0.0
 10
11.4616451884
 20
10.8122649675
 30
0.0
 10
11.4814297904
 20
10.8110281973
 30
0.0
 10
11.5009559203
 20
10.8095420155
 30
0.0
 10
11.5201766093
 20
10.8078099929
 30
0.0
 10
11.5390455766
 20
10.8058363274
 30
0.0
 10
11.5575174096
 20
10.8036257999
 30
0.0
 10
11.5755476596
 20
10.8011837739
 30
0.0
 10
11.5930929511
 20
10.7985161702
 30
0.0
 10
11.6101110838
 20
10.7956294575
 30
0.0
 10
11.62656114
 20
10.7925306324
 30
0.0
 10
11.6424035937
 20
10.7892272155
 30
0.0
 10
11.6576004126
 20
10.7857272291
 30
0.0
 10
11.6721151474
 20
10.7820391687
 30
0.0
 10
11.6859130341
 20
10.7781719833
 30
0.0
 10
11.6989610653
 20
10.7741350442
 30
0.0
 10
11.7112281972
 20
10.7699381271
 30
0.0
 10
11.7226850975
 20
10.7655913738
 30
0.0
 10
11.7316765817
 20
10.7617932505
 30
0.0
 10
11.7384345384
 20
10.7586791083
 30
0.0
 10
11.7432004202
 20
10.7563509246
 30
0.0
 10
11.7477442173
 20
10.7539931875
 30
0.0
 10
11.7520632578
 20
10.7516073352
 30
0.0
 10
11.7561549569
 20
10.7491947388
 30
0.0
 10
11.7600168954
 20
10.7467568317
 30
0.0
 10
11.7636468067
 20
10.7442950666
 30
0.0
 10
11.7670425132
 20
10.7418108072
 30
0.0
 10
11.7702020552
 20
10.739305545
 30
0.0
 10
11.7731235361
 20
10.7367806397
 30
0.0
 10
11.7758052268
 20
10.7342375037
 30
0.0
 10
11.778245548
 20
10.7316775507
 30
0.0
 10
11.7804429367
 20
10.7291020813
 30
0.0
 10
11.7823960624
 20
10.7265125179
 30
0.0
 10
11.7841035487
 20
10.7239101605
 30
0.0
 10
11.7855641392
 20
10.7212963938
 30
0.0
 10
11.7867766812
 20
10.7186726692
 30
0.0
 10
11.7877399307
 20
10.7160404709
 30
0.0
 10
11.7884529588
 20
10.713401523
 30
0.0
 10
11.7889148089
 20
10.7107576509
 30
0.0
 10
11.7891248611
 20
10.7081108985
 30
0.0
 10
11.7890828788
 20
10.7054634172
 30
0.0
 10
11.7887887966
 20
10.7028173894
 30
0.0
 10
11.788243184
 20
10.7001749588
 30
0.0
 10
11.787446577
 20
10.6975379636
 30
0.0
 10
11.7860276573
 20
10.6939723275
 30
0.0
 10
11.7841120732
 20
10.69047653
 30
0.0
 10
11.7817724034
 20
10.6870797582
 30
0.0
 10
11.7797374833
 20
10.684494407
 30
0.0
 10
11.7774590107
 20
10.6819240959
 30
0.0
 10
11.7758156739
 20
10.6802588271
 30
0.0
 10
11.7749562332
 20
10.6794286711
 30
0.0
  0
SPLINE
  5
385
100
AcDbEntity
  8
0
100
AcDbSpline
 62
7
  6
CONTINUOUS
 70
0
 71
3
 72
70
 73
66
 74
0
 42
0.0000001
 43
0.0000001
 44
0.0000000001
 40
0.0
 40
0.0
 40
0.0
 40
0.0
 40
0.0081223849
 40
0.0169165339
 40
0.0264081415
 40
0.0366136679
 40
0.0475406644
 40
0.0591900246
 40
0.0715572171
 40
0.0846331114
 40
0.0984046526
 40
0.1128554526
 40
0.127966229
 40
0.143715093
 40
0.1600778231
 40
0.1770281509
 40
0.1945379417
 40
0.2125773178
 40
0.2311148623
 40
0.2501177709
 40
0.2695519451
 40
0.2893821116
 40
0.3300834318
 40
0.3719217808
 40
0.4145847454
 40
0.4577517302
 40
0.5010972141
 40
0.5442939306
 40
0.5870160572
 40
0.6289424331
 40
0.6697597557
 40
0.6896580586
 40
0.7091668772
 40
0.7282507707
 40
0.7468754229
 40
0.7650077528
 40
0.7826160903
 40
0.7996702986
 40
0.8161418898
 40
0.8320042165
 40
0.847232709
 40
0.8618050423
 40
0.8757013929
 40
0.888904829
 40
0.901401694
 40
0.913182075
 40
0.9242404944
 40
0.9345768348
 40
0.9394764094
 40
0.9441984756
 40
0.9487450766
 40
0.9531189369
 40
0.9573234152
 40
0.9613626912
 40
0.9652418603
 40
0.9689669536
 40
0.9725451704
 40
0.9759849396
 40
0.9824862018
 40
0.9855751101
 40
0.9885736212
 40
0.9914975915
 40
0.9943642408
 40
0.997191962
 40
1.0
 40
1.0
 40
1.0
 40
1.0
 10
11.0118747853
 20
10.6937115139
 30
0.0
 10
11.0133904172
 20
10.6951755021
 30
0.0
 10
11.0166899739
 20
10.6980784421
 30
0.0
 10
11.0221670266
 20
10.7022028693
 30
0.0
 10
11.0283522838
 20
10.7062583339
 30
0.0
 10
11.0352333095
 20
10.710237057
 30
0.0
 10
11.0427972005
 20
10.7141317226
 30
0.0
 10
11.0510291768
 20
10.7179347232
 30
0.0
 10
11.0599130967
 20
10.7216385407
 30
0.0
 10
11.0694313879
 20
10.7252357229
 30
0.0
 10
11.0795650879
 20
10.7287190269
 30
0.0
 10
11.090293929
 20
10.7320813931
 30
0.0
 10
11.1015963989
 20
10.7353159737
 30
0.0
 10
11.1134497751
 20
10.738416184
 30
0.0
 10
11.1258301811
 20
10.741375725
 30
0.0
 10
11.1387126588
 20
10.744188564
 30
0.0
 10
11.1520712177
 20
10.746848956
 30
0.0
 10
11.1658788785
 20
10.7493514951
 30
0.0
 10
11.1801077443
 20
10.7516910913
 30
0.0
 10
11.1947290555
 20
10.7538629628
 30
0.0
 10
11.2097132783
 20
10.7558627155
 30
0.0
 10
11.2303142218
 20
10.7583152628
 30
0.0
 10
11.2567487427
 20
10.7609110676
 30
0.0
 10
11.2891488757
 20
10.7632592328
 30
0.0
 10
11.3222355324
 20
10.7648474189
 30
0.0
 10
11.3557412208
 20
10.7656626344
 30
0.0
 10
11.3893952574
 20
10.7656981216
 30
0.0
 10
11.4229256535
 20
10.764953629
 30
0.0
 10
11.4560615217
 20
10.7634352579
 30
0.0
 10
11.4885349687
 20
10.7611554816
 30
0.0
 10
11.515045855
 20
10.7586159254
 30
0.0
 10
11.53571959
 20
10.7562075033
 30
0.0
 10
11.5507665567
 20
10.7542394856
 30
0.0
 10
11.5654560715
 20
10.7520985948
 30
0.0
 10
11.5797584609
 20
10.7497891593
 30
0.0
 10
11.5936448058
 20
10.7473158742
 30
0.0
 10
11.6070870528
 20
10.744683781
 30
0.0
 10
11.6200580599
 20
10.7418982505
 30
0.0
 10
11.6325316448
 20
10.7389649502
 30
0.0
 10
11.6444826505
 20
10.7358898443
 30
0.0
 10
11.6558870118
 20
10.7326792119
 30
0.0
 10
11.6667217958
 20
10.7293395907
 30
0.0
 10
11.6769652483
 20
10.7258777542
 30
0.0
 10
11.6865968806
 20
10.7223007303
 30
0.0
 10
11.6955974865
 20
10.7186157656
 30
0.0
 10
11.7039492953
 20
10.7148302367
 30
0.0
 10
11.7116356332
 20
10.710951704
 30
0.0
 10
11.7175758354
 20
10.7075909657
 30
0.0
 10
11.7219724505
 20
10.7048549515
 30
0.0
 10
11.7250350165
 20
10.7028212368
 30
0.0
 10
11.7279202225
 20
10.7007701272
 30
0.0
 10
11.730626671
 20
10.698702641
 30
0.0
 10
11.733152993
 20
10.6966197431
 30
0.0
 10
11.73549792
 20
10.6945224263
 30
0.0
 10
11.7376603254
 20
10.6924116946
 30
0.0
 10
11.7396390216
 20
10.690288547
 30
0.0
 10
11.7414331684
 20
10.6881537204
 30
0.0
 10
11.7435379184
 20
10.6853467059
 30
0.0
 10
11.745325138
 20
10.6824639863
 30
0.0
 10
11.746744155
 20
10.6795197466
 30
0.0
 10
11.7476014866
 20
10.6773422446
 30
0.0
 10
11.7482691505
 20
10.6751594576
 30
0.0
 10
11.7487465564
 20
10.6729724269
 30
0.0
 10
11.7490331714
 20
10.6707827164
 30
0.0
 10
11.7490969805
 20
10.6693198202
 30
0.0
 10
11.7490969862
 20
10.6685913186
 30
0.0
  0
SPLINE
  5
386
100
AcDbEntity
  8
0
100
AcDbSpline
 62
7
  6
CONTINUOUS
 70
0
 71
3
 72
23
 73
19
 74
0
 42
0.0000001
 43
0.0000001
 44
0.0000000001
 40
0.0
 40
0.0
 40
0.0
 40
0.0
 40
0.073691077
 40
0.1431222809
 40
0.2086472495
 40
0.2707207285
 40
0.3298925773
 40
0.3868077095
 40
0.4422007215
 40
0.4968752087
 40
0.5516694414
 40
0.6074156999
 40
0.6649007392
 40
0.7248359755
 40
0.7878391845
 40
0.854430993
 40
0.9250372555
 40
1.0
 40
1.0
 40
1.0
 40
1.0
 10
10.9732377499
 20
10.7350280368
 30
0.0
 10
10.9720802919
 20
10.7339100181
 30
0.0
 10
10.9699012663
 20
10.7316651886
 30
0.0
 10
10.9669781385
 20
10.7281640365
 30
0.0
 10
10.9645053235
 20
10.7246358976
 30
0.0
 10
10.9624866385
 20
10.7210841139
 30
0.0
 10
10.9609257149
 20
10.7175118061
 30
0.0
 10
10.9598262404
 20
10.7139228747
 30
0.0
 10
10.9591916074
 20
10.710322227
 30
0.0
 10
10.9590241542
 20
10.7067158751
 30
0.0
 10
10.9593244948
 20
10.7031104788
 30
0.0
 10
10.9600915341
 20
10.6995126044
 30
0.0
 10
10.9613224556
 20
10.6959279301
 30
0.0
 10
10.963013888
 20
10.6923611011
 30
0.0
 10
10.9651619492
 20
10.6888157263
 30
0.0
 10
10.9677631244
 20
10.685294982
 30
0.0
 10
10.9708134884
 20
10.6818018909
 30
0.0
 10
10.9730741823
 20
10.6795629413
 30
0.0
 10
10.9742725647
 20
10.6784477265
 30
0.0
  0
SPLINE
  5
387
100
AcDbEntity
  8
0
100
AcDbSpline
 62
7
  6
CONTINUOUS
 70
0
 71
3
 72
17
 73
13
 74
0
 42
0.0000001
 43
0.0000001
 44
0.0000000001
 40
0.0
 40
0.0
 40
0.0
 40
0.0
 40
0.0539837682
 40
0.1081983492
 40
0.218166031
 40
0.3316989132
 40
0.4503585267
 40
0.5120612271
 40
0.5755321348
 40
0.7082691285
 40
0.849525751
 40
1.0
 40
1.0
 40
1.0
 40
1.0
 10
12.9245439737
 20
8.1567225189
 30
0.0
 10
12.9250714929
 20
8.1566859316
 30
0.0
 10
12.9261316588
 20
8.1566484368
 30
0.0
 10
12.9282688411
 20
8.1567170356
 30
0.0
 10
12.9309737256
 20
8.1570781465
 30
0.0
 10
12.9342203298
 20
8.157942069
 30
0.0
 10
12.9369023184
 20
8.1590058607
 30
0.0
 10
12.9390470674
 20
8.1600586716
 30
0.0
 10
12.9412568908
 20
8.1612849725
 30
0.0
 10
12.9440281483
 20
8.1630958865
 30
0.0
 10
12.947308984
 20
8.1656563884
 30
0.0
 10
12.9494278609
 20
8.1675777541
 30
0.0
 10
12.9504879977
 20
8.1686017677
 30
0.0
  0
SPLINE
  5
388
100
AcDbEntity
  8
0
100
AcDbSpline
 62
7
  6
CONTINUOUS
 70
0
 71
3
 72
17
 73
13
 74
0
 42
0.0000001
 43
0.0000001
 44
0.0000000001
 40
0.0
 40
0.0
 40
0.0
 40
0.0
 40
0.1480475465
 40
0.2876832517
 40
0.4195860392
 40
0.482920882
 40
0.5446651876
 40
0.6639007805
 40
0.7785650961
 40
0.8900650781
 40
0.9451345358
 40
1.0
 40
1.0
 40
1.0
 40
1.0
 10
11.0118747853
 20
10.6937115139
 30
0.0
 10
11.0108469203
 20
10.6927186725
 30
0.0
 10
11.0089098341
 20
10.6907252682
 30
0.0
 10
11.0063053432
 20
10.6876186503
 30
0.0
 10
11.0044372319
 20
10.6849750427
 30
0.0
 10
11.0031506784
 20
10.6828531332
 30
0.0
 10
11.0020270905
 20
10.6807788313
 30
0.0
 10
11.000859442
 20
10.6781684149
 30
0.0
 10
10.9998439145
 20
10.674985264
 30
0.0
 10
10.9993328665
 20
10.6723114331
 30
0.0
 10
10.9991306199
 20
10.6701824388
 30
0.0
 10
10.9990969928
 20
10.6691209226
 30
0.0
 10
10.9990969969
 20
10.6685913186
 30
0.0
  0
SPLINE
  5
389
100
AcDbEntity
  8
0
100
AcDbSpline
 62
7
  6
CONTINUOUS
 70
0
 71
3
 72
23
 73
19
 74
0
 42
0.0000001
 43
0.0000001
 44
0.0000000001
 40
0.0
 40
0.0
 40
0.0
 40
0.0
 40
0.0742741256
 40
0.1440773876
 40
0.2097820106
 40
0.2718526872
 40
0.3308584598
 40
0.3874745111
 40
0.442475832
 40
0.4967136549
 40
0.551078572
 40
0.6064545916
 40
0.6636747464
 40
0.7234867482
 40
0.7865353463
 40
0.8533610393
 40
0.9244038754
 40
1.0
 40
1.0
 40
1.0
 40
1.0
 10
12.9346630698
 20
8.1300306273
 30
0.0
 10
12.9356571968
 20
8.1288082903
 30
0.0
 10
12.9376625843
 20
8.1264980212
 30
0.0
 10
12.9408267972
 20
8.1233625181
 30
0.0
 10
12.9440478269
 20
8.1206719815
 30
0.0
 10
12.9473231686
 20
8.1184304917
 30
0.0
 10
12.9506500852
 20
8.1166418139
 30
0.0
 10
12.9540252921
 20
8.1153101771
 30
0.0
 10
12.9574442507
 20
8.1144393335
 30
0.0
 10
12.9609011953
 20
8.1140323375
 30
0.0
 10
12.9643894034
 20
8.1140903091
 30
0.0
 10
12.9679021816
 20
8.1146124552
 30
0.0
 10
12.9714336738
 20
8.1155962648
 30
0.0
 10
12.9749792442
 20
8.1170382934
 30
0.0
 10
12.978535246
 20
8.1189349787
 30
0.0
 10
12.9820987132
 20
8.121282901
 30
0.0
 10
12.9856663557
 20
8.1240785217
 30
0.0
 10
12.9879716325
 20
8.1261711454
 30
0.0
 10
12.9891250331
 20
8.1272852448
 30
0.0
  0
SPLINE
  5
38A
100
AcDbEntity
  8
0
100
AcDbSpline
 62
7
  6
CONTINUOUS
 70
0
 71
3
 72
15
 73
11
 74
0
 42
0.0000001
 43
0.0000001
 44
0.0000000001
 40
0.0
 40
0.0
 40
0.0
 40
0.0
 40
0.1079713388
 40
0.219187538
 40
0.3345977758
 40
0.4550383211
 40
0.5812338702
 40
0.7138020187
 40
0.8532562486
 40
1.0
 40
1.0
 40
1.0
 40
1.0
 10
12.9558314866
 20
7.9348517392
 30
0.0
 10
12.9572124459
 20
7.9350444258
 30
0.0
 10
12.9599969765
 20
7.9355847073
 30
0.0
 10
12.9641418631
 20
7.9368279023
 30
0.0
 10
12.9683022033
 20
7.938511521
 30
0.0
 10
12.9724744829
 20
7.9406330225
 30
0.0
 10
12.9766561534
 20
7.9431901944
 30
0.0
 10
12.9808447199
 20
7.9461806048
 30
0.0
 10
12.9850372809
 20
7.9496015976
 30
0.0
 10
12.987762015
 20
7.9521020114
 30
0.0
 10
12.9891250331
 20
7.9534185858
 30
0.0
  0
SPLINE
  5
38B
100
AcDbEntity
  8
0
100
AcDbSpline
 62
7
  6
CONTINUOUS
 70
0
 71
3
 72
21
 73
17
 74
0
 42
0.0000001
 43
0.0000001
 44
0.0000000001
 40
0.0
 40
0.0
 40
0.0
 40
0.0
 40
0.1273176366
 40
0.2537999756
 40
0.3167619475
 40
0.3795355041
 40
0.4421314991
 40
0.5045621439
 40
0.5668413432
 40
0.6289845283
 40
0.6910084528
 40
0.7529310935
 40
0.8147714495
 40
0.8765493365
 40
0.9382852194
 40
1.0
 40
1.0
 40
1.0
 40
1.0
 10
9.0288905522
 20
10.1273120787
 30
0.0
 10
9.0288905522
 20
10.1340568329
 30
0.0
 10
9.0295343835
 20
10.1475107723
 30
0.0
 10
9.0319659253
 20
10.1641427482
 30
0.0
 10
9.0348721584
 20
10.1771890794
 30
0.0
 10
9.0375224869
 20
10.186812058
 30
0.0
 10
9.0406404199
 20
10.1962640521
 30
0.0
 10
9.0442188135
 20
10.2055235247
 30
0.0
 10
9.0482493906
 20
10.2145690674
 30
0.0
 10
9.0527229129
 20
10.2233798199
 30
0.0
 10
9.0576290901
 20
10.2319354423
 30
0.0
 10
9.062956579
 20
10.2402162295
 30
0.0
 10
9.0686931087
 20
10.2482030484
 30
0.0
 10
9.0748255509
 20
10.2558775111
 30
0.0
 10
9.0813394749
 20
10.26322171
 30
0.0
 10
9.0859272744
 20
10.2678872249
 30
0.0
 10
9.0882787981
 20
10.2701586227
 30
0.0
  0
SPLINE
  5
38C
100
AcDbEntity
  8
0
100
AcDbSpline
 62
7
  6
CONTINUOUS
 70
0
 71
3
 72
71
 73
67
 74
0
 42
0.0000001
 43
0.0000001
 44
0.0000000001
 40
0.0
 40
0.0
 40
0.0
 40
0.0
 40
0.0027164567
 40
0.0054532873
 40
0.0082303857
 40
0.0110667033
 40
0.0139799336
 40
0.0169862747
 40
0.0201002594
 40
0.0233348021
 40
0.0267011916
 40
0.0302091642
 40
0.0338671118
 40
0.037682115
 40
0.0416601099
 40
0.0458060802
 40
0.0501240472
 40
0.0546172647
 40
0.0592883293
 40
0.0641391411
 40
0.0743843252
 40
0.0853593088
 40
0.0970632602
 40
0.1094901264
 40
0.1226294866
 40
0.1364672661
 40
0.1509862191
 40
0.1661662602
 40
0.1819848417
 40
0.1984172292
 40
0.2154366671
 40
0.2330145667
 40
0.2511207193
 40
0.2697234241
 40
0.2887895783
 40
0.3082848506
 40
0.3281738045
 40
0.3689851608
 40
0.4109225989
 40
0.4536730339
 40
0.4969154813
 40
0.5403242122
 40
0.5835719106
 40
0.6263328081
 40
0.668285804
 40
0.7091176696
 40
0.7290186694
 40
0.7485271593
 40
0.7676076401
 40
0.7862257433
 40
0.8043483597
 40
0.8219437216
 40
0.8389815412
 40
0.8554332127
 40
0.8712719296
 40
0.8864728471
 40
0.9010133485
 40
0.9148733108
 40
0.9280353626
 40
0.9404852861
 40
0.9522125738
 40
0.963211054
 40
0.9734796428
 40
0.9830235056
 40
0.9918562204
 40
1.0
 40
1.0
 40
1.0
 40
1.0
 10
12.9764320218
 20
8.9049254291
 30
0.0
 10
12.9771319128
 20
8.9048768866
 30
0.0
 10
12.9785333598
 20
8.9047160993
 30
0.0
 10
12.9806176973
 20
8.904285864
 30
0.0
 10
12.9826862665
 20
8.9036665628
 30
0.0
 10
12.9847376211
 20
8.9028588933
 30
0.0
 10
12.9867706915
 20
8.9018635281
 30
0.0
 10
12.9887844143
 20
8.9006812199
 30
0.0
 10
12.9907779025
 20
8.8993128753
 30
0.0
 10
12.99275024
 20
8.8977593124
 30
0.0
 10
12.9947005679
 20
8.8960214394
 30
0.0
 10
12.9966280876
 20
8.8941002465
 30
0.0
 10
12.9985319085
 20
8.8919966874
 30
0.0
 10
13.0004112057
 20
8.8897118516
 30
0.0
 10
13.0022651537
 20
8.8872468928
 30
0.0
 10
13.0040928428
 20
8.8846029928
 30
0.0
 10
13.0058934575
 20
8.8817814818
 30
0.0
 10
13.0076661349
 20
8.878783748
 30
0.0
 10
13.0094100056
 20
8.8756112404
 30
0.0
 10
13.0117381688
 20
8.8710671493
 30
0.0
 10
13.0145606269
 20
8.8649504668
 30
0.0
 10
13.0177602978
 20
8.8570694552
 30
0.0
 10
13.0208254415
 20
8.8485341941
 30
0.0
 10
13.0237499461
 20
8.8393616058
 30
0.0
 10
13.0265279672
 20
8.8295697024
 30
0.0
 10
13.0291538845
 20
8.8191779052
 30
0.0
 10
13.0316223569
 20
8.8082068789
 30
0.0
 10
13.0339283855
 20
8.7966785245
 30
0.0
 10
13.0360672838
 20
8.7846158966
 30
0.0
 10
13.0380346856
 20
8.7720431465
 30
0.0
 10
13.0398265856
 20
8.7589854796
 30
0.0
 10
13.04143935
 20
8.7454690998
 30
0.0
 10
13.0428696913
 20
8.7315211408
 30
0.0
 10
13.0441146855
 20
8.7171696121
 30
0.0
 10
13.0451718037
 20
8.7024433575
 30
0.0
 10
13.0460389243
 20
8.6873719488
 30
0.0
 10
13.0469470345
 20
8.6666794289
 30
0.0
 10
13.0475850914
 20
8.6401759801
 30
0.0
 10
13.0475699054
 20
8.607760629
 30
0.0
 10
13.0467797933
 20
8.5747268833
 30
0.0
 10
13.0452209236
 20
8.5413402119
 30
0.0
 10
13.0429057152
 20
8.5078687345
 30
0.0
 10
13.0398527294
 20
8.4745813433
 30
0.0
 10
13.0360866474
 20
8.4417453431
 30
0.0
 10
13.031637865
 20
8.4096245932
 30
0.0
 10
13.0273560712
 20
8.3834489384
 30
0.0
 10
13.0236069127
 20
8.3630666259
 30
0.0
 10
13.0206723134
 20
8.3482478482
 30
0.0
 10
13.0175969724
 20
8.3337962071
 30
0.0
 10
13.0143870676
 20
8.3197407211
 30
0.0
 10
13.0110491011
 20
8.3061096259
 30
0.0
 10
13.0075898113
 20
8.2929302949
 30
0.0
 10
13.0040161739
 20
8.2802291873
 30
0.0
 10
13.0003354236
 20
8.2680317742
 30
0.0
 10
12.9965550044
 20
8.2563624977
 30
0.0
 10
12.9926825432
 20
8.2452447258
 30
0.0
 10
12.9887258606
 20
8.2347006817
 30
0.0
 10
12.9846929553
 20
8.2247513858
 30
0.0
 10
12.9805919494
 20
8.2154166259
 30
0.0
 10
12.9764310566
 20
8.2067149013
 30
0.0
 10
12.9722186079
 20
8.1986633347
 30
0.0
 10
12.9679629166
 20
8.191277637
 30
0.0
 10
12.9636723034
 20
8.1845721667
 30
0.0
 10
12.9593547187
 20
8.1785594415
 30
0.0
 10
12.9550184961
 20
8.1732514342
 30
0.0
 10
12.9520007866
 20
8.1700630096
 30
0.0
 10
12.9504879977
 20
8.1686017677
 30
0.0
  0
SPLINE
  5
38D
100
AcDbEntity
  8
0
100
AcDbSpline
 62
7
  6
CONTINUOUS
 70
0
 71
3
 72
87
 73
83
 74
0
 42
0.0000001
 43
0.0000001
 44
0.0000000001
 40
0.0
 40
0.0
 40
0.0
 40
0.0
 40
0.0039487638
 40
0.0077209284
 40
0.0113257232
 40
0.0147746481
 40
0.0212567798
 40
0.0243283393
 40
0.0273114384
 40
0.0302283198
 40
0.033102916
 40
0.0359603241
 40
0.0388261296
 40
0.0417256803
 40
0.0446833703
 40
0.0477220638
 40
0.0508626837
 40
0.0541239279
 40
0.0575222768
 40
0.061071954
 40
0.0647851198
 40
0.0686720584
 40
0.0727412928
 40
0.0769999108
 40
0.0814536198
 40
0.0861069869
 40
0.0909636004
 40
0.0960260916
 40
0.101296395
 40
0.1067757019
 40
0.1124646097
 40
0.1183632166
 40
0.1244710613
 40
0.1373101518
 40
0.1509712411
 40
0.1654376922
 40
0.1806884035
 40
0.1966984115
 40
0.2134393475
 40
0.2308798378
 40
0.2489858321
 40
0.2677208717
 40
0.2870463192
 40
0.3069215553
 40
0.3273041883
 40
0.3481502385
 40
0.369414305
 40
0.3910497218
 40
0.4130087096
 40
0.4352425422
 40
0.4577016977
 40
0.5030939122
 40
0.5487796901
 40
0.5943491161
 40
0.6393935896
 40
0.6615932672
 40
0.6835114856
 40
0.7050996353
 40
0.7263100802
 40
0.7470963177
 40
0.7674131276
 40
0.7872167317
 40
0.8064649637
 40
0.8251174651
 40
0.8431358809
 40
0.8604840601
 40
0.8771282934
 40
0.8930375892
 40
0.9081840219
 40
0.9225431176
 40
0.9360943358
 40
0.9488216903
 40
0.9548732133
 40
0.9607153443
 40
0.9663477671
 40
0.9717706804
 40
0.9769848347
 40
0.9819915727
 40
0.9867931296
 40
0.9913924861
 40
0.995793293
 40
1.0
 40
1.0
 40
1.0
 40
1.0
 10
12.9901399662
 20
8.9299661738
 30
0.0
 10
12.9909961483
 20
8.9307629762
 30
0.0
 10
12.9927078147
 20
8.9322813332
 30
0.0
 10
12.995334086
 20
8.9343709962
 30
0.0
 10
12.9979580093
 20
8.9362181017
 30
0.0
 10
13.0013790232
 20
8.9383117984
 30
0.0
 10
13.0048693494
 20
8.9399814851
 30
0.0
 10
13.0083965975
 20
8.9411544712
 30
0.0
 10
13.0109853297
 20
8.9417703455
 30
0.0
 10
13.0135621486
 20
8.9421369654
 30
0.0
 10
13.0161252427
 20
8.9422537658
 30
0.0
 10
13.0186724426
 20
8.9421203632
 30
0.0
 10
13.0212015942
 20
8.9417369575
 30
0.0
 10
13.0237105654
 20
8.9411038928
 30
0.0
 10
13.0261974265
 20
8.9402220654
 30
0.0
 10
13.0286604528
 20
8.9390924987
 30
0.0
 10
13.0310980908
 20
8.9377163275
 30
0.0
 10
13.0335090449
 20
8.9360948976
 30
0.0
 10
13.0358920051
 20
8.9342294147
 30
0.0
 10
13.0382458248
 20
8.9321212741
 30
0.0
 10
13.0405693318
 20
8.929771852
 30
0.0
 10
13.0428613084
 20
8.9271825778
 30
0.0
 10
13.0451206395
 20
8.9243550613
 30
0.0
 10
13.0473460524
 20
8.921290919
 30
0.0
 10
13.0495363781
 20
8.9179919742
 30
0.0
 10
13.0516903997
 20
8.9144601473
 30
0.0
 10
13.0538068522
 20
8.9106974799
 30
0.0
 10
13.0558845889
 20
8.9067062021
 30
0.0
 10
13.0579223399
 20
8.9024886287
 30
0.0
 10
13.0599189487
 20
8.8980472549
 30
0.0
 10
13.0618732387
 20
8.8933847017
 30
0.0
 10
13.0637840375
 20
8.8885037065
 30
0.0
 10
13.0663144886
 20
8.8815928692
 30
0.0
 10
13.0693493672
 20
8.8724210105
 30
0.0
 10
13.0727425355
 20
8.8607688146
 30
0.0
 10
13.0759368591
 20
8.8483218892
 30
0.0
 10
13.0789246371
 20
8.8351098271
 30
0.0
 10
13.0816986193
 20
8.8211638898
 30
0.0
 10
13.0842520831
 20
8.8065172507
 30
0.0
 10
13.0865788337
 20
8.791204795
 30
0.0
 10
13.0886732222
 20
8.7752630438
 30
0.0
 10
13.0905301612
 20
8.758730049
 30
0.0
 10
13.0921451356
 20
8.7416453041
 30
0.0
 10
13.0935142291
 20
8.7240496464
 30
0.0
 10
13.0946341182
 20
8.7059851512
 30
0.0
 10
13.0955020798
 20
8.6874950228
 30
0.0
 10
13.0961159963
 20
8.6686234918
 30
0.0
 10
13.0964743638
 20
8.6494157072
 30
0.0
 10
13.096576298
 20
8.6299176434
 30
0.0
 10
13.0964215597
 20
8.6101759264
 30
0.0
 10
13.0958714325
 20
8.5834985277
 30
0.0
 10
13.0945438848
 20
8.5498922335
 30
0.0
 10
13.0919563731
 20
8.5094972766
 30
0.0
 10
13.0883932581
 20
8.4692800408
 30
0.0
 10
13.084621695
 20
8.4360752592
 30
0.0
 10
13.0811358114
 20
8.4098965632
 30
0.0
 10
13.0783141639
 20
8.3906400217
 30
0.0
 10
13.075279578
 20
8.371712576
 30
0.0
 10
13.0720393094
 20
8.353159482
 30
0.0
 10
13.0686011564
 20
8.3350251305
 30
0.0
 10
13.0649733803
 20
8.317352892
 30
0.0
 10
13.0611647028
 20
8.3001850283
 30
0.0
 10
13.0571842779
 20
8.2835625833
 30
0.0
 10
13.0530416824
 20
8.2675252756
 30
0.0
 10
13.0487468903
 20
8.2521113986
 30
0.0
 10
13.0443102394
 20
8.2373577299
 30
0.0
 10
13.0397424101
 20
8.2232994415
 30
0.0
 10
13.0350543903
 20
8.2099699942
 30
0.0
 10
13.030257461
 20
8.1974010636
 30
0.0
 10
13.0253631461
 20
8.1856223468
 30
0.0
 10
13.0203831824
 20
8.1746618268
 30
0.0
 10
13.0161027717
 20
8.1660927451
 30
0.0
 10
13.0126365009
 20
8.159676082
 30
0.0
 10
13.0100666002
 20
8.1551652179
 30
0.0
 10
13.0074842
 20
8.1508774044
 30
0.0
 10
13.00489081
 20
8.1468151789
 30
0.0
 10
13.0022880124
 20
8.1429809265
 30
0.0
 10
12.9996772568
 20
8.1393769166
 30
0.0
 10
12.9970600772
 20
8.1360051989
 30
0.0
 10
12.994437894
 20
8.1328677492
 30
0.0
 10
12.9918124048
 20
8.1299665857
 30
0.0
 10
12.9900212178
 20
8.1281508929
 30
0.0
 10
12.9891250331
 20
8.1272852448
 30
0.0
  0
SPLINE
  5
38E
100
AcDbEntity
  8
0
100
AcDbSpline
 62
7
  6
CONTINUOUS
 70
0
 71
3
 72
82
 73
78
 74
0
 42
0.0000001
 43
0.0000001
 44
0.0000000001
 40
0.0
 40
0.0
 40
0.0
 40
0.0
 40
0.0027567926
 40
0.005574893
 40
0.0084708955
 40
0.0114599771
 40
0.0145557533
 40
0.0177702926
 40
0.0211141798
 40
0.0245965457
 40
0.028225264
 40
0.0320070012
 40
0.0359473653
 40
0.0400510576
 40
0.0443218902
 40
0.0487629846
 40
0.0533767835
 40
0.0581651349
 40
0.0631294149
 40
0.0682704778
 40
0.0735888088
 40
0.0790845086
 40
0.0906061833
 40
0.1028306664
 40
0.1157483697
 40
0.1293461899
 40
0.1436079768
 40
0.1585149252
 40
0.1740458751
 40
0.1901775546
 40
0.2068847707
 40
0.2241405944
 40
0.2419165261
 40
0.2601826323
 40
0.2789076664
 40
0.2980591761
 40
0.3176036263
 40
0.3375065063
 40
0.3577324284
 40
0.3782452186
 40
0.3990080123
 40
0.4199833566
 40
0.4624188142
 40
0.5052443177
 40
0.5481482682
 40
0.5908183408
 40
0.6329443794
 40
0.6537081243
 40
0.6742220138
 40
0.6944491883
 40
0.7143534733
 40
0.7338994724
 40
0.7530526637
 40
0.7717795117
 40
0.7900475708
 40
0.8078255866
 40
0.8250836109
 40
0.841793131
 40
0.8579272235
 40
0.8734606973
 40
0.888370264
 40
0.9026347425
 40
0.9162353166
 40
0.9291558426
 40
0.9413832071
 40
0.9472340434
 40
0.9529083173
 40
0.9584054572
 40
0.9637252559
 40
0.9688677861
 40
0.9738335134
 40
0.9786233036
 40
0.9832384728
 40
0.9876809879
 40
0.9919533485
 40
0.996058515
 40
1.0
 40
1.0
 40
1.0
 40
1.0
 10
13.0376587633
 20
9.1204615352
 30
0.0
 10
13.0387418328
 20
9.1201654008
 30
0.0
 10
13.0409073419
 20
9.1194721722
 30
0.0
 10
13.0440992571
 20
9.1181533884
 30
0.0
 10
13.0472631532
 20
9.1165473226
 30
0.0
 10
13.0503971501
 20
9.1146551489
 30
0.0
 10
13.0534999697
 20
9.1124781573
 30
0.0
 10
13.0565702703
 20
9.1100176632
 30
0.0
 10
13.0596067219
 20
9.1072749809
 30
0.0
 10
13.06260812
 20
9.1042516144
 30
0.0
 10
13.0655731315
 20
9.1009490217
 30
0.0
 10
13.0685005035
 20
9.0973688432
 30
0.0
 10
13.0713889711
 20
9.0935128107
 30
0.0
 10
13.0742371816
 20
9.0893827283
 30
0.0
 10
13.0770439114
 20
9.0849806027
 30
0.0
 10
13.0798078147
 20
9.080308498
 30
0.0
 10
13.0825276139
 20
9.0753686466
 30
0.0
 10
13.0852020606
 20
9.0701634153
 30
0.0
 10
13.0878298269
 20
9.0646952672
 30
0.0
 10
13.0904097137
 20
9.0589668467
 30
0.0
 10
13.0929404784
 20
9.0529808783
 30
0.0
 10
13.0963006942
 20
9.0445263677
 30
0.0
 10
13.1003567693
 20
9.0333248399
 30
0.0
 10
13.1049356914
 20
9.019108381
 30
0.0
 10
13.1092909951
 20
9.0039402671
 30
0.0
 10
13.113414184
 20
8.9878497489
 30
0.0
 10
13.1172972008
 20
8.9708676762
 30
0.0
 10
13.1209324322
 20
8.9530267877
 30
0.0
 10
13.1243127418
 20
8.934361515
 30
0.0
 10
13.1274314834
 20
8.9149079411
 30
0.0
 10
13.130282534
 20
8.8947037187
 30
0.0
 10
13.132860298
 20
8.8737879886
 30
0.0
 10
13.1351597113
 20
8.8522012897
 30
0.0
 10
13.1371762537
 20
8.8299854752
 30
0.0
 10
13.1389059564
 20
8.8071836357
 30
0.0
 10
13.1403454262
 20
8.7838400144
 30
0.0
 10
13.1414918341
 20
8.7599999155
 30
0.0
 10
13.1423429218
 20
8.7357096104
 30
0.0
 10
13.142897006
 20
8.7110162452
 30
0.0
 10
13.1431529789
 20
8.6859677691
 30
0.0
 10
13.1431103546
 20
8.6606127761
 30
0.0
 10
13.1426536065
 20
8.6263317974
 30
0.0
 10
13.141333732
 20
8.5830785237
 30
0.0
 10
13.1385825158
 20
8.5309461844
 30
0.0
 10
13.1346789201
 20
8.478791448
 30
0.0
 10
13.1296532457
 20
8.4270192095
 30
0.0
 10
13.1245387286
 20
8.3843264811
 30
0.0
 10
13.1199078629
 20
8.3506731414
 30
0.0
 10
13.11619773
 20
8.3258982438
 30
0.0
 10
13.1122413649
 20
8.3015160445
 30
0.0
 10
13.1080464404
 20
8.2775738378
 30
0.0
 10
13.1036211348
 20
8.2541181064
 30
0.0
 10
13.0989740611
 20
8.2311943733
 30
0.0
 10
13.0941142778
 20
8.2088471197
 30
0.0
 10
13.0890512618
 20
8.1871196938
 30
0.0
 10
13.0837948845
 20
8.1660542323
 30
0.0
 10
13.0783553948
 20
8.1456915782
 30
0.0
 10
13.0727433959
 20
8.1260711927
 30
0.0
 10
13.0669698421
 20
8.1072310662
 30
0.0
 10
13.0610459992
 20
8.0892076462
 30
0.0
 10
13.0549834223
 20
8.0720357602
 30
0.0
 10
13.0487939285
 20
8.0557485642
 30
0.0
 10
13.0424895647
 20
8.0403773663
 30
0.0
 10
13.0360826112
 20
8.0259518552
 30
0.0
 10
13.0305906311
 20
8.0145803124
 30
0.0
 10
13.0261469428
 20
8.0059864784
 30
0.0
 10
13.0228453211
 20
7.9998895162
 30
0.0
 10
13.0195273604
 20
7.9940489092
 30
0.0
 10
13.0161946856
 20
7.9884674349
 30
0.0
 10
13.0128488576
 20
7.9831477992
 30
0.0
 10
13.0094915063
 20
7.9780925556
 30
0.0
 10
13.0061242727
 20
7.9733041197
 30
0.0
 10
13.0027486881
 20
7.9687847929
 30
0.0
 10
12.9993663605
 20
7.9645366632
 30
0.0
 10
12.9959787892
 20
7.9605617622
 30
0.0
 10
12.9925877711
 20
7.9568621742
 30
0.0
 10
12.9902796831
 20
7.9545338921
 30
0.0
 10
12.9891250331
 20
7.9534185858
 30
0.0
  0
SPLINE
  5
38F
100
AcDbEntity
  8
0
100
AcDbSpline
 62
7
  6
CONTINUOUS
 70
0
 71
3
 72
84
 73
80
 74
0
 42
0.0000001
 43
0.0000001
 44
0.0000000001
 40
0.0
 40
0.0
 40
0.0
 40
0.0
 40
0.0027164264
 40
0.0054532293
 40
0.008230295
 40
0.0110665896
 40
0.0139797932
 40
0.0169861044
 40
0.0201000661
 40
0.0233345812
 40
0.0267009392
 40
0.0302088856
 40
0.0338668056
 40
0.037681768
 40
0.0416597414
 40
0.0458056718
 40
0.050123593
 40
0.0546167913
 40
0.0592877975
 40
0.0641385717
 40
0.0691704988
 40
0.074384467
 40
0.0797809628
 40
0.0853600226
 40
0.0911213815
 40
0.0970644148
 40
0.1094911534
 40
0.122630387
 40
0.136468035
 40
0.1509868331
 40
0.1661667198
 40
0.1819851503
 40
0.1984173662
 40
0.2154366132
 40
0.2330143274
 40
0.2511202956
 40
0.2697227959
 40
0.2887887406
 40
0.3082838034
 40
0.3281725359
 40
0.3484184777
 40
0.3689842604
 40
0.3898317162
 40
0.4109219843
 40
0.4536719359
 40
0.4969138893
 40
0.5403221212
 40
0.5835693222
 40
0.6263297187
 40
0.6474271304
 40
0.6682829869
 40
0.6888584043
 40
0.7091151927
 40
0.7290159604
 40
0.748524216
 40
0.7676044742
 40
0.7862223676
 40
0.8043447661
 40
0.8219399096
 40
0.838977535
 40
0.8554290199
 40
0.8712675451
 40
0.8864682815
 40
0.9010086172
 40
0.9148684112
 40
0.9280303001
 40
0.9404800906
 40
0.946434749
 40
0.9522077946
 40
0.957798564
 40
0.9632067735
 40
0.9684324641
 40
0.9734760551
 40
0.9783384155
 40
0.983020862
 40
0.9875253935
 40
0.9918546029
 40
0.9960115831
 40
1.0
 40
1.0
 40
1.0
 40
1.0
 10
13.0457446462
 20
9.1206469979
 30
0.0
 10
13.0468551397
 20
9.120569981
 30
0.0
 10
13.0490787675
 20
9.1203148301
 30
0.0
 10
13.0523859009
 20
9.119632132
 30
0.0
 10
13.0556680438
 20
9.1186495396
 30
0.0
 10
13.0589228407
 20
9.1173679736
 30
0.0
 10
13.0621486443
 20
9.1157886478
 30
0.0
 10
13.0653437551
 20
9.1139127087
 30
0.0
 10
13.0685067415
 20
9.1117415651
 30
0.0
 10
13.0716361809
 20
9.1092765604
 30
0.0
 10
13.0747307028
 20
9.1065191218
 30
0.0
 10
13.0777890251
 20
9.1034708027
 30
0.0
 10
13.0808097405
 20
9.1001331304
 30
0.0
 10
13.0837915772
 20
9.0965078544
 30
0.0
 10
13.0867331432
 20
9.0925967485
 30
0.0
 10
13.0896330817
 20
9.0884017507
 30
0.0
 10
13.0924900696
 20
9.0839249448
 30
0.0
 10
13.0953026794
 20
9.0791685013
 30
0.0
 10
13.0980696243
 20
9.0741347968
 30
0.0
 10
13.100789506
 20
9.0688262933
 30
0.0
 10
13.1034610054
 20
9.0632456254
 30
0.0
 10
13.106082824
 20
9.0573955651
 30
0.0
 10
13.1086536106
 20
9.0512790028
 30
0.0
 10
13.1111721396
 20
9.0448990027
 30
0.0
 10
13.113637127
 20
9.038258721
 30
0.0
 10
13.1168993322
 20
9.0289230974
 30
0.0
 10
13.1208222905
 20
9.0166184751
 30
0.0
 10
13.1252300762
 20
9.0010820908
 30
0.0
 10
13.1293965119
 20
8.9845937165
 30
0.0
 10
13.1333131552
 20
8.9671863521
 30
0.0
 10
13.136972044
 20
8.9488946773
 30
0.0
 10
13.1403657416
 20
8.9297552893
 30
0.0
 10
13.1434873422
 20
8.9098065154
 30
0.0
 10
13.1463304917
 20
8.8890883485
 30
0.0
 10
13.1488894005
 20
8.8676423535
 30
0.0
 10
13.1511588555
 20
8.8455115835
 30
0.0
 10
13.1531342409
 20
8.8227404901
 30
0.0
 10
13.1548115363
 20
8.7993748272
 30
0.0
 10
13.1561873251
 20
8.7754615523
 30
0.0
 10
13.1572588007
 20
8.7510487318
 30
0.0
 10
13.158023773
 20
8.7261854405
 30
0.0
 10
13.158480669
 20
8.7009216811
 30
0.0
 10
13.1586285771
 20
8.6753082156
 30
0.0
 10
13.1584122711
 20
8.6406041451
 30
0.0
 10
13.1573627796
 20
8.596731331
 30
0.0
 10
13.1548894056
 20
8.5437579685
 30
0.0
 10
13.151215917
 20
8.4906498617
 30
0.0
 10
13.1463718351
 20
8.4378340352
 30
0.0
 10
13.1413702686
 20
8.3942251976
 30
0.0
 10
13.136805776
 20
8.3598111892
 30
0.0
 10
13.1331320885
 20
8.3344516909
 30
0.0
 10
13.1292003931
 20
8.309479581
 30
0.0
 10
13.1250185862
 20
8.2849450346
 30
0.0
 10
13.1205951166
 20
8.2608973857
 30
0.0
 10
13.1159389091
 20
8.2373849703
 30
0.0
 10
13.1110593624
 20
8.2144550465
 30
0.0
 10
13.105966326
 20
8.1921536933
 30
0.0
 10
13.1006700823
 20
8.1705257131
 30
0.0
 10
13.095181334
 20
8.1496145351
 30
0.0
 10
13.0895111725
 20
8.1294621275
 30
0.0
 10
13.0836710562
 20
8.1101089123
 30
0.0
 10
13.0776727878
 20
8.0915936812
 30
0.0
 10
13.0715284836
 20
8.0739534992
 30
0.0
 10
13.0652505582
 20
8.0572236401
 30
0.0
 10
13.0588516798
 20
8.0414374099
 30
0.0
 10
13.0523447516
 20
8.0266263948
 30
0.0
 10
13.0467634417
 20
8.0149538069
 30
0.0
 10
13.0422456606
 20
8.0061355544
 30
0.0
 10
13.0388888317
 20
7.9998821816
 30
0.0
 10
13.0355147902
 20
7.9938937952
 30
0.0
 10
13.0321252299
 20
7.9881733555
 30
0.0
 10
13.0287218311
 20
7.9827237145
 30
0.0
 10
13.0253062671
 20
7.9775475989
 30
0.0
 10
13.0218802944
 20
7.9726475592
 30
0.0
 10
13.0184455277
 20
7.9680260392
 30
0.0
 10
13.0150036561
 20
7.9636852619
 30
0.0
 10
13.0115562684
 20
7.9596273569
 30
0.0
 10
13.0081052278
 20
7.9558545276
 30
0.0
 10
13.0057554038
 20
7.9534822905
 30
0.0
 10
13.004579848
 20
7.9523467907
 30
0.0
  0
SPLINE
  5
390
100
AcDbEntity
  8
0
100
AcDbSpline
 62
7
  6
CONTINUOUS
 70
0
 71
3
 72
42
 73
38
 74
0
 42
0.0000001
 43
0.0000001
 44
0.0000000001
 40
0.0
 40
0.0
 40
0.0
 40
0.0
 40
0.0299419663
 40
0.0449235352
 40
0.0599142051
 40
0.0899287052
 40
0.1200139767
 40
0.135092661
 40
0.150196701
 40
0.1804840414
 40
0.210897872
 40
0.2414513324
 40
0.2721543376
 40
0.3030133986
 40
0.3340315263
 40
0.3652082187
 40
0.3965395244
 40
0.4280181782
 40
0.4596338019
 40
0.4913731609
 40
0.5232204716
 40
0.55515775
 40
0.5871651943
 40
0.6192215961
 40
0.6513047701
 40
0.6833919991
 40
0.7154604852
 40
0.7474878032
 40
0.7794523473
 40
0.8113337692
 40
0.8431133916
 40
0.8747746171
 40
0.9063032365
 40
0.9376879249
 40
0.9533258257
 40
0.968925233
 40
1.0
 40
1.0
 40
1.0
 40
1.0
 10
11.5350013615
 20
8.1470869944
 30
0.0
 10
11.5313682244
 20
8.1435776529
 30
0.0
 10
11.5257043892
 20
8.1385262558
 30
0.0
 10
11.5177722762
 20
8.1322586043
 30
0.0
 10
11.5095875823
 20
8.1263028142
 30
0.0
 10
11.4989078835
 20
8.119463646
 30
0.0
 10
11.4877089185
 20
8.1134813617
 30
0.0
 10
11.4784726934
 20
8.1092255041
 30
0.0
 10
11.4690456397
 20
8.1053210425
 30
0.0
 10
11.4569511816
 20
8.1011225751
 30
0.0
 10
11.4420465767
 20
8.0972097166
 30
0.0
 10
11.4268167482
 20
8.0944377316
 30
0.0
 10
11.4113460938
 20
8.0928219227
 30
0.0
 10
11.3957195982
 20
8.0923709105
 30
0.0
 10
11.3800232429
 20
8.0930869915
 30
0.0
 10
11.3643432989
 20
8.0949660291
 30
0.0
 10
11.3487659209
 20
8.0979975147
 30
0.0
 10
11.3333766623
 20
8.1021646242
 30
0.0
 10
11.3182600161
 20
8.1074443183
 30
0.0
 10
11.3034989567
 20
8.113807472
 30
0.0
 10
11.2891744906
 20
8.1212190372
 30
0.0
 10
11.2753652182
 20
8.1296382342
 30
0.0
 10
11.2621469079
 20
8.1390187772
 30
0.0
 10
11.2495920862
 20
8.1493091269
 30
0.0
 10
11.237769644
 20
8.1604527714
 30
0.0
 10
11.2267444632
 20
8.172388534
 30
0.0
 10
11.2165770643
 20
8.1850509053
 30
0.0
 10
11.2073232776
 20
8.1983704003
 30
0.0
 10
11.1990339392
 20
8.2122739313
 30
0.0
 10
11.1917546141
 20
8.2266852203
 30
0.0
 10
11.1855253485
 20
8.2415251526
 30
0.0
 10
11.180380441
 20
8.2567124252
 30
0.0
 10
11.1763483089
 20
8.2721631758
 30
0.0
 10
11.1739309602
 20
8.2852052899
 30
0.0
 10
11.1725748949
 20
8.2956844619
 30
0.0
 10
11.1716071066
 20
8.3061536089
 30
0.0
 10
11.1713140704
 20
8.3140315679
 30
0.0
 10
11.1713140704
 20
8.3192739266
 30
0.0
  0
SPLINE
  5
391
100
AcDbEntity
  8
0
100
AcDbSpline
 62
7
  6
CONTINUOUS
 70
0
 71
3
 72
15
 73
11
 74
0
 42
0.0000001
 43
0.0000001
 44
0.0000000001
 40
0.0
 40
0.0
 40
0.0
 40
0.0
 40
0.1273482936
 40
0.2538605366
 40
0.3795879111
 40
0.5046050899
 40
0.6290174366
 40
0.7529533732
 40
0.8765605776
 40
1.0
 40
1.0
 40
1.0
 40
1.0
 10
9.8659879046
 20
7.479443253
 30
0.0
 10
9.8659879046
 20
7.4827694373
 30
0.0
 10
9.8663054869
 20
7.4894045679
 30
0.0
 10
9.8677417303
 20
7.4992296509
 30
0.0
 10
9.8701232611
 20
7.5088078653
 30
0.0
 10
9.8734285725
 20
7.5180496358
 30
0.0
 10
9.8776273227
 20
7.5268697367
 30
0.0
 10
9.8826812507
 20
7.535186723
 30
0.0
 10
9.8885428476
 20
7.5429226531
 30
0.0
 10
9.8929563214
 20
7.5476482095
 30
0.0
 10
9.8952752721
 20
7.5498881245
 30
0.0
  0
SPLINE
  5
392
100
AcDbEntity
  8
0
100
AcDbSpline
 62
7
  6
CONTINUOUS
 70
0
 71
3
 72
23
 73
19
 74
0
 42
0.0000001
 43
0.0000001
 44
0.0000000001
 40
0.0
 40
0.0
 40
0.0
 40
0.0
 40
0.0614488807
 40
0.1232974294
 40
0.1855193177
 40
0.2480712672
 40
0.3108995318
 40
0.3739401513
 40
0.4371217414
 40
0.5003679843
 40
0.5636003151
 40
0.6267406524
 40
0.6897141172
 40
0.7524516838
 40
0.8148926113
 40
0.8769871451
 40
0.9386966623
 40
1.0
 40
1.0
 40
1.0
 40
1.0
 10
9.9703079
 20
7.3678886413
 30
0.0
 10
9.9668838746
 20
7.3681260983
 30
0.0
 10
9.9600324075
 20
7.3689399847
 30
0.0
 10
9.9498932792
 20
7.3711505121
 30
0.0
 10
9.9399506809
 20
7.3743334036
 30
0.0
 10
9.93030133
 20
7.3784578225
 30
0.0
 10
9.9210375059
 20
7.383483896
 30
0.0
 10
9.9122481775
 20
7.3893632236
 30
0.0
 10
9.904017634
 20
7.3960392388
 30
0.0
 10
9.8964248409
 20
7.4034477874
 30
0.0
 10
9.8895426666
 20
7.4115177382
 30
0.0
 10
9.8834372068
 20
7.4201716532
 30
0.0
 10
9.8781671595
 20
7.4293265063
 30
0.0
 10
9.8737832683
 20
7.4388944951
 30
0.0
 10
9.8703277866
 20
7.4487837191
 30
0.0
 10
9.867834211
 20
7.458899573
 30
0.0
 10
9.8663266919
 20
7.4691436382
 30
0.0
 10
9.8659879046
 20
7.4760191329
 30
0.0
 10
9.8659879046
 20
7.479443253
 30
0.0
  0
SPLINE
  5
393
100
AcDbEntity
  8
0
100
AcDbSpline
 62
7
  6
CONTINUOUS
 70
0
 71
3
 72
42
 73
38
 74
0
 42
0.0000001
 43
0.0000001
 44
0.0000000001
 40
0.0
 40
0.0
 40
0.0
 40
0.0
 40
0.0299419663
 40
0.0449235352
 40
0.0599142051
 40
0.0899287052
 40
0.1200139767
 40
0.135092661
 40
0.150196701
 40
0.1804840414
 40
0.210897872
 40
0.2414513324
 40
0.2721543376
 40
0.3030133986
 40
0.3340315263
 40
0.3652082187
 40
0.3965395244
 40
0.4280181782
 40
0.4596338019
 40
0.4913731609
 40
0.5232204716
 40
0.55515775
 40
0.5871651943
 40
0.6192215961
 40
0.6513047701
 40
0.6833919991
 40
0.7154604852
 40
0.7474878032
 40
0.7794523473
 40
0.8113337692
 40
0.8431133916
 40
0.8747746171
 40
0.9063032365
 40
0.9376879249
 40
0.9533258257
 40
0.968925233
 40
1.0
 40
1.0
 40
1.0
 40
1.0
 10
11.1428355504
 20
8.748043628
 30
0.0
 10
11.1392024133
 20
8.7445342864
 30
0.0
 10
11.1335385782
 20
8.7394828894
 30
0.0
 10
11.1256064651
 20
8.7332152379
 30
0.0
 10
11.1174217712
 20
8.7272594478
 30
0.0
 10
11.1067420725
 20
8.7204202796
 30
0.0
 10
11.0955431074
 20
8.7144379952
 30
0.0
 10
11.0863068824
 20
8.7101821376
 30
0.0
 10
11.0768798286
 20
8.7062776761
 30
0.0
 10
11.0647853706
 20
8.7020792086
 30
0.0
 10
11.0498807656
 20
8.6981663501
 30
0.0
 10
11.0346509371
 20
8.6953943651
 30
0.0
 10
11.0191802827
 20
8.6937785562
 30
0.0
 10
11.0035537872
 20
8.6933275441
 30
0.0
 10
10.9878574319
 20
8.694043625
 30
0.0
 10
10.9721774879
 20
8.6959226627
 30
0.0
 10
10.9566001099
 20
8.6989541482
 30
0.0
 10
10.9412108513
 20
8.7031212577
 30
0.0
 10
10.9260942051
 20
8.7084009518
 30
0.0
 10
10.9113331456
 20
8.7147641056
 30
0.0
 10
10.8970086795
 20
8.7221756707
 30
0.0
 10
10.8831994071
 20
8.7305948677
 30
0.0
 10
10.8699810969
 20
8.7399754107
 30
0.0
 10
10.8574262751
 20
8.7502657604
 30
0.0
 10
10.8456038329
 20
8.7614094049
 30
0.0
 10
10.8345786521
 20
8.7733451675
 30
0.0
 10
10.8244112533
 20
8.7860075388
 30
0.0
 10
10.8151574666
 20
8.7993270339
 30
0.0
 10
10.8068681281
 20
8.8132305649
 30
0.0
 10
10.799588803
 20
8.8276418538
 30
0.0
 10
10.7933595375
 20
8.8424817861
 30
0.0
 10
10.78821463
 20
8.8576690587
 30
0.0
 10
10.7841824979
 20
8.8731198093
 30
0.0
 10
10.7817651491
 20
8.8861619234
 30
0.0
 10
10.7804090839
 20
8.8966410954
 30
0.0
 10
10.7794412955
 20
8.9071102424
 30
0.0
 10
10.7791482594
 20
8.9149882014
 30
0.0
 10
10.7791482594
 20
8.9202305601
 30
0.0
  0
SPLINE
  5
394
100
AcDbEntity
  8
0
100
AcDbSpline
 62
7
  6
CONTINUOUS
 70
0
 71
3
 72
42
 73
38
 74
0
 42
0.0000001
 43
0.0000001
 44
0.0000000001
 40
0.0
 40
0.0
 40
0.0
 40
0.0
 40
0.0299419663
 40
0.0449235352
 40
0.0599142051
 40
0.0899287052
 40
0.1200139767
 40
0.135092661
 40
0.150196701
 40
0.1804840414
 40
0.210897872
 40
0.2414513324
 40
0.2721543376
 40
0.3030133986
 40
0.3340315263
 40
0.3652082187
 40
0.3965395244
 40
0.4280181782
 40
0.4596338019
 40
0.4913731609
 40
0.5232204716
 40
0.55515775
 40
0.5871651943
 40
0.6192215961
 40
0.6513047701
 40
0.6833919991
 40
0.7154604852
 40
0.7474878032
 40
0.7794523473
 40
0.8113337692
 40
0.8431133916
 40
0.8747746171
 40
0.9063032365
 40
0.9376879249
 40
0.9533258257
 40
0.968925233
 40
1.0
 40
1.0
 40
1.0
 40
1.0
 10
10.7506696242
 20
8.2014805852
 30
0.0
 10
10.7470364871
 20
8.1979712436
 30
0.0
 10
10.741372652
 20
8.1929198466
 30
0.0
 10
10.7334405389
 20
8.1866521951
 30
0.0
 10
10.725255845
 20
8.180696405
 30
0.0
 10
10.7145761463
 20
8.1738572368
 30
0.0
 10
10.7033771812
 20
8.1678749524
 30
0.0
 10
10.6941409562
 20
8.1636190948
 30
0.0
 10
10.6847139024
 20
8.1597146333
 30
0.0
 10
10.6726194444
 20
8.1555161658
 30
0.0
 10
10.6577148394
 20
8.1516033073
 30
0.0
 10
10.6424850109
 20
8.1488313223
 30
0.0
 10
10.6270143565
 20
8.1472155134
 30
0.0
 10
10.6113878609
 20
8.1467645013
 30
0.0
 10
10.5956915057
 20
8.1474805822
 30
0.0
 10
10.5800115617
 20
8.1493596199
 30
0.0
 10
10.5644341837
 20
8.1523911054
 30
0.0
 10
10.549044925
 20
8.1565582149
 30
0.0
 10
10.5339282789
 20
8.161837909
 30
0.0
 10
10.5191672194
 20
8.1682010628
 30
0.0
 10
10.5048427533
 20
8.1756126279
 30
0.0
 10
10.4910334809
 20
8.1840318249
 30
0.0
 10
10.4778151707
 20
8.1934123679
 30
0.0
 10
10.4652603489
 20
8.2037027176
 30
0.0
 10
10.4534379067
 20
8.2148463621
 30
0.0
 10
10.4424127259
 20
8.2267821247
 30
0.0
 10
10.432245327
 20
8.239444496
 30
0.0
 10
10.4229915404
 20
8.2527639911
 30
0.0
 10
10.4147022019
 20
8.2666675221
 30
0.0
 10
10.4074228768
 20
8.281078811
 30
0.0
 10
10.4011936113
 20
8.2959187433
 30
0.0
 10
10.3960487038
 20
8.3111060159
 30
0.0
 10
10.3920165717
 20
8.3265567665
 30
0.0
 10
10.3895992229
 20
8.3395988806
 30
0.0
 10
10.3882431577
 20
8.3500780526
 30
0.0
 10
10.3872753693
 20
8.3605471996
 30
0.0
 10
10.3869823331
 20
8.3684251586
 30
0.0
 10
10.3869823331
 20
8.3736675173
 30
0.0
  0
SPLINE
  5
395
100
AcDbEntity
  8
0
100
AcDbSpline
 62
7
  6
CONTINUOUS
 70
0
 71
3
 72
42
 73
38
 74
0
 42
0.0000001
 43
0.0000001
 44
0.0000000001
 40
0.0
 40
0.0
 40
0.0
 40
0.0
 40
0.0299419663
 40
0.0449235352
 40
0.0599142051
 40
0.0899287052
 40
0.1200139767
 40
0.135092661
 40
0.150196701
 40
0.1804840414
 40
0.210897872
 40
0.2414513324
 40
0.2721543376
 40
0.3030133986
 40
0.3340315263
 40
0.3652082187
 40
0.3965395244
 40
0.4280181782
 40
0.4596338019
 40
0.4913731609
 40
0.5232204716
 40
0.55515775
 40
0.5871651943
 40
0.6192215961
 40
0.6513047701
 40
0.6833919991
 40
0.7154604852
 40
0.7474878032
 40
0.7794523473
 40
0.8113337692
 40
0.8431133916
 40
0.8747746171
 40
0.9063032365
 40
0.9376879249
 40
0.9533258257
 40
0.968925233
 40
1.0
 40
1.0
 40
1.0
 40
1.0
 10
10.2367971067
 20
7.814042033
 30
0.0
 10
10.2331639696
 20
7.8105326915
 30
0.0
 10
10.2275001344
 20
7.8054812944
 30
0.0
 10
10.2195680214
 20
7.7992136429
 30
0.0
 10
10.2113833275
 20
7.7932578528
 30
0.0
 10
10.2007036287
 20
7.7864186846
 30
0.0
 10
10.1895046637
 20
7.7804364003
 30
0.0
 10
10.1802684386
 20
7.7761805427
 30
0.0
 10
10.1708413849
 20
7.7722760811
 30
0.0
 10
10.1587469268
 20
7.7680776137
 30
0.0
 10
10.1438423219
 20
7.7641647552
 30
0.0
 10
10.1286124934
 20
7.7613927702
 30
0.0
 10
10.113141839
 20
7.7597769613
 30
0.0
 10
10.0975153434
 20
7.7593259491
 30
0.0
 10
10.0818189881
 20
7.7600420301
 30
0.0
 10
10.0661390441
 20
7.7619210677
 30
0.0
 10
10.0505616661
 20
7.7649525533
 30
0.0
 10
10.0351724075
 20
7.7691196628
 30
0.0
 10
10.0200557613
 20
7.7743993569
 30
0.0
 10
10.0052947018
 20
7.7807625106
 30
0.0
 10
9.9909702358
 20
7.7881740758
 30
0.0
 10
9.9771609634
 20
7.7965932727
 30
0.0
 10
9.9639426531
 20
7.8059738158
 30
0.0
 10
9.9513878314
 20
7.8162641655
 30
0.0
 10
9.9395653892
 20
7.82740781
 30
0.0
 10
9.9285402084
 20
7.8393435726
 30
0.0
 10
9.9183728095
 20
7.8520059439
 30
0.0
 10
9.9091190228
 20
7.8653254389
 30
0.0
 10
9.9008296844
 20
7.8792289699
 30
0.0
 10
9.8935503593
 20
7.8936402589
 30
0.0
 10
9.8873210937
 20
7.9084801911
 30
0.0
 10
9.8821761862
 20
7.9236674637
 30
0.0
 10
9.8781440541
 20
7.9391182143
 30
0.0
 10
9.8757267054
 20
7.9521603284
 30
0.0
 10
9.8743706401
 20
7.9626395005
 30
0.0
 10
9.8734028518
 20
7.9731086475
 30
0.0
 10
9.8731098156
 20
7.9809866064
 30
0.0
 10
9.8731098156
 20
7.9862289652
 30
0.0
  0
SPLINE
  5
396
100
AcDbEntity
  8
0
100
AcDbSpline
 62
7
  6
CONTINUOUS
 70
0
 71
3
 72
15
 73
11
 74
0
 42
0.0000001
 43
0.0000001
 44
0.0000000001
 40
0.0
 40
0.0
 40
0.0
 40
0.0
 40
0.1233171261
 40
0.2468171865
 40
0.3706749939
 40
0.4950495802
 40
0.6200773232
 40
0.7458671315
 40
0.872492731
 40
1.0
 40
1.0
 40
1.0
 40
1.0
 10
10.0453405279
 20
7.3945291489
 30
0.0
 10
10.0429169756
 20
7.3921881975
 30
0.0
 10
10.0378098038
 20
7.3877602687
 30
0.0
 10
10.0294743961
 20
7.3819741661
 30
0.0
 10
10.0205427242
 20
7.3770965585
 30
0.0
 10
10.0111062116
 20
7.3731775788
 30
0.0
 10
10.0012600466
 20
7.3702561351
 30
0.0
 10
9.9911034153
 20
7.3683614378
 30
0.0
 10
9.9807399936
 20
7.3675119154
 30
0.0
 10
9.9737835627
 20
7.3676476033
 30
0.0
 10
9.9703079
 20
7.3678886413
 30
0.0
  0
SPLINE
  5
397
100
AcDbEntity
  8
0
100
AcDbSpline
 62
7
  6
CONTINUOUS
 70
0
 71
3
 72
15
 73
11
 74
0
 42
0.0000001
 43
0.0000001
 44
0.0000000001
 40
0.0
 40
0.0
 40
0.0
 40
0.0
 40
0.1233171261
 40
0.2468171865
 40
0.3706749939
 40
0.4950495802
 40
0.6200773232
 40
0.7458671315
 40
0.872492731
 40
1.0
 40
1.0
 40
1.0
 40
1.0
 10
12.0969671745
 20
7.2522483577
 30
0.0
 10
12.0945436222
 20
7.2499074063
 30
0.0
 10
12.0894364504
 20
7.2454794775
 30
0.0
 10
12.0811010427
 20
7.2396933749
 30
0.0
 10
12.0721693708
 20
7.2348157674
 30
0.0
 10
12.0627328582
 20
7.2308967876
 30
0.0
 10
12.0528866932
 20
7.2279753439
 30
0.0
 10
12.0427300619
 20
7.2260806466
 30
0.0
 10
12.0323666403
 20
7.2252311242
 30
0.0
 10
12.0254102093
 20
7.2253668121
 30
0.0
 10
12.0219345466
 20
7.2256078501
 30
0.0
  0
SPLINE
  5
398
100
AcDbEntity
  8
0
100
AcDbSpline
 62
7
  6
CONTINUOUS
 70
0
 71
3
 72
42
 73
38
 74
0
 42
0.0000001
 43
0.0000001
 44
0.0000000001
 40
0.0
 40
0.0
 40
0.0
 40
0.0
 40
0.0299419663
 40
0.0449235352
 40
0.0599142051
 40
0.0899287052
 40
0.1200139767
 40
0.135092661
 40
0.150196701
 40
0.1804840414
 40
0.210897872
 40
0.2414513324
 40
0.2721543376
 40
0.3030133986
 40
0.3340315263
 40
0.3652082187
 40
0.3965395244
 40
0.4280181782
 40
0.4596338019
 40
0.4913731609
 40
0.5232204716
 40
0.55515775
 40
0.5871651943
 40
0.6192215961
 40
0.6513047701
 40
0.6833919991
 40
0.7154604852
 40
0.7474878032
 40
0.7794523473
 40
0.8113337692
 40
0.8431133916
 40
0.8747746171
 40
0.9063032365
 40
0.9376879249
 40
0.9533258257
 40
0.968925233
 40
1.0
 40
1.0
 40
1.0
 40
1.0
 10
9.3925778433
 20
9.9551251465
 30
0.0
 10
9.3889447062
 20
9.951615805
 30
0.0
 10
9.383280871
 20
9.9465644079
 30
0.0
 10
9.375348758
 20
9.9402967564
 30
0.0
 10
9.367164064
 20
9.9343409663
 30
0.0
 10
9.3564843653
 20
9.9275017981
 30
0.0
 10
9.3452854002
 20
9.9215195138
 30
0.0
 10
9.3360491752
 20
9.9172636562
 30
0.0
 10
9.3266221215
 20
9.9133591946
 30
0.0
 10
9.3145276634
 20
9.9091607272
 30
0.0
 10
9.2996230584
 20
9.9052478687
 30
0.0
 10
9.28439323
 20
9.9024758837
 30
0.0
 10
9.2689225756
 20
9.9008600748
 30
0.0
 10
9.25329608
 20
9.9004090626
 30
0.0
 10
9.2375997247
 20
9.9011251436
 30
0.0
 10
9.2219197807
 20
9.9030041812
 30
0.0
 10
9.2063424027
 20
9.9060356668
 30
0.0
 10
9.1909531441
 20
9.9102027763
 30
0.0
 10
9.1758364979
 20
9.9154824704
 30
0.0
 10
9.1610754384
 20
9.9218456241
 30
0.0
 10
9.1467509724
 20
9.9292571893
 30
0.0
 10
9.1329417
 20
9.9376763863
 30
0.0
 10
9.1197233897
 20
9.9470569293
 30
0.0
 10
9.107168568
 20
9.957347279
 30
0.0
 10
9.0953461257
 20
9.9684909235
 30
0.0
 10
9.084320945
 20
9.9804266861
 30
0.0
 10
9.0741535461
 20
9.9930890574
 30
0.0
 10
9.0648997594
 20
10.0064085524
 30
0.0
 10
9.056610421
 20
10.0203120834
 30
0.0
 10
9.0493310959
 20
10.0347233724
 30
0.0
 10
9.0431018303
 20
10.0495633047
 30
0.0
 10
9.0379569228
 20
10.0647505772
 30
0.0
 10
9.0339247907
 20
10.0802013279
 30
0.0
 10
9.031507442
 20
10.093243442
 30
0.0
 10
9.0301513767
 20
10.103722614
 30
0.0
 10
9.0291835884
 20
10.114191761
 30
0.0
 10
9.0288905522
 20
10.1220697199
 30
0.0
 10
9.0288905522
 20
10.1273120787
 30
0.0
  0
SPLINE
  5
399
100
AcDbEntity
  8
0
100
AcDbSpline
 62
7
  6
CONTINUOUS
 70
0
 71
3
 72
21
 73
17
 74
0
 42
0.0000001
 43
0.0000001
 44
0.0000000001
 40
0.0
 40
0.0
 40
0.0
 40
0.0
 40
0.1273176366
 40
0.2537999756
 40
0.3167619475
 40
0.3795355041
 40
0.4421314991
 40
0.5045621439
 40
0.5668413432
 40
0.6289845283
 40
0.6910084528
 40
0.7529310935
 40
0.8147714495
 40
0.8765493365
 40
0.9382852194
 40
1.0
 40
1.0
 40
1.0
 40
1.0
 10
12.0464430535
 20
9.918044102
 30
0.0
 10
12.0464430535
 20
9.9247888562
 30
0.0
 10
12.0470868848
 20
9.9382427956
 30
0.0
 10
12.0495184266
 20
9.9548747715
 30
0.0
 10
12.0524246598
 20
9.9679211027
 30
0.0
 10
12.0550749882
 20
9.9775440812
 30
0.0
 10
12.0581929213
 20
9.9869960754
 30
0.0
 10
12.0617713148
 20
9.996255548
 30
0.0
 10
12.0658018919
 20
10.0053010907
 30
0.0
 10
12.0702754143
 20
10.0141118432
 30
0.0
 10
12.0751815914
 20
10.0226674656
 30
0.0
 10
12.0805090804
 20
10.0309482528
 30
0.0
 10
12.0862456101
 20
10.0389350716
 30
0.0
 10
12.0923780522
 20
10.0466095344
 30
0.0
 10
12.0988919763
 20
10.0539537332
 30
0.0
 10
12.1034797757
 20
10.0586192481
 30
0.0
 10
12.1058312995
 20
10.060890646
 30
0.0
  0
SPLINE
  5
39A
100
AcDbEntity
  8
0
100
AcDbSpline
 62
7
  6
CONTINUOUS
 70
0
 71
3
 72
42
 73
38
 74
0
 42
0.0000001
 43
0.0000001
 44
0.0000000001
 40
0.0
 40
0.0
 40
0.0
 40
0.0
 40
0.0299419663
 40
0.0449235352
 40
0.0599142051
 40
0.0899287052
 40
0.1200139767
 40
0.135092661
 40
0.150196701
 40
0.1804840414
 40
0.210897872
 40
0.2414513324
 40
0.2721543376
 40
0.3030133986
 40
0.3340315263
 40
0.3652082187
 40
0.3965395244
 40
0.4280181782
 40
0.4596338019
 40
0.4913731609
 40
0.5232204716
 40
0.55515775
 40
0.5871651943
 40
0.6192215961
 40
0.6513047701
 40
0.6833919991
 40
0.7154604852
 40
0.7474878032
 40
0.7794523473
 40
0.8113337692
 40
0.8431133916
 40
0.8747746171
 40
0.9063032365
 40
0.9376879249
 40
0.9533258257
 40
0.968925233
 40
1.0
 40
1.0
 40
1.0
 40
1.0
 10
12.4101303446
 20
9.7458571698
 30
0.0
 10
12.4064972075
 20
9.7423478283
 30
0.0
 10
12.4008333724
 20
9.7372964312
 30
0.0
 10
12.3929012593
 20
9.7310287797
 30
0.0
 10
12.3847165654
 20
9.7250729896
 30
0.0
 10
12.3740368667
 20
9.7182338214
 30
0.0
 10
12.3628379016
 20
9.712251537
 30
0.0
 10
12.3536016766
 20
9.7079956794
 30
0.0
 10
12.3441746228
 20
9.7040912179
 30
0.0
 10
12.3320801648
 20
9.6998927504
 30
0.0
 10
12.3171755598
 20
9.6959798919
 30
0.0
 10
12.3019457313
 20
9.6932079069
 30
0.0
 10
12.2864750769
 20
9.691592098
 30
0.0
 10
12.2708485813
 20
9.6911410859
 30
0.0
 10
12.2551522261
 20
9.6918571668
 30
0.0
 10
12.2394722821
 20
9.6937362045
 30
0.0
 10
12.2238949041
 20
9.69676769
 30
0.0
 10
12.2085056454
 20
9.7009347995
 30
0.0
 10
12.1933889993
 20
9.7062144936
 30
0.0
 10
12.1786279398
 20
9.7125776474
 30
0.0
 10
12.1643034737
 20
9.7199892125
 30
0.0
 10
12.1504942013
 20
9.7284084095
 30
0.0
 10
12.1372758911
 20
9.7377889525
 30
0.0
 10
12.1247210693
 20
9.7480793022
 30
0.0
 10
12.1128986271
 20
9.7592229467
 30
0.0
 10
12.1018734463
 20
9.7711587093
 30
0.0
 10
12.0917060474
 20
9.7838210806
 30
0.0
 10
12.0824522608
 20
9.7971405757
 30
0.0
 10
12.0741629223
 20
9.8110441067
 30
0.0
 10
12.0668835972
 20
9.8254553957
 30
0.0
 10
12.0606543317
 20
9.8402953279
 30
0.0
 10
12.0555094242
 20
9.8554826005
 30
0.0
 10
12.0514772921
 20
9.8709333511
 30
0.0
 10
12.0490599433
 20
9.8839754652
 30
0.0
 10
12.0477038781
 20
9.8944546373
 30
0.0
 10
12.0467360897
 20
9.9049237842
 30
0.0
 10
12.0464430535
 20
9.9128017432
 30
0.0
 10
12.0464430535
 20
9.918044102
 30
0.0
  0
SPLINE
  5
39B
100
AcDbEntity
  8
0
100
AcDbSpline
 62
7
  6
CONTINUOUS
 70
0
 71
3
 72
15
 73
11
 74
0
 42
0.0000001
 43
0.0000001
 44
0.0000000001
 40
0.0
 40
0.0
 40
0.0
 40
0.0
 40
0.1233171261
 40
0.2468171865
 40
0.3706749939
 40
0.4950495802
 40
0.6200773232
 40
0.7458671315
 40
0.872492731
 40
1.0
 40
1.0
 40
1.0
 40
1.0
 10
12.0969671745
 20
9.0034719495
 30
0.0
 10
12.0945436222
 20
9.0011309981
 30
0.0
 10
12.0894364504
 20
8.9967030693
 30
0.0
 10
12.0811010427
 20
8.9909169668
 30
0.0
 10
12.0721693708
 20
8.9860393592
 30
0.0
 10
12.0627328582
 20
8.9821203795
 30
0.0
 10
12.0528866932
 20
8.9791989358
 30
0.0
 10
12.0427300619
 20
8.9773042384
 30
0.0
 10
12.0323666403
 20
8.976454716
 30
0.0
 10
12.0254102093
 20
8.9765904039
 30
0.0
 10
12.0219345466
 20
8.9768314419
 30
0.0
  0
SPLINE
  5
39C
100
AcDbEntity
  8
0
100
AcDbSpline
 62
7
  6
CONTINUOUS
 70
0
 71
3
 72
42
 73
38
 74
0
 42
0.0000001
 43
0.0000001
 44
0.0000000001
 40
0.0
 40
0.0
 40
0.0
 40
0.0
 40
0.0299419663
 40
0.0449235352
 40
0.0599142051
 40
0.0899287052
 40
0.1200139767
 40
0.135092661
 40
0.150196701
 40
0.1804840414
 40
0.210897872
 40
0.2414513324
 40
0.2721543376
 40
0.3030133986
 40
0.3340315263
 40
0.3652082187
 40
0.3965395244
 40
0.4280181782
 40
0.4596338019
 40
0.4913731609
 40
0.5232204716
 40
0.55515775
 40
0.5871651943
 40
0.6192215961
 40
0.6513047701
 40
0.6833919991
 40
0.7154604852
 40
0.7474878032
 40
0.7794523473
 40
0.8113337692
 40
0.8431133916
 40
0.8747746171
 40
0.9063032365
 40
0.9376879249
 40
0.9533258257
 40
0.968925233
 40
1.0
 40
1.0
 40
1.0
 40
1.0
 10
12.4101303446
 20
6.245341957
 30
0.0
 10
12.4064972075
 20
6.2418326154
 30
0.0
 10
12.4008333724
 20
6.2367812184
 30
0.0
 10
12.3929012593
 20
6.2305135669
 30
0.0
 10
12.3847165654
 20
6.2245577768
 30
0.0
 10
12.3740368667
 20
6.2177186086
 30
0.0
 10
12.3628379016
 20
6.2117363242
 30
0.0
 10
12.3536016766
 20
6.2074804666
 30
0.0
 10
12.3441746228
 20
6.2035760051
 30
0.0
 10
12.3320801648
 20
6.1993775376
 30
0.0
 10
12.3171755598
 20
6.1954646791
 30
0.0
 10
12.3019457313
 20
6.1926926941
 30
0.0
 10
12.2864750769
 20
6.1910768852
 30
0.0
 10
12.2708485813
 20
6.1906258731
 30
0.0
 10
12.2551522261
 20
6.191341954
 30
0.0
 10
12.2394722821
 20
6.1932209917
 30
0.0
 10
12.2238949041
 20
6.1962524772
 30
0.0
 10
12.2085056454
 20
6.2004195867
 30
0.0
 10
12.1933889993
 20
6.2056992808
 30
0.0
 10
12.1786279398
 20
6.2120624346
 30
0.0
 10
12.1643034737
 20
6.2194739997
 30
0.0
 10
12.1504942013
 20
6.2278931967
 30
0.0
 10
12.1372758911
 20
6.2372737397
 30
0.0
 10
12.1247210693
 20
6.2475640894
 30
0.0
 10
12.1128986271
 20
6.2587077339
 30
0.0
 10
12.1018734463
 20
6.2706434965
 30
0.0
 10
12.0917060474
 20
6.2833058678
 30
0.0
 10
12.0824522608
 20
6.2966253629
 30
0.0
 10
12.0741629223
 20
6.3105288939
 30
0.0
 10
12.0668835972
 20
6.3249401828
 30
0.0
 10
12.0606543317
 20
6.3397801151
 30
0.0
 10
12.0555094242
 20
6.3549673877
 30
0.0
 10
12.0514772921
 20
6.3704181383
 30
0.0
 10
12.0490599433
 20
6.3834602524
 30
0.0
 10
12.0477038781
 20
6.3939394245
 30
0.0
 10
12.0467360897
 20
6.4044085714
 30
0.0
 10
12.0464430535
 20
6.4122865304
 30
0.0
 10
12.0464430535
 20
6.4175288892
 30
0.0
  0
SPLINE
  5
39D
100
AcDbEntity
  8
0
100
AcDbSpline
 62
7
  6
CONTINUOUS
 70
0
 71
3
 72
15
 73
11
 74
0
 42
0.0000001
 43
0.0000001
 44
0.0000000001
 40
0.0
 40
0.0
 40
0.0
 40
0.0
 40
0.1233171261
 40
0.2468171865
 40
0.3706749939
 40
0.4950495802
 40
0.6200773232
 40
0.7458671315
 40
0.872492731
 40
1.0
 40
1.0
 40
1.0
 40
1.0
 10
10.0453405279
 20
9.1457527407
 30
0.0
 10
10.0429169756
 20
9.1434117893
 30
0.0
 10
10.0378098038
 20
9.1389838605
 30
0.0
 10
10.0294743961
 20
9.1331977579
 30
0.0
 10
10.0205427242
 20
9.1283201504
 30
0.0
 10
10.0111062116
 20
9.1244011706
 30
0.0
 10
10.0012600466
 20
9.121479727
 30
0.0
 10
9.9911034153
 20
9.1195850296
 30
0.0
 10
9.9807399936
 20
9.1187355072
 30
0.0
 10
9.9737835627
 20
9.1188711951
 30
0.0
 10
9.9703079
 20
9.1191122331
 30
0.0
  0
SPLINE
  5
39E
100
AcDbEntity
  8
0
100
AcDbSpline
 62
7
  6
CONTINUOUS
 70
0
 71
3
 72
42
 73
38
 74
0
 42
0.0000001
 43
0.0000001
 44
0.0000000001
 40
0.0
 40
0.0
 40
0.0
 40
0.0
 40
0.0299419663
 40
0.0449235352
 40
0.0599142051
 40
0.0899287052
 40
0.1200139767
 40
0.135092661
 40
0.150196701
 40
0.1804840414
 40
0.210897872
 40
0.2414513324
 40
0.2721543376
 40
0.3030133986
 40
0.3340315263
 40
0.3652082187
 40
0.3965395244
 40
0.4280181782
 40
0.4596338019
 40
0.4913731609
 40
0.5232204716
 40
0.55515775
 40
0.5871651943
 40
0.6192215961
 40
0.6513047701
 40
0.6833919991
 40
0.7154604852
 40
0.7474878032
 40
0.7794523473
 40
0.8113337692
 40
0.8431133916
 40
0.8747746171
 40
0.9063032365
 40
0.9376879249
 40
0.9533258257
 40
0.968925233
 40
1.0
 40
1.0
 40
1.0
 40
1.0
 10
9.3925778433
 20
6.4546099337
 30
0.0
 10
9.3889447062
 20
6.4511005922
 30
0.0
 10
9.383280871
 20
6.4460491951
 30
0.0
 10
9.375348758
 20
6.4397815436
 30
0.0
 10
9.367164064
 20
6.4338257535
 30
0.0
 10
9.3564843653
 20
6.4269865853
 30
0.0
 10
9.3452854002
 20
6.421004301
 30
0.0
 10
9.3360491752
 20
6.4167484434
 30
0.0
 10
9.3266221215
 20
6.4128439818
 30
0.0
 10
9.3145276634
 20
6.4086455144
 30
0.0
 10
9.2996230584
 20
6.4047326559
 30
0.0
 10
9.28439323
 20
6.4019606708
 30
0.0
 10
9.2689225756
 20
6.400344862
 30
0.0
 10
9.25329608
 20
6.3998938498
 30
0.0
 10
9.2375997247
 20
6.4006099308
 30
0.0
 10
9.2219197807
 20
6.4024889684
 30
0.0
 10
9.2063424027
 20
6.405520454
 30
0.0
 10
9.1909531441
 20
6.4096875635
 30
0.0
 10
9.1758364979
 20
6.4149672576
 30
0.0
 10
9.1610754384
 20
6.4213304113
 30
0.0
 10
9.1467509724
 20
6.4287419765
 30
0.0
 10
9.1329417
 20
6.4371611734
 30
0.0
 10
9.1197233897
 20
6.4465417165
 30
0.0
 10
9.107168568
 20
6.4568320662
 30
0.0
 10
9.0953461257
 20
6.4679757107
 30
0.0
 10
9.084320945
 20
6.4799114733
 30
0.0
 10
9.0741535461
 20
6.4925738445
 30
0.0
 10
9.0648997594
 20
6.5058933396
 30
0.0
 10
9.056610421
 20
6.5197968706
 30
0.0
 10
9.0493310959
 20
6.5342081596
 30
0.0
 10
9.0431018303
 20
6.5490480918
 30
0.0
 10
9.0379569228
 20
6.5642353644
 30
0.0
 10
9.0339247907
 20
6.579686115
 30
0.0
 10
9.031507442
 20
6.5927282291
 30
0.0
 10
9.0301513767
 20
6.6032074012
 30
0.0
 10
9.0291835884
 20
6.6136765482
 30
0.0
 10
9.0288905522
 20
6.6215545071
 30
0.0
 10
9.0288905522
 20
6.6267968659
 30
0.0
  0
SPLINE
  5
39F
100
AcDbEntity
  8
0
100
AcDbSpline
 62
4
  6
CONTINUOUS
 70
0
 71
3
 72
313
 73
309
 74
0
 42
0.0000001
 43
0.0000001
 44
0.0000000001
 40
0.0
 40
0.0
 40
0.0
 40
0.0
 40
0.015625
 40
0.0234375
 40
0.03125
 40
0.0390625
 40
0.046875
 40
0.05078125
 40
0.0546875
 40
0.056640625
 40
0.05859375
 40
0.060546875
 40
0.0615234375
 40
0.0620117188
 40
0.0625
 40
0.0629882812
 40
0.0634765625
 40
0.064453125
 40
0.06640625
 40
0.068359375
 40
0.0703125
 40
0.07421875
 40
0.078125
 40
0.0859375
 40
0.09375
 40
0.1015625
 40
0.109375
 40
0.11328125
 40
0.1171875
 40
0.119140625
 40
0.12109375
 40
0.123046875
 40
0.1240234375
 40
0.1245117188
 40
0.125
 40
0.1254882812
 40
0.1259765625
 40
0.126953125
 40
0.12890625
 40
0.130859375
 40
0.1328125
 40
0.13671875
 40
0.140625
 40
0.1484375
 40
0.15625
 40
0.1640625
 40
0.171875
 40
0.17578125
 40
0.1796875
 40
0.181640625
 40
0.18359375
 40
0.185546875
 40
0.1865234375
 40
0.1870117188
 40
0.1875
 40
0.1879882812
 40
0.1884765625
 40
0.189453125
 40
0.19140625
 40
0.193359375
 40
0.1953125
 40
0.19921875
 40
0.203125
 40
0.2109375
 40
0.21875
 40
0.2265625
 40
0.234375
 40
0.23828125
 40
0.2421875
 40
0.244140625
 40
0.24609375
 40
0.248046875
 40
0.2490234375
 40
0.2495117188
 40
0.25
 40
0.2504882812
 40
0.2509765625
 40
0.251953125
 40
0.25390625
 40
0.255859375
 40
0.2578125
 40
0.26171875
 40
0.265625
 40
0.2734375
 40
0.28125
 40
0.2890625
 40
0.296875
 40
0.30078125
 40
0.3046875
 40
0.306640625
 40
0.30859375
 40
0.310546875
 40
0.3115234375
 40
0.3120117188
 40
0.3125
 40
0.3129882812
 40
0.3134765625
 40
0.314453125
 40
0.31640625
 40
0.318359375
 40
0.3203125
 40
0.32421875
 40
0.328125
 40
0.3359375
 40
0.34375
 40
0.3515625
 40
0.359375
 40
0.36328125
 40
0.3671875
 40
0.369140625
 40
0.37109375
 40
0.373046875
 40
0.3740234375
 40
0.3745117188
 40
0.375
 40
0.3754882812
 40
0.3759765625
 40
0.376953125
 40
0.37890625
 40
0.380859375
 40
0.3828125
 40
0.38671875
 40
0.390625
 40
0.3984375
 40
0.40625
 40
0.4140625
 40
0.421875
 40
0.42578125
 40
0.4296875
 40
0.431640625
 40
0.43359375
 40
0.435546875
 40
0.4365234375
 40
0.4370117188
 40
0.4375
 40
0.4379882812
 40
0.4384765625
 40
0.439453125
 40
0.44140625
 40
0.443359375
 40
0.4453125
 40
0.44921875
 40
0.453125
 40
0.4609375
 40
0.46875
 40
0.4765625
 40
0.484375
 40
0.48828125
 40
0.4921875
 40
0.494140625
 40
0.49609375
 40
0.498046875
 40
0.4990234375
 40
0.4995117188
 40
0.5
 40
0.5004882812
 40
0.5009765625
 40
0.501953125
 40
0.50390625
 40
0.505859375
 40
0.5078125
 40
0.51171875
 40
0.515625
 40
0.5234375
 40
0.53125
 40
0.5390625
 40
0.546875
 40
0.55078125
 40
0.5546875
 40
0.556640625
 40
0.55859375
 40
0.560546875
 40
0.5615234375
 40
0.5620117188
 40
0.5625
 40
0.5629882812
 40
0.5634765625
 40
0.564453125
 40
0.56640625
 40
0.568359375
 40
0.5703125
 40
0.57421875
 40
0.578125
 40
0.5859375
 40
0.59375
 40
0.6015625
 40
0.609375
 40
0.61328125
 40
0.6171875
 40
0.619140625
 40
0.62109375
 40
0.623046875
 40
0.6240234375
 40
0.6245117188
 40
0.625
 40
0.6254882812
 40
0.6259765625
 40
0.626953125
 40
0.62890625
 40
0.630859375
 40
0.6328125
 40
0.63671875
 40
0.640625
 40
0.6484375
 40
0.65625
 40
0.6640625
 40
0.671875
 40
0.67578125
 40
0.6796875
 40
0.681640625
 40
0.68359375
 40
0.685546875
 40
0.6865234375
 40
0.6870117188
 40
0.6875
 40
0.6879882812
 40
0.6884765625
 40
0.689453125
 40
0.69140625
 40
0.693359375
 40
0.6953125
 40
0.69921875
 40
0.703125
 40
0.7109375
 40
0.71875
 40
0.7265625
 40
0.734375
 40
0.73828125
 40
0.7421875
 40
0.744140625
 40
0.74609375
 40
0.748046875
 40
0.7490234375
 40
0.7495117188
 40
0.75
 40
0.7504882812
 40
0.7509765625
 40
0.751953125
 40
0.75390625
 40
0.755859375
 40
0.7578125
 40
0.76171875
 40
0.765625
 40
0.7734375
 40
0.78125
 40
0.7890625
 40
0.796875
 40
0.80078125
 40
0.8046875
 40
0.806640625
 40
0.80859375
 40
0.810546875
 40
0.8115234375
 40
0.8120117188
 40
0.8125
 40
0.8129882812
 40
0.8134765625
 40
0.814453125
 40
0.81640625
 40
0.818359375
 40
0.8203125
 40
0.82421875
 40
0.828125
 40
0.8359375
 40
0.84375
 40
0.8515625
 40
0.859375
 40
0.86328125
 40
0.8671875
 40
0.869140625
 40
0.87109375
 40
0.873046875
 40
0.8740234375
 40
0.8745117188
 40
0.875
 40
0.8754882812
 40
0.8759765625
 40
0.876953125
 40
0.87890625
 40
0.880859375
 40
0.8828125
 40
0.88671875
 40
0.890625
 40
0.8984375
 40
0.90625
 40
0.9140625
 40
0.921875
 40
0.92578125
 40
0.9296875
 40
0.931640625
 40
0.93359375
 40
0.935546875
 40
0.9365234375
 40
0.9370117188
 40
0.9375
 40
0.9379882812
 40
0.9384765625
 40
0.939453125
 40
0.94140625
 40
0.943359375
 40
0.9453125
 40
0.94921875
 40
0.953125
 40
0.9609375
 40
0.96875
 40
0.9765625
 40
0.984375
 40
1.0
 40
1.0
 40
1.0
 40
1.0
 10
11.2866456328
 20
7.1421188657
 30
0.0
 10
11.2845568415
 20
7.142058916
 30
0.0
 10
11.2814236545
 20
7.1419689918
 30
0.0
 10
11.2772460721
 20
7.1418490921
 30
0.0
 10
11.2741128849
 20
7.1417591691
 30
0.0
 10
11.270979699
 20
7.1416692397
 30
0.0
 10
11.2683687068
 20
7.1415943181
 30
0.0
 10
11.2662799217
 20
7.1415343369
 30
0.0
 10
11.2649744115
 20
7.1414969488
 30
0.0
 10
11.2639300481
 20
7.141466809
 30
0.0
 10
11.2631466529
 20
7.141444832
 30
0.0
 10
11.2624942137
 20
7.1414245206
 30
0.0
 10
11.2620367406
 20
7.1414142221
 30
0.0
 10
11.2617765229
 20
7.1414022172
 30
0.0
 10
11.2615779921
 20
7.1414104539
 30
0.0
 10
11.2613923334
 20
7.1413527893
 30
0.0
 10
11.2611402985
 20
7.1412988903
 30
0.0
 10
11.2607013294
 20
7.1411938569
 30
0.0
 10
11.260073137
 20
7.1410494085
 30
0.0
 10
11.2593197743
 20
7.1408736738
 30
0.0
 10
11.2583151271
 20
7.140640198
 30
0.0
 10
11.2570593741
 20
7.1403480665
 30
0.0
 10
11.2550501381
 20
7.1398808164
 30
0.0
 10
11.2525386039
 20
7.1392966985
 30
0.0
 10
11.2495247576
 20
7.1385957822
 30
0.0
 10
11.246510915
 20
7.1378948536
 30
0.0
 10
11.2439993716
 20
7.1373107666
 30
0.0
 10
11.2419901539
 20
7.1368434546
 30
0.0
 10
11.2407343544
 20
7.1365514805
 30
0.0
 10
11.2397298027
 20
7.1363176818
 30
0.0
 10
11.2389761483
 20
7.1361429333
 30
0.0
 10
11.2383488684
 20
7.1359953995
 30
0.0
 10
11.2379082704
 20
7.1358958741
 30
0.0
 10
11.2376588454
 20
7.1358331498
 30
0.0
 10
11.23746517
 20
7.1358025936
 30
0.0
 10
11.2372967485
 20
7.1357090157
 30
0.0
 10
11.2370633776
 20
7.1356062279
 30
0.0
 10
11.2366590827
 20
7.1354161071
 30
0.0
 10
11.2360793728
 20
7.1351498606
 30
0.0
 10
11.2353846394
 20
7.1348280728
 30
0.0
 10
11.2344580074
 20
7.134399823
 30
0.0
 10
11.2332998273
 20
7.1338642367
 30
0.0
 10
11.2314466776
 20
7.1330074518
 30
0.0
 10
11.2291302618
 20
7.1319364177
 30
0.0
 10
11.226350553
 20
7.1306512009
 30
0.0
 10
11.2235708497
 20
7.1293659722
 30
0.0
 10
11.2212544201
 20
7.1282949681
 30
0.0
 10
11.2194012981
 20
7.1274381233
 30
0.0
 10
11.2182430476
 20
7.1269026891
 30
0.0
 10
11.2173165599
 20
7.126474127
 30
0.0
 10
11.2166213857
 20
7.1261532935
 30
0.0
 10
11.216043055
 20
7.1258840614
 30
0.0
 10
11.2156362981
 20
7.1256992704
 30
0.0
 10
11.2154068719
 20
7.1255879428
 30
0.0
 10
11.2152263335
 20
7.1255205963
 30
0.0
 10
11.2150781669
 20
7.1253915196
 30
0.0
 10
11.2148693197
 20
7.1252409495
 30
0.0
 10
11.2145090981
 20
7.1249674196
 30
0.0
 10
11.2139917453
 20
7.1245819075
 30
0.0
 10
11.2133720993
 20
7.124117048
 30
0.0
 10
11.2125454934
 20
7.1234980195
 30
0.0
 10
11.2115123768
 20
7.1227239654
 30
0.0
 10
11.2098593116
 20
7.1214856289
 30
0.0
 10
11.2077930073
 20
7.1199376565
 30
0.0
 10
11.2053134293
 20
7.118080113
 30
0.0
 10
11.2028338593
 20
7.116222559
 30
0.0
 10
11.2007675348
 20
7.1146746127
 30
0.0
 10
11.19911451
 20
7.113436224
 30
0.0
 10
11.1980812906
 20
7.1126623026
 30
0.0
 10
11.1972548958
 20
7.1120430016
 30
0.0
 10
11.196634605
 20
7.1115789746
 30
0.0
 10
11.1961192694
 20
7.1111908581
 30
0.0
 10
11.1957554469
 20
7.1109219774
 30
0.0
 10
11.1955523693
 20
7.1107639581
 30
0.0
 10
11.1953864803
 20
7.110657763
 30
0.0
 10
11.1952725043
 20
7.110504477
 30
0.0
 10
11.1951024284
 20
7.1103165215
 30
0.0
 10
11.1948132325
 20
7.1099799462
 30
0.0
 10
11.1943956846
 20
7.1095031255
 30
0.0
 10
11.1938965152
 20
7.1089292281
 30
0.0
 10
11.1932302964
 20
7.1081646297
 30
0.0
 10
11.1923977488
 20
7.1072086768
 30
0.0
 10
11.1910655464
 20
7.1056792668
 30
0.0
 10
11.189400337
 20
7.1037674648
 30
0.0
 10
11.1874020657
 20
7.1014733202
 30
0.0
 10
11.1854038046
 20
7.0991791672
 30
0.0
 10
11.1837385695
 20
7.0972673863
 30
0.0
 10
11.1824064184
 20
7.0957379341
 30
0.0
 10
11.1815737403
 20
7.0947820884
 30
0.0
 10
11.1809077894
 20
7.0940172702
 30
0.0
 10
11.1804078016
 20
7.0934440442
 30
0.0
 10
11.1799928141
 20
7.0929651228
 30
0.0
 10
11.1796990475
 20
7.0926322976
 30
0.0
 10
11.1795362951
 20
7.0924383335
 30
0.0
 10
11.179399824
 20
7.0923035039
 30
0.0
 10
11.1793184228
 20
7.0921279892
 30
0.0
 10
11.1791906789
 20
7.0919081611
 30
0.0
 10
11.1789760769
 20
7.0915168498
 30
0.0
 10
11.1786648235
 20
7.0909612904
 30
0.0
 10
11.1782933222
 20
7.0902931396
 30
0.0
 10
11.1777972877
 20
7.0894027886
 30
0.0
 10
11.177177484
 20
7.0882896729
 30
0.0
 10
11.1761856642
 20
7.0865087868
 30
0.0
 10
11.1749459358
 20
7.084282645
 30
0.0
 10
11.1734582403
 20
7.0816112901
 30
0.0
 10
11.1719705561
 20
7.0789399286
 30
0.0
 10
11.1707307997
 20
7.0767138036
 30
0.0
 10
11.1697390357
 20
7.0749328837
 30
0.0
 10
11.1691190903
 20
7.0738198539
 30
0.0
 10
11.1686233468
 20
7.0729293267
 30
0.0
 10
11.1682509563
 20
7.0722617143
 30
0.0
 10
11.1679424851
 20
7.0717044702
 30
0.0
 10
11.1677229164
 20
7.0713161664
 30
0.0
 10
11.1676031303
 20
7.0710915194
 30
0.0
 10
11.1674972852
 20
7.0709308067
 30
0.0
 10
11.1674526217
 20
7.0707403835
 30
0.0
 10
11.1673717296
 20
7.0704968492
 30
0.0
 10
11.1672401115
 20
7.0700658357
 30
0.0
 10
11.1670468872
 20
7.0694526266
 30
0.0
 10
11.1668172432
 20
7.0687156951
 30
0.0
 10
11.1665102739
 20
7.0677334972
 30
0.0
 10
11.1661268285
 20
7.0665056206
 30
0.0
 10
11.1655131671
 20
7.0645410903
 30
0.0
 10
11.1647461417
 20
7.0620854024
 30
0.0
 10
11.1638256876
 20
7.0591385883
 30
0.0
 10
11.1629052456
 20
7.056191769
 30
0.0
 10
11.1621381899
 20
7.053736094
 30
0.0
 10
11.161524589
 20
7.051771538
 30
0.0
 10
11.1611409897
 20
7.0505437265
 30
0.0
 10
11.1608343363
 20
7.0495613949
 30
0.0
 10
11.1606037274
 20
7.0488248718
 30
0.0
 10
11.1604135219
 20
7.048210385
 30
0.0
 10
11.1602765149
 20
7.0477816524
 30
0.0
 10
11.1602042571
 20
7.0475344636
 30
0.0
 10
11.1601330716
 20
7.047355266
 30
0.0
 10
11.1601268388
 20
7.0471523917
 30
0.0
 10
11.1600958721
 20
7.0468901514
 30
0.0
 10
11.1600522364
 20
7.0464273831
 30
0.0
 10
11.1599843809
 20
7.0457682971
 30
0.0
 10
11.1599053165
 20
7.0449765328
 30
0.0
 10
11.1597990722
 20
7.0439211478
 30
0.0
 10
11.1596665494
 20
7.0426018137
 30
0.0
 10
11.1594543549
 20
7.0404909366
 30
0.0
 10
11.1591891664
 20
7.0378523205
 30
0.0
 10
11.1588709152
 20
7.0346859896
 30
0.0
 10
11.1585526767
 20
7.0315196565
 30
0.0
 10
11.1582874564
 20
7.0288810458
 30
0.0
 10
11.1580753255
 20
7.0267701579
 30
0.0
 10
11.1579426412
 20
7.0254508511
 30
0.0
 10
11.1578367284
 20
7.0243954101
 30
0.0
 10
11.1577566512
 20
7.0236038171
 30
0.0
 10
11.1576919647
 20
7.0229441951
 30
0.0
 10
11.1576426718
 20
7.0224823837
 30
0.0
 10
11.1576207693
 20
7.02221861
 30
0.0
 10
11.1575866942
 20
7.0220204457
 30
0.0
 10
11.1576200797
 20
7.0218235585
 30
0.0
 10
11.1576410628
 20
7.0215605967
 30
0.0
 10
11.1576887466
 20
7.0211006212
 30
0.0
 10
11.1577511345
 20
7.0204434048
 30
0.0
 10
11.1578284535
 20
7.0196547915
 30
0.0
 10
11.1579306885
 20
7.0186032909
 30
0.0
 10
11.1580587756
 20
7.0172889208
 30
0.0
 10
11.158263551
 20
7.0151859254
 30
0.0
 10
11.1585195769
 20
7.0125571823
 30
0.0
 10
11.1588267822
 20
7.0094026899
 30
0.0
 10
11.1591340001
 20
7.0062481985
 30
0.0
 10
11.1593899942
 20
7.0036194531
 30
0.0
 10
11.1595948332
 20
7.0015164623
 30
0.0
 10
11.1597227588
 20
7.0002020804
 30
0.0
 10
11.1598253254
 20
6.999150604
 30
0.0
 10
11.1599016311
 20
6.998361917
 30
0.0
 10
11.1599671893
 20
6.9977049313
 30
0.0
 10
11.1600092136
 20
6.9972445438
 30
0.0
 10
11.1600392647
 20
6.996982242
 30
0.0
 10
11.1600447962
 20
6.9967833277
 30
0.0
 10
11.1601153362
 20
6.996592777
 30
0.0
 10
11.1601867139
 20
6.996335792
 30
0.0
 10
11.1603221899
 20
6.9958874276
 30
0.0
 10
11.1605102036
 20
6.9952461965
 30
0.0
 10
11.1607381842
 20
6.9944770232
 30
0.0
 10
11.1610413326
 20
6.9934513526
 30
0.0
 10
11.1614205508
 20
6.9921693008
 30
0.0
 10
11.1620271418
 20
6.9901179975
 30
0.0
 10
11.1627854353
 20
6.9875538755
 30
0.0
 10
11.1636953625
 20
6.9844769255
 30
0.0
 10
11.1646053018
 20
6.9813999784
 30
0.0
 10
11.1653635649
 20
6.9788358493
 30
0.0
 10
11.1659702166
 20
6.9767845602
 30
0.0
 10
11.1663492808
 20
6.9755024725
 30
0.0
 10
11.1666527453
 20
6.9744768754
 30
0.0
 10
11.16687976
 20
6.9737074776
 30
0.0
 10
11.1670707958
 20
6.9730669492
 30
0.0
 10
11.1672008767
 20
6.9726173301
 30
0.0
 10
11.1672808987
 20
6.9723623556
 30
0.0
 10
11.1673248864
 20
6.9721656296
 30
0.0
 10
11.1674301443
 20
6.9719899084
 30
0.0
 10
11.1675491165
 20
6.9717482867
 30
0.0
 10
11.1677672752
 20
6.9713288625
 30
0.0
 10
11.1680737247
 20
6.9707279003
 30
0.0
 10
11.1684436924
 20
6.9700075095
 30
0.0
 10
11.1689362043
 20
6.9690467217
 30
0.0
 10
11.1695521108
 20
6.9678458283
 30
0.0
 10
11.1705374121
 20
6.9659243478
 30
0.0
 10
11.1717690901
 20
6.9635225149
 30
0.0
 10
11.1732470803
 20
6.960640307
 30
0.0
 10
11.1747250821
 20
6.957758104
 30
0.0
 10
11.1759567312
 20
6.9553562592
 30
0.0
 10
11.1769420904
 20
6.9534348023
 30
0.0
 10
11.1775578496
 20
6.9522338488
 30
0.0
 10
11.1780506638
 20
6.9512731843
 30
0.0
 10
11.1784197078
 20
6.9505524169
 30
0.0
 10
11.1787290473
 20
6.9499526334
 30
0.0
 10
11.178942047
 20
6.9495311049
 30
0.0
 10
11.1790692853
 20
6.9492928547
 30
0.0
 10
11.1791491522
 20
6.9491067775
 30
0.0
 10
11.1792885043
 20
6.9489489467
 30
0.0
 10
11.179453558
 20
6.948728653
 30
0.0
 10
11.1797520694
 20
6.9483477296
 30
0.0
 10
11.18017346
 20
6.9478011533
 30
0.0
 10
11.1806812921
 20
6.947146289
 30
0.0
 10
11.1813576459
 20
6.9462727778
 30
0.0
 10
11.1822033469
 20
6.9451810117
 30
0.0
 10
11.1835563238
 20
6.9434341172
 30
0.0
 10
11.1852475949
 20
6.9412505229
 30
0.0
 10
11.1872770978
 20
6.9386301983
 30
0.0
 10
11.1893066105
 20
6.9360098812
 30
0.0
 10
11.1909978569
 20
6.9338262683
 30
0.0
 10
11.1923508833
 20
6.9320794108
 30
0.0
 10
11.1931964587
 20
6.9309875506
 30
0.0
 10
11.1938730703
 20
6.9301142326
 30
0.0
 10
11.1943801147
 20
6.9294587782
 30
0.0
 10
11.1948039698
 20
6.9289140481
 30
0.0
 10
11.1950980816
 20
6.9285298289
 30
0.0
 10
11.1952701844
 20
6.9283148159
 30
0.0
 10
11.195387884
 20
6.9281407643
 30
0.0
 10
11.1955490743
 20
6.9280156098
 30
0.0
 10
11.1957488246
 20
6.9278316812
 30
0.0
 10
11.1961054557
 20
6.9275177528
 30
0.0
 10
11.1966112334
 20
6.9270651292
 30
0.0
 10
11.1972197484
 20
6.926523759
 30
0.0
 10
11.1980305492
 20
6.9258013111
 30
0.0
 10
11.1990442394
 20
6.9248984638
 30
0.0
 10
11.200666038
 20
6.9234537893
 30
0.0
 10
11.2026933227
 20
6.9216479872
 30
0.0
 10
11.2051260478
 20
6.9194810058
 30
0.0
 10
11.2075587807
 20
6.9173140342
 30
0.0
 10
11.2095860461
 20
6.9155082077
 30
0.0
 10
11.2112078832
 20
6.9140635819
 30
0.0
 10
11.2122214754
 20
6.9131606109
 30
0.0
 10
11.2130324774
 20
6.9124384168
 30
0.0
 10
11.2136403777
 20
6.911896271
 30
0.0
 10
11.2141480786
 20
6.9114460743
 30
0.0
 10
11.2145012766
 20
6.9111278133
 30
0.0
 10
11.2147065276
 20
6.9109508267
 30
0.0
 10
11.2148508214
 20
6.9108043488
 30
0.0
 10
11.2150319813
 20
6.9107103841
 30
0.0
 10
11.2152606685
 20
6.9105667807
 30
0.0
 10
11.2156668626
 20
6.910324009
 30
0.0
 10
11.2162440074
 20
6.9099727305
 30
0.0
 10
11.2169379219
 20
6.9095531061
 30
0.0
 10
11.217862673
 20
6.9089929399
 30
0.0
 10
11.2190187722
 20
6.9082929604
 30
0.0
 10
11.2208684413
 20
6.9071728657
 30
0.0
 10
11.2231805586
 20
6.9057727914
 30
0.0
 10
11.2259550855
 20
6.9040926818
 30
0.0
 10
11.2287296183
 20
6.902412583
 30
0.0
 10
11.2310417206
 20
6.9010124819
 30
0.0
 10
11.2328914196
 20
6.8998924408
 30
0.0
 10
11.2340474428
 20
6.8991923249
 30
0.0
 10
11.2349723499
 20
6.8986324388
 30
0.0
 10
11.2356657877
 20
6.8982119583
 30
0.0
 10
11.2362444243
 20
6.8978633585
 30
0.0
 10
11.2366479552
 20
6.8976158048
 30
0.0
 10
11.2368809094
 20
6.8974798634
 30
0.0
 10
11.2370489625
 20
6.8973623636
 30
0.0
 10
11.2372424832
 20
6.8973042795
 30
0.0
 10
11.2374916273
 20
6.8972061092
 30
0.0
 10
11.2379317686
 20
6.8970439671
 30
0.0
 10
11.2385583778
 20
6.8968072874
 30
0.0
 10
11.2393112352
 20
6.8965254325
 30
0.0
 10
11.2403147215
 20
6.8961488713
 30
0.0
 10
11.2415691901
 20
6.8956784282
 30
0.0
 10
11.243576278
 20
6.8949255747
 30
0.0
 10
11.2460851593
 20
6.8939845578
 30
0.0
 10
11.2490958071
 20
6.8928553145
 30
0.0
 10
11.2521064593
 20
6.8917260831
 30
0.0
 10
11.2546153298
 20
6.8907850367
 30
0.0
 10
11.2566224391
 20
6.8900322423
 30
0.0
 10
11.2578768533
 20
6.8895616491
 30
0.0
 10
11.2588804514
 20
6.8891853959
 30
0.0
 10
11.2596329673
 20
6.8889025999
 30
0.0
 10
11.2602606449
 20
6.8886688647
 30
0.0
 10
11.2606988789
 20
6.8885014661
 30
0.0
 10
11.2609510789
 20
6.8884117182
 30
0.0
 10
11.2611352132
 20
6.888327763
 30
0.0
 10
11.2613385198
 20
6.8883074308
 30
0.0
 10
11.2616029077
 20
6.8882581287
 30
0.0
 10
11.2620687025
 20
6.88818219
 30
0.0
 10
11.2627324946
 20
6.8880683004
 30
0.0
 10
11.2635297423
 20
6.8879339467
 30
0.0
 10
11.2645924958
 20
6.8877540002
 30
0.0
 10
11.265921021
 20
6.8875293438
 30
0.0
 10
11.2680466148
 20
6.887169739
 30
0.0
 10
11.270703623
 20
6.886720286
 30
0.0
 10
11.273892026
 20
6.8861809197
 30
0.0
 10
11.2770804308
 20
6.8856415594
 30
0.0
 10
11.2813316366
 20
6.8849224103
 30
0.0
 10
11.2845200411
 20
6.8843830489
 30
0.0
 10
11.2866456441
 20
6.8840234746
 30
0.0
  0
SPLINE
  5
3A0
100
AcDbEntity
  8
0
100
AcDbSpline
 62
4
  6
CONTINUOUS
 70
0
 71
3
 72
313
 73
309
 74
0
 42
0.0000001
 43
0.0000001
 44
0.0000000001
 40
0.0
 40
0.0
 40
0.0
 40
0.0
 40
0.015625
 40
0.0234375
 40
0.03125
 40
0.0390625
 40
0.046875
 40
0.05078125
 40
0.0546875
 40
0.056640625
 40
0.05859375
 40
0.060546875
 40
0.0615234375
 40
0.0620117188
 40
0.0625
 40
0.0629882812
 40
0.0634765625
 40
0.064453125
 40
0.06640625
 40
0.068359375
 40
0.0703125
 40
0.07421875
 40
0.078125
 40
0.0859375
 40
0.09375
 40
0.1015625
 40
0.109375
 40
0.11328125
 40
0.1171875
 40
0.119140625
 40
0.12109375
 40
0.123046875
 40
0.1240234375
 40
0.1245117188
 40
0.125
 40
0.1254882812
 40
0.1259765625
 40
0.126953125
 40
0.12890625
 40
0.130859375
 40
0.1328125
 40
0.13671875
 40
0.140625
 40
0.1484375
 40
0.15625
 40
0.1640625
 40
0.171875
 40
0.17578125
 40
0.1796875
 40
0.181640625
 40
0.18359375
 40
0.185546875
 40
0.1865234375
 40
0.1870117188
 40
0.1875
 40
0.1879882812
 40
0.1884765625
 40
0.189453125
 40
0.19140625
 40
0.193359375
 40
0.1953125
 40
0.19921875
 40
0.203125
 40
0.2109375
 40
0.21875
 40
0.2265625
 40
0.234375
 40
0.23828125
 40
0.2421875
 40
0.244140625
 40
0.24609375
 40
0.248046875
 40
0.2490234375
 40
0.2495117188
 40
0.25
 40
0.2504882812
 40
0.2509765625
 40
0.251953125
 40
0.25390625
 40
0.255859375
 40
0.2578125
 40
0.26171875
 40
0.265625
 40
0.2734375
 40
0.28125
 40
0.2890625
 40
0.296875
 40
0.30078125
 40
0.3046875
 40
0.306640625
 40
0.30859375
 40
0.310546875
 40
0.3115234375
 40
0.3120117188
 40
0.3125
 40
0.3129882812
 40
0.3134765625
 40
0.314453125
 40
0.31640625
 40
0.318359375
 40
0.3203125
 40
0.32421875
 40
0.328125
 40
0.3359375
 40
0.34375
 40
0.3515625
 40
0.359375
 40
0.36328125
 40
0.3671875
 40
0.369140625
 40
0.37109375
 40
0.373046875
 40
0.3740234375
 40
0.3745117188
 40
0.375
 40
0.3754882812
 40
0.3759765625
 40
0.376953125
 40
0.37890625
 40
0.380859375
 40
0.3828125
 40
0.38671875
 40
0.390625
 40
0.3984375
 40
0.40625
 40
0.4140625
 40
0.421875
 40
0.42578125
 40
0.4296875
 40
0.431640625
 40
0.43359375
 40
0.435546875
 40
0.4365234375
 40
0.4370117188
 40
0.4375
 40
0.4379882812
 40
0.4384765625
 40
0.439453125
 40
0.44140625
 40
0.443359375
 40
0.4453125
 40
0.44921875
 40
0.453125
 40
0.4609375
 40
0.46875
 40
0.4765625
 40
0.484375
 40
0.48828125
 40
0.4921875
 40
0.494140625
 40
0.49609375
 40
0.498046875
 40
0.4990234375
 40
0.4995117188
 40
0.5
 40
0.5004882812
 40
0.5009765625
 40
0.501953125
 40
0.50390625
 40
0.505859375
 40
0.5078125
 40
0.51171875
 40
0.515625
 40
0.5234375
 40
0.53125
 40
0.5390625
 40
0.546875
 40
0.55078125
 40
0.5546875
 40
0.556640625
 40
0.55859375
 40
0.560546875
 40
0.5615234375
 40
0.5620117188
 40
0.5625
 40
0.5629882812
 40
0.5634765625
 40
0.564453125
 40
0.56640625
 40
0.568359375
 40
0.5703125
 40
0.57421875
 40
0.578125
 40
0.5859375
 40
0.59375
 40
0.6015625
 40
0.609375
 40
0.61328125
 40
0.6171875
 40
0.619140625
 40
0.62109375
 40
0.623046875
 40
0.6240234375
 40
0.6245117188
 40
0.625
 40
0.6254882812
 40
0.6259765625
 40
0.626953125
 40
0.62890625
 40
0.630859375
 40
0.6328125
 40
0.63671875
 40
0.640625
 40
0.6484375
 40
0.65625
 40
0.6640625
 40
0.671875
 40
0.67578125
 40
0.6796875
 40
0.681640625
 40
0.68359375
 40
0.685546875
 40
0.6865234375
 40
0.6870117188
 40
0.6875
 40
0.6879882812
 40
0.6884765625
 40
0.689453125
 40
0.69140625
 40
0.693359375
 40
0.6953125
 40
0.69921875
 40
0.703125
 40
0.7109375
 40
0.71875
 40
0.7265625
 40
0.734375
 40
0.73828125
 40
0.7421875
 40
0.744140625
 40
0.74609375
 40
0.748046875
 40
0.7490234375
 40
0.7495117188
 40
0.75
 40
0.7504882812
 40
0.7509765625
 40
0.751953125
 40
0.75390625
 40
0.755859375
 40
0.7578125
 40
0.76171875
 40
0.765625
 40
0.7734375
 40
0.78125
 40
0.7890625
 40
0.796875
 40
0.80078125
 40
0.8046875
 40
0.806640625
 40
0.80859375
 40
0.810546875
 40
0.8115234375
 40
0.8120117188
 40
0.8125
 40
0.8129882812
 40
0.8134765625
 40
0.814453125
 40
0.81640625
 40
0.818359375
 40
0.8203125
 40
0.82421875
 40
0.828125
 40
0.8359375
 40
0.84375
 40
0.8515625
 40
0.859375
 40
0.86328125
 40
0.8671875
 40
0.869140625
 40
0.87109375
 40
0.873046875
 40
0.8740234375
 40
0.8745117188
 40
0.875
 40
0.8754882812
 40
0.8759765625
 40
0.876953125
 40
0.87890625
 40
0.880859375
 40
0.8828125
 40
0.88671875
 40
0.890625
 40
0.8984375
 40
0.90625
 40
0.9140625
 40
0.921875
 40
0.92578125
 40
0.9296875
 40
0.931640625
 40
0.93359375
 40
0.935546875
 40
0.9365234375
 40
0.9370117188
 40
0.9375
 40
0.9379882812
 40
0.9384765625
 40
0.939453125
 40
0.94140625
 40
0.943359375
 40
0.9453125
 40
0.94921875
 40
0.953125
 40
0.9609375
 40
0.96875
 40
0.9765625
 40
0.984375
 40
1.0
 40
1.0
 40
1.0
 40
1.0
 10
11.2866456328
 20
6.8840234753
 30
0.0
 10
11.2887344241
 20
6.884083425
 30
0.0
 10
11.291867611
 20
6.8841733492
 30
0.0
 10
11.2960451935
 20
6.8842932489
 30
0.0
 10
11.2991783807
 20
6.8843831719
 30
0.0
 10
11.3023115666
 20
6.8844731013
 30
0.0
 10
11.3049225587
 20
6.8845480229
 30
0.0
 10
11.3070113438
 20
6.884608004
 30
0.0
 10
11.3083168541
 20
6.8846453922
 30
0.0
 10
11.3093612175
 20
6.884675532
 30
0.0
 10
11.3101446127
 20
6.884697509
 30
0.0
 10
11.3107970519
 20
6.8847178204
 30
0.0
 10
11.3112545249
 20
6.8847281189
 30
0.0
 10
11.3115147427
 20
6.8847401238
 30
0.0
 10
11.3117132735
 20
6.8847318871
 30
0.0
 10
11.3118989322
 20
6.8847895517
 30
0.0
 10
11.3121509671
 20
6.8848434507
 30
0.0
 10
11.3125899361
 20
6.8849484841
 30
0.0
 10
11.3132181285
 20
6.8850929325
 30
0.0
 10
11.3139714913
 20
6.8852686672
 30
0.0
 10
11.3149761384
 20
6.885502143
 30
0.0
 10
11.3162318914
 20
6.8857942745
 30
0.0
 10
11.3182411275
 20
6.8862615246
 30
0.0
 10
11.3207526616
 20
6.8868456425
 30
0.0
 10
11.3237665079
 20
6.8875465588
 30
0.0
 10
11.3267803506
 20
6.8882474874
 30
0.0
 10
11.3292918939
 20
6.8888315744
 30
0.0
 10
11.3313011117
 20
6.8892988864
 30
0.0
 10
11.3325569111
 20
6.8895908605
 30
0.0
 10
11.3335614628
 20
6.8898246592
 30
0.0
 10
11.3343151172
 20
6.8899994077
 30
0.0
 10
11.3349423972
 20
6.8901469415
 30
0.0
 10
11.3353829951
 20
6.8902464669
 30
0.0
 10
11.3356324201
 20
6.8903091912
 30
0.0
 10
11.3358260955
 20
6.8903397474
 30
0.0
 10
11.3359945171
 20
6.8904333253
 30
0.0
 10
11.336227888
 20
6.8905361131
 30
0.0
 10
11.3366321829
 20
6.8907262339
 30
0.0
 10
11.3372118927
 20
6.8909924804
 30
0.0
 10
11.3379066261
 20
6.8913142682
 30
0.0
 10
11.3388332581
 20
6.8917425179
 30
0.0
 10
11.3399914383
 20
6.8922781043
 30
0.0
 10
11.3418445879
 20
6.8931348892
 30
0.0
 10
11.3441610037
 20
6.8942059233
 30
0.0
 10
11.3469407125
 20
6.8954911401
 30
0.0
 10
11.3497204159
 20
6.8967763688
 30
0.0
 10
11.3520368455
 20
6.8978473729
 30
0.0
 10
11.3538899675
 20
6.8987042177
 30
0.0
 10
11.3550482179
 20
6.8992396519
 30
0.0
 10
11.3559747056
 20
6.899668214
 30
0.0
 10
11.3566698798
 20
6.8999890475
 30
0.0
 10
11.3572482105
 20
6.9002582796
 30
0.0
 10
11.3576549674
 20
6.9004430706
 30
0.0
 10
11.3578843936
 20
6.9005543982
 30
0.0
 10
11.358064932
 20
6.9006217447
 30
0.0
 10
11.3582130987
 20
6.9007508214
 30
0.0
 10
11.3584219459
 20
6.9009013915
 30
0.0
 10
11.3587821674
 20
6.9011749214
 30
0.0
 10
11.3592995202
 20
6.9015604335
 30
0.0
 10
11.3599191662
 20
6.902025293
 30
0.0
 10
11.3607457721
 20
6.9026443215
 30
0.0
 10
11.3617788887
 20
6.9034183756
 30
0.0
 10
11.363431954
 20
6.9046567121
 30
0.0
 10
11.3654982582
 20
6.9062046845
 30
0.0
 10
11.3679778363
 20
6.908062228
 30
0.0
 10
11.3704574062
 20
6.909919782
 30
0.0
 10
11.3725237307
 20
6.9114677283
 30
0.0
 10
11.3741767555
 20
6.912706117
 30
0.0
 10
11.3752099749
 20
6.9134800384
 30
0.0
 10
11.3760363698
 20
6.9140993394
 30
0.0
 10
11.3766566605
 20
6.9145633664
 30
0.0
 10
11.3771719961
 20
6.9149514829
 30
0.0
 10
11.3775358187
 20
6.9152203636
 30
0.0
 10
11.3777388962
 20
6.9153783829
 30
0.0
 10
11.3779047853
 20
6.915484578
 30
0.0
 10
11.3780187613
 20
6.915637864
 30
0.0
 10
11.3781888371
 20
6.9158258195
 30
0.0
 10
11.378478033
 20
6.9161623948
 30
0.0
 10
11.3788955809
 20
6.9166392155
 30
0.0
 10
11.3793947504
 20
6.9172131129
 30
0.0
 10
11.3800609691
 20
6.9179777113
 30
0.0
 10
11.3808935167
 20
6.9189336642
 30
0.0
 10
11.3822257192
 20
6.9204630742
 30
0.0
 10
11.3838909286
 20
6.9223748762
 30
0.0
 10
11.3858891999
 20
6.9246690208
 30
0.0
 10
11.3878874609
 20
6.9269631738
 30
0.0
 10
11.389552696
 20
6.9288749547
 30
0.0
 10
11.3908848471
 20
6.9304044069
 30
0.0
 10
11.3917175252
 20
6.9313602526
 30
0.0
 10
11.3923834761
 20
6.9321250708
 30
0.0
 10
11.3928834639
 20
6.9326982968
 30
0.0
 10
11.3932984514
 20
6.9331772182
 30
0.0
 10
11.393592218
 20
6.9335100434
 30
0.0
 10
11.3937549705
 20
6.9337040075
 30
0.0
 10
11.3938914416
 20
6.933838837
 30
0.0
 10
11.3939728427
 20
6.9340143517
 30
0.0
 10
11.3941005867
 20
6.9342341799
 30
0.0
 10
11.3943151887
 20
6.9346254912
 30
0.0
 10
11.3946264421
 20
6.9351810506
 30
0.0
 10
11.3949979433
 20
6.9358492014
 30
0.0
 10
11.3954939779
 20
6.9367395524
 30
0.0
 10
11.3961137815
 20
6.9378526681
 30
0.0
 10
11.3971056013
 20
6.9396335542
 30
0.0
 10
11.3983453298
 20
6.941859696
 30
0.0
 10
11.3998330252
 20
6.9445310508
 30
0.0
 10
11.4013207095
 20
6.9472024124
 30
0.0
 10
11.4025604658
 20
6.9494285374
 30
0.0
 10
11.4035522298
 20
6.9512094573
 30
0.0
 10
11.4041721753
 20
6.9523224871
 30
0.0
 10
11.4046679188
 20
6.9532130143
 30
0.0
 10
11.4050403093
 20
6.9538806267
 30
0.0
 10
11.4053487805
 20
6.9544378708
 30
0.0
 10
11.4055683492
 20
6.9548261745
 30
0.0
 10
11.4056881352
 20
6.9550508215
 30
0.0
 10
11.4057939804
 20
6.9552115343
 30
0.0
 10
11.4058386438
 20
6.9554019575
 30
0.0
 10
11.405919536
 20
6.9556454918
 30
0.0
 10
11.4060511541
 20
6.9560765053
 30
0.0
 10
11.4062443783
 20
6.9566897144
 30
0.0
 10
11.4064740224
 20
6.9574266459
 30
0.0
 10
11.4067809916
 20
6.9584088438
 30
0.0
 10
11.407164437
 20
6.9596367204
 30
0.0
 10
11.4077780985
 20
6.9616012507
 30
0.0
 10
11.4085451239
 20
6.9640569386
 30
0.0
 10
11.409465578
 20
6.9670037527
 30
0.0
 10
11.41038602
 20
6.969950572
 30
0.0
 10
11.4111530756
 20
6.972406247
 30
0.0
 10
11.4117666765
 20
6.974370803
 30
0.0
 10
11.4121502758
 20
6.9755986145
 30
0.0
 10
11.4124569293
 20
6.9765809461
 30
0.0
 10
11.4126875381
 20
6.9773174692
 30
0.0
 10
11.4128777437
 20
6.977931956
 30
0.0
 10
11.4130147507
 20
6.9783606886
 30
0.0
 10
11.4130870085
 20
6.9786078774
 30
0.0
 10
11.4131581939
 20
6.978787075
 30
0.0
 10
11.4131644268
 20
6.9789899492
 30
0.0
 10
11.4131953934
 20
6.9792521895
 30
0.0
 10
11.4132390291
 20
6.9797149579
 30
0.0
 10
11.4133068847
 20
6.9803740439
 30
0.0
 10
11.413385949
 20
6.9811658082
 30
0.0
 10
11.4134921933
 20
6.9822211932
 30
0.0
 10
11.4136247161
 20
6.9835405273
 30
0.0
 10
11.4138369106
 20
6.9856514044
 30
0.0
 10
11.4141020991
 20
6.9882900205
 30
0.0
 10
11.4144203503
 20
6.9914563514
 30
0.0
 10
11.4147385888
 20
6.9946226845
 30
0.0
 10
11.4150038091
 20
6.9972612952
 30
0.0
 10
11.41521594
 20
6.9993721831
 30
0.0
 10
11.4153486244
 20
7.0006914899
 30
0.0
 10
11.4154545371
 20
7.0017469309
 30
0.0
 10
11.4155346144
 20
7.0025385239
 30
0.0
 10
11.4155993009
 20
7.0031981459
 30
0.0
 10
11.4156485938
 20
7.0036599573
 30
0.0
 10
11.4156704962
 20
7.003923731
 30
0.0
 10
11.4157045714
 20
7.0041218953
 30
0.0
 10
11.4156711858
 20
7.0043187825
 30
0.0
 10
11.4156502028
 20
7.0045817443
 30
0.0
 10
11.4156025189
 20
7.0050417198
 30
0.0
 10
11.415540131
 20
7.0056989362
 30
0.0
 10
11.4154628121
 20
7.0064875495
 30
0.0
 10
11.4153605771
 20
7.0075390501
 30
0.0
 10
11.4152324899
 20
7.0088534202
 30
0.0
 10
11.4150277145
 20
7.0109564156
 30
0.0
 10
11.4147716886
 20
7.0135851587
 30
0.0
 10
11.4144644834
 20
7.0167396511
 30
0.0
 10
11.4141572654
 20
7.0198941425
 30
0.0
 10
11.4139012713
 20
7.0225228879
 30
0.0
 10
11.4136964324
 20
7.0246258787
 30
0.0
 10
11.4135685068
 20
7.0259402606
 30
0.0
 10
11.4134659401
 20
7.026991737
 30
0.0
 10
11.4133896345
 20
7.027780424
 30
0.0
 10
11.4133240762
 20
7.0284374097
 30
0.0
 10
11.4132820519
 20
7.0288977972
 30
0.0
 10
11.4132520009
 20
7.029160099
 30
0.0
 10
11.4132464694
 20
7.0293590133
 30
0.0
 10
11.4131759293
 20
7.029549564
 30
0.0
 10
11.4131045516
 20
7.029806549
 30
0.0
 10
11.4129690756
 20
7.0302549134
 30
0.0
 10
11.412781062
 20
7.0308961445
 30
0.0
 10
11.4125530814
 20
7.0316653178
 30
0.0
 10
11.412249933
 20
7.0326909884
 30
0.0
 10
11.4118707148
 20
7.0339730402
 30
0.0
 10
11.4112641237
 20
7.0360243435
 30
0.0
 10
11.4105058303
 20
7.0385884655
 30
0.0
 10
11.4095959031
 20
7.0416654155
 30
0.0
 10
11.4086859637
 20
7.0447423626
 30
0.0
 10
11.4079277006
 20
7.0473064917
 30
0.0
 10
11.4073210489
 20
7.0493577808
 30
0.0
 10
11.4069419848
 20
7.0506398685
 30
0.0
 10
11.4066385202
 20
7.0516654655
 30
0.0
 10
11.4064115056
 20
7.0524348634
 30
0.0
 10
11.4062204697
 20
7.0530753918
 30
0.0
 10
11.4060903888
 20
7.0535250109
 30
0.0
 10
11.4060103668
 20
7.0537799854
 30
0.0
 10
11.4059663792
 20
7.0539767114
 30
0.0
 10
11.4058611213
 20
7.0541524326
 30
0.0
 10
11.4057421491
 20
7.0543940542
 30
0.0
 10
11.4055239903
 20
7.0548134785
 30
0.0
 10
11.4052175408
 20
7.0554144407
 30
0.0
 10
11.4048475732
 20
7.0561348315
 30
0.0
 10
11.4043550612
 20
7.0570956193
 30
0.0
 10
11.4037391548
 20
7.0582965127
 30
0.0
 10
11.4027538535
 20
7.0602179932
 30
0.0
 10
11.4015221754
 20
7.0626198261
 30
0.0
 10
11.4000441852
 20
7.0655020339
 30
0.0
 10
11.3985661834
 20
7.068384237
 30
0.0
 10
11.3973345344
 20
7.0707860818
 30
0.0
 10
11.3963491751
 20
7.0727075387
 30
0.0
 10
11.395733416
 20
7.0739084922
 30
0.0
 10
11.3952406017
 20
7.0748691567
 30
0.0
 10
11.3948715577
 20
7.0755899241
 30
0.0
 10
11.3945622182
 20
7.0761897076
 30
0.0
 10
11.3943492186
 20
7.0766112361
 30
0.0
 10
11.3942219802
 20
7.0768494863
 30
0.0
 10
11.3941421133
 20
7.0770355635
 30
0.0
 10
11.3940027612
 20
7.0771933943
 30
0.0
 10
11.3938377075
 20
7.0774136879
 30
0.0
 10
11.3935391962
 20
7.0777946114
 30
0.0
 10
11.3931178056
 20
7.0783411877
 30
0.0
 10
11.3926099735
 20
7.078996052
 30
0.0
 10
11.3919336197
 20
7.0798695632
 30
0.0
 10
11.3910879187
 20
7.0809613293
 30
0.0
 10
11.3897349417
 20
7.0827082238
 30
0.0
 10
11.3880436706
 20
7.0848918181
 30
0.0
 10
11.3860141678
 20
7.0875121427
 30
0.0
 10
11.383984655
 20
7.0901324598
 30
0.0
 10
11.3822934087
 20
7.0923160727
 30
0.0
 10
11.3809403823
 20
7.0940629301
 30
0.0
 10
11.3800948069
 20
7.0951547904
 30
0.0
 10
11.3794181952
 20
7.0960281084
 30
0.0
 10
11.3789111509
 20
7.0966835628
 30
0.0
 10
11.3784872958
 20
7.0972282929
 30
0.0
 10
11.3781931839
 20
7.0976125121
 30
0.0
 10
11.3780210811
 20
7.0978275251
 30
0.0
 10
11.3779033816
 20
7.0980015766
 30
0.0
 10
11.3777421913
 20
7.0981267312
 30
0.0
 10
11.377542441
 20
7.0983106598
 30
0.0
 10
11.3771858099
 20
7.0986245881
 30
0.0
 10
11.3766800321
 20
7.0990772118
 30
0.0
 10
11.3760715172
 20
7.099618582
 30
0.0
 10
11.3752607163
 20
7.1003410299
 30
0.0
 10
11.3742470261
 20
7.1012438772
 30
0.0
 10
11.3726252276
 20
7.1026885517
 30
0.0
 10
11.3705979429
 20
7.1044943538
 30
0.0
 10
11.3681652177
 20
7.1066613352
 30
0.0
 10
11.3657324849
 20
7.1088283068
 30
0.0
 10
11.3637052195
 20
7.1106341333
 30
0.0
 10
11.3620833823
 20
7.1120787591
 30
0.0
 10
11.3610697901
 20
7.1129817301
 30
0.0
 10
11.3602587881
 20
7.1137039242
 30
0.0
 10
11.3596508878
 20
7.11424607
 30
0.0
 10
11.3591431869
 20
7.1146962667
 30
0.0
 10
11.358789989
 20
7.1150145277
 30
0.0
 10
11.3585847379
 20
7.1151915143
 30
0.0
 10
11.3584404441
 20
7.1153379922
 30
0.0
 10
11.3582592842
 20
7.1154319569
 30
0.0
 10
11.358030597
 20
7.1155755603
 30
0.0
 10
11.357624403
 20
7.115818332
 30
0.0
 10
11.3570472582
 20
7.1161696105
 30
0.0
 10
11.3563533436
 20
7.1165892349
 30
0.0
 10
11.3554285925
 20
7.1171494011
 30
0.0
 10
11.3542724933
 20
7.1178493806
 30
0.0
 10
11.3524228242
 20
7.1189694753
 30
0.0
 10
11.350110707
 20
7.1203695496
 30
0.0
 10
11.3473361801
 20
7.1220496592
 30
0.0
 10
11.3445616473
 20
7.123729758
 30
0.0
 10
11.3422495449
 20
7.1251298591
 30
0.0
 10
11.3403998459
 20
7.1262499002
 30
0.0
 10
11.3392438228
 20
7.1269500161
 30
0.0
 10
11.3383189156
 20
7.1275099022
 30
0.0
 10
11.3376254779
 20
7.1279303827
 30
0.0
 10
11.3370468413
 20
7.1282789825
 30
0.0
 10
11.3366433103
 20
7.1285265362
 30
0.0
 10
11.3364103561
 20
7.1286624776
 30
0.0
 10
11.336242303
 20
7.1287799774
 30
0.0
 10
11.3360487824
 20
7.1288380615
 30
0.0
 10
11.3357996382
 20
7.1289362318
 30
0.0
 10
11.335359497
 20
7.1290983739
 30
0.0
 10
11.3347328877
 20
7.1293350536
 30
0.0
 10
11.3339800303
 20
7.1296169085
 30
0.0
 10
11.3329765441
 20
7.1299934697
 30
0.0
 10
11.3317220754
 20
7.1304639128
 30
0.0
 10
11.3297149875
 20
7.1312167663
 30
0.0
 10
11.3272061063
 20
7.1321577832
 30
0.0
 10
11.3241954584
 20
7.1332870264
 30
0.0
 10
11.3211848063
 20
7.1344162579
 30
0.0
 10
11.3186759357
 20
7.1353573043
 30
0.0
 10
11.3166688264
 20
7.1361100987
 30
0.0
 10
11.3154144122
 20
7.1365806919
 30
0.0
 10
11.3144108142
 20
7.1369569451
 30
0.0
 10
11.3136582983
 20
7.1372397411
 30
0.0
 10
11.3130306207
 20
7.1374734763
 30
0.0
 10
11.3125923866
 20
7.1376408749
 30
0.0
 10
11.3123401867
 20
7.1377306228
 30
0.0
 10
11.3121560524
 20
7.137814578
 30
0.0
 10
11.3119527458
 20
7.1378349102
 30
0.0
 10
11.3116883578
 20
7.1378842123
 30
0.0
 10
11.3112225631
 20
7.137960151
 30
0.0
 10
11.310558771
 20
7.1380740406
 30
0.0
 10
11.3097615232
 20
7.1382083943
 30
0.0
 10
11.3086987697
 20
7.1383883408
 30
0.0
 10
11.3073702445
 20
7.1386129972
 30
0.0
 10
11.3052446507
 20
7.138972602
 30
0.0
 10
11.3025876425
 20
7.139422055
 30
0.0
 10
11.2993992395
 20
7.1399614213
 30
0.0
 10
11.2962108347
 20
7.1405007816
 30
0.0
 10
11.2919596289
 20
7.1412199307
 30
0.0
 10
11.2887712244
 20
7.1417592921
 30
0.0
 10
11.2866456215
 20
7.1421188664
 30
0.0
  0
ENDSEC
  0
SECTION
  2
OBJECTS
  0
DICTIONARY
  5
C
100
AcDbDictionary
280
0
281
1
  3
ACAD_GROUP
350
D
  3
ACAD_MLINESTYLE
350
17
  3
ACAD_LAYOUT
350
1A
  3
ACAD_PLOTSETTINGS
350
19
  3
ACAD_PLOTSTYLENAME
350
E
  3
ACAD_IMAGE_DICT
350
       3A2
  3
ACAD_IMAGE_VARS
350
       3A3
  3
ACAD_TABLESTYLE
350
       3A4
  0
IMAGEDEF_REACTOR
  5
3A1
100
AcDbRasterImageDefReactor
 90
2
330
287
  0
DICTIONARY
  5
D
102
{ACAD_REACTORS
330
C
102
}
100
AcDbDictionary
280
0
281
1
  0
ACDBDICTIONARYWDFLT
  5
E
102
{ACAD_REACTORS
330
C
102
}
100
AcDbDictionary
281
1
  3
Normal
350
F
100
AcDbDictionaryWithDefault
340
F
  0
DICTIONARY
  5
3A2
330
C
100
AcDbDictionary
281
1
  3
FSV_assy_2_img_1
350
       3A7
  0
RASTERVARIABLES
  5
3A3
330
C
100
AcDbRasterVariables
 90
0
 70
0
 71
1
 72
5
  0
DICTIONARY
  5
17
102
{ACAD_REACTORS
330
C
102
}
100
AcDbDictionary
280
0
281
1
  3
Standard
350
18
  0
DICTIONARY
  5
3A4
330
C
100
AcDbDictionary
281
1
  3
Standard
350
       3A8
  3
Standard1
350
       3A9
  0
DICTIONARY
  5
19
102
{ACAD_REACTORS
330
C
102
}
100
AcDbDictionary
281
1
  0
DICTIONARY
  5
1A
102
{ACAD_REACTORS
330
C
102
}
100
AcDbDictionary
281
1
  3
Model
350
3A5
  3
Layout1
350
3A6
  0
ACDBPLACEHOLDER
  5
F
102
{ACAD_REACTORS
330
E
102
}
  0
MLINESTYLE
  5
18
102
{ACAD_REACTORS
330
17
102
}
100
AcDbMlineStyle
  2
STANDARD
 70
0
  3

 62
256
 51
90.0
 52
90.0
 71
2
 49
0.5
 62
256
  6
BYLAYER
 49
-0.5
 62
256
  6
BYLAYER
  0
LAYOUT
  5
3A5
102
{ACAD_REACTORS
330
1A
102
}
100
AcDbPlotSettings
  1

  2
none_device
  4
ANSI_C_(22.00_x_17.00_Inches)
  6

 40
0.0
 41
0.0
 42
0.0
 43
0.0
 44
558.8
 45
431.8
 46
0.0
 47
0.0
 48
0.0
 49
0.0
140
0.0
141
0.0
142
1.0
143
1.0
 70
1024
 72
0
 73
0
 74
0
  7

 75
0
147
1.0
148
0.0
149
0.0
100
AcDbLayout
  1
Model
 70
0
 71
0
 10
0.0
 20
0.0
 11
22.0
 21
17.0
 12
0.0
 22
0.0
 32
0.0
 14
0.0
 24
0.0
 34
0.0
 15
0.0
 25
0.0
 35
0.0
146
0.0
 13
0.0
 23
0.0
 33
0.0
 16
1.0
 26
0.0
 36
0.0
 17
0.0
 27
1.0
 37
0.0
 76
0
330
20C
345
0
346
0
  0
LAYOUT
  5
3A6
102
{ACAD_REACTORS
330
1A
102
}
100
AcDbPlotSettings
  1

  2
none_device
  4
ANSI_C_(22.00_x_17.00_Inches)
  6

 40
0.0
 41
0.0
 42
0.0
 43
0.0
 44
558.8
 45
431.8
 46
0.0
 47
0.0
 48
0.0
 49
0.0
140
0.0
141
0.0
142
1.0
143
1.0
 70
0
 72
0
 73
0
 74
0
  7

 75
0
147
1.0
148
0.0
149
0.0
100
AcDbLayout
  1
Layout1
 70
0
 71
1
 10
0.0
 20
0.0
 11
22.0
 21
17.0
 12
0.0
 22
0.0
 32
0.0
 14
0.0
 24
0.0
 34
0.0
 15
0.0
 25
0.0
 35
0.0
146
0.0
 13
0.0
 23
0.0
 33
0.0
 16
1.0
 26
0.0
 36
0.0
 17
0.0
 27
1.0
 37
0.0
 76
0
330
20D
345
0
346
0
  0
IMAGEDEF
  5
3A7
102
{ACAD_REACTORS
330
3A2
330
3A1
102
}
100
AcDbRasterImageDef
 90
0
  1
FSV_assy_2_img_1.png
 10
369.0
 20
92.0
 11
0.0066666667
 21
0.0066666667
280
1
281
0
  0
TABLESTYLE
  5
3A8
102
{ACAD_REACTORS
330
3A4
330
28A
330
28B
102
}
330
3A4
100
AcDbTableStyle
  3
Standard
 70
0
 71
0
 40
0.06
 41
0.06
280
1
281
1
  7
Standard
140
0.18
170
1
 62
0
 63
7
283
0
  7
Standard
140
0.18
170
1
 62
0
 63
7
283
0
  7
Standard
140
0.18
170
1
 62
0
 63
7
283
0
  0
TABLESTYLE
  5
3A9
102
{ACAD_REACTORS
330
3A4
330
289
102
}
330
3A4
100
AcDbTableStyle
  3
Standard1
 70
1
 71
0
 40
0.06
 41
0.06
280
1
281
1
  7
Standard
140
0.18
170
1
 62
0
 63
7
283
0
  7
Standard
140
0.18
170
1
 62
0
 63
7
283
0
  7
Standard
140
0.18
170
1
 62
0
 63
7
283
0
  0
ENDSEC
  0
EOF
