999
DXF file: FSU_assy_2.dxf
999
Pro/ENGINEER 2014200 by Parametric Technology Corporation
  0
SECTION
  2
HEADER
  9
$ACADVER
  1
AC1021
  9
$DWGCODEPAGE
  3
ANSI_1252
  9
$EXTMAX
 10
22.0
 20
17.0
 30
0.0
  9
$EXTMIN
 10
0.0
 20
0.0
 30
0.0
  9
$LIMMIN
 10
0.0
 20
0.0
  9
$LIMMAX
 10
22.0
 20
17.0
  9
$VIEWCTR
 10
11.0
 20
8.5
  9
$VIEWSIZE
 40
17.0
  9
$CLAYER
  8
0
  9
$LTSCALE
 40
1.21
  9
$CELTYPE
  6
BYLAYER
  9
$DIMSCALE
 40
1.0
  9
$DIMASZ
 40
0.1875
  9
$DIMEXO
 40
0.0625
  9
$DIMDLI
 40
0.836
  9
$DIMEXE
 40
0.125
  9
$DIMCEN
 40
0.198
  9
$DIMLFAC
 40
1.0
  9
$DIMBLK
  1
_FILLED
  9
$DIMTXT
 40
0.1
  9
$DIMTOL
 70
0
  9
$DIMLIM
 70
0
  9
$DIMTFAC
 40
1.0
  9
$DIMGAP
 40
0.09
  9
$DIMDSEP
 70
46
  9
$AUNITS
 70
0
  9
$PDMODE
 70
3
  9
$PDSIZE
 40
0.3125
  9
$HANDSEED
  5
397
  9
$TILEMODE
 70
1
  9
$MEASUREMENT
 70
0
  9
$INSUNITS
 70
1
  0
ENDSEC
  0
SECTION
  2
CLASSES
  0
CLASS
  1
ACDBDICTIONARYWDFLT
  2
AcDbDictionaryWithDefault
  3
AutoCAD 2000
 90
0
 91
1
280
0
281
0
  0
CLASS
  1
ACDBPLACEHOLDER
  2
AcDbPlaceHolder
  3
AutoCAD 2000
 90
0
 91
1
280
0
281
0
  0
CLASS
  1
LAYOUT
  2
AcDbLayout
  3
AutoCAD 2000
 90
0
 91
0
280
0
281
0
  0
CLASS
  1
RASTERVARIABLES
  2
AcDbRasterVariables
  3
ISM
 90
0
 91
1
280
0
281
0
  0
CLASS
  1
IMAGEDEF
  2
AcDbRasterImageDef
  3
ISM
 90
0
 91
1
280
0
281
0
  0
CLASS
  1
IMAGEDEF_REACTOR
  2
AcDbRasterImageDefReactor
  3
ISM
 90
0
 91
1
280
0
281
0
  0
CLASS
  1
IMAGE
  2
AcDbRasterImage
  3
ISM
 90
127
 91
1
280
0
281
1
  0
CLASS
  1
TABLESTYLE
  2
AcDbTableStyle
  3
ObjectDBX Classes
 90
2047
 91
1
280
0
281
0
  0
CLASS
  1
ACAD_TABLE
  2
AcDbTable
  3
ObjectDBX Classes
 90
1025
 91
3
280
0
281
1
  0
ENDSEC
  0
SECTION
  2
TABLES
  0
TABLE
  2
VPORT
  5
8
100
AcDbSymbolTable
 70
2
  0
VPORT
  5
1F4
100
AcDbSymbolTableRecord
100
AcDbViewportTableRecord
  2
*ACTIVE
 70
0
 10
0.0
 20
0.0
 11
1.0
 21
1.0
 12
11.0
 22
8.5
 13
0.0
 23
0.0
 14
1.0
 24
1.0
 15
0.0
 25
0.0
 16
0.0
 26
0.0
 36
1.0
 17
0.0
 27
0.0
 37
0.0
 40
17.0
 41
1.2941176471
 42
50.0
 43
0.0
 44
0.0
 50
0.0
 51
0.0
 71
0
 72
100
 73
1
 74
1
 75
0
 76
0
 77
0
 78
0
  0
ENDTAB
  0
TABLE
  2
LTYPE
  5
5
100
AcDbSymbolTable
 70
6
  0
LTYPE
  5
14
100
AcDbSymbolTableRecord
100
AcDbLinetypeTableRecord
  2
BYBLOCK
 70
0
  3

 72
65
 73
0
 40
0.0
  0
LTYPE
  5
15
100
AcDbSymbolTableRecord
100
AcDbLinetypeTableRecord
  2
BYLAYER
 70
0
  3

 72
65
 73
0
 40
0.0
  0
LTYPE
  5
16
100
AcDbSymbolTableRecord
100
AcDbLinetypeTableRecord
  2
CONTINUOUS
 70
64
  3
Solid line
 72
65
 73
0
 40
0.0
  0
LTYPE
  5
1F5
100
AcDbSymbolTableRecord
100
AcDbLinetypeTableRecord
  2
CENTER
 70
64
  3
____ _ ____ _ ____ _ ____ _ ____ _ ____ _ ____
 72
65
 73
4
 40
0.6
 49
0.375
 74
0
 49
-0.075
 74
0
 49
0.075
 74
0
 49
-0.075
 74
0
  0
LTYPE
  5
1F6
100
AcDbSymbolTableRecord
100
AcDbLinetypeTableRecord
  2
HIDDEN
 70
64
  3
- - - - - - - - - - - - - - - - - - - -
 72
65
 73
2
 40
0.2
 49
0.1
 74
0
 49
-0.1
 74
0
  0
LTYPE
  5
1F7
100
AcDbSymbolTableRecord
100
AcDbLinetypeTableRecord
  2
PHANTOM
 70
64
  3
_____ _ _ _____ _ _ _____ _ _ _____
 72
65
 73
6
 40
0.8
 49
0.45
 74
0
 49
-0.05
 74
0
 49
0.1
 74
0
 49
-0.05
 74
0
 49
0.1
 74
0
 49
-0.05
 74
0
  0
LTYPE
  5
1F8
100
AcDbSymbolTableRecord
100
AcDbLinetypeTableRecord
  2
DOT
 70
64
  3
. . . . . . . . . . . . . . . . . . . .
 72
65
 73
2
 40
0.2
 49
0.1
 74
0
 49
-0.1
 74
0
  0
LTYPE
  5
1F9
100
AcDbSymbolTableRecord
100
AcDbLinetypeTableRecord
  2
DASHED
 70
64
  3
- - - - - - - - - - - - - - - - - - - -
 72
65
 73
2
 40
0.2
 49
0.1
 74
0
 49
-0.1
 74
0
  0
ENDTAB
  0
TABLE
  2
LAYER
  5
2
100
AcDbSymbolTable
 70
36
  0
LAYER
  5
10
100
AcDbSymbolTableRecord
100
AcDbLayerTableRecord
  2
0
 70
0
 62
7
  6
CONTINUOUS
370
-3
390
F
  0
LAYER
  5
1FA
100
AcDbSymbolTableRecord
100
AcDbLayerTableRecord
  2
DEFAULT_1
 70
0
 62
7
  6
CENTER
370
-3
390
F
  0
LAYER
  5
1FB
100
AcDbSymbolTableRecord
100
AcDbLayerTableRecord
  2
DEFAULT_2
 70
0
 62
8
  6
HIDDEN
370
-3
390
F
  0
LAYER
  5
1FC
100
AcDbSymbolTableRecord
100
AcDbLayerTableRecord
  2
DEFAULT_3
 70
0
 62
7
  6
PHANTOM
370
-3
390
F
  0
LAYER
  5
1FD
100
AcDbSymbolTableRecord
100
AcDbLayerTableRecord
  2
DATUM_PLANES
 70
0
 62
7
  6
CONTINUOUS
370
-3
390
F
  0
LAYER
  5
1FE
100
AcDbSymbolTableRecord
100
AcDbLayerTableRecord
  2
PORT_AREAS
 70
0
 62
7
  6
CONTINUOUS
370
-3
390
F
  0
LAYER
  5
1FF
100
AcDbSymbolTableRecord
100
AcDbLayerTableRecord
  2
SUNNBOMCOSMETIC
 70
0
 62
7
  6
CONTINUOUS
370
-3
390
F
  0
LAYER
  5
200
100
AcDbSymbolTableRecord
100
AcDbLayerTableRecord
  2
SUNNBOMSTAMPING
 70
0
 62
7
  6
CONTINUOUS
370
-3
390
F
  0
LAYER
  5
201
100
AcDbSymbolTableRecord
100
AcDbLayerTableRecord
  2
THREADS
 70
0
 62
7
  6
CONTINUOUS
370
-3
390
F
  0
ENDTAB
  0
TABLE
  2
STYLE
  5
3
100
AcDbSymbolTable
 70
1
  0
STYLE
  5
11
100
AcDbSymbolTableRecord
100
AcDbTextStyleTableRecord
  2
STANDARD
 70
0
 40
0.0
 41
0.8
 50
0.0
 71
0
 42
0.2
  3
txt
  4

  0
STYLE
  5
202
100
AcDbSymbolTableRecord
100
AcDbTextStyleTableRecord
  2
TEXTSTYLE_1
 70
0
 40
0.0
 41
0.8
 50
0.0
 71
0
 42
0.2
  3
gdt
  4

  0
ENDTAB
  0
TABLE
  2
VIEW
  5
6
100
AcDbSymbolTable
 70
0
  0
ENDTAB
  0
TABLE
  2
UCS
  5
7
100
AcDbSymbolTable
 70
0
  0
ENDTAB
  0
TABLE
  2
APPID
  5
9
100
AcDbSymbolTable
 70
1
  0
APPID
  5
203
100
AcDbSymbolTableRecord
100
AcDbRegAppTableRecord
  2
ACAD
 70
0
  0
ENDTAB
  0
TABLE
  2
BLOCK_RECORD
  5
1
100
AcDbSymbolTable
 70
0
  0
BLOCK_RECORD
  5
204
100
AcDbSymbolTableRecord
100
AcDbBlockTableRecord
  2
*Model_Space
  0
BLOCK_RECORD
  5
205
100
AcDbSymbolTableRecord
100
AcDbBlockTableRecord
  2
*Paper_Space
  0
BLOCK_RECORD
  5
206
100
AcDbSymbolTableRecord
100
AcDbBlockTableRecord
  2
SUN_FIRST_THIRD_ANGLE_BL0
  0
BLOCK_RECORD
  5
207
100
AcDbSymbolTableRecord
100
AcDbBlockTableRecord
  2
*T1
  0
BLOCK_RECORD
  5
208
100
AcDbSymbolTableRecord
100
AcDbBlockTableRecord
  2
*T2
  0
BLOCK_RECORD
  5
209
100
AcDbSymbolTableRecord
100
AcDbBlockTableRecord
  2
*T3
  0
ENDTAB
  0
TABLE
  2
DIMSTYLE
  5
A
100
AcDbSymbolTable
 70
1
100
AcDbDimStyleTable
 71
0
  0
DIMSTYLE
105
20A
100
AcDbSymbolTableRecord
100
AcDbDimStyleTableRecord
  2
STANDARD
 70
0
  3

  4

 40
1.0
 41
0.1875
 42
0.0625
 43
0.38
 44
0.125
 45
0.0
 46
0.0
 47
0.001
 48
0.001
140
0.1
141
0.09
142
0.0
143
25.4
144
1.0
145
0.0
146
1.0
147
0.09
 71
0.0
 72
0.0
 73
1
 74
1
 75
0
 76
0
 77
0
 78
4
170
0
171
2
172
0
173
0
174
0
175
0
176
0
177
0
178
0
270
2
271
3
272
3
273
2
274
2
275
0
280
0
281
0
282
0
283
1
284
4
285
0
286
0
287
3
288
0
340
11
278
46
  0
ENDTAB
  0
ENDSEC
  0
SECTION
  2
BLOCKS
  0
BLOCK
  5
20
100
AcDbEntity
  8
0
100
AcDbBlockBegin
  2
*Model_Space
 70
0
 10
0.0
 20
0.0
 30
0.0
  3
*Model_Space
  1

  0
ENDBLK
  5
21
100
AcDbEntity
  8
0
100
AcDbBlockEnd
  0
BLOCK
  5
1C
100
AcDbEntity
  8
0
100
AcDbBlockBegin
  2
*Paper_Space
 70
0
 10
0.0
 20
0.0
 30
0.0
  3
*Paper_Space
  1

  0
ENDBLK
  5
1D
100
AcDbEntity
  8
0
100
AcDbBlockEnd
  0
BLOCK
  5
20B
100
AcDbEntity
  8
0
100
AcDbBlockBegin
 62
2
  6
CONTINUOUS
  2
SUN_FIRST_THIRD_ANGLE_BL0
 70
64
 10
20.4816717061
 20
1.2289683772
  3
SUN_FIRST_THIRD_ANGLE_BL0
  1

  0
TEXT
  5
20C
100
AcDbEntity
  8
0
100
AcDbText
 62
2
  6
CONTINUOUS
 10
19.4750896608
 20
1.4136269581
  7
STANDARD
 40
0.08
  1
FIRST ANGLE
 41
0.8
 72
0
100
AcDbText
  0
TEXT
  5
20D
100
AcDbEntity
  8
0
100
AcDbText
 62
2
  6
CONTINUOUS
 10
20.7842537513
 20
1.4047600029
  7
STANDARD
 40
0.08
  1
THIRD ANGLE
 41
0.8
 72
0
100
AcDbText
  0
LINE
  5
20E
100
AcDbEntity
  8
0
100
AcDbLine
 62
7
  6
CONTINUOUS
 10
19.4767170086
 20
1.1727031207
 11
19.6334271527
 21
1.1717972817
  0
LINE
  5
20F
100
AcDbEntity
  8
0
100
AcDbLine
 62
7
  6
CONTINUOUS
 10
19.6596964832
 20
1.1717972817
 11
19.6950230232
 21
1.171593082
  0
LINE
  5
210
100
AcDbEntity
  8
0
100
AcDbLine
 62
7
  6
CONTINUOUS
 10
19.7194818561
 20
1.1708914427
 11
19.8852396156
 21
1.1699333054
  0
LINE
  5
211
100
AcDbEntity
  8
0
100
AcDbLine
 62
7
  6
CONTINUOUS
 10
19.4758111696
 20
1.2723454088
 11
19.88525039
 21
1.3511534004
  0
LINE
  5
212
100
AcDbEntity
  8
0
100
AcDbLine
 62
7
  6
CONTINUOUS
 10
19.88525039
 20
1.3511534004
 11
19.8831348489
 21
0.9851647912
  0
LINE
  5
213
100
AcDbEntity
  8
0
100
AcDbLine
 62
7
  6
CONTINUOUS
 10
19.8831348489
 20
0.9851647912
 11
19.4767170086
 21
1.0658141206
  0
LINE
  5
214
100
AcDbEntity
  8
0
100
AcDbLine
 62
7
  6
CONTINUOUS
 10
19.4767170086
 20
1.0658141206
 11
19.4779056764
 21
1.2714536432
  0
CIRCLE
  5
215
100
AcDbEntity
  8
0
100
AcDbCircle
 62
7
  6
CONTINUOUS
 10
20.2068232291
 20
1.1717972817
 40
0.175742101
  0
CIRCLE
  5
216
100
AcDbEntity
  8
0
100
AcDbCircle
 62
7
  6
CONTINUOUS
 10
20.2068232291
 20
1.1717972817
 40
0.1005522074
  0
LINE
  5
217
100
AcDbEntity
  8
0
100
AcDbLine
 62
7
  6
CONTINUOUS
 10
20.2077290681
 20
1.3756110529
 11
20.2071171714
 21
1.2379342989
  0
LINE
  5
218
100
AcDbEntity
  8
0
100
AcDbLine
 62
7
  6
CONTINUOUS
 10
20.2077290681
 20
1.2016899681
 11
20.2074674401
 21
1.1428236749
  0
LINE
  5
219
100
AcDbEntity
  8
0
100
AcDbLine
 62
7
  6
CONTINUOUS
 10
20.208634907
 20
1.101141841
 11
20.2080230104
 21
0.963465087
  0
LINE
  5
21A
100
AcDbEntity
  8
0
100
AcDbLine
 62
7
  6
CONTINUOUS
 10
20.0066328138
 20
1.1745147986
 11
20.1443095678
 21
1.1739029019
  0
LINE
  5
21B
100
AcDbEntity
  8
0
100
AcDbLine
 62
7
  6
CONTINUOUS
 10
20.1832714155
 20
1.1727031207
 11
20.238153505
 21
1.172335442
  0
LINE
  5
21C
100
AcDbEntity
  8
0
100
AcDbLine
 62
7
  6
CONTINUOUS
 10
20.2756669918
 20
1.1717972817
 11
20.407916871
 21
1.1712095044
  0
CIRCLE
  5
21D
100
AcDbEntity
  8
0
100
AcDbCircle
 62
7
  6
CONTINUOUS
 10
20.7509457401
 20
1.1693297793
 40
0.1722024983
  0
CIRCLE
  5
21E
100
AcDbEntity
  8
0
100
AcDbCircle
 62
7
  6
CONTINUOUS
 10
20.7509457401
 20
1.1693297793
 40
0.0985164967
  0
LINE
  5
21F
100
AcDbEntity
  8
0
100
AcDbLine
 62
7
  6
CONTINUOUS
 10
20.7169767782
 20
1.170462078
 11
20.7825395137
 21
1.1682766535
  0
LINE
  5
220
100
AcDbEntity
  8
0
100
AcDbLine
 62
7
  6
CONTINUOUS
 10
20.8177513651
 20
1.1693297793
 11
20.947965719
 21
1.1693297793
  0
LINE
  5
221
100
AcDbEntity
  8
0
100
AcDbLine
 62
7
  6
CONTINUOUS
 10
20.6875370113
 20
1.170462078
 11
20.5573226574
 21
1.170462078
  0
LINE
  5
222
100
AcDbEntity
  8
0
100
AcDbLine
 62
7
  6
CONTINUOUS
 10
20.7486811426
 20
1.1987695462
 11
20.7486811426
 21
1.1432869085
  0
LINE
  5
223
100
AcDbEntity
  8
0
100
AcDbLine
 62
7
  6
CONTINUOUS
 10
20.7498134414
 20
1.1059210505
 11
20.7498134414
 21
0.9757066966
  0
LINE
  5
224
100
AcDbEntity
  8
0
100
AcDbLine
 62
7
  6
CONTINUOUS
 10
20.7486811426
 20
1.2338708068
 11
20.7486811426
 21
1.3640851607
  0
LINE
  5
225
100
AcDbEntity
  8
0
100
AcDbLine
 62
7
  6
CONTINUOUS
 10
21.0702539817
 20
1.2701043662
 11
21.4790138229
 21
1.3448360823
  0
LINE
  5
226
100
AcDbEntity
  8
0
100
AcDbLine
 62
7
  6
CONTINUOUS
 10
21.4790138229
 20
1.3448360823
 11
21.4790138229
 21
0.9779712941
  0
LINE
  5
227
100
AcDbEntity
  8
0
100
AcDbLine
 62
7
  6
CONTINUOUS
 10
21.4790138229
 20
0.9779712941
 11
21.069121683
 21
1.0617614
  0
LINE
  5
228
100
AcDbEntity
  8
0
100
AcDbLine
 62
7
  6
CONTINUOUS
 10
21.0702539817
 20
1.2701043662
 11
21.069121683
 21
1.0617614
  0
LINE
  5
229
100
AcDbEntity
  8
0
100
AcDbLine
 62
7
  6
CONTINUOUS
 10
21.4790138229
 20
1.1693297793
 11
21.3159628059
 21
1.1693297793
  0
LINE
  5
22A
100
AcDbEntity
  8
0
100
AcDbLine
 62
7
  6
CONTINUOUS
 10
21.2876553377
 20
1.1693297793
 11
21.2502894796
 21
1.1693297793
  0
LINE
  5
22B
100
AcDbEntity
  8
0
100
AcDbLine
 62
7
  6
CONTINUOUS
 10
21.2208497126
 20
1.1659328831
 11
21.0713862804
 21
1.1659328831
  0
LINE
  5
22C
100
AcDbEntity
  8
0
100
AcDbLine
 62
7
  6
CONTINUOUS
 10
20.4796138713
 20
1.5284908897
 11
20.4766766948
 21
0.9294458646
  0
ENDBLK
  5
22D
100
AcDbEntity
  8
0
  6
BYBLOCK
 62
0
100
AcDbBlockEnd
  0
BLOCK
  5
22E
100
AcDbEntity
  8
0
100
AcDbBlockBegin
  2
*T1
 70
1
 10
0.0
 20
0.0
  3
*T1
  1

  0
LINE
  5
22F
100
AcDbEntity
  8
0
100
AcDbLine
 62
2
  6
CONTINUOUS
 10
9.275
 20
0.0
 11
-0.0
 21
0.0
  0
LINE
  5
230
100
AcDbEntity
  8
0
100
AcDbLine
 62
2
  6
CONTINUOUS
 10
9.275
 20
0.0
 11
9.275
 21
1.25
  0
LINE
  5
231
100
AcDbEntity
  8
0
100
AcDbLine
 62
2
  6
CONTINUOUS
 10
9.275
 20
0.625
 11
-0.0
 21
0.625
  0
LINE
  5
232
100
AcDbEntity
  8
0
100
AcDbLine
 62
2
  6
CONTINUOUS
 10
9.275
 20
1.25
 11
-0.0
 21
1.25
  0
LINE
  5
233
100
AcDbEntity
  8
0
100
AcDbLine
 62
2
  6
CONTINUOUS
 10
6.8
 20
0.0
 11
6.8
 21
1.25
  0
LINE
  5
234
100
AcDbEntity
  8
0
100
AcDbLine
 62
2
  6
CONTINUOUS
 10
6.4
 20
0.0
 11
6.4
 21
0.625
  0
LINE
  5
235
100
AcDbEntity
  8
0
100
AcDbLine
 62
2
  6
CONTINUOUS
 10
5.9
 20
0.0
 11
5.9
 21
0.625
  0
LINE
  5
236
100
AcDbEntity
  8
0
100
AcDbLine
 62
2
  6
CONTINUOUS
 10
5.2
 20
0.0
 11
5.2
 21
0.625
  0
LINE
  5
237
100
AcDbEntity
  8
0
100
AcDbLine
 62
2
  6
CONTINUOUS
 10
4.1
 20
0.0
 11
4.1
 21
1.25
  0
LINE
  5
238
100
AcDbEntity
  8
0
100
AcDbLine
 62
2
  6
CONTINUOUS
 10
-0.0
 20
0.0
 11
-0.0
 21
1.25
  0
MTEXT
  5
239
100
AcDbEntity
  8
0
100
AcDbMText
 62
2
  6
CONTINUOUS
  7
STANDARD
 71
2
 72
1
 10
6.6
 20
0.325
 30
0.0
 11
1.0
 21
0.0
 31
0.0
 44
0.9
  1
2
 40
0.125
 41
0.2
  0
MTEXT
  5
23A
100
AcDbEntity
  8
0
100
AcDbMText
 62
2
  6
CONTINUOUS
  7
STANDARD
 71
2
 72
1
 10
6.15
 20
0.325
 30
0.0
 11
1.0
 21
0.0
 31
0.0
 44
0.9
  1
C
 40
0.125
 41
0.2
  0
MTEXT
  5
23B
100
AcDbEntity
  8
0
100
AcDbMText
 62
2
  6
CONTINUOUS
  7
STANDARD
 71
2
 72
1
 10
5.55
 20
0.325
 30
0.0
 11
1.0
 21
0.0
 31
0.0
 44
0.9
  1
1.000
 40
0.125
 41
1.0
  0
MTEXT
  5
23C
100
AcDbEntity
  8
0
100
AcDbMText
 62
2
  6
CONTINUOUS
  7
STANDARD
 71
2
 72
1
 10
4.65
 20
0.325
 30
0.0
 11
1.0
 21
0.0
 31
0.0
 44
0.9
  1
Oct-04-23
 40
0.125
 41
1.8
  0
MTEXT
  5
23D
100
AcDbEntity
  8
0
100
AcDbMText
 62
2
  6
CONTINUOUS
  7
STANDARD
 71
2
 72
1
 10
2.05
 20
0.4625
 30
0.0
 11
1.0
 21
0.0
 31
0.0
 44
0.9
  1
T-10A Subplate ISO 03\PP to T, side ports
 40
0.125
 41
4.2
  0
MTEXT
  5
23E
100
AcDbEntity
  8
0
100
AcDbMText
 62
2
  6
CONTINUOUS
  7
STANDARD
 71
1
 72
1
 10
6.45
 20
0.5625
 30
0.0
 11
1.0
 21
0.0
 31
0.0
 44
0.9
  1
SHEET
 40
0.06
 41
0.48
  0
MTEXT
  5
23F
100
AcDbEntity
  8
0
100
AcDbMText
 62
2
  6
CONTINUOUS
  7
STANDARD
 71
1
 72
1
 10
5.95
 20
0.5625
 30
0.0
 11
1.0
 21
0.0
 31
0.0
 44
0.9
  1
DWG SIZE
 40
0.06
 41
0.768
  0
MTEXT
  5
240
100
AcDbEntity
  8
0
100
AcDbMText
 62
2
  6
CONTINUOUS
  7
STANDARD
 71
1
 72
1
 10
5.25
 20
0.5625
 30
0.0
 11
1.0
 21
0.0
 31
0.0
 44
0.9
  1
SCALE
 40
0.06
 41
0.48
  0
MTEXT
  5
241
100
AcDbEntity
  8
0
100
AcDbMText
 62
2
  6
CONTINUOUS
  7
STANDARD
 71
1
 72
1
 10
4.15
 20
0.5625
 30
0.0
 11
1.0
 21
0.0
 31
0.0
 44
0.9
  1
DATE
 40
0.06
 41
0.384
  0
MTEXT
  5
242
100
AcDbEntity
  8
0
100
AcDbMText
 62
2
  6
CONTINUOUS
  7
STANDARD
 71
1
 72
1
 10
0.05
 20
0.5625
 30
0.0
 11
1.0
 21
0.0
 31
0.0
 44
0.9
  1
DESCRIPTION
 40
0.06
 41
1.056
  0
MTEXT
  5
243
100
AcDbEntity
  8
0
100
AcDbMText
 62
2
  6
CONTINUOUS
  7
STANDARD
 71
2
 72
1
 10
5.45
 20
1.0375
 30
0.0
 11
1.0
 21
0.0
 31
0.0
 44
0.9
  1
ALL DIMENSIONS IN INCH\PVIEWS ARE THIRD ANGLE
 40
0.12
 41
4.224
  0
MTEXT
  5
244
100
AcDbEntity
  8
0
100
AcDbMText
 62
2
  6
CONTINUOUS
  7
STANDARD
 71
2
 72
1
 10
2.05
 20
0.95
 30
0.0
 11
1.0
 21
0.0
 31
0.0
 44
0.9
  1
FSU
 40
0.125
 41
0.6
  0
MTEXT
  5
245
100
AcDbEntity
  8
0
100
AcDbMText
 62
2
  6
CONTINUOUS
  7
STANDARD
 71
1
 72
1
 10
0.05
 20
1.1875
 30
0.0
 11
1.0
 21
0.0
 31
0.0
 44
0.9
  1
MODEL
 40
0.06
 41
0.48
  0
ENDBLK
  5
246
100
AcDbEntity
  8
0
  6
BYBLOCK
 62
0
100
AcDbBlockEnd
  0
BLOCK
  5
247
100
AcDbEntity
  8
0
100
AcDbBlockBegin
  2
*T2
 70
1
 10
0.0
 20
0.0
  3
*T2
  1

  0
LINE
  5
248
100
AcDbEntity
  8
0
100
AcDbLine
 62
2
  6
CONTINUOUS
 10
0.0
 20
0.0
 11
9.055
 21
0.0
  0
LINE
  5
249
100
AcDbEntity
  8
0
100
AcDbLine
 62
2
  6
CONTINUOUS
 10
0.0
 20
0.0
 11
0.0
 21
-2.844
  0
LINE
  5
24A
100
AcDbEntity
  8
0
100
AcDbLine
 62
2
  6
CONTINUOUS
 10
0.0
 20
-0.344
 11
9.055
 21
-0.344
  0
LINE
  5
24B
100
AcDbEntity
  8
0
100
AcDbLine
 62
2
  6
CONTINUOUS
 10
0.0
 20
-0.594
 11
9.055
 21
-0.594
  0
LINE
  5
24C
100
AcDbEntity
  8
0
100
AcDbLine
 62
2
  6
CONTINUOUS
 10
0.0
 20
-0.844
 11
9.055
 21
-0.844
  0
LINE
  5
24D
100
AcDbEntity
  8
0
100
AcDbLine
 62
2
  6
CONTINUOUS
 10
0.0
 20
-1.094
 11
9.055
 21
-1.094
  0
LINE
  5
24E
100
AcDbEntity
  8
0
100
AcDbLine
 62
2
  6
CONTINUOUS
 10
0.0
 20
-1.344
 11
9.055
 21
-1.344
  0
LINE
  5
24F
100
AcDbEntity
  8
0
100
AcDbLine
 62
2
  6
CONTINUOUS
 10
0.0
 20
-1.594
 11
9.055
 21
-1.594
  0
LINE
  5
250
100
AcDbEntity
  8
0
100
AcDbLine
 62
2
  6
CONTINUOUS
 10
0.0
 20
-1.844
 11
9.055
 21
-1.844
  0
LINE
  5
251
100
AcDbEntity
  8
0
100
AcDbLine
 62
2
  6
CONTINUOUS
 10
0.0
 20
-2.094
 11
9.055
 21
-2.094
  0
LINE
  5
252
100
AcDbEntity
  8
0
100
AcDbLine
 62
2
  6
CONTINUOUS
 10
0.0
 20
-2.344
 11
9.055
 21
-2.344
  0
LINE
  5
253
100
AcDbEntity
  8
0
100
AcDbLine
 62
2
  6
CONTINUOUS
 10
0.0
 20
-2.594
 11
9.055
 21
-2.594
  0
LINE
  5
254
100
AcDbEntity
  8
0
100
AcDbLine
 62
2
  6
CONTINUOUS
 10
0.0
 20
-2.844
 11
9.055
 21
-2.844
  0
LINE
  5
255
100
AcDbEntity
  8
0
100
AcDbLine
 62
2
  6
CONTINUOUS
 10
3.055
 20
0.0
 11
3.055
 21
-2.844
  0
LINE
  5
256
100
AcDbEntity
  8
0
100
AcDbLine
 62
2
  6
CONTINUOUS
 10
9.055
 20
0.0
 11
9.055
 21
-2.844
  0
MTEXT
  5
257
100
AcDbEntity
  8
0
100
AcDbMText
 62
2
  6
CONTINUOUS
  7
STANDARD
 71
2
 72
1
 10
1.5275
 20
-0.0995
 30
0.0
 11
1.0
 21
0.0
 31
0.0
 44
0.9
  1
Technical Data
 40
0.145
 41
3.248
  0
MTEXT
  5
258
100
AcDbEntity
  8
0
100
AcDbMText
 62
2
  6
CONTINUOUS
  7
STANDARD
 71
2
 72
1
 10
4.555
 20
-0.0995
 30
0.0
 11
1.0
 21
0.0
 31
0.0
 44
0.9
  1
U.S. Units
 40
0.145
 41
2.32
  0
MTEXT
  5
259
100
AcDbEntity
  8
0
100
AcDbMText
 62
2
  6
CONTINUOUS
  7
STANDARD
 71
2
 72
1
 10
7.555
 20
-0.0995
 30
0.0
 11
1.0
 21
0.0
 31
0.0
 44
0.9
  1
Metric Units
 40
0.145
 41
2.784
  0
MTEXT
  5
25A
100
AcDbEntity
  8
0
100
AcDbMText
 62
2
  6
CONTINUOUS
  7
STANDARD
 71
2
 72
1
 10
1.5275
 20
-0.4065
 30
0.0
 11
1.0
 21
0.0
 31
0.0
 44
0.9
  1
Cavity
 40
0.125
 41
1.2
  0
MTEXT
  5
25B
100
AcDbEntity
  8
0
100
AcDbMText
 62
2
  6
CONTINUOUS
  7
STANDARD
 71
2
 72
1
 10
6.055
 20
-0.4065
 30
0.0
 11
1.0
 21
0.0
 31
0.0
 44
0.9
  1
T-10A
 40
0.125
 41
1.0
  0
MTEXT
  5
25C
100
AcDbEntity
  8
0
100
AcDbMText
 62
2
  6
CONTINUOUS
  7
STANDARD
 71
2
 72
1
 10
1.5275
 20
-0.6565
 30
0.0
 11
1.0
 21
0.0
 31
0.0
 44
0.9
  1
Body Features
 40
0.125
 41
2.6
  0
MTEXT
  5
25D
100
AcDbEntity
  8
0
100
AcDbMText
 62
2
  6
CONTINUOUS
  7
STANDARD
 71
2
 72
1
 10
6.055
 20
-0.6565
 30
0.0
 11
1.0
 21
0.0
 31
0.0
 44
0.9
  1
P to T, side ports
 40
0.125
 41
3.6
  0
MTEXT
  5
25E
100
AcDbEntity
  8
0
100
AcDbMText
 62
2
  6
CONTINUOUS
  7
STANDARD
 71
2
 72
1
 10
1.5275
 20
-0.9065
 30
0.0
 11
1.0
 21
0.0
 31
0.0
 44
0.9
  1
Body Type
 40
0.125
 41
1.8
  0
MTEXT
  5
25F
100
AcDbEntity
  8
0
100
AcDbMText
 62
2
  6
CONTINUOUS
  7
STANDARD
 71
2
 72
1
 10
6.055
 20
-0.9065
 30
0.0
 11
1.0
 21
0.0
 31
0.0
 44
0.9
  1
Subplate
 40
0.125
 41
1.6
  0
MTEXT
  5
260
100
AcDbEntity
  8
0
100
AcDbMText
 62
2
  6
CONTINUOUS
  7
STANDARD
 71
2
 72
1
 10
1.5275
 20
-1.1565
 30
0.0
 11
1.0
 21
0.0
 31
0.0
 44
0.9
  1
Interface
 40
0.125
 41
1.8
  0
MTEXT
  5
261
100
AcDbEntity
  8
0
100
AcDbMText
 62
2
  6
CONTINUOUS
  7
STANDARD
 71
2
 72
1
 10
6.055
 20
-1.1565
 30
0.0
 11
1.0
 21
0.0
 31
0.0
 44
0.9
  1
ISO 03
 40
0.125
 41
1.2
  0
MTEXT
  5
262
100
AcDbEntity
  8
0
100
AcDbMText
 62
2
  6
CONTINUOUS
  7
STANDARD
 71
2
 72
1
 10
1.5275
 20
-1.4065
 30
0.0
 11
1.0
 21
0.0
 31
0.0
 44
0.9
  1
Open Cavity Quantity
 40
0.125
 41
4.0
  0
MTEXT
  5
263
100
AcDbEntity
  8
0
100
AcDbMText
 62
2
  6
CONTINUOUS
  7
STANDARD
 71
2
 72
1
 10
6.055
 20
-1.4065
 30
0.0
 11
1.0
 21
0.0
 31
0.0
 44
0.9
  1
1
 40
0.125
 41
0.2
  0
MTEXT
  5
264
100
AcDbEntity
  8
0
100
AcDbMText
 62
2
  6
CONTINUOUS
  7
STANDARD
 71
2
 72
1
 10
1.5275
 20
-1.6565
 30
0.0
 11
1.0
 21
0.0
 31
0.0
 44
0.9
  1
Weight
 40
0.125
 41
1.2
  0
MTEXT
  5
265
100
AcDbEntity
  8
0
100
AcDbMText
 62
2
  6
CONTINUOUS
  7
STANDARD
 71
2
 72
1
 10
4.555
 20
-1.6565
 30
0.0
 11
1.0
 21
0.0
 31
0.0
 44
0.9
  1
2.080 lb.
 40
0.125
 41
1.8
  0
MTEXT
  5
266
100
AcDbEntity
  8
0
100
AcDbMText
 62
2
  6
CONTINUOUS
  7
STANDARD
 71
2
 72
1
 10
7.555
 20
-1.6565
 30
0.0
 11
1.0
 21
0.0
 31
0.0
 44
0.9
  1
0,944 kg.
 40
0.125
 41
1.8
  0
MTEXT
  5
267
100
AcDbEntity
  8
0
100
AcDbMText
 62
2
  6
CONTINUOUS
  7
STANDARD
 71
2
 72
1
 10
1.5275
 20
-1.9065
 30
0.0
 11
1.0
 21
0.0
 31
0.0
 44
0.9
  1
Mounting Hole Diameter
 40
0.125
 41
4.4
  0
MTEXT
  5
268
100
AcDbEntity
  8
0
100
AcDbMText
 62
2
  6
CONTINUOUS
  7
STANDARD
 71
2
 72
1
 10
4.555
 20
-1.9065
 30
0.0
 11
1.0
 21
0.0
 31
0.0
 44
0.9
  1
.28 in.
 40
0.125
 41
1.4
  0
MTEXT
  5
269
100
AcDbEntity
  8
0
100
AcDbMText
 62
2
  6
CONTINUOUS
  7
STANDARD
 71
2
 72
1
 10
7.555
 20
-1.9065
 30
0.0
 11
1.0
 21
0.0
 31
0.0
 44
0.9
  1
7,1 mm
 40
0.125
 41
1.2
  0
MTEXT
  5
26A
100
AcDbEntity
  8
0
100
AcDbMText
 62
2
  6
CONTINUOUS
  7
STANDARD
 71
2
 72
1
 10
1.5275
 20
-2.1565
 30
0.0
 11
1.0
 21
0.0
 31
0.0
 44
0.9
  1
Mounting Hole Thread
 40
0.125
 41
4.0
  0
MTEXT
  5
26B
100
AcDbEntity
  8
0
100
AcDbMText
 62
2
  6
CONTINUOUS
  7
STANDARD
 71
2
 72
1
 10
6.055
 20
-2.1565
 30
0.0
 11
1.0
 21
0.0
 31
0.0
 44
0.9
  1
M5x.08 - 6H
 40
0.125
 41
2.2
  0
MTEXT
  5
26C
100
AcDbEntity
  8
0
100
AcDbMText
 62
2
  6
CONTINUOUS
  7
STANDARD
 71
2
 72
1
 10
1.5275
 20
-2.4065
 30
0.0
 11
1.0
 21
0.0
 31
0.0
 44
0.9
  1
Mounting Hole Depth
 40
0.125
 41
3.8
  0
MTEXT
  5
26D
100
AcDbEntity
  8
0
100
AcDbMText
 62
2
  6
CONTINUOUS
  7
STANDARD
 71
2
 72
1
 10
4.555
 20
-2.4065
 30
0.0
 11
1.0
 21
0.0
 31
0.0
 44
0.9
  1
.38 in.
 40
0.125
 41
1.4
  0
MTEXT
  5
26E
100
AcDbEntity
  8
0
100
AcDbMText
 62
2
  6
CONTINUOUS
  7
STANDARD
 71
2
 72
1
 10
7.555
 20
-2.4065
 30
0.0
 11
1.0
 21
0.0
 31
0.0
 44
0.9
  1
9,7 mm
 40
0.125
 41
1.2
  0
MTEXT
  5
26F
100
AcDbEntity
  8
0
100
AcDbMText
 62
2
  6
CONTINUOUS
  7
STANDARD
 71
2
 72
1
 10
1.5275
 20
-2.6565
 30
0.0
 11
1.0
 21
0.0
 31
0.0
 44
0.9
  1
Mounting Hole Quantity
 40
0.125
 41
4.4
  0
MTEXT
  5
270
100
AcDbEntity
  8
0
100
AcDbMText
 62
2
  6
CONTINUOUS
  7
STANDARD
 71
2
 72
1
 10
6.055
 20
-2.6565
 30
0.0
 11
1.0
 21
0.0
 31
0.0
 44
0.9
  1
4
 40
0.125
 41
0.2
  0
ENDBLK
  5
271
100
AcDbEntity
  8
0
  6
BYBLOCK
 62
0
100
AcDbBlockEnd
  0
BLOCK
  5
272
100
AcDbEntity
  8
0
100
AcDbBlockBegin
  2
*T3
 70
1
 10
0.0
 20
0.0
  3
*T3
  1

  0
LINE
  5
273
100
AcDbEntity
  8
0
100
AcDbLine
 62
2
  6
CONTINUOUS
 10
0.0
 20
0.0
 11
4.6
 21
0.0
  0
LINE
  5
274
100
AcDbEntity
  8
0
100
AcDbLine
 62
2
  6
CONTINUOUS
 10
0.0
 20
0.0
 11
0.0
 21
-1.18775
  0
LINE
  5
275
100
AcDbEntity
  8
0
100
AcDbLine
 62
2
  6
CONTINUOUS
 10
0.0
 20
-0.34375
 11
4.6
 21
-0.34375
  0
LINE
  5
276
100
AcDbEntity
  8
0
100
AcDbLine
 62
2
  6
CONTINUOUS
 10
0.0
 20
-0.68775
 11
4.6
 21
-0.68775
  0
LINE
  5
277
100
AcDbEntity
  8
0
100
AcDbLine
 62
2
  6
CONTINUOUS
 10
0.0
 20
-0.93775
 11
4.6
 21
-0.93775
  0
LINE
  5
278
100
AcDbEntity
  8
0
100
AcDbLine
 62
2
  6
CONTINUOUS
 10
0.0
 20
-1.18775
 11
4.6
 21
-1.18775
  0
LINE
  5
279
100
AcDbEntity
  8
0
100
AcDbLine
 62
2
  6
CONTINUOUS
 10
1.3
 20
-0.34375
 11
1.3
 21
-1.18775
  0
LINE
  5
27A
100
AcDbEntity
  8
0
100
AcDbLine
 62
2
  6
CONTINUOUS
 10
3.3
 20
-0.34375
 11
3.3
 21
-1.18775
  0
LINE
  5
27B
100
AcDbEntity
  8
0
100
AcDbLine
 62
2
  6
CONTINUOUS
 10
4.6
 20
0.0
 11
4.6
 21
-1.18775
  0
MTEXT
  5
27C
100
AcDbEntity
  8
0
100
AcDbMText
 62
2
  6
CONTINUOUS
  7
STANDARD
 71
2
 72
1
 10
2.3
 20
-0.099375
 30
0.0
 11
1.0
 21
0.0
 31
0.0
 44
0.9
  1
Port Headings
 40
0.145
 41
3.016
  0
MTEXT
  5
27D
100
AcDbEntity
  8
0
100
AcDbMText
 62
2
  6
CONTINUOUS
  7
STANDARD
 71
2
 72
1
 10
0.65
 20
-0.44325
 30
0.0
 11
1.0
 21
0.0
 31
0.0
 44
0.9
  1
Product
 40
0.145
 41
1.624
  0
MTEXT
  5
27E
100
AcDbEntity
  8
0
100
AcDbMText
 62
2
  6
CONTINUOUS
  7
STANDARD
 71
2
 72
1
 10
2.3
 20
-0.44325
 30
0.0
 11
1.0
 21
0.0
 31
0.0
 44
0.9
  1
Port
 40
0.145
 41
0.928
  0
MTEXT
  5
27F
100
AcDbEntity
  8
0
100
AcDbMText
 62
2
  6
CONTINUOUS
  7
STANDARD
 71
2
 72
1
 10
3.95
 20
-0.44325
 30
0.0
 11
1.0
 21
0.0
 31
0.0
 44
0.9
  1
Size
 40
0.145
 41
0.928
  0
MTEXT
  5
280
100
AcDbEntity
  8
0
100
AcDbMText
 62
2
  6
CONTINUOUS
  7
STANDARD
 71
2
 72
1
 10
0.65
 20
-0.75025
 30
0.0
 11
1.0
 21
0.0
 31
0.0
 44
0.9
  1
FSU
 40
0.125
 41
0.6
  0
MTEXT
  5
281
100
AcDbEntity
  8
0
100
AcDbMText
 62
2
  6
CONTINUOUS
  7
STANDARD
 71
2
 72
1
 10
2.3
 20
-0.75025
 30
0.0
 11
1.0
 21
0.0
 31
0.0
 44
0.9
  1
Ports A, B, P, T
 40
0.125
 41
3.2
  0
MTEXT
  5
282
100
AcDbEntity
  8
0
100
AcDbMText
 62
2
  6
CONTINUOUS
  7
STANDARD
 71
2
 72
1
 10
3.95
 20
-0.75025
 30
0.0
 11
1.0
 21
0.0
 31
0.0
 44
0.9
  1
3/8" BSPP
 40
0.125
 41
1.8
  0
MTEXT
  5
283
100
AcDbEntity
  8
0
100
AcDbMText
 62
2
  6
CONTINUOUS
  7
STANDARD
 71
2
 72
1
 10
0.65
 20
-1.00025
 30
0.0
 11
1.0
 21
0.0
 31
0.0
 44
0.9
  1
FSU
 40
0.125
 41
0.6
  0
MTEXT
  5
284
100
AcDbEntity
  8
0
100
AcDbMText
 62
2
  6
CONTINUOUS
  7
STANDARD
 71
2
 72
1
 10
2.3
 20
-1.00025
 30
0.0
 11
1.0
 21
0.0
 31
0.0
 44
0.9
  1
Gage Port
 40
0.125
 41
1.8
  0
MTEXT
  5
285
100
AcDbEntity
  8
0
100
AcDbMText
 62
2
  6
CONTINUOUS
  7
STANDARD
 71
2
 72
1
 10
3.95
 20
-1.00025
 30
0.0
 11
1.0
 21
0.0
 31
0.0
 44
0.9
  1
1/4" BSPP
 40
0.125
 41
1.8
  0
ENDBLK
  5
286
100
AcDbEntity
  8
0
  6
BYBLOCK
 62
0
100
AcDbBlockEnd
  0
ENDSEC
  0
SECTION
  2
ENTITIES
  0
IMAGE
  5
287
100
AcDbEntity
  8
0
100
AcDbRasterImage
 62
7
  6
CONTINUOUS
 10
19.2297077316
 20
0.3094318264
 30
0.0
 11
0.0066666667
 21
0.0
 31
0.0
 12
0.0
 22
0.0066666667
 32
0.0
 13
369.0
 23
92.0
340
       394
 70
9
280
0
281
50
282
50
283
0
360
       38E
 71
1
 91
2
 14
-0.5
 24
-0.5
 14
368.5
 24
91.5
  0
INSERT
  5
288
100
AcDbEntity
  8
0
100
AcDbBlockReference
 62
2
  6
CONTINUOUS
  2
SUN_FIRST_THIRD_ANGLE_BL0
 10
20.4816717061
 20
1.2289683772
  0
ACAD_TABLE
  5
289
100
AcDbEntity
  8
0
 62
2
  6
CONTINUOUS
100
AcDbBlockReference
  2
*T1
 10
12.42375
 20
0.30125
 30
0.0
100
AcDbTable
342
       396
343
207
 11
1.0
 21
0.0
 31
0.0
 90
6
 91
4
 92
6
 93
20
 94
0
 95
0
 96
0
 70
1
 41
0.0
141
0.525
141
0.1
141
0.525
141
0.1
142
4.1
142
1.1
142
0.7
142
0.5
142
0.4
142
2.475
171
1
172
0
173
0
174
0
175
1
176
1
 91
33
178
0
145
0.0
301
CELL_VALUE
 90
4
  1
T-10A Subplate ISO 03\PP to T, side ports
304
ACVALUE_END
170
2
140
0.125
171
1
172
0
173
0
174
0
175
1
176
1
 91
33
178
0
145
0.0
301
CELL_VALUE
 90
4
  1
Oct-04-23
304
ACVALUE_END
170
5
140
0.125
171
1
172
0
173
0
174
0
175
1
176
1
 91
33
178
0
145
0.0
301
CELL_VALUE
 90
4
  1
1.000
304
ACVALUE_END
170
5
140
0.125
171
1
172
0
173
0
174
0
175
1
176
1
 91
33
178
0
145
0.0
301
CELL_VALUE
 90
4
  1
C
304
ACVALUE_END
170
5
140
0.125
171
1
172
0
173
0
174
0
175
1
176
1
 91
33
178
0
145
0.0
301
CELL_VALUE
 90
4
  1
2
304
ACVALUE_END
170
5
140
0.125
171
1
172
0
173
0
174
0
175
1
176
1
 91
33
178
0
145
0.0
301
CELL_VALUE
 90
4
  1
 
304
ACVALUE_END
170
1
140
0.125
171
1
172
0
173
0
174
0
175
1
176
1
 91
33
178
0
145
0.0
301
CELL_VALUE
 90
4
  1
DESCRIPTION
304
ACVALUE_END
170
1
140
0.06
171
1
172
0
173
0
174
0
175
1
176
1
 91
33
178
0
145
0.0
301
CELL_VALUE
 90
4
  1
DATE
304
ACVALUE_END
170
1
140
0.06
171
1
172
0
173
0
174
0
175
1
176
1
 91
33
178
0
145
0.0
301
CELL_VALUE
 90
4
  1
SCALE
304
ACVALUE_END
170
1
140
0.06
171
1
172
0
173
0
174
0
175
1
176
1
 91
33
178
0
145
0.0
301
CELL_VALUE
 90
4
  1
DWG SIZE
304
ACVALUE_END
170
1
140
0.06
171
1
172
0
173
0
174
0
175
1
176
1
 91
33
178
0
145
0.0
301
CELL_VALUE
 90
4
  1
SHEET
304
ACVALUE_END
170
1
140
0.06
171
1
172
0
173
0
174
0
175
1
176
1
 91
33
178
0
145
0.0
301
CELL_VALUE
 90
4
  1
 
304
ACVALUE_END
170
1
140
0.125
171
1
172
0
173
0
174
0
175
1
176
1
 91
33
178
0
145
0.0
301
CELL_VALUE
 90
4
  1
FSU
304
ACVALUE_END
170
5
140
0.125
171
1
172
0
173
0
174
0
175
4
176
1
 91
33
178
0
145
0.0
301
CELL_VALUE
 90
4
  1
ALL DIMENSIONS IN INCH\PVIEWS ARE THIRD ANGLE
304
ACVALUE_END
170
5
140
0.12
171
1
172
0
173
1
174
0
175
1
176
1
 91
1
178
0
145
0.0
170
1
171
1
172
0
173
1
174
0
175
1
176
1
 91
1
178
0
145
0.0
170
1
171
1
172
0
173
1
174
0
175
1
176
1
 91
1
178
0
145
0.0
170
5
171
1
172
0
173
0
174
0
175
1
176
1
 91
33
178
0
145
0.0
301
CELL_VALUE
 90
4
  1
 
304
ACVALUE_END
170
1
140
0.125
171
1
172
0
173
0
174
0
175
1
176
1
 91
33
178
0
145
0.0
301
CELL_VALUE
 90
4
  1
MODEL
304
ACVALUE_END
170
1
140
0.06
171
1
172
0
173
0
174
0
175
1
176
1
 91
33
178
0
145
0.0
301
CELL_VALUE
 90
4
  1
 
304
ACVALUE_END
170
1
140
0.125
171
1
172
0
173
0
174
0
175
1
176
1
 91
33
178
0
145
0.0
301
CELL_VALUE
 90
4
  1
 
304
ACVALUE_END
170
1
140
0.125
171
1
172
0
173
0
174
0
175
1
176
1
 91
33
178
0
145
0.0
301
CELL_VALUE
 90
4
  1
 
304
ACVALUE_END
170
1
140
0.125
171
1
172
0
173
0
174
0
175
1
176
1
 91
33
178
0
145
0.0
301
CELL_VALUE
 90
4
  1
 
304
ACVALUE_END
170
1
140
0.125
171
1
172
0
173
0
174
0
175
1
176
1
 91
33
178
0
145
0.0
301
CELL_VALUE
 90
4
  1
 
304
ACVALUE_END
170
1
140
0.125
  0
ACAD_TABLE
  5
28A
100
AcDbEntity
  8
0
 62
2
  6
CONTINUOUS
100
AcDbBlockReference
  2
*T2
 10
12.4237499994
 20
16.47875
 30
0.0
100
AcDbTable
342
       395
343
208
 11
1.0
 21
0.0
 31
0.0
 90
22
 91
11
 92
3
 93
16
 94
0
 95
0
 96
0
 41
0.028
141
0.344
141
0.25
141
0.25
141
0.25
141
0.25
141
0.25
141
0.25
141
0.25
141
0.25
141
0.25
141
0.25
142
3.055
142
3.0
142
3.0
171
1
172
0
173
0
174
0
175
1
176
1
 91
33
178
0
145
0.0
301
CELL_VALUE
 90
4
  1
Technical Data
304
ACVALUE_END
170
5
140
0.145
171
1
172
0
173
0
174
0
175
1
176
1
 91
33
178
0
145
0.0
301
CELL_VALUE
 90
4
  1
U.S. Units
304
ACVALUE_END
170
5
140
0.145
171
1
172
0
173
0
174
0
175
1
176
1
 91
33
178
0
145
0.0
301
CELL_VALUE
 90
4
  1
Metric Units
304
ACVALUE_END
170
5
140
0.145
171
1
172
0
173
0
174
0
175
1
176
1
 91
33
178
0
145
0.0
301
CELL_VALUE
 90
4
  1
Cavity
304
ACVALUE_END
170
5
140
0.125
171
1
172
0
173
0
174
0
175
2
176
1
 91
33
178
0
145
0.0
301
CELL_VALUE
 90
4
  1
T-10A
304
ACVALUE_END
170
5
140
0.125
171
1
172
0
173
1
174
0
175
1
176
1
 91
1
178
0
145
0.0
170
1
171
1
172
0
173
0
174
0
175
1
176
1
 91
33
178
0
145
0.0
301
CELL_VALUE
 90
4
  1
Body Features
304
ACVALUE_END
170
5
140
0.125
171
1
172
0
173
0
174
0
175
2
176
1
 91
33
178
0
145
0.0
301
CELL_VALUE
 90
4
  1
P to T, side ports
304
ACVALUE_END
170
5
140
0.125
171
1
172
0
173
1
174
0
175
1
176
1
 91
1
178
0
145
0.0
170
1
171
1
172
0
173
0
174
0
175
1
176
1
 91
33
178
0
145
0.0
301
CELL_VALUE
 90
4
  1
Body Type
304
ACVALUE_END
170
5
140
0.125
171
1
172
0
173
0
174
0
175
2
176
1
 91
33
178
0
145
0.0
301
CELL_VALUE
 90
4
  1
Subplate
304
ACVALUE_END
170
5
140
0.125
171
1
172
0
173
1
174
0
175
1
176
1
 91
1
178
0
145
0.0
170
1
171
1
172
0
173
0
174
0
175
1
176
1
 91
33
178
0
145
0.0
301
CELL_VALUE
 90
4
  1
Interface
304
ACVALUE_END
170
5
140
0.125
171
1
172
0
173
0
174
0
175
2
176
1
 91
33
178
0
145
0.0
301
CELL_VALUE
 90
4
  1
ISO 03
304
ACVALUE_END
170
5
140
0.125
171
1
172
0
173
1
174
0
175
1
176
1
 91
1
178
0
145
0.0
170
1
171
1
172
0
173
0
174
0
175
1
176
1
 91
33
178
0
145
0.0
301
CELL_VALUE
 90
4
  1
Open Cavity Quantity
304
ACVALUE_END
170
5
140
0.125
171
1
172
0
173
0
174
0
175
2
176
1
 91
33
178
0
145
0.0
301
CELL_VALUE
 90
4
  1
1
304
ACVALUE_END
170
5
140
0.125
171
1
172
0
173
1
174
0
175
1
176
1
 91
1
178
0
145
0.0
170
1
171
1
172
0
173
0
174
0
175
1
176
1
 91
33
178
0
145
0.0
301
CELL_VALUE
 90
4
  1
Weight
304
ACVALUE_END
170
5
140
0.125
171
1
172
0
173
0
174
0
175
1
176
1
 91
33
178
0
145
0.0
301
CELL_VALUE
 90
4
  1
2.080 lb.
304
ACVALUE_END
170
5
140
0.125
171
1
172
0
173
0
174
0
175
1
176
1
 91
33
178
0
145
0.0
301
CELL_VALUE
 90
4
  1
0,944 kg.
304
ACVALUE_END
170
5
140
0.125
171
1
172
0
173
0
174
0
175
1
176
1
 91
33
178
0
145
0.0
301
CELL_VALUE
 90
4
  1
Mounting Hole Diameter
304
ACVALUE_END
170
5
140
0.125
171
1
172
0
173
0
174
0
175
1
176
1
 91
33
178
0
145
0.0
301
CELL_VALUE
 90
4
  1
.28 in.
304
ACVALUE_END
170
5
140
0.125
171
1
172
0
173
0
174
0
175
1
176
1
 91
33
178
0
145
0.0
301
CELL_VALUE
 90
4
  1
7,1 mm
304
ACVALUE_END
170
5
140
0.125
171
1
172
0
173
0
174
0
175
1
176
1
 91
33
178
0
145
0.0
301
CELL_VALUE
 90
4
  1
Mounting Hole Thread
304
ACVALUE_END
170
5
140
0.125
171
1
172
0
173
0
174
0
175
2
176
1
 91
33
178
0
145
0.0
301
CELL_VALUE
 90
4
  1
M5x.08 - 6H
304
ACVALUE_END
170
5
140
0.125
171
1
172
0
173
1
174
0
175
1
176
1
 91
1
178
0
145
0.0
170
1
171
1
172
0
173
0
174
0
175
1
176
1
 91
33
178
0
145
0.0
301
CELL_VALUE
 90
4
  1
Mounting Hole Depth
304
ACVALUE_END
170
5
140
0.125
171
1
172
0
173
0
174
0
175
1
176
1
 91
33
178
0
145
0.0
301
CELL_VALUE
 90
4
  1
.38 in.
304
ACVALUE_END
170
5
140
0.125
171
1
172
0
173
0
174
0
175
1
176
1
 91
33
178
0
145
0.0
301
CELL_VALUE
 90
4
  1
9,7 mm
304
ACVALUE_END
170
5
140
0.125
171
1
172
0
173
0
174
0
175
1
176
1
 91
33
178
0
145
0.0
301
CELL_VALUE
 90
4
  1
Mounting Hole Quantity
304
ACVALUE_END
170
5
140
0.125
171
1
172
0
173
0
174
0
175
2
176
1
 91
33
178
0
145
0.0
301
CELL_VALUE
 90
4
  1
4
304
ACVALUE_END
170
5
140
0.125
171
1
172
0
173
1
174
0
175
1
176
1
 91
1
178
0
145
0.0
170
1
  0
ACAD_TABLE
  5
28B
100
AcDbEntity
  8
0
 62
2
  6
CONTINUOUS
100
AcDbBlockReference
  2
*T3
 10
0.52125
 20
1.709
 30
0.0
100
AcDbTable
342
       395
343
209
 11
1.0
 21
0.0
 31
0.0
 90
22
 91
4
 92
3
 93
16
 94
0
 95
0
 96
0
 41
0.05
141
0.34375
141
0.344
141
0.25
141
0.25
142
1.3
142
2.0
142
1.3
171
1
172
0
173
0
174
0
175
3
176
1
 91
33
178
0
145
0.0
301
CELL_VALUE
 90
4
  1
Port Headings
304
ACVALUE_END
170
5
140
0.145
171
1
172
0
173
1
174
0
175
1
176
1
 91
1
178
0
145
0.0
170
1
171
1
172
0
173
1
174
0
175
1
176
1
 91
1
178
0
145
0.0
170
1
171
1
172
0
173
0
174
0
175
1
176
1
 91
33
178
0
145
0.0
301
CELL_VALUE
 90
4
  1
Product
304
ACVALUE_END
170
5
140
0.145
171
1
172
0
173
0
174
0
175
1
176
1
 91
33
178
0
145
0.0
301
CELL_VALUE
 90
4
  1
Port
304
ACVALUE_END
170
5
140
0.145
171
1
172
0
173
0
174
0
175
1
176
1
 91
33
178
0
145
0.0
301
CELL_VALUE
 90
4
  1
Size
304
ACVALUE_END
170
5
140
0.145
171
1
172
0
173
0
174
0
175
1
176
1
 91
33
178
0
145
0.0
301
CELL_VALUE
 90
4
  1
FSU
304
ACVALUE_END
170
5
140
0.125
171
1
172
0
173
0
174
0
175
1
176
1
 91
33
178
0
145
0.0
301
CELL_VALUE
 90
4
  1
Ports A, B, P, T
304
ACVALUE_END
170
5
140
0.125
171
1
172
0
173
0
174
0
175
1
176
1
 91
33
178
0
145
0.0
301
CELL_VALUE
 90
4
  1
3/8" BSPP
304
ACVALUE_END
170
5
140
0.125
171
1
172
0
173
0
174
0
175
1
176
1
 91
33
178
0
145
0.0
301
CELL_VALUE
 90
4
  1
FSU
304
ACVALUE_END
170
5
140
0.125
171
1
172
0
173
0
174
0
175
1
176
1
 91
33
178
0
145
0.0
301
CELL_VALUE
 90
4
  1
Gage Port
304
ACVALUE_END
170
5
140
0.125
171
1
172
0
173
0
174
0
175
1
176
1
 91
33
178
0
145
0.0
301
CELL_VALUE
 90
4
  1
1/4" BSPP
304
ACVALUE_END
170
5
140
0.125
  0
MTEXT
  5
28C
100
AcDbEntity
  8
0
100
AcDbMText
 62
2
  6
CONTINUOUS
  7
STANDARD
 71
1
 72
1
 10
0.52125
 20
5.75995
 30
0.0
 11
1.0
 21
0.0
 31
0.0
 44
0.6
  3
Notes\P \P1. Important: Carefully consider\P   the maximum system pressure. The\P   pressure rating of the manifold is\P   dependent on the manifold material,\P   with the port type/size a secondary\P   consideration. Manifolds\P   constructed of alu
  3
minum are not\P   rated for pressures higher than\P   3000 psi (210 bar), regardless of\P   the port type/size specified.\P2. This drawing is for reference\P   only. It is generated by an\P   automated process and does not fall\P   under Sun's docume
  1
nt control\P   process.
 40
0.1
 41
3.04
  0
LINE
  5
28D
100
AcDbEntity
  8
0
100
AcDbLine
 62
7
  6
CONTINUOUS
 10
0.30125
 20
0.30125
 11
0.30125
 21
16.69875
  0
LINE
  5
28E
100
AcDbEntity
  8
0
100
AcDbLine
 62
7
  6
CONTINUOUS
 10
0.30125
 20
0.30125
 11
21.69875
 21
0.30125
  0
LINE
  5
28F
100
AcDbEntity
  8
0
100
AcDbLine
 62
7
  6
CONTINUOUS
 10
0.30125
 20
16.69875
 11
21.69875
 21
16.69875
  0
LINE
  5
290
100
AcDbEntity
  8
0
100
AcDbLine
 62
7
  6
CONTINUOUS
 10
21.69875
 20
0.30125
 11
21.69875
 21
16.69875
  0
LINE
  5
291
100
AcDbEntity
  8
0
100
AcDbLine
 62
7
  6
CONTINUOUS
 10
9.0508108723
 20
10.0575980659
 11
9.5684485353
 21
10.5575976829
  0
LINE
  5
292
100
AcDbEntity
  8
0
100
AcDbLine
 62
7
  6
CONTINUOUS
 10
9.0508108723
 20
6.6768574735
 11
9.0508108723
 21
10.0575980659
  0
LINE
  5
293
100
AcDbEntity
  8
0
100
AcDbLine
 62
7
  6
CONTINUOUS
 10
12.4315514647
 20
6.4424023171
 11
11.4464644956
 21
6.5107183305
  0
LINE
  5
294
100
AcDbEntity
  8
0
100
AcDbLine
 62
7
  6
CONTINUOUS
 10
11.0018237249
 20
6.5415542727
 11
9.0508108723
 21
6.6768574735
  0
LINE
  5
295
100
AcDbEntity
  8
0
100
AcDbLine
 62
7
  6
CONTINUOUS
 10
11.4464644956
 20
6.5261731454
 11
11.0018237249
 21
6.5570090875
  0
LINE
  5
296
100
AcDbEntity
  8
0
100
AcDbLine
 62
4
  6
CONTINUOUS
 10
9.1961827119
 20
7.5167906823
 11
9.1599604921
 21
7.6352138052
  0
LINE
  5
297
100
AcDbEntity
  8
0
100
AcDbLine
 62
4
  6
CONTINUOUS
 10
9.1672049361
 20
9.0642817088
 11
9.1672049361
 21
9.0353039347
  0
LINE
  5
298
100
AcDbEntity
  8
0
100
AcDbLine
 62
4
  6
CONTINUOUS
 10
9.17444938
 20
9.0058237515
 11
9.17444938
 21
8.9768459756
  0
LINE
  5
299
100
AcDbEntity
  8
0
100
AcDbLine
 62
4
  6
CONTINUOUS
 10
9.2324049318
 20
8.9631674881
 11
9.2324049318
 21
9.0790785916
  0
LINE
  5
29A
100
AcDbEntity
  8
0
100
AcDbLine
 62
4
  6
CONTINUOUS
 10
9.181693824
 20
9.0825954188
 11
9.1672049361
 21
9.0642817088
  0
LINE
  5
29B
100
AcDbEntity
  8
0
100
AcDbLine
 62
4
  6
CONTINUOUS
 10
9.181693824
 20
9.0149806108
 11
9.17444938
 21
9.0058237515
  0
LINE
  5
29C
100
AcDbEntity
  8
0
100
AcDbLine
 62
4
  6
CONTINUOUS
 10
11.2178654952
 20
6.6231643148
 11
11.2033766072
 21
6.6241691226
  0
LINE
  5
29D
100
AcDbEntity
  8
0
100
AcDbLine
 62
4
  6
CONTINUOUS
 10
10.4089026821
 20
6.6792660764
 11
10.3726804622
 21
6.6817780959
  0
LINE
  5
29E
100
AcDbEntity
  8
0
100
AcDbLine
 62
4
  6
CONTINUOUS
 10
11.2106210512
 20
6.6816222704
 11
11.1816432754
 21
6.683631886
  0
LINE
  5
29F
100
AcDbEntity
  8
0
100
AcDbLine
 62
4
  6
CONTINUOUS
 10
10.3726804622
 20
6.7397336476
 11
10.4089026821
 21
6.7372216282
  0
LINE
  5
2A0
100
AcDbEntity
  8
0
100
AcDbLine
 62
4
  6
CONTINUOUS
 10
11.2033766072
 20
6.740080226
 11
11.2178654952
 21
6.7390754182
  0
LINE
  5
2A1
100
AcDbEntity
  8
0
100
AcDbLine
 62
4
  6
CONTINUOUS
 10
10.3726804622
 20
6.6817780959
 11
10.3581915743
 21
6.69244216
  0
LINE
  5
2A2
100
AcDbEntity
  8
0
100
AcDbLine
 62
4
  6
CONTINUOUS
 10
10.2595981444
 20
9.8970462242
 11
10.3037547536
 21
9.9160622593
  0
LINE
  5
2A3
100
AcDbEntity
  8
0
100
AcDbLine
 62
4
  6
CONTINUOUS
 10
10.3581915743
 20
6.69244216
 11
10.3509471303
 21
6.7026038271
  0
LINE
  5
2A4
100
AcDbEntity
  8
0
100
AcDbLine
 62
4
  6
CONTINUOUS
 10
9.2324049318
 20
7.6301897663
 11
9.1961827119
 21
7.5167906823
  0
LINE
  5
2A5
100
AcDbEntity
  8
0
100
AcDbLine
 62
4
  6
CONTINUOUS
 10
10.4334648034
 20
9.9181059891
 11
10.4500235249
 21
9.933516368
  0
LINE
  5
2A6
100
AcDbEntity
  8
0
100
AcDbLine
 62
4
  6
CONTINUOUS
 10
10.5245377995
 20
9.9117900554
 11
10.541096521
 21
9.9272004343
  0
LINE
  5
2A7
100
AcDbEntity
  8
0
100
AcDbLine
 62
4
  6
CONTINUOUS
 10
11.2033766072
 20
6.6241691226
 11
11.1888877193
 21
6.6348331867
  0
LINE
  5
2A8
100
AcDbEntity
  8
0
100
AcDbLine
 62
4
  6
CONTINUOUS
 10
10.5824933525
 20
9.8249771767
 11
10.565934631
 21
9.8095667995
  0
LINE
  5
2A9
100
AcDbEntity
  8
0
100
AcDbLine
 62
4
  6
CONTINUOUS
 10
10.679085904
 20
9.8182784605
 11
10.6625271825
 21
9.8028680833
  0
LINE
  5
2AA
100
AcDbEntity
  8
0
100
AcDbLine
 62
4
  6
CONTINUOUS
 10
11.1786076007
 20
9.8112343939
 11
11.2227642133
 21
9.8302504305
  0
LINE
  5
2AB
100
AcDbEntity
  8
0
100
AcDbLine
 62
4
  6
CONTINUOUS
 10
11.2178654952
 20
6.7390754182
 11
11.2323543831
 21
6.7284113515
  0
LINE
  5
2AC
100
AcDbEntity
  8
0
100
AcDbLine
 62
4
  6
CONTINUOUS
 10
9.17444938
 20
8.9768459756
 11
9.181693824
 21
8.9666843154
  0
LINE
  5
2AD
100
AcDbEntity
  8
0
100
AcDbLine
 62
4
  6
CONTINUOUS
 10
9.1672049361
 20
9.0353039347
 11
9.181693824
 21
9.0149806108
  0
LINE
  5
2AE
100
AcDbEntity
  8
0
100
AcDbLine
 62
4
  6
CONTINUOUS
 10
10.6418287952
 20
9.6652101941
 11
10.6252700599
 21
9.6497998161
  0
LINE
  5
2AF
100
AcDbEntity
  8
0
100
AcDbLine
 62
4
  6
CONTINUOUS
 10
10.7329018051
 20
9.6588942594
 11
10.7163430698
 21
9.6434838814
  0
LINE
  5
2B0
100
AcDbEntity
  8
0
100
AcDbLine
 62
4
  6
CONTINUOUS
 10
11.0985737465
 20
9.8719805272
 11
11.115132475
 21
9.8873909057
  0
LINE
  5
2B1
100
AcDbEntity
  8
0
100
AcDbLine
 62
4
  6
CONTINUOUS
 10
10.7742986228
 20
9.5566710028
 11
10.7577398943
 21
9.5412606261
  0
LINE
  5
2B2
100
AcDbEntity
  8
0
100
AcDbLine
 62
4
  6
CONTINUOUS
 10
9.2179160438
 20
7.5925575384
 11
9.17444938
 21
7.5955719618
  0
LINE
  5
2B3
100
AcDbEntity
  8
0
100
AcDbLine
 62
4
  6
CONTINUOUS
 10
11.1888877193
 20
6.6348331867
 11
11.1816432754
 21
6.6449948538
  0
LINE
  5
2B4
100
AcDbEntity
  8
0
100
AcDbLine
 62
4
  6
CONTINUOUS
 10
10.122988603
 20
9.3360718997
 11
10.122988603
 21
9.3650496762
  0
LINE
  5
2B5
100
AcDbEntity
  8
0
100
AcDbLine
 62
4
  6
CONTINUOUS
 10
10.1809441561
 20
9.3030748919
 11
10.1809441561
 21
9.3320526684
  0
LINE
  5
2B6
100
AcDbEntity
  8
0
100
AcDbLine
 62
4
  6
CONTINUOUS
 10
11.2323543831
 20
6.7284113515
 11
11.246843271
 21
6.7080880268
  0
LINE
  5
2B7
100
AcDbEntity
  8
0
100
AcDbLine
 62
4
  6
CONTINUOUS
 10
10.2775367444
 20
9.2963761732
 11
10.2775367444
 21
9.3543317262
  0
LINE
  5
2B8
100
AcDbEntity
  8
0
100
AcDbLine
 62
4
  6
CONTINUOUS
 10
10.3161737797
 20
9.3516522387
 11
10.3161737797
 21
9.2936966857
  0
LINE
  5
2B9
100
AcDbEntity
  8
0
100
AcDbLine
 62
4
  6
CONTINUOUS
 10
10.3509471303
 20
6.7026038271
 11
10.3509471303
 21
6.7219223398
  0
LINE
  5
2BA
100
AcDbEntity
  8
0
100
AcDbLine
 62
4
  6
CONTINUOUS
 10
10.3548108151
 20
9.3489727512
 11
10.3548108151
 21
9.2330616452
  0
LINE
  5
2BB
100
AcDbEntity
  8
0
100
AcDbLine
 62
4
  6
CONTINUOUS
 10
10.3865483612
 20
9.9379183856
 11
10.3865483612
 21
9.8220072796
  0
LINE
  5
2BC
100
AcDbEntity
  8
0
100
AcDbLine
 62
4
  6
CONTINUOUS
 10
10.3934478504
 20
9.3462932637
 11
10.3934478504
 21
9.2883377107
  0
LINE
  5
2BD
100
AcDbEntity
  8
0
100
AcDbLine
 62
4
  6
CONTINUOUS
 10
10.4089026821
 20
6.7951771799
 11
10.4089026821
 21
6.6792660764
  0
LINE
  5
2BE
100
AcDbEntity
  8
0
100
AcDbLine
 62
4
  6
CONTINUOUS
 10
10.4334648034
 20
9.8353123417
 11
10.4334648034
 21
9.9181059891
  0
LINE
  5
2BF
100
AcDbEntity
  8
0
100
AcDbLine
 62
4
  6
CONTINUOUS
 10
10.4514034034
 20
9.2843184794
 11
10.4514034034
 21
9.3422740324
  0
LINE
  5
2C0
100
AcDbEntity
  8
0
100
AcDbLine
 62
4
  6
CONTINUOUS
 10
10.4900404388
 20
9.2816389919
 11
10.4900404388
 21
9.3395945449
  0
LINE
  5
2C1
100
AcDbEntity
  8
0
100
AcDbLine
 62
4
  6
CONTINUOUS
 10
10.4914203564
 20
9.930645488
 11
10.4914203564
 21
9.814734382
  0
LINE
  5
2C2
100
AcDbEntity
  8
0
100
AcDbLine
 62
4
  6
CONTINUOUS
 10
10.5245377995
 20
9.828996408
 11
10.5245377995
 21
9.9117900554
  0
LINE
  5
2C3
100
AcDbEntity
  8
0
100
AcDbLine
 62
4
  6
CONTINUOUS
 10
10.5479959918
 20
9.3355753137
 11
10.5479959918
 21
9.2969382783
  0
LINE
  5
2C4
100
AcDbEntity
  8
0
100
AcDbLine
 62
4
  6
CONTINUOUS
 10
10.5824933525
 20
9.9077708241
 11
10.5824933525
 21
9.8249771767
  0
LINE
  5
2C5
100
AcDbEntity
  8
0
100
AcDbLine
 62
4
  6
CONTINUOUS
 10
10.6252700599
 20
9.6497998161
 11
10.6252700599
 21
9.5504474403
  0
LINE
  5
2C6
100
AcDbEntity
  8
0
100
AcDbLine
 62
4
  6
CONTINUOUS
 10
10.6445885801
 20
9.2709210419
 11
10.6445885801
 21
9.3288765949
  0
LINE
  5
2C7
100
AcDbEntity
  8
0
100
AcDbLine
 62
4
  6
CONTINUOUS
 10
10.679085904
 20
9.9010721079
 11
10.679085904
 21
9.8182784605
  0
LINE
  5
2C8
100
AcDbEntity
  8
0
100
AcDbLine
 62
4
  6
CONTINUOUS
 10
10.6832256155
 20
9.2102860014
 11
10.6832256155
 21
9.3261971074
  0
LINE
  5
2C9
100
AcDbEntity
  8
0
100
AcDbLine
 62
4
  6
CONTINUOUS
 10
10.6832256129
 20
9.546428209
 11
10.6832256129
 21
9.6457805849
  0
LINE
  5
2CA
100
AcDbEntity
  8
0
100
AcDbLine
 62
4
  6
CONTINUOUS
 10
10.7163430698
 20
9.6434838814
 11
10.7163430698
 21
9.6269251513
  0
LINE
  5
2CB
100
AcDbEntity
  8
0
100
AcDbLine
 62
4
  6
CONTINUOUS
 10
10.7411811685
 20
9.3221778762
 11
10.7411811685
 21
9.2642223231
  0
LINE
  5
2CC
100
AcDbEntity
  8
0
100
AcDbLine
 62
4
  6
CONTINUOUS
 10
10.7742986228
 20
9.5732297312
 11
10.7742986228
 21
9.5566710028
  0
LINE
  5
2CD
100
AcDbEntity
  8
0
100
AcDbLine
 62
4
  6
CONTINUOUS
 10
10.7798182038
 20
9.2615428356
 11
10.7798182038
 21
9.3774539417
  0
LINE
  5
2CE
100
AcDbEntity
  8
0
100
AcDbLine
 62
4
  6
CONTINUOUS
 10
11.0516573458
 20
9.8917929208
 11
11.0185398889
 21
9.7781785183
  0
LINE
  5
2CF
100
AcDbEntity
  8
0
100
AcDbLine
 62
4
  6
CONTINUOUS
 10
11.246843271
 20
6.7080880268
 11
11.254087715
 21
6.678607847
  0
LINE
  5
2D0
100
AcDbEntity
  8
0
100
AcDbLine
 62
4
  6
CONTINUOUS
 10
10.8377737568
 20
9.3154791574
 11
10.8377737568
 21
9.2575236044
  0
LINE
  5
2D1
100
AcDbEntity
  8
0
100
AcDbLine
 62
4
  6
CONTINUOUS
 10
10.8529525907
 20
9.9055731424
 11
10.8529525907
 21
9.7896620364
  0
LINE
  5
2D2
100
AcDbEntity
  8
0
100
AcDbLine
 62
4
  6
CONTINUOUS
 10
10.8570922719
 20
9.6502816213
 11
10.8570922719
 21
9.5343705153
  0
LINE
  5
2D3
100
AcDbEntity
  8
0
100
AcDbLine
 62
4
  6
CONTINUOUS
 10
10.8851041251
 20
9.3121967852
 11
10.8851041251
 21
9.2542412322
  0
LINE
  5
2D4
100
AcDbEntity
  8
0
100
AcDbLine
 62
4
  6
CONTINUOUS
 10
10.9191875045
 20
9.9009797355
 11
10.9191875045
 21
9.7850686295
  0
LINE
  5
2D5
100
AcDbEntity
  8
0
100
AcDbLine
 62
4
  6
CONTINUOUS
 10
10.9430596782
 20
9.308177554
 11
10.9430596782
 21
9.1922664479
  0
LINE
  5
2D6
100
AcDbEntity
  8
0
100
AcDbLine
 62
7
  6
CONTINUOUS
 10
11.0018237249
 20
6.5415542727
 11
11.0018237249
 21
6.5570090875
  0
LINE
  5
2D7
100
AcDbEntity
  8
0
100
AcDbLine
 62
4
  6
CONTINUOUS
 10
11.0589707842
 20
9.1842279854
 11
11.0589707842
 21
9.3001390915
  0
LINE
  5
2D8
100
AcDbEntity
  8
0
100
AcDbLine
 62
4
  6
CONTINUOUS
 10
11.0985737465
 20
9.7891868798
 11
11.0985737465
 21
9.8719805272
  0
LINE
  5
2D9
100
AcDbEntity
  8
0
100
AcDbLine
 62
4
  6
CONTINUOUS
 10
11.1169263372
 20
9.1802087542
 11
11.1169263372
 21
9.2961198602
  0
LINE
  5
2DA
100
AcDbEntity
  8
0
100
AcDbLine
 62
4
  6
CONTINUOUS
 10
11.1459041137
 20
9.1781991386
 11
11.1459041137
 21
9.2941102446
  0
LINE
  5
2DB
100
AcDbEntity
  8
0
100
AcDbLine
 62
4
  6
CONTINUOUS
 10
11.1565292927
 20
9.8845200266
 11
11.1565292927
 21
9.7686089206
  0
LINE
  5
2DC
100
AcDbEntity
  8
0
100
AcDbLine
 62
4
  6
CONTINUOUS
 10
11.1816432754
 20
6.683631886
 11
11.1816432754
 21
6.7222689199
  0
LINE
  5
2DD
100
AcDbEntity
  8
0
100
AcDbLine
 62
4
  6
CONTINUOUS
 10
11.2038596667
 20
9.2900910133
 11
11.2038596667
 21
9.1741799073
  0
LINE
  5
2DE
100
AcDbEntity
  8
0
100
AcDbLine
 62
7
  6
CONTINUOUS
 10
12.4315514647
 20
9.8231429095
 11
12.9491891277
 21
10.3231425265
  0
LINE
  5
2DF
100
AcDbEntity
  8
0
100
AcDbLine
 62
4
  6
CONTINUOUS
 10
11.2328374432
 20
9.2301258447
 11
11.2328374432
 21
9.2880813977
  0
LINE
  5
2E0
100
AcDbEntity
  8
0
100
AcDbLine
 62
4
  6
CONTINUOUS
 10
11.2907929962
 20
9.1681510604
 11
11.2907929962
 21
9.2261066134
  0
LINE
  5
2E1
100
AcDbEntity
  8
0
100
AcDbLine
 62
4
  6
CONTINUOUS
 10
9.181693824
 20
8.9666843154
 11
9.2324049318
 21
8.9631674881
  0
LINE
  5
2E2
100
AcDbEntity
  8
0
100
AcDbLine
 62
4
  6
CONTINUOUS
 10
9.2324049318
 20
9.0114637835
 11
9.181693824
 21
9.0149806108
  0
LINE
  5
2E3
100
AcDbEntity
  8
0
100
AcDbLine
 62
4
  6
CONTINUOUS
 10
11.0185398889
 20
9.7781785183
 11
10.9854224182
 21
9.8963863287
  0
LINE
  5
2E4
100
AcDbEntity
  8
0
100
AcDbLine
 62
7
  6
CONTINUOUS
 10
11.4464644956
 20
6.5107183305
 11
11.4464644956
 21
6.5261731454
  0
LINE
  5
2E5
100
AcDbEntity
  8
0
100
AcDbLine
 62
4
  6
CONTINUOUS
 10
11.5202004916
 20
9.6738417145
 11
11.5202004916
 21
9.7897528179
  0
LINE
  5
2E6
100
AcDbEntity
  8
0
100
AcDbLine
 62
4
  6
CONTINUOUS
 10
9.2324049318
 20
9.0790785916
 11
9.181693824
 21
9.0825954188
  0
LINE
  5
2E7
100
AcDbEntity
  8
0
100
AcDbLine
 62
4
  6
CONTINUOUS
 10
10.4500235249
 20
9.817605262
 11
10.4334648034
 21
9.8353123417
  0
LINE
  5
2E8
100
AcDbEntity
  8
0
100
AcDbLine
 62
4
  6
CONTINUOUS
 10
10.7246224306
 20
9.54355733
 11
10.7163430698
 21
9.5524108733
  0
LINE
  5
2E9
100
AcDbEntity
  8
0
100
AcDbLine
 62
4
  6
CONTINUOUS
 10
10.6832256129
 20
9.6457805849
 11
10.6666668775
 21
9.6634876673
  0
LINE
  5
2EA
100
AcDbEntity
  8
0
100
AcDbLine
 62
4
  6
CONTINUOUS
 10
10.541096521
 20
9.8112893283
 11
10.5245377995
 21
9.828996408
  0
LINE
  5
2EB
100
AcDbEntity
  8
0
100
AcDbLine
 62
4
  6
CONTINUOUS
 10
11.254087715
 20
6.678607847
 11
11.246843271
 21
6.6501324751
  0
LINE
  5
2EC
100
AcDbEntity
  8
0
100
AcDbLine
 62
4
  6
CONTINUOUS
 10
10.3509471303
 20
6.7219223398
 11
10.3581915743
 21
6.7310791991
  0
LINE
  5
2ED
100
AcDbEntity
  8
0
100
AcDbLine
 62
4
  6
CONTINUOUS
 10
11.1169263372
 20
9.1802087542
 11
11.0589707842
 21
9.1842279854
  0
LINE
  5
2EE
100
AcDbEntity
  8
0
100
AcDbLine
 62
4
  6
CONTINUOUS
 10
11.2328374432
 20
9.1721702917
 11
11.2907929962
 21
9.1681510604
  0
LINE
  5
2EF
100
AcDbEntity
  8
0
100
AcDbLine
 62
4
  6
CONTINUOUS
 10
10.3234182239
 20
9.2642165053
 11
10.3089293356
 21
9.2652213131
  0
LINE
  5
2F0
100
AcDbEntity
  8
0
100
AcDbLine
 62
4
  6
CONTINUOUS
 10
11.2907929962
 20
9.2261066134
 11
11.2328374432
 21
9.2301258447
  0
LINE
  5
2F1
100
AcDbEntity
  8
0
100
AcDbLine
 62
4
  6
CONTINUOUS
 10
10.7411811685
 20
9.2642223231
 11
10.6832256155
 21
9.2682415544
  0
LINE
  5
2F2
100
AcDbEntity
  8
0
100
AcDbLine
 62
4
  6
CONTINUOUS
 10
10.6445885801
 20
9.2709210419
 11
10.5866330271
 21
9.2749402732
  0
LINE
  5
2F3
100
AcDbEntity
  8
0
100
AcDbLine
 62
4
  6
CONTINUOUS
 10
10.2775367444
 20
9.2963761732
 11
10.2195811914
 21
9.3003954044
  0
LINE
  5
2F4
100
AcDbEntity
  8
0
100
AcDbLine
 62
4
  6
CONTINUOUS
 10
10.1809441561
 20
9.3030748919
 11
10.122988603
 21
9.3070941232
  0
LINE
  5
2F5
100
AcDbEntity
  8
0
100
AcDbLine
 62
4
  6
CONTINUOUS
 10
10.4900404388
 20
9.2816389919
 11
10.5286774741
 21
9.2789595044
  0
LINE
  5
2F6
100
AcDbEntity
  8
0
100
AcDbLine
 62
4
  6
CONTINUOUS
 10
10.8851041251
 20
9.2542412322
 11
10.9430596782
 21
9.2502220009
  0
LINE
  5
2F7
100
AcDbEntity
  8
0
100
AcDbLine
 62
4
  6
CONTINUOUS
 10
10.5479959918
 20
9.2969382783
 11
10.4900404388
 21
9.3009575096
  0
LINE
  5
2F8
100
AcDbEntity
  8
0
100
AcDbLine
 62
4
  6
CONTINUOUS
 10
10.1809441561
 20
9.3320526684
 11
10.122988603
 21
9.3360718997
  0
LINE
  5
2F9
100
AcDbEntity
  8
0
100
AcDbLine
 62
4
  6
CONTINUOUS
 10
10.7163430698
 20
9.6269251513
 11
10.7742986228
 21
9.5732297312
  0
LINE
  5
2FA
100
AcDbEntity
  8
0
100
AcDbLine
 62
4
  6
CONTINUOUS
 10
10.7742986228
 20
9.6477440153
 11
10.766019262
 21
9.656597556
  0
LINE
  5
2FB
100
AcDbEntity
  8
0
100
AcDbLine
 62
4
  6
CONTINUOUS
 10
10.565934631
 20
9.9254779055
 11
10.5824933525
 21
9.9077708241
  0
LINE
  5
2FC
100
AcDbEntity
  8
0
100
AcDbLine
 62
4
  6
CONTINUOUS
 10
10.6625271825
 20
9.9187791893
 11
10.679085904
 21
9.9010721079
  0
LINE
  5
2FD
100
AcDbEntity
  8
0
100
AcDbLine
 62
4
  6
CONTINUOUS
 10
10.4514034034
 20
9.3422740324
 11
10.3934478504
 21
9.3462932637
  0
LINE
  5
2FE
100
AcDbEntity
  8
0
100
AcDbLine
 62
4
  6
CONTINUOUS
 10
10.2775367444
 20
9.3543317262
 11
10.2195811914
 21
9.3583509574
  0
LINE
  5
2FF
100
AcDbEntity
  8
0
100
AcDbLine
 62
4
  6
CONTINUOUS
 10
10.122988603
 20
9.3650496762
 11
10.1809441561
 21
9.3610304449
  0
LINE
  5
300
100
AcDbEntity
  8
0
100
AcDbLine
 62
4
  6
CONTINUOUS
 10
10.4900404388
 20
9.3395945449
 11
10.5479959918
 21
9.3355753137
  0
LINE
  5
301
100
AcDbEntity
  8
0
100
AcDbLine
 62
4
  6
CONTINUOUS
 10
10.6832256155
 20
9.3261971074
 11
10.7411811685
 21
9.3221778762
  0
LINE
  5
302
100
AcDbEntity
  8
0
100
AcDbLine
 62
4
  6
CONTINUOUS
 10
10.7798182038
 20
9.3194983887
 11
10.8377737568
 21
9.3154791574
  0
LINE
  5
303
100
AcDbEntity
  8
0
100
AcDbLine
 62
4
  6
CONTINUOUS
 10
11.1459041137
 20
9.2941102446
 11
11.2038596667
 21
9.2900910133
  0
LINE
  5
304
100
AcDbEntity
  8
0
100
AcDbLine
 62
4
  6
CONTINUOUS
 10
11.2328374432
 20
9.2880813977
 11
11.2907929962
 21
9.2840621664
  0
LINE
  5
305
100
AcDbEntity
  8
0
100
AcDbLine
 62
4
  6
CONTINUOUS
 10
10.7798182038
 20
9.3774539417
 11
10.8184552392
 21
9.3747744542
  0
LINE
  5
306
100
AcDbEntity
  8
0
100
AcDbLine
 62
4
  6
CONTINUOUS
 10
10.3037547536
 20
9.8719056449
 11
10.2595981444
 21
9.8970462242
  0
LINE
  5
307
100
AcDbEntity
  8
0
100
AcDbLine
 62
4
  6
CONTINUOUS
 10
11.115132475
 20
9.7714797997
 11
11.0985737465
 21
9.7891868798
  0
LINE
  5
308
100
AcDbEntity
  8
0
100
AcDbLine
 62
4
  6
CONTINUOUS
 10
10.8570922719
 20
9.5343705153
 11
10.8074160831
 21
9.5378155707
  0
LINE
  5
309
100
AcDbEntity
  8
0
100
AcDbLine
 62
4
  6
CONTINUOUS
 10
10.7577398943
 20
9.5412606261
 11
10.7246224306
 21
9.54355733
  0
LINE
  5
30A
100
AcDbEntity
  8
0
100
AcDbLine
 62
4
  6
CONTINUOUS
 10
10.8074160831
 20
9.587491756
 11
10.8570922719
 21
9.5840467006
  0
LINE
  5
30B
100
AcDbEntity
  8
0
100
AcDbLine
 62
4
  6
CONTINUOUS
 10
10.766019262
 20
9.656597556
 11
10.7329018051
 21
9.6588942594
  0
LINE
  5
30C
100
AcDbEntity
  8
0
100
AcDbLine
 62
4
  6
CONTINUOUS
 10
10.6666668775
 20
9.6634876673
 11
10.6418287952
 21
9.6652101941
  0
LINE
  5
30D
100
AcDbEntity
  8
0
100
AcDbLine
 62
4
  6
CONTINUOUS
 10
11.1816432754
 20
6.7222689199
 11
11.1888877193
 21
6.7314257749
  0
LINE
  5
30E
100
AcDbEntity
  8
0
100
AcDbLine
 62
4
  6
CONTINUOUS
 10
11.246843271
 20
6.6501324751
 11
11.2323543831
 21
6.6318187633
  0
LINE
  5
30F
100
AcDbEntity
  8
0
100
AcDbLine
 62
4
  6
CONTINUOUS
 10
10.3581915743
 20
6.7310791991
 11
10.3726804622
 21
6.7397336476
  0
LINE
  5
310
100
AcDbEntity
  8
0
100
AcDbLine
 62
4
  6
CONTINUOUS
 10
11.5564227114
 20
9.671329695
 11
11.4839782717
 21
9.6763537339
  0
LINE
  5
311
100
AcDbEntity
  8
0
100
AcDbLine
 62
4
  6
CONTINUOUS
 10
11.1565292927
 20
9.7686089206
 11
11.115132475
 21
9.7714797997
  0
LINE
  5
312
100
AcDbEntity
  8
0
100
AcDbLine
 62
4
  6
CONTINUOUS
 10
10.9523049752
 20
9.7827719251
 11
10.8860700614
 21
9.787365332
  0
LINE
  5
313
100
AcDbEntity
  8
0
100
AcDbLine
 62
4
  6
CONTINUOUS
 10
10.8529525907
 20
9.7896620364
 11
10.8032763984
 21
9.793107092
  0
LINE
  5
314
100
AcDbEntity
  8
0
100
AcDbLine
 62
4
  6
CONTINUOUS
 10
10.6625271825
 20
9.8028680833
 11
10.6294097394
 21
9.8051647858
  0
LINE
  5
315
100
AcDbEntity
  8
0
100
AcDbLine
 62
4
  6
CONTINUOUS
 10
10.565934631
 20
9.8095667995
 11
10.541096521
 21
9.8112893283
  0
LINE
  5
316
100
AcDbEntity
  8
0
100
AcDbLine
 62
4
  6
CONTINUOUS
 10
10.4914203564
 20
9.814734382
 11
10.4500235249
 21
9.817605262
  0
LINE
  5
317
100
AcDbEntity
  8
0
100
AcDbLine
 62
4
  6
CONTINUOUS
 10
10.3865483612
 20
9.8220072796
 11
10.3368721966
 21
9.8254523333
  0
LINE
  5
318
100
AcDbEntity
  8
0
100
AcDbLine
 62
4
  6
CONTINUOUS
 10
10.3534309182
 20
9.8739801674
 11
10.3865483612
 21
9.8716834649
  0
LINE
  5
319
100
AcDbEntity
  8
0
100
AcDbLine
 62
4
  6
CONTINUOUS
 10
10.81983512
 20
9.8416349261
 11
10.8529525907
 21
9.8393382217
  0
LINE
  5
31A
100
AcDbEntity
  8
0
100
AcDbLine
 62
4
  6
CONTINUOUS
 10
11.2227642133
 20
9.8302504305
 11
11.1786076007
 21
9.8553910083
  0
LINE
  5
31B
100
AcDbEntity
  8
0
100
AcDbLine
 62
7
  6
CONTINUOUS
 10
12.4315514647
 20
9.8231429095
 11
12.4315514647
 21
6.4424023171
  0
LINE
  5
31C
100
AcDbEntity
  8
0
100
AcDbLine
 62
4
  6
CONTINUOUS
 10
11.0406181935
 20
9.8594410283
 11
10.9964615844
 21
9.8625032996
  0
LINE
  5
31D
100
AcDbEntity
  8
0
100
AcDbLine
 62
4
  6
CONTINUOUS
 10
10.8529525907
 20
9.9055731424
 11
10.8032763984
 21
9.9090181981
  0
LINE
  5
31E
100
AcDbEntity
  8
0
100
AcDbLine
 62
4
  6
CONTINUOUS
 10
10.3865483612
 20
9.9379183856
 11
10.3368721966
 21
9.9413634393
  0
LINE
  5
31F
100
AcDbEntity
  8
0
100
AcDbLine
 62
4
  6
CONTINUOUS
 10
10.4500235249
 20
9.933516368
 11
10.4914203564
 21
9.930645488
  0
LINE
  5
320
100
AcDbEntity
  8
0
100
AcDbLine
 62
4
  6
CONTINUOUS
 10
10.541096521
 20
9.9272004343
 11
10.565934631
 21
9.9254779055
  0
LINE
  5
321
100
AcDbEntity
  8
0
100
AcDbLine
 62
4
  6
CONTINUOUS
 10
10.6294097394
 20
9.9210758918
 11
10.6625271825
 21
9.9187791893
  0
LINE
  5
322
100
AcDbEntity
  8
0
100
AcDbLine
 62
4
  6
CONTINUOUS
 10
11.115132475
 20
9.8873909057
 11
11.1565292927
 21
9.8845200266
  0
LINE
  5
323
100
AcDbEntity
  8
0
100
AcDbLine
 62
7
  6
CONTINUOUS
 10
9.0508108723
 20
10.0575980659
 11
12.4315514647
 21
9.8231429095
  0
LINE
  5
324
100
AcDbEntity
  8
0
100
AcDbLine
 62
4
  6
CONTINUOUS
 10
11.1888877193
 20
6.7314257749
 11
11.2033766072
 21
6.740080226
  0
LINE
  5
325
100
AcDbEntity
  8
0
100
AcDbLine
 62
4
  6
CONTINUOUS
 10
11.2323543831
 20
6.6318187633
 11
11.2178654952
 21
6.6231643148
  0
LINE
  5
326
100
AcDbEntity
  8
0
100
AcDbLine
 62
7
  6
CONTINUOUS
 10
12.9491891277
 20
10.3231425265
 11
12.9491891277
 21
6.9424019341
  0
LINE
  5
327
100
AcDbEntity
  8
0
100
AcDbLine
 62
7
  6
CONTINUOUS
 10
9.5684485353
 20
10.5575976829
 11
12.9491891277
 21
10.3231425265
  0
LINE
  5
328
100
AcDbEntity
  8
0
100
AcDbLine
 62
7
  6
CONTINUOUS
 10
12.4315514647
 20
6.4424023171
 11
12.9491891277
 21
6.9424019341
  0
ARC
  5
329
100
AcDbEntity
  8
0
100
AcDbCircle
 62
7
  6
CONTINUOUS
 10
10.8998840847
 20
8.0437146499
 40
0.1347052891
100
AcDbArc
 50
248.6390477131
 51
261.324305314
  0
ARC
  5
32A
100
AcDbEntity
  8
0
100
AcDbCircle
 62
7
  6
CONTINUOUS
 10
10.8959351772
 20
8.0406207271
 40
0.1304094323
100
AcDbArc
 50
223.9125124965
 51
249.7597666007
  0
ARC
  5
32B
100
AcDbEntity
  8
0
100
AcDbCircle
 62
7
  6
CONTINUOUS
 10
10.8947040584
 20
8.0393177123
 40
0.1286169696
100
AcDbArc
 50
218.5888154194
 51
223.8747193564
  0
ARC
  5
32C
100
AcDbEntity
  8
0
100
AcDbCircle
 62
7
  6
CONTINUOUS
 10
10.8932638501
 20
8.0351765991
 40
0.1238305071
100
AcDbArc
 50
217.9882854481
 51
222.968653505
  0
SPLINE
  5
32D
100
AcDbEntity
  8
0
100
AcDbSpline
 62
7
  6
CONTINUOUS
 70
0
 71
3
 72
41
 73
37
 74
0
 42
0.0000001
 43
0.0000001
 44
0.0000000001
 40
0.0
 40
0.0
 40
0.0
 40
0.0
 40
0.0311444983
 40
0.062442467
 40
0.093887251
 40
0.1254695609
 40
0.157177086
 40
0.1889950997
 40
0.2209066479
 40
0.2528929497
 40
0.284933762
 40
0.3170077852
 40
0.3490930781
 40
0.3811674822
 40
0.4132090489
 40
0.445196464
 40
0.4771094635
 40
0.5089292351
 40
0.540638799
 40
0.5722233621
 40
0.6036706378
 40
0.6349711269
 40
0.6661183495
 40
0.6971090237
 40
0.7279431823
 40
0.7586242225
 40
0.7891588828
 40
0.8195571428
 40
0.8498320452
 40
0.86493089
 40
0.8800050502
 40
0.9100832578
 40
0.9400926753
 40
0.9550812784
 40
0.9700610371
 40
1.0
 40
1.0
 40
1.0
 40
1.0
 10
9.3714982535
 20
7.1110176959
 30
0.0
 10
9.374812201
 20
7.1107878728
 30
0.0
 10
9.381442069
 20
7.1100845201
 30
0.0
 10
9.3913064859
 20
7.108312789
 30
0.0
 10
9.4010652604
 20
7.1058310858
 30
0.0
 10
9.410665654
 20
7.1026528107
 30
0.0
 10
9.4200566887
 20
7.0987949643
 30
0.0
 10
9.4291882637
 20
7.0942781985
 30
0.0
 10
9.4380117349
 20
7.0891266445
 30
0.0
 10
9.446480086
 20
7.0833678102
 30
0.0
 10
9.4545481977
 20
7.0770324237
 30
0.0
 10
9.4621730801
 20
7.0701542744
 30
0.0
 10
9.4693141002
 20
7.0627700326
 30
0.0
 10
9.4759331962
 20
7.0549190569
 30
0.0
 10
9.4819950783
 20
7.0466431858
 30
0.0
 10
9.4874674148
 20
7.0379865172
 30
0.0
 10
9.4923210039
 20
7.0289951762
 30
0.0
 10
9.4965299275
 20
7.019717072
 30
0.0
 10
9.5000716898
 20
7.0102016456
 30
0.0
 10
9.5029273366
 20
7.0004996103
 30
0.0
 10
9.5050815575
 20
6.9906626844
 30
0.0
 10
9.5065227694
 20
6.9807433198
 30
0.0
 10
9.5072431798
 20
6.9707944251
 30
0.0
 10
9.507238834
 20
6.9608690896
 30
0.0
 10
9.5065096345
 20
6.9510202931
 30
0.0
 10
9.5050593672
 20
6.9413006629
 30
0.0
 10
9.5028956146
 20
6.9317620526
 30
0.0
 10
9.5000299906
 20
6.92245579
 30
0.0
 10
9.4970664406
 20
6.9149275671
 30
0.0
 10
9.4943620573
 20
6.9090732006
 30
0.0
 10
9.4914434852
 20
6.9033461341
 30
0.0
 10
9.4873912259
 20
6.8964189371
 30
0.0
 10
9.4828177655
 20
6.8898352575
 30
0.0
 10
9.4788656277
 20
6.8848028484
 30
0.0
 10
9.4747249472
 20
6.8799347036
 30
0.0
 10
9.4714075509
 20
6.8764689829
 30
0.0
 10
9.469110746
 20
6.8742504245
 30
0.0
  0
SPLINE
  5
32E
100
AcDbEntity
  8
0
100
AcDbSpline
 62
7
  6
CONTINUOUS
 70
0
 71
3
 72
41
 73
37
 74
0
 42
0.0000001
 43
0.0000001
 44
0.0000000001
 40
0.0
 40
0.0
 40
0.0
 40
0.0
 40
0.0311444983
 40
0.062442467
 40
0.093887251
 40
0.1254695609
 40
0.157177086
 40
0.1889950997
 40
0.2209066479
 40
0.2528929497
 40
0.284933762
 40
0.3170077852
 40
0.3490930781
 40
0.3811674822
 40
0.4132090489
 40
0.445196464
 40
0.4771094635
 40
0.5089292351
 40
0.540638799
 40
0.5722233621
 40
0.6036706378
 40
0.6349711269
 40
0.6661183495
 40
0.6971090237
 40
0.7279431823
 40
0.7586242225
 40
0.7891588828
 40
0.8195571428
 40
0.8498320452
 40
0.86493089
 40
0.8800050502
 40
0.9100832578
 40
0.9400926753
 40
0.9550812784
 40
0.9700610371
 40
1.0
 40
1.0
 40
1.0
 40
1.0
 10
12.1108640547
 20
6.9210420323
 30
0.0
 10
12.1141780023
 20
6.9208122093
 30
0.0
 10
12.1208078703
 20
6.9201088565
 30
0.0
 10
12.1306722872
 20
6.9183371255
 30
0.0
 10
12.1404310617
 20
6.9158554222
 30
0.0
 10
12.1500314553
 20
6.9126771472
 30
0.0
 10
12.15942249
 20
6.9088193008
 30
0.0
 10
12.168554065
 20
6.904302535
 30
0.0
 10
12.1773775362
 20
6.8991509809
 30
0.0
 10
12.1858458873
 20
6.8933921467
 30
0.0
 10
12.193913999
 20
6.8870567602
 30
0.0
 10
12.2015388814
 20
6.8801786108
 30
0.0
 10
12.2086799015
 20
6.872794369
 30
0.0
 10
12.2152989975
 20
6.8649433933
 30
0.0
 10
12.2213608796
 20
6.8566675222
 30
0.0
 10
12.2268332161
 20
6.8480108536
 30
0.0
 10
12.2316868052
 20
6.8390195126
 30
0.0
 10
12.2358957288
 20
6.8297414084
 30
0.0
 10
12.2394374911
 20
6.8202259821
 30
0.0
 10
12.2422931379
 20
6.8105239468
 30
0.0
 10
12.2444473588
 20
6.8006870209
 30
0.0
 10
12.2458885707
 20
6.7907676563
 30
0.0
 10
12.2466089811
 20
6.7808187615
 30
0.0
 10
12.2466046353
 20
6.770893426
 30
0.0
 10
12.2458754358
 20
6.7610446295
 30
0.0
 10
12.2444251685
 20
6.7513249993
 30
0.0
 10
12.2422614159
 20
6.7417863891
 30
0.0
 10
12.2393957919
 20
6.7324801264
 30
0.0
 10
12.2364322419
 20
6.7249519036
 30
0.0
 10
12.2337278586
 20
6.7190975371
 30
0.0
 10
12.2308092865
 20
6.7133704706
 30
0.0
 10
12.2267570272
 20
6.7064432735
 30
0.0
 10
12.2221835668
 20
6.699859594
 30
0.0
 10
12.218231429
 20
6.6948271848
 30
0.0
 10
12.2140907484
 20
6.68995904
 30
0.0
 10
12.2107733522
 20
6.6864933193
 30
0.0
 10
12.2084765473
 20
6.6842747609
 30
0.0
  0
SPLINE
  5
32F
100
AcDbEntity
  8
0
100
AcDbSpline
 62
7
  6
CONTINUOUS
 70
0
 71
3
 72
41
 73
37
 74
0
 42
0.0000001
 43
0.0000001
 44
0.0000000001
 40
0.0
 40
0.0
 40
0.0
 40
0.0
 40
0.0311444983
 40
0.062442467
 40
0.093887251
 40
0.1254695609
 40
0.157177086
 40
0.1889950997
 40
0.2209066479
 40
0.2528929497
 40
0.284933762
 40
0.3170077852
 40
0.3490930781
 40
0.3811674822
 40
0.4132090489
 40
0.445196464
 40
0.4771094635
 40
0.5089292351
 40
0.540638799
 40
0.5722233621
 40
0.6036706378
 40
0.6349711269
 40
0.6661183495
 40
0.6971090237
 40
0.7279431823
 40
0.7586242225
 40
0.7891588828
 40
0.8195571428
 40
0.8498320452
 40
0.86493089
 40
0.8800050502
 40
0.9100832578
 40
0.9400926753
 40
0.9550812784
 40
0.9700610371
 40
1.0
 40
1.0
 40
1.0
 40
1.0
 10
12.1108640547
 20
9.6604078336
 30
0.0
 10
12.1141780023
 20
9.6601780106
 30
0.0
 10
12.1208078703
 20
9.6594746578
 30
0.0
 10
12.1306722872
 20
9.6577029268
 30
0.0
 10
12.1404310617
 20
9.6552212235
 30
0.0
 10
12.1500314553
 20
9.6520429484
 30
0.0
 10
12.15942249
 20
9.648185102
 30
0.0
 10
12.168554065
 20
9.6436683362
 30
0.0
 10
12.1773775362
 20
9.6385167822
 30
0.0
 10
12.1858458873
 20
9.632757948
 30
0.0
 10
12.193913999
 20
9.6264225615
 30
0.0
 10
12.2015388814
 20
9.6195444121
 30
0.0
 10
12.2086799015
 20
9.6121601703
 30
0.0
 10
12.2152989975
 20
9.6043091946
 30
0.0
 10
12.2213608796
 20
9.5960333235
 30
0.0
 10
12.2268332161
 20
9.5873766549
 30
0.0
 10
12.2316868052
 20
9.5783853139
 30
0.0
 10
12.2358957288
 20
9.5691072097
 30
0.0
 10
12.2394374911
 20
9.5595917834
 30
0.0
 10
12.2422931379
 20
9.5498897481
 30
0.0
 10
12.2444473588
 20
9.5400528222
 30
0.0
 10
12.2458885707
 20
9.5301334576
 30
0.0
 10
12.2466089811
 20
9.5201845628
 30
0.0
 10
12.2466046353
 20
9.5102592273
 30
0.0
 10
12.2458754358
 20
9.5004104308
 30
0.0
 10
12.2444251685
 20
9.4906908006
 30
0.0
 10
12.2422614159
 20
9.4811521903
 30
0.0
 10
12.2393957919
 20
9.4718459277
 30
0.0
 10
12.2364322419
 20
9.4643177049
 30
0.0
 10
12.2337278586
 20
9.4584633384
 30
0.0
 10
12.2308092865
 20
9.4527362719
 30
0.0
 10
12.2267570272
 20
9.4458090748
 30
0.0
 10
12.2221835668
 20
9.4392253953
 30
0.0
 10
12.218231429
 20
9.4341929861
 30
0.0
 10
12.2140907484
 20
9.4293248413
 30
0.0
 10
12.2107733522
 20
9.4258591206
 30
0.0
 10
12.2084765473
 20
9.4236405622
 30
0.0
  0
SPLINE
  5
330
100
AcDbEntity
  8
0
100
AcDbSpline
 62
7
  6
CONTINUOUS
 70
0
 71
3
 72
41
 73
37
 74
0
 42
0.0000001
 43
0.0000001
 44
0.0000000001
 40
0.0
 40
0.0
 40
0.0
 40
0.0
 40
0.0311444983
 40
0.062442467
 40
0.093887251
 40
0.1254695609
 40
0.157177086
 40
0.1889950997
 40
0.2209066479
 40
0.2528929497
 40
0.284933762
 40
0.3170077852
 40
0.3490930781
 40
0.3811674822
 40
0.4132090489
 40
0.445196464
 40
0.4771094635
 40
0.5089292351
 40
0.540638799
 40
0.5722233621
 40
0.6036706378
 40
0.6349711269
 40
0.6661183495
 40
0.6971090237
 40
0.7279431823
 40
0.7586242225
 40
0.7891588828
 40
0.8195571428
 40
0.8498320452
 40
0.86493089
 40
0.8800050502
 40
0.9100832578
 40
0.9400926753
 40
0.9550812784
 40
0.9700610371
 40
1.0
 40
1.0
 40
1.0
 40
1.0
 10
9.3714982535
 20
9.8503834972
 30
0.0
 10
9.374812201
 20
9.8501536741
 30
0.0
 10
9.381442069
 20
9.8494503214
 30
0.0
 10
9.3913064859
 20
9.8476785903
 30
0.0
 10
9.4010652604
 20
9.845196887
 30
0.0
 10
9.410665654
 20
9.842018612
 30
0.0
 10
9.4200566887
 20
9.8381607656
 30
0.0
 10
9.4291882637
 20
9.8336439998
 30
0.0
 10
9.4380117349
 20
9.8284924458
 30
0.0
 10
9.446480086
 20
9.8227336115
 30
0.0
 10
9.4545481977
 20
9.816398225
 30
0.0
 10
9.4621730801
 20
9.8095200757
 30
0.0
 10
9.4693141002
 20
9.8021358339
 30
0.0
 10
9.4759331962
 20
9.7942848582
 30
0.0
 10
9.4819950783
 20
9.7860089871
 30
0.0
 10
9.4874674148
 20
9.7773523185
 30
0.0
 10
9.4923210039
 20
9.7683609775
 30
0.0
 10
9.4965299275
 20
9.7590828733
 30
0.0
 10
9.5000716898
 20
9.7495674469
 30
0.0
 10
9.5029273366
 20
9.7398654116
 30
0.0
 10
9.5050815575
 20
9.7300284857
 30
0.0
 10
9.5065227694
 20
9.7201091211
 30
0.0
 10
9.5072431798
 20
9.7101602264
 30
0.0
 10
9.507238834
 20
9.7002348909
 30
0.0
 10
9.5065096345
 20
9.6903860943
 30
0.0
 10
9.5050593672
 20
9.6806664642
 30
0.0
 10
9.5028956146
 20
9.6711278539
 30
0.0
 10
9.5000299906
 20
9.6618215913
 30
0.0
 10
9.4970664406
 20
9.6542933684
 30
0.0
 10
9.4943620573
 20
9.6484390019
 30
0.0
 10
9.4914434852
 20
9.6427119354
 30
0.0
 10
9.4873912259
 20
9.6357847384
 30
0.0
 10
9.4828177655
 20
9.6292010588
 30
0.0
 10
9.4788656277
 20
9.6241686497
 30
0.0
 10
9.4747249472
 20
9.6193005049
 30
0.0
 10
9.4714075509
 20
9.6158347842
 30
0.0
 10
9.469110746
 20
9.6136162258
 30
0.0
  0
SPLINE
  5
331
100
AcDbEntity
  8
0
100
AcDbSpline
 62
7
  6
CONTINUOUS
 70
0
 71
3
 72
37
 73
33
 74
0
 42
0.0000001
 43
0.0000001
 44
0.0000000001
 40
0.0
 40
0.0
 40
0.0
 40
0.0
 40
0.031146624
 40
0.0624481919
 40
0.0938952571
 40
0.1254804469
 40
0.1571906758
 40
0.1890114524
 40
0.2209257687
 40
0.25291484
 40
0.2849584237
 40
0.3170352183
 40
0.381163152
 40
0.4451601237
 40
0.4770758719
 40
0.5088983814
 40
0.5406106743
 40
0.5721979571
 40
0.6036479386
 40
0.6349511145
 40
0.6661010055
 40
0.697094333
 40
0.7279311336
 40
0.7586148063
 40
0.7891520874
 40
0.819552954
 40
0.8498304507
 40
0.8800004308
 40
0.9100812223
 40
0.9400932249
 40
0.9700584477
 40
1.0
 40
1.0
 40
1.0
 40
1.0
 10
11.2241441103
 20
7.672690294
 30
0.0
 10
11.2259838616
 20
7.6725627068
 30
0.0
 10
11.229664543
 20
7.6721722088
 30
0.0
 10
11.2351409128
 20
7.6711886377
 30
0.0
 10
11.2405586583
 20
7.6698108325
 30
0.0
 10
11.2458884375
 20
7.6680463871
 30
0.0
 10
11.251102005
 20
7.6659046306
 30
0.0
 10
11.2561715215
 20
7.6633970815
 30
0.0
 10
11.2610699958
 20
7.6605370928
 30
0.0
 10
11.2657712719
 20
7.6573400118
 30
0.0
 10
11.2702505095
 20
7.653822661
 30
0.0
 10
11.2758926285
 20
7.6487332236
 30
0.0
 10
11.2822720366
 20
7.6416712284
 30
0.0
 10
11.2876254345
 20
7.6338141086
 30
0.0
 10
11.2912202637
 20
7.6271542289
 30
0.0
 10
11.2935569817
 20
7.6220031861
 30
0.0
 10
11.2955231704
 20
7.6167205917
 30
0.0
 10
11.2971084889
 20
7.6113343483
 30
0.0
 10
11.2983043803
 20
7.6058732337
 30
0.0
 10
11.2991044274
 20
7.6003663515
 30
0.0
 10
11.2995043089
 20
7.5948430819
 30
0.0
 10
11.2995018329
 20
7.5893328954
 30
0.0
 10
11.2990969475
 20
7.5838652078
 30
0.0
 10
11.2982917454
 20
7.5784692223
 30
0.0
 10
11.2970904541
 20
7.5731737774
 30
0.0
 10
11.2954994268
 20
7.5680071894
 30
0.0
 10
11.2935271195
 20
7.562997098
 30
0.0
 10
11.2911840235
 20
7.5581703115
 30
0.0
 10
11.2884826518
 20
7.5535526948
 30
0.0
 10
11.2854373378
 20
7.5491689032
 30
0.0
 10
11.282064668
 20
7.5450427137
 30
0.0
 10
11.2796089012
 20
7.5424773366
 30
0.0
 10
11.2783337862
 20
7.5412456841
 30
0.0
  0
SPLINE
  5
332
100
AcDbEntity
  8
0
100
AcDbSpline
 62
7
  6
CONTINUOUS
 70
0
 71
3
 72
31
 73
27
 74
0
 42
0.0000001
 43
0.0000001
 44
0.0000000001
 40
0.0
 40
0.0
 40
0.0
 40
0.0
 40
0.0327356707
 40
0.0653802138
 40
0.0979116937
 40
0.1303124798
 40
0.1625699567
 40
0.1946765521
 40
0.2266294165
 40
0.2584298612
 40
0.2900826137
 40
0.3215950425
 40
0.3529763909
 40
0.3842370838
 40
0.4153883208
 40
0.4464418017
 40
0.5082794995
 40
0.569864136
 40
0.6312783036
 40
0.6925974207
 40
0.7538898512
 40
0.7845531233
 40
0.8152327444
 40
0.8766551666
 40
0.9382266456
 40
1.0
 40
1.0
 40
1.0
 40
1.0
 10
10.3142999856
 20
8.1917198629
 30
0.0
 10
10.3128039688
 20
8.1939601453
 30
0.0
 10
10.3099875203
 20
8.1985517548
 30
0.0
 10
10.3063142337
 20
8.2057315828
 30
0.0
 10
10.3032139018
 20
8.2131472793
 30
0.0
 10
10.3006963237
 20
8.2207465844
 30
0.0
 10
10.2987626147
 20
8.228478684
 30
0.0
 10
10.2974066509
 20
8.2362949386
 30
0.0
 10
10.2966161303
 20
8.2441502584
 30
0.0
 10
10.2963739537
 20
8.2520037658
 30
0.0
 10
10.2966595533
 20
8.2598191404
 30
0.0
 10
10.2974501018
 20
8.2675646071
 30
0.0
 10
10.2987215506
 20
8.2752127282
 30
0.0
 10
10.3004493894
 20
8.2827399256
 30
0.0
 10
10.3026094424
 20
8.2901264399
 30
0.0
 10
10.3060285258
 20
8.2997492246
 30
0.0
 10
10.3112681263
 20
8.3113604678
 30
0.0
 10
10.318937586
 20
8.3245246495
 30
0.0
 10
10.3278340211
 20
8.3368384442
 30
0.0
 10
10.33782637
 20
8.3482453492
 30
0.0
 10
10.3469729064
 20
8.3569568262
 30
0.0
 10
10.3547254632
 20
8.3634220058
 30
0.0
 10
10.3627606178
 20
8.3695500613
 30
0.0
 10
10.3733061921
 20
8.3765606452
 30
0.0
 10
10.386658139
 20
8.3838706266
 30
0.0
 10
10.3959611823
 20
8.3879679139
 30
0.0
 10
10.400698069
 20
8.3898126678
 30
0.0
  0
SPLINE
  5
333
100
AcDbEntity
  8
0
100
AcDbSpline
 62
7
  6
CONTINUOUS
 70
0
 71
3
 72
15
 73
11
 74
0
 42
0.0000001
 43
0.0000001
 44
0.0000000001
 40
0.0
 40
0.0
 40
0.0
 40
0.0
 40
0.1266936983
 40
0.2528686031
 40
0.3785207723
 40
0.5036798165
 40
0.628369457
 40
0.7526243637
 40
0.8764856181
 40
1.0
 40
1.0
 40
1.0
 40
1.0
 10
10.9082272158
 20
7.8307946181
 30
0.0
 10
10.9082272158
 20
7.8283887923
 30
0.0
 10
10.9080824862
 20
7.8235856981
 30
0.0
 10
10.9074290457
 20
7.8164233326
 30
0.0
 10
10.9063419478
 20
7.8093430122
 30
0.0
 10
10.9048254689
 20
7.8023709607
 30
0.0
 10
10.9028851919
 20
7.7955323014
 30
0.0
 10
10.9005284298
 20
7.7888517723
 30
0.0
 10
10.8977642264
 20
7.7823537999
 30
0.0
 10
10.8956536177
 20
7.7781529774
 30
0.0
 10
10.8945343941
 20
7.7760917915
 30
0.0
  0
SPLINE
  5
334
100
AcDbEntity
  8
0
100
AcDbSpline
 62
7
  6
CONTINUOUS
 70
0
 71
3
 72
28
 73
24
 74
0
 42
0.0000001
 43
0.0000001
 44
0.0000000001
 40
0.0
 40
0.0
 40
0.0
 40
0.0
 40
0.0319755697
 40
0.063824576
 40
0.0955450652
 40
0.1271459269
 40
0.1586341287
 40
0.1900188941
 40
0.2213107377
 40
0.2525207312
 40
0.2836607982
 40
0.3147424014
 40
0.3457771079
 40
0.376776229
 40
0.4386907359
 40
0.5005804029
 40
0.5625072725
 40
0.6245210496
 40
0.6866605258
 40
0.7489553323
 40
0.8114276695
 40
0.8740938964
 40
1.0
 40
1.0
 40
1.0
 40
1.0
 10
10.9465627771
 20
8.6424117292
 30
0.0
 10
10.9465627771
 20
8.6406253292
 30
0.0
 10
10.9464577735
 20
8.6370586867
 30
0.0
 10
10.94598449
 20
8.6317388307
 30
0.0
 10
10.9451992537
 20
8.6264769921
 30
0.0
 10
10.9441081696
 20
8.6212906654
 30
0.0
 10
10.9427192991
 20
8.6161955282
 30
0.0
 10
10.9410426165
 20
8.6112060328
 30
0.0
 10
10.9390894237
 20
8.6063350102
 30
0.0
 10
10.9368721939
 20
8.6015935883
 30
0.0
 10
10.9344042377
 20
8.5969911688
 30
0.0
 10
10.9316991799
 20
8.5925356307
 30
0.0
 10
10.9287708425
 20
8.5882331152
 30
0.0
 10
10.9245896585
 20
8.5827101934
 30
0.0
 10
10.9188692246
 20
8.5762048327
 30
0.0
 10
10.9113241378
 20
8.5690625364
 30
0.0
 10
10.9031933904
 20
8.5625877764
 30
0.0
 10
10.8945614959
 20
8.5567758316
 30
0.0
 10
10.8855023293
 20
8.5516159732
 30
0.0
 10
10.8760809371
 20
8.5470948908
 30
0.0
 10
10.8663533099
 20
8.5431978336
 30
0.0
 10
10.8530256347
 20
8.5388089712
 30
0.0
 10
10.8427332078
 20
8.5364199902
 30
0.0
 10
10.8358040768
 20
8.5352094528
 30
0.0
  0
SPLINE
  5
335
100
AcDbEntity
  8
0
100
AcDbSpline
 62
7
  6
CONTINUOUS
 70
0
 71
3
 72
39
 73
35
 74
0
 42
0.0000001
 43
0.0000001
 44
0.0000000001
 40
0.0
 40
0.0
 40
0.0
 40
0.0
 40
0.0150372896
 40
0.0300556468
 40
0.0450568371
 40
0.0600475667
 40
0.0750337651
 40
0.0900203008
 40
0.1050124404
 40
0.1200149939
 40
0.1500600302
 40
0.1801952917
 40
0.2104437494
 40
0.2408211971
 40
0.2713371051
 40
0.3019957395
 40
0.3327973231
 40
0.3637390833
 40
0.3948161085
 40
0.4260219988
 40
0.4573493408
 40
0.4887901099
 40
0.5519583573
 40
0.5836891559
 40
0.6154993673
 40
0.679305968
 40
0.7113021854
 40
0.7433425717
 40
0.8075007581
 40
0.839616405
 40
0.871736569
 40
0.9038498882
 40
0.9359443166
 40
1.0
 40
1.0
 40
1.0
 40
1.0
 10
11.0006526684
 20
8.3086168782
 30
0.0
 10
11.0014501148
 20
8.3099427928
 30
0.0
 10
11.0031152582
 20
8.3125508467
 30
0.0
 10
11.0058169275
 20
8.3163209591
 30
0.0
 10
11.0087135013
 20
8.3199374967
 30
0.0
 10
11.0117961147
 20
8.3233922945
 30
0.0
 10
11.0150554361
 20
8.3266787445
 30
0.0
 10
11.0184816715
 20
8.3297908791
 30
0.0
 10
11.0220643793
 20
8.3327242362
 30
0.0
 10
11.0270372665
 20
8.3363932125
 30
0.0
 10
11.0335966252
 20
8.3405191637
 30
0.0
 10
11.0419155074
 20
8.3447153168
 30
0.0
 10
11.0506063645
 20
8.3481653158
 30
0.0
 10
11.059592785
 20
8.3508829114
 30
0.0
 10
11.0688062961
 20
8.3528892228
 30
0.0
 10
11.078185862
 20
8.3542095273
 30
0.0
 10
11.0876777841
 20
8.3548714306
 30
0.0
 10
11.097234992
 20
8.3549033259
 30
0.0
 10
11.1068162996
 20
8.3543333442
 30
0.0
 10
11.1163853839
 20
8.3531887027
 30
0.0
 10
11.125910598
 20
8.3514951254
 30
0.0
 10
11.1385307719
 20
8.3485336042
 30
0.0
 10
11.1509389994
 20
8.3445682962
 30
0.0
 10
11.1630344234
 20
8.3396916694
 30
0.0
 10
11.1749404685
 20
8.3342095654
 30
0.0
 10
11.1864670102
 20
8.3278731765
 30
0.0
 10
11.197529841
 20
8.3207493999
 30
0.0
 10
11.2082810437
 20
8.3131009012
 30
0.0
 10
11.2184996504
 20
8.3047045906
 30
0.0
 10
11.2280915961
 20
8.2956147125
 30
0.0
 10
11.2349547323
 20
8.2884551768
 30
0.0
 10
11.2414572204
 20
8.2809688162
 30
0.0
 10
11.2496007524
 20
8.2705789748
 30
0.0
 10
11.2550928799
 20
8.2623195838
 30
0.0
 10
11.2584277186
 20
8.256634571
 30
0.0
  0
SPLINE
  5
336
100
AcDbEntity
  8
0
100
AcDbSpline
 62
7
  6
CONTINUOUS
 70
0
 71
3
 72
47
 73
43
 74
0
 42
0.0000001
 43
0.0000001
 44
0.0000000001
 40
0.0
 40
0.0
 40
0.0
 40
0.0
 40
0.0958288778
 40
0.1428190813
 40
0.1890973258
 40
0.2345927051
 40
0.2792365599
 40
0.3229622087
 40
0.36570484
 40
0.4074019633
 40
0.4479935495
 40
0.4874221989
 40
0.5256333955
 40
0.562575849
 40
0.5982017357
 40
0.6324670006
 40
0.6653317986
 40
0.696761026
 40
0.7267248024
 40
0.7551991569
 40
0.7821669874
 40
0.8076191674
 40
0.8315558892
 40
0.8429599089
 40
0.8539904626
 40
0.8646510953
 40
0.8749464064
 40
0.8848822263
 40
0.8944655538
 40
0.903704898
 40
0.9126103679
 40
0.9211937503
 40
0.9294688928
 40
0.9374517342
 40
0.945160509
 40
0.9598347361
 40
0.9668566082
 40
0.9737035131
 40
0.9804067666
 40
0.9870000197
 40
0.9935188069
 40
1.0
 40
1.0
 40
1.0
 40
1.0
 10
11.6613929075
 20
10.0172267884
 30
0.0
 10
11.6490210653
 20
10.0180847786
 30
0.0
 10
11.6305958302
 20
10.0195689473
 30
0.0
 10
11.6062415924
 20
10.0219686601
 30
0.0
 10
11.5883924978
 20
10.0239471547
 30
0.0
 10
11.5708710672
 20
10.0261126891
 30
0.0
 10
11.5537066022
 20
10.0284616305
 30
0.0
 10
11.5369278023
 20
10.0309900207
 30
0.0
 10
11.5205627008
 20
10.0336936254
 30
0.0
 10
11.504638645
 20
10.0365678951
 30
0.0
 10
11.4891822279
 20
10.0396079899
 30
0.0
 10
11.474219259
 20
10.0428087993
 30
0.0
 10
11.4597747149
 20
10.0461649514
 30
0.0
 10
11.4458726839
 20
10.0496707927
 30
0.0
 10
11.43253633
 20
10.0533204233
 30
0.0
 10
11.4197878598
 20
10.0571077133
 30
0.0
 10
11.4076484699
 20
10.0610263087
 30
0.0
 10
11.3961382973
 20
10.0650696221
 30
0.0
 10
11.3852763843
 20
10.0692308828
 30
0.0
 10
11.3750806727
 20
10.0735031545
 30
0.0
 10
11.3655678395
 20
10.0778793632
 30
0.0
 10
11.3567536137
 20
10.0823522487
 30
0.0
 10
11.3498956516
 20
10.0862141374
 30
0.0
 10
11.3447801461
 20
10.0893528415
 30
0.0
 10
11.3411893226
 20
10.091688316
 30
0.0
 10
11.3377836343
 20
10.0940423452
 30
0.0
 10
11.3345644903
 20
10.0964140158
 30
0.0
 10
11.3315331926
 20
10.0988023252
 30
0.0
 10
11.3286910167
 20
10.1012063574
 30
0.0
 10
11.3260391313
 20
10.1036251496
 30
0.0
 10
11.3235786191
 20
10.106057724
 30
0.0
 10
11.321310543
 20
10.1085032018
 30
0.0
 10
11.3192358783
 20
10.1109605373
 30
0.0
 10
11.3173553874
 20
10.1134290546
 30
0.0
 10
11.3151449968
 20
10.1166796898
 30
0.0
 10
11.3132748548
 20
10.1200071103
 30
0.0
 10
11.3117932029
 20
10.1233933729
 30
0.0
 10
11.3108960373
 20
10.1259023966
 30
0.0
 10
11.3101976071
 20
10.1284163544
 30
0.0
 10
11.3096983252
 20
10.13093423
 30
0.0
 10
11.3093985554
 20
10.1334545498
 30
0.0
 10
11.3093318656
 20
10.1351376751
 30
0.0
 10
11.3093318621
 20
10.1359764294
 30
0.0
  0
SPLINE
  5
337
100
AcDbEntity
  8
0
100
AcDbSpline
 62
7
  6
CONTINUOUS
 70
0
 71
3
 72
18
 73
14
 74
0
 42
0.0000001
 43
0.0000001
 44
0.0000000001
 40
0.0
 40
0.0
 40
0.0
 40
0.0
 40
0.1504680185
 40
0.2917144324
 40
0.4244425615
 40
0.4879099171
 40
0.5496094205
 40
0.6682625585
 40
0.7817882768
 40
0.8371379945
 40
0.8918078237
 40
0.9460192726
 40
1.0
 40
1.0
 40
1.0
 40
1.0
 10
12.6903702962
 20
8.3156405729
 30
0.0
 10
12.6915873649
 20
8.3168161711
 30
0.0
 10
12.6940198527
 20
8.3190219359
 30
0.0
 10
12.697786301
 20
8.3219613876
 30
0.0
 10
12.7009677106
 20
8.3240403199
 30
0.0
 10
12.7035046017
 20
8.3254481084
 30
0.0
 10
12.7059668603
 20
8.3266567353
 30
0.0
 10
12.7090454632
 20
8.3278780117
 30
0.0
 10
12.7121788304
 20
8.3287114136
 30
0.0
 10
12.7146605502
 20
8.329121955
 30
0.0
 10
12.7164998473
 20
8.32930416
 30
0.0
 10
12.718331704
 20
8.3293629952
 30
0.0
 10
12.719548744
 20
8.329319937
 30
0.0
 10
12.7201543428
 20
8.3292779353
 30
0.0
  0
SPLINE
  5
338
100
AcDbEntity
  8
0
100
AcDbSpline
 62
7
  6
CONTINUOUS
 70
0
 71
3
 72
15
 73
11
 74
0
 42
0.0000001
 43
0.0000001
 44
0.0000000001
 40
0.0
 40
0.0
 40
0.0
 40
0.0
 40
0.1273482292
 40
0.2538605354
 40
0.3795879276
 40
0.5046050833
 40
0.6290174349
 40
0.7529533662
 40
0.8765605734
 40
1.0
 40
1.0
 40
1.0
 40
1.0
 10
10.0636720983
 20
7.7128618325
 30
0.0
 10
10.0636720983
 20
7.7100746147
 30
0.0
 10
10.0634059763
 20
7.7045146211
 30
0.0
 10
10.062202459
 20
7.6962815649
 30
0.0
 10
10.0602068235
 20
7.6882553749
 30
0.0
 10
10.0574370911
 20
7.6805111151
 30
0.0
 10
10.0539186922
 20
7.6731201986
 30
0.0
 10
10.0496836863
 20
7.6661508735
 30
0.0
 10
10.0447718939
 20
7.6596684438
 30
0.0
 10
10.0410735648
 20
7.6557086042
 30
0.0
 10
10.039130374
 20
7.6538316341
 30
0.0
  0
SPLINE
  5
339
100
AcDbEntity
  8
0
100
AcDbSpline
 62
7
  6
CONTINUOUS
 70
0
 71
3
 72
15
 73
11
 74
0
 42
0.0000001
 43
0.0000001
 44
0.0000000001
 40
0.0
 40
0.0
 40
0.0
 40
0.0
 40
0.1273482292
 40
0.2538605354
 40
0.3795879276
 40
0.5046050833
 40
0.6290174349
 40
0.7529533662
 40
0.8765605734
 40
1.0
 40
1.0
 40
1.0
 40
1.0
 10
10.0636720983
 20
8.890325467
 30
0.0
 10
10.0636720983
 20
8.8875382492
 30
0.0
 10
10.0634059763
 20
8.8819782556
 30
0.0
 10
10.062202459
 20
8.8737451994
 30
0.0
 10
10.0602068235
 20
8.8657190094
 30
0.0
 10
10.0574370911
 20
8.8579747496
 30
0.0
 10
10.0539186922
 20
8.8505838331
 30
0.0
 10
10.0496836863
 20
8.843614508
 30
0.0
 10
10.0447718939
 20
8.8371320784
 30
0.0
 10
10.0410735648
 20
8.8331722387
 30
0.0
 10
10.039130374
 20
8.8312952686
 30
0.0
  0
SPLINE
  5
33A
100
AcDbEntity
  8
0
100
AcDbSpline
 62
7
  6
CONTINUOUS
 70
0
 71
3
 72
15
 73
11
 74
0
 42
0.0000001
 43
0.0000001
 44
0.0000000001
 40
0.0
 40
0.0
 40
0.0
 40
0.0
 40
0.1273482292
 40
0.2538605354
 40
0.3795879276
 40
0.5046050833
 40
0.6290174349
 40
0.7529533662
 40
0.8765605734
 40
1.0
 40
1.0
 40
1.0
 40
1.0
 10
11.6033578816
 20
8.8144575862
 30
0.0
 10
11.6033578816
 20
8.8116703684
 30
0.0
 10
11.6030917596
 20
8.8061103748
 30
0.0
 10
11.6018882423
 20
8.7978773186
 30
0.0
 10
11.5998926067
 20
8.7898511286
 30
0.0
 10
11.5971228744
 20
8.7821068688
 30
0.0
 10
11.5936044755
 20
8.7747159523
 30
0.0
 10
11.5893694696
 20
8.7677466272
 30
0.0
 10
11.5844576772
 20
8.7612641975
 30
0.0
 10
11.580759348
 20
8.7573043579
 30
0.0
 10
11.5788161573
 20
8.7554273878
 30
0.0
  0
SPLINE
  5
33B
100
AcDbEntity
  8
0
100
AcDbSpline
 62
7
  6
CONTINUOUS
 70
0
 71
3
 72
15
 73
11
 74
0
 42
0.0000001
 43
0.0000001
 44
0.0000000001
 40
0.0
 40
0.0
 40
0.0
 40
0.0
 40
0.1273482292
 40
0.2538605354
 40
0.3795879276
 40
0.5046050833
 40
0.6290174349
 40
0.7529533662
 40
0.8765605734
 40
1.0
 40
1.0
 40
1.0
 40
1.0
 10
11.6033578816
 20
7.5761405409
 30
0.0
 10
11.6033578816
 20
7.573353323
 30
0.0
 10
11.6030917596
 20
7.5677933294
 30
0.0
 10
11.6018882423
 20
7.5595602733
 30
0.0
 10
11.5998926067
 20
7.5515340833
 30
0.0
 10
11.5971228744
 20
7.5437898234
 30
0.0
 10
11.5936044755
 20
7.536398907
 30
0.0
 10
11.5893694696
 20
7.5294295819
 30
0.0
 10
11.5844576772
 20
7.5229471522
 30
0.0
 10
11.580759348
 20
7.5189873126
 30
0.0
 10
11.5788161573
 20
7.5171103425
 30
0.0
  0
SPLINE
  5
33C
100
AcDbEntity
  8
0
100
AcDbSpline
 62
7
  6
CONTINUOUS
 70
0
 71
3
 72
31
 73
27
 74
0
 42
0.0000001
 43
0.0000001
 44
0.0000000001
 40
0.0
 40
0.0
 40
0.0
 40
0.0
 40
0.0682258423
 40
0.1395782324
 40
0.1761096426
 40
0.2130176157
 40
0.2873380246
 40
0.3613630857
 40
0.434012556
 40
0.5044822892
 40
0.5723068553
 40
0.6373029505
 40
0.6994491534
 40
0.758752699
 40
0.8151340675
 40
0.842162929
 40
0.8683345561
 40
0.8935620661
 40
0.9177252521
 40
0.9406684482
 40
0.9516239449
 40
0.9621960316
 40
0.9723529327
 40
0.9820622369
 40
0.9912885064
 40
1.0
 40
1.0
 40
1.0
 40
1.0
 10
10.9079599019
 20
7.8233678309
 30
0.0
 10
10.9054676919
 20
7.8211271431
 30
0.0
 10
10.9001974152
 20
7.8167297409
 30
0.0
 10
10.8931137151
 20
7.8117435155
 30
0.0
 10
10.8870275634
 20
7.8080581756
 30
0.0
 10
10.8806405914
 20
7.8046050512
 30
0.0
 10
10.8723090072
 20
7.800898833
 30
0.0
 10
10.8619400853
 20
7.7976060516
 30
0.0
 10
10.8514404153
 20
7.7955860121
 30
0.0
 10
10.8410776201
 20
7.7948686161
 30
0.0
 10
10.8310809278
 20
7.7953930883
 30
0.0
 10
10.8216233504
 20
7.7970373782
 30
0.0
 10
10.812823987
 20
7.7996489668
 30
0.0
 10
10.8047656781
 20
7.8030658876
 30
0.0
 10
10.7986353792
 20
7.8064976238
 30
0.0
 10
10.7941688845
 20
7.8095059071
 30
0.0
 10
10.7910945512
 20
7.8118310338
 30
0.0
 10
10.788262685
 20
7.8142336991
 30
0.0
 10
10.7856909447
 20
7.8166884723
 30
0.0
 10
10.783753686
 20
7.8187848676
 30
0.0
 10
10.7823584684
 20
7.8204663066
 30
0.0
 10
10.7814103243
 20
7.8217010947
 30
0.0
 10
10.7805490231
 20
7.8229238423
 30
0.0
 10
10.7797797052
 20
7.8241288478
 30
0.0
 10
10.7791081228
 20
7.8253099604
 30
0.0
 10
10.7787178569
 20
7.8261007543
 30
0.0
 10
10.7785421239
 20
7.8264909315
 30
0.0
  0
SPLINE
  5
33D
100
AcDbEntity
  8
0
100
AcDbSpline
 62
7
  6
CONTINUOUS
 70
0
 71
3
 72
31
 73
27
 74
0
 42
0.0000001
 43
0.0000001
 44
0.0000000001
 40
0.0
 40
0.0
 40
0.0
 40
0.0
 40
0.0845020648
 40
0.1673013648
 40
0.2480803175
 40
0.326530874
 40
0.4023584325
 40
0.4752829398
 40
0.5450414838
 40
0.6113906911
 40
0.6432178527
 40
0.6741118156
 40
0.7040492027
 40
0.7330082653
 40
0.7609695936
 40
0.787915765
 40
0.8138321098
 40
0.8387064793
 40
0.8625300331
 40
0.885297236
 40
0.9070066679
 40
0.9276613693
 40
0.9472697258
 40
0.965846297
 40
0.9834128878
 40
1.0
 40
1.0
 40
1.0
 40
1.0
 10
11.6976275439
 20
10.0367719467
 30
0.0
 10
11.6906928196
 20
10.0372528715
 30
0.0
 10
11.6769711961
 20
10.0383267437
 30
0.0
 10
11.6566574545
 20
10.040295876
 30
0.0
 10
11.6368799955
 20
10.0426006802
 30
0.0
 10
11.6177218762
 20
10.045231374
 30
0.0
 10
11.5992634852
 20
10.0481767633
 30
0.0
 10
11.5815821456
 20
10.051424314
 30
0.0
 10
11.5647520444
 20
10.054960225
 30
0.0
 10
11.5513147951
 20
10.0581775151
 30
0.0
 10
11.5410498975
 20
10.0608933612
 30
0.0
 10
11.5337139429
 20
10.0629645423
 30
0.0
 10
11.5266413312
 20
10.0650960238
 30
0.0
 10
11.5198394646
 20
10.0672856395
 30
0.0
 10
11.513315454
 20
10.0695310183
 30
0.0
 10
11.5070761245
 20
10.0718298563
 30
0.0
 10
11.5011279761
 20
10.0741796813
 30
0.0
 10
11.4954772128
 20
10.0765780808
 30
0.0
 10
11.4901296938
 20
10.0790225008
 30
0.0
 10
11.4850909668
 20
10.0815104361
 30
0.0
 10
11.4803662226
 20
10.0840392817
 30
0.0
 10
11.4759603164
 20
10.0866064696
 30
0.0
 10
11.4718777623
 20
10.0892093784
 30
0.0
 10
11.4681226583
 20
10.0918454659
 30
0.0
 10
11.464698992
 20
10.0945120221
 30
0.0
 10
11.4625803312
 20
10.0963602759
 30
0.0
 10
11.4615814489
 20
10.0972898471
 30
0.0
  0
SPLINE
  5
33E
100
AcDbEntity
  8
0
100
AcDbSpline
 62
7
  6
CONTINUOUS
 70
0
 71
3
 72
39
 73
35
 74
0
 42
0.0000001
 43
0.0000001
 44
0.0000000001
 40
0.0
 40
0.0
 40
0.0
 40
0.0
 40
0.0761047333
 40
0.1533644285
 40
0.2310953647
 40
0.3086073977
 40
0.3852131008
 40
0.4229647361
 40
0.4602372057
 40
0.4969488449
 40
0.5330196458
 40
0.5683715157
 40
0.6029285676
 40
0.6366174033
 40
0.6693673881
 40
0.7011109565
 40
0.7317839488
 40
0.7613260159
 40
0.7896810225
 40
0.8167975061
 40
0.84262924
 40
0.8671359275
 40
0.8902840978
 40
0.9120481638
 40
0.9224062989
 40
0.9324131775
 40
0.942068529
 40
0.951372994
 40
0.9603280437
 40
0.9689363591
 40
0.977201732
 40
0.9851293319
 40
0.992725946
 40
1.0
 40
1.0
 40
1.0
 40
1.0
 10
11.6976275439
 20
10.0367719467
 30
0.0
 10
11.708264982
 20
10.0360342379
 30
0.0
 10
11.7297224456
 20
10.0348386057
 30
0.0
 10
11.7620899365
 20
10.0338716883
 30
0.0
 10
11.794668922
 20
10.0337218888
 30
0.0
 10
11.8271495652
 20
10.0343907197
 30
0.0
 10
11.8540069859
 20
10.0356306462
 30
0.0
 10
11.8752059513
 20
10.0370329014
 30
0.0
 10
11.8908121164
 20
10.0382777925
 30
0.0
 10
11.9061649577
 20
10.0397179014
 30
0.0
 10
11.9212279922
 20
10.0413498061
 30
0.0
 10
11.9359653915
 20
10.0431695984
 30
0.0
 10
11.9503421208
 20
10.0451729215
 30
0.0
 10
11.9643240113
 20
10.0473549722
 30
0.0
 10
11.9778778433
 20
10.0497105223
 30
0.0
 10
11.990971424
 20
10.052233927
 30
0.0
 10
12.00357367
 20
10.0549191428
 30
0.0
 10
12.0156546928
 20
10.0577597284
 30
0.0
 10
12.0271858726
 20
10.0607488694
 30
0.0
 10
12.0381399347
 20
10.0638794006
 30
0.0
 10
12.0484909991
 20
10.0671438243
 30
0.0
 10
12.0582147439
 20
10.0705343445
 30
0.0
 10
12.0672882053
 20
10.0740428657
 30
0.0
 10
12.0744028652
 20
10.0771065016
 30
0.0
 10
12.0797455247
 20
10.0796170287
 30
0.0
 10
12.0835105385
 20
10.0814931049
 30
0.0
 10
12.0870977132
 20
10.0833923703
 30
0.0
 10
12.0905049629
 20
10.0853136951
 30
0.0
 10
12.0937302649
 20
10.0872560031
 30
0.0
 10
12.0967717552
 20
10.0892181236
 30
0.0
 10
12.0996276451
 20
10.0911989396
 30
0.0
 10
12.1022962786
 20
10.0931973569
 30
0.0
 10
12.104776058
 20
10.0952121381
 30
0.0
 10
12.1063356099
 20
10.0965950248
 30
0.0
 10
12.107081691
 20
10.0972893279
 30
0.0
  0
SPLINE
  5
33F
100
AcDbEntity
  8
0
100
AcDbSpline
 62
7
  6
CONTINUOUS
 70
0
 71
3
 72
21
 73
17
 74
0
 42
0.0000001
 43
0.0000001
 44
0.0000000001
 40
0.0
 40
0.0
 40
0.0
 40
0.0
 40
0.061653237
 40
0.123329498
 40
0.1850515502
 40
0.2468416698
 40
0.3087213548
 40
0.370711108
 40
0.4328302426
 40
0.495096636
 40
0.5575265765
 40
0.6201345494
 40
0.682933126
 40
0.7459332432
 40
0.8725261314
 40
1.0
 40
1.0
 40
1.0
 40
1.0
 10
9.2738857609
 20
7.076359794
 30
0.0
 10
9.2754624677
 20
7.0778827863
 30
0.0
 10
9.2786990548
 20
7.0808451595
 30
0.0
 10
9.2837867597
 20
7.0850221758
 30
0.0
 10
9.2890953757
 20
7.0889231212
 30
0.0
 10
9.2946113636
 20
7.0925379789
 30
0.0
 10
9.3003208879
 20
7.0958576606
 30
0.0
 10
9.3062095169
 20
7.0988738471
 30
0.0
 10
9.3122624243
 20
7.1015789444
 30
0.0
 10
9.3184643695
 20
7.1039661099
 30
0.0
 10
9.3247997188
 20
7.1060293952
 30
0.0
 10
9.3312524676
 20
7.1077636121
 30
0.0
 10
9.3378065642
 20
7.1091643772
 30
0.0
 10
9.3466709172
 20
7.1105849433
 30
0.0
 10
9.3579272387
 20
7.1115078793
 30
0.0
 10
9.3669766429
 20
7.1113312706
 30
0.0
 10
9.3714982535
 20
7.1110176959
 30
0.0
  0
SPLINE
  5
340
100
AcDbEntity
  8
0
100
AcDbSpline
 62
7
  6
CONTINUOUS
 70
0
 71
3
 72
21
 73
17
 74
0
 42
0.0000001
 43
0.0000001
 44
0.0000000001
 40
0.0
 40
0.0
 40
0.0
 40
0.0
 40
0.061653237
 40
0.123329498
 40
0.1850515502
 40
0.2468416698
 40
0.3087213548
 40
0.370711108
 40
0.4328302426
 40
0.495096636
 40
0.5575265765
 40
0.6201345494
 40
0.682933126
 40
0.7459332432
 40
0.8725261314
 40
1.0
 40
1.0
 40
1.0
 40
1.0
 10
12.0132515622
 20
6.8863841304
 30
0.0
 10
12.014828269
 20
6.8879071227
 30
0.0
 10
12.0180648561
 20
6.8908694959
 30
0.0
 10
12.023152561
 20
6.8950465123
 30
0.0
 10
12.028461177
 20
6.8989474576
 30
0.0
 10
12.0339771649
 20
6.9025623153
 30
0.0
 10
12.0396866892
 20
6.905881997
 30
0.0
 10
12.0455753182
 20
6.9088981835
 30
0.0
 10
12.0516282256
 20
6.9116032808
 30
0.0
 10
12.0578301708
 20
6.9139904463
 30
0.0
 10
12.0641655201
 20
6.9160537316
 30
0.0
 10
12.0706182689
 20
6.9177879485
 30
0.0
 10
12.0771723655
 20
6.9191887137
 30
0.0
 10
12.0860367185
 20
6.9206092797
 30
0.0
 10
12.09729304
 20
6.9215322157
 30
0.0
 10
12.1063424442
 20
6.9213556071
 30
0.0
 10
12.1108640547
 20
6.9210420323
 30
0.0
  0
SPLINE
  5
341
100
AcDbEntity
  8
0
100
AcDbSpline
 62
7
  6
CONTINUOUS
 70
0
 71
3
 72
21
 73
17
 74
0
 42
0.0000001
 43
0.0000001
 44
0.0000000001
 40
0.0
 40
0.0
 40
0.0
 40
0.0
 40
0.061653237
 40
0.123329498
 40
0.1850515502
 40
0.2468416698
 40
0.3087213548
 40
0.370711108
 40
0.4328302426
 40
0.495096636
 40
0.5575265765
 40
0.6201345494
 40
0.682933126
 40
0.7459332432
 40
0.8725261314
 40
1.0
 40
1.0
 40
1.0
 40
1.0
 10
12.0132515622
 20
9.6257499317
 30
0.0
 10
12.014828269
 20
9.627272924
 30
0.0
 10
12.0180648561
 20
9.6302352972
 30
0.0
 10
12.023152561
 20
9.6344123136
 30
0.0
 10
12.028461177
 20
9.6383132589
 30
0.0
 10
12.0339771649
 20
9.6419281166
 30
0.0
 10
12.0396866892
 20
9.6452477983
 30
0.0
 10
12.0455753182
 20
9.6482639848
 30
0.0
 10
12.0516282256
 20
9.6509690821
 30
0.0
 10
12.0578301708
 20
9.6533562476
 30
0.0
 10
12.0641655201
 20
9.6554195329
 30
0.0
 10
12.0706182689
 20
9.6571537498
 30
0.0
 10
12.0771723655
 20
9.658554515
 30
0.0
 10
12.0860367185
 20
9.659975081
 30
0.0
 10
12.09729304
 20
9.660898017
 30
0.0
 10
12.1063424442
 20
9.6607214084
 30
0.0
 10
12.1108640547
 20
9.6604078336
 30
0.0
  0
SPLINE
  5
342
100
AcDbEntity
  8
0
100
AcDbSpline
 62
7
  6
CONTINUOUS
 70
0
 71
3
 72
21
 73
17
 74
0
 42
0.0000001
 43
0.0000001
 44
0.0000000001
 40
0.0
 40
0.0
 40
0.0
 40
0.0
 40
0.061653237
 40
0.123329498
 40
0.1850515502
 40
0.2468416698
 40
0.3087213548
 40
0.370711108
 40
0.4328302426
 40
0.495096636
 40
0.5575265765
 40
0.6201345494
 40
0.682933126
 40
0.7459332432
 40
0.8725261314
 40
1.0
 40
1.0
 40
1.0
 40
1.0
 10
9.2738857609
 20
9.8157255953
 30
0.0
 10
9.2754624677
 20
9.8172485875
 30
0.0
 10
9.2786990548
 20
9.8202109608
 30
0.0
 10
9.2837867597
 20
9.8243879771
 30
0.0
 10
9.2890953757
 20
9.8282889225
 30
0.0
 10
9.2946113636
 20
9.8319037802
 30
0.0
 10
9.3003208879
 20
9.8352234619
 30
0.0
 10
9.3062095169
 20
9.8382396483
 30
0.0
 10
9.3122624243
 20
9.8409447457
 30
0.0
 10
9.3184643695
 20
9.8433319112
 30
0.0
 10
9.3247997188
 20
9.8453951965
 30
0.0
 10
9.3312524676
 20
9.8471294133
 30
0.0
 10
9.3378065642
 20
9.8485301785
 30
0.0
 10
9.3466709172
 20
9.8499507446
 30
0.0
 10
9.3579272387
 20
9.8508736805
 30
0.0
 10
9.3669766429
 20
9.8506970719
 30
0.0
 10
9.3714982535
 20
9.8503834972
 30
0.0
  0
SPLINE
  5
343
100
AcDbEntity
  8
0
100
AcDbSpline
 62
7
  6
CONTINUOUS
 70
0
 71
3
 72
39
 73
35
 74
0
 42
0.0000001
 43
0.0000001
 44
0.0000000001
 40
0.0
 40
0.0
 40
0.0
 40
0.0
 40
0.0299424741
 40
0.0599093236
 40
0.0899243299
 40
0.1200101071
 40
0.1501875628
 40
0.1804754121
 40
0.2108897558
 40
0.2414437341
 40
0.2721472619
 40
0.3030068476
 40
0.3340255003
 40
0.3652027176
 40
0.3965345493
 40
0.4280137317
 40
0.459629888
 40
0.4913697842
 40
0.5232176352
 40
0.5551554541
 40
0.5871634377
 40
0.6192203778
 40
0.6513040905
 40
0.68339186
 40
0.715460889
 40
0.7474887514
 40
0.779453839
 40
0.8113357971
 40
0.8431159663
 40
0.8747776774
 40
0.9063069717
 40
0.937691796
 40
0.9689252179
 40
1.0
 40
1.0
 40
1.0
 40
1.0
 10
9.9133812378
 20
7.7840167118
 30
0.0
 10
9.9148826059
 20
7.7854669158
 30
0.0
 10
9.9180033868
 20
7.7882502974
 30
0.0
 10
9.9230033763
 20
7.7920421495
 30
0.0
 10
9.9282966119
 20
7.7954318203
 30
0.0
 10
9.9338535198
 20
7.7984002929
 30
0.0
 10
9.9396435478
 20
7.8009313521
 30
0.0
 10
9.9456347422
 20
7.8030110844
 30
0.0
 10
9.9517940891
 20
7.8046281096
 30
0.0
 10
9.9580876557
 20
7.8057735969
 30
0.0
 10
9.9644807908
 20
7.8064413195
 30
0.0
 10
9.9709383128
 20
7.8066276896
 30
0.0
 10
9.9774247064
 20
7.8063317695
 30
0.0
 10
9.9839043165
 20
7.8055552687
 30
0.0
 10
9.9903415424
 20
7.8043025312
 30
0.0
 10
9.9967010301
 20
7.8025805089
 30
0.0
 10
10.0029478639
 20
7.8003987213
 30
0.0
 10
10.0090477548
 20
7.7977692017
 30
0.0
 10
10.014967225
 20
7.7947064299
 30
0.0
 10
10.020673794
 20
7.7912272605
 30
0.0
 10
10.0261361524
 20
7.7873508237
 30
0.0
 10
10.0313243306
 20
7.7830984187
 30
0.0
 10
10.0362098609
 20
7.7784933987
 30
0.0
 10
10.0407659314
 20
7.7735610436
 30
0.0
 10
10.0449675315
 20
7.7683284232
 30
0.0
 10
10.0487915878
 20
7.7628242501
 30
0.0
 10
10.0522170879
 20
7.7570787249
 30
0.0
 10
10.0552252075
 20
7.7511233749
 30
0.0
 10
10.0577993923
 20
7.7449908832
 30
0.0
 10
10.059925491
 20
7.7387148897
 30
0.0
 10
10.0615917243
 20
7.7323298964
 30
0.0
 10
10.0627889792
 20
7.7258707758
 30
0.0
 10
10.0635104725
 20
7.7193735388
 30
0.0
 10
10.0636720983
 20
7.7150281597
 30
0.0
 10
10.0636720983
 20
7.7128618325
 30
0.0
  0
SPLINE
  5
344
100
AcDbEntity
  8
0
100
AcDbSpline
 62
7
  6
CONTINUOUS
 70
0
 71
3
 72
39
 73
35
 74
0
 42
0.0000001
 43
0.0000001
 44
0.0000000001
 40
0.0
 40
0.0
 40
0.0
 40
0.0
 40
0.0299424741
 40
0.0599093236
 40
0.0899243299
 40
0.1200101071
 40
0.1501875628
 40
0.1804754121
 40
0.2108897558
 40
0.2414437341
 40
0.2721472619
 40
0.3030068476
 40
0.3340255003
 40
0.3652027176
 40
0.3965345493
 40
0.4280137317
 40
0.459629888
 40
0.4913697842
 40
0.5232176352
 40
0.5551554541
 40
0.5871634377
 40
0.6192203778
 40
0.6513040905
 40
0.68339186
 40
0.715460889
 40
0.7474887514
 40
0.779453839
 40
0.8113357971
 40
0.8431159663
 40
0.8747776774
 40
0.9063069717
 40
0.937691796
 40
0.9689252179
 40
1.0
 40
1.0
 40
1.0
 40
1.0
 10
9.9133812378
 20
8.9614803463
 30
0.0
 10
9.9148826059
 20
8.9629305503
 30
0.0
 10
9.9180033868
 20
8.9657139319
 30
0.0
 10
9.9230033763
 20
8.969505784
 30
0.0
 10
9.9282966119
 20
8.9728954548
 30
0.0
 10
9.9338535198
 20
8.9758639274
 30
0.0
 10
9.9396435478
 20
8.9783949866
 30
0.0
 10
9.9456347422
 20
8.980474719
 30
0.0
 10
9.9517940891
 20
8.9820917441
 30
0.0
 10
9.9580876557
 20
8.9832372314
 30
0.0
 10
9.9644807908
 20
8.983904954
 30
0.0
 10
9.9709383128
 20
8.9840913241
 30
0.0
 10
9.9774247064
 20
8.9837954041
 30
0.0
 10
9.9839043165
 20
8.9830189032
 30
0.0
 10
9.9903415424
 20
8.9817661657
 30
0.0
 10
9.9967010301
 20
8.9800441435
 30
0.0
 10
10.0029478639
 20
8.9778623558
 30
0.0
 10
10.0090477548
 20
8.9752328362
 30
0.0
 10
10.014967225
 20
8.9721700644
 30
0.0
 10
10.020673794
 20
8.9686908951
 30
0.0
 10
10.0261361524
 20
8.9648144582
 30
0.0
 10
10.0313243306
 20
8.9605620532
 30
0.0
 10
10.0362098609
 20
8.9559570332
 30
0.0
 10
10.0407659314
 20
8.9510246781
 30
0.0
 10
10.0449675315
 20
8.9457920577
 30
0.0
 10
10.0487915878
 20
8.9402878847
 30
0.0
 10
10.0522170879
 20
8.9345423594
 30
0.0
 10
10.0552252075
 20
8.9285870094
 30
0.0
 10
10.0577993923
 20
8.9224545177
 30
0.0
 10
10.059925491
 20
8.9161785242
 30
0.0
 10
10.0615917243
 20
8.9097935309
 30
0.0
 10
10.0627889792
 20
8.9033344103
 30
0.0
 10
10.0635104725
 20
8.8968371733
 30
0.0
 10
10.0636720983
 20
8.8924917942
 30
0.0
 10
10.0636720983
 20
8.890325467
 30
0.0
  0
SPLINE
  5
345
100
AcDbEntity
  8
0
100
AcDbSpline
 62
7
  6
CONTINUOUS
 70
0
 71
3
 72
39
 73
35
 74
0
 42
0.0000001
 43
0.0000001
 44
0.0000000001
 40
0.0
 40
0.0
 40
0.0
 40
0.0
 40
0.0299424741
 40
0.0599093236
 40
0.0899243299
 40
0.1200101071
 40
0.1501875628
 40
0.1804754121
 40
0.2108897558
 40
0.2414437341
 40
0.2721472619
 40
0.3030068476
 40
0.3340255003
 40
0.3652027176
 40
0.3965345493
 40
0.4280137317
 40
0.459629888
 40
0.4913697842
 40
0.5232176352
 40
0.5551554541
 40
0.5871634377
 40
0.6192203778
 40
0.6513040905
 40
0.68339186
 40
0.715460889
 40
0.7474887514
 40
0.779453839
 40
0.8113357971
 40
0.8431159663
 40
0.8747776774
 40
0.9063069717
 40
0.937691796
 40
0.9689252179
 40
1.0
 40
1.0
 40
1.0
 40
1.0
 10
11.453067021
 20
8.8856124655
 30
0.0
 10
11.4545683891
 20
8.8870626695
 30
0.0
 10
11.4576891701
 20
8.8898460511
 30
0.0
 10
11.4626891595
 20
8.8936379032
 30
0.0
 10
11.4679823952
 20
8.897027574
 30
0.0
 10
11.4735393031
 20
8.8999960466
 30
0.0
 10
11.479329331
 20
8.9025271058
 30
0.0
 10
11.4853205255
 20
8.9046068381
 30
0.0
 10
11.4914798724
 20
8.9062238633
 30
0.0
 10
11.4977734389
 20
8.9073693506
 30
0.0
 10
11.504166574
 20
8.9080370732
 30
0.0
 10
11.510624096
 20
8.9082234433
 30
0.0
 10
11.5171104896
 20
8.9079275232
 30
0.0
 10
11.5235900998
 20
8.9071510224
 30
0.0
 10
11.5300273257
 20
8.9058982849
 30
0.0
 10
11.5363868134
 20
8.9041762626
 30
0.0
 10
11.5426336472
 20
8.901994475
 30
0.0
 10
11.548733538
 20
8.8993649554
 30
0.0
 10
11.5546530082
 20
8.8963021836
 30
0.0
 10
11.5603595772
 20
8.8928230142
 30
0.0
 10
11.5658219357
 20
8.8889465774
 30
0.0
 10
11.5710101139
 20
8.8846941724
 30
0.0
 10
11.5758956441
 20
8.8800891524
 30
0.0
 10
11.5804517146
 20
8.8751567973
 30
0.0
 10
11.5846533147
 20
8.8699241768
 30
0.0
 10
11.5884773711
 20
8.8644200038
 30
0.0
 10
11.5919028711
 20
8.8586744786
 30
0.0
 10
11.5949109908
 20
8.8527191286
 30
0.0
 10
11.5974851755
 20
8.8465866368
 30
0.0
 10
11.5996112742
 20
8.8403106434
 30
0.0
 10
11.6012775076
 20
8.8339256501
 30
0.0
 10
11.6024747624
 20
8.8274665295
 30
0.0
 10
11.6031962557
 20
8.8209692924
 30
0.0
 10
11.6033578816
 20
8.8166239134
 30
0.0
 10
11.6033578816
 20
8.8144575862
 30
0.0
  0
SPLINE
  5
346
100
AcDbEntity
  8
0
100
AcDbSpline
 62
7
  6
CONTINUOUS
 70
0
 71
3
 72
39
 73
35
 74
0
 42
0.0000001
 43
0.0000001
 44
0.0000000001
 40
0.0
 40
0.0
 40
0.0
 40
0.0
 40
0.0299424741
 40
0.0599093236
 40
0.0899243299
 40
0.1200101071
 40
0.1501875628
 40
0.1804754121
 40
0.2108897558
 40
0.2414437341
 40
0.2721472619
 40
0.3030068476
 40
0.3340255003
 40
0.3652027176
 40
0.3965345493
 40
0.4280137317
 40
0.459629888
 40
0.4913697842
 40
0.5232176352
 40
0.5551554541
 40
0.5871634377
 40
0.6192203778
 40
0.6513040905
 40
0.68339186
 40
0.715460889
 40
0.7474887514
 40
0.779453839
 40
0.8113357971
 40
0.8431159663
 40
0.8747776774
 40
0.9063069717
 40
0.937691796
 40
0.9689252179
 40
1.0
 40
1.0
 40
1.0
 40
1.0
 10
11.453067021
 20
7.6472954202
 30
0.0
 10
11.4545683891
 20
7.6487456242
 30
0.0
 10
11.4576891701
 20
7.6515290058
 30
0.0
 10
11.4626891595
 20
7.6553208579
 30
0.0
 10
11.4679823952
 20
7.6587105287
 30
0.0
 10
11.4735393031
 20
7.6616790013
 30
0.0
 10
11.479329331
 20
7.6642100605
 30
0.0
 10
11.4853205255
 20
7.6662897928
 30
0.0
 10
11.4914798724
 20
7.667906818
 30
0.0
 10
11.4977734389
 20
7.6690523053
 30
0.0
 10
11.504166574
 20
7.6697200279
 30
0.0
 10
11.510624096
 20
7.669906398
 30
0.0
 10
11.5171104896
 20
7.6696104779
 30
0.0
 10
11.5235900998
 20
7.6688339771
 30
0.0
 10
11.5300273257
 20
7.6675812396
 30
0.0
 10
11.5363868134
 20
7.6658592173
 30
0.0
 10
11.5426336472
 20
7.6636774297
 30
0.0
 10
11.548733538
 20
7.6610479101
 30
0.0
 10
11.5546530082
 20
7.6579851383
 30
0.0
 10
11.5603595772
 20
7.6545059689
 30
0.0
 10
11.5658219357
 20
7.650629532
 30
0.0
 10
11.5710101139
 20
7.646377127
 30
0.0
 10
11.5758956441
 20
7.641772107
 30
0.0
 10
11.5804517146
 20
7.636839752
 30
0.0
 10
11.5846533147
 20
7.6316071315
 30
0.0
 10
11.5884773711
 20
7.6261029585
 30
0.0
 10
11.5919028711
 20
7.6203574332
 30
0.0
 10
11.5949109908
 20
7.6144020833
 30
0.0
 10
11.5974851755
 20
7.6082695915
 30
0.0
 10
11.5996112742
 20
7.6019935981
 30
0.0
 10
11.6012775076
 20
7.5956086048
 30
0.0
 10
11.6024747624
 20
7.5891494842
 30
0.0
 10
11.6031962557
 20
7.5826522471
 30
0.0
 10
11.6033578816
 20
7.578306868
 30
0.0
 10
11.6033578816
 20
7.5761405409
 30
0.0
  0
SPLINE
  5
347
100
AcDbEntity
  8
0
100
AcDbSpline
 62
7
  6
CONTINUOUS
 70
0
 71
3
 72
15
 73
11
 74
0
 42
0.0000001
 43
0.0000001
 44
0.0000000001
 40
0.0
 40
0.0
 40
0.0
 40
0.0
 40
0.1233171148
 40
0.2468171822
 40
0.3706750007
 40
0.4950496181
 40
0.6200773069
 40
0.7458672043
 40
0.8724928123
 40
1.0
 40
1.0
 40
1.0
 40
1.0
 10
11.1699544343
 20
7.653450466
 30
0.0
 10
11.1717047568
 20
7.6551411287
 30
0.0
 10
11.1753932729
 20
7.6583389788
 30
0.0
 10
11.1814132444
 20
7.6625177249
 30
0.0
 10
11.1878638487
 20
7.6660403316
 30
0.0
 10
11.1946790363
 20
7.6688706229
 30
0.0
 10
11.201790071
 20
7.670980502
 30
0.0
 10
11.2091253252
 20
7.6723488533
 30
0.0
 10
11.2166099221
 20
7.6729623748
 30
0.0
 10
11.2216339438
 20
7.6728643746
 30
0.0
 10
11.2241441103
 20
7.672690294
 30
0.0
  0
SPLINE
  5
348
100
AcDbEntity
  8
0
100
AcDbSpline
 62
7
  6
CONTINUOUS
 70
0
 71
3
 72
27
 73
23
 74
0
 42
0.0000001
 43
0.0000001
 44
0.0000000001
 40
0.0
 40
0.0
 40
0.0
 40
0.0
 40
0.0604864217
 40
0.121177625
 40
0.182099126
 40
0.2432758325
 40
0.3047315625
 40
0.366488231
 40
0.4285645896
 40
0.4909743908
 40
0.5537238637
 40
0.6168085021
 40
0.6484796758
 40
0.6802264851
 40
0.7439063363
 40
0.8078062033
 40
0.839825191
 40
0.8718676838
 40
0.9039205889
 40
0.935969165
 40
0.9680020961
 40
1.0
 40
1.0
 40
1.0
 40
1.0
 10
10.4789264466
 20
8.1519877251
 30
0.0
 10
10.4754920228
 20
8.1506502081
 30
0.0
 10
10.4685249701
 20
8.1481869676
 30
0.0
 10
10.4578413312
 20
8.1451629006
 30
0.0
 10
10.4469410551
 20
8.1428339363
 30
0.0
 10
10.435862676
 20
8.1412342014
 30
0.0
 10
10.4246487661
 20
8.140400615
 30
0.0
 10
10.4133483423
 20
8.1403729913
 30
0.0
 10
10.4020184837
 20
8.1411932864
 30
0.0
 10
10.3907261426
 20
8.1429045364
 30
0.0
 10
10.3795511051
 20
8.1455484878
 30
0.0
 10
10.3704232657
 20
8.1485577931
 30
0.0
 10
10.3632808828
 20
8.1514632058
 30
0.0
 10
10.3562481244
 20
8.1547122794
 30
0.0
 10
10.3477340892
 20
8.1594110328
 30
0.0
 10
10.3397156498
 20
8.1649458643
 30
0.0
 10
10.333660994
 20
8.1698636698
 30
0.0
 10
10.3293146456
 20
8.1737934679
 30
0.0
 10
10.3251848088
 20
8.1779526576
 30
0.0
 10
10.3212880789
 20
8.1823304308
 30
0.0
 10
10.3176406247
 20
8.1869134975
 30
0.0
 10
10.3153827672
 20
8.1900983992
 30
0.0
 10
10.3142999856
 20
8.1917198629
 30
0.0
  0
SPLINE
  5
349
100
AcDbEntity
  8
0
100
AcDbSpline
 62
7
  6
CONTINUOUS
 70
0
 71
3
 72
40
 73
36
 74
0
 42
0.0000001
 43
0.0000001
 44
0.0000000001
 40
0.0
 40
0.0
 40
0.0
 40
0.0
 40
0.0301996485
 40
0.0603260018
 40
0.090408568
 40
0.1204780458
 40
0.1505653679
 40
0.180700751
 40
0.2109127941
 40
0.2412276545
 40
0.2716683301
 40
0.3022540645
 40
0.3329998873
 40
0.3639162908
 40
0.3950090433
 40
0.4262791311
 40
0.4577228188
 40
0.4893318204
 40
0.521093566
 40
0.5529915582
 40
0.5850058036
 40
0.6171133156
 40
0.6492886757
 40
0.6815046486
 40
0.7137328417
 40
0.7459444004
 40
0.7781107281
 40
0.810204221
 40
0.8421989964
 40
0.8740716259
 40
0.9058017443
 40
0.9373728996
 40
0.9530977793
 40
0.9687791416
 40
1.0
 40
1.0
 40
1.0
 40
1.0
 10
10.6786250736
 20
7.9023702456
 30
0.0
 10
10.6801815622
 20
7.905236708
 30
0.0
 10
10.6835465533
 20
7.9108280635
 30
0.0
 10
10.6893141466
 20
7.9187228583
 30
0.0
 10
10.6957543905
 20
7.9260615881
 30
0.0
 10
10.7028206803
 20
7.932793179
 30
0.0
 10
10.7104628578
 20
7.9388722345
 30
0.0
 10
10.7186268867
 20
7.9442578619
 30
0.0
 10
10.7272554989
 20
7.9489142565
 30
0.0
 10
10.7362885837
 20
7.9528107521
 30
0.0
 10
10.7456636402
 20
7.9559219596
 30
0.0
 10
10.7553162006
 20
7.9582278327
 30
0.0
 10
10.7651802463
 20
7.9597137134
 30
0.0
 10
10.7751886098
 20
7.9603703507
 30
0.0
 10
10.7852733647
 20
7.9601939002
 30
0.0
 10
10.7953662073
 20
7.9591859088
 30
0.0
 10
10.8053988319
 20
7.9573532858
 30
0.0
 10
10.8153033038
 20
7.9547082622
 30
0.0
 10
10.8250124341
 20
7.9512683365
 30
0.0
 10
10.8344601587
 20
7.9470562073
 30
0.0
 10
10.8435819239
 20
7.9420996856
 30
0.0
 10
10.8523150806
 20
7.9364315876
 30
0.0
 10
10.8605992861
 20
7.9300896003
 30
0.0
 10
10.8683769144
 20
7.9231161175
 30
0.0
 10
10.8755934708
 20
7.91555804
 30
0.0
 10
10.8821980077
 20
7.9074665353
 30
0.0
 10
10.8881435362
 20
7.8988967597
 30
0.0
 10
10.8933874281
 20
7.8899075164
 30
0.0
 10
10.8978917977
 20
7.8805609325
 30
0.0
 10
10.901623869
 20
7.8709218552
 30
0.0
 10
10.9045562476
 20
7.8610580623
 30
0.0
 10
10.9063180106
 20
7.8526958875
 30
0.0
 10
10.9073070692
 20
7.8459643723
 30
0.0
 10
10.9080130879
 20
7.8392357595
 30
0.0
 10
10.9082272158
 20
7.8341667047
 30
0.0
 10
10.9082272158
 20
7.8307946181
 30
0.0
  0
SPLINE
  5
34A
100
AcDbEntity
  8
0
100
AcDbSpline
 62
7
  6
CONTINUOUS
 70
0
 71
3
 72
32
 73
28
 74
0
 42
0.0000001
 43
0.0000001
 44
0.0000000001
 40
0.0
 40
0.0
 40
0.0
 40
0.0
 40
0.0607419964
 40
0.1218244709
 40
0.152500256
 40
0.1832613649
 40
0.2450255445
 40
0.3071229908
 40
0.3695430058
 40
0.4322692266
 40
0.4952772073
 40
0.5585300109
 40
0.5902421074
 40
0.6219940071
 40
0.6855473442
 40
0.7173458412
 40
0.7491274465
 40
0.7808715421
 40
0.8125549726
 40
0.8441525206
 40
0.8599138795
 40
0.8756441522
 40
0.9069913079
 40
0.9381767892
 40
0.953706146
 40
0.9691887995
 40
1.0
 40
1.0
 40
1.0
 40
1.0
 10
10.7373553909
 20
8.7718037291
 30
0.0
 10
10.7428586246
 20
8.7727651585
 30
0.0
 10
10.7539855215
 20
8.7742102506
 30
0.0
 10
10.7680127335
 20
8.7748515924
 30
0.0
 10
10.7792825722
 20
8.7746843331
 30
0.0
 10
10.7905991985
 20
8.7740627218
 30
0.0
 10
10.8047431168
 20
8.7724355516
 30
0.0
 10
10.8215725613
 20
8.7691331229
 30
0.0
 10
10.8381698648
 20
8.7644690481
 30
0.0
 10
10.854406904
 20
8.7584250314
 30
0.0
 10
10.8701357119
 20
8.7509761958
 30
0.0
 10
10.8826672007
 20
8.743577244
 30
0.0
 10
10.8922449169
 20
8.7369289115
 30
0.0
 10
10.901491533
 20
8.7297834202
 30
0.0
 10
10.9101606103
 20
8.7218969959
 30
0.0
 10
10.9180832927
 20
8.7132895026
 30
0.0
 10
10.9236107519
 20
8.7064762261
 30
0.0
 10
10.9286710773
 20
8.6993215952
 30
0.0
 10
10.9332118629
 20
8.6918455706
 30
0.0
 10
10.9365210217
 20
8.6853641235
 30
0.0
 10
10.9388539172
 20
8.6800498266
 30
0.0
 10
10.9409644776
 20
8.6746681203
 30
0.0
 10
10.9431799784
 20
8.6678102423
 30
0.0
 10
10.9447972688
 20
8.660805223
 30
0.0
 10
10.945710098
 20
8.6551562586
 30
0.0
 10
10.9463636164
 20
8.6495065647
 30
0.0
 10
10.9465627771
 20
8.645245508
 30
0.0
 10
10.9465627771
 20
8.6424117292
 30
0.0
  0
SPLINE
  5
34B
100
AcDbEntity
  8
0
100
AcDbSpline
 62
7
  6
CONTINUOUS
 70
0
 71
3
 72
21
 73
17
 74
0
 42
0.0000001
 43
0.0000001
 44
0.0000000001
 40
0.0
 40
0.0
 40
0.0
 40
0.0
 40
0.12814043
 40
0.192023601
 40
0.2557379297
 40
0.382509707
 40
0.4455697851
 40
0.5083638436
 40
0.570871374
 40
0.6330761101
 40
0.6949677794
 40
0.7565438903
 40
0.8178116377
 40
0.8787888151
 40
0.9395050436
 40
1.0
 40
1.0
 40
1.0
 40
1.0
 10
11.0082662405
 20
8.1889722293
 30
0.0
 10
11.0055476383
 20
8.1936067227
 30
0.0
 10
11.0017893242
 20
8.2007457567
 30
0.0
 10
10.9975154147
 20
8.2105846517
 30
0.0
 10
10.9937790098
 20
8.2205785521
 30
0.0
 10
10.9908719762
 20
8.2308335978
 30
0.0
 10
10.9889117283
 20
8.2412489968
 30
0.0
 10
10.98794305
 20
8.2490933187
 30
0.0
 10
10.9874995345
 20
8.2569491034
 30
0.0
 10
10.9876049634
 20
8.2647795284
 30
0.0
 10
10.9882802594
 20
8.2725428879
 30
0.0
 10
10.9895419458
 20
8.280193571
 30
0.0
 10
10.9914007358
 20
8.2876825511
 30
0.0
 10
10.9938602975
 20
8.2949589259
 30
0.0
 10
10.9969155837
 20
8.3019703848
 30
0.0
 10
10.9993453136
 20
8.3064431387
 30
0.0
 10
11.0006526684
 20
8.3086168782
 30
0.0
  0
SPLINE
  5
34C
100
AcDbEntity
  8
0
100
AcDbSpline
 62
7
  6
CONTINUOUS
 70
0
 71
3
 72
9
 73
5
 74
0
 42
0.0000001
 43
0.0000001
 44
0.0000000001
 40
0.0
 40
0.0
 40
0.0
 40
0.0
 40
0.5037091296
 40
1.0
 40
1.0
 40
1.0
 40
1.0
 10
11.4849833429
 20
10.0816001831
 30
0.0
 10
11.484768996
 20
10.082440626
 30
0.0
 10
11.4844423437
 20
10.0841362499
 30
0.0
 10
11.484331862
 20
10.0858599043
 30
0.0
 10
11.4843318649
 20
10.0867144767
 30
0.0
  0
SPLINE
  5
34D
100
AcDbEntity
  8
0
100
AcDbSpline
 62
7
  6
CONTINUOUS
 70
0
 71
3
 72
52
 73
48
 74
0
 42
0.0000001
 43
0.0000001
 44
0.0000000001
 40
0.0
 40
0.0
 40
0.0
 40
0.0
 40
0.0055575409
 40
0.0111779669
 40
0.0169218944
 40
0.0228457784
 40
0.0290005385
 40
0.0354309383
 40
0.0421753664
 40
0.0492662129
 40
0.0567302428
 40
0.0645893498
 40
0.0728610114
 40
0.0815590518
 40
0.0906939685
 40
0.1002735876
 40
0.1103032329
 40
0.1207862668
 40
0.1317241336
 40
0.1431168099
 40
0.1549627623
 40
0.1672593293
 40
0.180002627
 40
0.1931878784
 40
0.2068092924
 40
0.2208603496
 40
0.2353336718
 40
0.2502212706
 40
0.2812030867
 40
0.3137301822
 40
0.3477175443
 40
0.3830726942
 40
0.4196965467
 40
0.4574841626
 40
0.4963254275
 40
0.5361056779
 40
0.5767062924
 40
0.6180052566
 40
0.6598777114
 40
0.7021964885
 40
0.7448326391
 40
0.7876559545
 40
0.8305354925
 40
0.8733400712
 40
0.9159388564
 40
0.9582016962
 40
1.0
 40
1.0
 40
1.0
 40
1.0
 10
12.2593318427
 20
10.1359769655
 30
0.0
 10
12.2593318477
 20
10.1348019073
 30
0.0
 10
12.2592003211
 20
10.1324364473
 30
0.0
 10
12.2586098659
 20
10.1289008854
 30
0.0
 10
12.2576272992
 20
10.1253732008
 30
0.0
 10
12.2562544589
 20
10.1218575071
 30
0.0
 10
12.2544936764
 20
10.1183566232
 30
0.0
 10
12.2523472507
 20
10.1148732716
 30
0.0
 10
12.2498176922
 20
10.1114097962
 30
0.0
 10
12.246907417
 20
10.1079685848
 30
0.0
 10
12.2436190896
 20
10.1045518938
 30
0.0
 10
12.2399554076
 20
10.1011621635
 30
0.0
 10
12.2359194048
 20
10.0978017464
 30
0.0
 10
12.23151426
 20
10.0944731988
 30
0.0
 10
12.2267435278
 20
10.0911789644
 30
0.0
 10
12.2216109683
 20
10.0879216679
 30
0.0
 10
12.2161207177
 20
10.0847037919
 30
0.0
 10
12.2102771457
 20
10.0815279713
 30
0.0
 10
12.2040849806
 20
10.0783966809
 30
0.0
 10
12.1975491958
 20
10.0753125228
 30
0.0
 10
12.1906751007
 20
10.0722779315
 30
0.0
 10
12.1834682536
 20
10.0692954468
 30
0.0
 10
12.1759345258
 20
10.0663674413
 30
0.0
 10
12.1680800374
 20
10.063496373
 30
0.0
 10
12.1599111988
 20
10.0606845359
 30
0.0
 10
12.1514346691
 20
10.0579342979
 30
0.0
 10
12.1426573647
 20
10.0552478404
 30
0.0
 10
12.1303995552
 20
10.0517068978
 30
0.0
 10
12.1143723534
 20
10.04746818
 30
0.0
 10
12.094306789
 20
10.0427348823
 30
0.0
 10
12.0732263616
 20
10.0383052458
 30
0.0
 10
12.0512000327
 20
10.0341939196
 30
0.0
 10
12.028299723
 20
10.030414522
 30
0.0
 10
12.0046003319
 20
10.0269795588
 30
0.0
 10
11.980179401
 20
10.0239003929
 30
0.0
 10
11.9551168721
 20
10.0211872053
 30
0.0
 10
11.9294948119
 20
10.0188489633
 30
0.0
 10
11.9033971385
 20
10.016893392
 30
0.0
 10
11.8769093425
 20
10.0153269508
 30
0.0
 10
11.8501182028
 20
10.014154812
 30
0.0
 10
11.8231114997
 20
10.0133808457
 30
0.0
 10
11.7959777246
 20
10.0130076065
 30
0.0
 10
11.7688057887
 20
10.0130363272
 30
0.0
 10
11.7416847289
 20
10.0134669111
 30
0.0
 10
11.7147034042
 20
10.0142979411
 30
0.0
 10
11.687950294
 20
10.0155266646
 30
0.0
 10
11.6702093524
 20
10.0166153659
 30
0.0
 10
11.6613929075
 20
10.0172267884
 30
0.0
  0
SPLINE
  5
34E
100
AcDbEntity
  8
0
100
AcDbSpline
 62
7
  6
CONTINUOUS
 70
0
 71
3
 72
9
 73
5
 74
0
 42
0.0000001
 43
0.0000001
 44
0.0000000001
 40
0.0
 40
0.0
 40
0.0
 40
0.0
 40
0.5037528388
 40
1.0
 40
1.0
 40
1.0
 40
1.0
 10
12.0836725345
 20
10.0815695889
 30
0.0
 10
12.0838894294
 20
10.082414921
 30
0.0
 10
12.0842200125
 20
10.0841205737
 30
0.0
 10
12.084331837
 20
10.0858547657
 30
0.0
 10
12.0843318399
 20
10.0867144767
 30
0.0
  0
SPLINE
  5
34F
100
AcDbEntity
  8
0
100
AcDbSpline
 62
7
  6
CONTINUOUS
 70
0
 71
3
 72
80
 73
76
 74
0
 42
0.0000001
 43
0.0000001
 44
0.0000000001
 40
0.0
 40
0.0
 40
0.0
 40
0.0
 40
0.0027164327
 40
0.0054532447
 40
0.0082303176
 40
0.0110666212
 40
0.0139798388
 40
0.016986154
 40
0.0201001347
 40
0.0233346582
 40
0.0267010284
 40
0.0302089968
 40
0.0338669183
 40
0.0376819076
 40
0.0416598906
 40
0.0458058349
 40
0.0501237838
 40
0.0546169826
 40
0.0592880207
 40
0.0641388059
 40
0.0691707482
 40
0.0743847477
 40
0.0853596785
 40
0.0970635549
 40
0.1094903305
 40
0.1226296146
 40
0.1364673135
 40
0.1509861535
 40
0.1661660759
 40
0.1819845508
 40
0.1984168195
 40
0.2154361185
 40
0.2330138792
 40
0.2511198904
 40
0.2697224401
 40
0.2887884373
 40
0.3082835515
 40
0.3281723331
 40
0.348418324
 40
0.368984158
 40
0.3898316649
 40
0.4109219833
 40
0.4536720365
 40
0.4969140898
 40
0.5403224212
 40
0.5835697178
 40
0.6263302119
 40
0.6682828124
 40
0.6888582723
 40
0.7091151075
 40
0.7290159233
 40
0.74852422
 40
0.7676045125
 40
0.7862224423
 40
0.804344885
 40
0.8219400731
 40
0.8389777322
 40
0.8554292445
 40
0.8712678001
 40
0.8864685754
 40
0.9010089485
 40
0.9148687687
 40
0.92803068
 40
0.940480496
 40
0.9522076877
 40
0.9577984663
 40
0.9632066952
 40
0.9684323943
 40
0.9734759977
 40
0.9783383604
 40
0.9830208115
 40
0.987525367
 40
0.9918546057
 40
0.996011597
 40
1.0
 40
1.0
 40
1.0
 40
1.0
 10
12.6605862495
 20
7.4703410248
 30
0.0
 10
12.6597827751
 20
7.4703967503
 30
0.0
 10
12.6581739127
 20
7.4705813469
 30
0.0
 10
12.655781111
 20
7.4710753343
 30
0.0
 10
12.6534063823
 20
7.4717862627
 30
0.0
 10
12.6510514403
 20
7.4727135212
 30
0.0
 10
12.6487174896
 20
7.4738562372
 30
0.0
 10
12.6464057165
 20
7.4752135145
 30
0.0
 10
12.6441172224
 20
7.4767844339
 30
0.0
 10
12.6418529727
 20
7.478567932
 30
0.0
 10
12.6396139939
 20
7.4805630272
 30
0.0
 10
12.637401227
 20
7.4827685974
 30
0.0
 10
12.6352156265
 20
7.4851834884
 30
0.0
 10
12.6330582057
 20
7.487806507
 30
0.0
 10
12.6309298854
 20
7.4906363053
 30
0.0
 10
12.6288316932
 20
7.4936715161
 30
0.0
 10
12.6267645992
 20
7.4969106326
 30
0.0
 10
12.6247295682
 20
7.5003520529
 30
0.0
 10
12.6227276274
 20
7.5039941035
 30
0.0
 10
12.620759707
 20
7.5078349615
 30
0.0
 10
12.6188267797
 20
7.5118727493
 30
0.0
 10
12.6162534386
 20
7.517614898
 30
0.0
 10
12.6131415005
 20
7.5252803028
 30
0.0
 10
12.6096227385
 20
7.5350786292
 30
0.0
 10
12.6062654049
 20
7.5456088337
 30
0.0
 10
12.6030762561
 20
7.5568499525
 30
0.0
 10
12.6000617234
 20
7.5687797671
 30
0.0
 10
12.5972279203
 20
7.5813745184
 30
0.0
 10
12.5945806052
 20
7.5946090819
 30
0.0
 10
12.5921251686
 20
7.6084569957
 30
0.0
 10
12.5898666059
 20
7.6228905274
 30
0.0
 10
12.5878095096
 20
7.6378807365
 30
0.0
 10
12.5859580671
 20
7.653397546
 30
0.0
 10
12.5843160492
 20
7.6694098079
 30
0.0
 10
12.5828868038
 20
7.6858853638
 30
0.0
 10
12.5816732365
 20
7.7027911095
 30
0.0
 10
12.5806778171
 20
7.7200930673
 30
0.0
 10
12.5799025755
 20
7.7377564591
 30
0.0
 10
12.5793490971
 20
7.7557457788
 30
0.0
 10
12.5790185231
 20
7.7740248488
 30
0.0
 10
12.5789115105
 20
7.7925569411
 30
0.0
 10
12.5790680168
 20
7.8176663514
 30
0.0
 10
12.5798273599
 20
7.8494096118
 30
0.0
 10
12.5816169217
 20
7.8877373952
 30
0.0
 10
12.5842748045
 20
7.9261626247
 30
0.0
 10
12.5877796249
 20
7.9643765412
 30
0.0
 10
12.5921031305
 20
8.00207208
 30
0.0
 10
12.5963862082
 20
8.0329975605
 30
0.0
 10
12.6002036774
 20
8.0572446091
 30
0.0
 10
12.603229352
 20
8.0749960838
 30
0.0
 10
12.6064298545
 20
8.0923952557
 30
0.0
 10
12.6097987596
 20
8.1094071716
 30
0.0
 10
12.6133292586
 20
8.1259976332
 30
0.0
 10
12.6170142214
 20
8.1421333084
 30
0.0
 10
12.6208462058
 20
8.1577817837
 30
0.0
 10
12.6248174723
 20
8.1729116323
 30
0.0
 10
12.6289200021
 20
8.187492483
 30
0.0
 10
12.6331454999
 20
8.2014950909
 30
0.0
 10
12.6374854242
 20
8.2148913971
 30
0.0
 10
12.6419310045
 20
8.2276545822
 30
0.0
 10
12.6464732647
 20
8.2397591349
 30
0.0
 10
12.6511030398
 20
8.2511808953
 30
0.0
 10
12.6558110031
 20
8.2618972069
 30
0.0
 10
12.6605876825
 20
8.271886675
 30
0.0
 10
12.6646801727
 20
8.2797091961
 30
0.0
 10
12.6679879536
 20
8.2855801023
 30
0.0
 10
12.6704404082
 20
8.2897190133
 30
0.0
 10
12.6729028721
 20
8.2936619826
 30
0.0
 10
12.6753741266
 20
8.2974070537
 30
0.0
 10
12.6778529143
 20
8.3009523725
 30
0.0
 10
12.6803380701
 20
8.3042961752
 30
0.0
 10
12.6828283673
 20
8.3074368623
 30
0.0
 10
12.6853226643
 20
8.3103728787
 30
0.0
 10
12.6878195914
 20
8.3131026311
 30
0.0
 10
12.6895197521
 20
8.3148190104
 30
0.0
 10
12.6903702962
 20
8.3156405729
 30
0.0
  0
SPLINE
  5
350
100
AcDbEntity
  8
0
100
AcDbSpline
 62
7
  6
CONTINUOUS
 70
0
 71
3
 72
13
 73
9
 74
0
 42
0.0000001
 43
0.0000001
 44
0.0000000001
 40
0.0
 40
0.0
 40
0.0
 40
0.0
 40
0.125117737
 40
0.2502688738
 40
0.375438572
 40
0.5006006352
 40
0.750633325
 40
1.0
 40
1.0
 40
1.0
 40
1.0
 10
10.8026537601
 20
7.9507739564
 30
0.0
 10
10.8043188658
 20
7.9489861549
 30
0.0
 10
10.8077553967
 20
7.9455070615
 30
0.0
 10
10.8132035277
 20
7.9405961106
 30
0.0
 10
10.8189244808
 20
7.9360039455
 30
0.0
 10
10.8268805578
 20
7.9303252981
 30
0.0
 10
10.8373865895
 20
7.9240812874
 30
0.0
 10
10.8462835731
 20
7.9200356171
 30
0.0
 10
10.8508187372
 20
7.9182630394
 30
0.0
  0
SPLINE
  5
351
100
AcDbEntity
  8
0
100
AcDbSpline
 62
7
  6
CONTINUOUS
 70
0
 71
3
 72
39
 73
35
 74
0
 42
0.0000001
 43
0.0000001
 44
0.0000000001
 40
0.0
 40
0.0
 40
0.0
 40
0.0
 40
0.0311160054
 40
0.0620232808
 40
0.0927351539
 40
0.1232711756
 40
0.1536587326
 40
0.1839312105
 40
0.2141268386
 40
0.2442870981
 40
0.2744549747
 40
0.3046731306
 40
0.33498209
 40
0.365418544
 40
0.3960138629
 40
0.4267928807
 40
0.457772997
 40
0.4889636213
 40
0.5203659688
 40
0.551973177
 40
0.5837707173
 40
0.6157370643
 40
0.6478445906
 40
0.6800606397
 40
0.7123487305
 40
0.7446698622
 40
0.7769838838
 40
0.8092508928
 40
0.841432625
 40
0.8734938027
 40
0.9054033951
 40
0.9371359477
 40
0.9686717614
 40
1.0
 40
1.0
 40
1.0
 40
1.0
 10
11.6167929156
 20
8.8084348333
 30
0.0
 10
11.6167929156
 20
8.8049866746
 30
0.0
 10
11.6164562888
 20
8.7981084988
 30
0.0
 10
11.6149338522
 20
8.7879287453
 30
0.0
 10
11.6124100238
 20
8.7780149166
 30
0.0
 10
11.6089086612
 20
8.7684639922
 30
0.0
 10
11.6044632691
 20
8.7593680213
 30
0.0
 10
11.5991165117
 20
8.7508151303
 30
0.0
 10
11.592919921
 20
8.7428881207
 30
0.0
 10
11.5859333427
 20
8.7356637774
 30
0.0
 10
11.5782243605
 20
8.7292120398
 30
0.0
 10
11.5698676093
 20
8.723595305
 30
0.0
 10
11.5609440393
 20
8.7188677555
 30
0.0
 10
11.5515400541
 20
8.7150748596
 30
0.0
 10
11.5417466297
 20
8.7122529549
 30
0.0
 10
11.5316584017
 20
8.71042893
 30
0.0
 10
11.5213727365
 20
8.7096199856
 30
0.0
 10
11.5109887785
 20
8.7098334846
 30
0.0
 10
11.5006064911
 20
8.711066967
 30
0.0
 10
11.4903257126
 20
8.7133081971
 30
0.0
 10
11.480245223
 20
8.7165353156
 30
0.0
 10
11.4704618045
 20
8.7207170222
 30
0.0
 10
11.4610693362
 20
8.7258129135
 30
0.0
 10
11.4521579241
 20
8.7317738885
 30
0.0
 10
11.443813059
 20
8.7385426149
 30
0.0
 10
11.4361148137
 20
8.7460540645
 30
0.0
 10
11.4291370609
 20
8.754236104
 30
0.0
 10
11.4229468075
 20
8.7630102152
 30
0.0
 10
11.4176035592
 20
8.7722922151
 30
0.0
 10
11.4131587725
 20
8.7819930901
 30
0.0
 10
11.4096553038
 20
8.7920196657
 30
0.0
 10
11.4071270961
 20
8.8022760176
 30
0.0
 10
11.4055986411
 20
8.8126623612
 30
0.0
 10
11.4052551471
 20
8.8196333498
 30
0.0
 10
11.4052551471
 20
8.8231050273
 30
0.0
  0
SPLINE
  5
352
100
AcDbEntity
  8
0
100
AcDbSpline
 62
7
  6
CONTINUOUS
 70
0
 71
3
 72
31
 73
27
 74
0
 42
0.0000001
 43
0.0000001
 44
0.0000000001
 40
0.0
 40
0.0
 40
0.0
 40
0.0
 40
0.0327356706
 40
0.0653802138
 40
0.0979116937
 40
0.1303124799
 40
0.1625699567
 40
0.1946765523
 40
0.2266294167
 40
0.2584298615
 40
0.290082614
 40
0.3215950428
 40
0.3529763913
 40
0.3842370842
 40
0.4153883212
 40
0.4464418021
 40
0.5082794999
 40
0.5698641364
 40
0.6312783039
 40
0.692597421
 40
0.7538898514
 40
0.7845531236
 40
0.8152327446
 40
0.8766551667
 40
0.9382266457
 40
1.0
 40
1.0
 40
1.0
 40
1.0
 10
10.5653245287
 20
8.3500805355
 30
0.0
 10
10.5668205454
 20
8.3478402531
 30
0.0
 10
10.569636992
 20
8.3432486423
 30
0.0
 10
10.57331028
 20
8.3360688148
 30
0.0
 10
10.576410612
 20
8.3286531182
 30
0.0
 10
10.5789281907
 20
8.3210538131
 30
0.0
 10
10.5808619001
 20
8.3133217134
 30
0.0
 10
10.5822178642
 20
8.3055054586
 30
0.0
 10
10.5830083851
 20
8.2976501386
 30
0.0
 10
10.583250562
 20
8.2897966311
 30
0.0
 10
10.5829649626
 20
8.2819812563
 30
0.0
 10
10.5821744144
 20
8.2742357894
 30
0.0
 10
10.5809029658
 20
8.2665876681
 30
0.0
 10
10.579175127
 20
8.2590604704
 30
0.0
 10
10.5770150742
 20
8.2516739559
 30
0.0
 10
10.573595991
 20
8.242051171
 30
0.0
 10
10.5683563905
 20
8.2304399274
 30
0.0
 10
10.5606869308
 20
8.2172757452
 30
0.0
 10
10.5517904958
 20
8.2049619501
 30
0.0
 10
10.5417981468
 20
8.1935550449
 30
0.0
 10
10.5326516102
 20
8.1848435675
 30
0.0
 10
10.5248990533
 20
8.1783783877
 30
0.0
 10
10.5168638986
 20
8.1722503321
 30
0.0
 10
10.506318324
 20
8.165239748
 30
0.0
 10
10.4929663769
 20
8.1579297664
 30
0.0
 10
10.4836633334
 20
8.153832479
 30
0.0
 10
10.4789264466
 20
8.1519877251
 30
0.0
  0
SPLINE
  5
353
100
AcDbEntity
  8
0
100
AcDbSpline
 62
7
  6
CONTINUOUS
 70
0
 71
3
 72
41
 73
37
 74
0
 42
0.0000001
 43
0.0000001
 44
0.0000000001
 40
0.0
 40
0.0
 40
0.0
 40
0.0
 40
0.0311444983
 40
0.062442467
 40
0.093887251
 40
0.1254695609
 40
0.157177086
 40
0.1889950997
 40
0.2209066479
 40
0.2528929497
 40
0.284933762
 40
0.3170077852
 40
0.3490930781
 40
0.3811674822
 40
0.4132090489
 40
0.445196464
 40
0.4771094635
 40
0.5089292351
 40
0.540638799
 40
0.5722233621
 40
0.6036706378
 40
0.6349711269
 40
0.6661183495
 40
0.6971090237
 40
0.7279431823
 40
0.7586242225
 40
0.7891588828
 40
0.8195571428
 40
0.8498320452
 40
0.86493089
 40
0.8800050502
 40
0.9100832578
 40
0.9400926753
 40
0.9550812784
 40
0.9700610371
 40
1.0
 40
1.0
 40
1.0
 40
1.0
 10
12.1108640547
 20
6.649616859
 30
0.0
 10
12.1075501072
 20
6.6498466821
 30
0.0
 10
12.1009202392
 20
6.6505500349
 30
0.0
 10
12.0910558223
 20
6.6523217659
 30
0.0
 10
12.0812970478
 20
6.6548034692
 30
0.0
 10
12.0716966542
 20
6.6579817442
 30
0.0
 10
12.0623056195
 20
6.6618395906
 30
0.0
 10
12.0531740445
 20
6.6663563564
 30
0.0
 10
12.0443505733
 20
6.6715079104
 30
0.0
 10
12.0358822222
 20
6.6772667447
 30
0.0
 10
12.0278141105
 20
6.6836021312
 30
0.0
 10
12.0201892281
 20
6.6904802806
 30
0.0
 10
12.013048208
 20
6.6978645223
 30
0.0
 10
12.006429112
 20
6.705715498
 30
0.0
 10
12.0003672299
 20
6.7139913692
 30
0.0
 10
11.9948948934
 20
6.7226480377
 30
0.0
 10
11.9900413043
 20
6.7316393787
 30
0.0
 10
11.9858323807
 20
6.740917483
 30
0.0
 10
11.9822906184
 20
6.7504329093
 30
0.0
 10
11.9794349716
 20
6.7601349446
 30
0.0
 10
11.9772807507
 20
6.7699718705
 30
0.0
 10
11.9758395388
 20
6.7798912351
 30
0.0
 10
11.9751191284
 20
6.7898401299
 30
0.0
 10
11.9751234742
 20
6.7997654653
 30
0.0
 10
11.9758526737
 20
6.8096142619
 30
0.0
 10
11.977302941
 20
6.8193338921
 30
0.0
 10
11.9794666936
 20
6.8288725023
 30
0.0
 10
11.9823323176
 20
6.838178765
 30
0.0
 10
11.9852958676
 20
6.8457069878
 30
0.0
 10
11.9880002509
 20
6.8515613543
 30
0.0
 10
11.990918823
 20
6.8572884208
 30
0.0
 10
11.9949710823
 20
6.8642156178
 30
0.0
 10
11.9995445427
 20
6.8707992974
 30
0.0
 10
12.0034966805
 20
6.8758317065
 30
0.0
 10
12.0076373611
 20
6.8806998513
 30
0.0
 10
12.0109547573
 20
6.884165572
 30
0.0
 10
12.0132515622
 20
6.8863841304
 30
0.0
  0
SPLINE
  5
354
100
AcDbEntity
  8
0
100
AcDbSpline
 62
7
  6
CONTINUOUS
 70
0
 71
3
 72
41
 73
37
 74
0
 42
0.0000001
 43
0.0000001
 44
0.0000000001
 40
0.0
 40
0.0
 40
0.0
 40
0.0
 40
0.0311444983
 40
0.062442467
 40
0.093887251
 40
0.1254695609
 40
0.157177086
 40
0.1889950997
 40
0.2209066479
 40
0.2528929497
 40
0.284933762
 40
0.3170077852
 40
0.3490930781
 40
0.3811674822
 40
0.4132090489
 40
0.445196464
 40
0.4771094635
 40
0.5089292351
 40
0.540638799
 40
0.5722233621
 40
0.6036706378
 40
0.6349711269
 40
0.6661183495
 40
0.6971090237
 40
0.7279431823
 40
0.7586242225
 40
0.7891588828
 40
0.8195571428
 40
0.8498320452
 40
0.86493089
 40
0.8800050502
 40
0.9100832578
 40
0.9400926753
 40
0.9550812784
 40
0.9700610371
 40
1.0
 40
1.0
 40
1.0
 40
1.0
 10
9.3714982535
 20
9.5789583239
 30
0.0
 10
9.3681843059
 20
9.5791881469
 30
0.0
 10
9.3615544379
 20
9.5798914997
 30
0.0
 10
9.351690021
 20
9.5816632308
 30
0.0
 10
9.3419312465
 20
9.584144934
 30
0.0
 10
9.3323308529
 20
9.5873232091
 30
0.0
 10
9.3229398182
 20
9.5911810555
 30
0.0
 10
9.3138082432
 20
9.5956978213
 30
0.0
 10
9.304984772
 20
9.6008493753
 30
0.0
 10
9.2965164209
 20
9.6066082095
 30
0.0
 10
9.2884483092
 20
9.612943596
 30
0.0
 10
9.2808234268
 20
9.6198217454
 30
0.0
 10
9.2736824067
 20
9.6272059872
 30
0.0
 10
9.2670633107
 20
9.6350569629
 30
0.0
 10
9.2610014286
 20
9.643332834
 30
0.0
 10
9.2555290921
 20
9.6519895026
 30
0.0
 10
9.250675503
 20
9.6609808436
 30
0.0
 10
9.2464665794
 20
9.6702589478
 30
0.0
 10
9.2429248171
 20
9.6797743742
 30
0.0
 10
9.2400691703
 20
9.6894764095
 30
0.0
 10
9.2379149494
 20
9.6993133353
 30
0.0
 10
9.2364737375
 20
9.7092327
 30
0.0
 10
9.2357533271
 20
9.7191815947
 30
0.0
 10
9.2357576729
 20
9.7291069302
 30
0.0
 10
9.2364868724
 20
9.7389557267
 30
0.0
 10
9.2379371397
 20
9.7486753569
 30
0.0
 10
9.2401008923
 20
9.7582139672
 30
0.0
 10
9.2429665163
 20
9.7675202298
 30
0.0
 10
9.2459300663
 20
9.7750484527
 30
0.0
 10
9.2486344496
 20
9.7809028192
 30
0.0
 10
9.2515530217
 20
9.7866298856
 30
0.0
 10
9.255605281
 20
9.7935570827
 30
0.0
 10
9.2601787414
 20
9.8001407623
 30
0.0
 10
9.2641308792
 20
9.8051731714
 30
0.0
 10
9.2682715598
 20
9.8100413162
 30
0.0
 10
9.271588956
 20
9.8135070369
 30
0.0
 10
9.2738857609
 20
9.8157255953
 30
0.0
  0
SPLINE
  5
355
100
AcDbEntity
  8
0
100
AcDbSpline
 62
7
  6
CONTINUOUS
 70
0
 71
3
 72
37
 73
33
 74
0
 42
0.0000001
 43
0.0000001
 44
0.0000000001
 40
0.0
 40
0.0
 40
0.0
 40
0.0
 40
0.031146624
 40
0.0624481919
 40
0.0938952571
 40
0.1254804469
 40
0.1571906758
 40
0.1890114524
 40
0.2209257687
 40
0.25291484
 40
0.2849584237
 40
0.3170352183
 40
0.381163152
 40
0.4451601237
 40
0.4770758719
 40
0.5088983814
 40
0.5406106743
 40
0.5721979571
 40
0.6036479386
 40
0.6349511145
 40
0.6661010055
 40
0.697094333
 40
0.7279311336
 40
0.7586148063
 40
0.7891520874
 40
0.819552954
 40
0.8498304507
 40
0.8800004308
 40
0.9100812223
 40
0.9400932249
 40
0.9700584477
 40
1.0
 40
1.0
 40
1.0
 40
1.0
 10
11.2241441103
 20
7.5220058562
 30
0.0
 10
11.2223043589
 20
7.5221334434
 30
0.0
 10
11.2186236776
 20
7.5225239414
 30
0.0
 10
11.2131473077
 20
7.5235075124
 30
0.0
 10
11.2077295622
 20
7.5248853177
 30
0.0
 10
11.2023997831
 20
7.5266497631
 30
0.0
 10
11.1971862155
 20
7.5287915195
 30
0.0
 10
11.192116699
 20
7.5312990686
 30
0.0
 10
11.1872182247
 20
7.5341590574
 30
0.0
 10
11.1825169486
 20
7.5373561384
 30
0.0
 10
11.178037711
 20
7.5408734891
 30
0.0
 10
11.172395592
 20
7.5459629266
 30
0.0
 10
11.1660161839
 20
7.5530249218
 30
0.0
 10
11.160662786
 20
7.5608820415
 30
0.0
 10
11.1570679568
 20
7.5675419213
 30
0.0
 10
11.1547312388
 20
7.5726929641
 30
0.0
 10
11.1527650501
 20
7.5779755584
 30
0.0
 10
11.1511797316
 20
7.5833618019
 30
0.0
 10
11.1499838402
 20
7.5888229165
 30
0.0
 10
11.1491837931
 20
7.5943297986
 30
0.0
 10
11.1487839116
 20
7.5998530683
 30
0.0
 10
11.1487863876
 20
7.6053632547
 30
0.0
 10
11.149191273
 20
7.6108309424
 30
0.0
 10
11.1499964751
 20
7.6162269278
 30
0.0
 10
11.1511977664
 20
7.6215223727
 30
0.0
 10
11.1527887937
 20
7.6266889607
 30
0.0
 10
11.154761101
 20
7.6316990522
 30
0.0
 10
11.157104197
 20
7.6365258386
 30
0.0
 10
11.1598055687
 20
7.6411434553
 30
0.0
 10
11.1628508827
 20
7.6455272469
 30
0.0
 10
11.1662235525
 20
7.6496534364
 30
0.0
 10
11.1686793193
 20
7.6522188135
 30
0.0
 10
11.1699544343
 20
7.653450466
 30
0.0
  0
SPLINE
  5
356
100
AcDbEntity
  8
0
100
AcDbSpline
 62
7
  6
CONTINUOUS
 70
0
 71
3
 72
15
 73
11
 74
0
 42
0.0000001
 43
0.0000001
 44
0.0000000001
 40
0.0
 40
0.0
 40
0.0
 40
0.0
 40
0.1266937056
 40
0.2528686122
 40
0.3785207841
 40
0.5036798275
 40
0.6283694668
 40
0.7526243713
 40
0.8764856222
 40
1.0
 40
1.0
 40
1.0
 40
1.0
 10
10.6649322566
 20
7.8476672998
 30
0.0
 10
10.6649322566
 20
7.8500731308
 30
0.0
 10
10.6650769756
 20
7.8548762353
 30
0.0
 10
10.6657304091
 20
7.8620386171
 30
0.0
 10
10.6668175071
 20
7.8691189527
 30
0.0
 10
10.668333984
 20
7.8760910199
 30
0.0
 10
10.6702742623
 20
7.8829296942
 30
0.0
 10
10.672631027
 20
7.8896102379
 30
0.0
 10
10.6753952348
 20
7.8961082242
 30
0.0
 10
10.6775058477
 20
7.9003090555
 30
0.0
 10
10.6786250736
 20
7.9023702456
 30
0.0
  0
SPLINE
  5
357
100
AcDbEntity
  8
0
100
AcDbSpline
 62
7
  6
CONTINUOUS
 70
0
 71
3
 72
28
 73
24
 74
0
 42
0.0000001
 43
0.0000001
 44
0.0000000001
 40
0.0
 40
0.0
 40
0.0
 40
0.0
 40
0.0319755698
 40
0.0638245763
 40
0.0955450658
 40
0.1271459277
 40
0.1586341297
 40
0.1900188953
 40
0.221310739
 40
0.2525207327
 40
0.2836607997
 40
0.3147424029
 40
0.3457771094
 40
0.3767762306
 40
0.4386907374
 40
0.5005804042
 40
0.5625072737
 40
0.6245210506
 40
0.6866605266
 40
0.748955333
 40
0.8114276699
 40
0.8740938967
 40
1.0
 40
1.0
 40
1.0
 40
1.0
 10
10.6265966899
 20
8.6646014376
 30
0.0
 10
10.6265966899
 20
8.6663878378
 30
0.0
 10
10.6267016933
 20
8.6699544807
 30
0.0
 10
10.6271749761
 20
8.6752743373
 30
0.0
 10
10.6279602115
 20
8.6805361765
 30
0.0
 10
10.629051295
 20
8.6857225038
 30
0.0
 10
10.630440165
 20
8.6908176418
 30
0.0
 10
10.632116847
 20
8.6958071379
 30
0.0
 10
10.6340700394
 20
8.7006781611
 30
0.0
 10
10.6362872688
 20
8.7054195838
 30
0.0
 10
10.6387552247
 20
8.7100220039
 30
0.0
 10
10.6414602823
 20
8.7144775427
 30
0.0
 10
10.6443886195
 20
8.7187800589
 30
0.0
 10
10.6485698035
 20
8.7243029816
 30
0.0
 10
10.6542902373
 20
8.7308083433
 30
0.0
 10
10.6618353244
 20
8.7379506408
 30
0.0
 10
10.6699660721
 20
8.7444254018
 30
0.0
 10
10.6785979671
 20
8.7502373474
 30
0.0
 10
10.6876571343
 20
8.7553972066
 30
0.0
 10
10.6970785272
 20
8.7599182896
 30
0.0
 10
10.7068061552
 20
8.7638153474
 30
0.0
 10
10.7201338315
 20
8.7682042103
 30
0.0
 10
10.7304262593
 20
8.7705931916
 30
0.0
 10
10.7373553909
 20
8.7718037291
 30
0.0
  0
SPLINE
  5
358
100
AcDbEntity
  8
0
100
AcDbSpline
 62
7
  6
CONTINUOUS
 70
0
 71
3
 72
41
 73
37
 74
0
 42
0.0000001
 43
0.0000001
 44
0.0000000001
 40
0.0
 40
0.0
 40
0.0
 40
0.0
 40
0.0311444983
 40
0.062442467
 40
0.093887251
 40
0.1254695609
 40
0.157177086
 40
0.1889950997
 40
0.2209066479
 40
0.2528929497
 40
0.284933762
 40
0.3170077852
 40
0.3490930781
 40
0.3811674822
 40
0.4132090489
 40
0.445196464
 40
0.4771094635
 40
0.5089292351
 40
0.540638799
 40
0.5722233621
 40
0.6036706378
 40
0.6349711269
 40
0.6661183495
 40
0.6971090237
 40
0.7279431823
 40
0.7586242225
 40
0.7891588828
 40
0.8195571428
 40
0.8498320452
 40
0.86493089
 40
0.8800050502
 40
0.9100832578
 40
0.9400926753
 40
0.9550812784
 40
0.9700610371
 40
1.0
 40
1.0
 40
1.0
 40
1.0
 10
9.3714982535
 20
6.8395925226
 30
0.0
 10
9.3681843059
 20
6.8398223457
 30
0.0
 10
9.3615544379
 20
6.8405256984
 30
0.0
 10
9.351690021
 20
6.8422974295
 30
0.0
 10
9.3419312465
 20
6.8447791327
 30
0.0
 10
9.3323308529
 20
6.8479574078
 30
0.0
 10
9.3229398182
 20
6.8518152542
 30
0.0
 10
9.3138082432
 20
6.85633202
 30
0.0
 10
9.304984772
 20
6.861483574
 30
0.0
 10
9.2965164209
 20
6.8672424082
 30
0.0
 10
9.2884483092
 20
6.8735777947
 30
0.0
 10
9.2808234268
 20
6.8804559441
 30
0.0
 10
9.2736824067
 20
6.8878401859
 30
0.0
 10
9.2670633107
 20
6.8956911616
 30
0.0
 10
9.2610014286
 20
6.9039670327
 30
0.0
 10
9.2555290921
 20
6.9126237013
 30
0.0
 10
9.250675503
 20
6.9216150423
 30
0.0
 10
9.2464665794
 20
6.9308931465
 30
0.0
 10
9.2429248171
 20
6.9404085729
 30
0.0
 10
9.2400691703
 20
6.9501106082
 30
0.0
 10
9.2379149494
 20
6.959947534
 30
0.0
 10
9.2364737375
 20
6.9698668987
 30
0.0
 10
9.2357533271
 20
6.9798157934
 30
0.0
 10
9.2357576729
 20
6.9897411289
 30
0.0
 10
9.2364868724
 20
6.9995899254
 30
0.0
 10
9.2379371397
 20
7.0093095556
 30
0.0
 10
9.2401008923
 20
7.0188481659
 30
0.0
 10
9.2429665163
 20
7.0281544285
 30
0.0
 10
9.2459300663
 20
7.0356826514
 30
0.0
 10
9.2486344496
 20
7.0415370179
 30
0.0
 10
9.2515530217
 20
7.0472640843
 30
0.0
 10
9.255605281
 20
7.0541912814
 30
0.0
 10
9.2601787414
 20
7.060774961
 30
0.0
 10
9.2641308792
 20
7.0658073701
 30
0.0
 10
9.2682715598
 20
7.0706755149
 30
0.0
 10
9.271588956
 20
7.0741412356
 30
0.0
 10
9.2738857609
 20
7.076359794
 30
0.0
  0
SPLINE
  5
359
100
AcDbEntity
  8
0
100
AcDbSpline
 62
7
  6
CONTINUOUS
 70
0
 71
3
 72
21
 73
17
 74
0
 42
0.0000001
 43
0.0000001
 44
0.0000000001
 40
0.0
 40
0.0
 40
0.0
 40
0.0
 40
0.061653237
 40
0.123329498
 40
0.1850515502
 40
0.2468416698
 40
0.3087213548
 40
0.370711108
 40
0.4328302426
 40
0.495096636
 40
0.5575265765
 40
0.6201345494
 40
0.682933126
 40
0.7459332432
 40
0.8725261314
 40
1.0
 40
1.0
 40
1.0
 40
1.0
 10
9.469110746
 20
6.8742504245
 30
0.0
 10
9.4675340392
 20
6.8727274322
 30
0.0
 10
9.4642974521
 20
6.869765059
 30
0.0
 10
9.4592097472
 20
6.8655880427
 30
0.0
 10
9.4539011312
 20
6.8616870973
 30
0.0
 10
9.4483851433
 20
6.8580722396
 30
0.0
 10
9.442675619
 20
6.8547525579
 30
0.0
 10
9.43678699
 20
6.8517363714
 30
0.0
 10
9.4307340826
 20
6.8490312741
 30
0.0
 10
9.4245321374
 20
6.8466441086
 30
0.0
 10
9.4181967881
 20
6.8445808233
 30
0.0
 10
9.4117440393
 20
6.8428466064
 30
0.0
 10
9.4051899427
 20
6.8414458413
 30
0.0
 10
9.3963255897
 20
6.8400252752
 30
0.0
 10
9.3850692682
 20
6.8391023392
 30
0.0
 10
9.376019864
 20
6.8392789479
 30
0.0
 10
9.3714982535
 20
6.8395925226
 30
0.0
  0
SPLINE
  5
35A
100
AcDbEntity
  8
0
100
AcDbSpline
 62
7
  6
CONTINUOUS
 70
0
 71
3
 72
39
 73
35
 74
0
 42
0.0000001
 43
0.0000001
 44
0.0000000001
 40
0.0
 40
0.0
 40
0.0
 40
0.0
 40
0.0150372895
 40
0.0300556469
 40
0.0450568371
 40
0.0600475666
 40
0.0750337651
 40
0.0900203008
 40
0.1050124404
 40
0.1200149939
 40
0.1500600302
 40
0.1801952917
 40
0.2104437494
 40
0.240821197
 40
0.271337105
 40
0.3019957393
 40
0.3327973229
 40
0.363739083
 40
0.3948161082
 40
0.4260219986
 40
0.4573493406
 40
0.4887901096
 40
0.551958357
 40
0.5836891556
 40
0.615499367
 40
0.6793059677
 40
0.7113021852
 40
0.7433425715
 40
0.8075007579
 40
0.8396164048
 40
0.8717365689
 40
0.9038498881
 40
0.9359443165
 40
1.0
 40
1.0
 40
1.0
 40
1.0
 10
11.2660412958
 20
8.136989926
 30
0.0
 10
11.2652438493
 20
8.1356640113
 30
0.0
 10
11.2635787051
 20
8.1330559579
 30
0.0
 10
11.2608770347
 20
8.1292858462
 30
0.0
 10
11.2579804615
 20
8.125669308
 30
0.0
 10
11.2548978484
 20
8.1222145098
 30
0.0
 10
11.251638527
 20
8.1189280597
 30
0.0
 10
11.2482122917
 20
8.1158159248
 30
0.0
 10
11.2446295841
 20
8.1128825674
 30
0.0
 10
11.239656697
 20
8.1092135907
 30
0.0
 10
11.2330973384
 20
8.1050876391
 30
0.0
 10
11.2247784562
 20
8.1008914855
 30
0.0
 10
11.2160875992
 20
8.0974414861
 30
0.0
 10
11.2071011786
 20
8.09472389
 30
0.0
 10
11.1978876674
 20
8.0927175783
 30
0.0
 10
11.1885081014
 20
8.0913972734
 30
0.0
 10
11.1790161791
 20
8.0907353698
 30
0.0
 10
11.169458971
 20
8.0907034742
 30
0.0
 10
11.1598776633
 20
8.0912734557
 30
0.0
 10
11.1503085787
 20
8.0924180971
 30
0.0
 10
11.1407833645
 20
8.0941116742
 30
0.0
 10
11.1281631902
 20
8.0970731952
 30
0.0
 10
11.1157549624
 20
8.1010385031
 30
0.0
 10
11.1036595382
 20
8.1059151299
 30
0.0
 10
11.0917534927
 20
8.1113972338
 30
0.0
 10
11.0802269507
 20
8.1177336227
 30
0.0
 10
11.0691641196
 20
8.1248573994
 30
0.0
 10
11.0584129167
 20
8.1325058982
 30
0.0
 10
11.0481943097
 20
8.1409022088
 30
0.0
 10
11.0386023638
 20
8.149992087
 30
0.0
 10
11.0317392273
 20
8.1571516229
 30
0.0
 10
11.0252367391
 20
8.1646379836
 30
0.0
 10
11.0170932069
 20
8.1750278252
 30
0.0
 10
11.0116010793
 20
8.1832872163
 30
0.0
 10
11.0082662405
 20
8.1889722293
 30
0.0
  0
SPLINE
  5
35B
100
AcDbEntity
  8
0
100
AcDbSpline
 62
7
  6
CONTINUOUS
 70
0
 71
3
 72
47
 73
43
 74
0
 42
0.0000001
 43
0.0000001
 44
0.0000000001
 40
0.0
 40
0.0
 40
0.0
 40
0.0
 40
0.0958288778
 40
0.1428190813
 40
0.1890973258
 40
0.2345927051
 40
0.2792365599
 40
0.3229622087
 40
0.36570484
 40
0.4074019633
 40
0.4479935495
 40
0.4874221989
 40
0.5256333955
 40
0.562575849
 40
0.5982017357
 40
0.6324670006
 40
0.6653317986
 40
0.696761026
 40
0.7267248024
 40
0.7551991569
 40
0.7821669874
 40
0.8076191674
 40
0.8315558892
 40
0.8429599089
 40
0.8539904626
 40
0.8646510953
 40
0.8749464064
 40
0.8848822263
 40
0.8944655538
 40
0.903704898
 40
0.9126103679
 40
0.9211937503
 40
0.9294688928
 40
0.9374517342
 40
0.945160509
 40
0.9598347361
 40
0.9668566082
 40
0.9737035131
 40
0.9804067666
 40
0.9870000197
 40
0.9935188069
 40
1.0
 40
1.0
 40
1.0
 40
1.0
 10
11.9072707974
 20
10.2547266065
 30
0.0
 10
11.9196426396
 20
10.2538686163
 30
0.0
 10
11.9380678747
 20
10.2523844476
 30
0.0
 10
11.9624221124
 20
10.2499847348
 30
0.0
 10
11.980271207
 20
10.2480062402
 30
0.0
 10
11.9977926376
 20
10.2458407058
 30
0.0
 10
12.0149571026
 20
10.2434917644
 30
0.0
 10
12.0317359025
 20
10.2409633742
 30
0.0
 10
12.0481010041
 20
10.2382597695
 30
0.0
 10
12.0640250598
 20
10.2353854998
 30
0.0
 10
12.0794814769
 20
10.232345405
 30
0.0
 10
12.0944444458
 20
10.2291445956
 30
0.0
 10
12.1088889899
 20
10.2257884435
 30
0.0
 10
12.122791021
 20
10.2222826022
 30
0.0
 10
12.1361273749
 20
10.2186329716
 30
0.0
 10
12.148875845
 20
10.2148456816
 30
0.0
 10
12.161015235
 20
10.2109270862
 30
0.0
 10
12.1725254075
 20
10.2068837728
 30
0.0
 10
12.1833873205
 20
10.2027225121
 30
0.0
 10
12.1935830322
 20
10.1984502404
 30
0.0
 10
12.2030958653
 20
10.1940740317
 30
0.0
 10
12.2119100911
 20
10.1896011462
 30
0.0
 10
12.2187680533
 20
10.1857392575
 30
0.0
 10
12.2238835587
 20
10.1826005534
 30
0.0
 10
12.2274743822
 20
10.1802650789
 30
0.0
 10
12.2308800705
 20
10.1779110497
 30
0.0
 10
12.2340992145
 20
10.1755393791
 30
0.0
 10
12.2371305123
 20
10.1731510697
 30
0.0
 10
12.2399726881
 20
10.1707470375
 30
0.0
 10
12.2426245736
 20
10.1683282453
 30
0.0
 10
12.2450850857
 20
10.1658956709
 30
0.0
 10
12.2473531619
 20
10.1634501931
 30
0.0
 10
12.2494278266
 20
10.1609928576
 30
0.0
 10
12.2513083174
 20
10.1585243403
 30
0.0
 10
12.253518708
 20
10.1552737051
 30
0.0
 10
12.25538885
 20
10.1519462846
 30
0.0
 10
12.2568705019
 20
10.148560022
 30
0.0
 10
12.2577676675
 20
10.1460509983
 30
0.0
 10
12.2584660978
 20
10.1435370405
 30
0.0
 10
12.2589653797
 20
10.1410191649
 30
0.0
 10
12.2592651495
 20
10.1384988451
 30
0.0
 10
12.2593318392
 20
10.1368157198
 30
0.0
 10
12.2593318427
 20
10.1359769655
 30
0.0
  0
SPLINE
  5
35C
100
AcDbEntity
  8
0
100
AcDbSpline
 62
7
  6
CONTINUOUS
 70
0
 71
3
 72
21
 73
17
 74
0
 42
0.0000001
 43
0.0000001
 44
0.0000000001
 40
0.0
 40
0.0
 40
0.0
 40
0.0
 40
0.061653237
 40
0.123329498
 40
0.1850515502
 40
0.2468416698
 40
0.3087213548
 40
0.370711108
 40
0.4328302426
 40
0.495096636
 40
0.5575265765
 40
0.6201345494
 40
0.682933126
 40
0.7459332432
 40
0.8725261314
 40
1.0
 40
1.0
 40
1.0
 40
1.0
 10
12.2084765473
 20
6.6842747609
 30
0.0
 10
12.2068998405
 20
6.6827517687
 30
0.0
 10
12.2036632534
 20
6.6797893954
 30
0.0
 10
12.1985755485
 20
6.6756123791
 30
0.0
 10
12.1932669325
 20
6.6717114338
 30
0.0
 10
12.1877509446
 20
6.6680965761
 30
0.0
 10
12.1820414203
 20
6.6647768944
 30
0.0
 10
12.1761527913
 20
6.6617607079
 30
0.0
 10
12.1700998839
 20
6.6590556105
 30
0.0
 10
12.1638979387
 20
6.656668445
 30
0.0
 10
12.1575625894
 20
6.6546051597
 30
0.0
 10
12.1511098406
 20
6.6528709429
 30
0.0
 10
12.144555744
 20
6.6514701777
 30
0.0
 10
12.135691391
 20
6.6500496117
 30
0.0
 10
12.1244350695
 20
6.6491266757
 30
0.0
 10
12.1153856653
 20
6.6493032843
 30
0.0
 10
12.1108640547
 20
6.649616859
 30
0.0
  0
SPLINE
  5
35D
100
AcDbEntity
  8
0
100
AcDbSpline
 62
7
  6
CONTINUOUS
 70
0
 71
3
 72
18
 73
14
 74
0
 42
0.0000001
 43
0.0000001
 44
0.0000000001
 40
0.0
 40
0.0
 40
0.0
 40
0.0
 40
0.1504680185
 40
0.2917144324
 40
0.4244425615
 40
0.4879099171
 40
0.5496094205
 40
0.6682625585
 40
0.7817882768
 40
0.8371379945
 40
0.8918078237
 40
0.9460192726
 40
1.0
 40
1.0
 40
1.0
 40
1.0
 10
12.6903702962
 20
7.4839783872
 30
0.0
 10
12.6891532274
 20
7.482802789
 30
0.0
 10
12.6867207396
 20
7.4805970242
 30
0.0
 10
12.6829542913
 20
7.4776575725
 30
0.0
 10
12.6797728818
 20
7.4755786401
 30
0.0
 10
12.6772359906
 20
7.4741708517
 30
0.0
 10
12.674773732
 20
7.4729622247
 30
0.0
 10
12.6716951291
 20
7.4717409484
 30
0.0
 10
12.6685617619
 20
7.4709075465
 30
0.0
 10
12.6660800421
 20
7.4704970051
 30
0.0
 10
12.664240745
 20
7.4703148001
 30
0.0
 10
12.6624088883
 20
7.4702559649
 30
0.0
 10
12.6611918483
 20
7.4702990231
 30
0.0
 10
12.6605862495
 20
7.4703410248
 30
0.0
  0
SPLINE
  5
35E
100
AcDbEntity
  8
0
100
AcDbSpline
 62
7
  6
CONTINUOUS
 70
0
 71
3
 72
21
 73
17
 74
0
 42
0.0000001
 43
0.0000001
 44
0.0000000001
 40
0.0
 40
0.0
 40
0.0
 40
0.0
 40
0.061653237
 40
0.123329498
 40
0.1850515502
 40
0.2468416698
 40
0.3087213548
 40
0.370711108
 40
0.4328302426
 40
0.495096636
 40
0.5575265765
 40
0.6201345494
 40
0.682933126
 40
0.7459332432
 40
0.8725261314
 40
1.0
 40
1.0
 40
1.0
 40
1.0
 10
12.2084765473
 20
9.4236405622
 30
0.0
 10
12.2068998405
 20
9.42211757
 30
0.0
 10
12.2036632534
 20
9.4191551967
 30
0.0
 10
12.1985755485
 20
9.4149781804
 30
0.0
 10
12.1932669325
 20
9.4110772351
 30
0.0
 10
12.1877509446
 20
9.4074623774
 30
0.0
 10
12.1820414203
 20
9.4041426956
 30
0.0
 10
12.1761527913
 20
9.4011265092
 30
0.0
 10
12.1700998839
 20
9.3984214118
 30
0.0
 10
12.1638979387
 20
9.3960342463
 30
0.0
 10
12.1575625894
 20
9.393970961
 30
0.0
 10
12.1511098406
 20
9.3922367442
 30
0.0
 10
12.144555744
 20
9.390835979
 30
0.0
 10
12.135691391
 20
9.3894154129
 30
0.0
 10
12.1244350695
 20
9.388492477
 30
0.0
 10
12.1153856653
 20
9.3886690856
 30
0.0
 10
12.1108640547
 20
9.3889826603
 30
0.0
  0
SPLINE
  5
35F
100
AcDbEntity
  8
0
100
AcDbSpline
 62
7
  6
CONTINUOUS
 70
0
 71
3
 72
39
 73
35
 74
0
 42
0.0000001
 43
0.0000001
 44
0.0000000001
 40
0.0
 40
0.0
 40
0.0
 40
0.0
 40
0.0311160054
 40
0.0620232808
 40
0.0927351539
 40
0.1232711756
 40
0.1536587326
 40
0.1839312105
 40
0.2141268386
 40
0.2442870981
 40
0.2744549747
 40
0.3046731306
 40
0.33498209
 40
0.365418544
 40
0.3960138629
 40
0.4267928807
 40
0.457772997
 40
0.4889636213
 40
0.5203659688
 40
0.551973177
 40
0.5837707173
 40
0.6157370643
 40
0.6478445906
 40
0.6800606397
 40
0.7123487305
 40
0.7446698622
 40
0.7769838838
 40
0.8092508928
 40
0.841432625
 40
0.8734938027
 40
0.9054033951
 40
0.9371359477
 40
0.9686717614
 40
1.0
 40
1.0
 40
1.0
 40
1.0
 10
9.8655693638
 20
7.7215092736
 30
0.0
 10
9.8655693638
 20
7.7249574323
 30
0.0
 10
9.8659059906
 20
7.7318356081
 30
0.0
 10
9.8674284272
 20
7.7420153616
 30
0.0
 10
9.8699522556
 20
7.7519291903
 30
0.0
 10
9.8734536182
 20
7.7614801147
 30
0.0
 10
9.8778990103
 20
7.7705760856
 30
0.0
 10
9.8832457678
 20
7.7791289766
 30
0.0
 10
9.8894423584
 20
7.7870559862
 30
0.0
 10
9.8964289367
 20
7.7942803295
 30
0.0
 10
9.9041379189
 20
7.8007320671
 30
0.0
 10
9.9124946701
 20
7.8063488019
 30
0.0
 10
9.9214182401
 20
7.8110763514
 30
0.0
 10
9.9308222253
 20
7.8148692473
 30
0.0
 10
9.9406156497
 20
7.8176911519
 30
0.0
 10
9.9507038777
 20
7.8195151769
 30
0.0
 10
9.9609895429
 20
7.8203241213
 30
0.0
 10
9.9713735009
 20
7.8201106222
 30
0.0
 10
9.9817557883
 20
7.8188771399
 30
0.0
 10
9.9920365668
 20
7.8166359098
 30
0.0
 10
10.0021170564
 20
7.8134087913
 30
0.0
 10
10.0119004749
 20
7.8092270847
 30
0.0
 10
10.0212929432
 20
7.8041311934
 30
0.0
 10
10.0302043553
 20
7.7981702184
 30
0.0
 10
10.0385492204
 20
7.791401492
 30
0.0
 10
10.0462474657
 20
7.7838900424
 30
0.0
 10
10.0532252185
 20
7.7757080029
 30
0.0
 10
10.0594154719
 20
7.7669338917
 30
0.0
 10
10.0647587202
 20
7.7576518917
 30
0.0
 10
10.0692035069
 20
7.7479510168
 30
0.0
 10
10.0727069756
 20
7.7379244412
 30
0.0
 10
10.0752351833
 20
7.7276680893
 30
0.0
 10
10.0767636383
 20
7.7172817457
 30
0.0
 10
10.0771071323
 20
7.7103107571
 30
0.0
 10
10.0771071323
 20
7.7068390796
 30
0.0
  0
SPLINE
  5
360
100
AcDbEntity
  8
0
100
AcDbSpline
 62
7
  6
CONTINUOUS
 70
0
 71
3
 72
39
 73
35
 74
0
 42
0.0000001
 43
0.0000001
 44
0.0000000001
 40
0.0
 40
0.0
 40
0.0
 40
0.0
 40
0.0311160054
 40
0.0620232808
 40
0.0927351539
 40
0.1232711756
 40
0.1536587326
 40
0.1839312105
 40
0.2141268386
 40
0.2442870981
 40
0.2744549747
 40
0.3046731306
 40
0.33498209
 40
0.365418544
 40
0.3960138629
 40
0.4267928807
 40
0.457772997
 40
0.4889636213
 40
0.5203659688
 40
0.551973177
 40
0.5837707173
 40
0.6157370643
 40
0.6478445906
 40
0.6800606397
 40
0.7123487305
 40
0.7446698622
 40
0.7769838838
 40
0.8092508928
 40
0.841432625
 40
0.8734938027
 40
0.9054033951
 40
0.9371359477
 40
0.9686717614
 40
1.0
 40
1.0
 40
1.0
 40
1.0
 10
10.0771071323
 20
7.7068390796
 30
0.0
 10
10.0771071323
 20
7.7033909209
 30
0.0
 10
10.0767705056
 20
7.6965127451
 30
0.0
 10
10.0752480689
 20
7.6863329916
 30
0.0
 10
10.0727242405
 20
7.6764191629
 30
0.0
 10
10.069222878
 20
7.6668682385
 30
0.0
 10
10.0647774859
 20
7.6577722676
 30
0.0
 10
10.0594307284
 20
7.6492193767
 30
0.0
 10
10.0532341377
 20
7.641292367
 30
0.0
 10
10.0462475595
 20
7.6340680237
 30
0.0
 10
10.0385385772
 20
7.6276162861
 30
0.0
 10
10.0301818261
 20
7.6219995513
 30
0.0
 10
10.021258256
 20
7.6172720018
 30
0.0
 10
10.0118542709
 20
7.6134791059
 30
0.0
 10
10.0020608464
 20
7.6106572013
 30
0.0
 10
9.9919726184
 20
7.6088331763
 30
0.0
 10
9.9816869533
 20
7.6080242319
 30
0.0
 10
9.9713029953
 20
7.608237731
 30
0.0
 10
9.9609207078
 20
7.6094712133
 30
0.0
 10
9.9506399294
 20
7.6117124434
 30
0.0
 10
9.9405594397
 20
7.6149395619
 30
0.0
 10
9.9307760212
 20
7.6191212686
 30
0.0
 10
9.921383553
 20
7.6242171598
 30
0.0
 10
9.9124721408
 20
7.6301781349
 30
0.0
 10
9.9041272757
 20
7.6369468612
 30
0.0
 10
9.8964290305
 20
7.6444583108
 30
0.0
 10
9.8894512776
 20
7.6526403503
 30
0.0
 10
9.8832610243
 20
7.6614144615
 30
0.0
 10
9.8779177759
 20
7.6706964615
 30
0.0
 10
9.8734729892
 20
7.6803973364
 30
0.0
 10
9.8699695206
 20
7.690423912
 30
0.0
 10
9.8674413128
 20
7.7006802639
 30
0.0
 10
9.8659128578
 20
7.7110666075
 30
0.0
 10
9.8655693638
 20
7.7180375961
 30
0.0
 10
9.8655693638
 20
7.7215092736
 30
0.0
  0
SPLINE
  5
361
100
AcDbEntity
  8
0
100
AcDbSpline
 62
7
  6
CONTINUOUS
 70
0
 71
3
 72
21
 73
17
 74
0
 42
0.0000001
 43
0.0000001
 44
0.0000000001
 40
0.0
 40
0.0
 40
0.0
 40
0.0
 40
0.061653237
 40
0.123329498
 40
0.1850515502
 40
0.2468416698
 40
0.3087213548
 40
0.370711108
 40
0.4328302426
 40
0.495096636
 40
0.5575265765
 40
0.6201345494
 40
0.682933126
 40
0.7459332432
 40
0.8725261314
 40
1.0
 40
1.0
 40
1.0
 40
1.0
 10
9.469110746
 20
9.6136162258
 30
0.0
 10
9.4675340392
 20
9.6120932335
 30
0.0
 10
9.4642974521
 20
9.6091308603
 30
0.0
 10
9.4592097472
 20
9.604953844
 30
0.0
 10
9.4539011312
 20
9.6010528986
 30
0.0
 10
9.4483851433
 20
9.5974380409
 30
0.0
 10
9.442675619
 20
9.5941183592
 30
0.0
 10
9.43678699
 20
9.5911021727
 30
0.0
 10
9.4307340826
 20
9.5883970754
 30
0.0
 10
9.4245321374
 20
9.5860099099
 30
0.0
 10
9.4181967881
 20
9.5839466246
 30
0.0
 10
9.4117440393
 20
9.5822124077
 30
0.0
 10
9.4051899427
 20
9.5808116426
 30
0.0
 10
9.3963255897
 20
9.5793910765
 30
0.0
 10
9.3850692682
 20
9.5784681405
 30
0.0
 10
9.376019864
 20
9.5786447491
 30
0.0
 10
9.3714982535
 20
9.5789583239
 30
0.0
  0
SPLINE
  5
362
100
AcDbEntity
  8
0
100
AcDbSpline
 62
7
  6
CONTINUOUS
 70
0
 71
3
 72
39
 73
35
 74
0
 42
0.0000001
 43
0.0000001
 44
0.0000000001
 40
0.0
 40
0.0
 40
0.0
 40
0.0
 40
0.0299424741
 40
0.0599093236
 40
0.0899243299
 40
0.1200101071
 40
0.1501875628
 40
0.1804754121
 40
0.2108897558
 40
0.2414437341
 40
0.2721472619
 40
0.3030068476
 40
0.3340255003
 40
0.3652027176
 40
0.3965345493
 40
0.4280137317
 40
0.459629888
 40
0.4913697842
 40
0.5232176352
 40
0.5551554541
 40
0.5871634377
 40
0.6192203778
 40
0.6513040905
 40
0.68339186
 40
0.715460889
 40
0.7474887514
 40
0.779453839
 40
0.8113357971
 40
0.8431159663
 40
0.8747776774
 40
0.9063069717
 40
0.937691796
 40
0.9689252179
 40
1.0
 40
1.0
 40
1.0
 40
1.0
 10
10.039130374
 20
7.6538316341
 30
0.0
 10
10.0376290059
 20
7.6523814301
 30
0.0
 10
10.034508225
 20
7.6495980485
 30
0.0
 10
10.0295082355
 20
7.6458061964
 30
0.0
 10
10.0242149999
 20
7.6424165257
 30
0.0
 10
10.0186580919
 20
7.639448053
 30
0.0
 10
10.012868064
 20
7.6369169938
 30
0.0
 10
10.0068768695
 20
7.6348372615
 30
0.0
 10
10.0007175226
 20
7.6332202363
 30
0.0
 10
9.9944239561
 20
7.632074749
 30
0.0
 10
9.988030821
 20
7.6314070264
 30
0.0
 10
9.981573299
 20
7.6312206563
 30
0.0
 10
9.9750869054
 20
7.6315165764
 30
0.0
 10
9.9686072952
 20
7.6322930772
 30
0.0
 10
9.9621700694
 20
7.6335458147
 30
0.0
 10
9.9558105816
 20
7.635267837
 30
0.0
 10
9.9495637478
 20
7.6374496246
 30
0.0
 10
9.943463857
 20
7.6400791442
 30
0.0
 10
9.9375443868
 20
7.643141916
 30
0.0
 10
9.9318378178
 20
7.6466210854
 30
0.0
 10
9.9263754593
 20
7.6504975223
 30
0.0
 10
9.9211872811
 20
7.6547499273
 30
0.0
 10
9.9163017509
 20
7.6593549473
 30
0.0
 10
9.9117456804
 20
7.6642873023
 30
0.0
 10
9.9075440803
 20
7.6695199228
 30
0.0
 10
9.9037200239
 20
7.6750240958
 30
0.0
 10
9.9002945239
 20
7.6807696211
 30
0.0
 10
9.8972864042
 20
7.686724971
 30
0.0
 10
9.8947122195
 20
7.6928574628
 30
0.0
 10
9.8925861208
 20
7.6991334562
 30
0.0
 10
9.8909198874
 20
7.7055184496
 30
0.0
 10
9.8897226326
 20
7.7119775701
 30
0.0
 10
9.8890011393
 20
7.7184748072
 30
0.0
 10
9.8888395134
 20
7.7228201863
 30
0.0
 10
9.8888395134
 20
7.7249865134
 30
0.0
  0
SPLINE
  5
363
100
AcDbEntity
  8
0
100
AcDbSpline
 62
7
  6
CONTINUOUS
 70
0
 71
3
 72
39
 73
35
 74
0
 42
0.0000001
 43
0.0000001
 44
0.0000000001
 40
0.0
 40
0.0
 40
0.0
 40
0.0
 40
0.0311160054
 40
0.0620232808
 40
0.0927351539
 40
0.1232711756
 40
0.1536587326
 40
0.1839312105
 40
0.2141268386
 40
0.2442870981
 40
0.2744549747
 40
0.3046731306
 40
0.33498209
 40
0.365418544
 40
0.3960138629
 40
0.4267928807
 40
0.457772997
 40
0.4889636213
 40
0.5203659688
 40
0.551973177
 40
0.5837707173
 40
0.6157370643
 40
0.6478445906
 40
0.6800606397
 40
0.7123487305
 40
0.7446698622
 40
0.7769838838
 40
0.8092508928
 40
0.841432625
 40
0.8734938027
 40
0.9054033951
 40
0.9371359477
 40
0.9686717614
 40
1.0
 40
1.0
 40
1.0
 40
1.0
 10
9.8655693638
 20
8.8989729082
 30
0.0
 10
9.8655693638
 20
8.9024210668
 30
0.0
 10
9.8659059906
 20
8.9092992426
 30
0.0
 10
9.8674284272
 20
8.9194789961
 30
0.0
 10
9.8699522556
 20
8.9293928248
 30
0.0
 10
9.8734536182
 20
8.9389437492
 30
0.0
 10
9.8778990103
 20
8.9480397201
 30
0.0
 10
9.8832457678
 20
8.9565926111
 30
0.0
 10
9.8894423584
 20
8.9645196207
 30
0.0
 10
9.8964289367
 20
8.971743964
 30
0.0
 10
9.9041379189
 20
8.9781957016
 30
0.0
 10
9.9124946701
 20
8.9838124364
 30
0.0
 10
9.9214182401
 20
8.9885399859
 30
0.0
 10
9.9308222253
 20
8.9923328818
 30
0.0
 10
9.9406156497
 20
8.9951547865
 30
0.0
 10
9.9507038777
 20
8.9969788114
 30
0.0
 10
9.9609895429
 20
8.9977877558
 30
0.0
 10
9.9713735009
 20
8.9975742568
 30
0.0
 10
9.9817557883
 20
8.9963407744
 30
0.0
 10
9.9920365668
 20
8.9940995443
 30
0.0
 10
10.0021170564
 20
8.9908724258
 30
0.0
 10
10.0119004749
 20
8.9866907192
 30
0.0
 10
10.0212929432
 20
8.9815948279
 30
0.0
 10
10.0302043553
 20
8.9756338529
 30
0.0
 10
10.0385492204
 20
8.9688651265
 30
0.0
 10
10.0462474657
 20
8.9613536769
 30
0.0
 10
10.0532252185
 20
8.9531716374
 30
0.0
 10
10.0594154719
 20
8.9443975262
 30
0.0
 10
10.0647587202
 20
8.9351155263
 30
0.0
 10
10.0692035069
 20
8.9254146513
 30
0.0
 10
10.0727069756
 20
8.9153880757
 30
0.0
 10
10.0752351833
 20
8.9051317238
 30
0.0
 10
10.0767636383
 20
8.8947453802
 30
0.0
 10
10.0771071323
 20
8.8877743916
 30
0.0
 10
10.0771071323
 20
8.8843027141
 30
0.0
  0
SPLINE
  5
364
100
AcDbEntity
  8
0
100
AcDbSpline
 62
7
  6
CONTINUOUS
 70
0
 71
3
 72
39
 73
35
 74
0
 42
0.0000001
 43
0.0000001
 44
0.0000000001
 40
0.0
 40
0.0
 40
0.0
 40
0.0
 40
0.0299424741
 40
0.0599093236
 40
0.0899243299
 40
0.1200101071
 40
0.1501875628
 40
0.1804754121
 40
0.2108897558
 40
0.2414437341
 40
0.2721472619
 40
0.3030068476
 40
0.3340255003
 40
0.3652027176
 40
0.3965345493
 40
0.4280137317
 40
0.459629888
 40
0.4913697842
 40
0.5232176352
 40
0.5551554541
 40
0.5871634377
 40
0.6192203778
 40
0.6513040905
 40
0.68339186
 40
0.715460889
 40
0.7474887514
 40
0.779453839
 40
0.8113357971
 40
0.8431159663
 40
0.8747776774
 40
0.9063069717
 40
0.937691796
 40
0.9689252179
 40
1.0
 40
1.0
 40
1.0
 40
1.0
 10
10.039130374
 20
8.8312952686
 30
0.0
 10
10.0376290059
 20
8.8298450646
 30
0.0
 10
10.034508225
 20
8.827061683
 30
0.0
 10
10.0295082355
 20
8.8232698309
 30
0.0
 10
10.0242149999
 20
8.8198801602
 30
0.0
 10
10.0186580919
 20
8.8169116875
 30
0.0
 10
10.012868064
 20
8.8143806283
 30
0.0
 10
10.0068768695
 20
8.812300896
 30
0.0
 10
10.0007175226
 20
8.8106838709
 30
0.0
 10
9.9944239561
 20
8.8095383835
 30
0.0
 10
9.988030821
 20
8.808870661
 30
0.0
 10
9.981573299
 20
8.8086842908
 30
0.0
 10
9.9750869054
 20
8.8089802109
 30
0.0
 10
9.9686072952
 20
8.8097567118
 30
0.0
 10
9.9621700694
 20
8.8110094493
 30
0.0
 10
9.9558105816
 20
8.8127314715
 30
0.0
 10
9.9495637478
 20
8.8149132591
 30
0.0
 10
9.943463857
 20
8.8175427787
 30
0.0
 10
9.9375443868
 20
8.8206055505
 30
0.0
 10
9.9318378178
 20
8.8240847199
 30
0.0
 10
9.9263754593
 20
8.8279611568
 30
0.0
 10
9.9211872811
 20
8.8322135618
 30
0.0
 10
9.9163017509
 20
8.8368185818
 30
0.0
 10
9.9117456804
 20
8.8417509368
 30
0.0
 10
9.9075440803
 20
8.8469835573
 30
0.0
 10
9.9037200239
 20
8.8524877303
 30
0.0
 10
9.9002945239
 20
8.8582332556
 30
0.0
 10
9.8972864042
 20
8.8641886055
 30
0.0
 10
9.8947122195
 20
8.8703210973
 30
0.0
 10
9.8925861208
 20
8.8765970907
 30
0.0
 10
9.8909198874
 20
8.8829820841
 30
0.0
 10
9.8897226326
 20
8.8894412046
 30
0.0
 10
9.8890011393
 20
8.8959384417
 30
0.0
 10
9.8888395134
 20
8.9002838208
 30
0.0
 10
9.8888395134
 20
8.9024501479
 30
0.0
  0
SPLINE
  5
365
100
AcDbEntity
  8
0
100
AcDbSpline
 62
7
  6
CONTINUOUS
 70
0
 71
3
 72
39
 73
35
 74
0
 42
0.0000001
 43
0.0000001
 44
0.0000000001
 40
0.0
 40
0.0
 40
0.0
 40
0.0
 40
0.0299424741
 40
0.0599093236
 40
0.0899243299
 40
0.1200101071
 40
0.1501875628
 40
0.1804754121
 40
0.2108897558
 40
0.2414437341
 40
0.2721472619
 40
0.3030068476
 40
0.3340255003
 40
0.3652027176
 40
0.3965345493
 40
0.4280137317
 40
0.459629888
 40
0.4913697842
 40
0.5232176352
 40
0.5551554541
 40
0.5871634377
 40
0.6192203778
 40
0.6513040905
 40
0.68339186
 40
0.715460889
 40
0.7474887514
 40
0.779453839
 40
0.8113357971
 40
0.8431159663
 40
0.8747776774
 40
0.9063069717
 40
0.937691796
 40
0.9689252179
 40
1.0
 40
1.0
 40
1.0
 40
1.0
 10
11.5788161573
 20
8.7554273878
 30
0.0
 10
11.5773147891
 20
8.7539771838
 30
0.0
 10
11.5741940082
 20
8.7511938022
 30
0.0
 10
11.5691940187
 20
8.7474019501
 30
0.0
 10
11.5639007831
 20
8.7440122793
 30
0.0
 10
11.5583438752
 20
8.7410438067
 30
0.0
 10
11.5525538472
 20
8.7385127475
 30
0.0
 10
11.5465626528
 20
8.7364330152
 30
0.0
 10
11.5404033059
 20
8.73481599
 30
0.0
 10
11.5341097393
 20
8.7336705027
 30
0.0
 10
11.5277166043
 20
8.7330027801
 30
0.0
 10
11.5212590822
 20
8.73281641
 30
0.0
 10
11.5147726886
 20
8.7331123301
 30
0.0
 10
11.5082930785
 20
8.7338888309
 30
0.0
 10
11.5018558526
 20
8.7351415684
 30
0.0
 10
11.4954963649
 20
8.7368635907
 30
0.0
 10
11.4892495311
 20
8.7390453783
 30
0.0
 10
11.4831496402
 20
8.7416748979
 30
0.0
 10
11.47723017
 20
8.7447376697
 30
0.0
 10
11.4715236011
 20
8.7482168391
 30
0.0
 10
11.4660612426
 20
8.752093276
 30
0.0
 10
11.4608730644
 20
8.756345681
 30
0.0
 10
11.4559875341
 20
8.7609507009
 30
0.0
 10
11.4514314637
 20
8.765883056
 30
0.0
 10
11.4472298635
 20
8.7711156765
 30
0.0
 10
11.4434058072
 20
8.7766198495
 30
0.0
 10
11.4399803071
 20
8.7823653747
 30
0.0
 10
11.4369721875
 20
8.7883207247
 30
0.0
 10
11.4343980027
 20
8.7944532165
 30
0.0
 10
11.4322719041
 20
8.8007292099
 30
0.0
 10
11.4306056707
 20
8.8071142032
 30
0.0
 10
11.4294084158
 20
8.8135733238
 30
0.0
 10
11.4286869225
 20
8.8200705609
 30
0.0
 10
11.4285252967
 20
8.82441594
 30
0.0
 10
11.4285252967
 20
8.8265822671
 30
0.0
  0
SPLINE
  5
366
100
AcDbEntity
  8
0
100
AcDbSpline
 62
7
  6
CONTINUOUS
 70
0
 71
3
 72
39
 73
35
 74
0
 42
0.0000001
 43
0.0000001
 44
0.0000000001
 40
0.0
 40
0.0
 40
0.0
 40
0.0
 40
0.0311160054
 40
0.0620232808
 40
0.0927351539
 40
0.1232711756
 40
0.1536587326
 40
0.1839312105
 40
0.2141268386
 40
0.2442870981
 40
0.2744549747
 40
0.3046731306
 40
0.33498209
 40
0.365418544
 40
0.3960138629
 40
0.4267928807
 40
0.457772997
 40
0.4889636213
 40
0.5203659688
 40
0.551973177
 40
0.5837707173
 40
0.6157370643
 40
0.6478445906
 40
0.6800606397
 40
0.7123487305
 40
0.7446698622
 40
0.7769838838
 40
0.8092508928
 40
0.841432625
 40
0.8734938027
 40
0.9054033951
 40
0.9371359477
 40
0.9686717614
 40
1.0
 40
1.0
 40
1.0
 40
1.0
 10
11.4052551471
 20
7.584787982
 30
0.0
 10
11.4052551471
 20
7.5882361407
 30
0.0
 10
11.4055917739
 20
7.5951143165
 30
0.0
 10
11.4071142105
 20
7.60529407
 30
0.0
 10
11.4096380389
 20
7.6152078987
 30
0.0
 10
11.4131394014
 20
7.6247588231
 30
0.0
 10
11.4175847935
 20
7.633854794
 30
0.0
 10
11.422931551
 20
7.6424076849
 30
0.0
 10
11.4291281417
 20
7.6503346946
 30
0.0
 10
11.4361147199
 20
7.6575590378
 30
0.0
 10
11.4438237022
 20
7.6640107755
 30
0.0
 10
11.4521804534
 20
7.6696275103
 30
0.0
 10
11.4611040234
 20
7.6743550598
 30
0.0
 10
11.4705080086
 20
7.6781479556
 30
0.0
 10
11.480301433
 20
7.6809698603
 30
0.0
 10
11.490389661
 20
7.6827938853
 30
0.0
 10
11.5006753261
 20
7.6836028297
 30
0.0
 10
11.5110592841
 20
7.6833893306
 30
0.0
 10
11.5214415716
 20
7.6821558483
 30
0.0
 10
11.53172235
 20
7.6799146182
 30
0.0
 10
11.5418028397
 20
7.6766874997
 30
0.0
 10
11.5515862582
 20
7.672505793
 30
0.0
 10
11.5609787264
 20
7.6674099018
 30
0.0
 10
11.5698901386
 20
7.6614489267
 30
0.0
 10
11.5782350037
 20
7.6546802004
 30
0.0
 10
11.585933249
 20
7.6471687508
 30
0.0
 10
11.5929110018
 20
7.6389867113
 30
0.0
 10
11.5991012551
 20
7.6302126
 30
0.0
 10
11.6044445035
 20
7.6209306001
 30
0.0
 10
11.6088892902
 20
7.6112297251
 30
0.0
 10
11.6123927589
 20
7.6012031495
 30
0.0
 10
11.6149209666
 20
7.5909467977
 30
0.0
 10
11.6164494216
 20
7.580560454
 30
0.0
 10
11.6167929156
 20
7.5735894655
 30
0.0
 10
11.6167929156
 20
7.5701177879
 30
0.0
  0
SPLINE
  5
367
100
AcDbEntity
  8
0
100
AcDbSpline
 62
7
  6
CONTINUOUS
 70
0
 71
3
 72
39
 73
35
 74
0
 42
0.0000001
 43
0.0000001
 44
0.0000000001
 40
0.0
 40
0.0
 40
0.0
 40
0.0
 40
0.0299424741
 40
0.0599093236
 40
0.0899243299
 40
0.1200101071
 40
0.1501875628
 40
0.1804754121
 40
0.2108897558
 40
0.2414437341
 40
0.2721472619
 40
0.3030068476
 40
0.3340255003
 40
0.3652027176
 40
0.3965345493
 40
0.4280137317
 40
0.459629888
 40
0.4913697842
 40
0.5232176352
 40
0.5551554541
 40
0.5871634377
 40
0.6192203778
 40
0.6513040905
 40
0.68339186
 40
0.715460889
 40
0.7474887514
 40
0.779453839
 40
0.8113357971
 40
0.8431159663
 40
0.8747776774
 40
0.9063069717
 40
0.937691796
 40
0.9689252179
 40
1.0
 40
1.0
 40
1.0
 40
1.0
 10
11.5788161573
 20
7.5171103425
 30
0.0
 10
11.5773147891
 20
7.5156601385
 30
0.0
 10
11.5741940082
 20
7.5128767569
 30
0.0
 10
11.5691940187
 20
7.5090849048
 30
0.0
 10
11.5639007831
 20
7.505695234
 30
0.0
 10
11.5583438752
 20
7.5027267614
 30
0.0
 10
11.5525538472
 20
7.5001957022
 30
0.0
 10
11.5465626528
 20
7.4981159699
 30
0.0
 10
11.5404033059
 20
7.4964989447
 30
0.0
 10
11.5341097393
 20
7.4953534574
 30
0.0
 10
11.5277166043
 20
7.4946857348
 30
0.0
 10
11.5212590822
 20
7.4944993647
 30
0.0
 10
11.5147726886
 20
7.4947952848
 30
0.0
 10
11.5082930785
 20
7.4955717856
 30
0.0
 10
11.5018558526
 20
7.4968245231
 30
0.0
 10
11.4954963649
 20
7.4985465454
 30
0.0
 10
11.4892495311
 20
7.500728333
 30
0.0
 10
11.4831496402
 20
7.5033578526
 30
0.0
 10
11.47723017
 20
7.5064206244
 30
0.0
 10
11.4715236011
 20
7.5098997938
 30
0.0
 10
11.4660612426
 20
7.5137762306
 30
0.0
 10
11.4608730644
 20
7.5180286356
 30
0.0
 10
11.4559875341
 20
7.5226336556
 30
0.0
 10
11.4514314637
 20
7.5275660107
 30
0.0
 10
11.4472298635
 20
7.5327986311
 30
0.0
 10
11.4434058072
 20
7.5383028042
 30
0.0
 10
11.4399803071
 20
7.5440483294
 30
0.0
 10
11.4369721875
 20
7.5500036794
 30
0.0
 10
11.4343980027
 20
7.5561361712
 30
0.0
 10
11.4322719041
 20
7.5624121646
 30
0.0
 10
11.4306056707
 20
7.5687971579
 30
0.0
 10
11.4294084158
 20
7.5752562785
 30
0.0
 10
11.4286869225
 20
7.5817535155
 30
0.0
 10
11.4285252967
 20
7.5860988946
 30
0.0
 10
11.4285252967
 20
7.5882652218
 30
0.0
  0
SPLINE
  5
368
100
AcDbEntity
  8
0
100
AcDbSpline
 62
7
  6
CONTINUOUS
 70
0
 71
3
 72
15
 73
11
 74
0
 42
0.0000001
 43
0.0000001
 44
0.0000000001
 40
0.0
 40
0.0
 40
0.0
 40
0.0
 40
0.1233171148
 40
0.2468171822
 40
0.3706750007
 40
0.4950496181
 40
0.6200773069
 40
0.7458672043
 40
0.8724928123
 40
1.0
 40
1.0
 40
1.0
 40
1.0
 10
11.2783337862
 20
7.5412456841
 30
0.0
 10
11.2765834637
 20
7.5395550215
 30
0.0
 10
11.2728949477
 20
7.5363571714
 30
0.0
 10
11.2668749761
 20
7.5321784252
 30
0.0
 10
11.2604243719
 20
7.5286558185
 30
0.0
 10
11.2536091842
 20
7.5258255272
 30
0.0
 10
11.2464981495
 20
7.5237156482
 30
0.0
 10
11.2391628953
 20
7.5223472969
 30
0.0
 10
11.2316782984
 20
7.5217337753
 30
0.0
 10
11.2266542768
 20
7.5218317755
 30
0.0
 10
11.2241441103
 20
7.5220058562
 30
0.0
  0
SPLINE
  5
369
100
AcDbEntity
  8
0
100
AcDbSpline
 62
7
  6
CONTINUOUS
 70
0
 71
3
 72
39
 73
35
 74
0
 42
0.0000001
 43
0.0000001
 44
0.0000000001
 40
0.0
 40
0.0
 40
0.0
 40
0.0
 40
0.0311160054
 40
0.0620232808
 40
0.0927351539
 40
0.1232711756
 40
0.1536587326
 40
0.1839312105
 40
0.2141268386
 40
0.2442870981
 40
0.2744549747
 40
0.3046731306
 40
0.33498209
 40
0.365418544
 40
0.3960138629
 40
0.4267928807
 40
0.457772997
 40
0.4889636213
 40
0.5203659688
 40
0.551973177
 40
0.5837707173
 40
0.6157370643
 40
0.6478445906
 40
0.6800606397
 40
0.7123487305
 40
0.7446698622
 40
0.7769838838
 40
0.8092508928
 40
0.841432625
 40
0.8734938027
 40
0.9054033951
 40
0.9371359477
 40
0.9686717614
 40
1.0
 40
1.0
 40
1.0
 40
1.0
 10
11.6167929156
 20
7.5701177879
 30
0.0
 10
11.6167929156
 20
7.5666696293
 30
0.0
 10
11.6164562888
 20
7.5597914535
 30
0.0
 10
11.6149338522
 20
7.5496116999
 30
0.0
 10
11.6124100238
 20
7.5396978713
 30
0.0
 10
11.6089086612
 20
7.5301469469
 30
0.0
 10
11.6044632691
 20
7.521050976
 30
0.0
 10
11.5991165117
 20
7.512498085
 30
0.0
 10
11.592919921
 20
7.5045710754
 30
0.0
 10
11.5859333427
 20
7.4973467321
 30
0.0
 10
11.5782243605
 20
7.4908949945
 30
0.0
 10
11.5698676093
 20
7.4852782597
 30
0.0
 10
11.5609440393
 20
7.4805507102
 30
0.0
 10
11.5515400541
 20
7.4767578143
 30
0.0
 10
11.5417466297
 20
7.4739359096
 30
0.0
 10
11.5316584017
 20
7.4721118847
 30
0.0
 10
11.5213727365
 20
7.4713029403
 30
0.0
 10
11.5109887785
 20
7.4715164393
 30
0.0
 10
11.5006064911
 20
7.4727499217
 30
0.0
 10
11.4903257126
 20
7.4749911518
 30
0.0
 10
11.480245223
 20
7.4782182702
 30
0.0
 10
11.4704618045
 20
7.4823999769
 30
0.0
 10
11.4610693362
 20
7.4874958682
 30
0.0
 10
11.4521579241
 20
7.4934568432
 30
0.0
 10
11.443813059
 20
7.5002255695
 30
0.0
 10
11.4361148137
 20
7.5077370192
 30
0.0
 10
11.4291370609
 20
7.5159190587
 30
0.0
 10
11.4229468075
 20
7.5246931699
 30
0.0
 10
11.4176035592
 20
7.5339751698
 30
0.0
 10
11.4131587725
 20
7.5436760448
 30
0.0
 10
11.4096553038
 20
7.5537026204
 30
0.0
 10
11.4071270961
 20
7.5639589723
 30
0.0
 10
11.4055986411
 20
7.5743453159
 30
0.0
 10
11.4052551471
 20
7.5813163045
 30
0.0
 10
11.4052551471
 20
7.584787982
 30
0.0
  0
SPLINE
  5
36A
100
AcDbEntity
  8
0
100
AcDbSpline
 62
7
  6
CONTINUOUS
 70
0
 71
3
 72
27
 73
23
 74
0
 42
0.0000001
 43
0.0000001
 44
0.0000000001
 40
0.0
 40
0.0
 40
0.0
 40
0.0
 40
0.0604864218
 40
0.121177625
 40
0.182099126
 40
0.2432758325
 40
0.3047315625
 40
0.3664882309
 40
0.4285645896
 40
0.4909743906
 40
0.5537238635
 40
0.6168085018
 40
0.6484796755
 40
0.6802264848
 40
0.7439063359
 40
0.8078062029
 40
0.8398251905
 40
0.8718676833
 40
0.9039205885
 40
0.9359691643
 40
0.9680020959
 40
1.0
 40
1.0
 40
1.0
 40
1.0
 10
10.400698069
 20
8.3898126678
 30
0.0
 10
10.4041324927
 20
8.3911501848
 30
0.0
 10
10.4110995452
 20
8.3936134252
 30
0.0
 10
10.4217831838
 20
8.3966374921
 30
0.0
 10
10.4326834596
 20
8.3989664564
 30
0.0
 10
10.4437618384
 20
8.4005661914
 30
0.0
 10
10.4549757479
 20
8.4013997778
 30
0.0
 10
10.4662761714
 20
8.4014274016
 30
0.0
 10
10.4776060296
 20
8.4006071068
 30
0.0
 10
10.4888983704
 20
8.398895857
 30
0.0
 10
10.5000734077
 20
8.3962519059
 30
0.0
 10
10.5092012469
 20
8.3932426009
 30
0.0
 10
10.5163436296
 20
8.3903371885
 30
0.0
 10
10.5233763879
 20
8.3870881152
 30
0.0
 10
10.531890423
 20
8.3823893622
 30
0.0
 10
10.5399088624
 20
8.3768545312
 30
0.0
 10
10.5459635182
 20
8.371936726
 30
0.0
 10
10.5503098666
 20
8.3680069282
 30
0.0
 10
10.5544397037
 20
8.363847739
 30
0.0
 10
10.5583364331
 20
8.3594699656
 30
0.0
 10
10.5619838881
 20
8.3548868998
 30
0.0
 10
10.564241747
 20
8.3517019992
 30
0.0
 10
10.5653245287
 20
8.3500805355
 30
0.0
  0
SPLINE
  5
36B
100
AcDbEntity
  8
0
100
AcDbSpline
 62
7
  6
CONTINUOUS
 70
0
 71
3
 72
36
 73
32
 74
0
 42
0.0000001
 43
0.0000001
 44
0.0000000001
 40
0.0
 40
0.0
 40
0.0
 40
0.0
 40
0.0066012247
 40
0.0137419834
 40
0.0214592348
 40
0.029768143
 40
0.0386669517
 40
0.048142596
 40
0.0581736025
 40
0.0687352323
 40
0.0798011535
 40
0.0913431958
 40
0.1033359769
 40
0.1157538009
 40
0.1417700135
 40
0.169223012
 40
0.1979695306
 40
0.2278879767
 40
0.2588776635
 40
0.2908503101
 40
0.3237288285
 40
0.3574417864
 40
0.4270962077
 40
0.4992533318
 40
0.5732673473
 40
0.6483405014
 40
0.7234814503
 40
0.7975116406
 40
0.8691291243
 40
0.9370233958
 40
1.0
 40
1.0
 40
1.0
 40
1.0
 10
10.7798744523
 20
7.8347464595
 30
0.0
 10
10.7801257647
 20
7.8348792201
 30
0.0
 10
10.7806679163
 20
7.8351203375
 30
0.0
 10
10.7815484743
 20
7.8354043475
 30
0.0
 10
10.7825217214
 20
7.8356275467
 30
0.0
 10
10.7835825237
 20
7.8357944212
 30
0.0
 10
10.784726126
 20
7.8359093668
 30
0.0
 10
10.78594761
 20
7.8359770258
 30
0.0
 10
10.7872422169
 20
7.8360020956
 30
0.0
 10
10.788605404
 20
7.8359890934
 30
0.0
 10
10.7900329002
 20
7.8359424591
 30
0.0
 10
10.7915208123
 20
7.8358666284
 30
0.0
 10
10.7930655311
 20
7.8357654694
 30
0.0
 10
10.7952303952
 20
7.8355994145
 30
0.0
 10
10.7980560566
 20
7.8353467668
 30
0.0
 10
10.8015792831
 20
7.8350035918
 30
0.0
 10
10.8052691041
 20
7.8346377068
 30
0.0
 10
10.8091116436
 20
7.8342688033
 30
0.0
 10
10.8130949683
 20
7.8339134443
 30
0.0
 10
10.8172086506
 20
7.8335868341
 30
0.0
 10
10.8214430335
 20
7.8333022576
 30
0.0
 10
10.8273011889
 20
7.8329913851
 30
0.0
 10
10.834857029
 20
7.8327721037
 30
0.0
 10
10.8441517299
 20
7.8328467264
 30
0.0
 10
10.8536690837
 20
7.8333157673
 30
0.0
 10
10.8632844002
 20
7.8342212071
 30
0.0
 10
10.8728470578
 20
7.835581628
 30
0.0
 10
10.882184612
 20
7.8373864035
 30
0.0
 10
10.8911150463
 20
7.8395907034
 30
0.0
 10
10.8994637661
 20
7.842115383
 30
0.0
 10
10.9047695272
 20
7.8440210877
 30
0.0
 10
10.9072968972
 20
7.8450033455
 30
0.0
  0
SPLINE
  5
36C
100
AcDbEntity
  8
0
100
AcDbSpline
 62
7
  6
CONTINUOUS
 70
0
 71
3
 72
40
 73
36
 74
0
 42
0.0000001
 43
0.0000001
 44
0.0000000001
 40
0.0
 40
0.0
 40
0.0
 40
0.0
 40
0.0301996485
 40
0.0603260018
 40
0.090408568
 40
0.1204780459
 40
0.1505653679
 40
0.1807007509
 40
0.2109127937
 40
0.2412276538
 40
0.271668329
 40
0.3022540629
 40
0.332999885
 40
0.3639162877
 40
0.3950090395
 40
0.4262791263
 40
0.4577228131
 40
0.4893318137
 40
0.5210935585
 40
0.5529915498
 40
0.5850057946
 40
0.617113306
 40
0.6492886656
 40
0.6815046383
 40
0.7137328315
 40
0.7459443904
 40
0.7781107186
 40
0.8102042124
 40
0.8421989889
 40
0.8740716197
 40
0.9058017396
 40
0.9373728967
 40
0.9530977775
 40
0.9687791407
 40
1.0
 40
1.0
 40
1.0
 40
1.0
 10
10.8945343941
 20
7.7760917915
 30
0.0
 10
10.892977906
 20
7.7732253302
 30
0.0
 10
10.8896129163
 20
7.7676339768
 30
0.0
 10
10.8838453254
 20
7.7597391846
 30
0.0
 10
10.8774050846
 20
7.7524004569
 30
0.0
 10
10.8703387981
 20
7.7456688678
 30
0.0
 10
10.8626966244
 20
7.7395898134
 30
0.0
 10
10.8545325995
 20
7.7342041865
 30
0.0
 10
10.8459039915
 20
7.7295477919
 30
0.0
 10
10.8368709111
 20
7.7256512956
 30
0.0
 10
10.827495859
 20
7.7225400868
 30
0.0
 10
10.8178433031
 20
7.7202342117
 30
0.0
 10
10.8079792617
 20
7.7187483283
 30
0.0
 10
10.7979709024
 20
7.7180916878
 30
0.0
 10
10.7878861514
 20
7.7182681343
 30
0.0
 10
10.7777933124
 20
7.7192761212
 30
0.0
 10
10.767760691
 20
7.7211087391
 30
0.0
 10
10.7578562219
 20
7.7237537572
 30
0.0
 10
10.7481470938
 20
7.7271936768
 30
0.0
 10
10.7386993708
 20
7.7314057996
 30
0.0
 10
10.7295776064
 20
7.7363623144
 30
0.0
 10
10.72084445
 20
7.7420304054
 30
0.0
 10
10.712560244
 20
7.7483723854
 30
0.0
 10
10.7047826143
 20
7.7553458608
 30
0.0
 10
10.6975660557
 20
7.7629039309
 30
0.0
 10
10.6909615157
 20
7.7709954282
 30
0.0
 10
10.6850159832
 20
7.7795651966
 30
0.0
 10
10.6797720865
 20
7.7885544328
 30
0.0
 10
10.6752677112
 20
7.7979010102
 30
0.0
 10
10.6715356333
 20
7.8075400812
 30
0.0
 10
10.6686032472
 20
7.8174038684
 30
0.0
 10
10.6668414775
 20
7.8257660391
 30
0.0
 10
10.6658524126
 20
7.8324975513
 30
0.0
 10
10.6651463877
 20
7.8392261612
 30
0.0
 10
10.6649322566
 20
7.8442952143
 30
0.0
 10
10.6649322566
 20
7.8476672998
 30
0.0
  0
SPLINE
  5
36D
100
AcDbEntity
  8
0
100
AcDbSpline
 62
7
  6
CONTINUOUS
 70
0
 71
3
 72
72
 73
68
 74
0
 42
0.0000001
 43
0.0000001
 44
0.0000000001
 40
0.0
 40
0.0
 40
0.0
 40
0.0
 40
0.0038577872
 40
0.0078706379
 40
0.0120417989
 40
0.016373998
 40
0.0208695662
 40
0.025530388
 40
0.0303577982
 40
0.0353526471
 40
0.0458457985
 40
0.057010757
 40
0.0688432322
 40
0.0813351508
 40
0.0944752071
 40
0.1082492878
 40
0.1226408497
 40
0.137631187
 40
0.1531996177
 40
0.1693236973
 40
0.1859793989
 40
0.203141239
 40
0.2207823749
 40
0.2388747516
 40
0.2573892106
 40
0.2762955685
 40
0.2955627006
 40
0.3151586557
 40
0.3552048809
 40
0.396165797
 40
0.4377641133
 40
0.4797169416
 40
0.5217383276
 40
0.5635417216
 40
0.6048424552
 40
0.6453602545
 40
0.6652401271
 40
0.6848224416
 40
0.7040745256
 40
0.7229644518
 40
0.7414611486
 40
0.75953448
 40
0.7771553207
 40
0.7942956584
 40
0.81092873
 40
0.827029109
 40
0.8425728172
 40
0.8575374847
 40
0.8719025356
 40
0.8856493411
 40
0.8987614389
 40
0.911224845
 40
0.9230284005
 40
0.9341641721
 40
0.9446280174
 40
0.9544203652
 40
0.9590667794
 40
0.9635480768
 40
0.9678660966
 40
0.9720231996
 40
0.9760223019
 40
0.9798670466
 40
0.9835617895
 40
0.9871117241
 40
0.9905230284
 40
0.9938028811
 40
1.0
 40
1.0
 40
1.0
 40
1.0
 10
12.6604265943
 20
7.48605499
 30
0.0
 10
12.6612346104
 20
7.4868354736
 30
0.0
 10
12.6628498602
 20
7.4884625489
 30
0.0
 10
12.6652245829
 20
7.4910436894
 30
0.0
 10
12.6675970725
 20
7.4938115254
 30
0.0
 10
12.6699661117
 20
7.4967646973
 30
0.0
 10
12.6723307178
 20
7.4999018572
 30
0.0
 10
12.6746898381
 20
7.5032216499
 30
0.0
 10
12.6770424764
 20
7.5067226031
 30
0.0
 10
12.6802216408
 20
7.5117123148
 30
0.0
 10
12.6841639957
 20
7.5184010766
 30
0.0
 10
12.6887774005
 20
7.5269960124
 30
0.0
 10
12.6933398195
 20
7.5362712789
 30
0.0
 10
12.6978429759
 20
7.5462101851
 30
0.0
 10
12.7022787174
 20
7.5567949847
 30
0.0
 10
12.7066389786
 20
7.5680066234
 30
0.0
 10
12.7109158081
 20
7.5798248912
 30
0.0
 10
12.7151013875
 20
7.5922284371
 30
0.0
 10
12.719188079
 20
7.6051948076
 30
0.0
 10
12.7231684219
 20
7.6187005013
 30
0.0
 10
12.727035141
 20
7.6327210268
 30
0.0
 10
12.7307811634
 20
7.6472309424
 30
0.0
 10
12.7343996574
 20
7.6622038963
 30
0.0
 10
12.7378840168
 20
7.6776126867
 30
0.0
 10
12.7412278766
 20
7.6934293201
 30
0.0
 10
12.7444251216
 20
7.7096250455
 30
0.0
 10
12.7474699532
 20
7.7261704394
 30
0.0
 10
12.7513469306
 20
7.7488203169
 30
0.0
 10
12.7557634932
 20
7.7777846401
 30
0.0
 10
12.7603380997
 20
7.8131966144
 30
0.0
 10
12.7641912733
 20
7.8492527474
 30
0.0
 10
12.7672949281
 20
7.8856909549
 30
0.0
 10
12.7696263938
 20
7.9222465353
 30
0.0
 10
12.7711688094
 20
7.9586539104
 30
0.0
 10
12.7719109992
 20
7.9946484255
 30
0.0
 10
12.7718581905
 20
8.0242663426
 30
0.0
 10
12.7714041507
 20
8.0475529719
 30
0.0
 10
12.7708641724
 20
8.0646427898
 30
0.0
 10
12.7701236721
 20
8.0814365427
 30
0.0
 10
12.7691839849
 20
8.0979037182
 30
0.0
 10
12.7680468519
 20
8.1140143728
 30
0.0
 10
12.7667143702
 20
8.1297392265
 30
0.0
 10
12.7651889884
 20
8.1450496995
 30
0.0
 10
12.7634735018
 20
8.1599179729
 30
0.0
 10
12.7615710748
 20
8.1743170461
 30
0.0
 10
12.759485209
 20
8.1882207837
 30
0.0
 10
12.7572197343
 20
8.2016039578
 30
0.0
 10
12.7547788089
 20
8.2144423072
 30
0.0
 10
12.752166931
 20
8.2267125917
 30
0.0
 10
12.7493889002
 20
8.2383926308
 30
0.0
 10
12.7464498024
 20
8.249461345
 30
0.0
 10
12.7433550154
 20
8.2598988283
 30
0.0
 10
12.7401101955
 20
8.2696863675
 30
0.0
 10
12.7367212065
 20
8.2788065925
 30
0.0
 10
12.7331941428
 20
8.2872431343
 30
0.0
 10
12.7300930131
 20
8.2938019857
 30
0.0
 10
12.7275402341
 20
8.298685221
 30
0.0
 10
12.7256286548
 20
8.3021030021
 30
0.0
 10
12.7236873949
 20
8.3053389801
 30
0.0
 10
12.7217172928
 20
8.3083917292
 30
0.0
 10
12.7197191598
 20
8.3112598599
 30
0.0
 10
12.7176938978
 20
8.3139421135
 30
0.0
 10
12.7156423254
 20
8.316437303
 30
0.0
 10
12.7135653416
 20
8.3187442143
 30
0.0
 10
12.7114635671
 20
8.3208620553
 30
0.0
 10
12.708682775
 20
8.3233839326
 30
0.0
 10
12.7064835036
 20
8.3250660366
 30
0.0
 10
12.7049788416
 20
8.3260623766
 30
0.0
  0
SPLINE
  5
36E
100
AcDbEntity
  8
0
100
AcDbSpline
 62
7
  6
CONTINUOUS
 70
0
 71
3
 72
11
 73
7
 74
0
 42
0.0000001
 43
0.0000001
 44
0.0000000001
 40
0.0
 40
0.0
 40
0.0
 40
0.0
 40
0.2730455232
 40
0.5298860536
 40
0.7716949754
 40
1.0
 40
1.0
 40
1.0
 40
1.0
 10
12.6604265943
 20
7.48605499
 30
0.0
 10
12.6592480214
 20
7.4849165759
 30
0.0
 10
12.6568924433
 20
7.4827762913
 30
0.0
 10
12.6532486215
 20
7.4799109587
 30
0.0
 10
12.6496094799
 20
7.4774959436
 30
0.0
 10
12.6471225222
 20
7.4761528689
 30
0.0
 10
12.6458847629
 20
7.4755653803
 30
0.0
  0
SPLINE
  5
36F
100
AcDbEntity
  8
0
100
AcDbSpline
 62
7
  6
CONTINUOUS
 70
0
 71
3
 72
15
 73
11
 74
0
 42
0.0000001
 43
0.0000001
 44
0.0000000001
 40
0.0
 40
0.0
 40
0.0
 40
0.0
 40
0.148189077
 40
0.2884124565
 40
0.4211645545
 40
0.5470824521
 40
0.6669392739
 40
0.7816491473
 40
0.892270482
 40
1.0
 40
1.0
 40
1.0
 40
1.0
 10
12.6604265943
 20
7.4986120265
 30
0.0
 10
12.6593914295
 20
7.497612134
 30
0.0
 10
12.6573222272
 20
7.4957212483
 30
0.0
 10
12.6541313116
 20
7.4931573842
 30
0.0
 10
12.6509437394
 20
7.4909492009
 30
0.0
 10
12.6477620142
 20
7.489099095
 30
0.0
 10
12.6445883102
 20
7.4876093298
 30
0.0
 10
12.6414249285
 20
7.4864820204
 30
0.0
 10
12.6382751984
 20
7.4857195606
 30
0.0
 10
12.6361658343
 20
7.4854531502
 30
0.0
 10
12.6351218981
 20
7.48538325
 30
0.0
  0
SPLINE
  5
370
100
AcDbEntity
  8
0
100
AcDbSpline
 62
7
  6
CONTINUOUS
 70
0
 71
3
 72
11
 73
7
 74
0
 42
0.0000001
 43
0.0000001
 44
0.0000000001
 40
0.0
 40
0.0
 40
0.0
 40
0.0
 40
0.2783980103
 40
0.5363556557
 40
0.7759608084
 40
1.0
 40
1.0
 40
1.0
 40
1.0
 10
12.6428597508
 20
7.509972513
 30
0.0
 10
12.6414791747
 20
7.5086389787
 30
0.0
 10
12.6387206163
 20
7.5061685499
 30
0.0
 10
12.634418792
 20
7.5029734428
 30
0.0
 10
12.6301232436
 20
7.5004432549
 30
0.0
 10
12.6271801067
 20
7.4991675774
 30
0.0
 10
12.6257224211
 20
7.4986565424
 30
0.0
  0
SPLINE
  5
371
100
AcDbEntity
  8
0
100
AcDbSpline
 62
7
  6
CONTINUOUS
 70
0
 71
3
 72
32
 73
28
 74
0
 42
0.0000001
 43
0.0000001
 44
0.0000000001
 40
0.0
 40
0.0
 40
0.0
 40
0.0
 40
0.0607419963
 40
0.1218244707
 40
0.1525002557
 40
0.1832613646
 40
0.245025544
 40
0.3071229902
 40
0.3695430051
 40
0.4322692257
 40
0.4952772062
 40
0.5585300097
 40
0.590242106
 40
0.6219940056
 40
0.6855473426
 40
0.7173458396
 40
0.7491274449
 40
0.7808715406
 40
0.8125549711
 40
0.8441525192
 40
0.8599138782
 40
0.875644151
 40
0.9069913069
 40
0.9381767885
 40
0.9537061453
 40
0.969188799
 40
1.0
 40
1.0
 40
1.0
 40
1.0
 10
10.8358040768
 20
8.5352094528
 30
0.0
 10
10.8303008434
 20
8.5342480235
 30
0.0
 10
10.8191739471
 20
8.5328029314
 30
0.0
 10
10.805146736
 20
8.5321615896
 30
0.0
 10
10.7938768979
 20
8.5323288487
 30
0.0
 10
10.7825602722
 20
8.5329504599
 30
0.0
 10
10.7684163546
 20
8.5345776297
 30
0.0
 10
10.7515869111
 20
8.5378800579
 30
0.0
 10
10.7349896084
 20
8.542544132
 30
0.0
 10
10.7187525699
 20
8.5485881479
 30
0.0
 10
10.7030237626
 20
8.5560369825
 30
0.0
 10
10.6904922742
 20
8.5634359333
 30
0.0
 10
10.6809145582
 20
8.570084265
 30
0.0
 10
10.6716679423
 20
8.5772297554
 30
0.0
 10
10.662998865
 20
8.5851161786
 30
0.0
 10
10.6550761824
 20
8.5937236708
 30
0.0
 10
10.6495487228
 20
8.6005369465
 30
0.0
 10
10.6444883971
 20
8.6076915765
 30
0.0
 10
10.6399476109
 20
8.6151676003
 30
0.0
 10
10.6366384516
 20
8.6216490467
 30
0.0
 10
10.6343055556
 20
8.626963343
 30
0.0
 10
10.6321949946
 20
8.6323450488
 30
0.0
 10
10.6299794931
 20
8.6392029262
 30
0.0
 10
10.6283622016
 20
8.6462079449
 30
0.0
 10
10.6274493718
 20
8.651856909
 30
0.0
 10
10.6267958528
 20
8.6575066025
 30
0.0
 10
10.6265966899
 20
8.661767659
 30
0.0
 10
10.6265966899
 20
8.6646014376
 30
0.0
  0
SPLINE
  5
372
100
AcDbEntity
  8
0
100
AcDbSpline
 62
7
  6
CONTINUOUS
 70
0
 71
3
 72
15
 73
11
 74
0
 42
0.0000001
 43
0.0000001
 44
0.0000000001
 40
0.0
 40
0.0
 40
0.0
 40
0.0
 40
0.1273482292
 40
0.2538605354
 40
0.3795879276
 40
0.5046050833
 40
0.6290174349
 40
0.7529533662
 40
0.8765605734
 40
1.0
 40
1.0
 40
1.0
 40
1.0
 10
9.8888395134
 20
7.7249865134
 30
0.0
 10
9.8888395134
 20
7.7277737313
 30
0.0
 10
9.8891056355
 20
7.7333337249
 30
0.0
 10
9.8903091527
 20
7.741566781
 30
0.0
 10
9.8923047883
 20
7.749592971
 30
0.0
 10
9.8950745206
 20
7.7573372309
 30
0.0
 10
9.8985929196
 20
7.7647281474
 30
0.0
 10
9.9028279254
 20
7.7716974724
 30
0.0
 10
9.9077397179
 20
7.7781799021
 30
0.0
 10
9.911438047
 20
7.7821397417
 30
0.0
 10
9.9133812378
 20
7.7840167118
 30
0.0
  0
SPLINE
  5
373
100
AcDbEntity
  8
0
100
AcDbSpline
 62
7
  6
CONTINUOUS
 70
0
 71
3
 72
21
 73
17
 74
0
 42
0.0000001
 43
0.0000001
 44
0.0000000001
 40
0.0
 40
0.0
 40
0.0
 40
0.0
 40
0.1281404297
 40
0.1920236005
 40
0.2557379291
 40
0.3825097062
 40
0.4455697842
 40
0.5083638426
 40
0.570871373
 40
0.633076109
 40
0.6949677784
 40
0.7565438893
 40
0.8178116368
 40
0.8787888141
 40
0.9395050427
 40
1.0
 40
1.0
 40
1.0
 40
1.0
 10
11.2584277186
 20
8.256634571
 30
0.0
 10
11.2611463207
 20
8.2520000778
 30
0.0
 10
11.2649046346
 20
8.2448610442
 30
0.0
 10
11.269178544
 20
8.2350221497
 30
0.0
 10
11.2729149488
 20
8.2250282498
 30
0.0
 10
11.2758219824
 20
8.2147732046
 30
0.0
 10
11.2777822303
 20
8.2043578061
 30
0.0
 10
11.2787509088
 20
8.1965134847
 30
0.0
 10
11.2791944246
 20
8.1886577004
 30
0.0
 10
11.2790889959
 20
8.1808272757
 30
0.0
 10
11.2784137002
 20
8.1730639165
 30
0.0
 10
11.2771520142
 20
8.1654132338
 30
0.0
 10
11.2752932247
 20
8.1579242539
 30
0.0
 10
11.2728336637
 20
8.1506478792
 30
0.0
 10
11.2697783769
 20
8.143636421
 30
0.0
 10
11.2673486505
 20
8.1391636654
 30
0.0
 10
11.2660412958
 20
8.136989926
 30
0.0
  0
SPLINE
  5
374
100
AcDbEntity
  8
0
100
AcDbSpline
 62
7
  6
CONTINUOUS
 70
0
 71
3
 72
39
 73
35
 74
0
 42
0.0000001
 43
0.0000001
 44
0.0000000001
 40
0.0
 40
0.0
 40
0.0
 40
0.0
 40
0.0311160054
 40
0.0620232808
 40
0.0927351539
 40
0.1232711756
 40
0.1536587326
 40
0.1839312105
 40
0.2141268386
 40
0.2442870981
 40
0.2744549747
 40
0.3046731306
 40
0.33498209
 40
0.365418544
 40
0.3960138629
 40
0.4267928807
 40
0.457772997
 40
0.4889636213
 40
0.5203659688
 40
0.551973177
 40
0.5837707173
 40
0.6157370643
 40
0.6478445906
 40
0.6800606397
 40
0.7123487305
 40
0.7446698622
 40
0.7769838838
 40
0.8092508928
 40
0.841432625
 40
0.8734938027
 40
0.9054033951
 40
0.9371359477
 40
0.9686717614
 40
1.0
 40
1.0
 40
1.0
 40
1.0
 10
10.0771071323
 20
8.8843027141
 30
0.0
 10
10.0771071323
 20
8.8808545554
 30
0.0
 10
10.0767705056
 20
8.8739763796
 30
0.0
 10
10.0752480689
 20
8.8637966261
 30
0.0
 10
10.0727242405
 20
8.8538827974
 30
0.0
 10
10.069222878
 20
8.844331873
 30
0.0
 10
10.0647774859
 20
8.8352359021
 30
0.0
 10
10.0594307284
 20
8.8266830112
 30
0.0
 10
10.0532341377
 20
8.8187560015
 30
0.0
 10
10.0462475595
 20
8.8115316582
 30
0.0
 10
10.0385385772
 20
8.8050799206
 30
0.0
 10
10.0301818261
 20
8.7994631858
 30
0.0
 10
10.021258256
 20
8.7947356363
 30
0.0
 10
10.0118542709
 20
8.7909427404
 30
0.0
 10
10.0020608464
 20
8.7881208358
 30
0.0
 10
9.9919726184
 20
8.7862968108
 30
0.0
 10
9.9816869533
 20
8.7854878664
 30
0.0
 10
9.9713029953
 20
8.7857013655
 30
0.0
 10
9.9609207078
 20
8.7869348478
 30
0.0
 10
9.9506399294
 20
8.7891760779
 30
0.0
 10
9.9405594397
 20
8.7924031964
 30
0.0
 10
9.9307760212
 20
8.7965849031
 30
0.0
 10
9.921383553
 20
8.8016807943
 30
0.0
 10
9.9124721408
 20
8.8076417694
 30
0.0
 10
9.9041272757
 20
8.8144104957
 30
0.0
 10
9.8964290305
 20
8.8219219453
 30
0.0
 10
9.8894512776
 20
8.8301039848
 30
0.0
 10
9.8832610243
 20
8.838878096
 30
0.0
 10
9.8779177759
 20
8.848160096
 30
0.0
 10
9.8734729892
 20
8.857860971
 30
0.0
 10
9.8699695206
 20
8.8678875466
 30
0.0
 10
9.8674413128
 20
8.8781438984
 30
0.0
 10
9.8659128578
 20
8.888530242
 30
0.0
 10
9.8655693638
 20
8.8955012306
 30
0.0
 10
9.8655693638
 20
8.8989729082
 30
0.0
  0
SPLINE
  5
375
100
AcDbEntity
  8
0
100
AcDbSpline
 62
7
  6
CONTINUOUS
 70
0
 71
3
 72
41
 73
37
 74
0
 42
0.0000001
 43
0.0000001
 44
0.0000000001
 40
0.0
 40
0.0
 40
0.0
 40
0.0
 40
0.0311444983
 40
0.062442467
 40
0.093887251
 40
0.1254695609
 40
0.157177086
 40
0.1889950997
 40
0.2209066479
 40
0.2528929497
 40
0.284933762
 40
0.3170077852
 40
0.3490930781
 40
0.3811674822
 40
0.4132090489
 40
0.445196464
 40
0.4771094635
 40
0.5089292351
 40
0.540638799
 40
0.5722233621
 40
0.6036706378
 40
0.6349711269
 40
0.6661183495
 40
0.6971090237
 40
0.7279431823
 40
0.7586242225
 40
0.7891588828
 40
0.8195571428
 40
0.8498320452
 40
0.86493089
 40
0.8800050502
 40
0.9100832578
 40
0.9400926753
 40
0.9550812784
 40
0.9700610371
 40
1.0
 40
1.0
 40
1.0
 40
1.0
 10
12.1108640547
 20
9.3889826603
 30
0.0
 10
12.1075501072
 20
9.3892124834
 30
0.0
 10
12.1009202392
 20
9.3899158362
 30
0.0
 10
12.0910558223
 20
9.3916875672
 30
0.0
 10
12.0812970478
 20
9.3941692705
 30
0.0
 10
12.0716966542
 20
9.3973475455
 30
0.0
 10
12.0623056195
 20
9.4012053919
 30
0.0
 10
12.0531740445
 20
9.4057221577
 30
0.0
 10
12.0443505733
 20
9.4108737117
 30
0.0
 10
12.0358822222
 20
9.416632546
 30
0.0
 10
12.0278141105
 20
9.4229679325
 30
0.0
 10
12.0201892281
 20
9.4298460819
 30
0.0
 10
12.013048208
 20
9.4372303236
 30
0.0
 10
12.006429112
 20
9.4450812993
 30
0.0
 10
12.0003672299
 20
9.4533571704
 30
0.0
 10
11.9948948934
 20
9.462013839
 30
0.0
 10
11.9900413043
 20
9.47100518
 30
0.0
 10
11.9858323807
 20
9.4802832843
 30
0.0
 10
11.9822906184
 20
9.4897987106
 30
0.0
 10
11.9794349716
 20
9.4995007459
 30
0.0
 10
11.9772807507
 20
9.5093376718
 30
0.0
 10
11.9758395388
 20
9.5192570364
 30
0.0
 10
11.9751191284
 20
9.5292059312
 30
0.0
 10
11.9751234742
 20
9.5391312666
 30
0.0
 10
11.9758526737
 20
9.5489800632
 30
0.0
 10
11.977302941
 20
9.5586996934
 30
0.0
 10
11.9794666936
 20
9.5682383036
 30
0.0
 10
11.9823323176
 20
9.5775445663
 30
0.0
 10
11.9852958676
 20
9.5850727891
 30
0.0
 10
11.9880002509
 20
9.5909271556
 30
0.0
 10
11.990918823
 20
9.5966542221
 30
0.0
 10
11.9949710823
 20
9.6035814191
 30
0.0
 10
11.9995445427
 20
9.6101650987
 30
0.0
 10
12.0034966805
 20
9.6151975078
 30
0.0
 10
12.0076373611
 20
9.6200656526
 30
0.0
 10
12.0109547573
 20
9.6235313733
 30
0.0
 10
12.0132515622
 20
9.6257499317
 30
0.0
  0
SPLINE
  5
376
100
AcDbEntity
  8
0
100
AcDbSpline
 62
7
  6
CONTINUOUS
 70
0
 71
3
 72
52
 73
48
 74
0
 42
0.0000001
 43
0.0000001
 44
0.0000000001
 40
0.0
 40
0.0
 40
0.0
 40
0.0
 40
0.0055575409
 40
0.0111779669
 40
0.0169218944
 40
0.0228457784
 40
0.0290005385
 40
0.0354309383
 40
0.0421753664
 40
0.0492662129
 40
0.0567302428
 40
0.0645893498
 40
0.0728610114
 40
0.0815590518
 40
0.0906939685
 40
0.1002735876
 40
0.1103032329
 40
0.1207862668
 40
0.1317241336
 40
0.1431168099
 40
0.1549627623
 40
0.1672593293
 40
0.180002627
 40
0.1931878784
 40
0.2068092924
 40
0.2208603496
 40
0.2353336718
 40
0.2502212706
 40
0.2812030867
 40
0.3137301822
 40
0.3477175443
 40
0.3830726942
 40
0.4196965467
 40
0.4574841626
 40
0.4963254275
 40
0.5361056779
 40
0.5767062924
 40
0.6180052566
 40
0.6598777114
 40
0.7021964885
 40
0.7448326391
 40
0.7876559545
 40
0.8305354925
 40
0.8733400712
 40
0.9159388564
 40
0.9582016962
 40
1.0
 40
1.0
 40
1.0
 40
1.0
 10
11.3093318621
 20
10.1359764294
 30
0.0
 10
11.3093318572
 20
10.1371514876
 30
0.0
 10
11.3094633837
 20
10.1395169476
 30
0.0
 10
11.3100538389
 20
10.1430525095
 30
0.0
 10
11.3110364057
 20
10.1465801941
 30
0.0
 10
11.312409246
 20
10.1500958878
 30
0.0
 10
11.3141700285
 20
10.1535967717
 30
0.0
 10
11.3163164541
 20
10.1570801233
 30
0.0
 10
11.3188460126
 20
10.1605435987
 30
0.0
 10
11.3217562878
 20
10.1639848101
 30
0.0
 10
11.3250446152
 20
10.1674015011
 30
0.0
 10
11.3287082973
 20
10.1707912314
 30
0.0
 10
11.3327443
 20
10.1741516485
 30
0.0
 10
11.3371494448
 20
10.1774801962
 30
0.0
 10
11.3419201771
 20
10.1807744305
 30
0.0
 10
11.3470527366
 20
10.184031727
 30
0.0
 10
11.3525429872
 20
10.1872496031
 30
0.0
 10
11.3583865591
 20
10.1904254236
 30
0.0
 10
11.3645787243
 20
10.193556714
 30
0.0
 10
11.371114509
 20
10.1966408721
 30
0.0
 10
11.3779886042
 20
10.1996754634
 30
0.0
 10
11.3851954512
 20
10.2026579481
 30
0.0
 10
11.392729179
 20
10.2055859536
 30
0.0
 10
11.4005836674
 20
10.2084570219
 30
0.0
 10
11.4087525061
 20
10.211268859
 30
0.0
 10
11.4172290358
 20
10.214019097
 30
0.0
 10
11.4260063401
 20
10.2167055545
 30
0.0
 10
11.4382641496
 20
10.2202464971
 30
0.0
 10
11.4542913515
 20
10.2244852149
 30
0.0
 10
11.4743569158
 20
10.2292185126
 30
0.0
 10
11.4954373433
 20
10.2336481491
 30
0.0
 10
11.5174636721
 20
10.2377594753
 30
0.0
 10
11.5403639819
 20
10.2415388729
 30
0.0
 10
11.564063373
 20
10.2449738361
 30
0.0
 10
11.5884843039
 20
10.248053002
 30
0.0
 10
11.6135468327
 20
10.2507661896
 30
0.0
 10
11.639168893
 20
10.2531044316
 30
0.0
 10
11.6652665663
 20
10.2550600029
 30
0.0
 10
11.6917543623
 20
10.2566264441
 30
0.0
 10
11.718545502
 20
10.2577985829
 30
0.0
 10
11.7455522051
 20
10.2585725492
 30
0.0
 10
11.7726859802
 20
10.2589457884
 30
0.0
 10
11.7998579162
 20
10.2589170677
 30
0.0
 10
11.826978976
 20
10.2584864838
 30
0.0
 10
11.8539603007
 20
10.2576554538
 30
0.0
 10
11.8807134108
 20
10.2564267303
 30
0.0
 10
11.8984543525
 20
10.255338029
 30
0.0
 10
11.9072707974
 20
10.2547266065
 30
0.0
  0
SPLINE
  5
377
100
AcDbEntity
  8
0
100
AcDbSpline
 62
7
  6
CONTINUOUS
 70
0
 71
3
 72
51
 73
47
 74
0
 42
0.0000001
 43
0.0000001
 44
0.0000000001
 40
0.0
 40
0.0
 40
0.0
 40
0.0
 40
0.00564952
 40
0.0114797742
 40
0.0175360016
 40
0.0238578826
 40
0.0304796382
 40
0.0374301304
 40
0.0447334784
 40
0.0524093882
 40
0.0604738688
 40
0.0689395353
 40
0.0778162371
 40
0.0871112684
 40
0.0968298597
 40
0.1069753122
 40
0.1175493578
 40
0.1285522507
 40
0.1399830145
 40
0.1518395215
 40
0.1641186434
 40
0.1768163401
 40
0.1899277291
 40
0.2034471945
 40
0.2173683893
 40
0.2316843697
 40
0.2614690734
 40
0.2927352023
 40
0.3254080072
 40
0.3594058838
 40
0.3946411434
 40
0.4310206841
 40
0.4684465898
 40
0.5068166803
 40
0.5460250256
 40
0.5859624352
 40
0.6265169302
 40
0.6675742021
 40
0.7090180653
 40
0.7507308996
 40
0.7925940982
 40
0.8344884876
 40
0.8762948217
 40
0.917894065
 40
0.9591682077
 40
1.0
 40
1.0
 40
1.0
 40
1.0
 10
11.3103230102
 20
10.1284597217
 30
0.0
 10
11.3106090525
 20
10.1296039217
 30
0.0
 10
11.3113098004
 20
10.1319005595
 30
0.0
 10
11.3127096989
 20
10.1352885201
 30
0.0
 10
11.314470389
 20
10.1386627296
 30
0.0
 10
11.3165895499
 20
10.1420204315
 30
0.0
 10
11.3190651732
 20
10.1453595123
 30
0.0
 10
11.3218949348
 20
10.1486778978
 30
0.0
 10
11.3250765967
 20
10.1519733983
 30
0.0
 10
11.3286076061
 20
10.1552439364
 30
0.0
 10
11.3324853523
 20
10.1584872345
 30
0.0
 10
11.3367068901
 20
10.1617011231
 30
0.0
 10
11.3412691245
 20
10.1648832606
 30
0.0
 10
11.3461686333
 20
10.1680314118
 30
0.0
 10
11.3514017942
 20
10.1711432197
 30
0.0
 10
11.3569646795
 20
10.1742164244
 30
0.0
 10
11.3628531359
 20
10.1772486944
 30
0.0
 10
11.3690627286
 20
10.1802377784
 30
0.0
 10
11.3755887864
 20
10.1831813984
 30
0.0
 10
11.3824263782
 20
10.1860773358
 30
0.0
 10
11.389570334
 20
10.1889233843
 30
0.0
 10
11.3970152416
 20
10.1917173749
 30
0.0
 10
11.4047554542
 20
10.1944571866
 30
0.0
 10
11.4127850939
 20
10.197140708
 30
0.0
 10
11.4210980674
 20
10.1997659329
 30
0.0
 10
11.432704982
 20
10.2032315494
 30
0.0
 10
11.4478811776
 20
10.2073920593
 30
0.0
 10
11.46688486
 20
10.2120579473
 30
0.0
 10
11.4868559062
 20
10.2164463269
 30
0.0
 10
11.5077335114
 20
10.2205436978
 30
0.0
 10
11.5294542409
 20
10.2243374349
 30
0.0
 10
11.5519519813
 20
10.2278158593
 30
0.0
 10
11.5751582281
 20
10.2309682654
 30
0.0
 10
11.5990022825
 20
10.2337849556
 30
0.0
 10
11.6234114796
 20
10.2362572682
 30
0.0
 10
11.6483114134
 20
10.2383776032
 30
0.0
 10
11.6736261683
 20
10.2401394445
 30
0.0
 10
11.6992785535
 20
10.241537379
 30
0.0
 10
11.7251903409
 20
10.2425671126
 30
0.0
 10
11.7512825065
 20
10.2432254829
 30
0.0
 10
11.7774754701
 20
10.2435104672
 30
0.0
 10
11.8036893505
 20
10.2434211922
 30
0.0
 10
11.8298441773
 20
10.2429579287
 30
0.0
 10
11.8558602294
 20
10.242122104
 30
0.0
 10
11.8816580489
 20
10.2409162812
 30
0.0
 10
11.8987670421
 20
10.2398615291
 30
0.0
 10
11.9072707974
 20
10.2392717916
 30
0.0
  0
SPLINE
  5
378
100
AcDbEntity
  8
0
100
AcDbSpline
 62
7
  6
CONTINUOUS
 70
0
 71
3
 72
56
 73
52
 74
0
 42
0.0000001
 43
0.0000001
 44
0.0000000001
 40
0.0
 40
0.0
 40
0.0
 40
0.0
 40
0.0082490284
 40
0.0160248386
 40
0.023363789
 40
0.0303112645
 40
0.03692244
 40
0.0432629282
 40
0.0494081759
 40
0.0554418847
 40
0.0614528789
 40
0.0675310816
 40
0.0737632347
 40
0.0802292401
 40
0.0869997901
 40
0.0941353131
 40
0.101686011
 40
0.1096926772
 40
0.1181876717
 40
0.1271962508
 40
0.1367374495
 40
0.1468252985
 40
0.1574693544
 40
0.1686756662
 40
0.1804470286
 40
0.1927837002
 40
0.2056835195
 40
0.2191423967
 40
0.2331544038
 40
0.2477120616
 40
0.262806471
 40
0.2784274215
 40
0.2945635899
 40
0.3112025046
 40
0.3283308086
 40
0.3459341221
 40
0.3825036034
 40
0.420781512
 40
0.4606264844
 40
0.501887652
 40
0.544405902
 40
0.5880150346
 40
0.6325428509
 40
0.6778121954
 40
0.7236419711
 40
0.7698481281
 40
0.8162446649
 40
0.8626445396
 40
0.9088608521
 40
0.9547072215
 40
1.0
 40
1.0
 40
1.0
 40
1.0
 10
11.4615814489
 20
10.0972898471
 30
0.0
 10
11.4606266028
 20
10.0981784376
 30
0.0
 10
11.4588240076
 20
10.0999623695
 30
0.0
 10
11.4563877048
 20
10.1027439987
 30
0.0
 10
11.4543044447
 20
10.1055474222
 30
0.0
 10
11.4525770809
 20
10.1083701377
 30
0.0
 10
11.4512085113
 20
10.1112098106
 30
0.0
 10
11.4502014879
 20
10.114063555
 30
0.0
 10
11.4495588323
 20
10.1169279287
 30
0.0
 10
11.4492825512
 20
10.1197985796
 30
0.0
 10
11.4493737972
 20
10.1226705384
 30
0.0
 10
11.4498321239
 20
10.1255386636
 30
0.0
 10
11.4506559608
 20
10.1283982488
 30
0.0
 10
11.4518427894
 20
10.1312453957
 30
0.0
 10
11.4533898082
 20
10.1340769778
 30
0.0
 10
11.4552941698
 20
10.1368903953
 30
0.0
 10
11.4575530421
 20
10.1396833285
 30
0.0
 10
11.4601636414
 20
10.142453438
 30
0.0
 10
11.4631229798
 20
10.145198409
 30
0.0
 10
11.4664279435
 20
10.1479157096
 30
0.0
 10
11.4700750294
 20
10.1506028515
 30
0.0
 10
11.4740604912
 20
10.1532571239
 30
0.0
 10
11.4783801378
 20
10.1558759263
 30
0.0
 10
11.4830294811
 20
10.1584564841
 30
0.0
 10
11.4880036017
 20
10.1609961621
 30
0.0
 10
11.4932972589
 20
10.1634922146
 30
0.0
 10
11.4989048166
 20
10.1659420242
 30
0.0
 10
11.5048203072
 20
10.1683429312
 30
0.0
 10
11.5110374041
 20
10.1706923701
 30
0.0
 10
11.5175494497
 20
10.1729877998
 30
0.0
 10
11.524349458
 20
10.1752267322
 30
0.0
 10
11.5314301205
 20
10.1774067619
 30
0.0
 10
11.5387838254
 20
10.1795255011
 30
0.0
 10
11.5464026507
 20
10.1815806846
 30
0.0
 10
11.5542784024
 20
10.1835700647
 30
0.0
 10
11.5652503225
 20
10.1861649454
 30
0.0
 10
11.5795483495
 20
10.1892185773
 30
0.0
 10
11.5973780902
 20
10.1925435513
 30
0.0
 10
11.6160144964
 20
10.1955594894
 30
0.0
 10
11.6353771778
 20
10.1982532343
 30
0.0
 10
11.6553827197
 20
10.2006130035
 30
0.0
 10
11.6759448379
 20
10.202628493
 30
0.0
 10
11.6969748256
 20
10.204290904
 30
0.0
 10
11.7183819285
 20
10.2055929835
 30
0.0
 10
11.7400737471
 20
10.2065290522
 30
0.0
 10
11.761956642
 20
10.2070950294
 30
0.0
 10
11.7839361371
 20
10.2072884455
 30
0.0
 10
11.8059173465
 20
10.2071084621
 30
0.0
 10
11.8278053577
 20
10.2065558542
 30
0.0
 10
11.8495056263
 20
10.2056330483
 30
0.0
 10
11.8638915622
 20
10.204767298
 30
0.0
 10
11.871036161
 20
10.2042718184
 30
0.0
  0
SPLINE
  5
379
100
AcDbEntity
  8
0
100
AcDbSpline
 62
7
  6
CONTINUOUS
 70
0
 71
3
 72
49
 73
45
 74
0
 42
0.0000001
 43
0.0000001
 44
0.0000000001
 40
0.0
 40
0.0
 40
0.0
 40
0.0
 40
0.0055576144
 40
0.0111781208
 40
0.0169221352
 40
0.0228461048
 40
0.0354197819
 40
0.0421643435
 40
0.0492552775
 40
0.0567194596
 40
0.064578666
 40
0.0728504868
 40
0.0815486473
 40
0.0906837219
 40
0.1002634857
 40
0.110293286
 40
0.1207764871
 40
0.1317145115
 40
0.1431073698
 40
0.1549534932
 40
0.1672502454
 40
0.1799937352
 40
0.1931791681
 40
0.2208509363
 40
0.2502113544
 40
0.281193609
 40
0.3137211632
 40
0.3477089991
 40
0.3830646345
 40
0.4196889822
 40
0.4574771023
 40
0.4963188805
 40
0.5360996537
 40
0.5767008008
 40
0.618000307
 40
0.6598733106
 40
0.7021926404
 40
0.7448293417
 40
0.7876532194
 40
0.8305332787
 40
0.8733385007
 40
0.9159376011
 40
0.958201446
 40
1.0
 40
1.0
 40
1.0
 40
1.0
 10
11.4843318649
 20
10.0867144767
 30
0.0
 10
11.4843318675
 20
10.087456618
 30
0.0
 10
11.4844149449
 20
10.0889505975
 30
0.0
 10
11.484787872
 20
10.0911835559
 30
0.0
 10
11.4854085207
 20
10.0934116563
 30
0.0
 10
11.4865875398
 20
10.0964312735
 30
0.0
 10
11.4882596059
 20
10.0993812128
 30
0.0
 10
11.4903407996
 20
10.1022303057
 30
0.0
 10
11.49217902
 20
10.1044040407
 30
0.0
 10
11.4942558509
 20
10.1065618258
 30
0.0
 10
11.4965697592
 20
10.1087027596
 30
0.0
 10
11.499118839
 20
10.110825092
 30
0.0
 10
11.5019010362
 20
10.1129273501
 30
0.0
 10
11.5049141476
 20
10.115007902
 30
0.0
 10
11.5081557705
 20
10.1170651445
 30
0.0
 10
11.5116233066
 20
10.1190974826
 30
0.0
 10
11.515313993
 20
10.1211032565
 30
0.0
 10
11.5192248396
 20
10.1230809157
 30
0.0
 10
11.5233527127
 20
10.1250287943
 30
0.0
 10
11.5276942517
 20
10.12694538
 30
0.0
 10
11.53224595
 20
10.1288290448
 30
0.0
 10
11.5370041028
 20
10.1306783208
 30
0.0
 10
11.5437270913
 20
10.1331357145
 30
0.0
 10
11.5526248845
 20
10.1361006637
 30
0.0
 10
11.563894528
 20
10.139443359
 30
0.0
 10
11.5758854376
 20
10.1426146659
 30
0.0
 10
11.5885584821
 20
10.1456041011
 30
0.0
 10
11.6018724194
 20
10.1484017602
 30
0.0
 10
11.6157837852
 20
10.1509983789
 30
0.0
 10
11.6302471298
 20
10.1533853602
 30
0.0
 10
11.6452151558
 20
10.1555548047
 30
0.0
 10
11.6606388882
 20
10.157499536
 30
0.0
 10
11.6764678388
 20
10.1592131239
 30
0.0
 10
11.6926501768
 20
10.1606899045
 30
0.0
 10
11.7091329016
 20
10.161924998
 30
0.0
 10
11.725862019
 20
10.1629143246
 30
0.0
 10
11.7427827204
 20
10.1636546182
 30
0.0
 10
11.7598395671
 20
10.1641434359
 30
0.0
 10
11.7769766645
 20
10.1643791621
 30
0.0
 10
11.7941378755
 20
10.1643610243
 30
0.0
 10
11.8112669215
 20
10.164089071
 30
0.0
 10
11.8283077799
 20
10.1635642188
 30
0.0
 10
11.8452044516
 20
10.1627881748
 30
0.0
 10
11.8564092662
 20
10.1621005777
 30
0.0
 10
11.8619775019
 20
10.1617144192
 30
0.0
  0
SPLINE
  5
37A
100
AcDbEntity
  8
0
100
AcDbSpline
 62
7
  6
CONTINUOUS
 70
0
 71
3
 72
79
 73
75
 74
0
 42
0.0000001
 43
0.0000001
 44
0.0000000001
 40
0.0
 40
0.0
 40
0.0
 40
0.0
 40
0.0039560108
 40
0.0080772526
 40
0.0123672752
 40
0.0168290416
 40
0.0214650553
 40
0.0262773074
 40
0.0312671531
 40
0.0364354308
 40
0.041782613
 40
0.0473087458
 40
0.0588960363
 40
0.0711922394
 40
0.0841874692
 40
0.0978682933
 40
0.112218173
 40
0.1272178823
 40
0.1428458183
 40
0.1590782331
 40
0.1758894199
 40
0.1932519274
 40
0.2111367204
 40
0.2295133047
 40
0.248349839
 40
0.2676132841
 40
0.2872695146
 40
0.3072834118
 40
0.3276189584
 40
0.3691063989
 40
0.4114305973
 40
0.4542815324
 40
0.4973442442
 40
0.5403017884
 40
0.5828381983
 40
0.6246414709
 40
0.6451728663
 40
0.6654072997
 40
0.6853082261
 40
0.7048399086
 40
0.7239675321
 40
0.7426573194
 40
0.7608766185
 40
0.778594011
 40
0.7957794528
 40
0.8124044178
 40
0.8284420169
 40
0.8438671561
 40
0.8586567504
 40
0.8727899539
 40
0.8862483937
 40
0.8990164912
 40
0.9110819013
 40
0.9224360403
 40
0.9278452092
 40
0.9330754179
 40
0.9381269739
 40
0.943000636
 40
0.9476975505
 40
0.9522194153
 40
0.9565684954
 40
0.9607476489
 40
0.964760521
 40
0.9686115289
 40
0.9723060082
 40
0.9758503723
 40
0.9792521397
 40
0.9825201504
 40
0.9856646502
 40
0.9886973594
 40
0.9916316148
 40
0.994482309
 40
0.9972658479
 40
1.0
 40
1.0
 40
1.0
 40
1.0
 10
12.6604265943
 20
7.4986120265
 30
0.0
 10
12.6612413299
 20
7.4993990006
 30
0.0
 10
12.6628699416
 20
7.5010422634
 30
0.0
 10
12.6652624129
 20
7.5036541124
 30
0.0
 10
12.6676524444
 20
7.5064612616
 30
0.0
 10
12.6700387259
 20
7.5094622252
 30
0.0
 10
12.6724201919
 20
7.5126555332
 30
0.0
 10
12.6747957001
 20
7.5160396993
 30
0.0
 10
12.6771641487
 20
7.5196130937
 30
0.0
 10
12.6795243966
 20
7.5233739753
 30
0.0
 10
12.6818752696
 20
7.5273205381
 30
0.0
 10
12.6850459901
 20
7.5329163803
 30
0.0
 10
12.688969852
 20
7.5403699726
 30
0.0
 10
12.6935516134
 20
7.5498860458
 30
0.0
 10
12.6980690713
 20
7.5600918513
 30
0.0
 10
12.7025133471
 20
7.5709675006
 30
0.0
 10
12.7068757215
 20
7.5824919249
 30
0.0
 10
12.7111476024
 20
7.5946426724
 30
0.0
 10
12.7153205653
 20
7.6073960481
 30
0.0
 10
12.7193863722
 20
7.6207271357
 30
0.0
 10
12.7233370135
 20
7.6346098516
 30
0.0
 10
12.7271646977
 20
7.6490170125
 30
0.0
 10
12.7308618725
 20
7.6639203978
 30
0.0
 10
12.7344212418
 20
7.6792907986
 30
0.0
 10
12.737835798
 20
7.6950980715
 30
0.0
 10
12.7410988151
 20
7.7113112123
 30
0.0
 10
12.744203853
 20
7.7278984111
 30
0.0
 10
12.7471448172
 20
7.744827147
 30
0.0
 10
12.7508642022
 20
7.7679634833
 30
0.0
 10
12.7550538283
 20
7.7974919943
 30
0.0
 10
12.7593119262
 20
7.8335123529
 30
0.0
 10
12.7627996735
 20
7.8700685949
 30
0.0
 10
12.7654895863
 20
7.9068739353
 30
0.0
 10
12.7673605954
 20
7.943639869
 30
0.0
 10
12.7683980358
 20
7.9800779535
 30
0.0
 10
12.7685625028
 20
8.0101089551
 30
0.0
 10
12.7682636458
 20
8.0337501025
 30
0.0
 10
12.7678294289
 20
8.0511162491
 30
0.0
 10
12.7671847533
 20
8.0681894032
 30
0.0
 10
12.7663308769
 20
8.0849360832
 30
0.0
 10
12.7652695021
 20
8.1013234199
 30
0.0
 10
12.7640027465
 20
8.1173192674
 30
0.0
 10
12.762533129
 20
8.1328922505
 30
0.0
 10
12.7608635624
 20
8.148011828
 30
0.0
 10
12.7589973605
 20
8.1626483613
 30
0.0
 10
12.7569382394
 20
8.1767731786
 30
0.0
 10
12.7546902903
 20
8.190358625
 30
0.0
 10
12.7522579701
 20
8.2033781196
 30
0.0
 10
12.7496461061
 20
8.2158062215
 30
0.0
 10
12.7468598904
 20
8.2276186978
 30
0.0
 10
12.7439048456
 20
8.2387925452
 30
0.0
 10
12.7407868022
 20
8.2493061303
 30
0.0
 10
12.7375118979
 20
8.2591389702
 30
0.0
 10
12.7346124796
 20
8.2668703343
 30
0.0
 10
12.7322118667
 20
8.2726928607
 30
0.0
 10
12.7304053499
 20
8.2768070205
 30
0.0
 10
12.7285645025
 20
8.2807372776
 30
0.0
 10
12.726690236
 20
8.2844817527
 30
0.0
 10
12.7247834139
 20
8.2880386173
 30
0.0
 10
12.7228449603
 20
8.2914061611
 30
0.0
 10
12.7208758164
 20
8.2945827764
 30
0.0
 10
12.7188768522
 20
8.2975669075
 30
0.0
 10
12.7168490396
 20
8.3003571468
 30
0.0
 10
12.7147932851
 20
8.3029521448
 30
0.0
 10
12.7127104807
 20
8.3053506208
 30
0.0
 10
12.7106015914
 20
8.30755144
 30
0.0
 10
12.7084674772
 20
8.3095534593
 30
0.0
 10
12.7063090593
 20
8.311355646
 30
0.0
 10
12.7041272749
 20
8.3129570434
 30
0.0
 10
12.7019230027
 20
8.3143566383
 30
0.0
 10
12.6996972823
 20
8.3155535767
 30
0.0
 10
12.6974510794
 20
8.3165469917
 30
0.0
 10
12.6951857639
 20
8.3173359872
 30
0.0
 10
12.6936528699
 20
8.31772802
 30
0.0
 10
12.6928866124
 20
8.3178885253
 30
0.0
  0
SPLINE
  5
37B
100
AcDbEntity
  8
0
100
AcDbSpline
 62
7
  6
CONTINUOUS
 70
0
 71
3
 72
18
 73
14
 74
0
 42
0.0000001
 43
0.0000001
 44
0.0000000001
 40
0.0
 40
0.0
 40
0.0
 40
0.0
 40
0.0620971814
 40
0.1243557093
 40
0.1867561066
 40
0.2492773209
 40
0.3745483445
 40
0.5000203192
 40
0.6254925071
 40
0.7507641612
 40
0.8132858167
 40
0.8756867808
 40
1.0
 40
1.0
 40
1.0
 40
1.0
 10
10.0037990642
 20
7.7998946925
 30
0.0
 10
10.004366734
 20
7.7983284041
 30
0.0
 10
10.0055876355
 20
7.7952215097
 30
0.0
 10
10.0076659288
 20
7.7906600381
 30
0.0
 10
10.0099875422
 20
7.7862043305
 30
0.0
 10
10.0133991539
 20
7.7804207026
 30
0.0
 10
10.0182343387
 20
7.7735259788
 30
0.0
 10
10.024870442
 20
7.7658970694
 30
0.0
 10
10.0322633649
 20
7.7589989449
 30
0.0
 10
10.0389851497
 20
7.7539262536
 30
0.0
 10
10.044646599
 20
7.7503149275
 30
0.0
 10
10.0504670256
 20
7.7470189827
 30
0.0
 10
10.0550187232
 20
7.744897806
 30
0.0
 10
10.0581127637
 20
7.7436527329
 30
0.0
  0
SPLINE
  5
37C
100
AcDbEntity
  8
0
100
AcDbSpline
 62
7
  6
CONTINUOUS
 70
0
 71
3
 72
38
 73
34
 74
0
 42
0.0000001
 43
0.0000001
 44
0.0000000001
 40
0.0
 40
0.0
 40
0.0
 40
0.0
 40
0.0065215821
 40
0.0131780915
 40
0.0269968354
 40
0.0416571723
 40
0.0573166101
 40
0.0740991117
 40
0.0920992621
 40
0.111387158
 40
0.1320127655
 40
0.1540094999
 40
0.1773973927
 40
0.2021854507
 40
0.228373341
 40
0.2559529888
 40
0.2849097315
 40
0.3152230387
 40
0.3468673469
 40
0.3798126907
 40
0.4140250145
 40
0.4494666422
 40
0.4860966921
 40
0.5238712262
 40
0.5627435311
 40
0.6026644376
 40
0.6435824146
 40
0.6854437572
 40
0.7281928244
 40
0.7717721345
 40
0.8161226836
 40
0.9068910182
 40
1.0
 40
1.0
 40
1.0
 40
1.0
 10
12.2583623225
 20
10.1283727082
 30
0.0
 10
12.2581638927
 20
10.1291752718
 30
0.0
 10
12.2577045015
 20
10.1307831604
 30
0.0
 10
12.2565402304
 20
10.1340036609
 30
0.0
 10
12.2546108035
 20
10.1380324919
 30
0.0
 10
12.2516118058
 20
10.1427691697
 30
0.0
 10
12.2479076977
 20
10.1474644587
 30
0.0
 10
12.2435057061
 20
10.1521128054
 30
0.0
 10
12.238412854
 20
10.15670949
 30
0.0
 10
12.2326366674
 20
10.161249027
 30
0.0
 10
12.2261854296
 20
10.1657256337
 30
0.0
 10
12.2190684204
 20
10.1701332861
 30
0.0
 10
12.2112959166
 20
10.1744657788
 30
0.0
 10
12.2028792358
 20
10.1787168197
 30
0.0
 10
12.1938307641
 20
10.182880172
 30
0.0
 10
12.1841638925
 20
10.1869496319
 30
0.0
 10
12.1738929925
 20
10.1909190631
 30
0.0
 10
12.1630334148
 20
10.1947824915
 30
0.0
 10
12.1516014338
 20
10.1985340742
 30
0.0
 10
12.1396142103
 20
10.2021680979
 30
0.0
 10
12.1270897819
 20
10.2056790527
 30
0.0
 10
12.1140470196
 20
10.2090616129
 30
0.0
 10
12.1005055852
 20
10.2123106169
 30
0.0
 10
12.0864859147
 20
10.215421127
 30
0.0
 10
12.0720091819
 20
10.2183884264
 30
0.0
 10
12.0570972528
 20
10.2212079885
 30
0.0
 10
12.0417726615
 20
10.2238755229
 30
0.0
 10
12.0260585767
 20
10.2263869907
 30
0.0
 10
12.0099787645
 20
10.2287385576
 30
0.0
 10
11.9935575083
 20
10.2309266689
 30
0.0
 10
11.9710671418
 20
10.2336425999
 30
0.0
 10
11.9422834518
 20
10.2365957712
 30
0.0
 10
11.9190457875
 20
10.2384551933
 30
0.0
 10
11.9072707974
 20
10.2392717916
 30
0.0
  0
SPLINE
  5
37D
100
AcDbEntity
  8
0
100
AcDbSpline
 62
7
  6
CONTINUOUS
 70
0
 71
3
 72
54
 73
50
 74
0
 42
0.0000001
 43
0.0000001
 44
0.0000000001
 40
0.0
 40
0.0
 40
0.0
 40
0.0
 40
0.009842871
 40
0.0192576459
 40
0.0282665671
 40
0.0368961655
 40
0.0531356689
 40
0.0608338402
 40
0.068307506
 40
0.0756079959
 40
0.082790726
 40
0.0899142035
 40
0.0970385141
 40
0.1042237348
 40
0.1115282701
 40
0.1190074962
 40
0.1267125533
 40
0.1346897601
 40
0.1429802542
 40
0.1516199092
 40
0.1606397595
 40
0.1700660806
 40
0.179921061
 40
0.1902231389
 40
0.2009873433
 40
0.2122259541
 40
0.2239485022
 40
0.2361623915
 40
0.2488730285
 40
0.2620839708
 40
0.2757974068
 40
0.2900139458
 40
0.3047330967
 40
0.3356700571
 40
0.3685854475
 40
0.4034410186
 40
0.4401871499
 40
0.4787644331
 40
0.5191049035
 40
0.5611330127
 40
0.6047664203
 40
0.6499167286
 40
0.6964901151
 40
0.7443878236
 40
0.7935066665
 40
0.8437396885
 40
0.8949753519
 40
0.9471020741
 40
1.0
 40
1.0
 40
1.0
 40
1.0
 10
12.107081691
 20
10.0972893279
 30
0.0
 10
12.1078042366
 20
10.097961729
 30
0.0
 10
12.1091875826
 20
10.0993104908
 30
0.0
 10
12.1111122485
 20
10.1013930903
 30
0.0
 10
12.1128383141
 20
10.1034883435
 30
0.0
 10
12.1148323792
 20
10.1062403356
 30
0.0
 10
12.1164837274
 20
10.1090741091
 30
0.0
 10
12.117732377
 20
10.1119691943
 30
0.0
 10
12.1184485285
 20
10.1141088871
 30
0.0
 10
12.1189599386
 20
10.1162535347
 30
0.0
 10
12.119265906
 20
10.1184017016
 30
0.0
 10
12.1193660617
 20
10.1205516248
 30
0.0
 10
12.1192602248
 20
10.1227015288
 30
0.0
 10
12.1189485247
 20
10.1248496077
 30
0.0
 10
12.1184314861
 20
10.1269941694
 30
0.0
 10
12.1177096787
 20
10.1291336124
 30
0.0
 10
12.1167840155
 20
10.1312665397
 30
0.0
 10
12.1156553795
 20
10.1333916516
 30
0.0
 10
12.1143247394
 20
10.1355077402
 30
0.0
 10
12.1127931744
 20
10.1376137121
 30
0.0
 10
12.1110616909
 20
10.1397084012
 30
0.0
 10
12.1091314829
 20
10.1417907502
 30
0.0
 10
12.1070037329
 20
10.1438596188
 30
0.0
 10
12.1046797357
 20
10.1459138643
 30
0.0
 10
12.1021609192
 20
10.1479523846
 30
0.0
 10
12.0994487495
 20
10.1499739636
 30
0.0
 10
12.0965448791
 20
10.1519774879
 30
0.0
 10
12.0934510241
 20
10.1539617616
 30
0.0
 10
12.0901690325
 20
10.155925605
 30
0.0
 10
12.086700886
 20
10.1578678899
 30
0.0
 10
12.0830486462
 20
10.1597873937
 30
0.0
 10
12.0792145259
 20
10.1616830351
 30
0.0
 10
12.0737722168
 20
10.1642193333
 30
0.0
 10
12.0665234258
 20
10.1673128768
 30
0.0
 10
12.0572778889
 20
10.170852949
 30
0.0
 10
12.0473684931
 20
10.1742713292
 30
0.0
 10
12.0368192187
 20
10.1775596594
 30
0.0
 10
12.0256554568
 20
10.1807098849
 30
0.0
 10
12.0139042202
 20
10.183714271
 30
0.0
 10
12.0015939846
 20
10.1865654348
 30
0.0
 10
11.9887546348
 20
10.1892563765
 30
0.0
 10
11.9754173702
 20
10.1917804877
 30
0.0
 10
11.9616146228
 20
10.1941315679
 30
0.0
 10
11.9473799747
 20
10.196303842
 30
0.0
 10
11.9327480552
 20
10.1982919799
 30
0.0
 10
11.9177545592
 20
10.200091086
 30
0.0
 10
11.9024358397
 20
10.2016967971
 30
0.0
 10
11.8868294371
 20
10.2031051031
 30
0.0
 10
11.8763278955
 20
10.2039048354
 30
0.0
 10
11.871036161
 20
10.2042718184
 30
0.0
  0
SPLINE
  5
37E
100
AcDbEntity
  8
0
100
AcDbSpline
 62
7
  6
CONTINUOUS
 70
0
 71
3
 72
39
 73
35
 74
0
 42
0.0000001
 43
0.0000001
 44
0.0000000001
 40
0.0
 40
0.0
 40
0.0
 40
0.0
 40
0.0064813583
 40
0.013000307
 40
0.0195937286
 40
0.0262971358
 40
0.0331441955
 40
0.0401662528
 40
0.0548407871
 40
0.0705270771
 40
0.0873814213
 40
0.1055229261
 40
0.1250395805
 40
0.1459936324
 40
0.1684267656
 40
0.192364072
 40
0.2178168382
 40
0.2447853216
 40
0.2732603993
 40
0.3032248627
 40
0.3346548751
 40
0.3675205215
 40
0.4017865986
 40
0.4374133897
 40
0.4743567843
 40
0.5125689308
 40
0.5519985963
 40
0.5925911975
 40
0.6342893865
 40
0.6770331483
 40
0.7207598563
 40
0.8108996593
 40
0.904168474
 40
1.0
 40
1.0
 40
1.0
 40
1.0
 10
12.0843318399
 20
10.0867144767
 30
0.0
 10
12.0843318418
 20
10.0872442169
 30
0.0
 10
12.0842897365
 20
10.0883072446
 30
0.0
 10
12.0841004268
 20
10.0898990304
 30
0.0
 10
12.0837850849
 20
10.0914892656
 30
0.0
 10
12.0833439945
 20
10.0930770372
 30
0.0
 10
12.0827773898
 20
10.094661678
 30
0.0
 10
12.0818415599
 20
10.0968004291
 30
0.0
 10
12.0803403357
 20
10.0994715265
 30
0.0
 10
12.0780706988
 20
10.1026013207
 30
0.0
 10
12.0753121153
 20
10.1056996546
 30
0.0
 10
12.0720699687
 20
10.1087626206
 30
0.0
 10
12.0683495484
 20
10.1117865914
 30
0.0
 10
12.064156806
 20
10.1147674714
 30
0.0
 10
12.059498335
 20
10.1177009299
 30
0.0
 10
12.0543815117
 20
10.1205824301
 30
0.0
 10
12.0488145602
 20
10.1234074436
 30
0.0
 10
12.0428064816
 20
10.1261713661
 30
0.0
 10
12.0363670771
 20
10.128869641
 30
0.0
 10
12.0295069293
 20
10.1314978242
 30
0.0
 10
12.0222373438
 20
10.1340514991
 30
0.0
 10
12.0145703552
 20
10.1365263988
 30
0.0
 10
12.0065186886
 20
10.1389183891
 30
0.0
 10
11.9980957225
 20
10.1412234198
 30
0.0
 10
11.9893154839
 20
10.1434376385
 30
0.0
 10
11.9801926054
 20
10.1455573243
 30
0.0
 10
11.9707422996
 20
10.1475788872
 30
0.0
 10
11.9609803408
 20
10.149498957
 30
0.0
 10
11.950923031
 20
10.1513142877
 30
0.0
 10
11.940587154
 20
10.1530218367
 30
0.0
 10
11.9263130321
 20
10.1551727486
 30
0.0
 10
11.9079006422
 20
10.1575621819
 30
0.0
 10
11.885198764
 20
10.1599313889
 30
0.0
 10
11.8697913235
 20
10.1611725288
 30
0.0
 10
11.8619775019
 20
10.1617144192
 30
0.0
  0
SPLINE
  5
37F
100
AcDbEntity
  8
0
100
AcDbSpline
 62
7
  6
CONTINUOUS
 70
0
 71
3
 72
73
 73
69
 74
0
 42
0.0000001
 43
0.0000001
 44
0.0000000001
 40
0.0
 40
0.0
 40
0.0
 40
0.0
 40
0.003888158
 40
0.00793453
 40
0.0121424545
 40
0.0165147245
 40
0.0210537193
 40
0.0257613561
 40
0.0306389886
 40
0.0356874595
 40
0.0462979645
 40
0.057593527
 40
0.0695694391
 40
0.0822170854
 40
0.0955245076
 40
0.109476859
 40
0.1240567902
 40
0.1392447181
 40
0.1550190179
 40
0.1713562586
 40
0.1882313812
 40
0.2056178167
 40
0.2234876029
 40
0.2418115391
 40
0.260559291
 40
0.279699464
 40
0.2991997122
 40
0.3190268502
 40
0.3595246125
 40
0.4009142557
 40
0.4429084572
 40
0.4852144645
 40
0.5275367606
 40
0.5695796857
 40
0.6110500563
 40
0.6516598133
 40
0.6715543697
 40
0.6911294516
 40
0.7103516841
 40
0.7291885321
 40
0.7476084002
 40
0.7655807029
 40
0.7830759632
 40
0.8000659552
 40
0.816523803
 40
0.832424084
 40
0.8477429844
 40
0.8624584964
 40
0.876550566
 40
0.8900013042
 40
0.9027952922
 40
0.9149199278
 40
0.9263658059
 40
0.9371272639
 40
0.9472031429
 40
0.9519855063
 40
0.9565985865
 40
0.961043988
 40
0.9653238287
 40
0.9694407631
 40
0.973398162
 40
0.977200097
 40
0.9808514547
 40
0.984358102
 40
0.9877268954
 40
0.9909658603
 40
0.9940843021
 40
1.0
 40
1.0
 40
1.0
 40
1.0
 10
12.6428597508
 20
7.509972513
 30
0.0
 10
12.6436331846
 20
7.5107195927
 30
0.0
 10
12.645179284
 20
7.5122778248
 30
0.0
 10
12.6474517791
 20
7.5147512592
 30
0.0
 10
12.6497220865
 20
7.5174055064
 30
0.0
 10
12.6519890095
 20
7.5202392316
 30
0.0
 10
12.6542515853
 20
7.5232511077
 30
0.0
 10
12.6565087836
 20
7.5264398017
 30
0.0
 10
12.6587596254
 20
7.5298038676
 30
0.0
 10
12.6618014542
 20
7.5346009166
 30
0.0
 10
12.6655727725
 20
7.5410342373
 30
0.0
 10
12.6699844138
 20
7.549303721
 30
0.0
 10
12.6743460879
 20
7.5582310394
 30
0.0
 10
12.6786496837
 20
7.5677997353
 30
0.0
 10
12.6828872198
 20
7.5779922992
 30
0.0
 10
12.6870507982
 20
7.5887899314
 30
0.0
 10
12.6911326358
 20
7.6001726898
 30
0.0
 10
12.6951250854
 20
7.612119502
 30
0.0
 10
12.6990206857
 20
7.6246082059
 30
0.0
 10
12.7028121465
 20
7.6376156093
 30
0.0
 10
12.7064923637
 20
7.6511175447
 30
0.0
 10
12.7100544431
 20
7.6650889057
 30
0.0
 10
12.7134917294
 20
7.6795036924
 30
0.0
 10
12.7167977906
 20
7.6943350743
 30
0.0
 10
12.7199664347
 20
7.709555444
 30
0.0
 10
12.7229917314
 20
7.7251364509
 30
0.0
 10
12.7258680569
 20
7.7410490913
 30
0.0
 10
12.7295229524
 20
7.7628217409
 30
0.0
 10
12.7336724276
 20
7.790647571
 30
0.0
 10
12.7379462096
 20
7.8246440628
 30
0.0
 10
12.7415165847
 20
7.8592244006
 30
0.0
 10
12.744356895
 20
7.8941310503
 30
0.0
 10
12.7464459045
 20
7.9291042034
 30
0.0
 10
12.7477681406
 20
7.9638835421
 30
0.0
 10
12.7483138365
 20
7.9982100375
 30
0.0
 10
12.7481171383
 20
8.0264147923
 30
0.0
 10
12.7475604553
 20
8.0485553907
 30
0.0
 10
12.7469509319
 20
8.0647764841
 30
0.0
 10
12.7461477736
 20
8.0806962573
 30
0.0
 10
12.7451524753
 20
8.0962850788
 30
0.0
 10
12.7439669292
 20
8.11151391
 30
0.0
 10
12.7425933687
 20
8.126354393
 30
0.0
 10
12.7410343719
 20
8.1407788953
 30
0.0
 10
12.7392928837
 20
8.1547605733
 30
0.0
 10
12.7373721923
 20
8.168273421
 30
0.0
 10
12.7352759134
 20
8.1812923119
 30
0.0
 10
12.7330079869
 20
8.1937930564
 30
0.0
 10
12.7305726977
 20
8.2057524591
 30
0.0
 10
12.7279746348
 20
8.2171483592
 30
0.0
 10
12.725218676
 20
8.2279596701
 30
0.0
 10
12.7223099915
 20
8.2381664503
 30
0.0
 10
12.7192540392
 20
8.2477499285
 30
0.0
 10
12.716056495
 20
8.2566926441
 30
0.0
 10
12.7127232659
 20
8.264978135
 30
0.0
 10
12.7097886023
 20
8.2714306316
 30
0.0
 10
12.7073702736
 20
8.2762427862
 30
0.0
 10
12.7055580616
 20
8.2796151211
 30
0.0
 10
12.7037166197
 20
8.2828122052
 30
0.0
 10
12.7018467703
 20
8.2858325951
 30
0.0
 10
12.6999493061
 20
8.2886748825
 30
0.0
 10
12.6980251023
 20
8.2913377924
 30
0.0
 10
12.696074986
 20
8.2938201074
 30
0.0
 10
12.6940997641
 20
8.2961206539
 30
0.0
 10
12.6921002869
 20
8.2982384167
 30
0.0
 10
12.6900774448
 20
8.3001723129
 30
0.0
 10
12.6880317104
 20
8.3019215796
 30
0.0
 10
12.6853237133
 20
8.3039698602
 30
0.0
 10
12.6831877912
 20
8.3052861729
 30
0.0
 10
12.6817338326
 20
8.3060363315
 30
0.0
  0
SPLINE
  5
380
100
AcDbEntity
  8
0
100
AcDbSpline
 62
7
  6
CONTINUOUS
 70
0
 71
3
 72
23
 73
19
 74
0
 42
0.0000001
 43
0.0000001
 44
0.0000000001
 40
0.0
 40
0.0
 40
0.0
 40
0.0
 40
0.0577246198
 40
0.1173320982
 40
0.1785736765
 40
0.2411911447
 40
0.3049184956
 40
0.3694835237
 40
0.434609394
 40
0.5000161937
 40
0.5654224726
 40
0.6305467826
 40
0.6951092183
 40
0.7588329591
 40
0.8214458204
 40
0.8826818227
 40
0.9422827907
 40
1.0
 40
1.0
 40
1.0
 40
1.0
 10
12.5821728173
 20
7.6968475873
 30
0.0
 10
12.5839317224
 20
7.7047627953
 30
0.0
 10
12.5873225931
 20
7.7208928276
 30
0.0
 10
12.5919666704
 20
7.7455441525
 30
0.0
 10
12.5962356308
 20
7.770960373
 30
0.0
 10
12.6001097341
 20
7.7970248269
 30
0.0
 10
12.6035711109
 20
7.8236180649
 30
0.0
 10
12.6066038014
 20
7.8506181242
 30
0.0
 10
12.6091938381
 20
7.8779011748
 30
0.0
 10
12.6113293059
 20
7.9053420712
 30
0.0
 10
12.6130003961
 20
7.9328149381
 30
0.0
 10
12.6141994546
 20
7.9601937514
 30
0.0
 10
12.6149210169
 20
7.9873529215
 30
0.0
 10
12.6151618322
 20
8.0141678804
 30
0.0
 10
12.6149208811
 20
8.0405156373
 30
0.0
 10
12.6141993819
 20
8.0662754295
 30
0.0
 10
12.6130007926
 20
8.091328998
 30
0.0
 10
12.6118677306
 20
8.1077706427
 30
0.0
 10
12.6112176613
 20
8.115851781
 30
0.0
  0
SPLINE
  5
381
100
AcDbEntity
  8
0
100
AcDbSpline
 62
7
  6
CONTINUOUS
 70
0
 71
3
 72
15
 73
11
 74
0
 42
0.0000001
 43
0.0000001
 44
0.0000000001
 40
0.0
 40
0.0
 40
0.0
 40
0.0
 40
0.1273482292
 40
0.2538605354
 40
0.3795879276
 40
0.5046050833
 40
0.6290174349
 40
0.7529533662
 40
0.8765605734
 40
1.0
 40
1.0
 40
1.0
 40
1.0
 10
9.8888395134
 20
8.9024501479
 30
0.0
 10
9.8888395134
 20
8.9052373658
 30
0.0
 10
9.8891056355
 20
8.9107973594
 30
0.0
 10
9.8903091527
 20
8.9190304155
 30
0.0
 10
9.8923047883
 20
8.9270566055
 30
0.0
 10
9.8950745206
 20
8.9348008654
 30
0.0
 10
9.8985929196
 20
8.9421917819
 30
0.0
 10
9.9028279254
 20
8.9491611069
 30
0.0
 10
9.9077397179
 20
8.9556435366
 30
0.0
 10
9.911438047
 20
8.9596033762
 30
0.0
 10
9.9133812378
 20
8.9614803463
 30
0.0
  0
SPLINE
  5
382
100
AcDbEntity
  8
0
100
AcDbSpline
 62
7
  6
CONTINUOUS
 70
0
 71
3
 72
18
 73
14
 74
0
 42
0.0000001
 43
0.0000001
 44
0.0000000001
 40
0.0
 40
0.0
 40
0.0
 40
0.0
 40
0.159142261
 40
0.3044437359
 40
0.4361114101
 40
0.5555938859
 40
0.6117735518
 40
0.6662786461
 40
0.7198039134
 40
0.773136081
 40
0.8270934025
 40
0.8824650627
 40
1.0
 40
1.0
 40
1.0
 40
1.0
 10
10.7785421239
 20
7.8264909315
 30
0.0
 10
10.7783382232
 20
7.8269436491
 30
0.0
 10
10.7779830906
 20
7.8278263408
 30
0.0
 10
10.777610107
 20
7.8291381474
 30
0.0
 10
10.777433051
 20
7.8303667695
 30
0.0
 10
10.7774615479
 20
7.8313320966
 30
0.0
 10
10.7776014123
 20
7.832037932
 30
0.0
 10
10.7777598341
 20
7.8325265104
 30
0.0
 10
10.777974713
 20
7.8329833294
 30
0.0
 10
10.7782460187
 20
7.8334070425
 30
0.0
 10
10.7785731484
 20
7.8337968787
 30
0.0
 10
10.7790926952
 20
7.8342796439
 30
0.0
 10
10.779550211
 20
7.8345751729
 30
0.0
 10
10.7798744523
 20
7.8347464595
 30
0.0
  0
SPLINE
  5
383
100
AcDbEntity
  8
0
100
AcDbSpline
 62
7
  6
CONTINUOUS
 70
0
 71
3
 72
18
 73
14
 74
0
 42
0.0000001
 43
0.0000001
 44
0.0000000001
 40
0.0
 40
0.0
 40
0.0
 40
0.0
 40
0.0620971814
 40
0.1243557093
 40
0.1867561066
 40
0.2492773209
 40
0.3745483445
 40
0.5000203192
 40
0.6254925071
 40
0.7507641612
 40
0.8132858167
 40
0.8756867808
 40
1.0
 40
1.0
 40
1.0
 40
1.0
 10
10.0037990642
 20
8.977358327
 30
0.0
 10
10.004366734
 20
8.9757920386
 30
0.0
 10
10.0055876355
 20
8.9726851442
 30
0.0
 10
10.0076659288
 20
8.9681236726
 30
0.0
 10
10.0099875422
 20
8.963667965
 30
0.0
 10
10.0133991539
 20
8.9578843371
 30
0.0
 10
10.0182343387
 20
8.9509896133
 30
0.0
 10
10.024870442
 20
8.9433607039
 30
0.0
 10
10.0322633649
 20
8.9364625794
 30
0.0
 10
10.0389851497
 20
8.9313898881
 30
0.0
 10
10.044646599
 20
8.927778562
 30
0.0
 10
10.0504670256
 20
8.9244826172
 30
0.0
 10
10.0550187232
 20
8.9223614405
 30
0.0
 10
10.0581127637
 20
8.9211163674
 30
0.0
  0
SPLINE
  5
384
100
AcDbEntity
  8
0
100
AcDbSpline
 62
7
  6
CONTINUOUS
 70
0
 71
3
 72
15
 73
11
 74
0
 42
0.0000001
 43
0.0000001
 44
0.0000000001
 40
0.0
 40
0.0
 40
0.0
 40
0.0
 40
0.1273482292
 40
0.2538605354
 40
0.3795879276
 40
0.5046050833
 40
0.6290174349
 40
0.7529533662
 40
0.8765605734
 40
1.0
 40
1.0
 40
1.0
 40
1.0
 10
11.4285252967
 20
8.8265822671
 30
0.0
 10
11.4285252967
 20
8.829369485
 30
0.0
 10
11.4287914187
 20
8.8349294785
 30
0.0
 10
11.429994936
 20
8.8431625347
 30
0.0
 10
11.4319905716
 20
8.8511887247
 30
0.0
 10
11.4347603039
 20
8.8589329846
 30
0.0
 10
11.4382787028
 20
8.866323901
 30
0.0
 10
11.4425137087
 20
8.8732932261
 30
0.0
 10
11.4474255011
 20
8.8797756558
 30
0.0
 10
11.4511238302
 20
8.8837354954
 30
0.0
 10
11.453067021
 20
8.8856124655
 30
0.0
  0
SPLINE
  5
385
100
AcDbEntity
  8
0
100
AcDbSpline
 62
7
  6
CONTINUOUS
 70
0
 71
3
 72
18
 73
14
 74
0
 42
0.0000001
 43
0.0000001
 44
0.0000000001
 40
0.0
 40
0.0
 40
0.0
 40
0.0
 40
0.0620971814
 40
0.1243557093
 40
0.1867561066
 40
0.2492773209
 40
0.3745483445
 40
0.5000203192
 40
0.6254925071
 40
0.7507641612
 40
0.8132858167
 40
0.8756867808
 40
1.0
 40
1.0
 40
1.0
 40
1.0
 10
11.5434848475
 20
8.9014904462
 30
0.0
 10
11.5440525172
 20
8.8999241578
 30
0.0
 10
11.5452734188
 20
8.8968172634
 30
0.0
 10
11.5473517121
 20
8.8922557918
 30
0.0
 10
11.5496733254
 20
8.8878000841
 30
0.0
 10
11.5530849371
 20
8.8820164563
 30
0.0
 10
11.5579201219
 20
8.8751217325
 30
0.0
 10
11.5645562252
 20
8.8674928231
 30
0.0
 10
11.5719491482
 20
8.8605946986
 30
0.0
 10
11.5786709329
 20
8.8555220073
 30
0.0
 10
11.5843323823
 20
8.8519106812
 30
0.0
 10
11.5901528089
 20
8.8486147364
 30
0.0
 10
11.5947045065
 20
8.8464935597
 30
0.0
 10
11.597798547
 20
8.8452484866
 30
0.0
  0
SPLINE
  5
386
100
AcDbEntity
  8
0
100
AcDbSpline
 62
7
  6
CONTINUOUS
 70
0
 71
3
 72
15
 73
11
 74
0
 42
0.0000001
 43
0.0000001
 44
0.0000000001
 40
0.0
 40
0.0
 40
0.0
 40
0.0
 40
0.1273482292
 40
0.2538605354
 40
0.3795879276
 40
0.5046050833
 40
0.6290174349
 40
0.7529533662
 40
0.8765605734
 40
1.0
 40
1.0
 40
1.0
 40
1.0
 10
11.4285252967
 20
7.5882652218
 30
0.0
 10
11.4285252967
 20
7.5910524396
 30
0.0
 10
11.4287914187
 20
7.5966124332
 30
0.0
 10
11.429994936
 20
7.6048454894
 30
0.0
 10
11.4319905716
 20
7.6128716794
 30
0.0
 10
11.4347603039
 20
7.6206159392
 30
0.0
 10
11.4382787028
 20
7.6280068557
 30
0.0
 10
11.4425137087
 20
7.6349761808
 30
0.0
 10
11.4474255011
 20
7.6414586105
 30
0.0
 10
11.4511238302
 20
7.6454184501
 30
0.0
 10
11.453067021
 20
7.6472954202
 30
0.0
  0
SPLINE
  5
387
100
AcDbEntity
  8
0
100
AcDbSpline
 62
7
  6
CONTINUOUS
 70
0
 71
3
 72
39
 73
35
 74
0
 42
0.0000001
 43
0.0000001
 44
0.0000000001
 40
0.0
 40
0.0
 40
0.0
 40
0.0
 40
0.0311160054
 40
0.0620232808
 40
0.0927351539
 40
0.1232711756
 40
0.1536587326
 40
0.1839312105
 40
0.2141268386
 40
0.2442870981
 40
0.2744549747
 40
0.3046731306
 40
0.33498209
 40
0.365418544
 40
0.3960138629
 40
0.4267928807
 40
0.457772997
 40
0.4889636213
 40
0.5203659688
 40
0.551973177
 40
0.5837707173
 40
0.6157370643
 40
0.6478445906
 40
0.6800606397
 40
0.7123487305
 40
0.7446698622
 40
0.7769838838
 40
0.8092508928
 40
0.841432625
 40
0.8734938027
 40
0.9054033951
 40
0.9371359477
 40
0.9686717614
 40
1.0
 40
1.0
 40
1.0
 40
1.0
 10
11.4052551471
 20
8.8231050273
 30
0.0
 10
11.4052551471
 20
8.826553186
 30
0.0
 10
11.4055917739
 20
8.8334313618
 30
0.0
 10
11.4071142105
 20
8.8436111153
 30
0.0
 10
11.4096380389
 20
8.853524944
 30
0.0
 10
11.4131394014
 20
8.8630758684
 30
0.0
 10
11.4175847935
 20
8.8721718393
 30
0.0
 10
11.422931551
 20
8.8807247302
 30
0.0
 10
11.4291281417
 20
8.8886517399
 30
0.0
 10
11.4361147199
 20
8.8958760832
 30
0.0
 10
11.4438237022
 20
8.9023278208
 30
0.0
 10
11.4521804534
 20
8.9079445556
 30
0.0
 10
11.4611040234
 20
8.9126721051
 30
0.0
 10
11.4705080086
 20
8.916465001
 30
0.0
 10
11.480301433
 20
8.9192869056
 30
0.0
 10
11.490389661
 20
8.9211109306
 30
0.0
 10
11.5006753261
 20
8.921919875
 30
0.0
 10
11.5110592841
 20
8.9217063759
 30
0.0
 10
11.5214415716
 20
8.9204728936
 30
0.0
 10
11.53172235
 20
8.9182316635
 30
0.0
 10
11.5418028397
 20
8.915004545
 30
0.0
 10
11.5515862582
 20
8.9108228383
 30
0.0
 10
11.5609787264
 20
8.9057269471
 30
0.0
 10
11.5698901386
 20
8.899765972
 30
0.0
 10
11.5782350037
 20
8.8929972457
 30
0.0
 10
11.585933249
 20
8.8854857961
 30
0.0
 10
11.5929110018
 20
8.8773037566
 30
0.0
 10
11.5991012551
 20
8.8685296454
 30
0.0
 10
11.6044445035
 20
8.8592476454
 30
0.0
 10
11.6088892902
 20
8.8495467705
 30
0.0
 10
11.6123927589
 20
8.8395201948
 30
0.0
 10
11.6149209666
 20
8.829263843
 30
0.0
 10
11.6164494216
 20
8.8188774994
 30
0.0
 10
11.6167929156
 20
8.8119065108
 30
0.0
 10
11.6167929156
 20
8.8084348333
 30
0.0
  0
SPLINE
  5
388
100
AcDbEntity
  8
0
100
AcDbSpline
 62
7
  6
CONTINUOUS
 70
0
 71
3
 72
18
 73
14
 74
0
 42
0.0000001
 43
0.0000001
 44
0.0000000001
 40
0.0
 40
0.0
 40
0.0
 40
0.0
 40
0.0620971814
 40
0.1243557093
 40
0.1867561066
 40
0.2492773209
 40
0.3745483445
 40
0.5000203192
 40
0.6254925071
 40
0.7507641612
 40
0.8132858167
 40
0.8756867808
 40
1.0
 40
1.0
 40
1.0
 40
1.0
 10
11.5434848475
 20
7.6631734008
 30
0.0
 10
11.5440525172
 20
7.6616071124
 30
0.0
 10
11.5452734188
 20
7.6585002181
 30
0.0
 10
11.5473517121
 20
7.6539387465
 30
0.0
 10
11.5496733254
 20
7.6494830388
 30
0.0
 10
11.5530849371
 20
7.643699411
 30
0.0
 10
11.5579201219
 20
7.6368046872
 30
0.0
 10
11.5645562252
 20
7.6291757778
 30
0.0
 10
11.5719491482
 20
7.6222776533
 30
0.0
 10
11.5786709329
 20
7.617204962
 30
0.0
 10
11.5843323823
 20
7.6135936359
 30
0.0
 10
11.5901528089
 20
7.6102976911
 30
0.0
 10
11.5947045065
 20
7.6081765144
 30
0.0
 10
11.597798547
 20
7.6069314413
 30
0.0
  0
SPLINE
  5
389
100
AcDbEntity
  8
0
100
AcDbSpline
 62
7
  6
CONTINUOUS
 70
0
 71
3
 72
24
 73
20
 74
0
 42
0.0000001
 43
0.0000001
 44
0.0000000001
 40
0.0
 40
0.0
 40
0.0
 40
0.0
 40
0.0617854814
 40
0.1240400259
 40
0.1867209793
 40
0.2497603258
 40
0.3130734852
 40
0.376562205
 40
0.4401196767
 40
0.5036357633
 40
0.5670023331
 40
0.6301185305
 40
0.6928957858
 40
0.7552624133
 40
0.817167521
 40
0.8785840523
 40
0.939510779
 40
0.9698107803
 40
1.0
 40
1.0
 40
1.0
 40
1.0
 10
11.2728020489
 20
7.5690058186
 30
0.0
 10
11.2698803601
 20
7.5692084384
 30
0.0
 10
11.2640330554
 20
7.5699558273
 30
0.0
 10
11.2554201936
 20
7.5720702516
 30
0.0
 10
11.2470406773
 20
7.5751537846
 30
0.0
 10
11.2390080192
 20
7.5791647924
 30
0.0
 10
11.2314291251
 20
7.5840492903
 30
0.0
 10
11.2244052909
 20
7.589741752
 30
0.0
 10
11.2180303071
 20
7.5961660058
 30
0.0
 10
11.2123894078
 20
7.6032361926
 30
0.0
 10
11.2075580357
 20
7.6108578376
 30
0.0
 10
11.2036009504
 20
7.6189291519
 30
0.0
 10
11.2005713989
 20
7.6273423614
 30
0.0
 10
11.1985102774
 20
7.6359849557
 30
0.0
 10
11.1974457153
 20
7.6447415508
 30
0.0
 10
11.1973923706
 20
7.6534940115
 30
0.0
 10
11.1981940426
 20
7.6607034403
 30
0.0
 10
11.1993372873
 20
7.6663467225
 30
0.0
 10
11.2000739772
 20
7.669119934
 30
0.0
 10
11.2004828885
 20
7.670491272
 30
0.0
  0
SPLINE
  5
38A
100
AcDbEntity
  8
0
100
AcDbSpline
 62
7
  6
CONTINUOUS
 70
0
 71
3
 72
80
 73
76
 74
0
 42
0.0000001
 43
0.0000001
 44
0.0000000001
 40
0.0
 40
0.0
 40
0.0
 40
0.0
 40
0.0027164327
 40
0.0054532447
 40
0.0082303176
 40
0.0110666212
 40
0.0139798388
 40
0.016986154
 40
0.0201001347
 40
0.0233346582
 40
0.0267010284
 40
0.0302089968
 40
0.0338669183
 40
0.0376819076
 40
0.0416598906
 40
0.0458058349
 40
0.0501237838
 40
0.0546169826
 40
0.0592880207
 40
0.0641388059
 40
0.0691707482
 40
0.0743847477
 40
0.0853596785
 40
0.0970635549
 40
0.1094903305
 40
0.1226296146
 40
0.1364673135
 40
0.1509861535
 40
0.1661660759
 40
0.1819845508
 40
0.1984168195
 40
0.2154361185
 40
0.2330138792
 40
0.2511198904
 40
0.2697224401
 40
0.2887884373
 40
0.3082835515
 40
0.3281723331
 40
0.348418324
 40
0.368984158
 40
0.3898316649
 40
0.4109219833
 40
0.4536720365
 40
0.4969140898
 40
0.5403224212
 40
0.5835697178
 40
0.6263302119
 40
0.6682828124
 40
0.6888582723
 40
0.7091151075
 40
0.7290159233
 40
0.74852422
 40
0.7676045125
 40
0.7862224423
 40
0.804344885
 40
0.8219400731
 40
0.8389777322
 40
0.8554292445
 40
0.8712678001
 40
0.8864685754
 40
0.9010089485
 40
0.9148687687
 40
0.92803068
 40
0.940480496
 40
0.9522076877
 40
0.9577984663
 40
0.9632066952
 40
0.9684323943
 40
0.9734759977
 40
0.9783383604
 40
0.9830208115
 40
0.987525367
 40
0.9918546057
 40
0.996011597
 40
1.0
 40
1.0
 40
1.0
 40
1.0
 10
12.7201543428
 20
8.3292779353
 30
0.0
 10
12.7209578172
 20
8.3292222097
 30
0.0
 10
12.7225666796
 20
8.3290376132
 30
0.0
 10
12.7249594814
 20
8.3285436257
 30
0.0
 10
12.72733421
 20
8.3278326974
 30
0.0
 10
12.729689152
 20
8.3269054389
 30
0.0
 10
12.7320231028
 20
8.3257627229
 30
0.0
 10
12.7343348758
 20
8.3244054456
 30
0.0
 10
12.7366233699
 20
8.3228345262
 30
0.0
 10
12.7388876196
 20
8.3210510281
 30
0.0
 10
12.7411265984
 20
8.3190559329
 30
0.0
 10
12.7433393653
 20
8.3168503626
 30
0.0
 10
12.7455249659
 20
8.3144354717
 30
0.0
 10
12.7476823866
 20
8.3118124531
 30
0.0
 10
12.749810707
 20
8.3089826548
 30
0.0
 10
12.7519088991
 20
8.305947444
 30
0.0
 10
12.7539759932
 20
8.3027083275
 30
0.0
 10
12.7560110241
 20
8.2992669072
 30
0.0
 10
12.7580129649
 20
8.2956248566
 30
0.0
 10
12.7599808853
 20
8.2917839986
 30
0.0
 10
12.7619138127
 20
8.2877462108
 30
0.0
 10
12.7644871537
 20
8.2820040621
 30
0.0
 10
12.7675990918
 20
8.2743386573
 30
0.0
 10
12.7711178538
 20
8.2645403309
 30
0.0
 10
12.7744751874
 20
8.2540101263
 30
0.0
 10
12.7776643363
 20
8.2427690076
 30
0.0
 10
12.780678869
 20
8.230839193
 30
0.0
 10
12.783512672
 20
8.2182444416
 30
0.0
 10
12.7861599872
 20
8.2050098782
 30
0.0
 10
12.7886154237
 20
8.1911619644
 30
0.0
 10
12.7908739865
 20
8.1767284327
 30
0.0
 10
12.7929310827
 20
8.1617382236
 30
0.0
 10
12.7947825252
 20
8.1462214141
 30
0.0
 10
12.7964245431
 20
8.1302091522
 30
0.0
 10
12.7978537885
 20
8.1137335963
 30
0.0
 10
12.7990673558
 20
8.0968278506
 30
0.0
 10
12.8000627753
 20
8.0795258928
 30
0.0
 10
12.8008380168
 20
8.061862501
 30
0.0
 10
12.8013914953
 20
8.0438731812
 30
0.0
 10
12.8017220693
 20
8.0255941113
 30
0.0
 10
12.8018290818
 20
8.007062019
 30
0.0
 10
12.8016725756
 20
7.9819526087
 30
0.0
 10
12.8009132324
 20
7.9502093482
 30
0.0
 10
12.7991236706
 20
7.9118815649
 30
0.0
 10
12.7964657878
 20
7.8734563354
 30
0.0
 10
12.7929609675
 20
7.8352424188
 30
0.0
 10
12.7886374618
 20
7.7975468801
 30
0.0
 10
12.7843543841
 20
7.7666213996
 30
0.0
 10
12.7805369149
 20
7.7423743509
 30
0.0
 10
12.7775112403
 20
7.7246228763
 30
0.0
 10
12.7743107378
 20
7.7072237044
 30
0.0
 10
12.7709418327
 20
7.6902117885
 30
0.0
 10
12.7674113338
 20
7.6736213269
 30
0.0
 10
12.7637263709
 20
7.6574856517
 30
0.0
 10
12.7598943865
 20
7.6418371763
 30
0.0
 10
12.75592312
 20
7.6267073278
 30
0.0
 10
12.7518205902
 20
7.6121264771
 30
0.0
 10
12.7475950924
 20
7.5981238691
 30
0.0
 10
12.7432551681
 20
7.5847275629
 30
0.0
 10
12.7388095879
 20
7.5719643778
 30
0.0
 10
12.7342673276
 20
7.5598598252
 30
0.0
 10
12.7296375525
 20
7.5484380647
 30
0.0
 10
12.7249295892
 20
7.5377217532
 30
0.0
 10
12.7201529098
 20
7.5277322851
 30
0.0
 10
12.7160604196
 20
7.519909764
 30
0.0
 10
12.7127526387
 20
7.5140388578
 30
0.0
 10
12.7103001842
 20
7.5098999468
 30
0.0
 10
12.7078377202
 20
7.5059569775
 30
0.0
 10
12.7053664657
 20
7.5022119064
 30
0.0
 10
12.7028876781
 20
7.4986665875
 30
0.0
 10
12.7004025223
 20
7.4953227849
 30
0.0
 10
12.697912225
 20
7.4921820978
 30
0.0
 10
12.695417928
 20
7.4892460813
 30
0.0
 10
12.6929210009
 20
7.4865163289
 30
0.0
 10
12.6912208402
 20
7.4847999497
 30
0.0
 10
12.6903702962
 20
7.4839783872
 30
0.0
  0
SPLINE
  5
38B
100
AcDbEntity
  8
0
100
AcDbSpline
 62
7
  6
CONTINUOUS
 70
0
 71
3
 72
11
 73
7
 74
0
 42
0.0000001
 43
0.0000001
 44
0.0000000001
 40
0.0
 40
0.0
 40
0.0
 40
0.0
 40
0.2520316917
 40
0.5026839526
 40
0.7519785275
 40
1.0
 40
1.0
 40
1.0
 40
1.0
 10
11.2728020489
 20
7.5690058186
 30
0.0
 10
11.2747996812
 20
7.5688672823
 30
0.0
 10
11.2787968167
 20
7.5687487134
 30
0.0
 10
11.2847700122
 20
7.569051451
 30
0.0
 10
11.2906674842
 20
7.5698333072
 30
0.0
 10
11.2945338884
 20
7.570673018
 30
0.0
 10
11.2964405457
 20
7.5711708112
 30
0.0
  0
SPLINE
  5
38C
100
AcDbEntity
  8
0
100
AcDbSpline
 62
4
  6
CONTINUOUS
 70
0
 71
3
 72
355
 73
351
 74
0
 42
0.0000001
 43
0.0000001
 44
0.0000000001
 40
0.0
 40
0.0
 40
0.0
 40
0.0
 40
0.015625
 40
0.0234375
 40
0.03125
 40
0.0390625
 40
0.04296875
 40
0.046875
 40
0.05078125
 40
0.0546875
 40
0.056640625
 40
0.05859375
 40
0.060546875
 40
0.0615234375
 40
0.0620117188
 40
0.0625
 40
0.0629882812
 40
0.0634765625
 40
0.064453125
 40
0.06640625
 40
0.068359375
 40
0.0703125
 40
0.07421875
 40
0.078125
 40
0.08203125
 40
0.0859375
 40
0.09375
 40
0.1015625
 40
0.10546875
 40
0.109375
 40
0.11328125
 40
0.1171875
 40
0.119140625
 40
0.12109375
 40
0.123046875
 40
0.1240234375
 40
0.1245117188
 40
0.125
 40
0.1254882812
 40
0.1259765625
 40
0.126953125
 40
0.12890625
 40
0.130859375
 40
0.1328125
 40
0.13671875
 40
0.140625
 40
0.14453125
 40
0.1484375
 40
0.15625
 40
0.1640625
 40
0.16796875
 40
0.171875
 40
0.17578125
 40
0.1796875
 40
0.181640625
 40
0.18359375
 40
0.185546875
 40
0.1865234375
 40
0.1870117188
 40
0.1875
 40
0.1879882812
 40
0.1884765625
 40
0.189453125
 40
0.19140625
 40
0.193359375
 40
0.1953125
 40
0.19921875
 40
0.203125
 40
0.20703125
 40
0.2109375
 40
0.21875
 40
0.2265625
 40
0.23046875
 40
0.234375
 40
0.23828125
 40
0.2421875
 40
0.244140625
 40
0.24609375
 40
0.248046875
 40
0.2490234375
 40
0.2495117188
 40
0.25
 40
0.2504882812
 40
0.2509765625
 40
0.251953125
 40
0.25390625
 40
0.255859375
 40
0.2578125
 40
0.26171875
 40
0.265625
 40
0.26953125
 40
0.2734375
 40
0.28125
 40
0.2890625
 40
0.296875
 40
0.30078125
 40
0.3046875
 40
0.306640625
 40
0.30859375
 40
0.310546875
 40
0.3115234375
 40
0.3120117188
 40
0.3125
 40
0.3129882812
 40
0.3134765625
 40
0.314453125
 40
0.31640625
 40
0.318359375
 40
0.3203125
 40
0.32421875
 40
0.328125
 40
0.3359375
 40
0.34375
 40
0.3515625
 40
0.35546875
 40
0.359375
 40
0.36328125
 40
0.3671875
 40
0.369140625
 40
0.37109375
 40
0.373046875
 40
0.3740234375
 40
0.3745117188
 40
0.375
 40
0.3754882812
 40
0.3759765625
 40
0.376953125
 40
0.37890625
 40
0.380859375
 40
0.3828125
 40
0.38671875
 40
0.390625
 40
0.39453125
 40
0.3984375
 40
0.40625
 40
0.4140625
 40
0.41796875
 40
0.421875
 40
0.42578125
 40
0.4296875
 40
0.431640625
 40
0.43359375
 40
0.435546875
 40
0.4365234375
 40
0.4370117188
 40
0.4375
 40
0.4379882812
 40
0.4384765625
 40
0.439453125
 40
0.44140625
 40
0.443359375
 40
0.4453125
 40
0.44921875
 40
0.453125
 40
0.45703125
 40
0.4609375
 40
0.46875
 40
0.4765625
 40
0.48046875
 40
0.484375
 40
0.48828125
 40
0.4921875
 40
0.494140625
 40
0.49609375
 40
0.4970703125
 40
0.498046875
 40
0.4990234375
 40
0.4995117188
 40
0.5
 40
0.5004882812
 40
0.5009765625
 40
0.501953125
 40
0.5029296875
 40
0.50390625
 40
0.505859375
 40
0.5078125
 40
0.51171875
 40
0.515625
 40
0.51953125
 40
0.5234375
 40
0.53125
 40
0.5390625
 40
0.54296875
 40
0.546875
 40
0.55078125
 40
0.5546875
 40
0.556640625
 40
0.55859375
 40
0.560546875
 40
0.5615234375
 40
0.5620117188
 40
0.5625
 40
0.5629882812
 40
0.5634765625
 40
0.564453125
 40
0.56640625
 40
0.568359375
 40
0.5703125
 40
0.57421875
 40
0.578125
 40
0.58203125
 40
0.5859375
 40
0.59375
 40
0.6015625
 40
0.60546875
 40
0.609375
 40
0.61328125
 40
0.6171875
 40
0.619140625
 40
0.62109375
 40
0.6220703125
 40
0.623046875
 40
0.6240234375
 40
0.6245117188
 40
0.625
 40
0.6254882812
 40
0.6259765625
 40
0.626953125
 40
0.6279296875
 40
0.62890625
 40
0.630859375
 40
0.6328125
 40
0.63671875
 40
0.640625
 40
0.64453125
 40
0.6484375
 40
0.65625
 40
0.6640625
 40
0.66796875
 40
0.671875
 40
0.67578125
 40
0.6796875
 40
0.681640625
 40
0.68359375
 40
0.6845703125
 40
0.685546875
 40
0.6865234375
 40
0.6870117188
 40
0.6875
 40
0.6879882812
 40
0.6884765625
 40
0.689453125
 40
0.6904296875
 40
0.69140625
 40
0.693359375
 40
0.6953125
 40
0.69921875
 40
0.703125
 40
0.70703125
 40
0.7109375
 40
0.71875
 40
0.7265625
 40
0.73046875
 40
0.734375
 40
0.73828125
 40
0.7421875
 40
0.744140625
 40
0.74609375
 40
0.7470703125
 40
0.748046875
 40
0.7490234375
 40
0.7495117188
 40
0.75
 40
0.7504882812
 40
0.7509765625
 40
0.751953125
 40
0.7529296875
 40
0.75390625
 40
0.755859375
 40
0.7578125
 40
0.76171875
 40
0.765625
 40
0.76953125
 40
0.7734375
 40
0.78125
 40
0.7890625
 40
0.79296875
 40
0.796875
 40
0.80078125
 40
0.8046875
 40
0.806640625
 40
0.80859375
 40
0.8095703125
 40
0.810546875
 40
0.8115234375
 40
0.8120117188
 40
0.8125
 40
0.8129882812
 40
0.8134765625
 40
0.814453125
 40
0.8154296875
 40
0.81640625
 40
0.818359375
 40
0.8203125
 40
0.82421875
 40
0.828125
 40
0.83203125
 40
0.8359375
 40
0.84375
 40
0.8515625
 40
0.85546875
 40
0.859375
 40
0.86328125
 40
0.8671875
 40
0.869140625
 40
0.87109375
 40
0.8720703125
 40
0.873046875
 40
0.8740234375
 40
0.8745117188
 40
0.875
 40
0.8754882812
 40
0.8759765625
 40
0.876953125
 40
0.8779296875
 40
0.87890625
 40
0.880859375
 40
0.8828125
 40
0.88671875
 40
0.890625
 40
0.89453125
 40
0.8984375
 40
0.90625
 40
0.9140625
 40
0.91796875
 40
0.921875
 40
0.92578125
 40
0.9296875
 40
0.931640625
 40
0.93359375
 40
0.9345703125
 40
0.935546875
 40
0.9365234375
 40
0.9370117188
 40
0.9375
 40
0.9379882812
 40
0.9384765625
 40
0.939453125
 40
0.9404296875
 40
0.94140625
 40
0.943359375
 40
0.9453125
 40
0.94921875
 40
0.953125
 40
0.95703125
 40
0.9609375
 40
0.96875
 40
0.9765625
 40
0.984375
 40
1.0
 40
1.0
 40
1.0
 40
1.0
 10
11.0010152312
 20
9.2462027697
 30
0.0
 10
11.0012911698
 20
9.2433693935
 30
0.0
 10
11.0017050778
 20
9.2391193292
 30
0.0
 10
11.0022569549
 20
9.2334525767
 30
0.0
 10
11.0026708633
 20
9.2292025124
 30
0.0
 10
11.0030157851
 20
9.225660792
 30
0.0
 10
11.0032917267
 20
9.2228274161
 30
0.0
 10
11.0034986715
 20
9.2207023828
 30
0.0
 10
11.00370566
 20
9.2185773551
 30
0.0
 10
11.0038780141
 20
9.2168064811
 30
0.0
 10
11.0040162028
 20
9.2153898212
 30
0.0
 10
11.0041190098
 20
9.2143272189
 30
0.0
 10
11.0042073368
 20
9.2134420586
 30
0.0
 10
11.0042639564
 20
9.2128217761
 30
0.0
 10
11.0043044443
 20
9.2124683754
 30
0.0
 10
11.0043118969
 20
9.212200377
 30
0.0
 10
11.0044069359
 20
9.211943647
 30
0.0
 10
11.0045031035
 20
9.2115974098
 30
0.0
 10
11.0046856311
 20
9.2109933261
 30
0.0
 10
11.0049389429
 20
9.2101293918
 30
0.0
 10
11.0052461024
 20
9.2090930805
 30
0.0
 10
11.0056545357
 20
9.207711189
 30
0.0
 10
11.0061654592
 20
9.2059838737
 30
0.0
 10
11.0067784038
 20
9.2039110743
 30
0.0
 10
11.0073913921
 20
9.2018382805
 30
0.0
 10
11.0082086945
 20
9.1990745535
 30
0.0
 10
11.0092303282
 20
9.1956198956
 30
0.0
 10
11.0102519582
 20
9.1921652367
 30
0.0
 10
11.0110692665
 20
9.1894015111
 30
0.0
 10
11.0116822369
 20
9.1873287132
 30
0.0
 10
11.0122952486
 20
9.1852559294
 30
0.0
 10
11.0128059632
 20
9.1835285655
 30
0.0
 10
11.0132148227
 20
9.1821467731
 30
0.0
 10
11.0135206807
 20
9.1811101591
 30
0.0
 10
11.0137780643
 20
9.1802471718
 30
0.0
 10
11.0139533231
 20
9.1796413976
 30
0.0
 10
11.0140611371
 20
9.179297869
 30
0.0
 10
11.0141204019
 20
9.1790328191
 30
0.0
 10
11.0142622165
 20
9.1787960689
 30
0.0
 10
11.0144225083
 20
9.1784705307
 30
0.0
 10
11.0147164348
 20
9.1779054381
 30
0.0
 10
11.0151293159
 20
9.1770957585
 30
0.0
 10
11.0156277754
 20
9.1761251722
 30
0.0
 10
11.0162913393
 20
9.1748306975
 30
0.0
 10
11.017121154
 20
9.1732127276
 30
0.0
 10
11.0181167775
 20
9.1712711107
 30
0.0
 10
11.0191124422
 20
9.1693295081
 30
0.0
 10
11.0204399807
 20
9.1667406996
 30
0.0
 10
11.0220994092
 20
9.1635046908
 30
0.0
 10
11.0237588342
 20
9.1602686806
 30
0.0
 10
11.0250863784
 20
9.1576798744
 30
0.0
 10
11.026082026
 20
9.1557382648
 30
0.0
 10
11.0270777137
 20
9.1537966742
 30
0.0
 10
11.0279073286
 20
9.1521786227
 30
0.0
 10
11.0285713
 20
9.1508843143
 30
0.0
 10
11.029068515
 20
9.1499132203
 30
0.0
 10
11.0294852898
 20
9.1491051288
 30
0.0
 10
11.0297722654
 20
9.1485372012
 30
0.0
 10
11.0299436943
 20
9.1482162054
 30
0.0
 10
11.0300512994
 20
9.1479655026
 30
0.0
 10
11.0302390492
 20
9.1477528564
 30
0.0
 10
11.030461427
 20
9.1474560535
 30
0.0
 10
11.030863613
 20
9.1469428333
 30
0.0
 10
11.0314313548
 20
9.1462064281
 30
0.0
 10
11.0321155597
 20
9.1453241259
 30
0.0
 10
11.0330268148
 20
9.1441472395
 30
0.0
 10
11.034166233
 20
9.1426762973
 30
0.0
 10
11.0355333851
 20
9.1409110957
 30
0.0
 10
11.0369005773
 20
9.1391459131
 30
0.0
 10
11.0387234861
 20
9.1367923296
 30
0.0
 10
11.0410021273
 20
9.1338503528
 30
0.0
 10
11.0432807655
 20
9.1309083738
 30
0.0
 10
11.0451036792
 20
9.1285547939
 30
0.0
 10
11.0464708568
 20
9.1267896004
 30
0.0
 10
11.0478380636
 20
9.1250244397
 30
0.0
 10
11.0489773114
 20
9.12355337
 30
0.0
 10
11.049888914
 20
9.1223767439
 30
0.0
 10
11.0505720577
 20
9.1214936466
 30
0.0
 10
11.0511431199
 20
9.1207597289
 30
0.0
 10
11.0515393784
 20
9.1202420682
 30
0.0
 10
11.0517712534
 20
9.1199523801
 30
0.0
 10
11.0519298307
 20
9.1197178795
 30
0.0
 10
11.0521470032
 20
9.1195492581
 30
0.0
 10
11.0524161279
 20
9.1193014501
 30
0.0
 10
11.0528966189
 20
9.1188784927
 30
0.0
 10
11.053578056
 20
9.1182686704
 30
0.0
 10
11.0543979115
 20
9.1175392795
 30
0.0
 10
11.0554903078
 20
9.1165659213
 30
0.0
 10
11.0568560586
 20
9.1153495109
 30
0.0
 10
11.0584948501
 20
9.1138896952
 30
0.0
 10
11.0601336708
 20
9.1124299124
 30
0.0
 10
11.062318755
 20
9.1104835241
 30
0.0
 10
11.0650501128
 20
9.1080505412
 30
0.0
 10
11.0683277454
 20
9.1051309669
 30
0.0
 10
11.0710590915
 20
9.1026979675
 30
0.0
 10
11.0732442014
 20
9.1007516152
 30
0.0
 10
11.0746098196
 20
9.0995350375
 30
0.0
 10
11.0757024871
 20
9.0985620216
 30
0.0
 10
11.0765215144
 20
9.0978315855
 30
0.0
 10
11.0772055426
 20
9.0972250331
 30
0.0
 10
11.0776814081
 20
9.0967962384
 30
0.0
 10
11.0779579439
 20
9.0965577833
 30
0.0
 10
11.0781523518
 20
9.0963604328
 30
0.0
 10
11.0783964295
 20
9.0962338337
 30
0.0
 10
11.078704541
 20
9.0960403561
 30
0.0
 10
11.0792518084
 20
9.0957132685
 30
0.0
 10
11.0800293988
 20
9.095239989
 30
0.0
 10
11.0809643136
 20
9.0946746268
 30
0.0
 10
11.0822102358
 20
9.0939199118
 30
0.0
 10
11.0837678545
 20
9.0929768257
 30
0.0
 10
11.0862599237
 20
9.091467716
 30
0.0
 10
11.0893750516
 20
9.0895813878
 30
0.0
 10
11.0931131876
 20
9.0873177692
 30
0.0
 10
11.0962283042
 20
9.0854314244
 30
0.0
 10
11.0987203983
 20
9.0839223512
 30
0.0
 10
11.1005894644
 20
9.0827905359
 30
0.0
 10
11.1024585477
 20
9.0816587607
 30
0.0
 10
11.1040160637
 20
9.08071549
 30
0.0
 10
11.1052621962
 20
9.0799611526
 30
0.0
 10
11.1061964686
 20
9.0793946368
 30
0.0
 10
11.1069760689
 20
9.0789249665
 30
0.0
 10
11.1075197483
 20
9.0785914361
 30
0.0
 10
11.1078336087
 20
9.0784082814
 30
0.0
 10
11.1080600276
 20
9.0782499734
 30
0.0
 10
11.108320759
 20
9.0781717163
 30
0.0
 10
11.1086564323
 20
9.0780394509
 30
0.0
 10
11.1092494369
 20
9.0778209961
 30
0.0
 10
11.110093671
 20
9.0775021161
 30
0.0
 10
11.1111079998
 20
9.0771223716
 30
0.0
 10
11.1124600023
 20
9.0766150285
 30
0.0
 10
11.114150155
 20
9.0759811986
 30
0.0
 10
11.1161782741
 20
9.0752204531
 30
0.0
 10
11.1182064104
 20
9.0744597477
 30
0.0
 10
11.120910586
 20
9.0734454597
 30
0.0
 10
11.1242908078
 20
9.0721776051
 30
0.0
 10
11.1276710283
 20
9.0709097468
 30
0.0
 10
11.1303752061
 20
9.0698954647
 30
0.0
 10
11.132403336
 20
9.0691347418
 30
0.0
 10
11.1344314789
 20
9.0683740618
 30
0.0
 10
11.1361215577
 20
9.0677400283
 30
0.0
 10
11.1374737108
 20
9.0672331004
 30
0.0
 10
11.1384875796
 20
9.0668520878
 30
0.0
 10
11.139333253
 20
9.0665371752
 30
0.0
 10
11.1399236881
 20
9.0663116381
 30
0.0
 10
11.1402634785
 20
9.0661907203
 30
0.0
 10
11.1405115637
 20
9.0660776069
 30
0.0
 10
11.1407854796
 20
9.0660502133
 30
0.0
 10
11.1411416908
 20
9.0659837884
 30
0.0
 10
11.1417692583
 20
9.0658814758
 30
0.0
 10
11.1426635886
 20
9.0657280317
 30
0.0
 10
11.1437377243
 20
9.0655470162
 30
0.0
 10
11.1451695772
 20
9.0653045733
 30
0.0
 10
11.1469595058
 20
9.0650018934
 30
0.0
 10
11.149107372
 20
9.0646385172
 30
0.0
 10
11.151255251
 20
9.064275184
 30
0.0
 10
11.1541190853
 20
9.0637907246
 30
0.0
 10
11.1576988796
 20
9.0631851555
 30
0.0
 10
11.1612786733
 20
9.062579585
 30
0.0
 10
11.1641425086
 20
9.0620951278
 30
0.0
 10
11.1662903847
 20
9.0617317881
 30
0.0
 10
11.1684382619
 20
9.0613684361
 30
0.0
 10
11.1702281561
 20
9.0610656812
 30
0.0
 10
11.1716600791
 20
9.0608233911
 30
0.0
 10
11.1725550138
 20
9.0606721559
 30
0.0
 10
11.1732710009
 20
9.0605507188
 30
0.0
 10
11.1738078834
 20
9.0604608701
 30
0.0
 10
11.1742556286
 20
9.0603820861
 30
0.0
 10
11.1746130552
 20
9.0603278285
 30
0.0
 10
11.1748832278
 20
9.0602631725
 30
0.0
 10
11.1751453747
 20
9.0602899829
 30
0.0
 10
11.1754977075
 20
9.0602937798
 30
0.0
 10
11.1759371615
 20
9.0603094878
 30
0.0
 10
11.1764649181
 20
9.0603236454
 30
0.0
 10
11.1771684497
 20
9.060344161
 30
0.0
 10
11.1780479134
 20
9.0603692444
 30
0.0
 10
11.1794550279
 20
9.0604096915
 30
0.0
 10
11.1812139304
 20
9.0604601427
 30
0.0
 10
11.1833246094
 20
9.0605207303
 30
0.0
 10
11.1854352895
 20
9.0605813055
 30
0.0
 10
11.1882495293
 20
9.0606620767
 30
0.0
 10
11.191767329
 20
9.0607630398
 30
0.0
 10
11.195285129
 20
9.0608640014
 30
0.0
 10
11.1980993682
 20
9.0609447749
 30
0.0
 10
11.2002100499
 20
9.0610053434
 30
0.0
 10
11.2023207229
 20
9.0610659563
 30
0.0
 10
11.2040796441
 20
9.0611163287
 30
0.0
 10
11.2054867206
 20
9.0611569364
 30
0.0
 10
11.2065421932
 20
9.0611865461
 30
0.0
 10
11.2074212281
 20
9.0612139118
 30
0.0
 10
11.208037584
 20
9.0612277869
 30
0.0
 10
11.2083881768
 20
9.0612439612
 30
0.0
 10
11.2086556583
 20
9.0612328639
 30
0.0
 10
11.2089057973
 20
9.0613105557
 30
0.0
 10
11.2092453653
 20
9.0613831742
 30
0.0
 10
11.2098367907
 20
9.0615246862
 30
0.0
 10
11.2106831578
 20
9.0617193023
 30
0.0
 10
11.2116981674
 20
9.0619560706
 30
0.0
 10
11.213051734
 20
9.0622706338
 30
0.0
 10
11.2147436167
 20
9.0626642249
 30
0.0
 10
11.2167739082
 20
9.0631363682
 30
0.0
 10
11.2188041911
 20
9.0636085559
 30
0.0
 10
11.221511238
 20
9.064238124
 30
0.0
 10
11.2248950456
 20
9.0650250894
 30
0.0
 10
11.2282788534
 20
9.0658120533
 30
0.0
 10
11.2309859
 20
9.0664416237
 30
0.0
 10
11.2330161838
 20
9.0669138045
 30
0.0
 10
11.2350464721
 20
9.0673859738
 30
0.0
 10
11.2367383647
 20
9.0677794839
 30
0.0
 10
11.2380919109
 20
9.0680942121
 30
0.0
 10
11.2389378043
 20
9.0682910992
 30
0.0
 10
11.2396146861
 20
9.0684481921
 30
0.0
 10
11.2401218901
 20
9.068567153
 30
0.0
 10
11.2405460149
 20
9.0686626565
 30
0.0
 10
11.2408820518
 20
9.0687472021
 30
0.0
 10
11.2411429954
 20
9.0687883614
 30
0.0
 10
11.241369907
 20
9.0689144486
 30
0.0
 10
11.2416843436
 20
9.0690528984
 30
0.0
 10
11.2420733108
 20
9.0692361391
 30
0.0
 10
11.2425418171
 20
9.0694516712
 30
0.0
 10
11.2431658825
 20
9.069740569
 30
0.0
 10
11.243946173
 20
9.0701011703
 30
0.0
 10
11.2451945211
 20
9.0706784236
 30
0.0
 10
11.2467549962
 20
9.0713998903
 30
0.0
 10
11.2486275493
 20
9.0722656931
 30
0.0
 10
11.2505001069
 20
9.0731314845
 30
0.0
 10
11.2529968488
 20
9.074285877
 30
0.0
 10
11.2561177768
 20
9.0757288662
 30
0.0
 10
11.2592387043
 20
9.0771718564
 30
0.0
 10
11.2617354469
 20
9.0783262473
 30
0.0
 10
11.2636080024
 20
9.0791920434
 30
0.0
 10
11.2654805637
 20
9.0800578284
 30
0.0
 10
11.2670410131
 20
9.0807793508
 30
0.0
 10
11.2682894137
 20
9.0813564904
 30
0.0
 10
11.2690695706
 20
9.0817173809
 30
0.0
 10
11.2696939102
 20
9.0820056851
 30
0.0
 10
11.2701615787
 20
9.0822230311
 30
0.0
 10
11.2705531673
 20
9.0824005966
 30
0.0
 10
11.2708622556
 20
9.0825506248
 30
0.0
 10
11.2711055007
 20
9.0826413522
 30
0.0
 10
11.2713051217
 20
9.0828152669
 30
0.0
 10
11.2715865215
 20
9.0830180948
 30
0.0
 10
11.2719330431
 20
9.0832815995
 30
0.0
 10
11.2723511068
 20
9.0835935377
 30
0.0
 10
11.2729077434
 20
9.0840109458
 30
0.0
 10
11.2736038069
 20
9.0845321956
 30
0.0
 10
11.2747173588
 20
9.0853664806
 30
0.0
 10
11.27610935
 20
9.0864092389
 30
0.0
 10
11.2777797175
 20
9.0876605908
 30
0.0
 10
11.2794500908
 20
9.0889119314
 30
0.0
 10
11.2816772532
 20
9.0905803896
 30
0.0
 10
11.284461207
 20
9.0926659608
 30
0.0
 10
11.2872451602
 20
9.094751533
 30
0.0
 10
11.2894723237
 20
9.0964199897
 30
0.0
 10
11.2911426938
 20
9.0976713346
 30
0.0
 10
11.2928130734
 20
9.0989226709
 30
0.0
 10
11.2942050269
 20
9.0999654778
 30
0.0
 10
11.2953186556
 20
9.1007996635
 30
0.0
 10
11.2960145237
 20
9.1013211657
 30
0.0
 10
11.2965715614
 20
9.1017380559
 30
0.0
 10
11.2969883996
 20
9.1020515763
 30
0.0
 10
11.2973387554
 20
9.1023101306
 30
0.0
 10
11.2976123327
 20
9.1025230583
 30
0.0
 10
11.2978358435
 20
9.1026661287
 30
0.0
 10
11.2979893964
 20
9.1028726587
 30
0.0
 10
11.2982185707
 20
9.1031258647
 30
0.0
 10
11.2984966544
 20
9.1034499777
 30
0.0
 10
11.2988339436
 20
9.1038356579
 30
0.0
 10
11.2992824091
 20
9.1043510352
 30
0.0
 10
11.29984342
 20
9.1049948676
 30
0.0
 10
11.3007407977
 20
9.1060252169
 30
0.0
 10
11.3018626022
 20
9.1073130789
 30
0.0
 10
11.3032087322
 20
9.1088585453
 30
0.0
 10
11.3045548717
 20
9.1104040031
 30
0.0
 10
11.306349721
 20
9.1124646166
 30
0.0
 10
11.3085932839
 20
9.1150403823
 30
0.0
 10
11.3108368459
 20
9.1176161487
 30
0.0
 10
11.3126316966
 20
9.119676761
 30
0.0
 10
11.313977832
 20
9.1212222222
 30
0.0
 10
11.3153239774
 20
9.1227676761
 30
0.0
 10
11.316445734
 20
9.1240555773
 30
0.0
 10
11.3173432092
 20
9.1250858466
 30
0.0
 10
11.3179039721
 20
9.1257298825
 30
0.0
 10
11.3183529467
 20
9.1262448421
 30
0.0
 10
11.3186886803
 20
9.1266317985
 30
0.0
 10
11.3189716309
 20
9.1269519185
 30
0.0
 10
11.319190876
 20
9.1272132711
 30
0.0
 10
11.3193747523
 20
9.1273949217
 30
0.0
 10
11.3194844165
 20
9.1276313996
 30
0.0
 10
11.3196565587
 20
9.1279275515
 30
0.0
 10
11.3198628423
 20
9.1283043123
 30
0.0
 10
11.3201141896
 20
9.1287536127
 30
0.0
 10
11.3204479897
 20
9.1293536623
 30
0.0
 10
11.320865695
 20
9.1301033879
 30
0.0
 10
11.3215337691
 20
9.1313031369
 30
0.0
 10
11.3223689491
 20
9.1328027587
 30
0.0
 10
11.3233711276
 20
9.1346023324
 30
0.0
 10
11.3243733161
 20
9.1364018988
 30
0.0
 10
11.3257095639
 20
9.1388013232
 30
0.0
 10
11.3273798751
 20
9.1418006027
 30
0.0
 10
11.3290501853
 20
9.1447998828
 30
0.0
 10
11.3303864346
 20
9.1471993063
 30
0.0
 10
11.3313886187
 20
9.1489988753
 30
0.0
 10
11.3323908139
 20
9.150798439
 30
0.0
 10
11.3332259419
 20
9.1522980922
 30
0.0
 10
11.3338941219
 20
9.153497777
 30
0.0
 10
11.3343115578
 20
9.1542476659
 30
0.0
 10
11.3346459111
 20
9.1548473804
 30
0.0
 10
11.3348955681
 20
9.1552977044
 30
0.0
 10
11.3351071402
 20
9.1556712628
 30
0.0
 10
11.3352684929
 20
9.1559739483
 30
0.0
 10
11.3354111076
 20
9.1561904731
 30
0.0
 10
11.335471274
 20
9.1564470356
 30
0.0
 10
11.3355802961
 20
9.1567751334
 30
0.0
 10
11.3357066925
 20
9.1571900539
 30
0.0
 10
11.3358625977
 20
9.1576859047
 30
0.0
 10
11.336068994
 20
9.1583477565
 30
0.0
 10
11.3363274951
 20
9.1591748256
 30
0.0
 10
11.3367408143
 20
9.1604982735
 30
0.0
 10
11.3372575603
 20
9.1621525362
 30
0.0
 10
11.3378776139
 20
9.1641376717
 30
0.0
 10
11.3384976786
 20
9.1661228017
 30
0.0
 10
11.3393244277
 20
9.1687696436
 30
0.0
 10
11.3403578655
 20
9.1720781954
 30
0.0
 10
11.3413913022
 20
9.1753867476
 30
0.0
 10
11.3422180529
 20
9.1780335888
 30
0.0
 10
11.3428381128
 20
9.1800187209
 30
0.0
 10
11.3434581845
 20
9.1820038487
 30
0.0
 10
11.3439748741
 20
9.1836581353
 30
0.0
 10
11.3443883082
 20
9.1849815345
 30
0.0
 10
11.344646517
 20
9.1858087274
 30
0.0
 10
11.3448535135
 20
9.1864703251
 30
0.0
 10
11.3450075847
 20
9.1869669521
 30
0.0
 10
11.3451397192
 20
9.187379444
 30
0.0
 10
11.3452370346
 20
9.1877124967
 30
0.0
 10
11.3453329526
 20
9.1879539271
 30
0.0
 10
11.3453413407
 20
9.1882272643
 30
0.0
 10
11.3453831001
 20
9.1885805684
 30
0.0
 10
11.3454248092
 20
9.1890260225
 30
0.0
 10
11.3454793502
 20
9.1895589306
 30
0.0
 10
11.3455505033
 20
9.1902700465
 30
0.0
 10
11.3456399816
 20
9.1911587455
 30
0.0
 10
11.3457828468
 20
9.1925807735
 30
0.0
 10
11.3459615313
 20
9.1943582708
 30
0.0
 10
11.3461759085
 20
9.1964912837
 30
0.0
 10
11.3463902976
 20
9.1986242924
 30
0.0
 10
11.3466761455
 20
9.2014683054
 30
0.0
 10
11.3470334569
 20
9.2050233211
 30
0.0
 10
11.3474622298
 20
9.2092893402
 30
0.0
 10
11.3480339274
 20
9.2149773656
 30
0.0
 10
11.3484627005
 20
9.2192433847
 30
0.0
 10
11.3487485492
 20
9.2220873974
 30
0.0
  0
SPLINE
  5
38D
100
AcDbEntity
  8
0
100
AcDbSpline
 62
4
  6
CONTINUOUS
 70
0
 71
3
 72
355
 73
351
 74
0
 42
0.0000001
 43
0.0000001
 44
0.0000000001
 40
0.0
 40
0.0
 40
0.0
 40
0.0
 40
0.015625
 40
0.0234375
 40
0.03125
 40
0.0390625
 40
0.04296875
 40
0.046875
 40
0.05078125
 40
0.0546875
 40
0.056640625
 40
0.05859375
 40
0.060546875
 40
0.0615234375
 40
0.0620117188
 40
0.0625
 40
0.0629882812
 40
0.0634765625
 40
0.064453125
 40
0.06640625
 40
0.068359375
 40
0.0703125
 40
0.07421875
 40
0.078125
 40
0.08203125
 40
0.0859375
 40
0.09375
 40
0.1015625
 40
0.10546875
 40
0.109375
 40
0.11328125
 40
0.1171875
 40
0.119140625
 40
0.12109375
 40
0.123046875
 40
0.1240234375
 40
0.1245117188
 40
0.125
 40
0.1254882812
 40
0.1259765625
 40
0.126953125
 40
0.12890625
 40
0.130859375
 40
0.1328125
 40
0.13671875
 40
0.140625
 40
0.14453125
 40
0.1484375
 40
0.15625
 40
0.1640625
 40
0.16796875
 40
0.171875
 40
0.17578125
 40
0.1796875
 40
0.181640625
 40
0.18359375
 40
0.185546875
 40
0.1865234375
 40
0.1870117188
 40
0.1875
 40
0.1879882812
 40
0.1884765625
 40
0.189453125
 40
0.19140625
 40
0.193359375
 40
0.1953125
 40
0.19921875
 40
0.203125
 40
0.20703125
 40
0.2109375
 40
0.21875
 40
0.2265625
 40
0.23046875
 40
0.234375
 40
0.23828125
 40
0.2421875
 40
0.244140625
 40
0.24609375
 40
0.248046875
 40
0.2490234375
 40
0.2495117188
 40
0.25
 40
0.2504882812
 40
0.2509765625
 40
0.251953125
 40
0.25390625
 40
0.255859375
 40
0.2578125
 40
0.26171875
 40
0.265625
 40
0.26953125
 40
0.2734375
 40
0.28125
 40
0.2890625
 40
0.296875
 40
0.30078125
 40
0.3046875
 40
0.306640625
 40
0.30859375
 40
0.310546875
 40
0.3115234375
 40
0.3120117188
 40
0.3125
 40
0.3129882812
 40
0.3134765625
 40
0.314453125
 40
0.31640625
 40
0.318359375
 40
0.3203125
 40
0.32421875
 40
0.328125
 40
0.3359375
 40
0.34375
 40
0.3515625
 40
0.35546875
 40
0.359375
 40
0.36328125
 40
0.3671875
 40
0.369140625
 40
0.37109375
 40
0.373046875
 40
0.3740234375
 40
0.3745117188
 40
0.375
 40
0.3754882812
 40
0.3759765625
 40
0.376953125
 40
0.37890625
 40
0.380859375
 40
0.3828125
 40
0.38671875
 40
0.390625
 40
0.39453125
 40
0.3984375
 40
0.40625
 40
0.4140625
 40
0.41796875
 40
0.421875
 40
0.42578125
 40
0.4296875
 40
0.431640625
 40
0.43359375
 40
0.435546875
 40
0.4365234375
 40
0.4370117188
 40
0.4375
 40
0.4379882812
 40
0.4384765625
 40
0.439453125
 40
0.44140625
 40
0.443359375
 40
0.4453125
 40
0.44921875
 40
0.453125
 40
0.45703125
 40
0.4609375
 40
0.46875
 40
0.4765625
 40
0.48046875
 40
0.484375
 40
0.48828125
 40
0.4921875
 40
0.494140625
 40
0.49609375
 40
0.4970703125
 40
0.498046875
 40
0.4990234375
 40
0.4995117188
 40
0.5
 40
0.5004882812
 40
0.5009765625
 40
0.501953125
 40
0.5029296875
 40
0.50390625
 40
0.505859375
 40
0.5078125
 40
0.51171875
 40
0.515625
 40
0.51953125
 40
0.5234375
 40
0.53125
 40
0.5390625
 40
0.54296875
 40
0.546875
 40
0.55078125
 40
0.5546875
 40
0.556640625
 40
0.55859375
 40
0.560546875
 40
0.5615234375
 40
0.5620117188
 40
0.5625
 40
0.5629882812
 40
0.5634765625
 40
0.564453125
 40
0.56640625
 40
0.568359375
 40
0.5703125
 40
0.57421875
 40
0.578125
 40
0.58203125
 40
0.5859375
 40
0.59375
 40
0.6015625
 40
0.60546875
 40
0.609375
 40
0.61328125
 40
0.6171875
 40
0.619140625
 40
0.62109375
 40
0.6220703125
 40
0.623046875
 40
0.6240234375
 40
0.6245117188
 40
0.625
 40
0.6254882812
 40
0.6259765625
 40
0.626953125
 40
0.6279296875
 40
0.62890625
 40
0.630859375
 40
0.6328125
 40
0.63671875
 40
0.640625
 40
0.64453125
 40
0.6484375
 40
0.65625
 40
0.6640625
 40
0.66796875
 40
0.671875
 40
0.67578125
 40
0.6796875
 40
0.681640625
 40
0.68359375
 40
0.6845703125
 40
0.685546875
 40
0.6865234375
 40
0.6870117188
 40
0.6875
 40
0.6879882812
 40
0.6884765625
 40
0.689453125
 40
0.6904296875
 40
0.69140625
 40
0.693359375
 40
0.6953125
 40
0.69921875
 40
0.703125
 40
0.70703125
 40
0.7109375
 40
0.71875
 40
0.7265625
 40
0.73046875
 40
0.734375
 40
0.73828125
 40
0.7421875
 40
0.744140625
 40
0.74609375
 40
0.7470703125
 40
0.748046875
 40
0.7490234375
 40
0.7495117188
 40
0.75
 40
0.7504882812
 40
0.7509765625
 40
0.751953125
 40
0.7529296875
 40
0.75390625
 40
0.755859375
 40
0.7578125
 40
0.76171875
 40
0.765625
 40
0.76953125
 40
0.7734375
 40
0.78125
 40
0.7890625
 40
0.79296875
 40
0.796875
 40
0.80078125
 40
0.8046875
 40
0.806640625
 40
0.80859375
 40
0.8095703125
 40
0.810546875
 40
0.8115234375
 40
0.8120117188
 40
0.8125
 40
0.8129882812
 40
0.8134765625
 40
0.814453125
 40
0.8154296875
 40
0.81640625
 40
0.818359375
 40
0.8203125
 40
0.82421875
 40
0.828125
 40
0.83203125
 40
0.8359375
 40
0.84375
 40
0.8515625
 40
0.85546875
 40
0.859375
 40
0.86328125
 40
0.8671875
 40
0.869140625
 40
0.87109375
 40
0.8720703125
 40
0.873046875
 40
0.8740234375
 40
0.8745117188
 40
0.875
 40
0.8754882812
 40
0.8759765625
 40
0.876953125
 40
0.8779296875
 40
0.87890625
 40
0.880859375
 40
0.8828125
 40
0.88671875
 40
0.890625
 40
0.89453125
 40
0.8984375
 40
0.90625
 40
0.9140625
 40
0.91796875
 40
0.921875
 40
0.92578125
 40
0.9296875
 40
0.931640625
 40
0.93359375
 40
0.9345703125
 40
0.935546875
 40
0.9365234375
 40
0.9370117188
 40
0.9375
 40
0.9379882812
 40
0.9384765625
 40
0.939453125
 40
0.9404296875
 40
0.94140625
 40
0.943359375
 40
0.9453125
 40
0.94921875
 40
0.953125
 40
0.95703125
 40
0.9609375
 40
0.96875
 40
0.9765625
 40
0.984375
 40
1.0
 40
1.0
 40
1.0
 40
1.0
 10
11.3487485492
 20
9.2220873822
 30
0.0
 10
11.3484726106
 20
9.2249207584
 30
0.0
 10
11.3480587026
 20
9.2291708227
 30
0.0
 10
11.3475068255
 20
9.2348375752
 30
0.0
 10
11.3470929171
 20
9.2390876394
 30
0.0
 10
11.3467479953
 20
9.2426293599
 30
0.0
 10
11.3464720537
 20
9.2454627357
 30
0.0
 10
11.3462651089
 20
9.2475877691
 30
0.0
 10
11.3460581203
 20
9.2497127968
 30
0.0
 10
11.3458857663
 20
9.2514836708
 30
0.0
 10
11.3457475776
 20
9.2529003307
 30
0.0
 10
11.3456447706
 20
9.2539629329
 30
0.0
 10
11.3455564436
 20
9.2548480933
 30
0.0
 10
11.345499824
 20
9.2554683758
 30
0.0
 10
11.3454593361
 20
9.2558217765
 30
0.0
 10
11.3454518834
 20
9.2560897749
 30
0.0
 10
11.3453568444
 20
9.2563465049
 30
0.0
 10
11.3452606769
 20
9.256692742
 30
0.0
 10
11.3450781493
 20
9.2572968258
 30
0.0
 10
11.3448248375
 20
9.2581607601
 30
0.0
 10
11.344517678
 20
9.2591970714
 30
0.0
 10
11.3441092446
 20
9.2605789629
 30
0.0
 10
11.3435983212
 20
9.2623062782
 30
0.0
 10
11.3429853766
 20
9.2643790776
 30
0.0
 10
11.3423723883
 20
9.2664518714
 30
0.0
 10
11.3415550859
 20
9.2692155984
 30
0.0
 10
11.3405334522
 20
9.2726702563
 30
0.0
 10
11.3395118222
 20
9.2761249151
 30
0.0
 10
11.3386945139
 20
9.2788886408
 30
0.0
 10
11.3380815434
 20
9.2809614387
 30
0.0
 10
11.3374685318
 20
9.2830342225
 30
0.0
 10
11.3369578172
 20
9.2847615864
 30
0.0
 10
11.3365489577
 20
9.2861433788
 30
0.0
 10
11.3362430996
 20
9.2871799928
 30
0.0
 10
11.3359857161
 20
9.2880429801
 30
0.0
 10
11.3358104573
 20
9.2886487543
 30
0.0
 10
11.3357026433
 20
9.2889922829
 30
0.0
 10
11.3356433785
 20
9.2892573328
 30
0.0
 10
11.3355015639
 20
9.289494083
 30
0.0
 10
11.3353412721
 20
9.2898196212
 30
0.0
 10
11.3350473456
 20
9.2903847137
 30
0.0
 10
11.3346344645
 20
9.2911943934
 30
0.0
 10
11.334136005
 20
9.2921649797
 30
0.0
 10
11.3334724411
 20
9.2934594544
 30
0.0
 10
11.3326426264
 20
9.2950774243
 30
0.0
 10
11.3316470029
 20
9.2970190411
 30
0.0
 10
11.3306513382
 20
9.2989606438
 30
0.0
 10
11.3293237997
 20
9.3015494523
 30
0.0
 10
11.3276643712
 20
9.3047854611
 30
0.0
 10
11.3260049462
 20
9.3080214712
 30
0.0
 10
11.324677402
 20
9.3106102774
 30
0.0
 10
11.3236817544
 20
9.3125518871
 30
0.0
 10
11.3226860667
 20
9.3144934777
 30
0.0
 10
11.3218564518
 20
9.3161115292
 30
0.0
 10
11.3211924803
 20
9.3174058376
 30
0.0
 10
11.3206952654
 20
9.3183769315
 30
0.0
 10
11.3202784906
 20
9.3191850231
 30
0.0
 10
11.319991515
 20
9.3197529506
 30
0.0
 10
11.3198200861
 20
9.3200739465
 30
0.0
 10
11.319712481
 20
9.3203246493
 30
0.0
 10
11.3195247312
 20
9.3205372955
 30
0.0
 10
11.3193023534
 20
9.3208340984
 30
0.0
 10
11.3189001674
 20
9.3213473186
 30
0.0
 10
11.3183324256
 20
9.3220837238
 30
0.0
 10
11.3176482207
 20
9.322966026
 30
0.0
 10
11.3167369656
 20
9.3241429124
 30
0.0
 10
11.3155975474
 20
9.3256138545
 30
0.0
 10
11.3142303953
 20
9.3273790562
 30
0.0
 10
11.3128632031
 20
9.3291442388
 30
0.0
 10
11.3110402943
 20
9.3314978223
 30
0.0
 10
11.3087616531
 20
9.3344397991
 30
0.0
 10
11.3064830149
 20
9.3373817781
 30
0.0
 10
11.3046601012
 20
9.339735358
 30
0.0
 10
11.3032929236
 20
9.3415005515
 30
0.0
 10
11.3019257168
 20
9.3432657121
 30
0.0
 10
11.300786469
 20
9.3447367819
 30
0.0
 10
11.2998748664
 20
9.345913408
 30
0.0
 10
11.2991917227
 20
9.3467965052
 30
0.0
 10
11.2986206605
 20
9.347530423
 30
0.0
 10
11.298224402
 20
9.3480480837
 30
0.0
 10
11.297992527
 20
9.3483377718
 30
0.0
 10
11.2978339497
 20
9.3485722724
 30
0.0
 10
11.2976167772
 20
9.3487408938
 30
0.0
 10
11.2973476525
 20
9.3489887018
 30
0.0
 10
11.2968671615
 20
9.3494116592
 30
0.0
 10
11.2961857244
 20
9.3500214815
 30
0.0
 10
11.2953658689
 20
9.3507508724
 30
0.0
 10
11.2942734726
 20
9.3517242305
 30
0.0
 10
11.2929077218
 20
9.352940641
 30
0.0
 10
11.2912689303
 20
9.3544004567
 30
0.0
 10
11.2896301096
 20
9.3558602394
 30
0.0
 10
11.2874450254
 20
9.3578066278
 30
0.0
 10
11.2847136676
 20
9.3602396107
 30
0.0
 10
11.281436035
 20
9.363159185
 30
0.0
 10
11.2787046889
 20
9.3655921843
 30
0.0
 10
11.276519579
 20
9.3675385367
 30
0.0
 10
11.2751539607
 20
9.3687551143
 30
0.0
 10
11.2740612933
 20
9.3697281303
 30
0.0
 10
11.273242266
 20
9.3704585663
 30
0.0
 10
11.2725582378
 20
9.3710651188
 30
0.0
 10
11.2720823723
 20
9.3714939135
 30
0.0
 10
11.2718058364
 20
9.3717323686
 30
0.0
 10
11.2716114286
 20
9.371929719
 30
0.0
 10
11.2713673509
 20
9.3720563181
 30
0.0
 10
11.2710592394
 20
9.3722497958
 30
0.0
 10
11.2705119719
 20
9.3725768834
 30
0.0
 10
11.2697343816
 20
9.3730501628
 30
0.0
 10
11.2687994668
 20
9.3736155251
 30
0.0
 10
11.2675535446
 20
9.3743702401
 30
0.0
 10
11.2659959259
 20
9.3753133262
 30
0.0
 10
11.2635038567
 20
9.3768224359
 30
0.0
 10
11.2603887288
 20
9.3787087641
 30
0.0
 10
11.2566505928
 20
9.3809723827
 30
0.0
 10
11.2535354762
 20
9.3828587275
 30
0.0
 10
11.2510433821
 20
9.3843678007
 30
0.0
 10
11.249174316
 20
9.3854996159
 30
0.0
 10
11.2473052326
 20
9.3866313912
 30
0.0
 10
11.2457477166
 20
9.3875746619
 30
0.0
 10
11.2445015842
 20
9.3883289993
 30
0.0
 10
11.2435673118
 20
9.388895515
 30
0.0
 10
11.2427877115
 20
9.3893651854
 30
0.0
 10
11.2422440321
 20
9.3896987158
 30
0.0
 10
11.2419301717
 20
9.3898818705
 30
0.0
 10
11.2417037528
 20
9.3900401785
 30
0.0
 10
11.2414430214
 20
9.3901184356
 30
0.0
 10
11.2411073481
 20
9.390250701
 30
0.0
 10
11.2405143434
 20
9.3904691558
 30
0.0
 10
11.2396701094
 20
9.3907880357
 30
0.0
 10
11.2386557806
 20
9.3911677803
 30
0.0
 10
11.2373037781
 20
9.3916751234
 30
0.0
 10
11.2356136254
 20
9.3923089533
 30
0.0
 10
11.2335855063
 20
9.3930696988
 30
0.0
 10
11.23155737
 20
9.3938304042
 30
0.0
 10
11.2288531943
 20
9.3948446921
 30
0.0
 10
11.2254729726
 20
9.3961125468
 30
0.0
 10
11.2220927521
 20
9.3973804051
 30
0.0
 10
11.2193885743
 20
9.3983946872
 30
0.0
 10
11.2173604444
 20
9.3991554101
 30
0.0
 10
11.2153323015
 20
9.3999160901
 30
0.0
 10
11.2136422227
 20
9.4005501236
 30
0.0
 10
11.2122900696
 20
9.4010570514
 30
0.0
 10
11.2112762008
 20
9.4014380641
 30
0.0
 10
11.2104305274
 20
9.4017529767
 30
0.0
 10
11.2098400922
 20
9.4019785138
 30
0.0
 10
11.2095003019
 20
9.4020994316
 30
0.0
 10
11.2092522167
 20
9.4022125449
 30
0.0
 10
11.2089783008
 20
9.4022399386
 30
0.0
 10
11.2086220896
 20
9.4023063635
 30
0.0
 10
11.2079945221
 20
9.4024086761
 30
0.0
 10
11.2071001918
 20
9.4025621202
 30
0.0
 10
11.2060260561
 20
9.4027431357
 30
0.0
 10
11.2045942032
 20
9.4029855786
 30
0.0
 10
11.2028042745
 20
9.4032882585
 30
0.0
 10
11.2006564084
 20
9.4036516346
 30
0.0
 10
11.1985085293
 20
9.4040149679
 30
0.0
 10
11.1956446951
 20
9.4044994272
 30
0.0
 10
11.1920649008
 20
9.4051049964
 30
0.0
 10
11.188485107
 20
9.4057105669
 30
0.0
 10
11.1856212718
 20
9.4061950241
 30
0.0
 10
11.1834733957
 20
9.4065583638
 30
0.0
 10
11.1813255185
 20
9.4069217158
 30
0.0
 10
11.1795356242
 20
9.4072244707
 30
0.0
 10
11.1781037013
 20
9.4074667607
 30
0.0
 10
11.1772087666
 20
9.407617996
 30
0.0
 10
11.1764927795
 20
9.4077394331
 30
0.0
 10
11.175955897
 20
9.4078292818
 30
0.0
 10
11.1755081518
 20
9.4079080658
 30
0.0
 10
11.1751507252
 20
9.4079623234
 30
0.0
 10
11.1748805526
 20
9.4080269794
 30
0.0
 10
11.1746184056
 20
9.4080001689
 30
0.0
 10
11.1742660729
 20
9.4079963721
 30
0.0
 10
11.1738266189
 20
9.407980664
 30
0.0
 10
11.1732988623
 20
9.4079665065
 30
0.0
 10
11.1725953307
 20
9.4079459908
 30
0.0
 10
11.171715867
 20
9.4079209074
 30
0.0
 10
11.1703087525
 20
9.4078804604
 30
0.0
 10
11.16854985
 20
9.4078300092
 30
0.0
 10
11.1664391709
 20
9.4077694216
 30
0.0
 10
11.1643284909
 20
9.4077088464
 30
0.0
 10
11.1615142511
 20
9.4076280752
 30
0.0
 10
11.1579964514
 20
9.4075271121
 30
0.0
 10
11.1544786514
 20
9.4074261504
 30
0.0
 10
11.1516644121
 20
9.407345377
 30
0.0
 10
11.1495537305
 20
9.4072848085
 30
0.0
 10
11.1474430575
 20
9.4072241956
 30
0.0
 10
11.1456841363
 20
9.4071738231
 30
0.0
 10
11.1442770598
 20
9.4071332155
 30
0.0
 10
11.1432215872
 20
9.4071036058
 30
0.0
 10
11.1423425523
 20
9.4070762401
 30
0.0
 10
11.1417261964
 20
9.4070623649
 30
0.0
 10
11.1413756036
 20
9.4070461907
 30
0.0
 10
11.1411081221
 20
9.407057288
 30
0.0
 10
11.1408579831
 20
9.4069795962
 30
0.0
 10
11.1405184151
 20
9.4069069777
 30
0.0
 10
11.1399269897
 20
9.4067654656
 30
0.0
 10
11.1390806226
 20
9.4065708496
 30
0.0
 10
11.1380656129
 20
9.4063340812
 30
0.0
 10
11.1367120464
 20
9.4060195181
 30
0.0
 10
11.1350201637
 20
9.405625927
 30
0.0
 10
11.1329898722
 20
9.4051537837
 30
0.0
 10
11.1309595893
 20
9.404681596
 30
0.0
 10
11.1282525424
 20
9.4040520279
 30
0.0
 10
11.1248687348
 20
9.4032650625
 30
0.0
 10
11.121484927
 20
9.4024780986
 30
0.0
 10
11.1187778804
 20
9.4018485282
 30
0.0
 10
11.1167475966
 20
9.4013763474
 30
0.0
 10
11.1147173083
 20
9.4009041781
 30
0.0
 10
11.1130254156
 20
9.4005106679
 30
0.0
 10
11.1116718695
 20
9.4001959398
 30
0.0
 10
11.1108259761
 20
9.3999990527
 30
0.0
 10
11.1101490943
 20
9.3998419598
 30
0.0
 10
11.1096418903
 20
9.3997229989
 30
0.0
 10
11.1092177655
 20
9.3996274954
 30
0.0
 10
11.1088817286
 20
9.3995429498
 30
0.0
 10
11.108620785
 20
9.3995017905
 30
0.0
 10
11.1083938734
 20
9.3993757033
 30
0.0
 10
11.1080794368
 20
9.3992372535
 30
0.0
 10
11.1076904696
 20
9.3990540128
 30
0.0
 10
11.1072219633
 20
9.3988384807
 30
0.0
 10
11.1065978979
 20
9.3985495828
 30
0.0
 10
11.1058176074
 20
9.3981889815
 30
0.0
 10
11.1045692593
 20
9.3976117283
 30
0.0
 10
11.1030087842
 20
9.3968902616
 30
0.0
 10
11.1011362311
 20
9.3960244587
 30
0.0
 10
11.0992636735
 20
9.3951586674
 30
0.0
 10
11.0967669316
 20
9.3940042748
 30
0.0
 10
11.0936460036
 20
9.3925612857
 30
0.0
 10
11.0905250761
 20
9.3911182955
 30
0.0
 10
11.0880283335
 20
9.3899639046
 30
0.0
 10
11.086155778
 20
9.3890981084
 30
0.0
 10
11.0842832167
 20
9.3882323235
 30
0.0
 10
11.0827227673
 20
9.3875108011
 30
0.0
 10
11.0814743667
 20
9.3869336615
 30
0.0
 10
11.0806942098
 20
9.3865727709
 30
0.0
 10
11.0800698702
 20
9.3862844668
 30
0.0
 10
11.0796022017
 20
9.3860671208
 30
0.0
 10
11.0792106131
 20
9.3858895553
 30
0.0
 10
11.0789015248
 20
9.385739527
 30
0.0
 10
11.0786582797
 20
9.3856487997
 30
0.0
 10
11.0784586587
 20
9.3854748849
 30
0.0
 10
11.0781772589
 20
9.3852720571
 30
0.0
 10
11.0778307373
 20
9.3850085524
 30
0.0
 10
11.0774126736
 20
9.3846966142
 30
0.0
 10
11.076856037
 20
9.384279206
 30
0.0
 10
11.0761599735
 20
9.3837579562
 30
0.0
 10
11.0750464216
 20
9.3829236713
 30
0.0
 10
11.0736544304
 20
9.381880913
 30
0.0
 10
11.0719840629
 20
9.3806295611
 30
0.0
 10
11.0703136896
 20
9.3793782205
 30
0.0
 10
11.0680865272
 20
9.3777097623
 30
0.0
 10
11.0653025733
 20
9.375624191
 30
0.0
 10
11.0625186202
 20
9.3735386189
 30
0.0
 10
11.0602914567
 20
9.3718701621
 30
0.0
 10
11.0586210866
 20
9.3706188173
 30
0.0
 10
11.056950707
 20
9.369367481
 30
0.0
 10
11.0555587535
 20
9.3683246741
 30
0.0
 10
11.0544451248
 20
9.3674904883
 30
0.0
 10
11.0537492567
 20
9.3669689862
 30
0.0
 10
11.053192219
 20
9.366552096
 30
0.0
 10
11.0527753808
 20
9.3662385755
 30
0.0
 10
11.052425025
 20
9.3659800213
 30
0.0
 10
11.0521514477
 20
9.3657670936
 30
0.0
 10
11.0519279369
 20
9.3656240232
 30
0.0
 10
11.051774384
 20
9.3654174932
 30
0.0
 10
11.0515452097
 20
9.3651642872
 30
0.0
 10
11.051267126
 20
9.3648401742
 30
0.0
 10
11.0509298368
 20
9.364454494
 30
0.0
 10
11.0504813713
 20
9.3639391167
 30
0.0
 10
11.0499203604
 20
9.3632952843
 30
0.0
 10
11.0490229827
 20
9.362264935
 30
0.0
 10
11.0479011782
 20
9.360977073
 30
0.0
 10
11.0465550482
 20
9.3594316066
 30
0.0
 10
11.0452089087
 20
9.3578861487
 30
0.0
 10
11.0434140594
 20
9.3558255353
 30
0.0
 10
11.0411704965
 20
9.3532497696
 30
0.0
 10
11.0389269345
 20
9.3506740032
 30
0.0
 10
11.0371320838
 20
9.3486133908
 30
0.0
 10
11.0357859484
 20
9.3470679296
 30
0.0
 10
11.034439803
 20
9.3455224758
 30
0.0
 10
11.0333180464
 20
9.3442345746
 30
0.0
 10
11.0324205712
 20
9.3432043053
 30
0.0
 10
11.0318598083
 20
9.3425602694
 30
0.0
 10
11.0314108337
 20
9.3420453098
 30
0.0
 10
11.0310751001
 20
9.3416583534
 30
0.0
 10
11.0307921495
 20
9.3413382334
 30
0.0
 10
11.0305729044
 20
9.3410768808
 30
0.0
 10
11.0303890281
 20
9.3408952302
 30
0.0
 10
11.0302793639
 20
9.3406587523
 30
0.0
 10
11.0301072217
 20
9.3403626004
 30
0.0
 10
11.0299009381
 20
9.3399858396
 30
0.0
 10
11.0296495908
 20
9.3395365392
 30
0.0
 10
11.0293157907
 20
9.3389364896
 30
0.0
 10
11.0288980854
 20
9.3381867639
 30
0.0
 10
11.0282300113
 20
9.3369870149
 30
0.0
 10
11.0273948313
 20
9.3354873932
 30
0.0
 10
11.0263926528
 20
9.3336878194
 30
0.0
 10
11.0253904643
 20
9.3318882531
 30
0.0
 10
11.0240542164
 20
9.3294888287
 30
0.0
 10
11.0223839053
 20
9.3264895492
 30
0.0
 10
11.0207135951
 20
9.3234902691
 30
0.0
 10
11.0193773458
 20
9.3210908456
 30
0.0
 10
11.0183751617
 20
9.3192912766
 30
0.0
 10
11.0173729665
 20
9.3174917129
 30
0.0
 10
11.0165378385
 20
9.3159920597
 30
0.0
 10
11.0158696584
 20
9.3147923749
 30
0.0
 10
11.0154522226
 20
9.314042486
 30
0.0
 10
11.0151178693
 20
9.3134427714
 30
0.0
 10
11.0148682123
 20
9.3129924475
 30
0.0
 10
11.0146566402
 20
9.3126188891
 30
0.0
 10
11.0144952875
 20
9.3123162036
 30
0.0
 10
11.0143526728
 20
9.3120996788
 30
0.0
 10
11.0142925064
 20
9.3118431162
 30
0.0
 10
11.0141834843
 20
9.3115150185
 30
0.0
 10
11.0140570879
 20
9.3111000979
 30
0.0
 10
11.0139011827
 20
9.3106042471
 30
0.0
 10
11.0136947864
 20
9.3099423953
 30
0.0
 10
11.0134362853
 20
9.3091153262
 30
0.0
 10
11.0130229661
 20
9.3077918784
 30
0.0
 10
11.0125062201
 20
9.3061376157
 30
0.0
 10
11.0118861665
 20
9.3041524802
 30
0.0
 10
11.0112661018
 20
9.3021673502
 30
0.0
 10
11.0104393527
 20
9.2995205082
 30
0.0
 10
11.0094059149
 20
9.2962119565
 30
0.0
 10
11.0083724782
 20
9.2929034043
 30
0.0
 10
11.0075457275
 20
9.2902565631
 30
0.0
 10
11.0069256676
 20
9.288271431
 30
0.0
 10
11.0063055959
 20
9.2862863032
 30
0.0
 10
11.0057889063
 20
9.2846320166
 30
0.0
 10
11.0053754722
 20
9.2833086174
 30
0.0
 10
11.0051172634
 20
9.2824814245
 30
0.0
 10
11.0049102669
 20
9.2818198268
 30
0.0
 10
11.0047561957
 20
9.2813231998
 30
0.0
 10
11.0046240612
 20
9.2809107079
 30
0.0
 10
11.0045267458
 20
9.2805776552
 30
0.0
 10
11.0044308278
 20
9.2803362248
 30
0.0
 10
11.0044224397
 20
9.2800628876
 30
0.0
 10
11.0043806803
 20
9.2797095835
 30
0.0
 10
11.0043389712
 20
9.2792641294
 30
0.0
 10
11.0042844302
 20
9.2787312213
 30
0.0
 10
11.0042132771
 20
9.2780201054
 30
0.0
 10
11.0041237988
 20
9.2771314063
 30
0.0
 10
11.0039809336
 20
9.2757093784
 30
0.0
 10
11.0038022491
 20
9.2739318811
 30
0.0
 10
11.0035878718
 20
9.2717988681
 30
0.0
 10
11.0033734828
 20
9.2696658595
 30
0.0
 10
11.0030876349
 20
9.2668218465
 30
0.0
 10
11.0027303235
 20
9.2632668308
 30
0.0
 10
11.0023015505
 20
9.2590008117
 30
0.0
 10
11.001729853
 20
9.2533127863
 30
0.0
 10
11.0013010799
 20
9.2490467672
 30
0.0
 10
11.0010152312
 20
9.2462027545
 30
0.0
  0
ENDSEC
  0
SECTION
  2
OBJECTS
  0
DICTIONARY
  5
C
100
AcDbDictionary
280
0
281
1
  3
ACAD_GROUP
350
D
  3
ACAD_MLINESTYLE
350
17
  3
ACAD_LAYOUT
350
1A
  3
ACAD_PLOTSETTINGS
350
19
  3
ACAD_PLOTSTYLENAME
350
E
  3
ACAD_IMAGE_DICT
350
       38F
  3
ACAD_IMAGE_VARS
350
       390
  3
ACAD_TABLESTYLE
350
       391
  0
IMAGEDEF_REACTOR
  5
38E
100
AcDbRasterImageDefReactor
 90
2
330
287
  0
DICTIONARY
  5
D
102
{ACAD_REACTORS
330
C
102
}
100
AcDbDictionary
280
0
281
1
  0
ACDBDICTIONARYWDFLT
  5
E
102
{ACAD_REACTORS
330
C
102
}
100
AcDbDictionary
281
1
  3
Normal
350
F
100
AcDbDictionaryWithDefault
340
F
  0
DICTIONARY
  5
38F
330
C
100
AcDbDictionary
281
1
  3
FSU_assy_2_img_1
350
       394
  0
RASTERVARIABLES
  5
390
330
C
100
AcDbRasterVariables
 90
0
 70
0
 71
1
 72
5
  0
DICTIONARY
  5
17
102
{ACAD_REACTORS
330
C
102
}
100
AcDbDictionary
280
0
281
1
  3
Standard
350
18
  0
DICTIONARY
  5
391
330
C
100
AcDbDictionary
281
1
  3
Standard
350
       395
  3
Standard1
350
       396
  0
DICTIONARY
  5
19
102
{ACAD_REACTORS
330
C
102
}
100
AcDbDictionary
281
1
  0
DICTIONARY
  5
1A
102
{ACAD_REACTORS
330
C
102
}
100
AcDbDictionary
281
1
  3
Model
350
392
  3
Layout1
350
393
  0
ACDBPLACEHOLDER
  5
F
102
{ACAD_REACTORS
330
E
102
}
  0
MLINESTYLE
  5
18
102
{ACAD_REACTORS
330
17
102
}
100
AcDbMlineStyle
  2
STANDARD
 70
0
  3

 62
256
 51
90.0
 52
90.0
 71
2
 49
0.5
 62
256
  6
BYLAYER
 49
-0.5
 62
256
  6
BYLAYER
  0
LAYOUT
  5
392
102
{ACAD_REACTORS
330
1A
102
}
100
AcDbPlotSettings
  1

  2
none_device
  4
ANSI_C_(22.00_x_17.00_Inches)
  6

 40
0.0
 41
0.0
 42
0.0
 43
0.0
 44
558.8
 45
431.8
 46
0.0
 47
0.0
 48
0.0
 49
0.0
140
0.0
141
0.0
142
1.0
143
1.0
 70
1024
 72
0
 73
0
 74
0
  7

 75
0
147
1.0
148
0.0
149
0.0
100
AcDbLayout
  1
Model
 70
0
 71
0
 10
0.0
 20
0.0
 11
22.0
 21
17.0
 12
0.0
 22
0.0
 32
0.0
 14
0.0
 24
0.0
 34
0.0
 15
0.0
 25
0.0
 35
0.0
146
0.0
 13
0.0
 23
0.0
 33
0.0
 16
1.0
 26
0.0
 36
0.0
 17
0.0
 27
1.0
 37
0.0
 76
0
330
204
345
0
346
0
  0
LAYOUT
  5
393
102
{ACAD_REACTORS
330
1A
102
}
100
AcDbPlotSettings
  1

  2
none_device
  4
ANSI_C_(22.00_x_17.00_Inches)
  6

 40
0.0
 41
0.0
 42
0.0
 43
0.0
 44
558.8
 45
431.8
 46
0.0
 47
0.0
 48
0.0
 49
0.0
140
0.0
141
0.0
142
1.0
143
1.0
 70
0
 72
0
 73
0
 74
0
  7

 75
0
147
1.0
148
0.0
149
0.0
100
AcDbLayout
  1
Layout1
 70
0
 71
1
 10
0.0
 20
0.0
 11
22.0
 21
17.0
 12
0.0
 22
0.0
 32
0.0
 14
0.0
 24
0.0
 34
0.0
 15
0.0
 25
0.0
 35
0.0
146
0.0
 13
0.0
 23
0.0
 33
0.0
 16
1.0
 26
0.0
 36
0.0
 17
0.0
 27
1.0
 37
0.0
 76
0
330
205
345
0
346
0
  0
IMAGEDEF
  5
394
102
{ACAD_REACTORS
330
38F
330
38E
102
}
100
AcDbRasterImageDef
 90
0
  1
FSU_assy_2_img_1.png
 10
369.0
 20
92.0
 11
0.0066666667
 21
0.0066666667
280
1
281
0
  0
TABLESTYLE
  5
395
102
{ACAD_REACTORS
330
391
330
28A
330
28B
102
}
330
391
100
AcDbTableStyle
  3
Standard
 70
0
 71
0
 40
0.06
 41
0.06
280
1
281
1
  7
Standard
140
0.18
170
1
 62
0
 63
7
283
0
  7
Standard
140
0.18
170
1
 62
0
 63
7
283
0
  7
Standard
140
0.18
170
1
 62
0
 63
7
283
0
  0
TABLESTYLE
  5
396
102
{ACAD_REACTORS
330
391
330
289
102
}
330
391
100
AcDbTableStyle
  3
Standard1
 70
1
 71
0
 40
0.06
 41
0.06
280
1
281
1
  7
Standard
140
0.18
170
1
 62
0
 63
7
283
0
  7
Standard
140
0.18
170
1
 62
0
 63
7
283
0
  7
Standard
140
0.18
170
1
 62
0
 63
7
283
0
  0
ENDSEC
  0
EOF
