999
DXF file: FSL_assy_2.dxf
999
Pro/ENGINEER 2014200 by Parametric Technology Corporation
  0
SECTION
  2
HEADER
  9
$ACADVER
  1
AC1021
  9
$DWGCODEPAGE
  3
ANSI_1252
  9
$EXTMAX
 10
22.0
 20
17.0
 30
0.0
  9
$EXTMIN
 10
0.0
 20
0.0
 30
0.0
  9
$LIMMIN
 10
0.0
 20
0.0
  9
$LIMMAX
 10
22.0
 20
17.0
  9
$VIEWCTR
 10
11.0
 20
8.5
  9
$VIEWSIZE
 40
17.0
  9
$CLAYER
  8
0
  9
$LTSCALE
 40
1.21
  9
$CELTYPE
  6
BYLAYER
  9
$DIMSCALE
 40
1.0
  9
$DIMASZ
 40
0.1875
  9
$DIMEXO
 40
0.0625
  9
$DIMDLI
 40
0.836
  9
$DIMEXE
 40
0.125
  9
$DIMCEN
 40
0.198
  9
$DIMLFAC
 40
1.0
  9
$DIMBLK
  1
_FILLED
  9
$DIMTXT
 40
0.1
  9
$DIMTOL
 70
0
  9
$DIMLIM
 70
0
  9
$DIMTFAC
 40
1.0
  9
$DIMGAP
 40
0.09
  9
$DIMDSEP
 70
46
  9
$AUNITS
 70
0
  9
$PDMODE
 70
3
  9
$PDSIZE
 40
0.3125
  9
$HANDSEED
  5
3A9
  9
$TILEMODE
 70
1
  9
$MEASUREMENT
 70
0
  9
$INSUNITS
 70
1
  0
ENDSEC
  0
SECTION
  2
CLASSES
  0
CLASS
  1
ACDBDICTIONARYWDFLT
  2
AcDbDictionaryWithDefault
  3
AutoCAD 2000
 90
0
 91
1
280
0
281
0
  0
CLASS
  1
ACDBPLACEHOLDER
  2
AcDbPlaceHolder
  3
AutoCAD 2000
 90
0
 91
1
280
0
281
0
  0
CLASS
  1
LAYOUT
  2
AcDbLayout
  3
AutoCAD 2000
 90
0
 91
0
280
0
281
0
  0
CLASS
  1
RASTERVARIABLES
  2
AcDbRasterVariables
  3
ISM
 90
0
 91
1
280
0
281
0
  0
CLASS
  1
IMAGEDEF
  2
AcDbRasterImageDef
  3
ISM
 90
0
 91
1
280
0
281
0
  0
CLASS
  1
IMAGEDEF_REACTOR
  2
AcDbRasterImageDefReactor
  3
ISM
 90
0
 91
1
280
0
281
0
  0
CLASS
  1
IMAGE
  2
AcDbRasterImage
  3
ISM
 90
127
 91
1
280
0
281
1
  0
CLASS
  1
TABLESTYLE
  2
AcDbTableStyle
  3
ObjectDBX Classes
 90
2047
 91
1
280
0
281
0
  0
CLASS
  1
ACAD_TABLE
  2
AcDbTable
  3
ObjectDBX Classes
 90
1025
 91
3
280
0
281
1
  0
ENDSEC
  0
SECTION
  2
TABLES
  0
TABLE
  2
VPORT
  5
8
100
AcDbSymbolTable
 70
2
  0
VPORT
  5
1F4
100
AcDbSymbolTableRecord
100
AcDbViewportTableRecord
  2
*ACTIVE
 70
0
 10
0.0
 20
0.0
 11
1.0
 21
1.0
 12
11.0
 22
8.5
 13
0.0
 23
0.0
 14
1.0
 24
1.0
 15
0.0
 25
0.0
 16
0.0
 26
0.0
 36
1.0
 17
0.0
 27
0.0
 37
0.0
 40
17.0
 41
1.2941176471
 42
50.0
 43
0.0
 44
0.0
 50
0.0
 51
0.0
 71
0
 72
100
 73
1
 74
1
 75
0
 76
0
 77
0
 78
0
  0
ENDTAB
  0
TABLE
  2
LTYPE
  5
5
100
AcDbSymbolTable
 70
6
  0
LTYPE
  5
14
100
AcDbSymbolTableRecord
100
AcDbLinetypeTableRecord
  2
BYBLOCK
 70
0
  3

 72
65
 73
0
 40
0.0
  0
LTYPE
  5
15
100
AcDbSymbolTableRecord
100
AcDbLinetypeTableRecord
  2
BYLAYER
 70
0
  3

 72
65
 73
0
 40
0.0
  0
LTYPE
  5
16
100
AcDbSymbolTableRecord
100
AcDbLinetypeTableRecord
  2
CONTINUOUS
 70
64
  3
Solid line
 72
65
 73
0
 40
0.0
  0
LTYPE
  5
1F5
100
AcDbSymbolTableRecord
100
AcDbLinetypeTableRecord
  2
CENTER
 70
64
  3
____ _ ____ _ ____ _ ____ _ ____ _ ____ _ ____
 72
65
 73
4
 40
0.6
 49
0.375
 74
0
 49
-0.075
 74
0
 49
0.075
 74
0
 49
-0.075
 74
0
  0
LTYPE
  5
1F6
100
AcDbSymbolTableRecord
100
AcDbLinetypeTableRecord
  2
HIDDEN
 70
64
  3
- - - - - - - - - - - - - - - - - - - -
 72
65
 73
2
 40
0.2
 49
0.1
 74
0
 49
-0.1
 74
0
  0
LTYPE
  5
1F7
100
AcDbSymbolTableRecord
100
AcDbLinetypeTableRecord
  2
PHANTOM
 70
64
  3
_____ _ _ _____ _ _ _____ _ _ _____
 72
65
 73
6
 40
0.8
 49
0.45
 74
0
 49
-0.05
 74
0
 49
0.1
 74
0
 49
-0.05
 74
0
 49
0.1
 74
0
 49
-0.05
 74
0
  0
LTYPE
  5
1F8
100
AcDbSymbolTableRecord
100
AcDbLinetypeTableRecord
  2
DOT
 70
64
  3
. . . . . . . . . . . . . . . . . . . .
 72
65
 73
2
 40
0.2
 49
0.1
 74
0
 49
-0.1
 74
0
  0
LTYPE
  5
1F9
100
AcDbSymbolTableRecord
100
AcDbLinetypeTableRecord
  2
DASHED
 70
64
  3
- - - - - - - - - - - - - - - - - - - -
 72
65
 73
2
 40
0.2
 49
0.1
 74
0
 49
-0.1
 74
0
  0
ENDTAB
  0
TABLE
  2
LAYER
  5
2
100
AcDbSymbolTable
 70
36
  0
LAYER
  5
10
100
AcDbSymbolTableRecord
100
AcDbLayerTableRecord
  2
0
 70
0
 62
7
  6
CONTINUOUS
370
-3
390
F
  0
LAYER
  5
1FA
100
AcDbSymbolTableRecord
100
AcDbLayerTableRecord
  2
DEFAULT_1
 70
0
 62
7
  6
CENTER
370
-3
390
F
  0
LAYER
  5
1FB
100
AcDbSymbolTableRecord
100
AcDbLayerTableRecord
  2
DEFAULT_2
 70
0
 62
8
  6
HIDDEN
370
-3
390
F
  0
LAYER
  5
1FC
100
AcDbSymbolTableRecord
100
AcDbLayerTableRecord
  2
DEFAULT_3
 70
0
 62
7
  6
PHANTOM
370
-3
390
F
  0
LAYER
  5
1FD
100
AcDbSymbolTableRecord
100
AcDbLayerTableRecord
  2
01___PRT_ALL_DTM_PLN
 70
0
 62
7
  6
CONTINUOUS
370
-3
390
F
  0
LAYER
  5
1FE
100
AcDbSymbolTableRecord
100
AcDbLayerTableRecord
  2
01___PRT_DEF_DTM_PLN
 70
0
 62
7
  6
CONTINUOUS
370
-3
390
F
  0
LAYER
  5
1FF
100
AcDbSymbolTableRecord
100
AcDbLayerTableRecord
  2
02___PRT_ALL_AXES
 70
0
 62
7
  6
CONTINUOUS
370
-3
390
F
  0
LAYER
  5
200
100
AcDbSymbolTableRecord
100
AcDbLayerTableRecord
  2
03___PRT_ALL_CURVES
 70
0
 62
7
  6
CONTINUOUS
370
-3
390
F
  0
LAYER
  5
201
100
AcDbSymbolTableRecord
100
AcDbLayerTableRecord
  2
04___PRT_ALL_DTM_PNT
 70
0
 62
7
  6
CONTINUOUS
370
-3
390
F
  0
LAYER
  5
202
100
AcDbSymbolTableRecord
100
AcDbLayerTableRecord
  2
05___PRT_ALL_DTM_CSYS
 70
0
 62
7
  6
CONTINUOUS
370
-3
390
F
  0
LAYER
  5
203
100
AcDbSymbolTableRecord
100
AcDbLayerTableRecord
  2
05___PRT_DEF_DTM_CSYS
 70
0
 62
7
  6
CONTINUOUS
370
-3
390
F
  0
LAYER
  5
204
100
AcDbSymbolTableRecord
100
AcDbLayerTableRecord
  2
06___PRT_ALL_SURFS
 70
0
 62
7
  6
CONTINUOUS
370
-3
390
F
  0
LAYER
  5
205
100
AcDbSymbolTableRecord
100
AcDbLayerTableRecord
  2
DATUM_PLANES
 70
0
 62
7
  6
CONTINUOUS
370
-3
390
F
  0
LAYER
  5
206
100
AcDbSymbolTableRecord
100
AcDbLayerTableRecord
  2
PORT_AREAS
 70
0
 62
7
  6
CONTINUOUS
370
-3
390
F
  0
LAYER
  5
207
100
AcDbSymbolTableRecord
100
AcDbLayerTableRecord
  2
SUNNBOMCOSMETIC
 70
0
 62
7
  6
CONTINUOUS
370
-3
390
F
  0
LAYER
  5
208
100
AcDbSymbolTableRecord
100
AcDbLayerTableRecord
  2
SUNNBOMSTAMPING
 70
0
 62
7
  6
CONTINUOUS
370
-3
390
F
  0
LAYER
  5
209
100
AcDbSymbolTableRecord
100
AcDbLayerTableRecord
  2
THREADS
 70
0
 62
7
  6
CONTINUOUS
370
-3
390
F
  0
ENDTAB
  0
TABLE
  2
STYLE
  5
3
100
AcDbSymbolTable
 70
1
  0
STYLE
  5
11
100
AcDbSymbolTableRecord
100
AcDbTextStyleTableRecord
  2
STANDARD
 70
0
 40
0.0
 41
0.8
 50
0.0
 71
0
 42
0.2
  3
txt
  4

  0
STYLE
  5
20A
100
AcDbSymbolTableRecord
100
AcDbTextStyleTableRecord
  2
TEXTSTYLE_1
 70
0
 40
0.0
 41
0.8
 50
0.0
 71
0
 42
0.2
  3
gdt
  4

  0
ENDTAB
  0
TABLE
  2
VIEW
  5
6
100
AcDbSymbolTable
 70
0
  0
ENDTAB
  0
TABLE
  2
UCS
  5
7
100
AcDbSymbolTable
 70
0
  0
ENDTAB
  0
TABLE
  2
APPID
  5
9
100
AcDbSymbolTable
 70
1
  0
APPID
  5
20B
100
AcDbSymbolTableRecord
100
AcDbRegAppTableRecord
  2
ACAD
 70
0
  0
ENDTAB
  0
TABLE
  2
BLOCK_RECORD
  5
1
100
AcDbSymbolTable
 70
0
  0
BLOCK_RECORD
  5
20C
100
AcDbSymbolTableRecord
100
AcDbBlockTableRecord
  2
*Model_Space
  0
BLOCK_RECORD
  5
20D
100
AcDbSymbolTableRecord
100
AcDbBlockTableRecord
  2
*Paper_Space
  0
BLOCK_RECORD
  5
20E
100
AcDbSymbolTableRecord
100
AcDbBlockTableRecord
  2
SUN_FIRST_THIRD_ANGLE_BL0
  0
BLOCK_RECORD
  5
20F
100
AcDbSymbolTableRecord
100
AcDbBlockTableRecord
  2
*T1
  0
BLOCK_RECORD
  5
210
100
AcDbSymbolTableRecord
100
AcDbBlockTableRecord
  2
*T2
  0
BLOCK_RECORD
  5
211
100
AcDbSymbolTableRecord
100
AcDbBlockTableRecord
  2
*T3
  0
ENDTAB
  0
TABLE
  2
DIMSTYLE
  5
A
100
AcDbSymbolTable
 70
1
100
AcDbDimStyleTable
 71
0
  0
DIMSTYLE
105
212
100
AcDbSymbolTableRecord
100
AcDbDimStyleTableRecord
  2
STANDARD
 70
0
  3

  4

 40
1.0
 41
0.1875
 42
0.0625
 43
0.38
 44
0.125
 45
0.0
 46
0.0
 47
0.001
 48
0.001
140
0.1
141
0.09
142
0.0
143
25.4
144
1.0
145
0.0
146
1.0
147
0.09
 71
0.0
 72
0.0
 73
1
 74
1
 75
0
 76
0
 77
0
 78
4
170
0
171
2
172
0
173
0
174
0
175
0
176
0
177
0
178
0
270
2
271
3
272
3
273
2
274
2
275
0
280
0
281
0
282
0
283
1
284
4
285
0
286
0
287
3
288
0
340
11
278
46
  0
ENDTAB
  0
ENDSEC
  0
SECTION
  2
BLOCKS
  0
BLOCK
  5
20
100
AcDbEntity
  8
0
100
AcDbBlockBegin
  2
*Model_Space
 70
0
 10
0.0
 20
0.0
 30
0.0
  3
*Model_Space
  1

  0
ENDBLK
  5
21
100
AcDbEntity
  8
0
100
AcDbBlockEnd
  0
BLOCK
  5
1C
100
AcDbEntity
  8
0
100
AcDbBlockBegin
  2
*Paper_Space
 70
0
 10
0.0
 20
0.0
 30
0.0
  3
*Paper_Space
  1

  0
ENDBLK
  5
1D
100
AcDbEntity
  8
0
100
AcDbBlockEnd
  0
BLOCK
  5
213
100
AcDbEntity
  8
0
100
AcDbBlockBegin
 62
2
  6
CONTINUOUS
  2
SUN_FIRST_THIRD_ANGLE_BL0
 70
64
 10
20.4816717061
 20
1.2289683772
  3
SUN_FIRST_THIRD_ANGLE_BL0
  1

  0
TEXT
  5
214
100
AcDbEntity
  8
0
100
AcDbText
 62
2
  6
CONTINUOUS
 10
19.4750896608
 20
1.4136269581
  7
STANDARD
 40
0.08
  1
FIRST ANGLE
 41
0.8
 72
0
100
AcDbText
  0
TEXT
  5
215
100
AcDbEntity
  8
0
100
AcDbText
 62
2
  6
CONTINUOUS
 10
20.7842537513
 20
1.4047600029
  7
STANDARD
 40
0.08
  1
THIRD ANGLE
 41
0.8
 72
0
100
AcDbText
  0
LINE
  5
216
100
AcDbEntity
  8
0
100
AcDbLine
 62
7
  6
CONTINUOUS
 10
19.4767170086
 20
1.1727031207
 11
19.6334271527
 21
1.1717972817
  0
LINE
  5
217
100
AcDbEntity
  8
0
100
AcDbLine
 62
7
  6
CONTINUOUS
 10
19.6596964832
 20
1.1717972817
 11
19.6950230232
 21
1.171593082
  0
LINE
  5
218
100
AcDbEntity
  8
0
100
AcDbLine
 62
7
  6
CONTINUOUS
 10
19.7194818561
 20
1.1708914427
 11
19.8852396156
 21
1.1699333054
  0
LINE
  5
219
100
AcDbEntity
  8
0
100
AcDbLine
 62
7
  6
CONTINUOUS
 10
19.4758111696
 20
1.2723454088
 11
19.88525039
 21
1.3511534004
  0
LINE
  5
21A
100
AcDbEntity
  8
0
100
AcDbLine
 62
7
  6
CONTINUOUS
 10
19.88525039
 20
1.3511534004
 11
19.8831348489
 21
0.9851647912
  0
LINE
  5
21B
100
AcDbEntity
  8
0
100
AcDbLine
 62
7
  6
CONTINUOUS
 10
19.8831348489
 20
0.9851647912
 11
19.4767170086
 21
1.0658141206
  0
LINE
  5
21C
100
AcDbEntity
  8
0
100
AcDbLine
 62
7
  6
CONTINUOUS
 10
19.4767170086
 20
1.0658141206
 11
19.4779056764
 21
1.2714536432
  0
CIRCLE
  5
21D
100
AcDbEntity
  8
0
100
AcDbCircle
 62
7
  6
CONTINUOUS
 10
20.2068232291
 20
1.1717972817
 40
0.175742101
  0
CIRCLE
  5
21E
100
AcDbEntity
  8
0
100
AcDbCircle
 62
7
  6
CONTINUOUS
 10
20.2068232291
 20
1.1717972817
 40
0.1005522074
  0
LINE
  5
21F
100
AcDbEntity
  8
0
100
AcDbLine
 62
7
  6
CONTINUOUS
 10
20.2077290681
 20
1.3756110529
 11
20.2071171714
 21
1.2379342989
  0
LINE
  5
220
100
AcDbEntity
  8
0
100
AcDbLine
 62
7
  6
CONTINUOUS
 10
20.2077290681
 20
1.2016899681
 11
20.2074674401
 21
1.1428236749
  0
LINE
  5
221
100
AcDbEntity
  8
0
100
AcDbLine
 62
7
  6
CONTINUOUS
 10
20.208634907
 20
1.101141841
 11
20.2080230104
 21
0.963465087
  0
LINE
  5
222
100
AcDbEntity
  8
0
100
AcDbLine
 62
7
  6
CONTINUOUS
 10
20.0066328138
 20
1.1745147986
 11
20.1443095678
 21
1.1739029019
  0
LINE
  5
223
100
AcDbEntity
  8
0
100
AcDbLine
 62
7
  6
CONTINUOUS
 10
20.1832714155
 20
1.1727031207
 11
20.238153505
 21
1.172335442
  0
LINE
  5
224
100
AcDbEntity
  8
0
100
AcDbLine
 62
7
  6
CONTINUOUS
 10
20.2756669918
 20
1.1717972817
 11
20.407916871
 21
1.1712095044
  0
CIRCLE
  5
225
100
AcDbEntity
  8
0
100
AcDbCircle
 62
7
  6
CONTINUOUS
 10
20.7509457401
 20
1.1693297793
 40
0.1722024983
  0
CIRCLE
  5
226
100
AcDbEntity
  8
0
100
AcDbCircle
 62
7
  6
CONTINUOUS
 10
20.7509457401
 20
1.1693297793
 40
0.0985164967
  0
LINE
  5
227
100
AcDbEntity
  8
0
100
AcDbLine
 62
7
  6
CONTINUOUS
 10
20.7169767782
 20
1.170462078
 11
20.7825395137
 21
1.1682766535
  0
LINE
  5
228
100
AcDbEntity
  8
0
100
AcDbLine
 62
7
  6
CONTINUOUS
 10
20.8177513651
 20
1.1693297793
 11
20.947965719
 21
1.1693297793
  0
LINE
  5
229
100
AcDbEntity
  8
0
100
AcDbLine
 62
7
  6
CONTINUOUS
 10
20.6875370113
 20
1.170462078
 11
20.5573226574
 21
1.170462078
  0
LINE
  5
22A
100
AcDbEntity
  8
0
100
AcDbLine
 62
7
  6
CONTINUOUS
 10
20.7486811426
 20
1.1987695462
 11
20.7486811426
 21
1.1432869085
  0
LINE
  5
22B
100
AcDbEntity
  8
0
100
AcDbLine
 62
7
  6
CONTINUOUS
 10
20.7498134414
 20
1.1059210505
 11
20.7498134414
 21
0.9757066966
  0
LINE
  5
22C
100
AcDbEntity
  8
0
100
AcDbLine
 62
7
  6
CONTINUOUS
 10
20.7486811426
 20
1.2338708068
 11
20.7486811426
 21
1.3640851607
  0
LINE
  5
22D
100
AcDbEntity
  8
0
100
AcDbLine
 62
7
  6
CONTINUOUS
 10
21.0702539817
 20
1.2701043662
 11
21.4790138229
 21
1.3448360823
  0
LINE
  5
22E
100
AcDbEntity
  8
0
100
AcDbLine
 62
7
  6
CONTINUOUS
 10
21.4790138229
 20
1.3448360823
 11
21.4790138229
 21
0.9779712941
  0
LINE
  5
22F
100
AcDbEntity
  8
0
100
AcDbLine
 62
7
  6
CONTINUOUS
 10
21.4790138229
 20
0.9779712941
 11
21.069121683
 21
1.0617614
  0
LINE
  5
230
100
AcDbEntity
  8
0
100
AcDbLine
 62
7
  6
CONTINUOUS
 10
21.0702539817
 20
1.2701043662
 11
21.069121683
 21
1.0617614
  0
LINE
  5
231
100
AcDbEntity
  8
0
100
AcDbLine
 62
7
  6
CONTINUOUS
 10
21.4790138229
 20
1.1693297793
 11
21.3159628059
 21
1.1693297793
  0
LINE
  5
232
100
AcDbEntity
  8
0
100
AcDbLine
 62
7
  6
CONTINUOUS
 10
21.2876553377
 20
1.1693297793
 11
21.2502894796
 21
1.1693297793
  0
LINE
  5
233
100
AcDbEntity
  8
0
100
AcDbLine
 62
7
  6
CONTINUOUS
 10
21.2208497126
 20
1.1659328831
 11
21.0713862804
 21
1.1659328831
  0
LINE
  5
234
100
AcDbEntity
  8
0
100
AcDbLine
 62
7
  6
CONTINUOUS
 10
20.4796138713
 20
1.5284908897
 11
20.4766766948
 21
0.9294458646
  0
ENDBLK
  5
235
100
AcDbEntity
  8
0
  6
BYBLOCK
 62
0
100
AcDbBlockEnd
  0
BLOCK
  5
236
100
AcDbEntity
  8
0
100
AcDbBlockBegin
  2
*T1
 70
1
 10
0.0
 20
0.0
  3
*T1
  1

  0
LINE
  5
237
100
AcDbEntity
  8
0
100
AcDbLine
 62
2
  6
CONTINUOUS
 10
9.275
 20
0.0
 11
-0.0
 21
0.0
  0
LINE
  5
238
100
AcDbEntity
  8
0
100
AcDbLine
 62
2
  6
CONTINUOUS
 10
9.275
 20
0.0
 11
9.275
 21
1.25
  0
LINE
  5
239
100
AcDbEntity
  8
0
100
AcDbLine
 62
2
  6
CONTINUOUS
 10
9.275
 20
0.625
 11
-0.0
 21
0.625
  0
LINE
  5
23A
100
AcDbEntity
  8
0
100
AcDbLine
 62
2
  6
CONTINUOUS
 10
9.275
 20
1.25
 11
-0.0
 21
1.25
  0
LINE
  5
23B
100
AcDbEntity
  8
0
100
AcDbLine
 62
2
  6
CONTINUOUS
 10
6.8
 20
0.0
 11
6.8
 21
1.25
  0
LINE
  5
23C
100
AcDbEntity
  8
0
100
AcDbLine
 62
2
  6
CONTINUOUS
 10
6.4
 20
0.0
 11
6.4
 21
0.625
  0
LINE
  5
23D
100
AcDbEntity
  8
0
100
AcDbLine
 62
2
  6
CONTINUOUS
 10
5.9
 20
0.0
 11
5.9
 21
0.625
  0
LINE
  5
23E
100
AcDbEntity
  8
0
100
AcDbLine
 62
2
  6
CONTINUOUS
 10
5.2
 20
0.0
 11
5.2
 21
0.625
  0
LINE
  5
23F
100
AcDbEntity
  8
0
100
AcDbLine
 62
2
  6
CONTINUOUS
 10
4.1
 20
0.0
 11
4.1
 21
1.25
  0
LINE
  5
240
100
AcDbEntity
  8
0
100
AcDbLine
 62
2
  6
CONTINUOUS
 10
-0.0
 20
0.0
 11
-0.0
 21
1.25
  0
MTEXT
  5
241
100
AcDbEntity
  8
0
100
AcDbMText
 62
2
  6
CONTINUOUS
  7
STANDARD
 71
2
 72
1
 10
6.6
 20
0.325
 30
0.0
 11
1.0
 21
0.0
 31
0.0
 44
0.9
  1
2
 40
0.125
 41
0.2
  0
MTEXT
  5
242
100
AcDbEntity
  8
0
100
AcDbMText
 62
2
  6
CONTINUOUS
  7
STANDARD
 71
2
 72
1
 10
6.15
 20
0.325
 30
0.0
 11
1.0
 21
0.0
 31
0.0
 44
0.9
  1
C
 40
0.125
 41
0.2
  0
MTEXT
  5
243
100
AcDbEntity
  8
0
100
AcDbMText
 62
2
  6
CONTINUOUS
  7
STANDARD
 71
2
 72
1
 10
5.55
 20
0.325
 30
0.0
 11
1.0
 21
0.0
 31
0.0
 44
0.9
  1
1.000
 40
0.125
 41
1.0
  0
MTEXT
  5
244
100
AcDbEntity
  8
0
100
AcDbMText
 62
2
  6
CONTINUOUS
  7
STANDARD
 71
2
 72
1
 10
4.65
 20
0.325
 30
0.0
 11
1.0
 21
0.0
 31
0.0
 44
0.9
  1
Mar-18-20
 40
0.125
 41
1.8
  0
MTEXT
  5
245
100
AcDbEntity
  8
0
100
AcDbMText
 62
2
  6
CONTINUOUS
  7
STANDARD
 71
2
 72
1
 10
2.05
 20
0.4625
 30
0.0
 11
1.0
 21
0.0
 31
0.0
 44
0.9
  1
T-10A Subplate ISO 05\PP to T, side ports
 40
0.125
 41
4.2
  0
MTEXT
  5
246
100
AcDbEntity
  8
0
100
AcDbMText
 62
2
  6
CONTINUOUS
  7
STANDARD
 71
1
 72
1
 10
6.45
 20
0.5625
 30
0.0
 11
1.0
 21
0.0
 31
0.0
 44
0.9
  1
SHEET
 40
0.06
 41
0.48
  0
MTEXT
  5
247
100
AcDbEntity
  8
0
100
AcDbMText
 62
2
  6
CONTINUOUS
  7
STANDARD
 71
1
 72
1
 10
5.95
 20
0.5625
 30
0.0
 11
1.0
 21
0.0
 31
0.0
 44
0.9
  1
DWG SIZE
 40
0.06
 41
0.768
  0
MTEXT
  5
248
100
AcDbEntity
  8
0
100
AcDbMText
 62
2
  6
CONTINUOUS
  7
STANDARD
 71
1
 72
1
 10
5.25
 20
0.5625
 30
0.0
 11
1.0
 21
0.0
 31
0.0
 44
0.9
  1
SCALE
 40
0.06
 41
0.48
  0
MTEXT
  5
249
100
AcDbEntity
  8
0
100
AcDbMText
 62
2
  6
CONTINUOUS
  7
STANDARD
 71
1
 72
1
 10
4.15
 20
0.5625
 30
0.0
 11
1.0
 21
0.0
 31
0.0
 44
0.9
  1
DATE
 40
0.06
 41
0.384
  0
MTEXT
  5
24A
100
AcDbEntity
  8
0
100
AcDbMText
 62
2
  6
CONTINUOUS
  7
STANDARD
 71
1
 72
1
 10
0.05
 20
0.5625
 30
0.0
 11
1.0
 21
0.0
 31
0.0
 44
0.9
  1
DESCRIPTION
 40
0.06
 41
1.056
  0
MTEXT
  5
24B
100
AcDbEntity
  8
0
100
AcDbMText
 62
2
  6
CONTINUOUS
  7
STANDARD
 71
2
 72
1
 10
5.45
 20
1.0375
 30
0.0
 11
1.0
 21
0.0
 31
0.0
 44
0.9
  1
ALL DIMENSIONS IN INCH\PVIEWS ARE THIRD ANGLE
 40
0.12
 41
4.224
  0
MTEXT
  5
24C
100
AcDbEntity
  8
0
100
AcDbMText
 62
2
  6
CONTINUOUS
  7
STANDARD
 71
2
 72
1
 10
2.05
 20
0.95
 30
0.0
 11
1.0
 21
0.0
 31
0.0
 44
0.9
  1
FSL
 40
0.125
 41
0.6
  0
MTEXT
  5
24D
100
AcDbEntity
  8
0
100
AcDbMText
 62
2
  6
CONTINUOUS
  7
STANDARD
 71
1
 72
1
 10
0.05
 20
1.1875
 30
0.0
 11
1.0
 21
0.0
 31
0.0
 44
0.9
  1
MODEL
 40
0.06
 41
0.48
  0
ENDBLK
  5
24E
100
AcDbEntity
  8
0
  6
BYBLOCK
 62
0
100
AcDbBlockEnd
  0
BLOCK
  5
24F
100
AcDbEntity
  8
0
100
AcDbBlockBegin
  2
*T2
 70
1
 10
0.0
 20
0.0
  3
*T2
  1

  0
LINE
  5
250
100
AcDbEntity
  8
0
100
AcDbLine
 62
2
  6
CONTINUOUS
 10
0.0
 20
0.0
 11
9.055
 21
0.0
  0
LINE
  5
251
100
AcDbEntity
  8
0
100
AcDbLine
 62
2
  6
CONTINUOUS
 10
0.0
 20
0.0
 11
0.0
 21
-2.594
  0
LINE
  5
252
100
AcDbEntity
  8
0
100
AcDbLine
 62
2
  6
CONTINUOUS
 10
0.0
 20
-0.344
 11
9.055
 21
-0.344
  0
LINE
  5
253
100
AcDbEntity
  8
0
100
AcDbLine
 62
2
  6
CONTINUOUS
 10
0.0
 20
-0.594
 11
9.055
 21
-0.594
  0
LINE
  5
254
100
AcDbEntity
  8
0
100
AcDbLine
 62
2
  6
CONTINUOUS
 10
0.0
 20
-0.844
 11
9.055
 21
-0.844
  0
LINE
  5
255
100
AcDbEntity
  8
0
100
AcDbLine
 62
2
  6
CONTINUOUS
 10
0.0
 20
-1.094
 11
9.055
 21
-1.094
  0
LINE
  5
256
100
AcDbEntity
  8
0
100
AcDbLine
 62
2
  6
CONTINUOUS
 10
0.0
 20
-1.344
 11
9.055
 21
-1.344
  0
LINE
  5
257
100
AcDbEntity
  8
0
100
AcDbLine
 62
2
  6
CONTINUOUS
 10
0.0
 20
-1.594
 11
9.055
 21
-1.594
  0
LINE
  5
258
100
AcDbEntity
  8
0
100
AcDbLine
 62
2
  6
CONTINUOUS
 10
0.0
 20
-1.844
 11
9.055
 21
-1.844
  0
LINE
  5
259
100
AcDbEntity
  8
0
100
AcDbLine
 62
2
  6
CONTINUOUS
 10
0.0
 20
-2.094
 11
9.055
 21
-2.094
  0
LINE
  5
25A
100
AcDbEntity
  8
0
100
AcDbLine
 62
2
  6
CONTINUOUS
 10
0.0
 20
-2.344
 11
9.055
 21
-2.344
  0
LINE
  5
25B
100
AcDbEntity
  8
0
100
AcDbLine
 62
2
  6
CONTINUOUS
 10
0.0
 20
-2.594
 11
9.055
 21
-2.594
  0
LINE
  5
25C
100
AcDbEntity
  8
0
100
AcDbLine
 62
2
  6
CONTINUOUS
 10
3.055
 20
0.0
 11
3.055
 21
-2.594
  0
LINE
  5
25D
100
AcDbEntity
  8
0
100
AcDbLine
 62
2
  6
CONTINUOUS
 10
9.055
 20
0.0
 11
9.055
 21
-2.594
  0
MTEXT
  5
25E
100
AcDbEntity
  8
0
100
AcDbMText
 62
2
  6
CONTINUOUS
  7
STANDARD
 71
2
 72
1
 10
1.5275
 20
-0.0995
 30
0.0
 11
1.0
 21
0.0
 31
0.0
 44
0.9
  1
Technical Data
 40
0.145
 41
3.248
  0
MTEXT
  5
25F
100
AcDbEntity
  8
0
100
AcDbMText
 62
2
  6
CONTINUOUS
  7
STANDARD
 71
2
 72
1
 10
4.555
 20
-0.0995
 30
0.0
 11
1.0
 21
0.0
 31
0.0
 44
0.9
  1
U.S. Units
 40
0.145
 41
2.32
  0
MTEXT
  5
260
100
AcDbEntity
  8
0
100
AcDbMText
 62
2
  6
CONTINUOUS
  7
STANDARD
 71
2
 72
1
 10
7.555
 20
-0.0995
 30
0.0
 11
1.0
 21
0.0
 31
0.0
 44
0.9
  1
Metric Units
 40
0.145
 41
2.784
  0
MTEXT
  5
261
100
AcDbEntity
  8
0
100
AcDbMText
 62
2
  6
CONTINUOUS
  7
STANDARD
 71
2
 72
1
 10
1.5275
 20
-0.4065
 30
0.0
 11
1.0
 21
0.0
 31
0.0
 44
0.9
  1
Cavity
 40
0.125
 41
1.2
  0
MTEXT
  5
262
100
AcDbEntity
  8
0
100
AcDbMText
 62
2
  6
CONTINUOUS
  7
STANDARD
 71
2
 72
1
 10
6.055
 20
-0.4065
 30
0.0
 11
1.0
 21
0.0
 31
0.0
 44
0.9
  1
T-10A
 40
0.125
 41
1.0
  0
MTEXT
  5
263
100
AcDbEntity
  8
0
100
AcDbMText
 62
2
  6
CONTINUOUS
  7
STANDARD
 71
2
 72
1
 10
1.5275
 20
-0.6565
 30
0.0
 11
1.0
 21
0.0
 31
0.0
 44
0.9
  1
Body Features
 40
0.125
 41
2.6
  0
MTEXT
  5
264
100
AcDbEntity
  8
0
100
AcDbMText
 62
2
  6
CONTINUOUS
  7
STANDARD
 71
2
 72
1
 10
6.055
 20
-0.6565
 30
0.0
 11
1.0
 21
0.0
 31
0.0
 44
0.9
  1
P to T, side ports
 40
0.125
 41
3.6
  0
MTEXT
  5
265
100
AcDbEntity
  8
0
100
AcDbMText
 62
2
  6
CONTINUOUS
  7
STANDARD
 71
2
 72
1
 10
1.5275
 20
-0.9065
 30
0.0
 11
1.0
 21
0.0
 31
0.0
 44
0.9
  1
Body Type
 40
0.125
 41
1.8
  0
MTEXT
  5
266
100
AcDbEntity
  8
0
100
AcDbMText
 62
2
  6
CONTINUOUS
  7
STANDARD
 71
2
 72
1
 10
6.055
 20
-0.9065
 30
0.0
 11
1.0
 21
0.0
 31
0.0
 44
0.9
  1
Subplate
 40
0.125
 41
1.6
  0
MTEXT
  5
267
100
AcDbEntity
  8
0
100
AcDbMText
 62
2
  6
CONTINUOUS
  7
STANDARD
 71
2
 72
1
 10
1.5275
 20
-1.1565
 30
0.0
 11
1.0
 21
0.0
 31
0.0
 44
0.9
  1
Interface
 40
0.125
 41
1.8
  0
MTEXT
  5
268
100
AcDbEntity
  8
0
100
AcDbMText
 62
2
  6
CONTINUOUS
  7
STANDARD
 71
2
 72
1
 10
6.055
 20
-1.1565
 30
0.0
 11
1.0
 21
0.0
 31
0.0
 44
0.9
  1
ISO 05
 40
0.125
 41
1.2
  0
MTEXT
  5
269
100
AcDbEntity
  8
0
100
AcDbMText
 62
2
  6
CONTINUOUS
  7
STANDARD
 71
2
 72
1
 10
1.5275
 20
-1.4065
 30
0.0
 11
1.0
 21
0.0
 31
0.0
 44
0.9
  1
Open Cavity Quantity
 40
0.125
 41
4.0
  0
MTEXT
  5
26A
100
AcDbEntity
  8
0
100
AcDbMText
 62
2
  6
CONTINUOUS
  7
STANDARD
 71
2
 72
1
 10
6.055
 20
-1.4065
 30
0.0
 11
1.0
 21
0.0
 31
0.0
 44
0.9
  1
1
 40
0.125
 41
0.2
  0
MTEXT
  5
26B
100
AcDbEntity
  8
0
100
AcDbMText
 62
2
  6
CONTINUOUS
  7
STANDARD
 71
2
 72
1
 10
1.5275
 20
-1.6565
 30
0.0
 11
1.0
 21
0.0
 31
0.0
 44
0.9
  1
Weight
 40
0.125
 41
1.2
  0
MTEXT
  5
26C
100
AcDbEntity
  8
0
100
AcDbMText
 62
2
  6
CONTINUOUS
  7
STANDARD
 71
2
 72
1
 10
4.555
 20
-1.6565
 30
0.0
 11
1.0
 21
0.0
 31
0.0
 44
0.9
  1
3.097 lb.
 40
0.125
 41
1.8
  0
MTEXT
  5
26D
100
AcDbEntity
  8
0
100
AcDbMText
 62
2
  6
CONTINUOUS
  7
STANDARD
 71
2
 72
1
 10
7.555
 20
-1.6565
 30
0.0
 11
1.0
 21
0.0
 31
0.0
 44
0.9
  1
1,405 kg.
 40
0.125
 41
1.8
  0
MTEXT
  5
26E
100
AcDbEntity
  8
0
100
AcDbMText
 62
2
  6
CONTINUOUS
  7
STANDARD
 71
2
 72
1
 10
1.5275
 20
-1.9065
 30
0.0
 11
1.0
 21
0.0
 31
0.0
 44
0.9
  1
Mounting Hole Diameter
 40
0.125
 41
4.4
  0
MTEXT
  5
26F
100
AcDbEntity
  8
0
100
AcDbMText
 62
2
  6
CONTINUOUS
  7
STANDARD
 71
2
 72
1
 10
4.555
 20
-1.9065
 30
0.0
 11
1.0
 21
0.0
 31
0.0
 44
0.9
  1
.44 in.
 40
0.125
 41
1.4
  0
MTEXT
  5
270
100
AcDbEntity
  8
0
100
AcDbMText
 62
2
  6
CONTINUOUS
  7
STANDARD
 71
2
 72
1
 10
7.555
 20
-1.9065
 30
0.0
 11
1.0
 21
0.0
 31
0.0
 44
0.9
  1
11,1 mm
 40
0.125
 41
1.4
  0
MTEXT
  5
271
100
AcDbEntity
  8
0
100
AcDbMText
 62
2
  6
CONTINUOUS
  7
STANDARD
 71
2
 72
1
 10
1.5275
 20
-2.1565
 30
0.0
 11
1.0
 21
0.0
 31
0.0
 44
0.9
  1
Mounting Hole Depth
 40
0.125
 41
3.8
  0
MTEXT
  5
272
100
AcDbEntity
  8
0
100
AcDbMText
 62
2
  6
CONTINUOUS
  7
STANDARD
 71
2
 72
1
 10
6.055
 20
-2.1565
 30
0.0
 11
1.0
 21
0.0
 31
0.0
 44
0.9
  1
Through
 40
0.125
 41
1.4
  0
MTEXT
  5
273
100
AcDbEntity
  8
0
100
AcDbMText
 62
2
  6
CONTINUOUS
  7
STANDARD
 71
2
 72
1
 10
1.5275
 20
-2.4065
 30
0.0
 11
1.0
 21
0.0
 31
0.0
 44
0.9
  1
Mounting Hole Quantity
 40
0.125
 41
4.4
  0
MTEXT
  5
274
100
AcDbEntity
  8
0
100
AcDbMText
 62
2
  6
CONTINUOUS
  7
STANDARD
 71
2
 72
1
 10
6.055
 20
-2.4065
 30
0.0
 11
1.0
 21
0.0
 31
0.0
 44
0.9
  1
4
 40
0.125
 41
0.2
  0
ENDBLK
  5
275
100
AcDbEntity
  8
0
  6
BYBLOCK
 62
0
100
AcDbBlockEnd
  0
BLOCK
  5
276
100
AcDbEntity
  8
0
100
AcDbBlockBegin
  2
*T3
 70
1
 10
0.0
 20
0.0
  3
*T3
  1

  0
LINE
  5
277
100
AcDbEntity
  8
0
100
AcDbLine
 62
2
  6
CONTINUOUS
 10
0.0
 20
0.0
 11
4.6
 21
0.0
  0
LINE
  5
278
100
AcDbEntity
  8
0
100
AcDbLine
 62
2
  6
CONTINUOUS
 10
0.0
 20
0.0
 11
0.0
 21
-0.93775
  0
LINE
  5
279
100
AcDbEntity
  8
0
100
AcDbLine
 62
2
  6
CONTINUOUS
 10
0.0
 20
-0.34375
 11
4.6
 21
-0.34375
  0
LINE
  5
27A
100
AcDbEntity
  8
0
100
AcDbLine
 62
2
  6
CONTINUOUS
 10
0.0
 20
-0.68775
 11
4.6
 21
-0.68775
  0
LINE
  5
27B
100
AcDbEntity
  8
0
100
AcDbLine
 62
2
  6
CONTINUOUS
 10
0.0
 20
-0.93775
 11
4.6
 21
-0.93775
  0
LINE
  5
27C
100
AcDbEntity
  8
0
100
AcDbLine
 62
2
  6
CONTINUOUS
 10
1.3
 20
-0.34375
 11
1.3
 21
-0.93775
  0
LINE
  5
27D
100
AcDbEntity
  8
0
100
AcDbLine
 62
2
  6
CONTINUOUS
 10
3.3
 20
-0.34375
 11
3.3
 21
-0.93775
  0
LINE
  5
27E
100
AcDbEntity
  8
0
100
AcDbLine
 62
2
  6
CONTINUOUS
 10
4.6
 20
0.0
 11
4.6
 21
-0.93775
  0
MTEXT
  5
27F
100
AcDbEntity
  8
0
100
AcDbMText
 62
2
  6
CONTINUOUS
  7
STANDARD
 71
2
 72
1
 10
2.3
 20
-0.099375
 30
0.0
 11
1.0
 21
0.0
 31
0.0
 44
0.9
  1
Port Headings
 40
0.145
 41
3.016
  0
MTEXT
  5
280
100
AcDbEntity
  8
0
100
AcDbMText
 62
2
  6
CONTINUOUS
  7
STANDARD
 71
2
 72
1
 10
0.65
 20
-0.44325
 30
0.0
 11
1.0
 21
0.0
 31
0.0
 44
0.9
  1
Product
 40
0.145
 41
1.624
  0
MTEXT
  5
281
100
AcDbEntity
  8
0
100
AcDbMText
 62
2
  6
CONTINUOUS
  7
STANDARD
 71
2
 72
1
 10
2.3
 20
-0.44325
 30
0.0
 11
1.0
 21
0.0
 31
0.0
 44
0.9
  1
Port
 40
0.145
 41
0.928
  0
MTEXT
  5
282
100
AcDbEntity
  8
0
100
AcDbMText
 62
2
  6
CONTINUOUS
  7
STANDARD
 71
2
 72
1
 10
3.95
 20
-0.44325
 30
0.0
 11
1.0
 21
0.0
 31
0.0
 44
0.9
  1
Size
 40
0.145
 41
0.928
  0
MTEXT
  5
283
100
AcDbEntity
  8
0
100
AcDbMText
 62
2
  6
CONTINUOUS
  7
STANDARD
 71
2
 72
1
 10
0.65
 20
-0.75025
 30
0.0
 11
1.0
 21
0.0
 31
0.0
 44
0.9
  1
FSL
 40
0.125
 41
0.6
  0
MTEXT
  5
284
100
AcDbEntity
  8
0
100
AcDbMText
 62
2
  6
CONTINUOUS
  7
STANDARD
 71
2
 72
1
 10
2.3
 20
-0.75025
 30
0.0
 11
1.0
 21
0.0
 31
0.0
 44
0.9
  1
Ports A, B, P, T
 40
0.125
 41
3.2
  0
MTEXT
  5
285
100
AcDbEntity
  8
0
100
AcDbMText
 62
2
  6
CONTINUOUS
  7
STANDARD
 71
2
 72
1
 10
3.95
 20
-0.75025
 30
0.0
 11
1.0
 21
0.0
 31
0.0
 44
0.9
  1
SAE 12
 40
0.125
 41
1.2
  0
ENDBLK
  5
286
100
AcDbEntity
  8
0
  6
BYBLOCK
 62
0
100
AcDbBlockEnd
  0
ENDSEC
  0
SECTION
  2
ENTITIES
  0
IMAGE
  5
287
100
AcDbEntity
  8
0
100
AcDbRasterImage
 62
7
  6
CONTINUOUS
 10
19.2297077316
 20
0.3094318264
 30
0.0
 11
0.0066666667
 21
0.0
 31
0.0
 12
0.0
 22
0.0066666667
 32
0.0
 13
369.0
 23
92.0
340
       3A6
 70
9
280
0
281
50
282
50
283
0
360
       3A0
 71
1
 91
2
 14
-0.5
 24
-0.5
 14
368.5
 24
91.5
  0
INSERT
  5
288
100
AcDbEntity
  8
0
100
AcDbBlockReference
 62
2
  6
CONTINUOUS
  2
SUN_FIRST_THIRD_ANGLE_BL0
 10
20.4816717061
 20
1.2289683772
  0
ACAD_TABLE
  5
289
100
AcDbEntity
  8
0
 62
2
  6
CONTINUOUS
100
AcDbBlockReference
  2
*T1
 10
12.42375
 20
0.30125
 30
0.0
100
AcDbTable
342
       3A8
343
20F
 11
1.0
 21
0.0
 31
0.0
 90
6
 91
4
 92
6
 93
20
 94
0
 95
0
 96
0
 70
1
 41
0.0
141
0.525
141
0.1
141
0.525
141
0.1
142
4.1
142
1.1
142
0.7
142
0.5
142
0.4
142
2.475
171
1
172
0
173
0
174
0
175
1
176
1
 91
33
178
0
145
0.0
301
CELL_VALUE
 90
4
  1
T-10A Subplate ISO 05\PP to T, side ports
304
ACVALUE_END
170
2
140
0.125
171
1
172
0
173
0
174
0
175
1
176
1
 91
33
178
0
145
0.0
301
CELL_VALUE
 90
4
  1
Mar-18-20
304
ACVALUE_END
170
5
140
0.125
171
1
172
0
173
0
174
0
175
1
176
1
 91
33
178
0
145
0.0
301
CELL_VALUE
 90
4
  1
1.000
304
ACVALUE_END
170
5
140
0.125
171
1
172
0
173
0
174
0
175
1
176
1
 91
33
178
0
145
0.0
301
CELL_VALUE
 90
4
  1
C
304
ACVALUE_END
170
5
140
0.125
171
1
172
0
173
0
174
0
175
1
176
1
 91
33
178
0
145
0.0
301
CELL_VALUE
 90
4
  1
2
304
ACVALUE_END
170
5
140
0.125
171
1
172
0
173
0
174
0
175
1
176
1
 91
33
178
0
145
0.0
301
CELL_VALUE
 90
4
  1
 
304
ACVALUE_END
170
1
140
0.125
171
1
172
0
173
0
174
0
175
1
176
1
 91
33
178
0
145
0.0
301
CELL_VALUE
 90
4
  1
DESCRIPTION
304
ACVALUE_END
170
1
140
0.06
171
1
172
0
173
0
174
0
175
1
176
1
 91
33
178
0
145
0.0
301
CELL_VALUE
 90
4
  1
DATE
304
ACVALUE_END
170
1
140
0.06
171
1
172
0
173
0
174
0
175
1
176
1
 91
33
178
0
145
0.0
301
CELL_VALUE
 90
4
  1
SCALE
304
ACVALUE_END
170
1
140
0.06
171
1
172
0
173
0
174
0
175
1
176
1
 91
33
178
0
145
0.0
301
CELL_VALUE
 90
4
  1
DWG SIZE
304
ACVALUE_END
170
1
140
0.06
171
1
172
0
173
0
174
0
175
1
176
1
 91
33
178
0
145
0.0
301
CELL_VALUE
 90
4
  1
SHEET
304
ACVALUE_END
170
1
140
0.06
171
1
172
0
173
0
174
0
175
1
176
1
 91
33
178
0
145
0.0
301
CELL_VALUE
 90
4
  1
 
304
ACVALUE_END
170
1
140
0.125
171
1
172
0
173
0
174
0
175
1
176
1
 91
33
178
0
145
0.0
301
CELL_VALUE
 90
4
  1
FSL
304
ACVALUE_END
170
5
140
0.125
171
1
172
0
173
0
174
0
175
4
176
1
 91
33
178
0
145
0.0
301
CELL_VALUE
 90
4
  1
ALL DIMENSIONS IN INCH\PVIEWS ARE THIRD ANGLE
304
ACVALUE_END
170
5
140
0.12
171
1
172
0
173
1
174
0
175
1
176
1
 91
1
178
0
145
0.0
170
1
171
1
172
0
173
1
174
0
175
1
176
1
 91
1
178
0
145
0.0
170
1
171
1
172
0
173
1
174
0
175
1
176
1
 91
1
178
0
145
0.0
170
5
171
1
172
0
173
0
174
0
175
1
176
1
 91
33
178
0
145
0.0
301
CELL_VALUE
 90
4
  1
 
304
ACVALUE_END
170
1
140
0.125
171
1
172
0
173
0
174
0
175
1
176
1
 91
33
178
0
145
0.0
301
CELL_VALUE
 90
4
  1
MODEL
304
ACVALUE_END
170
1
140
0.06
171
1
172
0
173
0
174
0
175
1
176
1
 91
33
178
0
145
0.0
301
CELL_VALUE
 90
4
  1
 
304
ACVALUE_END
170
1
140
0.125
171
1
172
0
173
0
174
0
175
1
176
1
 91
33
178
0
145
0.0
301
CELL_VALUE
 90
4
  1
 
304
ACVALUE_END
170
1
140
0.125
171
1
172
0
173
0
174
0
175
1
176
1
 91
33
178
0
145
0.0
301
CELL_VALUE
 90
4
  1
 
304
ACVALUE_END
170
1
140
0.125
171
1
172
0
173
0
174
0
175
1
176
1
 91
33
178
0
145
0.0
301
CELL_VALUE
 90
4
  1
 
304
ACVALUE_END
170
1
140
0.125
171
1
172
0
173
0
174
0
175
1
176
1
 91
33
178
0
145
0.0
301
CELL_VALUE
 90
4
  1
 
304
ACVALUE_END
170
1
140
0.125
  0
ACAD_TABLE
  5
28A
100
AcDbEntity
  8
0
 62
2
  6
CONTINUOUS
100
AcDbBlockReference
  2
*T2
 10
12.4237499994
 20
16.47875
 30
0.0
100
AcDbTable
342
       3A7
343
210
 11
1.0
 21
0.0
 31
0.0
 90
22
 91
10
 92
3
 93
16
 94
0
 95
0
 96
0
 41
0.028
141
0.344
141
0.25
141
0.25
141
0.25
141
0.25
141
0.25
141
0.25
141
0.25
141
0.25
141
0.25
142
3.055
142
3.0
142
3.0
171
1
172
0
173
0
174
0
175
1
176
1
 91
33
178
0
145
0.0
301
CELL_VALUE
 90
4
  1
Technical Data
304
ACVALUE_END
170
5
140
0.145
171
1
172
0
173
0
174
0
175
1
176
1
 91
33
178
0
145
0.0
301
CELL_VALUE
 90
4
  1
U.S. Units
304
ACVALUE_END
170
5
140
0.145
171
1
172
0
173
0
174
0
175
1
176
1
 91
33
178
0
145
0.0
301
CELL_VALUE
 90
4
  1
Metric Units
304
ACVALUE_END
170
5
140
0.145
171
1
172
0
173
0
174
0
175
1
176
1
 91
33
178
0
145
0.0
301
CELL_VALUE
 90
4
  1
Cavity
304
ACVALUE_END
170
5
140
0.125
171
1
172
0
173
0
174
0
175
2
176
1
 91
33
178
0
145
0.0
301
CELL_VALUE
 90
4
  1
T-10A
304
ACVALUE_END
170
5
140
0.125
171
1
172
0
173
1
174
0
175
1
176
1
 91
1
178
0
145
0.0
170
1
171
1
172
0
173
0
174
0
175
1
176
1
 91
33
178
0
145
0.0
301
CELL_VALUE
 90
4
  1
Body Features
304
ACVALUE_END
170
5
140
0.125
171
1
172
0
173
0
174
0
175
2
176
1
 91
33
178
0
145
0.0
301
CELL_VALUE
 90
4
  1
P to T, side ports
304
ACVALUE_END
170
5
140
0.125
171
1
172
0
173
1
174
0
175
1
176
1
 91
1
178
0
145
0.0
170
1
171
1
172
0
173
0
174
0
175
1
176
1
 91
33
178
0
145
0.0
301
CELL_VALUE
 90
4
  1
Body Type
304
ACVALUE_END
170
5
140
0.125
171
1
172
0
173
0
174
0
175
2
176
1
 91
33
178
0
145
0.0
301
CELL_VALUE
 90
4
  1
Subplate
304
ACVALUE_END
170
5
140
0.125
171
1
172
0
173
1
174
0
175
1
176
1
 91
1
178
0
145
0.0
170
1
171
1
172
0
173
0
174
0
175
1
176
1
 91
33
178
0
145
0.0
301
CELL_VALUE
 90
4
  1
Interface
304
ACVALUE_END
170
5
140
0.125
171
1
172
0
173
0
174
0
175
2
176
1
 91
33
178
0
145
0.0
301
CELL_VALUE
 90
4
  1
ISO 05
304
ACVALUE_END
170
5
140
0.125
171
1
172
0
173
1
174
0
175
1
176
1
 91
1
178
0
145
0.0
170
1
171
1
172
0
173
0
174
0
175
1
176
1
 91
33
178
0
145
0.0
301
CELL_VALUE
 90
4
  1
Open Cavity Quantity
304
ACVALUE_END
170
5
140
0.125
171
1
172
0
173
0
174
0
175
2
176
1
 91
33
178
0
145
0.0
301
CELL_VALUE
 90
4
  1
1
304
ACVALUE_END
170
5
140
0.125
171
1
172
0
173
1
174
0
175
1
176
1
 91
1
178
0
145
0.0
170
1
171
1
172
0
173
0
174
0
175
1
176
1
 91
33
178
0
145
0.0
301
CELL_VALUE
 90
4
  1
Weight
304
ACVALUE_END
170
5
140
0.125
171
1
172
0
173
0
174
0
175
1
176
1
 91
33
178
0
145
0.0
301
CELL_VALUE
 90
4
  1
3.097 lb.
304
ACVALUE_END
170
5
140
0.125
171
1
172
0
173
0
174
0
175
1
176
1
 91
33
178
0
145
0.0
301
CELL_VALUE
 90
4
  1
1,405 kg.
304
ACVALUE_END
170
5
140
0.125
171
1
172
0
173
0
174
0
175
1
176
1
 91
33
178
0
145
0.0
301
CELL_VALUE
 90
4
  1
Mounting Hole Diameter
304
ACVALUE_END
170
5
140
0.125
171
1
172
0
173
0
174
0
175
1
176
1
 91
33
178
0
145
0.0
301
CELL_VALUE
 90
4
  1
.44 in.
304
ACVALUE_END
170
5
140
0.125
171
1
172
0
173
0
174
0
175
1
176
1
 91
33
178
0
145
0.0
301
CELL_VALUE
 90
4
  1
11,1 mm
304
ACVALUE_END
170
5
140
0.125
171
1
172
0
173
0
174
0
175
1
176
1
 91
33
178
0
145
0.0
301
CELL_VALUE
 90
4
  1
Mounting Hole Depth
304
ACVALUE_END
170
5
140
0.125
171
1
172
0
173
0
174
0
175
2
176
1
 91
33
178
0
145
0.0
301
CELL_VALUE
 90
4
  1
Through
304
ACVALUE_END
170
5
140
0.125
171
1
172
0
173
1
174
0
175
1
176
1
 91
1
178
0
145
0.0
170
1
171
1
172
0
173
0
174
0
175
1
176
1
 91
33
178
0
145
0.0
301
CELL_VALUE
 90
4
  1
Mounting Hole Quantity
304
ACVALUE_END
170
5
140
0.125
171
1
172
0
173
0
174
0
175
2
176
1
 91
33
178
0
145
0.0
301
CELL_VALUE
 90
4
  1
4
304
ACVALUE_END
170
5
140
0.125
171
1
172
0
173
1
174
0
175
1
176
1
 91
1
178
0
145
0.0
170
1
  0
ACAD_TABLE
  5
28B
100
AcDbEntity
  8
0
 62
2
  6
CONTINUOUS
100
AcDbBlockReference
  2
*T3
 10
0.52125
 20
1.459
 30
0.0
100
AcDbTable
342
       3A7
343
211
 11
1.0
 21
0.0
 31
0.0
 90
22
 91
3
 92
3
 93
16
 94
0
 95
0
 96
0
 41
0.05
141
0.34375
141
0.344
141
0.25
142
1.3
142
2.0
142
1.3
171
1
172
0
173
0
174
0
175
3
176
1
 91
33
178
0
145
0.0
301
CELL_VALUE
 90
4
  1
Port Headings
304
ACVALUE_END
170
5
140
0.145
171
1
172
0
173
1
174
0
175
1
176
1
 91
1
178
0
145
0.0
170
1
171
1
172
0
173
1
174
0
175
1
176
1
 91
1
178
0
145
0.0
170
1
171
1
172
0
173
0
174
0
175
1
176
1
 91
33
178
0
145
0.0
301
CELL_VALUE
 90
4
  1
Product
304
ACVALUE_END
170
5
140
0.145
171
1
172
0
173
0
174
0
175
1
176
1
 91
33
178
0
145
0.0
301
CELL_VALUE
 90
4
  1
Port
304
ACVALUE_END
170
5
140
0.145
171
1
172
0
173
0
174
0
175
1
176
1
 91
33
178
0
145
0.0
301
CELL_VALUE
 90
4
  1
Size
304
ACVALUE_END
170
5
140
0.145
171
1
172
0
173
0
174
0
175
1
176
1
 91
33
178
0
145
0.0
301
CELL_VALUE
 90
4
  1
FSL
304
ACVALUE_END
170
5
140
0.125
171
1
172
0
173
0
174
0
175
1
176
1
 91
33
178
0
145
0.0
301
CELL_VALUE
 90
4
  1
Ports A, B, P, T
304
ACVALUE_END
170
5
140
0.125
171
1
172
0
173
0
174
0
175
1
176
1
 91
33
178
0
145
0.0
301
CELL_VALUE
 90
4
  1
SAE 12
304
ACVALUE_END
170
5
140
0.125
  0
MTEXT
  5
28C
100
AcDbEntity
  8
0
100
AcDbMText
 62
2
  6
CONTINUOUS
  7
STANDARD
 71
1
 72
1
 10
0.52125
 20
5.75995
 30
0.0
 11
1.0
 21
0.0
 31
0.0
 44
0.6
  3
Notes\P \P1. Important: Carefully consider\P   the maximum system pressure. The\P   pressure rating of the manifold is\P   dependent on the manifold material,\P   with the port type/size a secondary\P   consideration. Manifolds\P   constructed of alu
  1
minum are not\P   rated for pressures higher than\P   3000 psi (210 bar), regardless of\P   the port type/size specified.
 40
0.1
 41
3.04
  0
LINE
  5
28D
100
AcDbEntity
  8
0
100
AcDbLine
 62
7
  6
CONTINUOUS
 10
0.30125
 20
0.30125
 11
0.30125
 21
16.69875
  0
LINE
  5
28E
100
AcDbEntity
  8
0
100
AcDbLine
 62
7
  6
CONTINUOUS
 10
0.30125
 20
0.30125
 11
21.69875
 21
0.30125
  0
LINE
  5
28F
100
AcDbEntity
  8
0
100
AcDbLine
 62
7
  6
CONTINUOUS
 10
0.30125
 20
16.69875
 11
21.69875
 21
16.69875
  0
LINE
  5
290
100
AcDbEntity
  8
0
100
AcDbLine
 62
7
  6
CONTINUOUS
 10
21.69875
 20
0.30125
 11
21.69875
 21
16.69875
  0
LINE
  5
291
100
AcDbEntity
  8
0
100
AcDbLine
 62
7
  6
CONTINUOUS
 10
8.785000436
 20
10.533807827
 11
9.3512960299
 21
11.080807399
  0
LINE
  5
292
100
AcDbEntity
  8
02___PRT_ALL_AXES
100
AcDbLine
 62
7
  6
CONTINUOUS
 10
10.0073164946
 20
10.7929615081
 11
10.0066480305
 21
10.7923288954
  0
LINE
  5
293
100
AcDbEntity
  8
02___PRT_ALL_AXES
100
AcDbLine
 62
7
  6
CONTINUOUS
 10
9.9620309985
 20
10.7508195922
 11
10.0073123547
 21
10.7929586477
  0
LINE
  5
294
100
AcDbEntity
  8
0
100
AcDbLine
 62
7
  6
CONTINUOUS
 10
12.6487039701
 20
5.919192601
 11
8.785000436
 21
6.1871413512
  0
LINE
  5
295
100
AcDbEntity
  8
0
100
AcDbLine
 62
4
  6
CONTINUOUS
 10
10.6733855937
 20
6.1817519082
 11
10.7168522574
 21
6.1787374849
  0
LINE
  5
296
100
AcDbEntity
  8
0
100
AcDbLine
 62
7
  6
CONTINUOUS
 10
8.785000436
 20
6.1871413512
 11
8.785000436
 21
10.533807827
  0
LINE
  5
297
100
AcDbEntity
  8
0
100
AcDbLine
 62
4
  6
CONTINUOUS
 10
8.9371337597
 20
7.5626945649
 11
8.9371337597
 21
7.4467834615
  0
LINE
  5
298
100
AcDbEntity
  8
0
100
AcDbLine
 62
4
  6
CONTINUOUS
 10
11.6356316172
 20
6.2695678134
 11
11.6011342572
 21
6.2719602134
  0
LINE
  5
299
100
AcDbEntity
  8
0
100
AcDbLine
 62
4
  6
CONTINUOUS
 10
11.5597374527
 20
6.2748310916
 11
11.5390390274
 21
6.2762665322
  0
LINE
  5
29A
100
AcDbEntity
  8
0
100
AcDbLine
 62
4
  6
CONTINUOUS
 10
11.486143103
 20
6.279934877
 11
11.4585452333
 21
6.2818487958
  0
LINE
  5
29B
100
AcDbEntity
  8
0
100
AcDbLine
 62
4
  6
CONTINUOUS
 10
11.0813741506
 20
6.3080056992
 11
11.046876802
 21
6.3103980985
  0
LINE
  5
29C
100
AcDbEntity
  8
0
100
AcDbLine
 62
4
  6
CONTINUOUS
 10
11.2998573908
 20
6.2928538351
 11
11.3412542183
 21
6.2899829553
  0
LINE
  5
29D
100
AcDbEntity
  8
0
100
AcDbLine
 62
4
  6
CONTINUOUS
 10
11.6885275878
 20
6.2658994654
 11
11.7299243922
 21
6.2630285872
  0
LINE
  5
29E
100
AcDbEntity
  8
0
100
AcDbLine
 62
4
  6
CONTINUOUS
 10
11.1434693861
 20
6.3312972641
 11
11.1802665609
 21
6.3287453713
  0
LINE
  5
29F
100
AcDbEntity
  8
0
100
AcDbLine
 62
4
  6
CONTINUOUS
 10
11.7161254574
 20
6.3191813147
 11
11.6885275878
 21
6.3210952334
  0
LINE
  5
2A0
100
AcDbEntity
  8
0
100
AcDbLine
 62
4
  6
CONTINUOUS
 10
11.3274552834
 20
6.3461356828
 11
11.2998573908
 21
6.3480496031
  0
LINE
  5
2A1
100
AcDbEntity
  8
0
100
AcDbLine
 62
4
  6
CONTINUOUS
 10
11.046876802
 20
6.4069906883
 11
11.0813741506
 21
6.404598289
  0
LINE
  5
2A2
100
AcDbEntity
  8
0
100
AcDbLine
 62
4
  6
CONTINUOUS
 10
11.2170637358
 20
6.3951881843
 11
11.2722594981
 21
6.3913603452
  0
LINE
  5
2A3
100
AcDbEntity
  8
0
100
AcDbLine
 62
4
  6
CONTINUOUS
 10
11.2998573908
 20
6.3894464249
 11
11.3412542183
 21
6.3865755451
  0
LINE
  5
2A4
100
AcDbEntity
  8
0
100
AcDbLine
 62
4
  6
CONTINUOUS
 10
11.4585452333
 20
6.3784413856
 11
11.486143103
 21
6.3765274668
  0
LINE
  5
2A5
100
AcDbEntity
  8
0
100
AcDbLine
 62
4
  6
CONTINUOUS
 10
11.5390390274
 20
6.372859122
 11
11.5597374527
 21
6.3714236813
  0
LINE
  5
2A6
100
AcDbEntity
  8
0
100
AcDbLine
 62
4
  6
CONTINUOUS
 10
11.6011342572
 20
6.3685528032
 11
11.6356316172
 21
6.3661604032
  0
LINE
  5
2A7
100
AcDbEntity
  8
0
100
AcDbLine
 62
4
  6
CONTINUOUS
 10
11.6885275878
 20
6.3624920551
 11
11.7299243922
 21
6.359621177
  0
LINE
  5
2A8
100
AcDbEntity
  8
0
100
AcDbLine
 62
4
  6
CONTINUOUS
 10
11.3792013304
 20
6.4998550117
 11
11.4067992116
 21
6.4979410921
  0
LINE
  5
2A9
100
AcDbEntity
  8
0
100
AcDbLine
 62
4
  6
CONTINUOUS
 10
11.4481960391
 20
6.4950702124
 11
11.4826933876
 21
6.4926778132
  0
LINE
  5
2AA
100
AcDbEntity
  8
0
100
AcDbLine
 62
4
  6
CONTINUOUS
 10
11.344703979
 20
6.5574431792
 11
11.3033071544
 21
6.5603140587
  0
LINE
  5
2AB
100
AcDbEntity
  8
0
100
AcDbLine
 62
4
  6
CONTINUOUS
 10
11.3033071544
 20
6.6017108805
 11
11.344703979
 21
6.5988400009
  0
LINE
  5
2AC
100
AcDbEntity
  8
0
100
AcDbLine
 62
4
  6
CONTINUOUS
 10
11.3861008036
 20
6.5959691214
 11
11.4136986905
 21
6.5940552014
  0
LINE
  5
2AD
100
AcDbEntity
  8
0
100
AcDbLine
 62
4
  6
CONTINUOUS
 10
10.991681034
 20
6.3556227626
 11
11.0284782117
 21
6.3346722808
  0
LINE
  5
2AE
100
AcDbEntity
  8
0
100
AcDbLine
 62
4
  6
CONTINUOUS
 10
11.3136564876
 20
6.7615208367
 11
11.3274554224
 21
6.7605638773
  0
LINE
  5
2AF
100
AcDbEntity
  8
0
100
AcDbLine
 62
4
  6
CONTINUOUS
 10
11.7759210573
 20
6.7524609156
 11
11.7483230956
 21
6.7543748407
  0
LINE
  5
2B0
100
AcDbEntity
  8
0
100
AcDbLine
 62
4
  6
CONTINUOUS
 10
11.6632296719
 20
6.7602760897
 11
11.649430737
 21
6.7612330491
  0
LINE
  5
2B1
100
AcDbEntity
  8
0
100
AcDbLine
 62
4
  6
CONTINUOUS
 10
11.5459386568
 20
6.7684102492
 11
11.5183407872
 21
6.770324168
  0
LINE
  5
2B2
100
AcDbEntity
  8
0
100
AcDbLine
 62
4
  6
CONTINUOUS
 10
11.4148487069
 20
6.7775013681
 11
11.3872508373
 21
6.7794152869
  0
LINE
  5
2B3
100
AcDbEntity
  8
0
100
AcDbLine
 62
4
  6
CONTINUOUS
 10
10.9479845342
 20
6.8098785085
 11
10.9755824175
 21
6.8079645888
  0
LINE
  5
2B4
100
AcDbEntity
  8
0
100
AcDbLine
 62
4
  6
CONTINUOUS
 10
11.0307781798
 20
6.8041367497
 11
11.0514765993
 21
6.8027013094
  0
LINE
  5
2B5
100
AcDbEntity
  8
0
100
AcDbLine
 62
4
  6
CONTINUOUS
 10
11.5804360169
 20
6.7660178492
 11
11.614933377
 21
6.7636254491
  0
LINE
  5
2B6
100
AcDbEntity
  8
0
100
AcDbLine
 62
4
  6
CONTINUOUS
 10
11.8104183713
 20
6.7500685187
 11
11.838016241
 21
6.7481546
  0
LINE
  5
2B7
100
AcDbEntity
  8
0
100
AcDbLine
 62
4
  6
CONTINUOUS
 10
11.5183407872
 20
6.8048215223
 11
11.5459386568
 21
6.8029076036
  0
LINE
  5
2B8
100
AcDbEntity
  8
0
100
AcDbLine
 62
4
  6
CONTINUOUS
 10
11.5390392124
 20
6.837883436
 11
11.5045418523
 21
6.840275836
  0
LINE
  5
2B9
100
AcDbEntity
  8
0
100
AcDbLine
 62
4
  6
CONTINUOUS
 10
11.2446617674
 20
6.8582985811
 11
11.2791591275
 21
6.8559061811
  0
LINE
  5
2BA
100
AcDbEntity
  8
0
100
AcDbLine
 62
4
  6
CONTINUOUS
 10
11.3872508373
 20
6.8484099955
 11
11.4148487069
 21
6.8464960768
  0
LINE
  5
2BB
100
AcDbEntity
  8
0
100
AcDbLine
 62
4
  6
CONTINUOUS
 10
11.4424466226
 20
6.8445821548
 11
11.4700444923
 21
6.8426682361
  0
LINE
  5
2BC
100
AcDbEntity
  8
0
100
AcDbLine
 62
4
  6
CONTINUOUS
 10
11.7483230956
 20
6.8233695494
 11
11.7759210573
 21
6.8214556242
  0
LINE
  5
2BD
100
AcDbEntity
  8
0
100
AcDbLine
 62
4
  6
CONTINUOUS
 10
11.8104183713
 20
6.8190632274
 11
11.838016241
 21
6.8171493086
  0
LINE
  5
2BE
100
AcDbEntity
  8
0
100
AcDbLine
 62
4
  6
CONTINUOUS
 10
10.9548840052
 20
6.9059926183
 11
10.9824818878
 21
6.9040786987
  0
LINE
  5
2BF
100
AcDbEntity
  8
0
100
AcDbLine
 62
4
  6
CONTINUOUS
 10
11.7046264763
 20
6.8539978014
 11
11.7069262911
 21
6.8538383087
  0
LINE
  5
2C0
100
AcDbEntity
  8
0
100
AcDbLine
 62
4
  6
CONTINUOUS
 10
11.1925707548
 20
10.2219533732
 11
11.1780818669
 21
10.2132989246
  0
LINE
  5
2C1
100
AcDbEntity
  8
0
100
AcDbLine
 62
4
  6
CONTINUOUS
 10
11.838016241
 20
6.7803521309
 11
11.8104183713
 21
6.7868656965
  0
LINE
  5
2C2
100
AcDbEntity
  8
0
100
AcDbLine
 62
4
  6
CONTINUOUS
 10
11.7575222619
 20
6.3209100834
 11
11.7943194367
 21
6.2999596003
  0
LINE
  5
2C3
100
AcDbEntity
  8
0
100
AcDbLine
 62
4
  6
CONTINUOUS
 10
11.0813741506
 20
6.404598289
 11
11.0951730912
 21
6.3898423887
  0
LINE
  5
2C4
100
AcDbEntity
  8
0
100
AcDbLine
 62
4
  6
CONTINUOUS
 10
11.3872508373
 20
6.7794152869
 11
11.3734519025
 21
6.7872717173
  0
LINE
  5
2C5
100
AcDbEntity
  8
0
100
AcDbLine
 62
4
  6
CONTINUOUS
 10
11.5183407872
 20
6.770324168
 11
11.5045418523
 21
6.7781805984
  0
LINE
  5
2C6
100
AcDbEntity
  8
0
100
AcDbLine
 62
4
  6
CONTINUOUS
 10
10.9893813581
 20
6.834605513
 11
10.9410850632
 21
6.8793516971
  0
LINE
  5
2C7
100
AcDbEntity
  8
0
100
AcDbLine
 62
4
  6
CONTINUOUS
 10
11.4205981579
 20
6.524582016
 11
11.372301863
 21
6.5693282
  0
LINE
  5
2C8
100
AcDbEntity
  8
0
100
AcDbLine
 62
4
  6
CONTINUOUS
 10
10.9410850632
 20
6.8172564594
 11
10.9479845342
 21
6.8098785085
  0
LINE
  5
2C9
100
AcDbEntity
  8
0
100
AcDbLine
 62
4
  6
CONTINUOUS
 10
11.4585452333
 20
6.2818487958
 11
11.4447462985
 21
6.2966046972
  0
LINE
  5
2CA
100
AcDbEntity
  8
0
100
AcDbLine
 62
4
  6
CONTINUOUS
 10
11.0169792393
 20
6.8188926515
 11
11.0307781798
 21
6.8041367497
  0
LINE
  5
2CB
100
AcDbEntity
  8
0
100
AcDbLine
 62
4
  6
CONTINUOUS
 10
11.5390390274
 20
6.2762665322
 11
11.5252400926
 21
6.2910224336
  0
LINE
  5
2CC
100
AcDbEntity
  8
0
100
AcDbLine
 62
4
  6
CONTINUOUS
 10
11.1998151988
 20
10.2311102325
 11
11.1925707548
 21
10.2219533732
  0
LINE
  5
2CD
100
AcDbEntity
  8
0
100
AcDbLine
 62
4
  6
CONTINUOUS
 10
8.9009115399
 20
7.5652065844
 11
8.9733559795
 21
7.5601825454
  0
LINE
  5
2CE
100
AcDbEntity
  8
0
100
AcDbLine
 62
4
  6
CONTINUOUS
 10
11.8104183713
 20
6.7868656965
 11
11.803518927
 21
6.7919438214
  0
LINE
  5
2CF
100
AcDbEntity
  8
0
100
AcDbLine
 62
4
  6
CONTINUOUS
 10
11.8449156854
 20
6.7752740059
 11
11.838016241
 21
6.7803521309
  0
LINE
  5
2D0
100
AcDbEntity
  8
0
100
AcDbLine
 62
4
  6
CONTINUOUS
 10
10.9824818878
 20
6.9040786987
 11
10.9893813581
 21
6.8967007456
  0
LINE
  5
2D1
100
AcDbEntity
  8
0
100
AcDbLine
 62
4
  6
CONTINUOUS
 10
11.372301863
 20
6.5072329624
 11
11.3792013304
 21
6.4998550117
  0
LINE
  5
2D2
100
AcDbEntity
  8
0
100
AcDbLine
 62
4
  6
CONTINUOUS
 10
11.5597374527
 20
6.3714236813
 11
11.5735363875
 21
6.3566677814
  0
LINE
  5
2D3
100
AcDbEntity
  8
0
100
AcDbLine
 62
4
  6
CONTINUOUS
 10
11.4136986905
 20
6.5940552014
 11
11.4205981579
 21
6.5866772486
  0
LINE
  5
2D4
100
AcDbEntity
  8
0
100
AcDbLine
 62
4
  6
CONTINUOUS
 10
11.6356316172
 20
6.3661604032
 11
11.649430552
 21
6.3514045032
  0
LINE
  5
2D5
100
AcDbEntity
  8
0
100
AcDbLine
 62
4
  6
CONTINUOUS
 10
11.2791591275
 20
6.8559061811
 11
11.2860585949
 21
6.8485282282
  0
LINE
  5
2D6
100
AcDbEntity
  8
0
100
AcDbLine
 62
4
  6
CONTINUOUS
 10
10.6951189256
 20
6.2575187644
 11
10.7313411454
 21
6.1390956415
  0
LINE
  5
2D7
100
AcDbEntity
  8
0
100
AcDbLine
 62
7
  6
CONTINUOUS
 10
10.217295886
 20
10.8196544285
 11
10.217295886
 21
10.7357864054
  0
LINE
  5
2D8
100
AcDbEntity
  8
0
100
AcDbLine
 62
4
  6
CONTINUOUS
 10
11.5735365264
 20
6.7733958015
 11
11.5804360169
 21
6.7660178492
  0
LINE
  5
2D9
100
AcDbEntity
  8
0
100
AcDbLine
 62
4
  6
CONTINUOUS
 10
11.649430737
 20
6.7612330491
 11
11.6425312466
 21
6.7686110014
  0
LINE
  5
2DA
100
AcDbEntity
  8
0
100
AcDbLine
 62
7
  6
CONTINUOUS
 10
10.3918489651
 20
10.8075491313
 11
10.3918489651
 21
10.7502661903
  0
LINE
  5
2DB
100
AcDbEntity
  8
0
100
AcDbLine
 62
4
  6
CONTINUOUS
 10
11.7483230956
 20
6.7543748407
 11
11.7414236512
 21
6.7617527898
  0
LINE
  5
2DC
100
AcDbEntity
  8
0
100
AcDbLine
 62
4
  6
CONTINUOUS
 10
11.803518927
 20
6.7574464678
 11
11.8104183713
 21
6.7500685187
  0
LINE
  5
2DD
100
AcDbEntity
  8
0
100
AcDbLine
 62
4
  6
CONTINUOUS
 10
11.838016241
 20
6.8171493086
 11
11.8449156854
 21
6.8097713574
  0
LINE
  5
2DE
100
AcDbEntity
  8
0
100
AcDbLine
 62
4
  6
CONTINUOUS
 10
11.4700444923
 20
6.8426682361
 11
11.4746441219
 21
6.8354497775
  0
LINE
  5
2DF
100
AcDbEntity
  8
0
100
AcDbLine
 62
4
  6
CONTINUOUS
 10
11.0928734153
 20
6.8964230202
 11
11.1411697102
 21
6.796481071
  0
LINE
  5
2E0
100
AcDbEntity
  8
0
100
AcDbLine
 62
4
  6
CONTINUOUS
 10
12.4844964966
 20
8.1367550686
 11
12.5352076044
 21
8.1332382413
  0
LINE
  5
2E1
100
AcDbEntity
  8
0
100
AcDbLine
 62
4
  6
CONTINUOUS
 10
11.5459386568
 20
6.8236060173
 11
11.5390392124
 21
6.837883436
  0
LINE
  5
2E2
100
AcDbEntity
  8
0
100
AcDbLine
 62
4
  6
CONTINUOUS
 10
11.1618679735
 20
6.3990160234
 11
11.1894658662
 21
6.3005095133
  0
LINE
  5
2E3
100
AcDbEntity
  8
0
100
AcDbLine
 62
4
  6
CONTINUOUS
 10
10.9410850632
 20
6.8793516971
 11
10.9410850632
 21
6.8931506376
  0
LINE
  5
2E4
100
AcDbEntity
  8
0
100
AcDbLine
 62
4
  6
CONTINUOUS
 10
10.9893813581
 20
6.820806571
 11
10.9893813581
 21
6.834605513
  0
LINE
  5
2E5
100
AcDbEntity
  8
0
100
AcDbLine
 62
4
  6
CONTINUOUS
 10
11.0169792393
 20
6.9016862992
 11
11.0169792393
 21
6.8188926515
  0
LINE
  5
2E6
100
AcDbEntity
  8
0
100
AcDbLine
 62
7
  6
CONTINUOUS
 10
12.6487039701
 20
10.2658590769
 11
13.214999564
 21
10.8128586488
  0
LINE
  5
2E7
100
AcDbEntity
  8
0
100
AcDbLine
 62
4
  6
CONTINUOUS
 10
12.4844964966
 20
8.2043698766
 11
12.5352076044
 21
8.2008530493
  0
LINE
  5
2E8
100
AcDbEntity
  8
0
100
AcDbLine
 62
4
  6
CONTINUOUS
 10
12.5352076044
 20
8.2491493447
 11
12.4844964966
 21
8.252666172
  0
LINE
  5
2E9
100
AcDbEntity
  8
0
100
AcDbLine
 62
4
  6
CONTINUOUS
 10
11.3136564876
 20
6.853513781
 11
11.3343549128
 21
6.7830836317
  0
LINE
  5
2EA
100
AcDbEntity
  8
0
100
AcDbLine
 62
4
  6
CONTINUOUS
 10
11.046876802
 20
6.3103980985
 11
11.046876802
 21
6.4069906883
  0
LINE
  5
2EB
100
AcDbEntity
  8
0
100
AcDbLine
 62
4
  6
CONTINUOUS
 10
11.0652755342
 20
6.815543292
 11
11.0652755342
 21
6.8983369398
  0
LINE
  5
2EC
100
AcDbEntity
  8
0
100
AcDbLine
 62
4
  6
CONTINUOUS
 10
11.0928734153
 20
6.7998304305
 11
11.0928734153
 21
6.8964230202
  0
LINE
  5
2ED
100
AcDbEntity
  8
0
100
AcDbLine
 62
4
  6
CONTINUOUS
 10
11.0951730912
 20
6.3898423887
 11
11.0951730912
 21
6.3208476815
  0
LINE
  5
2EE
100
AcDbEntity
  8
0
100
AcDbLine
 62
4
  6
CONTINUOUS
 10
11.1411697102
 20
6.796481071
 11
11.1411697102
 21
6.8930736608
  0
LINE
  5
2EF
100
AcDbEntity
  8
0
100
AcDbLine
 62
4
  6
CONTINUOUS
 10
11.141859647
 20
10.1578553924
 11
11.141859647
 21
10.2737664958
  0
LINE
  5
2F0
100
AcDbEntity
  8
0
100
AcDbLine
 62
4
  6
CONTINUOUS
 10
11.1998151988
 20
10.2504287451
 11
11.1998151988
 21
10.2311102325
  0
LINE
  5
2F1
100
AcDbEntity
  8
0
100
AcDbLine
 62
4
  6
CONTINUOUS
 10
11.2446616285
 20
6.2966816742
 11
11.2446616285
 21
6.393274264
  0
LINE
  5
2F2
100
AcDbEntity
  8
0
100
AcDbLine
 62
4
  6
CONTINUOUS
 10
11.2446617674
 20
6.7893038725
 11
11.2446617674
 21
6.8858964623
  0
LINE
  5
2F3
100
AcDbEntity
  8
0
100
AcDbLine
 62
4
  6
CONTINUOUS
 10
11.2860585949
 20
6.8485282282
 11
11.2860585949
 21
6.7864329927
  0
LINE
  5
2F4
100
AcDbEntity
  8
0
100
AcDbLine
 62
4
  6
CONTINUOUS
 10
11.2998573908
 20
6.2928538351
 11
11.2998573908
 21
6.3894464249
  0
LINE
  5
2F5
100
AcDbEntity
  8
0
100
AcDbLine
 62
4
  6
CONTINUOUS
 10
11.3033071544
 20
6.5051182907
 11
11.3033071544
 21
6.6017108805
  0
LINE
  5
2F6
100
AcDbEntity
  8
0
100
AcDbLine
 62
4
  6
CONTINUOUS
 10
11.372301863
 20
6.5693282
 11
11.372301863
 21
6.5831271406
  0
LINE
  5
2F7
100
AcDbEntity
  8
0
100
AcDbLine
 62
4
  6
CONTINUOUS
 10
11.3734519025
 20
6.7872717173
 11
11.3734519025
 21
6.8424674817
  0
LINE
  5
2F8
100
AcDbEntity
  8
0
100
AcDbLine
 62
4
  6
CONTINUOUS
 10
11.4148487069
 20
6.8740939579
 11
11.4148487069
 21
6.7775013681
  0
LINE
  5
2F9
100
AcDbEntity
  8
0
100
AcDbLine
 62
4
  6
CONTINUOUS
 10
11.4205981579
 20
6.510783074
 11
11.4205981579
 21
6.524582016
  0
LINE
  5
2FA
100
AcDbEntity
  8
0
100
AcDbLine
 62
4
  6
CONTINUOUS
 10
11.4424466226
 20
6.7755874462
 11
11.4424466226
 21
6.8445821548
  0
LINE
  5
2FB
100
AcDbEntity
  8
0
100
AcDbLine
 62
4
  6
CONTINUOUS
 10
11.4447462985
 20
6.2966046972
 11
11.4447462985
 21
6.3655994044
  0
LINE
  5
2FC
100
AcDbEntity
  8
0
100
AcDbLine
 62
4
  6
CONTINUOUS
 10
11.4481960391
 20
6.5916628022
 11
11.4481960391
 21
6.4950702124
  0
LINE
  5
2FD
100
AcDbEntity
  8
0
100
AcDbLine
 62
4
  6
CONTINUOUS
 10
11.4746441219
 20
6.8354497775
 11
11.4746441219
 21
6.8216508369
  0
LINE
  5
2FE
100
AcDbEntity
  8
0
100
AcDbLine
 62
4
  6
CONTINUOUS
 10
10.6588967057
 20
6.1441196804
 11
10.6951189256
 21
6.2575187644
  0
LINE
  5
2FF
100
AcDbEntity
  8
0
100
AcDbLine
 62
4
  6
CONTINUOUS
 10
11.5045418523
 20
6.7781805984
 11
11.5045418523
 21
6.7988790114
  0
LINE
  5
300
100
AcDbEntity
  8
0
100
AcDbLine
 62
4
  6
CONTINUOUS
 10
11.5252400926
 20
6.2910224336
 11
11.5252400926
 21
6.3600171408
  0
LINE
  5
301
100
AcDbEntity
  8
0
100
AcDbLine
 62
4
  6
CONTINUOUS
 10
11.5459386568
 20
6.7684102492
 11
11.5459386568
 21
6.8236060173
  0
LINE
  5
302
100
AcDbEntity
  8
0
100
AcDbLine
 62
4
  6
CONTINUOUS
 10
11.5735363875
 20
6.3566677814
 11
11.5735363875
 21
6.2876730742
  0
LINE
  5
303
100
AcDbEntity
  8
0
100
AcDbLine
 62
4
  6
CONTINUOUS
 10
11.5735365264
 20
6.8354910391
 11
11.5735365264
 21
6.7733958015
  0
LINE
  5
304
100
AcDbEntity
  8
0
100
AcDbLine
 62
4
  6
CONTINUOUS
 10
11.6011342572
 20
6.2719602134
 11
11.6011342572
 21
6.3685528032
  0
LINE
  5
305
100
AcDbEntity
  8
0
100
AcDbLine
 62
4
  6
CONTINUOUS
 10
11.614933377
 20
6.7636254491
 11
11.614933377
 21
6.8326201578
  0
LINE
  5
306
100
AcDbEntity
  8
0
100
AcDbLine
 62
4
  6
CONTINUOUS
 10
11.6425312466
 20
6.7686110014
 11
11.6425312466
 21
6.8583041202
  0
LINE
  5
307
100
AcDbEntity
  8
0
100
AcDbLine
 62
4
  6
CONTINUOUS
 10
11.649430552
 20
6.3514045032
 11
11.649430552
 21
6.282409796
  0
LINE
  5
308
100
AcDbEntity
  8
0
100
AcDbLine
 62
4
  6
CONTINUOUS
 10
11.6885275878
 20
6.2658994654
 11
11.6885275878
 21
6.3624920551
  0
LINE
  5
309
100
AcDbEntity
  8
0
100
AcDbLine
 62
4
  6
CONTINUOUS
 10
11.7046264763
 20
6.7574052116
 11
11.7046264763
 21
6.8263999202
  0
LINE
  5
30A
100
AcDbEntity
  8
0
100
AcDbLine
 62
4
  6
CONTINUOUS
 10
11.7046264763
 20
6.8470983282
 11
11.7046264763
 21
6.8539978014
  0
LINE
  5
30B
100
AcDbEntity
  8
0
100
AcDbLine
 62
4
  6
CONTINUOUS
 10
11.7414236512
 20
6.7617527898
 11
11.7414236512
 21
6.8169485543
  0
LINE
  5
30C
100
AcDbEntity
  8
0
100
AcDbLine
 62
4
  6
CONTINUOUS
 10
11.803518927
 20
6.7919438214
 11
11.803518927
 21
6.8126422323
  0
LINE
  5
30D
100
AcDbEntity
  8
0
100
AcDbLine
 62
4
  6
CONTINUOUS
 10
11.8449156854
 20
6.7545755929
 11
11.8449156854
 21
6.7752740059
  0
LINE
  5
30E
100
AcDbEntity
  8
0
100
AcDbLine
 62
4
  6
CONTINUOUS
 10
11.1342700923
 20
6.3043373532
 11
11.1618679735
 21
6.3990160234
  0
LINE
  5
30F
100
AcDbEntity
  8
0
100
AcDbLine
 62
4
  6
CONTINUOUS
 10
11.3274554224
 20
6.7605638773
 11
11.355053292
 21
6.8506429029
  0
LINE
  5
310
100
AcDbEntity
  8
0
100
AcDbLine
 62
4
  6
CONTINUOUS
 10
10.9410850632
 20
6.8931506376
 11
10.9548840052
 21
6.9059926183
  0
LINE
  5
311
100
AcDbEntity
  8
0
100
AcDbLine
 62
7
  6
CONTINUOUS
 10
10.0895141994
 20
10.786582107
 11
10.1362855918
 21
10.7414044884
  0
LINE
  5
312
100
AcDbEntity
  8
0
100
AcDbLine
 62
4
  6
CONTINUOUS
 10
12.5496964923
 20
8.1805297255
 11
12.5352076044
 21
8.2008530493
  0
LINE
  5
313
100
AcDbEntity
  8
0
100
AcDbLine
 62
4
  6
CONTINUOUS
 10
12.5424520483
 20
8.2389876845
 11
12.5352076044
 21
8.2491493447
  0
LINE
  5
314
100
AcDbEntity
  8
0
100
AcDbLine
 62
4
  6
CONTINUOUS
 10
11.7069262911
 20
6.8538383087
 11
11.7046264763
 21
6.8470983282
  0
LINE
  5
315
100
AcDbEntity
  8
0
100
AcDbLine
 62
4
  6
CONTINUOUS
 10
12.5352076044
 20
8.2008530493
 11
12.5424520483
 21
8.2100099087
  0
LINE
  5
316
100
AcDbEntity
  8
0
100
AcDbLine
 62
4
  6
CONTINUOUS
 10
10.9755824175
 20
6.8079645888
 11
10.9893813581
 21
6.820806571
  0
LINE
  5
317
100
AcDbEntity
  8
0
100
AcDbLine
 62
4
  6
CONTINUOUS
 10
11.0514765993
 20
6.8027013094
 11
11.0652755342
 21
6.815543292
  0
LINE
  5
318
100
AcDbEntity
  8
02___PRT_ALL_AXES
100
AcDbLine
 62
7
  6
CONTINUOUS
 10
10.5661035584
 20
10.7508195922
 11
10.5208222022
 21
10.7929586477
  0
LINE
  5
319
100
AcDbEntity
  8
0
100
AcDbLine
 62
7
  6
CONTINUOUS
 10
10.4386203575
 20
10.7623715127
 11
10.3918489651
 21
10.8075491313
  0
LINE
  5
31A
100
AcDbEntity
  8
0
100
AcDbLine
 62
4
  6
CONTINUOUS
 10
11.1925707548
 20
10.2605904122
 11
11.1998151988
 21
10.2504287451
  0
LINE
  5
31B
100
AcDbEntity
  8
0
100
AcDbLine
 62
4
  6
CONTINUOUS
 10
12.4844964966
 20
8.252666172
 11
12.4844964966
 21
8.1367550686
  0
LINE
  5
31C
100
AcDbEntity
  8
0
100
AcDbLine
 62
4
  6
CONTINUOUS
 10
12.5424520483
 20
8.2100099087
 11
12.5424520483
 21
8.2389876845
  0
LINE
  5
31D
100
AcDbEntity
  8
0
100
AcDbLine
 62
4
  6
CONTINUOUS
 10
12.5496964923
 20
8.1515519513
 11
12.5496964923
 21
8.1805297255
  0
LINE
  5
31E
100
AcDbEntity
  8
0
100
AcDbLine
 62
4
  6
CONTINUOUS
 10
12.5352076044
 20
8.1332382413
 11
12.5496964923
 21
8.1515519513
  0
LINE
  5
31F
100
AcDbEntity
  8
0
100
AcDbLine
 62
4
  6
CONTINUOUS
 10
11.1780818669
 20
10.2712544763
 11
11.1925707548
 21
10.2605904122
  0
LINE
  5
320
100
AcDbEntity
  8
0
100
AcDbLine
 62
7
  6
CONTINUOUS
 10
12.6487039701
 20
10.2658590769
 11
12.6487039701
 21
5.919192601
  0
LINE
  5
321
100
AcDbEntity
  8
0
100
AcDbLine
 62
4
  6
CONTINUOUS
 10
11.372301863
 20
6.5831271406
 11
11.3861008036
 21
6.5959691214
  0
LINE
  5
322
100
AcDbEntity
  8
0
100
AcDbLine
 62
4
  6
CONTINUOUS
 10
11.0951730912
 20
6.3208476815
 11
11.0813741506
 21
6.3080056992
  0
LINE
  5
323
100
AcDbEntity
  8
0
100
AcDbLine
 62
4
  6
CONTINUOUS
 10
11.7414236512
 20
6.8169485543
 11
11.7483230956
 21
6.8233695494
  0
LINE
  5
324
100
AcDbEntity
  8
0
100
AcDbLine
 62
4
  6
CONTINUOUS
 10
11.4067992116
 20
6.4979410921
 11
11.4205981579
 21
6.510783074
  0
LINE
  5
325
100
AcDbEntity
  8
0
100
AcDbLine
 62
4
  6
CONTINUOUS
 10
11.803518927
 20
6.8126422323
 11
11.8104183713
 21
6.8190632274
  0
LINE
  5
326
100
AcDbEntity
  8
0
100
AcDbLine
 62
4
  6
CONTINUOUS
 10
11.3734519025
 20
6.8424674817
 11
11.3872508373
 21
6.8484099955
  0
LINE
  5
327
100
AcDbEntity
  8
0
100
AcDbLine
 62
4
  6
CONTINUOUS
 10
11.5045418523
 20
6.7988790114
 11
11.5183407872
 21
6.8048215223
  0
LINE
  5
328
100
AcDbEntity
  8
0
100
AcDbLine
 62
4
  6
CONTINUOUS
 10
11.1780818669
 20
10.2132989246
 11
11.141859647
 21
10.2158109441
  0
LINE
  5
329
100
AcDbEntity
  8
0
100
AcDbLine
 62
4
  6
CONTINUOUS
 10
11.141859647
 20
10.2737664958
 11
11.1780818669
 21
10.2712544763
  0
LINE
  5
32A
100
AcDbEntity
  8
0
100
AcDbLine
 62
4
  6
CONTINUOUS
 10
11.838016241
 20
6.7481546
 11
11.8449156854
 21
6.7545755929
  0
LINE
  5
32B
100
AcDbEntity
  8
0
100
AcDbLine
 62
4
  6
CONTINUOUS
 10
11.4447462985
 20
6.3655994044
 11
11.4585452333
 21
6.3784413856
  0
LINE
  5
32C
100
AcDbEntity
  8
0
100
AcDbLine
 62
4
  6
CONTINUOUS
 10
11.5252400926
 20
6.3600171408
 11
11.5390390274
 21
6.372859122
  0
LINE
  5
32D
100
AcDbEntity
  8
0
100
AcDbLine
 62
4
  6
CONTINUOUS
 10
11.5735363875
 20
6.2876730742
 11
11.5597374527
 21
6.2748310916
  0
LINE
  5
32E
100
AcDbEntity
  8
0
100
AcDbLine
 62
4
  6
CONTINUOUS
 10
11.649430552
 20
6.282409796
 11
11.6356316172
 21
6.2695678134
  0
LINE
  5
32F
100
AcDbEntity
  8
0
100
AcDbLine
 62
4
  6
CONTINUOUS
 10
11.0284782117
 20
6.37146946
 11
10.991681034
 21
6.3556227626
  0
LINE
  5
330
100
AcDbEntity
  8
0
100
AcDbLine
 62
7
  6
CONTINUOUS
 10
8.785000436
 20
10.533807827
 11
12.6487039701
 21
10.2658590769
  0
LINE
  5
331
100
AcDbEntity
  8
0
100
AcDbLine
 62
7
  6
CONTINUOUS
 10
13.214999564
 20
10.8128586488
 11
13.214999564
 21
6.466192173
  0
LINE
  5
332
100
AcDbEntity
  8
0
100
AcDbLine
 62
7
  6
CONTINUOUS
 10
10.1362855918
 20
10.7414044884
 11
10.3108386708
 21
10.7292991913
  0
LINE
  5
333
100
AcDbEntity
  8
0
100
AcDbLine
 62
7
  6
CONTINUOUS
 10
10.3918489651
 20
10.8075491313
 11
10.217295886
 21
10.8196544285
  0
LINE
  5
334
100
AcDbEntity
  8
0
100
AcDbLine
 62
4
  6
CONTINUOUS
 10
11.7943194367
 20
6.2999596003
 11
11.7575222619
 21
6.2841129042
  0
LINE
  5
335
100
AcDbEntity
  8
0
100
AcDbLine
 62
7
  6
CONTINUOUS
 10
10.3108386708
 20
10.7292991913
 11
10.4386203575
 21
10.7623715127
  0
LINE
  5
336
100
AcDbEntity
  8
0
100
AcDbLine
 62
7
  6
CONTINUOUS
 10
10.217295886
 20
10.8196544285
 11
10.0895141994
 21
10.786582107
  0
LINE
  5
337
100
AcDbEntity
  8
0
100
AcDbLine
 62
7
  6
CONTINUOUS
 10
9.3512960299
 20
11.080807399
 11
13.214999564
 21
10.8128586488
  0
LINE
  5
338
100
AcDbEntity
  8
0
100
AcDbLine
 62
7
  6
CONTINUOUS
 10
12.6487039701
 20
5.919192601
 11
13.214999564
 21
6.466192173
  0
ARC
  5
339
100
AcDbEntity
  8
0
100
AcDbCircle
 62
7
  6
CONTINUOUS
 10
10.2225064983
 20
8.21292412
 40
0.1932459114
100
AcDbArc
 50
260.7987006577
 51
262.2720444388
  0
ARC
  5
33A
100
AcDbEntity
  8
0
100
AcDbCircle
 62
7
  6
CONTINUOUS
 10
10.3052258273
 20
8.175217655
 40
0.1883235737
100
AcDbArc
 50
234.7447758223
 51
253.8245865288
  0
ARC
  5
33B
100
AcDbEntity
  8
0
100
AcDbCircle
 62
7
  6
CONTINUOUS
 10
10.3036681585
 20
8.1141379507
 40
0.1449725511
100
AcDbArc
 50
215.8004418253
 51
219.3768224367
  0
ARC
  5
33C
100
AcDbEntity
  8
0
100
AcDbCircle
 62
7
  6
CONTINUOUS
 10
10.0989780287
 20
9.3477181255
 40
0.1204890005
100
AcDbArc
 50
216.0335857955
 51
232.0498253923
  0
ARC
  5
33D
100
AcDbEntity
  8
0
100
AcDbCircle
 62
7
  6
CONTINUOUS
 10
12.1506046753
 20
9.2054373343
 40
0.1204890005
100
AcDbArc
 50
216.0335857955
 51
232.0498253923
  0
ARC
  5
33E
100
AcDbEntity
  8
0
100
AcDbCircle
 62
7
  6
CONTINUOUS
 10
12.1506046753
 20
7.4542137424
 40
0.1204890005
100
AcDbArc
 50
216.0335857955
 51
232.0498253923
  0
ARC
  5
33F
100
AcDbEntity
  8
0
100
AcDbCircle
 62
7
  6
CONTINUOUS
 10
10.0989780287
 20
7.5964945336
 40
0.1204890005
100
AcDbArc
 50
216.0335857955
 51
232.0498253923
  0
SPLINE
  5
340
100
AcDbEntity
  8
02___PRT_ALL_AXES
100
AcDbSpline
 62
7
  6
CONTINUOUS
 70
0
 71
3
 72
53
 73
49
 74
0
 42
0.0000001
 43
0.0000001
 44
0.0000000001
 40
0.0
 40
0.0
 40
0.0
 40
0.0
 40
0.0077399799
 40
0.016052723
 40
0.0249584452
 40
0.0344694493
 40
0.0445919455
 40
0.0553282332
 40
0.0666760418
 40
0.0786293088
 40
0.0911799795
 40
0.1043171166
 40
0.1180270071
 40
0.1322948172
 40
0.1471037888
 40
0.1624349045
 40
0.1945821942
 40
0.228562875
 40
0.2641846289
 40
0.3012393068
 40
0.3395067188
 40
0.3787566322
 40
0.4187502166
 40
0.4592430662
 40
0.4999866025
 40
0.5407302327
 40
0.5812234957
 40
0.621217678
 40
0.6604684099
 40
0.6987370149
 40
0.7357929206
 40
0.771416211
 40
0.8053987248
 40
0.8375477888
 40
0.852880078
 40
0.867690042
 40
0.881958799
 40
0.8956699692
 40
0.908808293
 40
0.9213600874
 40
0.9333147703
 40
0.9446636624
 40
0.955400558
 40
0.9655241806
 40
0.9750369576
 40
0.9839452147
 40
0.9922603618
 40
1.0
 40
1.0
 40
1.0
 40
1.0
 10
10.5208243414
 20
10.7929565582
 30
0.0
 10
10.5198220443
 20
10.7938893553
 30
0.0
 10
10.517664452
 20
10.7957402984
 30
0.0
 10
10.5141250404
 20
10.7983840808
 30
0.0
 10
10.5101751609
 20
10.8009878407
 30
0.0
 10
10.505821414
 20
10.8035476039
 30
0.0
 10
10.5010706818
 20
10.8060597043
 30
0.0
 10
10.495930352
 20
10.8085197976
 30
0.0
 10
10.4904087208
 20
10.8109240047
 30
0.0
 10
10.4845148133
 20
10.8132686412
 30
0.0
 10
10.4782580708
 20
10.8155495876
 30
0.0
 10
10.4716486953
 20
10.8177630864
 30
0.0
 10
10.4646975786
 20
10.8199057349
 30
0.0
 10
10.457416028
 20
10.8219737669
 30
0.0
 10
10.4498159543
 20
10.8239637271
 30
0.0
 10
10.4391045179
 20
10.8265497562
 30
0.0
 10
10.4250067929
 20
10.8295486189
 30
0.0
 10
10.4072888202
 20
10.8327342827
 30
0.0
 10
10.3886284866
 20
10.8355395223
 30
0.0
 10
10.3691485247
 20
10.8379458572
 30
0.0
 10
10.3489769035
 20
10.8399371521
 30
0.0
 10
10.3282462963
 20
10.8414998232
 30
0.0
 10
10.3070931267
 20
10.8426236842
 30
0.0
 10
10.2856566629
 20
10.8433011571
 30
0.0
 10
10.2640780307
 20
10.8435275305
 30
0.0
 10
10.2424993221
 20
10.8433015651
 30
0.0
 10
10.2210626456
 20
10.8426246288
 30
0.0
 10
10.1999091308
 20
10.8415011473
 30
0.0
 10
10.1791780308
 20
10.8399388907
 30
0.0
 10
10.1590057839
 20
10.8379480975
 30
0.0
 10
10.1395250758
 20
10.8355420888
 30
0.0
 10
10.1208638619
 20
10.8327372499
 30
0.0
 10
10.1031448821
 20
10.8295520343
 30
0.0
 10
10.0890462593
 20
10.8265533359
 30
0.0
 10
10.0783340269
 20
10.8239676366
 30
0.0
 10
10.0707333435
 20
10.8219778275
 30
0.0
 10
10.0634511763
 20
10.8199098852
 30
0.0
 10
10.0564993573
 20
10.8177674682
 30
0.0
 10
10.0498892678
 20
10.8155540961
 30
0.0
 10
10.0436318288
 20
10.8132731383
 30
0.0
 10
10.0377371572
 20
10.8109286943
 30
0.0
 10
10.0322148342
 20
10.8085246954
 30
0.0
 10
10.027073894
 20
10.8060647262
 30
0.0
 10
10.0223223366
 20
10.8035528654
 30
0.0
 10
10.0179675039
 20
10.8009930393
 30
0.0
 10
10.0140165569
 20
10.7983887424
 30
0.0
 10
10.010476157
 20
10.795744942
 30
0.0
 10
10.0083179271
 20
10.7938941801
 30
0.0
 10
10.0073155317
 20
10.7929615775
 30
0.0
  0
SPLINE
  5
341
100
AcDbEntity
  8
02___PRT_ALL_AXES
100
AcDbSpline
 62
7
  6
CONTINUOUS
 70
0
 71
3
 72
23
 73
19
 74
0
 42
0.0000001
 43
0.0000001
 44
0.0000000001
 40
0.0
 40
0.0
 40
0.0
 40
0.0
 40
0.0736647739
 40
0.1430936487
 40
0.2086368851
 40
0.270728476
 40
0.3299061921
 40
0.3868212682
 40
0.4422124387
 40
0.4968853293
 40
0.5516797762
 40
0.6074264519
 40
0.6649107162
 40
0.7248454407
 40
0.7878484149
 40
0.8544372545
 40
0.9250392237
 40
1.0
 40
1.0
 40
1.0
 40
1.0
 10
10.5214865264
 20
10.7566247244
 30
0.0
 10
10.5222294846
 20
10.7573423669
 30
0.0
 10
10.5236283185
 20
10.7587836001
 30
0.0
 10
10.5255051051
 20
10.7610317193
 30
0.0
 10
10.5270934517
 20
10.7632974091
 30
0.0
 10
10.5283903286
 20
10.765578395
 30
0.0
 10
10.5293927632
 20
10.7678725509
 30
0.0
 10
10.5300987806
 20
10.7701771075
 30
0.0
 10
10.5305064511
 20
10.7724890641
 30
0.0
 10
10.5306140283
 20
10.7748047257
 30
0.0
 10
10.5304210957
 20
10.7771197869
 30
0.0
 10
10.5299288166
 20
10.7794300793
 30
0.0
 10
10.5291388204
 20
10.7817319875
 30
0.0
 10
10.5280528857
 20
10.784022374
 30
0.0
 10
10.5266736492
 20
10.7862988972
 30
0.0
 10
10.5250036903
 20
10.7885597103
 30
0.0
 10
10.523045322
 20
10.7908027985
 30
0.0
 10
10.5215938002
 20
10.7922404543
 30
0.0
 10
10.5208243414
 20
10.7929565582
 30
0.0
  0
SPLINE
  5
342
100
AcDbEntity
  8
02___PRT_ALL_AXES
100
AcDbSpline
 62
7
  6
CONTINUOUS
 70
0
 71
3
 72
65
 73
61
 74
0
 42
0.0000001
 43
0.0000001
 44
0.0000000001
 40
0.0
 40
0.0
 40
0.0
 40
0.0
 40
0.0085723643
 40
0.0179216492
 40
0.028075836
 40
0.0390510583
 40
0.0508543353
 40
0.0634854152
 40
0.0769350466
 40
0.0911887195
 40
0.1062274279
 40
0.12202723
 40
0.1385618321
 40
0.155800725
 40
0.173710824
 40
0.1922570097
 40
0.2311015457
 40
0.2720099855
 40
0.3146293227
 40
0.3585850938
 40
0.4034868485
 40
0.4489330893
 40
0.4945159341
 40
0.539825804
 40
0.5844563686
 40
0.6280093224
 40
0.6700990768
 40
0.6904799306
 40
0.7103589787
 40
0.7296934978
 40
0.7484431242
 40
0.7665694983
 40
0.7840357804
 40
0.8008086952
 40
0.816856703
 40
0.8321517329
 40
0.8466695772
 40
0.8603888695
 40
0.873294161
 40
0.8853744714
 40
0.8966253416
 40
0.9070510522
 40
0.9166644869
 40
0.9254924047
 40
0.9335772687
 40
0.9409822728
 40
0.9477979984
 40
0.9510239551
 40
0.9541509498
 40
0.9571994606
 40
0.9601916759
 40
0.9631511386
 40
0.9661022669
 40
0.9690697863
 40
0.9720780213
 40
0.9751502274
 40
0.9783081443
 40
0.9849539939
 40
0.9921525476
 40
1.0
 40
1.0
 40
1.0
 40
1.0
 10
10.5214865264
 20
10.7566247244
 30
0.0
 10
10.5203074848
 20
10.7554858576
 30
0.0
 10
10.517720274
 20
10.7532299178
 30
0.0
 10
10.5133959415
 20
10.7500404029
 30
0.0
 10
10.5084747207
 20
10.7469102316
 30
0.0
 10
10.5029686916
 20
10.7438473031
 30
0.0
 10
10.4968904085
 20
10.7408576958
 30
0.0
 10
10.4902534964
 20
10.7379487397
 30
0.0
 10
10.483073521
 20
10.735126718
 30
0.0
 10
10.4753673552
 20
10.7323986803
 30
0.0
 10
10.4671532881
 20
10.7297714588
 30
0.0
 10
10.458450966
 20
10.7272509239
 30
0.0
 10
10.4492810779
 20
10.7248436677
 30
0.0
 10
10.439665627
 20
10.7225552108
 30
0.0
 10
10.4296276348
 20
10.7203910797
 30
0.0
 10
10.4154933704
 20
10.717636269
 30
0.0
 10
10.3969451323
 20
10.7145601905
 30
0.0
 10
10.3737426773
 20
10.7114925449
 30
0.0
 10
10.3494863694
 20
10.7090243847
 30
0.0
 10
10.3244092925
 20
10.7071798788
 30
0.0
 10
10.2987522403
 20
10.7059771568
 30
0.0
 10
10.272761783
 20
10.7054280329
 30
0.0
 10
10.2466877345
 20
10.7055379515
 30
0.0
 10
10.2207807745
 20
10.7063058765
 30
0.0
 10
10.1952898554
 20
10.7077241595
 30
0.0
 10
10.1704600922
 20
10.7097789526
 30
0.0
 10
10.1503074667
 20
10.7120280052
 30
0.0
 10
10.1347020221
 20
10.714141636
 30
0.0
 10
10.1234349763
 20
10.7158546258
 30
0.0
 10
10.1125064742
 20
10.7177084022
 30
0.0
 10
10.1019427685
 20
10.719698428
 30
0.0
 10
10.0917692303
 20
10.7218196535
 30
0.0
 10
10.0820103249
 20
10.7240673639
 30
0.0
 10
10.0726894172
 20
10.726435647
 30
0.0
 10
10.0638288484
 20
10.728919018
 30
0.0
 10
10.055449825
 20
10.7315115184
 30
0.0
 10
10.047572245
 20
10.7342064834
 30
0.0
 10
10.0402149371
 20
10.7369979724
 30
0.0
 10
10.0333951667
 20
10.7398788001
 30
0.0
 10
10.0271289148
 20
10.7428422672
 30
0.0
 10
10.0214308342
 20
10.7458817262
 30
0.0
 10
10.0163136517
 20
10.7489896611
 30
0.0
 10
10.0117891522
 20
10.7521600888
 30
0.0
 10
10.0078671474
 20
10.7553861908
 30
0.0
 10
10.0045561792
 20
10.7586626703
 30
0.0
 10
10.0018653017
 20
10.7619845815
 30
0.0
 10
10.0001147277
 20
10.7648394976
 30
0.0
 10
9.9990573276
 20
10.7671275921
 30
0.0
 10
9.9984388689
 20
10.7688179949
 30
0.0
 10
9.9979811089
 20
10.7705126638
 30
0.0
 10
9.9976844994
 20
10.7722104679
 30
0.0
 10
9.9975494551
 20
10.7739100916
 30
0.0
 10
9.9975763087
 20
10.7756101655
 30
0.0
 10
9.9977651519
 20
10.7773092743
 30
0.0
 10
9.998115529
 20
10.7790060775
 30
0.0
 10
9.9986270162
 20
10.7806994334
 30
0.0
 10
9.9995382315
 20
10.782989586
 30
0.0
 10
10.0011076886
 20
10.7858526352
 30
0.0
 10
10.0035903839
 20
10.7891883638
 30
0.0
 10
10.0055686932
 20
10.7912863355
 30
0.0
 10
10.0066480305
 20
10.7923288954
 30
0.0
  0
SPLINE
  5
343
100
AcDbEntity
  8
0
100
AcDbSpline
 62
7
  6
CONTINUOUS
 70
0
 71
3
 72
21
 73
17
 74
0
 42
0.0000001
 43
0.0000001
 44
0.0000000001
 40
0.0
 40
0.0
 40
0.0
 40
0.0
 40
0.1273176984
 40
0.2537999461
 40
0.3167619614
 40
0.3795355204
 40
0.4421314992
 40
0.5045621453
 40
0.5668413456
 40
0.6289845231
 40
0.6910084433
 40
0.7529310869
 40
0.8147714401
 40
0.8765493236
 40
0.9382852134
 40
1.0
 40
1.0
 40
1.0
 40
1.0
 10
9.4196137352
 20
10.0667217145
 30
0.0
 10
9.4196137352
 20
10.0599769064
 30
0.0
 10
9.4189698982
 20
10.046522867
 30
0.0
 10
9.416538307
 20
10.0298907699
 30
0.0
 10
9.4136320399
 20
10.0168443463
 30
0.0
 10
9.410981676
 20
10.0072212978
 30
0.0
 10
9.4078636813
 20
9.9977692461
 30
0.0
 10
9.4042852445
 20
9.9885097115
 30
0.0
 10
9.4002546159
 20
9.9794641101
 30
0.0
 10
9.395781008
 20
9.9706533186
 30
0.0
 10
9.3908747699
 20
9.962097647
 30
0.0
 10
9.3855472162
 20
9.9538168131
 30
0.0
 10
9.3798105818
 20
9.9458299785
 30
0.0
 10
9.3736780606
 20
9.938155486
 30
0.0
 10
9.3671640671
 20
9.9308112478
 30
0.0
 10
9.3625761744
 20
9.9261457552
 30
0.0
 10
9.3602246257
 20
9.9238743474
 30
0.0
  0
SPLINE
  5
344
100
AcDbEntity
  8
0
100
AcDbSpline
 62
7
  6
CONTINUOUS
 70
0
 71
3
 72
21
 73
17
 74
0
 42
0.0000001
 43
0.0000001
 44
0.0000000001
 40
0.0
 40
0.0
 40
0.0
 40
0.0
 40
0.1273176984
 40
0.2537999461
 40
0.3167619614
 40
0.3795355204
 40
0.4421314992
 40
0.5045621453
 40
0.5668413456
 40
0.6289845231
 40
0.6910084433
 40
0.7529310869
 40
0.8147714401
 40
0.8765493236
 40
0.9382852134
 40
1.0
 40
1.0
 40
1.0
 40
1.0
 10
12.4371662366
 20
9.8574537378
 30
0.0
 10
12.4371662366
 20
9.8507089297
 30
0.0
 10
12.4365223996
 20
9.8372548902
 30
0.0
 10
12.4340908083
 20
9.8206227932
 30
0.0
 10
12.4311845412
 20
9.8075763695
 30
0.0
 10
12.4285341773
 20
9.7979533211
 30
0.0
 10
12.4254161826
 20
9.7885012693
 30
0.0
 10
12.4218377459
 20
9.7792417348
 30
0.0
 10
12.4178071172
 20
9.7701961334
 30
0.0
 10
12.4133335093
 20
9.7613853418
 30
0.0
 10
12.4084272712
 20
9.7528296703
 30
0.0
 10
12.4030997176
 20
9.7445488364
 30
0.0
 10
12.3973630832
 20
9.7365620018
 30
0.0
 10
12.3912305619
 20
9.7288875093
 30
0.0
 10
12.3847165685
 20
9.721543271
 30
0.0
 10
12.3801286757
 20
9.7168777784
 30
0.0
 10
12.377777127
 20
9.7146063707
 30
0.0
  0
SPLINE
  5
345
100
AcDbEntity
  8
0
100
AcDbSpline
 62
7
  6
CONTINUOUS
 70
0
 71
3
 72
21
 73
17
 74
0
 42
0.0000001
 43
0.0000001
 44
0.0000000001
 40
0.0
 40
0.0
 40
0.0
 40
0.0
 40
0.1273176984
 40
0.2537999461
 40
0.3167619614
 40
0.3795355204
 40
0.4421314992
 40
0.5045621453
 40
0.5668413456
 40
0.6289845231
 40
0.6910084433
 40
0.7529310869
 40
0.8147714401
 40
0.8765493236
 40
0.9382852134
 40
1.0
 40
1.0
 40
1.0
 40
1.0
 10
12.4371662366
 20
6.3569385249
 30
0.0
 10
12.4371662366
 20
6.3501937168
 30
0.0
 10
12.4365223996
 20
6.3367396774
 30
0.0
 10
12.4340908083
 20
6.3201075804
 30
0.0
 10
12.4311845412
 20
6.3070611567
 30
0.0
 10
12.4285341773
 20
6.2974381083
 30
0.0
 10
12.4254161826
 20
6.2879860565
 30
0.0
 10
12.4218377459
 20
6.278726522
 30
0.0
 10
12.4178071172
 20
6.2696809206
 30
0.0
 10
12.4133335093
 20
6.260870129
 30
0.0
 10
12.4084272712
 20
6.2523144575
 30
0.0
 10
12.4030997176
 20
6.2440336236
 30
0.0
 10
12.3973630832
 20
6.236046789
 30
0.0
 10
12.3912305619
 20
6.2283722965
 30
0.0
 10
12.3847165685
 20
6.2210280582
 30
0.0
 10
12.3801286757
 20
6.2163625656
 30
0.0
 10
12.377777127
 20
6.2140911579
 30
0.0
  0
SPLINE
  5
346
100
AcDbEntity
  8
0
100
AcDbSpline
 62
7
  6
CONTINUOUS
 70
0
 71
3
 72
21
 73
17
 74
0
 42
0.0000001
 43
0.0000001
 44
0.0000000001
 40
0.0
 40
0.0
 40
0.0
 40
0.0
 40
0.1273176984
 40
0.2537999461
 40
0.3167619614
 40
0.3795355204
 40
0.4421314992
 40
0.5045621453
 40
0.5668413456
 40
0.6289845231
 40
0.6910084433
 40
0.7529310869
 40
0.8147714401
 40
0.8765493236
 40
0.9382852134
 40
1.0
 40
1.0
 40
1.0
 40
1.0
 10
9.4196137352
 20
6.5662065017
 30
0.0
 10
9.4196137352
 20
6.5594616936
 30
0.0
 10
9.4189698982
 20
6.5460076542
 30
0.0
 10
9.416538307
 20
6.5293755571
 30
0.0
 10
9.4136320399
 20
6.5163291335
 30
0.0
 10
9.410981676
 20
6.506706085
 30
0.0
 10
9.4078636813
 20
6.4972540333
 30
0.0
 10
9.4042852445
 20
6.4879944987
 30
0.0
 10
9.4002546159
 20
6.4789488973
 30
0.0
 10
9.395781008
 20
6.4701381057
 30
0.0
 10
9.3908747699
 20
6.4615824342
 30
0.0
 10
9.3855472162
 20
6.4533016003
 30
0.0
 10
9.3798105818
 20
6.4453147657
 30
0.0
 10
9.3736780606
 20
6.4376402732
 30
0.0
 10
9.3671640671
 20
6.430296035
 30
0.0
 10
9.3625761744
 20
6.4256305424
 30
0.0
 10
9.3602246257
 20
6.4233591346
 30
0.0
  0
SPLINE
  5
347
100
AcDbEntity
  8
0
100
AcDbSpline
 62
7
  6
CONTINUOUS
 70
0
 71
3
 72
21
 73
17
 74
0
 42
0.0000001
 43
0.0000001
 44
0.0000000001
 40
0.0
 40
0.0
 40
0.0
 40
0.0
 40
0.1273176984
 40
0.2537999461
 40
0.3167619614
 40
0.3795355204
 40
0.4421314992
 40
0.5045621453
 40
0.5668413456
 40
0.6289845231
 40
0.6910084433
 40
0.7529310869
 40
0.8147714401
 40
0.8765493236
 40
0.9382852134
 40
1.0
 40
1.0
 40
1.0
 40
1.0
 10
10.2638329987
 20
7.9266046872
 30
0.0
 10
10.2638329987
 20
7.9198598791
 30
0.0
 10
10.2631891616
 20
7.9064058396
 30
0.0
 10
10.2607575704
 20
7.8897737426
 30
0.0
 10
10.2578513033
 20
7.8767273189
 30
0.0
 10
10.2552009394
 20
7.8671042705
 30
0.0
 10
10.2520829447
 20
7.8576522187
 30
0.0
 10
10.248504508
 20
7.8483926842
 30
0.0
 10
10.2444738793
 20
7.8393470828
 30
0.0
 10
10.2400002714
 20
7.8305362912
 30
0.0
 10
10.2350940333
 20
7.8219806197
 30
0.0
 10
10.2297664797
 20
7.8136997858
 30
0.0
 10
10.2240298452
 20
7.8057129512
 30
0.0
 10
10.217897324
 20
7.7980384587
 30
0.0
 10
10.2113833305
 20
7.7906942204
 30
0.0
 10
10.2067954378
 20
7.7860287278
 30
0.0
 10
10.2044438891
 20
7.7837573201
 30
0.0
  0
SPLINE
  5
348
100
AcDbEntity
  8
0
100
AcDbSpline
 62
7
  6
CONTINUOUS
 70
0
 71
3
 72
21
 73
17
 74
0
 42
0.0000001
 43
0.0000001
 44
0.0000000001
 40
0.0
 40
0.0
 40
0.0
 40
0.0
 40
0.1273176984
 40
0.2537999461
 40
0.3167619614
 40
0.3795355204
 40
0.4421314992
 40
0.5045621453
 40
0.5668413456
 40
0.6289845231
 40
0.6910084433
 40
0.7529310869
 40
0.8147714401
 40
0.8765493236
 40
0.9382852134
 40
1.0
 40
1.0
 40
1.0
 40
1.0
 10
10.7777055162
 20
8.3130771531
 30
0.0
 10
10.7777055162
 20
8.306332345
 30
0.0
 10
10.7770616792
 20
8.2928783056
 30
0.0
 10
10.7746300879
 20
8.2762462086
 30
0.0
 10
10.7717238208
 20
8.2631997849
 30
0.0
 10
10.7690734569
 20
8.2535767364
 30
0.0
 10
10.7659554622
 20
8.2441246847
 30
0.0
 10
10.7623770255
 20
8.2348651502
 30
0.0
 10
10.7583463968
 20
8.2258195488
 30
0.0
 10
10.7538727889
 20
8.2170087572
 30
0.0
 10
10.7489665508
 20
8.2084530857
 30
0.0
 10
10.7436389972
 20
8.2001722518
 30
0.0
 10
10.7379023628
 20
8.1921854172
 30
0.0
 10
10.7317698415
 20
8.1845109247
 30
0.0
 10
10.7252558481
 20
8.1771666864
 30
0.0
 10
10.7206679553
 20
8.1725011938
 30
0.0
 10
10.7183164066
 20
8.1702297861
 30
0.0
  0
SPLINE
  5
349
100
AcDbEntity
  8
0
100
AcDbSpline
 62
7
  6
CONTINUOUS
 70
0
 71
3
 72
21
 73
17
 74
0
 42
0.0000001
 43
0.0000001
 44
0.0000000001
 40
0.0
 40
0.0
 40
0.0
 40
0.0
 40
0.1273176984
 40
0.2537999461
 40
0.3167619614
 40
0.3795355204
 40
0.4421314992
 40
0.5045621453
 40
0.5668413456
 40
0.6289845231
 40
0.6910084433
 40
0.7529310869
 40
0.8147714401
 40
0.8765493236
 40
0.9382852134
 40
1.0
 40
1.0
 40
1.0
 40
1.0
 10
11.5620372535
 20
8.2586835624
 30
0.0
 10
11.5620372535
 20
8.2519387543
 30
0.0
 10
11.5613934164
 20
8.2384847149
 30
0.0
 10
11.5589618252
 20
8.2218526178
 30
0.0
 10
11.5560555581
 20
8.2088061942
 30
0.0
 10
11.5534051942
 20
8.1991831457
 30
0.0
 10
11.5502871995
 20
8.189731094
 30
0.0
 10
11.5467087628
 20
8.1804715594
 30
0.0
 10
11.5426781341
 20
8.171425958
 30
0.0
 10
11.5382045262
 20
8.1626151665
 30
0.0
 10
11.5332982881
 20
8.1540594949
 30
0.0
 10
11.5279707345
 20
8.145778661
 30
0.0
 10
11.5222341
 20
8.1377918265
 30
0.0
 10
11.5161015788
 20
8.1301173339
 30
0.0
 10
11.5095875853
 20
8.1227730957
 30
0.0
 10
11.5049996926
 20
8.1181076031
 30
0.0
 10
11.5026481439
 20
8.1158361953
 30
0.0
  0
SPLINE
  5
34A
100
AcDbEntity
  8
0
100
AcDbSpline
 62
7
  6
CONTINUOUS
 70
0
 71
3
 72
21
 73
17
 74
0
 42
0.0000001
 43
0.0000001
 44
0.0000000001
 40
0.0
 40
0.0
 40
0.0
 40
0.0
 40
0.1273176984
 40
0.2537999461
 40
0.3167619614
 40
0.3795355204
 40
0.4421314992
 40
0.5045621453
 40
0.5668413456
 40
0.6289845231
 40
0.6910084433
 40
0.7529310869
 40
0.8147714401
 40
0.8765493236
 40
0.9382852134
 40
1.0
 40
1.0
 40
1.0
 40
1.0
 10
11.1698714424
 20
8.8596401959
 30
0.0
 10
11.1698714424
 20
8.8528953878
 30
0.0
 10
11.1692276054
 20
8.8394413484
 30
0.0
 10
11.1667960141
 20
8.8228092514
 30
0.0
 10
11.1638897471
 20
8.8097628277
 30
0.0
 10
11.1612393831
 20
8.8001397792
 30
0.0
 10
11.1581213884
 20
8.7906877275
 30
0.0
 10
11.1545429517
 20
8.781428193
 30
0.0
 10
11.150512323
 20
8.7723825916
 30
0.0
 10
11.1460387152
 20
8.7635718
 30
0.0
 10
11.141132477
 20
8.7550161285
 30
0.0
 10
11.1358049234
 20
8.7467352946
 30
0.0
 10
11.130068289
 20
8.73874846
 30
0.0
 10
11.1239357677
 20
8.7310739675
 30
0.0
 10
11.1174217743
 20
8.7237297292
 30
0.0
 10
11.1128338815
 20
8.7190642366
 30
0.0
 10
11.1104823328
 20
8.7167928289
 30
0.0
  0
SPLINE
  5
34B
100
AcDbEntity
  8
0
100
AcDbSpline
 62
7
  6
CONTINUOUS
 70
0
 71
3
 72
49
 73
45
 74
0
 42
0.0000001
 43
0.0000001
 44
0.0000000001
 40
0.0
 40
0.0
 40
0.0
 40
0.0
 40
0.0481981551
 40
0.0958301516
 40
0.142820349
 40
0.1890985202
 40
0.2345937574
 40
0.2792375201
 40
0.3229630438
 40
0.3657055719
 40
0.4074026074
 40
0.4479940766
 40
0.4874225965
 40
0.5256336943
 40
0.5625760571
 40
0.5982018274
 40
0.6324669645
 40
0.6653316624
 40
0.696760789
 40
0.7267244497
 40
0.7551986919
 40
0.782166419
 40
0.807618485
 40
0.8197765648
 40
0.8315566946
 40
0.8429606722
 40
0.8539911792
 40
0.8646517393
 40
0.8749470213
 40
0.8848827782
 40
0.8944660498
 40
0.9037053681
 40
0.9126107615
 40
0.9211941126
 40
0.9294692171
 40
0.9374519914
 40
0.9451607495
 40
0.9598348837
 40
0.9668567372
 40
0.973703596
 40
0.9804068286
 40
0.9870000588
 40
0.9935188215
 40
1.0
 40
1.0
 40
1.0
 40
1.0
 10
11.3412596409
 20
10.5029647581
 30
0.0
 10
11.3316375763
 20
10.5036320505
 30
0.0
 10
11.312513733
 20
10.5050662119
 30
0.0
 10
11.2840391956
 20
10.5075321877
 30
0.0
 10
11.2559781298
 20
10.5102972224
 30
0.0
 10
11.2283777806
 20
10.5133565829
 30
0.0
 10
11.2012840579
 20
10.5167051932
 30
0.0
 10
11.1747423466
 20
10.5203374055
 30
0.0
 10
11.1487969868
 20
10.5242471137
 30
0.0
 10
11.1234913361
 20
10.5284277472
 30
0.0
 10
11.0988676812
 20
10.5328722776
 30
0.0
 10
11.074967154
 20
10.5375732403
 30
0.0
 10
11.0518296602
 20
10.5425227246
 30
0.0
 10
11.0294938093
 20
10.5477124031
 30
0.0
 10
11.0079968549
 20
10.5531335476
 30
0.0
 10
10.9873746282
 20
10.5587770461
 30
0.0
 10
10.9676614624
 20
10.564633416
 30
0.0
 10
10.9488901251
 20
10.5706928106
 30
0.0
 10
10.9310917517
 20
10.5769450637
 30
0.0
 10
10.9142958256
 20
10.5833797024
 30
0.0
 10
10.8985299784
 20
10.5899860144
 30
0.0
 10
10.8838203647
 20
10.5967529812
 30
0.0
 10
10.8722926218
 20
10.6026027032
 30
0.0
 10
10.8636304739
 20
10.6073640046
 30
0.0
 10
10.8575123924
 20
10.6109135261
 30
0.0
 10
10.8516758952
 20
10.6144947025
 30
0.0
 10
10.8461233612
 20
10.6181060573
 30
0.0
 10
10.8408571169
 20
10.6217461664
 30
0.0
 10
10.8358793042
 20
10.6254135013
 30
0.0
 10
10.8311919831
 20
10.6291066015
 30
0.0
 10
10.8267971064
 20
10.6328240123
 30
0.0
 10
10.8226964484
 20
10.6365642085
 30
0.0
 10
10.8188917678
 20
10.6403257773
 30
0.0
 10
10.8153846113
 20
10.6441072496
 30
0.0
 10
10.8121765317
 20
10.6479070638
 30
0.0
 10
10.8092687611
 20
10.6517242099
 30
0.0
 10
10.8058507716
 20
10.6567506867
 30
0.0
 10
10.8029590455
 20
10.6618959834
 30
0.0
 10
10.8006679116
 20
10.6671321909
 30
0.0
 10
10.7992806973
 20
10.6710119646
 30
0.0
 10
10.7982007002
 20
10.6748993318
 30
0.0
 10
10.7974286696
 20
10.6787927704
 30
0.0
 10
10.7969652158
 20
10.6826899924
 30
0.0
 10
10.7968620726
 20
10.6852926362
 30
0.0
 10
10.7968620726
 20
10.6865896174
 30
0.0
  0
SPLINE
  5
34C
100
AcDbEntity
  8
0
100
AcDbSpline
 62
7
  6
CONTINUOUS
 70
0
 71
3
 72
31
 73
27
 74
0
 42
0.0000001
 43
0.0000001
 44
0.0000000001
 40
0.0
 40
0.0
 40
0.0
 40
0.0
 40
0.0845018904
 40
0.167301158
 40
0.2480799795
 40
0.3265304606
 40
0.4023579462
 40
0.475282401
 40
0.5450409099
 40
0.6113901015
 40
0.6432172375
 40
0.6741112302
 40
0.7040486061
 40
0.7330077048
 40
0.7609690412
 40
0.7879152504
 40
0.8138316265
 40
0.8387060317
 40
0.8625296419
 40
0.8852968756
 40
0.9070063887
 40
0.927661115
 40
0.9472695745
 40
0.9658461645
 40
0.9834128737
 40
1.0
 40
1.0
 40
1.0
 40
1.0
 10
10.1734806874
 20
10.6869768769
 30
0.0
 10
10.1662354797
 20
10.6874793338
 30
0.0
 10
10.1518994959
 20
10.6886012867
 30
0.0
 10
10.1306762465
 20
10.6906585797
 30
0.0
 10
10.1100132829
 20
10.6930665754
 30
0.0
 10
10.0899973926
 20
10.6958150485
 30
0.0
 10
10.0707125535
 20
10.6988923075
 30
0.0
 10
10.0522395538
 20
10.7022852546
 30
0.0
 10
10.0346559015
 20
10.7059794748
 30
0.0
 10
10.0206170096
 20
10.7093408009
 30
0.0
 10
10.0098925084
 20
10.7121782493
 30
0.0
 10
10.0022280865
 20
10.7143421496
 30
0.0
 10
9.9948387986
 20
10.7165690701
 30
0.0
 10
9.9877323741
 20
10.7188567091
 30
0.0
 10
9.9809162471
 20
10.7212026233
 30
0.0
 10
9.9743975439
 20
10.7236043788
 30
0.0
 10
9.9681830585
 20
10.7260594105
 30
0.0
 10
9.9622792717
 20
10.7285651914
 30
0.0
 10
9.9566923029
 20
10.7311190463
 30
0.0
 10
9.951427955
 20
10.7337183797
 30
0.0
 10
9.9464916382
 20
10.736360432
 30
0.0
 10
9.9418884459
 20
10.7390425754
 30
0.0
 10
9.9376230635
 20
10.7417619984
 30
0.0
 10
9.9336998156
 20
10.7445161346
 30
0.0
 10
9.9301228126
 20
10.7473020489
 30
0.0
 10
9.9279092832
 20
10.7492330675
 30
0.0
 10
9.9268656726
 20
10.7502042574
 30
0.0
  0
SPLINE
  5
34D
100
AcDbEntity
  8
0
100
AcDbSpline
 62
7
  6
CONTINUOUS
 70
0
 71
3
 72
54
 73
50
 74
0
 42
0.0000001
 43
0.0000001
 44
0.0000000001
 40
0.0
 40
0.0
 40
0.0
 40
0.0
 40
0.0417740106
 40
0.0840368515
 40
0.1266583734
 40
0.1695063147
 40
0.2124478814
 40
0.2553497884
 40
0.2980789417
 40
0.340502919
 40
0.3824905067
 40
0.4239122259
 40
0.4646408671
 40
0.5045520317
 40
0.5435246831
 40
0.5814417135
 40
0.6181905344
 40
0.6536637003
 40
0.6877595809
 40
0.704261357
 40
0.7203837372
 40
0.736116
 40
0.7514479644
 40
0.7663699709
 40
0.7808730136
 40
0.7949486603
 40
0.8085892482
 40
0.8217877894
 40
0.8345381805
 40
0.8468351604
 40
0.8586744859
 40
0.8700529987
 40
0.8809687469
 40
0.891421194
 40
0.9014113064
 40
0.910941912
 40
0.9200178165
 40
0.9286462958
 40
0.9368373422
 40
0.9446042644
 40
0.9519641574
 40
0.9589385856
 40
0.9655542762
 40
0.9718437871
 40
0.9778461898
 40
0.9836073681
 40
0.9891800557
 40
0.994623083
 40
1.0
 40
1.0
 40
1.0
 40
1.0
 10
12.7901484662
 20
8.3199478695
 30
0.0
 10
12.7901484662
 20
8.3336506096
 30
0.0
 10
12.7903622422
 20
8.3612168668
 30
0.0
 10
12.7913073148
 20
8.4027541268
 30
0.0
 10
12.7928758957
 20
8.4446251031
 30
0.0
 10
12.7950628511
 20
8.4866912252
 30
0.0
 10
12.7978609491
 20
8.5288132932
 30
0.0
 10
12.8012609426
 20
8.5708519647
 30
0.0
 10
12.8052515682
 20
8.6126681558
 30
0.0
 10
12.8098195975
 20
8.6541235297
 30
0.0
 10
12.8149498748
 20
8.6950809491
 30
0.0
 10
12.8206253691
 20
8.7354049363
 30
0.0
 10
12.8268272284
 20
8.7749621251
 30
0.0
 10
12.8335348404
 20
8.813621707
 30
0.0
 10
12.8407258996
 20
8.8512558764
 30
0.0
 10
12.8483764823
 20
8.8877402393
 30
0.0
 10
12.8564611143
 20
8.9229543153
 30
0.0
 10
12.8649528894
 20
8.95678167
 30
0.0
 10
12.8724240302
 20
8.984011037
 30
0.0
 10
12.8785943744
 20
9.0050092485
 30
0.0
 10
12.8832556805
 20
9.020171252
 30
0.0
 10
12.887997053
 20
9.0349058288
 30
0.0
 10
12.8928145677
 20
9.0492008231
 30
0.0
 10
12.8977042581
 20
9.0630444221
 30
0.0
 10
12.902662024
 20
9.0764252073
 30
0.0
 10
12.9076838124
 20
9.0893321305
 30
0.0
 10
12.9127654023
 20
9.1017545628
 30
0.0
 10
12.9179026432
 20
9.1136822606
 30
0.0
 10
12.9230912353
 20
9.1251054205
 30
0.0
 10
12.9283269256
 20
9.1360146474
 30
0.0
 10
12.9336053767
 20
9.1464009953
 30
0.0
 10
12.9389222401
 20
9.1562559615
 30
0.0
 10
12.9442731777
 20
9.1655714868
 30
0.0
 10
12.9496537734
 20
9.1743400022
 30
0.0
 10
12.9550597215
 20
9.1825543626
 30
0.0
 10
12.9604865961
 20
9.1902079622
 30
0.0
 10
12.965930159
 20
9.1972945941
 30
0.0
 10
12.9713860701
 20
9.203808614
 30
0.0
 10
12.9768502089
 20
9.2097447559
 30
0.0
 10
12.9823184457
 20
9.2150982703
 30
0.0
 10
12.9877868497
 20
9.2198647597
 30
0.0
 10
12.9932516015
 20
9.2240401765
 30
0.0
 10
12.9987089814
 20
9.2276207594
 30
0.0
 10
13.0041553752
 20
9.2306027939
 30
0.0
 10
13.0095869979
 20
9.2329827715
 30
0.0
 10
13.0149997341
 20
9.2347570031
 30
0.0
 10
13.0203890585
 20
9.2359222053
 30
0.0
 10
13.0257484747
 20
9.2364754086
 30
0.0
 10
13.0293066729
 20
9.2364348408
 30
0.0
 10
13.0310661875
 20
9.2363128259
 30
0.0
  0
SPLINE
  5
34E
100
AcDbEntity
  8
0
100
AcDbSpline
 62
7
  6
CONTINUOUS
 70
0
 71
3
 72
15
 73
11
 74
0
 42
0.0000001
 43
0.0000001
 44
0.0000000001
 40
0.0
 40
0.0
 40
0.0
 40
0.0
 40
0.1248771465
 40
0.249740813
 40
0.37464622
 40
0.4996318109
 40
0.6247112399
 40
0.7498587255
 40
0.8749988327
 40
1.0
 40
1.0
 40
1.0
 40
1.0
 10
10.1860868215
 20
8.0293342376
 30
0.0
 10
10.1817908818
 20
8.0328200968
 30
0.0
 10
10.1734904132
 20
8.0401584605
 30
0.0
 10
10.1619872938
 20
8.0521469436
 30
0.0
 10
10.1514670003
 20
8.0650127041
 30
0.0
 10
10.1419562885
 20
8.0786516052
 30
0.0
 10
10.133472327
 20
8.0929630898
 30
0.0
 10
10.1260279219
 20
8.1078486928
 30
0.0
 10
10.1196339879
 20
8.123209469
 30
0.0
 10
10.1160739404
 20
8.1337141598
 30
0.0
 10
10.1144721968
 20
8.1390152496
 30
0.0
  0
SPLINE
  5
34F
100
AcDbEntity
  8
0
100
AcDbSpline
 62
7
  6
CONTINUOUS
 70
0
 71
3
 72
39
 73
35
 74
0
 42
0.0000001
 43
0.0000001
 44
0.0000000001
 40
0.0
 40
0.0
 40
0.0
 40
0.0
 40
0.0311445425
 40
0.0624433652
 40
0.093888256
 40
0.1254710218
 40
0.1571788766
 40
0.1889972611
 40
0.2209091725
 40
0.2528958428
 40
0.2849370253
 40
0.3170114183
 40
0.349097079
 40
0.3811718482
 40
0.4132137779
 40
0.4452015551
 40
0.4771149166
 40
0.5089350506
 40
0.5406449764
 40
0.5722298984
 40
0.6036775288
 40
0.634978368
 40
0.6661259371
 40
0.6971169555
 40
0.7279514574
 40
0.758632841
 40
0.7891678449
 40
0.819566448
 40
0.8498416915
 40
0.8800094239
 40
0.9100879689
 40
0.9400977235
 40
0.9700606966
 40
1.0
 40
1.0
 40
1.0
 40
1.0
 10
9.9386025931
 20
9.3014739139
 30
0.0
 10
9.9412560904
 20
9.3012898932
 30
0.0
 10
9.9465647313
 20
9.3007266923
 30
0.0
 10
9.9544633062
 20
9.2993080687
 30
0.0
 10
9.9622773114
 20
9.2973208909
 30
0.0
 10
9.9699644675
 20
9.294776018
 30
0.0
 10
9.9774839995
 20
9.2916869703
 30
0.0
 10
9.9847957757
 20
9.2880703337
 30
0.0
 10
9.9918608493
 20
9.2839454071
 30
0.0
 10
9.9986415726
 20
9.2793342234
 30
0.0
 10
10.0051018153
 20
9.2742613816
 30
0.0
 10
10.0112071532
 20
9.2687539381
 30
0.0
 10
10.0169250528
 20
9.262841259
 30
0.0
 10
10.0222250389
 20
9.2565548607
 30
0.0
 10
10.0270788557
 20
9.2499282447
 30
0.0
 10
10.0314606155
 20
9.2429967208
 30
0.0
 10
10.0353469357
 20
9.2357972213
 30
0.0
 10
10.0387170624
 20
9.2283681071
 30
0.0
 10
10.0415529805
 20
9.2207489659
 30
0.0
 10
10.0438395093
 20
9.212980404
 30
0.0
 10
10.0455643913
 20
9.2051038349
 30
0.0
 10
10.0467183548
 20
9.1971612586
 30
0.0
 10
10.0472951624
 20
9.1891950405
 30
0.0
 10
10.0472916481
 20
9.1812476882
 30
0.0
 10
10.0467077368
 20
9.1733616279
 30
0.0
 10
10.0455464494
 20
9.1655789799
 30
0.0
 10
10.0438138918
 20
9.157941335
 30
0.0
 10
10.0415192266
 20
9.1504895314
 30
0.0
 10
10.0386746345
 20
9.1432634386
 30
0.0
 10
10.0352952469
 20
9.136301724
 30
0.0
 10
10.0313991112
 20
9.1296416947
 30
0.0
 10
10.0270069103
 20
9.1233189036
 30
0.0
 10
10.0221425547
 20
9.1173676581
 30
0.0
 10
10.0186006778
 20
9.113667535
 30
0.0
 10
10.0167615805
 20
9.1118911189
 30
0.0
  0
SPLINE
  5
350
100
AcDbEntity
  8
0
100
AcDbSpline
 62
7
  6
CONTINUOUS
 70
0
 71
3
 72
39
 73
35
 74
0
 42
0.0000001
 43
0.0000001
 44
0.0000000001
 40
0.0
 40
0.0
 40
0.0
 40
0.0
 40
0.0311445425
 40
0.0624433652
 40
0.093888256
 40
0.1254710218
 40
0.1571788766
 40
0.1889972611
 40
0.2209091725
 40
0.2528958428
 40
0.2849370253
 40
0.3170114183
 40
0.349097079
 40
0.3811718482
 40
0.4132137779
 40
0.4452015551
 40
0.4771149166
 40
0.5089350506
 40
0.5406449764
 40
0.5722298984
 40
0.6036775288
 40
0.634978368
 40
0.6661259371
 40
0.6971169555
 40
0.7279514574
 40
0.758632841
 40
0.7891678449
 40
0.819566448
 40
0.8498416915
 40
0.8800094239
 40
0.9100879689
 40
0.9400977235
 40
0.9700606966
 40
1.0
 40
1.0
 40
1.0
 40
1.0
 10
11.9902292397
 20
9.1591931227
 30
0.0
 10
11.992882737
 20
9.159009102
 30
0.0
 10
11.9981913779
 20
9.1584459011
 30
0.0
 10
12.0060899528
 20
9.1570272775
 30
0.0
 10
12.013903958
 20
9.1550400997
 30
0.0
 10
12.0215911141
 20
9.1524952268
 30
0.0
 10
12.0291106461
 20
9.1494061791
 30
0.0
 10
12.0364224223
 20
9.1457895425
 30
0.0
 10
12.0434874959
 20
9.1416646159
 30
0.0
 10
12.0502682192
 20
9.1370534322
 30
0.0
 10
12.0567284619
 20
9.1319805904
 30
0.0
 10
12.0628337998
 20
9.126473147
 30
0.0
 10
12.0685516994
 20
9.1205604678
 30
0.0
 10
12.0738516855
 20
9.1142740695
 30
0.0
 10
12.0787055023
 20
9.1076474535
 30
0.0
 10
12.0830872621
 20
9.1007159296
 30
0.0
 10
12.0869735823
 20
9.0935164301
 30
0.0
 10
12.090343709
 20
9.0860873159
 30
0.0
 10
12.0931796271
 20
9.0784681747
 30
0.0
 10
12.095466156
 20
9.0706996128
 30
0.0
 10
12.0971910379
 20
9.0628230437
 30
0.0
 10
12.0983450014
 20
9.0548804674
 30
0.0
 10
12.098921809
 20
9.0469142493
 30
0.0
 10
12.0989182947
 20
9.038966897
 30
0.0
 10
12.0983343834
 20
9.0310808367
 30
0.0
 10
12.097173096
 20
9.0232981887
 30
0.0
 10
12.0954405384
 20
9.0156605438
 30
0.0
 10
12.0931458732
 20
9.0082087402
 30
0.0
 10
12.0903012812
 20
9.0009826474
 30
0.0
 10
12.0869218935
 20
8.9940209328
 30
0.0
 10
12.0830257578
 20
8.9873609035
 30
0.0
 10
12.078633557
 20
8.9810381124
 30
0.0
 10
12.0737692013
 20
8.975086867
 30
0.0
 10
12.0702273244
 20
8.9713867438
 30
0.0
 10
12.0683882271
 20
8.9696103277
 30
0.0
  0
SPLINE
  5
351
100
AcDbEntity
  8
0
100
AcDbSpline
 62
7
  6
CONTINUOUS
 70
0
 71
3
 72
39
 73
35
 74
0
 42
0.0000001
 43
0.0000001
 44
0.0000000001
 40
0.0
 40
0.0
 40
0.0
 40
0.0
 40
0.0311445425
 40
0.0624433652
 40
0.093888256
 40
0.1254710218
 40
0.1571788766
 40
0.1889972611
 40
0.2209091725
 40
0.2528958428
 40
0.2849370253
 40
0.3170114183
 40
0.349097079
 40
0.3811718482
 40
0.4132137779
 40
0.4452015551
 40
0.4771149166
 40
0.5089350506
 40
0.5406449764
 40
0.5722298984
 40
0.6036775288
 40
0.634978368
 40
0.6661259371
 40
0.6971169555
 40
0.7279514574
 40
0.758632841
 40
0.7891678449
 40
0.819566448
 40
0.8498416915
 40
0.8800094239
 40
0.9100879689
 40
0.9400977235
 40
0.9700606966
 40
1.0
 40
1.0
 40
1.0
 40
1.0
 10
11.9902292397
 20
7.4079695309
 30
0.0
 10
11.992882737
 20
7.4077855102
 30
0.0
 10
11.9981913779
 20
7.4072223093
 30
0.0
 10
12.0060899528
 20
7.4058036857
 30
0.0
 10
12.013903958
 20
7.4038165079
 30
0.0
 10
12.0215911141
 20
7.401271635
 30
0.0
 10
12.0291106461
 20
7.3981825873
 30
0.0
 10
12.0364224223
 20
7.3945659507
 30
0.0
 10
12.0434874959
 20
7.3904410241
 30
0.0
 10
12.0502682192
 20
7.3858298404
 30
0.0
 10
12.0567284619
 20
7.3807569986
 30
0.0
 10
12.0628337998
 20
7.3752495551
 30
0.0
 10
12.0685516994
 20
7.369336876
 30
0.0
 10
12.0738516855
 20
7.3630504777
 30
0.0
 10
12.0787055023
 20
7.3564238617
 30
0.0
 10
12.0830872621
 20
7.3494923378
 30
0.0
 10
12.0869735823
 20
7.3422928383
 30
0.0
 10
12.090343709
 20
7.3348637241
 30
0.0
 10
12.0931796271
 20
7.3272445829
 30
0.0
 10
12.095466156
 20
7.319476021
 30
0.0
 10
12.0971910379
 20
7.3115994519
 30
0.0
 10
12.0983450014
 20
7.3036568756
 30
0.0
 10
12.098921809
 20
7.2956906575
 30
0.0
 10
12.0989182947
 20
7.2877433052
 30
0.0
 10
12.0983343834
 20
7.2798572449
 30
0.0
 10
12.097173096
 20
7.2720745969
 30
0.0
 10
12.0954405384
 20
7.264436952
 30
0.0
 10
12.0931458732
 20
7.2569851484
 30
0.0
 10
12.0903012812
 20
7.2497590556
 30
0.0
 10
12.0869218935
 20
7.242797341
 30
0.0
 10
12.0830257578
 20
7.2361373117
 30
0.0
 10
12.078633557
 20
7.2298145206
 30
0.0
 10
12.0737692013
 20
7.2238632751
 30
0.0
 10
12.0702273244
 20
7.220163152
 30
0.0
 10
12.0683882271
 20
7.2183867359
 30
0.0
  0
SPLINE
  5
352
100
AcDbEntity
  8
0
100
AcDbSpline
 62
7
  6
CONTINUOUS
 70
0
 71
3
 72
39
 73
35
 74
0
 42
0.0000001
 43
0.0000001
 44
0.0000000001
 40
0.0
 40
0.0
 40
0.0
 40
0.0
 40
0.0311445425
 40
0.0624433652
 40
0.093888256
 40
0.1254710218
 40
0.1571788766
 40
0.1889972611
 40
0.2209091725
 40
0.2528958428
 40
0.2849370253
 40
0.3170114183
 40
0.349097079
 40
0.3811718482
 40
0.4132137779
 40
0.4452015551
 40
0.4771149166
 40
0.5089350506
 40
0.5406449764
 40
0.5722298984
 40
0.6036775288
 40
0.634978368
 40
0.6661259371
 40
0.6971169555
 40
0.7279514574
 40
0.758632841
 40
0.7891678449
 40
0.819566448
 40
0.8498416915
 40
0.8800094239
 40
0.9100879689
 40
0.9400977235
 40
0.9700606966
 40
1.0
 40
1.0
 40
1.0
 40
1.0
 10
9.9386025931
 20
7.5502503221
 30
0.0
 10
9.9412560904
 20
7.5500663014
 30
0.0
 10
9.9465647313
 20
7.5495031004
 30
0.0
 10
9.9544633062
 20
7.5480844769
 30
0.0
 10
9.9622773114
 20
7.5460972991
 30
0.0
 10
9.9699644675
 20
7.5435524262
 30
0.0
 10
9.9774839995
 20
7.5404633785
 30
0.0
 10
9.9847957757
 20
7.5368467419
 30
0.0
 10
9.9918608493
 20
7.5327218153
 30
0.0
 10
9.9986415726
 20
7.5281106316
 30
0.0
 10
10.0051018153
 20
7.5230377898
 30
0.0
 10
10.0112071532
 20
7.5175303463
 30
0.0
 10
10.0169250528
 20
7.5116176672
 30
0.0
 10
10.0222250389
 20
7.5053312689
 30
0.0
 10
10.0270788557
 20
7.4987046529
 30
0.0
 10
10.0314606155
 20
7.491773129
 30
0.0
 10
10.0353469357
 20
7.4845736295
 30
0.0
 10
10.0387170624
 20
7.4771445153
 30
0.0
 10
10.0415529805
 20
7.469525374
 30
0.0
 10
10.0438395093
 20
7.4617568122
 30
0.0
 10
10.0455643913
 20
7.4538802431
 30
0.0
 10
10.0467183548
 20
7.4459376668
 30
0.0
 10
10.0472951624
 20
7.4379714487
 30
0.0
 10
10.0472916481
 20
7.4300240963
 30
0.0
 10
10.0467077368
 20
7.4221380361
 30
0.0
 10
10.0455464494
 20
7.4143553881
 30
0.0
 10
10.0438138918
 20
7.4067177432
 30
0.0
 10
10.0415192266
 20
7.3992659396
 30
0.0
 10
10.0386746345
 20
7.3920398468
 30
0.0
 10
10.0352952469
 20
7.3850781322
 30
0.0
 10
10.0313991112
 20
7.3784181029
 30
0.0
 10
10.0270069103
 20
7.3720953118
 30
0.0
 10
10.0221425547
 20
7.3661440663
 30
0.0
 10
10.0186006778
 20
7.3624439432
 30
0.0
 10
10.0167615805
 20
7.3606675271
 30
0.0
  0
SPLINE
  5
353
100
AcDbEntity
  8
0
100
AcDbSpline
 62
7
  6
CONTINUOUS
 70
0
 71
3
 72
51
 73
47
 74
0
 42
0.0000001
 43
0.0000001
 44
0.0000000001
 40
0.0
 40
0.0
 40
0.0
 40
0.0
 40
0.040725654
 40
0.0819149151
 40
0.1234498402
 40
0.1652113726
 40
0.2070795351
 40
0.2489340004
 40
0.290654477
 40
0.3321211668
 40
0.3732151989
 40
0.4138190727
 40
0.4538171028
 40
0.4930958684
 40
0.5315446714
 40
0.5690560038
 40
0.6055260318
 40
0.6408551021
 40
0.6749482804
 40
0.7077159353
 40
0.7390743875
 40
0.7689466527
 40
0.7833038396
 40
0.7972641296
 40
0.810820213
 40
0.8239653932
 40
0.8366936611
 40
0.8489997214
 40
0.8608791025
 40
0.8723281855
 40
0.8833443585
 40
0.8939260592
 40
0.9040729863
 40
0.9137861719
 40
0.9230682688
 40
0.9319236778
 40
0.9403589356
 40
0.9483829291
 40
0.9560074126
 40
0.9632473414
 40
0.9701215268
 40
0.9766530833
 40
0.9828701499
 40
0.9888063109
 40
0.9945011024
 40
1.0
 40
1.0
 40
1.0
 40
1.0
 10
12.8005204408
 20
8.361966429
 30
0.0
 10
12.8005204408
 20
8.3722877174
 30
0.0
 10
12.80067536
 20
8.3930480898
 30
0.0
 10
12.8013606848
 20
8.4243280482
 30
0.0
 10
12.8024984329
 20
8.4558575655
 30
0.0
 10
12.8040851352
 20
8.4875399174
 30
0.0
 10
12.806115946
 20
8.5192780509
 30
0.0
 10
12.8085846436
 20
8.5509746928
 30
0.0
 10
12.811483658
 20
8.5825327136
 30
0.0
 10
12.8148040895
 20
8.6138554061
 30
0.0
 10
12.8185357383
 20
8.6448467906
 30
0.0
 10
12.8226671341
 20
8.6754119085
 30
0.0
 10
12.8271855714
 20
8.7054571169
 30
0.0
 10
12.8320771478
 20
8.7348903779
 30
0.0
 10
12.8373268054
 20
8.7636215445
 30
0.0
 10
12.8429183765
 20
8.7915626416
 30
0.0
 10
12.848834632
 20
8.81862814
 30
0.0
 10
12.855057333
 20
8.8447352325
 30
0.0
 10
12.8615672883
 20
8.8698040747
 30
0.0
 10
12.868344406
 20
8.8937581271
 30
0.0
 10
12.8753677835
 20
8.9165241134
 30
0.0
 10
12.8814858148
 20
8.9346802499
 30
0.0
 10
12.8864975277
 20
8.9485503323
 30
0.0
 10
12.8902545969
 20
8.9584756894
 30
0.0
 10
12.8940567823
 20
8.9680541476
 30
0.0
 10
12.8979012055
 20
8.9772784001
 30
0.0
 10
12.9017848987
 20
8.9861414103
 30
0.0
 10
12.9057049038
 20
8.9946364196
 30
0.0
 10
12.9096582015
 20
9.0027569666
 30
0.0
 10
12.9136417937
 20
9.0104968723
 30
0.0
 10
12.9176526175
 20
9.0178502733
 30
0.0
 10
12.9216876542
 20
9.0248115925
 30
0.0
 10
12.9257438166
 20
9.0313755876
 30
0.0
 10
12.9298180897
 20
9.0375373019
 30
0.0
 10
12.9339073901
 20
9.0432921337
 30
0.0
 10
12.9380087416
 20
9.0486357572
 30
0.0
 10
12.9421191064
 20
9.0535642195
 30
0.0
 10
12.9462355969
 20
9.0580738153
 30
0.0
 10
12.9503552782
 20
9.0621612178
 30
0.0
 10
12.9544754105
 20
9.0658232841
 30
0.0
 10
12.9585932124
 20
9.0690572223
 30
0.0
 10
12.9627061253
 20
9.0718603033
 30
0.0
 10
12.966811444
 20
9.0742300671
 30
0.0
 10
12.9709067791
 20
9.0761639843
 30
0.0
 10
12.9749886694
 20
9.0776596265
 30
0.0
 10
12.9777401374
 20
9.0783734714
 30
0.0
 10
12.9791055921
 20
9.0786521905
 30
0.0
  0
SPLINE
  5
354
100
AcDbEntity
  8
0
100
AcDbSpline
 62
7
  6
CONTINUOUS
 70
0
 71
3
 72
38
 73
34
 74
0
 42
0.0000001
 43
0.0000001
 44
0.0000000001
 40
0.0
 40
0.0
 40
0.0
 40
0.0
 40
0.0933719495
 40
0.1843534427
 40
0.2287941667
 40
0.2724539911
 40
0.3152747787
 40
0.3571998665
 40
0.3981743992
 40
0.4381454015
 40
0.4770619842
 40
0.5148755597
 40
0.551539918
 40
0.5870114933
 40
0.6212496782
 40
0.6542169574
 40
0.6858792465
 40
0.7162063881
 40
0.7451724524
 40
0.7727562674
 40
0.7989422461
 40
0.8237211047
 40
0.8470908825
 40
0.8690584727
 40
0.8896413174
 40
0.9088696062
 40
0.9267893495
 40
0.9434660558
 40
0.9589890995
 40
0.97347685
 40
0.987081548
 40
0.9936140925
 40
1.0
 40
1.0
 40
1.0
 40
1.0
 10
12.8005204408
 20
8.361966429
 30
0.0
 10
12.8005204408
 20
8.3478779553
 30
0.0
 10
12.8008035287
 20
8.3200608075
 30
0.0
 10
12.8018973087
 20
8.2855534164
 30
0.0
 10
12.8032190041
 20
8.2585643393
 30
0.0
 10
12.8044184178
 20
8.2388461619
 30
0.0
 10
12.8058318387
 20
8.2195227254
 30
0.0
 10
12.8074571806
 20
8.200622557
 30
0.0
 10
12.8092919977
 20
8.1821736003
 30
0.0
 10
12.8113335669
 20
8.1642031199
 30
0.0
 10
12.8135788444
 20
8.1467376641
 30
0.0
 10
12.816024462
 20
8.1298030237
 30
0.0
 10
12.81866678
 20
8.1134242008
 30
0.0
 10
12.8215018672
 20
8.0976253632
 30
0.0
 10
12.8245254727
 20
8.0824297989
 30
0.0
 10
12.8277330907
 20
8.0678598919
 30
0.0
 10
12.83111996
 20
8.0539370819
 30
0.0
 10
12.834681015
 20
8.040681811
 30
0.0
 10
12.8384109605
 20
8.0281135025
 30
0.0
 10
12.8423042953
 20
8.0162505296
 30
0.0
 10
12.8463552578
 20
8.0051101488
 30
0.0
 10
12.8505579089
 20
7.9947084796
 30
0.0
 10
12.8549061996
 20
7.9850604847
 30
0.0
 10
12.8593939442
 20
7.9761799008
 30
0.0
 10
12.8640149359
 20
7.9680792243
 30
0.0
 10
12.868763096
 20
7.9607697605
 30
0.0
 10
12.8736325826
 20
7.9542616272
 30
0.0
 10
12.8786178153
 20
7.9485639586
 30
0.0
 10
12.8837141402
 20
7.9436851385
 30
0.0
 10
12.8889161342
 20
7.9396339174
 30
0.0
 10
12.8933969273
 20
7.9369182987
 30
0.0
 10
12.8970113509
 20
7.9351943736
 30
0.0
 10
12.898826131
 20
7.9344776799
 30
0.0
 10
12.8997345669
 20
7.9341565021
 30
0.0
  0
SPLINE
  5
355
100
AcDbEntity
  8
0
100
AcDbSpline
 62
7
  6
CONTINUOUS
 70
0
 71
3
 72
38
 73
34
 74
0
 42
0.0000001
 43
0.0000001
 44
0.0000000001
 40
0.0
 40
0.0
 40
0.0
 40
0.0
 40
0.0927667475
 40
0.1832197834
 40
0.2274252535
 40
0.2708691927
 40
0.3134935099
 40
0.3552415785
 40
0.3960585926
 40
0.4358916334
 40
0.4746898617
 40
0.5124047615
 40
0.5489902201
 40
0.5844027701
 40
0.6186019349
 40
0.651550377
 40
0.6832142079
 40
0.7135635022
 40
0.7425726367
 40
0.7702207857
 40
0.7964927383
 40
0.8213796803
 40
0.8448801625
 40
0.8670015755
 40
0.8877618916
 40
0.9071917528
 40
0.9253373623
 40
0.9422640493
 40
0.9580602968
 40
0.9728423718
 40
0.9867587331
 40
0.9934517413
 40
1.0
 40
1.0
 40
1.0
 40
1.0
 10
11.3825412445
 20
10.5119300985
 30
0.0
 10
11.3683773446
 20
10.5129123683
 30
0.0
 10
11.3404223096
 20
10.5151473855
 30
0.0
 10
11.3057927407
 20
10.5186927729
 30
0.0
 10
11.2787291282
 20
10.5219514751
 30
0.0
 10
11.258963787
 20
10.524576375
 30
0.0
 10
11.239605383
 20
10.5273967802
 30
0.0
 10
11.2206827819
 20
10.5304084892
 30
0.0
 10
11.2022242377
 20
10.5336069602
 30
0.0
 10
11.1842573012
 20
10.5369874051
 30
0.0
 10
11.1668087807
 20
10.5405447568
 30
0.0
 10
11.1499046959
 20
10.544273656
 30
0.0
 10
11.1335702505
 20
10.5481685097
 30
0.0
 10
11.1178297876
 20
10.5522234868
 30
0.0
 10
11.1027067367
 20
10.5564324797
 30
0.0
 10
11.0882235923
 20
10.5607891708
 30
0.0
 10
11.0744018792
 20
10.5652870489
 30
0.0
 10
11.0612620907
 20
10.5699193582
 30
0.0
 10
11.0488236676
 20
10.5746791632
 30
0.0
 10
11.0371049758
 20
10.5795593913
 30
0.0
 10
11.026123238
 20
10.5845527903
 30
0.0
 10
11.0158945059
 20
10.5896519849
 30
0.0
 10
11.006433656
 20
10.594849564
 30
0.0
 10
10.9977543329
 20
10.6001380808
 30
0.0
 10
10.9898689214
 20
10.6055101219
 30
0.0
 10
10.9827886173
 20
10.6109584651
 30
0.0
 10
10.976523473
 20
10.6164762115
 30
0.0
 10
10.9710825573
 20
10.6220567249
 30
0.0
 10
10.9664742189
 20
10.6276942509
 30
0.0
 10
10.9627070638
 20
10.6333822116
 30
0.0
 10
10.9602440479
 20
10.6382231778
 30
0.0
 10
10.958726594
 20
10.6420954134
 30
0.0
 10
10.9581145808
 20
10.6440293885
 30
0.0
 10
10.9578460375
 20
10.6449949489
 30
0.0
  0
SPLINE
  5
356
100
AcDbEntity
  8
0
100
AcDbSpline
 62
7
  6
CONTINUOUS
 70
0
 71
3
 72
51
 73
47
 74
0
 42
0.0000001
 43
0.0000001
 44
0.0000000001
 40
0.0
 40
0.0
 40
0.0
 40
0.0
 40
0.0407231965
 40
0.0818861823
 40
0.1233730977
 40
0.1650671341
 40
0.2068505859
 40
0.2486054817
 40
0.2902139319
 40
0.3315585882
 40
0.3725230636
 40
0.4129923695
 40
0.4528533506
 40
0.491995128
 40
0.5303095493
 40
0.5676916506
 40
0.6040401363
 40
0.6392578815
 40
0.6732524692
 40
0.7059367748
 40
0.7372296185
 40
0.7670565138
 40
0.781399417
 40
0.7953514059
 40
0.8089055244
 40
0.8220553556
 40
0.8347952492
 40
0.8471201939
 40
0.8590260817
 40
0.8705095835
 40
0.8815684543
 40
0.8922014258
 40
0.9024085601
 40
0.9121911791
 40
0.9215522792
 40
0.9304965231
 40
0.9390307319
 40
0.947163973
 40
0.9549081444
 40
0.9622781866
 40
0.9692927565
 40
0.9759745507
 40
0.9823509914
 40
0.9884545285
 40
0.9943230875
 40
1.0
 40
1.0
 40
1.0
 40
1.0
 10
11.3825412445
 20
10.5119300985
 30
0.0
 10
11.3927928229
 20
10.5112191491
 30
0.0
 10
11.4134179242
 20
10.5099469783
 30
0.0
 10
11.4445171937
 20
10.5084905231
 30
0.0
 10
11.4758792515
 20
10.5074782718
 30
0.0
 10
11.5074091134
 20
10.5069133074
 30
0.0
 10
11.5390114453
 20
10.5067973529
 30
0.0
 10
11.5705906337
 20
10.5071307596
 30
0.0
 10
11.6020511555
 20
10.5079125132
 30
0.0
 10
11.6332978424
 20
10.5091402321
 30
0.0
 10
11.6642361791
 20
10.510810177
 30
0.0
 10
11.6947725886
 20
10.5129172602
 30
0.0
 10
11.7248147187
 20
10.5154550616
 30
0.0
 10
11.754271724
 20
10.5184158463
 30
0.0
 10
11.7830545442
 20
10.5217905878
 30
0.0
 10
11.8110761787
 20
10.5255689942
 30
0.0
 10
11.8382519537
 20
10.5297395381
 30
0.0
 10
11.8644997932
 20
10.53428949
 30
0.0
 10
11.8897404525
 20
10.5392049588
 30
0.0
 10
11.9138978589
 20
10.5444709245
 30
0.0
 10
11.9368990571
 20
10.550071319
 30
0.0
 10
11.9552777559
 20
10.5550656393
 30
0.0
 10
11.9693423165
 20
10.5592264011
 30
0.0
 10
11.9794215019
 20
10.5623791003
 30
0.0
 10
11.9891617984
 20
10.5656021967
 30
0.0
 10
11.9985558682
 20
10.5688933353
 30
0.0
 10
12.0075966427
 20
10.5722499538
 30
0.0
 10
12.0162773077
 20
10.5756695821
 30
0.0
 10
12.0245913536
 20
10.5791495652
 30
0.0
 10
12.0325325233
 20
10.5826873541
 30
0.0
 10
12.0400948884
 20
10.5862802081
 30
0.0
 10
12.0472727709
 20
10.5899255162
 30
0.0
 10
12.0540608461
 20
10.593620471
 30
0.0
 10
12.0604540333
 20
10.5973624203
 30
0.0
 10
12.0664476309
 20
10.6011485175
 30
0.0
 10
12.0720371655
 20
10.6049760998
 30
0.0
 10
12.0772185664
 20
10.6088423215
 30
0.0
 10
12.0819879591
 20
10.612744552
 30
0.0
 10
12.0863418821
 20
10.6166800003
 30
0.0
 10
12.0902770095
 20
10.6206461174
 30
0.0
 10
12.0937904055
 20
10.6246402129
 30
0.0
 10
12.096879167
 20
10.6286598443
 30
0.0
 10
12.0995407027
 20
10.6327023517
 30
0.0
 10
12.1017723697
 20
10.6367653967
 30
0.0
 10
12.1035716142
 20
10.6408456053
 30
0.0
 10
12.1044942348
 20
10.6436147637
 30
0.0
 10
12.1048780833
 20
10.6449949068
 30
0.0
  0
SPLINE
  5
357
100
AcDbEntity
  8
0
100
AcDbSpline
 62
7
  6
CONTINUOUS
 70
0
 71
3
 72
42
 73
38
 74
0
 42
0.0000001
 43
0.0000001
 44
0.0000000001
 40
0.0
 40
0.0
 40
0.0
 40
0.0
 40
0.0299419634
 40
0.0449235299
 40
0.0599142017
 40
0.0899287029
 40
0.1200139772
 40
0.1350926626
 40
0.1501967046
 40
0.1804840506
 40
0.2108978877
 40
0.2414513551
 40
0.2721543675
 40
0.3030134354
 40
0.3340315696
 40
0.3652082675
 40
0.3965395775
 40
0.4280182343
 40
0.4596338596
 40
0.4913732188
 40
0.5232205284
 40
0.5551578047
 40
0.5871652463
 40
0.6192216448
 40
0.6513048151
 40
0.6833920402
 40
0.7154605222
 40
0.747487836
 40
0.7794523759
 40
0.8113337934
 40
0.8431134117
 40
0.8747746318
 40
0.9063032512
 40
0.9376879208
 40
0.9533258
 40
0.9689252634
 40
1.0
 40
1.0
 40
1.0
 40
1.0
 10
9.0559273078
 20
10.2389094697
 30
0.0
 10
9.059560447
 20
10.2424187913
 30
0.0
 10
9.0652243144
 20
10.2474701244
 30
0.0
 10
9.0731564332
 20
10.2537377288
 30
0.0
 10
9.0813411502
 20
10.2596934476
 30
0.0
 10
9.0920208599
 20
10.2665325422
 30
0.0
 10
9.1032198237
 20
10.2725147708
 30
0.0
 10
9.1124560665
 20
10.2767705341
 30
0.0
 10
9.1218831029
 20
10.2806749777
 30
0.0
 10
9.1339775632
 20
10.2848733579
 30
0.0
 10
9.1488821523
 20
10.288786143
 30
0.0
 10
9.1641119617
 20
10.2915580501
 30
0.0
 10
9.1795825903
 20
10.2931737868
 30
0.0
 10
9.1952090545
 20
10.2936247305
 30
0.0
 10
9.2109053729
 20
10.2929085862
 30
0.0
 10
9.2265852752
 20
10.2910294907
 30
0.0
 10
9.2421626073
 20
10.2879979536
 30
0.0
 10
9.2575518164
 20
10.2838307995
 30
0.0
 10
9.2726684104
 20
10.2785510683
 30
0.0
 10
9.2874294161
 20
10.2721878854
 30
0.0
 10
9.3017538281
 20
10.2647762996
 30
0.0
 10
9.3155630467
 20
10.2563570897
 30
0.0
 10
9.3287813043
 20
10.2469765409
 30
0.0
 10
9.3413360748
 20
10.2366861917
 30
0.0
 10
9.3531584679
 20
10.2255425536
 30
0.0
 10
9.3641836019
 20
10.2136068026
 30
0.0
 10
9.3743509567
 20
10.2009444477
 30
0.0
 10
9.3836047024
 20
10.1876249733
 30
0.0
 10
9.3918940032
 20
10.1737214668
 30
0.0
 10
9.3991732945
 20
10.1593102058
 30
0.0
 10
9.4054025299
 20
10.1444703046
 30
0.0
 10
9.410547413
 20
10.1292830653
 30
0.0
 10
9.4145795219
 20
10.1138323518
 30
0.0
 10
9.4169968609
 20
10.1007902746
 30
0.0
 10
9.4183529163
 20
10.0903111237
 30
0.0
 10
9.4193206997
 20
10.0798420005
 30
0.0
 10
9.4196137352
 20
10.0719640558
 30
0.0
 10
9.4196137352
 20
10.0667217145
 30
0.0
  0
SPLINE
  5
358
100
AcDbEntity
  8
0
100
AcDbSpline
 62
7
  6
CONTINUOUS
 70
0
 71
3
 72
42
 73
38
 74
0
 42
0.0000001
 43
0.0000001
 44
0.0000000001
 40
0.0
 40
0.0
 40
0.0
 40
0.0
 40
0.0299419634
 40
0.0449235299
 40
0.0599142017
 40
0.0899287029
 40
0.1200139772
 40
0.1350926626
 40
0.1501967046
 40
0.1804840506
 40
0.2108978877
 40
0.2414513551
 40
0.2721543675
 40
0.3030134354
 40
0.3340315696
 40
0.3652082675
 40
0.3965395775
 40
0.4280182343
 40
0.4596338596
 40
0.4913732188
 40
0.5232205284
 40
0.5551578047
 40
0.5871652463
 40
0.6192216448
 40
0.6513048151
 40
0.6833920402
 40
0.7154605222
 40
0.747487836
 40
0.7794523759
 40
0.8113337934
 40
0.8431134117
 40
0.8747746318
 40
0.9063032512
 40
0.9376879208
 40
0.9533258
 40
0.9689252634
 40
1.0
 40
1.0
 40
1.0
 40
1.0
 10
12.0734798092
 20
10.029641493
 30
0.0
 10
12.0771129483
 20
10.0331508146
 30
0.0
 10
12.0827768158
 20
10.0382021477
 30
0.0
 10
12.0907089346
 20
10.044469752
 30
0.0
 10
12.0988936515
 20
10.0504254708
 30
0.0
 10
12.1095733613
 20
10.0572645655
 30
0.0
 10
12.120772325
 20
10.0632467941
 30
0.0
 10
12.1300085678
 20
10.0675025574
 30
0.0
 10
12.1394356043
 20
10.0714070009
 30
0.0
 10
12.1515300645
 20
10.0756053812
 30
0.0
 10
12.1664346536
 20
10.0795181663
 30
0.0
 10
12.1816644631
 20
10.0822900734
 30
0.0
 10
12.1971350916
 20
10.0839058101
 30
0.0
 10
12.2127615558
 20
10.0843567538
 30
0.0
 10
12.2284578743
 20
10.0836406095
 30
0.0
 10
12.2441377766
 20
10.081761514
 30
0.0
 10
12.2597151086
 20
10.0787299769
 30
0.0
 10
12.2751043177
 20
10.0745628227
 30
0.0
 10
12.2902209117
 20
10.0692830915
 30
0.0
 10
12.3049819175
 20
10.0629199087
 30
0.0
 10
12.3193063294
 20
10.0555083229
 30
0.0
 10
12.3331155481
 20
10.047089113
 30
0.0
 10
12.3463338056
 20
10.0377085641
 30
0.0
 10
12.3588885762
 20
10.027418215
 30
0.0
 10
12.3707109692
 20
10.0162745768
 30
0.0
 10
12.3817361032
 20
10.0043388259
 30
0.0
 10
12.391903458
 20
9.9916764709
 30
0.0
 10
12.4011572037
 20
9.9783569965
 30
0.0
 10
12.4094465046
 20
9.9644534901
 30
0.0
 10
12.4167257959
 20
9.9500422291
 30
0.0
 10
12.4229550312
 20
9.9352023279
 30
0.0
 10
12.4280999143
 20
9.9200150885
 30
0.0
 10
12.4321320233
 20
9.9045643751
 30
0.0
 10
12.4345493622
 20
9.8915222979
 30
0.0
 10
12.4359054176
 20
9.881043147
 30
0.0
 10
12.4368732011
 20
9.8705740238
 30
0.0
 10
12.4371662366
 20
9.862696079
 30
0.0
 10
12.4371662366
 20
9.8574537378
 30
0.0
  0
SPLINE
  5
359
100
AcDbEntity
  8
0
100
AcDbSpline
 62
7
  6
CONTINUOUS
 70
0
 71
3
 72
42
 73
38
 74
0
 42
0.0000001
 43
0.0000001
 44
0.0000000001
 40
0.0
 40
0.0
 40
0.0
 40
0.0
 40
0.0299419634
 40
0.0449235299
 40
0.0599142017
 40
0.0899287029
 40
0.1200139772
 40
0.1350926626
 40
0.1501967046
 40
0.1804840506
 40
0.2108978877
 40
0.2414513551
 40
0.2721543675
 40
0.3030134354
 40
0.3340315696
 40
0.3652082675
 40
0.3965395775
 40
0.4280182343
 40
0.4596338596
 40
0.4913732188
 40
0.5232205284
 40
0.5551578047
 40
0.5871652463
 40
0.6192216448
 40
0.6513048151
 40
0.6833920402
 40
0.7154605222
 40
0.747487836
 40
0.7794523759
 40
0.8113337934
 40
0.8431134117
 40
0.8747746318
 40
0.9063032512
 40
0.9376879208
 40
0.9533258
 40
0.9689252634
 40
1.0
 40
1.0
 40
1.0
 40
1.0
 10
12.0734798092
 20
6.5291262802
 30
0.0
 10
12.0771129483
 20
6.5326356017
 30
0.0
 10
12.0827768158
 20
6.5376869349
 30
0.0
 10
12.0907089346
 20
6.5439545392
 30
0.0
 10
12.0988936515
 20
6.549910258
 30
0.0
 10
12.1095733613
 20
6.5567493527
 30
0.0
 10
12.120772325
 20
6.5627315813
 30
0.0
 10
12.1300085678
 20
6.5669873446
 30
0.0
 10
12.1394356043
 20
6.5708917881
 30
0.0
 10
12.1515300645
 20
6.5750901684
 30
0.0
 10
12.1664346536
 20
6.5790029535
 30
0.0
 10
12.1816644631
 20
6.5817748606
 30
0.0
 10
12.1971350916
 20
6.5833905973
 30
0.0
 10
12.2127615558
 20
6.583841541
 30
0.0
 10
12.2284578743
 20
6.5831253966
 30
0.0
 10
12.2441377766
 20
6.5812463012
 30
0.0
 10
12.2597151086
 20
6.5782147641
 30
0.0
 10
12.2751043177
 20
6.5740476099
 30
0.0
 10
12.2902209117
 20
6.5687678787
 30
0.0
 10
12.3049819175
 20
6.5624046958
 30
0.0
 10
12.3193063294
 20
6.5549931101
 30
0.0
 10
12.3331155481
 20
6.5465739002
 30
0.0
 10
12.3463338056
 20
6.5371933513
 30
0.0
 10
12.3588885762
 20
6.5269030022
 30
0.0
 10
12.3707109692
 20
6.515759364
 30
0.0
 10
12.3817361032
 20
6.503823613
 30
0.0
 10
12.391903458
 20
6.4911612581
 30
0.0
 10
12.4011572037
 20
6.4778417837
 30
0.0
 10
12.4094465046
 20
6.4639382772
 30
0.0
 10
12.4167257959
 20
6.4495270162
 30
0.0
 10
12.4229550312
 20
6.434687115
 30
0.0
 10
12.4280999143
 20
6.4194998757
 30
0.0
 10
12.4321320233
 20
6.4040491623
 30
0.0
 10
12.4345493622
 20
6.3910070851
 30
0.0
 10
12.4359054176
 20
6.3805279341
 30
0.0
 10
12.4368732011
 20
6.3700588109
 30
0.0
 10
12.4371662366
 20
6.3621808662
 30
0.0
 10
12.4371662366
 20
6.3569385249
 30
0.0
  0
SPLINE
  5
35A
100
AcDbEntity
  8
0
100
AcDbSpline
 62
7
  6
CONTINUOUS
 70
0
 71
3
 72
42
 73
38
 74
0
 42
0.0000001
 43
0.0000001
 44
0.0000000001
 40
0.0
 40
0.0
 40
0.0
 40
0.0
 40
0.0299419634
 40
0.0449235299
 40
0.0599142017
 40
0.0899287029
 40
0.1200139772
 40
0.1350926626
 40
0.1501967046
 40
0.1804840506
 40
0.2108978877
 40
0.2414513551
 40
0.2721543675
 40
0.3030134354
 40
0.3340315696
 40
0.3652082675
 40
0.3965395775
 40
0.4280182343
 40
0.4596338596
 40
0.4913732188
 40
0.5232205284
 40
0.5551578047
 40
0.5871652463
 40
0.6192216448
 40
0.6513048151
 40
0.6833920402
 40
0.7154605222
 40
0.747487836
 40
0.7794523759
 40
0.8113337934
 40
0.8431134117
 40
0.8747746318
 40
0.9063032512
 40
0.9376879208
 40
0.9533258
 40
0.9689252634
 40
1.0
 40
1.0
 40
1.0
 40
1.0
 10
9.0559273078
 20
6.7383942569
 30
0.0
 10
9.059560447
 20
6.7419035785
 30
0.0
 10
9.0652243144
 20
6.7469549116
 30
0.0
 10
9.0731564332
 20
6.753222516
 30
0.0
 10
9.0813411502
 20
6.7591782348
 30
0.0
 10
9.0920208599
 20
6.7660173294
 30
0.0
 10
9.1032198237
 20
6.771999558
 30
0.0
 10
9.1124560665
 20
6.7762553213
 30
0.0
 10
9.1218831029
 20
6.7801597649
 30
0.0
 10
9.1339775632
 20
6.7843581451
 30
0.0
 10
9.1488821523
 20
6.7882709302
 30
0.0
 10
9.1641119617
 20
6.7910428373
 30
0.0
 10
9.1795825903
 20
6.792658574
 30
0.0
 10
9.1952090545
 20
6.7931095177
 30
0.0
 10
9.2109053729
 20
6.7923933734
 30
0.0
 10
9.2265852752
 20
6.7905142779
 30
0.0
 10
9.2421626073
 20
6.7874827408
 30
0.0
 10
9.2575518164
 20
6.7833155867
 30
0.0
 10
9.2726684104
 20
6.7780358554
 30
0.0
 10
9.2874294161
 20
6.7716726726
 30
0.0
 10
9.3017538281
 20
6.7642610868
 30
0.0
 10
9.3155630467
 20
6.7558418769
 30
0.0
 10
9.3287813043
 20
6.7464613281
 30
0.0
 10
9.3413360748
 20
6.7361709789
 30
0.0
 10
9.3531584679
 20
6.7250273408
 30
0.0
 10
9.3641836019
 20
6.7130915898
 30
0.0
 10
9.3743509567
 20
6.7004292349
 30
0.0
 10
9.3836047024
 20
6.6871097605
 30
0.0
 10
9.3918940032
 20
6.673206254
 30
0.0
 10
9.3991732945
 20
6.658794993
 30
0.0
 10
9.4054025299
 20
6.6439550918
 30
0.0
 10
9.410547413
 20
6.6287678525
 30
0.0
 10
9.4145795219
 20
6.613317139
 30
0.0
 10
9.4169968609
 20
6.6002750618
 30
0.0
 10
9.4183529163
 20
6.5897959109
 30
0.0
 10
9.4193206997
 20
6.5793267877
 30
0.0
 10
9.4196137352
 20
6.571448843
 30
0.0
 10
9.4196137352
 20
6.5662065017
 30
0.0
  0
SPLINE
  5
35B
100
AcDbEntity
  8
0
100
AcDbSpline
 62
7
  6
CONTINUOUS
 70
0
 71
3
 72
42
 73
38
 74
0
 42
0.0000001
 43
0.0000001
 44
0.0000000001
 40
0.0
 40
0.0
 40
0.0
 40
0.0
 40
0.0299419634
 40
0.0449235299
 40
0.0599142017
 40
0.0899287029
 40
0.1200139772
 40
0.1350926626
 40
0.1501967046
 40
0.1804840506
 40
0.2108978877
 40
0.2414513551
 40
0.2721543675
 40
0.3030134354
 40
0.3340315696
 40
0.3652082675
 40
0.3965395775
 40
0.4280182343
 40
0.4596338596
 40
0.4913732188
 40
0.5232205284
 40
0.5551578047
 40
0.5871652463
 40
0.6192216448
 40
0.6513048151
 40
0.6833920402
 40
0.7154605222
 40
0.747487836
 40
0.7794523759
 40
0.8113337934
 40
0.8431134117
 40
0.8747746318
 40
0.9063032512
 40
0.9376879208
 40
0.9533258
 40
0.9689252634
 40
1.0
 40
1.0
 40
1.0
 40
1.0
 10
9.9001465712
 20
8.0987924424
 30
0.0
 10
9.9037797104
 20
8.102301764
 30
0.0
 10
9.9094435778
 20
8.1073530971
 30
0.0
 10
9.9173756966
 20
8.1136207014
 30
0.0
 10
9.9255604136
 20
8.1195764202
 30
0.0
 10
9.9362401234
 20
8.1264155149
 30
0.0
 10
9.9474390871
 20
8.1323977435
 30
0.0
 10
9.9566753299
 20
8.1366535068
 30
0.0
 10
9.9661023663
 20
8.1405579503
 30
0.0
 10
9.9781968266
 20
8.1447563306
 30
0.0
 10
9.9931014157
 20
8.1486691157
 30
0.0
 10
10.0083312252
 20
8.1514410228
 30
0.0
 10
10.0238018537
 20
8.1530567595
 30
0.0
 10
10.0394283179
 20
8.1535077032
 30
0.0
 10
10.0551246364
 20
8.1527915589
 30
0.0
 10
10.0708045387
 20
8.1509124634
 30
0.0
 10
10.0863818707
 20
8.1478809263
 30
0.0
 10
10.1017710798
 20
8.1437137721
 30
0.0
 10
10.1168876738
 20
8.1384340409
 30
0.0
 10
10.1316486796
 20
8.1320708581
 30
0.0
 10
10.1459730915
 20
8.1246592723
 30
0.0
 10
10.1597823102
 20
8.1162400624
 30
0.0
 10
10.1730005677
 20
8.1068595135
 30
0.0
 10
10.1855553383
 20
8.0965691644
 30
0.0
 10
10.1973777313
 20
8.0854255262
 30
0.0
 10
10.2084028653
 20
8.0734897753
 30
0.0
 10
10.2185702201
 20
8.0608274203
 30
0.0
 10
10.2278239658
 20
8.0475079459
 30
0.0
 10
10.2361132666
 20
8.0336044395
 30
0.0
 10
10.2433925579
 20
8.0191931785
 30
0.0
 10
10.2496217933
 20
8.0043532773
 30
0.0
 10
10.2547666764
 20
7.9891660379
 30
0.0
 10
10.2587987854
 20
7.9737153245
 30
0.0
 10
10.2612161243
 20
7.9606732473
 30
0.0
 10
10.2625721797
 20
7.9501940964
 30
0.0
 10
10.2635399632
 20
7.9397249732
 30
0.0
 10
10.2638329987
 20
7.9318470284
 30
0.0
 10
10.2638329987
 20
7.9266046872
 30
0.0
  0
SPLINE
  5
35C
100
AcDbEntity
  8
0
100
AcDbSpline
 62
7
  6
CONTINUOUS
 70
0
 71
3
 72
42
 73
38
 74
0
 42
0.0000001
 43
0.0000001
 44
0.0000000001
 40
0.0
 40
0.0
 40
0.0
 40
0.0
 40
0.0299419634
 40
0.0449235299
 40
0.0599142017
 40
0.0899287029
 40
0.1200139772
 40
0.1350926626
 40
0.1501967046
 40
0.1804840506
 40
0.2108978877
 40
0.2414513551
 40
0.2721543675
 40
0.3030134354
 40
0.3340315696
 40
0.3652082675
 40
0.3965395775
 40
0.4280182343
 40
0.4596338596
 40
0.4913732188
 40
0.5232205284
 40
0.5551578047
 40
0.5871652463
 40
0.6192216448
 40
0.6513048151
 40
0.6833920402
 40
0.7154605222
 40
0.747487836
 40
0.7794523759
 40
0.8113337934
 40
0.8431134117
 40
0.8747746318
 40
0.9063032512
 40
0.9376879208
 40
0.9533258
 40
0.9689252634
 40
1.0
 40
1.0
 40
1.0
 40
1.0
 10
10.4140190888
 20
8.4852649084
 30
0.0
 10
10.4176522279
 20
8.4887742299
 30
0.0
 10
10.4233160954
 20
8.4938255631
 30
0.0
 10
10.4312482142
 20
8.5000931674
 30
0.0
 10
10.4394329311
 20
8.5060488862
 30
0.0
 10
10.4501126409
 20
8.5128879809
 30
0.0
 10
10.4613116046
 20
8.5188702094
 30
0.0
 10
10.4705478474
 20
8.5231259728
 30
0.0
 10
10.4799748839
 20
8.5270304163
 30
0.0
 10
10.4920693441
 20
8.5312287966
 30
0.0
 10
10.5069739332
 20
8.5351415817
 30
0.0
 10
10.5222037427
 20
8.5379134887
 30
0.0
 10
10.5376743712
 20
8.5395292254
 30
0.0
 10
10.5533008354
 20
8.5399801691
 30
0.0
 10
10.5689971539
 20
8.5392640248
 30
0.0
 10
10.5846770562
 20
8.5373849294
 30
0.0
 10
10.6002543882
 20
8.5343533922
 30
0.0
 10
10.6156435973
 20
8.5301862381
 30
0.0
 10
10.6307601913
 20
8.5249065069
 30
0.0
 10
10.6455211971
 20
8.518543324
 30
0.0
 10
10.659845609
 20
8.5111317383
 30
0.0
 10
10.6736548277
 20
8.5027125284
 30
0.0
 10
10.6868730852
 20
8.4933319795
 30
0.0
 10
10.6994278558
 20
8.4830416304
 30
0.0
 10
10.7112502488
 20
8.4718979922
 30
0.0
 10
10.7222753828
 20
8.4599622412
 30
0.0
 10
10.7324427376
 20
8.4472998863
 30
0.0
 10
10.7416964833
 20
8.4339804119
 30
0.0
 10
10.7499857842
 20
8.4200769054
 30
0.0
 10
10.7572650755
 20
8.4056656444
 30
0.0
 10
10.7634943108
 20
8.3908257432
 30
0.0
 10
10.7686391939
 20
8.3756385039
 30
0.0
 10
10.7726713029
 20
8.3601877905
 30
0.0
 10
10.7750886418
 20
8.3471457133
 30
0.0
 10
10.7764446972
 20
8.3366665623
 30
0.0
 10
10.7774124807
 20
8.3261974391
 30
0.0
 10
10.7777055162
 20
8.3183194944
 30
0.0
 10
10.7777055162
 20
8.3130771531
 30
0.0
  0
SPLINE
  5
35D
100
AcDbEntity
  8
0
100
AcDbSpline
 62
7
  6
CONTINUOUS
 70
0
 71
3
 72
18
 73
14
 74
0
 42
0.0000001
 43
0.0000001
 44
0.0000000001
 40
0.0
 40
0.0
 40
0.0
 40
0.0
 40
0.064936263
 40
0.1294303641
 40
0.1935299256
 40
0.2572765344
 40
0.3838091034
 40
0.5092649998
 40
0.6337251518
 40
0.7571464505
 40
0.8184279012
 40
0.8793692697
 40
1.0
 40
1.0
 40
1.0
 40
1.0
 10
10.766915116
 20
8.3800083314
 30
0.0
 10
10.7647740051
 20
8.3815418978
 30
0.0
 10
10.7605897421
 20
8.3847168985
 30
0.0
 10
10.7545982448
 20
8.3897927865
 30
0.0
 10
10.7489145457
 20
8.3951412017
 30
0.0
 10
10.7417654306
 20
8.4025846422
 30
0.0
 10
10.7335818479
 20
8.4124615195
 30
0.0
 10
10.7249513646
 20
8.4250799502
 30
0.0
 10
10.7175070378
 20
8.4382855697
 30
0.0
 10
10.7122577847
 20
8.4496886269
 30
0.0
 10
10.7086297788
 20
8.4589696606
 30
0.0
 10
10.7053979853
 20
8.4682757695
 30
0.0
 10
10.7033763059
 20
8.475366414
 30
0.0
 10
10.7022122697
 20
8.4801184223
 30
0.0
  0
SPLINE
  5
35E
100
AcDbEntity
  8
0
100
AcDbSpline
 62
7
  6
CONTINUOUS
 70
0
 71
3
 72
42
 73
38
 74
0
 42
0.0000001
 43
0.0000001
 44
0.0000000001
 40
0.0
 40
0.0
 40
0.0
 40
0.0
 40
0.0299419634
 40
0.0449235299
 40
0.0599142017
 40
0.0899287029
 40
0.1200139772
 40
0.1350926626
 40
0.1501967046
 40
0.1804840506
 40
0.2108978877
 40
0.2414513551
 40
0.2721543675
 40
0.3030134354
 40
0.3340315696
 40
0.3652082675
 40
0.3965395775
 40
0.4280182343
 40
0.4596338596
 40
0.4913732188
 40
0.5232205284
 40
0.5551578047
 40
0.5871652463
 40
0.6192216448
 40
0.6513048151
 40
0.6833920402
 40
0.7154605222
 40
0.747487836
 40
0.7794523759
 40
0.8113337934
 40
0.8431134117
 40
0.8747746318
 40
0.9063032512
 40
0.9376879208
 40
0.9533258
 40
0.9689252634
 40
1.0
 40
1.0
 40
1.0
 40
1.0
 10
11.198350826
 20
8.4308713176
 30
0.0
 10
11.2019839652
 20
8.4343806392
 30
0.0
 10
11.2076478326
 20
8.4394319723
 30
0.0
 10
11.2155799514
 20
8.4456995767
 30
0.0
 10
11.2237646684
 20
8.4516552955
 30
0.0
 10
11.2344443782
 20
8.4584943901
 30
0.0
 10
11.2456433419
 20
8.4644766187
 30
0.0
 10
11.2548795847
 20
8.468732382
 30
0.0
 10
11.2643066211
 20
8.4726368256
 30
0.0
 10
11.2764010814
 20
8.4768352058
 30
0.0
 10
11.2913056705
 20
8.480747991
 30
0.0
 10
11.30653548
 20
8.483519898
 30
0.0
 10
11.3220061085
 20
8.4851356347
 30
0.0
 10
11.3376325727
 20
8.4855865784
 30
0.0
 10
11.3533288912
 20
8.4848704341
 30
0.0
 10
11.3690087935
 20
8.4829913386
 30
0.0
 10
11.3845861255
 20
8.4799598015
 30
0.0
 10
11.3999753346
 20
8.4757926474
 30
0.0
 10
11.4150919286
 20
8.4705129162
 30
0.0
 10
11.4298529344
 20
8.4641497333
 30
0.0
 10
11.4441773463
 20
8.4567381475
 30
0.0
 10
11.457986565
 20
8.4483189376
 30
0.0
 10
11.4712048225
 20
8.4389383888
 30
0.0
 10
11.4837595931
 20
8.4286480396
 30
0.0
 10
11.4955819861
 20
8.4175044015
 30
0.0
 10
11.5066071201
 20
8.4055686505
 30
0.0
 10
11.5167744749
 20
8.3929062956
 30
0.0
 10
11.5260282206
 20
8.3795868212
 30
0.0
 10
11.5343175214
 20
8.3656833147
 30
0.0
 10
11.5415968127
 20
8.3512720537
 30
0.0
 10
11.5478260481
 20
8.3364321525
 30
0.0
 10
11.5529709312
 20
8.3212449132
 30
0.0
 10
11.5570030402
 20
8.3057941997
 30
0.0
 10
11.5594203791
 20
8.2927521225
 30
0.0
 10
11.5607764345
 20
8.2822729716
 30
0.0
 10
11.561744218
 20
8.2718038484
 30
0.0
 10
11.5620372535
 20
8.2639259037
 30
0.0
 10
11.5620372535
 20
8.2586835624
 30
0.0
  0
SPLINE
  5
35F
100
AcDbEntity
  8
0
100
AcDbSpline
 62
7
  6
CONTINUOUS
 70
0
 71
3
 72
42
 73
38
 74
0
 42
0.0000001
 43
0.0000001
 44
0.0000000001
 40
0.0
 40
0.0
 40
0.0
 40
0.0
 40
0.0299419634
 40
0.0449235299
 40
0.0599142017
 40
0.0899287029
 40
0.1200139772
 40
0.1350926626
 40
0.1501967046
 40
0.1804840506
 40
0.2108978877
 40
0.2414513551
 40
0.2721543675
 40
0.3030134354
 40
0.3340315696
 40
0.3652082675
 40
0.3965395775
 40
0.4280182343
 40
0.4596338596
 40
0.4913732188
 40
0.5232205284
 40
0.5551578047
 40
0.5871652463
 40
0.6192216448
 40
0.6513048151
 40
0.6833920402
 40
0.7154605222
 40
0.747487836
 40
0.7794523759
 40
0.8113337934
 40
0.8431134117
 40
0.8747746318
 40
0.9063032512
 40
0.9376879208
 40
0.9533258
 40
0.9689252634
 40
1.0
 40
1.0
 40
1.0
 40
1.0
 10
10.806185015
 20
9.0318279512
 30
0.0
 10
10.8098181541
 20
9.0353372727
 30
0.0
 10
10.8154820216
 20
9.0403886059
 30
0.0
 10
10.8234141404
 20
9.0466562102
 30
0.0
 10
10.8315988573
 20
9.052611929
 30
0.0
 10
10.8422785671
 20
9.0594510237
 30
0.0
 10
10.8534775309
 20
9.0654332522
 30
0.0
 10
10.8627137736
 20
9.0696890156
 30
0.0
 10
10.8721408101
 20
9.0735934591
 30
0.0
 10
10.8842352704
 20
9.0777918394
 30
0.0
 10
10.8991398594
 20
9.0817046245
 30
0.0
 10
10.9143696689
 20
9.0844765315
 30
0.0
 10
10.9298402975
 20
9.0860922682
 30
0.0
 10
10.9454667616
 20
9.0865432119
 30
0.0
 10
10.9611630801
 20
9.0858270676
 30
0.0
 10
10.9768429824
 20
9.0839479722
 30
0.0
 10
10.9924203144
 20
9.0809164351
 30
0.0
 10
11.0078095235
 20
9.0767492809
 30
0.0
 10
11.0229261176
 20
9.0714695497
 30
0.0
 10
11.0376871233
 20
9.0651063668
 30
0.0
 10
11.0520115352
 20
9.0576947811
 30
0.0
 10
11.0658207539
 20
9.0492755712
 30
0.0
 10
11.0790390114
 20
9.0398950223
 30
0.0
 10
11.091593782
 20
9.0296046732
 30
0.0
 10
11.1034161751
 20
9.018461035
 30
0.0
 10
11.1144413091
 20
9.006525284
 30
0.0
 10
11.1246086639
 20
8.9938629291
 30
0.0
 10
11.1338624096
 20
8.9805434547
 30
0.0
 10
11.1421517104
 20
8.9666399482
 30
0.0
 10
11.1494310017
 20
8.9522286872
 30
0.0
 10
11.155660237
 20
8.937388786
 30
0.0
 10
11.1608051201
 20
8.9222015467
 30
0.0
 10
11.1648372291
 20
8.9067508333
 30
0.0
 10
11.167254568
 20
8.8937087561
 30
0.0
 10
11.1686106234
 20
8.8832296051
 30
0.0
 10
11.1695784069
 20
8.8727604819
 30
0.0
 10
11.1698714424
 20
8.8648825372
 30
0.0
 10
11.1698714424
 20
8.8596401959
 30
0.0
  0
SPLINE
  5
360
100
AcDbEntity
  8
0
100
AcDbSpline
 62
7
  6
CONTINUOUS
 70
0
 71
3
 72
15
 73
11
 74
0
 42
0.0000001
 43
0.0000001
 44
0.0000000001
 40
0.0
 40
0.0
 40
0.0
 40
0.0
 40
0.1233171261
 40
0.2468171865
 40
0.3706749939
 40
0.4950495802
 40
0.6200773232
 40
0.7458671315
 40
0.872492731
 40
1.0
 40
1.0
 40
1.0
 40
1.0
 10
9.8604436058
 20
9.2737233851
 30
0.0
 10
9.8629681394
 20
9.2761618762
 30
0.0
 10
9.8682881101
 20
9.280774302
 30
0.0
 10
9.8769708264
 20
9.2868014922
 30
0.0
 10
9.8862746513
 20
9.2918823334
 30
0.0
 10
9.8961043519
 20
9.2959646039
 30
0.0
 10
9.9063607737
 20
9.2990077745
 30
0.0
 10
9.916940598
 20
9.3009814175
 30
0.0
 10
9.9277358289
 20
9.3018663367
 30
0.0
 10
9.9349821111
 20
9.3017249952
 30
0.0
 10
9.9386025931
 20
9.3014739139
 30
0.0
  0
SPLINE
  5
361
100
AcDbEntity
  8
0
100
AcDbSpline
 62
7
  6
CONTINUOUS
 70
0
 71
3
 72
15
 73
11
 74
0
 42
0.0000001
 43
0.0000001
 44
0.0000000001
 40
0.0
 40
0.0
 40
0.0
 40
0.0
 40
0.1233171261
 40
0.2468171865
 40
0.3706749939
 40
0.4950495802
 40
0.6200773232
 40
0.7458671315
 40
0.872492731
 40
1.0
 40
1.0
 40
1.0
 40
1.0
 10
11.9120702524
 20
9.1314425939
 30
0.0
 10
11.9145947861
 20
9.133881085
 30
0.0
 10
11.9199147567
 20
9.1384935108
 30
0.0
 10
11.928597473
 20
9.144520701
 30
0.0
 10
11.9379012979
 20
9.1496015422
 30
0.0
 10
11.9477309985
 20
9.1536838128
 30
0.0
 10
11.9579874204
 20
9.1567269833
 30
0.0
 10
11.9685672446
 20
9.1587006263
 30
0.0
 10
11.9793624755
 20
9.1595855455
 30
0.0
 10
11.9866087577
 20
9.159444204
 30
0.0
 10
11.9902292397
 20
9.1591931227
 30
0.0
  0
SPLINE
  5
362
100
AcDbEntity
  8
0
100
AcDbSpline
 62
7
  6
CONTINUOUS
 70
0
 71
3
 72
15
 73
11
 74
0
 42
0.0000001
 43
0.0000001
 44
0.0000000001
 40
0.0
 40
0.0
 40
0.0
 40
0.0
 40
0.1233171261
 40
0.2468171865
 40
0.3706749939
 40
0.4950495802
 40
0.6200773232
 40
0.7458671315
 40
0.872492731
 40
1.0
 40
1.0
 40
1.0
 40
1.0
 10
11.9120702524
 20
7.3802190021
 30
0.0
 10
11.9145947861
 20
7.3826574932
 30
0.0
 10
11.9199147567
 20
7.387269919
 30
0.0
 10
11.928597473
 20
7.3932971092
 30
0.0
 10
11.9379012979
 20
7.3983779504
 30
0.0
 10
11.9477309985
 20
7.4024602209
 30
0.0
 10
11.9579874204
 20
7.4055033914
 30
0.0
 10
11.9685672446
 20
7.4074770345
 30
0.0
 10
11.9793624755
 20
7.4083619537
 30
0.0
 10
11.9866087577
 20
7.4082206121
 30
0.0
 10
11.9902292397
 20
7.4079695309
 30
0.0
  0
SPLINE
  5
363
100
AcDbEntity
  8
0
100
AcDbSpline
 62
7
  6
CONTINUOUS
 70
0
 71
3
 72
15
 73
11
 74
0
 42
0.0000001
 43
0.0000001
 44
0.0000000001
 40
0.0
 40
0.0
 40
0.0
 40
0.0
 40
0.1233171261
 40
0.2468171865
 40
0.3706749939
 40
0.4950495802
 40
0.6200773232
 40
0.7458671315
 40
0.872492731
 40
1.0
 40
1.0
 40
1.0
 40
1.0
 10
9.8604436058
 20
7.5224997933
 30
0.0
 10
9.8629681394
 20
7.5249382844
 30
0.0
 10
9.8682881101
 20
7.5295507102
 30
0.0
 10
9.8769708264
 20
7.5355779004
 30
0.0
 10
9.8862746513
 20
7.5406587416
 30
0.0
 10
9.8961043519
 20
7.5447410121
 30
0.0
 10
9.9063607737
 20
7.5477841826
 30
0.0
 10
9.916940598
 20
7.5497578257
 30
0.0
 10
9.9277358289
 20
7.5506427449
 30
0.0
 10
9.9349821111
 20
7.5505014033
 30
0.0
 10
9.9386025931
 20
7.5502503221
 30
0.0
  0
SPLINE
  5
364
100
AcDbEntity
  8
0
100
AcDbSpline
 62
7
  6
CONTINUOUS
 70
0
 71
3
 72
38
 73
34
 74
0
 42
0.0000001
 43
0.0000001
 44
0.0000000001
 40
0.0
 40
0.0
 40
0.0
 40
0.0
 40
0.0072740291
 40
0.0148705467
 40
0.0227981199
 40
0.0310634322
 40
0.0396716723
 40
0.0486267104
 40
0.0579310866
 40
0.0675864128
 40
0.087949966
 40
0.1097139675
 40
0.1328621013
 40
0.1573687464
 40
0.1832004224
 40
0.2103168751
 40
0.2386718919
 40
0.2682139819
 40
0.29888699
 40
0.3306305745
 40
0.3633806086
 40
0.3970695153
 40
0.4316266425
 40
0.4669785851
 40
0.5030494707
 40
0.5397612151
 40
0.5770337978
 40
0.6147855483
 40
0.6913914982
 40
0.7689038028
 40
0.8466350203
 40
0.9238949572
 40
1.0
 40
1.0
 40
1.0
 40
1.0
 10
10.60126921
 20
10.7502045503
 30
0.0
 10
10.600489729
 20
10.7494791563
 30
0.0
 10
10.5988603639
 20
10.7480343554
 30
0.0
 10
10.5962696122
 20
10.7459293145
 30
0.0
 10
10.5934815091
 20
10.743841428
 30
0.0
 10
10.5904977844
 20
10.7417718997
 30
0.0
 10
10.5873201488
 20
10.7397218934
 30
0.0
 10
10.5839504493
 20
10.7376926367
 30
0.0
 10
10.5803906767
 20
10.7356852211
 30
0.0
 10
10.5753029355
 20
10.7329915466
 30
0.0
 10
10.568472729
 20
10.7296972835
 30
0.0
 10
10.5596944079
 20
10.7259170458
 30
0.0
 10
10.5502145517
 20
10.7222513931
 30
0.0
 10
10.540055482
 20
10.7187090366
 30
0.0
 10
10.5292409492
 20
10.7152984098
 30
0.0
 10
10.517796424
 20
10.7120276766
 30
0.0
 10
10.5057489201
 20
10.7089046717
 30
0.0
 10
10.493126947
 20
10.7059368739
 30
0.0
 10
10.4799604112
 20
10.7031313991
 30
0.0
 10
10.466280537
 20
10.7004949759
 30
0.0
 10
10.4521197926
 20
10.6980339319
 30
0.0
 10
10.4375118133
 20
10.695754159
 30
0.0
 10
10.422491312
 20
10.6936611165
 30
0.0
 10
10.4070939893
 20
10.6917598186
 30
0.0
 10
10.3913564458
 20
10.6900548223
 30
0.0
 10
10.375316112
 20
10.6885502168
 30
0.0
 10
10.3590111067
 20
10.6872495715
 30
0.0
 10
10.3368628536
 20
10.6857845111
 30
0.0
 10
10.3088027551
 20
10.6844890419
 30
0.0
 10
10.2748676198
 20
10.6837902543
 30
0.0
 10
10.2408297394
 20
10.6839467487
 30
0.0
 10
10.2070128179
 20
10.6849569615
 30
0.0
 10
10.1845944798
 20
10.6862061328
 30
0.0
 10
10.1734806874
 20
10.6869768769
 30
0.0
  0
SPLINE
  5
365
100
AcDbEntity
  8
0
100
AcDbSpline
 62
7
  6
CONTINUOUS
 70
0
 71
3
 72
55
 73
51
 74
0
 42
0.0000001
 43
0.0000001
 44
0.0000000001
 40
0.0
 40
0.0
 40
0.0
 40
0.0
 40
0.0055575255
 40
0.0111779358
 40
0.0169218605
 40
0.0228457326
 40
0.0290004969
 40
0.0354308887
 40
0.0387623077
 40
0.0421765047
 40
0.0492673467
 40
0.0567313798
 40
0.0645904837
 40
0.0728621462
 40
0.0815601811
 40
0.0906950985
 40
0.1002747054
 40
0.1103043528
 40
0.1207873647
 40
0.1317252355
 40
0.1431178796
 40
0.1549638367
 40
0.1672603628
 40
0.1800036634
 40
0.1931888688
 40
0.20681028
 40
0.2208612901
 40
0.2353346
 40
0.2502221528
 40
0.265515278
 40
0.2812046823
 40
0.2972805039
 40
0.3137323754
 40
0.3477196507
 40
0.3830747046
 40
0.4196984526
 40
0.4574859565
 40
0.4963271029
 40
0.5361072297
 40
0.5767077162
 40
0.6180065483
 40
0.6598788667
 40
0.7021975035
 40
0.7448335109
 40
0.7876566804
 40
0.8305360739
 40
0.8733404964
 40
0.9159391694
 40
0.9582017755
 40
1.0
 40
1.0
 40
1.0
 40
1.0
 10
12.2658620726
 20
10.6865896174
 30
0.0
 10
12.2658620726
 20
10.6847726075
 30
0.0
 10
12.2656586033
 20
10.6811148675
 30
0.0
 10
12.2647455983
 20
10.6756477658
 30
0.0
 10
12.2632261403
 20
10.6701928834
 30
0.0
 10
12.2611032898
 20
10.664756471
 30
0.0
 10
12.2583805462
 20
10.6593431357
 30
0.0
 10
12.2556473289
 20
10.6549074792
 30
0.0
 10
12.2531773307
 20
10.6513770944
 30
0.0
 10
12.2504465013
 20
10.6477693583
 30
0.0
 10
12.2466495715
 20
10.6432797724
 30
0.0
 10
12.2415648523
 20
10.6379966361
 30
0.0
 10
12.235899585
 20
10.632755007
 30
0.0
 10
12.2296586263
 20
10.6275587677
 30
0.0
 10
12.2228468554
 20
10.6224117802
 30
0.0
 10
12.2154697663
 20
10.6173178748
 30
0.0
 10
12.2075331907
 20
10.61228106
 30
0.0
 10
12.1990434992
 20
10.6073052372
 30
0.0
 10
12.19000748
 20
10.6023944002
 30
0.0
 10
12.1804324088
 20
10.5975524764
 30
0.0
 10
12.1703260145
 20
10.5927833692
 30
0.0
 10
12.1596964678
 20
10.5880909805
 30
0.0
 10
12.1485524018
 20
10.583479087
 30
0.0
 10
12.1369028596
 20
10.5789515163
 30
0.0
 10
12.1247573365
 20
10.574511908
 30
0.0
 10
12.1121257187
 20
10.5701639682
 30
0.0
 10
12.0990183211
 20
10.5659112022
 30
0.0
 10
12.085445839
 20
10.561757153
 30
0.0
 10
12.0714193667
 20
10.5577051957
 30
0.0
 10
12.0569503679
 20
10.553758679
 30
0.0
 10
12.0420506814
 20
10.5499208488
 30
0.0
 10
12.0267324822
 20
10.5461948206
 30
0.0
 10
12.0055369227
 20
10.5413272719
 30
0.0
 10
11.9780835062
 20
10.5355585964
 30
0.0
 10
11.9440239562
 20
10.5292011891
 30
0.0
 10
11.908612839
 20
10.5233570667
 30
0.0
 10
11.8719661295
 20
10.5180455418
 30
0.0
 10
11.8342036863
 20
10.5132841926
 30
0.0
 10
11.7954491362
 20
10.50908876
 30
0.0
 10
11.755829376
 20
10.5054731115
 30
0.0
 10
11.7154741708
 20
10.5024491924
 30
0.0
 10
11.6745157158
 20
10.5000269899
 30
0.0
 10
11.6330881984
 20
10.498214502
 30
0.0
 10
11.5913273545
 20
10.4970177129
 30
0.0
 10
11.5493700183
 20
10.496440572
 30
0.0
 10
11.5073536776
 20
10.4964849871
 30
0.0
 10
11.4654159965
 20
10.4971508053
 30
0.0
 10
11.4236944198
 20
10.4984358421
 30
0.0
 10
11.3823257101
 20
10.5003358302
 30
0.0
 10
11.3548926532
 20
10.5020193054
 30
0.0
 10
11.3412596409
 20
10.5029647581
 30
0.0
  0
SPLINE
  5
366
100
AcDbEntity
  8
0
100
AcDbSpline
 62
7
  6
CONTINUOUS
 70
0
 71
3
 72
11
 73
7
 74
0
 42
0.0000001
 43
0.0000001
 44
0.0000000001
 40
0.0
 40
0.0
 40
0.0
 40
0.0
 40
0.2633428707
 40
0.5179261724
 40
0.7635415001
 40
1.0
 40
1.0
 40
1.0
 40
1.0
 10
10.1324376148
 20
8.0956417654
 30
0.0
 10
10.131754468
 20
8.0991898501
 30
0.0
 10
10.1303524915
 20
8.1061569346
 30
0.0
 10
10.1280994967
 20
8.1163887609
 30
0.0
 10
10.1257341208
 20
8.1262162175
 30
0.0
 10
10.1240517354
 20
8.1326137256
 30
0.0
 10
10.1231904059
 20
8.1357416822
 30
0.0
  0
SPLINE
  5
367
100
AcDbEntity
  8
0
100
AcDbSpline
 62
7
  6
CONTINUOUS
 70
0
 71
3
 72
48
 73
44
 74
0
 42
0.0000001
 43
0.0000001
 44
0.0000000001
 40
0.0
 40
0.0
 40
0.0
 40
0.0
 40
0.0063158899
 40
0.0126706797
 40
0.0191025165
 40
0.025648058
 40
0.0323419221
 40
0.0392162652
 40
0.0536140552
 40
0.0611947659
 40
0.0690564915
 40
0.0772175997
 40
0.0856939645
 40
0.0944993396
 40
0.103645447
 40
0.1131421893
 40
0.122997946
 40
0.1332195527
 40
0.1438126331
 40
0.1547816545
 40
0.1661299881
 40
0.1778601838
 40
0.1899738557
 40
0.215353302
 40
0.2422691224
 40
0.2707113841
 40
0.3006623731
 40
0.332097648
 40
0.3649869327
 40
0.3992948208
 40
0.434981328
 40
0.4720023222
 40
0.5103099054
 40
0.5498527799
 40
0.590576537
 40
0.632423903
 40
0.6753349407
 40
0.7192473098
 40
0.7640964278
 40
0.8098157282
 40
0.8563368617
 40
0.9035891153
 40
1.0
 40
1.0
 40
1.0
 40
1.0
 10
12.9294356084
 20
7.7708326319
 30
0.0
 10
12.9281941636
 20
7.7709187208
 30
0.0
 10
12.9257094959
 20
7.7711930513
 30
0.0
 10
12.9220103262
 20
7.7719080461
 30
0.0
 10
12.9183358927
 20
7.7729266275
 30
0.0
 10
12.9146883345
 20
7.7742479202
 30
0.0
 10
12.9110690693
 20
7.7758711535
 30
0.0
 10
12.9062093977
 20
7.7784761885
 30
0.0
 10
12.9014816644
 20
7.7816651011
 30
0.0
 10
12.8969064513
 20
7.7853606007
 30
0.0
 10
12.8934506012
 20
7.7884763258
 30
0.0
 10
12.8900316798
 20
7.7918865201
 30
0.0
 10
12.8866504961
 20
7.7955899261
 30
0.0
 10
12.883308466
 20
7.7995849743
 30
0.0
 10
12.8800068125
 20
7.8038700338
 30
0.0
 10
12.8767467752
 20
7.8084433347
 30
0.0
 10
12.87352968
 20
7.8133030598
 30
0.0
 10
12.8703567311
 20
7.8184472037
 30
0.0
 10
12.8672292168
 20
7.8238736977
 30
0.0
 10
12.8641483993
 20
7.8295803439
 30
0.0
 10
12.8611154804
 20
7.8355648008
 30
0.0
 10
12.8581317131
 20
7.8418246667
 30
0.0
 10
12.8541586898
 20
7.8506728258
 30
0.0
 10
12.8493372208
 20
7.8624159318
 30
0.0
 10
12.8438528788
 20
7.8773518466
 30
0.0
 10
12.8385925002
 20
7.8933190676
 30
0.0
 10
12.8335647648
 20
7.9102914668
 30
0.0
 10
12.8287779725
 20
7.9282414896
 30
0.0
 10
12.8242400643
 20
7.9471397876
 30
0.0
 10
12.8199585856
 20
7.9669554215
 30
0.0
 10
12.8159406707
 20
7.987655885
 30
0.0
 10
12.8121930138
 20
8.0092071697
 30
0.0
 10
12.8087218517
 20
8.0315738266
 30
0.0
 10
12.8055329689
 20
8.0547190406
 30
0.0
 10
12.8026316821
 20
8.0786046989
 30
0.0
 10
12.8000228339
 20
8.1031914495
 30
0.0
 10
12.797710765
 20
8.1284387684
 30
0.0
 10
12.7956993284
 20
8.1543050241
 30
0.0
 10
12.7939918744
 20
8.1807475713
 30
0.0
 10
12.7925912633
 20
8.2077228025
 30
0.0
 10
12.7914998179
 20
8.2351862078
 30
0.0
 10
12.7904523197
 20
8.272644359
 30
0.0
 10
12.7901484662
 20
8.3009519366
 30
0.0
 10
12.7901484662
 20
8.3199478695
 30
0.0
  0
SPLINE
  5
368
100
AcDbEntity
  8
0
100
AcDbSpline
 62
7
  6
CONTINUOUS
 70
0
 71
3
 72
39
 73
35
 74
0
 42
0.0000001
 43
0.0000001
 44
0.0000000001
 40
0.0
 40
0.0
 40
0.0
 40
0.0
 40
0.0311445425
 40
0.0624433652
 40
0.093888256
 40
0.1254710218
 40
0.1571788766
 40
0.1889972611
 40
0.2209091725
 40
0.2528958428
 40
0.2849370253
 40
0.3170114183
 40
0.349097079
 40
0.3811718482
 40
0.4132137779
 40
0.4452015551
 40
0.4771149166
 40
0.5089350506
 40
0.5406449764
 40
0.5722298984
 40
0.6036775288
 40
0.634978368
 40
0.6661259371
 40
0.6971169555
 40
0.7279514574
 40
0.758632841
 40
0.7891678449
 40
0.819566448
 40
0.8498416915
 40
0.8800094239
 40
0.9100879689
 40
0.9400977235
 40
0.9700606966
 40
1.0
 40
1.0
 40
1.0
 40
1.0
 10
11.9902292397
 20
7.1906362071
 30
0.0
 10
11.9875757425
 20
7.1908202277
 30
0.0
 10
11.9822671016
 20
7.1913834287
 30
0.0
 10
11.9743685267
 20
7.1928020522
 30
0.0
 10
11.9665545215
 20
7.1947892301
 30
0.0
 10
11.9588673654
 20
7.1973341029
 30
0.0
 10
11.9513478334
 20
7.2004231507
 30
0.0
 10
11.9440360572
 20
7.2040397873
 30
0.0
 10
11.9369709836
 20
7.2081647138
 30
0.0
 10
11.9301902603
 20
7.2127758975
 30
0.0
 10
11.9237300176
 20
7.2178487393
 30
0.0
 10
11.9176246797
 20
7.2233561828
 30
0.0
 10
11.9119067801
 20
7.229268862
 30
0.0
 10
11.906606794
 20
7.2355552603
 30
0.0
 10
11.9017529772
 20
7.2421818763
 30
0.0
 10
11.8973712174
 20
7.2491134002
 30
0.0
 10
11.8934848972
 20
7.2563128996
 30
0.0
 10
11.8901147705
 20
7.2637420139
 30
0.0
 10
11.8872788524
 20
7.2713611551
 30
0.0
 10
11.8849923235
 20
7.279129717
 30
0.0
 10
11.8832674416
 20
7.2870062861
 30
0.0
 10
11.8821134781
 20
7.2949488623
 30
0.0
 10
11.8815366705
 20
7.3029150805
 30
0.0
 10
11.8815401848
 20
7.3108624328
 30
0.0
 10
11.8821240961
 20
7.3187484931
 30
0.0
 10
11.8832853835
 20
7.3265311411
 30
0.0
 10
11.8850179411
 20
7.334168786
 30
0.0
 10
11.8873126063
 20
7.3416205896
 30
0.0
 10
11.8901571983
 20
7.3488466823
 30
0.0
 10
11.893536586
 20
7.355808397
 30
0.0
 10
11.8974327217
 20
7.3624684262
 30
0.0
 10
11.9018249225
 20
7.3687912173
 30
0.0
 10
11.9066892782
 20
7.3747424628
 30
0.0
 10
11.9102311551
 20
7.378442586
 30
0.0
 10
11.9120702524
 20
7.3802190021
 30
0.0
  0
SPLINE
  5
369
100
AcDbEntity
  8
0
100
AcDbSpline
 62
7
  6
CONTINUOUS
 70
0
 71
3
 72
39
 73
35
 74
0
 42
0.0000001
 43
0.0000001
 44
0.0000000001
 40
0.0
 40
0.0
 40
0.0
 40
0.0
 40
0.0314026134
 40
0.06300949
 40
0.0948071102
 40
0.1267734453
 40
0.1588809722
 40
0.1910970226
 40
0.2233851132
 40
0.2557062446
 40
0.2880202663
 40
0.3202872751
 40
0.3524690067
 40
0.384530184
 40
0.4164397927
 40
0.448172249
 40
0.4797084083
 40
0.5110363809
 40
0.5421521201
 40
0.5730597413
 40
0.6037715194
 40
0.6343075569
 40
0.6646951118
 40
0.6949675896
 40
0.7251632184
 40
0.755323478
 40
0.7854913548
 40
0.8157095105
 40
0.8460184691
 40
0.8764549222
 40
0.9070502335
 40
0.9378293335
 40
0.9688091139
 40
1.0
 40
1.0
 40
1.0
 40
1.0
 10
11.9841469972
 20
9.1760173855
 30
0.0
 10
11.9884587329
 20
9.1757183656
 30
0.0
 10
11.9970865083
 20
9.174693468
 30
0.0
 10
12.0098542994
 20
9.1719098471
 30
0.0
 10
12.0223746094
 20
9.1679017637
 30
0.0
 10
12.0345256461
 20
9.1627080603
 30
0.0
 10
12.0461911923
 20
9.1563789078
 30
0.0
 10
12.0572592327
 20
9.1489753082
 30
0.0
 10
12.0676236318
 20
9.1405684881
 30
0.0
 10
12.0771849388
 20
9.1312392158
 30
0.0
 10
12.0858513685
 20
9.1210770439
 30
0.0
 10
12.0935397108
 20
9.1101795129
 30
0.0
 10
12.1001760683
 20
9.0986511764
 30
0.0
 10
12.1056965502
 20
9.0866026259
 30
0.0
 10
12.1100478767
 20
9.0741494597
 30
0.0
 10
12.1131879648
 20
9.0614112237
 30
0.0
 10
12.1150862715
 20
9.0485102582
 30
0.0
 10
12.1157240999
 20
9.03557056
 30
0.0
 10
12.1150948041
 20
9.0227166263
 30
0.0
 10
12.1132039683
 20
9.0100722716
 30
0.0
 10
12.11006932
 20
8.997759441
 30
0.0
 10
12.1057206094
 20
8.9858970422
 30
0.0
 10
12.1001993752
 20
8.9745997876
 30
0.0
 10
12.0935586594
 20
8.9639770114
 30
0.0
 10
12.0858624464
 20
8.954131587
 30
0.0
 10
12.0771850552
 20
8.945158882
 30
0.0
 10
12.0676104129
 20
8.9371457841
 30
0.0
 10
12.0572312517
 20
8.9301697482
 30
0.0
 10
12.0461481101
 20
8.924298072
 30
0.0
 10
12.0344682603
 20
8.9195872532
 30
0.0
 10
12.0223047919
 20
8.9160824295
 30
0.0
 10
12.0097748879
 20
8.9138170339
 30
0.0
 10
11.997000996
 20
8.9128121877
 30
0.0
 10
11.9884296617
 20
8.9129885413
 30
0.0
 10
11.9841469972
 20
8.9132855451
 30
0.0
  0
SPLINE
  5
36A
100
AcDbEntity
  8
0
100
AcDbSpline
 62
7
  6
CONTINUOUS
 70
0
 71
3
 72
39
 73
35
 74
0
 42
0.0000001
 43
0.0000001
 44
0.0000000001
 40
0.0
 40
0.0
 40
0.0
 40
0.0
 40
0.0314026134
 40
0.06300949
 40
0.0948071102
 40
0.1267734453
 40
0.1588809722
 40
0.1910970226
 40
0.2233851132
 40
0.2557062446
 40
0.2880202663
 40
0.3202872751
 40
0.3524690067
 40
0.384530184
 40
0.4164397927
 40
0.448172249
 40
0.4797084083
 40
0.5110363809
 40
0.5421521201
 40
0.5730597413
 40
0.6037715194
 40
0.6343075569
 40
0.6646951118
 40
0.6949675896
 40
0.7251632184
 40
0.755323478
 40
0.7854913548
 40
0.8157095105
 40
0.8460184691
 40
0.8764549222
 40
0.9070502335
 40
0.9378293335
 40
0.9688091139
 40
1.0
 40
1.0
 40
1.0
 40
1.0
 10
11.9841469972
 20
8.9132855451
 30
0.0
 10
11.9798352615
 20
8.913584565
 30
0.0
 10
11.9712074861
 20
8.9146094626
 30
0.0
 10
11.958439695
 20
8.9173930835
 30
0.0
 10
11.9459193851
 20
8.9214011669
 30
0.0
 10
11.9337683483
 20
8.9265948703
 30
0.0
 10
11.9221028021
 20
8.9329240228
 30
0.0
 10
11.9110347617
 20
8.9403276224
 30
0.0
 10
11.9006703626
 20
8.9487344425
 30
0.0
 10
11.8911090556
 20
8.9580637148
 30
0.0
 10
11.8824426259
 20
8.9682258866
 30
0.0
 10
11.8747542836
 20
8.9791234177
 30
0.0
 10
11.8681179261
 20
8.9906517542
 30
0.0
 10
11.8625974442
 20
9.0027003047
 30
0.0
 10
11.8582461177
 20
9.0151534708
 30
0.0
 10
11.8551060296
 20
9.0278917068
 30
0.0
 10
11.853207723
 20
9.0407926724
 30
0.0
 10
11.8525698946
 20
9.0537323706
 30
0.0
 10
11.8531991904
 20
9.0665863043
 30
0.0
 10
11.8550900262
 20
9.079230659
 30
0.0
 10
11.8582246744
 20
9.0915434896
 30
0.0
 10
11.862573385
 20
9.1034058883
 30
0.0
 10
11.8680946192
 20
9.114703143
 30
0.0
 10
11.874735335
 20
9.1253259192
 30
0.0
 10
11.882431548
 20
9.1351713436
 30
0.0
 10
11.8911089392
 20
9.1441440486
 30
0.0
 10
11.9006835815
 20
9.1521571465
 30
0.0
 10
11.9110627427
 20
9.1591331824
 30
0.0
 10
11.9221458843
 20
9.1650048586
 30
0.0
 10
11.9338257341
 20
9.1697156773
 30
0.0
 10
11.9459892025
 20
9.1732205011
 30
0.0
 10
11.9585191065
 20
9.1754858967
 30
0.0
 10
11.9712929984
 20
9.1764907429
 30
0.0
 10
11.9798643327
 20
9.1763143892
 30
0.0
 10
11.9841469972
 20
9.1760173855
 30
0.0
  0
SPLINE
  5
36B
100
AcDbEntity
  8
0
100
AcDbSpline
 62
7
  6
CONTINUOUS
 70
0
 71
3
 72
21
 73
17
 74
0
 42
0.0000001
 43
0.0000001
 44
0.0000000001
 40
0.0
 40
0.0
 40
0.0
 40
0.0
 40
0.1273176984
 40
0.2537999461
 40
0.3167619614
 40
0.3795355204
 40
0.4421314992
 40
0.5045621453
 40
0.5668413456
 40
0.6289845231
 40
0.6910084433
 40
0.7529310869
 40
0.8147714401
 40
0.8765493236
 40
0.9382852134
 40
1.0
 40
1.0
 40
1.0
 40
1.0
 10
12.0140906996
 20
6.3862789131
 30
0.0
 10
12.0140906996
 20
6.3930237212
 30
0.0
 10
12.0147345366
 20
6.4064777606
 30
0.0
 10
12.0171661279
 20
6.4231098577
 30
0.0
 10
12.0200723949
 20
6.4361562813
 30
0.0
 10
12.0227227589
 20
6.4457793298
 30
0.0
 10
12.0258407535
 20
6.4552313815
 30
0.0
 10
12.0294191903
 20
6.4644909161
 30
0.0
 10
12.033449819
 20
6.4735365175
 30
0.0
 10
12.0379234268
 20
6.482347309
 30
0.0
 10
12.0428296649
 20
6.4909029806
 30
0.0
 10
12.0481572186
 20
6.4991838145
 30
0.0
 10
12.053893853
 20
6.507170649
 30
0.0
 10
12.0600263743
 20
6.5148451416
 30
0.0
 10
12.0665403677
 20
6.5221893798
 30
0.0
 10
12.0711282605
 20
6.5268548724
 30
0.0
 10
12.0734798092
 20
6.5291262802
 30
0.0
  0
SPLINE
  5
36C
100
AcDbEntity
  8
0
100
AcDbSpline
 62
7
  6
CONTINUOUS
 70
0
 71
3
 72
54
 73
50
 74
0
 42
0.0000001
 43
0.0000001
 44
0.0000000001
 40
0.0
 40
0.0
 40
0.0
 40
0.0
 40
0.0528972703
 40
0.1050236102
 40
0.1562586956
 40
0.2064912169
 40
0.2556095761
 40
0.3035068022
 40
0.3500797459
 40
0.3952296382
 40
0.4388626511
 40
0.4808903716
 40
0.5212304867
 40
0.5598074629
 40
0.5965533244
 40
0.6314086405
 40
0.6643237754
 40
0.6952605309
 40
0.7241941465
 40
0.7379074947
 40
0.7511184105
 40
0.7638289449
 40
0.7760428194
 40
0.7877653084
 40
0.7990038589
 40
0.8097680706
 40
0.8200700738
 40
0.8299250591
 40
0.8393513485
 40
0.8483711549
 40
0.8570108247
 40
0.8653012609
 40
0.8732784613
 40
0.8809834857
 40
0.8884626614
 40
0.8957671673
 40
0.9029523224
 40
0.9100765681
 40
0.9171999641
 40
0.9243826074
 40
0.9316829711
 40
0.9391565341
 40
0.9468545557
 40
0.954823507
 40
0.9631046608
 40
0.9717340359
 40
0.9807428048
 40
0.9901573598
 40
1.0
 40
1.0
 40
1.0
 40
1.0
 10
10.3546538695
 20
10.8619767429
 30
0.0
 10
10.3601825139
 20
10.8615933301
 30
0.0
 10
10.3711542348
 20
10.8607577908
 30
0.0
 10
10.3874593667
 20
10.8592864356
 30
0.0
 10
10.4034639483
 20
10.8576088338
 30
0.0
 10
10.4191287322
 20
10.855729183
 30
0.0
 10
10.4344157574
 20
10.8536520351
 30
0.0
 10
10.4492877268
 20
10.8513825065
 30
0.0
 10
10.4637084619
 20
10.8489261698
 30
0.0
 10
10.4776428785
 20
10.8462890562
 30
0.0
 10
10.491057089
 20
10.8434776434
 30
0.0
 10
10.5039184958
 20
10.8404988304
 30
0.0
 10
10.516195882
 20
10.8373599375
 30
0.0
 10
10.5278594947
 20
10.8340686793
 30
0.0
 10
10.53888113
 20
10.830633133
 30
0.0
 10
10.5492341815
 20
10.8270617174
 30
0.0
 10
10.5588938435
 20
10.8233631403
 30
0.0
 10
10.5678368251
 20
10.8195464143
 30
0.0
 10
10.5747939163
 20
10.8162180778
 30
0.0
 10
10.5799746894
 20
10.813495318
 30
0.0
 10
10.5835981518
 20
10.8114660801
 30
0.0
 10
10.5870271014
 20
10.8094142945
 30
0.0
 10
10.5902595139
 20
10.8073412026
 30
0.0
 10
10.5932934247
 20
10.805247975
 30
0.0
 10
10.5961270458
 20
10.8031358756
 30
0.0
 10
10.598758687
 20
10.8010061164
 30
0.0
 10
10.6011867469
 20
10.7988598721
 30
0.0
 10
10.6034098115
 20
10.7966983991
 30
0.0
 10
10.6054264739
 20
10.7945228187
 30
0.0
 10
10.6072354967
 20
10.7923343326
 30
0.0
 10
10.6088357075
 20
10.7901341022
 30
0.0
 10
10.6102259243
 20
10.7879232471
 30
0.0
 10
10.6114051569
 20
10.7857030084
 30
0.0
 10
10.6123723076
 20
10.7834745853
 30
0.0
 10
10.6131264399
 20
10.7812393471
 30
0.0
 10
10.6136667274
 20
10.7789987837
 30
0.0
 10
10.6139923731
 20
10.776754522
 30
0.0
 10
10.6141030257
 20
10.7745083681
 30
0.0
 10
10.6139984363
 20
10.7722621835
 30
0.0
 10
10.6136787809
 20
10.7700178526
 30
0.0
 10
10.6131445691
 20
10.7677771487
 30
0.0
 10
10.6123963958
 20
10.765541751
 30
0.0
 10
10.6114352248
 20
10.7633131168
 30
0.0
 10
10.6102619564
 20
10.7610926171
 30
0.0
 10
10.6088776169
 20
10.7588815068
 30
0.0
 10
10.6072833292
 20
10.7566809369
 30
0.0
 10
10.6054801264
 20
10.7544921121
 30
0.0
 10
10.6034693197
 20
10.7523161943
 30
0.0
 10
10.6020240912
 20
10.7509070515
 30
0.0
 10
10.60126921
 20
10.7502045503
 30
0.0
  0
SPLINE
  5
36D
100
AcDbEntity
  8
0
100
AcDbSpline
 62
7
  6
CONTINUOUS
 70
0
 71
3
 72
49
 73
45
 74
0
 42
0.0000001
 43
0.0000001
 44
0.0000000001
 40
0.0
 40
0.0
 40
0.0
 40
0.0
 40
0.0481981551
 40
0.0958301516
 40
0.142820349
 40
0.1890985202
 40
0.2345937574
 40
0.2792375201
 40
0.3229630438
 40
0.3657055719
 40
0.4074026074
 40
0.4479940766
 40
0.4874225965
 40
0.5256336943
 40
0.5625760571
 40
0.5982018274
 40
0.6324669645
 40
0.6653316624
 40
0.696760789
 40
0.7267244497
 40
0.7551986919
 40
0.782166419
 40
0.807618485
 40
0.8197765648
 40
0.8315566946
 40
0.8429606722
 40
0.8539911792
 40
0.8646517393
 40
0.8749470213
 40
0.8848827782
 40
0.8944660498
 40
0.9037053681
 40
0.9126107615
 40
0.9211941126
 40
0.9294692171
 40
0.9374519914
 40
0.9451607495
 40
0.9598348837
 40
0.9668567372
 40
0.973703596
 40
0.9804068286
 40
0.9870000588
 40
0.9935188215
 40
1.0
 40
1.0
 40
1.0
 40
1.0
 10
11.7214645044
 20
10.8702144767
 30
0.0
 10
11.7310865689
 20
10.8695471843
 30
0.0
 10
11.7502104123
 20
10.8681130229
 30
0.0
 10
11.7786849497
 20
10.8656470471
 30
0.0
 10
11.8067460154
 20
10.8628820124
 30
0.0
 10
11.8343463646
 20
10.8598226519
 30
0.0
 10
11.8614400873
 20
10.8564740416
 30
0.0
 10
11.8879817987
 20
10.8528418293
 30
0.0
 10
11.9139271585
 20
10.8489321211
 30
0.0
 10
11.9392328091
 20
10.8447514876
 30
0.0
 10
11.9638564641
 20
10.8403069572
 30
0.0
 10
11.9877569912
 20
10.8356059946
 30
0.0
 10
12.0108944851
 20
10.8306565102
 30
0.0
 10
12.033230336
 20
10.8254668317
 30
0.0
 10
12.0547272904
 20
10.8200456872
 30
0.0
 10
12.0753495171
 20
10.8144021887
 30
0.0
 10
12.0950626828
 20
10.8085458188
 30
0.0
 10
12.1138340202
 20
10.8024864242
 30
0.0
 10
12.1316323935
 20
10.7962341711
 30
0.0
 10
12.1484283197
 20
10.7897995324
 30
0.0
 10
12.1641941668
 20
10.7831932204
 30
0.0
 10
12.1789037806
 20
10.7764262536
 30
0.0
 10
12.1904315234
 20
10.7705765316
 30
0.0
 10
12.1990936714
 20
10.7658152302
 30
0.0
 10
12.2052117528
 20
10.7622657087
 30
0.0
 10
12.21104825
 20
10.7586845323
 30
0.0
 10
12.2166007841
 20
10.7550731775
 30
0.0
 10
12.2218670284
 20
10.7514330684
 30
0.0
 10
12.2268448411
 20
10.7477657335
 30
0.0
 10
12.2315321622
 20
10.7440726333
 30
0.0
 10
12.2359270389
 20
10.7403552225
 30
0.0
 10
12.2400276969
 20
10.7366150263
 30
0.0
 10
12.2438323775
 20
10.7328534575
 30
0.0
 10
12.247339534
 20
10.7290719852
 30
0.0
 10
12.2505476136
 20
10.725272171
 30
0.0
 10
12.2534553841
 20
10.721455025
 30
0.0
 10
12.2568733737
 20
10.7164285481
 30
0.0
 10
12.2597650998
 20
10.7112832514
 30
0.0
 10
12.2620562336
 20
10.7060470439
 30
0.0
 10
12.263443448
 20
10.7021672702
 30
0.0
 10
12.264523445
 20
10.698279903
 30
0.0
 10
12.2652954756
 20
10.6943864644
 30
0.0
 10
12.2657589295
 20
10.6904892424
 30
0.0
 10
12.2658620726
 20
10.6878865986
 30
0.0
 10
12.2658620726
 20
10.6865896174
 30
0.0
  0
SPLINE
  5
36E
100
AcDbEntity
  8
0
100
AcDbSpline
 62
7
  6
CONTINUOUS
 70
0
 71
3
 72
42
 73
38
 74
0
 42
0.0000001
 43
0.0000001
 44
0.0000000001
 40
0.0
 40
0.0
 40
0.0
 40
0.0
 40
0.0299419634
 40
0.0449235299
 40
0.0599142017
 40
0.0899287029
 40
0.1200139772
 40
0.1350926626
 40
0.1501967046
 40
0.1804840506
 40
0.2108978877
 40
0.2414513551
 40
0.2721543675
 40
0.3030134354
 40
0.3340315696
 40
0.3652082675
 40
0.3965395775
 40
0.4280182343
 40
0.4596338596
 40
0.4913732188
 40
0.5232205284
 40
0.5551578047
 40
0.5871652463
 40
0.6192216448
 40
0.6513048151
 40
0.6833920402
 40
0.7154605222
 40
0.747487836
 40
0.7794523759
 40
0.8113337934
 40
0.8431134117
 40
0.8747746318
 40
0.9063032512
 40
0.9376879208
 40
0.9533258
 40
0.9689252634
 40
1.0
 40
1.0
 40
1.0
 40
1.0
 10
9.3602246257
 20
9.9238743474
 30
0.0
 10
9.3565914865
 20
9.9203650258
 30
0.0
 10
9.3509276191
 20
9.9153136927
 30
0.0
 10
9.3429955003
 20
9.9090460884
 30
0.0
 10
9.3348107833
 20
9.9030903696
 30
0.0
 10
9.3241310735
 20
9.8962512749
 30
0.0
 10
9.3129321098
 20
9.8902690463
 30
0.0
 10
9.303695867
 20
9.886013283
 30
0.0
 10
9.2942688306
 20
9.8821088395
 30
0.0
 10
9.2821743703
 20
9.8779104592
 30
0.0
 10
9.2672697812
 20
9.8739976741
 30
0.0
 10
9.2520399717
 20
9.871225767
 30
0.0
 10
9.2365693432
 20
9.8696100303
 30
0.0
 10
9.220942879
 20
9.8691590866
 30
0.0
 10
9.2052465606
 20
9.8698752309
 30
0.0
 10
9.1895666582
 20
9.8717543264
 30
0.0
 10
9.1739893262
 20
9.8747858635
 30
0.0
 10
9.1586001171
 20
9.8789530177
 30
0.0
 10
9.1434835231
 20
9.8842327489
 30
0.0
 10
9.1287225174
 20
9.8905959317
 30
0.0
 10
9.1143981054
 20
9.8980075175
 30
0.0
 10
9.1005888867
 20
9.9064267274
 30
0.0
 10
9.0873706292
 20
9.9158072763
 30
0.0
 10
9.0748158586
 20
9.9260976254
 30
0.0
 10
9.0629934656
 20
9.9372412636
 30
0.0
 10
9.0519683316
 20
9.9491770145
 30
0.0
 10
9.0418009768
 20
9.9618393695
 30
0.0
 10
9.0325472311
 20
9.9751588439
 30
0.0
 10
9.0242579303
 20
9.9890623503
 30
0.0
 10
9.016978639
 20
10.0034736113
 30
0.0
 10
9.0107494036
 20
10.0183135125
 30
0.0
 10
9.0056045205
 20
10.0335007519
 30
0.0
 10
9.0015724115
 20
10.0489514653
 30
0.0
 10
8.9991550726
 20
10.0619935425
 30
0.0
 10
8.9977990172
 20
10.0724726934
 30
0.0
 10
8.9968312337
 20
10.0829418167
 30
0.0
 10
8.9965381983
 20
10.0908197614
 30
0.0
 10
8.9965381983
 20
10.0960621026
 30
0.0
  0
SPLINE
  5
36F
100
AcDbEntity
  8
0
100
AcDbSpline
 62
7
  6
CONTINUOUS
 70
0
 71
3
 72
21
 73
17
 74
0
 42
0.0000001
 43
0.0000001
 44
0.0000000001
 40
0.0
 40
0.0
 40
0.0
 40
0.0
 40
0.1273176984
 40
0.2537999461
 40
0.3167619614
 40
0.3795355204
 40
0.4421314992
 40
0.5045621453
 40
0.5668413456
 40
0.6289845231
 40
0.6910084433
 40
0.7529310869
 40
0.8147714401
 40
0.8765493236
 40
0.9382852134
 40
1.0
 40
1.0
 40
1.0
 40
1.0
 10
11.1389617165
 20
8.2880239505
 30
0.0
 10
11.1389617165
 20
8.2947687586
 30
0.0
 10
11.1396055535
 20
8.3082227981
 30
0.0
 10
11.1420371447
 20
8.3248548951
 30
0.0
 10
11.1449434118
 20
8.3379013188
 30
0.0
 10
11.1475937757
 20
8.3475243672
 30
0.0
 10
11.1507117704
 20
8.356976419
 30
0.0
 10
11.1542902072
 20
8.3662359535
 30
0.0
 10
11.1583208358
 20
8.3752815549
 30
0.0
 10
11.1627944437
 20
8.3840923465
 30
0.0
 10
11.1677006818
 20
8.392648018
 30
0.0
 10
11.1730282355
 20
8.4009288519
 30
0.0
 10
11.1787648699
 20
8.4089156865
 30
0.0
 10
11.1848973911
 20
8.416590179
 30
0.0
 10
11.1914113846
 20
8.4239344173
 30
0.0
 10
11.1959992774
 20
8.4285999099
 30
0.0
 10
11.198350826
 20
8.4308713176
 30
0.0
  0
SPLINE
  5
370
100
AcDbEntity
  8
0
100
AcDbSpline
 62
7
  6
CONTINUOUS
 70
0
 71
3
 72
42
 73
38
 74
0
 42
0.0000001
 43
0.0000001
 44
0.0000000001
 40
0.0
 40
0.0
 40
0.0
 40
0.0
 40
0.0299419634
 40
0.0449235299
 40
0.0599142017
 40
0.0899287029
 40
0.1200139772
 40
0.1350926626
 40
0.1501967046
 40
0.1804840506
 40
0.2108978877
 40
0.2414513551
 40
0.2721543675
 40
0.3030134354
 40
0.3340315696
 40
0.3652082675
 40
0.3965395775
 40
0.4280182343
 40
0.4596338596
 40
0.4913732188
 40
0.5232205284
 40
0.5551578047
 40
0.5871652463
 40
0.6192216448
 40
0.6513048151
 40
0.6833920402
 40
0.7154605222
 40
0.747487836
 40
0.7794523759
 40
0.8113337934
 40
0.8431134117
 40
0.8747746318
 40
0.9063032512
 40
0.9376879208
 40
0.9533258
 40
0.9689252634
 40
1.0
 40
1.0
 40
1.0
 40
1.0
 10
12.377777127
 20
9.7146063707
 30
0.0
 10
12.3741439879
 20
9.7110970491
 30
0.0
 10
12.3684801204
 20
9.706045716
 30
0.0
 10
12.3605480016
 20
9.6997781116
 30
0.0
 10
12.3523632847
 20
9.6938223928
 30
0.0
 10
12.3416835749
 20
9.6869832982
 30
0.0
 10
12.3304846111
 20
9.6810010696
 30
0.0
 10
12.3212483684
 20
9.6767453063
 30
0.0
 10
12.3118213319
 20
9.6728408627
 30
0.0
 10
12.2997268716
 20
9.6686424825
 30
0.0
 10
12.2848222826
 20
9.6647296974
 30
0.0
 10
12.2695924731
 20
9.6619577903
 30
0.0
 10
12.2541218445
 20
9.6603420536
 30
0.0
 10
12.2384953804
 20
9.6598911099
 30
0.0
 10
12.2227990619
 20
9.6606072542
 30
0.0
 10
12.2071191596
 20
9.6624863497
 30
0.0
 10
12.1915418276
 20
9.6655178868
 30
0.0
 10
12.1761526185
 20
9.6696850409
 30
0.0
 10
12.1610360244
 20
9.6749647721
 30
0.0
 10
12.1462750187
 20
9.681327955
 30
0.0
 10
12.1319506068
 20
9.6887395408
 30
0.0
 10
12.1181413881
 20
9.6971587507
 30
0.0
 10
12.1049231306
 20
9.7065392995
 30
0.0
 10
12.09236836
 20
9.7168296487
 30
0.0
 10
12.0805459669
 20
9.7279732868
 30
0.0
 10
12.0695208329
 20
9.7399090378
 30
0.0
 10
12.0593534781
 20
9.7525713927
 30
0.0
 10
12.0500997324
 20
9.7658908671
 30
0.0
 10
12.0418104316
 20
9.7797943736
 30
0.0
 10
12.0345311403
 20
9.7942056346
 30
0.0
 10
12.028301905
 20
9.8090455358
 30
0.0
 10
12.0231570218
 20
9.8242327751
 30
0.0
 10
12.0191249129
 20
9.8396834886
 30
0.0
 10
12.016707574
 20
9.8527255658
 30
0.0
 10
12.0153515186
 20
9.8632047167
 30
0.0
 10
12.0143837351
 20
9.8736738399
 30
0.0
 10
12.0140906996
 20
9.8815517846
 30
0.0
 10
12.0140906996
 20
9.8867941259
 30
0.0
  0
SPLINE
  5
371
100
AcDbEntity
  8
0
100
AcDbSpline
 62
7
  6
CONTINUOUS
 70
0
 71
3
 72
39
 73
35
 74
0
 42
0.0000001
 43
0.0000001
 44
0.0000000001
 40
0.0
 40
0.0
 40
0.0
 40
0.0
 40
0.0311445425
 40
0.0624433652
 40
0.093888256
 40
0.1254710218
 40
0.1571788766
 40
0.1889972611
 40
0.2209091725
 40
0.2528958428
 40
0.2849370253
 40
0.3170114183
 40
0.349097079
 40
0.3811718482
 40
0.4132137779
 40
0.4452015551
 40
0.4771149166
 40
0.5089350506
 40
0.5406449764
 40
0.5722298984
 40
0.6036775288
 40
0.634978368
 40
0.6661259371
 40
0.6971169555
 40
0.7279514574
 40
0.758632841
 40
0.7891678449
 40
0.819566448
 40
0.8498416915
 40
0.8800094239
 40
0.9100879689
 40
0.9400977235
 40
0.9700606966
 40
1.0
 40
1.0
 40
1.0
 40
1.0
 10
11.9902292397
 20
8.9418597989
 30
0.0
 10
11.9875757425
 20
8.9420438196
 30
0.0
 10
11.9822671016
 20
8.9426070205
 30
0.0
 10
11.9743685267
 20
8.9440256441
 30
0.0
 10
11.9665545215
 20
8.9460128219
 30
0.0
 10
11.9588673654
 20
8.9485576947
 30
0.0
 10
11.9513478334
 20
8.9516467425
 30
0.0
 10
11.9440360572
 20
8.9552633791
 30
0.0
 10
11.9369709836
 20
8.9593883056
 30
0.0
 10
11.9301902603
 20
8.9639994894
 30
0.0
 10
11.9237300176
 20
8.9690723312
 30
0.0
 10
11.9176246797
 20
8.9745797746
 30
0.0
 10
11.9119067801
 20
8.9804924538
 30
0.0
 10
11.906606794
 20
8.9867788521
 30
0.0
 10
11.9017529772
 20
8.9934054681
 30
0.0
 10
11.8973712174
 20
9.000336992
 30
0.0
 10
11.8934848972
 20
9.0075364915
 30
0.0
 10
11.8901147705
 20
9.0149656057
 30
0.0
 10
11.8872788524
 20
9.0225847469
 30
0.0
 10
11.8849923235
 20
9.0303533088
 30
0.0
 10
11.8832674416
 20
9.0382298779
 30
0.0
 10
11.8821134781
 20
9.0461724542
 30
0.0
 10
11.8815366705
 20
9.0541386723
 30
0.0
 10
11.8815401848
 20
9.0620860246
 30
0.0
 10
11.8821240961
 20
9.0699720849
 30
0.0
 10
11.8832853835
 20
9.0777547329
 30
0.0
 10
11.8850179411
 20
9.0853923778
 30
0.0
 10
11.8873126063
 20
9.0928441814
 30
0.0
 10
11.8901571983
 20
9.1000702742
 30
0.0
 10
11.893536586
 20
9.1070319888
 30
0.0
 10
11.8974327217
 20
9.1136920181
 30
0.0
 10
11.9018249225
 20
9.1200148092
 30
0.0
 10
11.9066892782
 20
9.1259660546
 30
0.0
 10
11.9102311551
 20
9.1296661778
 30
0.0
 10
11.9120702524
 20
9.1314425939
 30
0.0
  0
SPLINE
  5
372
100
AcDbEntity
  8
0
100
AcDbSpline
 62
7
  6
CONTINUOUS
 70
0
 71
3
 72
39
 73
35
 74
0
 42
0.0000001
 43
0.0000001
 44
0.0000000001
 40
0.0
 40
0.0
 40
0.0
 40
0.0
 40
0.0311445425
 40
0.0624433652
 40
0.093888256
 40
0.1254710218
 40
0.1571788766
 40
0.1889972611
 40
0.2209091725
 40
0.2528958428
 40
0.2849370253
 40
0.3170114183
 40
0.349097079
 40
0.3811718482
 40
0.4132137779
 40
0.4452015551
 40
0.4771149166
 40
0.5089350506
 40
0.5406449764
 40
0.5722298984
 40
0.6036775288
 40
0.634978368
 40
0.6661259371
 40
0.6971169555
 40
0.7279514574
 40
0.758632841
 40
0.7891678449
 40
0.819566448
 40
0.8498416915
 40
0.8800094239
 40
0.9100879689
 40
0.9400977235
 40
0.9700606966
 40
1.0
 40
1.0
 40
1.0
 40
1.0
 10
9.9386025931
 20
7.3329169983
 30
0.0
 10
9.9359490959
 20
7.3331010189
 30
0.0
 10
9.930640455
 20
7.3336642199
 30
0.0
 10
9.9227418801
 20
7.3350828434
 30
0.0
 10
9.9149278749
 20
7.3370700213
 30
0.0
 10
9.9072407188
 20
7.3396148941
 30
0.0
 10
9.8997211868
 20
7.3427039419
 30
0.0
 10
9.8924094106
 20
7.3463205784
 30
0.0
 10
9.885344337
 20
7.350445505
 30
0.0
 10
9.8785636136
 20
7.3550566887
 30
0.0
 10
9.872103371
 20
7.3601295305
 30
0.0
 10
9.8659980331
 20
7.365636974
 30
0.0
 10
9.8602801335
 20
7.3715496531
 30
0.0
 10
9.8549801473
 20
7.3778360515
 30
0.0
 10
9.8501263306
 20
7.3844626675
 30
0.0
 10
9.8457445708
 20
7.3913941914
 30
0.0
 10
9.8418582506
 20
7.3985936908
 30
0.0
 10
9.8384881239
 20
7.406022805
 30
0.0
 10
9.8356522058
 20
7.4136419463
 30
0.0
 10
9.8333656769
 20
7.4214105082
 30
0.0
 10
9.8316407949
 20
7.4292870773
 30
0.0
 10
9.8304868315
 20
7.4372296535
 30
0.0
 10
9.8299100238
 20
7.4451958717
 30
0.0
 10
9.8299135382
 20
7.453143224
 30
0.0
 10
9.8304974495
 20
7.4610292843
 30
0.0
 10
9.8316587369
 20
7.4688119323
 30
0.0
 10
9.8333912945
 20
7.4764495772
 30
0.0
 10
9.8356859597
 20
7.4839013807
 30
0.0
 10
9.8385305517
 20
7.4911274735
 30
0.0
 10
9.8419099394
 20
7.4980891882
 30
0.0
 10
9.845806075
 20
7.5047492174
 30
0.0
 10
9.8501982759
 20
7.5110720085
 30
0.0
 10
9.8550626316
 20
7.517023254
 30
0.0
 10
9.8586045085
 20
7.5207233771
 30
0.0
 10
9.8604436058
 20
7.5224997933
 30
0.0
  0
SPLINE
  5
373
100
AcDbEntity
  8
0
100
AcDbSpline
 62
7
  6
CONTINUOUS
 70
0
 71
3
 72
42
 73
38
 74
0
 42
0.0000001
 43
0.0000001
 44
0.0000000001
 40
0.0
 40
0.0
 40
0.0
 40
0.0
 40
0.0299419634
 40
0.0449235299
 40
0.0599142017
 40
0.0899287029
 40
0.1200139772
 40
0.1350926626
 40
0.1501967046
 40
0.1804840506
 40
0.2108978877
 40
0.2414513551
 40
0.2721543675
 40
0.3030134354
 40
0.3340315696
 40
0.3652082675
 40
0.3965395775
 40
0.4280182343
 40
0.4596338596
 40
0.4913732188
 40
0.5232205284
 40
0.5551578047
 40
0.5871652463
 40
0.6192216448
 40
0.6513048151
 40
0.6833920402
 40
0.7154605222
 40
0.747487836
 40
0.7794523759
 40
0.8113337934
 40
0.8431134117
 40
0.8747746318
 40
0.9063032512
 40
0.9376879208
 40
0.9533258
 40
0.9689252634
 40
1.0
 40
1.0
 40
1.0
 40
1.0
 10
12.377777127
 20
6.2140911579
 30
0.0
 10
12.3741439879
 20
6.2105818363
 30
0.0
 10
12.3684801204
 20
6.2055305032
 30
0.0
 10
12.3605480016
 20
6.1992628988
 30
0.0
 10
12.3523632847
 20
6.19330718
 30
0.0
 10
12.3416835749
 20
6.1864680854
 30
0.0
 10
12.3304846111
 20
6.1804858568
 30
0.0
 10
12.3212483684
 20
6.1762300935
 30
0.0
 10
12.3118213319
 20
6.1723256499
 30
0.0
 10
12.2997268716
 20
6.1681272697
 30
0.0
 10
12.2848222826
 20
6.1642144845
 30
0.0
 10
12.2695924731
 20
6.1614425775
 30
0.0
 10
12.2541218445
 20
6.1598268408
 30
0.0
 10
12.2384953804
 20
6.1593758971
 30
0.0
 10
12.2227990619
 20
6.1600920414
 30
0.0
 10
12.2071191596
 20
6.1619711369
 30
0.0
 10
12.1915418276
 20
6.165002674
 30
0.0
 10
12.1761526185
 20
6.1691698281
 30
0.0
 10
12.1610360244
 20
6.1744495593
 30
0.0
 10
12.1462750187
 20
6.1808127422
 30
0.0
 10
12.1319506068
 20
6.188224328
 30
0.0
 10
12.1181413881
 20
6.1966435379
 30
0.0
 10
12.1049231306
 20
6.2060240867
 30
0.0
 10
12.09236836
 20
6.2163144359
 30
0.0
 10
12.0805459669
 20
6.227458074
 30
0.0
 10
12.0695208329
 20
6.239393825
 30
0.0
 10
12.0593534781
 20
6.2520561799
 30
0.0
 10
12.0500997324
 20
6.2653756543
 30
0.0
 10
12.0418104316
 20
6.2792791608
 30
0.0
 10
12.0345311403
 20
6.2936904218
 30
0.0
 10
12.028301905
 20
6.308530323
 30
0.0
 10
12.0231570218
 20
6.3237175623
 30
0.0
 10
12.0191249129
 20
6.3391682758
 30
0.0
 10
12.016707574
 20
6.352210353
 30
0.0
 10
12.0153515186
 20
6.3626895039
 30
0.0
 10
12.0143837351
 20
6.3731586271
 30
0.0
 10
12.0140906996
 20
6.3810365718
 30
0.0
 10
12.0140906996
 20
6.3862789131
 30
0.0
  0
SPLINE
  5
374
100
AcDbEntity
  8
0
100
AcDbSpline
 62
7
  6
CONTINUOUS
 70
0
 71
3
 72
39
 73
35
 74
0
 42
0.0000001
 43
0.0000001
 44
0.0000000001
 40
0.0
 40
0.0
 40
0.0
 40
0.0
 40
0.0314026134
 40
0.06300949
 40
0.0948071102
 40
0.1267734453
 40
0.1588809722
 40
0.1910970226
 40
0.2233851132
 40
0.2557062446
 40
0.2880202663
 40
0.3202872751
 40
0.3524690067
 40
0.384530184
 40
0.4164397927
 40
0.448172249
 40
0.4797084083
 40
0.5110363809
 40
0.5421521201
 40
0.5730597413
 40
0.6037715194
 40
0.6343075569
 40
0.6646951118
 40
0.6949675896
 40
0.7251632184
 40
0.755323478
 40
0.7854913548
 40
0.8157095105
 40
0.8460184691
 40
0.8764549222
 40
0.9070502335
 40
0.9378293335
 40
0.9688091139
 40
1.0
 40
1.0
 40
1.0
 40
1.0
 10
11.9841469972
 20
7.4247937936
 30
0.0
 10
11.9884587329
 20
7.4244947737
 30
0.0
 10
11.9970865083
 20
7.4234698762
 30
0.0
 10
12.0098542994
 20
7.4206862553
 30
0.0
 10
12.0223746094
 20
7.4166781719
 30
0.0
 10
12.0345256461
 20
7.4114844685
 30
0.0
 10
12.0461911923
 20
7.405155316
 30
0.0
 10
12.0572592327
 20
7.3977517163
 30
0.0
 10
12.0676236318
 20
7.3893448962
 30
0.0
 10
12.0771849388
 20
7.380015624
 30
0.0
 10
12.0858513685
 20
7.3698534521
 30
0.0
 10
12.0935397108
 20
7.358955921
 30
0.0
 10
12.1001760683
 20
7.3474275846
 30
0.0
 10
12.1056965502
 20
7.3353790341
 30
0.0
 10
12.1100478767
 20
7.3229258679
 30
0.0
 10
12.1131879648
 20
7.3101876319
 30
0.0
 10
12.1150862715
 20
7.2972866664
 30
0.0
 10
12.1157240999
 20
7.2843469682
 30
0.0
 10
12.1150948041
 20
7.2714930345
 30
0.0
 10
12.1132039683
 20
7.2588486798
 30
0.0
 10
12.11006932
 20
7.2465358492
 30
0.0
 10
12.1057206094
 20
7.2346734504
 30
0.0
 10
12.1001993752
 20
7.2233761958
 30
0.0
 10
12.0935586594
 20
7.2127534196
 30
0.0
 10
12.0858624464
 20
7.2029079952
 30
0.0
 10
12.0771850552
 20
7.1939352902
 30
0.0
 10
12.0676104129
 20
7.1859221923
 30
0.0
 10
12.0572312517
 20
7.1789461564
 30
0.0
 10
12.0461481101
 20
7.1730744802
 30
0.0
 10
12.0344682603
 20
7.1683636614
 30
0.0
 10
12.0223047919
 20
7.1648588376
 30
0.0
 10
12.0097748879
 20
7.162593442
 30
0.0
 10
11.997000996
 20
7.1615885959
 30
0.0
 10
11.9884296617
 20
7.1617649495
 30
0.0
 10
11.9841469972
 20
7.1620619533
 30
0.0
  0
SPLINE
  5
375
100
AcDbEntity
  8
0
100
AcDbSpline
 62
7
  6
CONTINUOUS
 70
0
 71
3
 72
21
 73
17
 74
0
 42
0.0000001
 43
0.0000001
 44
0.0000000001
 40
0.0
 40
0.0
 40
0.0
 40
0.0
 40
0.1273176984
 40
0.2537999461
 40
0.3167619614
 40
0.3795355204
 40
0.4421314992
 40
0.5045621453
 40
0.5668413456
 40
0.6289845231
 40
0.6910084433
 40
0.7529310869
 40
0.8147714401
 40
0.8765493236
 40
0.9382852134
 40
1.0
 40
1.0
 40
1.0
 40
1.0
 10
8.9965381983
 20
10.0960621026
 30
0.0
 10
8.9965381983
 20
10.1028069107
 30
0.0
 10
8.9971820353
 20
10.1162609502
 30
0.0
 10
8.9996136265
 20
10.1328930472
 30
0.0
 10
9.0025198936
 20
10.1459394709
 30
0.0
 10
9.0051702575
 20
10.1555625193
 30
0.0
 10
9.0082882522
 20
10.1650145711
 30
0.0
 10
9.0118666889
 20
10.1742741056
 30
0.0
 10
9.0158973176
 20
10.183319707
 30
0.0
 10
9.0203709255
 20
10.1921304986
 30
0.0
 10
9.0252771636
 20
10.2006861701
 30
0.0
 10
9.0306047172
 20
10.208967004
 30
0.0
 10
9.0363413517
 20
10.2169538386
 30
0.0
 10
9.0424738729
 20
10.2246283311
 30
0.0
 10
9.0489878664
 20
10.2319725694
 30
0.0
 10
9.0535757591
 20
10.236638062
 30
0.0
 10
9.0559273078
 20
10.2389094697
 30
0.0
  0
SPLINE
  5
376
100
AcDbEntity
  8
0
100
AcDbSpline
 62
7
  6
CONTINUOUS
 70
0
 71
3
 72
42
 73
38
 74
0
 42
0.0000001
 43
0.0000001
 44
0.0000000001
 40
0.0
 40
0.0
 40
0.0
 40
0.0
 40
0.0299419634
 40
0.0449235299
 40
0.0599142017
 40
0.0899287029
 40
0.1200139772
 40
0.1350926626
 40
0.1501967046
 40
0.1804840506
 40
0.2108978877
 40
0.2414513551
 40
0.2721543675
 40
0.3030134354
 40
0.3340315696
 40
0.3652082675
 40
0.3965395775
 40
0.4280182343
 40
0.4596338596
 40
0.4913732188
 40
0.5232205284
 40
0.5551578047
 40
0.5871652463
 40
0.6192216448
 40
0.6513048151
 40
0.6833920402
 40
0.7154605222
 40
0.747487836
 40
0.7794523759
 40
0.8113337934
 40
0.8431134117
 40
0.8747746318
 40
0.9063032512
 40
0.9376879208
 40
0.9533258
 40
0.9689252634
 40
1.0
 40
1.0
 40
1.0
 40
1.0
 10
9.3602246257
 20
6.4233591346
 30
0.0
 10
9.3565914865
 20
6.419849813
 30
0.0
 10
9.3509276191
 20
6.4147984799
 30
0.0
 10
9.3429955003
 20
6.4085308756
 30
0.0
 10
9.3348107833
 20
6.4025751567
 30
0.0
 10
9.3241310735
 20
6.3957360621
 30
0.0
 10
9.3129321098
 20
6.3897538335
 30
0.0
 10
9.303695867
 20
6.3854980702
 30
0.0
 10
9.2942688306
 20
6.3815936267
 30
0.0
 10
9.2821743703
 20
6.3773952464
 30
0.0
 10
9.2672697812
 20
6.3734824613
 30
0.0
 10
9.2520399717
 20
6.3707105542
 30
0.0
 10
9.2365693432
 20
6.3690948175
 30
0.0
 10
9.220942879
 20
6.3686438738
 30
0.0
 10
9.2052465606
 20
6.3693600181
 30
0.0
 10
9.1895666582
 20
6.3712391136
 30
0.0
 10
9.1739893262
 20
6.3742706507
 30
0.0
 10
9.1586001171
 20
6.3784378048
 30
0.0
 10
9.1434835231
 20
6.3837175361
 30
0.0
 10
9.1287225174
 20
6.3900807189
 30
0.0
 10
9.1143981054
 20
6.3974923047
 30
0.0
 10
9.1005888867
 20
6.4059115146
 30
0.0
 10
9.0873706292
 20
6.4152920635
 30
0.0
 10
9.0748158586
 20
6.4255824126
 30
0.0
 10
9.0629934656
 20
6.4367260508
 30
0.0
 10
9.0519683316
 20
6.4486618017
 30
0.0
 10
9.0418009768
 20
6.4613241566
 30
0.0
 10
9.0325472311
 20
6.474643631
 30
0.0
 10
9.0242579303
 20
6.4885471375
 30
0.0
 10
9.016978639
 20
6.5029583985
 30
0.0
 10
9.0107494036
 20
6.5177982997
 30
0.0
 10
9.0056045205
 20
6.5329855391
 30
0.0
 10
9.0015724115
 20
6.5484362525
 30
0.0
 10
8.9991550726
 20
6.5614783297
 30
0.0
 10
8.9977990172
 20
6.5719574806
 30
0.0
 10
8.9968312337
 20
6.5824266038
 30
0.0
 10
8.9965381983
 20
6.5903045485
 30
0.0
 10
8.9965381983
 20
6.5955468898
 30
0.0
  0
SPLINE
  5
377
100
AcDbEntity
  8
0
100
AcDbSpline
 62
7
  6
CONTINUOUS
 70
0
 71
3
 72
54
 73
50
 74
0
 42
0.0000001
 43
0.0000001
 44
0.0000000001
 40
0.0
 40
0.0
 40
0.0
 40
0.0
 40
0.0417740106
 40
0.0840368515
 40
0.1266583734
 40
0.1695063147
 40
0.2124478814
 40
0.2553497884
 40
0.2980789417
 40
0.340502919
 40
0.3824905067
 40
0.4239122259
 40
0.4646408671
 40
0.5045520317
 40
0.5435246831
 40
0.5814417135
 40
0.6181905344
 40
0.6536637003
 40
0.6877595809
 40
0.704261357
 40
0.7203837372
 40
0.736116
 40
0.7514479644
 40
0.7663699709
 40
0.7808730136
 40
0.7949486603
 40
0.8085892482
 40
0.8217877894
 40
0.8345381805
 40
0.8468351604
 40
0.8586744859
 40
0.8700529987
 40
0.8809687469
 40
0.891421194
 40
0.9014113064
 40
0.910941912
 40
0.9200178165
 40
0.9286462958
 40
0.9368373422
 40
0.9446042644
 40
0.9519641574
 40
0.9589385856
 40
0.9655542762
 40
0.9718437871
 40
0.9778461898
 40
0.9836073681
 40
0.9891800557
 40
0.994623083
 40
1.0
 40
1.0
 40
1.0
 40
1.0
 10
13.1703533297
 20
8.6871975882
 30
0.0
 10
13.1703533297
 20
8.6734948482
 30
0.0
 10
13.1701395536
 20
8.6459285909
 30
0.0
 10
13.1691944811
 20
8.6043913309
 30
0.0
 10
13.1676259001
 20
8.5625203546
 30
0.0
 10
13.1654389447
 20
8.5204542325
 30
0.0
 10
13.1626408468
 20
8.4783321645
 30
0.0
 10
13.1592408533
 20
8.4362934931
 30
0.0
 10
13.1552502276
 20
8.3944773019
 30
0.0
 10
13.1506821984
 20
8.353021928
 30
0.0
 10
13.145551921
 20
8.3120645086
 30
0.0
 10
13.1398764268
 20
8.2717405215
 30
0.0
 10
13.1336745675
 20
8.2321833326
 30
0.0
 10
13.1269669554
 20
8.1935237507
 30
0.0
 10
13.1197758962
 20
8.1558895814
 30
0.0
 10
13.1121253136
 20
8.1194052185
 30
0.0
 10
13.1040406816
 20
8.0841911424
 30
0.0
 10
13.0955489064
 20
8.0503637877
 30
0.0
 10
13.0880777657
 20
8.0231344207
 30
0.0
 10
13.0819074214
 20
8.0021362092
 30
0.0
 10
13.0772461153
 20
7.9869742057
 30
0.0
 10
13.0725047428
 20
7.9722396289
 30
0.0
 10
13.0676872281
 20
7.9579446346
 30
0.0
 10
13.0627975377
 20
7.9441010356
 30
0.0
 10
13.0578397718
 20
7.9307202504
 30
0.0
 10
13.0528179834
 20
7.9178133273
 30
0.0
 10
13.0477363935
 20
7.9053908949
 30
0.0
 10
13.0425991526
 20
7.8934631972
 30
0.0
 10
13.0374105605
 20
7.8820400372
 30
0.0
 10
13.0321748702
 20
7.8711308103
 30
0.0
 10
13.0268964192
 20
7.8607444624
 30
0.0
 10
13.0215795557
 20
7.8508894962
 30
0.0
 10
13.0162286181
 20
7.8415739709
 30
0.0
 10
13.0108480224
 20
7.8328054556
 30
0.0
 10
13.0054420743
 20
7.8245910951
 30
0.0
 10
13.0000151997
 20
7.8169374956
 30
0.0
 10
12.9945716368
 20
7.8098508636
 30
0.0
 10
12.9891157258
 20
7.8033368438
 30
0.0
 10
12.983651587
 20
7.7974007018
 30
0.0
 10
12.9781833502
 20
7.7920471874
 30
0.0
 10
12.9727149461
 20
7.787280698
 30
0.0
 10
12.9672501943
 20
7.7831052813
 30
0.0
 10
12.9617928144
 20
7.7795246983
 30
0.0
 10
12.9563464207
 20
7.7765426638
 30
0.0
 10
12.950914798
 20
7.7741626862
 30
0.0
 10
12.9455020617
 20
7.7723884546
 30
0.0
 10
12.9401127373
 20
7.7712232525
 30
0.0
 10
12.9347533212
 20
7.7706700491
 30
0.0
 10
12.9311951229
 20
7.770710617
 30
0.0
 10
12.9294356084
 20
7.7708326319
 30
0.0
  0
SPLINE
  5
378
100
AcDbEntity
  8
0
100
AcDbSpline
 62
7
  6
CONTINUOUS
 70
0
 71
3
 72
21
 73
17
 74
0
 42
0.0000001
 43
0.0000001
 44
0.0000000001
 40
0.0
 40
0.0
 40
0.0
 40
0.0
 40
0.1273176984
 40
0.2537999461
 40
0.3167619614
 40
0.3795355204
 40
0.4421314992
 40
0.5045621453
 40
0.5668413456
 40
0.6289845231
 40
0.6910084433
 40
0.7529310869
 40
0.8147714401
 40
0.8765493236
 40
0.9382852134
 40
1.0
 40
1.0
 40
1.0
 40
1.0
 10
10.7467959054
 20
8.8889805841
 30
0.0
 10
10.7467959054
 20
8.8957253922
 30
0.0
 10
10.7474397424
 20
8.9091794316
 30
0.0
 10
10.7498713337
 20
8.9258115287
 30
0.0
 10
10.7527776008
 20
8.9388579523
 30
0.0
 10
10.7554279647
 20
8.9484810008
 30
0.0
 10
10.7585459594
 20
8.9579330525
 30
0.0
 10
10.7621243961
 20
8.967192587
 30
0.0
 10
10.7661550248
 20
8.9762381885
 30
0.0
 10
10.7706286327
 20
8.98504898
 30
0.0
 10
10.7755348708
 20
8.9936046515
 30
0.0
 10
10.7808624244
 20
9.0018854855
 30
0.0
 10
10.7865990588
 20
9.00987232
 30
0.0
 10
10.7927315801
 20
9.0175468125
 30
0.0
 10
10.7992455735
 20
9.0248910508
 30
0.0
 10
10.8038334663
 20
9.0295565434
 30
0.0
 10
10.806185015
 20
9.0318279512
 30
0.0
  0
SPLINE
  5
379
100
AcDbEntity
  8
0
100
AcDbSpline
 62
7
  6
CONTINUOUS
 70
0
 71
3
 72
42
 73
38
 74
0
 42
0.0000001
 43
0.0000001
 44
0.0000000001
 40
0.0
 40
0.0
 40
0.0
 40
0.0
 40
0.0299419634
 40
0.0449235299
 40
0.0599142017
 40
0.0899287029
 40
0.1200139772
 40
0.1350926626
 40
0.1501967046
 40
0.1804840506
 40
0.2108978877
 40
0.2414513551
 40
0.2721543675
 40
0.3030134354
 40
0.3340315696
 40
0.3652082675
 40
0.3965395775
 40
0.4280182343
 40
0.4596338596
 40
0.4913732188
 40
0.5232205284
 40
0.5551578047
 40
0.5871652463
 40
0.6192216448
 40
0.6513048151
 40
0.6833920402
 40
0.7154605222
 40
0.747487836
 40
0.7794523759
 40
0.8113337934
 40
0.8431134117
 40
0.8747746318
 40
0.9063032512
 40
0.9376879208
 40
0.9533258
 40
0.9689252634
 40
1.0
 40
1.0
 40
1.0
 40
1.0
 10
10.2044438891
 20
7.7837573201
 30
0.0
 10
10.2008107499
 20
7.7802479985
 30
0.0
 10
10.1951468825
 20
7.7751966654
 30
0.0
 10
10.1872147637
 20
7.768929061
 30
0.0
 10
10.1790300467
 20
7.7629733422
 30
0.0
 10
10.168350337
 20
7.7561342476
 30
0.0
 10
10.1571513732
 20
7.750152019
 30
0.0
 10
10.1479151304
 20
7.7458962557
 30
0.0
 10
10.138488094
 20
7.7419918121
 30
0.0
 10
10.1263936337
 20
7.7377934319
 30
0.0
 10
10.1114890447
 20
7.7338806468
 30
0.0
 10
10.0962592352
 20
7.7311087397
 30
0.0
 10
10.0807886066
 20
7.729493003
 30
0.0
 10
10.0651621425
 20
7.7290420593
 30
0.0
 10
10.049465824
 20
7.7297582036
 30
0.0
 10
10.0337859217
 20
7.7316372991
 30
0.0
 10
10.0182085896
 20
7.7346688362
 30
0.0
 10
10.0028193805
 20
7.7388359903
 30
0.0
 10
9.9877027865
 20
7.7441157215
 30
0.0
 10
9.9729417808
 20
7.7504789044
 30
0.0
 10
9.9586173688
 20
7.7578904902
 30
0.0
 10
9.9448081502
 20
7.7663097001
 30
0.0
 10
9.9315898926
 20
7.7756902489
 30
0.0
 10
9.9190351221
 20
7.7859805981
 30
0.0
 10
9.907212729
 20
7.7971242362
 30
0.0
 10
9.896187595
 20
7.8090599872
 30
0.0
 10
9.8860202402
 20
7.8217223421
 30
0.0
 10
9.8767664945
 20
7.8350418165
 30
0.0
 10
9.8684771937
 20
7.848945323
 30
0.0
 10
9.8611979024
 20
7.863356584
 30
0.0
 10
9.854968667
 20
7.8781964852
 30
0.0
 10
9.8498237839
 20
7.8933837245
 30
0.0
 10
9.845791675
 20
7.908834438
 30
0.0
 10
9.8433743361
 20
7.9218765152
 30
0.0
 10
9.8420182807
 20
7.9323556661
 30
0.0
 10
9.8410504972
 20
7.9428247893
 30
0.0
 10
9.8407574617
 20
7.950702734
 30
0.0
 10
9.8407574617
 20
7.9559450753
 30
0.0
  0
SPLINE
  5
37A
100
AcDbEntity
  8
0
100
AcDbSpline
 62
7
  6
CONTINUOUS
 70
0
 71
3
 72
39
 73
35
 74
0
 42
0.0000001
 43
0.0000001
 44
0.0000000001
 40
0.0
 40
0.0
 40
0.0
 40
0.0
 40
0.0314026134
 40
0.06300949
 40
0.0948071102
 40
0.1267734453
 40
0.1588809722
 40
0.1910970226
 40
0.2233851132
 40
0.2557062446
 40
0.2880202663
 40
0.3202872751
 40
0.3524690067
 40
0.384530184
 40
0.4164397927
 40
0.448172249
 40
0.4797084083
 40
0.5110363809
 40
0.5421521201
 40
0.5730597413
 40
0.6037715194
 40
0.6343075569
 40
0.6646951118
 40
0.6949675896
 40
0.7251632184
 40
0.755323478
 40
0.7854913548
 40
0.8157095105
 40
0.8460184691
 40
0.8764549222
 40
0.9070502335
 40
0.9378293335
 40
0.9688091139
 40
1.0
 40
1.0
 40
1.0
 40
1.0
 10
11.9841469972
 20
7.1620619533
 30
0.0
 10
11.9798352615
 20
7.1623609732
 30
0.0
 10
11.9712074861
 20
7.1633858707
 30
0.0
 10
11.958439695
 20
7.1661694917
 30
0.0
 10
11.9459193851
 20
7.170177575
 30
0.0
 10
11.9337683483
 20
7.1753712785
 30
0.0
 10
11.9221028021
 20
7.181700431
 30
0.0
 10
11.9110347617
 20
7.1891040306
 30
0.0
 10
11.9006703626
 20
7.1975108507
 30
0.0
 10
11.8911090556
 20
7.206840123
 30
0.0
 10
11.8824426259
 20
7.2170022948
 30
0.0
 10
11.8747542836
 20
7.2278998259
 30
0.0
 10
11.8681179261
 20
7.2394281624
 30
0.0
 10
11.8625974442
 20
7.2514767129
 30
0.0
 10
11.8582461177
 20
7.263929879
 30
0.0
 10
11.8551060296
 20
7.276668115
 30
0.0
 10
11.853207723
 20
7.2895690806
 30
0.0
 10
11.8525698946
 20
7.3025087787
 30
0.0
 10
11.8531991904
 20
7.3153627125
 30
0.0
 10
11.8550900262
 20
7.3280070672
 30
0.0
 10
11.8582246744
 20
7.3403198978
 30
0.0
 10
11.862573385
 20
7.3521822965
 30
0.0
 10
11.8680946192
 20
7.3634795511
 30
0.0
 10
11.874735335
 20
7.3741023273
 30
0.0
 10
11.882431548
 20
7.3839477518
 30
0.0
 10
11.8911089392
 20
7.3929204568
 30
0.0
 10
11.9006835815
 20
7.4009335547
 30
0.0
 10
11.9110627427
 20
7.4079095906
 30
0.0
 10
11.9221458843
 20
7.4137812668
 30
0.0
 10
11.9338257341
 20
7.4184920855
 30
0.0
 10
11.9459892025
 20
7.4219969093
 30
0.0
 10
11.9585191065
 20
7.4242623049
 30
0.0
 10
11.9712929984
 20
7.4252671511
 30
0.0
 10
11.9798643327
 20
7.4250907974
 30
0.0
 10
11.9841469972
 20
7.4247937936
 30
0.0
  0
SPLINE
  5
37B
100
AcDbEntity
  8
0
100
AcDbSpline
 62
7
  6
CONTINUOUS
 70
0
 71
3
 72
42
 73
38
 74
0
 42
0.0000001
 43
0.0000001
 44
0.0000000001
 40
0.0
 40
0.0
 40
0.0
 40
0.0
 40
0.0299419634
 40
0.0449235299
 40
0.0599142017
 40
0.0899287029
 40
0.1200139772
 40
0.1350926626
 40
0.1501967046
 40
0.1804840506
 40
0.2108978877
 40
0.2414513551
 40
0.2721543675
 40
0.3030134354
 40
0.3340315696
 40
0.3652082675
 40
0.3965395775
 40
0.4280182343
 40
0.4596338596
 40
0.4913732188
 40
0.5232205284
 40
0.5551578047
 40
0.5871652463
 40
0.6192216448
 40
0.6513048151
 40
0.6833920402
 40
0.7154605222
 40
0.747487836
 40
0.7794523759
 40
0.8113337934
 40
0.8431134117
 40
0.8747746318
 40
0.9063032512
 40
0.9376879208
 40
0.9533258
 40
0.9689252634
 40
1.0
 40
1.0
 40
1.0
 40
1.0
 10
10.7183164066
 20
8.1702297861
 30
0.0
 10
10.7146832675
 20
8.1667204645
 30
0.0
 10
10.7090194
 20
8.1616691313
 30
0.0
 10
10.7010872812
 20
8.155401527
 30
0.0
 10
10.6929025643
 20
8.1494458082
 30
0.0
 10
10.6822228545
 20
8.1426067135
 30
0.0
 10
10.6710238907
 20
8.136624485
 30
0.0
 10
10.661787648
 20
8.1323687216
 30
0.0
 10
10.6523606115
 20
8.1284642781
 30
0.0
 10
10.6402661512
 20
8.1242658978
 30
0.0
 10
10.6253615622
 20
8.1203531127
 30
0.0
 10
10.6101317527
 20
8.1175812057
 30
0.0
 10
10.5946611241
 20
8.115965469
 30
0.0
 10
10.57903466
 20
8.1155145253
 30
0.0
 10
10.5633383415
 20
8.1162306696
 30
0.0
 10
10.5476584392
 20
8.118109765
 30
0.0
 10
10.5320811072
 20
8.1211413022
 30
0.0
 10
10.5166918981
 20
8.1253084563
 30
0.0
 10
10.501575304
 20
8.1305881875
 30
0.0
 10
10.4868142983
 20
8.1369513704
 30
0.0
 10
10.4724898864
 20
8.1443629561
 30
0.0
 10
10.4586806677
 20
8.152782166
 30
0.0
 10
10.4454624102
 20
8.1621627149
 30
0.0
 10
10.4329076396
 20
8.172453064
 30
0.0
 10
10.4210852465
 20
8.1835967022
 30
0.0
 10
10.4100601125
 20
8.1955324532
 30
0.0
 10
10.3998927577
 20
8.2081948081
 30
0.0
 10
10.390639012
 20
8.2215142825
 30
0.0
 10
10.3823497112
 20
8.235417789
 30
0.0
 10
10.3750704199
 20
8.24982905
 30
0.0
 10
10.3688411846
 20
8.2646689512
 30
0.0
 10
10.3636963014
 20
8.2798561905
 30
0.0
 10
10.3596641925
 20
8.2953069039
 30
0.0
 10
10.3572468536
 20
8.3083489811
 30
0.0
 10
10.3558907982
 20
8.3188281321
 30
0.0
 10
10.3549230147
 20
8.3292972553
 30
0.0
 10
10.3546299792
 20
8.3371752
 30
0.0
 10
10.3546299792
 20
8.3424175413
 30
0.0
  0
SPLINE
  5
37C
100
AcDbEntity
  8
0
100
AcDbSpline
 62
7
  6
CONTINUOUS
 70
0
 71
3
 72
39
 73
35
 74
0
 42
0.0000001
 43
0.0000001
 44
0.0000000001
 40
0.0
 40
0.0
 40
0.0
 40
0.0
 40
0.0314026134
 40
0.06300949
 40
0.0948071102
 40
0.1267734453
 40
0.1588809722
 40
0.1910970226
 40
0.2233851132
 40
0.2557062446
 40
0.2880202663
 40
0.3202872751
 40
0.3524690067
 40
0.384530184
 40
0.4164397927
 40
0.448172249
 40
0.4797084083
 40
0.5110363809
 40
0.5421521201
 40
0.5730597413
 40
0.6037715194
 40
0.6343075569
 40
0.6646951118
 40
0.6949675896
 40
0.7251632184
 40
0.755323478
 40
0.7854913548
 40
0.8157095105
 40
0.8460184691
 40
0.8764549222
 40
0.9070502335
 40
0.9378293335
 40
0.9688091139
 40
1.0
 40
1.0
 40
1.0
 40
1.0
 10
9.9325203506
 20
7.5670745848
 30
0.0
 10
9.9368320863
 20
7.5667755649
 30
0.0
 10
9.9454598617
 20
7.5657506674
 30
0.0
 10
9.9582276528
 20
7.5629670465
 30
0.0
 10
9.9707479628
 20
7.5589589631
 30
0.0
 10
9.9828989995
 20
7.5537652597
 30
0.0
 10
9.9945645457
 20
7.5474361072
 30
0.0
 10
10.0056325861
 20
7.5400325075
 30
0.0
 10
10.0159969852
 20
7.5316256874
 30
0.0
 10
10.0255582922
 20
7.5222964151
 30
0.0
 10
10.0342247219
 20
7.5121342433
 30
0.0
 10
10.0419130642
 20
7.5012367122
 30
0.0
 10
10.0485494217
 20
7.4897083758
 30
0.0
 10
10.0540699036
 20
7.4776598253
 30
0.0
 10
10.0584212301
 20
7.4652066591
 30
0.0
 10
10.0615613182
 20
7.4524684231
 30
0.0
 10
10.0634596248
 20
7.4395674576
 30
0.0
 10
10.0640974532
 20
7.4266277594
 30
0.0
 10
10.0634681574
 20
7.4137738257
 30
0.0
 10
10.0615773216
 20
7.401129471
 30
0.0
 10
10.0584426734
 20
7.3888166404
 30
0.0
 10
10.0540939628
 20
7.3769542416
 30
0.0
 10
10.0485727286
 20
7.365656987
 30
0.0
 10
10.0419320128
 20
7.3550342108
 30
0.0
 10
10.0342357998
 20
7.3451887864
 30
0.0
 10
10.0255584086
 20
7.3362160814
 30
0.0
 10
10.0159837663
 20
7.3282029835
 30
0.0
 10
10.0056046051
 20
7.3212269476
 30
0.0
 10
9.9945214635
 20
7.3153552714
 30
0.0
 10
9.9828416137
 20
7.3106444526
 30
0.0
 10
9.9706781453
 20
7.3071396288
 30
0.0
 10
9.9581482413
 20
7.3048742332
 30
0.0
 10
9.9453743494
 20
7.3038693871
 30
0.0
 10
9.9368030151
 20
7.3040457407
 30
0.0
 10
9.9325203506
 20
7.3043427445
 30
0.0
  0
SPLINE
  5
37D
100
AcDbEntity
  8
0
100
AcDbSpline
 62
7
  6
CONTINUOUS
 70
0
 71
3
 72
39
 73
35
 74
0
 42
0.0000001
 43
0.0000001
 44
0.0000000001
 40
0.0
 40
0.0
 40
0.0
 40
0.0
 40
0.0314026134
 40
0.06300949
 40
0.0948071102
 40
0.1267734453
 40
0.1588809722
 40
0.1910970226
 40
0.2233851132
 40
0.2557062446
 40
0.2880202663
 40
0.3202872751
 40
0.3524690067
 40
0.384530184
 40
0.4164397927
 40
0.448172249
 40
0.4797084083
 40
0.5110363809
 40
0.5421521201
 40
0.5730597413
 40
0.6037715194
 40
0.6343075569
 40
0.6646951118
 40
0.6949675896
 40
0.7251632184
 40
0.755323478
 40
0.7854913548
 40
0.8157095105
 40
0.8460184691
 40
0.8764549222
 40
0.9070502335
 40
0.9378293335
 40
0.9688091139
 40
1.0
 40
1.0
 40
1.0
 40
1.0
 10
9.9325203506
 20
7.3043427445
 30
0.0
 10
9.9282086149
 20
7.3046417644
 30
0.0
 10
9.9195808395
 20
7.3056666619
 30
0.0
 10
9.9068130484
 20
7.3084502829
 30
0.0
 10
9.8942927384
 20
7.3124583662
 30
0.0
 10
9.8821417017
 20
7.3176520697
 30
0.0
 10
9.8704761555
 20
7.3239812221
 30
0.0
 10
9.8594081151
 20
7.3313848218
 30
0.0
 10
9.849043716
 20
7.3397916419
 30
0.0
 10
9.839482409
 20
7.3491209142
 30
0.0
 10
9.8308159793
 20
7.359283086
 30
0.0
 10
9.823127637
 20
7.3701806171
 30
0.0
 10
9.8164912795
 20
7.3817089536
 30
0.0
 10
9.8109707976
 20
7.3937575041
 30
0.0
 10
9.8066194711
 20
7.4062106702
 30
0.0
 10
9.803479383
 20
7.4189489062
 30
0.0
 10
9.8015810764
 20
7.4318498718
 30
0.0
 10
9.800943248
 20
7.4447895699
 30
0.0
 10
9.8015725438
 20
7.4576435037
 30
0.0
 10
9.8034633796
 20
7.4702878584
 30
0.0
 10
9.8065980278
 20
7.482600689
 30
0.0
 10
9.8109467384
 20
7.4944630877
 30
0.0
 10
9.8164679726
 20
7.5057603423
 30
0.0
 10
9.8231086884
 20
7.5163831185
 30
0.0
 10
9.8308049014
 20
7.526228543
 30
0.0
 10
9.8394822926
 20
7.535201248
 30
0.0
 10
9.8490569349
 20
7.5432143459
 30
0.0
 10
9.8594360961
 20
7.5501903818
 30
0.0
 10
9.8705192377
 20
7.556062058
 30
0.0
 10
9.8821990875
 20
7.5607728767
 30
0.0
 10
9.8943625559
 20
7.5642777005
 30
0.0
 10
9.9068924599
 20
7.5665430961
 30
0.0
 10
9.9196663518
 20
7.5675479423
 30
0.0
 10
9.9282376861
 20
7.5673715886
 30
0.0
 10
9.9325203506
 20
7.5670745848
 30
0.0
  0
SPLINE
  5
37E
100
AcDbEntity
  8
0
100
AcDbSpline
 62
7
  6
CONTINUOUS
 70
0
 71
3
 72
39
 73
35
 74
0
 42
0.0000001
 43
0.0000001
 44
0.0000000001
 40
0.0
 40
0.0
 40
0.0
 40
0.0
 40
0.0314026134
 40
0.06300949
 40
0.0948071102
 40
0.1267734453
 40
0.1588809722
 40
0.1910970226
 40
0.2233851132
 40
0.2557062446
 40
0.2880202663
 40
0.3202872751
 40
0.3524690067
 40
0.384530184
 40
0.4164397927
 40
0.448172249
 40
0.4797084083
 40
0.5110363809
 40
0.5421521201
 40
0.5730597413
 40
0.6037715194
 40
0.6343075569
 40
0.6646951118
 40
0.6949675896
 40
0.7251632184
 40
0.755323478
 40
0.7854913548
 40
0.8157095105
 40
0.8460184691
 40
0.8764549222
 40
0.9070502335
 40
0.9378293335
 40
0.9688091139
 40
1.0
 40
1.0
 40
1.0
 40
1.0
 10
9.9325203506
 20
9.3182981766
 30
0.0
 10
9.9368320863
 20
9.3179991568
 30
0.0
 10
9.9454598617
 20
9.3169742592
 30
0.0
 10
9.9582276528
 20
9.3141906383
 30
0.0
 10
9.9707479628
 20
9.3101825549
 30
0.0
 10
9.9828989995
 20
9.3049888515
 30
0.0
 10
9.9945645457
 20
9.298659699
 30
0.0
 10
10.0056325861
 20
9.2912560994
 30
0.0
 10
10.0159969852
 20
9.2828492793
 30
0.0
 10
10.0255582922
 20
9.273520007
 30
0.0
 10
10.0342247219
 20
9.2633578351
 30
0.0
 10
10.0419130642
 20
9.252460304
 30
0.0
 10
10.0485494217
 20
9.2409319676
 30
0.0
 10
10.0540699036
 20
9.2288834171
 30
0.0
 10
10.0584212301
 20
9.2164302509
 30
0.0
 10
10.0615613182
 20
9.2036920149
 30
0.0
 10
10.0634596248
 20
9.1907910494
 30
0.0
 10
10.0640974532
 20
9.1778513512
 30
0.0
 10
10.0634681574
 20
9.1649974175
 30
0.0
 10
10.0615773216
 20
9.1523530628
 30
0.0
 10
10.0584426734
 20
9.1400402322
 30
0.0
 10
10.0540939628
 20
9.1281778334
 30
0.0
 10
10.0485727286
 20
9.1168805788
 30
0.0
 10
10.0419320128
 20
9.1062578026
 30
0.0
 10
10.0342357998
 20
9.0964123782
 30
0.0
 10
10.0255584086
 20
9.0874396732
 30
0.0
 10
10.0159837663
 20
9.0794265753
 30
0.0
 10
10.0056046051
 20
9.0724505394
 30
0.0
 10
9.9945214635
 20
9.0665788632
 30
0.0
 10
9.9828416137
 20
9.0618680444
 30
0.0
 10
9.9706781453
 20
9.0583632206
 30
0.0
 10
9.9581482413
 20
9.0560978251
 30
0.0
 10
9.9453743494
 20
9.0550929789
 30
0.0
 10
9.9368030151
 20
9.0552693325
 30
0.0
 10
9.9325203506
 20
9.0555663363
 30
0.0
  0
SPLINE
  5
37F
100
AcDbEntity
  8
0
100
AcDbSpline
 62
7
  6
CONTINUOUS
 70
0
 71
3
 72
42
 73
38
 74
0
 42
0.0000001
 43
0.0000001
 44
0.0000000001
 40
0.0
 40
0.0
 40
0.0
 40
0.0
 40
0.0299419634
 40
0.0449235299
 40
0.0599142017
 40
0.0899287029
 40
0.1200139772
 40
0.1350926626
 40
0.1501967046
 40
0.1804840506
 40
0.2108978877
 40
0.2414513551
 40
0.2721543675
 40
0.3030134354
 40
0.3340315696
 40
0.3652082675
 40
0.3965395775
 40
0.4280182343
 40
0.4596338596
 40
0.4913732188
 40
0.5232205284
 40
0.5551578047
 40
0.5871652463
 40
0.6192216448
 40
0.6513048151
 40
0.6833920402
 40
0.7154605222
 40
0.747487836
 40
0.7794523759
 40
0.8113337934
 40
0.8431134117
 40
0.8747746318
 40
0.9063032512
 40
0.9376879208
 40
0.9533258
 40
0.9689252634
 40
1.0
 40
1.0
 40
1.0
 40
1.0
 10
11.5026481439
 20
8.1158361953
 30
0.0
 10
11.4990150047
 20
8.1123268738
 30
0.0
 10
11.4933511373
 20
8.1072755406
 30
0.0
 10
11.4854190185
 20
8.1010079363
 30
0.0
 10
11.4772343015
 20
8.0950522175
 30
0.0
 10
11.4665545918
 20
8.0882131228
 30
0.0
 10
11.455355628
 20
8.0822308942
 30
0.0
 10
11.4461193852
 20
8.0779751309
 30
0.0
 10
11.4366923488
 20
8.0740706874
 30
0.0
 10
11.4245978885
 20
8.0698723071
 30
0.0
 10
11.4096932995
 20
8.065959522
 30
0.0
 10
11.39446349
 20
8.0631876149
 30
0.0
 10
11.3789928614
 20
8.0615718782
 30
0.0
 10
11.3633663973
 20
8.0611209345
 30
0.0
 10
11.3476700788
 20
8.0618370788
 30
0.0
 10
11.3319901765
 20
8.0637161743
 30
0.0
 10
11.3164128445
 20
8.0667477114
 30
0.0
 10
11.3010236353
 20
8.0709148656
 30
0.0
 10
11.2859070413
 20
8.0761945968
 30
0.0
 10
11.2711460356
 20
8.0825577797
 30
0.0
 10
11.2568216236
 20
8.0899693654
 30
0.0
 10
11.243012405
 20
8.0983885753
 30
0.0
 10
11.2297941474
 20
8.1077691242
 30
0.0
 10
11.2172393769
 20
8.1180594733
 30
0.0
 10
11.2054169838
 20
8.1292031115
 30
0.0
 10
11.1943918498
 20
8.1411388624
 30
0.0
 10
11.184224495
 20
8.1538012174
 30
0.0
 10
11.1749707493
 20
8.1671206918
 30
0.0
 10
11.1666814485
 20
8.1810241983
 30
0.0
 10
11.1594021572
 20
8.1954354592
 30
0.0
 10
11.1531729218
 20
8.2102753605
 30
0.0
 10
11.1480280387
 20
8.2254625998
 30
0.0
 10
11.1439959298
 20
8.2409133132
 30
0.0
 10
11.1415785909
 20
8.2539553904
 30
0.0
 10
11.1402225355
 20
8.2644345414
 30
0.0
 10
11.139254752
 20
8.2749036646
 30
0.0
 10
11.1389617165
 20
8.2827816093
 30
0.0
 10
11.1389617165
 20
8.2880239505
 30
0.0
  0
SPLINE
  5
380
100
AcDbEntity
  8
0
100
AcDbSpline
 62
7
  6
CONTINUOUS
 70
0
 71
3
 72
21
 73
17
 74
0
 42
0.0000001
 43
0.0000001
 44
0.0000000001
 40
0.0
 40
0.0
 40
0.0
 40
0.0
 40
0.1273176984
 40
0.2537999461
 40
0.3167619614
 40
0.3795355204
 40
0.4421314992
 40
0.5045621453
 40
0.5668413456
 40
0.6289845231
 40
0.6910084433
 40
0.7529310869
 40
0.8147714401
 40
0.8765493236
 40
0.9382852134
 40
1.0
 40
1.0
 40
1.0
 40
1.0
 10
8.9965381983
 20
6.5955468898
 30
0.0
 10
8.9965381983
 20
6.6022916979
 30
0.0
 10
8.9971820353
 20
6.6157457373
 30
0.0
 10
8.9996136265
 20
6.6323778344
 30
0.0
 10
9.0025198936
 20
6.6454242581
 30
0.0
 10
9.0051702575
 20
6.6550473065
 30
0.0
 10
9.0082882522
 20
6.6644993583
 30
0.0
 10
9.0118666889
 20
6.6737588928
 30
0.0
 10
9.0158973176
 20
6.6828044942
 30
0.0
 10
9.0203709255
 20
6.6916152858
 30
0.0
 10
9.0252771636
 20
6.7001709573
 30
0.0
 10
9.0306047172
 20
6.7084517912
 30
0.0
 10
9.0363413517
 20
6.7164386258
 30
0.0
 10
9.0424738729
 20
6.7241131183
 30
0.0
 10
9.0489878664
 20
6.7314573566
 30
0.0
 10
9.0535757591
 20
6.7361228491
 30
0.0
 10
9.0559273078
 20
6.7383942569
 30
0.0
  0
SPLINE
  5
381
100
AcDbEntity
  8
0
100
AcDbSpline
 62
7
  6
CONTINUOUS
 70
0
 71
3
 72
42
 73
38
 74
0
 42
0.0000001
 43
0.0000001
 44
0.0000000001
 40
0.0
 40
0.0
 40
0.0
 40
0.0
 40
0.0299419634
 40
0.0449235299
 40
0.0599142017
 40
0.0899287029
 40
0.1200139772
 40
0.1350926626
 40
0.1501967046
 40
0.1804840506
 40
0.2108978877
 40
0.2414513551
 40
0.2721543675
 40
0.3030134354
 40
0.3340315696
 40
0.3652082675
 40
0.3965395775
 40
0.4280182343
 40
0.4596338596
 40
0.4913732188
 40
0.5232205284
 40
0.5551578047
 40
0.5871652463
 40
0.6192216448
 40
0.6513048151
 40
0.6833920402
 40
0.7154605222
 40
0.747487836
 40
0.7794523759
 40
0.8113337934
 40
0.8431134117
 40
0.8747746318
 40
0.9063032512
 40
0.9376879208
 40
0.9533258
 40
0.9689252634
 40
1.0
 40
1.0
 40
1.0
 40
1.0
 10
11.1104823328
 20
8.7167928289
 30
0.0
 10
11.1068491937
 20
8.7132835073
 30
0.0
 10
11.1011853262
 20
8.7082321741
 30
0.0
 10
11.0932532074
 20
8.7019645698
 30
0.0
 10
11.0850684905
 20
8.696008851
 30
0.0
 10
11.0743887807
 20
8.6891697563
 30
0.0
 10
11.063189817
 20
8.6831875278
 30
0.0
 10
11.0539535742
 20
8.6789317645
 30
0.0
 10
11.0445265377
 20
8.6750273209
 30
0.0
 10
11.0324320774
 20
8.6708289407
 30
0.0
 10
11.0175274884
 20
8.6669161555
 30
0.0
 10
11.0022976789
 20
8.6641442485
 30
0.0
 10
10.9868270504
 20
8.6625285118
 30
0.0
 10
10.9712005862
 20
8.6620775681
 30
0.0
 10
10.9555042677
 20
8.6627937124
 30
0.0
 10
10.9398243654
 20
8.6646728078
 30
0.0
 10
10.9242470334
 20
8.667704345
 30
0.0
 10
10.9088578243
 20
8.6718714991
 30
0.0
 10
10.8937412303
 20
8.6771512303
 30
0.0
 10
10.8789802245
 20
8.6835144132
 30
0.0
 10
10.8646558126
 20
8.690925999
 30
0.0
 10
10.8508465939
 20
8.6993452088
 30
0.0
 10
10.8376283364
 20
8.7087257577
 30
0.0
 10
10.8250735658
 20
8.7190161069
 30
0.0
 10
10.8132511728
 20
8.730159745
 30
0.0
 10
10.8022260388
 20
8.742095496
 30
0.0
 10
10.7920586839
 20
8.7547578509
 30
0.0
 10
10.7828049383
 20
8.7680773253
 30
0.0
 10
10.7745156374
 20
8.7819808318
 30
0.0
 10
10.7672363461
 20
8.7963920928
 30
0.0
 10
10.7610071108
 20
8.811231994
 30
0.0
 10
10.7558622277
 20
8.8264192333
 30
0.0
 10
10.7518301187
 20
8.8418699467
 30
0.0
 10
10.7494127798
 20
8.854912024
 30
0.0
 10
10.7480567244
 20
8.8653911749
 30
0.0
 10
10.7470889409
 20
8.8758602981
 30
0.0
 10
10.7467959054
 20
8.8837382428
 30
0.0
 10
10.7467959054
 20
8.8889805841
 30
0.0
  0
SPLINE
  5
382
100
AcDbEntity
  8
0
100
AcDbSpline
 62
7
  6
CONTINUOUS
 70
0
 71
3
 72
15
 73
11
 74
0
 42
0.0000001
 43
0.0000001
 44
0.0000000001
 40
0.0
 40
0.0
 40
0.0
 40
0.0
 40
0.1233171261
 40
0.2468171865
 40
0.3706749939
 40
0.4950495802
 40
0.6200773232
 40
0.7458671315
 40
0.872492731
 40
1.0
 40
1.0
 40
1.0
 40
1.0
 10
10.0167615805
 20
9.1118911189
 30
0.0
 10
10.0142370468
 20
9.1094526278
 30
0.0
 10
10.0089170762
 20
9.104840202
 30
0.0
 10
10.0002343599
 20
9.0988130118
 30
0.0
 10
9.990930535
 20
9.0937321706
 30
0.0
 10
9.9811008344
 20
9.0896499
 30
0.0
 10
9.9708444125
 20
9.0866067295
 30
0.0
 10
9.9602645883
 20
9.0846330865
 30
0.0
 10
9.9494693574
 20
9.0837481673
 30
0.0
 10
9.9422230751
 20
9.0838895088
 30
0.0
 10
9.9386025931
 20
9.0841405901
 30
0.0
  0
SPLINE
  5
383
100
AcDbEntity
  8
0
100
AcDbSpline
 62
7
  6
CONTINUOUS
 70
0
 71
3
 72
15
 73
11
 74
0
 42
0.0000001
 43
0.0000001
 44
0.0000000001
 40
0.0
 40
0.0
 40
0.0
 40
0.0
 40
0.1233171261
 40
0.2468171865
 40
0.3706749939
 40
0.4950495802
 40
0.6200773232
 40
0.7458671315
 40
0.872492731
 40
1.0
 40
1.0
 40
1.0
 40
1.0
 10
12.0683882271
 20
8.9696103277
 30
0.0
 10
12.0658636934
 20
8.9671718366
 30
0.0
 10
12.0605437228
 20
8.9625594108
 30
0.0
 10
12.0518610065
 20
8.9565322206
 30
0.0
 10
12.0425571816
 20
8.9514513794
 30
0.0
 10
12.032727481
 20
8.9473691088
 30
0.0
 10
12.0224710591
 20
8.9443259383
 30
0.0
 10
12.0118912349
 20
8.9423522953
 30
0.0
 10
12.001096004
 20
8.9414673761
 30
0.0
 10
11.9938497218
 20
8.9416087176
 30
0.0
 10
11.9902292397
 20
8.9418597989
 30
0.0
  0
SPLINE
  5
384
100
AcDbEntity
  8
0
100
AcDbSpline
 62
7
  6
CONTINUOUS
 70
0
 71
3
 72
15
 73
11
 74
0
 42
0.0000001
 43
0.0000001
 44
0.0000000001
 40
0.0
 40
0.0
 40
0.0
 40
0.0
 40
0.1233171261
 40
0.2468171865
 40
0.3706749939
 40
0.4950495802
 40
0.6200773232
 40
0.7458671315
 40
0.872492731
 40
1.0
 40
1.0
 40
1.0
 40
1.0
 10
12.0683882271
 20
7.2183867359
 30
0.0
 10
12.0658636934
 20
7.2159482448
 30
0.0
 10
12.0605437228
 20
7.211335819
 30
0.0
 10
12.0518610065
 20
7.2053086288
 30
0.0
 10
12.0425571816
 20
7.2002277876
 30
0.0
 10
12.032727481
 20
7.196145517
 30
0.0
 10
12.0224710591
 20
7.1931023465
 30
0.0
 10
12.0118912349
 20
7.1911287034
 30
0.0
 10
12.001096004
 20
7.1902437843
 30
0.0
 10
11.9938497218
 20
7.1903851258
 30
0.0
 10
11.9902292397
 20
7.1906362071
 30
0.0
  0
SPLINE
  5
385
100
AcDbEntity
  8
0
100
AcDbSpline
 62
7
  6
CONTINUOUS
 70
0
 71
3
 72
39
 73
35
 74
0
 42
0.0000001
 43
0.0000001
 44
0.0000000001
 40
0.0
 40
0.0
 40
0.0
 40
0.0
 40
0.0314026134
 40
0.06300949
 40
0.0948071102
 40
0.1267734453
 40
0.1588809722
 40
0.1910970226
 40
0.2233851132
 40
0.2557062446
 40
0.2880202663
 40
0.3202872751
 40
0.3524690067
 40
0.384530184
 40
0.4164397927
 40
0.448172249
 40
0.4797084083
 40
0.5110363809
 40
0.5421521201
 40
0.5730597413
 40
0.6037715194
 40
0.6343075569
 40
0.6646951118
 40
0.6949675896
 40
0.7251632184
 40
0.755323478
 40
0.7854913548
 40
0.8157095105
 40
0.8460184691
 40
0.8764549222
 40
0.9070502335
 40
0.9378293335
 40
0.9688091139
 40
1.0
 40
1.0
 40
1.0
 40
1.0
 10
9.9325203506
 20
9.0555663363
 30
0.0
 10
9.9282086149
 20
9.0558653562
 30
0.0
 10
9.9195808395
 20
9.0568902538
 30
0.0
 10
9.9068130484
 20
9.0596738747
 30
0.0
 10
9.8942927384
 20
9.0636819581
 30
0.0
 10
9.8821417017
 20
9.0688756615
 30
0.0
 10
9.8704761555
 20
9.075204814
 30
0.0
 10
9.8594081151
 20
9.0826084136
 30
0.0
 10
9.849043716
 20
9.0910152337
 30
0.0
 10
9.839482409
 20
9.100344506
 30
0.0
 10
9.8308159793
 20
9.1105066778
 30
0.0
 10
9.823127637
 20
9.1214042089
 30
0.0
 10
9.8164912795
 20
9.1329325454
 30
0.0
 10
9.8109707976
 20
9.1449810959
 30
0.0
 10
9.8066194711
 20
9.157434262
 30
0.0
 10
9.803479383
 20
9.170172498
 30
0.0
 10
9.8015810764
 20
9.1830734636
 30
0.0
 10
9.800943248
 20
9.1960131618
 30
0.0
 10
9.8015725438
 20
9.2088670955
 30
0.0
 10
9.8034633796
 20
9.2215114502
 30
0.0
 10
9.8065980278
 20
9.2338242808
 30
0.0
 10
9.8109467384
 20
9.2456866795
 30
0.0
 10
9.8164679726
 20
9.2569839342
 30
0.0
 10
9.8231086884
 20
9.2676067103
 30
0.0
 10
9.8308049014
 20
9.2774521348
 30
0.0
 10
9.8394822926
 20
9.2864248398
 30
0.0
 10
9.8490569349
 20
9.2944379377
 30
0.0
 10
9.8594360961
 20
9.3014139736
 30
0.0
 10
9.8705192377
 20
9.3072856498
 30
0.0
 10
9.8821990875
 20
9.3119964685
 30
0.0
 10
9.8943625559
 20
9.3155012923
 30
0.0
 10
9.9068924599
 20
9.3177666879
 30
0.0
 10
9.9196663518
 20
9.3187715341
 30
0.0
 10
9.9282376861
 20
9.3185951804
 30
0.0
 10
9.9325203506
 20
9.3182981766
 30
0.0
  0
SPLINE
  5
386
100
AcDbEntity
  8
0
100
AcDbSpline
 62
7
  6
CONTINUOUS
 70
0
 71
3
 72
15
 73
11
 74
0
 42
0.0000001
 43
0.0000001
 44
0.0000000001
 40
0.0
 40
0.0
 40
0.0
 40
0.0
 40
0.1233171261
 40
0.2468171865
 40
0.3706749939
 40
0.4950495802
 40
0.6200773232
 40
0.7458671315
 40
0.872492731
 40
1.0
 40
1.0
 40
1.0
 40
1.0
 10
10.0167615805
 20
7.3606675271
 30
0.0
 10
10.0142370468
 20
7.3582290359
 30
0.0
 10
10.0089170762
 20
7.3536166102
 30
0.0
 10
10.0002343599
 20
7.34758942
 30
0.0
 10
9.990930535
 20
7.3425085787
 30
0.0
 10
9.9811008344
 20
7.3384263082
 30
0.0
 10
9.9708444125
 20
7.3353831377
 30
0.0
 10
9.9602645883
 20
7.3334094946
 30
0.0
 10
9.9494693574
 20
7.3325245755
 30
0.0
 10
9.9422230751
 20
7.332665917
 30
0.0
 10
9.9386025931
 20
7.3329169983
 30
0.0
  0
SPLINE
  5
387
100
AcDbEntity
  8
0
100
AcDbSpline
 62
7
  6
CONTINUOUS
 70
0
 71
3
 72
21
 73
17
 74
0
 42
0.0000001
 43
0.0000001
 44
0.0000000001
 40
0.0
 40
0.0
 40
0.0
 40
0.0
 40
0.1273176984
 40
0.2537999461
 40
0.3167619614
 40
0.3795355204
 40
0.4421314992
 40
0.5045621453
 40
0.5668413456
 40
0.6289845231
 40
0.6910084433
 40
0.7529310869
 40
0.8147714401
 40
0.8765493236
 40
0.9382852134
 40
1.0
 40
1.0
 40
1.0
 40
1.0
 10
9.8407574617
 20
7.9559450753
 30
0.0
 10
9.8407574617
 20
7.9626898834
 30
0.0
 10
9.8414012987
 20
7.9761439228
 30
0.0
 10
9.8438328899
 20
7.9927760199
 30
0.0
 10
9.846739157
 20
8.0058224435
 30
0.0
 10
9.8493895209
 20
8.015445492
 30
0.0
 10
9.8525075156
 20
8.0248975437
 30
0.0
 10
9.8560859524
 20
8.0341570783
 30
0.0
 10
9.860116581
 20
8.0432026797
 30
0.0
 10
9.8645901889
 20
8.0520134712
 30
0.0
 10
9.869496427
 20
8.0605691428
 30
0.0
 10
9.8748239807
 20
8.0688499767
 30
0.0
 10
9.8805606151
 20
8.0768368113
 30
0.0
 10
9.8866931363
 20
8.0845113038
 30
0.0
 10
9.8932071298
 20
8.091855542
 30
0.0
 10
9.8977950226
 20
8.0965210346
 30
0.0
 10
9.9001465712
 20
8.0987924424
 30
0.0
  0
SPLINE
  5
388
100
AcDbEntity
  8
0
100
AcDbSpline
 62
7
  6
CONTINUOUS
 70
0
 71
3
 72
55
 73
51
 74
0
 42
0.0000001
 43
0.0000001
 44
0.0000000001
 40
0.0
 40
0.0
 40
0.0
 40
0.0
 40
0.0082491178
 40
0.0160249553
 40
0.0233639829
 40
0.0303114802
 40
0.0369227124
 40
0.0432632191
 40
0.0494084978
 40
0.0554422202
 40
0.0614532215
 40
0.0675314279
 40
0.0737635734
 40
0.0802295678
 40
0.0870001076
 40
0.0941356026
 40
0.1016862967
 40
0.1096929194
 40
0.1181879204
 40
0.1271964447
 40
0.1367376591
 40
0.1468254487
 40
0.1574695253
 40
0.1686757809
 40
0.1804471637
 40
0.1927837889
 40
0.2056836241
 40
0.2191424695
 40
0.2331544853
 40
0.247712128
 40
0.2628065382
 40
0.2784274902
 40
0.2945636526
 40
0.3112025835
 40
0.3459332145
 40
0.3825027187
 40
0.4207806566
 40
0.4606256652
 40
0.5018868761
 40
0.5444051764
 40
0.588014366
 40
0.6325422452
 40
0.6778116579
 40
0.723641506
 40
0.7698477386
 40
0.8162443522
 40
0.8626443093
 40
0.9088606872
 40
0.9547071706
 40
1.0
 40
1.0
 40
1.0
 40
1.0
 10
9.9268656726
 20
10.7502042574
 30
0.0
 10
9.9258680587
 20
10.7511326424
 30
0.0
 10
9.9239846957
 20
10.7529964249
 30
0.0
 10
9.9214393076
 20
10.7559026476
 30
0.0
 10
9.9192626839
 20
10.758831562
 30
0.0
 10
9.9174579897
 20
10.7617807047
 30
0.0
 10
9.916028051
 20
10.7647475016
 30
0.0
 10
9.914975956
 20
10.7677290502
 30
0.0
 10
9.9143044397
 20
10.7707216701
 30
0.0
 10
9.9140157983
 20
10.7737208676
 30
0.0
 10
9.9141110641
 20
10.7767214259
 30
0.0
 10
9.9145899038
 20
10.7797179777
 30
0.0
 10
9.91545059
 20
10.7827056107
 30
0.0
 10
9.9166905299
 20
10.7856802501
 30
0.0
 10
9.9183068033
 20
10.7886386167
 30
0.0
 10
9.9202963904
 20
10.7915780299
 30
0.0
 10
9.9226564062
 20
10.7944960028
 30
0.0
 10
9.9253838488
 20
10.7973901832
 30
0.0
 10
9.9284757009
 20
10.8002580339
 30
0.0
 10
9.9319286017
 20
10.8030970509
 30
0.0
 10
9.9357389956
 20
10.8059044769
 30
0.0
 10
9.939902872
 20
10.8086776467
 30
0.0
 10
9.944415938
 20
10.8114136738
 30
0.0
 10
9.9492734309
 20
10.8141098248
 30
0.0
 10
9.954470272
 20
10.8167631913
 30
0.0
 10
9.9600009377
 20
10.8193710447
 30
0.0
 10
9.965859576
 20
10.8219305289
 30
0.0
 10
9.9720399258
 20
10.8244389655
 30
0.0
 10
9.978535395
 20
10.8268935963
 30
0.0
 10
9.985339017
 20
10.8292918209
 30
0.0
 10
9.9924434989
 20
10.8316310092
 30
0.0
 10
9.999841201
 20
10.8339086522
 30
0.0
 10
10.007524179
 20
10.8361222907
 30
0.0
 10
10.018291819
 20
10.8390267828
 30
0.0
 10
10.0324086195
 20
10.8424679077
 30
0.0
 10
10.0501138975
 20
10.8462494183
 30
0.0
 10
10.0687421101
 20
10.8497232563
 30
0.0
 10
10.0882129623
 20
10.8528742556
 30
0.0
 10
10.1084426554
 20
10.8556886243
 30
0.0
 10
10.1293439855
 20
10.8581540654
 30
0.0
 10
10.1508268199
 20
10.8602598094
 30
0.0
 10
10.1727984754
 20
10.8619966647
 30
0.0
 10
10.1951641348
 20
10.863357053
 30
0.0
 10
10.2178272605
 20
10.8643350408
 30
0.0
 10
10.2406900196
 20
10.8649263643
 30
0.0
 10
10.2636537061
 20
10.8651284438
 30
0.0
 10
10.286619182
 20
10.8649404027
 30
0.0
 10
10.3094872927
 20
10.8643630521
 30
0.0
 10
10.3321592492
 20
10.8633989247
 30
0.0
 10
10.3471893562
 20
10.8624944086
 30
0.0
 10
10.3546538695
 20
10.8619767429
 30
0.0
  0
SPLINE
  5
389
100
AcDbEntity
  8
0
100
AcDbSpline
 62
7
  6
CONTINUOUS
 70
0
 71
3
 72
22
 73
18
 74
0
 42
0.0000001
 43
0.0000001
 44
0.0000000001
 40
0.0
 40
0.0
 40
0.0
 40
0.0
 40
0.0479904026
 40
0.0983042372
 40
0.1508801638
 40
0.2056484214
 40
0.2625317557
 40
0.3214460745
 40
0.3823010293
 40
0.4450007053
 40
0.5094441209
 40
0.5755255779
 40
0.6431349903
 40
0.7121586852
 40
0.7824793167
 40
0.8539753579
 40
1.0
 40
1.0
 40
1.0
 40
1.0
 10
11.9320203
 20
10.5490049285
 30
0.0
 10
11.9278298042
 20
10.5505453908
 30
0.0
 10
11.9191973339
 20
10.5535698794
 30
0.0
 10
11.9058281313
 20
10.5578519297
 30
0.0
 10
11.8917523128
 20
10.5619802213
 30
0.0
 10
11.8769964598
 20
10.5659468586
 30
0.0
 10
11.8615882512
 20
10.5697443147
 30
0.0
 10
11.8455566913
 20
10.5733653605
 30
0.0
 10
11.8289319769
 20
10.5768031289
 30
0.0
 10
11.8117454418
 20
10.5800510863
 30
0.0
 10
11.7940294853
 20
10.5831030503
 30
0.0
 10
11.7758175328
 20
10.5859532203
 30
0.0
 10
11.7571439411
 20
10.5885962004
 30
0.0
 10
11.7380439632
 20
10.5910269571
 30
0.0
 10
11.7185536681
 20
10.5932408824
 30
0.0
 10
11.6919085546
 20
10.5959167361
 30
0.0
 10
11.6717357958
 20
10.5975555841
 30
0.0
 10
11.6581833001
 20
10.5984954529
 30
0.0
  0
SPLINE
  5
38A
100
AcDbEntity
  8
0
100
AcDbSpline
 62
7
  6
CONTINUOUS
 70
0
 71
3
 72
29
 73
25
 74
0
 42
0.0000001
 43
0.0000001
 44
0.0000000001
 40
0.0
 40
0.0
 40
0.0
 40
0.0
 40
0.0197469468
 40
0.040345695
 40
0.0617974489
 40
0.0841008898
 40
0.107252234
 40
0.131245688
 40
0.1560734841
 40
0.1817261994
 40
0.2081927994
 40
0.2354608432
 40
0.2635165549
 40
0.2923449305
 40
0.3522526842
 40
0.415044279
 40
0.4805633256
 40
0.5486402434
 40
0.6190937484
 40
0.6917321295
 40
0.7663545001
 40
0.8427516827
 40
0.9207077368
 40
1.0
 40
1.0
 40
1.0
 40
1.0
 10
12.0234810187
 20
10.5786642682
 30
0.0
 10
12.0214140353
 20
10.5798749438
 30
0.0
 10
12.017149159
 20
10.5822777936
 30
0.0
 10
12.0105091586
 20
10.5857594663
 30
0.0
 10
12.0034966311
 20
10.5891919602
 30
0.0
 10
11.9961170443
 20
10.5925725315
 30
0.0
 10
11.9883760622
 20
10.5958986226
 30
0.0
 10
11.9802796549
 20
10.5991676195
 30
0.0
 10
11.971834081
 20
10.6023770107
 30
0.0
 10
11.9630458703
 20
10.6055242792
 30
0.0
 10
11.9539218305
 20
10.6086069907
 30
0.0
 10
11.9444690352
 20
10.6116227269
 30
0.0
 10
11.9346948061
 20
10.6145691675
 30
0.0
 10
11.9210691163
 20
10.618452021
 30
0.0
 10
11.903283308
 20
10.6231032999
 30
0.0
 10
11.881049071
 20
10.6283044478
 30
0.0
 10
11.8577275262
 20
10.6331778854
 30
0.0
 10
11.8333911403
 20
10.6377083174
 30
0.0
 10
11.8081153918
 20
10.641881499
 30
0.0
 10
11.7819787903
 20
10.6456843252
 30
0.0
 10
11.7550625668
 20
10.6491048501
 30
0.0
 10
11.7274503553
 20
10.6521323473
 30
0.0
 10
11.6992281325
 20
10.654757303
 30
0.0
 10
11.6802082266
 20
10.6562224045
 30
0.0
 10
11.6706125598
 20
10.6568878663
 30
0.0
  0
SPLINE
  5
38B
100
AcDbEntity
  8
0
100
AcDbSpline
 62
7
  6
CONTINUOUS
 70
0
 71
3
 72
50
 73
46
 74
0
 42
0.0000001
 43
0.0000001
 44
0.0000000001
 40
0.0
 40
0.0
 40
0.0
 40
0.0
 40
0.006849322
 40
0.0135997051
 40
0.0202928801
 40
0.0269717601
 40
0.0336795572
 40
0.0404588731
 40
0.0473508527
 40
0.0543944851
 40
0.061625988
 40
0.0690785605
 40
0.0767821193
 40
0.0847632994
 40
0.0930456396
 40
0.1016495806
 40
0.1105928644
 40
0.1198906894
 40
0.1295558914
 40
0.1395993644
 40
0.1500300481
 40
0.1608552804
 40
0.1720809808
 40
0.1837116356
 40
0.1957506835
 40
0.2082004339
 40
0.2343351034
 40
0.2621186092
 40
0.2915406309
 40
0.3225812324
 40
0.355212249
 40
0.3893984403
 40
0.425098361
 40
0.4622650416
 40
0.5008465197
 40
0.5407863761
 40
0.5820241614
 40
0.624495747
 40
0.6681336042
 40
0.7128671385
 40
0.7586229254
 40
0.8053250646
 40
0.8528954004
 40
0.9012529023
 40
1.0
 40
1.0
 40
1.0
 40
1.0
 10
12.1048780833
 20
10.6449949068
 30
0.0
 10
12.1051722165
 20
10.646052475
 30
0.0
 10
12.1056754729
 20
10.6481759053
 30
0.0
 10
12.1061683905
 20
10.6513940889
 30
0.0
 10
12.1063921359
 20
10.6546150184
 30
0.0
 10
12.1063465163
 20
10.657836535
 30
0.0
 10
12.1060314812
 20
10.6610567721
 30
0.0
 10
12.1054474102
 20
10.6642738197
 30
0.0
 10
12.1045948353
 20
10.667485884
 30
0.0
 10
12.1034744103
 20
10.670691242
 30
0.0
 10
12.1020870945
 20
10.6738883526
 30
0.0
 10
12.1004337648
 20
10.6770757043
 30
0.0
 10
12.0985154859
 20
10.6802519042
 30
0.0
 10
12.0963333861
 20
10.6834156288
 30
0.0
 10
12.0938885585
 20
10.686565499
 30
0.0
 10
12.0911823067
 20
10.6897002578
 30
0.0
 10
12.0882159072
 20
10.6928185609
 30
0.0
 10
12.084990756
 20
10.6959190723
 30
0.0
 10
12.0815083926
 20
10.6990005102
 30
0.0
 10
12.0777703739
 20
10.7020614717
 30
0.0
 10
12.0737784493
 20
10.7051006528
 30
0.0
 10
12.0695344418
 20
10.7081166982
 30
0.0
 10
12.0650402729
 20
10.711108217
 30
0.0
 10
12.0602980368
 20
10.7140739064
 30
0.0
 10
12.0553098745
 20
10.7170124004
 30
0.0
 10
12.0482189726
 20
10.7209562791
 30
0.0
 10
12.0387437275
 20
10.7257971772
 30
0.0
 10
12.0266093064
 20
10.73138611
 30
0.0
 10
12.0135553019
 20
10.7368350323
 30
0.0
 10
11.9996057782
 20
10.7421338384
 30
0.0
 10
11.9847862399
 20
10.7472727127
 30
0.0
 10
11.9691239844
 20
10.7522420715
 30
0.0
 10
11.9526479049
 20
10.757032629
 30
0.0
 10
11.9353884696
 20
10.7616354144
 30
0.0
 10
11.9173776521
 20
10.7660418208
 30
0.0
 10
11.8986488554
 20
10.7702435994
 30
0.0
 10
11.8792368359
 20
10.774232881
 30
0.0
 10
11.8591776398
 20
10.7780021871
 30
0.0
 10
11.8385085381
 20
10.7815444656
 30
0.0
 10
11.8172679585
 20
10.7848530887
 30
0.0
 10
11.7954953865
 20
10.7879218692
 30
0.0
 10
11.7732313107
 20
10.7907450524
 30
0.0
 10
11.7505171559
 20
10.7933173697
 30
0.0
 10
11.7194723347
 20
10.7964277247
 30
0.0
 10
11.6959707178
 20
10.7983349894
 30
0.0
 10
11.6801829007
 20
10.7994298783
 30
0.0
  0
SPLINE
  5
38C
100
AcDbEntity
  8
0
100
AcDbSpline
 62
7
  6
CONTINUOUS
 70
0
 71
3
 72
45
 73
41
 74
0
 42
0.0000001
 43
0.0000001
 44
0.0000000001
 40
0.0
 40
0.0
 40
0.0
 40
0.0
 40
0.0065941597
 40
0.0133462631
 40
0.0274135905
 40
0.034777014
 40
0.0423829797
 40
0.0502474787
 40
0.0583845671
 40
0.0668066312
 40
0.0755243995
 40
0.0845471143
 40
0.0938827651
 40
0.1035380455
 40
0.1135185842
 40
0.1238290801
 40
0.1344732358
 40
0.156772171
 40
0.1804322544
 40
0.2054588111
 40
0.2318489305
 40
0.2595926789
 40
0.2886741574
 40
0.3190722624
 40
0.3507612199
 40
0.3837111545
 40
0.4178885442
 40
0.4532565183
 40
0.4897751187
 40
0.5274016368
 40
0.5660908334
 40
0.6057950731
 40
0.6464645407
 40
0.6880474569
 40
0.7304901957
 40
0.7737373496
 40
0.8177321151
 40
0.8624161176
 40
0.9077292764
 40
1.0
 40
1.0
 40
1.0
 40
1.0
 10
12.2633124512
 20
10.6715058515
 30
0.0
 10
12.2629179824
 20
10.6727279882
 30
0.0
 10
12.2620348632
 20
10.6751750488
 30
0.0
 10
12.2599009506
 20
10.6800719284
 30
0.0
 10
12.2572412809
 20
10.6848901643
 30
0.0
 10
12.2541169697
 20
10.689605563
 30
0.0
 10
12.2514728105
 20
10.6931835261
 30
0.0
 10
12.2485649576
 20
10.6967467997
 30
0.0
 10
12.2453944089
 20
10.7002945584
 30
0.0
 10
12.2419623538
 20
10.7038254601
 30
0.0
 10
12.2382700671
 20
10.7073383381
 30
0.0
 10
12.2343189263
 20
10.7108320031
 30
0.0
 10
12.2301103258
 20
10.7143051886
 30
0.0
 10
12.2256458234
 20
10.7177567158
 30
0.0
 10
12.2209270386
 20
10.7211853612
 30
0.0
 10
12.2159556412
 20
10.7245898968
 30
0.0
 10
12.2088827407
 20
10.7291665974
 30
0.0
 10
12.1994070222
 20
10.7348080373
 30
0.0
 10
12.1872299322
 20
10.7413607025
 30
0.0
 10
12.174093481
 20
10.7477881741
 30
0.0
 10
12.1600167295
 20
10.75408114
 30
0.0
 10
12.1450198439
 20
10.7602305249
 30
0.0
 10
12.1291245059
 20
10.7662273505
 30
0.0
 10
12.1123537389
 20
10.7720628194
 30
0.0
 10
12.0947319261
 20
10.777728377
 30
0.0
 10
12.0762847361
 20
10.7832156985
 30
0.0
 10
12.0570390692
 20
10.7885166962
 30
0.0
 10
12.037023027
 20
10.7936235539
 30
0.0
 10
12.0162658734
 20
10.7985287635
 30
0.0
 10
11.9947979685
 20
10.8032250963
 30
0.0
 10
11.972650723
 20
10.8077056175
 30
0.0
 10
11.9498565645
 20
10.8119637322
 30
0.0
 10
11.9264488806
 20
10.8159931762
 30
0.0
 10
11.9024619568
 20
10.8197880074
 30
0.0
 10
11.8779309441
 20
10.8233426235
 30
0.0
 10
11.8528917796
 20
10.8266518118
 30
0.0
 10
11.8273811808
 20
10.8297106868
 30
0.0
 10
11.8014365548
 20
10.8325147537
 30
0.0
 10
11.7661036725
 20
10.8359286678
 30
0.0
 10
11.7393912883
 20
10.838061621
 30
0.0
 10
11.7214645044
 20
10.8393048477
 30
0.0
  0
SPLINE
  5
38D
100
AcDbEntity
  8
0
100
AcDbSpline
 62
7
  6
CONTINUOUS
 70
0
 71
3
 72
29
 73
25
 74
0
 42
0.0000001
 43
0.0000001
 44
0.0000000001
 40
0.0
 40
0.0
 40
0.0
 40
0.0
 40
0.0219532738
 40
0.0448444765
 40
0.0686525593
 40
0.0933538143
 40
0.1189221567
 40
0.1453291804
 40
0.1725445189
 40
0.2005359568
 40
0.2292694843
 40
0.2587095878
 40
0.2888192678
 40
0.3195601377
 40
0.3827748671
 40
0.4480251695
 40
0.5149659651
 40
0.5832398579
 40
0.6524798844
 40
0.7223122589
 40
0.7923590467
 40
0.8622409053
 40
0.9315789663
 40
1.0
 40
1.0
 40
1.0
 40
1.0
 10
11.1306085031
 20
10.5489698647
 30
0.0
 10
11.1342692727
 20
10.5503165649
 30
0.0
 10
11.1417842778
 20
10.5529675849
 30
0.0
 10
11.1533826421
 20
10.5567485099
 30
0.0
 10
11.165529297
 20
10.5604127221
 30
0.0
 10
11.1782065959
 20
10.5639548481
 30
0.0
 10
11.1913962522
 20
10.5673697029
 30
0.0
 10
11.2050791676
 20
10.570652336
 30
0.0
 10
11.2192355355
 20
10.5737979506
 30
0.0
 10
11.2338448504
 20
10.576801938
 30
0.0
 10
11.2488859362
 20
10.5796599501
 30
0.0
 10
11.2643369832
 20
10.5823677914
 30
0.0
 10
11.2801756066
 20
10.5849215357
 30
0.0
 10
11.3019827316
 20
10.5881459971
 30
0.0
 10
11.3300423872
 20
10.5917525842
 30
0.0
 10
11.3645752469
 20
10.5953740824
 30
0.0
 10
11.4000753629
 20
10.5983069248
 30
0.0
 10
11.4363367951
 20
10.6005338941
 30
0.0
 10
11.473149347
 20
10.6020418957
 30
0.0
 10
11.5102995251
 20
10.6028220732
 30
0.0
 10
11.5475718698
 20
10.6028698339
 30
0.0
 10
11.5847501706
 20
10.6021848843
 30
0.0
 10
11.6216187142
 20
10.6007712975
 30
0.0
 10
11.6460554976
 20
10.5993365188
 30
0.0
 10
11.6581833001
 20
10.5984954529
 30
0.0
  0
SPLINE
  5
38E
100
AcDbEntity
  8
0
100
AcDbSpline
 62
7
  6
CONTINUOUS
 70
0
 71
3
 72
21
 73
17
 74
0
 42
0.0000001
 43
0.0000001
 44
0.0000000001
 40
0.0
 40
0.0
 40
0.0
 40
0.0
 40
0.1273176984
 40
0.2537999461
 40
0.3167619614
 40
0.3795355204
 40
0.4421314992
 40
0.5045621453
 40
0.5668413456
 40
0.6289845231
 40
0.6910084433
 40
0.7529310869
 40
0.8147714401
 40
0.8765493236
 40
0.9382852134
 40
1.0
 40
1.0
 40
1.0
 40
1.0
 10
12.0140906996
 20
9.8867941259
 30
0.0
 10
12.0140906996
 20
9.893538934
 30
0.0
 10
12.0147345366
 20
9.9069929734
 30
0.0
 10
12.0171661279
 20
9.9236250705
 30
0.0
 10
12.0200723949
 20
9.9366714941
 30
0.0
 10
12.0227227589
 20
9.9462945426
 30
0.0
 10
12.0258407535
 20
9.9557465943
 30
0.0
 10
12.0294191903
 20
9.9650061289
 30
0.0
 10
12.033449819
 20
9.9740517303
 30
0.0
 10
12.0379234268
 20
9.9828625218
 30
0.0
 10
12.0428296649
 20
9.9914181934
 30
0.0
 10
12.0481572186
 20
9.9996990273
 30
0.0
 10
12.053893853
 20
10.0076858619
 30
0.0
 10
12.0600263743
 20
10.0153603544
 30
0.0
 10
12.0665403677
 20
10.0227045926
 30
0.0
 10
12.0711282605
 20
10.0273700852
 30
0.0
 10
12.0734798092
 20
10.029641493
 30
0.0
  0
SPLINE
  5
38F
100
AcDbEntity
  8
0
100
AcDbSpline
 62
7
  6
CONTINUOUS
 70
0
 71
3
 72
33
 73
29
 74
0
 42
0.0000001
 43
0.0000001
 44
0.0000000001
 40
0.0
 40
0.0
 40
0.0
 40
0.0
 40
0.0179736365
 40
0.0371618607
 40
0.057562215
 40
0.079163968
 40
0.1019494349
 40
0.1258949799
 40
0.1509717643
 40
0.1771463862
 40
0.2043814126
 40
0.2326357938
 40
0.2618651965
 40
0.2920222905
 40
0.3230570525
 40
0.3549170079
 40
0.3875474436
 40
0.4208915874
 40
0.4548908218
 40
0.4894848789
 40
0.5246120124
 40
0.5602091562
 40
0.6325543268
 40
0.7059973231
 40
0.7800032238
 40
0.8540317748
 40
0.9275423123
 40
1.0
 40
1.0
 40
1.0
 40
1.0
 10
11.0393485143
 20
10.5787259599
 30
0.0
 10
11.0426712068
 20
10.5806695805
 30
0.0
 10
11.0496497079
 20
10.5845043369
 30
0.0
 10
11.0607148596
 20
10.5899474999
 30
0.0
 10
11.072698632
 20
10.5952593899
 30
0.0
 10
11.0855777433
 20
10.6004295315
 30
0.0
 10
11.0993275903
 20
10.6054479345
 30
0.0
 10
11.1139216083
 20
10.6103047517
 30
0.0
 10
11.1293315368
 20
10.6149904594
 30
0.0
 10
11.1455274381
 20
10.6194958475
 30
0.0
 10
11.1624777984
 20
10.6238120472
 30
0.0
 10
11.1801495938
 20
10.6279305534
 30
0.0
 10
11.1985083548
 20
10.6318432486
 30
0.0
 10
11.2175182369
 20
10.6355424343
 30
0.0
 10
11.2371421044
 20
10.639020826
 30
0.0
 10
11.2573416115
 20
10.6422715733
 30
0.0
 10
11.2780772743
 20
10.6452882689
 30
0.0
 10
11.2993085436
 20
10.6480649793
 30
0.0
 10
11.320993894
 20
10.6505962468
 30
0.0
 10
11.3430908975
 20
10.6528770833
 30
0.0
 10
11.3655563629
 20
10.6549030271
 30
0.0
 10
11.396106483
 20
10.65727165
 30
0.0
 10
11.4348903842
 20
10.6595598107
 30
0.0
 10
11.4819382452
 20
10.6612257036
 30
0.0
 10
11.5293725347
 20
10.6618127633
 30
0.0
 10
11.5768223582
 20
10.6613163903
 30
0.0
 10
11.6239166393
 20
10.6597405125
 30
0.0
 10
11.6551315008
 20
10.6579614814
 30
0.0
 10
11.6706125598
 20
10.6568878663
 30
0.0
  0
SPLINE
  5
390
100
AcDbEntity
  8
0
100
AcDbSpline
 62
7
  6
CONTINUOUS
 70
0
 71
3
 72
54
 73
50
 74
0
 42
0.0000001
 43
0.0000001
 44
0.0000000001
 40
0.0
 40
0.0
 40
0.0
 40
0.0
 40
0.0058141585
 40
0.0115305564
 40
0.0172179358
 40
0.0229461915
 40
0.0287836131
 40
0.0347943895
 40
0.0410367914
 40
0.047562114
 40
0.0544143636
 40
0.0616305148
 40
0.0692410159
 40
0.0772705919
 40
0.0857388631
 40
0.0946611994
 40
0.1040491624
 40
0.1139112431
 40
0.1242531025
 40
0.1350781623
 40
0.146387712
 40
0.1581813555
 40
0.1704570603
 40
0.1832114692
 40
0.1964399473
 40
0.2101367693
 40
0.2242951995
 40
0.2389075659
 40
0.253965389
 40
0.2694593607
 40
0.2853795192
 40
0.3017151573
 40
0.3355865076
 40
0.3709771231
 40
0.4077816886
 40
0.4458876589
 40
0.4851761161
 40
0.5255225495
 40
0.5667975804
 40
0.6088676503
 40
0.6515956836
 40
0.6948417327
 40
0.7384636128
 40
0.7823175242
 40
0.8262586879
 40
0.8701419156
 40
0.913822384
 40
0.9571558148
 40
1.0
 40
1.0
 40
1.0
 40
1.0
 10
10.9578460375
 20
10.6449949489
 30
0.0
 10
10.9574416782
 20
10.6464488424
 30
0.0
 10
10.9567923161
 20
10.6493776209
 30
0.0
 10
10.9563208914
 20
10.6538310203
 30
0.0
 10
10.9563647781
 20
10.6582874615
 30
0.0
 10
10.9569239052
 20
10.6627402086
 30
0.0
 10
10.9579968385
 20
10.6671836385
 30
0.0
 10
10.9595810269
 20
10.6716126157
 30
0.0
 10
10.9616734145
 20
10.676022833
 30
0.0
 10
10.9642706845
 20
10.6804106118
 30
0.0
 10
10.9673694462
 20
10.6847726912
 30
0.0
 10
10.9709663195
 20
10.6891059266
 30
0.0
 10
10.9750577275
 20
10.6934072688
 30
0.0
 10
10.9796399912
 20
10.6976734897
 30
0.0
 10
10.9847090284
 20
10.701901413
 30
0.0
 10
10.9902605235
 20
10.706087614
 30
0.0
 10
10.9962896581
 20
10.7102287816
 30
0.0
 10
11.002791305
 20
10.7143213771
 30
0.0
 10
11.0097598226
 20
10.7183620252
 30
0.0
 10
11.0171892205
 20
10.7223471744
 30
0.0
 10
11.0250730226
 20
10.7262734462
 30
0.0
 10
11.0334043826
 20
10.7301373515
 30
0.0
 10
11.0421760074
 20
10.7339355506
 30
0.0
 10
11.0513802245
 20
10.737664664
 30
0.0
 10
11.0610089516
 20
10.7413214211
 30
0.0
 10
11.0710537269
 20
10.7449025806
 30
0.0
 10
11.0815057105
 20
10.7484049649
 30
0.0
 10
11.0923556905
 20
10.7518254877
 30
0.0
 10
11.1035941036
 20
10.755161087
 30
0.0
 10
11.1152110249
 20
10.758408835
 30
0.0
 10
11.1271962151
 20
10.7615658312
 30
0.0
 10
11.1438547314
 20
10.7657003291
 30
0.0
 10
11.165525825
 20
10.7706077844
 30
0.0
 10
11.1925200872
 20
10.7760239237
 30
0.0
 10
11.2207126302
 20
10.7810165547
 30
0.0
 10
11.2500037807
 20
10.7855678516
 30
0.0
 10
11.280290136
 20
10.7896615302
 30
0.0
 10
11.3114646523
 20
10.793282963
 30
0.0
 10
11.3434171204
 20
10.7964192127
 30
0.0
 10
11.3760345423
 20
10.7990590811
 30
0.0
 10
11.4092015453
 20
10.8011931454
 30
0.0
 10
11.4428007944
 20
10.8028137905
 30
0.0
 10
11.4767134123
 20
10.8039152344
 30
0.0
 10
11.510819406
 20
10.8044935491
 30
0.0
 10
11.5449980883
 20
10.8045466695
 30
0.0
 10
11.5791285256
 20
10.8040744115
 30
0.0
 10
11.6130899356
 20
10.8030784486
 30
0.0
 10
11.6467620842
 20
10.8015623536
 30
0.0
 10
11.6690892497
 20
10.8001992256
 30
0.0
 10
11.6801829007
 20
10.7994298783
 30
0.0
  0
SPLINE
  5
391
100
AcDbEntity
  8
0
100
AcDbSpline
 62
7
  6
CONTINUOUS
 70
0
 71
3
 72
52
 73
48
 74
0
 42
0.0000001
 43
0.0000001
 44
0.0000000001
 40
0.0
 40
0.0
 40
0.0
 40
0.0
 40
0.005722714
 40
0.0116521284
 40
0.0178289126
 40
0.0242883453
 40
0.0310605282
 40
0.0381706977
 40
0.0456397473
 40
0.0534846902
 40
0.0617191767
 40
0.0703539198
 40
0.0793970935
 40
0.088854679
 40
0.0987307293
 40
0.1090276509
 40
0.1197463531
 40
0.1308864885
 40
0.142446514
 40
0.1544239072
 40
0.1668151613
 40
0.1796159909
 40
0.1928212772
 40
0.2064252701
 40
0.2204214975
 40
0.2348029654
 40
0.2495620441
 40
0.264690665
 40
0.2960210065
 40
0.3287206126
 40
0.3627089401
 40
0.3978997004
 40
0.4342014853
 40
0.4715183314
 40
0.5097502377
 40
0.5487936534
 40
0.5885419414
 40
0.6288858274
 40
0.669713837
 40
0.710912725
 40
0.7523679009
 40
0.7939638467
 40
0.8355845441
 40
0.8771138665
 40
0.9184360725
 40
0.9594360232
 40
1.0
 40
1.0
 40
1.0
 40
1.0
 10
10.7993601579
 20
10.671345354
 30
0.0
 10
10.7999203148
 20
10.6730986993
 30
0.0
 10
10.8012368223
 20
10.6766146292
 30
0.0
 10
10.803728668
 20
10.6817870089
 30
0.0
 10
10.8067651641
 20
10.6869363704
 30
0.0
 10
10.8103428729
 20
10.6920587149
 30
0.0
 10
10.8144586339
 20
10.6971509967
 30
0.0
 10
10.8191089848
 20
10.7022100114
 30
0.0
 10
10.824290343
 20
10.7072325305
 30
0.0
 10
10.8299988103
 20
10.7122152864
 30
0.0
 10
10.8362302003
 20
10.7171549241
 30
0.0
 10
10.8429799663
 20
10.722048047
 30
0.0
 10
10.8502431912
 20
10.7268912257
 30
0.0
 10
10.8580145862
 20
10.7316809907
 30
0.0
 10
10.8662884608
 20
10.7364139027
 30
0.0
 10
10.8750587585
 20
10.7410864812
 30
0.0
 10
10.8843190169
 20
10.7456953278
 30
0.0
 10
10.8940624194
 20
10.7502369977
 30
0.0
 10
10.904281751
 20
10.7547081681
 30
0.0
 10
10.9149694556
 20
10.7591054631
 30
0.0
 10
10.9261175928
 20
10.7634256587
 30
0.0
 10
10.9377178925
 20
10.7676654715
 30
0.0
 10
10.9497617179
 20
10.7718217926
 30
0.0
 10
10.9622401137
 20
10.7758914492
 30
0.0
 10
10.9751437778
 20
10.7798714607
 30
0.0
 10
10.9884630958
 20
10.7837587738
 30
0.0
 10
11.002188145
 20
10.78755057
 30
0.0
 10
11.021237975
 20
10.7925331228
 30
0.0
 10
11.0459954736
 20
10.7984874642
 30
0.0
 10
11.0768174965
 20
10.8051276707
 30
0.0
 10
11.1089971449
 20
10.8113234916
 30
0.0
 10
11.1424383349
 20
10.8170562548
 30
0.0
 10
11.1770413826
 20
10.8223086631
 30
0.0
 10
11.2127030113
 20
10.8270648825
 30
0.0
 10
11.2493167595
 20
10.8313105783
 30
0.0
 10
11.2867732839
 20
10.83503296
 30
0.0
 10
11.3249606997
 20
10.838220817
 30
0.0
 10
11.3637649192
 20
10.8408645516
 30
0.0
 10
11.4030699971
 20
10.8429562057
 30
0.0
 10
11.4427584808
 20
10.8444894846
 30
0.0
 10
11.4827117641
 20
10.8454597743
 30
0.0
 10
11.5228104452
 20
10.8458641561
 30
0.0
 10
11.5629346831
 20
10.8457014118
 30
0.0
 10
11.6029645631
 20
10.8449720342
 30
0.0
 10
11.6427804607
 20
10.8436782114
 30
0.0
 10
11.6822632964
 20
10.8418238499
 30
0.0
 10
11.7084487893
 20
10.8402074906
 30
0.0
 10
11.7214645044
 20
10.8393048477
 30
0.0
  0
SPLINE
  5
392
100
AcDbEntity
  8
0
100
AcDbSpline
 62
7
  6
CONTINUOUS
 70
0
 71
3
 72
21
 73
17
 74
0
 42
0.0000001
 43
0.0000001
 44
0.0000000001
 40
0.0
 40
0.0
 40
0.0
 40
0.0
 40
0.1273176984
 40
0.2537999461
 40
0.3167619614
 40
0.3795355204
 40
0.4421314992
 40
0.5045621453
 40
0.5668413456
 40
0.6289845231
 40
0.6910084433
 40
0.7529310869
 40
0.8147714401
 40
0.8765493236
 40
0.9382852134
 40
1.0
 40
1.0
 40
1.0
 40
1.0
 10
10.3546299792
 20
8.3424175413
 30
0.0
 10
10.3546299792
 20
8.3491623494
 30
0.0
 10
10.3552738162
 20
8.3626163888
 30
0.0
 10
10.3577054075
 20
8.3792484859
 30
0.0
 10
10.3606116745
 20
8.3922949095
 30
0.0
 10
10.3632620385
 20
8.401917958
 30
0.0
 10
10.3663800331
 20
8.4113700097
 30
0.0
 10
10.3699584699
 20
8.4206295442
 30
0.0
 10
10.3739890986
 20
8.4296751457
 30
0.0
 10
10.3784627064
 20
8.4384859372
 30
0.0
 10
10.3833689446
 20
8.4470416087
 30
0.0
 10
10.3886964982
 20
8.4553224427
 30
0.0
 10
10.3944331326
 20
8.4633092772
 30
0.0
 10
10.4005656539
 20
8.4709837697
 30
0.0
 10
10.4070796473
 20
8.478328008
 30
0.0
 10
10.4116675401
 20
8.4829935006
 30
0.0
 10
10.4140190888
 20
8.4852649084
 30
0.0
  0
SPLINE
  5
393
100
AcDbEntity
  8
0
100
AcDbSpline
 62
7
  6
CONTINUOUS
 70
0
 71
3
 72
55
 73
51
 74
0
 42
0.0000001
 43
0.0000001
 44
0.0000000001
 40
0.0
 40
0.0
 40
0.0
 40
0.0
 40
0.0055575255
 40
0.0111779358
 40
0.0169218605
 40
0.0228457326
 40
0.0290004969
 40
0.0354308887
 40
0.0387623077
 40
0.0421765047
 40
0.0492673467
 40
0.0567313798
 40
0.0645904837
 40
0.0728621462
 40
0.0815601811
 40
0.0906950985
 40
0.1002747054
 40
0.1103043528
 40
0.1207873647
 40
0.1317252355
 40
0.1431178796
 40
0.1549638367
 40
0.1672603628
 40
0.1800036634
 40
0.1931888688
 40
0.20681028
 40
0.2208612901
 40
0.2353346
 40
0.2502221528
 40
0.265515278
 40
0.2812046823
 40
0.2972805039
 40
0.3137323754
 40
0.3477196507
 40
0.3830747046
 40
0.4196984526
 40
0.4574859565
 40
0.4963271029
 40
0.5361072297
 40
0.5767077162
 40
0.6180065483
 40
0.6598788667
 40
0.7021975035
 40
0.7448335109
 40
0.7876566804
 40
0.8305360739
 40
0.8733404964
 40
0.9159391694
 40
0.9582017755
 40
1.0
 40
1.0
 40
1.0
 40
1.0
 10
10.7968620726
 20
10.6865896174
 30
0.0
 10
10.7968620726
 20
10.6884066274
 30
0.0
 10
10.7970655419
 20
10.6920643673
 30
0.0
 10
10.797978547
 20
10.697531469
 30
0.0
 10
10.799498005
 20
10.7029863514
 30
0.0
 10
10.8016208554
 20
10.7084227638
 30
0.0
 10
10.8043435991
 20
10.7138360991
 30
0.0
 10
10.8070768164
 20
10.7182717556
 30
0.0
 10
10.8095468146
 20
10.7218021404
 30
0.0
 10
10.8122776439
 20
10.7254098765
 30
0.0
 10
10.8160745737
 20
10.7298994624
 30
0.0
 10
10.8211592929
 20
10.7351825987
 30
0.0
 10
10.8268245602
 20
10.7404242278
 30
0.0
 10
10.833065519
 20
10.7456204671
 30
0.0
 10
10.8398772898
 20
10.7507674546
 30
0.0
 10
10.847254379
 20
10.75586136
 30
0.0
 10
10.8551909545
 20
10.7608981748
 30
0.0
 10
10.8636806461
 20
10.7658739976
 30
0.0
 10
10.8727166653
 20
10.7707848346
 30
0.0
 10
10.8822917365
 20
10.7756267584
 30
0.0
 10
10.8923981308
 20
10.7803958656
 30
0.0
 10
10.9030276775
 20
10.7850882543
 30
0.0
 10
10.9141717434
 20
10.7897001478
 30
0.0
 10
10.9258212856
 20
10.7942277185
 30
0.0
 10
10.9379668088
 20
10.7986673268
 30
0.0
 10
10.9505984266
 20
10.8030152666
 30
0.0
 10
10.9637058241
 20
10.8072680326
 30
0.0
 10
10.9772783062
 20
10.8114220818
 30
0.0
 10
10.9913047785
 20
10.8154740391
 30
0.0
 10
11.0057737773
 20
10.8194205558
 30
0.0
 10
11.0206734638
 20
10.823258386
 30
0.0
 10
11.035991663
 20
10.8269844142
 30
0.0
 10
11.0571872226
 20
10.8318519629
 30
0.0
 10
11.084640639
 20
10.8376206384
 30
0.0
 10
11.118700189
 20
10.8439780457
 30
0.0
 10
11.1541113063
 20
10.8498221681
 30
0.0
 10
11.1907580157
 20
10.855133693
 30
0.0
 10
11.228520459
 20
10.8598950422
 30
0.0
 10
11.267275009
 20
10.8640904748
 30
0.0
 10
11.3068947693
 20
10.8677061233
 30
0.0
 10
11.3472499744
 20
10.8707300424
 30
0.0
 10
11.3882084295
 20
10.8731522449
 30
0.0
 10
11.4296359469
 20
10.8749647328
 30
0.0
 10
11.4713967907
 20
10.8761615219
 30
0.0
 10
11.513354127
 20
10.8767386628
 30
0.0
 10
11.5553704677
 20
10.8766942477
 30
0.0
 10
11.5973081488
 20
10.8760284295
 30
0.0
 10
11.6390297255
 20
10.8747433927
 30
0.0
 10
11.6803984352
 20
10.8728434046
 30
0.0
 10
11.7078314921
 20
10.8711599294
 30
0.0
 10
11.7214645044
 20
10.8702144767
 30
0.0
  0
SPLINE
  5
394
100
AcDbEntity
  8
0
100
AcDbSpline
 62
7
  6
CONTINUOUS
 70
0
 71
3
 72
28
 73
24
 74
0
 42
0.0000001
 43
0.0000001
 44
0.0000000001
 40
0.0
 40
0.0
 40
0.0
 40
0.0
 40
0.0226173892
 40
0.0461264092
 40
0.0705042894
 40
0.0957260252
 40
0.1217645659
 40
0.1485911216
 40
0.1761751116
 40
0.2044844285
 40
0.2334855585
 40
0.2631435596
 40
0.3242835002
 40
0.3876031695
 40
0.4527847389
 40
0.5194974774
 40
0.5874002326
 40
0.6561438991
 40
0.7253738091
 40
0.7947320829
 40
0.8638601302
 40
0.9324001308
 40
1.0
 40
1.0
 40
1.0
 40
1.0
 10
12.8169417393
 20
8.1246760988
 30
0.0
 10
12.8184286116
 20
8.1283420429
 30
0.0
 10
12.8213744605
 20
8.1358537821
 30
0.0
 10
12.8256355246
 20
8.1474269368
 30
0.0
 10
12.8298197811
 20
8.1595111964
 30
0.0
 10
12.8339214118
 20
8.1720898772
 30
0.0
 10
12.8379347752
 20
8.1851457031
 30
0.0
 10
12.8418542776
 20
8.1986607115
 30
0.0
 10
12.8456745212
 20
8.2126162963
 30
0.0
 10
12.849390214
 20
8.2269932333
 30
0.0
 10
12.8529962167
 20
8.2417717379
 30
0.0
 10
12.8576989125
 20
8.2621917242
 30
0.0
 10
12.8632544875
 20
8.2885725936
 30
0.0
 10
12.8693434851
 20
8.3211816739
 30
0.0
 10
12.8748865169
 20
8.3548761199
 30
0.0
 10
12.8798528157
 20
8.3894702234
 30
0.0
 10
12.8842148175
 20
8.4247734642
 30
0.0
 10
12.8879483509
 20
8.4605912994
 30
0.0
 10
12.8910327463
 20
8.496726339
 30
0.0
 10
12.8934509588
 20
8.532979425
 30
0.0
 10
12.8951896583
 20
8.5691506984
 30
0.0
 10
12.8962393505
 20
8.6050407306
 30
0.0
 10
12.8964780547
 20
8.6288535133
 30
0.0
 10
12.8964780547
 20
8.6406773834
 30
0.0
  0
SPLINE
  5
395
100
AcDbEntity
  8
0
100
AcDbSpline
 62
7
  6
CONTINUOUS
 70
0
 71
3
 72
33
 73
29
 74
0
 42
0.0000001
 43
0.0000001
 44
0.0000000001
 40
0.0
 40
0.0
 40
0.0
 40
0.0
 40
0.0183285557
 40
0.0378653201
 40
0.0586024281
 40
0.0805248108
 40
0.103611322
 40
0.1278355814
 40
0.1531666195
 40
0.1795693605
 40
0.2070050794
 40
0.235431781
 40
0.2648045007
 40
0.2950755405
 40
0.3261947108
 40
0.3581095766
 40
0.3907656524
 40
0.4241065722
 40
0.4580742543
 40
0.4926091011
 40
0.5276501621
 40
0.5631352864
 40
0.6351828357
 40
0.7082376549
 40
0.7817751268
 40
0.855266195
 40
0.9281820185
 40
1.0
 40
1.0
 40
1.0
 40
1.0
 10
12.8394032652
 20
8.0251985708
 30
0.0
 10
12.8414766488
 20
8.0285180421
 30
0.0
 10
12.8455939091
 20
8.035480508
 30
0.0
 10
12.8515161163
 20
8.0465073794
 30
0.0
 10
12.8573711516
 20
8.0584311972
 30
0.0
 10
12.863147693
 20
8.0712292213
 30
0.0
 10
12.8688347472
 20
8.0848773845
 30
0.0
 10
12.874421375
 20
8.0993497812
 30
0.0
 10
12.8798968211
 20
8.1146188982
 30
0.0
 10
12.8852505414
 20
8.1306556191
 30
0.0
 10
12.8904722199
 20
8.1474293147
 30
0.0
 10
12.8955517886
 20
8.1649079166
 30
0.0
 10
12.9004794468
 20
8.1830579832
 30
0.0
 10
12.9052456949
 20
8.2018447579
 30
0.0
 10
12.9098413534
 20
8.2212322408
 30
0.0
 10
12.9142575663
 20
8.2411832716
 30
0.0
 10
12.918485822
 20
8.2616596032
 30
0.0
 10
12.9225179709
 20
8.2826219691
 30
0.0
 10
12.9263462587
 20
8.3040301599
 30
0.0
 10
12.9299633091
 20
8.3258430971
 30
0.0
 10
12.9333621878
 20
8.3480189641
 30
0.0
 10
12.937615658
 20
8.3781655218
 30
0.0
 10
12.9423336037
 20
8.4164413707
 30
0.0
 10
12.9470052643
 20
8.4628981521
 30
0.0
 10
12.9506790408
 20
8.5097537242
 30
0.0
 10
12.9533267819
 20
8.5566487723
 30
0.0
 10
12.954928233
 20
8.6032236376
 30
0.0
 10
12.9552939841
 20
8.6341305119
 30
0.0
 10
12.9552939841
 20
8.6494662006
 30
0.0
  0
SPLINE
  5
396
100
AcDbEntity
  8
0
100
AcDbSpline
 62
7
  6
CONTINUOUS
 70
0
 71
3
 72
39
 73
35
 74
0
 42
0.0000001
 43
0.0000001
 44
0.0000000001
 40
0.0
 40
0.0
 40
0.0
 40
0.0
 40
0.0311445425
 40
0.0624433652
 40
0.093888256
 40
0.1254710218
 40
0.1571788766
 40
0.1889972611
 40
0.2209091725
 40
0.2528958428
 40
0.2849370253
 40
0.3170114183
 40
0.349097079
 40
0.3811718482
 40
0.4132137779
 40
0.4452015551
 40
0.4771149166
 40
0.5089350506
 40
0.5406449764
 40
0.5722298984
 40
0.6036775288
 40
0.634978368
 40
0.6661259371
 40
0.6971169555
 40
0.7279514574
 40
0.758632841
 40
0.7891678449
 40
0.819566448
 40
0.8498416915
 40
0.8800094239
 40
0.9100879689
 40
0.9400977235
 40
0.9700606966
 40
1.0
 40
1.0
 40
1.0
 40
1.0
 10
9.9386025931
 20
9.0841405901
 30
0.0
 10
9.9359490959
 20
9.0843246108
 30
0.0
 10
9.930640455
 20
9.0848878117
 30
0.0
 10
9.9227418801
 20
9.0863064352
 30
0.0
 10
9.9149278749
 20
9.0882936131
 30
0.0
 10
9.9072407188
 20
9.0908384859
 30
0.0
 10
9.8997211868
 20
9.0939275337
 30
0.0
 10
9.8924094106
 20
9.0975441703
 30
0.0
 10
9.885344337
 20
9.1016690968
 30
0.0
 10
9.8785636136
 20
9.1062802806
 30
0.0
 10
9.872103371
 20
9.1113531224
 30
0.0
 10
9.8659980331
 20
9.1168605658
 30
0.0
 10
9.8602801335
 20
9.122773245
 30
0.0
 10
9.8549801473
 20
9.1290596433
 30
0.0
 10
9.8501263306
 20
9.1356862593
 30
0.0
 10
9.8457445708
 20
9.1426177832
 30
0.0
 10
9.8418582506
 20
9.1498172827
 30
0.0
 10
9.8384881239
 20
9.1572463969
 30
0.0
 10
9.8356522058
 20
9.1648655381
 30
0.0
 10
9.8333656769
 20
9.1726341
 30
0.0
 10
9.8316407949
 20
9.1805106691
 30
0.0
 10
9.8304868315
 20
9.1884532453
 30
0.0
 10
9.8299100238
 20
9.1964194635
 30
0.0
 10
9.8299135382
 20
9.2043668158
 30
0.0
 10
9.8304974495
 20
9.2122528761
 30
0.0
 10
9.8316587369
 20
9.2200355241
 30
0.0
 10
9.8333912945
 20
9.227673169
 30
0.0
 10
9.8356859597
 20
9.2351249726
 30
0.0
 10
9.8385305517
 20
9.2423510653
 30
0.0
 10
9.8419099394
 20
9.24931278
 30
0.0
 10
9.845806075
 20
9.2559728092
 30
0.0
 10
9.8501982759
 20
9.2622956004
 30
0.0
 10
9.8550626316
 20
9.2682468458
 30
0.0
 10
9.8586045085
 20
9.271946969
 30
0.0
 10
9.8604436058
 20
9.2737233851
 30
0.0
  0
SPLINE
  5
397
100
AcDbEntity
  8
0
100
AcDbSpline
 62
7
  6
CONTINUOUS
 70
0
 71
3
 72
54
 73
50
 74
0
 42
0.0000001
 43
0.0000001
 44
0.0000000001
 40
0.0
 40
0.0
 40
0.0
 40
0.0
 40
0.0056188246
 40
0.0111420516
 40
0.0166418694
 40
0.0221914681
 40
0.0278619479
 40
0.0337195739
 40
0.0398239211
 40
0.0462268279
 40
0.0529722976
 40
0.0600968419
 40
0.0676302291
 40
0.0755963126
 40
0.0840138248
 40
0.0928972021
 40
0.1022571318
 40
0.1121012514
 40
0.1224344331
 40
0.1332593625
 40
0.144576634
 40
0.156385226
 40
0.1686824944
 40
0.1814645454
 40
0.1947262024
 40
0.2084612713
 40
0.2226625306
 40
0.2373218891
 40
0.2524304271
 40
0.267978452
 40
0.2839555994
 40
0.3003508017
 40
0.3343475959
 40
0.3698697203
 40
0.4068092226
 40
0.4450510283
 40
0.4844737811
 40
0.5249506107
 40
0.5663498503
 40
0.6085357213
 40
0.6513689944
 40
0.6947076352
 40
0.7384074413
 40
0.7823226671
 40
0.826306664
 40
0.8702124533
 40
0.9138935095
 40
0.9572039299
 40
1.0
 40
1.0
 40
1.0
 40
1.0
 10
12.8997345669
 20
7.9341565021
 30
0.0
 10
12.901112675
 20
7.9336692716
 30
0.0
 10
12.9039016826
 20
7.9328530367
 30
0.0
 10
12.9081800782
 20
7.9321299511
 30
0.0
 10
12.9124969372
 20
7.9319247064
 30
0.0
 10
12.9168453143
 20
7.9322374901
 30
0.0
 10
12.9212194213
 20
7.9330670287
 30
0.0
 10
12.9256140556
 20
7.9344107242
 30
0.0
 10
12.9300248866
 20
7.9362656331
 30
0.0
 10
12.9344483069
 20
7.9386284475
 30
0.0
 10
12.9388810315
 20
7.9414959929
 30
0.0
 10
12.9433199399
 20
7.9448650046
 30
0.0
 10
12.9477618556
 20
7.9487321553
 30
0.0
 10
12.9522034725
 20
7.9530939163
 30
0.0
 10
12.9566413984
 20
7.9579464265
 30
0.0
 10
12.9610720379
 20
7.9632855221
 30
0.0
 10
12.9654918061
 20
7.9691065657
 30
0.0
 10
12.96989691
 20
7.9754045773
 30
0.0
 10
12.9742836581
 20
7.9821740628
 30
0.0
 10
12.9786481659
 20
7.9894091725
 30
0.0
 10
12.9829866994
 20
7.9971035532
 30
0.0
 10
12.9872953632
 20
8.005250489
 30
0.0
 10
12.9915704191
 20
8.0138427924
 30
0.0
 10
12.9958080155
 20
8.0228729075
 30
0.0
 10
13.0000044348
 20
8.0323328443
 30
0.0
 10
13.0041559053
 20
8.0422142418
 30
0.0
 10
13.00825875
 20
8.0525083405
 30
0.0
 10
13.0123092997
 20
8.0632060126
 30
0.0
 10
13.0163039385
 20
8.0742977638
 30
0.0
 10
13.0202391087
 20
8.0857737368
 30
0.0
 10
13.0241113001
 20
8.0976237472
 30
0.0
 10
13.029247744
 20
8.1141080148
 30
0.0
 10
13.035472834
 20
8.135576311
 30
0.0
 10
13.0425513268
 20
8.1623533207
 30
0.0
 10
13.0493001139
 20
8.1903524384
 30
0.0
 10
13.0556950025
 20
8.2194740346
 30
0.0
 10
13.0617130505
 20
8.2496146295
 30
0.0
 10
13.0673326896
 20
8.2806669993
 30
0.0
 10
13.0725337893
 20
8.3125206497
 30
0.0
 10
13.0772977302
 20
8.3450621976
 30
0.0
 10
13.0816074677
 20
8.3781757881
 30
0.0
 10
13.0854475919
 20
8.4117435112
 30
0.0
 10
13.088804381
 20
8.4456458267
 30
0.0
 10
13.0916658512
 20
8.4797619953
 30
0.0
 10
13.0940217942
 20
8.5139705056
 30
0.0
 10
13.0958638251
 20
8.5481495284
 30
0.0
 10
13.0971853871
 20
8.5821773159
 30
0.0
 10
13.0979818198
 20
8.6159326185
 30
0.0
 10
13.098162097
 20
8.6383330722
 30
0.0
 10
13.098162097
 20
8.6494662088
 30
0.0
  0
SPLINE
  5
398
100
AcDbEntity
  8
0
100
AcDbSpline
 62
7
  6
CONTINUOUS
 70
0
 71
3
 72
52
 73
48
 74
0
 42
0.0000001
 43
0.0000001
 44
0.0000000001
 40
0.0
 40
0.0
 40
0.0
 40
0.0
 40
0.0055748073
 40
0.0113694722
 40
0.0174250155
 40
0.023776624
 40
0.0304540325
 40
0.0374818777
 40
0.0448803758
 40
0.0526657687
 40
0.0608509678
 40
0.0694459175
 40
0.078458101
 40
0.0878928006
 40
0.0977534602
 40
0.1080418719
 40
0.1187584176
 40
0.1299022143
 40
0.1414712609
 40
0.1534625666
 40
0.1658722224
 40
0.178695529
 40
0.1919270088
 40
0.2055605413
 40
0.2195893288
 40
0.2340060421
 40
0.2488027509
 40
0.2639710793
 40
0.2953859815
 40
0.3281751231
 40
0.3622558811
 40
0.3975399844
 40
0.4339341249
 40
0.4713405092
 40
0.5096573689
 40
0.5487794427
 40
0.5885984369
 40
0.6290034731
 40
0.6698815244
 40
0.7111178461
 40
0.7525964017
 40
0.7942002831
 40
0.8358121404
 40
0.8773145737
 40
0.9185906371
 40
0.9595240384
 40
1.0
 40
1.0
 40
1.0
 40
1.0
 10
12.9143987245
 20
7.7745798627
 30
0.0
 10
12.9161362719
 20
7.7750456149
 30
0.0
 10
12.9196339919
 20
7.7761745504
 30
0.0
 10
12.9248093846
 20
7.7783899369
 30
0.0
 10
12.9299995544
 20
7.7811532049
 30
0.0
 10
12.9352005122
 20
7.7844610345
 30
0.0
 10
12.9404091567
 20
7.7883104911
 30
0.0
 10
12.9456222482
 20
7.7926982528
 30
0.0
 10
12.9508363963
 20
7.7976209756
 30
0.0
 10
12.9560482237
 20
7.803074903
 30
0.0
 10
12.9612541337
 20
7.8090560644
 30
0.0
 10
12.9664505553
 20
7.8155600455
 30
0.0
 10
12.9716337552
 20
7.8225821179
 30
0.0
 10
12.9768000315
 20
7.8301171159
 30
0.0
 10
12.981945588
 20
7.8381595137
 30
0.0
 10
12.9870666551
 20
7.8467033701
 30
0.0
 10
12.9921594288
 20
7.8557423665
 30
0.0
 10
12.997220119
 20
7.8652697942
 30
0.0
 10
13.0022449506
 20
7.8752785638
 30
0.0
 10
13.0072301463
 20
7.8857612188
 30
0.0
 10
13.0121719844
 20
7.8967099273
 30
0.0
 10
13.0170667252
 20
7.9081165103
 30
0.0
 10
13.0219107182
 20
7.9199724236
 30
0.0
 10
13.0267002798
 20
7.932268793
 30
0.0
 10
13.0314318458
 20
7.9449963935
 30
0.0
 10
13.0361017991
 20
7.9581456821
 30
0.0
 10
13.0407066973
 20
7.971706796
 30
0.0
 10
13.0468266213
 20
7.9905442611
 30
0.0
 10
13.0542748896
 20
8.0150521897
 30
0.0
 10
13.0627984288
 20
8.0456025924
 30
0.0
 10
13.0709829146
 20
8.0775359607
 30
0.0
 10
13.0788035796
 20
8.1107563427
 30
0.0
 10
13.0862367498
 20
8.1451640744
 30
0.0
 10
13.0932599397
 20
8.1806558057
 30
0.0
 10
13.0998519128
 20
8.2171249045
 30
0.0
 10
13.1059927464
 20
8.2544617637
 30
0.0
 10
13.1116638895
 20
8.292554144
 30
0.0
 10
13.1168482181
 20
8.3312875149
 30
0.0
 10
13.1215300855
 20
8.370545404
 30
0.0
 10
13.1256953689
 20
8.4102097509
 30
0.0
 10
13.1293315105
 20
8.4501612645
 30
0.0
 10
13.1324275569
 20
8.4902797855
 30
0.0
 10
13.1349741877
 20
8.530444647
 30
0.0
 10
13.1369637518
 20
8.5705350463
 30
0.0
 10
13.1383902753
 20
8.6104304076
 30
0.0
 10
13.1392495041
 20
8.6500106586
 30
0.0
 10
13.1394437006
 20
8.6762803324
 30
0.0
 10
13.1394437006
 20
8.6893411783
 30
0.0
  0
SPLINE
  5
399
100
AcDbEntity
  8
0
100
AcDbSpline
 62
7
  6
CONTINUOUS
 70
0
 71
3
 72
21
 73
17
 74
0
 42
0.0000001
 43
0.0000001
 44
0.0000000001
 40
0.0
 40
0.0
 40
0.0
 40
0.0
 40
0.0493193299
 40
0.1007506336
 40
0.154234116
 40
0.2097040244
 40
0.2670889635
 40
0.3263124786
 40
0.3872936288
 40
0.4499471643
 40
0.5141839065
 40
0.579911174
 40
0.6470329461
 40
0.7154504356
 40
0.8557591054
 40
1.0
 40
1.0
 40
1.0
 40
1.0
 10
12.8707825338
 20
8.9014806401
 30
0.0
 10
12.8718384411
 20
8.8972935325
 30
0.0
 10
12.8738873528
 20
8.8887124566
 30
0.0
 10
12.8767250012
 20
8.8755088482
 30
0.0
 10
12.8793878494
 20
8.8617200305
 30
0.0
 10
12.8818714429
 20
8.8473686085
 30
0.0
 10
12.8841716881
 20
8.8324779926
 30
0.0
 10
12.8862847905
 20
8.8170725347
 30
0.0
 10
12.888207236
 20
8.8011774244
 30
0.0
 10
12.8899358426
 20
8.7848186696
 30
0.0
 10
12.8914677679
 20
8.7680230482
 30
0.0
 10
12.8928004566
 20
8.7508180664
 30
0.0
 10
12.893931725
 20
8.73323186
 30
0.0
 10
12.8951793687
 20
8.7091114689
 30
0.0
 10
12.8962113914
 20
8.6782213737
 30
0.0
 10
12.8964780547
 20
8.6533065156
 30
0.0
 10
12.8964780547
 20
8.6406773834
 30
0.0
  0
SPLINE
  5
39A
100
AcDbEntity
  8
0
100
AcDbSpline
 62
7
  6
CONTINUOUS
 70
0
 71
3
 72
27
 73
23
 74
0
 42
0.0000001
 43
0.0000001
 44
0.0000000001
 40
0.0
 40
0.0
 40
0.0
 40
0.0
 40
0.0201833248
 40
0.0411944541
 40
0.0630321207
 40
0.0856927821
 40
0.1091711292
 40
0.1334600614
 40
0.1585509729
 40
0.184433845
 40
0.2385273026
 40
0.2956378357
 40
0.3556443378
 40
0.4184112109
 40
0.483790052
 40
0.5516210549
 40
0.6217342502
 40
0.6939505152
 40
0.7680827709
 40
0.843936317
 40
0.9213111177
 40
1.0
 40
1.0
 40
1.0
 40
1.0
 10
12.9068036488
 20
8.9967671993
 30
0.0
 10
12.9077704826
 20
8.9946001542
 30
0.0
 10
12.9096785803
 20
8.9901478467
 30
0.0
 10
12.9124155699
 20
8.983260335
 30
0.0
 10
12.9150829645
 20
8.9760342901
 30
0.0
 10
12.9176788625
 20
8.9684749743
 30
0.0
 10
12.9202013651
 20
8.9605877783
 30
0.0
 10
12.922648661
 20
8.9523783809
 30
0.0
 10
12.9250189994
 20
8.9438526706
 30
0.0
 10
12.9281201616
 20
8.9318950494
 30
0.0
 10
12.9317775239
 20
8.9161953345
 30
0.0
 10
12.9357717695
 20
8.8964639939
 30
0.0
 10
12.9394216755
 20
8.8756302059
 30
0.0
 10
12.9427165424
 20
8.8537540732
 30
0.0
 10
12.9456466632
 20
8.8308985487
 30
0.0
 10
12.9482034187
 20
8.8071295602
 30
0.0
 10
12.9503792809
 20
8.7825157134
 30
0.0
 10
12.9521678489
 20
8.7571280871
 30
0.0
 10
12.953563843
 20
8.7310400698
 30
0.0
 10
12.9545631601
 20
8.7043269907
 30
0.0
 10
12.9551628193
 20
8.6770662225
 30
0.0
 10
12.9552939841
 20
8.6587176061
 30
0.0
 10
12.9552939841
 20
8.6494662006
 30
0.0
  0
SPLINE
  5
39B
100
AcDbEntity
  8
0
100
AcDbSpline
 62
7
  6
CONTINUOUS
 70
0
 71
3
 72
50
 73
46
 74
0
 42
0.0000001
 43
0.0000001
 44
0.0000000001
 40
0.0
 40
0.0
 40
0.0
 40
0.0
 40
0.006670426
 40
0.0132428558
 40
0.0197604389
 40
0.0262674972
 40
0.0328085955
 40
0.0394275349
 40
0.0461664844
 40
0.0530651785
 40
0.0601603817
 40
0.0674856043
 40
0.0750708334
 40
0.0829426969
 40
0.0911245181
 40
0.0996364836
 40
0.108496054
 40
0.1177180196
 40
0.1273149072
 40
0.1372972355
 40
0.1476735723
 40
0.1584509799
 40
0.1696350077
 40
0.1812298862
 40
0.193238807
 40
0.2056637902
 40
0.2317643651
 40
0.2595330063
 40
0.2889582287
 40
0.320019236
 40
0.3526872244
 40
0.3869264969
 40
0.4226953282
 40
0.4599466295
 40
0.498628448
 40
0.5386844578
 40
0.5800543964
 40
0.6226744033
 40
0.6664772894
 40
0.7113928366
 40
0.7573480367
 40
0.8042674556
 40
0.8520734042
 40
0.9006853467
 40
1.0
 40
1.0
 40
1.0
 40
1.0
 10
12.9791055921
 20
9.0786521905
 30
0.0
 10
12.9801356197
 20
9.0788624415
 30
0.0
 10
12.9821981429
 20
9.0791990457
 30
0.0
 10
12.9853062473
 20
9.079444457
 30
0.0
 10
12.9883985156
 20
9.0794255394
 30
0.0
 10
12.9914728384
 20
9.0791421435
 30
0.0
 10
12.9945274051
 20
9.0785944338
 30
0.0
 10
12.9975604232
 20
9.0777829729
 30
0.0
 10
13.0005701921
 20
9.0767083516
 30
0.0
 10
13.0035551749
 20
9.0753714764
 30
0.0
 10
13.0065139812
 20
9.0737733436
 30
0.0
 10
13.0094452626
 20
9.0719149308
 30
0.0
 10
13.0123478535
 20
9.0697974312
 30
0.0
 10
13.0152205527
 20
9.0674219554
 30
0.0
 10
13.0180622058
 20
9.0647897154
 30
0.0
 10
13.0208717268
 20
9.0619020325
 30
0.0
 10
13.0236479161
 20
9.0587602048
 30
0.0
 10
13.0263896799
 20
9.0553657154
 30
0.0
 10
13.02909587
 20
9.0517200951
 30
0.0
 10
13.0317652957
 20
9.0478249609
 30
0.0
 10
13.0343968695
 20
9.0436820975
 30
0.0
 10
13.0369893927
 20
9.039293336
 30
0.0
 10
13.039541738
 20
9.0346606568
 30
0.0
 10
13.0420527922
 20
9.0297861573
 30
0.0
 10
13.0445214073
 20
9.0246720029
 30
0.0
 10
13.0478089158
 20
9.017417166
 30
0.0
 10
13.0517920933
 20
9.0077543754
 30
0.0
 10
13.056310068
 20
8.9954259438
 30
0.0
 10
13.0606333105
 20
8.9822030666
 30
0.0
 10
13.0647539073
 20
8.9681097152
 30
0.0
 10
13.0686643086
 20
8.9531712441
 30
0.0
 10
13.0723573115
 20
8.937414733
 30
0.0
 10
13.0758260954
 20
8.9208687859
 30
0.0
 10
13.0790642371
 20
8.9035635065
 30
0.0
 10
13.0820657506
 20
8.8855304326
 30
0.0
 10
13.0848250881
 20
8.8668024681
 30
0.0
 10
13.0873371427
 20
8.8474138058
 30
0.0
 10
13.0895972579
 20
8.8273998627
 30
0.0
 10
13.0916012507
 20
8.8067972177
 30
0.0
 10
13.0933454177
 20
8.7856435497
 30
0.0
 10
13.0948265348
 20
8.76397754
 30
0.0
 10
13.0960418463
 20
8.7418388203
 30
0.0
 10
13.096989111
 20
8.7192679121
 30
0.0
 10
13.0978987662
 20
8.688433093
 30
0.0
 10
13.098162097
 20
8.6651183162
 30
0.0
 10
13.098162097
 20
8.6494662088
 30
0.0
  0
SPLINE
  5
39C
100
AcDbEntity
  8
0
100
AcDbSpline
 62
7
  6
CONTINUOUS
 70
0
 71
3
 72
45
 73
41
 74
0
 42
0.0000001
 43
0.0000001
 44
0.0000000001
 40
0.0
 40
0.0
 40
0.0
 40
0.0
 40
0.0064544017
 40
0.013074313
 40
0.0269003018
 40
0.0341543595
 40
0.0416582891
 40
0.0494277751
 40
0.0574766156
 40
0.0658168826
 40
0.0744589437
 40
0.0834117682
 40
0.0926830077
 40
0.1022790413
 40
0.1122052623
 40
0.1224660586
 40
0.1330648972
 40
0.1552855858
 40
0.1788825094
 40
0.2038596756
 40
0.2302131611
 40
0.2579322209
 40
0.2870003158
 40
0.317395892
 40
0.3490929032
 40
0.3820612869
 40
0.4162674477
 40
0.4516745681
 40
0.4882428123
 40
0.5259296524
 40
0.5646901043
 40
0.6044768561
 40
0.6452404418
 40
0.6869294754
 40
0.7294907657
 40
0.7728693642
 40
0.8170089521
 40
0.8618516281
 40
0.9073378479
 40
1.0
 40
1.0
 40
1.0
 40
1.0
 10
13.0155660304
 20
9.2347153669
 30
0.0
 10
13.0167065067
 20
9.2342351433
 30
0.0
 10
13.0189837082
 20
9.2331819446
 30
0.0
 10
13.0235157301
 20
9.2307145117
 30
0.0
 10
13.0279323655
 20
9.2277392415
 30
0.0
 10
13.0322165738
 20
9.2243194672
 30
0.0
 10
13.0354512128
 20
9.2214544486
 30
0.0
 10
13.0386539787
 20
9.2183320365
 30
0.0
 10
13.0418241369
 20
9.2149531805
 30
0.0
 10
13.0449605153
 20
9.2113191354
 30
0.0
 10
13.0480621506
 20
9.2074312379
 30
0.0
 10
13.0511279697
 20
9.2032908596
 30
0.0
 10
13.0541569085
 20
9.1988994586
 30
0.0
 10
13.0571479796
 20
9.1942586243
 30
0.0
 10
13.0601000979
 20
9.189369981
 30
0.0
 10
13.0630122695
 20
9.1842352554
 30
0.0
 10
13.066901914
 20
9.1769481205
 30
0.0
 10
13.0716451229
 20
9.1672226901
 30
0.0
 10
13.0770748942
 20
9.1547793569
 30
0.0
 10
13.0823213038
 20
9.1414030081
 30
0.0
 10
13.0873768551
 20
9.1271126978
 30
0.0
 10
13.0922343557
 20
9.111928547
 30
0.0
 10
13.0968868172
 20
9.0958721426
 30
0.0
 10
13.101327504
 20
9.0789663488
 30
0.0
 10
13.1055499815
 20
9.0612353217
 30
0.0
 10
13.1095481406
 20
9.0427044526
 30
0.0
 10
13.1133161706
 20
9.0234003077
 30
0.0
 10
13.1168485807
 20
9.0033505906
 30
0.0
 10
13.1201402531
 20
8.9825841103
 30
0.0
 10
13.1231864077
 20
8.9611307231
 30
0.0
 10
13.1259826043
 20
8.9390212805
 30
0.0
 10
13.1285247773
 20
8.9162875957
 30
0.0
 10
13.1308092456
 20
8.8929623941
 30
0.0
 10
13.1328326841
 20
8.8690792536
 30
0.0
 10
13.1345921355
 20
8.8446725694
 30
0.0
 10
13.136085061
 20
8.8197774762
 30
0.0
 10
13.137309279
 20
8.7944298528
 30
0.0
 10
13.1382630177
 20
8.7686662279
 30
0.0
 10
13.1391777102
 20
8.7335940731
 30
0.0
 10
13.1394437006
 20
8.707106647
 30
0.0
 10
13.1394437006
 20
8.6893411783
 30
0.0
  0
SPLINE
  5
39D
100
AcDbEntity
  8
0
100
AcDbSpline
 62
7
  6
CONTINUOUS
 70
0
 71
3
 72
48
 73
44
 74
0
 42
0.0000001
 43
0.0000001
 44
0.0000000001
 40
0.0
 40
0.0
 40
0.0
 40
0.0
 40
0.0063158899
 40
0.0126706797
 40
0.0191025165
 40
0.025648058
 40
0.0323419221
 40
0.0392162652
 40
0.0536140552
 40
0.0611947659
 40
0.0690564915
 40
0.0772175997
 40
0.0856939645
 40
0.0944993396
 40
0.103645447
 40
0.1131421893
 40
0.122997946
 40
0.1332195527
 40
0.1438126331
 40
0.1547816545
 40
0.1661299881
 40
0.1778601838
 40
0.1899738557
 40
0.215353302
 40
0.2422691224
 40
0.2707113841
 40
0.3006623731
 40
0.332097648
 40
0.3649869327
 40
0.3992948208
 40
0.434981328
 40
0.4720023222
 40
0.5103099054
 40
0.5498527799
 40
0.590576537
 40
0.632423903
 40
0.6753349407
 40
0.7192473098
 40
0.7640964278
 40
0.8098157282
 40
0.8563368617
 40
0.9035891153
 40
1.0
 40
1.0
 40
1.0
 40
1.0
 10
13.0310661875
 20
9.2363128259
 30
0.0
 10
13.0323076322
 20
9.2362267369
 30
0.0
 10
13.0347922999
 20
9.2359524064
 30
0.0
 10
13.0384914696
 20
9.2352374116
 30
0.0
 10
13.0421659032
 20
9.2342188302
 30
0.0
 10
13.0458134614
 20
9.2328975375
 30
0.0
 10
13.0494327266
 20
9.2312743042
 30
0.0
 10
13.0542923981
 20
9.2286692693
 30
0.0
 10
13.0590201315
 20
9.2254803566
 30
0.0
 10
13.0635953446
 20
9.221784857
 30
0.0
 10
13.0670511947
 20
9.218669132
 30
0.0
 10
13.070470116
 20
9.2152589377
 30
0.0
 10
13.0738512998
 20
9.2115555317
 30
0.0
 10
13.0771933298
 20
9.2075604834
 30
0.0
 10
13.0804949833
 20
9.2032754239
 30
0.0
 10
13.0837550206
 20
9.198702123
 30
0.0
 10
13.0869721158
 20
9.193842398
 30
0.0
 10
13.0901450647
 20
9.1886982541
 30
0.0
 10
13.093272579
 20
9.18327176
 30
0.0
 10
13.0963533965
 20
9.1775651138
 30
0.0
 10
13.0993863154
 20
9.1715806569
 30
0.0
 10
13.1023700827
 20
9.165320791
 30
0.0
 10
13.106343106
 20
9.1564726319
 30
0.0
 10
13.1111645751
 20
9.1447295259
 30
0.0
 10
13.1166489171
 20
9.1297936112
 30
0.0
 10
13.1219092957
 20
9.1138263901
 30
0.0
 10
13.126937031
 20
9.0968539909
 30
0.0
 10
13.1317238234
 20
9.0789039682
 30
0.0
 10
13.1362617316
 20
9.0600056701
 30
0.0
 10
13.1405432102
 20
9.0401900362
 30
0.0
 10
13.1445611252
 20
9.0194895727
 30
0.0
 10
13.1483087821
 20
8.997938288
 30
0.0
 10
13.1517799441
 20
8.9755716311
 30
0.0
 10
13.1549688269
 20
8.9524264171
 30
0.0
 10
13.1578701138
 20
8.9285407589
 30
0.0
 10
13.1604789619
 20
8.9039540082
 30
0.0
 10
13.1627910308
 20
8.8787066893
 30
0.0
 10
13.1648024674
 20
8.8528404336
 30
0.0
 10
13.1665099214
 20
8.8263978865
 30
0.0
 10
13.1679105325
 20
8.7994226552
 30
0.0
 10
13.169001978
 20
8.7719592499
 30
0.0
 10
13.1700494761
 20
8.7345010987
 30
0.0
 10
13.1703533297
 20
8.7061935211
 30
0.0
 10
13.1703533297
 20
8.6871975882
 30
0.0
  0
SPLINE
  5
39E
100
AcDbEntity
  8
0
100
AcDbSpline
 62
4
  6
CONTINUOUS
 70
0
 71
3
 72
313
 73
309
 74
0
 42
0.0000001
 43
0.0000001
 44
0.0000000001
 40
0.0
 40
0.0
 40
0.0
 40
0.0
 40
0.015625
 40
0.0234375
 40
0.03125
 40
0.0390625
 40
0.046875
 40
0.05078125
 40
0.0546875
 40
0.056640625
 40
0.05859375
 40
0.060546875
 40
0.0615234375
 40
0.0620117188
 40
0.0625
 40
0.0629882812
 40
0.0634765625
 40
0.064453125
 40
0.06640625
 40
0.068359375
 40
0.0703125
 40
0.07421875
 40
0.078125
 40
0.0859375
 40
0.09375
 40
0.1015625
 40
0.109375
 40
0.11328125
 40
0.1171875
 40
0.119140625
 40
0.12109375
 40
0.123046875
 40
0.1240234375
 40
0.1245117188
 40
0.125
 40
0.1254882812
 40
0.1259765625
 40
0.126953125
 40
0.12890625
 40
0.130859375
 40
0.1328125
 40
0.13671875
 40
0.140625
 40
0.1484375
 40
0.15625
 40
0.1640625
 40
0.171875
 40
0.17578125
 40
0.1796875
 40
0.181640625
 40
0.18359375
 40
0.185546875
 40
0.1865234375
 40
0.1870117188
 40
0.1875
 40
0.1879882812
 40
0.1884765625
 40
0.189453125
 40
0.19140625
 40
0.193359375
 40
0.1953125
 40
0.19921875
 40
0.203125
 40
0.2109375
 40
0.21875
 40
0.2265625
 40
0.234375
 40
0.23828125
 40
0.2421875
 40
0.244140625
 40
0.24609375
 40
0.248046875
 40
0.2490234375
 40
0.2495117188
 40
0.25
 40
0.2504882812
 40
0.2509765625
 40
0.251953125
 40
0.25390625
 40
0.255859375
 40
0.2578125
 40
0.26171875
 40
0.265625
 40
0.2734375
 40
0.28125
 40
0.2890625
 40
0.296875
 40
0.30078125
 40
0.3046875
 40
0.306640625
 40
0.30859375
 40
0.310546875
 40
0.3115234375
 40
0.3120117188
 40
0.3125
 40
0.3129882812
 40
0.3134765625
 40
0.314453125
 40
0.31640625
 40
0.318359375
 40
0.3203125
 40
0.32421875
 40
0.328125
 40
0.3359375
 40
0.34375
 40
0.3515625
 40
0.359375
 40
0.36328125
 40
0.3671875
 40
0.369140625
 40
0.37109375
 40
0.373046875
 40
0.3740234375
 40
0.3745117188
 40
0.375
 40
0.3754882812
 40
0.3759765625
 40
0.376953125
 40
0.37890625
 40
0.380859375
 40
0.3828125
 40
0.38671875
 40
0.390625
 40
0.3984375
 40
0.40625
 40
0.4140625
 40
0.421875
 40
0.42578125
 40
0.4296875
 40
0.431640625
 40
0.43359375
 40
0.435546875
 40
0.4365234375
 40
0.4370117188
 40
0.4375
 40
0.4379882812
 40
0.4384765625
 40
0.439453125
 40
0.44140625
 40
0.443359375
 40
0.4453125
 40
0.44921875
 40
0.453125
 40
0.4609375
 40
0.46875
 40
0.4765625
 40
0.484375
 40
0.48828125
 40
0.4921875
 40
0.494140625
 40
0.49609375
 40
0.498046875
 40
0.4990234375
 40
0.4995117188
 40
0.5
 40
0.5004882812
 40
0.5009765625
 40
0.501953125
 40
0.50390625
 40
0.505859375
 40
0.5078125
 40
0.51171875
 40
0.515625
 40
0.5234375
 40
0.53125
 40
0.5390625
 40
0.546875
 40
0.55078125
 40
0.5546875
 40
0.556640625
 40
0.55859375
 40
0.560546875
 40
0.5615234375
 40
0.5620117188
 40
0.5625
 40
0.5629882812
 40
0.5634765625
 40
0.564453125
 40
0.56640625
 40
0.568359375
 40
0.5703125
 40
0.57421875
 40
0.578125
 40
0.5859375
 40
0.59375
 40
0.6015625
 40
0.609375
 40
0.61328125
 40
0.6171875
 40
0.619140625
 40
0.62109375
 40
0.623046875
 40
0.6240234375
 40
0.6245117188
 40
0.625
 40
0.6254882812
 40
0.6259765625
 40
0.626953125
 40
0.62890625
 40
0.630859375
 40
0.6328125
 40
0.63671875
 40
0.640625
 40
0.6484375
 40
0.65625
 40
0.6640625
 40
0.671875
 40
0.67578125
 40
0.6796875
 40
0.681640625
 40
0.68359375
 40
0.685546875
 40
0.6865234375
 40
0.6870117188
 40
0.6875
 40
0.6879882812
 40
0.6884765625
 40
0.689453125
 40
0.69140625
 40
0.693359375
 40
0.6953125
 40
0.69921875
 40
0.703125
 40
0.7109375
 40
0.71875
 40
0.7265625
 40
0.734375
 40
0.73828125
 40
0.7421875
 40
0.744140625
 40
0.74609375
 40
0.748046875
 40
0.7490234375
 40
0.7495117188
 40
0.75
 40
0.7504882812
 40
0.7509765625
 40
0.751953125
 40
0.75390625
 40
0.755859375
 40
0.7578125
 40
0.76171875
 40
0.765625
 40
0.7734375
 40
0.78125
 40
0.7890625
 40
0.796875
 40
0.80078125
 40
0.8046875
 40
0.806640625
 40
0.80859375
 40
0.810546875
 40
0.8115234375
 40
0.8120117188
 40
0.8125
 40
0.8129882812
 40
0.8134765625
 40
0.814453125
 40
0.81640625
 40
0.818359375
 40
0.8203125
 40
0.82421875
 40
0.828125
 40
0.8359375
 40
0.84375
 40
0.8515625
 40
0.859375
 40
0.86328125
 40
0.8671875
 40
0.869140625
 40
0.87109375
 40
0.873046875
 40
0.8740234375
 40
0.8745117188
 40
0.875
 40
0.8754882812
 40
0.8759765625
 40
0.876953125
 40
0.87890625
 40
0.880859375
 40
0.8828125
 40
0.88671875
 40
0.890625
 40
0.8984375
 40
0.90625
 40
0.9140625
 40
0.921875
 40
0.92578125
 40
0.9296875
 40
0.931640625
 40
0.93359375
 40
0.935546875
 40
0.9365234375
 40
0.9370117188
 40
0.9375
 40
0.9379882812
 40
0.9384765625
 40
0.939453125
 40
0.94140625
 40
0.943359375
 40
0.9453125
 40
0.94921875
 40
0.953125
 40
0.9609375
 40
0.96875
 40
0.9765625
 40
0.984375
 40
1.0
 40
1.0
 40
1.0
 40
1.0
 10
11.038505563
 20
7.0132067737
 30
0.0
 10
11.0358945738
 20
7.0131318366
 30
0.0
 10
11.03197809
 20
7.0130194313
 30
0.0
 10
11.0267561117
 20
7.0128695568
 30
0.0
 10
11.0228396276
 20
7.0127571529
 30
0.0
 10
11.018923145
 20
7.0126447412
 30
0.0
 10
11.0156594047
 20
7.0125510892
 30
0.0
 10
11.0130484232
 20
7.0124761128
 30
0.0
 10
11.0114165354
 20
7.0124293776
 30
0.0
 10
11.0101110811
 20
7.0123917028
 30
0.0
 10
11.009131837
 20
7.0123642316
 30
0.0
 10
11.008316288
 20
7.0123388423
 30
0.0
 10
11.0077444467
 20
7.0123259692
 30
0.0
 10
11.0074191745
 20
7.0123109631
 30
0.0
 10
11.007171011
 20
7.0123212589
 30
0.0
 10
11.0069389376
 20
7.0122491782
 30
0.0
 10
11.006623894
 20
7.0121818044
 30
0.0
 10
11.0060751826
 20
7.0120505127
 30
0.0
 10
11.0052899421
 20
7.0118699522
 30
0.0
 10
11.0043482386
 20
7.0116502838
 30
0.0
 10
11.0030924296
 20
7.011358439
 30
0.0
 10
11.0015227383
 20
7.0109932746
 30
0.0
 10
10.9990111932
 20
7.010409212
 30
0.0
 10
10.9958717753
 20
7.0096790646
 30
0.0
 10
10.9921044673
 20
7.0088029192
 30
0.0
 10
10.9883371639
 20
7.0079267584
 30
0.0
 10
10.9851977346
 20
7.0071966496
 30
0.0
 10
10.9826862123
 20
7.0066125097
 30
0.0
 10
10.9811164629
 20
7.0062475419
 30
0.0
 10
10.9798607733
 20
7.0059552936
 30
0.0
 10
10.9789187053
 20
7.0057368579
 30
0.0
 10
10.9781346053
 20
7.0055524406
 30
0.0
 10
10.9775838578
 20
7.0054280339
 30
0.0
 10
10.9772720765
 20
7.0053496286
 30
0.0
 10
10.9770299823
 20
7.0053114333
 30
0.0
 10
10.9768194553
 20
7.005194461
 30
0.0
 10
10.9765277417
 20
7.0050659762
 30
0.0
 10
10.976022373
 20
7.0048283251
 30
0.0
 10
10.9752977357
 20
7.004495517
 30
0.0
 10
10.9744293189
 20
7.0040932823
 30
0.0
 10
10.9732710289
 20
7.00355797
 30
0.0
 10
10.9718233037
 20
7.0028884871
 30
0.0
 10
10.9695068665
 20
7.0018175059
 30
0.0
 10
10.9666113467
 20
7.0004787132
 30
0.0
 10
10.9631367105
 20
6.9988721922
 30
0.0
 10
10.9596620812
 20
6.9972656563
 30
0.0
 10
10.9567665441
 20
6.9959269011
 30
0.0
 10
10.9544501415
 20
6.994855845
 30
0.0
 10
10.9530023284
 20
6.9941865523
 30
0.0
 10
10.9518442187
 20
6.9936508496
 30
0.0
 10
10.950975251
 20
6.9932498077
 30
0.0
 10
10.9502523375
 20
6.9929132675
 30
0.0
 10
10.9497438914
 20
6.9926822788
 30
0.0
 10
10.9494571086
 20
6.9925431193
 30
0.0
 10
10.9492314356
 20
6.9924589362
 30
0.0
 10
10.9490462273
 20
6.9922975903
 30
0.0
 10
10.9487851683
 20
6.9921093776
 30
0.0
 10
10.9483348913
 20
6.9917674652
 30
0.0
 10
10.9476882003
 20
6.9912855752
 30
0.0
 10
10.9469136428
 20
6.9907045008
 30
0.0
 10
10.9458803854
 20
6.9899307151
 30
0.0
 10
10.9445889896
 20
6.9889631474
 30
0.0
 10
10.942522658
 20
6.9874152268
 30
0.0
 10
10.9399397775
 20
6.9854802612
 30
0.0
 10
10.9368403049
 20
6.9831583317
 30
0.0
 10
10.9337408423
 20
6.9808363891
 30
0.0
 10
10.9311579366
 20
6.9789014562
 30
0.0
 10
10.9290916555
 20
6.9773534702
 30
0.0
 10
10.9278001312
 20
6.9763860685
 30
0.0
 10
10.9267671376
 20
6.9756119422
 30
0.0
 10
10.9259917742
 20
6.9750319084
 30
0.0
 10
10.9253476046
 20
6.9745467628
 30
0.0
 10
10.9248928264
 20
6.9742106619
 30
0.0
 10
10.9246389795
 20
6.9740131378
 30
0.0
 10
10.9244316181
 20
6.9738803939
 30
0.0
 10
10.9242891481
 20
6.9736887864
 30
0.0
 10
10.9240765533
 20
6.9734538419
 30
0.0
 10
10.9237150584
 20
6.9730331228
 30
0.0
 10
10.9231931235
 20
6.972437097
 30
0.0
 10
10.9225691617
 20
6.9717197251
 30
0.0
 10
10.9217363882
 20
6.9707639771
 30
0.0
 10
10.9206957037
 20
6.969569036
 30
0.0
 10
10.9190304506
 20
6.9676572734
 30
0.0
 10
10.9169489387
 20
6.9652675208
 30
0.0
 10
10.9144510995
 20
6.96239984
 30
0.0
 10
10.9119532731
 20
6.9595321487
 30
0.0
 10
10.9098717292
 20
6.9571424223
 30
0.0
 10
10.9082065402
 20
6.9552306071
 30
0.0
 10
10.9071656926
 20
6.9540357998
 30
0.0
 10
10.9063332539
 20
6.9530797771
 30
0.0
 10
10.9057082691
 20
6.9523632445
 30
0.0
 10
10.9051895347
 20
6.9517645928
 30
0.0
 10
10.9048223265
 20
6.9513485613
 30
0.0
 10
10.9046188859
 20
6.9511061061
 30
0.0
 10
10.904448297
 20
6.9509375692
 30
0.0
 10
10.9043465456
 20
6.9507181758
 30
0.0
 10
10.9041868657
 20
6.9504433906
 30
0.0
 10
10.9039186131
 20
6.9499542514
 30
0.0
 10
10.9035295464
 20
6.9492598023
 30
0.0
 10
10.9030651698
 20
6.9484246137
 30
0.0
 10
10.9024451266
 20
6.9473116749
 30
0.0
 10
10.901670372
 20
6.9459202803
 30
0.0
 10
10.9004305972
 20
6.9436941725
 30
0.0
 10
10.8988809366
 20
6.9409114951
 30
0.0
 10
10.8970213172
 20
6.9375723015
 30
0.0
 10
10.8951617118
 20
6.9342330993
 30
0.0
 10
10.8936120163
 20
6.9314504431
 30
0.0
 10
10.8923723113
 20
6.9292242931
 30
0.0
 10
10.8915973794
 20
6.9278330058
 30
0.0
 10
10.8909777
 20
6.9267198467
 30
0.0
 10
10.8905122119
 20
6.9258853312
 30
0.0
 10
10.8901266229
 20
6.9251887761
 30
0.0
 10
10.889852162
 20
6.9247033964
 30
0.0
 10
10.8897024294
 20
6.9244225876
 30
0.0
 10
10.8895701229
 20
6.9242216967
 30
0.0
 10
10.8895142936
 20
6.9239836676
 30
0.0
 10
10.8894131785
 20
6.9236792498
 30
0.0
 10
10.8892486558
 20
6.9231404829
 30
0.0
 10
10.8890071255
 20
6.9223739715
 30
0.0
 10
10.8887200704
 20
6.9214528071
 30
0.0
 10
10.8883363589
 20
6.9202250596
 30
0.0
 10
10.8878570521
 20
6.9186902138
 30
0.0
 10
10.8870899752
 20
6.9162345508
 30
0.0
 10
10.8861311934
 20
6.9131649409
 30
0.0
 10
10.8849806258
 20
6.9094814231
 30
0.0
 10
10.8838300733
 20
6.9057978988
 30
0.0
 10
10.8828712536
 20
6.9027283049
 30
0.0
 10
10.8821042525
 20
6.9002726099
 30
0.0
 10
10.8816247533
 20
6.8987378455
 30
0.0
 10
10.8812414366
 20
6.897509931
 30
0.0
 10
10.8809531755
 20
6.896589277
 30
0.0
 10
10.8807154185
 20
6.8958211685
 30
0.0
 10
10.8805441597
 20
6.8952852527
 30
0.0
 10
10.8804538375
 20
6.8949762667
 30
0.0
 10
10.8803648557
 20
6.8947522697
 30
0.0
 10
10.8803570646
 20
6.8944986769
 30
0.0
 10
10.8803183563
 20
6.8941708765
 30
0.0
 10
10.8802638117
 20
6.893592416
 30
0.0
 10
10.8801789923
 20
6.8927685584
 30
0.0
 10
10.8800801618
 20
6.891778853
 30
0.0
 10
10.8799473564
 20
6.8904596218
 30
0.0
 10
10.8797817029
 20
6.8888104541
 30
0.0
 10
10.8795164598
 20
6.8861718576
 30
0.0
 10
10.8791849742
 20
6.8828735873
 30
0.0
 10
10.8787871601
 20
6.8789156736
 30
0.0
 10
10.878389362
 20
6.8749577571
 30
0.0
 10
10.8780578366
 20
6.8716594936
 30
0.0
 10
10.877792673
 20
6.8690208836
 30
0.0
 10
10.8776268175
 20
6.86737175
 30
0.0
 10
10.8774944266
 20
6.8660524487
 30
0.0
 10
10.87739433
 20
6.8650629575
 30
0.0
 10
10.8773134719
 20
6.8642384299
 30
0.0
 10
10.8772518558
 20
6.8636611656
 30
0.0
 10
10.8772244777
 20
6.8633314485
 30
0.0
 10
10.8771818837
 20
6.8630837431
 30
0.0
 10
10.8772236157
 20
6.8628376341
 30
0.0
 10
10.8772498445
 20
6.8625089319
 30
0.0
 10
10.8773094493
 20
6.8619339624
 30
0.0
 10
10.8773874342
 20
6.8611124419
 30
0.0
 10
10.8774840829
 20
6.8601266753
 30
0.0
 10
10.8776118766
 20
6.8588122995
 30
0.0
 10
10.8777719856
 20
6.8571693367
 30
0.0
 10
10.8780279548
 20
6.8545405924
 30
0.0
 10
10.8783479872
 20
6.8512546634
 30
0.0
 10
10.8787319938
 20
6.8473115478
 30
0.0
 10
10.8791160162
 20
6.8433684333
 30
0.0
 10
10.8794360089
 20
6.8400825015
 30
0.0
 10
10.8796920576
 20
6.8374537629
 30
0.0
 10
10.8798519646
 20
6.8358107855
 30
0.0
 10
10.8799801729
 20
6.8344964399
 30
0.0
 10
10.880075555
 20
6.8335105811
 30
0.0
 10
10.8801575028
 20
6.832689349
 30
0.0
 10
10.8802100332
 20
6.8321138647
 30
0.0
 10
10.880247597
 20
6.8317859874
 30
0.0
 10
10.8802545114
 20
6.8315373444
 30
0.0
 10
10.8803426864
 20
6.831299156
 30
0.0
 10
10.8804319086
 20
6.8309779248
 30
0.0
 10
10.8806012536
 20
6.8304174693
 30
0.0
 10
10.8808362707
 20
6.8296159303
 30
0.0
 10
10.8811212464
 20
6.8286544637
 30
0.0
 10
10.8815001819
 20
6.8273723755
 30
0.0
 10
10.8819742047
 20
6.8257698106
 30
0.0
 10
10.8827324435
 20
6.8232056814
 30
0.0
 10
10.8836803103
 20
6.8200005288
 30
0.0
 10
10.8848177194
 20
6.8161543412
 30
0.0
 10
10.8859551436
 20
6.8123081571
 30
0.0
 10
10.8869029726
 20
6.8091029957
 30
0.0
 10
10.8876612872
 20
6.8065388841
 30
0.0
 10
10.8881351174
 20
6.8049362745
 30
0.0
 10
10.8885144481
 20
6.8036542781
 30
0.0
 10
10.8887982165
 20
6.8026925307
 30
0.0
 10
10.8890370112
 20
6.8018918703
 30
0.0
 10
10.8891996124
 20
6.8013298464
 30
0.0
 10
10.8892996399
 20
6.8010111281
 30
0.0
 10
10.8893546244
 20
6.8007652207
 30
0.0
 10
10.8894861969
 20
6.8005455692
 30
0.0
 10
10.8896349121
 20
6.8002435421
 30
0.0
 10
10.8899076105
 20
6.7997192618
 30
0.0
 10
10.8902906724
 20
6.798968059
 30
0.0
 10
10.890753132
 20
6.7980675705
 30
0.0
 10
10.891368772
 20
6.7968665857
 30
0.0
 10
10.892138655
 20
6.7953654689
 30
0.0
 10
10.8933702817
 20
6.7929636182
 30
0.0
 10
10.8949098793
 20
6.7899613269
 30
0.0
 10
10.8967573672
 20
6.786358567
 30
0.0
 10
10.8986048695
 20
6.782755813
 30
0.0
 10
10.9001444309
 20
6.7797535069
 30
0.0
 10
10.90137613
 20
6.7773516857
 30
0.0
 10
10.9021458289
 20
6.7758504938
 30
0.0
 10
10.9027618468
 20
6.7746496631
 30
0.0
 10
10.9032231518
 20
6.7737487037
 30
0.0
 10
10.9036098261
 20
6.7729989743
 30
0.0
 10
10.9038760758
 20
6.7724720638
 30
0.0
 10
10.9040351237
 20
6.772174251
 30
0.0
 10
10.9041349573
 20
6.7719416545
 30
0.0
 10
10.9043091474
 20
6.771744366
 30
0.0
 10
10.9045154646
 20
6.7714689989
 30
0.0
 10
10.9048886038
 20
6.7709928446
 30
0.0
 10
10.9054153421
 20
6.7703096242
 30
0.0
 10
10.9060501322
 20
6.7694910438
 30
0.0
 10
10.9068955745
 20
6.7683991548
 30
0.0
 10
10.9079527008
 20
6.767034447
 30
0.0
 10
10.909643922
 20
6.7648508288
 30
0.0
 10
10.911758011
 20
6.7621213358
 30
0.0
 10
10.9142948896
 20
6.75884593
 30
0.0
 10
10.9168317807
 20
6.7555705335
 30
0.0
 10
10.9189458387
 20
6.7528410173
 30
0.0
 10
10.9206371218
 20
6.7506574454
 30
0.0
 10
10.921694091
 20
6.74929262
 30
0.0
 10
10.9225398556
 20
6.7482009724
 30
0.0
 10
10.9231736611
 20
6.7473816544
 30
0.0
 10
10.92370348
 20
6.7467007418
 30
0.0
 10
10.9240711198
 20
6.7462204677
 30
0.0
 10
10.9242862483
 20
6.7459517015
 30
0.0
 10
10.9244333728
 20
6.7457341371
 30
0.0
 10
10.9246348606
 20
6.7455776939
 30
0.0
 10
10.9248845485
 20
6.7453477831
 30
0.0
 10
10.9253303374
 20
6.7449553727
 30
0.0
 10
10.9259625596
 20
6.744389593
 30
0.0
 10
10.9267232033
 20
6.7437128804
 30
0.0
 10
10.9277367044
 20
6.7428098204
 30
0.0
 10
10.9290038172
 20
6.7416812612
 30
0.0
 10
10.9310310655
 20
6.739875418
 30
0.0
 10
10.9335651715
 20
6.7376181653
 30
0.0
 10
10.936606078
 20
6.7349094385
 30
0.0
 10
10.9396469942
 20
6.7322007238
 30
0.0
 10
10.9421810761
 20
6.7299434407
 30
0.0
 10
10.9442083726
 20
6.7281376583
 30
0.0
 10
10.9454753628
 20
6.7270089445
 30
0.0
 10
10.9464891154
 20
6.7261062019
 30
0.0
 10
10.9472489908
 20
6.7254285196
 30
0.0
 10
10.9478836169
 20
6.7248657737
 30
0.0
 10
10.9483251144
 20
6.7244679475
 30
0.0
 10
10.9485816782
 20
6.7242467142
 30
0.0
 10
10.9487620455
 20
6.7240636168
 30
0.0
 10
10.9489884954
 20
6.723946161
 30
0.0
 10
10.9492743544
 20
6.7237666567
 30
0.0
 10
10.949782097
 20
6.7234631921
 30
0.0
 10
10.950503528
 20
6.7230240939
 30
0.0
 10
10.9513709212
 20
6.7224995634
 30
0.0
 10
10.9525268601
 20
6.7217993556
 30
0.0
 10
10.9539719842
 20
6.7209243813
 30
0.0
 10
10.9562840706
 20
6.7195242627
 30
0.0
 10
10.9591742173
 20
6.7177741698
 30
0.0
 10
10.962642376
 20
6.7156740328
 30
0.0
 10
10.9661105422
 20
6.7135739092
 30
0.0
 10
10.9690006702
 20
6.7118237827
 30
0.0
 10
10.9713127941
 20
6.7104237313
 30
0.0
 10
10.9727578231
 20
6.7095485864
 30
0.0
 10
10.9739139571
 20
6.7088487288
 30
0.0
 10
10.9747807543
 20
6.7083231281
 30
0.0
 10
10.9755040501
 20
6.7078873783
 30
0.0
 10
10.9760084637
 20
6.7075779363
 30
0.0
 10
10.9762996565
 20
6.7074080094
 30
0.0
 10
10.9765097229
 20
6.7072611347
 30
0.0
 10
10.9767516237
 20
6.7071885296
 30
0.0
 10
10.9770630539
 20
6.7070658166
 30
0.0
 10
10.9776132305
 20
6.7068631391
 30
0.0
 10
10.9783964921
 20
6.7065672894
 30
0.0
 10
10.9793375638
 20
6.7062149708
 30
0.0
 10
10.9805919218
 20
6.7057442692
 30
0.0
 10
10.9821600076
 20
6.7051562153
 30
0.0
 10
10.9846688676
 20
6.7042151484
 30
0.0
 10
10.9878049692
 20
6.7030388772
 30
0.0
 10
10.9915682792
 20
6.7016273232
 30
0.0
 10
10.9953315945
 20
6.7002157839
 30
0.0
 10
10.9984676828
 20
6.6990394758
 30
0.0
 10
11.0009765696
 20
6.6980984827
 30
0.0
 10
11.0025445873
 20
6.6975102412
 30
0.0
 10
11.003799085
 20
6.6970399247
 30
0.0
 10
11.0047397299
 20
6.6966864296
 30
0.0
 10
11.0055243269
 20
6.6963942607
 30
0.0
 10
11.0060721195
 20
6.6961850124
 30
0.0
 10
11.0063873694
 20
6.6960728275
 30
0.0
 10
11.0066175373
 20
6.6959678835
 30
0.0
 10
11.0068716706
 20
6.6959424682
 30
0.0
 10
11.0072021556
 20
6.6958808407
 30
0.0
 10
11.007784399
 20
6.6957859173
 30
0.0
 10
11.0086141392
 20
6.6956435553
 30
0.0
 10
11.0096106989
 20
6.6954756131
 30
0.0
 10
11.0109391408
 20
6.69525068
 30
0.0
 10
11.0125997974
 20
6.6949698595
 30
0.0
 10
11.0152567897
 20
6.6945203535
 30
0.0
 10
11.0185780501
 20
6.6939585372
 30
0.0
 10
11.022563554
 20
6.6932843293
 30
0.0
 10
11.0265490601
 20
6.6926101289
 30
0.0
 10
11.0318630676
 20
6.6917111925
 30
0.0
 10
11.0358485733
 20
6.6910369907
 30
0.0
 10
11.0385055771
 20
6.6905875228
 30
0.0
  0
SPLINE
  5
39F
100
AcDbEntity
  8
0
100
AcDbSpline
 62
4
  6
CONTINUOUS
 70
0
 71
3
 72
313
 73
309
 74
0
 42
0.0000001
 43
0.0000001
 44
0.0000000001
 40
0.0
 40
0.0
 40
0.0
 40
0.0
 40
0.015625
 40
0.0234375
 40
0.03125
 40
0.0390625
 40
0.046875
 40
0.05078125
 40
0.0546875
 40
0.056640625
 40
0.05859375
 40
0.060546875
 40
0.0615234375
 40
0.0620117188
 40
0.0625
 40
0.0629882812
 40
0.0634765625
 40
0.064453125
 40
0.06640625
 40
0.068359375
 40
0.0703125
 40
0.07421875
 40
0.078125
 40
0.0859375
 40
0.09375
 40
0.1015625
 40
0.109375
 40
0.11328125
 40
0.1171875
 40
0.119140625
 40
0.12109375
 40
0.123046875
 40
0.1240234375
 40
0.1245117188
 40
0.125
 40
0.1254882812
 40
0.1259765625
 40
0.126953125
 40
0.12890625
 40
0.130859375
 40
0.1328125
 40
0.13671875
 40
0.140625
 40
0.1484375
 40
0.15625
 40
0.1640625
 40
0.171875
 40
0.17578125
 40
0.1796875
 40
0.181640625
 40
0.18359375
 40
0.185546875
 40
0.1865234375
 40
0.1870117188
 40
0.1875
 40
0.1879882812
 40
0.1884765625
 40
0.189453125
 40
0.19140625
 40
0.193359375
 40
0.1953125
 40
0.19921875
 40
0.203125
 40
0.2109375
 40
0.21875
 40
0.2265625
 40
0.234375
 40
0.23828125
 40
0.2421875
 40
0.244140625
 40
0.24609375
 40
0.248046875
 40
0.2490234375
 40
0.2495117188
 40
0.25
 40
0.2504882812
 40
0.2509765625
 40
0.251953125
 40
0.25390625
 40
0.255859375
 40
0.2578125
 40
0.26171875
 40
0.265625
 40
0.2734375
 40
0.28125
 40
0.2890625
 40
0.296875
 40
0.30078125
 40
0.3046875
 40
0.306640625
 40
0.30859375
 40
0.310546875
 40
0.3115234375
 40
0.3120117188
 40
0.3125
 40
0.3129882812
 40
0.3134765625
 40
0.314453125
 40
0.31640625
 40
0.318359375
 40
0.3203125
 40
0.32421875
 40
0.328125
 40
0.3359375
 40
0.34375
 40
0.3515625
 40
0.359375
 40
0.36328125
 40
0.3671875
 40
0.369140625
 40
0.37109375
 40
0.373046875
 40
0.3740234375
 40
0.3745117188
 40
0.375
 40
0.3754882812
 40
0.3759765625
 40
0.376953125
 40
0.37890625
 40
0.380859375
 40
0.3828125
 40
0.38671875
 40
0.390625
 40
0.3984375
 40
0.40625
 40
0.4140625
 40
0.421875
 40
0.42578125
 40
0.4296875
 40
0.431640625
 40
0.43359375
 40
0.435546875
 40
0.4365234375
 40
0.4370117188
 40
0.4375
 40
0.4379882812
 40
0.4384765625
 40
0.439453125
 40
0.44140625
 40
0.443359375
 40
0.4453125
 40
0.44921875
 40
0.453125
 40
0.4609375
 40
0.46875
 40
0.4765625
 40
0.484375
 40
0.48828125
 40
0.4921875
 40
0.494140625
 40
0.49609375
 40
0.498046875
 40
0.4990234375
 40
0.4995117188
 40
0.5
 40
0.5004882812
 40
0.5009765625
 40
0.501953125
 40
0.50390625
 40
0.505859375
 40
0.5078125
 40
0.51171875
 40
0.515625
 40
0.5234375
 40
0.53125
 40
0.5390625
 40
0.546875
 40
0.55078125
 40
0.5546875
 40
0.556640625
 40
0.55859375
 40
0.560546875
 40
0.5615234375
 40
0.5620117188
 40
0.5625
 40
0.5629882812
 40
0.5634765625
 40
0.564453125
 40
0.56640625
 40
0.568359375
 40
0.5703125
 40
0.57421875
 40
0.578125
 40
0.5859375
 40
0.59375
 40
0.6015625
 40
0.609375
 40
0.61328125
 40
0.6171875
 40
0.619140625
 40
0.62109375
 40
0.623046875
 40
0.6240234375
 40
0.6245117188
 40
0.625
 40
0.6254882812
 40
0.6259765625
 40
0.626953125
 40
0.62890625
 40
0.630859375
 40
0.6328125
 40
0.63671875
 40
0.640625
 40
0.6484375
 40
0.65625
 40
0.6640625
 40
0.671875
 40
0.67578125
 40
0.6796875
 40
0.681640625
 40
0.68359375
 40
0.685546875
 40
0.6865234375
 40
0.6870117188
 40
0.6875
 40
0.6879882812
 40
0.6884765625
 40
0.689453125
 40
0.69140625
 40
0.693359375
 40
0.6953125
 40
0.69921875
 40
0.703125
 40
0.7109375
 40
0.71875
 40
0.7265625
 40
0.734375
 40
0.73828125
 40
0.7421875
 40
0.744140625
 40
0.74609375
 40
0.748046875
 40
0.7490234375
 40
0.7495117188
 40
0.75
 40
0.7504882812
 40
0.7509765625
 40
0.751953125
 40
0.75390625
 40
0.755859375
 40
0.7578125
 40
0.76171875
 40
0.765625
 40
0.7734375
 40
0.78125
 40
0.7890625
 40
0.796875
 40
0.80078125
 40
0.8046875
 40
0.806640625
 40
0.80859375
 40
0.810546875
 40
0.8115234375
 40
0.8120117188
 40
0.8125
 40
0.8129882812
 40
0.8134765625
 40
0.814453125
 40
0.81640625
 40
0.818359375
 40
0.8203125
 40
0.82421875
 40
0.828125
 40
0.8359375
 40
0.84375
 40
0.8515625
 40
0.859375
 40
0.86328125
 40
0.8671875
 40
0.869140625
 40
0.87109375
 40
0.873046875
 40
0.8740234375
 40
0.8745117188
 40
0.875
 40
0.8754882812
 40
0.8759765625
 40
0.876953125
 40
0.87890625
 40
0.880859375
 40
0.8828125
 40
0.88671875
 40
0.890625
 40
0.8984375
 40
0.90625
 40
0.9140625
 40
0.921875
 40
0.92578125
 40
0.9296875
 40
0.931640625
 40
0.93359375
 40
0.935546875
 40
0.9365234375
 40
0.9370117188
 40
0.9375
 40
0.9379882812
 40
0.9384765625
 40
0.939453125
 40
0.94140625
 40
0.943359375
 40
0.9453125
 40
0.94921875
 40
0.953125
 40
0.9609375
 40
0.96875
 40
0.9765625
 40
0.984375
 40
1.0
 40
1.0
 40
1.0
 40
1.0
 10
11.038505563
 20
6.6905875238
 30
0.0
 10
11.0411165522
 20
6.6906624608
 30
0.0
 10
11.045033036
 20
6.6907748661
 30
0.0
 10
11.0502550143
 20
6.6909247407
 30
0.0
 10
11.0541714984
 20
6.6910371445
 30
0.0
 10
11.058087981
 20
6.6911495563
 30
0.0
 10
11.0613517213
 20
6.6912432082
 30
0.0
 10
11.0639627028
 20
6.6913181847
 30
0.0
 10
11.0655945907
 20
6.6913649198
 30
0.0
 10
11.066900045
 20
6.6914025946
 30
0.0
 10
11.067879289
 20
6.6914300658
 30
0.0
 10
11.068694838
 20
6.6914554551
 30
0.0
 10
11.0692666794
 20
6.6914683282
 30
0.0
 10
11.0695919516
 20
6.6914833343
 30
0.0
 10
11.069840115
 20
6.6914730385
 30
0.0
 10
11.0700721884
 20
6.6915451192
 30
0.0
 10
11.070387232
 20
6.691612493
 30
0.0
 10
11.0709359434
 20
6.6917437848
 30
0.0
 10
11.071721184
 20
6.6919243452
 30
0.0
 10
11.0726628874
 20
6.6921440136
 30
0.0
 10
11.0739186964
 20
6.6924358585
 30
0.0
 10
11.0754883877
 20
6.6928010228
 30
0.0
 10
11.0779999328
 20
6.6933850854
 30
0.0
 10
11.0811393507
 20
6.6941152328
 30
0.0
 10
11.0849066587
 20
6.6949913782
 30
0.0
 10
11.0886739621
 20
6.6958675391
 30
0.0
 10
11.0918133914
 20
6.6965976478
 30
0.0
 10
11.0943249137
 20
6.6971817878
 30
0.0
 10
11.0958946631
 20
6.6975467555
 30
0.0
 10
11.0971503528
 20
6.6978390038
 30
0.0
 10
11.0980924208
 20
6.6980574395
 30
0.0
 10
11.0988765207
 20
6.6982418568
 30
0.0
 10
11.0994272682
 20
6.6983662635
 30
0.0
 10
11.0997390495
 20
6.6984446689
 30
0.0
 10
11.0999811437
 20
6.6984828641
 30
0.0
 10
11.1001916707
 20
6.6985998365
 30
0.0
 10
11.1004833843
 20
6.6987283213
 30
0.0
 10
11.100988753
 20
6.6989659723
 30
0.0
 10
11.1017133903
 20
6.6992987804
 30
0.0
 10
11.1025818071
 20
6.6997010151
 30
0.0
 10
11.1037400971
 20
6.7002363274
 30
0.0
 10
11.1051878224
 20
6.7009058103
 30
0.0
 10
11.1075042595
 20
6.7019767915
 30
0.0
 10
11.1103997794
 20
6.7033155842
 30
0.0
 10
11.1138744155
 20
6.7049221052
 30
0.0
 10
11.1173490448
 20
6.7065286411
 30
0.0
 10
11.120244582
 20
6.7078673964
 30
0.0
 10
11.1225609845
 20
6.7089384524
 30
0.0
 10
11.1240087976
 20
6.7096077451
 30
0.0
 10
11.1251669073
 20
6.7101434478
 30
0.0
 10
11.1260358751
 20
6.7105444897
 30
0.0
 10
11.1267587885
 20
6.7108810299
 30
0.0
 10
11.1272672346
 20
6.7111120186
 30
0.0
 10
11.1275540174
 20
6.7112511781
 30
0.0
 10
11.1277796904
 20
6.7113353612
 30
0.0
 10
11.1279648987
 20
6.7114967071
 30
0.0
 10
11.1282259577
 20
6.7116849198
 30
0.0
 10
11.1286762347
 20
6.7120268322
 30
0.0
 10
11.1293229257
 20
6.7125087223
 30
0.0
 10
11.1300974832
 20
6.7130897966
 30
0.0
 10
11.1311307407
 20
6.7138635823
 30
0.0
 10
11.1324221364
 20
6.71483115
 30
0.0
 10
11.1344884681
 20
6.7163790707
 30
0.0
 10
11.1370713485
 20
6.7183140362
 30
0.0
 10
11.1401708212
 20
6.7206359657
 30
0.0
 10
11.1432702837
 20
6.7229579083
 30
0.0
 10
11.1458531894
 20
6.7248928412
 30
0.0
 10
11.1479194705
 20
6.7264408272
 30
0.0
 10
11.1492109948
 20
6.7274082289
 30
0.0
 10
11.1502439884
 20
6.7281823552
 30
0.0
 10
11.1510193519
 20
6.7287623891
 30
0.0
 10
11.1516635214
 20
6.7292475346
 30
0.0
 10
11.1521182996
 20
6.7295836355
 30
0.0
 10
11.1523721466
 20
6.7297811596
 30
0.0
 10
11.1525795079
 20
6.7299139035
 30
0.0
 10
11.1527219779
 20
6.7301055111
 30
0.0
 10
11.1529345727
 20
6.7303404555
 30
0.0
 10
11.1532960676
 20
6.7307611746
 30
0.0
 10
11.1538180025
 20
6.7313572005
 30
0.0
 10
11.1544419643
 20
6.7320745723
 30
0.0
 10
11.1552747378
 20
6.7330303203
 30
0.0
 10
11.1563154224
 20
6.7342252614
 30
0.0
 10
11.1579806754
 20
6.736137024
 30
0.0
 10
11.1600621873
 20
6.7385267767
 30
0.0
 10
11.1625600265
 20
6.7413944575
 30
0.0
 10
11.1650578529
 20
6.7442621488
 30
0.0
 10
11.1671393969
 20
6.7466518751
 30
0.0
 10
11.1688045858
 20
6.7485636903
 30
0.0
 10
11.1698454335
 20
6.7497584976
 30
0.0
 10
11.1706778721
 20
6.7507145203
 30
0.0
 10
11.1713028569
 20
6.7514310529
 30
0.0
 10
11.1718215913
 20
6.7520297047
 30
0.0
 10
11.1721887996
 20
6.7524457361
 30
0.0
 10
11.1723922401
 20
6.7526881913
 30
0.0
 10
11.172562829
 20
6.7528567282
 30
0.0
 10
11.1726645805
 20
6.7530761216
 30
0.0
 10
11.1728242604
 20
6.7533509068
 30
0.0
 10
11.1730925129
 20
6.753840046
 30
0.0
 10
11.1734815796
 20
6.7545344952
 30
0.0
 10
11.1739459562
 20
6.7553696837
 30
0.0
 10
11.1745659995
 20
6.7564826225
 30
0.0
 10
11.1753407541
 20
6.7578740171
 30
0.0
 10
11.1765805288
 20
6.7601001249
 30
0.0
 10
11.1781301895
 20
6.7628828023
 30
0.0
 10
11.1799898088
 20
6.766221996
 30
0.0
 10
11.1818494142
 20
6.7695611981
 30
0.0
 10
11.1833991097
 20
6.7723438543
 30
0.0
 10
11.1846388147
 20
6.7745700043
 30
0.0
 10
11.1854137466
 20
6.7759612916
 30
0.0
 10
11.186033426
 20
6.7770744507
 30
0.0
 10
11.1864989141
 20
6.7779089662
 30
0.0
 10
11.1868845031
 20
6.7786055213
 30
0.0
 10
11.187158964
 20
6.7790909011
 30
0.0
 10
11.1873086966
 20
6.7793717098
 30
0.0
 10
11.1874410031
 20
6.7795726008
 30
0.0
 10
11.1874968324
 20
6.7798106298
 30
0.0
 10
11.1875979476
 20
6.7801150477
 30
0.0
 10
11.1877624702
 20
6.7806538145
 30
0.0
 10
11.1880040005
 20
6.781420326
 30
0.0
 10
11.1882910556
 20
6.7823414903
 30
0.0
 10
11.1886747672
 20
6.7835692378
 30
0.0
 10
11.189154074
 20
6.7851040836
 30
0.0
 10
11.1899211508
 20
6.7875597466
 30
0.0
 10
11.1908799326
 20
6.7906293565
 30
0.0
 10
11.1920305002
 20
6.7943128744
 30
0.0
 10
11.1931810527
 20
6.7979963986
 30
0.0
 10
11.1941398724
 20
6.8010659925
 30
0.0
 10
11.1949068736
 20
6.8035216875
 30
0.0
 10
11.1953863727
 20
6.8050564519
 30
0.0
 10
11.1957696895
 20
6.8062843665
 30
0.0
 10
11.1960579506
 20
6.8072050204
 30
0.0
 10
11.1962957075
 20
6.8079731289
 30
0.0
 10
11.1964669663
 20
6.8085090447
 30
0.0
 10
11.1965572885
 20
6.8088180307
 30
0.0
 10
11.1966462703
 20
6.8090420278
 30
0.0
 10
11.1966540614
 20
6.8092956206
 30
0.0
 10
11.1966927697
 20
6.809623421
 30
0.0
 10
11.1967473144
 20
6.8102018815
 30
0.0
 10
11.1968321338
 20
6.811025739
 30
0.0
 10
11.1969309643
 20
6.8120154444
 30
0.0
 10
11.1970637696
 20
6.8133346756
 30
0.0
 10
11.1972294231
 20
6.8149838434
 30
0.0
 10
11.1974946662
 20
6.8176224398
 30
0.0
 10
11.1978261519
 20
6.8209207101
 30
0.0
 10
11.1982239659
 20
6.8248786239
 30
0.0
 10
11.198621764
 20
6.8288365403
 30
0.0
 10
11.1989532894
 20
6.8321348039
 30
0.0
 10
11.1992184531
 20
6.8347734138
 30
0.0
 10
11.1993843085
 20
6.8364225474
 30
0.0
 10
11.1995166994
 20
6.8377418487
 30
0.0
 10
11.199616796
 20
6.8387313399
 30
0.0
 10
11.1996976542
 20
6.8395558675
 30
0.0
 10
11.1997592703
 20
6.8401331318
 30
0.0
 10
11.1997866484
 20
6.8404628489
 30
0.0
 10
11.1998292423
 20
6.8407105543
 30
0.0
 10
11.1997875103
 20
6.8409566633
 30
0.0
 10
11.1997612815
 20
6.8412853655
 30
0.0
 10
11.1997016767
 20
6.841860335
 30
0.0
 10
11.1996236918
 20
6.8426818555
 30
0.0
 10
11.1995270431
 20
6.8436676222
 30
0.0
 10
11.1993992494
 20
6.8449819979
 30
0.0
 10
11.1992391404
 20
6.8466249607
 30
0.0
 10
11.1989831712
 20
6.849253705
 30
0.0
 10
11.1986631388
 20
6.852539634
 30
0.0
 10
11.1982791322
 20
6.8564827496
 30
0.0
 10
11.1978951098
 20
6.8604258641
 30
0.0
 10
11.1975751171
 20
6.863711796
 30
0.0
 10
11.1973190684
 20
6.8663405345
 30
0.0
 10
11.1971591615
 20
6.8679835119
 30
0.0
 10
11.1970309531
 20
6.8692978575
 30
0.0
 10
11.1969355711
 20
6.8702837163
 30
0.0
 10
11.1968536233
 20
6.8711049485
 30
0.0
 10
11.1968010929
 20
6.8716804328
 30
0.0
 10
11.196763529
 20
6.8720083101
 30
0.0
 10
11.1967566147
 20
6.872256953
 30
0.0
 10
11.1966684396
 20
6.8724951414
 30
0.0
 10
11.1965792175
 20
6.8728163726
 30
0.0
 10
11.1964098724
 20
6.8733768281
 30
0.0
 10
11.1961748554
 20
6.8741783671
 30
0.0
 10
11.1958898796
 20
6.8751398337
 30
0.0
 10
11.1955109441
 20
6.876421922
 30
0.0
 10
11.1950369213
 20
6.8780244868
 30
0.0
 10
11.1942786825
 20
6.880588616
 30
0.0
 10
11.1933308157
 20
6.8837937686
 30
0.0
 10
11.1921934066
 20
6.8876399562
 30
0.0
 10
11.1910559824
 20
6.8914861403
 30
0.0
 10
11.1901081535
 20
6.8946913017
 30
0.0
 10
11.1893498388
 20
6.8972554133
 30
0.0
 10
11.1888760086
 20
6.898858023
 30
0.0
 10
11.1884966779
 20
6.9001400193
 30
0.0
 10
11.1882129096
 20
6.9011017667
 30
0.0
 10
11.1879741148
 20
6.9019024272
 30
0.0
 10
11.1878115136
 20
6.9024644511
 30
0.0
 10
11.1877114862
 20
6.9027831693
 30
0.0
 10
11.1876565016
 20
6.9030290767
 30
0.0
 10
11.1875249292
 20
6.9032487282
 30
0.0
 10
11.187376214
 20
6.9035507553
 30
0.0
 10
11.1871035155
 20
6.9040750357
 30
0.0
 10
11.1867204536
 20
6.9048262385
 30
0.0
 10
11.186257994
 20
6.9057267269
 30
0.0
 10
11.185642354
 20
6.9069277117
 30
0.0
 10
11.184872471
 20
6.9084288285
 30
0.0
 10
11.1836408443
 20
6.9108306793
 30
0.0
 10
11.1821012467
 20
6.9138329706
 30
0.0
 10
11.1802537589
 20
6.9174357305
 30
0.0
 10
11.1784062566
 20
6.9210384845
 30
0.0
 10
11.1768666952
 20
6.9240407905
 30
0.0
 10
11.175634996
 20
6.9264426117
 30
0.0
 10
11.1748652971
 20
6.9279438036
 30
0.0
 10
11.1742492792
 20
6.9291446343
 30
0.0
 10
11.1737879742
 20
6.9300455937
 30
0.0
 10
11.1734012999
 20
6.9307953231
 30
0.0
 10
11.1731350503
 20
6.9313222337
 30
0.0
 10
11.1729760024
 20
6.9316200465
 30
0.0
 10
11.1728761687
 20
6.9318526429
 30
0.0
 10
11.1727019786
 20
6.9320499314
 30
0.0
 10
11.1724956614
 20
6.9323252985
 30
0.0
 10
11.1721225222
 20
6.9328014528
 30
0.0
 10
11.171595784
 20
6.9334846732
 30
0.0
 10
11.1709609938
 20
6.9343032536
 30
0.0
 10
11.1701155515
 20
6.9353951427
 30
0.0
 10
11.1690584253
 20
6.9367598504
 30
0.0
 10
11.167367204
 20
6.9389434686
 30
0.0
 10
11.1652531151
 20
6.9416729616
 30
0.0
 10
11.1627162364
 20
6.9449483674
 30
0.0
 10
11.1601793454
 20
6.948223764
 30
0.0
 10
11.1580652873
 20
6.9509532801
 30
0.0
 10
11.1563740043
 20
6.953136852
 30
0.0
 10
11.155317035
 20
6.9545016774
 30
0.0
 10
11.1544712704
 20
6.955593325
 30
0.0
 10
11.1538374649
 20
6.956412643
 30
0.0
 10
11.1533076461
 20
6.9570935556
 30
0.0
 10
11.1529400062
 20
6.9575738297
 30
0.0
 10
11.1527248777
 20
6.9578425959
 30
0.0
 10
11.1525777533
 20
6.9580601604
 30
0.0
 10
11.1523762654
 20
6.9582166036
 30
0.0
 10
11.1521265775
 20
6.9584465143
 30
0.0
 10
11.1516807886
 20
6.9588389248
 30
0.0
 10
11.1510485664
 20
6.9594047044
 30
0.0
 10
11.1502879227
 20
6.9600814171
 30
0.0
 10
11.1492744216
 20
6.9609844771
 30
0.0
 10
11.1480073088
 20
6.9621130362
 30
0.0
 10
11.1459800605
 20
6.9639188794
 30
0.0
 10
11.1434459545
 20
6.9661761321
 30
0.0
 10
11.140405048
 20
6.9688848589
 30
0.0
 10
11.1373641318
 20
6.9715935736
 30
0.0
 10
11.13483005
 20
6.9738508567
 30
0.0
 10
11.1328027535
 20
6.9756566391
 30
0.0
 10
11.1315357632
 20
6.9767853529
 30
0.0
 10
11.1305220106
 20
6.9776880955
 30
0.0
 10
11.1297621352
 20
6.9783657778
 30
0.0
 10
11.1291275091
 20
6.9789285237
 30
0.0
 10
11.1286860116
 20
6.9793263499
 30
0.0
 10
11.1284294478
 20
6.9795475832
 30
0.0
 10
11.1282490805
 20
6.9797306806
 30
0.0
 10
11.1280226307
 20
6.9798481364
 30
0.0
 10
11.1277367716
 20
6.9800276407
 30
0.0
 10
11.1272290291
 20
6.9803311053
 30
0.0
 10
11.126507598
 20
6.9807702035
 30
0.0
 10
11.1256402048
 20
6.981294734
 30
0.0
 10
11.1244842659
 20
6.9819949419
 30
0.0
 10
11.1230391418
 20
6.9828699162
 30
0.0
 10
11.1207270554
 20
6.9842700347
 30
0.0
 10
11.1178369087
 20
6.9860201276
 30
0.0
 10
11.11436875
 20
6.9881202646
 30
0.0
 10
11.1109005838
 20
6.9902203882
 30
0.0
 10
11.1080104558
 20
6.9919705147
 30
0.0
 10
11.105698332
 20
6.9933705661
 30
0.0
 10
11.104253303
 20
6.9942457111
 30
0.0
 10
11.103097169
 20
6.9949455686
 30
0.0
 10
11.1022303718
 20
6.9954711693
 30
0.0
 10
11.101507076
 20
6.9959069191
 30
0.0
 10
11.1010026623
 20
6.9962163612
 30
0.0
 10
11.1007114695
 20
6.996386288
 30
0.0
 10
11.1005014031
 20
6.9965331627
 30
0.0
 10
11.1002595023
 20
6.9966057678
 30
0.0
 10
11.0999480721
 20
6.9967284808
 30
0.0
 10
11.0993978955
 20
6.9969311583
 30
0.0
 10
11.0986146339
 20
6.997227008
 30
0.0
 10
11.0976735622
 20
6.9975793266
 30
0.0
 10
11.0964192043
 20
6.9980500282
 30
0.0
 10
11.0948511184
 20
6.9986380821
 30
0.0
 10
11.0923422584
 20
6.999579149
 30
0.0
 10
11.0892061568
 20
7.0007554202
 30
0.0
 10
11.0854428468
 20
7.0021669742
 30
0.0
 10
11.0816795315
 20
7.0035785136
 30
0.0
 10
11.0785434432
 20
7.0047548217
 30
0.0
 10
11.0760345565
 20
7.0056958147
 30
0.0
 10
11.0744665387
 20
7.0062840562
 30
0.0
 10
11.0732120411
 20
7.0067543727
 30
0.0
 10
11.0722713962
 20
7.0071078678
 30
0.0
 10
11.0714867991
 20
7.0074000367
 30
0.0
 10
11.0709390065
 20
7.007609285
 30
0.0
 10
11.0706237566
 20
7.0077214699
 30
0.0
 10
11.0703935887
 20
7.0078264139
 30
0.0
 10
11.0701394554
 20
7.0078518292
 30
0.0
 10
11.0698089705
 20
7.0079134567
 30
0.0
 10
11.069226727
 20
7.0080083801
 30
0.0
 10
11.0683969869
 20
7.0081507422
 30
0.0
 10
11.0674004271
 20
7.0083186843
 30
0.0
 10
11.0660719852
 20
7.0085436174
 30
0.0
 10
11.0644113286
 20
7.0088244379
 30
0.0
 10
11.0617543363
 20
7.009273944
 30
0.0
 10
11.0584330759
 20
7.0098357602
 30
0.0
 10
11.0544475721
 20
7.0105099682
 30
0.0
 10
11.0504620659
 20
7.0111841685
 30
0.0
 10
11.0451480585
 20
7.0120831049
 30
0.0
 10
11.0411625527
 20
7.0127573067
 30
0.0
 10
11.0385055489
 20
7.0132067746
 30
0.0
  0
ENDSEC
  0
SECTION
  2
OBJECTS
  0
DICTIONARY
  5
C
100
AcDbDictionary
280
0
281
1
  3
ACAD_GROUP
350
D
  3
ACAD_MLINESTYLE
350
17
  3
ACAD_LAYOUT
350
1A
  3
ACAD_PLOTSETTINGS
350
19
  3
ACAD_PLOTSTYLENAME
350
E
  3
ACAD_IMAGE_DICT
350
       3A1
  3
ACAD_IMAGE_VARS
350
       3A2
  3
ACAD_TABLESTYLE
350
       3A3
  0
IMAGEDEF_REACTOR
  5
3A0
100
AcDbRasterImageDefReactor
 90
2
330
287
  0
DICTIONARY
  5
D
102
{ACAD_REACTORS
330
C
102
}
100
AcDbDictionary
280
0
281
1
  0
ACDBDICTIONARYWDFLT
  5
E
102
{ACAD_REACTORS
330
C
102
}
100
AcDbDictionary
281
1
  3
Normal
350
F
100
AcDbDictionaryWithDefault
340
F
  0
DICTIONARY
  5
3A1
330
C
100
AcDbDictionary
281
1
  3
FSL_assy_2_img_1
350
       3A6
  0
RASTERVARIABLES
  5
3A2
330
C
100
AcDbRasterVariables
 90
0
 70
0
 71
1
 72
5
  0
DICTIONARY
  5
17
102
{ACAD_REACTORS
330
C
102
}
100
AcDbDictionary
280
0
281
1
  3
Standard
350
18
  0
DICTIONARY
  5
3A3
330
C
100
AcDbDictionary
281
1
  3
Standard
350
       3A7
  3
Standard1
350
       3A8
  0
DICTIONARY
  5
19
102
{ACAD_REACTORS
330
C
102
}
100
AcDbDictionary
281
1
  0
DICTIONARY
  5
1A
102
{ACAD_REACTORS
330
C
102
}
100
AcDbDictionary
281
1
  3
Model
350
3A4
  3
Layout1
350
3A5
  0
ACDBPLACEHOLDER
  5
F
102
{ACAD_REACTORS
330
E
102
}
  0
MLINESTYLE
  5
18
102
{ACAD_REACTORS
330
17
102
}
100
AcDbMlineStyle
  2
STANDARD
 70
0
  3

 62
256
 51
90.0
 52
90.0
 71
2
 49
0.5
 62
256
  6
BYLAYER
 49
-0.5
 62
256
  6
BYLAYER
  0
LAYOUT
  5
3A4
102
{ACAD_REACTORS
330
1A
102
}
100
AcDbPlotSettings
  1

  2
none_device
  4
ANSI_C_(22.00_x_17.00_Inches)
  6

 40
0.0
 41
0.0
 42
0.0
 43
0.0
 44
558.8
 45
431.8
 46
0.0
 47
0.0
 48
0.0
 49
0.0
140
0.0
141
0.0
142
1.0
143
1.0
 70
1024
 72
0
 73
0
 74
0
  7

 75
0
147
1.0
148
0.0
149
0.0
100
AcDbLayout
  1
Model
 70
0
 71
0
 10
0.0
 20
0.0
 11
22.0
 21
17.0
 12
0.0
 22
0.0
 32
0.0
 14
0.0
 24
0.0
 34
0.0
 15
0.0
 25
0.0
 35
0.0
146
0.0
 13
0.0
 23
0.0
 33
0.0
 16
1.0
 26
0.0
 36
0.0
 17
0.0
 27
1.0
 37
0.0
 76
0
330
20C
345
0
346
0
  0
LAYOUT
  5
3A5
102
{ACAD_REACTORS
330
1A
102
}
100
AcDbPlotSettings
  1

  2
none_device
  4
ANSI_C_(22.00_x_17.00_Inches)
  6

 40
0.0
 41
0.0
 42
0.0
 43
0.0
 44
558.8
 45
431.8
 46
0.0
 47
0.0
 48
0.0
 49
0.0
140
0.0
141
0.0
142
1.0
143
1.0
 70
0
 72
0
 73
0
 74
0
  7

 75
0
147
1.0
148
0.0
149
0.0
100
AcDbLayout
  1
Layout1
 70
0
 71
1
 10
0.0
 20
0.0
 11
22.0
 21
17.0
 12
0.0
 22
0.0
 32
0.0
 14
0.0
 24
0.0
 34
0.0
 15
0.0
 25
0.0
 35
0.0
146
0.0
 13
0.0
 23
0.0
 33
0.0
 16
1.0
 26
0.0
 36
0.0
 17
0.0
 27
1.0
 37
0.0
 76
0
330
20D
345
0
346
0
  0
IMAGEDEF
  5
3A6
102
{ACAD_REACTORS
330
3A1
330
3A0
102
}
100
AcDbRasterImageDef
 90
0
  1
FSL_assy_2_img_1.png
 10
369.0
 20
92.0
 11
0.0066666667
 21
0.0066666667
280
1
281
0
  0
TABLESTYLE
  5
3A7
102
{ACAD_REACTORS
330
3A3
330
28A
330
28B
102
}
330
3A3
100
AcDbTableStyle
  3
Standard
 70
0
 71
0
 40
0.06
 41
0.06
280
1
281
1
  7
Standard
140
0.18
170
1
 62
0
 63
7
283
0
  7
Standard
140
0.18
170
1
 62
0
 63
7
283
0
  7
Standard
140
0.18
170
1
 62
0
 63
7
283
0
  0
TABLESTYLE
  5
3A8
102
{ACAD_REACTORS
330
3A3
330
289
102
}
330
3A3
100
AcDbTableStyle
  3
Standard1
 70
1
 71
0
 40
0.06
 41
0.06
280
1
281
1
  7
Standard
140
0.18
170
1
 62
0
 63
7
283
0
  7
Standard
140
0.18
170
1
 62
0
 63
7
283
0
  7
Standard
140
0.18
170
1
 62
0
 63
7
283
0
  0
ENDSEC
  0
EOF
