999
DXF file: FSK_assy_2.dxf
999
Pro/ENGINEER 2014200 by Parametric Technology Corporation
  0
SECTION
  2
HEADER
  9
$ACADVER
  1
AC1021
  9
$DWGCODEPAGE
  3
ANSI_1252
  9
$EXTMAX
 10
22.0
 20
17.0
 30
0.0
  9
$EXTMIN
 10
0.0
 20
0.0
 30
0.0
  9
$LIMMIN
 10
0.0
 20
0.0
  9
$LIMMAX
 10
22.0
 20
17.0
  9
$VIEWCTR
 10
11.0
 20
8.5
  9
$VIEWSIZE
 40
17.0
  9
$CLAYER
  8
0
  9
$LTSCALE
 40
1.21
  9
$CELTYPE
  6
BYLAYER
  9
$DIMSCALE
 40
1.0
  9
$DIMASZ
 40
0.1875
  9
$DIMEXO
 40
0.0625
  9
$DIMDLI
 40
0.836
  9
$DIMEXE
 40
0.125
  9
$DIMCEN
 40
0.198
  9
$DIMLFAC
 40
1.0
  9
$DIMBLK
  1
_FILLED
  9
$DIMTXT
 40
0.1
  9
$DIMTOL
 70
0
  9
$DIMLIM
 70
0
  9
$DIMTFAC
 40
1.0
  9
$DIMGAP
 40
0.09
  9
$DIMDSEP
 70
46
  9
$AUNITS
 70
0
  9
$PDMODE
 70
3
  9
$PDSIZE
 40
0.3125
  9
$HANDSEED
  5
3A7
  9
$TILEMODE
 70
1
  9
$MEASUREMENT
 70
0
  9
$INSUNITS
 70
1
  0
ENDSEC
  0
SECTION
  2
CLASSES
  0
CLASS
  1
ACDBDICTIONARYWDFLT
  2
AcDbDictionaryWithDefault
  3
AutoCAD 2000
 90
0
 91
1
280
0
281
0
  0
CLASS
  1
ACDBPLACEHOLDER
  2
AcDbPlaceHolder
  3
AutoCAD 2000
 90
0
 91
1
280
0
281
0
  0
CLASS
  1
LAYOUT
  2
AcDbLayout
  3
AutoCAD 2000
 90
0
 91
0
280
0
281
0
  0
CLASS
  1
RASTERVARIABLES
  2
AcDbRasterVariables
  3
ISM
 90
0
 91
1
280
0
281
0
  0
CLASS
  1
IMAGEDEF
  2
AcDbRasterImageDef
  3
ISM
 90
0
 91
1
280
0
281
0
  0
CLASS
  1
IMAGEDEF_REACTOR
  2
AcDbRasterImageDefReactor
  3
ISM
 90
0
 91
1
280
0
281
0
  0
CLASS
  1
IMAGE
  2
AcDbRasterImage
  3
ISM
 90
127
 91
1
280
0
281
1
  0
CLASS
  1
TABLESTYLE
  2
AcDbTableStyle
  3
ObjectDBX Classes
 90
2047
 91
1
280
0
281
0
  0
CLASS
  1
ACAD_TABLE
  2
AcDbTable
  3
ObjectDBX Classes
 90
1025
 91
3
280
0
281
1
  0
ENDSEC
  0
SECTION
  2
TABLES
  0
TABLE
  2
VPORT
  5
8
100
AcDbSymbolTable
 70
2
  0
VPORT
  5
1F4
100
AcDbSymbolTableRecord
100
AcDbViewportTableRecord
  2
*ACTIVE
 70
0
 10
0.0
 20
0.0
 11
1.0
 21
1.0
 12
11.0
 22
8.5
 13
0.0
 23
0.0
 14
1.0
 24
1.0
 15
0.0
 25
0.0
 16
0.0
 26
0.0
 36
1.0
 17
0.0
 27
0.0
 37
0.0
 40
17.0
 41
1.2941176471
 42
50.0
 43
0.0
 44
0.0
 50
0.0
 51
0.0
 71
0
 72
100
 73
1
 74
1
 75
0
 76
0
 77
0
 78
0
  0
ENDTAB
  0
TABLE
  2
LTYPE
  5
5
100
AcDbSymbolTable
 70
6
  0
LTYPE
  5
14
100
AcDbSymbolTableRecord
100
AcDbLinetypeTableRecord
  2
BYBLOCK
 70
0
  3

 72
65
 73
0
 40
0.0
  0
LTYPE
  5
15
100
AcDbSymbolTableRecord
100
AcDbLinetypeTableRecord
  2
BYLAYER
 70
0
  3

 72
65
 73
0
 40
0.0
  0
LTYPE
  5
16
100
AcDbSymbolTableRecord
100
AcDbLinetypeTableRecord
  2
CONTINUOUS
 70
64
  3
Solid line
 72
65
 73
0
 40
0.0
  0
LTYPE
  5
1F5
100
AcDbSymbolTableRecord
100
AcDbLinetypeTableRecord
  2
CENTER
 70
64
  3
____ _ ____ _ ____ _ ____ _ ____ _ ____ _ ____
 72
65
 73
4
 40
0.6
 49
0.375
 74
0
 49
-0.075
 74
0
 49
0.075
 74
0
 49
-0.075
 74
0
  0
LTYPE
  5
1F6
100
AcDbSymbolTableRecord
100
AcDbLinetypeTableRecord
  2
HIDDEN
 70
64
  3
- - - - - - - - - - - - - - - - - - - -
 72
65
 73
2
 40
0.2
 49
0.1
 74
0
 49
-0.1
 74
0
  0
LTYPE
  5
1F7
100
AcDbSymbolTableRecord
100
AcDbLinetypeTableRecord
  2
PHANTOM
 70
64
  3
_____ _ _ _____ _ _ _____ _ _ _____
 72
65
 73
6
 40
0.8
 49
0.45
 74
0
 49
-0.05
 74
0
 49
0.1
 74
0
 49
-0.05
 74
0
 49
0.1
 74
0
 49
-0.05
 74
0
  0
LTYPE
  5
1F8
100
AcDbSymbolTableRecord
100
AcDbLinetypeTableRecord
  2
DOT
 70
64
  3
. . . . . . . . . . . . . . . . . . . .
 72
65
 73
2
 40
0.2
 49
0.1
 74
0
 49
-0.1
 74
0
  0
LTYPE
  5
1F9
100
AcDbSymbolTableRecord
100
AcDbLinetypeTableRecord
  2
DASHED
 70
64
  3
- - - - - - - - - - - - - - - - - - - -
 72
65
 73
2
 40
0.2
 49
0.1
 74
0
 49
-0.1
 74
0
  0
ENDTAB
  0
TABLE
  2
LAYER
  5
2
100
AcDbSymbolTable
 70
36
  0
LAYER
  5
10
100
AcDbSymbolTableRecord
100
AcDbLayerTableRecord
  2
0
 70
0
 62
7
  6
CONTINUOUS
370
-3
390
F
  0
LAYER
  5
1FA
100
AcDbSymbolTableRecord
100
AcDbLayerTableRecord
  2
DEFAULT_1
 70
0
 62
7
  6
CENTER
370
-3
390
F
  0
LAYER
  5
1FB
100
AcDbSymbolTableRecord
100
AcDbLayerTableRecord
  2
DEFAULT_2
 70
0
 62
8
  6
HIDDEN
370
-3
390
F
  0
LAYER
  5
1FC
100
AcDbSymbolTableRecord
100
AcDbLayerTableRecord
  2
DEFAULT_3
 70
0
 62
7
  6
PHANTOM
370
-3
390
F
  0
LAYER
  5
1FD
100
AcDbSymbolTableRecord
100
AcDbLayerTableRecord
  2
01___PRT_ALL_DTM_PLN
 70
0
 62
7
  6
CONTINUOUS
370
-3
390
F
  0
LAYER
  5
1FE
100
AcDbSymbolTableRecord
100
AcDbLayerTableRecord
  2
01___PRT_DEF_DTM_PLN
 70
0
 62
7
  6
CONTINUOUS
370
-3
390
F
  0
LAYER
  5
1FF
100
AcDbSymbolTableRecord
100
AcDbLayerTableRecord
  2
02___PRT_ALL_AXES
 70
0
 62
7
  6
CONTINUOUS
370
-3
390
F
  0
LAYER
  5
200
100
AcDbSymbolTableRecord
100
AcDbLayerTableRecord
  2
03___PRT_ALL_CURVES
 70
0
 62
7
  6
CONTINUOUS
370
-3
390
F
  0
LAYER
  5
201
100
AcDbSymbolTableRecord
100
AcDbLayerTableRecord
  2
04___PRT_ALL_DTM_PNT
 70
0
 62
7
  6
CONTINUOUS
370
-3
390
F
  0
LAYER
  5
202
100
AcDbSymbolTableRecord
100
AcDbLayerTableRecord
  2
05___PRT_ALL_DTM_CSYS
 70
0
 62
7
  6
CONTINUOUS
370
-3
390
F
  0
LAYER
  5
203
100
AcDbSymbolTableRecord
100
AcDbLayerTableRecord
  2
05___PRT_DEF_DTM_CSYS
 70
0
 62
7
  6
CONTINUOUS
370
-3
390
F
  0
LAYER
  5
204
100
AcDbSymbolTableRecord
100
AcDbLayerTableRecord
  2
06___PRT_ALL_SURFS
 70
0
 62
7
  6
CONTINUOUS
370
-3
390
F
  0
LAYER
  5
205
100
AcDbSymbolTableRecord
100
AcDbLayerTableRecord
  2
DATUM_PLANES
 70
0
 62
7
  6
CONTINUOUS
370
-3
390
F
  0
LAYER
  5
206
100
AcDbSymbolTableRecord
100
AcDbLayerTableRecord
  2
PORT_AREAS
 70
0
 62
7
  6
CONTINUOUS
370
-3
390
F
  0
LAYER
  5
207
100
AcDbSymbolTableRecord
100
AcDbLayerTableRecord
  2
SUNNBOMCOSMETIC
 70
0
 62
7
  6
CONTINUOUS
370
-3
390
F
  0
LAYER
  5
208
100
AcDbSymbolTableRecord
100
AcDbLayerTableRecord
  2
SUNNBOMSTAMPING
 70
0
 62
7
  6
CONTINUOUS
370
-3
390
F
  0
LAYER
  5
209
100
AcDbSymbolTableRecord
100
AcDbLayerTableRecord
  2
THREADS
 70
0
 62
7
  6
CONTINUOUS
370
-3
390
F
  0
ENDTAB
  0
TABLE
  2
STYLE
  5
3
100
AcDbSymbolTable
 70
1
  0
STYLE
  5
11
100
AcDbSymbolTableRecord
100
AcDbTextStyleTableRecord
  2
STANDARD
 70
0
 40
0.0
 41
0.8
 50
0.0
 71
0
 42
0.2
  3
txt
  4

  0
STYLE
  5
20A
100
AcDbSymbolTableRecord
100
AcDbTextStyleTableRecord
  2
TEXTSTYLE_1
 70
0
 40
0.0
 41
0.8
 50
0.0
 71
0
 42
0.2
  3
gdt
  4

  0
ENDTAB
  0
TABLE
  2
VIEW
  5
6
100
AcDbSymbolTable
 70
0
  0
ENDTAB
  0
TABLE
  2
UCS
  5
7
100
AcDbSymbolTable
 70
0
  0
ENDTAB
  0
TABLE
  2
APPID
  5
9
100
AcDbSymbolTable
 70
1
  0
APPID
  5
20B
100
AcDbSymbolTableRecord
100
AcDbRegAppTableRecord
  2
ACAD
 70
0
  0
ENDTAB
  0
TABLE
  2
BLOCK_RECORD
  5
1
100
AcDbSymbolTable
 70
0
  0
BLOCK_RECORD
  5
20C
100
AcDbSymbolTableRecord
100
AcDbBlockTableRecord
  2
*Model_Space
  0
BLOCK_RECORD
  5
20D
100
AcDbSymbolTableRecord
100
AcDbBlockTableRecord
  2
*Paper_Space
  0
BLOCK_RECORD
  5
20E
100
AcDbSymbolTableRecord
100
AcDbBlockTableRecord
  2
SUN_FIRST_THIRD_ANGLE_BL0
  0
BLOCK_RECORD
  5
20F
100
AcDbSymbolTableRecord
100
AcDbBlockTableRecord
  2
*T1
  0
BLOCK_RECORD
  5
210
100
AcDbSymbolTableRecord
100
AcDbBlockTableRecord
  2
*T2
  0
BLOCK_RECORD
  5
211
100
AcDbSymbolTableRecord
100
AcDbBlockTableRecord
  2
*T3
  0
ENDTAB
  0
TABLE
  2
DIMSTYLE
  5
A
100
AcDbSymbolTable
 70
1
100
AcDbDimStyleTable
 71
0
  0
DIMSTYLE
105
212
100
AcDbSymbolTableRecord
100
AcDbDimStyleTableRecord
  2
STANDARD
 70
0
  3

  4

 40
1.0
 41
0.1875
 42
0.0625
 43
0.38
 44
0.125
 45
0.0
 46
0.0
 47
0.001
 48
0.001
140
0.1
141
0.09
142
0.0
143
25.4
144
1.0
145
0.0
146
1.0
147
0.09
 71
0.0
 72
0.0
 73
1
 74
1
 75
0
 76
0
 77
0
 78
4
170
0
171
2
172
0
173
0
174
0
175
0
176
0
177
0
178
0
270
2
271
3
272
3
273
2
274
2
275
0
280
0
281
0
282
0
283
1
284
4
285
0
286
0
287
3
288
0
340
11
278
46
  0
ENDTAB
  0
ENDSEC
  0
SECTION
  2
BLOCKS
  0
BLOCK
  5
20
100
AcDbEntity
  8
0
100
AcDbBlockBegin
  2
*Model_Space
 70
0
 10
0.0
 20
0.0
 30
0.0
  3
*Model_Space
  1

  0
ENDBLK
  5
21
100
AcDbEntity
  8
0
100
AcDbBlockEnd
  0
BLOCK
  5
1C
100
AcDbEntity
  8
0
100
AcDbBlockBegin
  2
*Paper_Space
 70
0
 10
0.0
 20
0.0
 30
0.0
  3
*Paper_Space
  1

  0
ENDBLK
  5
1D
100
AcDbEntity
  8
0
100
AcDbBlockEnd
  0
BLOCK
  5
213
100
AcDbEntity
  8
0
100
AcDbBlockBegin
 62
2
  6
CONTINUOUS
  2
SUN_FIRST_THIRD_ANGLE_BL0
 70
64
 10
20.4816717061
 20
1.2289683772
  3
SUN_FIRST_THIRD_ANGLE_BL0
  1

  0
TEXT
  5
214
100
AcDbEntity
  8
0
100
AcDbText
 62
2
  6
CONTINUOUS
 10
19.4750896608
 20
1.4136269581
  7
STANDARD
 40
0.08
  1
FIRST ANGLE
 41
0.8
 72
0
100
AcDbText
  0
TEXT
  5
215
100
AcDbEntity
  8
0
100
AcDbText
 62
2
  6
CONTINUOUS
 10
20.7842537513
 20
1.4047600029
  7
STANDARD
 40
0.08
  1
THIRD ANGLE
 41
0.8
 72
0
100
AcDbText
  0
LINE
  5
216
100
AcDbEntity
  8
0
100
AcDbLine
 62
7
  6
CONTINUOUS
 10
19.4767170086
 20
1.1727031207
 11
19.6334271527
 21
1.1717972817
  0
LINE
  5
217
100
AcDbEntity
  8
0
100
AcDbLine
 62
7
  6
CONTINUOUS
 10
19.6596964832
 20
1.1717972817
 11
19.6950230232
 21
1.171593082
  0
LINE
  5
218
100
AcDbEntity
  8
0
100
AcDbLine
 62
7
  6
CONTINUOUS
 10
19.7194818561
 20
1.1708914427
 11
19.8852396156
 21
1.1699333054
  0
LINE
  5
219
100
AcDbEntity
  8
0
100
AcDbLine
 62
7
  6
CONTINUOUS
 10
19.4758111696
 20
1.2723454088
 11
19.88525039
 21
1.3511534004
  0
LINE
  5
21A
100
AcDbEntity
  8
0
100
AcDbLine
 62
7
  6
CONTINUOUS
 10
19.88525039
 20
1.3511534004
 11
19.8831348489
 21
0.9851647912
  0
LINE
  5
21B
100
AcDbEntity
  8
0
100
AcDbLine
 62
7
  6
CONTINUOUS
 10
19.8831348489
 20
0.9851647912
 11
19.4767170086
 21
1.0658141206
  0
LINE
  5
21C
100
AcDbEntity
  8
0
100
AcDbLine
 62
7
  6
CONTINUOUS
 10
19.4767170086
 20
1.0658141206
 11
19.4779056764
 21
1.2714536432
  0
CIRCLE
  5
21D
100
AcDbEntity
  8
0
100
AcDbCircle
 62
7
  6
CONTINUOUS
 10
20.2068232291
 20
1.1717972817
 40
0.175742101
  0
CIRCLE
  5
21E
100
AcDbEntity
  8
0
100
AcDbCircle
 62
7
  6
CONTINUOUS
 10
20.2068232291
 20
1.1717972817
 40
0.1005522074
  0
LINE
  5
21F
100
AcDbEntity
  8
0
100
AcDbLine
 62
7
  6
CONTINUOUS
 10
20.2077290681
 20
1.3756110529
 11
20.2071171714
 21
1.2379342989
  0
LINE
  5
220
100
AcDbEntity
  8
0
100
AcDbLine
 62
7
  6
CONTINUOUS
 10
20.2077290681
 20
1.2016899681
 11
20.2074674401
 21
1.1428236749
  0
LINE
  5
221
100
AcDbEntity
  8
0
100
AcDbLine
 62
7
  6
CONTINUOUS
 10
20.208634907
 20
1.101141841
 11
20.2080230104
 21
0.963465087
  0
LINE
  5
222
100
AcDbEntity
  8
0
100
AcDbLine
 62
7
  6
CONTINUOUS
 10
20.0066328138
 20
1.1745147986
 11
20.1443095678
 21
1.1739029019
  0
LINE
  5
223
100
AcDbEntity
  8
0
100
AcDbLine
 62
7
  6
CONTINUOUS
 10
20.1832714155
 20
1.1727031207
 11
20.238153505
 21
1.172335442
  0
LINE
  5
224
100
AcDbEntity
  8
0
100
AcDbLine
 62
7
  6
CONTINUOUS
 10
20.2756669918
 20
1.1717972817
 11
20.407916871
 21
1.1712095044
  0
CIRCLE
  5
225
100
AcDbEntity
  8
0
100
AcDbCircle
 62
7
  6
CONTINUOUS
 10
20.7509457401
 20
1.1693297793
 40
0.1722024983
  0
CIRCLE
  5
226
100
AcDbEntity
  8
0
100
AcDbCircle
 62
7
  6
CONTINUOUS
 10
20.7509457401
 20
1.1693297793
 40
0.0985164967
  0
LINE
  5
227
100
AcDbEntity
  8
0
100
AcDbLine
 62
7
  6
CONTINUOUS
 10
20.7169767782
 20
1.170462078
 11
20.7825395137
 21
1.1682766535
  0
LINE
  5
228
100
AcDbEntity
  8
0
100
AcDbLine
 62
7
  6
CONTINUOUS
 10
20.8177513651
 20
1.1693297793
 11
20.947965719
 21
1.1693297793
  0
LINE
  5
229
100
AcDbEntity
  8
0
100
AcDbLine
 62
7
  6
CONTINUOUS
 10
20.6875370113
 20
1.170462078
 11
20.5573226574
 21
1.170462078
  0
LINE
  5
22A
100
AcDbEntity
  8
0
100
AcDbLine
 62
7
  6
CONTINUOUS
 10
20.7486811426
 20
1.1987695462
 11
20.7486811426
 21
1.1432869085
  0
LINE
  5
22B
100
AcDbEntity
  8
0
100
AcDbLine
 62
7
  6
CONTINUOUS
 10
20.7498134414
 20
1.1059210505
 11
20.7498134414
 21
0.9757066966
  0
LINE
  5
22C
100
AcDbEntity
  8
0
100
AcDbLine
 62
7
  6
CONTINUOUS
 10
20.7486811426
 20
1.2338708068
 11
20.7486811426
 21
1.3640851607
  0
LINE
  5
22D
100
AcDbEntity
  8
0
100
AcDbLine
 62
7
  6
CONTINUOUS
 10
21.0702539817
 20
1.2701043662
 11
21.4790138229
 21
1.3448360823
  0
LINE
  5
22E
100
AcDbEntity
  8
0
100
AcDbLine
 62
7
  6
CONTINUOUS
 10
21.4790138229
 20
1.3448360823
 11
21.4790138229
 21
0.9779712941
  0
LINE
  5
22F
100
AcDbEntity
  8
0
100
AcDbLine
 62
7
  6
CONTINUOUS
 10
21.4790138229
 20
0.9779712941
 11
21.069121683
 21
1.0617614
  0
LINE
  5
230
100
AcDbEntity
  8
0
100
AcDbLine
 62
7
  6
CONTINUOUS
 10
21.0702539817
 20
1.2701043662
 11
21.069121683
 21
1.0617614
  0
LINE
  5
231
100
AcDbEntity
  8
0
100
AcDbLine
 62
7
  6
CONTINUOUS
 10
21.4790138229
 20
1.1693297793
 11
21.3159628059
 21
1.1693297793
  0
LINE
  5
232
100
AcDbEntity
  8
0
100
AcDbLine
 62
7
  6
CONTINUOUS
 10
21.2876553377
 20
1.1693297793
 11
21.2502894796
 21
1.1693297793
  0
LINE
  5
233
100
AcDbEntity
  8
0
100
AcDbLine
 62
7
  6
CONTINUOUS
 10
21.2208497126
 20
1.1659328831
 11
21.0713862804
 21
1.1659328831
  0
LINE
  5
234
100
AcDbEntity
  8
0
100
AcDbLine
 62
7
  6
CONTINUOUS
 10
20.4796138713
 20
1.5284908897
 11
20.4766766948
 21
0.9294458646
  0
ENDBLK
  5
235
100
AcDbEntity
  8
0
  6
BYBLOCK
 62
0
100
AcDbBlockEnd
  0
BLOCK
  5
236
100
AcDbEntity
  8
0
100
AcDbBlockBegin
  2
*T1
 70
1
 10
0.0
 20
0.0
  3
*T1
  1

  0
LINE
  5
237
100
AcDbEntity
  8
0
100
AcDbLine
 62
2
  6
CONTINUOUS
 10
9.275
 20
0.0
 11
-0.0
 21
0.0
  0
LINE
  5
238
100
AcDbEntity
  8
0
100
AcDbLine
 62
2
  6
CONTINUOUS
 10
9.275
 20
0.0
 11
9.275
 21
1.25
  0
LINE
  5
239
100
AcDbEntity
  8
0
100
AcDbLine
 62
2
  6
CONTINUOUS
 10
9.275
 20
0.625
 11
-0.0
 21
0.625
  0
LINE
  5
23A
100
AcDbEntity
  8
0
100
AcDbLine
 62
2
  6
CONTINUOUS
 10
9.275
 20
1.25
 11
-0.0
 21
1.25
  0
LINE
  5
23B
100
AcDbEntity
  8
0
100
AcDbLine
 62
2
  6
CONTINUOUS
 10
6.8
 20
0.0
 11
6.8
 21
1.25
  0
LINE
  5
23C
100
AcDbEntity
  8
0
100
AcDbLine
 62
2
  6
CONTINUOUS
 10
6.4
 20
0.0
 11
6.4
 21
0.625
  0
LINE
  5
23D
100
AcDbEntity
  8
0
100
AcDbLine
 62
2
  6
CONTINUOUS
 10
5.9
 20
0.0
 11
5.9
 21
0.625
  0
LINE
  5
23E
100
AcDbEntity
  8
0
100
AcDbLine
 62
2
  6
CONTINUOUS
 10
5.2
 20
0.0
 11
5.2
 21
0.625
  0
LINE
  5
23F
100
AcDbEntity
  8
0
100
AcDbLine
 62
2
  6
CONTINUOUS
 10
4.1
 20
0.0
 11
4.1
 21
1.25
  0
LINE
  5
240
100
AcDbEntity
  8
0
100
AcDbLine
 62
2
  6
CONTINUOUS
 10
-0.0
 20
0.0
 11
-0.0
 21
1.25
  0
MTEXT
  5
241
100
AcDbEntity
  8
0
100
AcDbMText
 62
2
  6
CONTINUOUS
  7
STANDARD
 71
2
 72
1
 10
6.6
 20
0.325
 30
0.0
 11
1.0
 21
0.0
 31
0.0
 44
0.9
  1
2
 40
0.125
 41
0.2
  0
MTEXT
  5
242
100
AcDbEntity
  8
0
100
AcDbMText
 62
2
  6
CONTINUOUS
  7
STANDARD
 71
2
 72
1
 10
6.15
 20
0.325
 30
0.0
 11
1.0
 21
0.0
 31
0.0
 44
0.9
  1
C
 40
0.125
 41
0.2
  0
MTEXT
  5
243
100
AcDbEntity
  8
0
100
AcDbMText
 62
2
  6
CONTINUOUS
  7
STANDARD
 71
2
 72
1
 10
5.55
 20
0.325
 30
0.0
 11
1.0
 21
0.0
 31
0.0
 44
0.9
  1
1.000
 40
0.125
 41
1.0
  0
MTEXT
  5
244
100
AcDbEntity
  8
0
100
AcDbMText
 62
2
  6
CONTINUOUS
  7
STANDARD
 71
2
 72
1
 10
4.65
 20
0.325
 30
0.0
 11
1.0
 21
0.0
 31
0.0
 44
0.9
  1
Nov-03-20
 40
0.125
 41
1.8
  0
MTEXT
  5
245
100
AcDbEntity
  8
0
100
AcDbMText
 62
2
  6
CONTINUOUS
  7
STANDARD
 71
2
 72
1
 10
2.05
 20
0.4625
 30
0.0
 11
1.0
 21
0.0
 31
0.0
 44
0.9
  1
T-10A Subplate ISO 05\PP to T, side ports
 40
0.125
 41
4.2
  0
MTEXT
  5
246
100
AcDbEntity
  8
0
100
AcDbMText
 62
2
  6
CONTINUOUS
  7
STANDARD
 71
1
 72
1
 10
6.45
 20
0.5625
 30
0.0
 11
1.0
 21
0.0
 31
0.0
 44
0.9
  1
SHEET
 40
0.06
 41
0.48
  0
MTEXT
  5
247
100
AcDbEntity
  8
0
100
AcDbMText
 62
2
  6
CONTINUOUS
  7
STANDARD
 71
1
 72
1
 10
5.95
 20
0.5625
 30
0.0
 11
1.0
 21
0.0
 31
0.0
 44
0.9
  1
DWG SIZE
 40
0.06
 41
0.768
  0
MTEXT
  5
248
100
AcDbEntity
  8
0
100
AcDbMText
 62
2
  6
CONTINUOUS
  7
STANDARD
 71
1
 72
1
 10
5.25
 20
0.5625
 30
0.0
 11
1.0
 21
0.0
 31
0.0
 44
0.9
  1
SCALE
 40
0.06
 41
0.48
  0
MTEXT
  5
249
100
AcDbEntity
  8
0
100
AcDbMText
 62
2
  6
CONTINUOUS
  7
STANDARD
 71
1
 72
1
 10
4.15
 20
0.5625
 30
0.0
 11
1.0
 21
0.0
 31
0.0
 44
0.9
  1
DATE
 40
0.06
 41
0.384
  0
MTEXT
  5
24A
100
AcDbEntity
  8
0
100
AcDbMText
 62
2
  6
CONTINUOUS
  7
STANDARD
 71
1
 72
1
 10
0.05
 20
0.5625
 30
0.0
 11
1.0
 21
0.0
 31
0.0
 44
0.9
  1
DESCRIPTION
 40
0.06
 41
1.056
  0
MTEXT
  5
24B
100
AcDbEntity
  8
0
100
AcDbMText
 62
2
  6
CONTINUOUS
  7
STANDARD
 71
2
 72
1
 10
5.45
 20
1.0375
 30
0.0
 11
1.0
 21
0.0
 31
0.0
 44
0.9
  1
ALL DIMENSIONS IN INCH\PVIEWS ARE THIRD ANGLE
 40
0.12
 41
4.224
  0
MTEXT
  5
24C
100
AcDbEntity
  8
0
100
AcDbMText
 62
2
  6
CONTINUOUS
  7
STANDARD
 71
2
 72
1
 10
2.05
 20
0.95
 30
0.0
 11
1.0
 21
0.0
 31
0.0
 44
0.9
  1
FSK
 40
0.125
 41
0.6
  0
MTEXT
  5
24D
100
AcDbEntity
  8
0
100
AcDbMText
 62
2
  6
CONTINUOUS
  7
STANDARD
 71
1
 72
1
 10
0.05
 20
1.1875
 30
0.0
 11
1.0
 21
0.0
 31
0.0
 44
0.9
  1
MODEL
 40
0.06
 41
0.48
  0
ENDBLK
  5
24E
100
AcDbEntity
  8
0
  6
BYBLOCK
 62
0
100
AcDbBlockEnd
  0
BLOCK
  5
24F
100
AcDbEntity
  8
0
100
AcDbBlockBegin
  2
*T2
 70
1
 10
0.0
 20
0.0
  3
*T2
  1

  0
LINE
  5
250
100
AcDbEntity
  8
0
100
AcDbLine
 62
2
  6
CONTINUOUS
 10
0.0
 20
0.0
 11
9.055
 21
0.0
  0
LINE
  5
251
100
AcDbEntity
  8
0
100
AcDbLine
 62
2
  6
CONTINUOUS
 10
0.0
 20
0.0
 11
0.0
 21
-2.594
  0
LINE
  5
252
100
AcDbEntity
  8
0
100
AcDbLine
 62
2
  6
CONTINUOUS
 10
0.0
 20
-0.344
 11
9.055
 21
-0.344
  0
LINE
  5
253
100
AcDbEntity
  8
0
100
AcDbLine
 62
2
  6
CONTINUOUS
 10
0.0
 20
-0.594
 11
9.055
 21
-0.594
  0
LINE
  5
254
100
AcDbEntity
  8
0
100
AcDbLine
 62
2
  6
CONTINUOUS
 10
0.0
 20
-0.844
 11
9.055
 21
-0.844
  0
LINE
  5
255
100
AcDbEntity
  8
0
100
AcDbLine
 62
2
  6
CONTINUOUS
 10
0.0
 20
-1.094
 11
9.055
 21
-1.094
  0
LINE
  5
256
100
AcDbEntity
  8
0
100
AcDbLine
 62
2
  6
CONTINUOUS
 10
0.0
 20
-1.344
 11
9.055
 21
-1.344
  0
LINE
  5
257
100
AcDbEntity
  8
0
100
AcDbLine
 62
2
  6
CONTINUOUS
 10
0.0
 20
-1.594
 11
9.055
 21
-1.594
  0
LINE
  5
258
100
AcDbEntity
  8
0
100
AcDbLine
 62
2
  6
CONTINUOUS
 10
0.0
 20
-1.844
 11
9.055
 21
-1.844
  0
LINE
  5
259
100
AcDbEntity
  8
0
100
AcDbLine
 62
2
  6
CONTINUOUS
 10
0.0
 20
-2.094
 11
9.055
 21
-2.094
  0
LINE
  5
25A
100
AcDbEntity
  8
0
100
AcDbLine
 62
2
  6
CONTINUOUS
 10
0.0
 20
-2.344
 11
9.055
 21
-2.344
  0
LINE
  5
25B
100
AcDbEntity
  8
0
100
AcDbLine
 62
2
  6
CONTINUOUS
 10
0.0
 20
-2.594
 11
9.055
 21
-2.594
  0
LINE
  5
25C
100
AcDbEntity
  8
0
100
AcDbLine
 62
2
  6
CONTINUOUS
 10
3.055
 20
0.0
 11
3.055
 21
-2.594
  0
LINE
  5
25D
100
AcDbEntity
  8
0
100
AcDbLine
 62
2
  6
CONTINUOUS
 10
9.055
 20
0.0
 11
9.055
 21
-2.594
  0
MTEXT
  5
25E
100
AcDbEntity
  8
0
100
AcDbMText
 62
2
  6
CONTINUOUS
  7
STANDARD
 71
2
 72
1
 10
1.5275
 20
-0.0995
 30
0.0
 11
1.0
 21
0.0
 31
0.0
 44
0.9
  1
Technical Data
 40
0.145
 41
3.248
  0
MTEXT
  5
25F
100
AcDbEntity
  8
0
100
AcDbMText
 62
2
  6
CONTINUOUS
  7
STANDARD
 71
2
 72
1
 10
4.555
 20
-0.0995
 30
0.0
 11
1.0
 21
0.0
 31
0.0
 44
0.9
  1
U.S. Units
 40
0.145
 41
2.32
  0
MTEXT
  5
260
100
AcDbEntity
  8
0
100
AcDbMText
 62
2
  6
CONTINUOUS
  7
STANDARD
 71
2
 72
1
 10
7.555
 20
-0.0995
 30
0.0
 11
1.0
 21
0.0
 31
0.0
 44
0.9
  1
Metric Units
 40
0.145
 41
2.784
  0
MTEXT
  5
261
100
AcDbEntity
  8
0
100
AcDbMText
 62
2
  6
CONTINUOUS
  7
STANDARD
 71
2
 72
1
 10
1.5275
 20
-0.4065
 30
0.0
 11
1.0
 21
0.0
 31
0.0
 44
0.9
  1
Cavity
 40
0.125
 41
1.2
  0
MTEXT
  5
262
100
AcDbEntity
  8
0
100
AcDbMText
 62
2
  6
CONTINUOUS
  7
STANDARD
 71
2
 72
1
 10
6.055
 20
-0.4065
 30
0.0
 11
1.0
 21
0.0
 31
0.0
 44
0.9
  1
T-10A
 40
0.125
 41
1.0
  0
MTEXT
  5
263
100
AcDbEntity
  8
0
100
AcDbMText
 62
2
  6
CONTINUOUS
  7
STANDARD
 71
2
 72
1
 10
1.5275
 20
-0.6565
 30
0.0
 11
1.0
 21
0.0
 31
0.0
 44
0.9
  1
Body Features
 40
0.125
 41
2.6
  0
MTEXT
  5
264
100
AcDbEntity
  8
0
100
AcDbMText
 62
2
  6
CONTINUOUS
  7
STANDARD
 71
2
 72
1
 10
6.055
 20
-0.6565
 30
0.0
 11
1.0
 21
0.0
 31
0.0
 44
0.9
  1
P to T, side ports
 40
0.125
 41
3.6
  0
MTEXT
  5
265
100
AcDbEntity
  8
0
100
AcDbMText
 62
2
  6
CONTINUOUS
  7
STANDARD
 71
2
 72
1
 10
1.5275
 20
-0.9065
 30
0.0
 11
1.0
 21
0.0
 31
0.0
 44
0.9
  1
Body Type
 40
0.125
 41
1.8
  0
MTEXT
  5
266
100
AcDbEntity
  8
0
100
AcDbMText
 62
2
  6
CONTINUOUS
  7
STANDARD
 71
2
 72
1
 10
6.055
 20
-0.9065
 30
0.0
 11
1.0
 21
0.0
 31
0.0
 44
0.9
  1
Subplate
 40
0.125
 41
1.6
  0
MTEXT
  5
267
100
AcDbEntity
  8
0
100
AcDbMText
 62
2
  6
CONTINUOUS
  7
STANDARD
 71
2
 72
1
 10
1.5275
 20
-1.1565
 30
0.0
 11
1.0
 21
0.0
 31
0.0
 44
0.9
  1
Interface
 40
0.125
 41
1.8
  0
MTEXT
  5
268
100
AcDbEntity
  8
0
100
AcDbMText
 62
2
  6
CONTINUOUS
  7
STANDARD
 71
2
 72
1
 10
6.055
 20
-1.1565
 30
0.0
 11
1.0
 21
0.0
 31
0.0
 44
0.9
  1
ISO 05
 40
0.125
 41
1.2
  0
MTEXT
  5
269
100
AcDbEntity
  8
0
100
AcDbMText
 62
2
  6
CONTINUOUS
  7
STANDARD
 71
2
 72
1
 10
1.5275
 20
-1.4065
 30
0.0
 11
1.0
 21
0.0
 31
0.0
 44
0.9
  1
Open Cavity Quantity
 40
0.125
 41
4.0
  0
MTEXT
  5
26A
100
AcDbEntity
  8
0
100
AcDbMText
 62
2
  6
CONTINUOUS
  7
STANDARD
 71
2
 72
1
 10
6.055
 20
-1.4065
 30
0.0
 11
1.0
 21
0.0
 31
0.0
 44
0.9
  1
1
 40
0.125
 41
0.2
  0
MTEXT
  5
26B
100
AcDbEntity
  8
0
100
AcDbMText
 62
2
  6
CONTINUOUS
  7
STANDARD
 71
2
 72
1
 10
1.5275
 20
-1.6565
 30
0.0
 11
1.0
 21
0.0
 31
0.0
 44
0.9
  1
Weight
 40
0.125
 41
1.2
  0
MTEXT
  5
26C
100
AcDbEntity
  8
0
100
AcDbMText
 62
2
  6
CONTINUOUS
  7
STANDARD
 71
2
 72
1
 10
4.555
 20
-1.6565
 30
0.0
 11
1.0
 21
0.0
 31
0.0
 44
0.9
  1
2.799 lb.
 40
0.125
 41
1.8
  0
MTEXT
  5
26D
100
AcDbEntity
  8
0
100
AcDbMText
 62
2
  6
CONTINUOUS
  7
STANDARD
 71
2
 72
1
 10
7.555
 20
-1.6565
 30
0.0
 11
1.0
 21
0.0
 31
0.0
 44
0.9
  1
1,270 kg.
 40
0.125
 41
1.8
  0
MTEXT
  5
26E
100
AcDbEntity
  8
0
100
AcDbMText
 62
2
  6
CONTINUOUS
  7
STANDARD
 71
2
 72
1
 10
1.5275
 20
-1.9065
 30
0.0
 11
1.0
 21
0.0
 31
0.0
 44
0.9
  1
Mounting Hole Diameter
 40
0.125
 41
4.4
  0
MTEXT
  5
26F
100
AcDbEntity
  8
0
100
AcDbMText
 62
2
  6
CONTINUOUS
  7
STANDARD
 71
2
 72
1
 10
4.555
 20
-1.9065
 30
0.0
 11
1.0
 21
0.0
 31
0.0
 44
0.9
  1
.44 in.
 40
0.125
 41
1.4
  0
MTEXT
  5
270
100
AcDbEntity
  8
0
100
AcDbMText
 62
2
  6
CONTINUOUS
  7
STANDARD
 71
2
 72
1
 10
7.555
 20
-1.9065
 30
0.0
 11
1.0
 21
0.0
 31
0.0
 44
0.9
  1
11,1 mm
 40
0.125
 41
1.4
  0
MTEXT
  5
271
100
AcDbEntity
  8
0
100
AcDbMText
 62
2
  6
CONTINUOUS
  7
STANDARD
 71
2
 72
1
 10
1.5275
 20
-2.1565
 30
0.0
 11
1.0
 21
0.0
 31
0.0
 44
0.9
  1
Mounting Hole Depth
 40
0.125
 41
3.8
  0
MTEXT
  5
272
100
AcDbEntity
  8
0
100
AcDbMText
 62
2
  6
CONTINUOUS
  7
STANDARD
 71
2
 72
1
 10
6.055
 20
-2.1565
 30
0.0
 11
1.0
 21
0.0
 31
0.0
 44
0.9
  1
Through
 40
0.125
 41
1.4
  0
MTEXT
  5
273
100
AcDbEntity
  8
0
100
AcDbMText
 62
2
  6
CONTINUOUS
  7
STANDARD
 71
2
 72
1
 10
1.5275
 20
-2.4065
 30
0.0
 11
1.0
 21
0.0
 31
0.0
 44
0.9
  1
Mounting Hole Quantity
 40
0.125
 41
4.4
  0
MTEXT
  5
274
100
AcDbEntity
  8
0
100
AcDbMText
 62
2
  6
CONTINUOUS
  7
STANDARD
 71
2
 72
1
 10
6.055
 20
-2.4065
 30
0.0
 11
1.0
 21
0.0
 31
0.0
 44
0.9
  1
4
 40
0.125
 41
0.2
  0
ENDBLK
  5
275
100
AcDbEntity
  8
0
  6
BYBLOCK
 62
0
100
AcDbBlockEnd
  0
BLOCK
  5
276
100
AcDbEntity
  8
0
100
AcDbBlockBegin
  2
*T3
 70
1
 10
0.0
 20
0.0
  3
*T3
  1

  0
LINE
  5
277
100
AcDbEntity
  8
0
100
AcDbLine
 62
2
  6
CONTINUOUS
 10
0.0
 20
0.0
 11
4.6
 21
0.0
  0
LINE
  5
278
100
AcDbEntity
  8
0
100
AcDbLine
 62
2
  6
CONTINUOUS
 10
0.0
 20
0.0
 11
0.0
 21
-0.93775
  0
LINE
  5
279
100
AcDbEntity
  8
0
100
AcDbLine
 62
2
  6
CONTINUOUS
 10
0.0
 20
-0.34375
 11
4.6
 21
-0.34375
  0
LINE
  5
27A
100
AcDbEntity
  8
0
100
AcDbLine
 62
2
  6
CONTINUOUS
 10
0.0
 20
-0.68775
 11
4.6
 21
-0.68775
  0
LINE
  5
27B
100
AcDbEntity
  8
0
100
AcDbLine
 62
2
  6
CONTINUOUS
 10
0.0
 20
-0.93775
 11
4.6
 21
-0.93775
  0
LINE
  5
27C
100
AcDbEntity
  8
0
100
AcDbLine
 62
2
  6
CONTINUOUS
 10
1.3
 20
-0.34375
 11
1.3
 21
-0.93775
  0
LINE
  5
27D
100
AcDbEntity
  8
0
100
AcDbLine
 62
2
  6
CONTINUOUS
 10
3.3
 20
-0.34375
 11
3.3
 21
-0.93775
  0
LINE
  5
27E
100
AcDbEntity
  8
0
100
AcDbLine
 62
2
  6
CONTINUOUS
 10
4.6
 20
0.0
 11
4.6
 21
-0.93775
  0
MTEXT
  5
27F
100
AcDbEntity
  8
0
100
AcDbMText
 62
2
  6
CONTINUOUS
  7
STANDARD
 71
2
 72
1
 10
2.3
 20
-0.099375
 30
0.0
 11
1.0
 21
0.0
 31
0.0
 44
0.9
  1
Port Headings
 40
0.145
 41
3.016
  0
MTEXT
  5
280
100
AcDbEntity
  8
0
100
AcDbMText
 62
2
  6
CONTINUOUS
  7
STANDARD
 71
2
 72
1
 10
0.65
 20
-0.44325
 30
0.0
 11
1.0
 21
0.0
 31
0.0
 44
0.9
  1
Product
 40
0.145
 41
1.624
  0
MTEXT
  5
281
100
AcDbEntity
  8
0
100
AcDbMText
 62
2
  6
CONTINUOUS
  7
STANDARD
 71
2
 72
1
 10
2.3
 20
-0.44325
 30
0.0
 11
1.0
 21
0.0
 31
0.0
 44
0.9
  1
Port
 40
0.145
 41
0.928
  0
MTEXT
  5
282
100
AcDbEntity
  8
0
100
AcDbMText
 62
2
  6
CONTINUOUS
  7
STANDARD
 71
2
 72
1
 10
3.95
 20
-0.44325
 30
0.0
 11
1.0
 21
0.0
 31
0.0
 44
0.9
  1
Size
 40
0.145
 41
0.928
  0
MTEXT
  5
283
100
AcDbEntity
  8
0
100
AcDbMText
 62
2
  6
CONTINUOUS
  7
STANDARD
 71
2
 72
1
 10
0.65
 20
-0.75025
 30
0.0
 11
1.0
 21
0.0
 31
0.0
 44
0.9
  1
FSK
 40
0.125
 41
0.6
  0
MTEXT
  5
284
100
AcDbEntity
  8
0
100
AcDbMText
 62
2
  6
CONTINUOUS
  7
STANDARD
 71
2
 72
1
 10
2.3
 20
-0.75025
 30
0.0
 11
1.0
 21
0.0
 31
0.0
 44
0.9
  1
Ports A, B, P, T
 40
0.125
 41
3.2
  0
MTEXT
  5
285
100
AcDbEntity
  8
0
100
AcDbMText
 62
2
  6
CONTINUOUS
  7
STANDARD
 71
2
 72
1
 10
3.95
 20
-0.75025
 30
0.0
 11
1.0
 21
0.0
 31
0.0
 44
0.9
  1
SAE 10
 40
0.125
 41
1.2
  0
ENDBLK
  5
286
100
AcDbEntity
  8
0
  6
BYBLOCK
 62
0
100
AcDbBlockEnd
  0
ENDSEC
  0
SECTION
  2
ENTITIES
  0
IMAGE
  5
287
100
AcDbEntity
  8
0
100
AcDbRasterImage
 62
7
  6
CONTINUOUS
 10
19.2297077316
 20
0.3094318264
 30
0.0
 11
0.0066666667
 21
0.0
 31
0.0
 12
0.0
 22
0.0066666667
 32
0.0
 13
369.0
 23
92.0
340
       3A4
 70
9
280
0
281
50
282
50
283
0
360
       39E
 71
1
 91
2
 14
-0.5
 24
-0.5
 14
368.5
 24
91.5
  0
INSERT
  5
288
100
AcDbEntity
  8
0
100
AcDbBlockReference
 62
2
  6
CONTINUOUS
  2
SUN_FIRST_THIRD_ANGLE_BL0
 10
20.4816717061
 20
1.2289683772
  0
ACAD_TABLE
  5
289
100
AcDbEntity
  8
0
 62
2
  6
CONTINUOUS
100
AcDbBlockReference
  2
*T1
 10
12.42375
 20
0.30125
 30
0.0
100
AcDbTable
342
       3A6
343
20F
 11
1.0
 21
0.0
 31
0.0
 90
6
 91
4
 92
6
 93
20
 94
0
 95
0
 96
0
 70
1
 41
0.0
141
0.525
141
0.1
141
0.525
141
0.1
142
4.1
142
1.1
142
0.7
142
0.5
142
0.4
142
2.475
171
1
172
0
173
0
174
0
175
1
176
1
 91
33
178
0
145
0.0
301
CELL_VALUE
 90
4
  1
T-10A Subplate ISO 05\PP to T, side ports
304
ACVALUE_END
170
2
140
0.125
171
1
172
0
173
0
174
0
175
1
176
1
 91
33
178
0
145
0.0
301
CELL_VALUE
 90
4
  1
Nov-03-20
304
ACVALUE_END
170
5
140
0.125
171
1
172
0
173
0
174
0
175
1
176
1
 91
33
178
0
145
0.0
301
CELL_VALUE
 90
4
  1
1.000
304
ACVALUE_END
170
5
140
0.125
171
1
172
0
173
0
174
0
175
1
176
1
 91
33
178
0
145
0.0
301
CELL_VALUE
 90
4
  1
C
304
ACVALUE_END
170
5
140
0.125
171
1
172
0
173
0
174
0
175
1
176
1
 91
33
178
0
145
0.0
301
CELL_VALUE
 90
4
  1
2
304
ACVALUE_END
170
5
140
0.125
171
1
172
0
173
0
174
0
175
1
176
1
 91
33
178
0
145
0.0
301
CELL_VALUE
 90
4
  1
 
304
ACVALUE_END
170
1
140
0.125
171
1
172
0
173
0
174
0
175
1
176
1
 91
33
178
0
145
0.0
301
CELL_VALUE
 90
4
  1
DESCRIPTION
304
ACVALUE_END
170
1
140
0.06
171
1
172
0
173
0
174
0
175
1
176
1
 91
33
178
0
145
0.0
301
CELL_VALUE
 90
4
  1
DATE
304
ACVALUE_END
170
1
140
0.06
171
1
172
0
173
0
174
0
175
1
176
1
 91
33
178
0
145
0.0
301
CELL_VALUE
 90
4
  1
SCALE
304
ACVALUE_END
170
1
140
0.06
171
1
172
0
173
0
174
0
175
1
176
1
 91
33
178
0
145
0.0
301
CELL_VALUE
 90
4
  1
DWG SIZE
304
ACVALUE_END
170
1
140
0.06
171
1
172
0
173
0
174
0
175
1
176
1
 91
33
178
0
145
0.0
301
CELL_VALUE
 90
4
  1
SHEET
304
ACVALUE_END
170
1
140
0.06
171
1
172
0
173
0
174
0
175
1
176
1
 91
33
178
0
145
0.0
301
CELL_VALUE
 90
4
  1
 
304
ACVALUE_END
170
1
140
0.125
171
1
172
0
173
0
174
0
175
1
176
1
 91
33
178
0
145
0.0
301
CELL_VALUE
 90
4
  1
FSK
304
ACVALUE_END
170
5
140
0.125
171
1
172
0
173
0
174
0
175
4
176
1
 91
33
178
0
145
0.0
301
CELL_VALUE
 90
4
  1
ALL DIMENSIONS IN INCH\PVIEWS ARE THIRD ANGLE
304
ACVALUE_END
170
5
140
0.12
171
1
172
0
173
1
174
0
175
1
176
1
 91
1
178
0
145
0.0
170
1
171
1
172
0
173
1
174
0
175
1
176
1
 91
1
178
0
145
0.0
170
1
171
1
172
0
173
1
174
0
175
1
176
1
 91
1
178
0
145
0.0
170
5
171
1
172
0
173
0
174
0
175
1
176
1
 91
33
178
0
145
0.0
301
CELL_VALUE
 90
4
  1
 
304
ACVALUE_END
170
1
140
0.125
171
1
172
0
173
0
174
0
175
1
176
1
 91
33
178
0
145
0.0
301
CELL_VALUE
 90
4
  1
MODEL
304
ACVALUE_END
170
1
140
0.06
171
1
172
0
173
0
174
0
175
1
176
1
 91
33
178
0
145
0.0
301
CELL_VALUE
 90
4
  1
 
304
ACVALUE_END
170
1
140
0.125
171
1
172
0
173
0
174
0
175
1
176
1
 91
33
178
0
145
0.0
301
CELL_VALUE
 90
4
  1
 
304
ACVALUE_END
170
1
140
0.125
171
1
172
0
173
0
174
0
175
1
176
1
 91
33
178
0
145
0.0
301
CELL_VALUE
 90
4
  1
 
304
ACVALUE_END
170
1
140
0.125
171
1
172
0
173
0
174
0
175
1
176
1
 91
33
178
0
145
0.0
301
CELL_VALUE
 90
4
  1
 
304
ACVALUE_END
170
1
140
0.125
171
1
172
0
173
0
174
0
175
1
176
1
 91
33
178
0
145
0.0
301
CELL_VALUE
 90
4
  1
 
304
ACVALUE_END
170
1
140
0.125
  0
ACAD_TABLE
  5
28A
100
AcDbEntity
  8
0
 62
2
  6
CONTINUOUS
100
AcDbBlockReference
  2
*T2
 10
12.4237499994
 20
16.47875
 30
0.0
100
AcDbTable
342
       3A5
343
210
 11
1.0
 21
0.0
 31
0.0
 90
22
 91
10
 92
3
 93
16
 94
0
 95
0
 96
0
 41
0.028
141
0.344
141
0.25
141
0.25
141
0.25
141
0.25
141
0.25
141
0.25
141
0.25
141
0.25
141
0.25
142
3.055
142
3.0
142
3.0
171
1
172
0
173
0
174
0
175
1
176
1
 91
33
178
0
145
0.0
301
CELL_VALUE
 90
4
  1
Technical Data
304
ACVALUE_END
170
5
140
0.145
171
1
172
0
173
0
174
0
175
1
176
1
 91
33
178
0
145
0.0
301
CELL_VALUE
 90
4
  1
U.S. Units
304
ACVALUE_END
170
5
140
0.145
171
1
172
0
173
0
174
0
175
1
176
1
 91
33
178
0
145
0.0
301
CELL_VALUE
 90
4
  1
Metric Units
304
ACVALUE_END
170
5
140
0.145
171
1
172
0
173
0
174
0
175
1
176
1
 91
33
178
0
145
0.0
301
CELL_VALUE
 90
4
  1
Cavity
304
ACVALUE_END
170
5
140
0.125
171
1
172
0
173
0
174
0
175
2
176
1
 91
33
178
0
145
0.0
301
CELL_VALUE
 90
4
  1
T-10A
304
ACVALUE_END
170
5
140
0.125
171
1
172
0
173
1
174
0
175
1
176
1
 91
1
178
0
145
0.0
170
1
171
1
172
0
173
0
174
0
175
1
176
1
 91
33
178
0
145
0.0
301
CELL_VALUE
 90
4
  1
Body Features
304
ACVALUE_END
170
5
140
0.125
171
1
172
0
173
0
174
0
175
2
176
1
 91
33
178
0
145
0.0
301
CELL_VALUE
 90
4
  1
P to T, side ports
304
ACVALUE_END
170
5
140
0.125
171
1
172
0
173
1
174
0
175
1
176
1
 91
1
178
0
145
0.0
170
1
171
1
172
0
173
0
174
0
175
1
176
1
 91
33
178
0
145
0.0
301
CELL_VALUE
 90
4
  1
Body Type
304
ACVALUE_END
170
5
140
0.125
171
1
172
0
173
0
174
0
175
2
176
1
 91
33
178
0
145
0.0
301
CELL_VALUE
 90
4
  1
Subplate
304
ACVALUE_END
170
5
140
0.125
171
1
172
0
173
1
174
0
175
1
176
1
 91
1
178
0
145
0.0
170
1
171
1
172
0
173
0
174
0
175
1
176
1
 91
33
178
0
145
0.0
301
CELL_VALUE
 90
4
  1
Interface
304
ACVALUE_END
170
5
140
0.125
171
1
172
0
173
0
174
0
175
2
176
1
 91
33
178
0
145
0.0
301
CELL_VALUE
 90
4
  1
ISO 05
304
ACVALUE_END
170
5
140
0.125
171
1
172
0
173
1
174
0
175
1
176
1
 91
1
178
0
145
0.0
170
1
171
1
172
0
173
0
174
0
175
1
176
1
 91
33
178
0
145
0.0
301
CELL_VALUE
 90
4
  1
Open Cavity Quantity
304
ACVALUE_END
170
5
140
0.125
171
1
172
0
173
0
174
0
175
2
176
1
 91
33
178
0
145
0.0
301
CELL_VALUE
 90
4
  1
1
304
ACVALUE_END
170
5
140
0.125
171
1
172
0
173
1
174
0
175
1
176
1
 91
1
178
0
145
0.0
170
1
171
1
172
0
173
0
174
0
175
1
176
1
 91
33
178
0
145
0.0
301
CELL_VALUE
 90
4
  1
Weight
304
ACVALUE_END
170
5
140
0.125
171
1
172
0
173
0
174
0
175
1
176
1
 91
33
178
0
145
0.0
301
CELL_VALUE
 90
4
  1
2.799 lb.
304
ACVALUE_END
170
5
140
0.125
171
1
172
0
173
0
174
0
175
1
176
1
 91
33
178
0
145
0.0
301
CELL_VALUE
 90
4
  1
1,270 kg.
304
ACVALUE_END
170
5
140
0.125
171
1
172
0
173
0
174
0
175
1
176
1
 91
33
178
0
145
0.0
301
CELL_VALUE
 90
4
  1
Mounting Hole Diameter
304
ACVALUE_END
170
5
140
0.125
171
1
172
0
173
0
174
0
175
1
176
1
 91
33
178
0
145
0.0
301
CELL_VALUE
 90
4
  1
.44 in.
304
ACVALUE_END
170
5
140
0.125
171
1
172
0
173
0
174
0
175
1
176
1
 91
33
178
0
145
0.0
301
CELL_VALUE
 90
4
  1
11,1 mm
304
ACVALUE_END
170
5
140
0.125
171
1
172
0
173
0
174
0
175
1
176
1
 91
33
178
0
145
0.0
301
CELL_VALUE
 90
4
  1
Mounting Hole Depth
304
ACVALUE_END
170
5
140
0.125
171
1
172
0
173
0
174
0
175
2
176
1
 91
33
178
0
145
0.0
301
CELL_VALUE
 90
4
  1
Through
304
ACVALUE_END
170
5
140
0.125
171
1
172
0
173
1
174
0
175
1
176
1
 91
1
178
0
145
0.0
170
1
171
1
172
0
173
0
174
0
175
1
176
1
 91
33
178
0
145
0.0
301
CELL_VALUE
 90
4
  1
Mounting Hole Quantity
304
ACVALUE_END
170
5
140
0.125
171
1
172
0
173
0
174
0
175
2
176
1
 91
33
178
0
145
0.0
301
CELL_VALUE
 90
4
  1
4
304
ACVALUE_END
170
5
140
0.125
171
1
172
0
173
1
174
0
175
1
176
1
 91
1
178
0
145
0.0
170
1
  0
ACAD_TABLE
  5
28B
100
AcDbEntity
  8
0
 62
2
  6
CONTINUOUS
100
AcDbBlockReference
  2
*T3
 10
0.52125
 20
1.459
 30
0.0
100
AcDbTable
342
       3A5
343
211
 11
1.0
 21
0.0
 31
0.0
 90
22
 91
3
 92
3
 93
16
 94
0
 95
0
 96
0
 41
0.05
141
0.34375
141
0.344
141
0.25
142
1.3
142
2.0
142
1.3
171
1
172
0
173
0
174
0
175
3
176
1
 91
33
178
0
145
0.0
301
CELL_VALUE
 90
4
  1
Port Headings
304
ACVALUE_END
170
5
140
0.145
171
1
172
0
173
1
174
0
175
1
176
1
 91
1
178
0
145
0.0
170
1
171
1
172
0
173
1
174
0
175
1
176
1
 91
1
178
0
145
0.0
170
1
171
1
172
0
173
0
174
0
175
1
176
1
 91
33
178
0
145
0.0
301
CELL_VALUE
 90
4
  1
Product
304
ACVALUE_END
170
5
140
0.145
171
1
172
0
173
0
174
0
175
1
176
1
 91
33
178
0
145
0.0
301
CELL_VALUE
 90
4
  1
Port
304
ACVALUE_END
170
5
140
0.145
171
1
172
0
173
0
174
0
175
1
176
1
 91
33
178
0
145
0.0
301
CELL_VALUE
 90
4
  1
Size
304
ACVALUE_END
170
5
140
0.145
171
1
172
0
173
0
174
0
175
1
176
1
 91
33
178
0
145
0.0
301
CELL_VALUE
 90
4
  1
FSK
304
ACVALUE_END
170
5
140
0.125
171
1
172
0
173
0
174
0
175
1
176
1
 91
33
178
0
145
0.0
301
CELL_VALUE
 90
4
  1
Ports A, B, P, T
304
ACVALUE_END
170
5
140
0.125
171
1
172
0
173
0
174
0
175
1
176
1
 91
33
178
0
145
0.0
301
CELL_VALUE
 90
4
  1
SAE 10
304
ACVALUE_END
170
5
140
0.125
  0
MTEXT
  5
28C
100
AcDbEntity
  8
0
100
AcDbMText
 62
2
  6
CONTINUOUS
  7
STANDARD
 71
1
 72
1
 10
0.52125
 20
5.75995
 30
0.0
 11
1.0
 21
0.0
 31
0.0
 44
0.6
  3
Notes\P \P1. Important: Carefully consider\P   the maximum system pressure. The\P   pressure rating of the manifold is\P   dependent on the manifold material,\P   with the port type/size a secondary\P   consideration. Manifolds\P   constructed of alu
  1
minum are not\P   rated for pressures higher than\P   3000 psi (210 bar), regardless of\P   the port type/size specified.
 40
0.1
 41
3.04
  0
LINE
  5
28D
100
AcDbEntity
  8
0
100
AcDbLine
 62
7
  6
CONTINUOUS
 10
0.30125
 20
0.30125
 11
0.30125
 21
16.69875
  0
LINE
  5
28E
100
AcDbEntity
  8
0
100
AcDbLine
 62
7
  6
CONTINUOUS
 10
0.30125
 20
0.30125
 11
21.69875
 21
0.30125
  0
LINE
  5
28F
100
AcDbEntity
  8
0
100
AcDbLine
 62
7
  6
CONTINUOUS
 10
0.30125
 20
16.69875
 11
21.69875
 21
16.69875
  0
LINE
  5
290
100
AcDbEntity
  8
0
100
AcDbLine
 62
7
  6
CONTINUOUS
 10
21.69875
 20
0.30125
 11
21.69875
 21
16.69875
  0
LINE
  5
291
100
AcDbEntity
  8
0
100
AcDbLine
 62
7
  6
CONTINUOUS
 10
8.8173527899
 20
10.5650578031
 11
9.318943676
 21
11.0495574229
  0
LINE
  5
292
100
AcDbEntity
  8
0
100
AcDbLine
 62
7
  6
CONTINUOUS
 10
10.1606144853
 20
10.8310490793
 11
10.1138431701
 21
10.7858714553
  0
LINE
  5
293
100
AcDbEntity
  8
02___PRT_ALL_AXES
100
AcDbLine
 62
7
  6
CONTINUOUS
 10
9.9863599485
 20
10.7743195548
 11
10.0316413047
 21
10.8164586102
  0
LINE
  5
294
100
AcDbEntity
  8
0
100
AcDbLine
 62
7
  6
CONTINUOUS
 10
12.681056324
 20
5.9504425771
 11
8.8173527899
 21
6.2183913273
  0
LINE
  5
295
100
AcDbEntity
  8
0
100
AcDbLine
 62
4
  6
CONTINUOUS
 10
10.7038060056
 20
6.2469431235
 11
10.7472726693
 21
6.2439287001
  0
LINE
  5
296
100
AcDbEntity
  8
0
100
AcDbLine
 62
7
  6
CONTINUOUS
 10
8.8173527899
 20
10.5650578031
 11
8.8173527899
 21
6.2183913273
  0
LINE
  5
297
100
AcDbEntity
  8
0
100
AcDbLine
 62
4
  6
CONTINUOUS
 10
8.9743157456
 20
7.4100836317
 11
8.9743157456
 21
7.2941725283
  0
LINE
  5
298
100
AcDbEntity
  8
0
100
AcDbLine
 62
7
  6
CONTINUOUS
 10
10.4161779717
 20
10.7649044656
 11
10.4629492869
 21
10.8100820896
  0
LINE
  5
299
100
AcDbEntity
  8
0
100
AcDbLine
 62
4
  6
CONTINUOUS
 10
11.6863366145
 20
6.2995450293
 11
11.6518392545
 21
6.3019374293
  0
LINE
  5
29A
100
AcDbEntity
  8
0
100
AcDbLine
 62
4
  6
CONTINUOUS
 10
11.61044245
 20
6.3048083075
 11
11.5897440247
 21
6.3062437481
  0
LINE
  5
29B
100
AcDbEntity
  8
0
100
AcDbLine
 62
4
  6
CONTINUOUS
 10
11.5368481003
 20
6.309912093
 11
11.5092502306
 21
6.3118260117
  0
LINE
  5
29C
100
AcDbEntity
  8
0
100
AcDbLine
 62
4
  6
CONTINUOUS
 10
11.1320791479
 20
6.3379829152
 11
11.0975817993
 21
6.3403753144
  0
LINE
  5
29D
100
AcDbEntity
  8
0
100
AcDbLine
 62
4
  6
CONTINUOUS
 10
11.3505623881
 20
6.322831051
 11
11.3919592156
 21
6.3199601712
  0
LINE
  5
29E
100
AcDbEntity
  8
0
100
AcDbLine
 62
4
  6
CONTINUOUS
 10
11.7392325851
 20
6.2958766813
 11
11.7806293895
 21
6.2930058031
  0
LINE
  5
29F
100
AcDbEntity
  8
0
100
AcDbLine
 62
4
  6
CONTINUOUS
 10
11.1941743834
 20
6.36127448
 11
11.2309715582
 21
6.3587225872
  0
LINE
  5
2A0
100
AcDbEntity
  8
0
100
AcDbLine
 62
4
  6
CONTINUOUS
 10
11.7668304547
 20
6.3491585306
 11
11.7392325851
 21
6.3510724493
  0
LINE
  5
2A1
100
AcDbEntity
  8
0
100
AcDbLine
 62
4
  6
CONTINUOUS
 10
11.3781602808
 20
6.3761128987
 11
11.3505623881
 21
6.378026819
  0
LINE
  5
2A2
100
AcDbEntity
  8
0
100
AcDbLine
 62
4
  6
CONTINUOUS
 10
11.0975817993
 20
6.4369679042
 11
11.1320791479
 21
6.4345755049
  0
LINE
  5
2A3
100
AcDbEntity
  8
0
100
AcDbLine
 62
4
  6
CONTINUOUS
 10
11.2677687331
 20
6.4251654002
 11
11.3229644954
 21
6.4213375611
  0
LINE
  5
2A4
100
AcDbEntity
  8
0
100
AcDbLine
 62
4
  6
CONTINUOUS
 10
11.3505623881
 20
6.4194236408
 11
11.3919592156
 21
6.416552761
  0
LINE
  5
2A5
100
AcDbEntity
  8
0
100
AcDbLine
 62
4
  6
CONTINUOUS
 10
11.5092502306
 20
6.4084186015
 11
11.5368481003
 21
6.4065046828
  0
LINE
  5
2A6
100
AcDbEntity
  8
0
100
AcDbLine
 62
4
  6
CONTINUOUS
 10
11.5897440247
 20
6.4028363379
 11
11.61044245
 21
6.4014008973
  0
LINE
  5
2A7
100
AcDbEntity
  8
0
100
AcDbLine
 62
4
  6
CONTINUOUS
 10
11.6518392545
 20
6.3985300191
 11
11.6863366145
 21
6.3961376191
  0
LINE
  5
2A8
100
AcDbEntity
  8
0
100
AcDbLine
 62
4
  6
CONTINUOUS
 10
11.7392325851
 20
6.3924692711
 11
11.7806293895
 21
6.3895983929
  0
LINE
  5
2A9
100
AcDbEntity
  8
0
100
AcDbLine
 62
7
  6
CONTINUOUS
 10
10.6264702877
 20
10.7745312568
 11
10.6255967686
 21
10.7737033467
  0
LINE
  5
2AA
100
AcDbEntity
  8
0
100
AcDbLine
 62
4
  6
CONTINUOUS
 10
11.4230069295
 20
6.5303107025
 11
11.4506048107
 21
6.528396783
  0
LINE
  5
2AB
100
AcDbEntity
  8
0
100
AcDbLine
 62
4
  6
CONTINUOUS
 10
11.3885095781
 20
6.58789887
 11
11.3471127535
 21
6.5907697496
  0
LINE
  5
2AC
100
AcDbEntity
  8
0
100
AcDbLine
 62
4
  6
CONTINUOUS
 10
11.3471127535
 20
6.6321665713
 11
11.3885095781
 21
6.6292956918
  0
LINE
  5
2AD
100
AcDbEntity
  8
0
100
AcDbLine
 62
4
  6
CONTINUOUS
 10
11.4299064027
 20
6.6264248122
 11
11.4575042896
 21
6.6245108923
  0
LINE
  5
2AE
100
AcDbEntity
  8
0
100
AcDbLine
 62
4
  6
CONTINUOUS
 10
11.0423860313
 20
6.3855999785
 11
11.079183209
 21
6.3646494967
  0
LINE
  5
2AF
100
AcDbEntity
  8
0
100
AcDbLine
 62
4
  6
CONTINUOUS
 10
11.3643614849
 20
6.7914980526
 11
11.3781604197
 21
6.7905410932
  0
LINE
  5
2B0
100
AcDbEntity
  8
0
100
AcDbLine
 62
4
  6
CONTINUOUS
 10
11.8266260546
 20
6.7824381315
 11
11.7990280929
 21
6.7843520567
  0
LINE
  5
2B1
100
AcDbEntity
  8
0
100
AcDbLine
 62
4
  6
CONTINUOUS
 10
11.7139346692
 20
6.7902533056
 11
11.7001357343
 21
6.791210265
  0
LINE
  5
2B2
100
AcDbEntity
  8
0
100
AcDbLine
 62
4
  6
CONTINUOUS
 10
11.5966436541
 20
6.7983874652
 11
11.5690457845
 21
6.8003013839
  0
LINE
  5
2B3
100
AcDbEntity
  8
0
100
AcDbLine
 62
4
  6
CONTINUOUS
 10
11.4655537042
 20
6.8074785841
 11
11.4379558346
 21
6.8093925028
  0
LINE
  5
2B4
100
AcDbEntity
  8
0
100
AcDbLine
 62
4
  6
CONTINUOUS
 10
10.9986895315
 20
6.8398557244
 11
11.0262874148
 21
6.8379418047
  0
LINE
  5
2B5
100
AcDbEntity
  8
0
100
AcDbLine
 62
4
  6
CONTINUOUS
 10
11.0814831771
 20
6.8341139656
 11
11.1021815966
 21
6.8326785253
  0
LINE
  5
2B6
100
AcDbEntity
  8
0
100
AcDbLine
 62
4
  6
CONTINUOUS
 10
11.6311410142
 20
6.7959950651
 11
11.6656383743
 21
6.7936026651
  0
LINE
  5
2B7
100
AcDbEntity
  8
0
100
AcDbLine
 62
4
  6
CONTINUOUS
 10
11.8611233686
 20
6.7800457347
 11
11.8887212383
 21
6.7781318159
  0
LINE
  5
2B8
100
AcDbEntity
  8
0
100
AcDbLine
 62
4
  6
CONTINUOUS
 10
11.5690457845
 20
6.8347987382
 11
11.5966436541
 21
6.8328848195
  0
LINE
  5
2B9
100
AcDbEntity
  8
0
100
AcDbLine
 62
4
  6
CONTINUOUS
 10
11.5897442097
 20
6.8678606519
 11
11.5552468497
 21
6.8702530519
  0
LINE
  5
2BA
100
AcDbEntity
  8
0
100
AcDbLine
 62
4
  6
CONTINUOUS
 10
11.2953667647
 20
6.888275797
 11
11.3298641248
 21
6.885883397
  0
LINE
  5
2BB
100
AcDbEntity
  8
0
100
AcDbLine
 62
4
  6
CONTINUOUS
 10
11.4379558346
 20
6.8783872115
 11
11.4655537042
 21
6.8764732927
  0
LINE
  5
2BC
100
AcDbEntity
  8
0
100
AcDbLine
 62
4
  6
CONTINUOUS
 10
11.4931516199
 20
6.8745593707
 11
11.5207494896
 21
6.872645452
  0
LINE
  5
2BD
100
AcDbEntity
  8
0
100
AcDbLine
 62
4
  6
CONTINUOUS
 10
11.7990280929
 20
6.8533467653
 11
11.8266260546
 21
6.8514328401
  0
LINE
  5
2BE
100
AcDbEntity
  8
0
100
AcDbLine
 62
4
  6
CONTINUOUS
 10
11.8611233686
 20
6.8490404433
 11
11.8887212383
 21
6.8471265245
  0
LINE
  5
2BF
100
AcDbEntity
  8
0
100
AcDbLine
 62
4
  6
CONTINUOUS
 10
11.0055890025
 20
6.9359698343
 11
11.0331868851
 21
6.9340559146
  0
LINE
  5
2C0
100
AcDbEntity
  8
0
100
AcDbLine
 62
4
  6
CONTINUOUS
 10
11.7553314736
 20
6.8839750173
 11
11.7576312884
 21
6.8838155246
  0
LINE
  5
2C1
100
AcDbEntity
  8
0
100
AcDbLine
 62
4
  6
CONTINUOUS
 10
11.0413971356
 20
10.2659309187
 11
11.0269082477
 21
10.2572764702
  0
LINE
  5
2C2
100
AcDbEntity
  8
0
100
AcDbLine
 62
4
  6
CONTINUOUS
 10
11.8887212383
 20
6.8103293468
 11
11.8611233686
 21
6.8168429124
  0
LINE
  5
2C3
100
AcDbEntity
  8
0
100
AcDbLine
 62
4
  6
CONTINUOUS
 10
11.8082272592
 20
6.3508872993
 11
11.845024434
 21
6.3299368162
  0
LINE
  5
2C4
100
AcDbEntity
  8
0
100
AcDbLine
 62
4
  6
CONTINUOUS
 10
11.1320791479
 20
6.4345755049
 11
11.1458780885
 21
6.4198196046
  0
LINE
  5
2C5
100
AcDbEntity
  8
0
100
AcDbLine
 62
4
  6
CONTINUOUS
 10
8.9380935258
 20
7.4125956512
 11
9.0105379655
 21
7.4075716122
  0
LINE
  5
2C6
100
AcDbEntity
  8
0
100
AcDbLine
 62
4
  6
CONTINUOUS
 10
11.4379558346
 20
6.8093925028
 11
11.4241568998
 21
6.8172489332
  0
LINE
  5
2C7
100
AcDbEntity
  8
0
100
AcDbLine
 62
4
  6
CONTINUOUS
 10
11.5690457845
 20
6.8003013839
 11
11.5552468497
 21
6.8081578143
  0
LINE
  5
2C8
100
AcDbEntity
  8
0
100
AcDbLine
 62
4
  6
CONTINUOUS
 10
11.0400863554
 20
6.8645827289
 11
10.9917900605
 21
6.909328913
  0
LINE
  5
2C9
100
AcDbEntity
  8
0
100
AcDbLine
 62
4
  6
CONTINUOUS
 10
11.464403757
 20
6.5550377068
 11
11.4161074621
 21
6.5997838908
  0
LINE
  5
2CA
100
AcDbEntity
  8
0
100
AcDbLine
 62
4
  6
CONTINUOUS
 10
10.9917900605
 20
6.8472336754
 11
10.9986895315
 21
6.8398557244
  0
LINE
  5
2CB
100
AcDbEntity
  8
0
100
AcDbLine
 62
4
  6
CONTINUOUS
 10
11.5092502306
 20
6.3118260117
 11
11.4954512958
 21
6.3265819131
  0
LINE
  5
2CC
100
AcDbEntity
  8
0
100
AcDbLine
 62
4
  6
CONTINUOUS
 10
11.0486415796
 20
10.275087778
 11
11.0413971356
 21
10.2659309187
  0
LINE
  5
2CD
100
AcDbEntity
  8
0
100
AcDbLine
 62
4
  6
CONTINUOUS
 10
11.0676842366
 20
6.8488698674
 11
11.0814831771
 21
6.8341139656
  0
LINE
  5
2CE
100
AcDbEntity
  8
0
100
AcDbLine
 62
4
  6
CONTINUOUS
 10
11.5897440247
 20
6.3062437481
 11
11.5759450899
 21
6.3209996495
  0
LINE
  5
2CF
100
AcDbEntity
  8
0
100
AcDbLine
 62
4
  6
CONTINUOUS
 10
11.0331868851
 20
6.9340559146
 11
11.0400863554
 21
6.9266779615
  0
LINE
  5
2D0
100
AcDbEntity
  8
0
100
AcDbLine
 62
4
  6
CONTINUOUS
 10
11.4161074621
 20
6.5376886532
 11
11.4230069295
 21
6.5303107025
  0
LINE
  5
2D1
100
AcDbEntity
  8
0
100
AcDbLine
 62
4
  6
CONTINUOUS
 10
11.61044245
 20
6.4014008973
 11
11.6242413848
 21
6.3866449973
  0
LINE
  5
2D2
100
AcDbEntity
  8
0
100
AcDbLine
 62
4
  6
CONTINUOUS
 10
11.4575042896
 20
6.6245108923
 11
11.464403757
 21
6.6171329394
  0
LINE
  5
2D3
100
AcDbEntity
  8
0
100
AcDbLine
 62
4
  6
CONTINUOUS
 10
11.6863366145
 20
6.3961376191
 11
11.7001355494
 21
6.3813817191
  0
LINE
  5
2D4
100
AcDbEntity
  8
0
100
AcDbLine
 62
4
  6
CONTINUOUS
 10
10.7255393375
 20
6.3227099796
 11
10.7617615573
 21
6.2042868567
  0
LINE
  5
2D5
100
AcDbEntity
  8
0
100
AcDbLine
 62
7
  6
CONTINUOUS
 10
10.1606144853
 20
10.8310490793
 11
10.1606144853
 21
10.7737661635
  0
LINE
  5
2D6
100
AcDbEntity
  8
0
100
AcDbLine
 62
7
  6
CONTINUOUS
 10
10.3351675437
 20
10.8431543964
 11
10.3351675437
 21
10.7592863634
  0
LINE
  5
2D7
100
AcDbEntity
  8
0
100
AcDbLine
 62
4
  6
CONTINUOUS
 10
11.8611233686
 20
6.8168429124
 11
11.8542239243
 21
6.8219210374
  0
LINE
  5
2D8
100
AcDbEntity
  8
0
100
AcDbLine
 62
4
  6
CONTINUOUS
 10
11.8956206827
 20
6.8052512218
 11
11.8887212383
 21
6.8103293468
  0
LINE
  5
2D9
100
AcDbEntity
  8
0
100
AcDbLine
 62
4
  6
CONTINUOUS
 10
11.3298641248
 20
6.885883397
 11
11.3367635922
 21
6.8785054441
  0
LINE
  5
2DA
100
AcDbEntity
  8
0
100
AcDbLine
 62
4
  6
CONTINUOUS
 10
11.6242415238
 20
6.8033730174
 11
11.6311410142
 21
6.7959950651
  0
LINE
  5
2DB
100
AcDbEntity
  8
0
100
AcDbLine
 62
4
  6
CONTINUOUS
 10
11.7001357343
 20
6.791210265
 11
11.6932362439
 21
6.7985882173
  0
LINE
  5
2DC
100
AcDbEntity
  8
0
100
AcDbLine
 62
4
  6
CONTINUOUS
 10
11.7990280929
 20
6.7843520567
 11
11.7921286485
 21
6.7917300058
  0
LINE
  5
2DD
100
AcDbEntity
  8
0
100
AcDbLine
 62
4
  6
CONTINUOUS
 10
11.8542239243
 20
6.7874236838
 11
11.8611233686
 21
6.7800457347
  0
LINE
  5
2DE
100
AcDbEntity
  8
0
100
AcDbLine
 62
4
  6
CONTINUOUS
 10
11.8887212383
 20
6.8471265245
 11
11.8956206827
 21
6.8397485733
  0
LINE
  5
2DF
100
AcDbEntity
  8
0
100
AcDbLine
 62
4
  6
CONTINUOUS
 10
11.5207494896
 20
6.872645452
 11
11.5253491192
 21
6.8654269934
  0
LINE
  5
2E0
100
AcDbEntity
  8
0
100
AcDbLine
 62
4
  6
CONTINUOUS
 10
11.1435784126
 20
6.9264002362
 11
11.1918747075
 21
6.8264582869
  0
LINE
  5
2E1
100
AcDbEntity
  8
0
100
AcDbLine
 62
4
  6
CONTINUOUS
 10
12.4154266144
 20
8.1721409027
 11
12.4661377221
 21
8.1686240754
  0
LINE
  5
2E2
100
AcDbEntity
  8
0
100
AcDbLine
 62
4
  6
CONTINUOUS
 10
11.5127000519
 20
6.5792862314
 11
11.5402979331
 21
6.5221765438
  0
LINE
  5
2E3
100
AcDbEntity
  8
0
100
AcDbLine
 62
4
  6
CONTINUOUS
 10
11.2125729708
 20
6.4289932394
 11
11.2401708635
 21
6.3304867292
  0
LINE
  5
2E4
100
AcDbEntity
  8
0
100
AcDbLine
 62
4
  6
CONTINUOUS
 10
10.9906860278
 20
10.2018329379
 11
10.9906860278
 21
10.3177440413
  0
LINE
  5
2E5
100
AcDbEntity
  8
0
100
AcDbLine
 62
4
  6
CONTINUOUS
 10
10.9917900605
 20
6.909328913
 11
10.9917900605
 21
6.9231278536
  0
LINE
  5
2E6
100
AcDbEntity
  8
0
100
AcDbLine
 62
7
  6
CONTINUOUS
 10
13.1826472101
 20
10.7816086727
 11
12.681056324
 21
10.2971090529
  0
LINE
  5
2E7
100
AcDbEntity
  8
0
100
AcDbLine
 62
4
  6
CONTINUOUS
 10
12.4154266144
 20
8.2397557107
 11
12.4661377221
 21
8.2362388835
  0
LINE
  5
2E8
100
AcDbEntity
  8
0
100
AcDbLine
 62
4
  6
CONTINUOUS
 10
12.4661377221
 20
8.2845351789
 11
12.4154266144
 21
8.2880520061
  0
LINE
  5
2E9
100
AcDbEntity
  8
0
100
AcDbLine
 62
4
  6
CONTINUOUS
 10
11.5966436541
 20
6.8535832332
 11
11.5897442097
 21
6.8678606519
  0
LINE
  5
2EA
100
AcDbEntity
  8
0
100
AcDbLine
 62
4
  6
CONTINUOUS
 10
11.3643614849
 20
6.8834909969
 11
11.3850599101
 21
6.8130608476
  0
LINE
  5
2EB
100
AcDbEntity
  8
0
100
AcDbLine
 62
4
  6
CONTINUOUS
 10
11.0400863554
 20
6.8507837869
 11
11.0400863554
 21
6.8645827289
  0
LINE
  5
2EC
100
AcDbEntity
  8
0
100
AcDbLine
 62
4
  6
CONTINUOUS
 10
11.0486415796
 20
10.2944062906
 11
11.0486415796
 21
10.275087778
  0
LINE
  5
2ED
100
AcDbEntity
  8
0
100
AcDbLine
 62
4
  6
CONTINUOUS
 10
11.0676842366
 20
6.9316635151
 11
11.0676842366
 21
6.8488698674
  0
LINE
  5
2EE
100
AcDbEntity
  8
0
100
AcDbLine
 62
4
  6
CONTINUOUS
 10
11.0975817993
 20
6.3403753144
 11
11.0975817993
 21
6.4369679042
  0
LINE
  5
2EF
100
AcDbEntity
  8
0
100
AcDbLine
 62
4
  6
CONTINUOUS
 10
11.1159805315
 20
6.8455205079
 11
11.1159805315
 21
6.9283141557
  0
LINE
  5
2F0
100
AcDbEntity
  8
0
100
AcDbLine
 62
4
  6
CONTINUOUS
 10
11.1435784126
 20
6.8298076464
 11
11.1435784126
 21
6.9264002362
  0
LINE
  5
2F1
100
AcDbEntity
  8
0
100
AcDbLine
 62
4
  6
CONTINUOUS
 10
11.1458780885
 20
6.4198196046
 11
11.1458780885
 21
6.3508248974
  0
LINE
  5
2F2
100
AcDbEntity
  8
0
100
AcDbLine
 62
4
  6
CONTINUOUS
 10
11.1918747075
 20
6.8264582869
 11
11.1918747075
 21
6.9230508767
  0
LINE
  5
2F3
100
AcDbEntity
  8
0
100
AcDbLine
 62
4
  6
CONTINUOUS
 10
11.2953666258
 20
6.3266588901
 11
11.2953666258
 21
6.4232514799
  0
LINE
  5
2F4
100
AcDbEntity
  8
0
100
AcDbLine
 62
4
  6
CONTINUOUS
 10
11.2953667647
 20
6.8192810884
 11
11.2953667647
 21
6.9158736782
  0
LINE
  5
2F5
100
AcDbEntity
  8
0
100
AcDbLine
 62
4
  6
CONTINUOUS
 10
11.3367635922
 20
6.8785054441
 11
11.3367635922
 21
6.8164102087
  0
LINE
  5
2F6
100
AcDbEntity
  8
0
100
AcDbLine
 62
4
  6
CONTINUOUS
 10
11.3471127535
 20
6.5355739815
 11
11.3471127535
 21
6.6321665713
  0
LINE
  5
2F7
100
AcDbEntity
  8
0
100
AcDbLine
 62
4
  6
CONTINUOUS
 10
11.3505623881
 20
6.322831051
 11
11.3505623881
 21
6.4194236408
  0
LINE
  5
2F8
100
AcDbEntity
  8
0
100
AcDbLine
 62
4
  6
CONTINUOUS
 10
11.4161074621
 20
6.5997838908
 11
11.4161074621
 21
6.6135828314
  0
LINE
  5
2F9
100
AcDbEntity
  8
0
100
AcDbLine
 62
4
  6
CONTINUOUS
 10
11.4241568998
 20
6.8172489332
 11
11.4241568998
 21
6.8724446977
  0
LINE
  5
2FA
100
AcDbEntity
  8
0
100
AcDbLine
 62
4
  6
CONTINUOUS
 10
11.464403757
 20
6.5412387648
 11
11.464403757
 21
6.5550377068
  0
LINE
  5
2FB
100
AcDbEntity
  8
0
100
AcDbLine
 62
4
  6
CONTINUOUS
 10
11.4655537042
 20
6.9040711738
 11
11.4655537042
 21
6.8074785841
  0
LINE
  5
2FC
100
AcDbEntity
  8
0
100
AcDbLine
 62
4
  6
CONTINUOUS
 10
10.6893171176
 20
6.2093108956
 11
10.7255393375
 21
6.3227099796
  0
LINE
  5
2FD
100
AcDbEntity
  8
0
100
AcDbLine
 62
4
  6
CONTINUOUS
 10
11.4920016382
 20
6.5255259032
 11
11.4920016382
 21
6.622118493
  0
LINE
  5
2FE
100
AcDbEntity
  8
0
100
AcDbLine
 62
4
  6
CONTINUOUS
 10
11.4931516199
 20
6.8055646621
 11
11.4931516199
 21
6.8745593707
  0
LINE
  5
2FF
100
AcDbEntity
  8
0
100
AcDbLine
 62
4
  6
CONTINUOUS
 10
11.4954512958
 20
6.3265819131
 11
11.4954512958
 21
6.3955766203
  0
LINE
  5
300
100
AcDbEntity
  8
0
100
AcDbLine
 62
4
  6
CONTINUOUS
 10
11.5253491192
 20
6.8654269934
 11
11.5253491192
 21
6.8516280528
  0
LINE
  5
301
100
AcDbEntity
  8
0
100
AcDbLine
 62
4
  6
CONTINUOUS
 10
11.5552468497
 20
6.8081578143
 11
11.5552468497
 21
6.8288562273
  0
LINE
  5
302
100
AcDbEntity
  8
0
100
AcDbLine
 62
4
  6
CONTINUOUS
 10
11.5759450899
 20
6.3209996495
 11
11.5759450899
 21
6.3899943567
  0
LINE
  5
303
100
AcDbEntity
  8
0
100
AcDbLine
 62
4
  6
CONTINUOUS
 10
11.5966436541
 20
6.7983874652
 11
11.5966436541
 21
6.8535832332
  0
LINE
  5
304
100
AcDbEntity
  8
0
100
AcDbLine
 62
4
  6
CONTINUOUS
 10
11.6242413848
 20
6.3866449973
 11
11.6242413848
 21
6.3176502901
  0
LINE
  5
305
100
AcDbEntity
  8
0
100
AcDbLine
 62
4
  6
CONTINUOUS
 10
11.6242415238
 20
6.865468255
 11
11.6242415238
 21
6.8033730174
  0
LINE
  5
306
100
AcDbEntity
  8
0
100
AcDbLine
 62
4
  6
CONTINUOUS
 10
11.6518392545
 20
6.3019374293
 11
11.6518392545
 21
6.3985300191
  0
LINE
  5
307
100
AcDbEntity
  8
0
100
AcDbLine
 62
4
  6
CONTINUOUS
 10
11.6656383743
 20
6.7936026651
 11
11.6656383743
 21
6.8625973737
  0
LINE
  5
308
100
AcDbEntity
  8
0
100
AcDbLine
 62
4
  6
CONTINUOUS
 10
11.6932362439
 20
6.7985882173
 11
11.6932362439
 21
6.8882813361
  0
LINE
  5
309
100
AcDbEntity
  8
0
100
AcDbLine
 62
4
  6
CONTINUOUS
 10
11.7001355494
 20
6.3813817191
 11
11.7001355494
 21
6.3123870119
  0
LINE
  5
30A
100
AcDbEntity
  8
0
100
AcDbLine
 62
4
  6
CONTINUOUS
 10
11.7392325851
 20
6.2958766813
 11
11.7392325851
 21
6.3924692711
  0
LINE
  5
30B
100
AcDbEntity
  8
0
100
AcDbLine
 62
4
  6
CONTINUOUS
 10
11.7553314736
 20
6.7873824275
 11
11.7553314736
 21
6.8563771361
  0
LINE
  5
30C
100
AcDbEntity
  8
0
100
AcDbLine
 62
4
  6
CONTINUOUS
 10
11.7553314736
 20
6.8770755441
 11
11.7553314736
 21
6.8839750173
  0
LINE
  5
30D
100
AcDbEntity
  8
0
100
AcDbLine
 62
4
  6
CONTINUOUS
 10
11.7921286485
 20
6.7917300058
 11
11.7921286485
 21
6.8469257702
  0
LINE
  5
30E
100
AcDbEntity
  8
0
100
AcDbLine
 62
4
  6
CONTINUOUS
 10
11.8542239243
 20
6.8219210374
 11
11.8542239243
 21
6.8426194482
  0
LINE
  5
30F
100
AcDbEntity
  8
0
100
AcDbLine
 62
4
  6
CONTINUOUS
 10
11.8956206827
 20
6.7845528088
 11
11.8956206827
 21
6.8052512218
  0
LINE
  5
310
100
AcDbEntity
  8
0
100
AcDbLine
 62
4
  6
CONTINUOUS
 10
11.1849750897
 20
6.3343145691
 11
11.2125729708
 21
6.4289932394
  0
LINE
  5
311
100
AcDbEntity
  8
0
100
AcDbLine
 62
4
  6
CONTINUOUS
 10
11.3781604197
 20
6.7905410932
 11
11.4057582893
 21
6.8806201188
  0
LINE
  5
312
100
AcDbEntity
  8
0
100
AcDbLine
 62
4
  6
CONTINUOUS
 10
10.9917900605
 20
6.9231278536
 11
11.0055890025
 21
6.9359698343
  0
LINE
  5
313
100
AcDbEntity
  8
0
100
AcDbLine
 62
4
  6
CONTINUOUS
 10
12.48062661
 20
8.2159155596
 11
12.4661377221
 21
8.2362388835
  0
LINE
  5
314
100
AcDbEntity
  8
0
100
AcDbLine
 62
4
  6
CONTINUOUS
 10
12.4733821661
 20
8.2743735186
 11
12.4661377221
 21
8.2845351789
  0
LINE
  5
315
100
AcDbEntity
  8
0
100
AcDbLine
 62
4
  6
CONTINUOUS
 10
11.0413971356
 20
10.3045679578
 11
11.0486415796
 21
10.2944062906
  0
LINE
  5
316
100
AcDbEntity
  8
0
100
AcDbLine
 62
4
  6
CONTINUOUS
 10
11.7576312884
 20
6.8838155246
 11
11.7553314736
 21
6.8770755441
  0
LINE
  5
317
100
AcDbEntity
  8
0
100
AcDbLine
 62
4
  6
CONTINUOUS
 10
12.4661377221
 20
8.2362388835
 11
12.4733821661
 21
8.2453957428
  0
LINE
  5
318
100
AcDbEntity
  8
0
100
AcDbLine
 62
4
  6
CONTINUOUS
 10
12.4661377221
 20
8.1686240754
 11
12.48062661
 21
8.1869377854
  0
LINE
  5
319
100
AcDbEntity
  8
0
100
AcDbLine
 62
4
  6
CONTINUOUS
 10
11.0262874148
 20
6.8379418047
 11
11.0400863554
 21
6.8507837869
  0
LINE
  5
31A
100
AcDbEntity
  8
0
100
AcDbLine
 62
4
  6
CONTINUOUS
 10
11.1021815966
 20
6.8326785253
 11
11.1159805315
 21
6.8455205079
  0
LINE
  5
31B
100
AcDbEntity
  8
0
100
AcDbLine
 62
4
  6
CONTINUOUS
 10
12.4154266144
 20
8.2880520061
 11
12.4154266144
 21
8.1721409027
  0
LINE
  5
31C
100
AcDbEntity
  8
0
100
AcDbLine
 62
4
  6
CONTINUOUS
 10
12.4733821661
 20
8.2453957428
 11
12.4733821661
 21
8.2743735186
  0
LINE
  5
31D
100
AcDbEntity
  8
0
100
AcDbLine
 62
4
  6
CONTINUOUS
 10
12.48062661
 20
8.1869377854
 11
12.48062661
 21
8.2159155596
  0
LINE
  5
31E
100
AcDbEntity
  8
0
100
AcDbLine
 62
4
  6
CONTINUOUS
 10
11.4920016382
 20
6.5577234341
 11
11.5402979331
 21
6.6187691336
  0
LINE
  5
31F
100
AcDbEntity
  8
0
100
AcDbLine
 62
4
  6
CONTINUOUS
 10
11.0269082477
 20
10.3152320219
 11
11.0413971356
 21
10.3045679578
  0
LINE
  5
320
100
AcDbEntity
  8
02___PRT_ALL_AXES
100
AcDbLine
 62
7
  6
CONTINUOUS
 10
10.5904325085
 20
10.7743195548
 11
10.5451511523
 21
10.8164586102
  0
LINE
  5
321
100
AcDbEntity
  8
0
100
AcDbLine
 62
7
  6
CONTINUOUS
 10
12.681056324
 20
10.2971090529
 11
12.681056324
 21
5.9504425771
  0
LINE
  5
322
100
AcDbEntity
  8
0
100
AcDbLine
 62
4
  6
CONTINUOUS
 10
11.4161074621
 20
6.6135828314
 11
11.4299064027
 21
6.6264248122
  0
LINE
  5
323
100
AcDbEntity
  8
0
100
AcDbLine
 62
4
  6
CONTINUOUS
 10
11.1458780885
 20
6.3508248974
 11
11.1320791479
 21
6.3379829152
  0
LINE
  5
324
100
AcDbEntity
  8
0
100
AcDbLine
 62
4
  6
CONTINUOUS
 10
11.7921286485
 20
6.8469257702
 11
11.7990280929
 21
6.8533467653
  0
LINE
  5
325
100
AcDbEntity
  8
0
100
AcDbLine
 62
4
  6
CONTINUOUS
 10
11.4506048107
 20
6.528396783
 11
11.464403757
 21
6.5412387648
  0
LINE
  5
326
100
AcDbEntity
  8
0
100
AcDbLine
 62
4
  6
CONTINUOUS
 10
11.8542239243
 20
6.8426194482
 11
11.8611233686
 21
6.8490404433
  0
LINE
  5
327
100
AcDbEntity
  8
0
100
AcDbLine
 62
4
  6
CONTINUOUS
 10
11.4241568998
 20
6.8724446977
 11
11.4379558346
 21
6.8783872115
  0
LINE
  5
328
100
AcDbEntity
  8
0
100
AcDbLine
 62
4
  6
CONTINUOUS
 10
11.5552468497
 20
6.8288562273
 11
11.5690457845
 21
6.8347987382
  0
LINE
  5
329
100
AcDbEntity
  8
0
100
AcDbLine
 62
4
  6
CONTINUOUS
 10
11.0269082477
 20
10.2572764702
 11
10.9906860278
 21
10.2597884896
  0
LINE
  5
32A
100
AcDbEntity
  8
0
100
AcDbLine
 62
4
  6
CONTINUOUS
 10
10.9906860278
 20
10.3177440413
 11
11.0269082477
 21
10.3152320219
  0
LINE
  5
32B
100
AcDbEntity
  8
0
100
AcDbLine
 62
4
  6
CONTINUOUS
 10
11.8887212383
 20
6.7781318159
 11
11.8956206827
 21
6.7845528088
  0
LINE
  5
32C
100
AcDbEntity
  8
0
100
AcDbLine
 62
4
  6
CONTINUOUS
 10
11.4954512958
 20
6.3955766203
 11
11.5092502306
 21
6.4084186015
  0
LINE
  5
32D
100
AcDbEntity
  8
0
100
AcDbLine
 62
4
  6
CONTINUOUS
 10
11.5759450899
 20
6.3899943567
 11
11.5897440247
 21
6.4028363379
  0
LINE
  5
32E
100
AcDbEntity
  8
0
100
AcDbLine
 62
4
  6
CONTINUOUS
 10
11.6242413848
 20
6.3176502901
 11
11.61044245
 21
6.3048083075
  0
LINE
  5
32F
100
AcDbEntity
  8
0
100
AcDbLine
 62
4
  6
CONTINUOUS
 10
11.079183209
 20
6.4014466759
 11
11.0423860313
 21
6.3855999785
  0
LINE
  5
330
100
AcDbEntity
  8
0
100
AcDbLine
 62
7
  6
CONTINUOUS
 10
12.681056324
 20
10.2971090529
 11
8.8173527899
 21
10.5650578031
  0
LINE
  5
331
100
AcDbEntity
  8
0
100
AcDbLine
 62
7
  6
CONTINUOUS
 10
10.1138431701
 20
10.7858714553
 11
10.2416249133
 21
10.7527991485
  0
LINE
  5
332
100
AcDbEntity
  8
0
100
AcDbLine
 62
7
  6
CONTINUOUS
 10
13.1826472101
 20
10.7816086727
 11
13.1826472101
 21
6.4349421969
  0
LINE
  5
333
100
AcDbEntity
  8
0
100
AcDbLine
 62
4
  6
CONTINUOUS
 10
11.7001355494
 20
6.3123870119
 11
11.6863366145
 21
6.2995450293
  0
LINE
  5
334
100
AcDbEntity
  8
0
100
AcDbLine
 62
7
  6
CONTINUOUS
 10
10.4629492869
 20
10.8100820896
 11
10.3351675437
 21
10.8431543964
  0
LINE
  5
335
100
AcDbEntity
  8
0
100
AcDbLine
 62
4
  6
CONTINUOUS
 10
11.845024434
 20
6.3299368162
 11
11.8082272592
 21
6.3140901201
  0
LINE
  5
336
100
AcDbEntity
  8
0
100
AcDbLine
 62
7
  6
CONTINUOUS
 10
10.2416249133
 20
10.7527991485
 11
10.4161779717
 21
10.7649044656
  0
LINE
  5
337
100
AcDbEntity
  8
0
100
AcDbLine
 62
7
  6
CONTINUOUS
 10
10.3351675437
 20
10.8431543964
 11
10.1606144853
 21
10.8310490793
  0
LINE
  5
338
100
AcDbEntity
  8
0
100
AcDbLine
 62
7
  6
CONTINUOUS
 10
9.318943676
 20
11.0495574229
 11
13.1826472101
 21
10.7816086727
  0
LINE
  5
339
100
AcDbEntity
  8
0
100
AcDbLine
 62
7
  6
CONTINUOUS
 10
13.1826472101
 20
6.4349421969
 11
12.681056324
 21
5.9504425771
  0
ARC
  5
33A
100
AcDbEntity
  8
0
100
AcDbCircle
 62
7
  6
CONTINUOUS
 10
10.1313303827
 20
9.3789681015
 40
0.1204890005
100
AcDbArc
 50
216.0335857956
 51
232.0498253939
  0
SPLINE
  5
33B
100
AcDbEntity
  8
02___PRT_ALL_AXES
100
AcDbSpline
 62
7
  6
CONTINUOUS
 70
0
 71
3
 72
31
 73
27
 74
0
 42
0.0000001
 43
0.0000001
 44
0.0000000001
 40
0.0
 40
0.0
 40
0.0
 40
0.0
 40
0.0761008109
 40
0.1533691053
 40
0.2310978206
 40
0.3086118373
 40
0.385218609
 40
0.4602419341
 40
0.5330235663
 40
0.6029315496
 40
0.636620852
 40
0.6693716274
 40
0.7011154811
 40
0.7317891641
 40
0.761331845
 40
0.7896871809
 40
0.8168045223
 40
0.8426365275
 40
0.8671438057
 40
0.8902927164
 40
0.9120569767
 40
0.932421459
 40
0.9513799339
 40
0.9689416195
 40
0.9851326829
 40
1.0
 40
1.0
 40
1.0
 40
1.0
 10
10.3573714471
 20
10.8646017214
 30
0.0
 10
10.348909734
 20
10.8651885432
 30
0.0
 10
10.3318396622
 20
10.8661395957
 30
0.0
 10
10.3060908439
 20
10.8669089932
 30
0.0
 10
10.280173145
 20
10.8670280021
 30
0.0
 10
10.2543344077
 20
10.8664961087
 30
0.0
 10
10.2288188159
 20
10.8653180113
 30
0.0
 10
10.2038690406
 20
10.8635053225
 30
0.0
 10
10.1797219604
 20
10.8610755883
 30
0.0
 10
10.160225565
 20
10.8585261979
 30
0.0
 10
10.1452096235
 20
10.8561828227
 30
0.0
 10
10.1344272577
 20
10.8543090509
 30
0.0
 10
10.1240110588
 20
10.8523015434
 30
0.0
 10
10.1139857043
 20
10.8501654701
 30
0.0
 10
10.1043749798
 20
10.8479057934
 30
0.0
 10
10.0952016808
 20
10.8455277806
 30
0.0
 10
10.0864874533
 20
10.8430375451
 30
0.0
 10
10.078252946
 20
10.8404405497
 30
0.0
 10
10.0705174905
 20
10.837743351
 30
0.0
 10
10.063299194
 20
10.8349523806
 30
0.0
 10
10.0566150102
 20
10.8320738684
 30
0.0
 10
10.0504801839
 20
10.8291151513
 30
0.0
 10
10.0449089485
 20
10.8260825401
 30
0.0
 10
10.0399136303
 20
10.8229828629
 30
0.0
 10
10.0355056007
 20
10.819823414
 30
0.0
 10
10.032855415
 20
10.8175882805
 30
0.0
 10
10.0316423351
 20
10.8164594088
 30
0.0
  0
SPLINE
  5
33C
100
AcDbEntity
  8
02___PRT_ALL_AXES
100
AcDbSpline
 62
7
  6
CONTINUOUS
 70
0
 71
3
 72
27
 73
23
 74
0
 42
0.0000001
 43
0.0000001
 44
0.0000000001
 40
0.0
 40
0.0
 40
0.0
 40
0.0
 40
0.0844845218
 40
0.1673018439
 40
0.248083671
 40
0.3265298449
 40
0.4023565216
 40
0.4752829178
 40
0.5450416431
 40
0.6113914904
 40
0.674110937
 40
0.7330061717
 40
0.7879114074
 40
0.8386996475
 40
0.8625235625
 40
0.8852917996
 40
0.9070024887
 40
0.9276577453
 40
0.9472666875
 40
0.9658444447
 40
0.9834123314
 40
1.0
 40
1.0
 40
1.0
 40
1.0
 10
10.3573714471
 20
10.8646017214
 30
0.0
 10
10.3628868679
 20
10.8642192257
 30
0.0
 10
10.3738024213
 20
10.8633647782
 30
0.0
 10
10.3899622306
 20
10.8617986286
 30
0.0
 10
10.4056962459
 20
10.8599649635
 30
0.0
 10
10.4209363646
 20
10.8578723469
 30
0.0
 10
10.4356197671
 20
10.8555292326
 30
0.0
 10
10.4496853548
 20
10.8529460294
 30
0.0
 10
10.4630739174
 20
10.8501331389
 30
0.0
 10
10.475729428
 20
10.8471031247
 30
0.0
 10
10.4875991492
 20
10.8438683953
 30
0.0
 10
10.4986339633
 20
10.8404431853
 30
0.0
 10
10.508787884
 20
10.8368415269
 30
0.0
 10
10.5166405646
 20
10.8336415301
 30
0.0
 10
10.5224371141
 20
10.8309920382
 30
0.0
 10
10.5264456396
 20
10.8290129202
 30
0.0
 10
10.5302044406
 20
10.8270013454
 30
0.0
 10
10.5337095069
 20
10.8249591294
 30
0.0
 10
10.5369573436
 20
10.8228885026
 30
0.0
 10
10.5399448093
 20
10.8207915584
 30
0.0
 10
10.5426686773
 20
10.8186704321
 30
0.0
 10
10.5443542028
 20
10.8172001132
 30
0.0
 10
10.5451488637
 20
10.8164606416
 30
0.0
  0
SPLINE
  5
33D
100
AcDbEntity
  8
02___PRT_ALL_AXES
100
AcDbSpline
 62
7
  6
CONTINUOUS
 70
0
 71
3
 72
51
 73
47
 74
0
 42
0.0000001
 43
0.0000001
 44
0.0000000001
 40
0.0
 40
0.0
 40
0.0
 40
0.0
 40
0.0082495521
 40
0.0160260799
 40
0.0233656737
 40
0.030313446
 40
0.0369249861
 40
0.0432658774
 40
0.0494113817
 40
0.0554452116
 40
0.0614562819
 40
0.0675344328
 40
0.0737665047
 40
0.0802324928
 40
0.0870028484
 40
0.0941379825
 40
0.1016885136
 40
0.1096950977
 40
0.1181897683
 40
0.1271978543
 40
0.1367389646
 40
0.1468267212
 40
0.1574704194
 40
0.1686762965
 40
0.1804476795
 40
0.1927842828
 40
0.2191400528
 40
0.2477079987
 40
0.2784215071
 40
0.311195593
 40
0.3459260577
 40
0.3824958301
 40
0.4207738374
 40
0.4606191911
 40
0.5018806657
 40
0.544399376
 40
0.5880090416
 40
0.6325374169
 40
0.6778072138
 40
0.7236376287
 40
0.7698451013
 40
0.8162421278
 40
0.862640227
 40
0.9088587448
 40
0.9547152222
 40
1.0
 40
1.0
 40
1.0
 40
1.0
 10
10.5451488637
 20
10.8164606416
 30
0.0
 10
10.5459085372
 20
10.8157537274
 30
0.0
 10
10.5473427268
 20
10.8143345346
 30
0.0
 10
10.5492812376
 20
10.8121217054
 30
0.0
 10
10.5509389502
 20
10.8098915707
 30
0.0
 10
10.5523132424
 20
10.8076459211
 30
0.0
 10
10.553402222
 20
10.8053868775
 30
0.0
 10
10.5542037411
 20
10.8031166709
 30
0.0
 10
10.5547153677
 20
10.8008379689
 30
0.0
 10
10.5549352033
 20
10.7985542437
 30
0.0
 10
10.5548628814
 20
10.7962695208
 30
0.0
 10
10.5544986998
 20
10.7939877984
 30
0.0
 10
10.5538435486
 20
10.7917128744
 30
0.0
 10
10.5528994623
 20
10.7894479172
 30
0.0
 10
10.55166903
 20
10.787195284
 30
0.0
 10
10.550154426
 20
10.7849570114
 30
0.0
 10
10.5483575628
 20
10.7827351653
 30
0.0
 10
10.5462808733
 20
10.7805314852
 30
0.0
 10
10.5439268699
 20
10.7783477329
 30
0.0
 10
10.5412979629
 20
10.7761859074
 30
0.0
 10
10.538396698
 20
10.7740482589
 30
0.0
 10
10.5352262711
 20
10.7719367006
 30
0.0
 10
10.5317900728
 20
10.7698533004
 30
0.0
 10
10.5280915955
 20
10.7678002841
 30
0.0
 10
10.5241346145
 20
10.7657799169
 30
0.0
 10
10.5183922487
 20
10.7630723653
 30
0.0
 10
10.5105848627
 20
10.7598010178
 30
0.0
 10
10.5004574794
 20
10.7561201056
 30
0.0
 10
10.4894173488
 20
10.7526171984
 30
0.0
 10
10.4775115104
 20
10.749308203
 30
0.0
 10
10.4647906442
 20
10.7462070177
 30
0.0
 10
10.4513092238
 20
10.7433276847
 30
0.0
 10
10.4371251198
 20
10.7406824501
 30
0.0
 10
10.4222993542
 20
10.7382831514
 30
0.0
 10
10.4068957582
 20
10.7361401167
 30
0.0
 10
10.3909807343
 20
10.7342627859
 30
0.0
 10
10.374622903
 20
10.7326593772
 30
0.0
 10
10.3578928759
 20
10.7313367925
 30
0.0
 10
10.3408628246
 20
10.7303009569
 30
0.0
 10
10.3236061848
 20
10.7295561671
 30
0.0
 10
10.3061975277
 20
10.7291060105
 30
0.0
 10
10.2887123305
 20
10.72895202
 30
0.0
 10
10.2712256565
 20
10.7290952094
 30
0.0
 10
10.2538119099
 20
10.7295347465
 30
0.0
 10
10.2365483168
 20
10.7302691676
 30
0.0
 10
10.2251036989
 20
10.7309577277
 30
0.0
 10
10.2194210099
 20
10.7313518235
 30
0.0
  0
SPLINE
  5
33E
100
AcDbEntity
  8
02___PRT_ALL_AXES
100
AcDbSpline
 62
7
  6
CONTINUOUS
 70
0
 71
3
 72
39
 73
35
 74
0
 42
0.0000001
 43
0.0000001
 44
0.0000000001
 40
0.0
 40
0.0
 40
0.0
 40
0.0
 40
0.0192535181
 40
0.0368854091
 40
0.0531265331
 40
0.0682867815
 40
0.0755879359
 40
0.0827713323
 40
0.0898954975
 40
0.0970204605
 40
0.10420628
 40
0.1115115158
 40
0.1266838929
 40
0.1429417664
 40
0.1605945724
 40
0.1798708643
 40
0.2009337379
 40
0.2238933713
 40
0.2488165231
 40
0.275741201
 40
0.3046775001
 40
0.3356168974
 40
0.3685356617
 40
0.4033939467
 40
0.440143699
 40
0.4787246364
 40
0.519068367
 40
0.5611005377
 40
0.6047377611
 40
0.6498930879
 40
0.6964715181
 40
0.7934894566
 40
0.8949747659
 40
1.0
 40
1.0
 40
1.0
 40
1.0
 10
10.0316423351
 20
10.8164594088
 30
0.0
 10
10.0305180639
 20
10.8154131811
 30
0.0
 10
10.0284526558
 20
10.8133093258
 30
0.0
 10
10.0258387385
 20
10.8099604127
 30
0.0
 10
10.023862103
 20
10.8065699111
 30
0.0
 10
10.0227412231
 20
10.803675977
 30
0.0
 10
10.0221923084
 20
10.8013729379
 30
0.0
 10
10.0219488925
 20
10.7996639616
 30
0.0
 10
10.0218691945
 20
10.7979536558
 30
0.0
 10
10.0219532304
 20
10.7962433645
 30
0.0
 10
10.0222010652
 20
10.7945344311
 30
0.0
 10
10.0227562237
 20
10.7922313669
 30
0.0
 10
10.0238845206
 20
10.7893375452
 30
0.0
 10
10.0258696978
 20
10.7859475426
 30
0.0
 10
10.0284926178
 20
10.7825992076
 30
0.0
 10
10.0317432336
 20
10.7792967465
 30
0.0
 10
10.0356136009
 20
10.7760445792
 30
0.0
 10
10.0400949501
 20
10.7728485218
 30
0.0
 10
10.0451769748
 20
10.7697142338
 30
0.0
 10
10.0508485573
 20
10.7666492369
 30
0.0
 10
10.0570963661
 20
10.7636599959
 30
0.0
 10
10.0639058722
 20
10.7607536944
 30
0.0
 10
10.0712610129
 20
10.75793761
 30
0.0
 10
10.0791441069
 20
10.7552180351
 30
0.0
 10
10.0875363375
 20
10.7526021636
 30
0.0
 10
10.0964173739
 20
10.7500960799
 30
0.0
 10
10.1057657353
 20
10.7477059079
 30
0.0
 10
10.1155588227
 20
10.7454378474
 30
0.0
 10
10.1257728819
 20
10.7432970093
 30
0.0
 10
10.1363831464
 20
10.7412890344
 30
0.0
 10
10.1512259582
 20
10.7387609738
 30
0.0
 10
10.1705807025
 20
10.7359836507
 30
0.0
 10
10.1946449638
 20
10.7332914802
 30
0.0
 10
10.2110636937
 20
10.7319314053
 30
0.0
 10
10.2194210099
 20
10.7313518235
 30
0.0
  0
SPLINE
  5
33F
100
AcDbEntity
  8
0
100
AcDbSpline
 62
7
  6
CONTINUOUS
 70
0
 71
3
 72
85
 73
81
 74
0
 42
0.0000001
 43
0.0000001
 44
0.0000000001
 40
0.0
 40
0.0
 40
0.0
 40
0.0
 40
0.0039801536
 40
0.0081240886
 40
0.0124359635
 40
0.0169193265
 40
0.0215771864
 40
0.0264119179
 40
0.0314251807
 40
0.0366181565
 40
0.0419915475
 40
0.0475456547
 40
0.0532804275
 40
0.0591954177
 40
0.0715624106
 40
0.0846380725
 40
0.0984093703
 40
0.1128599259
 40
0.1279704399
 40
0.1437190257
 40
0.1600814793
 40
0.1770315221
 40
0.1945410006
 40
0.2125800587
 40
0.231117291
 40
0.2501198757
 40
0.2695537098
 40
0.2893835355
 40
0.3095730555
 40
0.3300850431
 40
0.3508814473
 40
0.3719234976
 40
0.3931718126
 40
0.4145865023
 40
0.4577527565
 40
0.5010975085
 40
0.5442934995
 40
0.5657341296
 40
0.5870156851
 40
0.6080981942
 40
0.6289421774
 40
0.6495087485
 40
0.6697597169
 40
0.6896576926
 40
0.7091662002
 40
0.7282497876
 40
0.7468741375
 40
0.7650061872
 40
0.7826142562
 40
0.7996681911
 40
0.8161395201
 40
0.8320016152
 40
0.8472298839
 40
0.8618019934
 40
0.8756981411
 40
0.888901391
 40
0.9013980709
 40
0.9131782826
 40
0.9187981369
 40
0.9242372582
 40
0.9294957859
 40
0.9345743097
 40
0.9394738093
 40
0.9441958086
 40
0.9487423661
 40
0.9531161549
 40
0.9573205873
 40
0.9613598144
 40
0.9652389262
 40
0.9689639795
 40
0.9725421508
 40
0.9759818729
 40
0.9792928946
 40
0.9824864624
 40
0.9855753237
 40
0.9885737978
 40
0.9914977268
 40
0.9943643293
 40
0.9971920085
 40
1.0
 40
1.0
 40
1.0
 40
1.0
 10
11.9488228923
 20
10.6828257922
 30
0.0
 10
11.9476444653
 20
10.6816875191
 30
0.0
 10
11.9451856023
 20
10.679419016
 30
0.0
 10
11.9412816742
 20
10.6761056837
 30
0.0
 10
11.9370910594
 20
10.6728160973
 30
0.0
 10
11.9326160586
 20
10.6695520433
 30
0.0
 10
11.9278588783
 20
10.6663150225
 30
0.0
 10
11.9228218247
 20
10.6631066332
 30
0.0
 10
11.9175074233
 20
10.6599283835
 30
0.0
 10
11.9119183101
 20
10.6567819222
 30
0.0
 10
11.9060572984
 20
10.653668795
 30
0.0
 10
11.8999273256
 20
10.6505905543
 30
0.0
 10
11.8935314404
 20
10.6475487512
 30
0.0
 10
11.8845191529
 20
10.6434831651
 30
0.0
 10
11.8726020957
 20
10.6385149523
 30
0.0
 10
11.857499893
 20
10.6328074219
 30
0.0
 10
11.8414210784
 20
10.6272805771
 30
0.0
 10
11.8243980164
 20
10.6219456333
 30
0.0
 10
11.8064647868
 20
10.6168134339
 30
0.0
 10
11.7876574587
 20
10.6118944284
 30
0.0
 10
11.7680139031
 20
10.6071986297
 30
0.0
 10
11.7475737291
 20
10.6027356024
 30
0.0
 10
11.726378183
 20
10.598514438
 30
0.0
 10
11.7044700614
 20
10.5945437357
 30
0.0
 10
11.6818936224
 20
10.590831586
 30
0.0
 10
11.6586944959
 20
10.5873855454
 30
0.0
 10
11.6349195861
 20
10.5842126254
 30
0.0
 10
11.6106169701
 20
10.5813192828
 30
0.0
 10
11.5858357981
 20
10.578711405
 30
0.0
 10
11.5606261953
 20
10.5763943005
 30
0.0
 10
11.5350391575
 20
10.5743726826
 30
0.0
 10
11.5091264652
 20
10.5726506659
 30
0.0
 10
11.4829405033
 20
10.5712317224
 30
0.0
 10
11.4476401787
 20
10.569743997
 30
0.0
 10
11.4032220237
 20
10.568663381
 30
0.0
 10
11.349824604
 20
10.5686070475
 30
0.0
 10
11.3053813497
 20
10.5695937308
 30
0.0
 10
11.2700413161
 20
10.5710064607
 30
0.0
 10
11.2438113398
 20
10.5723699521
 30
0.0
 10
11.2178450363
 20
10.5740370887
 30
0.0
 10
11.1921948968
 20
10.5760045075
 30
0.0
 10
11.1669128282
 20
10.5782682003
 30
0.0
 10
11.1420499753
 20
10.5808235663
 30
0.0
 10
11.117656634
 20
10.583665411
 30
0.0
 10
11.0937821403
 20
10.5867879494
 30
0.0
 10
11.0704747706
 20
10.5901848246
 30
0.0
 10
11.0477816454
 20
10.5938491218
 30
0.0
 10
11.0257486337
 20
10.5977733812
 30
0.0
 10
11.0044202555
 20
10.601949615
 30
0.0
 10
10.9838395842
 20
10.6063693178
 30
0.0
 10
10.9640481525
 20
10.6110234821
 30
0.0
 10
10.9450858659
 20
10.6159026261
 30
0.0
 10
10.9269909203
 20
10.6209968123
 30
0.0
 10
10.9097997045
 20
10.6262956731
 30
0.0
 10
10.8935467432
 20
10.631788438
 30
0.0
 10
10.8782644822
 20
10.6374639657
 30
0.0
 10
10.8639836233
 20
10.6433107603
 30
0.0
 10
10.8527712183
 20
10.6483927163
 30
0.0
 10
10.8443355195
 20
10.6525449444
 30
0.0
 10
10.8383763141
 20
10.65564557
 30
0.0
 10
10.8326879807
 20
10.6587801
 30
0.0
 10
10.8272733292
 20
10.6619469413
 30
0.0
 10
10.8221350911
 20
10.6651445726
 30
0.0
 10
10.8172758096
 20
10.6683713764
 30
0.0
 10
10.8126979019
 20
10.6716257723
 30
0.0
 10
10.8084036669
 20
10.6749062112
 30
0.0
 10
10.8043951996
 20
10.6782110511
 30
0.0
 10
10.8006745463
 20
10.6815387902
 30
0.0
 10
10.7972435326
 20
10.6848878106
 30
0.0
 10
10.7941039121
 20
10.6882565867
 30
0.0
 10
10.7912573321
 20
10.6916435995
 30
0.0
 10
10.7887052567
 20
10.6950472723
 30
0.0
 10
10.7864491995
 20
10.6984661432
 30
0.0
 10
10.7844904362
 20
10.7018986052
 30
0.0
 10
10.7828302976
 20
10.7053430998
 30
0.0
 10
10.7814699962
 20
10.7087979538
 30
0.0
 10
10.7804105771
 20
10.7122613302
 30
0.0
 10
10.7796531137
 20
10.7157314173
 30
0.0
 10
10.7791982497
 20
10.719205746
 30
0.0
 10
10.7790970057
 20
10.7215268772
 30
0.0
 10
10.7790970001
 20
10.7226827659
 30
0.0
  0
SPLINE
  5
340
100
AcDbEntity
  8
0
100
AcDbSpline
 62
7
  6
CONTINUOUS
 70
0
 71
3
 72
19
 73
15
 74
0
 42
0.0000001
 43
0.0000001
 44
0.0000000001
 40
0.0
 40
0.0
 40
0.0
 40
0.0
 40
0.1504607152
 40
0.2916988954
 40
0.4244197706
 40
0.4878838785
 40
0.549580297
 40
0.6682271827
 40
0.7255606102
 40
0.7817998481
 40
0.8371466355
 40
0.8918135538
 40
0.9460221503
 40
1.0
 40
1.0
 40
1.0
 40
1.0
 10
13.004579848
 20
9.1017985921
 30
0.0
 10
13.0062619778
 20
9.1034234049
 30
0.0
 10
13.0096239335
 20
9.1064720186
 30
0.0
 10
13.0148295919
 20
9.110534652
 30
0.0
 10
13.0192265994
 20
9.1134079632
 30
0.0
 10
13.0227329231
 20
9.1153536871
 30
0.0
 10
13.0261358083
 20
9.1170241202
 30
0.0
 10
13.0295785316
 20
9.1183895549
 30
0.0
 10
13.0330406269
 20
9.1194170419
 30
0.0
 10
13.0356004065
 20
9.1200092815
 30
0.0
 10
13.038151662
 20
9.120431409
 30
0.0
 10
13.0406937234
 20
9.1206831985
 30
0.0
 10
13.0432255619
 20
9.1207645477
 30
0.0
 10
13.0449076425
 20
9.1207050473
 30
0.0
 10
13.0457446462
 20
9.1206469979
 30
0.0
  0
SPLINE
  5
341
100
AcDbEntity
  8
0
100
AcDbSpline
 62
7
  6
CONTINUOUS
 70
0
 71
3
 72
21
 73
17
 74
0
 42
0.0000001
 43
0.0000001
 44
0.0000000001
 40
0.0
 40
0.0
 40
0.0
 40
0.0
 40
0.1273176366
 40
0.2537999756
 40
0.3167619475
 40
0.3795355041
 40
0.4421314991
 40
0.5045621439
 40
0.5668413432
 40
0.6289845283
 40
0.6910084528
 40
0.7529310935
 40
0.8147714495
 40
0.8765493365
 40
0.9382852194
 40
1.0
 40
1.0
 40
1.0
 40
1.0
 10
9.4519660892
 20
10.0979716906
 30
0.0
 10
9.4519660892
 20
10.0912269363
 30
0.0
 10
9.4513222579
 20
10.077772997
 30
0.0
 10
9.4488907161
 20
10.061141021
 30
0.0
 10
9.4459844829
 20
10.0480946898
 30
0.0
 10
9.4433341545
 20
10.0384717113
 30
0.0
 10
9.4402162214
 20
10.0290197172
 30
0.0
 10
9.4366378279
 20
10.0197602446
 30
0.0
 10
9.4326072508
 20
10.0107147018
 30
0.0
 10
9.4281337284
 20
10.0019039494
 30
0.0
 10
9.4232275513
 20
9.9933483269
 30
0.0
 10
9.4179000624
 20
9.9850675398
 30
0.0
 10
9.4121635326
 20
9.9770807209
 30
0.0
 10
9.4060310905
 20
9.9694062582
 30
0.0
 10
9.3995171664
 20
9.9620620593
 30
0.0
 10
9.394929367
 20
9.9573965444
 30
0.0
 10
9.3925778433
 20
9.9551251465
 30
0.0
  0
SPLINE
  5
342
100
AcDbEntity
  8
0
100
AcDbSpline
 62
7
  6
CONTINUOUS
 70
0
 71
3
 72
21
 73
17
 74
0
 42
0.0000001
 43
0.0000001
 44
0.0000000001
 40
0.0
 40
0.0
 40
0.0
 40
0.0
 40
0.1273176366
 40
0.2537999756
 40
0.3167619475
 40
0.3795355041
 40
0.4421314991
 40
0.5045621439
 40
0.5668413432
 40
0.6289845283
 40
0.6910084528
 40
0.7529310935
 40
0.8147714495
 40
0.8765493365
 40
0.9382852194
 40
1.0
 40
1.0
 40
1.0
 40
1.0
 10
12.4695185905
 20
9.8887037138
 30
0.0
 10
12.4695185905
 20
9.8819589596
 30
0.0
 10
12.4688747592
 20
9.8685050202
 30
0.0
 10
12.4664432174
 20
9.8518730443
 30
0.0
 10
12.4635369843
 20
9.8388267131
 30
0.0
 10
12.4608866558
 20
9.8292037346
 30
0.0
 10
12.4577687228
 20
9.8197517404
 30
0.0
 10
12.4541903292
 20
9.8104922678
 30
0.0
 10
12.4501597521
 20
9.8014467251
 30
0.0
 10
12.4456862298
 20
9.7926359726
 30
0.0
 10
12.4407800527
 20
9.7840803502
 30
0.0
 10
12.4354525637
 20
9.775799563
 30
0.0
 10
12.429716034
 20
9.7678127442
 30
0.0
 10
12.4235835919
 20
9.7601382814
 30
0.0
 10
12.4170696678
 20
9.7527940826
 30
0.0
 10
12.4124818683
 20
9.7481285677
 30
0.0
 10
12.4101303446
 20
9.7458571698
 30
0.0
  0
SPLINE
  5
343
100
AcDbEntity
  8
0
100
AcDbSpline
 62
7
  6
CONTINUOUS
 70
0
 71
3
 72
21
 73
17
 74
0
 42
0.0000001
 43
0.0000001
 44
0.0000000001
 40
0.0
 40
0.0
 40
0.0
 40
0.0
 40
0.1273176366
 40
0.2537999756
 40
0.3167619475
 40
0.3795355041
 40
0.4421314991
 40
0.5045621439
 40
0.5668413432
 40
0.6289845283
 40
0.6910084528
 40
0.7529310935
 40
0.8147714495
 40
0.8765493365
 40
0.9382852194
 40
1.0
 40
1.0
 40
1.0
 40
1.0
 10
12.4695185905
 20
6.388188501
 30
0.0
 10
12.4695185905
 20
6.3814437468
 30
0.0
 10
12.4688747592
 20
6.3679898074
 30
0.0
 10
12.4664432174
 20
6.3513578315
 30
0.0
 10
12.4635369843
 20
6.3383115003
 30
0.0
 10
12.4608866558
 20
6.3286885218
 30
0.0
 10
12.4577687228
 20
6.3192365276
 30
0.0
 10
12.4541903292
 20
6.309977055
 30
0.0
 10
12.4501597521
 20
6.3009315123
 30
0.0
 10
12.4456862298
 20
6.2921207598
 30
0.0
 10
12.4407800527
 20
6.2835651374
 30
0.0
 10
12.4354525637
 20
6.2752843502
 30
0.0
 10
12.429716034
 20
6.2672975313
 30
0.0
 10
12.4235835919
 20
6.2596230686
 30
0.0
 10
12.4170696678
 20
6.2522788697
 30
0.0
 10
12.4124818683
 20
6.2476133548
 30
0.0
 10
12.4101303446
 20
6.245341957
 30
0.0
  0
SPLINE
  5
344
100
AcDbEntity
  8
0
100
AcDbSpline
 62
7
  6
CONTINUOUS
 70
0
 71
3
 72
21
 73
17
 74
0
 42
0.0000001
 43
0.0000001
 44
0.0000000001
 40
0.0
 40
0.0
 40
0.0
 40
0.0
 40
0.1273176366
 40
0.2537999756
 40
0.3167619475
 40
0.3795355041
 40
0.4421314991
 40
0.5045621439
 40
0.5668413432
 40
0.6289845283
 40
0.6910084528
 40
0.7529310935
 40
0.8147714495
 40
0.8765493365
 40
0.9382852194
 40
1.0
 40
1.0
 40
1.0
 40
1.0
 10
9.4519660892
 20
6.5974564777
 30
0.0
 10
9.4519660892
 20
6.5907117235
 30
0.0
 10
9.4513222579
 20
6.5772577842
 30
0.0
 10
9.4488907161
 20
6.5606258082
 30
0.0
 10
9.4459844829
 20
6.547579477
 30
0.0
 10
9.4433341545
 20
6.5379564985
 30
0.0
 10
9.4402162214
 20
6.5285045044
 30
0.0
 10
9.4366378279
 20
6.5192450318
 30
0.0
 10
9.4326072508
 20
6.510199489
 30
0.0
 10
9.4281337284
 20
6.5013887365
 30
0.0
 10
9.4232275513
 20
6.4928331141
 30
0.0
 10
9.4179000624
 20
6.4845523269
 30
0.0
 10
9.4121635326
 20
6.4765655081
 30
0.0
 10
9.4060310905
 20
6.4688910453
 30
0.0
 10
9.3995171664
 20
6.4615468465
 30
0.0
 10
9.394929367
 20
6.4568813316
 30
0.0
 10
9.3925778433
 20
6.4546099337
 30
0.0
  0
SPLINE
  5
345
100
AcDbEntity
  8
0
100
AcDbSpline
 62
7
  6
CONTINUOUS
 70
0
 71
3
 72
21
 73
17
 74
0
 42
0.0000001
 43
0.0000001
 44
0.0000000001
 40
0.0
 40
0.0
 40
0.0
 40
0.0
 40
0.1273176366
 40
0.2537999756
 40
0.3167619475
 40
0.3795355041
 40
0.4421314991
 40
0.5045621439
 40
0.5668413432
 40
0.6289845283
 40
0.6910084528
 40
0.7529310935
 40
0.8147714495
 40
0.8765493365
 40
0.9382852194
 40
1.0
 40
1.0
 40
1.0
 40
1.0
 10
10.2961853526
 20
7.9568885771
 30
0.0
 10
10.2961853526
 20
7.9501438228
 30
0.0
 10
10.2955415213
 20
7.9366898835
 30
0.0
 10
10.2931099795
 20
7.9200579075
 30
0.0
 10
10.2902037463
 20
7.9070115763
 30
0.0
 10
10.2875534179
 20
7.8973885978
 30
0.0
 10
10.2844354849
 20
7.8879366037
 30
0.0
 10
10.2808570913
 20
7.8786771311
 30
0.0
 10
10.2768265142
 20
7.8696315883
 30
0.0
 10
10.2723529919
 20
7.8608208358
 30
0.0
 10
10.2674468147
 20
7.8522652134
 30
0.0
 10
10.2621193258
 20
7.8439844262
 30
0.0
 10
10.2563827961
 20
7.8359976074
 30
0.0
 10
10.2502503539
 20
7.8283231446
 30
0.0
 10
10.2437364299
 20
7.8209789458
 30
0.0
 10
10.2391486304
 20
7.8163134309
 30
0.0
 10
10.2367971067
 20
7.814042033
 30
0.0
  0
SPLINE
  5
346
100
AcDbEntity
  8
0
100
AcDbSpline
 62
7
  6
CONTINUOUS
 70
0
 71
3
 72
21
 73
17
 74
0
 42
0.0000001
 43
0.0000001
 44
0.0000000001
 40
0.0
 40
0.0
 40
0.0
 40
0.0
 40
0.1273176366
 40
0.2537999756
 40
0.3167619475
 40
0.3795355041
 40
0.4421314991
 40
0.5045621439
 40
0.5668413432
 40
0.6289845283
 40
0.6910084528
 40
0.7529310935
 40
0.8147714495
 40
0.8765493365
 40
0.9382852194
 40
1.0
 40
1.0
 40
1.0
 40
1.0
 10
10.8100578701
 20
8.3443271292
 30
0.0
 10
10.8100578701
 20
8.337582375
 30
0.0
 10
10.8094140388
 20
8.3241284356
 30
0.0
 10
10.806982497
 20
8.3074964597
 30
0.0
 10
10.8040762639
 20
8.2944501285
 30
0.0
 10
10.8014259354
 20
8.2848271499
 30
0.0
 10
10.7983080024
 20
8.2753751558
 30
0.0
 10
10.7947296088
 20
8.2661156832
 30
0.0
 10
10.7906990317
 20
8.2570701405
 30
0.0
 10
10.7862255094
 20
8.248259388
 30
0.0
 10
10.7813193323
 20
8.2397037656
 30
0.0
 10
10.7759918433
 20
8.2314229784
 30
0.0
 10
10.7702553136
 20
8.2234361595
 30
0.0
 10
10.7641228715
 20
8.2157616968
 30
0.0
 10
10.7576089474
 20
8.2084174979
 30
0.0
 10
10.7530211479
 20
8.203751983
 30
0.0
 10
10.7506696242
 20
8.2014805852
 30
0.0
  0
SPLINE
  5
347
100
AcDbEntity
  8
0
100
AcDbSpline
 62
7
  6
CONTINUOUS
 70
0
 71
3
 72
21
 73
17
 74
0
 42
0.0000001
 43
0.0000001
 44
0.0000000001
 40
0.0
 40
0.0
 40
0.0
 40
0.0
 40
0.1273176366
 40
0.2537999756
 40
0.3167619475
 40
0.3795355041
 40
0.4421314991
 40
0.5045621439
 40
0.5668413432
 40
0.6289845283
 40
0.6910084528
 40
0.7529310935
 40
0.8147714495
 40
0.8765493365
 40
0.9382852194
 40
1.0
 40
1.0
 40
1.0
 40
1.0
 10
11.2022237963
 20
8.890890172
 30
0.0
 10
11.2022237963
 20
8.8841454178
 30
0.0
 10
11.201579965
 20
8.8706914784
 30
0.0
 10
11.1991484232
 20
8.8540595025
 30
0.0
 10
11.1962421901
 20
8.8410131713
 30
0.0
 10
11.1935918616
 20
8.8313901927
 30
0.0
 10
11.1904739286
 20
8.8219381986
 30
0.0
 10
11.1868955351
 20
8.812678726
 30
0.0
 10
11.1828649579
 20
8.8036331833
 30
0.0
 10
11.1783914356
 20
8.7948224308
 30
0.0
 10
11.1734852585
 20
8.7862668084
 30
0.0
 10
11.1681577695
 20
8.7779860212
 30
0.0
 10
11.1624212398
 20
8.7699992023
 30
0.0
 10
11.1562887977
 20
8.7623247396
 30
0.0
 10
11.1497748736
 20
8.7549805407
 30
0.0
 10
11.1451870741
 20
8.7503150258
 30
0.0
 10
11.1428355504
 20
8.748043628
 30
0.0
  0
SPLINE
  5
348
100
AcDbEntity
  8
0
100
AcDbSpline
 62
7
  6
CONTINUOUS
 70
0
 71
3
 72
21
 73
17
 74
0
 42
0.0000001
 43
0.0000001
 44
0.0000000001
 40
0.0
 40
0.0
 40
0.0
 40
0.0
 40
0.1273176366
 40
0.2537999756
 40
0.3167619475
 40
0.3795355041
 40
0.4421314991
 40
0.5045621439
 40
0.5668413432
 40
0.6289845283
 40
0.6910084528
 40
0.7529310935
 40
0.8147714495
 40
0.8765493365
 40
0.9382852194
 40
1.0
 40
1.0
 40
1.0
 40
1.0
 10
11.5943896074
 20
8.2899335385
 30
0.0
 10
11.5943896074
 20
8.2831887842
 30
0.0
 10
11.5937457761
 20
8.2697348449
 30
0.0
 10
11.5913142343
 20
8.2531028689
 30
0.0
 10
11.5884080011
 20
8.2400565378
 30
0.0
 10
11.5857576727
 20
8.2304335592
 30
0.0
 10
11.5826397397
 20
8.2209815651
 30
0.0
 10
11.5790613461
 20
8.2117220925
 30
0.0
 10
11.575030769
 20
8.2026765497
 30
0.0
 10
11.5705572467
 20
8.1938657973
 30
0.0
 10
11.5656510695
 20
8.1853101749
 30
0.0
 10
11.5603235806
 20
8.1770293877
 30
0.0
 10
11.5545870509
 20
8.1690425688
 30
0.0
 10
11.5484546087
 20
8.1613681061
 30
0.0
 10
11.5419406847
 20
8.1540239072
 30
0.0
 10
11.5373528852
 20
8.1493583923
 30
0.0
 10
11.5350013615
 20
8.1470869944
 30
0.0
  0
SPLINE
  5
349
100
AcDbEntity
  8
0
100
AcDbSpline
 62
7
  6
CONTINUOUS
 70
0
 71
3
 72
22
 73
18
 74
0
 42
0.0000001
 43
0.0000001
 44
0.0000000001
 40
0.0
 40
0.0
 40
0.0
 40
0.0
 40
0.124833987
 40
0.1874021408
 40
0.2499783718
 40
0.3125303183
 40
0.3750428904
 40
0.4375154884
 40
0.4999586753
 40
0.5623901518
 40
0.6248302613
 40
0.6872975013
 40
0.749803621
 40
0.8123491683
 40
0.8749201257
 40
0.9374861091
 40
1.0
 40
1.0
 40
1.0
 40
1.0
 10
10.1355553253
 20
8.1733248717
 30
0.0
 10
10.1378983727
 20
8.1639343882
 30
0.0
 10
10.1422386219
 20
8.1500226069
 30
0.0
 10
10.1496300338
 20
8.1320980157
 30
0.0
 10
10.1559844939
 20
8.1189957266
 30
0.0
 10
10.1631363542
 20
8.1063165166
 30
0.0
 10
10.1710779331
 20
8.0941250061
 30
0.0
 10
10.1797989762
 20
8.0824881342
 30
0.0
 10
10.1892856996
 20
8.0714738923
 30
0.0
 10
10.1995187224
 20
8.0611518586
 30
0.0
 10
10.2104709839
 20
8.0515924661
 30
0.0
 10
10.2221055821
 20
8.0428656608
 30
0.0
 10
10.2343739358
 20
8.0350386365
 30
0.0
 10
10.2472144524
 20
8.0281728575
 30
0.0
 10
10.260552837
 20
8.0223203851
 30
0.0
 10
10.2743015696
 20
8.0175206949
 30
0.0
 10
10.2836867638
 20
8.015035709
 30
0.0
 10
10.2884156936
 20
8.013973753
 30
0.0
  0
SPLINE
  5
34A
100
AcDbEntity
  8
0
100
AcDbSpline
 62
7
  6
CONTINUOUS
 70
0
 71
3
 72
15
 73
11
 74
0
 42
0.0000001
 43
0.0000001
 44
0.0000000001
 40
0.0
 40
0.0
 40
0.0
 40
0.0
 40
0.1273482936
 40
0.2538605366
 40
0.3795879111
 40
0.5046050899
 40
0.6290174366
 40
0.7529533732
 40
0.8765605776
 40
1.0
 40
1.0
 40
1.0
 40
1.0
 10
10.079621609
 20
9.2165211695
 30
0.0
 10
10.079621609
 20
9.2130563941
 30
0.0
 10
10.079290794
 20
9.2061447997
 30
0.0
 10
10.0777947072
 20
9.1959103383
 30
0.0
 10
10.0753139459
 20
9.1859330316
 30
0.0
 10
10.0718709133
 20
9.1763061874
 30
0.0
 10
10.0674972151
 20
9.1671185822
 30
0.0
 10
10.0622327068
 20
9.1584550548
 30
0.0
 10
10.0561268767
 20
9.1503967944
 30
0.0
 10
10.0515295082
 20
9.1454743397
 30
0.0
 10
10.0491139344
 20
9.1431410949
 30
0.0
  0
SPLINE
  5
34B
100
AcDbEntity
  8
0
100
AcDbSpline
 62
7
  6
CONTINUOUS
 70
0
 71
3
 72
23
 73
19
 74
0
 42
0.0000001
 43
0.0000001
 44
0.0000000001
 40
0.0
 40
0.0
 40
0.0
 40
0.0
 40
0.0614488807
 40
0.1232974294
 40
0.1855193177
 40
0.2480712672
 40
0.3108995318
 40
0.3739401513
 40
0.4371217414
 40
0.5003679843
 40
0.5636003151
 40
0.6267406524
 40
0.6897141172
 40
0.7524516838
 40
0.8148926113
 40
0.8769871451
 40
0.9386966623
 40
1.0
 40
1.0
 40
1.0
 40
1.0
 10
9.9709549471
 20
9.3327238899
 30
0.0
 10
9.9745216402
 20
9.3324765389
 30
0.0
 10
9.9816585851
 20
9.3316287406
 30
0.0
 10
9.992220177
 20
9.3293261079
 30
0.0
 10
10.0025770503
 20
9.3260105959
 30
0.0
 10
10.0126284575
 20
9.3217143261
 30
0.0
 10
10.0222782743
 20
9.316478833
 30
0.0
 10
10.0314338247
 20
9.3103545334
 30
0.0
 10
10.0400073075
 20
9.3034003509
 30
0.0
 10
10.047916467
 20
9.2956831127
 30
0.0
 10
10.0550853985
 20
9.287276914
 30
0.0
 10
10.0614452525
 20
9.2782624192
 30
0.0
 10
10.0669348851
 20
9.2687261139
 30
0.0
 10
10.0715014384
 20
9.2587594589
 30
0.0
 10
10.0751008985
 20
9.2484581839
 30
0.0
 10
10.0776983731
 20
9.2379208361
 30
0.0
 10
10.0792687055
 20
9.2272499348
 30
0.0
 10
10.079621609
 20
9.2200879611
 30
0.0
 10
10.079621609
 20
9.2165211695
 30
0.0
  0
SPLINE
  5
34C
100
AcDbEntity
  8
0
100
AcDbSpline
 62
7
  6
CONTINUOUS
 70
0
 71
3
 72
15
 73
11
 74
0
 42
0.0000001
 43
0.0000001
 44
0.0000000001
 40
0.0
 40
0.0
 40
0.0
 40
0.0
 40
0.1273482936
 40
0.2538605366
 40
0.3795879111
 40
0.5046050899
 40
0.6290174366
 40
0.7529533732
 40
0.8765605776
 40
1.0
 40
1.0
 40
1.0
 40
1.0
 10
12.1312482556
 20
9.0742403783
 30
0.0
 10
12.1312482556
 20
9.0707756029
 30
0.0
 10
12.1309174407
 20
9.0638640085
 30
0.0
 10
12.1294213538
 20
9.0536295471
 30
0.0
 10
12.1269405925
 20
9.0436522404
 30
0.0
 10
12.1234975599
 20
9.0340253962
 30
0.0
 10
12.1191238618
 20
9.024837791
 30
0.0
 10
12.1138593534
 20
9.0161742636
 30
0.0
 10
12.1077535233
 20
9.0081160032
 30
0.0
 10
12.1031561548
 20
9.0031935485
 30
0.0
 10
12.1007405811
 20
9.0008603037
 30
0.0
  0
SPLINE
  5
34D
100
AcDbEntity
  8
0
100
AcDbSpline
 62
7
  6
CONTINUOUS
 70
0
 71
3
 72
23
 73
19
 74
0
 42
0.0000001
 43
0.0000001
 44
0.0000000001
 40
0.0
 40
0.0
 40
0.0
 40
0.0
 40
0.0614488807
 40
0.1232974294
 40
0.1855193177
 40
0.2480712672
 40
0.3108995318
 40
0.3739401513
 40
0.4371217414
 40
0.5003679843
 40
0.5636003151
 40
0.6267406524
 40
0.6897141172
 40
0.7524516838
 40
0.8148926113
 40
0.8769871451
 40
0.9386966623
 40
1.0
 40
1.0
 40
1.0
 40
1.0
 10
12.0225815937
 20
9.1904430988
 30
0.0
 10
12.0261482868
 20
9.1901957477
 30
0.0
 10
12.0332852317
 20
9.1893479494
 30
0.0
 10
12.0438468236
 20
9.1870453167
 30
0.0
 10
12.0542036969
 20
9.1837298047
 30
0.0
 10
12.0642551041
 20
9.1794335349
 30
0.0
 10
12.0739049209
 20
9.1741980418
 30
0.0
 10
12.0830604713
 20
9.1680737422
 30
0.0
 10
12.0916339541
 20
9.1611195597
 30
0.0
 10
12.0995431136
 20
9.1534023215
 30
0.0
 10
12.1067120451
 20
9.1449961228
 30
0.0
 10
12.1130718991
 20
9.135981628
 30
0.0
 10
12.1185615317
 20
9.1264453227
 30
0.0
 10
12.1231280851
 20
9.1164786677
 30
0.0
 10
12.1267275451
 20
9.1061773927
 30
0.0
 10
12.1293250197
 20
9.0956400449
 30
0.0
 10
12.1308953521
 20
9.0849691436
 30
0.0
 10
12.1312482556
 20
9.0778071699
 30
0.0
 10
12.1312482556
 20
9.0742403783
 30
0.0
  0
SPLINE
  5
34E
100
AcDbEntity
  8
0
100
AcDbSpline
 62
7
  6
CONTINUOUS
 70
0
 71
3
 72
15
 73
11
 74
0
 42
0.0000001
 43
0.0000001
 44
0.0000000001
 40
0.0
 40
0.0
 40
0.0
 40
0.0
 40
0.1273482936
 40
0.2538605366
 40
0.3795879111
 40
0.5046050899
 40
0.6290174366
 40
0.7529533732
 40
0.8765605776
 40
1.0
 40
1.0
 40
1.0
 40
1.0
 10
12.1312482556
 20
7.3230167864
 30
0.0
 10
12.1312482556
 20
7.3195520111
 30
0.0
 10
12.1309174407
 20
7.3126404167
 30
0.0
 10
12.1294213538
 20
7.3024059552
 30
0.0
 10
12.1269405925
 20
7.2924286486
 30
0.0
 10
12.1234975599
 20
7.2828018044
 30
0.0
 10
12.1191238618
 20
7.2736141992
 30
0.0
 10
12.1138593534
 20
7.2649506718
 30
0.0
 10
12.1077535233
 20
7.2568924113
 30
0.0
 10
12.1031561548
 20
7.2519699567
 30
0.0
 10
12.1007405811
 20
7.2496367119
 30
0.0
  0
SPLINE
  5
34F
100
AcDbEntity
  8
0
100
AcDbSpline
 62
7
  6
CONTINUOUS
 70
0
 71
3
 72
23
 73
19
 74
0
 42
0.0000001
 43
0.0000001
 44
0.0000000001
 40
0.0
 40
0.0
 40
0.0
 40
0.0
 40
0.0614488807
 40
0.1232974294
 40
0.1855193177
 40
0.2480712672
 40
0.3108995318
 40
0.3739401513
 40
0.4371217414
 40
0.5003679843
 40
0.5636003151
 40
0.6267406524
 40
0.6897141172
 40
0.7524516838
 40
0.8148926113
 40
0.8769871451
 40
0.9386966623
 40
1.0
 40
1.0
 40
1.0
 40
1.0
 10
12.0225815937
 20
7.4392195069
 30
0.0
 10
12.0261482868
 20
7.4389721559
 30
0.0
 10
12.0332852317
 20
7.4381243575
 30
0.0
 10
12.0438468236
 20
7.4358217249
 30
0.0
 10
12.0542036969
 20
7.4325062129
 30
0.0
 10
12.0642551041
 20
7.4282099431
 30
0.0
 10
12.0739049209
 20
7.42297445
 30
0.0
 10
12.0830604713
 20
7.4168501503
 30
0.0
 10
12.0916339541
 20
7.4098959679
 30
0.0
 10
12.0995431136
 20
7.4021787297
 30
0.0
 10
12.1067120451
 20
7.393772531
 30
0.0
 10
12.1130718991
 20
7.3847580361
 30
0.0
 10
12.1185615317
 20
7.3752217308
 30
0.0
 10
12.1231280851
 20
7.3652550759
 30
0.0
 10
12.1267275451
 20
7.3549538009
 30
0.0
 10
12.1293250197
 20
7.3444164531
 30
0.0
 10
12.1308953521
 20
7.3337455518
 30
0.0
 10
12.1312482556
 20
7.3265835781
 30
0.0
 10
12.1312482556
 20
7.3230167864
 30
0.0
  0
SPLINE
  5
350
100
AcDbEntity
  8
0
100
AcDbSpline
 62
7
  6
CONTINUOUS
 70
0
 71
3
 72
15
 73
11
 74
0
 42
0.0000001
 43
0.0000001
 44
0.0000000001
 40
0.0
 40
0.0
 40
0.0
 40
0.0
 40
0.1273482936
 40
0.2538605366
 40
0.3795879111
 40
0.5046050899
 40
0.6290174366
 40
0.7529533732
 40
0.8765605776
 40
1.0
 40
1.0
 40
1.0
 40
1.0
 10
10.079621609
 20
7.4652975776
 30
0.0
 10
10.079621609
 20
7.4618328023
 30
0.0
 10
10.079290794
 20
7.4549212079
 30
0.0
 10
10.0777947072
 20
7.4446867464
 30
0.0
 10
10.0753139459
 20
7.4347094398
 30
0.0
 10
10.0718709133
 20
7.4250825955
 30
0.0
 10
10.0674972151
 20
7.4158949904
 30
0.0
 10
10.0622327068
 20
7.407231463
 30
0.0
 10
10.0561268767
 20
7.3991732025
 30
0.0
 10
10.0515295082
 20
7.3942507479
 30
0.0
 10
10.0491139344
 20
7.3919175031
 30
0.0
  0
SPLINE
  5
351
100
AcDbEntity
  8
0
100
AcDbSpline
 62
7
  6
CONTINUOUS
 70
0
 71
3
 72
23
 73
19
 74
0
 42
0.0000001
 43
0.0000001
 44
0.0000000001
 40
0.0
 40
0.0
 40
0.0
 40
0.0
 40
0.0614488807
 40
0.1232974294
 40
0.1855193177
 40
0.2480712672
 40
0.3108995318
 40
0.3739401513
 40
0.4371217414
 40
0.5003679843
 40
0.5636003151
 40
0.6267406524
 40
0.6897141172
 40
0.7524516838
 40
0.8148926113
 40
0.8769871451
 40
0.9386966623
 40
1.0
 40
1.0
 40
1.0
 40
1.0
 10
9.9709549471
 20
7.5815002981
 30
0.0
 10
9.9745216402
 20
7.5812529471
 30
0.0
 10
9.9816585851
 20
7.5804051487
 30
0.0
 10
9.992220177
 20
7.5781025161
 30
0.0
 10
10.0025770503
 20
7.5747870041
 30
0.0
 10
10.0126284575
 20
7.5704907343
 30
0.0
 10
10.0222782743
 20
7.5652552412
 30
0.0
 10
10.0314338247
 20
7.5591309415
 30
0.0
 10
10.0400073075
 20
7.5521767591
 30
0.0
 10
10.047916467
 20
7.5444595209
 30
0.0
 10
10.0550853985
 20
7.5360533221
 30
0.0
 10
10.0614452525
 20
7.5270388273
 30
0.0
 10
10.0669348851
 20
7.517502522
 30
0.0
 10
10.0715014384
 20
7.507535867
 30
0.0
 10
10.0751008985
 20
7.4972345921
 30
0.0
 10
10.0776983731
 20
7.4866972443
 30
0.0
 10
10.0792687055
 20
7.476026343
 30
0.0
 10
10.079621609
 20
7.4688643693
 30
0.0
 10
10.079621609
 20
7.4652975776
 30
0.0
  0
SPLINE
  5
352
100
AcDbEntity
  8
0
100
AcDbSpline
 62
7
  6
CONTINUOUS
 70
0
 71
3
 72
22
 73
18
 74
0
 42
0.0000001
 43
0.0000001
 44
0.0000000001
 40
0.0
 40
0.0
 40
0.0
 40
0.0
 40
0.0659495983
 40
0.131225441
 40
0.1959181969
 40
0.2601067854
 40
0.3238578988
 40
0.387224038
 40
0.4502427836
 40
0.5129382153
 40
0.6373322356
 40
0.6990414235
 40
0.7603590952
 40
0.8212199468
 40
0.8815332734
 40
0.9411799191
 40
1.0
 40
1.0
 40
1.0
 40
1.0
 10
10.8036293592
 20
8.3955762623
 30
0.0
 10
10.8006823531
 20
8.3972523645
 30
0.0
 10
10.794938709
 20
8.4008039614
 30
0.0
 10
10.7867659281
 20
8.4067032559
 30
0.0
 10
10.7790882301
 20
8.4130931068
 30
0.0
 10
10.7719082015
 20
8.4199231323
 30
0.0
 10
10.7652245072
 20
8.427146231
 30
0.0
 10
10.7590338949
 20
8.4347178084
 30
0.0
 10
10.7533311542
 20
8.442596279
 30
0.0
 10
10.7463902902
 20
8.4534255023
 30
0.0
 10
10.7403745259
 20
8.4647447198
 30
0.0
 10
10.7352806374
 20
8.4764035192
 30
0.0
 10
10.7319278684
 20
8.4852465697
 30
0.0
 10
10.7290296545
 20
8.4941728119
 30
0.0
 10
10.7265827622
 20
8.5031442167
 30
0.0
 10
10.7245861048
 20
8.512118677
 30
0.0
 10
10.7235471224
 20
8.5181222884
 30
0.0
 10
10.7231044613
 20
8.5211135053
 30
0.0
  0
SPLINE
  5
353
100
AcDbEntity
  8
0
100
AcDbSpline
 62
7
  6
CONTINUOUS
 70
0
 71
3
 72
15
 73
11
 74
0
 42
0.0000001
 43
0.0000001
 44
0.0000000001
 40
0.0
 40
0.0
 40
0.0
 40
0.0
 40
0.1453411268
 40
0.2840005595
 40
0.4163083594
 40
0.5426779773
 40
0.6636082024
 40
0.7796795766
 40
0.8915588721
 40
1.0
 40
1.0
 40
1.0
 40
1.0
 10
12.973670219
 20
8.9832014467
 30
0.0
 10
12.974666987
 20
8.9841642508
 30
0.0
 10
12.9766597163
 20
8.9859998593
 30
0.0
 10
12.9797199357
 20
8.9885312444
 30
0.0
 10
12.9827775388
 20
8.9907724261
 30
0.0
 10
12.9858306646
 20
8.9927216636
 30
0.0
 10
12.9888776545
 20
8.9943775461
 30
0.0
 10
12.9919169928
 20
8.9957386539
 30
0.0
 10
12.9949464923
 20
8.9968036435
 30
0.0
 10
12.9969858622
 20
8.9973222067
 30
0.0
 10
12.9979989622
 20
8.9975290084
 30
0.0
  0
SPLINE
  5
354
100
AcDbEntity
  8
0
100
AcDbSpline
 62
7
  6
CONTINUOUS
 70
0
 71
3
 72
74
 73
70
 74
0
 42
0.0000001
 43
0.0000001
 44
0.0000000001
 40
0.0
 40
0.0
 40
0.0
 40
0.0
 40
0.0039235028
 40
0.008008867
 40
0.0122595404
 40
0.0166784043
 40
0.0212679027
 40
0.0260299921
 40
0.0309660274
 40
0.0360768492
 40
0.0468237871
 40
0.0582711629
 40
0.0704137574
 40
0.0832423033
 40
0.0967440861
 40
0.1109033864
 40
0.125701888
 40
0.1411189706
 40
0.1571319157
 40
0.1737161162
 40
0.1908452792
 40
0.2084915704
 40
0.2266257181
 40
0.2452171561
 40
0.2642341548
 40
0.2836439172
 40
0.303412659
 40
0.3235057297
 40
0.3645217857
 40
0.4064018245
 40
0.4488467743
 40
0.491552366
 40
0.5342119575
 40
0.5765193246
 40
0.6181714566
 40
0.6588713943
 40
0.6787742295
 40
0.698331858
 40
0.7175101521
 40
0.7362759031
 40
0.7545969221
 40
0.7724421751
 40
0.7897818743
 40
0.806587582
 40
0.8228323507
 40
0.8384908995
 40
0.8535397454
 40
0.8679573803
 40
0.8817245178
 40
0.8948243874
 40
0.9072430288
 40
0.9189697068
 40
0.9299974859
 40
0.940323944
 40
0.9452252806
 40
0.9499529418
 40
0.9545083415
 40
0.9588934637
 40
0.963110814
 40
0.9671635862
 40
0.971055728
 40
0.9747919692
 40
0.9783780351
 40
0.9818206783
 40
0.9851278019
 40
0.9883086455
 40
0.9943317817
 40
0.9972033454
 40
1.0
 40
1.0
 40
1.0
 40
1.0
 10
12.973670219
 20
8.9832014467
 30
0.0
 10
12.97276449
 20
8.9823265797
 30
0.0
 10
12.9709539607
 20
8.9805007546
 30
0.0
 10
12.9682935577
 20
8.9776005568
 30
0.0
 10
12.9656357948
 20
8.9744858057
 30
0.0
 10
12.9629821025
 20
8.9711581105
 30
0.0
 10
12.9603336366
 20
8.9676190669
 30
0.0
 10
12.9576916409
 20
8.9638702835
 30
0.0
 10
12.9550572868
 20
8.9599135139
 30
0.0
 10
12.9514968943
 20
8.9542680505
 30
0.0
 10
12.9470836359
 20
8.9466931814
 30
0.0
 10
12.9419232314
 20
8.9369526595
 30
0.0
 10
12.9368229157
 20
8.9264329825
 30
0.0
 10
12.9317924337
 20
8.9151540822
 30
0.0
 10
12.926841388
 20
8.9031371659
 30
0.0
 10
12.9219792625
 20
8.8904050169
 30
0.0
 10
12.9172153977
 20
8.8769818101
 30
0.0
 10
12.912558965
 20
8.8628930868
 30
0.0
 10
12.908018922
 20
8.8481657046
 30
0.0
 10
12.9036039956
 20
8.8328277775
 30
0.0
 10
12.8993226827
 20
8.8169086011
 30
0.0
 10
12.8951832316
 20
8.8004385966
 30
0.0
 10
12.8911935988
 20
8.7834492623
 30
0.0
 10
12.8873614515
 20
8.7659731049
 30
0.0
 10
12.8836941578
 20
8.7480435624
 30
0.0
 10
12.8801987854
 20
8.7296949553
 30
0.0
 10
12.8768820131
 20
8.7109623868
 30
0.0
 10
12.8726776894
 20
8.6853465519
 30
0.0
 10
12.8679236472
 20
8.6526320569
 30
0.0
 10
12.8630603003
 20
8.6126951373
 30
0.0
 10
12.8590378057
 20
8.5721198198
 30
0.0
 10
12.8558870391
 20
8.5312166697
 30
0.0
 10
12.8536321855
 20
8.4902985767
 30
0.0
 10
12.8522903684
 20
8.4496785505
 30
0.0
 10
12.8518717529
 20
8.4096675043
 30
0.0
 10
12.8522974843
 20
8.3768477262
 30
0.0
 10
12.8531124442
 20
8.3511323217
 30
0.0
 10
12.8539497201
 20
8.3323301075
 30
0.0
 10
12.8550158523
 20
8.3139050225
 30
0.0
 10
12.8563088025
 20
8.2958923119
 30
0.0
 10
12.8578260679
 20
8.2783264634
 30
0.0
 10
12.8595647003
 20
8.2612410866
 30
0.0
 10
12.8615213256
 20
8.2446688622
 30
0.0
 10
12.8636921569
 20
8.2286414833
 30
0.0
 10
12.8660729989
 20
8.2131895845
 30
0.0
 10
12.8686592266
 20
8.1983426714
 30
0.0
 10
12.8714458269
 20
8.1841290676
 30
0.0
 10
12.8744274112
 20
8.1705758617
 30
0.0
 10
12.8775982188
 20
8.1577088372
 30
0.0
 10
12.8809521125
 20
8.145552393
 30
0.0
 10
12.8844826292
 20
8.1341295315
 30
0.0
 10
12.8881830253
 20
8.1234616787
 30
0.0
 10
12.8920462516
 20
8.1135690246
 30
0.0
 10
12.8954520199
 20
8.1058573435
 30
0.0
 10
12.8982613581
 20
8.1001008742
 30
0.0
 10
12.9003677415
 20
8.0960642727
 30
0.0
 10
12.9025092615
 20
8.0922349035
 30
0.0
 10
12.9046849017
 20
8.0886145334
 30
0.0
 10
12.9068936984
 20
8.0852048841
 30
0.0
 10
12.9091346456
 20
8.0820075559
 30
0.0
 10
12.9114067031
 20
8.0790240223
 30
0.0
 10
12.9137089223
 20
8.0762557352
 30
0.0
 10
12.9160402918
 20
8.0737039665
 30
0.0
 10
12.9183997226
 20
8.0713699988
 30
0.0
 10
12.9207866123
 20
8.0692548399
 30
0.0
 10
12.9239455993
 20
8.0667736021
 30
0.0
 10
12.9272182222
 20
8.0646697931
 30
0.0
 10
12.9305844917
 20
8.0630053622
 30
0.0
 10
12.9322753482
 20
8.0623276549
 30
0.0
 10
12.9331216072
 20
8.0620284516
 30
0.0
  0
SPLINE
  5
355
100
AcDbEntity
  8
0
100
AcDbSpline
 62
7
  6
CONTINUOUS
 70
0
 71
3
 72
59
 73
55
 74
0
 42
0.0000001
 43
0.0000001
 44
0.0000000001
 40
0.0
 40
0.0
 40
0.0
 40
0.0
 40
0.0077405245
 40
0.0160542497
 40
0.024960405
 40
0.0344718839
 40
0.0445951894
 40
0.0553320496
 40
0.0666803118
 40
0.0786343308
 40
0.0911856042
 40
0.1043231538
 40
0.1180337168
 40
0.1323021262
 40
0.1471114588
 40
0.1624431483
 40
0.1782772461
 40
0.1945924619
 40
0.2113662695
 40
0.2285750893
 40
0.2461942852
 40
0.264198285
 40
0.3012535754
 40
0.3395215383
 40
0.3787717061
 40
0.4187655369
 40
0.459258457
 40
0.5000019073
 40
0.5407453406
 40
0.5812382058
 40
0.6212319494
 40
0.6604820047
 40
0.6987498106
 40
0.7358049088
 40
0.7538088165
 40
0.7714279017
 40
0.7886365922
 40
0.8054102913
 40
0.821725369
 40
0.8375593228
 40
0.8528908879
 40
0.8677000574
 40
0.8819683141
 40
0.8956787371
 40
0.9088161038
 40
0.9213672215
 40
0.9333210849
 40
0.9446691544
 40
0.9554058659
 40
0.9655289891
 40
0.9750402793
 40
0.9839463795
 40
0.9922597315
 40
1.0
 40
1.0
 40
1.0
 40
1.0
 10
10.6255968932
 20
10.7737033377
 30
0.0
 10
10.6242803861
 20
10.7724782543
 30
0.0
 10
10.6214463455
 20
10.7700472826
 30
0.0
 10
10.616797212
 20
10.7665753261
 30
0.0
 10
10.6116092052
 20
10.7631557224
 30
0.0
 10
10.6058908402
 20
10.759793896
 30
0.0
 10
10.5996509524
 20
10.7564949095
 30
0.0
 10
10.5928995159
 20
10.753264037
 30
0.0
 10
10.5856473447
 20
10.7501065107
 30
0.0
 10
10.5779061603
 20
10.747027449
 30
0.0
 10
10.5696885246
 20
10.74403191
 30
0.0
 10
10.56100782
 20
10.7411248566
 30
0.0
 10
10.5518782389
 20
10.7383110583
 30
0.0
 10
10.5423147256
 20
10.7355951862
 30
0.0
 10
10.5323329608
 20
10.7329817527
 30
0.0
 10
10.5219493391
 20
10.7304750592
 30
0.0
 10
10.5111809207
 20
10.7280792811
 30
0.0
 10
10.5000454138
 20
10.7257983923
 30
0.0
 10
10.4885611424
 20
10.7236361488
 30
0.0
 10
10.4767470112
 20
10.7215961647
 30
0.0
 10
10.4646224558
 20
10.7196817874
 30
0.0
 10
10.4479087596
 20
10.7172780215
 30
0.0
 10
10.4263871945
 20
10.7146199138
 30
0.0
 10
10.3998949298
 20
10.7120050809
 30
0.0
 10
10.3726685187
 20
10.7099529946
 30
0.0
 10
10.3448872849
 20
10.7084773518
 30
0.0
 10
10.3167340708
 20
10.7075880215
 30
0.0
 10
10.288394258
 20
10.7072909385
 30
0.0
 10
10.2600544587
 20
10.7075880991
 30
0.0
 10
10.2319012844
 20
10.7084775185
 30
0.0
 10
10.2041201143
 20
10.7099532443
 30
0.0
 10
10.1768937916
 20
10.7120054004
 30
0.0
 10
10.1504016423
 20
10.7146203128
 30
0.0
 10
10.1288801897
 20
10.7172784941
 30
0.0
 10
10.1121665917
 20
10.7196822981
 30
0.0
 10
10.10004212
 20
10.7215967111
 30
0.0
 10
10.0882280788
 20
10.72363674
 30
0.0
 10
10.0767438999
 20
10.7257990032
 30
0.0
 10
10.0656084936
 20
10.7280799312
 30
0.0
 10
10.0548401803
 20
10.7304757466
 30
0.0
 10
10.0444566653
 20
10.7329824555
 30
0.0
 10
10.0344750171
 20
10.7355959306
 30
0.0
 10
10.0249116221
 20
10.738311831
 30
0.0
 10
10.0157821601
 20
10.7411256412
 30
0.0
 10
10.0071015871
 20
10.7440327378
 30
0.0
 10
9.9988840804
 20
10.7470282946
 30
0.0
 10
9.9911430257
 20
10.7501073665
 30
0.0
 10
9.9838909988
 20
10.7532649353
 30
0.0
 10
9.9771397014
 20
10.7564958159
 30
0.0
 10
9.9708999533
 20
10.7597948095
 30
0.0
 10
9.9651817281
 20
10.7631566788
 30
0.0
 10
9.9599938947
 20
10.7665762844
 30
0.0
 10
9.9553449339
 20
10.7700482063
 30
0.0
 10
9.9525110535
 20
10.772479142
 30
0.0
 10
9.9511946226
 20
10.7737042199
 30
0.0
  0
SPLINE
  5
356
100
AcDbEntity
  8
0
100
AcDbSpline
 62
7
  6
CONTINUOUS
 70
0
 71
3
 72
18
 73
14
 74
0
 42
0.0000001
 43
0.0000001
 44
0.0000000001
 40
0.0
 40
0.0
 40
0.0
 40
0.0
 40
0.0548627134
 40
0.1099293262
 40
0.1654013673
 40
0.2214755976
 40
0.336133279
 40
0.4553633673
 40
0.5171049701
 40
0.5804366861
 40
0.7123309727
 40
0.8519568969
 40
1.0
 40
1.0
 40
1.0
 40
1.0
 10
11.9690969831
 20
10.7226835717
 30
0.0
 10
11.9690969871
 20
10.7218432576
 30
0.0
 10
11.9690436627
 20
10.7201590208
 30
0.0
 10
11.9688038976
 20
10.717635418
 30
0.0
 10
11.968404319
 20
10.7151132158
 30
0.0
 10
11.9676534329
 20
10.7117289907
 30
0.0
 10
11.9663007127
 20
10.7074873777
 30
0.0
 10
11.9644479814
 20
10.7033459067
 30
0.0
 10
11.962665223
 20
10.700054562
 30
0.0
 10
11.9606238967
 20
10.6966877861
 30
0.0
 10
11.9576598327
 20
10.6924932695
 30
0.0
 10
11.9535273888
 20
10.6875640351
 30
0.0
 10
11.9504538219
 20
10.6844011493
 30
0.0
 10
11.9488228923
 20
10.6828257922
 30
0.0
  0
SPLINE
  5
357
100
AcDbEntity
  8
0
100
AcDbSpline
 62
7
  6
CONTINUOUS
 70
0
 71
3
 72
14
 73
10
 74
0
 42
0.0000001
 43
0.0000001
 44
0.0000000001
 40
0.0
 40
0.0
 40
0.0
 40
0.0
 40
0.1102063069
 40
0.2235240717
 40
0.3405959171
 40
0.4619986165
 40
0.7196516389
 40
0.8568421097
 40
1.0
 40
1.0
 40
1.0
 40
1.0
 10
11.8428839392
 20
10.6830394353
 30
0.0
 10
11.8426137087
 20
10.682067825
 30
0.0
 10
11.8419798394
 20
10.6801200742
 30
0.0
 10
11.8407759182
 20
10.677241916
 30
0.0
 10
11.8393084859
 20
10.6743731382
 30
0.0
 10
11.8369557391
 20
10.670486661
 30
0.0
 10
11.8341050708
 20
10.6667016872
 30
0.0
 10
11.8308287746
 20
10.6630253634
 30
0.0
 10
11.8290243997
 20
10.6611996984
 30
0.0
 10
11.8280821568
 20
10.6602895616
 30
0.0
  0
SPLINE
  5
358
100
AcDbEntity
  8
0
100
AcDbSpline
 62
7
  6
CONTINUOUS
 70
0
 71
3
 72
74
 73
70
 74
0
 42
0.0000001
 43
0.0000001
 44
0.0000000001
 40
0.0
 40
0.0
 40
0.0
 40
0.0
 40
0.0028891574
 40
0.0058525163
 40
0.0120553002
 40
0.0153232205
 40
0.0187152901
 40
0.0222405952
 40
0.0259069657
 40
0.0297210948
 40
0.0336887057
 40
0.0378145516
 40
0.0421025967
 40
0.0465560993
 40
0.0511776113
 40
0.0559691634
 40
0.0609322486
 40
0.0713759398
 40
0.0825130237
 40
0.0943414806
 40
0.1068547162
 40
0.1200423028
 40
0.1338905397
 40
0.1483828634
 40
0.1635001544
 40
0.1792210531
 40
0.1955221961
 40
0.2123783893
 40
0.229762757
 40
0.2476469258
 40
0.2660011581
 40
0.2847944523
 40
0.3039946521
 40
0.3235685793
 40
0.3434821325
 40
0.3841868012
 40
0.4258216567
 40
0.4680900193
 40
0.5106892735
 40
0.5533137326
 40
0.5956574801
 40
0.6374171983
 40
0.6782950299
 40
0.6983127725
 40
0.7180023149
 40
0.7373292561
 40
0.7562600921
 40
0.7747623364
 40
0.7928046015
 40
0.8103567024
 40
0.8273897951
 40
0.8438765199
 40
0.8597911134
 40
0.8751095645
 40
0.8898098309
 40
0.9038720557
 40
0.917278795
 40
0.9300153347
 40
0.9420701273
 40
0.953435268
 40
0.9641071426
 40
0.9691837389
 40
0.9740880877
 40
0.9788213275
 40
0.9833851367
 40
0.987781827
 40
0.9920142316
 40
0.9960856546
 40
1.0
 40
1.0
 40
1.0
 40
1.0
 10
10.9053100104
 20
10.6830395869
 30
0.0
 10
10.9055594541
 20
10.6821427052
 30
0.0
 10
10.9061377277
 20
10.6803453645
 30
0.0
 10
10.9076044953
 20
10.6767455271
 30
0.0
 10
10.9095176549
 20
10.6732088476
 30
0.0
 10
10.9118186785
 20
10.6697599737
 30
0.0
 10
10.9137969704
 20
10.6671389892
 30
0.0
 10
10.9159963193
 20
10.6645308353
 30
0.0
 10
10.9184157597
 20
10.6619362847
 30
0.0
 10
10.9210540306
 20
10.6593565339
 30
0.0
 10
10.9239099227
 20
10.6567927514
 30
0.0
 10
10.9269820281
 20
10.6542460452
 30
0.0
 10
10.9302689003
 20
10.6517175756
 30
0.0
 10
10.9337690061
 20
10.6492085368
 30
0.0
 10
10.9374806535
 20
10.6467200435
 30
0.0
 10
10.9414021168
 20
10.6442532652
 30
0.0
 10
10.9470035477
 20
10.6409383254
 30
0.0
 10
10.954529303
 20
10.6368671892
 30
0.0
 10
10.9642169487
 20
10.6321666406
 30
0.0
 10
10.9746910693
 20
10.6275800629
 30
0.0
 10
10.9859317407
 20
10.6231162044
 30
0.0
 10
10.9979177913
 20
10.6187835892
 30
0.0
 10
11.0106264512
 20
10.6145905631
 30
0.0
 10
11.0240335223
 20
10.6105452287
 30
0.0
 10
11.0381133909
 20
10.6066553931
 30
0.0
 10
11.0528391151
 20
10.6029285811
 30
0.0
 10
11.0681824885
 20
10.5993720136
 30
0.0
 10
11.0841140887
 20
10.5959925845
 30
0.0
 10
11.1006033336
 20
10.5927968242
 30
0.0
 10
11.117618557
 20
10.5897909182
 30
0.0
 10
11.1351270747
 20
10.5869806924
 30
0.0
 10
11.1530952423
 20
10.5843715868
 30
0.0
 10
11.1714885075
 20
10.5819686461
 30
0.0
 10
11.1902715358
 20
10.579776487
 30
0.0
 10
11.2159743015
 20
10.5771211188
 30
0.0
 10
11.2488101932
 20
10.5743690666
 30
0.0
 10
11.2888933442
 20
10.5719861953
 30
0.0
 10
11.329631272
 20
10.5705181676
 30
0.0
 10
11.3707108098
 20
10.5699763825
 30
0.0
 10
11.4118163662
 20
10.5703651092
 30
0.0
 10
11.4526321447
 20
10.5716812803
 30
0.0
 10
11.4928443756
 20
10.5739146685
 30
0.0
 10
11.5258203293
 20
10.5765434207
 30
0.0
 10
11.551660168
 20
10.5791017221
 30
0.0
 10
11.5705636305
 20
10.5812235284
 30
0.0
 10
11.5890891369
 20
10.5835575641
 30
0.0
 10
11.6072010951
 20
10.5860993511
 30
0.0
 10
11.6248646824
 20
10.5888439534
 30
0.0
 10
11.6420459537
 20
10.5917860607
 30
0.0
 10
11.658711892
 20
10.5949199867
 30
0.0
 10
11.6748304873
 20
10.5982396685
 30
0.0
 10
11.6903708038
 20
10.6017386682
 30
0.0
 10
11.7053030315
 20
10.6054102101
 30
0.0
 10
11.7195985447
 20
10.609247197
 30
0.0
 10
11.7332299793
 20
10.6132422021
 30
0.0
 10
11.7461712908
 20
10.617387489
 30
0.0
 10
11.7583978086
 20
10.6216750526
 30
0.0
 10
11.769886263
 20
10.6260966441
 30
0.0
 10
11.7806149784
 20
10.6306437908
 30
0.0
 10
11.7905635417
 20
10.6353077797
 30
0.0
 10
11.7983127453
 20
10.6393491035
 30
0.0
 10
11.8040964421
 20
10.6426416554
 30
0.0
 10
11.8081550215
 20
10.6450934855
 30
0.0
 10
11.8120049938
 20
10.6475677674
 30
0.0
 10
11.8156445522
 20
10.65006341
 30
0.0
 10
11.8190720326
 20
10.6525792361
 30
0.0
 10
11.8222857866
 20
10.65511416
 30
0.0
 10
11.825284137
 20
10.657666808
 30
0.0
 10
11.8271749952
 20
10.6594133108
 30
0.0
 10
11.8280821568
 20
10.6602895616
 30
0.0
  0
SPLINE
  5
359
100
AcDbEntity
  8
0
100
AcDbSpline
 62
7
  6
CONTINUOUS
 70
0
 71
3
 72
84
 73
80
 74
0
 42
0.0000001
 43
0.0000001
 44
0.0000000001
 40
0.0
 40
0.0
 40
0.0
 40
0.0
 40
0.0027164264
 40
0.0054532293
 40
0.008230295
 40
0.0110665896
 40
0.0139797932
 40
0.0169861044
 40
0.0201000661
 40
0.0233345812
 40
0.0267009392
 40
0.0302088856
 40
0.0338668056
 40
0.037681768
 40
0.0416597414
 40
0.0458056718
 40
0.050123593
 40
0.0546167913
 40
0.0592877975
 40
0.0641385717
 40
0.0691704988
 40
0.074384467
 40
0.0797809628
 40
0.0853600226
 40
0.0911213815
 40
0.0970644148
 40
0.1094911534
 40
0.122630387
 40
0.136468035
 40
0.1509868331
 40
0.1661667198
 40
0.1819851503
 40
0.1984173662
 40
0.2154366132
 40
0.2330143274
 40
0.2511202956
 40
0.2697227959
 40
0.2887887406
 40
0.3082838034
 40
0.3281725359
 40
0.3484184777
 40
0.3689842604
 40
0.3898317162
 40
0.4109219843
 40
0.4536719359
 40
0.4969138893
 40
0.5403221212
 40
0.5835693222
 40
0.6263297187
 40
0.6474271304
 40
0.6682829869
 40
0.6888584043
 40
0.7091151927
 40
0.7290159604
 40
0.748524216
 40
0.7676044742
 40
0.7862223676
 40
0.8043447661
 40
0.8219399096
 40
0.838977535
 40
0.8554290199
 40
0.8712675451
 40
0.8864682815
 40
0.9010086172
 40
0.9148684112
 40
0.9280303001
 40
0.9404800906
 40
0.946434749
 40
0.9522077946
 40
0.957798564
 40
0.9632067735
 40
0.9684324641
 40
0.9734760551
 40
0.9783384155
 40
0.983020862
 40
0.9875253935
 40
0.9918546029
 40
0.9960115831
 40
1.0
 40
1.0
 40
1.0
 40
1.0
 10
12.9634150498
 20
7.9334983849
 30
0.0
 10
12.9623045562
 20
7.9335754018
 30
0.0
 10
12.9600809284
 20
7.9338305528
 30
0.0
 10
12.956773795
 20
7.9345132509
 30
0.0
 10
12.9534916521
 20
7.9354958432
 30
0.0
 10
12.9502368553
 20
7.9367774093
 30
0.0
 10
12.9470110516
 20
7.9383567351
 30
0.0
 10
12.9438159408
 20
7.9402326741
 30
0.0
 10
12.9406529544
 20
7.9424038177
 30
0.0
 10
12.937523515
 20
7.9448688225
 30
0.0
 10
12.9344289931
 20
7.9476262611
 30
0.0
 10
12.9313706709
 20
7.9506745801
 30
0.0
 10
12.9283499554
 20
7.9540122524
 30
0.0
 10
12.9253681188
 20
7.9576375284
 30
0.0
 10
12.9224265527
 20
7.9615486343
 30
0.0
 10
12.9195266143
 20
7.9657436322
 30
0.0
 10
12.9166696263
 20
7.9702204381
 30
0.0
 10
12.9138570165
 20
7.9749768816
 30
0.0
 10
12.9110900716
 20
7.9800105861
 30
0.0
 10
12.9083701899
 20
7.9853190895
 30
0.0
 10
12.9056986906
 20
7.9908997574
 30
0.0
 10
12.9030768719
 20
7.9967498178
 30
0.0
 10
12.9005060853
 20
8.0028663801
 30
0.0
 10
12.8979875563
 20
8.0092463801
 30
0.0
 10
12.8955225689
 20
8.0158866619
 30
0.0
 10
12.8922603638
 20
8.0252222855
 30
0.0
 10
12.8883374054
 20
8.0375269077
 30
0.0
 10
12.8839296198
 20
8.0530632921
 30
0.0
 10
12.8797631841
 20
8.0695516663
 30
0.0
 10
12.8758465407
 20
8.0869590307
 30
0.0
 10
12.8721876519
 20
8.1052507055
 30
0.0
 10
12.8687939543
 20
8.1243900935
 30
0.0
 10
12.8656723537
 20
8.1443388675
 30
0.0
 10
12.8628292042
 20
8.1650570343
 30
0.0
 10
12.8602702954
 20
8.1865030293
 30
0.0
 10
12.8580008404
 20
8.2086337993
 30
0.0
 10
12.856025455
 20
8.2314048928
 30
0.0
 10
12.8543481596
 20
8.2547705557
 30
0.0
 10
12.8529723708
 20
8.2786838305
 30
0.0
 10
12.8519008952
 20
8.3030966511
 30
0.0
 10
12.8511359229
 20
8.3279599424
 30
0.0
 10
12.8506790269
 20
8.3532237017
 30
0.0
 10
12.8505311189
 20
8.3788371673
 30
0.0
 10
12.8507474248
 20
8.4135412377
 30
0.0
 10
12.8517969163
 20
8.4574140518
 30
0.0
 10
12.8542702904
 20
8.5103874143
 30
0.0
 10
12.857943779
 20
8.5634955212
 30
0.0
 10
12.8627878608
 20
8.6163113477
 30
0.0
 10
12.8677894273
 20
8.6599201853
 30
0.0
 10
12.8723539199
 20
8.6943341936
 30
0.0
 10
12.8760276074
 20
8.719693692
 30
0.0
 10
12.8799593028
 20
8.7446658018
 30
0.0
 10
12.8841411097
 20
8.7692003482
 30
0.0
 10
12.8885645793
 20
8.7932479972
 30
0.0
 10
12.8932207868
 20
8.8167604125
 30
0.0
 10
12.8981003336
 20
8.8396903363
 30
0.0
 10
12.9031933699
 20
8.8619916895
 30
0.0
 10
12.9084896136
 20
8.8836196697
 30
0.0
 10
12.9139783619
 20
8.9045308477
 30
0.0
 10
12.9196485235
 20
8.9246832554
 30
0.0
 10
12.9254886397
 20
8.9440364706
 30
0.0
 10
12.9314869082
 20
8.9625517017
 30
0.0
 10
12.9376312124
 20
8.9801918836
 30
0.0
 10
12.9439091377
 20
8.9969217427
 30
0.0
 10
12.9503080161
 20
9.0127079729
 30
0.0
 10
12.9568149444
 20
9.0275189881
 30
0.0
 10
12.9623962542
 20
9.0391915759
 30
0.0
 10
12.9669140353
 20
9.0480098285
 30
0.0
 10
12.9702708642
 20
9.0542632012
 30
0.0
 10
12.9736449058
 20
9.0602515877
 30
0.0
 10
12.977034466
 20
9.0659720274
 30
0.0
 10
12.9804378649
 20
9.0714216683
 30
0.0
 10
12.9838534288
 20
9.076597784
 30
0.0
 10
12.9872794015
 20
9.0814978236
 30
0.0
 10
12.9907141682
 20
9.0861193436
 30
0.0
 10
12.9941560398
 20
9.090460121
 30
0.0
 10
12.9976034275
 20
9.094518026
 30
0.0
 10
13.0010544681
 20
9.0982908553
 30
0.0
 10
13.0034042921
 20
9.1006630923
 30
0.0
 10
13.004579848
 20
9.1017985921
 30
0.0
  0
SPLINE
  5
35A
100
AcDbEntity
  8
0
100
AcDbSpline
 62
7
  6
CONTINUOUS
 70
0
 71
3
 72
42
 73
38
 74
0
 42
0.0000001
 43
0.0000001
 44
0.0000000001
 40
0.0
 40
0.0
 40
0.0
 40
0.0
 40
0.0299419663
 40
0.0449235352
 40
0.0599142051
 40
0.0899287052
 40
0.1200139767
 40
0.135092661
 40
0.150196701
 40
0.1804840414
 40
0.210897872
 40
0.2414513324
 40
0.2721543376
 40
0.3030133986
 40
0.3340315263
 40
0.3652082187
 40
0.3965395244
 40
0.4280181782
 40
0.4596338019
 40
0.4913731609
 40
0.5232204716
 40
0.55515775
 40
0.5871651943
 40
0.6192215961
 40
0.6513047701
 40
0.6833919991
 40
0.7154604852
 40
0.7474878032
 40
0.7794523473
 40
0.8113337692
 40
0.8431133916
 40
0.8747746171
 40
0.9063032365
 40
0.9376879249
 40
0.9533258257
 40
0.968925233
 40
1.0
 40
1.0
 40
1.0
 40
1.0
 10
11.2307023163
 20
8.4621204706
 30
0.0
 10
11.2343354534
 20
8.4656298122
 30
0.0
 10
11.2399992886
 20
8.4706812092
 30
0.0
 10
11.2479314016
 20
8.4769488607
 30
0.0
 10
11.2561160955
 20
8.4829046508
 30
0.0
 10
11.2667957943
 20
8.4897438191
 30
0.0
 10
11.2779947593
 20
8.4957261034
 30
0.0
 10
11.2872309844
 20
8.499981961
 30
0.0
 10
11.2966580381
 20
8.5038864225
 30
0.0
 10
11.3087524962
 20
8.50808489
 30
0.0
 10
11.3236571012
 20
8.5119977485
 30
0.0
 10
11.3388869296
 20
8.5147697335
 30
0.0
 10
11.354357584
 20
8.5163855424
 30
0.0
 10
11.3699840796
 20
8.5168365545
 30
0.0
 10
11.3856804349
 20
8.5161204736
 30
0.0
 10
11.4013603789
 20
8.514241436
 30
0.0
 10
11.4169377569
 20
8.5112099504
 30
0.0
 10
11.4323270155
 20
8.5070428409
 30
0.0
 10
11.4474436617
 20
8.5017631468
 30
0.0
 10
11.4622047212
 20
8.495399993
 30
0.0
 10
11.4765291872
 20
8.4879884279
 30
0.0
 10
11.4903384596
 20
8.4795692309
 30
0.0
 10
11.5035567699
 20
8.4701886879
 30
0.0
 10
11.5161115916
 20
8.4598983382
 30
0.0
 10
11.5279340338
 20
8.4487546937
 30
0.0
 10
11.5389592146
 20
8.4368189311
 30
0.0
 10
11.5491266135
 20
8.4241565598
 30
0.0
 10
11.5583804002
 20
8.4108370647
 30
0.0
 10
11.5666697386
 20
8.3969335337
 30
0.0
 10
11.5739490637
 20
8.3825222448
 30
0.0
 10
11.5801783293
 20
8.3676823125
 30
0.0
 10
11.5853232368
 20
8.3524950399
 30
0.0
 10
11.5893553689
 20
8.3370442893
 30
0.0
 10
11.5917727176
 20
8.3240021752
 30
0.0
 10
11.5931287829
 20
8.3135230032
 30
0.0
 10
11.5940965712
 20
8.3030538562
 30
0.0
 10
11.5943896074
 20
8.2951758972
 30
0.0
 10
11.5943896074
 20
8.2899335385
 30
0.0
  0
SPLINE
  5
35B
100
AcDbEntity
  8
0
100
AcDbSpline
 62
7
  6
CONTINUOUS
 70
0
 71
3
 72
42
 73
38
 74
0
 42
0.0000001
 43
0.0000001
 44
0.0000000001
 40
0.0
 40
0.0
 40
0.0
 40
0.0
 40
0.0299419663
 40
0.0449235352
 40
0.0599142051
 40
0.0899287052
 40
0.1200139767
 40
0.135092661
 40
0.150196701
 40
0.1804840414
 40
0.210897872
 40
0.2414513324
 40
0.2721543376
 40
0.3030133986
 40
0.3340315263
 40
0.3652082187
 40
0.3965395244
 40
0.4280181782
 40
0.4596338019
 40
0.4913731609
 40
0.5232204716
 40
0.55515775
 40
0.5871651943
 40
0.6192215961
 40
0.6513047701
 40
0.6833919991
 40
0.7154604852
 40
0.7474878032
 40
0.7794523473
 40
0.8113337692
 40
0.8431133916
 40
0.8747746171
 40
0.9063032365
 40
0.9376879249
 40
0.9533258257
 40
0.968925233
 40
1.0
 40
1.0
 40
1.0
 40
1.0
 10
10.8385365053
 20
9.0630771042
 30
0.0
 10
10.8421696424
 20
9.0665864457
 30
0.0
 10
10.8478334775
 20
9.0716378428
 30
0.0
 10
10.8557655905
 20
9.0779054943
 30
0.0
 10
10.8639502845
 20
9.0838612844
 30
0.0
 10
10.8746299832
 20
9.0907004526
 30
0.0
 10
10.8858289483
 20
9.0966827369
 30
0.0
 10
10.8950651733
 20
9.1009385945
 30
0.0
 10
10.9044922271
 20
9.1048430561
 30
0.0
 10
10.9165866851
 20
9.1090415235
 30
0.0
 10
10.9314912901
 20
9.112954382
 30
0.0
 10
10.9467211185
 20
9.115726367
 30
0.0
 10
10.962191773
 20
9.1173421759
 30
0.0
 10
10.9778182685
 20
9.1177931881
 30
0.0
 10
10.9935146238
 20
9.1170771071
 30
0.0
 10
11.0091945678
 20
9.1151980695
 30
0.0
 10
11.0247719458
 20
9.1121665839
 30
0.0
 10
11.0401612044
 20
9.1079994744
 30
0.0
 10
11.0552778506
 20
9.1027197803
 30
0.0
 10
11.0700389101
 20
9.0963566266
 30
0.0
 10
11.0843633761
 20
9.0889450614
 30
0.0
 10
11.0981726486
 20
9.0805258644
 30
0.0
 10
11.1113909588
 20
9.0711453214
 30
0.0
 10
11.1239457805
 20
9.0608549717
 30
0.0
 10
11.1357682228
 20
9.0497113272
 30
0.0
 10
11.1467934036
 20
9.0377755646
 30
0.0
 10
11.1569608024
 20
9.0251131933
 30
0.0
 10
11.1662145891
 20
9.0117936983
 30
0.0
 10
11.1745039276
 20
8.9978901673
 30
0.0
 10
11.1817832527
 20
8.9834788783
 30
0.0
 10
11.1880125182
 20
8.9686389461
 30
0.0
 10
11.1931574257
 20
8.9534516735
 30
0.0
 10
11.1971895578
 20
8.9380009229
 30
0.0
 10
11.1996069065
 20
8.9249588088
 30
0.0
 10
11.2009629718
 20
8.9144796367
 30
0.0
 10
11.2019307601
 20
8.9040104897
 30
0.0
 10
11.2022237963
 20
8.8961325308
 30
0.0
 10
11.2022237963
 20
8.890890172
 30
0.0
  0
SPLINE
  5
35C
100
AcDbEntity
  8
0
100
AcDbSpline
 62
7
  6
CONTINUOUS
 70
0
 71
3
 72
42
 73
38
 74
0
 42
0.0000001
 43
0.0000001
 44
0.0000000001
 40
0.0
 40
0.0
 40
0.0
 40
0.0
 40
0.0299419663
 40
0.0449235352
 40
0.0599142051
 40
0.0899287052
 40
0.1200139767
 40
0.135092661
 40
0.150196701
 40
0.1804840414
 40
0.210897872
 40
0.2414513324
 40
0.2721543376
 40
0.3030133986
 40
0.3340315263
 40
0.3652082187
 40
0.3965395244
 40
0.4280181782
 40
0.4596338019
 40
0.4913731609
 40
0.5232204716
 40
0.55515775
 40
0.5871651943
 40
0.6192215961
 40
0.6513047701
 40
0.6833919991
 40
0.7154604852
 40
0.7474878032
 40
0.7794523473
 40
0.8113337692
 40
0.8431133916
 40
0.8747746171
 40
0.9063032365
 40
0.9376879249
 40
0.9533258257
 40
0.968925233
 40
1.0
 40
1.0
 40
1.0
 40
1.0
 10
10.4463705791
 20
8.5165140614
 30
0.0
 10
10.4500037162
 20
8.5200234029
 30
0.0
 10
10.4556675513
 20
8.5250748
 30
0.0
 10
10.4635996643
 20
8.5313424515
 30
0.0
 10
10.4717843583
 20
8.5372982416
 30
0.0
 10
10.482464057
 20
8.5441374098
 30
0.0
 10
10.4936630221
 20
8.5501196941
 30
0.0
 10
10.5028992471
 20
8.5543755517
 30
0.0
 10
10.5123263008
 20
8.5582800133
 30
0.0
 10
10.5244207589
 20
8.5624784807
 30
0.0
 10
10.5393253639
 20
8.5663913392
 30
0.0
 10
10.5545551923
 20
8.5691633242
 30
0.0
 10
10.5700258468
 20
8.5707791331
 30
0.0
 10
10.5856523423
 20
8.5712301453
 30
0.0
 10
10.6013486976
 20
8.5705140643
 30
0.0
 10
10.6170286416
 20
8.5686350267
 30
0.0
 10
10.6326060196
 20
8.5656035411
 30
0.0
 10
10.6479952782
 20
8.5614364316
 30
0.0
 10
10.6631119244
 20
8.5561567375
 30
0.0
 10
10.6778729839
 20
8.5497935838
 30
0.0
 10
10.6921974499
 20
8.5423820186
 30
0.0
 10
10.7060067223
 20
8.5339628216
 30
0.0
 10
10.7192250326
 20
8.5245822786
 30
0.0
 10
10.7317798543
 20
8.5142919289
 30
0.0
 10
10.7436022966
 20
8.5031482844
 30
0.0
 10
10.7546274774
 20
8.4912125218
 30
0.0
 10
10.7647948762
 20
8.4785501505
 30
0.0
 10
10.7740486629
 20
8.4652306555
 30
0.0
 10
10.7823380013
 20
8.4513271245
 30
0.0
 10
10.7896173265
 20
8.4369158355
 30
0.0
 10
10.795846592
 20
8.4220759032
 30
0.0
 10
10.8009914995
 20
8.4068886307
 30
0.0
 10
10.8050236316
 20
8.39143788
 30
0.0
 10
10.8074409803
 20
8.3783957659
 30
0.0
 10
10.8087970456
 20
8.3679165939
 30
0.0
 10
10.8097648339
 20
8.3574474469
 30
0.0
 10
10.8100578701
 20
8.349569488
 30
0.0
 10
10.8100578701
 20
8.3443271292
 30
0.0
  0
SPLINE
  5
35D
100
AcDbEntity
  8
0
100
AcDbSpline
 62
7
  6
CONTINUOUS
 70
0
 71
3
 72
42
 73
38
 74
0
 42
0.0000001
 43
0.0000001
 44
0.0000000001
 40
0.0
 40
0.0
 40
0.0
 40
0.0
 40
0.0299419663
 40
0.0449235352
 40
0.0599142051
 40
0.0899287052
 40
0.1200139767
 40
0.135092661
 40
0.150196701
 40
0.1804840414
 40
0.210897872
 40
0.2414513324
 40
0.2721543376
 40
0.3030133986
 40
0.3340315263
 40
0.3652082187
 40
0.3965395244
 40
0.4280181782
 40
0.4596338019
 40
0.4913731609
 40
0.5232204716
 40
0.55515775
 40
0.5871651943
 40
0.6192215961
 40
0.6513047701
 40
0.6833919991
 40
0.7154604852
 40
0.7474878032
 40
0.7794523473
 40
0.8113337692
 40
0.8431133916
 40
0.8747746171
 40
0.9063032365
 40
0.9376879249
 40
0.9533258257
 40
0.968925233
 40
1.0
 40
1.0
 40
1.0
 40
1.0
 10
9.9324980615
 20
8.1290755092
 30
0.0
 10
9.9361311986
 20
8.1325848508
 30
0.0
 10
9.9417950338
 20
8.1376362478
 30
0.0
 10
9.9497271468
 20
8.1439038993
 30
0.0
 10
9.9579118407
 20
8.1498596894
 30
0.0
 10
9.9685915395
 20
8.1566988576
 30
0.0
 10
9.9797905045
 20
8.162681142
 30
0.0
 10
9.9890267296
 20
8.1669369996
 30
0.0
 10
9.9984537833
 20
8.1708414611
 30
0.0
 10
10.0105482414
 20
8.1750399286
 30
0.0
 10
10.0254528464
 20
8.1789527871
 30
0.0
 10
10.0406826748
 20
8.1817247721
 30
0.0
 10
10.0561533292
 20
8.183340581
 30
0.0
 10
10.0717798248
 20
8.1837915931
 30
0.0
 10
10.0874761801
 20
8.1830755122
 30
0.0
 10
10.1031561241
 20
8.1811964745
 30
0.0
 10
10.1187335021
 20
8.178164989
 30
0.0
 10
10.1341227607
 20
8.1739978795
 30
0.0
 10
10.1492394069
 20
8.1687181854
 30
0.0
 10
10.1640004664
 20
8.1623550316
 30
0.0
 10
10.1783249324
 20
8.1549434665
 30
0.0
 10
10.1921342048
 20
8.1465242695
 30
0.0
 10
10.2053525151
 20
8.1371437265
 30
0.0
 10
10.2179073368
 20
8.1268533768
 30
0.0
 10
10.229729779
 20
8.1157097323
 30
0.0
 10
10.2407549598
 20
8.1037739697
 30
0.0
 10
10.2509223587
 20
8.0911115984
 30
0.0
 10
10.2601761454
 20
8.0777921033
 30
0.0
 10
10.2684654838
 20
8.0638885723
 30
0.0
 10
10.2757448089
 20
8.0494772834
 30
0.0
 10
10.2819740745
 20
8.0346373511
 30
0.0
 10
10.287118982
 20
8.0194500785
 30
0.0
 10
10.2911511141
 20
8.0039993279
 30
0.0
 10
10.2935684628
 20
7.9909572138
 30
0.0
 10
10.2949245281
 20
7.9804780417
 30
0.0
 10
10.2958923164
 20
7.9700088948
 30
0.0
 10
10.2961853526
 20
7.9621309358
 30
0.0
 10
10.2961853526
 20
7.9568885771
 30
0.0
  0
SPLINE
  5
35E
100
AcDbEntity
  8
0
100
AcDbSpline
 62
7
  6
CONTINUOUS
 70
0
 71
3
 72
15
 73
11
 74
0
 42
0.0000001
 43
0.0000001
 44
0.0000000001
 40
0.0
 40
0.0
 40
0.0
 40
0.0
 40
0.1233171261
 40
0.2468171865
 40
0.3706749939
 40
0.4950495802
 40
0.6200773232
 40
0.7458671315
 40
0.872492731
 40
1.0
 40
1.0
 40
1.0
 40
1.0
 10
9.8927959597
 20
7.5537497693
 30
0.0
 10
9.8953204934
 20
7.5561882604
 30
0.0
 10
9.900640464
 20
7.5608006862
 30
0.0
 10
9.9093231803
 20
7.5668278764
 30
0.0
 10
9.9186270052
 20
7.5719087176
 30
0.0
 10
9.9284567059
 20
7.5759909882
 30
0.0
 10
9.9387131277
 20
7.5790341587
 30
0.0
 10
9.949292952
 20
7.5810078018
 30
0.0
 10
9.9600881829
 20
7.5818927209
 30
0.0
 10
9.9673344651
 20
7.5817513794
 30
0.0
 10
9.9709549471
 20
7.5815002981
 30
0.0
  0
SPLINE
  5
35F
100
AcDbEntity
  8
0
100
AcDbSpline
 62
7
  6
CONTINUOUS
 70
0
 71
3
 72
15
 73
11
 74
0
 42
0.0000001
 43
0.0000001
 44
0.0000000001
 40
0.0
 40
0.0
 40
0.0
 40
0.0
 40
0.1233171261
 40
0.2468171865
 40
0.3706749939
 40
0.4950495802
 40
0.6200773232
 40
0.7458671315
 40
0.872492731
 40
1.0
 40
1.0
 40
1.0
 40
1.0
 10
11.9444226063
 20
7.4114689782
 30
0.0
 10
11.94694714
 20
7.4139074693
 30
0.0
 10
11.9522671106
 20
7.418519895
 30
0.0
 10
11.9609498269
 20
7.4245470852
 30
0.0
 10
11.9702536518
 20
7.4296279265
 30
0.0
 10
11.9800833525
 20
7.433710197
 30
0.0
 10
11.9903397743
 20
7.4367533675
 30
0.0
 10
12.0009195986
 20
7.4387270106
 30
0.0
 10
12.0117148295
 20
7.4396119297
 30
0.0
 10
12.0189611117
 20
7.4394705882
 30
0.0
 10
12.0225815937
 20
7.4392195069
 30
0.0
  0
SPLINE
  5
360
100
AcDbEntity
  8
0
100
AcDbSpline
 62
7
  6
CONTINUOUS
 70
0
 71
3
 72
15
 73
11
 74
0
 42
0.0000001
 43
0.0000001
 44
0.0000000001
 40
0.0
 40
0.0
 40
0.0
 40
0.0
 40
0.1233171261
 40
0.2468171865
 40
0.3706749939
 40
0.4950495802
 40
0.6200773232
 40
0.7458671315
 40
0.872492731
 40
1.0
 40
1.0
 40
1.0
 40
1.0
 10
11.9444226063
 20
9.16269257
 30
0.0
 10
11.94694714
 20
9.1651310611
 30
0.0
 10
11.9522671106
 20
9.1697434868
 30
0.0
 10
11.9609498269
 20
9.175770677
 30
0.0
 10
11.9702536518
 20
9.1808515183
 30
0.0
 10
11.9800833525
 20
9.1849337888
 30
0.0
 10
11.9903397743
 20
9.1879769593
 30
0.0
 10
12.0009195986
 20
9.1899506024
 30
0.0
 10
12.0117148295
 20
9.1908355216
 30
0.0
 10
12.0189611117
 20
9.19069418
 30
0.0
 10
12.0225815937
 20
9.1904430988
 30
0.0
  0
SPLINE
  5
361
100
AcDbEntity
  8
0
100
AcDbSpline
 62
7
  6
CONTINUOUS
 70
0
 71
3
 72
15
 73
11
 74
0
 42
0.0000001
 43
0.0000001
 44
0.0000000001
 40
0.0
 40
0.0
 40
0.0
 40
0.0
 40
0.1233171261
 40
0.2468171865
 40
0.3706749939
 40
0.4950495802
 40
0.6200773232
 40
0.7458671315
 40
0.872492731
 40
1.0
 40
1.0
 40
1.0
 40
1.0
 10
9.8927959597
 20
9.3049733612
 30
0.0
 10
9.8953204934
 20
9.3074118523
 30
0.0
 10
9.900640464
 20
9.312024278
 30
0.0
 10
9.9093231803
 20
9.3180514682
 30
0.0
 10
9.9186270052
 20
9.3231323095
 30
0.0
 10
9.9284567059
 20
9.32721458
 30
0.0
 10
9.9387131277
 20
9.3302577505
 30
0.0
 10
9.949292952
 20
9.3322313936
 30
0.0
 10
9.9600881829
 20
9.3331163128
 30
0.0
 10
9.9673344651
 20
9.3329749712
 30
0.0
 10
9.9709549471
 20
9.3327238899
 30
0.0
  0
SPLINE
  5
362
100
AcDbEntity
  8
0
100
AcDbSpline
 62
7
  6
CONTINUOUS
 70
0
 71
3
 72
42
 73
38
 74
0
 42
0.0000001
 43
0.0000001
 44
0.0000000001
 40
0.0
 40
0.0
 40
0.0
 40
0.0
 40
0.0299419663
 40
0.0449235352
 40
0.0599142051
 40
0.0899287052
 40
0.1200139767
 40
0.135092661
 40
0.150196701
 40
0.1804840414
 40
0.210897872
 40
0.2414513324
 40
0.2721543376
 40
0.3030133986
 40
0.3340315263
 40
0.3652082187
 40
0.3965395244
 40
0.4280181782
 40
0.4596338019
 40
0.4913731609
 40
0.5232204716
 40
0.55515775
 40
0.5871651943
 40
0.6192215961
 40
0.6513047701
 40
0.6833919991
 40
0.7154604852
 40
0.7474878032
 40
0.7794523473
 40
0.8113337692
 40
0.8431133916
 40
0.8747746171
 40
0.9063032365
 40
0.9376879249
 40
0.9533258257
 40
0.968925233
 40
1.0
 40
1.0
 40
1.0
 40
1.0
 10
9.0882787981
 20
6.7696434099
 30
0.0
 10
9.0919119352
 20
6.7731527514
 30
0.0
 10
9.0975757703
 20
6.7782041485
 30
0.0
 10
9.1055078834
 20
6.7844718
 30
0.0
 10
9.1136925773
 20
6.7904275901
 30
0.0
 10
9.1243722761
 20
6.7972667583
 30
0.0
 10
9.1355712411
 20
6.8032490427
 30
0.0
 10
9.1448074662
 20
6.8075049003
 30
0.0
 10
9.1542345199
 20
6.8114093618
 30
0.0
 10
9.1663289779
 20
6.8156078293
 30
0.0
 10
9.1812335829
 20
6.8195206878
 30
0.0
 10
9.1964634114
 20
6.8222926728
 30
0.0
 10
9.2119340658
 20
6.8239084817
 30
0.0
 10
9.2275605614
 20
6.8243594938
 30
0.0
 10
9.2432569167
 20
6.8236434129
 30
0.0
 10
9.2589368607
 20
6.8217643752
 30
0.0
 10
9.2745142386
 20
6.8187328897
 30
0.0
 10
9.2899034973
 20
6.8145657802
 30
0.0
 10
9.3050201434
 20
6.8092860861
 30
0.0
 10
9.3197812029
 20
6.8029229323
 30
0.0
 10
9.334105669
 20
6.7955113672
 30
0.0
 10
9.3479149414
 20
6.7870921702
 30
0.0
 10
9.3611332516
 20
6.7777116272
 30
0.0
 10
9.3736880734
 20
6.7674212775
 30
0.0
 10
9.3855105156
 20
6.756277633
 30
0.0
 10
9.3965356964
 20
6.7443418704
 30
0.0
 10
9.4067030953
 20
6.7316794991
 30
0.0
 10
9.415956882
 20
6.718360004
 30
0.0
 10
9.4242462204
 20
6.704456473
 30
0.0
 10
9.4315255455
 20
6.6900451841
 30
0.0
 10
9.437754811
 20
6.6752052518
 30
0.0
 10
9.4428997185
 20
6.6600179792
 30
0.0
 10
9.4469318507
 20
6.6445672286
 30
0.0
 10
9.4493491994
 20
6.6315251145
 30
0.0
 10
9.4507052647
 20
6.6210459424
 30
0.0
 10
9.451673053
 20
6.6105767955
 30
0.0
 10
9.4519660892
 20
6.6026988365
 30
0.0
 10
9.4519660892
 20
6.5974564777
 30
0.0
  0
SPLINE
  5
363
100
AcDbEntity
  8
0
100
AcDbSpline
 62
7
  6
CONTINUOUS
 70
0
 71
3
 72
42
 73
38
 74
0
 42
0.0000001
 43
0.0000001
 44
0.0000000001
 40
0.0
 40
0.0
 40
0.0
 40
0.0
 40
0.0299419663
 40
0.0449235352
 40
0.0599142051
 40
0.0899287052
 40
0.1200139767
 40
0.135092661
 40
0.150196701
 40
0.1804840414
 40
0.210897872
 40
0.2414513324
 40
0.2721543376
 40
0.3030133986
 40
0.3340315263
 40
0.3652082187
 40
0.3965395244
 40
0.4280181782
 40
0.4596338019
 40
0.4913731609
 40
0.5232204716
 40
0.55515775
 40
0.5871651943
 40
0.6192215961
 40
0.6513047701
 40
0.6833919991
 40
0.7154604852
 40
0.7474878032
 40
0.7794523473
 40
0.8113337692
 40
0.8431133916
 40
0.8747746171
 40
0.9063032365
 40
0.9376879249
 40
0.9533258257
 40
0.968925233
 40
1.0
 40
1.0
 40
1.0
 40
1.0
 10
9.0882787981
 20
10.2701586227
 30
0.0
 10
9.0919119352
 20
10.2736679643
 30
0.0
 10
9.0975757703
 20
10.2787193613
 30
0.0
 10
9.1055078834
 20
10.2849870128
 30
0.0
 10
9.1136925773
 20
10.2909428029
 30
0.0
 10
9.1243722761
 20
10.2977819711
 30
0.0
 10
9.1355712411
 20
10.3037642555
 30
0.0
 10
9.1448074662
 20
10.3080201131
 30
0.0
 10
9.1542345199
 20
10.3119245746
 30
0.0
 10
9.1663289779
 20
10.3161230421
 30
0.0
 10
9.1812335829
 20
10.3200359006
 30
0.0
 10
9.1964634114
 20
10.3228078856
 30
0.0
 10
9.2119340658
 20
10.3244236945
 30
0.0
 10
9.2275605614
 20
10.3248747066
 30
0.0
 10
9.2432569167
 20
10.3241586257
 30
0.0
 10
9.2589368607
 20
10.322279588
 30
0.0
 10
9.2745142386
 20
10.3192481025
 30
0.0
 10
9.2899034973
 20
10.315080993
 30
0.0
 10
9.3050201434
 20
10.3098012989
 30
0.0
 10
9.3197812029
 20
10.3034381451
 30
0.0
 10
9.334105669
 20
10.29602658
 30
0.0
 10
9.3479149414
 20
10.287607383
 30
0.0
 10
9.3611332516
 20
10.27822684
 30
0.0
 10
9.3736880734
 20
10.2679364903
 30
0.0
 10
9.3855105156
 20
10.2567928458
 30
0.0
 10
9.3965356964
 20
10.2448570832
 30
0.0
 10
9.4067030953
 20
10.2321947119
 30
0.0
 10
9.415956882
 20
10.2188752168
 30
0.0
 10
9.4242462204
 20
10.2049716858
 30
0.0
 10
9.4315255455
 20
10.1905603969
 30
0.0
 10
9.437754811
 20
10.1757204646
 30
0.0
 10
9.4428997185
 20
10.160533192
 30
0.0
 10
9.4469318507
 20
10.1450824414
 30
0.0
 10
9.4493491994
 20
10.1320403273
 30
0.0
 10
9.4507052647
 20
10.1215611553
 30
0.0
 10
9.451673053
 20
10.1110920083
 30
0.0
 10
9.4519660892
 20
10.1032140493
 30
0.0
 10
9.4519660892
 20
10.0979716906
 30
0.0
  0
SPLINE
  5
364
100
AcDbEntity
  8
0
100
AcDbSpline
 62
7
  6
CONTINUOUS
 70
0
 71
3
 72
42
 73
38
 74
0
 42
0.0000001
 43
0.0000001
 44
0.0000000001
 40
0.0
 40
0.0
 40
0.0
 40
0.0
 40
0.0299419663
 40
0.0449235352
 40
0.0599142051
 40
0.0899287052
 40
0.1200139767
 40
0.135092661
 40
0.150196701
 40
0.1804840414
 40
0.210897872
 40
0.2414513324
 40
0.2721543376
 40
0.3030133986
 40
0.3340315263
 40
0.3652082187
 40
0.3965395244
 40
0.4280181782
 40
0.4596338019
 40
0.4913731609
 40
0.5232204716
 40
0.55515775
 40
0.5871651943
 40
0.6192215961
 40
0.6513047701
 40
0.6833919991
 40
0.7154604852
 40
0.7474878032
 40
0.7794523473
 40
0.8113337692
 40
0.8431133916
 40
0.8747746171
 40
0.9063032365
 40
0.9376879249
 40
0.9533258257
 40
0.968925233
 40
1.0
 40
1.0
 40
1.0
 40
1.0
 10
12.1058312995
 20
6.5603754332
 30
0.0
 10
12.1094644366
 20
6.5638847747
 30
0.0
 10
12.1151282717
 20
6.5689361718
 30
0.0
 10
12.1230603847
 20
6.5752038233
 30
0.0
 10
12.1312450787
 20
6.5811596134
 30
0.0
 10
12.1419247774
 20
6.5879987816
 30
0.0
 10
12.1531237425
 20
6.5939810659
 30
0.0
 10
12.1623599675
 20
6.5982369235
 30
0.0
 10
12.1717870212
 20
6.6021413851
 30
0.0
 10
12.1838814793
 20
6.6063398525
 30
0.0
 10
12.1987860843
 20
6.610252711
 30
0.0
 10
12.2140159127
 20
6.6130246961
 30
0.0
 10
12.2294865672
 20
6.6146405049
 30
0.0
 10
12.2451130627
 20
6.6150915171
 30
0.0
 10
12.260809418
 20
6.6143754361
 30
0.0
 10
12.276489362
 20
6.6124963985
 30
0.0
 10
12.29206674
 20
6.6094649129
 30
0.0
 10
12.3074559986
 20
6.6052978034
 30
0.0
 10
12.3225726448
 20
6.6000181093
 30
0.0
 10
12.3373337043
 20
6.5936549556
 30
0.0
 10
12.3516581703
 20
6.5862433904
 30
0.0
 10
12.3654674427
 20
6.5778241935
 30
0.0
 10
12.378685753
 20
6.5684436504
 30
0.0
 10
12.3912405747
 20
6.5581533007
 30
0.0
 10
12.403063017
 20
6.5470096562
 30
0.0
 10
12.4140881978
 20
6.5350738936
 30
0.0
 10
12.4242555966
 20
6.5224115223
 30
0.0
 10
12.4335093833
 20
6.5090920273
 30
0.0
 10
12.4417987217
 20
6.4951884963
 30
0.0
 10
12.4490780469
 20
6.4807772073
 30
0.0
 10
12.4553073124
 20
6.4659372751
 30
0.0
 10
12.4604522199
 20
6.4507500025
 30
0.0
 10
12.464484352
 20
6.4352992519
 30
0.0
 10
12.4669017007
 20
6.4222571378
 30
0.0
 10
12.468257766
 20
6.4117779657
 30
0.0
 10
12.4692255543
 20
6.4013088187
 30
0.0
 10
12.4695185905
 20
6.3934308598
 30
0.0
 10
12.4695185905
 20
6.388188501
 30
0.0
  0
SPLINE
  5
365
100
AcDbEntity
  8
0
100
AcDbSpline
 62
7
  6
CONTINUOUS
 70
0
 71
3
 72
42
 73
38
 74
0
 42
0.0000001
 43
0.0000001
 44
0.0000000001
 40
0.0
 40
0.0
 40
0.0
 40
0.0
 40
0.0299419663
 40
0.0449235352
 40
0.0599142051
 40
0.0899287052
 40
0.1200139767
 40
0.135092661
 40
0.150196701
 40
0.1804840414
 40
0.210897872
 40
0.2414513324
 40
0.2721543376
 40
0.3030133986
 40
0.3340315263
 40
0.3652082187
 40
0.3965395244
 40
0.4280181782
 40
0.4596338019
 40
0.4913731609
 40
0.5232204716
 40
0.55515775
 40
0.5871651943
 40
0.6192215961
 40
0.6513047701
 40
0.6833919991
 40
0.7154604852
 40
0.7474878032
 40
0.7794523473
 40
0.8113337692
 40
0.8431133916
 40
0.8747746171
 40
0.9063032365
 40
0.9376879249
 40
0.9533258257
 40
0.968925233
 40
1.0
 40
1.0
 40
1.0
 40
1.0
 10
12.1058312995
 20
10.060890646
 30
0.0
 10
12.1094644366
 20
10.0643999875
 30
0.0
 10
12.1151282717
 20
10.0694513846
 30
0.0
 10
12.1230603847
 20
10.0757190361
 30
0.0
 10
12.1312450787
 20
10.0816748262
 30
0.0
 10
12.1419247774
 20
10.0885139944
 30
0.0
 10
12.1531237425
 20
10.0944962787
 30
0.0
 10
12.1623599675
 20
10.0987521363
 30
0.0
 10
12.1717870212
 20
10.1026565979
 30
0.0
 10
12.1838814793
 20
10.1068550654
 30
0.0
 10
12.1987860843
 20
10.1107679239
 30
0.0
 10
12.2140159127
 20
10.1135399089
 30
0.0
 10
12.2294865672
 20
10.1151557177
 30
0.0
 10
12.2451130627
 20
10.1156067299
 30
0.0
 10
12.260809418
 20
10.114890649
 30
0.0
 10
12.276489362
 20
10.1130116113
 30
0.0
 10
12.29206674
 20
10.1099801257
 30
0.0
 10
12.3074559986
 20
10.1058130162
 30
0.0
 10
12.3225726448
 20
10.1005333222
 30
0.0
 10
12.3373337043
 20
10.0941701684
 30
0.0
 10
12.3516581703
 20
10.0867586033
 30
0.0
 10
12.3654674427
 20
10.0783394063
 30
0.0
 10
12.378685753
 20
10.0689588633
 30
0.0
 10
12.3912405747
 20
10.0586685136
 30
0.0
 10
12.403063017
 20
10.047524869
 30
0.0
 10
12.4140881978
 20
10.0355891064
 30
0.0
 10
12.4242555966
 20
10.0229267352
 30
0.0
 10
12.4335093833
 20
10.0096072401
 30
0.0
 10
12.4417987217
 20
9.9957037091
 30
0.0
 10
12.4490780469
 20
9.9812924201
 30
0.0
 10
12.4553073124
 20
9.9664524879
 30
0.0
 10
12.4604522199
 20
9.9512652153
 30
0.0
 10
12.464484352
 20
9.9358144647
 30
0.0
 10
12.4669017007
 20
9.9227723506
 30
0.0
 10
12.468257766
 20
9.9122931785
 30
0.0
 10
12.4692255543
 20
9.9018240315
 30
0.0
 10
12.4695185905
 20
9.8939460726
 30
0.0
 10
12.4695185905
 20
9.8887037138
 30
0.0
  0
SPLINE
  5
366
100
AcDbEntity
  8
0
100
AcDbSpline
 62
7
  6
CONTINUOUS
 70
0
 71
3
 72
23
 73
19
 74
0
 42
0.0000001
 43
0.0000001
 44
0.0000000001
 40
0.0
 40
0.0
 40
0.0
 40
0.0
 40
0.0614488807
 40
0.1232974294
 40
0.1855193177
 40
0.2480712672
 40
0.3108995318
 40
0.3739401513
 40
0.4371217414
 40
0.5003679843
 40
0.5636003151
 40
0.6267406524
 40
0.6897141172
 40
0.7524516838
 40
0.8148926113
 40
0.8769871451
 40
0.9386966623
 40
1.0
 40
1.0
 40
1.0
 40
1.0
 10
9.9709549471
 20
7.3641669743
 30
0.0
 10
9.967388254
 20
7.3644143253
 30
0.0
 10
9.960251309
 20
7.3652621237
 30
0.0
 10
9.9496897171
 20
7.3675647564
 30
0.0
 10
9.9393328439
 20
7.3708802684
 30
0.0
 10
9.9292814367
 20
7.3751765381
 30
0.0
 10
9.9196316198
 20
7.3804120313
 30
0.0
 10
9.9104760695
 20
7.3865363309
 30
0.0
 10
9.9019025866
 20
7.3934905134
 30
0.0
 10
9.8939934271
 20
7.4012077516
 30
0.0
 10
9.8868244957
 20
7.4096139503
 30
0.0
 10
9.8804646417
 20
7.4186284451
 30
0.0
 10
9.8749750091
 20
7.4281647504
 30
0.0
 10
9.8704084557
 20
7.4381314054
 30
0.0
 10
9.8668089956
 20
7.4484326804
 30
0.0
 10
9.864211521
 20
7.4589700282
 30
0.0
 10
9.8626411887
 20
7.4696409295
 30
0.0
 10
9.8622882852
 20
7.4768029031
 30
0.0
 10
9.8622882852
 20
7.4803696948
 30
0.0
  0
SPLINE
  5
367
100
AcDbEntity
  8
0
100
AcDbSpline
 62
7
  6
CONTINUOUS
 70
0
 71
3
 72
21
 73
17
 74
0
 42
0.0000001
 43
0.0000001
 44
0.0000000001
 40
0.0
 40
0.0
 40
0.0
 40
0.0
 40
0.1273176366
 40
0.2537999756
 40
0.3167619475
 40
0.3795355041
 40
0.4421314991
 40
0.5045621439
 40
0.5668413432
 40
0.6289845283
 40
0.6910084528
 40
0.7529310935
 40
0.8147714495
 40
0.8765493365
 40
0.9382852194
 40
1.0
 40
1.0
 40
1.0
 40
1.0
 10
10.3869823331
 20
8.3736675173
 30
0.0
 10
10.3869823331
 20
8.3804122716
 30
0.0
 10
10.3876261644
 20
8.3938662109
 30
0.0
 10
10.3900577062
 20
8.4104981869
 30
0.0
 10
10.3929639394
 20
8.423544518
 30
0.0
 10
10.3956142678
 20
8.4331674966
 30
0.0
 10
10.3987322009
 20
8.4426194907
 30
0.0
 10
10.4023105944
 20
8.4518789633
 30
0.0
 10
10.4063411715
 20
8.4609245061
 30
0.0
 10
10.4108146939
 20
8.4697352585
 30
0.0
 10
10.415720871
 20
8.478290881
 30
0.0
 10
10.42104836
 20
8.4865716681
 30
0.0
 10
10.4267848897
 20
8.494558487
 30
0.0
 10
10.4329173318
 20
8.5022329497
 30
0.0
 10
10.4394312559
 20
8.5095771486
 30
0.0
 10
10.4440190553
 20
8.5142426635
 30
0.0
 10
10.4463705791
 20
8.5165140614
 30
0.0
  0
SPLINE
  5
368
100
AcDbEntity
  8
0
100
AcDbSpline
 62
7
  6
CONTINUOUS
 70
0
 71
3
 72
21
 73
17
 74
0
 42
0.0000001
 43
0.0000001
 44
0.0000000001
 40
0.0
 40
0.0
 40
0.0
 40
0.0
 40
0.1273176366
 40
0.2537999756
 40
0.3167619475
 40
0.3795355041
 40
0.4421314991
 40
0.5045621439
 40
0.5668413432
 40
0.6289845283
 40
0.6910084528
 40
0.7529310935
 40
0.8147714495
 40
0.8765493365
 40
0.9382852194
 40
1.0
 40
1.0
 40
1.0
 40
1.0
 10
10.7791482594
 20
8.9202305601
 30
0.0
 10
10.7791482594
 20
8.9269753144
 30
0.0
 10
10.7797920907
 20
8.9404292537
 30
0.0
 10
10.7822236324
 20
8.9570612297
 30
0.0
 10
10.7851298656
 20
8.9701075609
 30
0.0
 10
10.787780194
 20
8.9797305394
 30
0.0
 10
10.7908981271
 20
8.9891825335
 30
0.0
 10
10.7944765206
 20
8.9984420061
 30
0.0
 10
10.7985070977
 20
9.0074875489
 30
0.0
 10
10.8029806201
 20
9.0162983014
 30
0.0
 10
10.8078867972
 20
9.0248539238
 30
0.0
 10
10.8132142862
 20
9.0331347109
 30
0.0
 10
10.8189508159
 20
9.0411215298
 30
0.0
 10
10.825083258
 20
9.0487959925
 30
0.0
 10
10.8315971821
 20
9.0561401914
 30
0.0
 10
10.8361849816
 20
9.0608057063
 30
0.0
 10
10.8385365053
 20
9.0630771042
 30
0.0
  0
SPLINE
  5
369
100
AcDbEntity
  8
0
100
AcDbSpline
 62
7
  6
CONTINUOUS
 70
0
 71
3
 72
21
 73
17
 74
0
 42
0.0000001
 43
0.0000001
 44
0.0000000001
 40
0.0
 40
0.0
 40
0.0
 40
0.0
 40
0.1273176366
 40
0.2537999756
 40
0.3167619475
 40
0.3795355041
 40
0.4421314991
 40
0.5045621439
 40
0.5668413432
 40
0.6289845283
 40
0.6910084528
 40
0.7529310935
 40
0.8147714495
 40
0.8765493365
 40
0.9382852194
 40
1.0
 40
1.0
 40
1.0
 40
1.0
 10
11.1713140704
 20
8.3192739266
 30
0.0
 10
11.1713140704
 20
8.3260186809
 30
0.0
 10
11.1719579017
 20
8.3394726202
 30
0.0
 10
11.1743894435
 20
8.3561045961
 30
0.0
 10
11.1772956767
 20
8.3691509273
 30
0.0
 10
11.1799460051
 20
8.3787739059
 30
0.0
 10
11.1830639382
 20
8.3882259
 30
0.0
 10
11.1866423317
 20
8.3974853726
 30
0.0
 10
11.1906729088
 20
8.4065309153
 30
0.0
 10
11.1951464311
 20
8.4153416678
 30
0.0
 10
11.2000526083
 20
8.4238972902
 30
0.0
 10
11.2053800972
 20
8.4321780774
 30
0.0
 10
11.211116627
 20
8.4401648963
 30
0.0
 10
11.2172490691
 20
8.447839359
 30
0.0
 10
11.2237629931
 20
8.4551835579
 30
0.0
 10
11.2283507926
 20
8.4598490728
 30
0.0
 10
11.2307023163
 20
8.4621204706
 30
0.0
  0
SPLINE
  5
36A
100
AcDbEntity
  8
0
100
AcDbSpline
 62
7
  6
CONTINUOUS
 70
0
 71
3
 72
21
 73
17
 74
0
 42
0.0000001
 43
0.0000001
 44
0.0000000001
 40
0.0
 40
0.0
 40
0.0
 40
0.0
 40
0.1273176366
 40
0.2537999756
 40
0.3167619475
 40
0.3795355041
 40
0.4421314991
 40
0.5045621439
 40
0.5668413432
 40
0.6289845283
 40
0.6910084528
 40
0.7529310935
 40
0.8147714495
 40
0.8765493365
 40
0.9382852194
 40
1.0
 40
1.0
 40
1.0
 40
1.0
 10
9.0288905522
 20
6.6267968659
 30
0.0
 10
9.0288905522
 20
6.6335416201
 30
0.0
 10
9.0295343835
 20
6.6469955595
 30
0.0
 10
9.0319659253
 20
6.6636275354
 30
0.0
 10
9.0348721584
 20
6.6766738666
 30
0.0
 10
9.0375224869
 20
6.6862968451
 30
0.0
 10
9.0406404199
 20
6.6957488393
 30
0.0
 10
9.0442188135
 20
6.7050083119
 30
0.0
 10
9.0482493906
 20
6.7140538546
 30
0.0
 10
9.0527229129
 20
6.7228646071
 30
0.0
 10
9.0576290901
 20
6.7314202295
 30
0.0
 10
9.062956579
 20
6.7397010167
 30
0.0
 10
9.0686931087
 20
6.7476878355
 30
0.0
 10
9.0748255509
 20
6.7553622983
 30
0.0
 10
9.0813394749
 20
6.7627064972
 30
0.0
 10
9.0859272744
 20
6.7673720121
 30
0.0
 10
9.0882787981
 20
6.7696434099
 30
0.0
  0
SPLINE
  5
36B
100
AcDbEntity
  8
0
100
AcDbSpline
 62
7
  6
CONTINUOUS
 70
0
 71
3
 72
85
 73
81
 74
0
 42
0.0000001
 43
0.0000001
 44
0.0000000001
 40
0.0
 40
0.0
 40
0.0
 40
0.0
 40
0.0039801536
 40
0.0081240886
 40
0.0124359635
 40
0.0169193265
 40
0.0215771864
 40
0.0264119179
 40
0.0314251807
 40
0.0366181565
 40
0.0419915475
 40
0.0475456547
 40
0.0532804275
 40
0.0591954177
 40
0.0715624106
 40
0.0846380725
 40
0.0984093703
 40
0.1128599259
 40
0.1279704399
 40
0.1437190257
 40
0.1600814793
 40
0.1770315221
 40
0.1945410006
 40
0.2125800587
 40
0.231117291
 40
0.2501198757
 40
0.2695537098
 40
0.2893835355
 40
0.3095730555
 40
0.3300850431
 40
0.3508814473
 40
0.3719234976
 40
0.3931718126
 40
0.4145865023
 40
0.4577527565
 40
0.5010975085
 40
0.5442934995
 40
0.5657341296
 40
0.5870156851
 40
0.6080981942
 40
0.6289421774
 40
0.6495087485
 40
0.6697597169
 40
0.6896576926
 40
0.7091662002
 40
0.7282497876
 40
0.7468741375
 40
0.7650061872
 40
0.7826142562
 40
0.7996681911
 40
0.8161395201
 40
0.8320016152
 40
0.8472298839
 40
0.8618019934
 40
0.8756981411
 40
0.888901391
 40
0.9013980709
 40
0.9131782826
 40
0.9187981369
 40
0.9242372582
 40
0.9294957859
 40
0.9345743097
 40
0.9394738093
 40
0.9441958086
 40
0.9487423661
 40
0.9531161549
 40
0.9573205873
 40
0.9613598144
 40
0.9652389262
 40
0.9689639795
 40
0.9725421508
 40
0.9759818729
 40
0.9792928946
 40
0.9824864624
 40
0.9855753237
 40
0.9885737978
 40
0.9914977268
 40
0.9943643293
 40
0.9971920085
 40
1.0
 40
1.0
 40
1.0
 40
1.0
 10
10.7993710909
 20
10.7625405454
 30
0.0
 10
10.8005495178
 20
10.7636788185
 30
0.0
 10
10.8030083809
 20
10.7659473216
 30
0.0
 10
10.806912309
 20
10.7692606539
 30
0.0
 10
10.8111029238
 20
10.7725502403
 30
0.0
 10
10.8155779246
 20
10.7758142943
 30
0.0
 10
10.8203351049
 20
10.7790513151
 30
0.0
 10
10.8253721585
 20
10.7822597044
 30
0.0
 10
10.8306865599
 20
10.7854379541
 30
0.0
 10
10.8362756731
 20
10.7885844154
 30
0.0
 10
10.8421366848
 20
10.7916975426
 30
0.0
 10
10.8482666575
 20
10.7947757833
 30
0.0
 10
10.8546625428
 20
10.7978175864
 30
0.0
 10
10.8636748302
 20
10.8018831725
 30
0.0
 10
10.8755918874
 20
10.8068513853
 30
0.0
 10
10.8906940901
 20
10.8125589157
 30
0.0
 10
10.9067729048
 20
10.8180857605
 30
0.0
 10
10.9237959668
 20
10.8234207043
 30
0.0
 10
10.9417291964
 20
10.8285529037
 30
0.0
 10
10.9605365245
 20
10.8334719092
 30
0.0
 10
10.98018008
 20
10.8381677079
 30
0.0
 10
11.0006202541
 20
10.8426307352
 30
0.0
 10
11.0218158002
 20
10.8468518996
 30
0.0
 10
11.0437239218
 20
10.8508226019
 30
0.0
 10
11.0663003608
 20
10.8545347516
 30
0.0
 10
11.0894994872
 20
10.8579807922
 30
0.0
 10
11.1132743971
 20
10.8611537122
 30
0.0
 10
11.1375770131
 20
10.8640470548
 30
0.0
 10
11.1623581851
 20
10.8666549326
 30
0.0
 10
11.1875677878
 20
10.8689720371
 30
0.0
 10
11.2131548256
 20
10.870993655
 30
0.0
 10
11.239067518
 20
10.8727156718
 30
0.0
 10
11.2652534798
 20
10.8741346152
 30
0.0
 10
11.3005538045
 20
10.8756223406
 30
0.0
 10
11.3449719594
 20
10.8767029566
 30
0.0
 10
11.3983693791
 20
10.8767592901
 30
0.0
 10
11.4428126334
 20
10.8757726068
 30
0.0
 10
11.4781526671
 20
10.8743598769
 30
0.0
 10
11.5043826433
 20
10.8729963855
 30
0.0
 10
11.5303489469
 20
10.8713292489
 30
0.0
 10
11.5559990863
 20
10.8693618301
 30
0.0
 10
11.581281155
 20
10.8670981373
 30
0.0
 10
11.6061440079
 20
10.8645427713
 30
0.0
 10
11.6305373492
 20
10.8617009266
 30
0.0
 10
11.6544118429
 20
10.8585783882
 30
0.0
 10
11.6777192126
 20
10.855181513
 30
0.0
 10
11.7004123377
 20
10.8515172158
 30
0.0
 10
11.7224453495
 20
10.8475929564
 30
0.0
 10
11.7437737276
 20
10.8434167226
 30
0.0
 10
11.764354399
 20
10.8389970198
 30
0.0
 10
11.7841458307
 20
10.8343428555
 30
0.0
 10
11.8031081173
 20
10.8294637115
 30
0.0
 10
11.8212030628
 20
10.8243695253
 30
0.0
 10
11.8383942786
 20
10.8190706645
 30
0.0
 10
11.85464724
 20
10.8135778996
 30
0.0
 10
11.869929501
 20
10.8079023719
 30
0.0
 10
11.8842103598
 20
10.8020555773
 30
0.0
 10
11.8954227649
 20
10.7969736213
 30
0.0
 10
11.9038584636
 20
10.7928213932
 30
0.0
 10
11.909817669
 20
10.7897207676
 30
0.0
 10
11.9155060024
 20
10.7865862376
 30
0.0
 10
11.9209206539
 20
10.7834193963
 30
0.0
 10
11.926058892
 20
10.780221765
 30
0.0
 10
11.9309181736
 20
10.7769949612
 30
0.0
 10
11.9354960812
 20
10.7737405653
 30
0.0
 10
11.9397903162
 20
10.7704601264
 30
0.0
 10
11.9437987835
 20
10.7671552865
 30
0.0
 10
11.9475194368
 20
10.7638275474
 30
0.0
 10
11.9509504506
 20
10.760478527
 30
0.0
 10
11.954090071
 20
10.7571097509
 30
0.0
 10
11.956936651
 20
10.7537227381
 30
0.0
 10
11.9594887264
 20
10.7503190653
 30
0.0
 10
11.9617447837
 20
10.7469001944
 30
0.0
 10
11.963703547
 20
10.7434677324
 30
0.0
 10
11.9653636856
 20
10.7400232378
 30
0.0
 10
11.9667239869
 20
10.7365683838
 30
0.0
 10
11.9677834061
 20
10.7331050074
 30
0.0
 10
11.9685408694
 20
10.7296349203
 30
0.0
 10
11.9689957335
 20
10.7261605916
 30
0.0
 10
11.9690969775
 20
10.7238394604
 30
0.0
 10
11.9690969831
 20
10.7226835717
 30
0.0
  0
SPLINE
  5
36C
100
AcDbEntity
  8
0
100
AcDbSpline
 62
7
  6
CONTINUOUS
 70
0
 71
3
 72
23
 73
19
 74
0
 42
0.0000001
 43
0.0000001
 44
0.0000000001
 40
0.0
 40
0.0
 40
0.0
 40
0.0
 40
0.0749625009
 40
0.1455684839
 40
0.2121600745
 40
0.2751631548
 40
0.3350982506
 40
0.3925832742
 40
0.4483295117
 40
0.5031237972
 40
0.5577983643
 40
0.613191491
 40
0.670106811
 40
0.729278715
 40
0.7913522906
 40
0.8568775564
 40
0.9263090861
 40
1.0
 40
1.0
 40
1.0
 40
1.0
 10
9.9511946226
 20
10.7737042199
 30
0.0
 10
9.9501839518
 20
10.7746447558
 30
0.0
 10
9.9482773739
 20
10.7765330181
 30
0.0
 10
9.9457048252
 20
10.7794789856
 30
0.0
 10
9.9435111076
 20
10.7824482738
 30
0.0
 10
9.9416995209
 20
10.7854383293
 30
0.0
 10
9.9402730569
 20
10.7884464875
 30
0.0
 10
9.9392349443
 20
10.7914696849
 30
0.0
 10
9.9385880869
 20
10.7945040236
 30
0.0
 10
9.9383347891
 20
10.7975446999
 30
0.0
 10
9.9384760476
 20
10.8005861832
 30
0.0
 10
9.9390112766
 20
10.8036228595
 30
0.0
 10
9.9399385657
 20
10.8066496465
 30
0.0
 10
9.9412549965
 20
10.8096624218
 30
0.0
 10
9.9429575057
 20
10.8126578819
 30
0.0
 10
9.9450430068
 20
10.8156334094
 30
0.0
 10
9.9475082894
 20
10.8185861692
 30
0.0
 10
9.9493460089
 20
10.8204793895
 30
0.0
 10
9.9503221693
 20
10.8214222881
 30
0.0
  0
SPLINE
  5
36D
100
AcDbEntity
  8
0
100
AcDbSpline
 62
7
  6
CONTINUOUS
 70
0
 71
3
 72
85
 73
81
 74
0
 42
0.0000001
 43
0.0000001
 44
0.0000000001
 40
0.0
 40
0.0
 40
0.0
 40
0.0
 40
0.0041938785
 40
0.0085762526
 40
0.0131521725
 40
0.0179258276
 40
0.0229006911
 40
0.028079459
 40
0.0334638936
 40
0.0390551032
 40
0.0448536297
 40
0.0508594469
 40
0.0634901079
 40
0.076939214
 40
0.0911923552
 40
0.106230319
 40
0.122029753
 40
0.1385636726
 40
0.1558019084
 40
0.1737114658
 40
0.1922568156
 40
0.2114001318
 40
0.2311015106
 40
0.2513191976
 40
0.2720097753
 40
0.2931283342
 40
0.3146286272
 40
0.3364632445
 40
0.3585837793
 40
0.4034839214
 40
0.4489285174
 40
0.4945096695
 40
0.5398178882
 40
0.5844468655
 40
0.6063822147
 40
0.6279992666
 40
0.64925027
 40
0.6700885783
 40
0.6904688071
 40
0.7103470128
 40
0.7296808753
 40
0.7484298652
 40
0.7665554374
 40
0.7840212502
 40
0.8007934351
 40
0.8168408612
 40
0.8321354498
 40
0.8466525686
 40
0.8603715394
 40
0.8732762803
 40
0.8853560896
 40
0.8910854755
 40
0.8966076785
 40
0.9019233923
 40
0.9070340056
 40
0.911941519
 40
0.9166487657
 40
0.9211594738
 40
0.9254783272
 40
0.9296112421
 40
0.9335653764
 40
0.9373493905
 40
0.9409736255
 40
0.9444501994
 40
0.9477932807
 40
0.9510190948
 40
0.954145996
 40
0.9571943966
 40
0.96018648
 40
0.9631458579
 40
0.966096994
 40
0.9690645833
 40
0.9720728733
 40
0.9751450686
 40
0.9783027827
 40
0.9849468936
 40
0.9884712202
 40
0.992147635
 40
0.9959874677
 40
1.0
 40
1.0
 40
1.0
 40
1.0
 10
9.9503221693
 20
10.8214222881
 30
0.0
 10
9.951079754
 20
10.8221540588
 30
0.0
 10
9.9526666499
 20
10.8236118728
 30
0.0
 10
9.9551975858
 20
10.8257359025
 30
0.0
 10
9.9579288985
 20
10.8278430923
 30
0.0
 10
9.9608588118
 20
10.8299320579
 30
0.0
 10
9.9639855919
 20
10.8320016777
 30
0.0
 10
9.9673074517
 20
10.8340507284
 30
0.0
 10
9.9708224183
 20
10.8360780721
 30
0.0
 10
9.9745284097
 20
10.8380824767
 30
0.0
 10
9.9784232291
 20
10.8400627497
 30
0.0
 10
9.9839583434
 20
10.8427140238
 30
0.0
 10
9.9913411485
 20
10.8459500161
 30
0.0
 10
10.0007706922
 20
10.849656131
 30
0.0
 10
10.0108913773
 20
10.8532387878
 30
0.0
 10
10.0216790238
 20
10.8566893435
 30
0.0
 10
10.033108006
 20
10.8599994434
 30
0.0
 10
10.0451510045
 20
10.8631610697
 30
0.0
 10
10.0577791903
 20
10.8661665548
 30
0.0
 10
10.0709622864
 20
10.8690086036
 30
0.0
 10
10.0846686553
 20
10.8716803136
 30
0.0
 10
10.0988653717
 20
10.8741751985
 30
0.0
 10
10.1135183066
 20
10.8764872124
 30
0.0
 10
10.1285922206
 20
10.8786107488
 30
0.0
 10
10.1440508539
 20
10.8805406573
 30
0.0
 10
10.1598570139
 20
10.8822722551
 30
0.0
 10
10.17597265
 20
10.8838013424
 30
0.0
 10
10.1923589997
 20
10.8851242451
 30
0.0
 10
10.2146256266
 20
10.8866161646
 30
0.0
 10
10.242843812
 20
10.887938825
 30
0.0
 10
10.2769775205
 20
10.8886599825
 30
0.0
 10
10.3112211786
 20
10.8885156076
 30
0.0
 10
10.3452452354
 20
10.8875070934
 30
0.0
 10
10.3733022241
 20
10.8859461692
 30
0.0
 10
10.3953856723
 20
10.8842654169
 30
0.0
 10
10.4115959073
 20
10.8828046531
 30
0.0
 10
10.4275094898
 20
10.881140121
 30
0.0
 10
10.4430881492
 20
10.8792758256
 30
0.0
 10
10.4582943853
 20
10.8772162875
 30
0.0
 10
10.4730916153
 20
10.8749664965
 30
0.0
 10
10.4874442536
 20
10.8725319155
 30
0.0
 10
10.5013177974
 20
10.8699184508
 30
0.0
 10
10.5146789085
 20
10.8671324429
 30
0.0
 10
10.5274955023
 20
10.8641806458
 30
0.0
 10
10.5397368401
 20
10.8610702292
 30
0.0
 10
10.5513736055
 20
10.8578087445
 30
0.0
 10
10.5623779861
 20
10.8544041008
 30
0.0
 10
10.5727237234
 20
10.8508645388
 30
0.0
 10
10.5823863118
 20
10.8471985929
 30
0.0
 10
10.5913427203
 20
10.8434150927
 30
0.0
 10
10.5983186986
 20
10.8401160208
 30
0.0
 10
10.6035203926
 20
10.8374170103
 30
0.0
 10
10.6071629614
 20
10.8354048294
 30
0.0
 10
10.6106137849
 20
10.8333701012
 30
0.0
 10
10.6138708509
 20
10.8313140528
 30
0.0
 10
10.616932212
 20
10.8292378478
 30
0.0
 10
10.6197960657
 20
10.8271426979
 30
0.0
 10
10.622460744
 20
10.8250298305
 30
0.0
 10
10.6249246324
 20
10.8229003783
 30
0.0
 10
10.627186313
 20
10.820755582
 30
0.0
 10
10.6292444028
 20
10.8185965715
 30
0.0
 10
10.6310976264
 20
10.816424494
 30
0.0
 10
10.6327448493
 20
10.8142405302
 30
0.0
 10
10.6341848812
 20
10.8120457597
 30
0.0
 10
10.6354167221
 20
10.8098413893
 30
0.0
 10
10.6364393349
 20
10.8076286022
 30
0.0
 10
10.6372517163
 20
10.805408678
 30
0.0
 10
10.6378530764
 20
10.8031830612
 30
0.0
 10
10.6382425703
 20
10.8009532865
 30
0.0
 10
10.6384197388
 20
10.7987210877
 30
0.0
 10
10.6383843236
 20
10.7964882717
 30
0.0
 10
10.6381363024
 20
10.7942566827
 30
0.0
 10
10.6376761546
 20
10.7920281238
 30
0.0
 10
10.6370043054
 20
10.7898041553
 30
0.0
 10
10.6358076376
 20
10.7867969899
 30
0.0
 10
10.6341920798
 20
10.7838487299
 30
0.0
 10
10.6322188646
 20
10.7809839775
 30
0.0
 10
10.6305026589
 20
10.7788035594
 30
0.0
 10
10.628581057
 20
10.7766358263
 30
0.0
 10
10.6271951139
 20
10.7752313852
 30
0.0
 10
10.6264702877
 20
10.7745312568
 30
0.0
  0
SPLINE
  5
36E
100
AcDbEntity
  8
0
100
AcDbSpline
 62
7
  6
CONTINUOUS
 70
0
 71
3
 72
19
 73
15
 74
0
 42
0.0000001
 43
0.0000001
 44
0.0000000001
 40
0.0
 40
0.0
 40
0.0
 40
0.0
 40
0.1504607152
 40
0.2916988954
 40
0.4244197706
 40
0.4878838785
 40
0.549580297
 40
0.6682271827
 40
0.7255606102
 40
0.7817998481
 40
0.8371466355
 40
0.8918135538
 40
0.9460221503
 40
1.0
 40
1.0
 40
1.0
 40
1.0
 10
13.004579848
 20
7.9523467907
 30
0.0
 10
13.0028977181
 20
7.950721978
 30
0.0
 10
12.9995357625
 20
7.9476733643
 30
0.0
 10
12.994330104
 20
7.9436107309
 30
0.0
 10
12.9899330966
 20
7.9407374197
 30
0.0
 10
12.9864267728
 20
7.9387916958
 30
0.0
 10
12.9830238876
 20
7.9371212627
 30
0.0
 10
12.9795811644
 20
7.935755828
 30
0.0
 10
12.976119069
 20
7.9347283409
 30
0.0
 10
12.9735592894
 20
7.9341361013
 30
0.0
 10
12.9710080339
 20
7.9337139738
 30
0.0
 10
12.9684659725
 20
7.9334621844
 30
0.0
 10
12.965934134
 20
7.9333808352
 30
0.0
 10
12.9642520535
 20
7.9334403355
 30
0.0
 10
12.9634150498
 20
7.9334983849
 30
0.0
  0
SPLINE
  5
36F
100
AcDbEntity
  8
0
100
AcDbSpline
 62
7
  6
CONTINUOUS
 70
0
 71
3
 72
39
 73
35
 74
0
 42
0.0000001
 43
0.0000001
 44
0.0000000001
 40
0.0
 40
0.0
 40
0.0
 40
0.0
 40
0.0314026134
 40
0.06300949
 40
0.0948071102
 40
0.1267734453
 40
0.1588809722
 40
0.1910970226
 40
0.2233851132
 40
0.2557062446
 40
0.2880202663
 40
0.3202872751
 40
0.3524690067
 40
0.384530184
 40
0.4164397927
 40
0.448172249
 40
0.4797084083
 40
0.5110363809
 40
0.5421521201
 40
0.5730597413
 40
0.6037715194
 40
0.6343075569
 40
0.6646951118
 40
0.6949675896
 40
0.7251632184
 40
0.755323478
 40
0.7854913548
 40
0.8157095105
 40
0.8460184691
 40
0.8764549222
 40
0.9070502335
 40
0.9378293335
 40
0.9688091139
 40
1.0
 40
1.0
 40
1.0
 40
1.0
 10
9.9648727045
 20
9.3495481527
 30
0.0
 10
9.9691844402
 20
9.3492491328
 30
0.0
 10
9.9778122157
 20
9.3482242353
 30
0.0
 10
9.9905800067
 20
9.3454406143
 30
0.0
 10
10.0031003167
 20
9.341432531
 30
0.0
 10
10.0152513534
 20
9.3362388276
 30
0.0
 10
10.0269168996
 20
9.3299096751
 30
0.0
 10
10.0379849401
 20
9.3225060754
 30
0.0
 10
10.0483493391
 20
9.3140992553
 30
0.0
 10
10.0579106461
 20
9.304769983
 30
0.0
 10
10.0665770759
 20
9.2946078112
 30
0.0
 10
10.0742654181
 20
9.2837102801
 30
0.0
 10
10.0809017757
 20
9.2721819436
 30
0.0
 10
10.0864222575
 20
9.2601333931
 30
0.0
 10
10.090773584
 20
9.247680227
 30
0.0
 10
10.0939136721
 20
9.234941991
 30
0.0
 10
10.0958119788
 20
9.2220410254
 30
0.0
 10
10.0964498072
 20
9.2091013273
 30
0.0
 10
10.0958205114
 20
9.1962473936
 30
0.0
 10
10.0939296756
 20
9.1836030388
 30
0.0
 10
10.0907950273
 20
9.1712902083
 30
0.0
 10
10.0864463167
 20
9.1594278095
 30
0.0
 10
10.0809250826
 20
9.1481305549
 30
0.0
 10
10.0742843668
 20
9.1375077787
 30
0.0
 10
10.0665881537
 20
9.1276623543
 30
0.0
 10
10.0579107625
 20
9.1186896493
 30
0.0
 10
10.0483361202
 20
9.1106765514
 30
0.0
 10
10.0379569591
 20
9.1037005155
 30
0.0
 10
10.0268738174
 20
9.0978288392
 30
0.0
 10
10.0151939676
 20
9.0931180205
 30
0.0
 10
10.0030304993
 20
9.0896131967
 30
0.0
 10
9.9905005952
 20
9.0873478011
 30
0.0
 10
9.9777267033
 20
9.0863429549
 30
0.0
 10
9.969155369
 20
9.0865193086
 30
0.0
 10
9.9648727045
 20
9.0868163124
 30
0.0
  0
SPLINE
  5
370
100
AcDbEntity
  8
0
100
AcDbSpline
 62
7
  6
CONTINUOUS
 70
0
 71
3
 72
18
 73
14
 74
0
 42
0.0000001
 43
0.0000001
 44
0.0000000001
 40
0.0
 40
0.0
 40
0.0
 40
0.0
 40
0.0548627134
 40
0.1099293262
 40
0.1654013673
 40
0.2214755976
 40
0.336133279
 40
0.4553633673
 40
0.5171049701
 40
0.5804366861
 40
0.7123309727
 40
0.8519568969
 40
1.0
 40
1.0
 40
1.0
 40
1.0
 10
10.7790970001
 20
10.7226827659
 30
0.0
 10
10.779096996
 20
10.72352308
 30
0.0
 10
10.7791503204
 20
10.7252073168
 30
0.0
 10
10.7793900856
 20
10.7277309196
 30
0.0
 10
10.7797896642
 20
10.7302531218
 30
0.0
 10
10.7805405503
 20
10.7336373469
 30
0.0
 10
10.7818932705
 20
10.7378789599
 30
0.0
 10
10.7837460017
 20
10.7420204309
 30
0.0
 10
10.7855287602
 20
10.7453117756
 30
0.0
 10
10.7875700865
 20
10.7486785515
 30
0.0
 10
10.7905341504
 20
10.7528730681
 30
0.0
 10
10.7946665943
 20
10.7578023025
 30
0.0
 10
10.7977401613
 20
10.7609651883
 30
0.0
 10
10.7993710909
 20
10.7625405454
 30
0.0
  0
SPLINE
  5
371
100
AcDbEntity
  8
0
100
AcDbSpline
 62
7
  6
CONTINUOUS
 70
0
 71
3
 72
39
 73
35
 74
0
 42
0.0000001
 43
0.0000001
 44
0.0000000001
 40
0.0
 40
0.0
 40
0.0
 40
0.0
 40
0.0314026134
 40
0.06300949
 40
0.0948071102
 40
0.1267734453
 40
0.1588809722
 40
0.1910970226
 40
0.2233851132
 40
0.2557062446
 40
0.2880202663
 40
0.3202872751
 40
0.3524690067
 40
0.384530184
 40
0.4164397927
 40
0.448172249
 40
0.4797084083
 40
0.5110363809
 40
0.5421521201
 40
0.5730597413
 40
0.6037715194
 40
0.6343075569
 40
0.6646951118
 40
0.6949675896
 40
0.7251632184
 40
0.755323478
 40
0.7854913548
 40
0.8157095105
 40
0.8460184691
 40
0.8764549222
 40
0.9070502335
 40
0.9378293335
 40
0.9688091139
 40
1.0
 40
1.0
 40
1.0
 40
1.0
 10
9.9648727045
 20
9.0868163124
 30
0.0
 10
9.9605609688
 20
9.0871153323
 30
0.0
 10
9.9519331934
 20
9.0881402298
 30
0.0
 10
9.9391654024
 20
9.0909238508
 30
0.0
 10
9.9266450924
 20
9.0949319341
 30
0.0
 10
9.9144940557
 20
9.1001256375
 30
0.0
 10
9.9028285094
 20
9.10645479
 30
0.0
 10
9.891760469
 20
9.1138583897
 30
0.0
 10
9.8813960699
 20
9.1222652098
 30
0.0
 10
9.8718347629
 20
9.1315944821
 30
0.0
 10
9.8631683332
 20
9.1417566539
 30
0.0
 10
9.8554799909
 20
9.152654185
 30
0.0
 10
9.8488436334
 20
9.1641825215
 30
0.0
 10
9.8433231515
 20
9.176231072
 30
0.0
 10
9.838971825
 20
9.1886842381
 30
0.0
 10
9.8358317369
 20
9.2014224741
 30
0.0
 10
9.8339334303
 20
9.2143234397
 30
0.0
 10
9.8332956019
 20
9.2272631378
 30
0.0
 10
9.8339248977
 20
9.2401170715
 30
0.0
 10
9.8358157335
 20
9.2527614263
 30
0.0
 10
9.8389503817
 20
9.2650742568
 30
0.0
 10
9.8432990923
 20
9.2769366556
 30
0.0
 10
9.8488203265
 20
9.2882339102
 30
0.0
 10
9.8554610423
 20
9.2988566864
 30
0.0
 10
9.8631572554
 20
9.3087021108
 30
0.0
 10
9.8718346466
 20
9.3176748158
 30
0.0
 10
9.8814092888
 20
9.3256879137
 30
0.0
 10
9.89178845
 20
9.3326639496
 30
0.0
 10
9.9028715917
 20
9.3385356259
 30
0.0
 10
9.9145514415
 20
9.3432464446
 30
0.0
 10
9.9267149098
 20
9.3467512684
 30
0.0
 10
9.9392448138
 20
9.349016664
 30
0.0
 10
9.9520187058
 20
9.3500215102
 30
0.0
 10
9.9605900401
 20
9.3498451565
 30
0.0
 10
9.9648727045
 20
9.3495481527
 30
0.0
  0
SPLINE
  5
372
100
AcDbEntity
  8
0
100
AcDbSpline
 62
7
  6
CONTINUOUS
 70
0
 71
3
 72
39
 73
35
 74
0
 42
0.0000001
 43
0.0000001
 44
0.0000000001
 40
0.0
 40
0.0
 40
0.0
 40
0.0
 40
0.0314026134
 40
0.06300949
 40
0.0948071102
 40
0.1267734453
 40
0.1588809722
 40
0.1910970226
 40
0.2233851132
 40
0.2557062446
 40
0.2880202663
 40
0.3202872751
 40
0.3524690067
 40
0.384530184
 40
0.4164397927
 40
0.448172249
 40
0.4797084083
 40
0.5110363809
 40
0.5421521201
 40
0.5730597413
 40
0.6037715194
 40
0.6343075569
 40
0.6646951118
 40
0.6949675896
 40
0.7251632184
 40
0.755323478
 40
0.7854913548
 40
0.8157095105
 40
0.8460184691
 40
0.8764549222
 40
0.9070502335
 40
0.9378293335
 40
0.9688091139
 40
1.0
 40
1.0
 40
1.0
 40
1.0
 10
12.0164993511
 20
9.2072673615
 30
0.0
 10
12.0208110868
 20
9.2069683416
 30
0.0
 10
12.0294388623
 20
9.2059434441
 30
0.0
 10
12.0422066533
 20
9.2031598231
 30
0.0
 10
12.0547269633
 20
9.1991517398
 30
0.0
 10
12.066878
 20
9.1939580364
 30
0.0
 10
12.0785435462
 20
9.1876288839
 30
0.0
 10
12.0896115867
 20
9.1802252842
 30
0.0
 10
12.0999759857
 20
9.1718184641
 30
0.0
 10
12.1095372928
 20
9.1624891918
 30
0.0
 10
12.1182037225
 20
9.15232702
 30
0.0
 10
12.1258920647
 20
9.1414294889
 30
0.0
 10
12.1325284223
 20
9.1299011524
 30
0.0
 10
12.1380489041
 20
9.117852602
 30
0.0
 10
12.1424002307
 20
9.1053994358
 30
0.0
 10
12.1455403187
 20
9.0926611998
 30
0.0
 10
12.1474386254
 20
9.0797602343
 30
0.0
 10
12.1480764538
 20
9.0668205361
 30
0.0
 10
12.147447158
 20
9.0539666024
 30
0.0
 10
12.1455563222
 20
9.0413222477
 30
0.0
 10
12.142421674
 20
9.0290094171
 30
0.0
 10
12.1380729633
 20
9.0171470183
 30
0.0
 10
12.1325517292
 20
9.0058497637
 30
0.0
 10
12.1259110134
 20
8.9952269875
 30
0.0
 10
12.1182148003
 20
8.9853815631
 30
0.0
 10
12.1095374091
 20
8.9764088581
 30
0.0
 10
12.0999627668
 20
8.9683957602
 30
0.0
 10
12.0895836057
 20
8.9614197243
 30
0.0
 10
12.078500464
 20
8.955548048
 30
0.0
 10
12.0668206142
 20
8.9508372293
 30
0.0
 10
12.0546571459
 20
8.9473324055
 30
0.0
 10
12.0421272418
 20
8.9450670099
 30
0.0
 10
12.0293533499
 20
8.9440621637
 30
0.0
 10
12.0207820156
 20
8.9442385174
 30
0.0
 10
12.0164993511
 20
8.9445355212
 30
0.0
  0
SPLINE
  5
373
100
AcDbEntity
  8
0
100
AcDbSpline
 62
7
  6
CONTINUOUS
 70
0
 71
3
 72
15
 73
11
 74
0
 42
0.0000001
 43
0.0000001
 44
0.0000000001
 40
0.0
 40
0.0
 40
0.0
 40
0.0
 40
0.1273482936
 40
0.2538605366
 40
0.3795879111
 40
0.5046050899
 40
0.6290174366
 40
0.7529533732
 40
0.8765605776
 40
1.0
 40
1.0
 40
1.0
 40
1.0
 10
9.8622882852
 20
9.2315932866
 30
0.0
 10
9.8622882852
 20
9.235058062
 30
0.0
 10
9.8626191001
 20
9.2419696564
 30
0.0
 10
9.864115187
 20
9.2522041178
 30
0.0
 10
9.8665959482
 20
9.2621814245
 30
0.0
 10
9.8700389809
 20
9.2718082687
 30
0.0
 10
9.874412679
 20
9.2809958739
 30
0.0
 10
9.8796771874
 20
9.2896594013
 30
0.0
 10
9.8857830175
 20
9.2977176617
 30
0.0
 10
9.890380386
 20
9.3026401164
 30
0.0
 10
9.8927959597
 20
9.3049733612
 30
0.0
  0
SPLINE
  5
374
100
AcDbEntity
  8
0
100
AcDbSpline
 62
7
  6
CONTINUOUS
 70
0
 71
3
 72
23
 73
19
 74
0
 42
0.0000001
 43
0.0000001
 44
0.0000000001
 40
0.0
 40
0.0
 40
0.0
 40
0.0
 40
0.0614488807
 40
0.1232974294
 40
0.1855193177
 40
0.2480712672
 40
0.3108995318
 40
0.3739401513
 40
0.4371217414
 40
0.5003679843
 40
0.5636003151
 40
0.6267406524
 40
0.6897141172
 40
0.7524516838
 40
0.8148926113
 40
0.8769871451
 40
0.9386966623
 40
1.0
 40
1.0
 40
1.0
 40
1.0
 10
9.9709549471
 20
9.1153905662
 30
0.0
 10
9.967388254
 20
9.1156379172
 30
0.0
 10
9.960251309
 20
9.1164857155
 30
0.0
 10
9.9496897171
 20
9.1187883482
 30
0.0
 10
9.9393328439
 20
9.1221038602
 30
0.0
 10
9.9292814367
 20
9.12640013
 30
0.0
 10
9.9196316198
 20
9.1316356231
 30
0.0
 10
9.9104760695
 20
9.1377599227
 30
0.0
 10
9.9019025866
 20
9.1447141052
 30
0.0
 10
9.8939934271
 20
9.1524313434
 30
0.0
 10
9.8868244957
 20
9.1608375421
 30
0.0
 10
9.8804646417
 20
9.1698520369
 30
0.0
 10
9.8749750091
 20
9.1793883422
 30
0.0
 10
9.8704084557
 20
9.1893549972
 30
0.0
 10
9.8668089956
 20
9.1996562722
 30
0.0
 10
9.864211521
 20
9.21019362
 30
0.0
 10
9.8626411887
 20
9.2208645213
 30
0.0
 10
9.8622882852
 20
9.228026495
 30
0.0
 10
9.8622882852
 20
9.2315932866
 30
0.0
  0
SPLINE
  5
375
100
AcDbEntity
  8
0
100
AcDbSpline
 62
7
  6
CONTINUOUS
 70
0
 71
3
 72
39
 73
35
 74
0
 42
0.0000001
 43
0.0000001
 44
0.0000000001
 40
0.0
 40
0.0
 40
0.0
 40
0.0
 40
0.0314026134
 40
0.06300949
 40
0.0948071102
 40
0.1267734453
 40
0.1588809722
 40
0.1910970226
 40
0.2233851132
 40
0.2557062446
 40
0.2880202663
 40
0.3202872751
 40
0.3524690067
 40
0.384530184
 40
0.4164397927
 40
0.448172249
 40
0.4797084083
 40
0.5110363809
 40
0.5421521201
 40
0.5730597413
 40
0.6037715194
 40
0.6343075569
 40
0.6646951118
 40
0.6949675896
 40
0.7251632184
 40
0.755323478
 40
0.7854913548
 40
0.8157095105
 40
0.8460184691
 40
0.8764549222
 40
0.9070502335
 40
0.9378293335
 40
0.9688091139
 40
1.0
 40
1.0
 40
1.0
 40
1.0
 10
12.0164993511
 20
8.9445355212
 30
0.0
 10
12.0121876154
 20
8.9448345411
 30
0.0
 10
12.00355984
 20
8.9458594386
 30
0.0
 10
11.990792049
 20
8.9486430596
 30
0.0
 10
11.978271739
 20
8.9526511429
 30
0.0
 10
11.9661207023
 20
8.9578448463
 30
0.0
 10
11.954455156
 20
8.9641739988
 30
0.0
 10
11.9433871156
 20
8.9715775985
 30
0.0
 10
11.9330227165
 20
8.9799844186
 30
0.0
 10
11.9234614095
 20
8.9893136909
 30
0.0
 10
11.9147949798
 20
8.9994758627
 30
0.0
 10
11.9071066375
 20
9.0103733938
 30
0.0
 10
11.90047028
 20
9.0219017303
 30
0.0
 10
11.8949497982
 20
9.0339502808
 30
0.0
 10
11.8905984716
 20
9.0464034469
 30
0.0
 10
11.8874583836
 20
9.0591416829
 30
0.0
 10
11.8855600769
 20
9.0720426485
 30
0.0
 10
11.8849222485
 20
9.0849823466
 30
0.0
 10
11.8855515443
 20
9.0978362803
 30
0.0
 10
11.8874423801
 20
9.1104806351
 30
0.0
 10
11.8905770283
 20
9.1227934656
 30
0.0
 10
11.894925739
 20
9.1346558644
 30
0.0
 10
11.9004469731
 20
9.145953119
 30
0.0
 10
11.9070876889
 20
9.1565758952
 30
0.0
 10
11.914783902
 20
9.1664213196
 30
0.0
 10
11.9234612932
 20
9.1753940247
 30
0.0
 10
11.9330359355
 20
9.1834071226
 30
0.0
 10
11.9434150966
 20
9.1903831584
 30
0.0
 10
11.9544982383
 20
9.1962548347
 30
0.0
 10
11.9661780881
 20
9.2009656534
 30
0.0
 10
11.9783415564
 20
9.2044704772
 30
0.0
 10
11.9908714604
 20
9.2067358728
 30
0.0
 10
12.0036453524
 20
9.207740719
 30
0.0
 10
12.0122166867
 20
9.2075643653
 30
0.0
 10
12.0164993511
 20
9.2072673615
 30
0.0
  0
SPLINE
  5
376
100
AcDbEntity
  8
0
100
AcDbSpline
 62
7
  6
CONTINUOUS
 70
0
 71
3
 72
39
 73
35
 74
0
 42
0.0000001
 43
0.0000001
 44
0.0000000001
 40
0.0
 40
0.0
 40
0.0
 40
0.0
 40
0.0314026134
 40
0.06300949
 40
0.0948071102
 40
0.1267734453
 40
0.1588809722
 40
0.1910970226
 40
0.2233851132
 40
0.2557062446
 40
0.2880202663
 40
0.3202872751
 40
0.3524690067
 40
0.384530184
 40
0.4164397927
 40
0.448172249
 40
0.4797084083
 40
0.5110363809
 40
0.5421521201
 40
0.5730597413
 40
0.6037715194
 40
0.6343075569
 40
0.6646951118
 40
0.6949675896
 40
0.7251632184
 40
0.755323478
 40
0.7854913548
 40
0.8157095105
 40
0.8460184691
 40
0.8764549222
 40
0.9070502335
 40
0.9378293335
 40
0.9688091139
 40
1.0
 40
1.0
 40
1.0
 40
1.0
 10
12.0164993511
 20
7.4560437697
 30
0.0
 10
12.0208110868
 20
7.4557447498
 30
0.0
 10
12.0294388623
 20
7.4547198523
 30
0.0
 10
12.0422066533
 20
7.4519362313
 30
0.0
 10
12.0547269633
 20
7.447928148
 30
0.0
 10
12.066878
 20
7.4427344445
 30
0.0
 10
12.0785435462
 20
7.4364052921
 30
0.0
 10
12.0896115867
 20
7.4290016924
 30
0.0
 10
12.0999759857
 20
7.4205948723
 30
0.0
 10
12.1095372928
 20
7.4112656
 30
0.0
 10
12.1182037225
 20
7.4011034282
 30
0.0
 10
12.1258920647
 20
7.3902058971
 30
0.0
 10
12.1325284223
 20
7.3786775606
 30
0.0
 10
12.1380489041
 20
7.3666290101
 30
0.0
 10
12.1424002307
 20
7.354175844
 30
0.0
 10
12.1455403187
 20
7.341437608
 30
0.0
 10
12.1474386254
 20
7.3285366424
 30
0.0
 10
12.1480764538
 20
7.3155969443
 30
0.0
 10
12.147447158
 20
7.3027430105
 30
0.0
 10
12.1455563222
 20
7.2900986558
 30
0.0
 10
12.142421674
 20
7.2777858252
 30
0.0
 10
12.1380729633
 20
7.2659234265
 30
0.0
 10
12.1325517292
 20
7.2546261719
 30
0.0
 10
12.1259110134
 20
7.2440033957
 30
0.0
 10
12.1182148003
 20
7.2341579712
 30
0.0
 10
12.1095374091
 20
7.2251852662
 30
0.0
 10
12.0999627668
 20
7.2171721683
 30
0.0
 10
12.0895836057
 20
7.2101961325
 30
0.0
 10
12.078500464
 20
7.2043244562
 30
0.0
 10
12.0668206142
 20
7.1996136375
 30
0.0
 10
12.0546571459
 20
7.1961088137
 30
0.0
 10
12.0421272418
 20
7.1938434181
 30
0.0
 10
12.0293533499
 20
7.1928385719
 30
0.0
 10
12.0207820156
 20
7.1930149256
 30
0.0
 10
12.0164993511
 20
7.1933119294
 30
0.0
  0
SPLINE
  5
377
100
AcDbEntity
  8
0
100
AcDbSpline
 62
7
  6
CONTINUOUS
 70
0
 71
3
 72
15
 73
11
 74
0
 42
0.0000001
 43
0.0000001
 44
0.0000000001
 40
0.0
 40
0.0
 40
0.0
 40
0.0
 40
0.1273482936
 40
0.2538605366
 40
0.3795879111
 40
0.5046050899
 40
0.6290174366
 40
0.7529533732
 40
0.8765605776
 40
1.0
 40
1.0
 40
1.0
 40
1.0
 10
11.9139149318
 20
9.0893124955
 30
0.0
 10
11.9139149318
 20
9.0927772708
 30
0.0
 10
11.9142457467
 20
9.0996888652
 30
0.0
 10
11.9157418336
 20
9.1099233266
 30
0.0
 10
11.9182225948
 20
9.1199006333
 30
0.0
 10
11.9216656275
 20
9.1295274775
 30
0.0
 10
11.9260393256
 20
9.1387150827
 30
0.0
 10
11.931303834
 20
9.1473786101
 30
0.0
 10
11.9374096641
 20
9.1554368706
 30
0.0
 10
11.9420070326
 20
9.1603593252
 30
0.0
 10
11.9444226063
 20
9.16269257
 30
0.0
  0
SPLINE
  5
378
100
AcDbEntity
  8
0
100
AcDbSpline
 62
7
  6
CONTINUOUS
 70
0
 71
3
 72
23
 73
19
 74
0
 42
0.0000001
 43
0.0000001
 44
0.0000000001
 40
0.0
 40
0.0
 40
0.0
 40
0.0
 40
0.0614488807
 40
0.1232974294
 40
0.1855193177
 40
0.2480712672
 40
0.3108995318
 40
0.3739401513
 40
0.4371217414
 40
0.5003679843
 40
0.5636003151
 40
0.6267406524
 40
0.6897141172
 40
0.7524516838
 40
0.8148926113
 40
0.8769871451
 40
0.9386966623
 40
1.0
 40
1.0
 40
1.0
 40
1.0
 10
12.0225815937
 20
8.973109775
 30
0.0
 10
12.0190149006
 20
8.973357126
 30
0.0
 10
12.0118779557
 20
8.9742049243
 30
0.0
 10
12.0013163637
 20
8.976507557
 30
0.0
 10
11.9909594905
 20
8.979823069
 30
0.0
 10
11.9809080833
 20
8.9841193388
 30
0.0
 10
11.9712582665
 20
8.9893548319
 30
0.0
 10
11.9621027161
 20
8.9954791316
 30
0.0
 10
11.9535292333
 20
9.002433314
 30
0.0
 10
11.9456200737
 20
9.0101505522
 30
0.0
 10
11.9384511423
 20
9.0185567509
 30
0.0
 10
11.9320912883
 20
9.0275712458
 30
0.0
 10
11.9266016557
 20
9.037107551
 30
0.0
 10
11.9220351023
 20
9.047074206
 30
0.0
 10
11.9184356422
 20
9.057375481
 30
0.0
 10
11.9158381677
 20
9.0679128288
 30
0.0
 10
11.9142678353
 20
9.0785837301
 30
0.0
 10
11.9139149318
 20
9.0857457038
 30
0.0
 10
11.9139149318
 20
9.0893124955
 30
0.0
  0
SPLINE
  5
379
100
AcDbEntity
  8
0
100
AcDbSpline
 62
7
  6
CONTINUOUS
 70
0
 71
3
 72
39
 73
35
 74
0
 42
0.0000001
 43
0.0000001
 44
0.0000000001
 40
0.0
 40
0.0
 40
0.0
 40
0.0
 40
0.0314026134
 40
0.06300949
 40
0.0948071102
 40
0.1267734453
 40
0.1588809722
 40
0.1910970226
 40
0.2233851132
 40
0.2557062446
 40
0.2880202663
 40
0.3202872751
 40
0.3524690067
 40
0.384530184
 40
0.4164397927
 40
0.448172249
 40
0.4797084083
 40
0.5110363809
 40
0.5421521201
 40
0.5730597413
 40
0.6037715194
 40
0.6343075569
 40
0.6646951118
 40
0.6949675896
 40
0.7251632184
 40
0.755323478
 40
0.7854913548
 40
0.8157095105
 40
0.8460184691
 40
0.8764549222
 40
0.9070502335
 40
0.9378293335
 40
0.9688091139
 40
1.0
 40
1.0
 40
1.0
 40
1.0
 10
12.0164993511
 20
7.1933119294
 30
0.0
 10
12.0121876154
 20
7.1936109493
 30
0.0
 10
12.00355984
 20
7.1946358468
 30
0.0
 10
11.990792049
 20
7.1974194677
 30
0.0
 10
11.978271739
 20
7.2014275511
 30
0.0
 10
11.9661207023
 20
7.2066212545
 30
0.0
 10
11.954455156
 20
7.212950407
 30
0.0
 10
11.9433871156
 20
7.2203540067
 30
0.0
 10
11.9330227165
 20
7.2287608268
 30
0.0
 10
11.9234614095
 20
7.2380900991
 30
0.0
 10
11.9147949798
 20
7.2482522709
 30
0.0
 10
11.9071066375
 20
7.259149802
 30
0.0
 10
11.90047028
 20
7.2706781384
 30
0.0
 10
11.8949497982
 20
7.2827266889
 30
0.0
 10
11.8905984716
 20
7.2951798551
 30
0.0
 10
11.8874583836
 20
7.3079180911
 30
0.0
 10
11.8855600769
 20
7.3208190566
 30
0.0
 10
11.8849222485
 20
7.3337587548
 30
0.0
 10
11.8855515443
 20
7.3466126885
 30
0.0
 10
11.8874423801
 20
7.3592570432
 30
0.0
 10
11.8905770283
 20
7.3715698738
 30
0.0
 10
11.894925739
 20
7.3834322726
 30
0.0
 10
11.9004469731
 20
7.3947295272
 30
0.0
 10
11.9070876889
 20
7.4053523034
 30
0.0
 10
11.914783902
 20
7.4151977278
 30
0.0
 10
11.9234612932
 20
7.4241704328
 30
0.0
 10
11.9330359355
 20
7.4321835307
 30
0.0
 10
11.9434150966
 20
7.4391595666
 30
0.0
 10
11.9544982383
 20
7.4450312429
 30
0.0
 10
11.9661780881
 20
7.4497420616
 30
0.0
 10
11.9783415564
 20
7.4532468854
 30
0.0
 10
11.9908714604
 20
7.455512281
 30
0.0
 10
12.0036453524
 20
7.4565171271
 30
0.0
 10
12.0122166867
 20
7.4563407735
 30
0.0
 10
12.0164993511
 20
7.4560437697
 30
0.0
  0
SPLINE
  5
37A
100
AcDbEntity
  8
0
100
AcDbSpline
 62
7
  6
CONTINUOUS
 70
0
 71
3
 72
11
 73
7
 74
0
 42
0.0000001
 43
0.0000001
 44
0.0000000001
 40
0.0
 40
0.0
 40
0.0
 40
0.0
 40
0.2762921116
 40
0.5335435817
 40
0.7738647107
 40
1.0
 40
1.0
 40
1.0
 40
1.0
 10
10.7993710909
 20
10.7316309164
 30
0.0
 10
10.7973866242
 20
10.7297140686
 30
0.0
 10
10.793694276
 20
10.7258625611
 30
0.0
 10
10.7888751041
 20
10.719805488
 30
0.0
 10
10.7849927766
 20
10.7136926192
 30
0.0
 10
10.7829836721
 20
10.7094730892
 30
0.0
 10
10.7821570102
 20
10.7073716456
 30
0.0
  0
SPLINE
  5
37B
100
AcDbEntity
  8
0
100
AcDbSpline
 62
7
  6
CONTINUOUS
 70
0
 71
3
 72
39
 73
35
 74
0
 42
0.0000001
 43
0.0000001
 44
0.0000000001
 40
0.0
 40
0.0
 40
0.0
 40
0.0
 40
0.0314026134
 40
0.06300949
 40
0.0948071102
 40
0.1267734453
 40
0.1588809722
 40
0.1910970226
 40
0.2233851132
 40
0.2557062446
 40
0.2880202663
 40
0.3202872751
 40
0.3524690067
 40
0.384530184
 40
0.4164397927
 40
0.448172249
 40
0.4797084083
 40
0.5110363809
 40
0.5421521201
 40
0.5730597413
 40
0.6037715194
 40
0.6343075569
 40
0.6646951118
 40
0.6949675896
 40
0.7251632184
 40
0.755323478
 40
0.7854913548
 40
0.8157095105
 40
0.8460184691
 40
0.8764549222
 40
0.9070502335
 40
0.9378293335
 40
0.9688091139
 40
1.0
 40
1.0
 40
1.0
 40
1.0
 10
9.9648727045
 20
7.5983245609
 30
0.0
 10
9.9691844402
 20
7.598025541
 30
0.0
 10
9.9778122157
 20
7.5970006435
 30
0.0
 10
9.9905800067
 20
7.5942170225
 30
0.0
 10
10.0031003167
 20
7.5902089392
 30
0.0
 10
10.0152513534
 20
7.5850152357
 30
0.0
 10
10.0269168996
 20
7.5786860833
 30
0.0
 10
10.0379849401
 20
7.5712824836
 30
0.0
 10
10.0483493391
 20
7.5628756635
 30
0.0
 10
10.0579106461
 20
7.5535463912
 30
0.0
 10
10.0665770759
 20
7.5433842194
 30
0.0
 10
10.0742654181
 20
7.5324866883
 30
0.0
 10
10.0809017757
 20
7.5209583518
 30
0.0
 10
10.0864222575
 20
7.5089098013
 30
0.0
 10
10.090773584
 20
7.4964566352
 30
0.0
 10
10.0939136721
 20
7.4837183992
 30
0.0
 10
10.0958119788
 20
7.4708174336
 30
0.0
 10
10.0964498072
 20
7.4578777355
 30
0.0
 10
10.0958205114
 20
7.4450238017
 30
0.0
 10
10.0939296756
 20
7.432379447
 30
0.0
 10
10.0907950273
 20
7.4200666164
 30
0.0
 10
10.0864463167
 20
7.4082042177
 30
0.0
 10
10.0809250826
 20
7.3969069631
 30
0.0
 10
10.0742843668
 20
7.3862841869
 30
0.0
 10
10.0665881537
 20
7.3764387624
 30
0.0
 10
10.0579107625
 20
7.3674660574
 30
0.0
 10
10.0483361202
 20
7.3594529595
 30
0.0
 10
10.0379569591
 20
7.3524769236
 30
0.0
 10
10.0268738174
 20
7.3466052474
 30
0.0
 10
10.0151939676
 20
7.3418944287
 30
0.0
 10
10.0030304993
 20
7.3383896049
 30
0.0
 10
9.9905005952
 20
7.3361242093
 30
0.0
 10
9.9777267033
 20
7.3351193631
 30
0.0
 10
9.969155369
 20
7.3352957168
 30
0.0
 10
9.9648727045
 20
7.3355927206
 30
0.0
  0
SPLINE
  5
37C
100
AcDbEntity
  8
0
100
AcDbSpline
 62
7
  6
CONTINUOUS
 70
0
 71
3
 72
15
 73
11
 74
0
 42
0.0000001
 43
0.0000001
 44
0.0000000001
 40
0.0
 40
0.0
 40
0.0
 40
0.0
 40
0.1273482936
 40
0.2538605366
 40
0.3795879111
 40
0.5046050899
 40
0.6290174366
 40
0.7529533732
 40
0.8765605776
 40
1.0
 40
1.0
 40
1.0
 40
1.0
 10
11.9139149318
 20
7.3380889036
 30
0.0
 10
11.9139149318
 20
7.341553679
 30
0.0
 10
11.9142457467
 20
7.3484652734
 30
0.0
 10
11.9157418336
 20
7.3586997348
 30
0.0
 10
11.9182225948
 20
7.3686770415
 30
0.0
 10
11.9216656275
 20
7.3783038857
 30
0.0
 10
11.9260393256
 20
7.3874914909
 30
0.0
 10
11.931303834
 20
7.3961550183
 30
0.0
 10
11.9374096641
 20
7.4042132787
 30
0.0
 10
11.9420070326
 20
7.4091357334
 30
0.0
 10
11.9444226063
 20
7.4114689782
 30
0.0
  0
SPLINE
  5
37D
100
AcDbEntity
  8
0
100
AcDbSpline
 62
7
  6
CONTINUOUS
 70
0
 71
3
 72
23
 73
19
 74
0
 42
0.0000001
 43
0.0000001
 44
0.0000000001
 40
0.0
 40
0.0
 40
0.0
 40
0.0
 40
0.0614488807
 40
0.1232974294
 40
0.1855193177
 40
0.2480712672
 40
0.3108995318
 40
0.3739401513
 40
0.4371217414
 40
0.5003679843
 40
0.5636003151
 40
0.6267406524
 40
0.6897141172
 40
0.7524516838
 40
0.8148926113
 40
0.8769871451
 40
0.9386966623
 40
1.0
 40
1.0
 40
1.0
 40
1.0
 10
12.0225815937
 20
7.2218861831
 30
0.0
 10
12.0190149006
 20
7.2221335341
 30
0.0
 10
12.0118779557
 20
7.2229813325
 30
0.0
 10
12.0013163637
 20
7.2252839652
 30
0.0
 10
11.9909594905
 20
7.2285994772
 30
0.0
 10
11.9809080833
 20
7.232895747
 30
0.0
 10
11.9712582665
 20
7.2381312401
 30
0.0
 10
11.9621027161
 20
7.2442555397
 30
0.0
 10
11.9535292333
 20
7.2512097222
 30
0.0
 10
11.9456200737
 20
7.2589269604
 30
0.0
 10
11.9384511423
 20
7.2673331591
 30
0.0
 10
11.9320912883
 20
7.2763476539
 30
0.0
 10
11.9266016557
 20
7.2858839592
 30
0.0
 10
11.9220351023
 20
7.2958506142
 30
0.0
 10
11.9184356422
 20
7.3061518892
 30
0.0
 10
11.9158381677
 20
7.316689237
 30
0.0
 10
11.9142678353
 20
7.3273601383
 30
0.0
 10
11.9139149318
 20
7.334522112
 30
0.0
 10
11.9139149318
 20
7.3380889036
 30
0.0
  0
SPLINE
  5
37E
100
AcDbEntity
  8
0
100
AcDbSpline
 62
7
  6
CONTINUOUS
 70
0
 71
3
 72
78
 73
74
 74
0
 42
0.0000001
 43
0.0000001
 44
0.0000000001
 40
0.0
 40
0.0
 40
0.0
 40
0.0
 40
0.0038894613
 40
0.007933427
 40
0.0121357194
 40
0.0164996017
 40
0.0210278748
 40
0.0257228109
 40
0.0305860385
 40
0.0356187161
 40
0.0408216074
 40
0.0461950691
 40
0.0574530757
 40
0.0693901181
 40
0.0819987245
 40
0.0952678854
 40
0.1091835228
 40
0.1237288625
 40
0.1388847649
 40
0.1546299798
 40
0.1709413538
 40
0.1877939917
 40
0.2051614238
 40
0.2230157551
 40
0.2413277885
 40
0.2600671294
 40
0.2792022891
 40
0.2987008018
 40
0.3185293199
 40
0.3386537044
 40
0.3590391071
 40
0.4004498965
 40
0.4424730369
 40
0.4848134778
 40
0.5271732892
 40
0.5692543598
 40
0.6107611204
 40
0.6312085002
 40
0.6514040111
 40
0.6713126436
 40
0.6909000613
 40
0.7101326935
 40
0.728977841
 40
0.7474037616
 40
0.765379766
 40
0.7828763221
 40
0.7998651845
 40
0.816319513
 40
0.8322139962
 40
0.8475249997
 40
0.8622307494
 40
0.8763115469
 40
0.8897499902
 40
0.9025312623
 40
0.9146434955
 40
0.9260782524
 40
0.9368311005
 40
0.9419520706
 40
0.9469031465
 40
0.9516852748
 40
0.9562998771
 40
0.9607488127
 40
0.9650345397
 40
0.9691601115
 40
0.9731292531
 40
0.9769465083
 40
0.9806172367
 40
0.984147792
 40
0.9875455937
 40
0.9908191993
 40
0.9939784671
 40
0.9970345546
 40
1.0
 40
1.0
 40
1.0
 40
1.0
 10
10.7993710909
 20
10.7316309164
 30
0.0
 10
10.80050809
 20
10.7327291732
 30
0.0
 10
10.8028770403
 20
10.7349182471
 30
0.0
 10
10.8066316807
 20
10.7381185586
 30
0.0
 10
10.8106537469
 20
10.741296876
 30
0.0
 10
10.814941178
 20
10.7444515464
 30
0.0
 10
10.8194919748
 20
10.747581228
 30
0.0
 10
10.8243040941
 20
10.7506844732
 30
0.0
 10
10.8293752945
 20
10.7537599212
 30
0.0
 10
10.8347032135
 20
10.7568061184
 30
0.0
 10
10.84028538
 20
10.7598216391
 30
0.0
 10
10.8481869061
 20
10.7638624594
 30
0.0
 10
10.858692565
 20
10.7688152319
 30
0.0
 10
10.8720803131
 20
10.7745253546
 30
0.0
 10
10.8864132345
 20
10.7800803746
 30
0.0
 10
10.9016644933
 20
10.7854698191
 30
0.0
 10
10.917805739
 20
10.7906835108
 30
0.0
 10
10.9348067668
 20
10.7957115875
 30
0.0
 10
10.9526357221
 20
10.8005445173
 30
0.0
 10
10.9712591441
 20
10.8051731289
 30
0.0
 10
10.9906420415
 20
10.8095886279
 30
0.0
 10
11.0107479538
 20
10.8137826369
 30
0.0
 10
11.0315390319
 20
10.8177471997
 30
0.0
 10
11.0529761219
 20
10.8214747919
 30
0.0
 10
11.0750188418
 20
10.8249583348
 30
0.0
 10
11.0976256518
 20
10.8281912157
 30
0.0
 10
11.1207539333
 20
10.8311673101
 30
0.0
 10
11.1443600816
 20
10.8338809771
 30
0.0
 10
11.1683995768
 20
10.8363270616
 30
0.0
 10
11.1928271234
 20
10.8385009492
 30
0.0
 10
11.2260257014
 20
10.8410441274
 30
0.0
 10
11.2681536288
 20
10.8435059871
 30
0.0
 10
11.319244882
 20
10.8453087744
 30
0.0
 10
11.3707495722
 20
10.8459612981
 30
0.0
 10
11.4222794822
 20
10.8454586186
 30
0.0
 10
11.4734462091
 20
10.8438045146
 30
0.0
 10
11.5156689975
 20
10.8414658526
 30
0.0
 10
11.5489682508
 20
10.8390202134
 30
0.0
 10
11.5734890133
 20
10.8369176788
 30
0.0
 10
11.5976336204
 20
10.8345418365
 30
0.0
 10
11.6213565727
 20
10.8318971573
 30
0.0
 10
11.6446131234
 20
10.828988657
 30
0.0
 10
11.6673594285
 20
10.8258218567
 30
0.0
 10
11.6895526115
 20
10.8224027653
 30
0.0
 10
11.7111508433
 20
10.8187378686
 30
0.0
 10
11.7321134253
 20
10.8148341126
 30
0.0
 10
11.7524008765
 20
10.8106989088
 30
0.0
 10
11.771975011
 20
10.8063401122
 30
0.0
 10
11.7907990048
 20
10.8017659974
 30
0.0
 10
11.8088374686
 20
10.7969852427
 30
0.0
 10
11.826056531
 20
10.7920069144
 30
0.0
 10
11.8424239157
 20
10.7868404634
 30
0.0
 10
11.8579090144
 20
10.7814956752
 30
0.0
 10
11.8724829128
 20
10.7759826547
 30
0.0
 10
11.8861186019
 20
10.770311756
 30
0.0
 10
11.898790606
 20
10.7644936432
 30
0.0
 10
11.9086833443
 20
10.7594527085
 30
0.0
 10
11.9160845518
 20
10.75534513
 30
0.0
 10
11.921289343
 20
10.7522846828
 30
0.0
 10
11.9262362503
 20
10.7491956687
 30
0.0
 10
11.9309230106
 20
10.7460795311
 30
0.0
 10
11.9353474115
 20
10.742937646
 30
0.0
 10
11.9395074217
 20
10.7397714799
 30
0.0
 10
11.9434011163
 20
10.736582464
 30
0.0
 10
11.947026649
 20
10.7333719746
 30
0.0
 10
11.9503823767
 20
10.7301414916
 30
0.0
 10
11.953466674
 20
10.7268923649
 30
0.0
 10
11.9562780715
 20
10.7236260086
 30
0.0
 10
11.9588152211
 20
10.7203438299
 30
0.0
 10
11.9610767419
 20
10.7170471774
 30
0.0
 10
11.9630615106
 20
10.7137374348
 30
0.0
 10
11.9647682308
 20
10.7104162524
 30
0.0
 10
11.9657332039
 20
10.7081644498
 30
0.0
 10
11.9661661589
 20
10.7070396462
 30
0.0
  0
SPLINE
  5
37F
100
AcDbEntity
  8
0
100
AcDbSpline
 62
7
  6
CONTINUOUS
 70
0
 71
3
 72
21
 73
17
 74
0
 42
0.0000001
 43
0.0000001
 44
0.0000000001
 40
0.0
 40
0.0
 40
0.0
 40
0.0
 40
0.1273176366
 40
0.2537999756
 40
0.3167619475
 40
0.3795355041
 40
0.4421314991
 40
0.5045621439
 40
0.5668413432
 40
0.6289845283
 40
0.6910084528
 40
0.7529310935
 40
0.8147714495
 40
0.8765493365
 40
0.9382852194
 40
1.0
 40
1.0
 40
1.0
 40
1.0
 10
12.0464430535
 20
6.4175288892
 30
0.0
 10
12.0464430535
 20
6.4242736434
 30
0.0
 10
12.0470868848
 20
6.4377275827
 30
0.0
 10
12.0495184266
 20
6.4543595587
 30
0.0
 10
12.0524246598
 20
6.4674058899
 30
0.0
 10
12.0550749882
 20
6.4770288684
 30
0.0
 10
12.0581929213
 20
6.4864808625
 30
0.0
 10
12.0617713148
 20
6.4957403351
 30
0.0
 10
12.0658018919
 20
6.5047858779
 30
0.0
 10
12.0702754143
 20
6.5135966304
 30
0.0
 10
12.0751815914
 20
6.5221522528
 30
0.0
 10
12.0805090804
 20
6.53043304
 30
0.0
 10
12.0862456101
 20
6.5384198588
 30
0.0
 10
12.0923780522
 20
6.5460943216
 30
0.0
 10
12.0988919763
 20
6.5534385204
 30
0.0
 10
12.1034797757
 20
6.5581040353
 30
0.0
 10
12.1058312995
 20
6.5603754332
 30
0.0
  0
SPLINE
  5
380
100
AcDbEntity
  8
0
100
AcDbSpline
 62
7
  6
CONTINUOUS
 70
0
 71
3
 72
82
 73
78
 74
0
 42
0.0000001
 43
0.0000001
 44
0.0000000001
 40
0.0
 40
0.0
 40
0.0
 40
0.0
 40
0.0040448529
 40
0.0082603888
 40
0.0126510012
 40
0.0172203915
 40
0.0219716858
 40
0.0269073693
 40
0.0320291528
 40
0.0373381926
 40
0.0428351729
 40
0.0485202967
 40
0.0604534148
 40
0.0731326977
 40
0.0865476644
 40
0.1006837131
 40
0.1155226803
 40
0.1310432739
 40
0.1472214583
 40
0.1640307566
 40
0.181442495
 40
0.1994259983
 40
0.2179487789
 40
0.2369767215
 40
0.2564742328
 40
0.2764043768
 40
0.2967289966
 40
0.3174088578
 40
0.338403774
 40
0.3596727225
 40
0.3811739532
 40
0.4247025304
 40
0.4686462878
 40
0.5126568792
 40
0.5563852818
 40
0.5994853537
 40
0.6206937162
 40
0.6416183531
 40
0.6622184176
 40
0.6824539375
 40
0.7022859296
 40
0.7216765161
 40
0.7405890511
 40
0.7589882681
 40
0.7768404309
 40
0.7941134728
 40
0.8107771642
 40
0.8268033079
 40
0.8421659826
 40
0.8568417837
 40
0.8708101231
 40
0.884053608
 40
0.8965585377
 40
0.9083155216
 40
0.9139123426
 40
0.9193210404
 40
0.9245420624
 40
0.9295763293
 40
0.934425239
 40
0.9390908471
 40
0.9435758133
 40
0.9478835617
 40
0.9520183826
 40
0.9559854592
 40
0.9597911062
 40
0.9634428001
 40
0.9669493498
 40
0.9703210665
 40
0.9767050786
 40
0.9797502036
 40
0.9827180476
 40
0.9856270511
 40
0.9884968943
 40
0.9913481644
 40
0.994201885
 40
0.9970790259
 40
1.0
 40
1.0
 40
1.0
 40
1.0
 10
10.9201118263
 20
10.7232575179
 30
0.0
 10
10.921066384
 20
10.7241795499
 30
0.0
 10
10.9230602602
 20
10.7260169132
 30
0.0
 10
10.9262299038
 20
10.7286987308
 30
0.0
 10
10.9296373514
 20
10.731360788
 30
0.0
 10
10.9332806405
 20
10.7340015328
 30
0.0
 10
10.9371578624
 20
10.7366197062
 30
0.0
 10
10.941267058
 20
10.739213943
 30
0.0
 10
10.9456060714
 20
10.7417829664
 30
0.0
 10
10.9501726292
 20
10.744325403
 30
0.0
 10
10.9549643434
 20
10.746839915
 30
0.0
 10
10.9617603023
 20
10.7502081426
 30
0.0
 10
10.9708103906
 20
10.7543285086
 30
0.0
 10
10.9823565404
 20
10.7590642578
 30
0.0
 10
10.994733735
 20
10.7636579885
 30
0.0
 10
11.0079158663
 20
10.7680999307
 30
0.0
 10
11.021875308
 20
10.7723806114
 30
0.0
 10
11.0365826149
 20
10.7764908923
 30
0.0
 10
11.0520067208
 20
10.7804219833
 30
0.0
 10
11.0681149936
 20
10.78416547
 30
0.0
 10
11.0848733183
 20
10.7877133319
 30
0.0
 10
11.102246165
 20
10.7910579743
 30
0.0
 10
11.1201966727
 20
10.7941922454
 30
0.0
 10
11.1386867401
 20
10.7971094386
 30
0.0
 10
11.157677111
 20
10.7998033104
 30
0.0
 10
11.177127454
 20
10.8022680926
 30
0.0
 10
11.196996446
 20
10.804498521
 30
0.0
 10
11.2172418704
 20
10.8064898317
 30
0.0
 10
11.2378206972
 20
10.808237761
 30
0.0
 10
11.2586892301
 20
10.8097385942
 30
0.0
 10
11.2869556337
 20
10.8114126268
 30
0.0
 10
11.3226852794
 20
10.8128611365
 30
0.0
 10
11.3658240122
 20
10.8135712804
 30
0.0
 10
11.4090331657
 20
10.813254042
 30
0.0
 10
11.4519455652
 20
10.8119121747
 30
0.0
 10
11.4873424175
 20
10.8099395054
 30
0.0
 10
11.5152305241
 20
10.8078496204
 30
0.0
 10
11.5357350367
 20
10.8060442016
 30
0.0
 10
11.5558959441
 20
10.8039963743
 30
0.0
 10
11.5756704418
 20
10.8017104922
 30
0.0
 10
11.5950165097
 20
10.7991914529
 30
0.0
 10
11.6138930533
 20
10.7964446412
 30
0.0
 10
11.6322599781
 20
10.7934759266
 30
0.0
 10
11.6500782881
 20
10.7902916592
 30
0.0
 10
11.6673101719
 20
10.7868986602
 30
0.0
 10
11.6839190802
 20
10.7833041926
 30
0.0
 10
11.6998698029
 20
10.7795159495
 30
0.0
 10
11.7151285565
 20
10.7755420317
 30
0.0
 10
11.7296630703
 20
10.7713909513
 30
0.0
 10
11.7434426685
 20
10.7670715884
 30
0.0
 10
11.7564383079
 20
10.7625931706
 30
0.0
 10
11.7686227674
 20
10.7579652221
 30
0.0
 10
11.7799703601
 20
10.7531975816
 30
0.0
 10
11.7888500577
 20
10.7490511724
 30
0.0
 10
11.7955066417
 20
10.7456632342
 30
0.0
 10
11.8001929756
 20
10.7431354351
 30
0.0
 10
11.8046530174
 20
10.7405803588
 30
0.0
 10
11.8088844502
 20
10.737999338
 30
0.0
 10
11.8128850273
 20
10.7353936637
 30
0.0
 10
11.8166526902
 20
10.732764739
 30
0.0
 10
11.8201854559
 20
10.7301138741
 30
0.0
 10
11.8234814716
 20
10.7274424036
 30
0.0
 10
11.8265390511
 20
10.724751707
 30
0.0
 10
11.8293565312
 20
10.7220430523
 30
0.0
 10
11.8319324734
 20
10.7193177744
 30
0.0
 10
11.8342654163
 20
10.7165772715
 30
0.0
 10
11.8363542121
 20
10.7138224062
 30
0.0
 10
11.8387675358
 20
10.7101994494
 30
0.0
 10
11.8407529021
 20
10.7064789987
 30
0.0
 10
11.8422425165
 20
10.7026902032
 30
0.0
 10
11.8430927036
 20
10.6998854459
 30
0.0
 10
11.8436922603
 20
10.6970753505
 30
0.0
 10
11.8440405349
 20
10.6942615376
 30
0.0
 10
11.8441371308
 20
10.6914459991
 30
0.0
 10
11.8439819699
 20
10.6886306361
 30
0.0
 10
11.8435751964
 20
10.6858176809
 30
0.0
 10
11.8431407467
 20
10.683962783
 30
0.0
 10
11.8428839392
 20
10.6830394353
 30
0.0
  0
SPLINE
  5
381
100
AcDbEntity
  8
0
100
AcDbSpline
 62
7
  6
CONTINUOUS
 70
0
 71
3
 72
55
 73
51
 74
0
 42
0.0000001
 43
0.0000001
 44
0.0000000001
 40
0.0
 40
0.0
 40
0.0
 40
0.0
 40
0.0091485137
 40
0.0188200558
 40
0.0290156509
 40
0.0397336842
 40
0.0509701071
 40
0.0627188315
 40
0.0749720255
 40
0.0877201804
 40
0.100952436
 40
0.1146565999
 40
0.128819303
 40
0.1434261545
 40
0.1584617061
 40
0.1739096662
 40
0.1897528736
 40
0.2059733806
 40
0.2394704157
 40
0.2742446147
 40
0.3101299714
 40
0.3469528355
 40
0.3845332635
 40
0.422686314
 40
0.4612233158
 40
0.4999531263
 40
0.5386833677
 40
0.5772216572
 40
0.6153768419
 40
0.6529602429
 40
0.6897869014
 40
0.7256768433
 40
0.7604563784
 40
0.7939594678
 40
0.8101832797
 40
0.8260299259
 40
0.8414815017
 40
0.8565208161
 40
0.8711315546
 40
0.8852983119
 40
0.8990066193
 40
0.9122431533
 40
0.9249956911
 40
0.9372533356
 40
0.9490066281
 40
0.9602476423
 40
0.9709703325
 40
0.9811706228
 40
0.990846822
 40
1.0
 40
1.0
 40
1.0
 40
1.0
 10
10.9688247319
 20
10.6302136223
 30
0.0
 10
10.9709867233
 20
10.631526915
 30
0.0
 10
10.9754969177
 20
10.6341264541
 30
0.0
 10
10.9826039182
 20
10.6378530035
 30
0.0
 10
10.9902310552
 20
10.6415102189
 30
0.0
 10
10.9983682176
 20
10.6450931521
 30
0.0
 10
11.0070048084
 20
10.648597133
 30
0.0
 10
11.0161294606
 20
10.6520175202
 30
0.0
 10
11.0257301639
 20
10.6553497252
 30
0.0
 10
11.0357942262
 20
10.6585893573
 30
0.0
 10
11.0463083394
 20
10.6617320529
 30
0.0
 10
11.0572585706
 20
10.6647736253
 30
0.0
 10
11.0686303956
 20
10.6677100269
 30
0.0
 10
11.0804087245
 20
10.6705372911
 30
0.0
 10
11.0925779104
 20
10.6732516828
 30
0.0
 10
11.1051217804
 20
10.6758495349
 30
0.0
 10
11.118023676
 20
10.6783274069
 30
0.0
 10
11.135872144
 20
10.6815007803
 30
0.0
 10
11.1589535184
 20
10.6851314636
 30
0.0
 10
11.1875061061
 20
10.6889165698
 30
0.0
 10
11.2170510692
 20
10.6921547379
 30
0.0
 10
11.2474312461
 20
10.6948285451
 30
0.0
 10
11.2784851804
 20
10.6969235609
 30
0.0
 10
11.3100477193
 20
10.6984284978
 30
0.0
 10
11.3419509859
 20
10.6993352561
 30
0.0
 10
11.3740252659
 20
10.6996389556
 30
0.0
 10
11.4060999274
 20
10.6993379609
 30
0.0
 10
11.4380043358
 20
10.6984338878
 30
0.0
 10
11.4695687709
 20
10.6969316018
 30
0.0
 10
11.5006253478
 20
10.6948392002
 30
0.0
 10
11.5310089005
 20
10.692167954
 30
0.0
 10
11.5605579504
 20
10.6889322738
 30
0.0
 10
11.5891153113
 20
10.6851495693
 30
0.0
 10
11.6122011034
 20
10.6815208336
 30
0.0
 10
11.6300534408
 20
10.6783490099
 30
0.0
 10
11.6429584586
 20
10.6758722093
 30
0.0
 10
11.6555056032
 20
10.6732754224
 30
0.0
 10
11.66767821
 20
10.6705620606
 30
0.0
 10
11.6794601005
 20
10.6677357725
 30
0.0
 10
11.690835629
 20
10.6648003509
 30
0.0
 10
11.701789691
 20
10.6617596827
 30
0.0
 10
11.7123077649
 20
10.6586178789
 30
0.0
 10
11.7223759106
 20
10.6553791023
 30
0.0
 10
11.7319808079
 20
10.6520476842
 30
0.0
 10
11.7411097749
 20
10.6486280907
 30
0.0
 10
11.749750774
 20
10.6451248178
 30
0.0
 10
11.7578924495
 20
10.6415425733
 30
0.0
 10
11.7655241938
 20
10.6378860122
 30
0.0
 10
11.7726358668
 20
10.6341600357
 30
0.0
 10
11.7771492898
 20
10.6315609431
 30
0.0
 10
11.779312908
 20
10.6302478449
 30
0.0
  0
SPLINE
  5
382
100
AcDbEntity
  8
0
100
AcDbSpline
 62
7
  6
CONTINUOUS
 70
0
 71
3
 72
45
 73
41
 74
0
 42
0.0000001
 43
0.0000001
 44
0.0000000001
 40
0.0
 40
0.0
 40
0.0
 40
0.0
 40
0.0108781672
 40
0.0221665963
 40
0.0338594327
 40
0.0459498001
 40
0.058430113
 40
0.0712919207
 40
0.0981223579
 40
0.1263617707
 40
0.1559209771
 40
0.1867029887
 40
0.2186039774
 40
0.2515141264
 40
0.285318403
 40
0.3198972778
 40
0.3551274095
 40
0.390882305
 40
0.4270329637
 40
0.4634485118
 40
0.4999968293
 40
0.5365451744
 40
0.5729608052
 40
0.6091116014
 40
0.6448666886
 40
0.6800970651
 40
0.7146762367
 40
0.7484808607
 40
0.7813914061
 40
0.813292838
 40
0.8440753374
 40
0.8736350736
 40
0.9018750551
 40
0.9287060964
 40
0.9415682449
 40
0.9540488529
 40
0.9661395771
 40
0.9778327194
 40
0.9891215191
 40
1.0
 40
1.0
 40
1.0
 40
1.0
 10
11.0336211886
 20
10.6079707323
 30
0.0
 10
11.035946578
 20
10.6089050598
 30
0.0
 10
11.0407081732
 20
10.6107518415
 30
0.0
 10
11.0480413669
 20
10.6134125246
 30
0.0
 10
11.0556917435
 20
10.6160128242
 30
0.0
 10
11.0636518285
 20
10.618550245
 30
0.0
 10
11.0719139414
 20
10.6210222826
 30
0.0
 10
11.0834855914
 20
10.624273816
 30
0.0
 10
11.0986518769
 20
10.6281446695
 30
0.0
 10
11.1176739917
 20
10.63242978
 30
0.0
 10
11.1376928713
 20
10.6364010358
 30
0.0
 10
11.1586307645
 20
10.6400428299
 30
0.0
 10
11.1804064904
 20
10.6433408118
 30
0.0
 10
11.2029354764
 20
10.6462820066
 30
0.0
 10
11.2261301901
 20
10.6488548461
 30
0.0
 10
11.2499004682
 20
10.6510492173
 30
0.0
 10
11.2741538829
 20
10.6528564987
 30
0.0
 10
11.2987961067
 20
10.6542695923
 30
0.0
 10
11.3237312853
 20
10.6552829499
 30
0.0
 10
11.3488624146
 20
10.6558925937
 30
0.0
 10
11.374091722
 20
10.6560961311
 30
0.0
 10
11.3993210497
 20
10.6558927632
 30
0.0
 10
11.4244522402
 20
10.6552832882
 30
0.0
 10
11.4493875206
 20
10.6542700982
 30
0.0
 10
11.4740298863
 20
10.6528571702
 30
0.0
 10
11.4982834825
 20
10.6510500517
 30
0.0
 10
11.522053981
 20
10.6488558401
 30
0.0
 10
11.5452489532
 20
10.6462831564
 30
0.0
 10
11.5677782347
 20
10.6433421129
 30
0.0
 10
11.5895542919
 20
10.640044277
 30
0.0
 10
11.6104925511
 20
10.636402624
 30
0.0
 10
11.6305118294
 20
10.6324315009
 30
0.0
 10
11.6495343764
 20
10.6281465231
 30
0.0
 10
11.6647010434
 20
10.6242757571
 30
0.0
 10
11.6762730208
 20
10.6210243323
 30
0.0
 10
11.68453538
 20
10.6185523207
 30
0.0
 10
11.6924957241
 20
10.6160149861
 30
0.0
 10
11.7001463579
 20
10.6134147037
 30
0.0
 10
11.7074798246
 20
10.6107541045
 30
0.0
 10
11.7122415942
 20
10.6089073361
 30
0.0
 10
11.7145670684
 20
10.6079730259
 30
0.0
  0
SPLINE
  5
383
100
AcDbEntity
  8
0
100
AcDbSpline
 62
7
  6
CONTINUOUS
 70
0
 71
3
 72
20
 73
16
 74
0
 42
0.0000001
 43
0.0000001
 44
0.0000000001
 40
0.0
 40
0.0
 40
0.0
 40
0.0
 40
0.1505005022
 40
0.2902383493
 40
0.4204794849
 40
0.4825760308
 40
0.5429535645
 40
0.6018792827
 40
0.6596437318
 40
0.7165576947
 40
0.7729472187
 40
0.829148528
 40
0.8855014043
 40
0.9423427572
 40
1.0
 40
1.0
 40
1.0
 40
1.0
 10
10.9201118263
 20
10.7232575179
 30
0.0
 10
10.9184831811
 20
10.7216843674
 30
0.0
 10
10.9154611848
 20
10.7185226463
 30
0.0
 10
10.9115442639
 20
10.71354146
 30
0.0
 10
10.9089066355
 20
10.7092822815
 30
0.0
 10
10.9072280947
 20
10.705867868
 30
0.0
 10
10.9061922627
 20
10.70334037
 30
0.0
 10
10.9053604596
 20
10.7008069851
 30
0.0
 10
10.9047332573
 20
10.69826883
 30
0.0
 10
10.9043110815
 20
10.6957271981
 30
0.0
 10
10.9040943605
 20
10.6931833937
 30
0.0
 10
10.9040832557
 20
10.6906388245
 30
0.0
 10
10.9042777391
 20
10.6880948393
 30
0.0
 10
10.9046776825
 20
10.685553016
 30
0.0
 10
10.9050775665
 20
10.6838753455
 30
0.0
 10
10.9053100104
 20
10.6830395869
 30
0.0
  0
SPLINE
  5
384
100
AcDbEntity
  8
0
100
AcDbSpline
 62
7
  6
CONTINUOUS
 70
0
 71
3
 72
19
 73
15
 74
0
 42
0.0000001
 43
0.0000001
 44
0.0000000001
 40
0.0
 40
0.0
 40
0.0
 40
0.0
 40
0.0567969622
 40
0.1127631432
 40
0.1682601609
 40
0.2236598469
 40
0.2793360256
 40
0.3356566958
 40
0.3929761353
 40
0.4516290587
 40
0.5740733639
 40
0.7052207328
 40
0.8467731849
 40
1.0
 40
1.0
 40
1.0
 40
1.0
 10
12.9331216072
 20
8.0620284516
 30
0.0
 10
12.9339258509
 20
8.0617441032
 30
0.0
 10
12.9355455956
 20
8.0612420876
 30
0.0
 10
12.9380154865
 20
8.0606943543
 30
0.0
 10
12.9405021629
 20
8.0603592924
 30
0.0
 10
12.9430039468
 20
8.0602371492
 30
0.0
 10
12.9455194145
 20
8.0603279725
 30
0.0
 10
12.9480470478
 20
8.0606316584
 30
0.0
 10
12.9505855527
 20
8.0611478218
 30
0.0
 10
12.9540314848
 20
8.0621324747
 30
0.0
 10
12.9583831208
 20
8.0639253596
 30
0.0
 10
12.9635419917
 20
8.0668869832
 30
0.0
 10
12.9687077933
 20
8.070678984
 30
0.0
 10
12.9720149937
 20
8.0736322913
 30
0.0
 10
12.973670219
 20
8.0752311162
 30
0.0
  0
SPLINE
  5
385
100
AcDbEntity
  8
0
100
AcDbSpline
 62
7
  6
CONTINUOUS
 70
0
 71
3
 72
14
 73
10
 74
0
 42
0.0000001
 43
0.0000001
 44
0.0000000001
 40
0.0
 40
0.0
 40
0.0
 40
0.0
 40
0.2237506513
 40
0.3413552948
 40
0.4632623537
 40
0.5898090617
 40
0.7212905349
 40
0.8579525378
 40
1.0
 40
1.0
 40
1.0
 40
1.0
 10
12.9483152617
 20
7.9378427746
 30
0.0
 10
12.9504715704
 20
7.9385823071
 30
0.0
 10
12.9536825525
 20
7.9399530888
 30
0.0
 10
12.9578348363
 20
7.9422000029
 30
0.0
 10
12.9610076904
 20
7.9441643685
 30
0.0
 10
12.9641848349
 20
7.9463784138
 30
0.0
 10
12.9673654692
 20
7.9488413688
 30
0.0
 10
12.9705480919
 20
7.9515518553
 30
0.0
 10
12.9726293156
 20
7.9534849453
 30
0.0
 10
12.973670219
 20
7.9544903808
 30
0.0
  0
SPLINE
  5
386
100
AcDbEntity
  8
0
100
AcDbSpline
 62
7
  6
CONTINUOUS
 70
0
 71
3
 72
41
 73
37
 74
0
 42
0.0000001
 43
0.0000001
 44
0.0000000001
 40
0.0
 40
0.0
 40
0.0
 40
0.0
 40
0.011185492
 40
0.0227592644
 40
0.0347147651
 40
0.0470447256
 40
0.0727950665
 40
0.099940779
 40
0.1284031125
 40
0.1580959691
 40
0.1889267833
 40
0.2207972842
 40
0.253604181
 40
0.2872397944
 40
0.3215926523
 40
0.3565480605
 40
0.3919886573
 40
0.4277949567
 40
0.4638458848
 40
0.5000193115
 40
0.5361925794
 40
0.572243032
 40
0.6080485412
 40
0.6434880365
 40
0.6784420369
 40
0.7127931869
 40
0.7464268001
 40
0.7792314133
 40
0.8110993579
 40
0.8419273552
 40
0.8716171484
 40
0.9000761875
 40
0.9272183925
 40
0.9529650329
 40
0.9772457775
 40
1.0
 40
1.0
 40
1.0
 40
1.0
 10
12.9138264549
 20
8.8664926005
 30
0.0
 10
12.9145088087
 20
8.8640774597
 30
0.0
 10
12.9158463335
 20
8.8591488451
 30
0.0
 10
12.9177433523
 20
8.8515940337
 30
0.0
 10
12.9195640258
 20
8.8437565966
 30
0.0
 10
12.9219216675
 20
8.8327799977
 30
0.0
 10
12.9246534519
 20
8.8184000503
 30
0.0
 10
12.9275573495
 20
8.8003760824
 30
0.0
 10
12.9301218022
 20
8.7814078317
 30
0.0
 10
12.9323373826
 20
8.7615637456
 30
0.0
 10
12.9341958945
 20
8.7409153045
 30
0.0
 10
12.9356904741
 20
8.7195370179
 30
0.0
 10
12.9368155918
 20
8.69750606
 30
0.0
 10
12.9375670761
 20
8.6749020019
 30
0.0
 10
12.9379421245
 20
8.6518065092
 30
0.0
 10
12.9379393119
 20
8.6283030422
 30
0.0
 10
12.9375585943
 20
8.6044765494
 30
0.0
 10
12.9368013073
 20
8.5804131562
 30
0.0
 10
12.9356701604
 20
8.556199851
 30
0.0
 10
12.9341692264
 20
8.5319241678
 30
0.0
 10
12.9323039259
 20
8.5076738676
 30
0.0
 10
12.9300810077
 20
8.4835366187
 30
0.0
 10
12.9275085244
 20
8.4595996779
 30
0.0
 10
12.9245958033
 20
8.4359495725
 30
0.0
 10
12.9213534131
 20
8.4126717847
 30
0.0
 10
12.9177931266
 20
8.3898504398
 30
0.0
 10
12.9139278787
 20
8.3675679975
 30
0.0
 10
12.9097717206
 20
8.3459049497
 30
0.0
 10
12.9053397706
 20
8.3249395227
 30
0.0
 10
12.90064816
 20
8.3047473847
 30
0.0
 10
12.8957139767
 20
8.2854013656
 30
0.0
 10
12.8905551989
 20
8.2669711617
 30
0.0
 10
12.8851906452
 20
8.2495231146
 30
0.0
 10
12.8796398383
 20
8.2331197579
 30
0.0
 10
12.8739231351
 20
8.2178201712
 30
0.0
 10
12.8698809597
 20
8.2080684749
 30
0.0
 10
12.8678274857
 20
8.2033943027
 30
0.0
  0
SPLINE
  5
387
100
AcDbEntity
  8
0
100
AcDbSpline
 62
7
  6
CONTINUOUS
 70
0
 71
3
 72
54
 73
50
 74
0
 42
0.0000001
 43
0.0000001
 44
0.0000000001
 40
0.0
 40
0.0
 40
0.0
 40
0.0
 40
0.0093254636
 40
0.0191679371
 40
0.029526351
 40
0.0403973592
 40
0.0517756364
 40
0.063654042
 40
0.0760239729
 40
0.088875359
 40
0.1021969304
 40
0.1159762807
 40
0.1301999235
 40
0.1448534917
 40
0.1599216612
 40
0.1753883518
 40
0.2074484922
 40
0.240891731
 40
0.275565449
 40
0.3113087737
 40
0.3479538726
 40
0.3853271752
 40
0.4232505525
 40
0.4615424693
 40
0.50001913
 40
0.5384956137
 40
0.5767870007
 40
0.6147094994
 40
0.652081579
 40
0.6887251178
 40
0.7244665553
 40
0.7591380719
 40
0.7925788106
 40
0.8087899036
 40
0.8246368368
 40
0.8401020329
 40
0.8551686498
 40
0.8698206016
 40
0.8840425729
 40
0.8978201998
 40
0.9111399939
 40
0.9239895629
 40
0.9363576308
 40
0.9482341404
 40
0.9596104929
 40
0.970479549
 40
0.9808359941
 40
0.9906764879
 40
1.0
 40
1.0
 40
1.0
 40
1.0
 10
12.9404754712
 20
8.933838055
 30
0.0
 10
12.9415500769
 20
8.9315288761
 30
0.0
 10
12.9436608778
 20
8.9267364522
 30
0.0
 10
12.9466441994
 20
8.9192427639
 30
0.0
 10
12.9495263889
 20
8.9112593548
 30
0.0
 10
12.9523037033
 20
8.9027964417
 30
0.0
 10
12.9549725844
 20
8.8938646692
 30
0.0
 10
12.9575296501
 20
8.8844753853
 30
0.0
 10
12.9599715555
 20
8.8746405166
 30
0.0
 10
12.9622951947
 20
8.8643725958
 30
0.0
 10
12.9644975531
 20
8.8536847183
 30
0.0
 10
12.9665757736
 20
8.8425905322
 30
0.0
 10
12.96852721
 20
8.8311042156
 30
0.0
 10
12.9703492872
 20
8.8192404617
 30
0.0
 10
12.972039722
 20
8.8070144335
 30
0.0
 10
12.974140209
 20
8.7900474985
 30
0.0
 10
12.9764075827
 20
8.7680467095
 30
0.0
 10
12.9785421928
 20
8.7407672309
 30
0.0
 10
12.9801106197
 20
8.7124419285
 30
0.0
 10
12.9811046073
 20
8.6832158742
 30
0.0
 10
12.9815188221
 20
8.6532386098
 30
0.0
 10
12.9813509719
 20
8.6226636404
 30
0.0
 10
12.9806017823
 20
8.5916475542
 30
0.0
 10
12.9792750045
 20
8.5603492306
 30
0.0
 10
12.9773773873
 20
8.5289290079
 30
0.0
 10
12.9749186365
 20
8.4975478547
 30
0.0
 10
12.9719113647
 20
8.4663665365
 30
0.0
 10
12.9683710259
 20
8.4355447867
 30
0.0
 10
12.9643158406
 20
8.4052404733
 30
0.0
 10
12.9597667067
 20
8.3756087956
 30
0.0
 10
12.954747101
 20
8.3468014094
 30
0.0
 10
12.9492829104
 20
8.3189658784
 30
0.0
 10
12.9443327421
 20
8.296471274
 30
0.0
 10
12.9401622943
 20
8.2790747079
 30
0.0
 10
12.9369737676
 20
8.266492475
 30
0.0
 10
12.9336963109
 20
8.2542564193
 30
0.0
 10
12.9303341249
 20
8.2423821909
 30
0.0
 10
12.9268915526
 20
8.2308849885
 30
0.0
 10
12.9233729845
 20
8.2197795238
 30
0.0
 10
12.919782992
 20
8.2090799891
 30
0.0
 10
12.9161261487
 20
8.1988000615
 30
0.0
 10
12.9124071794
 20
8.1889528594
 30
0.0
 10
12.9086308656
 20
8.179550937
 30
0.0
 10
12.9048020233
 20
8.1706062738
 30
0.0
 10
12.9009256084
 20
8.1621302186
 30
0.0
 10
12.8970065318
 20
8.1541335453
 30
0.0
 10
12.8930498022
 20
8.1466262963
 30
0.0
 10
12.889060516
 20
8.1396180733
 30
0.0
 10
12.8863083073
 20
8.1351642075
 30
0.0
 10
12.884925195
 20
8.1330261311
 30
0.0
  0
SPLINE
  5
388
100
AcDbEntity
  8
0
100
AcDbSpline
 62
7
  6
CONTINUOUS
 70
0
 71
3
 72
81
 73
77
 74
0
 42
0.0000001
 43
0.0000001
 44
0.0000000001
 40
0.0
 40
0.0
 40
0.0
 40
0.0
 40
0.0028240138
 40
0.0056048815
 40
0.008363746
 40
0.0111222987
 40
0.0139022408
 40
0.0167247316
 40
0.0196099107
 40
0.0225765228
 40
0.0288165364
 40
0.032122739
 40
0.0355679634
 40
0.0391623377
 40
0.0429144357
 40
0.0468315318
 40
0.050919672
 40
0.0551838183
 40
0.0596280466
 40
0.0642555357
 40
0.0690687798
 40
0.0740696245
 40
0.0792592999
 40
0.0846385935
 40
0.0902077746
 40
0.1019143841
 40
0.1143746682
 40
0.1275785076
 40
0.1415116318
 40
0.1561561823
 40
0.1714911946
 40
0.1874929715
 40
0.2041353766
 40
0.2213900623
 40
0.2392266818
 40
0.2576130935
 40
0.2765155241
 40
0.2958987097
 40
0.3157260223
 40
0.3359596192
 40
0.3565605708
 40
0.3774889767
 40
0.3987040719
 40
0.4418269
 40
0.485590978
 40
0.5296508901
 40
0.5736582541
 40
0.6172652071
 40
0.6601279314
 40
0.6811751434
 40
0.7019110022
 40
0.7222952514
 40
0.7422885558
 40
0.7618526191
 40
0.7809503245
 40
0.799545857
 40
0.8176048283
 40
0.8350944194
 40
0.8519835515
 40
0.8682430742
 40
0.8838459438
 40
0.8987674503
 40
0.912985496
 40
0.9264809563
 40
0.9392380817
 40
0.9512450084
 40
0.956964983
 40
0.9624951481
 40
0.9678354378
 40
0.9729862428
 40
0.9779483905
 40
0.9827232324
 40
0.9873128547
 40
0.9917199393
 40
0.9959477
 40
1.0
 40
1.0
 40
1.0
 40
1.0
 10
12.9979989622
 20
8.9975290084
 30
0.0
 10
12.9989022058
 20
8.9977133854
 30
0.0
 10
13.0007115326
 20
8.9980033147
 30
0.0
 10
13.0034387398
 20
8.9981934315
 30
0.0
 10
13.0061508435
 20
8.9981342131
 30
0.0
 10
13.0088456328
 20
8.9978256669
 30
0.0
 10
13.0115212269
 20
8.9972679723
 30
0.0
 10
13.014175745
 20
8.9964618356
 30
0.0
 10
13.0168076484
 20
8.9954079589
 30
0.0
 10
13.0203431757
 20
8.9936446891
 30
0.0
 10
13.0237741087
 20
8.9913972094
 30
0.0
 10
13.027079114
 20
8.9887371164
 30
0.0
 10
13.029577295
 20
8.9864611489
 30
0.0
 10
13.0320448608
 20
8.9839446073
 30
0.0
 10
13.0344811417
 20
8.9811886837
 30
0.0
 10
13.0368848442
 20
8.9781948608
 30
0.0
 10
13.0392548674
 20
8.9749646911
 30
0.0
 10
13.0415900897
 20
8.9714998684
 30
0.0
 10
13.0438892966
 20
8.967802142
 30
0.0
 10
13.046151398
 20
8.9638734528
 30
0.0
 10
13.048375218
 20
8.9597158142
 30
0.0
 10
13.0505596052
 20
8.9553313739
 30
0.0
 10
13.0527034748
 20
8.9507224264
 30
0.0
 10
13.0548056838
 20
8.9458913391
 30
0.0
 10
13.0575981804
 20
8.9390427004
 30
0.0
 10
13.0609653127
 20
8.9299351691
 30
0.0
 10
13.0647584912
 20
8.918337989
 30
0.0
 10
13.0683607086
 20
8.9059216416
 30
0.0
 10
13.0717643302
 20
8.892712103
 30
0.0
 10
13.0749621269
 20
8.8787368486
 30
0.0
 10
13.0779472857
 20
8.8640251286
 30
0.0
 10
13.0807134351
 20
8.8486077732
 30
0.0
 10
13.0832546606
 20
8.8325171485
 30
0.0
 10
13.085565534
 20
8.8157870787
 30
0.0
 10
13.0876411265
 20
8.7984527685
 30
0.0
 10
13.0894770043
 20
8.7805507136
 30
0.0
 10
13.0910692425
 20
8.7621186173
 30
0.0
 10
13.0924144317
 20
8.7431953161
 30
0.0
 10
13.0935097032
 20
8.7238206972
 30
0.0
 10
13.0943527173
 20
8.7040356055
 30
0.0
 10
13.0949416593
 20
8.6838817643
 30
0.0
 10
13.0952752816
 20
8.6634016362
 30
0.0
 10
13.0953791488
 20
8.6355669275
 30
0.0
 10
13.0948602539
 20
8.6002782555
 30
0.0
 10
13.0932268062
 20
8.5575595243
 30
0.0
 10
13.0905925512
 20
8.5146014581
 30
0.0
 10
13.0869797107
 20
8.471766064
 30
0.0
 10
13.082418739
 20
8.4294143159
 30
0.0
 10
13.0778329142
 20
8.3946136039
 30
0.0
 10
13.0737108039
 20
8.3672904428
 30
0.0
 10
13.0704272506
 20
8.3472633746
 30
0.0
 10
13.0669401101
 20
8.3276200708
 30
0.0
 10
13.0632567293
 20
8.3084019192
 30
0.0
 10
13.0593849074
 20
8.289649444
 30
0.0
 10
13.0553328455
 20
8.2714021643
 30
0.0
 10
13.0511091315
 20
8.2536985235
 30
0.0
 10
13.0467227147
 20
8.2365758097
 30
0.0
 10
13.042182887
 20
8.2200700762
 30
0.0
 10
13.0374992685
 20
8.2042160526
 30
0.0
 10
13.0326817967
 20
8.1890470616
 30
0.0
 10
13.0277406851
 20
8.1745949532
 30
0.0
 10
13.0226864042
 20
8.1608900275
 30
0.0
 10
13.0175296487
 20
8.1479609815
 30
0.0
 10
13.0122813209
 20
8.1358347212
 30
0.0
 10
13.0069525016
 20
8.1245366335
 30
0.0
 10
13.0023831283
 20
8.1156934245
 30
0.0
 10
12.9986880886
 20
8.1090606774
 30
0.0
 10
12.9959485779
 20
8.1043883263
 30
0.0
 10
12.9931973289
 20
8.0999398828
 30
0.0
 10
12.9904357849
 20
8.0957176556
 30
0.0
 10
12.9876654083
 20
8.0917238403
 30
0.0
 10
12.9848875657
 20
8.0879605167
 30
0.0
 10
12.9821036952
 20
8.0844295686
 30
0.0
 10
12.9793151303
 20
8.0811328348
 30
0.0
 10
12.976523485
 20
8.0780721892
 30
0.0
 10
12.9746216712
 20
8.0761501485
 30
0.0
 10
12.973670219
 20
8.0752311162
 30
0.0
  0
SPLINE
  5
389
100
AcDbEntity
  8
0
100
AcDbSpline
 62
7
  6
CONTINUOUS
 70
0
 71
3
 72
79
 73
75
 74
0
 42
0.0000001
 43
0.0000001
 44
0.0000000001
 40
0.0
 40
0.0
 40
0.0
 40
0.0
 40
0.0028945741
 40
0.0058845018
 40
0.0089821863
 40
0.0121986225
 40
0.0155434139
 40
0.0190248603
 40
0.0226501212
 40
0.02642524
 40
0.0303553317
 40
0.0344446633
 40
0.0386967045
 40
0.0431143046
 40
0.0476996718
 40
0.0524544919
 40
0.0573800053
 40
0.0624769724
 40
0.0677458229
 40
0.0731866177
 40
0.084582237
 40
0.0966591439
 40
0.1094082176
 40
0.1228170479
 40
0.1368703687
 40
0.1515504239
 40
0.1668372449
 40
0.1827088703
 40
0.1991415215
 40
0.2161097883
 40
0.2335867765
 40
0.2515442334
 40
0.2699526488
 40
0.2887813735
 40
0.3079987306
 40
0.3275721099
 40
0.3474680515
 40
0.3676523346
 40
0.3880900775
 40
0.4295829527
 40
0.4716582422
 40
0.5140215814
 40
0.5563760364
 40
0.5984247566
 40
0.6398736079
 40
0.6602829184
 40
0.6804345675
 40
0.7002937435
 40
0.7198263188
 40
0.7389989337
 40
0.7577790797
 40
0.776135191
 40
0.7940367529
 40
0.8114544097
 40
0.8283600597
 40
0.8447269711
 40
0.8605299181
 40
0.8757453455
 40
0.8903515181
 40
0.9043287099
 40
0.9176594385
 40
0.9303287727
 40
0.9423246791
 40
0.9536384488
 40
0.9590381447
 40
0.9642659064
 40
0.9693218507
 40
0.9742064799
 40
0.9789206599
 40
0.9834657014
 40
0.9878435237
 40
0.9920565365
 40
0.9961075756
 40
1.0
 40
1.0
 40
1.0
 40
1.0
 10
13.0298383834
 20
9.1186043808
 30
0.0
 10
13.0308874725
 20
9.1180840431
 30
0.0
 10
13.0329807623
 20
9.1169449417
 30
0.0
 10
13.0360448791
 20
9.1149865341
 30
0.0
 10
13.0390787609
 20
9.1127542304
 30
0.0
 10
13.0420808747
 20
9.1102493365
 30
0.0
 10
13.0450500746
 20
9.1074731348
 30
0.0
 10
13.0479851748
 20
9.1044270435
 30
0.0
 10
13.0508849027
 20
9.1011124587
 30
0.0
 10
13.0537481015
 20
9.0975309831
 30
0.0
 10
13.0565735276
 20
9.0936842519
 30
0.0
 10
13.059359929
 20
9.0895740196
 30
0.0
 10
13.0621061382
 20
9.0852022021
 30
0.0
 10
13.064810867
 20
9.0805707693
 30
0.0
 10
13.0674729339
 20
9.0756818667
 30
0.0
 10
13.070091136
 20
9.0705377419
 30
0.0
 10
13.0726642306
 20
9.065140746
 30
0.0
 10
13.0751910876
 20
9.0594933944
 30
0.0
 10
13.0776705229
 20
9.0535982717
 30
0.0
 10
13.0809625382
 20
9.0452826256
 30
0.0
 10
13.0849388338
 20
9.0342786568
 30
0.0
 10
13.0894327224
 20
9.0203280683
 30
0.0
 10
13.093711313
 20
9.0054607125
 30
0.0
 10
13.0977665707
 20
8.9897042093
 30
0.0
 10
13.1015908686
 20
8.9730876605
 30
0.0
 10
13.1051769886
 20
8.9556419179
 30
0.0
 10
13.108518152
 20
8.9373994055
 30
0.0
 10
13.1116080347
 20
8.9183940867
 30
0.0
 10
13.1144408036
 20
8.8986613884
 30
0.0
 10
13.1170111042
 20
8.8782381228
 30
0.0
 10
13.1193140749
 20
8.8571624051
 30
0.0
 10
13.1213453523
 20
8.8354735853
 30
0.0
 10
13.1231010981
 20
8.8132121772
 30
0.0
 10
13.1245779965
 20
8.7904197776
 30
0.0
 10
13.1257732512
 20
8.7671389804
 30
0.0
 10
13.1266845938
 20
8.743413293
 30
0.0
 10
13.1273102843
 20
8.7192870751
 30
0.0
 10
13.1276491641
 20
8.6948053958
 30
0.0
 10
13.1277179346
 20
8.6615840619
 30
0.0
 10
13.1270765079
 20
8.6195079291
 30
0.0
 10
13.1251715715
 20
8.5685921841
 30
0.0
 10
13.1221413788
 20
8.5173817609
 30
0.0
 10
13.1180085504
 20
8.4662592923
 30
0.0
 10
13.112804003
 20
8.415606753
 30
0.0
 10
13.1075800365
 20
8.3738916048
 30
0.0
 10
13.1028864254
 20
8.3410463783
 30
0.0
 10
13.099142962
 20
8.3168902708
 30
0.0
 10
13.0951653545
 20
8.293131175
 30
0.0
 10
13.0909610358
 20
8.2698134702
 30
0.0
 10
13.0865379033
 20
8.2469807447
 30
0.0
 10
13.0819042529
 20
8.2246756675
 30
0.0
 10
13.0770687737
 20
8.2029399208
 30
0.0
 10
13.0720405406
 20
8.1818141091
 30
0.0
 10
13.0668290004
 20
8.1613376799
 30
0.0
 10
13.0614439394
 20
8.1415488566
 30
0.0
 10
13.0558954689
 20
8.1224845671
 30
0.0
 10
13.0501940034
 20
8.1041803638
 30
0.0
 10
13.0443502607
 20
8.0866703419
 30
0.0
 10
13.0383752169
 20
8.0699870809
 30
0.0
 10
13.0322800866
 20
8.0541615744
 30
0.0
 10
13.0260762909
 20
8.039223188
 30
0.0
 10
13.0197754351
 20
8.0251994677
 30
0.0
 10
13.0133893029
 20
8.0121164443
 30
0.0
 10
13.0079246003
 20
8.0018639877
 30
0.0
 10
13.0035108455
 20
7.9941618006
 30
0.0
 10
13.0002382205
 20
7.9887253434
 30
0.0
 10
12.9969531774
 20
7.9835414249
 30
0.0
 10
12.9936572468
 20
7.9786124282
 30
0.0
 10
12.9903519705
 20
7.9739406301
 30
0.0
 10
12.9870387989
 20
7.9695281876
 30
0.0
 10
12.9837192513
 20
7.9653770611
 30
0.0
 10
12.9803947439
 20
7.9614891728
 30
0.0
 10
12.9770669906
 20
7.9578664868
 30
0.0
 10
12.9748028556
 20
7.9555844238
 30
0.0
 10
12.973670219
 20
7.9544903808
 30
0.0
  0
SPLINE
  5
38A
100
AcDbEntity
  8
0
100
AcDbSpline
 62
7
  6
CONTINUOUS
 70
0
 71
3
 72
84
 73
80
 74
0
 42
0.0000001
 43
0.0000001
 44
0.0000000001
 40
0.0
 40
0.0
 40
0.0
 40
0.0
 40
0.0027164264
 40
0.0054532293
 40
0.008230295
 40
0.0110665896
 40
0.0139797932
 40
0.0169861044
 40
0.0201000661
 40
0.0233345812
 40
0.0267009392
 40
0.0302088856
 40
0.0338668056
 40
0.037681768
 40
0.0416597414
 40
0.0458056718
 40
0.050123593
 40
0.0546167913
 40
0.0592877975
 40
0.0641385717
 40
0.0691704988
 40
0.074384467
 40
0.0797809628
 40
0.0853600226
 40
0.0911213815
 40
0.0970644148
 40
0.1094911534
 40
0.122630387
 40
0.136468035
 40
0.1509868331
 40
0.1661667198
 40
0.1819851503
 40
0.1984173662
 40
0.2154366132
 40
0.2330143274
 40
0.2511202956
 40
0.2697227959
 40
0.2887887406
 40
0.3082838034
 40
0.3281725359
 40
0.3484184777
 40
0.3689842604
 40
0.3898317162
 40
0.4109219843
 40
0.4536719359
 40
0.4969138893
 40
0.5403221212
 40
0.5835693222
 40
0.6263297187
 40
0.6474271304
 40
0.6682829869
 40
0.6888584043
 40
0.7091151927
 40
0.7290159604
 40
0.748524216
 40
0.7676044742
 40
0.7862223676
 40
0.8043447661
 40
0.8219399096
 40
0.838977535
 40
0.8554290199
 40
0.8712675451
 40
0.8864682815
 40
0.9010086172
 40
0.9148684112
 40
0.9280303001
 40
0.9404800906
 40
0.946434749
 40
0.9522077946
 40
0.957798564
 40
0.9632067735
 40
0.9684324641
 40
0.9734760551
 40
0.9783384155
 40
0.983020862
 40
0.9875253935
 40
0.9918546029
 40
0.9960115831
 40
1.0
 40
1.0
 40
1.0
 40
1.0
 10
13.0457446462
 20
9.1206469979
 30
0.0
 10
13.0468551397
 20
9.120569981
 30
0.0
 10
13.0490787675
 20
9.1203148301
 30
0.0
 10
13.0523859009
 20
9.119632132
 30
0.0
 10
13.0556680438
 20
9.1186495396
 30
0.0
 10
13.0589228407
 20
9.1173679736
 30
0.0
 10
13.0621486443
 20
9.1157886478
 30
0.0
 10
13.0653437551
 20
9.1139127087
 30
0.0
 10
13.0685067415
 20
9.1117415651
 30
0.0
 10
13.0716361809
 20
9.1092765604
 30
0.0
 10
13.0747307028
 20
9.1065191218
 30
0.0
 10
13.0777890251
 20
9.1034708027
 30
0.0
 10
13.0808097405
 20
9.1001331304
 30
0.0
 10
13.0837915772
 20
9.0965078544
 30
0.0
 10
13.0867331432
 20
9.0925967485
 30
0.0
 10
13.0896330817
 20
9.0884017507
 30
0.0
 10
13.0924900696
 20
9.0839249448
 30
0.0
 10
13.0953026794
 20
9.0791685013
 30
0.0
 10
13.0980696243
 20
9.0741347968
 30
0.0
 10
13.100789506
 20
9.0688262933
 30
0.0
 10
13.1034610054
 20
9.0632456254
 30
0.0
 10
13.106082824
 20
9.0573955651
 30
0.0
 10
13.1086536106
 20
9.0512790028
 30
0.0
 10
13.1111721396
 20
9.0448990027
 30
0.0
 10
13.113637127
 20
9.038258721
 30
0.0
 10
13.1168993322
 20
9.0289230974
 30
0.0
 10
13.1208222905
 20
9.0166184751
 30
0.0
 10
13.1252300762
 20
9.0010820908
 30
0.0
 10
13.1293965119
 20
8.9845937165
 30
0.0
 10
13.1333131552
 20
8.9671863521
 30
0.0
 10
13.136972044
 20
8.9488946773
 30
0.0
 10
13.1403657416
 20
8.9297552893
 30
0.0
 10
13.1434873422
 20
8.9098065154
 30
0.0
 10
13.1463304917
 20
8.8890883485
 30
0.0
 10
13.1488894005
 20
8.8676423535
 30
0.0
 10
13.1511588555
 20
8.8455115835
 30
0.0
 10
13.1531342409
 20
8.8227404901
 30
0.0
 10
13.1548115363
 20
8.7993748272
 30
0.0
 10
13.1561873251
 20
8.7754615523
 30
0.0
 10
13.1572588007
 20
8.7510487318
 30
0.0
 10
13.158023773
 20
8.7261854405
 30
0.0
 10
13.158480669
 20
8.7009216811
 30
0.0
 10
13.1586285771
 20
8.6753082156
 30
0.0
 10
13.1584122711
 20
8.6406041451
 30
0.0
 10
13.1573627796
 20
8.596731331
 30
0.0
 10
13.1548894056
 20
8.5437579685
 30
0.0
 10
13.151215917
 20
8.4906498617
 30
0.0
 10
13.1463718351
 20
8.4378340352
 30
0.0
 10
13.1413702686
 20
8.3942251976
 30
0.0
 10
13.136805776
 20
8.3598111892
 30
0.0
 10
13.1331320885
 20
8.3344516909
 30
0.0
 10
13.1292003931
 20
8.309479581
 30
0.0
 10
13.1250185862
 20
8.2849450346
 30
0.0
 10
13.1205951166
 20
8.2608973857
 30
0.0
 10
13.1159389091
 20
8.2373849703
 30
0.0
 10
13.1110593624
 20
8.2144550465
 30
0.0
 10
13.105966326
 20
8.1921536933
 30
0.0
 10
13.1006700823
 20
8.1705257131
 30
0.0
 10
13.095181334
 20
8.1496145351
 30
0.0
 10
13.0895111725
 20
8.1294621275
 30
0.0
 10
13.0836710562
 20
8.1101089123
 30
0.0
 10
13.0776727878
 20
8.0915936812
 30
0.0
 10
13.0715284836
 20
8.0739534992
 30
0.0
 10
13.0652505582
 20
8.0572236401
 30
0.0
 10
13.0588516798
 20
8.0414374099
 30
0.0
 10
13.0523447516
 20
8.0266263948
 30
0.0
 10
13.0467634417
 20
8.0149538069
 30
0.0
 10
13.0422456606
 20
8.0061355544
 30
0.0
 10
13.0388888317
 20
7.9998821816
 30
0.0
 10
13.0355147902
 20
7.9938937952
 30
0.0
 10
13.0321252299
 20
7.9881733555
 30
0.0
 10
13.0287218311
 20
7.9827237145
 30
0.0
 10
13.0253062671
 20
7.9775475989
 30
0.0
 10
13.0218802944
 20
7.9726475592
 30
0.0
 10
13.0184455277
 20
7.9680260392
 30
0.0
 10
13.0150036561
 20
7.9636852619
 30
0.0
 10
13.0115562684
 20
7.9596273569
 30
0.0
 10
13.0081052278
 20
7.9558545276
 30
0.0
 10
13.0057554038
 20
7.9534822905
 30
0.0
 10
13.004579848
 20
7.9523467907
 30
0.0
  0
SPLINE
  5
38B
100
AcDbEntity
  8
0
100
AcDbSpline
 62
7
  6
CONTINUOUS
 70
0
 71
3
 72
42
 73
38
 74
0
 42
0.0000001
 43
0.0000001
 44
0.0000000001
 40
0.0
 40
0.0
 40
0.0
 40
0.0
 40
0.0299419663
 40
0.0449235352
 40
0.0599142051
 40
0.0899287052
 40
0.1200139767
 40
0.135092661
 40
0.150196701
 40
0.1804840414
 40
0.210897872
 40
0.2414513324
 40
0.2721543376
 40
0.3030133986
 40
0.3340315263
 40
0.3652082187
 40
0.3965395244
 40
0.4280181782
 40
0.4596338019
 40
0.4913731609
 40
0.5232204716
 40
0.55515775
 40
0.5871651943
 40
0.6192215961
 40
0.6513047701
 40
0.6833919991
 40
0.7154604852
 40
0.7474878032
 40
0.7794523473
 40
0.8113337692
 40
0.8431133916
 40
0.8747746171
 40
0.9063032365
 40
0.9376879249
 40
0.9533258257
 40
0.968925233
 40
1.0
 40
1.0
 40
1.0
 40
1.0
 10
11.5350013615
 20
8.1470869944
 30
0.0
 10
11.5313682244
 20
8.1435776529
 30
0.0
 10
11.5257043892
 20
8.1385262558
 30
0.0
 10
11.5177722762
 20
8.1322586043
 30
0.0
 10
11.5095875823
 20
8.1263028142
 30
0.0
 10
11.4989078835
 20
8.119463646
 30
0.0
 10
11.4877089185
 20
8.1134813617
 30
0.0
 10
11.4784726934
 20
8.1092255041
 30
0.0
 10
11.4690456397
 20
8.1053210425
 30
0.0
 10
11.4569511816
 20
8.1011225751
 30
0.0
 10
11.4420465767
 20
8.0972097166
 30
0.0
 10
11.4268167482
 20
8.0944377316
 30
0.0
 10
11.4113460938
 20
8.0928219227
 30
0.0
 10
11.3957195982
 20
8.0923709105
 30
0.0
 10
11.3800232429
 20
8.0930869915
 30
0.0
 10
11.3643432989
 20
8.0949660291
 30
0.0
 10
11.3487659209
 20
8.0979975147
 30
0.0
 10
11.3333766623
 20
8.1021646242
 30
0.0
 10
11.3182600161
 20
8.1074443183
 30
0.0
 10
11.3034989567
 20
8.113807472
 30
0.0
 10
11.2891744906
 20
8.1212190372
 30
0.0
 10
11.2753652182
 20
8.1296382342
 30
0.0
 10
11.2621469079
 20
8.1390187772
 30
0.0
 10
11.2495920862
 20
8.1493091269
 30
0.0
 10
11.237769644
 20
8.1604527714
 30
0.0
 10
11.2267444632
 20
8.172388534
 30
0.0
 10
11.2165770643
 20
8.1850509053
 30
0.0
 10
11.2073232776
 20
8.1983704003
 30
0.0
 10
11.1990339392
 20
8.2122739313
 30
0.0
 10
11.1917546141
 20
8.2266852203
 30
0.0
 10
11.1855253485
 20
8.2415251526
 30
0.0
 10
11.180380441
 20
8.2567124252
 30
0.0
 10
11.1763483089
 20
8.2721631758
 30
0.0
 10
11.1739309602
 20
8.2852052899
 30
0.0
 10
11.1725748949
 20
8.2956844619
 30
0.0
 10
11.1716071066
 20
8.3061536089
 30
0.0
 10
11.1713140704
 20
8.3140315679
 30
0.0
 10
11.1713140704
 20
8.3192739266
 30
0.0
  0
SPLINE
  5
38C
100
AcDbEntity
  8
0
100
AcDbSpline
 62
7
  6
CONTINUOUS
 70
0
 71
3
 72
42
 73
38
 74
0
 42
0.0000001
 43
0.0000001
 44
0.0000000001
 40
0.0
 40
0.0
 40
0.0
 40
0.0
 40
0.0299419663
 40
0.0449235352
 40
0.0599142051
 40
0.0899287052
 40
0.1200139767
 40
0.135092661
 40
0.150196701
 40
0.1804840414
 40
0.210897872
 40
0.2414513324
 40
0.2721543376
 40
0.3030133986
 40
0.3340315263
 40
0.3652082187
 40
0.3965395244
 40
0.4280181782
 40
0.4596338019
 40
0.4913731609
 40
0.5232204716
 40
0.55515775
 40
0.5871651943
 40
0.6192215961
 40
0.6513047701
 40
0.6833919991
 40
0.7154604852
 40
0.7474878032
 40
0.7794523473
 40
0.8113337692
 40
0.8431133916
 40
0.8747746171
 40
0.9063032365
 40
0.9376879249
 40
0.9533258257
 40
0.968925233
 40
1.0
 40
1.0
 40
1.0
 40
1.0
 10
11.1428355504
 20
8.748043628
 30
0.0
 10
11.1392024133
 20
8.7445342864
 30
0.0
 10
11.1335385782
 20
8.7394828894
 30
0.0
 10
11.1256064651
 20
8.7332152379
 30
0.0
 10
11.1174217712
 20
8.7272594478
 30
0.0
 10
11.1067420725
 20
8.7204202796
 30
0.0
 10
11.0955431074
 20
8.7144379952
 30
0.0
 10
11.0863068824
 20
8.7101821376
 30
0.0
 10
11.0768798286
 20
8.7062776761
 30
0.0
 10
11.0647853706
 20
8.7020792086
 30
0.0
 10
11.0498807656
 20
8.6981663501
 30
0.0
 10
11.0346509371
 20
8.6953943651
 30
0.0
 10
11.0191802827
 20
8.6937785562
 30
0.0
 10
11.0035537872
 20
8.6933275441
 30
0.0
 10
10.9878574319
 20
8.694043625
 30
0.0
 10
10.9721774879
 20
8.6959226627
 30
0.0
 10
10.9566001099
 20
8.6989541482
 30
0.0
 10
10.9412108513
 20
8.7031212577
 30
0.0
 10
10.9260942051
 20
8.7084009518
 30
0.0
 10
10.9113331456
 20
8.7147641056
 30
0.0
 10
10.8970086795
 20
8.7221756707
 30
0.0
 10
10.8831994071
 20
8.7305948677
 30
0.0
 10
10.8699810969
 20
8.7399754107
 30
0.0
 10
10.8574262751
 20
8.7502657604
 30
0.0
 10
10.8456038329
 20
8.7614094049
 30
0.0
 10
10.8345786521
 20
8.7733451675
 30
0.0
 10
10.8244112533
 20
8.7860075388
 30
0.0
 10
10.8151574666
 20
8.7993270339
 30
0.0
 10
10.8068681281
 20
8.8132305649
 30
0.0
 10
10.799588803
 20
8.8276418538
 30
0.0
 10
10.7933595375
 20
8.8424817861
 30
0.0
 10
10.78821463
 20
8.8576690587
 30
0.0
 10
10.7841824979
 20
8.8731198093
 30
0.0
 10
10.7817651491
 20
8.8861619234
 30
0.0
 10
10.7804090839
 20
8.8966410954
 30
0.0
 10
10.7794412955
 20
8.9071102424
 30
0.0
 10
10.7791482594
 20
8.9149882014
 30
0.0
 10
10.7791482594
 20
8.9202305601
 30
0.0
  0
SPLINE
  5
38D
100
AcDbEntity
  8
0
100
AcDbSpline
 62
7
  6
CONTINUOUS
 70
0
 71
3
 72
21
 73
17
 74
0
 42
0.0000001
 43
0.0000001
 44
0.0000000001
 40
0.0
 40
0.0
 40
0.0
 40
0.0
 40
0.1273176366
 40
0.2537999756
 40
0.3167619475
 40
0.3795355041
 40
0.4421314991
 40
0.5045621439
 40
0.5668413432
 40
0.6289845283
 40
0.6910084528
 40
0.7529310935
 40
0.8147714495
 40
0.8765493365
 40
0.9382852194
 40
1.0
 40
1.0
 40
1.0
 40
1.0
 10
9.0288905522
 20
10.1273120787
 30
0.0
 10
9.0288905522
 20
10.1340568329
 30
0.0
 10
9.0295343835
 20
10.1475107723
 30
0.0
 10
9.0319659253
 20
10.1641427482
 30
0.0
 10
9.0348721584
 20
10.1771890794
 30
0.0
 10
9.0375224869
 20
10.186812058
 30
0.0
 10
9.0406404199
 20
10.1962640521
 30
0.0
 10
9.0442188135
 20
10.2055235247
 30
0.0
 10
9.0482493906
 20
10.2145690674
 30
0.0
 10
9.0527229129
 20
10.2233798199
 30
0.0
 10
9.0576290901
 20
10.2319354423
 30
0.0
 10
9.062956579
 20
10.2402162295
 30
0.0
 10
9.0686931087
 20
10.2482030484
 30
0.0
 10
9.0748255509
 20
10.2558775111
 30
0.0
 10
9.0813394749
 20
10.26322171
 30
0.0
 10
9.0859272744
 20
10.2678872249
 30
0.0
 10
9.0882787981
 20
10.2701586227
 30
0.0
  0
SPLINE
  5
38E
100
AcDbEntity
  8
0
100
AcDbSpline
 62
7
  6
CONTINUOUS
 70
0
 71
3
 72
42
 73
38
 74
0
 42
0.0000001
 43
0.0000001
 44
0.0000000001
 40
0.0
 40
0.0
 40
0.0
 40
0.0
 40
0.0299419663
 40
0.0449235352
 40
0.0599142051
 40
0.0899287052
 40
0.1200139767
 40
0.135092661
 40
0.150196701
 40
0.1804840414
 40
0.210897872
 40
0.2414513324
 40
0.2721543376
 40
0.3030133986
 40
0.3340315263
 40
0.3652082187
 40
0.3965395244
 40
0.4280181782
 40
0.4596338019
 40
0.4913731609
 40
0.5232204716
 40
0.55515775
 40
0.5871651943
 40
0.6192215961
 40
0.6513047701
 40
0.6833919991
 40
0.7154604852
 40
0.7474878032
 40
0.7794523473
 40
0.8113337692
 40
0.8431133916
 40
0.8747746171
 40
0.9063032365
 40
0.9376879249
 40
0.9533258257
 40
0.968925233
 40
1.0
 40
1.0
 40
1.0
 40
1.0
 10
10.7506696242
 20
8.2014805852
 30
0.0
 10
10.7470364871
 20
8.1979712436
 30
0.0
 10
10.741372652
 20
8.1929198466
 30
0.0
 10
10.7334405389
 20
8.1866521951
 30
0.0
 10
10.725255845
 20
8.180696405
 30
0.0
 10
10.7145761463
 20
8.1738572368
 30
0.0
 10
10.7033771812
 20
8.1678749524
 30
0.0
 10
10.6941409562
 20
8.1636190948
 30
0.0
 10
10.6847139024
 20
8.1597146333
 30
0.0
 10
10.6726194444
 20
8.1555161658
 30
0.0
 10
10.6577148394
 20
8.1516033073
 30
0.0
 10
10.6424850109
 20
8.1488313223
 30
0.0
 10
10.6270143565
 20
8.1472155134
 30
0.0
 10
10.6113878609
 20
8.1467645013
 30
0.0
 10
10.5956915057
 20
8.1474805822
 30
0.0
 10
10.5800115617
 20
8.1493596199
 30
0.0
 10
10.5644341837
 20
8.1523911054
 30
0.0
 10
10.549044925
 20
8.1565582149
 30
0.0
 10
10.5339282789
 20
8.161837909
 30
0.0
 10
10.5191672194
 20
8.1682010628
 30
0.0
 10
10.5048427533
 20
8.1756126279
 30
0.0
 10
10.4910334809
 20
8.1840318249
 30
0.0
 10
10.4778151707
 20
8.1934123679
 30
0.0
 10
10.4652603489
 20
8.2037027176
 30
0.0
 10
10.4534379067
 20
8.2148463621
 30
0.0
 10
10.4424127259
 20
8.2267821247
 30
0.0
 10
10.432245327
 20
8.239444496
 30
0.0
 10
10.4229915404
 20
8.2527639911
 30
0.0
 10
10.4147022019
 20
8.2666675221
 30
0.0
 10
10.4074228768
 20
8.281078811
 30
0.0
 10
10.4011936113
 20
8.2959187433
 30
0.0
 10
10.3960487038
 20
8.3111060159
 30
0.0
 10
10.3920165717
 20
8.3265567665
 30
0.0
 10
10.3895992229
 20
8.3395988806
 30
0.0
 10
10.3882431577
 20
8.3500780526
 30
0.0
 10
10.3872753693
 20
8.3605471996
 30
0.0
 10
10.3869823331
 20
8.3684251586
 30
0.0
 10
10.3869823331
 20
8.3736675173
 30
0.0
  0
SPLINE
  5
38F
100
AcDbEntity
  8
0
100
AcDbSpline
 62
7
  6
CONTINUOUS
 70
0
 71
3
 72
42
 73
38
 74
0
 42
0.0000001
 43
0.0000001
 44
0.0000000001
 40
0.0
 40
0.0
 40
0.0
 40
0.0
 40
0.0299419663
 40
0.0449235352
 40
0.0599142051
 40
0.0899287052
 40
0.1200139767
 40
0.135092661
 40
0.150196701
 40
0.1804840414
 40
0.210897872
 40
0.2414513324
 40
0.2721543376
 40
0.3030133986
 40
0.3340315263
 40
0.3652082187
 40
0.3965395244
 40
0.4280181782
 40
0.4596338019
 40
0.4913731609
 40
0.5232204716
 40
0.55515775
 40
0.5871651943
 40
0.6192215961
 40
0.6513047701
 40
0.6833919991
 40
0.7154604852
 40
0.7474878032
 40
0.7794523473
 40
0.8113337692
 40
0.8431133916
 40
0.8747746171
 40
0.9063032365
 40
0.9376879249
 40
0.9533258257
 40
0.968925233
 40
1.0
 40
1.0
 40
1.0
 40
1.0
 10
10.2367971067
 20
7.814042033
 30
0.0
 10
10.2331639696
 20
7.8105326915
 30
0.0
 10
10.2275001344
 20
7.8054812944
 30
0.0
 10
10.2195680214
 20
7.7992136429
 30
0.0
 10
10.2113833275
 20
7.7932578528
 30
0.0
 10
10.2007036287
 20
7.7864186846
 30
0.0
 10
10.1895046637
 20
7.7804364003
 30
0.0
 10
10.1802684386
 20
7.7761805427
 30
0.0
 10
10.1708413849
 20
7.7722760811
 30
0.0
 10
10.1587469268
 20
7.7680776137
 30
0.0
 10
10.1438423219
 20
7.7641647552
 30
0.0
 10
10.1286124934
 20
7.7613927702
 30
0.0
 10
10.113141839
 20
7.7597769613
 30
0.0
 10
10.0975153434
 20
7.7593259491
 30
0.0
 10
10.0818189881
 20
7.7600420301
 30
0.0
 10
10.0661390441
 20
7.7619210677
 30
0.0
 10
10.0505616661
 20
7.7649525533
 30
0.0
 10
10.0351724075
 20
7.7691196628
 30
0.0
 10
10.0200557613
 20
7.7743993569
 30
0.0
 10
10.0052947018
 20
7.7807625106
 30
0.0
 10
9.9909702358
 20
7.7881740758
 30
0.0
 10
9.9771609634
 20
7.7965932727
 30
0.0
 10
9.9639426531
 20
7.8059738158
 30
0.0
 10
9.9513878314
 20
7.8162641655
 30
0.0
 10
9.9395653892
 20
7.82740781
 30
0.0
 10
9.9285402084
 20
7.8393435726
 30
0.0
 10
9.9183728095
 20
7.8520059439
 30
0.0
 10
9.9091190228
 20
7.8653254389
 30
0.0
 10
9.9008296844
 20
7.8792289699
 30
0.0
 10
9.8935503593
 20
7.8936402589
 30
0.0
 10
9.8873210937
 20
7.9084801911
 30
0.0
 10
9.8821761862
 20
7.9236674637
 30
0.0
 10
9.8781440541
 20
7.9391182143
 30
0.0
 10
9.8757267054
 20
7.9521603284
 30
0.0
 10
9.8743706401
 20
7.9626395005
 30
0.0
 10
9.8734028518
 20
7.9731086475
 30
0.0
 10
9.8731098156
 20
7.9809866064
 30
0.0
 10
9.8731098156
 20
7.9862289652
 30
0.0
  0
SPLINE
  5
390
100
AcDbEntity
  8
0
100
AcDbSpline
 62
7
  6
CONTINUOUS
 70
0
 71
3
 72
15
 73
11
 74
0
 42
0.0000001
 43
0.0000001
 44
0.0000000001
 40
0.0
 40
0.0
 40
0.0
 40
0.0
 40
0.1233171261
 40
0.2468171865
 40
0.3706749939
 40
0.4950495802
 40
0.6200773232
 40
0.7458671315
 40
0.872492731
 40
1.0
 40
1.0
 40
1.0
 40
1.0
 10
10.0491139344
 20
7.3919175031
 30
0.0
 10
10.0465894008
 20
7.389479012
 30
0.0
 10
10.0412694302
 20
7.3848665862
 30
0.0
 10
10.0325867139
 20
7.378839396
 30
0.0
 10
10.0232828889
 20
7.3737585548
 30
0.0
 10
10.0134531883
 20
7.3696762843
 30
0.0
 10
10.0031967665
 20
7.3666331138
 30
0.0
 10
9.9926169422
 20
7.3646594707
 30
0.0
 10
9.9818217113
 20
7.3637745515
 30
0.0
 10
9.9745754291
 20
7.3639158931
 30
0.0
 10
9.9709549471
 20
7.3641669743
 30
0.0
  0
SPLINE
  5
391
100
AcDbEntity
  8
0
100
AcDbSpline
 62
7
  6
CONTINUOUS
 70
0
 71
3
 72
39
 73
35
 74
0
 42
0.0000001
 43
0.0000001
 44
0.0000000001
 40
0.0
 40
0.0
 40
0.0
 40
0.0
 40
0.0314026134
 40
0.06300949
 40
0.0948071102
 40
0.1267734453
 40
0.1588809722
 40
0.1910970226
 40
0.2233851132
 40
0.2557062446
 40
0.2880202663
 40
0.3202872751
 40
0.3524690067
 40
0.384530184
 40
0.4164397927
 40
0.448172249
 40
0.4797084083
 40
0.5110363809
 40
0.5421521201
 40
0.5730597413
 40
0.6037715194
 40
0.6343075569
 40
0.6646951118
 40
0.6949675896
 40
0.7251632184
 40
0.755323478
 40
0.7854913548
 40
0.8157095105
 40
0.8460184691
 40
0.8764549222
 40
0.9070502335
 40
0.9378293335
 40
0.9688091139
 40
1.0
 40
1.0
 40
1.0
 40
1.0
 10
9.9648727045
 20
7.3355927206
 30
0.0
 10
9.9605609688
 20
7.3358917405
 30
0.0
 10
9.9519331934
 20
7.336916638
 30
0.0
 10
9.9391654024
 20
7.3397002589
 30
0.0
 10
9.9266450924
 20
7.3437083423
 30
0.0
 10
9.9144940557
 20
7.3489020457
 30
0.0
 10
9.9028285094
 20
7.3552311982
 30
0.0
 10
9.891760469
 20
7.3626347979
 30
0.0
 10
9.8813960699
 20
7.371041618
 30
0.0
 10
9.8718347629
 20
7.3803708902
 30
0.0
 10
9.8631683332
 20
7.3905330621
 30
0.0
 10
9.8554799909
 20
7.4014305932
 30
0.0
 10
9.8488436334
 20
7.4129589296
 30
0.0
 10
9.8433231515
 20
7.4250074801
 30
0.0
 10
9.838971825
 20
7.4374606463
 30
0.0
 10
9.8358317369
 20
7.4501988823
 30
0.0
 10
9.8339334303
 20
7.4630998478
 30
0.0
 10
9.8332956019
 20
7.476039546
 30
0.0
 10
9.8339248977
 20
7.4888934797
 30
0.0
 10
9.8358157335
 20
7.5015378344
 30
0.0
 10
9.8389503817
 20
7.513850665
 30
0.0
 10
9.8432990923
 20
7.5257130638
 30
0.0
 10
9.8488203265
 20
7.5370103184
 30
0.0
 10
9.8554610423
 20
7.5476330946
 30
0.0
 10
9.8631572554
 20
7.557478519
 30
0.0
 10
9.8718346466
 20
7.566451224
 30
0.0
 10
9.8814092888
 20
7.5744643219
 30
0.0
 10
9.89178845
 20
7.5814403578
 30
0.0
 10
9.9028715917
 20
7.587312034
 30
0.0
 10
9.9145514415
 20
7.5920228528
 30
0.0
 10
9.9267149098
 20
7.5955276766
 30
0.0
 10
9.9392448138
 20
7.5977930722
 30
0.0
 10
9.9520187058
 20
7.5987979183
 30
0.0
 10
9.9605900401
 20
7.5986215647
 30
0.0
 10
9.9648727045
 20
7.5983245609
 30
0.0
  0
SPLINE
  5
392
100
AcDbEntity
  8
0
100
AcDbSpline
 62
7
  6
CONTINUOUS
 70
0
 71
3
 72
21
 73
17
 74
0
 42
0.0000001
 43
0.0000001
 44
0.0000000001
 40
0.0
 40
0.0
 40
0.0
 40
0.0
 40
0.1273176366
 40
0.2537999756
 40
0.3167619475
 40
0.3795355041
 40
0.4421314991
 40
0.5045621439
 40
0.5668413432
 40
0.6289845283
 40
0.6910084528
 40
0.7529310935
 40
0.8147714495
 40
0.8765493365
 40
0.9382852194
 40
1.0
 40
1.0
 40
1.0
 40
1.0
 10
9.8731098156
 20
7.9862289652
 30
0.0
 10
9.8731098156
 20
7.9929737194
 30
0.0
 10
9.8737536469
 20
8.0064276588
 30
0.0
 10
9.8761851887
 20
8.0230596347
 30
0.0
 10
9.8790914219
 20
8.0361059659
 30
0.0
 10
9.8817417503
 20
8.0457289444
 30
0.0
 10
9.8848596834
 20
8.0551809386
 30
0.0
 10
9.8884380769
 20
8.0644404112
 30
0.0
 10
9.892468654
 20
8.0734859539
 30
0.0
 10
9.8969421763
 20
8.0822967064
 30
0.0
 10
9.9018483535
 20
8.0908523288
 30
0.0
 10
9.9071758424
 20
8.099133116
 30
0.0
 10
9.9129123721
 20
8.1071199349
 30
0.0
 10
9.9190448143
 20
8.1147943976
 30
0.0
 10
9.9255587383
 20
8.1221385965
 30
0.0
 10
9.9301465378
 20
8.1268041114
 30
0.0
 10
9.9324980615
 20
8.1290755092
 30
0.0
  0
SPLINE
  5
393
100
AcDbEntity
  8
0
100
AcDbSpline
 62
7
  6
CONTINUOUS
 70
0
 71
3
 72
15
 73
11
 74
0
 42
0.0000001
 43
0.0000001
 44
0.0000000001
 40
0.0
 40
0.0
 40
0.0
 40
0.0
 40
0.1233171261
 40
0.2468171865
 40
0.3706749939
 40
0.4950495802
 40
0.6200773232
 40
0.7458671315
 40
0.872492731
 40
1.0
 40
1.0
 40
1.0
 40
1.0
 10
12.1007405811
 20
7.2496367119
 30
0.0
 10
12.0982160474
 20
7.2471982208
 30
0.0
 10
12.0928960768
 20
7.242585795
 30
0.0
 10
12.0842133605
 20
7.2365586048
 30
0.0
 10
12.0749095356
 20
7.2314777636
 30
0.0
 10
12.0650798349
 20
7.2273954931
 30
0.0
 10
12.0548234131
 20
7.2243523226
 30
0.0
 10
12.0442435888
 20
7.2223786795
 30
0.0
 10
12.0334483579
 20
7.2214937603
 30
0.0
 10
12.0262020757
 20
7.2216351019
 30
0.0
 10
12.0225815937
 20
7.2218861831
 30
0.0
  0
SPLINE
  5
394
100
AcDbEntity
  8
0
100
AcDbSpline
 62
7
  6
CONTINUOUS
 70
0
 71
3
 72
15
 73
11
 74
0
 42
0.0000001
 43
0.0000001
 44
0.0000000001
 40
0.0
 40
0.0
 40
0.0
 40
0.0
 40
0.1233171261
 40
0.2468171865
 40
0.3706749939
 40
0.4950495802
 40
0.6200773232
 40
0.7458671315
 40
0.872492731
 40
1.0
 40
1.0
 40
1.0
 40
1.0
 10
12.1007405811
 20
9.0008603037
 30
0.0
 10
12.0982160474
 20
8.9984218126
 30
0.0
 10
12.0928960768
 20
8.9938093869
 30
0.0
 10
12.0842133605
 20
8.9877821967
 30
0.0
 10
12.0749095356
 20
8.9827013554
 30
0.0
 10
12.0650798349
 20
8.9786190849
 30
0.0
 10
12.0548234131
 20
8.9755759144
 30
0.0
 10
12.0442435888
 20
8.9736022713
 30
0.0
 10
12.0334483579
 20
8.9727173522
 30
0.0
 10
12.0262020757
 20
8.9728586937
 30
0.0
 10
12.0225815937
 20
8.973109775
 30
0.0
  0
SPLINE
  5
395
100
AcDbEntity
  8
0
100
AcDbSpline
 62
7
  6
CONTINUOUS
 70
0
 71
3
 72
15
 73
11
 74
0
 42
0.0000001
 43
0.0000001
 44
0.0000000001
 40
0.0
 40
0.0
 40
0.0
 40
0.0
 40
0.1233171261
 40
0.2468171865
 40
0.3706749939
 40
0.4950495802
 40
0.6200773232
 40
0.7458671315
 40
0.872492731
 40
1.0
 40
1.0
 40
1.0
 40
1.0
 10
10.0491139344
 20
9.1431410949
 30
0.0
 10
10.0465894008
 20
9.1407026038
 30
0.0
 10
10.0412694302
 20
9.1360901781
 30
0.0
 10
10.0325867139
 20
9.1300629879
 30
0.0
 10
10.0232828889
 20
9.1249821466
 30
0.0
 10
10.0134531883
 20
9.1208998761
 30
0.0
 10
10.0031967665
 20
9.1178567056
 30
0.0
 10
9.9926169422
 20
9.1158830625
 30
0.0
 10
9.9818217113
 20
9.1149981433
 30
0.0
 10
9.9745754291
 20
9.1151394849
 30
0.0
 10
9.9709549471
 20
9.1153905662
 30
0.0
  0
SPLINE
  5
396
100
AcDbEntity
  8
0
100
AcDbSpline
 62
7
  6
CONTINUOUS
 70
0
 71
3
 72
42
 73
38
 74
0
 42
0.0000001
 43
0.0000001
 44
0.0000000001
 40
0.0
 40
0.0
 40
0.0
 40
0.0
 40
0.0299419663
 40
0.0449235352
 40
0.0599142051
 40
0.0899287052
 40
0.1200139767
 40
0.135092661
 40
0.150196701
 40
0.1804840414
 40
0.210897872
 40
0.2414513324
 40
0.2721543376
 40
0.3030133986
 40
0.3340315263
 40
0.3652082187
 40
0.3965395244
 40
0.4280181782
 40
0.4596338019
 40
0.4913731609
 40
0.5232204716
 40
0.55515775
 40
0.5871651943
 40
0.6192215961
 40
0.6513047701
 40
0.6833919991
 40
0.7154604852
 40
0.7474878032
 40
0.7794523473
 40
0.8113337692
 40
0.8431133916
 40
0.8747746171
 40
0.9063032365
 40
0.9376879249
 40
0.9533258257
 40
0.968925233
 40
1.0
 40
1.0
 40
1.0
 40
1.0
 10
9.3925778433
 20
6.4546099337
 30
0.0
 10
9.3889447062
 20
6.4511005922
 30
0.0
 10
9.383280871
 20
6.4460491951
 30
0.0
 10
9.375348758
 20
6.4397815436
 30
0.0
 10
9.367164064
 20
6.4338257535
 30
0.0
 10
9.3564843653
 20
6.4269865853
 30
0.0
 10
9.3452854002
 20
6.421004301
 30
0.0
 10
9.3360491752
 20
6.4167484434
 30
0.0
 10
9.3266221215
 20
6.4128439818
 30
0.0
 10
9.3145276634
 20
6.4086455144
 30
0.0
 10
9.2996230584
 20
6.4047326559
 30
0.0
 10
9.28439323
 20
6.4019606708
 30
0.0
 10
9.2689225756
 20
6.400344862
 30
0.0
 10
9.25329608
 20
6.3998938498
 30
0.0
 10
9.2375997247
 20
6.4006099308
 30
0.0
 10
9.2219197807
 20
6.4024889684
 30
0.0
 10
9.2063424027
 20
6.405520454
 30
0.0
 10
9.1909531441
 20
6.4096875635
 30
0.0
 10
9.1758364979
 20
6.4149672576
 30
0.0
 10
9.1610754384
 20
6.4213304113
 30
0.0
 10
9.1467509724
 20
6.4287419765
 30
0.0
 10
9.1329417
 20
6.4371611734
 30
0.0
 10
9.1197233897
 20
6.4465417165
 30
0.0
 10
9.107168568
 20
6.4568320662
 30
0.0
 10
9.0953461257
 20
6.4679757107
 30
0.0
 10
9.084320945
 20
6.4799114733
 30
0.0
 10
9.0741535461
 20
6.4925738445
 30
0.0
 10
9.0648997594
 20
6.5058933396
 30
0.0
 10
9.056610421
 20
6.5197968706
 30
0.0
 10
9.0493310959
 20
6.5342081596
 30
0.0
 10
9.0431018303
 20
6.5490480918
 30
0.0
 10
9.0379569228
 20
6.5642353644
 30
0.0
 10
9.0339247907
 20
6.579686115
 30
0.0
 10
9.031507442
 20
6.5927282291
 30
0.0
 10
9.0301513767
 20
6.6032074012
 30
0.0
 10
9.0291835884
 20
6.6136765482
 30
0.0
 10
9.0288905522
 20
6.6215545071
 30
0.0
 10
9.0288905522
 20
6.6267968659
 30
0.0
  0
SPLINE
  5
397
100
AcDbEntity
  8
0
100
AcDbSpline
 62
7
  6
CONTINUOUS
 70
0
 71
3
 72
42
 73
38
 74
0
 42
0.0000001
 43
0.0000001
 44
0.0000000001
 40
0.0
 40
0.0
 40
0.0
 40
0.0
 40
0.0299419663
 40
0.0449235352
 40
0.0599142051
 40
0.0899287052
 40
0.1200139767
 40
0.135092661
 40
0.150196701
 40
0.1804840414
 40
0.210897872
 40
0.2414513324
 40
0.2721543376
 40
0.3030133986
 40
0.3340315263
 40
0.3652082187
 40
0.3965395244
 40
0.4280181782
 40
0.4596338019
 40
0.4913731609
 40
0.5232204716
 40
0.55515775
 40
0.5871651943
 40
0.6192215961
 40
0.6513047701
 40
0.6833919991
 40
0.7154604852
 40
0.7474878032
 40
0.7794523473
 40
0.8113337692
 40
0.8431133916
 40
0.8747746171
 40
0.9063032365
 40
0.9376879249
 40
0.9533258257
 40
0.968925233
 40
1.0
 40
1.0
 40
1.0
 40
1.0
 10
12.4101303446
 20
6.245341957
 30
0.0
 10
12.4064972075
 20
6.2418326154
 30
0.0
 10
12.4008333724
 20
6.2367812184
 30
0.0
 10
12.3929012593
 20
6.2305135669
 30
0.0
 10
12.3847165654
 20
6.2245577768
 30
0.0
 10
12.3740368667
 20
6.2177186086
 30
0.0
 10
12.3628379016
 20
6.2117363242
 30
0.0
 10
12.3536016766
 20
6.2074804666
 30
0.0
 10
12.3441746228
 20
6.2035760051
 30
0.0
 10
12.3320801648
 20
6.1993775376
 30
0.0
 10
12.3171755598
 20
6.1954646791
 30
0.0
 10
12.3019457313
 20
6.1926926941
 30
0.0
 10
12.2864750769
 20
6.1910768852
 30
0.0
 10
12.2708485813
 20
6.1906258731
 30
0.0
 10
12.2551522261
 20
6.191341954
 30
0.0
 10
12.2394722821
 20
6.1932209917
 30
0.0
 10
12.2238949041
 20
6.1962524772
 30
0.0
 10
12.2085056454
 20
6.2004195867
 30
0.0
 10
12.1933889993
 20
6.2056992808
 30
0.0
 10
12.1786279398
 20
6.2120624346
 30
0.0
 10
12.1643034737
 20
6.2194739997
 30
0.0
 10
12.1504942013
 20
6.2278931967
 30
0.0
 10
12.1372758911
 20
6.2372737397
 30
0.0
 10
12.1247210693
 20
6.2475640894
 30
0.0
 10
12.1128986271
 20
6.2587077339
 30
0.0
 10
12.1018734463
 20
6.2706434965
 30
0.0
 10
12.0917060474
 20
6.2833058678
 30
0.0
 10
12.0824522608
 20
6.2966253629
 30
0.0
 10
12.0741629223
 20
6.3105288939
 30
0.0
 10
12.0668835972
 20
6.3249401828
 30
0.0
 10
12.0606543317
 20
6.3397801151
 30
0.0
 10
12.0555094242
 20
6.3549673877
 30
0.0
 10
12.0514772921
 20
6.3704181383
 30
0.0
 10
12.0490599433
 20
6.3834602524
 30
0.0
 10
12.0477038781
 20
6.3939394245
 30
0.0
 10
12.0467360897
 20
6.4044085714
 30
0.0
 10
12.0464430535
 20
6.4122865304
 30
0.0
 10
12.0464430535
 20
6.4175288892
 30
0.0
  0
SPLINE
  5
398
100
AcDbEntity
  8
0
100
AcDbSpline
 62
7
  6
CONTINUOUS
 70
0
 71
3
 72
42
 73
38
 74
0
 42
0.0000001
 43
0.0000001
 44
0.0000000001
 40
0.0
 40
0.0
 40
0.0
 40
0.0
 40
0.0299419663
 40
0.0449235352
 40
0.0599142051
 40
0.0899287052
 40
0.1200139767
 40
0.135092661
 40
0.150196701
 40
0.1804840414
 40
0.210897872
 40
0.2414513324
 40
0.2721543376
 40
0.3030133986
 40
0.3340315263
 40
0.3652082187
 40
0.3965395244
 40
0.4280181782
 40
0.4596338019
 40
0.4913731609
 40
0.5232204716
 40
0.55515775
 40
0.5871651943
 40
0.6192215961
 40
0.6513047701
 40
0.6833919991
 40
0.7154604852
 40
0.7474878032
 40
0.7794523473
 40
0.8113337692
 40
0.8431133916
 40
0.8747746171
 40
0.9063032365
 40
0.9376879249
 40
0.9533258257
 40
0.968925233
 40
1.0
 40
1.0
 40
1.0
 40
1.0
 10
9.3925778433
 20
9.9551251465
 30
0.0
 10
9.3889447062
 20
9.951615805
 30
0.0
 10
9.383280871
 20
9.9465644079
 30
0.0
 10
9.375348758
 20
9.9402967564
 30
0.0
 10
9.367164064
 20
9.9343409663
 30
0.0
 10
9.3564843653
 20
9.9275017981
 30
0.0
 10
9.3452854002
 20
9.9215195138
 30
0.0
 10
9.3360491752
 20
9.9172636562
 30
0.0
 10
9.3266221215
 20
9.9133591946
 30
0.0
 10
9.3145276634
 20
9.9091607272
 30
0.0
 10
9.2996230584
 20
9.9052478687
 30
0.0
 10
9.28439323
 20
9.9024758837
 30
0.0
 10
9.2689225756
 20
9.9008600748
 30
0.0
 10
9.25329608
 20
9.9004090626
 30
0.0
 10
9.2375997247
 20
9.9011251436
 30
0.0
 10
9.2219197807
 20
9.9030041812
 30
0.0
 10
9.2063424027
 20
9.9060356668
 30
0.0
 10
9.1909531441
 20
9.9102027763
 30
0.0
 10
9.1758364979
 20
9.9154824704
 30
0.0
 10
9.1610754384
 20
9.9218456241
 30
0.0
 10
9.1467509724
 20
9.9292571893
 30
0.0
 10
9.1329417
 20
9.9376763863
 30
0.0
 10
9.1197233897
 20
9.9470569293
 30
0.0
 10
9.107168568
 20
9.957347279
 30
0.0
 10
9.0953461257
 20
9.9684909235
 30
0.0
 10
9.084320945
 20
9.9804266861
 30
0.0
 10
9.0741535461
 20
9.9930890574
 30
0.0
 10
9.0648997594
 20
10.0064085524
 30
0.0
 10
9.056610421
 20
10.0203120834
 30
0.0
 10
9.0493310959
 20
10.0347233724
 30
0.0
 10
9.0431018303
 20
10.0495633047
 30
0.0
 10
9.0379569228
 20
10.0647505772
 30
0.0
 10
9.0339247907
 20
10.0802013279
 30
0.0
 10
9.031507442
 20
10.093243442
 30
0.0
 10
9.0301513767
 20
10.103722614
 30
0.0
 10
9.0291835884
 20
10.114191761
 30
0.0
 10
9.0288905522
 20
10.1220697199
 30
0.0
 10
9.0288905522
 20
10.1273120787
 30
0.0
  0
SPLINE
  5
399
100
AcDbEntity
  8
0
100
AcDbSpline
 62
7
  6
CONTINUOUS
 70
0
 71
3
 72
15
 73
11
 74
0
 42
0.0000001
 43
0.0000001
 44
0.0000000001
 40
0.0
 40
0.0
 40
0.0
 40
0.0
 40
0.1273482936
 40
0.2538605366
 40
0.3795879111
 40
0.5046050899
 40
0.6290174366
 40
0.7529533732
 40
0.8765605776
 40
1.0
 40
1.0
 40
1.0
 40
1.0
 10
9.8622882852
 20
7.4803696948
 30
0.0
 10
9.8622882852
 20
7.4838344702
 30
0.0
 10
9.8626191001
 20
7.4907460646
 30
0.0
 10
9.864115187
 20
7.500980526
 30
0.0
 10
9.8665959482
 20
7.5109578327
 30
0.0
 10
9.8700389809
 20
7.5205846769
 30
0.0
 10
9.874412679
 20
7.5297722821
 30
0.0
 10
9.8796771874
 20
7.5384358094
 30
0.0
 10
9.8857830175
 20
7.5464940699
 30
0.0
 10
9.890380386
 20
7.5514165246
 30
0.0
 10
9.8927959597
 20
7.5537497693
 30
0.0
  0
SPLINE
  5
39A
100
AcDbEntity
  8
0
100
AcDbSpline
 62
7
  6
CONTINUOUS
 70
0
 71
3
 72
21
 73
17
 74
0
 42
0.0000001
 43
0.0000001
 44
0.0000000001
 40
0.0
 40
0.0
 40
0.0
 40
0.0
 40
0.1273176366
 40
0.2537999756
 40
0.3167619475
 40
0.3795355041
 40
0.4421314991
 40
0.5045621439
 40
0.5668413432
 40
0.6289845283
 40
0.6910084528
 40
0.7529310935
 40
0.8147714495
 40
0.8765493365
 40
0.9382852194
 40
1.0
 40
1.0
 40
1.0
 40
1.0
 10
12.0464430535
 20
9.918044102
 30
0.0
 10
12.0464430535
 20
9.9247888562
 30
0.0
 10
12.0470868848
 20
9.9382427956
 30
0.0
 10
12.0495184266
 20
9.9548747715
 30
0.0
 10
12.0524246598
 20
9.9679211027
 30
0.0
 10
12.0550749882
 20
9.9775440812
 30
0.0
 10
12.0581929213
 20
9.9869960754
 30
0.0
 10
12.0617713148
 20
9.996255548
 30
0.0
 10
12.0658018919
 20
10.0053010907
 30
0.0
 10
12.0702754143
 20
10.0141118432
 30
0.0
 10
12.0751815914
 20
10.0226674656
 30
0.0
 10
12.0805090804
 20
10.0309482528
 30
0.0
 10
12.0862456101
 20
10.0389350716
 30
0.0
 10
12.0923780522
 20
10.0466095344
 30
0.0
 10
12.0988919763
 20
10.0539537332
 30
0.0
 10
12.1034797757
 20
10.0586192481
 30
0.0
 10
12.1058312995
 20
10.060890646
 30
0.0
  0
SPLINE
  5
39B
100
AcDbEntity
  8
0
100
AcDbSpline
 62
7
  6
CONTINUOUS
 70
0
 71
3
 72
42
 73
38
 74
0
 42
0.0000001
 43
0.0000001
 44
0.0000000001
 40
0.0
 40
0.0
 40
0.0
 40
0.0
 40
0.0299419663
 40
0.0449235352
 40
0.0599142051
 40
0.0899287052
 40
0.1200139767
 40
0.135092661
 40
0.150196701
 40
0.1804840414
 40
0.210897872
 40
0.2414513324
 40
0.2721543376
 40
0.3030133986
 40
0.3340315263
 40
0.3652082187
 40
0.3965395244
 40
0.4280181782
 40
0.4596338019
 40
0.4913731609
 40
0.5232204716
 40
0.55515775
 40
0.5871651943
 40
0.6192215961
 40
0.6513047701
 40
0.6833919991
 40
0.7154604852
 40
0.7474878032
 40
0.7794523473
 40
0.8113337692
 40
0.8431133916
 40
0.8747746171
 40
0.9063032365
 40
0.9376879249
 40
0.9533258257
 40
0.968925233
 40
1.0
 40
1.0
 40
1.0
 40
1.0
 10
12.4101303446
 20
9.7458571698
 30
0.0
 10
12.4064972075
 20
9.7423478283
 30
0.0
 10
12.4008333724
 20
9.7372964312
 30
0.0
 10
12.3929012593
 20
9.7310287797
 30
0.0
 10
12.3847165654
 20
9.7250729896
 30
0.0
 10
12.3740368667
 20
9.7182338214
 30
0.0
 10
12.3628379016
 20
9.712251537
 30
0.0
 10
12.3536016766
 20
9.7079956794
 30
0.0
 10
12.3441746228
 20
9.7040912179
 30
0.0
 10
12.3320801648
 20
9.6998927504
 30
0.0
 10
12.3171755598
 20
9.6959798919
 30
0.0
 10
12.3019457313
 20
9.6932079069
 30
0.0
 10
12.2864750769
 20
9.691592098
 30
0.0
 10
12.2708485813
 20
9.6911410859
 30
0.0
 10
12.2551522261
 20
9.6918571668
 30
0.0
 10
12.2394722821
 20
9.6937362045
 30
0.0
 10
12.2238949041
 20
9.69676769
 30
0.0
 10
12.2085056454
 20
9.7009347995
 30
0.0
 10
12.1933889993
 20
9.7062144936
 30
0.0
 10
12.1786279398
 20
9.7125776474
 30
0.0
 10
12.1643034737
 20
9.7199892125
 30
0.0
 10
12.1504942013
 20
9.7284084095
 30
0.0
 10
12.1372758911
 20
9.7377889525
 30
0.0
 10
12.1247210693
 20
9.7480793022
 30
0.0
 10
12.1128986271
 20
9.7592229467
 30
0.0
 10
12.1018734463
 20
9.7711587093
 30
0.0
 10
12.0917060474
 20
9.7838210806
 30
0.0
 10
12.0824522608
 20
9.7971405757
 30
0.0
 10
12.0741629223
 20
9.8110441067
 30
0.0
 10
12.0668835972
 20
9.8254553957
 30
0.0
 10
12.0606543317
 20
9.8402953279
 30
0.0
 10
12.0555094242
 20
9.8554826005
 30
0.0
 10
12.0514772921
 20
9.8709333511
 30
0.0
 10
12.0490599433
 20
9.8839754652
 30
0.0
 10
12.0477038781
 20
9.8944546373
 30
0.0
 10
12.0467360897
 20
9.9049237842
 30
0.0
 10
12.0464430535
 20
9.9128017432
 30
0.0
 10
12.0464430535
 20
9.918044102
 30
0.0
  0
SPLINE
  5
39C
100
AcDbEntity
  8
0
100
AcDbSpline
 62
4
  6
CONTINUOUS
 70
0
 71
3
 72
313
 73
309
 74
0
 42
0.0000001
 43
0.0000001
 44
0.0000000001
 40
0.0
 40
0.0
 40
0.0
 40
0.0
 40
0.015625
 40
0.0234375
 40
0.03125
 40
0.0390625
 40
0.046875
 40
0.05078125
 40
0.0546875
 40
0.056640625
 40
0.05859375
 40
0.060546875
 40
0.0615234375
 40
0.0620117188
 40
0.0625
 40
0.0629882812
 40
0.0634765625
 40
0.064453125
 40
0.06640625
 40
0.068359375
 40
0.0703125
 40
0.07421875
 40
0.078125
 40
0.0859375
 40
0.09375
 40
0.1015625
 40
0.109375
 40
0.11328125
 40
0.1171875
 40
0.119140625
 40
0.12109375
 40
0.123046875
 40
0.1240234375
 40
0.1245117188
 40
0.125
 40
0.1254882812
 40
0.1259765625
 40
0.126953125
 40
0.12890625
 40
0.130859375
 40
0.1328125
 40
0.13671875
 40
0.140625
 40
0.1484375
 40
0.15625
 40
0.1640625
 40
0.171875
 40
0.17578125
 40
0.1796875
 40
0.181640625
 40
0.18359375
 40
0.185546875
 40
0.1865234375
 40
0.1870117188
 40
0.1875
 40
0.1879882812
 40
0.1884765625
 40
0.189453125
 40
0.19140625
 40
0.193359375
 40
0.1953125
 40
0.19921875
 40
0.203125
 40
0.2109375
 40
0.21875
 40
0.2265625
 40
0.234375
 40
0.23828125
 40
0.2421875
 40
0.244140625
 40
0.24609375
 40
0.248046875
 40
0.2490234375
 40
0.2495117188
 40
0.25
 40
0.2504882812
 40
0.2509765625
 40
0.251953125
 40
0.25390625
 40
0.255859375
 40
0.2578125
 40
0.26171875
 40
0.265625
 40
0.2734375
 40
0.28125
 40
0.2890625
 40
0.296875
 40
0.30078125
 40
0.3046875
 40
0.306640625
 40
0.30859375
 40
0.310546875
 40
0.3115234375
 40
0.3120117188
 40
0.3125
 40
0.3129882812
 40
0.3134765625
 40
0.314453125
 40
0.31640625
 40
0.318359375
 40
0.3203125
 40
0.32421875
 40
0.328125
 40
0.3359375
 40
0.34375
 40
0.3515625
 40
0.359375
 40
0.36328125
 40
0.3671875
 40
0.369140625
 40
0.37109375
 40
0.373046875
 40
0.3740234375
 40
0.3745117188
 40
0.375
 40
0.3754882812
 40
0.3759765625
 40
0.376953125
 40
0.37890625
 40
0.380859375
 40
0.3828125
 40
0.38671875
 40
0.390625
 40
0.3984375
 40
0.40625
 40
0.4140625
 40
0.421875
 40
0.42578125
 40
0.4296875
 40
0.431640625
 40
0.43359375
 40
0.435546875
 40
0.4365234375
 40
0.4370117188
 40
0.4375
 40
0.4379882812
 40
0.4384765625
 40
0.439453125
 40
0.44140625
 40
0.443359375
 40
0.4453125
 40
0.44921875
 40
0.453125
 40
0.4609375
 40
0.46875
 40
0.4765625
 40
0.484375
 40
0.48828125
 40
0.4921875
 40
0.494140625
 40
0.49609375
 40
0.498046875
 40
0.4990234375
 40
0.4995117188
 40
0.5
 40
0.5004882812
 40
0.5009765625
 40
0.501953125
 40
0.50390625
 40
0.505859375
 40
0.5078125
 40
0.51171875
 40
0.515625
 40
0.5234375
 40
0.53125
 40
0.5390625
 40
0.546875
 40
0.55078125
 40
0.5546875
 40
0.556640625
 40
0.55859375
 40
0.560546875
 40
0.5615234375
 40
0.5620117188
 40
0.5625
 40
0.5629882812
 40
0.5634765625
 40
0.564453125
 40
0.56640625
 40
0.568359375
 40
0.5703125
 40
0.57421875
 40
0.578125
 40
0.5859375
 40
0.59375
 40
0.6015625
 40
0.609375
 40
0.61328125
 40
0.6171875
 40
0.619140625
 40
0.62109375
 40
0.623046875
 40
0.6240234375
 40
0.6245117188
 40
0.625
 40
0.6254882812
 40
0.6259765625
 40
0.626953125
 40
0.62890625
 40
0.630859375
 40
0.6328125
 40
0.63671875
 40
0.640625
 40
0.6484375
 40
0.65625
 40
0.6640625
 40
0.671875
 40
0.67578125
 40
0.6796875
 40
0.681640625
 40
0.68359375
 40
0.685546875
 40
0.6865234375
 40
0.6870117188
 40
0.6875
 40
0.6879882812
 40
0.6884765625
 40
0.689453125
 40
0.69140625
 40
0.693359375
 40
0.6953125
 40
0.69921875
 40
0.703125
 40
0.7109375
 40
0.71875
 40
0.7265625
 40
0.734375
 40
0.73828125
 40
0.7421875
 40
0.744140625
 40
0.74609375
 40
0.748046875
 40
0.7490234375
 40
0.7495117188
 40
0.75
 40
0.7504882812
 40
0.7509765625
 40
0.751953125
 40
0.75390625
 40
0.755859375
 40
0.7578125
 40
0.76171875
 40
0.765625
 40
0.7734375
 40
0.78125
 40
0.7890625
 40
0.796875
 40
0.80078125
 40
0.8046875
 40
0.806640625
 40
0.80859375
 40
0.810546875
 40
0.8115234375
 40
0.8120117188
 40
0.8125
 40
0.8129882812
 40
0.8134765625
 40
0.814453125
 40
0.81640625
 40
0.818359375
 40
0.8203125
 40
0.82421875
 40
0.828125
 40
0.8359375
 40
0.84375
 40
0.8515625
 40
0.859375
 40
0.86328125
 40
0.8671875
 40
0.869140625
 40
0.87109375
 40
0.873046875
 40
0.8740234375
 40
0.8745117188
 40
0.875
 40
0.8754882812
 40
0.8759765625
 40
0.876953125
 40
0.87890625
 40
0.880859375
 40
0.8828125
 40
0.88671875
 40
0.890625
 40
0.8984375
 40
0.90625
 40
0.9140625
 40
0.921875
 40
0.92578125
 40
0.9296875
 40
0.931640625
 40
0.93359375
 40
0.935546875
 40
0.9365234375
 40
0.9370117188
 40
0.9375
 40
0.9379882812
 40
0.9384765625
 40
0.939453125
 40
0.94140625
 40
0.943359375
 40
0.9453125
 40
0.94921875
 40
0.953125
 40
0.9609375
 40
0.96875
 40
0.9765625
 40
0.984375
 40
1.0
 40
1.0
 40
1.0
 40
1.0
 10
11.0892105603
 20
7.0431839896
 30
0.0
 10
11.0865995711
 20
7.0431090526
 30
0.0
 10
11.0826830873
 20
7.0429966473
 30
0.0
 10
11.077461109
 20
7.0428467727
 30
0.0
 10
11.0735446249
 20
7.0427343688
 30
0.0
 10
11.0696281423
 20
7.0426219571
 30
0.0
 10
11.066364402
 20
7.0425283052
 30
0.0
 10
11.0637534206
 20
7.0424533287
 30
0.0
 10
11.0621215327
 20
7.0424065935
 30
0.0
 10
11.0608160784
 20
7.0423689188
 30
0.0
 10
11.0598368343
 20
7.0423414475
 30
0.0
 10
11.0590212853
 20
7.0423160582
 30
0.0
 10
11.058449444
 20
7.0423031851
 30
0.0
 10
11.0581241718
 20
7.042288179
 30
0.0
 10
11.0578760083
 20
7.0422984748
 30
0.0
 10
11.0576439349
 20
7.0422263941
 30
0.0
 10
11.0573288913
 20
7.0421590203
 30
0.0
 10
11.0567801799
 20
7.0420277286
 30
0.0
 10
11.0559949394
 20
7.0418471681
 30
0.0
 10
11.0550532359
 20
7.0416274997
 30
0.0
 10
11.0537974269
 20
7.0413356549
 30
0.0
 10
11.0522277357
 20
7.0409704906
 30
0.0
 10
11.0497161905
 20
7.040386428
 30
0.0
 10
11.0465767726
 20
7.0396562805
 30
0.0
 10
11.0428094646
 20
7.0387801351
 30
0.0
 10
11.0390421612
 20
7.0379039743
 30
0.0
 10
11.0359027319
 20
7.0371738655
 30
0.0
 10
11.0333912096
 20
7.0365897256
 30
0.0
 10
11.0318214602
 20
7.0362247578
 30
0.0
 10
11.0305657706
 20
7.0359325095
 30
0.0
 10
11.0296237026
 20
7.0357140738
 30
0.0
 10
11.0288396026
 20
7.0355296566
 30
0.0
 10
11.0282888551
 20
7.0354052498
 30
0.0
 10
11.0279770738
 20
7.0353268445
 30
0.0
 10
11.0277349796
 20
7.0352886492
 30
0.0
 10
11.0275244526
 20
7.0351716769
 30
0.0
 10
11.027232739
 20
7.0350431921
 30
0.0
 10
11.0267273704
 20
7.0348055411
 30
0.0
 10
11.026002733
 20
7.0344727329
 30
0.0
 10
11.0251343162
 20
7.0340704982
 30
0.0
 10
11.0239760262
 20
7.033535186
 30
0.0
 10
11.022528301
 20
7.032865703
 30
0.0
 10
11.0202118638
 20
7.0317947218
 30
0.0
 10
11.017316344
 20
7.0304559291
 30
0.0
 10
11.0138417078
 20
7.0288494082
 30
0.0
 10
11.0103670785
 20
7.0272428722
 30
0.0
 10
11.0074715414
 20
7.025904117
 30
0.0
 10
11.0051551388
 20
7.0248330609
 30
0.0
 10
11.0037073257
 20
7.0241637682
 30
0.0
 10
11.002549216
 20
7.0236280655
 30
0.0
 10
11.0016802483
 20
7.0232270236
 30
0.0
 10
11.0009573348
 20
7.0228904835
 30
0.0
 10
11.0004488887
 20
7.0226594947
 30
0.0
 10
11.0001621059
 20
7.0225203353
 30
0.0
 10
10.999936433
 20
7.0224361521
 30
0.0
 10
10.9997512246
 20
7.0222748062
 30
0.0
 10
10.9994901656
 20
7.0220865936
 30
0.0
 10
10.9990398886
 20
7.0217446812
 30
0.0
 10
10.9983931976
 20
7.0212627911
 30
0.0
 10
10.9976186401
 20
7.0206817167
 30
0.0
 10
10.9965853827
 20
7.019907931
 30
0.0
 10
10.9952939869
 20
7.0189403634
 30
0.0
 10
10.9932276553
 20
7.0173924427
 30
0.0
 10
10.9906447749
 20
7.0154574771
 30
0.0
 10
10.9875453022
 20
7.0131355476
 30
0.0
 10
10.9844458396
 20
7.010813605
 30
0.0
 10
10.9818629339
 20
7.0088786721
 30
0.0
 10
10.9797966528
 20
7.0073306861
 30
0.0
 10
10.9785051285
 20
7.0063632844
 30
0.0
 10
10.9774721349
 20
7.0055891582
 30
0.0
 10
10.9766967715
 20
7.0050091243
 30
0.0
 10
10.9760526019
 20
7.0045239788
 30
0.0
 10
10.9755978237
 20
7.0041878779
 30
0.0
 10
10.9753439768
 20
7.0039903537
 30
0.0
 10
10.9751366154
 20
7.0038576098
 30
0.0
 10
10.9749941454
 20
7.0036660023
 30
0.0
 10
10.9747815506
 20
7.0034310579
 30
0.0
 10
10.9744200557
 20
7.0030103388
 30
0.0
 10
10.9738981209
 20
7.0024143129
 30
0.0
 10
10.973274159
 20
7.001696941
 30
0.0
 10
10.9724413855
 20
7.000741193
 30
0.0
 10
10.971400701
 20
6.9995462519
 30
0.0
 10
10.9697354479
 20
6.9976344893
 30
0.0
 10
10.967653936
 20
6.9952447367
 30
0.0
 10
10.9651560968
 20
6.9923770559
 30
0.0
 10
10.9626582704
 20
6.9895093646
 30
0.0
 10
10.9605767265
 20
6.9871196383
 30
0.0
 10
10.9589115376
 20
6.985207823
 30
0.0
 10
10.9578706899
 20
6.9840130158
 30
0.0
 10
10.9570382512
 20
6.983056993
 30
0.0
 10
10.9564132665
 20
6.9823404604
 30
0.0
 10
10.955894532
 20
6.9817418087
 30
0.0
 10
10.9555273238
 20
6.9813257772
 30
0.0
 10
10.9553238832
 20
6.981083322
 30
0.0
 10
10.9551532943
 20
6.9809147851
 30
0.0
 10
10.9550515429
 20
6.9806953917
 30
0.0
 10
10.954891863
 20
6.9804206065
 30
0.0
 10
10.9546236104
 20
6.9799314674
 30
0.0
 10
10.9542345437
 20
6.9792370182
 30
0.0
 10
10.9537701671
 20
6.9784018296
 30
0.0
 10
10.9531501239
 20
6.9772888908
 30
0.0
 10
10.9523753693
 20
6.9758974962
 30
0.0
 10
10.9511355945
 20
6.9736713884
 30
0.0
 10
10.9495859339
 20
6.9708887111
 30
0.0
 10
10.9477263145
 20
6.9675495174
 30
0.0
 10
10.9458667091
 20
6.9642103153
 30
0.0
 10
10.9443170136
 20
6.961427659
 30
0.0
 10
10.9430773086
 20
6.959201509
 30
0.0
 10
10.9423023767
 20
6.9578102217
 30
0.0
 10
10.9416826973
 20
6.9566970626
 30
0.0
 10
10.9412172092
 20
6.9558625471
 30
0.0
 10
10.9408316202
 20
6.955165992
 30
0.0
 10
10.9405571593
 20
6.9546806123
 30
0.0
 10
10.9404074268
 20
6.9543998035
 30
0.0
 10
10.9402751202
 20
6.9541989126
 30
0.0
 10
10.9402192909
 20
6.9539608835
 30
0.0
 10
10.9401181758
 20
6.9536564657
 30
0.0
 10
10.9399536531
 20
6.9531176988
 30
0.0
 10
10.9397121228
 20
6.9523511874
 30
0.0
 10
10.9394250677
 20
6.951430023
 30
0.0
 10
10.9390413562
 20
6.9502022756
 30
0.0
 10
10.9385620494
 20
6.9486674297
 30
0.0
 10
10.9377949725
 20
6.9462117667
 30
0.0
 10
10.9368361907
 20
6.9431421568
 30
0.0
 10
10.9356856231
 20
6.939458639
 30
0.0
 10
10.9345350706
 20
6.9357751148
 30
0.0
 10
10.933576251
 20
6.9327055209
 30
0.0
 10
10.9328092498
 20
6.9302498258
 30
0.0
 10
10.9323297507
 20
6.9287150614
 30
0.0
 10
10.9319464339
 20
6.9274871469
 30
0.0
 10
10.9316581728
 20
6.926566493
 30
0.0
 10
10.9314204158
 20
6.9257983844
 30
0.0
 10
10.931249157
 20
6.9252624687
 30
0.0
 10
10.9311588348
 20
6.9249534826
 30
0.0
 10
10.931069853
 20
6.9247294856
 30
0.0
 10
10.9310620619
 20
6.9244758928
 30
0.0
 10
10.9310233536
 20
6.9241480924
 30
0.0
 10
10.930968809
 20
6.9235696319
 30
0.0
 10
10.9308839896
 20
6.9227457743
 30
0.0
 10
10.9307851591
 20
6.921756069
 30
0.0
 10
10.9306523537
 20
6.9204368377
 30
0.0
 10
10.9304867002
 20
6.91878767
 30
0.0
 10
10.9302214571
 20
6.9161490735
 30
0.0
 10
10.9298899715
 20
6.9128508033
 30
0.0
 10
10.9294921574
 20
6.9088928895
 30
0.0
 10
10.9290943593
 20
6.904934973
 30
0.0
 10
10.9287628339
 20
6.9016367095
 30
0.0
 10
10.9284976703
 20
6.8989980996
 30
0.0
 10
10.9283318148
 20
6.897348966
 30
0.0
 10
10.9281994239
 20
6.8960296646
 30
0.0
 10
10.9280993273
 20
6.8950401734
 30
0.0
 10
10.9280184692
 20
6.8942156458
 30
0.0
 10
10.9279568531
 20
6.8936383815
 30
0.0
 10
10.927929475
 20
6.8933086645
 30
0.0
 10
10.9278868811
 20
6.8930609591
 30
0.0
 10
10.927928613
 20
6.89281485
 30
0.0
 10
10.9279548418
 20
6.8924861478
 30
0.0
 10
10.9280144466
 20
6.8919111784
 30
0.0
 10
10.9280924315
 20
6.8910896578
 30
0.0
 10
10.9281890802
 20
6.8901038912
 30
0.0
 10
10.9283168739
 20
6.8887895154
 30
0.0
 10
10.9284769829
 20
6.8871465527
 30
0.0
 10
10.9287329522
 20
6.8845178084
 30
0.0
 10
10.9290529845
 20
6.8812318794
 30
0.0
 10
10.9294369911
 20
6.8772887637
 30
0.0
 10
10.9298210136
 20
6.8733456493
 30
0.0
 10
10.9301410062
 20
6.8700597174
 30
0.0
 10
10.9303970549
 20
6.8674309789
 30
0.0
 10
10.9305569619
 20
6.8657880014
 30
0.0
 10
10.9306851702
 20
6.8644736558
 30
0.0
 10
10.9307805523
 20
6.863487797
 30
0.0
 10
10.9308625001
 20
6.8626665649
 30
0.0
 10
10.9309150305
 20
6.8620910806
 30
0.0
 10
10.9309525943
 20
6.8617632033
 30
0.0
 10
10.9309595087
 20
6.8615145603
 30
0.0
 10
10.9310476837
 20
6.8612763719
 30
0.0
 10
10.9311369059
 20
6.8609551408
 30
0.0
 10
10.9313062509
 20
6.8603946853
 30
0.0
 10
10.931541268
 20
6.8595931462
 30
0.0
 10
10.9318262437
 20
6.8586316797
 30
0.0
 10
10.9322051792
 20
6.8573495914
 30
0.0
 10
10.932679202
 20
6.8557470265
 30
0.0
 10
10.9334374409
 20
6.8531828973
 30
0.0
 10
10.9343853077
 20
6.8499777447
 30
0.0
 10
10.9355227167
 20
6.8461315571
 30
0.0
 10
10.936660141
 20
6.842285373
 30
0.0
 10
10.9376079699
 20
6.8390802116
 30
0.0
 10
10.9383662845
 20
6.8365161
 30
0.0
 10
10.9388401147
 20
6.8349134904
 30
0.0
 10
10.9392194454
 20
6.833631494
 30
0.0
 10
10.9395032138
 20
6.8326697466
 30
0.0
 10
10.9397420085
 20
6.8318690862
 30
0.0
 10
10.9399046097
 20
6.8313070623
 30
0.0
 10
10.9400046372
 20
6.8309883441
 30
0.0
 10
10.9400596217
 20
6.8307424367
 30
0.0
 10
10.9401911942
 20
6.8305227851
 30
0.0
 10
10.9403399094
 20
6.830220758
 30
0.0
 10
10.9406126078
 20
6.8296964777
 30
0.0
 10
10.9409956697
 20
6.8289452749
 30
0.0
 10
10.9414581293
 20
6.8280447864
 30
0.0
 10
10.9420737693
 20
6.8268438016
 30
0.0
 10
10.9428436524
 20
6.8253426848
 30
0.0
 10
10.944075279
 20
6.8229408341
 30
0.0
 10
10.9456148766
 20
6.8199385428
 30
0.0
 10
10.9474623645
 20
6.8163357829
 30
0.0
 10
10.9493098668
 20
6.8127330289
 30
0.0
 10
10.9508494282
 20
6.8097307228
 30
0.0
 10
10.9520811273
 20
6.8073289016
 30
0.0
 10
10.9528508262
 20
6.8058277097
 30
0.0
 10
10.9534668441
 20
6.804626879
 30
0.0
 10
10.9539281491
 20
6.8037259197
 30
0.0
 10
10.9543148235
 20
6.8029761903
 30
0.0
 10
10.9545810731
 20
6.8024492797
 30
0.0
 10
10.954740121
 20
6.8021514669
 30
0.0
 10
10.9548399546
 20
6.8019188704
 30
0.0
 10
10.9550141448
 20
6.8017215819
 30
0.0
 10
10.9552204619
 20
6.8014462148
 30
0.0
 10
10.9555936011
 20
6.8009700605
 30
0.0
 10
10.9561203394
 20
6.8002868401
 30
0.0
 10
10.9567551295
 20
6.7994682597
 30
0.0
 10
10.9576005718
 20
6.7983763707
 30
0.0
 10
10.9586576981
 20
6.797011663
 30
0.0
 10
10.9603489194
 20
6.7948280447
 30
0.0
 10
10.9624630083
 20
6.7920985518
 30
0.0
 10
10.964999887
 20
6.7888231459
 30
0.0
 10
10.967536778
 20
6.7855477494
 30
0.0
 10
10.969650836
 20
6.7828182332
 30
0.0
 10
10.9713421191
 20
6.7806346613
 30
0.0
 10
10.9723990883
 20
6.7792698359
 30
0.0
 10
10.9732448529
 20
6.7781781883
 30
0.0
 10
10.9738786584
 20
6.7773588703
 30
0.0
 10
10.9744084773
 20
6.7766779577
 30
0.0
 10
10.9747761171
 20
6.7761976836
 30
0.0
 10
10.9749912456
 20
6.7759289175
 30
0.0
 10
10.9751383701
 20
6.775711353
 30
0.0
 10
10.9753398579
 20
6.7755549098
 30
0.0
 10
10.9755895459
 20
6.7753249991
 30
0.0
 10
10.9760353347
 20
6.7749325886
 30
0.0
 10
10.9766675569
 20
6.774366809
 30
0.0
 10
10.9774282006
 20
6.7736900963
 30
0.0
 10
10.9784417017
 20
6.7727870363
 30
0.0
 10
10.9797088145
 20
6.7716584772
 30
0.0
 10
10.9817360628
 20
6.7698526339
 30
0.0
 10
10.9842701688
 20
6.7675953812
 30
0.0
 10
10.9873110753
 20
6.7648866544
 30
0.0
 10
10.9903519915
 20
6.7621779397
 30
0.0
 10
10.9928860734
 20
6.7599206566
 30
0.0
 10
10.9949133699
 20
6.7581148742
 30
0.0
 10
10.9961803601
 20
6.7569861605
 30
0.0
 10
10.9971941127
 20
6.7560834179
 30
0.0
 10
10.9979539881
 20
6.7554057355
 30
0.0
 10
10.9985886142
 20
6.7548429897
 30
0.0
 10
10.9990301117
 20
6.7544451634
 30
0.0
 10
10.9992866755
 20
6.7542239301
 30
0.0
 10
10.9994670428
 20
6.7540408327
 30
0.0
 10
10.9996934927
 20
6.7539233769
 30
0.0
 10
10.9999793517
 20
6.7537438726
 30
0.0
 10
11.0004870943
 20
6.753440408
 30
0.0
 10
11.0012085253
 20
6.7530013099
 30
0.0
 10
11.0020759185
 20
6.7524767793
 30
0.0
 10
11.0032318574
 20
6.7517765715
 30
0.0
 10
11.0046769815
 20
6.7509015972
 30
0.0
 10
11.0069890679
 20
6.7495014787
 30
0.0
 10
11.0098792146
 20
6.7477513857
 30
0.0
 10
11.0133473733
 20
6.7456512487
 30
0.0
 10
11.0168155395
 20
6.7435511252
 30
0.0
 10
11.0197056675
 20
6.7418009986
 30
0.0
 10
11.0220177914
 20
6.7404009473
 30
0.0
 10
11.0234628204
 20
6.7395258023
 30
0.0
 10
11.0246189544
 20
6.7388259447
 30
0.0
 10
11.0254857516
 20
6.738300344
 30
0.0
 10
11.0262090474
 20
6.7378645943
 30
0.0
 10
11.026713461
 20
6.7375551522
 30
0.0
 10
11.0270046538
 20
6.7373852253
 30
0.0
 10
11.0272147202
 20
6.7372383507
 30
0.0
 10
11.027456621
 20
6.7371657455
 30
0.0
 10
11.0277680513
 20
6.7370430326
 30
0.0
 10
11.0283182278
 20
6.736840355
 30
0.0
 10
11.0291014894
 20
6.7365445053
 30
0.0
 10
11.0300425612
 20
6.7361921867
 30
0.0
 10
11.0312969191
 20
6.7357214851
 30
0.0
 10
11.0328650049
 20
6.7351334312
 30
0.0
 10
11.0353738649
 20
6.7341923644
 30
0.0
 10
11.0385099666
 20
6.7330160932
 30
0.0
 10
11.0422732765
 20
6.7316045391
 30
0.0
 10
11.0460365919
 20
6.7301929998
 30
0.0
 10
11.0491726801
 20
6.7290166917
 30
0.0
 10
11.0516815669
 20
6.7280756986
 30
0.0
 10
11.0532495847
 20
6.7274874571
 30
0.0
 10
11.0545040823
 20
6.7270171406
 30
0.0
 10
11.0554447272
 20
6.7266636456
 30
0.0
 10
11.0562293242
 20
6.7263714766
 30
0.0
 10
11.0567771168
 20
6.7261622283
 30
0.0
 10
11.0570923667
 20
6.7260500434
 30
0.0
 10
11.0573225347
 20
6.7259450994
 30
0.0
 10
11.0575766679
 20
6.7259196841
 30
0.0
 10
11.0579071529
 20
6.7258580566
 30
0.0
 10
11.0584893963
 20
6.7257631332
 30
0.0
 10
11.0593191365
 20
6.7256207712
 30
0.0
 10
11.0603156962
 20
6.725452829
 30
0.0
 10
11.0616441381
 20
6.7252278959
 30
0.0
 10
11.0633047947
 20
6.7249470755
 30
0.0
 10
11.065961787
 20
6.7244975694
 30
0.0
 10
11.0692830474
 20
6.7239357531
 30
0.0
 10
11.0732685513
 20
6.7232615452
 30
0.0
 10
11.0772540574
 20
6.7225873448
 30
0.0
 10
11.0825680649
 20
6.7216884084
 30
0.0
 10
11.0865535706
 20
6.7210142067
 30
0.0
 10
11.0892105744
 20
6.7205647387
 30
0.0
  0
SPLINE
  5
39D
100
AcDbEntity
  8
0
100
AcDbSpline
 62
4
  6
CONTINUOUS
 70
0
 71
3
 72
313
 73
309
 74
0
 42
0.0000001
 43
0.0000001
 44
0.0000000001
 40
0.0
 40
0.0
 40
0.0
 40
0.0
 40
0.015625
 40
0.0234375
 40
0.03125
 40
0.0390625
 40
0.046875
 40
0.05078125
 40
0.0546875
 40
0.056640625
 40
0.05859375
 40
0.060546875
 40
0.0615234375
 40
0.0620117188
 40
0.0625
 40
0.0629882812
 40
0.0634765625
 40
0.064453125
 40
0.06640625
 40
0.068359375
 40
0.0703125
 40
0.07421875
 40
0.078125
 40
0.0859375
 40
0.09375
 40
0.1015625
 40
0.109375
 40
0.11328125
 40
0.1171875
 40
0.119140625
 40
0.12109375
 40
0.123046875
 40
0.1240234375
 40
0.1245117188
 40
0.125
 40
0.1254882812
 40
0.1259765625
 40
0.126953125
 40
0.12890625
 40
0.130859375
 40
0.1328125
 40
0.13671875
 40
0.140625
 40
0.1484375
 40
0.15625
 40
0.1640625
 40
0.171875
 40
0.17578125
 40
0.1796875
 40
0.181640625
 40
0.18359375
 40
0.185546875
 40
0.1865234375
 40
0.1870117188
 40
0.1875
 40
0.1879882812
 40
0.1884765625
 40
0.189453125
 40
0.19140625
 40
0.193359375
 40
0.1953125
 40
0.19921875
 40
0.203125
 40
0.2109375
 40
0.21875
 40
0.2265625
 40
0.234375
 40
0.23828125
 40
0.2421875
 40
0.244140625
 40
0.24609375
 40
0.248046875
 40
0.2490234375
 40
0.2495117188
 40
0.25
 40
0.2504882812
 40
0.2509765625
 40
0.251953125
 40
0.25390625
 40
0.255859375
 40
0.2578125
 40
0.26171875
 40
0.265625
 40
0.2734375
 40
0.28125
 40
0.2890625
 40
0.296875
 40
0.30078125
 40
0.3046875
 40
0.306640625
 40
0.30859375
 40
0.310546875
 40
0.3115234375
 40
0.3120117188
 40
0.3125
 40
0.3129882812
 40
0.3134765625
 40
0.314453125
 40
0.31640625
 40
0.318359375
 40
0.3203125
 40
0.32421875
 40
0.328125
 40
0.3359375
 40
0.34375
 40
0.3515625
 40
0.359375
 40
0.36328125
 40
0.3671875
 40
0.369140625
 40
0.37109375
 40
0.373046875
 40
0.3740234375
 40
0.3745117188
 40
0.375
 40
0.3754882812
 40
0.3759765625
 40
0.376953125
 40
0.37890625
 40
0.380859375
 40
0.3828125
 40
0.38671875
 40
0.390625
 40
0.3984375
 40
0.40625
 40
0.4140625
 40
0.421875
 40
0.42578125
 40
0.4296875
 40
0.431640625
 40
0.43359375
 40
0.435546875
 40
0.4365234375
 40
0.4370117188
 40
0.4375
 40
0.4379882812
 40
0.4384765625
 40
0.439453125
 40
0.44140625
 40
0.443359375
 40
0.4453125
 40
0.44921875
 40
0.453125
 40
0.4609375
 40
0.46875
 40
0.4765625
 40
0.484375
 40
0.48828125
 40
0.4921875
 40
0.494140625
 40
0.49609375
 40
0.498046875
 40
0.4990234375
 40
0.4995117188
 40
0.5
 40
0.5004882812
 40
0.5009765625
 40
0.501953125
 40
0.50390625
 40
0.505859375
 40
0.5078125
 40
0.51171875
 40
0.515625
 40
0.5234375
 40
0.53125
 40
0.5390625
 40
0.546875
 40
0.55078125
 40
0.5546875
 40
0.556640625
 40
0.55859375
 40
0.560546875
 40
0.5615234375
 40
0.5620117188
 40
0.5625
 40
0.5629882812
 40
0.5634765625
 40
0.564453125
 40
0.56640625
 40
0.568359375
 40
0.5703125
 40
0.57421875
 40
0.578125
 40
0.5859375
 40
0.59375
 40
0.6015625
 40
0.609375
 40
0.61328125
 40
0.6171875
 40
0.619140625
 40
0.62109375
 40
0.623046875
 40
0.6240234375
 40
0.6245117188
 40
0.625
 40
0.6254882812
 40
0.6259765625
 40
0.626953125
 40
0.62890625
 40
0.630859375
 40
0.6328125
 40
0.63671875
 40
0.640625
 40
0.6484375
 40
0.65625
 40
0.6640625
 40
0.671875
 40
0.67578125
 40
0.6796875
 40
0.681640625
 40
0.68359375
 40
0.685546875
 40
0.6865234375
 40
0.6870117188
 40
0.6875
 40
0.6879882812
 40
0.6884765625
 40
0.689453125
 40
0.69140625
 40
0.693359375
 40
0.6953125
 40
0.69921875
 40
0.703125
 40
0.7109375
 40
0.71875
 40
0.7265625
 40
0.734375
 40
0.73828125
 40
0.7421875
 40
0.744140625
 40
0.74609375
 40
0.748046875
 40
0.7490234375
 40
0.7495117188
 40
0.75
 40
0.7504882812
 40
0.7509765625
 40
0.751953125
 40
0.75390625
 40
0.755859375
 40
0.7578125
 40
0.76171875
 40
0.765625
 40
0.7734375
 40
0.78125
 40
0.7890625
 40
0.796875
 40
0.80078125
 40
0.8046875
 40
0.806640625
 40
0.80859375
 40
0.810546875
 40
0.8115234375
 40
0.8120117188
 40
0.8125
 40
0.8129882812
 40
0.8134765625
 40
0.814453125
 40
0.81640625
 40
0.818359375
 40
0.8203125
 40
0.82421875
 40
0.828125
 40
0.8359375
 40
0.84375
 40
0.8515625
 40
0.859375
 40
0.86328125
 40
0.8671875
 40
0.869140625
 40
0.87109375
 40
0.873046875
 40
0.8740234375
 40
0.8745117188
 40
0.875
 40
0.8754882812
 40
0.8759765625
 40
0.876953125
 40
0.87890625
 40
0.880859375
 40
0.8828125
 40
0.88671875
 40
0.890625
 40
0.8984375
 40
0.90625
 40
0.9140625
 40
0.921875
 40
0.92578125
 40
0.9296875
 40
0.931640625
 40
0.93359375
 40
0.935546875
 40
0.9365234375
 40
0.9370117188
 40
0.9375
 40
0.9379882812
 40
0.9384765625
 40
0.939453125
 40
0.94140625
 40
0.943359375
 40
0.9453125
 40
0.94921875
 40
0.953125
 40
0.9609375
 40
0.96875
 40
0.9765625
 40
0.984375
 40
1.0
 40
1.0
 40
1.0
 40
1.0
 10
11.0892105603
 20
6.7205647397
 30
0.0
 10
11.0918215495
 20
6.7206396767
 30
0.0
 10
11.0957380334
 20
6.720752082
 30
0.0
 10
11.1009600116
 20
6.7209019566
 30
0.0
 10
11.1048764958
 20
6.7210143604
 30
0.0
 10
11.1087929783
 20
6.7211267722
 30
0.0
 10
11.1120567186
 20
6.7212204241
 30
0.0
 10
11.1146677001
 20
6.7212954006
 30
0.0
 10
11.116299588
 20
6.7213421357
 30
0.0
 10
11.1176050423
 20
6.7213798105
 30
0.0
 10
11.1185842863
 20
6.7214072818
 30
0.0
 10
11.1193998354
 20
6.7214326711
 30
0.0
 10
11.1199716767
 20
6.7214455441
 30
0.0
 10
11.1202969489
 20
6.7214605502
 30
0.0
 10
11.1205451123
 20
6.7214502544
 30
0.0
 10
11.1207771858
 20
6.7215223351
 30
0.0
 10
11.1210922294
 20
6.7215897089
 30
0.0
 10
11.1216409407
 20
6.7217210007
 30
0.0
 10
11.1224261813
 20
6.7219015611
 30
0.0
 10
11.1233678847
 20
6.7221212295
 30
0.0
 10
11.1246236937
 20
6.7224130744
 30
0.0
 10
11.126193385
 20
6.7227782387
 30
0.0
 10
11.1287049302
 20
6.7233623013
 30
0.0
 10
11.131844348
 20
6.7240924487
 30
0.0
 10
11.135611656
 20
6.7249685941
 30
0.0
 10
11.1393789594
 20
6.725844755
 30
0.0
 10
11.1425183887
 20
6.7265748637
 30
0.0
 10
11.145029911
 20
6.7271590037
 30
0.0
 10
11.1465996604
 20
6.7275239714
 30
0.0
 10
11.1478553501
 20
6.7278162197
 30
0.0
 10
11.1487974181
 20
6.7280346555
 30
0.0
 10
11.149581518
 20
6.7282190727
 30
0.0
 10
11.1501322655
 20
6.7283434794
 30
0.0
 10
11.1504440468
 20
6.7284218848
 30
0.0
 10
11.150686141
 20
6.7284600801
 30
0.0
 10
11.150896668
 20
6.7285770524
 30
0.0
 10
11.1511883816
 20
6.7287055372
 30
0.0
 10
11.1516937503
 20
6.7289431882
 30
0.0
 10
11.1524183876
 20
6.7292759963
 30
0.0
 10
11.1532868044
 20
6.729678231
 30
0.0
 10
11.1544450944
 20
6.7302135433
 30
0.0
 10
11.1558928197
 20
6.7308830263
 30
0.0
 10
11.1582092568
 20
6.7319540075
 30
0.0
 10
11.1611047767
 20
6.7332928001
 30
0.0
 10
11.1645794129
 20
6.7348993211
 30
0.0
 10
11.1680540421
 20
6.736505857
 30
0.0
 10
11.1709495793
 20
6.7378446123
 30
0.0
 10
11.1732659818
 20
6.7389156683
 30
0.0
 10
11.1747137949
 20
6.7395849611
 30
0.0
 10
11.1758719046
 20
6.7401206638
 30
0.0
 10
11.1767408724
 20
6.7405217057
 30
0.0
 10
11.1774637858
 20
6.7408582458
 30
0.0
 10
11.1779722319
 20
6.7410892345
 30
0.0
 10
11.1782590147
 20
6.741228394
 30
0.0
 10
11.1784846877
 20
6.7413125772
 30
0.0
 10
11.178669896
 20
6.7414739231
 30
0.0
 10
11.178930955
 20
6.7416621357
 30
0.0
 10
11.179381232
 20
6.7420040481
 30
0.0
 10
11.180027923
 20
6.7424859382
 30
0.0
 10
11.1808024806
 20
6.7430670126
 30
0.0
 10
11.181835738
 20
6.7438407982
 30
0.0
 10
11.1831271337
 20
6.7448083659
 30
0.0
 10
11.1851934654
 20
6.7463562866
 30
0.0
 10
11.1877763458
 20
6.7482912521
 30
0.0
 10
11.1908758185
 20
6.7506131817
 30
0.0
 10
11.193975281
 20
6.7529351242
 30
0.0
 10
11.1965581868
 20
6.7548700571
 30
0.0
 10
11.1986244678
 20
6.7564180431
 30
0.0
 10
11.1999159921
 20
6.7573854449
 30
0.0
 10
11.2009489857
 20
6.7581595711
 30
0.0
 10
11.2017243492
 20
6.758739605
 30
0.0
 10
11.2023685187
 20
6.7592247505
 30
0.0
 10
11.2028232969
 20
6.7595608514
 30
0.0
 10
11.2030771439
 20
6.7597583755
 30
0.0
 10
11.2032845052
 20
6.7598911194
 30
0.0
 10
11.2034269752
 20
6.760082727
 30
0.0
 10
11.20363957
 20
6.7603176714
 30
0.0
 10
11.2040010649
 20
6.7607383905
 30
0.0
 10
11.2045229998
 20
6.7613344164
 30
0.0
 10
11.2051469617
 20
6.7620517882
 30
0.0
 10
11.2059797351
 20
6.7630075363
 30
0.0
 10
11.2070204197
 20
6.7642024773
 30
0.0
 10
11.2086856728
 20
6.7661142399
 30
0.0
 10
11.2107671846
 20
6.7685039926
 30
0.0
 10
11.2132650238
 20
6.7713716734
 30
0.0
 10
11.2157628502
 20
6.7742393647
 30
0.0
 10
11.2178443942
 20
6.776629091
 30
0.0
 10
11.2195095831
 20
6.7785409063
 30
0.0
 10
11.2205504308
 20
6.7797357135
 30
0.0
 10
11.2213828694
 20
6.7806917363
 30
0.0
 10
11.2220078542
 20
6.7814082688
 30
0.0
 10
11.2225265886
 20
6.7820069206
 30
0.0
 10
11.2228937969
 20
6.7824229521
 30
0.0
 10
11.2230972374
 20
6.7826654072
 30
0.0
 10
11.2232678263
 20
6.7828339441
 30
0.0
 10
11.2233695778
 20
6.7830533375
 30
0.0
 10
11.2235292577
 20
6.7833281227
 30
0.0
 10
11.2237975102
 20
6.7838172619
 30
0.0
 10
11.224186577
 20
6.7845117111
 30
0.0
 10
11.2246509536
 20
6.7853468997
 30
0.0
 10
11.2252709968
 20
6.7864598384
 30
0.0
 10
11.2260457514
 20
6.7878512331
 30
0.0
 10
11.2272855262
 20
6.7900773408
 30
0.0
 10
11.2288351868
 20
6.7928600182
 30
0.0
 10
11.2306948061
 20
6.7961992119
 30
0.0
 10
11.2325544115
 20
6.799538414
 30
0.0
 10
11.234104107
 20
6.8023210702
 30
0.0
 10
11.2353438121
 20
6.8045472202
 30
0.0
 10
11.2361187439
 20
6.8059385076
 30
0.0
 10
11.2367384233
 20
6.8070516666
 30
0.0
 10
11.2372039115
 20
6.8078861821
 30
0.0
 10
11.2375895005
 20
6.8085827372
 30
0.0
 10
11.2378639613
 20
6.809068117
 30
0.0
 10
11.2380136939
 20
6.8093489257
 30
0.0
 10
11.2381460004
 20
6.8095498167
 30
0.0
 10
11.2382018297
 20
6.8097878457
 30
0.0
 10
11.2383029449
 20
6.8100922636
 30
0.0
 10
11.2384674675
 20
6.8106310304
 30
0.0
 10
11.2387089979
 20
6.8113975419
 30
0.0
 10
11.2389960529
 20
6.8123187063
 30
0.0
 10
11.2393797645
 20
6.8135464537
 30
0.0
 10
11.2398590713
 20
6.8150812995
 30
0.0
 10
11.2406261481
 20
6.8175369625
 30
0.0
 10
11.2415849299
 20
6.8206065724
 30
0.0
 10
11.2427354975
 20
6.8242900903
 30
0.0
 10
11.2438860501
 20
6.8279736145
 30
0.0
 10
11.2448448697
 20
6.8310432084
 30
0.0
 10
11.2456118709
 20
6.8334989034
 30
0.0
 10
11.24609137
 20
6.8350336679
 30
0.0
 10
11.2464746868
 20
6.8362615824
 30
0.0
 10
11.2467629479
 20
6.8371822363
 30
0.0
 10
11.2470007048
 20
6.8379503449
 30
0.0
 10
11.2471719636
 20
6.8384862606
 30
0.0
 10
11.2472622858
 20
6.8387952467
 30
0.0
 10
11.2473512677
 20
6.8390192437
 30
0.0
 10
11.2473590587
 20
6.8392728365
 30
0.0
 10
11.247397767
 20
6.8396006369
 30
0.0
 10
11.2474523117
 20
6.8401790974
 30
0.0
 10
11.2475371311
 20
6.8410029549
 30
0.0
 10
11.2476359616
 20
6.8419926603
 30
0.0
 10
11.2477687669
 20
6.8433118915
 30
0.0
 10
11.2479344204
 20
6.8449610593
 30
0.0
 10
11.2481996635
 20
6.8475996557
 30
0.0
 10
11.2485311492
 20
6.850897926
 30
0.0
 10
11.2489289632
 20
6.8548558398
 30
0.0
 10
11.2493267614
 20
6.8588137562
 30
0.0
 10
11.2496582867
 20
6.8621120198
 30
0.0
 10
11.2499234504
 20
6.8647506297
 30
0.0
 10
11.2500893058
 20
6.8663997633
 30
0.0
 10
11.2502216967
 20
6.8677190646
 30
0.0
 10
11.2503217933
 20
6.8687085558
 30
0.0
 10
11.2504026515
 20
6.8695330835
 30
0.0
 10
11.2504642676
 20
6.8701103477
 30
0.0
 10
11.2504916457
 20
6.8704400648
 30
0.0
 10
11.2505342396
 20
6.8706877702
 30
0.0
 10
11.2504925076
 20
6.8709338792
 30
0.0
 10
11.2504662788
 20
6.8712625815
 30
0.0
 10
11.250406674
 20
6.8718375509
 30
0.0
 10
11.2503286891
 20
6.8726590715
 30
0.0
 10
11.2502320404
 20
6.8736448381
 30
0.0
 10
11.2501042467
 20
6.8749592138
 30
0.0
 10
11.2499441378
 20
6.8766021766
 30
0.0
 10
11.2496881685
 20
6.8792309209
 30
0.0
 10
11.2493681361
 20
6.8825168499
 30
0.0
 10
11.2489841296
 20
6.8864599655
 30
0.0
 10
11.2486001071
 20
6.89040308
 30
0.0
 10
11.2482801144
 20
6.8936890119
 30
0.0
 10
11.2480240657
 20
6.8963177504
 30
0.0
 10
11.2478641588
 20
6.8979607279
 30
0.0
 10
11.2477359504
 20
6.8992750734
 30
0.0
 10
11.2476405684
 20
6.9002609322
 30
0.0
 10
11.2475586206
 20
6.9010821644
 30
0.0
 10
11.2475060902
 20
6.9016576487
 30
0.0
 10
11.2474685264
 20
6.901985526
 30
0.0
 10
11.247461612
 20
6.9022341689
 30
0.0
 10
11.2473734369
 20
6.9024723573
 30
0.0
 10
11.2472842148
 20
6.9027935885
 30
0.0
 10
11.2471148697
 20
6.903354044
 30
0.0
 10
11.2468798527
 20
6.904155583
 30
0.0
 10
11.2465948769
 20
6.9051170496
 30
0.0
 10
11.2462159414
 20
6.9063991379
 30
0.0
 10
11.2457419187
 20
6.9080017027
 30
0.0
 10
11.2449836798
 20
6.9105658319
 30
0.0
 10
11.244035813
 20
6.9137709846
 30
0.0
 10
11.2428984039
 20
6.9176171722
 30
0.0
 10
11.2417609797
 20
6.9214633562
 30
0.0
 10
11.2408131508
 20
6.9246685177
 30
0.0
 10
11.2400548362
 20
6.9272326293
 30
0.0
 10
11.2395810059
 20
6.9288352389
 30
0.0
 10
11.2392016752
 20
6.9301172352
 30
0.0
 10
11.2389179069
 20
6.9310789826
 30
0.0
 10
11.2386791121
 20
6.9318796431
 30
0.0
 10
11.2385165109
 20
6.932441667
 30
0.0
 10
11.2384164835
 20
6.9327603852
 30
0.0
 10
11.2383614989
 20
6.9330062926
 30
0.0
 10
11.2382299265
 20
6.9332259442
 30
0.0
 10
11.2380812113
 20
6.9335279712
 30
0.0
 10
11.2378085128
 20
6.9340522516
 30
0.0
 10
11.2374254509
 20
6.9348034544
 30
0.0
 10
11.2369629913
 20
6.9357039428
 30
0.0
 10
11.2363473514
 20
6.9369049276
 30
0.0
 10
11.2355774683
 20
6.9384060444
 30
0.0
 10
11.2343458416
 20
6.9408078952
 30
0.0
 10
11.232806244
 20
6.9438101865
 30
0.0
 10
11.2309587562
 20
6.9474129464
 30
0.0
 10
11.2291112539
 20
6.9510157004
 30
0.0
 10
11.2275716925
 20
6.9540180065
 30
0.0
 10
11.2263399934
 20
6.9564198277
 30
0.0
 10
11.2255702944
 20
6.9579210196
 30
0.0
 10
11.2249542766
 20
6.9591218502
 30
0.0
 10
11.2244929715
 20
6.9600228096
 30
0.0
 10
11.2241062972
 20
6.960772539
 30
0.0
 10
11.2238400476
 20
6.9612994496
 30
0.0
 10
11.2236809997
 20
6.9615972624
 30
0.0
 10
11.223581166
 20
6.9618298588
 30
0.0
 10
11.2234069759
 20
6.9620271473
 30
0.0
 10
11.2232006588
 20
6.9623025144
 30
0.0
 10
11.2228275195
 20
6.9627786687
 30
0.0
 10
11.2223007813
 20
6.9634618891
 30
0.0
 10
11.2216659912
 20
6.9642804695
 30
0.0
 10
11.2208205489
 20
6.9653723586
 30
0.0
 10
11.2197634226
 20
6.9667370663
 30
0.0
 10
11.2180722013
 20
6.9689206845
 30
0.0
 10
11.2159581124
 20
6.9716501775
 30
0.0
 10
11.2134212337
 20
6.9749255833
 30
0.0
 10
11.2108843427
 20
6.9782009799
 30
0.0
 10
11.2087702846
 20
6.980930496
 30
0.0
 10
11.2070790016
 20
6.983114068
 30
0.0
 10
11.2060220323
 20
6.9844788933
 30
0.0
 10
11.2051762677
 20
6.9855705409
 30
0.0
 10
11.2045424622
 20
6.9863898589
 30
0.0
 10
11.2040126434
 20
6.9870707715
 30
0.0
 10
11.2036450035
 20
6.9875510456
 30
0.0
 10
11.203429875
 20
6.9878198118
 30
0.0
 10
11.2032827506
 20
6.9880373763
 30
0.0
 10
11.2030812627
 20
6.9881938195
 30
0.0
 10
11.2028315748
 20
6.9884237302
 30
0.0
 10
11.2023857859
 20
6.9888161407
 30
0.0
 10
11.2017535637
 20
6.9893819203
 30
0.0
 10
11.20099292
 20
6.990058633
 30
0.0
 10
11.1999794189
 20
6.990961693
 30
0.0
 10
11.1987123061
 20
6.9920902521
 30
0.0
 10
11.1966850578
 20
6.9938960953
 30
0.0
 10
11.1941509518
 20
6.996153348
 30
0.0
 10
11.1911100453
 20
6.9988620749
 30
0.0
 10
11.1880691292
 20
7.0015707895
 30
0.0
 10
11.1855350473
 20
7.0038280726
 30
0.0
 10
11.1835077508
 20
7.005633855
 30
0.0
 10
11.1822407605
 20
7.0067625688
 30
0.0
 10
11.1812270079
 20
7.0076653114
 30
0.0
 10
11.1804671325
 20
7.0083429937
 30
0.0
 10
11.1798325064
 20
7.0089057396
 30
0.0
 10
11.179391009
 20
7.0093035658
 30
0.0
 10
11.1791344451
 20
7.0095247992
 30
0.0
 10
11.1789540779
 20
7.0097078965
 30
0.0
 10
11.178727628
 20
7.0098253524
 30
0.0
 10
11.1784417689
 20
7.0100048567
 30
0.0
 10
11.1779340264
 20
7.0103083212
 30
0.0
 10
11.1772125953
 20
7.0107474194
 30
0.0
 10
11.1763452021
 20
7.0112719499
 30
0.0
 10
11.1751892632
 20
7.0119721578
 30
0.0
 10
11.1737441392
 20
7.0128471321
 30
0.0
 10
11.1714320527
 20
7.0142472506
 30
0.0
 10
11.168541906
 20
7.0159973436
 30
0.0
 10
11.1650737473
 20
7.0180974805
 30
0.0
 10
11.1616055811
 20
7.0201976041
 30
0.0
 10
11.1587154531
 20
7.0219477306
 30
0.0
 10
11.1564033293
 20
7.023347782
 30
0.0
 10
11.1549583003
 20
7.024222927
 30
0.0
 10
11.1538021663
 20
7.0249227845
 30
0.0
 10
11.1529353691
 20
7.0254483853
 30
0.0
 10
11.1522120733
 20
7.025884135
 30
0.0
 10
11.1517076596
 20
7.0261935771
 30
0.0
 10
11.1514164668
 20
7.0263635039
 30
0.0
 10
11.1512064004
 20
7.0265103786
 30
0.0
 10
11.1509644996
 20
7.0265829838
 30
0.0
 10
11.1506530694
 20
7.0267056967
 30
0.0
 10
11.1501028929
 20
7.0269083742
 30
0.0
 10
11.1493196312
 20
7.0272042239
 30
0.0
 10
11.1483785595
 20
7.0275565425
 30
0.0
 10
11.1471242016
 20
7.0280272441
 30
0.0
 10
11.1455561157
 20
7.028615298
 30
0.0
 10
11.1430472557
 20
7.0295563649
 30
0.0
 10
11.1399111541
 20
7.0307326361
 30
0.0
 10
11.1361478441
 20
7.0321441902
 30
0.0
 10
11.1323845288
 20
7.0335557295
 30
0.0
 10
11.1292484405
 20
7.0347320376
 30
0.0
 10
11.1267395538
 20
7.0356730306
 30
0.0
 10
11.125171536
 20
7.0362612722
 30
0.0
 10
11.1239170384
 20
7.0367315887
 30
0.0
 10
11.1229763935
 20
7.0370850837
 30
0.0
 10
11.1221917964
 20
7.0373772526
 30
0.0
 10
11.1216440038
 20
7.037586501
 30
0.0
 10
11.1213287539
 20
7.0376986858
 30
0.0
 10
11.121098586
 20
7.0378036299
 30
0.0
 10
11.1208444527
 20
7.0378290451
 30
0.0
 10
11.1205139678
 20
7.0378906727
 30
0.0
 10
11.1199317243
 20
7.037985596
 30
0.0
 10
11.1191019842
 20
7.0381279581
 30
0.0
 10
11.1181054244
 20
7.0382959002
 30
0.0
 10
11.1167769826
 20
7.0385208333
 30
0.0
 10
11.1151163259
 20
7.0388016538
 30
0.0
 10
11.1124593336
 20
7.0392511599
 30
0.0
 10
11.1091380733
 20
7.0398129761
 30
0.0
 10
11.1051525694
 20
7.0404871841
 30
0.0
 10
11.1011670632
 20
7.0411613844
 30
0.0
 10
11.0958530558
 20
7.0420603209
 30
0.0
 10
11.09186755
 20
7.0427345226
 30
0.0
 10
11.0892105462
 20
7.0431839906
 30
0.0
  0
ENDSEC
  0
SECTION
  2
OBJECTS
  0
DICTIONARY
  5
C
100
AcDbDictionary
280
0
281
1
  3
ACAD_GROUP
350
D
  3
ACAD_MLINESTYLE
350
17
  3
ACAD_LAYOUT
350
1A
  3
ACAD_PLOTSETTINGS
350
19
  3
ACAD_PLOTSTYLENAME
350
E
  3
ACAD_IMAGE_DICT
350
       39F
  3
ACAD_IMAGE_VARS
350
       3A0
  3
ACAD_TABLESTYLE
350
       3A1
  0
IMAGEDEF_REACTOR
  5
39E
100
AcDbRasterImageDefReactor
 90
2
330
287
  0
DICTIONARY
  5
D
102
{ACAD_REACTORS
330
C
102
}
100
AcDbDictionary
280
0
281
1
  0
ACDBDICTIONARYWDFLT
  5
E
102
{ACAD_REACTORS
330
C
102
}
100
AcDbDictionary
281
1
  3
Normal
350
F
100
AcDbDictionaryWithDefault
340
F
  0
DICTIONARY
  5
39F
330
C
100
AcDbDictionary
281
1
  3
FSK_assy_2_img_1
350
       3A4
  0
RASTERVARIABLES
  5
3A0
330
C
100
AcDbRasterVariables
 90
0
 70
0
 71
1
 72
5
  0
DICTIONARY
  5
17
102
{ACAD_REACTORS
330
C
102
}
100
AcDbDictionary
280
0
281
1
  3
Standard
350
18
  0
DICTIONARY
  5
3A1
330
C
100
AcDbDictionary
281
1
  3
Standard
350
       3A5
  3
Standard1
350
       3A6
  0
DICTIONARY
  5
19
102
{ACAD_REACTORS
330
C
102
}
100
AcDbDictionary
281
1
  0
DICTIONARY
  5
1A
102
{ACAD_REACTORS
330
C
102
}
100
AcDbDictionary
281
1
  3
Model
350
3A2
  3
Layout1
350
3A3
  0
ACDBPLACEHOLDER
  5
F
102
{ACAD_REACTORS
330
E
102
}
  0
MLINESTYLE
  5
18
102
{ACAD_REACTORS
330
17
102
}
100
AcDbMlineStyle
  2
STANDARD
 70
0
  3

 62
256
 51
90.0
 52
90.0
 71
2
 49
0.5
 62
256
  6
BYLAYER
 49
-0.5
 62
256
  6
BYLAYER
  0
LAYOUT
  5
3A2
102
{ACAD_REACTORS
330
1A
102
}
100
AcDbPlotSettings
  1

  2
none_device
  4
ANSI_C_(22.00_x_17.00_Inches)
  6

 40
0.0
 41
0.0
 42
0.0
 43
0.0
 44
558.8
 45
431.8
 46
0.0
 47
0.0
 48
0.0
 49
0.0
140
0.0
141
0.0
142
1.0
143
1.0
 70
1024
 72
0
 73
0
 74
0
  7

 75
0
147
1.0
148
0.0
149
0.0
100
AcDbLayout
  1
Model
 70
0
 71
0
 10
0.0
 20
0.0
 11
22.0
 21
17.0
 12
0.0
 22
0.0
 32
0.0
 14
0.0
 24
0.0
 34
0.0
 15
0.0
 25
0.0
 35
0.0
146
0.0
 13
0.0
 23
0.0
 33
0.0
 16
1.0
 26
0.0
 36
0.0
 17
0.0
 27
1.0
 37
0.0
 76
0
330
20C
345
0
346
0
  0
LAYOUT
  5
3A3
102
{ACAD_REACTORS
330
1A
102
}
100
AcDbPlotSettings
  1

  2
none_device
  4
ANSI_C_(22.00_x_17.00_Inches)
  6

 40
0.0
 41
0.0
 42
0.0
 43
0.0
 44
558.8
 45
431.8
 46
0.0
 47
0.0
 48
0.0
 49
0.0
140
0.0
141
0.0
142
1.0
143
1.0
 70
0
 72
0
 73
0
 74
0
  7

 75
0
147
1.0
148
0.0
149
0.0
100
AcDbLayout
  1
Layout1
 70
0
 71
1
 10
0.0
 20
0.0
 11
22.0
 21
17.0
 12
0.0
 22
0.0
 32
0.0
 14
0.0
 24
0.0
 34
0.0
 15
0.0
 25
0.0
 35
0.0
146
0.0
 13
0.0
 23
0.0
 33
0.0
 16
1.0
 26
0.0
 36
0.0
 17
0.0
 27
1.0
 37
0.0
 76
0
330
20D
345
0
346
0
  0
IMAGEDEF
  5
3A4
102
{ACAD_REACTORS
330
39F
330
39E
102
}
100
AcDbRasterImageDef
 90
0
  1
FSK_assy_2_img_1.png
 10
369.0
 20
92.0
 11
0.0066666667
 21
0.0066666667
280
1
281
0
  0
TABLESTYLE
  5
3A5
102
{ACAD_REACTORS
330
3A1
330
28A
330
28B
102
}
330
3A1
100
AcDbTableStyle
  3
Standard
 70
0
 71
0
 40
0.06
 41
0.06
280
1
281
1
  7
Standard
140
0.18
170
1
 62
0
 63
7
283
0
  7
Standard
140
0.18
170
1
 62
0
 63
7
283
0
  7
Standard
140
0.18
170
1
 62
0
 63
7
283
0
  0
TABLESTYLE
  5
3A6
102
{ACAD_REACTORS
330
3A1
330
289
102
}
330
3A1
100
AcDbTableStyle
  3
Standard1
 70
1
 71
0
 40
0.06
 41
0.06
280
1
281
1
  7
Standard
140
0.18
170
1
 62
0
 63
7
283
0
  7
Standard
140
0.18
170
1
 62
0
 63
7
283
0
  7
Standard
140
0.18
170
1
 62
0
 63
7
283
0
  0
ENDSEC
  0
EOF
