999
DXF file: FSD_assy_2.dxf
999
Pro/ENGINEER 2014200 by Parametric Technology Corporation
  0
SECTION
  2
HEADER
  9
$ACADVER
  1
AC1021
  9
$DWGCODEPAGE
  3
ANSI_1252
  9
$EXTMAX
 10
22.0
 20
17.0
 30
0.0
  9
$EXTMIN
 10
0.0
 20
0.0
 30
0.0
  9
$LIMMIN
 10
0.0
 20
0.0
  9
$LIMMAX
 10
22.0
 20
17.0
  9
$VIEWCTR
 10
11.0
 20
8.5
  9
$VIEWSIZE
 40
17.0
  9
$CLAYER
  8
0
  9
$LTSCALE
 40
1.21
  9
$CELTYPE
  6
BYLAYER
  9
$DIMSCALE
 40
1.0
  9
$DIMASZ
 40
0.1875
  9
$DIMEXO
 40
0.0625
  9
$DIMDLI
 40
0.836
  9
$DIMEXE
 40
0.125
  9
$DIMCEN
 40
0.198
  9
$DIMLFAC
 40
1.0
  9
$DIMBLK
  1
_FILLED
  9
$DIMTXT
 40
0.1
  9
$DIMTOL
 70
0
  9
$DIMLIM
 70
0
  9
$DIMTFAC
 40
1.0
  9
$DIMGAP
 40
0.09
  9
$DIMDSEP
 70
46
  9
$AUNITS
 70
0
  9
$PDMODE
 70
3
  9
$PDSIZE
 40
0.3125
  9
$HANDSEED
  5
39C
  9
$TILEMODE
 70
1
  9
$MEASUREMENT
 70
0
  9
$INSUNITS
 70
1
  0
ENDSEC
  0
SECTION
  2
CLASSES
  0
CLASS
  1
ACDBDICTIONARYWDFLT
  2
AcDbDictionaryWithDefault
  3
AutoCAD 2000
 90
0
 91
1
280
0
281
0
  0
CLASS
  1
ACDBPLACEHOLDER
  2
AcDbPlaceHolder
  3
AutoCAD 2000
 90
0
 91
1
280
0
281
0
  0
CLASS
  1
LAYOUT
  2
AcDbLayout
  3
AutoCAD 2000
 90
0
 91
0
280
0
281
0
  0
CLASS
  1
RASTERVARIABLES
  2
AcDbRasterVariables
  3
ISM
 90
0
 91
1
280
0
281
0
  0
CLASS
  1
IMAGEDEF
  2
AcDbRasterImageDef
  3
ISM
 90
0
 91
1
280
0
281
0
  0
CLASS
  1
IMAGEDEF_REACTOR
  2
AcDbRasterImageDefReactor
  3
ISM
 90
0
 91
1
280
0
281
0
  0
CLASS
  1
IMAGE
  2
AcDbRasterImage
  3
ISM
 90
127
 91
1
280
0
281
1
  0
CLASS
  1
TABLESTYLE
  2
AcDbTableStyle
  3
ObjectDBX Classes
 90
2047
 91
1
280
0
281
0
  0
CLASS
  1
ACAD_TABLE
  2
AcDbTable
  3
ObjectDBX Classes
 90
1025
 91
3
280
0
281
1
  0
ENDSEC
  0
SECTION
  2
TABLES
  0
TABLE
  2
VPORT
  5
8
100
AcDbSymbolTable
 70
2
  0
VPORT
  5
1F4
100
AcDbSymbolTableRecord
100
AcDbViewportTableRecord
  2
*ACTIVE
 70
0
 10
0.0
 20
0.0
 11
1.0
 21
1.0
 12
11.0
 22
8.5
 13
0.0
 23
0.0
 14
1.0
 24
1.0
 15
0.0
 25
0.0
 16
0.0
 26
0.0
 36
1.0
 17
0.0
 27
0.0
 37
0.0
 40
17.0
 41
1.2941176471
 42
50.0
 43
0.0
 44
0.0
 50
0.0
 51
0.0
 71
0
 72
100
 73
1
 74
1
 75
0
 76
0
 77
0
 78
0
  0
ENDTAB
  0
TABLE
  2
LTYPE
  5
5
100
AcDbSymbolTable
 70
6
  0
LTYPE
  5
14
100
AcDbSymbolTableRecord
100
AcDbLinetypeTableRecord
  2
BYBLOCK
 70
0
  3

 72
65
 73
0
 40
0.0
  0
LTYPE
  5
15
100
AcDbSymbolTableRecord
100
AcDbLinetypeTableRecord
  2
BYLAYER
 70
0
  3

 72
65
 73
0
 40
0.0
  0
LTYPE
  5
16
100
AcDbSymbolTableRecord
100
AcDbLinetypeTableRecord
  2
CONTINUOUS
 70
64
  3
Solid line
 72
65
 73
0
 40
0.0
  0
LTYPE
  5
1F5
100
AcDbSymbolTableRecord
100
AcDbLinetypeTableRecord
  2
CENTER
 70
64
  3
____ _ ____ _ ____ _ ____ _ ____ _ ____ _ ____
 72
65
 73
4
 40
0.6
 49
0.375
 74
0
 49
-0.075
 74
0
 49
0.075
 74
0
 49
-0.075
 74
0
  0
LTYPE
  5
1F6
100
AcDbSymbolTableRecord
100
AcDbLinetypeTableRecord
  2
HIDDEN
 70
64
  3
- - - - - - - - - - - - - - - - - - - -
 72
65
 73
2
 40
0.2
 49
0.1
 74
0
 49
-0.1
 74
0
  0
LTYPE
  5
1F7
100
AcDbSymbolTableRecord
100
AcDbLinetypeTableRecord
  2
PHANTOM
 70
64
  3
_____ _ _ _____ _ _ _____ _ _ _____
 72
65
 73
6
 40
0.8
 49
0.45
 74
0
 49
-0.05
 74
0
 49
0.1
 74
0
 49
-0.05
 74
0
 49
0.1
 74
0
 49
-0.05
 74
0
  0
LTYPE
  5
1F8
100
AcDbSymbolTableRecord
100
AcDbLinetypeTableRecord
  2
DOT
 70
64
  3
. . . . . . . . . . . . . . . . . . . .
 72
65
 73
2
 40
0.2
 49
0.1
 74
0
 49
-0.1
 74
0
  0
LTYPE
  5
1F9
100
AcDbSymbolTableRecord
100
AcDbLinetypeTableRecord
  2
DASHED
 70
64
  3
- - - - - - - - - - - - - - - - - - - -
 72
65
 73
2
 40
0.2
 49
0.1
 74
0
 49
-0.1
 74
0
  0
ENDTAB
  0
TABLE
  2
LAYER
  5
2
100
AcDbSymbolTable
 70
36
  0
LAYER
  5
10
100
AcDbSymbolTableRecord
100
AcDbLayerTableRecord
  2
0
 70
0
 62
7
  6
CONTINUOUS
370
-3
390
F
  0
LAYER
  5
1FA
100
AcDbSymbolTableRecord
100
AcDbLayerTableRecord
  2
DEFAULT_1
 70
0
 62
7
  6
CENTER
370
-3
390
F
  0
LAYER
  5
1FB
100
AcDbSymbolTableRecord
100
AcDbLayerTableRecord
  2
DEFAULT_2
 70
0
 62
8
  6
HIDDEN
370
-3
390
F
  0
LAYER
  5
1FC
100
AcDbSymbolTableRecord
100
AcDbLayerTableRecord
  2
DEFAULT_3
 70
0
 62
7
  6
PHANTOM
370
-3
390
F
  0
LAYER
  5
1FD
100
AcDbSymbolTableRecord
100
AcDbLayerTableRecord
  2
01___PRT_ALL_DTM_PLN
 70
0
 62
7
  6
CONTINUOUS
370
-3
390
F
  0
LAYER
  5
1FE
100
AcDbSymbolTableRecord
100
AcDbLayerTableRecord
  2
01___PRT_DEF_DTM_PLN
 70
0
 62
7
  6
CONTINUOUS
370
-3
390
F
  0
LAYER
  5
1FF
100
AcDbSymbolTableRecord
100
AcDbLayerTableRecord
  2
02___PRT_ALL_AXES
 70
0
 62
7
  6
CONTINUOUS
370
-3
390
F
  0
LAYER
  5
200
100
AcDbSymbolTableRecord
100
AcDbLayerTableRecord
  2
03___PRT_ALL_CURVES
 70
0
 62
7
  6
CONTINUOUS
370
-3
390
F
  0
LAYER
  5
201
100
AcDbSymbolTableRecord
100
AcDbLayerTableRecord
  2
04___PRT_ALL_DTM_PNT
 70
0
 62
7
  6
CONTINUOUS
370
-3
390
F
  0
LAYER
  5
202
100
AcDbSymbolTableRecord
100
AcDbLayerTableRecord
  2
05___PRT_ALL_DTM_CSYS
 70
0
 62
7
  6
CONTINUOUS
370
-3
390
F
  0
LAYER
  5
203
100
AcDbSymbolTableRecord
100
AcDbLayerTableRecord
  2
05___PRT_DEF_DTM_CSYS
 70
0
 62
7
  6
CONTINUOUS
370
-3
390
F
  0
LAYER
  5
204
100
AcDbSymbolTableRecord
100
AcDbLayerTableRecord
  2
06___PRT_ALL_SURFS
 70
0
 62
7
  6
CONTINUOUS
370
-3
390
F
  0
LAYER
  5
205
100
AcDbSymbolTableRecord
100
AcDbLayerTableRecord
  2
DATUM_PLANES
 70
0
 62
7
  6
CONTINUOUS
370
-3
390
F
  0
LAYER
  5
206
100
AcDbSymbolTableRecord
100
AcDbLayerTableRecord
  2
PORT_AREAS
 70
0
 62
7
  6
CONTINUOUS
370
-3
390
F
  0
LAYER
  5
207
100
AcDbSymbolTableRecord
100
AcDbLayerTableRecord
  2
SUNNBOMCOSMETIC
 70
0
 62
7
  6
CONTINUOUS
370
-3
390
F
  0
LAYER
  5
208
100
AcDbSymbolTableRecord
100
AcDbLayerTableRecord
  2
SUNNBOMSTAMPING
 70
0
 62
7
  6
CONTINUOUS
370
-3
390
F
  0
LAYER
  5
209
100
AcDbSymbolTableRecord
100
AcDbLayerTableRecord
  2
THREADS
 70
0
 62
7
  6
CONTINUOUS
370
-3
390
F
  0
ENDTAB
  0
TABLE
  2
STYLE
  5
3
100
AcDbSymbolTable
 70
1
  0
STYLE
  5
11
100
AcDbSymbolTableRecord
100
AcDbTextStyleTableRecord
  2
STANDARD
 70
0
 40
0.0
 41
0.8
 50
0.0
 71
0
 42
0.2
  3
txt
  4

  0
STYLE
  5
20A
100
AcDbSymbolTableRecord
100
AcDbTextStyleTableRecord
  2
TEXTSTYLE_1
 70
0
 40
0.0
 41
0.8
 50
0.0
 71
0
 42
0.2
  3
gdt
  4

  0
ENDTAB
  0
TABLE
  2
VIEW
  5
6
100
AcDbSymbolTable
 70
0
  0
ENDTAB
  0
TABLE
  2
UCS
  5
7
100
AcDbSymbolTable
 70
0
  0
ENDTAB
  0
TABLE
  2
APPID
  5
9
100
AcDbSymbolTable
 70
1
  0
APPID
  5
20B
100
AcDbSymbolTableRecord
100
AcDbRegAppTableRecord
  2
ACAD
 70
0
  0
ENDTAB
  0
TABLE
  2
BLOCK_RECORD
  5
1
100
AcDbSymbolTable
 70
0
  0
BLOCK_RECORD
  5
20C
100
AcDbSymbolTableRecord
100
AcDbBlockTableRecord
  2
*Model_Space
  0
BLOCK_RECORD
  5
20D
100
AcDbSymbolTableRecord
100
AcDbBlockTableRecord
  2
*Paper_Space
  0
BLOCK_RECORD
  5
20E
100
AcDbSymbolTableRecord
100
AcDbBlockTableRecord
  2
SUN_FIRST_THIRD_ANGLE_BL0
  0
BLOCK_RECORD
  5
20F
100
AcDbSymbolTableRecord
100
AcDbBlockTableRecord
  2
*T1
  0
BLOCK_RECORD
  5
210
100
AcDbSymbolTableRecord
100
AcDbBlockTableRecord
  2
*T2
  0
BLOCK_RECORD
  5
211
100
AcDbSymbolTableRecord
100
AcDbBlockTableRecord
  2
*T3
  0
ENDTAB
  0
TABLE
  2
DIMSTYLE
  5
A
100
AcDbSymbolTable
 70
1
100
AcDbDimStyleTable
 71
0
  0
DIMSTYLE
105
212
100
AcDbSymbolTableRecord
100
AcDbDimStyleTableRecord
  2
STANDARD
 70
0
  3

  4

 40
1.0
 41
0.1875
 42
0.0625
 43
0.38
 44
0.125
 45
0.0
 46
0.0
 47
0.001
 48
0.001
140
0.1
141
0.09
142
0.0
143
25.4
144
1.0
145
0.0
146
1.0
147
0.09
 71
0.0
 72
0.0
 73
1
 74
1
 75
0
 76
0
 77
0
 78
4
170
0
171
2
172
0
173
0
174
0
175
0
176
0
177
0
178
0
270
2
271
3
272
3
273
2
274
2
275
0
280
0
281
0
282
0
283
1
284
4
285
0
286
0
287
3
288
0
340
11
278
46
  0
ENDTAB
  0
ENDSEC
  0
SECTION
  2
BLOCKS
  0
BLOCK
  5
20
100
AcDbEntity
  8
0
100
AcDbBlockBegin
  2
*Model_Space
 70
0
 10
0.0
 20
0.0
 30
0.0
  3
*Model_Space
  1

  0
ENDBLK
  5
21
100
AcDbEntity
  8
0
100
AcDbBlockEnd
  0
BLOCK
  5
1C
100
AcDbEntity
  8
0
100
AcDbBlockBegin
  2
*Paper_Space
 70
0
 10
0.0
 20
0.0
 30
0.0
  3
*Paper_Space
  1

  0
ENDBLK
  5
1D
100
AcDbEntity
  8
0
100
AcDbBlockEnd
  0
BLOCK
  5
213
100
AcDbEntity
  8
0
100
AcDbBlockBegin
 62
2
  6
CONTINUOUS
  2
SUN_FIRST_THIRD_ANGLE_BL0
 70
64
 10
20.4816717061
 20
1.2289683772
  3
SUN_FIRST_THIRD_ANGLE_BL0
  1

  0
TEXT
  5
214
100
AcDbEntity
  8
0
100
AcDbText
 62
2
  6
CONTINUOUS
 10
19.4750896608
 20
1.4136269581
  7
STANDARD
 40
0.08
  1
FIRST ANGLE
 41
0.8
 72
0
100
AcDbText
  0
TEXT
  5
215
100
AcDbEntity
  8
0
100
AcDbText
 62
2
  6
CONTINUOUS
 10
20.7842537513
 20
1.4047600029
  7
STANDARD
 40
0.08
  1
THIRD ANGLE
 41
0.8
 72
0
100
AcDbText
  0
LINE
  5
216
100
AcDbEntity
  8
0
100
AcDbLine
 62
7
  6
CONTINUOUS
 10
19.4767170086
 20
1.1727031207
 11
19.6334271527
 21
1.1717972817
  0
LINE
  5
217
100
AcDbEntity
  8
0
100
AcDbLine
 62
7
  6
CONTINUOUS
 10
19.6596964832
 20
1.1717972817
 11
19.6950230232
 21
1.171593082
  0
LINE
  5
218
100
AcDbEntity
  8
0
100
AcDbLine
 62
7
  6
CONTINUOUS
 10
19.7194818561
 20
1.1708914427
 11
19.8852396156
 21
1.1699333054
  0
LINE
  5
219
100
AcDbEntity
  8
0
100
AcDbLine
 62
7
  6
CONTINUOUS
 10
19.4758111696
 20
1.2723454088
 11
19.88525039
 21
1.3511534004
  0
LINE
  5
21A
100
AcDbEntity
  8
0
100
AcDbLine
 62
7
  6
CONTINUOUS
 10
19.88525039
 20
1.3511534004
 11
19.8831348489
 21
0.9851647912
  0
LINE
  5
21B
100
AcDbEntity
  8
0
100
AcDbLine
 62
7
  6
CONTINUOUS
 10
19.8831348489
 20
0.9851647912
 11
19.4767170086
 21
1.0658141206
  0
LINE
  5
21C
100
AcDbEntity
  8
0
100
AcDbLine
 62
7
  6
CONTINUOUS
 10
19.4767170086
 20
1.0658141206
 11
19.4779056764
 21
1.2714536432
  0
CIRCLE
  5
21D
100
AcDbEntity
  8
0
100
AcDbCircle
 62
7
  6
CONTINUOUS
 10
20.2068232291
 20
1.1717972817
 40
0.175742101
  0
CIRCLE
  5
21E
100
AcDbEntity
  8
0
100
AcDbCircle
 62
7
  6
CONTINUOUS
 10
20.2068232291
 20
1.1717972817
 40
0.1005522074
  0
LINE
  5
21F
100
AcDbEntity
  8
0
100
AcDbLine
 62
7
  6
CONTINUOUS
 10
20.2077290681
 20
1.3756110529
 11
20.2071171714
 21
1.2379342989
  0
LINE
  5
220
100
AcDbEntity
  8
0
100
AcDbLine
 62
7
  6
CONTINUOUS
 10
20.2077290681
 20
1.2016899681
 11
20.2074674401
 21
1.1428236749
  0
LINE
  5
221
100
AcDbEntity
  8
0
100
AcDbLine
 62
7
  6
CONTINUOUS
 10
20.208634907
 20
1.101141841
 11
20.2080230104
 21
0.963465087
  0
LINE
  5
222
100
AcDbEntity
  8
0
100
AcDbLine
 62
7
  6
CONTINUOUS
 10
20.0066328138
 20
1.1745147986
 11
20.1443095678
 21
1.1739029019
  0
LINE
  5
223
100
AcDbEntity
  8
0
100
AcDbLine
 62
7
  6
CONTINUOUS
 10
20.1832714155
 20
1.1727031207
 11
20.238153505
 21
1.172335442
  0
LINE
  5
224
100
AcDbEntity
  8
0
100
AcDbLine
 62
7
  6
CONTINUOUS
 10
20.2756669918
 20
1.1717972817
 11
20.407916871
 21
1.1712095044
  0
CIRCLE
  5
225
100
AcDbEntity
  8
0
100
AcDbCircle
 62
7
  6
CONTINUOUS
 10
20.7509457401
 20
1.1693297793
 40
0.1722024983
  0
CIRCLE
  5
226
100
AcDbEntity
  8
0
100
AcDbCircle
 62
7
  6
CONTINUOUS
 10
20.7509457401
 20
1.1693297793
 40
0.0985164967
  0
LINE
  5
227
100
AcDbEntity
  8
0
100
AcDbLine
 62
7
  6
CONTINUOUS
 10
20.7169767782
 20
1.170462078
 11
20.7825395137
 21
1.1682766535
  0
LINE
  5
228
100
AcDbEntity
  8
0
100
AcDbLine
 62
7
  6
CONTINUOUS
 10
20.8177513651
 20
1.1693297793
 11
20.947965719
 21
1.1693297793
  0
LINE
  5
229
100
AcDbEntity
  8
0
100
AcDbLine
 62
7
  6
CONTINUOUS
 10
20.6875370113
 20
1.170462078
 11
20.5573226574
 21
1.170462078
  0
LINE
  5
22A
100
AcDbEntity
  8
0
100
AcDbLine
 62
7
  6
CONTINUOUS
 10
20.7486811426
 20
1.1987695462
 11
20.7486811426
 21
1.1432869085
  0
LINE
  5
22B
100
AcDbEntity
  8
0
100
AcDbLine
 62
7
  6
CONTINUOUS
 10
20.7498134414
 20
1.1059210505
 11
20.7498134414
 21
0.9757066966
  0
LINE
  5
22C
100
AcDbEntity
  8
0
100
AcDbLine
 62
7
  6
CONTINUOUS
 10
20.7486811426
 20
1.2338708068
 11
20.7486811426
 21
1.3640851607
  0
LINE
  5
22D
100
AcDbEntity
  8
0
100
AcDbLine
 62
7
  6
CONTINUOUS
 10
21.0702539817
 20
1.2701043662
 11
21.4790138229
 21
1.3448360823
  0
LINE
  5
22E
100
AcDbEntity
  8
0
100
AcDbLine
 62
7
  6
CONTINUOUS
 10
21.4790138229
 20
1.3448360823
 11
21.4790138229
 21
0.9779712941
  0
LINE
  5
22F
100
AcDbEntity
  8
0
100
AcDbLine
 62
7
  6
CONTINUOUS
 10
21.4790138229
 20
0.9779712941
 11
21.069121683
 21
1.0617614
  0
LINE
  5
230
100
AcDbEntity
  8
0
100
AcDbLine
 62
7
  6
CONTINUOUS
 10
21.0702539817
 20
1.2701043662
 11
21.069121683
 21
1.0617614
  0
LINE
  5
231
100
AcDbEntity
  8
0
100
AcDbLine
 62
7
  6
CONTINUOUS
 10
21.4790138229
 20
1.1693297793
 11
21.3159628059
 21
1.1693297793
  0
LINE
  5
232
100
AcDbEntity
  8
0
100
AcDbLine
 62
7
  6
CONTINUOUS
 10
21.2876553377
 20
1.1693297793
 11
21.2502894796
 21
1.1693297793
  0
LINE
  5
233
100
AcDbEntity
  8
0
100
AcDbLine
 62
7
  6
CONTINUOUS
 10
21.2208497126
 20
1.1659328831
 11
21.0713862804
 21
1.1659328831
  0
LINE
  5
234
100
AcDbEntity
  8
0
100
AcDbLine
 62
7
  6
CONTINUOUS
 10
20.4796138713
 20
1.5284908897
 11
20.4766766948
 21
0.9294458646
  0
ENDBLK
  5
235
100
AcDbEntity
  8
0
  6
BYBLOCK
 62
0
100
AcDbBlockEnd
  0
BLOCK
  5
236
100
AcDbEntity
  8
0
100
AcDbBlockBegin
  2
*T1
 70
1
 10
0.0
 20
0.0
  3
*T1
  1

  0
LINE
  5
237
100
AcDbEntity
  8
0
100
AcDbLine
 62
2
  6
CONTINUOUS
 10
9.275
 20
0.0
 11
-0.0
 21
0.0
  0
LINE
  5
238
100
AcDbEntity
  8
0
100
AcDbLine
 62
2
  6
CONTINUOUS
 10
9.275
 20
0.0
 11
9.275
 21
1.25
  0
LINE
  5
239
100
AcDbEntity
  8
0
100
AcDbLine
 62
2
  6
CONTINUOUS
 10
9.275
 20
0.625
 11
-0.0
 21
0.625
  0
LINE
  5
23A
100
AcDbEntity
  8
0
100
AcDbLine
 62
2
  6
CONTINUOUS
 10
9.275
 20
1.25
 11
-0.0
 21
1.25
  0
LINE
  5
23B
100
AcDbEntity
  8
0
100
AcDbLine
 62
2
  6
CONTINUOUS
 10
6.8
 20
0.0
 11
6.8
 21
1.25
  0
LINE
  5
23C
100
AcDbEntity
  8
0
100
AcDbLine
 62
2
  6
CONTINUOUS
 10
6.4
 20
0.0
 11
6.4
 21
0.625
  0
LINE
  5
23D
100
AcDbEntity
  8
0
100
AcDbLine
 62
2
  6
CONTINUOUS
 10
5.9
 20
0.0
 11
5.9
 21
0.625
  0
LINE
  5
23E
100
AcDbEntity
  8
0
100
AcDbLine
 62
2
  6
CONTINUOUS
 10
5.2
 20
0.0
 11
5.2
 21
0.625
  0
LINE
  5
23F
100
AcDbEntity
  8
0
100
AcDbLine
 62
2
  6
CONTINUOUS
 10
4.1
 20
0.0
 11
4.1
 21
1.25
  0
LINE
  5
240
100
AcDbEntity
  8
0
100
AcDbLine
 62
2
  6
CONTINUOUS
 10
-0.0
 20
0.0
 11
-0.0
 21
1.25
  0
MTEXT
  5
241
100
AcDbEntity
  8
0
100
AcDbMText
 62
2
  6
CONTINUOUS
  7
STANDARD
 71
2
 72
1
 10
6.6
 20
0.325
 30
0.0
 11
1.0
 21
0.0
 31
0.0
 44
0.9
  1
2
 40
0.125
 41
0.2
  0
MTEXT
  5
242
100
AcDbEntity
  8
0
100
AcDbMText
 62
2
  6
CONTINUOUS
  7
STANDARD
 71
2
 72
1
 10
6.15
 20
0.325
 30
0.0
 11
1.0
 21
0.0
 31
0.0
 44
0.9
  1
C
 40
0.125
 41
0.2
  0
MTEXT
  5
243
100
AcDbEntity
  8
0
100
AcDbMText
 62
2
  6
CONTINUOUS
  7
STANDARD
 71
2
 72
1
 10
5.55
 20
0.325
 30
0.0
 11
1.0
 21
0.0
 31
0.0
 44
0.9
  1
1.000
 40
0.125
 41
1.0
  0
MTEXT
  5
244
100
AcDbEntity
  8
0
100
AcDbMText
 62
2
  6
CONTINUOUS
  7
STANDARD
 71
2
 72
1
 10
4.65
 20
0.325
 30
0.0
 11
1.0
 21
0.0
 31
0.0
 44
0.9
  1
Mar-03-21
 40
0.125
 41
1.8
  0
MTEXT
  5
245
100
AcDbEntity
  8
0
100
AcDbMText
 62
2
  6
CONTINUOUS
  7
STANDARD
 71
2
 72
1
 10
2.05
 20
0.4625
 30
0.0
 11
1.0
 21
0.0
 31
0.0
 44
0.9
  1
T-10A Subplate ISO 05\PP to T, side ports
 40
0.125
 41
4.2
  0
MTEXT
  5
246
100
AcDbEntity
  8
0
100
AcDbMText
 62
2
  6
CONTINUOUS
  7
STANDARD
 71
1
 72
1
 10
6.45
 20
0.5625
 30
0.0
 11
1.0
 21
0.0
 31
0.0
 44
0.9
  1
SHEET
 40
0.06
 41
0.48
  0
MTEXT
  5
247
100
AcDbEntity
  8
0
100
AcDbMText
 62
2
  6
CONTINUOUS
  7
STANDARD
 71
1
 72
1
 10
5.95
 20
0.5625
 30
0.0
 11
1.0
 21
0.0
 31
0.0
 44
0.9
  1
DWG SIZE
 40
0.06
 41
0.768
  0
MTEXT
  5
248
100
AcDbEntity
  8
0
100
AcDbMText
 62
2
  6
CONTINUOUS
  7
STANDARD
 71
1
 72
1
 10
5.25
 20
0.5625
 30
0.0
 11
1.0
 21
0.0
 31
0.0
 44
0.9
  1
SCALE
 40
0.06
 41
0.48
  0
MTEXT
  5
249
100
AcDbEntity
  8
0
100
AcDbMText
 62
2
  6
CONTINUOUS
  7
STANDARD
 71
1
 72
1
 10
4.15
 20
0.5625
 30
0.0
 11
1.0
 21
0.0
 31
0.0
 44
0.9
  1
DATE
 40
0.06
 41
0.384
  0
MTEXT
  5
24A
100
AcDbEntity
  8
0
100
AcDbMText
 62
2
  6
CONTINUOUS
  7
STANDARD
 71
1
 72
1
 10
0.05
 20
0.5625
 30
0.0
 11
1.0
 21
0.0
 31
0.0
 44
0.9
  1
DESCRIPTION
 40
0.06
 41
1.056
  0
MTEXT
  5
24B
100
AcDbEntity
  8
0
100
AcDbMText
 62
2
  6
CONTINUOUS
  7
STANDARD
 71
2
 72
1
 10
5.45
 20
1.0375
 30
0.0
 11
1.0
 21
0.0
 31
0.0
 44
0.9
  1
ALL DIMENSIONS IN INCH\PVIEWS ARE THIRD ANGLE
 40
0.12
 41
4.224
  0
MTEXT
  5
24C
100
AcDbEntity
  8
0
100
AcDbMText
 62
2
  6
CONTINUOUS
  7
STANDARD
 71
2
 72
1
 10
2.05
 20
0.95
 30
0.0
 11
1.0
 21
0.0
 31
0.0
 44
0.9
  1
FSD
 40
0.125
 41
0.6
  0
MTEXT
  5
24D
100
AcDbEntity
  8
0
100
AcDbMText
 62
2
  6
CONTINUOUS
  7
STANDARD
 71
1
 72
1
 10
0.05
 20
1.1875
 30
0.0
 11
1.0
 21
0.0
 31
0.0
 44
0.9
  1
MODEL
 40
0.06
 41
0.48
  0
ENDBLK
  5
24E
100
AcDbEntity
  8
0
  6
BYBLOCK
 62
0
100
AcDbBlockEnd
  0
BLOCK
  5
24F
100
AcDbEntity
  8
0
100
AcDbBlockBegin
  2
*T2
 70
1
 10
0.0
 20
0.0
  3
*T2
  1

  0
LINE
  5
250
100
AcDbEntity
  8
0
100
AcDbLine
 62
2
  6
CONTINUOUS
 10
0.0
 20
0.0
 11
9.055
 21
0.0
  0
LINE
  5
251
100
AcDbEntity
  8
0
100
AcDbLine
 62
2
  6
CONTINUOUS
 10
0.0
 20
0.0
 11
0.0
 21
-2.594
  0
LINE
  5
252
100
AcDbEntity
  8
0
100
AcDbLine
 62
2
  6
CONTINUOUS
 10
0.0
 20
-0.344
 11
9.055
 21
-0.344
  0
LINE
  5
253
100
AcDbEntity
  8
0
100
AcDbLine
 62
2
  6
CONTINUOUS
 10
0.0
 20
-0.594
 11
9.055
 21
-0.594
  0
LINE
  5
254
100
AcDbEntity
  8
0
100
AcDbLine
 62
2
  6
CONTINUOUS
 10
0.0
 20
-0.844
 11
9.055
 21
-0.844
  0
LINE
  5
255
100
AcDbEntity
  8
0
100
AcDbLine
 62
2
  6
CONTINUOUS
 10
0.0
 20
-1.094
 11
9.055
 21
-1.094
  0
LINE
  5
256
100
AcDbEntity
  8
0
100
AcDbLine
 62
2
  6
CONTINUOUS
 10
0.0
 20
-1.344
 11
9.055
 21
-1.344
  0
LINE
  5
257
100
AcDbEntity
  8
0
100
AcDbLine
 62
2
  6
CONTINUOUS
 10
0.0
 20
-1.594
 11
9.055
 21
-1.594
  0
LINE
  5
258
100
AcDbEntity
  8
0
100
AcDbLine
 62
2
  6
CONTINUOUS
 10
0.0
 20
-1.844
 11
9.055
 21
-1.844
  0
LINE
  5
259
100
AcDbEntity
  8
0
100
AcDbLine
 62
2
  6
CONTINUOUS
 10
0.0
 20
-2.094
 11
9.055
 21
-2.094
  0
LINE
  5
25A
100
AcDbEntity
  8
0
100
AcDbLine
 62
2
  6
CONTINUOUS
 10
0.0
 20
-2.344
 11
9.055
 21
-2.344
  0
LINE
  5
25B
100
AcDbEntity
  8
0
100
AcDbLine
 62
2
  6
CONTINUOUS
 10
0.0
 20
-2.594
 11
9.055
 21
-2.594
  0
LINE
  5
25C
100
AcDbEntity
  8
0
100
AcDbLine
 62
2
  6
CONTINUOUS
 10
3.055
 20
0.0
 11
3.055
 21
-2.594
  0
LINE
  5
25D
100
AcDbEntity
  8
0
100
AcDbLine
 62
2
  6
CONTINUOUS
 10
9.055
 20
0.0
 11
9.055
 21
-2.594
  0
MTEXT
  5
25E
100
AcDbEntity
  8
0
100
AcDbMText
 62
2
  6
CONTINUOUS
  7
STANDARD
 71
2
 72
1
 10
1.5275
 20
-0.0995
 30
0.0
 11
1.0
 21
0.0
 31
0.0
 44
0.9
  1
Technical Data
 40
0.145
 41
3.248
  0
MTEXT
  5
25F
100
AcDbEntity
  8
0
100
AcDbMText
 62
2
  6
CONTINUOUS
  7
STANDARD
 71
2
 72
1
 10
4.555
 20
-0.0995
 30
0.0
 11
1.0
 21
0.0
 31
0.0
 44
0.9
  1
U.S. Units
 40
0.145
 41
2.32
  0
MTEXT
  5
260
100
AcDbEntity
  8
0
100
AcDbMText
 62
2
  6
CONTINUOUS
  7
STANDARD
 71
2
 72
1
 10
7.555
 20
-0.0995
 30
0.0
 11
1.0
 21
0.0
 31
0.0
 44
0.9
  1
Metric Units
 40
0.145
 41
2.784
  0
MTEXT
  5
261
100
AcDbEntity
  8
0
100
AcDbMText
 62
2
  6
CONTINUOUS
  7
STANDARD
 71
2
 72
1
 10
1.5275
 20
-0.4065
 30
0.0
 11
1.0
 21
0.0
 31
0.0
 44
0.9
  1
Cavity
 40
0.125
 41
1.2
  0
MTEXT
  5
262
100
AcDbEntity
  8
0
100
AcDbMText
 62
2
  6
CONTINUOUS
  7
STANDARD
 71
2
 72
1
 10
6.055
 20
-0.4065
 30
0.0
 11
1.0
 21
0.0
 31
0.0
 44
0.9
  1
T-10A
 40
0.125
 41
1.0
  0
MTEXT
  5
263
100
AcDbEntity
  8
0
100
AcDbMText
 62
2
  6
CONTINUOUS
  7
STANDARD
 71
2
 72
1
 10
1.5275
 20
-0.6565
 30
0.0
 11
1.0
 21
0.0
 31
0.0
 44
0.9
  1
Body Features
 40
0.125
 41
2.6
  0
MTEXT
  5
264
100
AcDbEntity
  8
0
100
AcDbMText
 62
2
  6
CONTINUOUS
  7
STANDARD
 71
2
 72
1
 10
6.055
 20
-0.6565
 30
0.0
 11
1.0
 21
0.0
 31
0.0
 44
0.9
  1
P to T, side ports
 40
0.125
 41
3.6
  0
MTEXT
  5
265
100
AcDbEntity
  8
0
100
AcDbMText
 62
2
  6
CONTINUOUS
  7
STANDARD
 71
2
 72
1
 10
1.5275
 20
-0.9065
 30
0.0
 11
1.0
 21
0.0
 31
0.0
 44
0.9
  1
Body Type
 40
0.125
 41
1.8
  0
MTEXT
  5
266
100
AcDbEntity
  8
0
100
AcDbMText
 62
2
  6
CONTINUOUS
  7
STANDARD
 71
2
 72
1
 10
6.055
 20
-0.9065
 30
0.0
 11
1.0
 21
0.0
 31
0.0
 44
0.9
  1
Subplate
 40
0.125
 41
1.6
  0
MTEXT
  5
267
100
AcDbEntity
  8
0
100
AcDbMText
 62
2
  6
CONTINUOUS
  7
STANDARD
 71
2
 72
1
 10
1.5275
 20
-1.1565
 30
0.0
 11
1.0
 21
0.0
 31
0.0
 44
0.9
  1
Interface
 40
0.125
 41
1.8
  0
MTEXT
  5
268
100
AcDbEntity
  8
0
100
AcDbMText
 62
2
  6
CONTINUOUS
  7
STANDARD
 71
2
 72
1
 10
6.055
 20
-1.1565
 30
0.0
 11
1.0
 21
0.0
 31
0.0
 44
0.9
  1
ISO 05
 40
0.125
 41
1.2
  0
MTEXT
  5
269
100
AcDbEntity
  8
0
100
AcDbMText
 62
2
  6
CONTINUOUS
  7
STANDARD
 71
2
 72
1
 10
1.5275
 20
-1.4065
 30
0.0
 11
1.0
 21
0.0
 31
0.0
 44
0.9
  1
Open Cavity Quantity
 40
0.125
 41
4.0
  0
MTEXT
  5
26A
100
AcDbEntity
  8
0
100
AcDbMText
 62
2
  6
CONTINUOUS
  7
STANDARD
 71
2
 72
1
 10
6.055
 20
-1.4065
 30
0.0
 11
1.0
 21
0.0
 31
0.0
 44
0.9
  1
1
 40
0.125
 41
0.2
  0
MTEXT
  5
26B
100
AcDbEntity
  8
0
100
AcDbMText
 62
2
  6
CONTINUOUS
  7
STANDARD
 71
2
 72
1
 10
1.5275
 20
-1.6565
 30
0.0
 11
1.0
 21
0.0
 31
0.0
 44
0.9
  1
Weight
 40
0.125
 41
1.2
  0
MTEXT
  5
26C
100
AcDbEntity
  8
0
100
AcDbMText
 62
2
  6
CONTINUOUS
  7
STANDARD
 71
2
 72
1
 10
4.555
 20
-1.6565
 30
0.0
 11
1.0
 21
0.0
 31
0.0
 44
0.9
  1
3.152 lb.
 40
0.125
 41
1.8
  0
MTEXT
  5
26D
100
AcDbEntity
  8
0
100
AcDbMText
 62
2
  6
CONTINUOUS
  7
STANDARD
 71
2
 72
1
 10
7.555
 20
-1.6565
 30
0.0
 11
1.0
 21
0.0
 31
0.0
 44
0.9
  1
1,430 kg.
 40
0.125
 41
1.8
  0
MTEXT
  5
26E
100
AcDbEntity
  8
0
100
AcDbMText
 62
2
  6
CONTINUOUS
  7
STANDARD
 71
2
 72
1
 10
1.5275
 20
-1.9065
 30
0.0
 11
1.0
 21
0.0
 31
0.0
 44
0.9
  1
Mounting Hole Diameter
 40
0.125
 41
4.4
  0
MTEXT
  5
26F
100
AcDbEntity
  8
0
100
AcDbMText
 62
2
  6
CONTINUOUS
  7
STANDARD
 71
2
 72
1
 10
4.555
 20
-1.9065
 30
0.0
 11
1.0
 21
0.0
 31
0.0
 44
0.9
  1
.44 in.
 40
0.125
 41
1.4
  0
MTEXT
  5
270
100
AcDbEntity
  8
0
100
AcDbMText
 62
2
  6
CONTINUOUS
  7
STANDARD
 71
2
 72
1
 10
7.555
 20
-1.9065
 30
0.0
 11
1.0
 21
0.0
 31
0.0
 44
0.9
  1
11,1 mm
 40
0.125
 41
1.4
  0
MTEXT
  5
271
100
AcDbEntity
  8
0
100
AcDbMText
 62
2
  6
CONTINUOUS
  7
STANDARD
 71
2
 72
1
 10
1.5275
 20
-2.1565
 30
0.0
 11
1.0
 21
0.0
 31
0.0
 44
0.9
  1
Mounting Hole Depth
 40
0.125
 41
3.8
  0
MTEXT
  5
272
100
AcDbEntity
  8
0
100
AcDbMText
 62
2
  6
CONTINUOUS
  7
STANDARD
 71
2
 72
1
 10
6.055
 20
-2.1565
 30
0.0
 11
1.0
 21
0.0
 31
0.0
 44
0.9
  1
Through
 40
0.125
 41
1.4
  0
MTEXT
  5
273
100
AcDbEntity
  8
0
100
AcDbMText
 62
2
  6
CONTINUOUS
  7
STANDARD
 71
2
 72
1
 10
1.5275
 20
-2.4065
 30
0.0
 11
1.0
 21
0.0
 31
0.0
 44
0.9
  1
Mounting Hole Quantity
 40
0.125
 41
4.4
  0
MTEXT
  5
274
100
AcDbEntity
  8
0
100
AcDbMText
 62
2
  6
CONTINUOUS
  7
STANDARD
 71
2
 72
1
 10
6.055
 20
-2.4065
 30
0.0
 11
1.0
 21
0.0
 31
0.0
 44
0.9
  1
4
 40
0.125
 41
0.2
  0
ENDBLK
  5
275
100
AcDbEntity
  8
0
  6
BYBLOCK
 62
0
100
AcDbBlockEnd
  0
BLOCK
  5
276
100
AcDbEntity
  8
0
100
AcDbBlockBegin
  2
*T3
 70
1
 10
0.0
 20
0.0
  3
*T3
  1

  0
LINE
  5
277
100
AcDbEntity
  8
0
100
AcDbLine
 62
2
  6
CONTINUOUS
 10
0.0
 20
0.0
 11
4.6
 21
0.0
  0
LINE
  5
278
100
AcDbEntity
  8
0
100
AcDbLine
 62
2
  6
CONTINUOUS
 10
0.0
 20
0.0
 11
0.0
 21
-0.93775
  0
LINE
  5
279
100
AcDbEntity
  8
0
100
AcDbLine
 62
2
  6
CONTINUOUS
 10
0.0
 20
-0.34375
 11
4.6
 21
-0.34375
  0
LINE
  5
27A
100
AcDbEntity
  8
0
100
AcDbLine
 62
2
  6
CONTINUOUS
 10
0.0
 20
-0.68775
 11
4.6
 21
-0.68775
  0
LINE
  5
27B
100
AcDbEntity
  8
0
100
AcDbLine
 62
2
  6
CONTINUOUS
 10
0.0
 20
-0.93775
 11
4.6
 21
-0.93775
  0
LINE
  5
27C
100
AcDbEntity
  8
0
100
AcDbLine
 62
2
  6
CONTINUOUS
 10
1.3
 20
-0.34375
 11
1.3
 21
-0.93775
  0
LINE
  5
27D
100
AcDbEntity
  8
0
100
AcDbLine
 62
2
  6
CONTINUOUS
 10
3.3
 20
-0.34375
 11
3.3
 21
-0.93775
  0
LINE
  5
27E
100
AcDbEntity
  8
0
100
AcDbLine
 62
2
  6
CONTINUOUS
 10
4.6
 20
0.0
 11
4.6
 21
-0.93775
  0
MTEXT
  5
27F
100
AcDbEntity
  8
0
100
AcDbMText
 62
2
  6
CONTINUOUS
  7
STANDARD
 71
2
 72
1
 10
2.3
 20
-0.099375
 30
0.0
 11
1.0
 21
0.0
 31
0.0
 44
0.9
  1
Port Headings
 40
0.145
 41
3.016
  0
MTEXT
  5
280
100
AcDbEntity
  8
0
100
AcDbMText
 62
2
  6
CONTINUOUS
  7
STANDARD
 71
2
 72
1
 10
0.65
 20
-0.44325
 30
0.0
 11
1.0
 21
0.0
 31
0.0
 44
0.9
  1
Product
 40
0.145
 41
1.624
  0
MTEXT
  5
281
100
AcDbEntity
  8
0
100
AcDbMText
 62
2
  6
CONTINUOUS
  7
STANDARD
 71
2
 72
1
 10
2.3
 20
-0.44325
 30
0.0
 11
1.0
 21
0.0
 31
0.0
 44
0.9
  1
Port
 40
0.145
 41
0.928
  0
MTEXT
  5
282
100
AcDbEntity
  8
0
100
AcDbMText
 62
2
  6
CONTINUOUS
  7
STANDARD
 71
2
 72
1
 10
3.95
 20
-0.44325
 30
0.0
 11
1.0
 21
0.0
 31
0.0
 44
0.9
  1
Size
 40
0.145
 41
0.928
  0
MTEXT
  5
283
100
AcDbEntity
  8
0
100
AcDbMText
 62
2
  6
CONTINUOUS
  7
STANDARD
 71
2
 72
1
 10
0.65
 20
-0.75025
 30
0.0
 11
1.0
 21
0.0
 31
0.0
 44
0.9
  1
FSD
 40
0.125
 41
0.6
  0
MTEXT
  5
284
100
AcDbEntity
  8
0
100
AcDbMText
 62
2
  6
CONTINUOUS
  7
STANDARD
 71
2
 72
1
 10
2.3
 20
-0.75025
 30
0.0
 11
1.0
 21
0.0
 31
0.0
 44
0.9
  1
Ports A, B, P, T
 40
0.125
 41
3.2
  0
MTEXT
  5
285
100
AcDbEntity
  8
0
100
AcDbMText
 62
2
  6
CONTINUOUS
  7
STANDARD
 71
2
 72
1
 10
3.95
 20
-0.75025
 30
0.0
 11
1.0
 21
0.0
 31
0.0
 44
0.9
  1
3/4" NPTF
 40
0.125
 41
1.8
  0
ENDBLK
  5
286
100
AcDbEntity
  8
0
  6
BYBLOCK
 62
0
100
AcDbBlockEnd
  0
ENDSEC
  0
SECTION
  2
ENTITIES
  0
IMAGE
  5
287
100
AcDbEntity
  8
0
100
AcDbRasterImage
 62
7
  6
CONTINUOUS
 10
19.2297077316
 20
0.3094318264
 30
0.0
 11
0.0066666667
 21
0.0
 31
0.0
 12
0.0
 22
0.0066666667
 32
0.0
 13
369.0
 23
92.0
340
       399
 70
9
280
0
281
50
282
50
283
0
360
       393
 71
1
 91
2
 14
-0.5
 24
-0.5
 14
368.5
 24
91.5
  0
INSERT
  5
288
100
AcDbEntity
  8
0
100
AcDbBlockReference
 62
2
  6
CONTINUOUS
  2
SUN_FIRST_THIRD_ANGLE_BL0
 10
20.4816717061
 20
1.2289683772
  0
ACAD_TABLE
  5
289
100
AcDbEntity
  8
0
 62
2
  6
CONTINUOUS
100
AcDbBlockReference
  2
*T1
 10
12.42375
 20
0.30125
 30
0.0
100
AcDbTable
342
       39B
343
20F
 11
1.0
 21
0.0
 31
0.0
 90
6
 91
4
 92
6
 93
20
 94
0
 95
0
 96
0
 70
1
 41
0.0
141
0.525
141
0.1
141
0.525
141
0.1
142
4.1
142
1.1
142
0.7
142
0.5
142
0.4
142
2.475
171
1
172
0
173
0
174
0
175
1
176
1
 91
33
178
0
145
0.0
301
CELL_VALUE
 90
4
  1
T-10A Subplate ISO 05\PP to T, side ports
304
ACVALUE_END
170
2
140
0.125
171
1
172
0
173
0
174
0
175
1
176
1
 91
33
178
0
145
0.0
301
CELL_VALUE
 90
4
  1
Mar-03-21
304
ACVALUE_END
170
5
140
0.125
171
1
172
0
173
0
174
0
175
1
176
1
 91
33
178
0
145
0.0
301
CELL_VALUE
 90
4
  1
1.000
304
ACVALUE_END
170
5
140
0.125
171
1
172
0
173
0
174
0
175
1
176
1
 91
33
178
0
145
0.0
301
CELL_VALUE
 90
4
  1
C
304
ACVALUE_END
170
5
140
0.125
171
1
172
0
173
0
174
0
175
1
176
1
 91
33
178
0
145
0.0
301
CELL_VALUE
 90
4
  1
2
304
ACVALUE_END
170
5
140
0.125
171
1
172
0
173
0
174
0
175
1
176
1
 91
33
178
0
145
0.0
301
CELL_VALUE
 90
4
  1
 
304
ACVALUE_END
170
1
140
0.125
171
1
172
0
173
0
174
0
175
1
176
1
 91
33
178
0
145
0.0
301
CELL_VALUE
 90
4
  1
DESCRIPTION
304
ACVALUE_END
170
1
140
0.06
171
1
172
0
173
0
174
0
175
1
176
1
 91
33
178
0
145
0.0
301
CELL_VALUE
 90
4
  1
DATE
304
ACVALUE_END
170
1
140
0.06
171
1
172
0
173
0
174
0
175
1
176
1
 91
33
178
0
145
0.0
301
CELL_VALUE
 90
4
  1
SCALE
304
ACVALUE_END
170
1
140
0.06
171
1
172
0
173
0
174
0
175
1
176
1
 91
33
178
0
145
0.0
301
CELL_VALUE
 90
4
  1
DWG SIZE
304
ACVALUE_END
170
1
140
0.06
171
1
172
0
173
0
174
0
175
1
176
1
 91
33
178
0
145
0.0
301
CELL_VALUE
 90
4
  1
SHEET
304
ACVALUE_END
170
1
140
0.06
171
1
172
0
173
0
174
0
175
1
176
1
 91
33
178
0
145
0.0
301
CELL_VALUE
 90
4
  1
 
304
ACVALUE_END
170
1
140
0.125
171
1
172
0
173
0
174
0
175
1
176
1
 91
33
178
0
145
0.0
301
CELL_VALUE
 90
4
  1
FSD
304
ACVALUE_END
170
5
140
0.125
171
1
172
0
173
0
174
0
175
4
176
1
 91
33
178
0
145
0.0
301
CELL_VALUE
 90
4
  1
ALL DIMENSIONS IN INCH\PVIEWS ARE THIRD ANGLE
304
ACVALUE_END
170
5
140
0.12
171
1
172
0
173
1
174
0
175
1
176
1
 91
1
178
0
145
0.0
170
1
171
1
172
0
173
1
174
0
175
1
176
1
 91
1
178
0
145
0.0
170
1
171
1
172
0
173
1
174
0
175
1
176
1
 91
1
178
0
145
0.0
170
5
171
1
172
0
173
0
174
0
175
1
176
1
 91
33
178
0
145
0.0
301
CELL_VALUE
 90
4
  1
 
304
ACVALUE_END
170
1
140
0.125
171
1
172
0
173
0
174
0
175
1
176
1
 91
33
178
0
145
0.0
301
CELL_VALUE
 90
4
  1
MODEL
304
ACVALUE_END
170
1
140
0.06
171
1
172
0
173
0
174
0
175
1
176
1
 91
33
178
0
145
0.0
301
CELL_VALUE
 90
4
  1
 
304
ACVALUE_END
170
1
140
0.125
171
1
172
0
173
0
174
0
175
1
176
1
 91
33
178
0
145
0.0
301
CELL_VALUE
 90
4
  1
 
304
ACVALUE_END
170
1
140
0.125
171
1
172
0
173
0
174
0
175
1
176
1
 91
33
178
0
145
0.0
301
CELL_VALUE
 90
4
  1
 
304
ACVALUE_END
170
1
140
0.125
171
1
172
0
173
0
174
0
175
1
176
1
 91
33
178
0
145
0.0
301
CELL_VALUE
 90
4
  1
 
304
ACVALUE_END
170
1
140
0.125
171
1
172
0
173
0
174
0
175
1
176
1
 91
33
178
0
145
0.0
301
CELL_VALUE
 90
4
  1
 
304
ACVALUE_END
170
1
140
0.125
  0
ACAD_TABLE
  5
28A
100
AcDbEntity
  8
0
 62
2
  6
CONTINUOUS
100
AcDbBlockReference
  2
*T2
 10
12.4237499994
 20
16.47875
 30
0.0
100
AcDbTable
342
       39A
343
210
 11
1.0
 21
0.0
 31
0.0
 90
22
 91
10
 92
3
 93
16
 94
0
 95
0
 96
0
 41
0.028
141
0.344
141
0.25
141
0.25
141
0.25
141
0.25
141
0.25
141
0.25
141
0.25
141
0.25
141
0.25
142
3.055
142
3.0
142
3.0
171
1
172
0
173
0
174
0
175
1
176
1
 91
33
178
0
145
0.0
301
CELL_VALUE
 90
4
  1
Technical Data
304
ACVALUE_END
170
5
140
0.145
171
1
172
0
173
0
174
0
175
1
176
1
 91
33
178
0
145
0.0
301
CELL_VALUE
 90
4
  1
U.S. Units
304
ACVALUE_END
170
5
140
0.145
171
1
172
0
173
0
174
0
175
1
176
1
 91
33
178
0
145
0.0
301
CELL_VALUE
 90
4
  1
Metric Units
304
ACVALUE_END
170
5
140
0.145
171
1
172
0
173
0
174
0
175
1
176
1
 91
33
178
0
145
0.0
301
CELL_VALUE
 90
4
  1
Cavity
304
ACVALUE_END
170
5
140
0.125
171
1
172
0
173
0
174
0
175
2
176
1
 91
33
178
0
145
0.0
301
CELL_VALUE
 90
4
  1
T-10A
304
ACVALUE_END
170
5
140
0.125
171
1
172
0
173
1
174
0
175
1
176
1
 91
1
178
0
145
0.0
170
1
171
1
172
0
173
0
174
0
175
1
176
1
 91
33
178
0
145
0.0
301
CELL_VALUE
 90
4
  1
Body Features
304
ACVALUE_END
170
5
140
0.125
171
1
172
0
173
0
174
0
175
2
176
1
 91
33
178
0
145
0.0
301
CELL_VALUE
 90
4
  1
P to T, side ports
304
ACVALUE_END
170
5
140
0.125
171
1
172
0
173
1
174
0
175
1
176
1
 91
1
178
0
145
0.0
170
1
171
1
172
0
173
0
174
0
175
1
176
1
 91
33
178
0
145
0.0
301
CELL_VALUE
 90
4
  1
Body Type
304
ACVALUE_END
170
5
140
0.125
171
1
172
0
173
0
174
0
175
2
176
1
 91
33
178
0
145
0.0
301
CELL_VALUE
 90
4
  1
Subplate
304
ACVALUE_END
170
5
140
0.125
171
1
172
0
173
1
174
0
175
1
176
1
 91
1
178
0
145
0.0
170
1
171
1
172
0
173
0
174
0
175
1
176
1
 91
33
178
0
145
0.0
301
CELL_VALUE
 90
4
  1
Interface
304
ACVALUE_END
170
5
140
0.125
171
1
172
0
173
0
174
0
175
2
176
1
 91
33
178
0
145
0.0
301
CELL_VALUE
 90
4
  1
ISO 05
304
ACVALUE_END
170
5
140
0.125
171
1
172
0
173
1
174
0
175
1
176
1
 91
1
178
0
145
0.0
170
1
171
1
172
0
173
0
174
0
175
1
176
1
 91
33
178
0
145
0.0
301
CELL_VALUE
 90
4
  1
Open Cavity Quantity
304
ACVALUE_END
170
5
140
0.125
171
1
172
0
173
0
174
0
175
2
176
1
 91
33
178
0
145
0.0
301
CELL_VALUE
 90
4
  1
1
304
ACVALUE_END
170
5
140
0.125
171
1
172
0
173
1
174
0
175
1
176
1
 91
1
178
0
145
0.0
170
1
171
1
172
0
173
0
174
0
175
1
176
1
 91
33
178
0
145
0.0
301
CELL_VALUE
 90
4
  1
Weight
304
ACVALUE_END
170
5
140
0.125
171
1
172
0
173
0
174
0
175
1
176
1
 91
33
178
0
145
0.0
301
CELL_VALUE
 90
4
  1
3.152 lb.
304
ACVALUE_END
170
5
140
0.125
171
1
172
0
173
0
174
0
175
1
176
1
 91
33
178
0
145
0.0
301
CELL_VALUE
 90
4
  1
1,430 kg.
304
ACVALUE_END
170
5
140
0.125
171
1
172
0
173
0
174
0
175
1
176
1
 91
33
178
0
145
0.0
301
CELL_VALUE
 90
4
  1
Mounting Hole Diameter
304
ACVALUE_END
170
5
140
0.125
171
1
172
0
173
0
174
0
175
1
176
1
 91
33
178
0
145
0.0
301
CELL_VALUE
 90
4
  1
.44 in.
304
ACVALUE_END
170
5
140
0.125
171
1
172
0
173
0
174
0
175
1
176
1
 91
33
178
0
145
0.0
301
CELL_VALUE
 90
4
  1
11,1 mm
304
ACVALUE_END
170
5
140
0.125
171
1
172
0
173
0
174
0
175
1
176
1
 91
33
178
0
145
0.0
301
CELL_VALUE
 90
4
  1
Mounting Hole Depth
304
ACVALUE_END
170
5
140
0.125
171
1
172
0
173
0
174
0
175
2
176
1
 91
33
178
0
145
0.0
301
CELL_VALUE
 90
4
  1
Through
304
ACVALUE_END
170
5
140
0.125
171
1
172
0
173
1
174
0
175
1
176
1
 91
1
178
0
145
0.0
170
1
171
1
172
0
173
0
174
0
175
1
176
1
 91
33
178
0
145
0.0
301
CELL_VALUE
 90
4
  1
Mounting Hole Quantity
304
ACVALUE_END
170
5
140
0.125
171
1
172
0
173
0
174
0
175
2
176
1
 91
33
178
0
145
0.0
301
CELL_VALUE
 90
4
  1
4
304
ACVALUE_END
170
5
140
0.125
171
1
172
0
173
1
174
0
175
1
176
1
 91
1
178
0
145
0.0
170
1
  0
ACAD_TABLE
  5
28B
100
AcDbEntity
  8
0
 62
2
  6
CONTINUOUS
100
AcDbBlockReference
  2
*T3
 10
0.52125
 20
1.459
 30
0.0
100
AcDbTable
342
       39A
343
211
 11
1.0
 21
0.0
 31
0.0
 90
22
 91
3
 92
3
 93
16
 94
0
 95
0
 96
0
 41
0.05
141
0.34375
141
0.344
141
0.25
142
1.3
142
2.0
142
1.3
171
1
172
0
173
0
174
0
175
3
176
1
 91
33
178
0
145
0.0
301
CELL_VALUE
 90
4
  1
Port Headings
304
ACVALUE_END
170
5
140
0.145
171
1
172
0
173
1
174
0
175
1
176
1
 91
1
178
0
145
0.0
170
1
171
1
172
0
173
1
174
0
175
1
176
1
 91
1
178
0
145
0.0
170
1
171
1
172
0
173
0
174
0
175
1
176
1
 91
33
178
0
145
0.0
301
CELL_VALUE
 90
4
  1
Product
304
ACVALUE_END
170
5
140
0.145
171
1
172
0
173
0
174
0
175
1
176
1
 91
33
178
0
145
0.0
301
CELL_VALUE
 90
4
  1
Port
304
ACVALUE_END
170
5
140
0.145
171
1
172
0
173
0
174
0
175
1
176
1
 91
33
178
0
145
0.0
301
CELL_VALUE
 90
4
  1
Size
304
ACVALUE_END
170
5
140
0.145
171
1
172
0
173
0
174
0
175
1
176
1
 91
33
178
0
145
0.0
301
CELL_VALUE
 90
4
  1
FSD
304
ACVALUE_END
170
5
140
0.125
171
1
172
0
173
0
174
0
175
1
176
1
 91
33
178
0
145
0.0
301
CELL_VALUE
 90
4
  1
Ports A, B, P, T
304
ACVALUE_END
170
5
140
0.125
171
1
172
0
173
0
174
0
175
1
176
1
 91
33
178
0
145
0.0
301
CELL_VALUE
 90
4
  1
3/4" NPTF
304
ACVALUE_END
170
5
140
0.125
  0
MTEXT
  5
28C
100
AcDbEntity
  8
0
100
AcDbMText
 62
2
  6
CONTINUOUS
  7
STANDARD
 71
1
 72
1
 10
0.52125
 20
5.75995
 30
0.0
 11
1.0
 21
0.0
 31
0.0
 44
0.6
  3
Notes\P \P1. Important: Carefully consider\P   the maximum system pressure. The\P   pressure rating of the manifold is\P   dependent on the manifold material,\P   with the port type/size a secondary\P   consideration. Manifolds\P   constructed of alu
  1
minum are not\P   rated for pressures higher than\P   3000 psi (210 bar), regardless of\P   the port type/size specified.
 40
0.1
 41
3.04
  0
LINE
  5
28D
100
AcDbEntity
  8
0
100
AcDbLine
 62
7
  6
CONTINUOUS
 10
0.30125
 20
0.30125
 11
0.30125
 21
16.69875
  0
LINE
  5
28E
100
AcDbEntity
  8
0
100
AcDbLine
 62
7
  6
CONTINUOUS
 10
0.30125
 20
0.30125
 11
21.69875
 21
0.30125
  0
LINE
  5
28F
100
AcDbEntity
  8
0
100
AcDbLine
 62
7
  6
CONTINUOUS
 10
0.30125
 20
16.69875
 11
21.69875
 21
16.69875
  0
LINE
  5
290
100
AcDbEntity
  8
0
100
AcDbLine
 62
7
  6
CONTINUOUS
 10
21.69875
 20
0.30125
 11
21.69875
 21
16.69875
  0
LINE
  5
291
100
AcDbEntity
  8
0
100
AcDbLine
 62
7
  6
CONTINUOUS
 10
8.785000436
 20
10.533807827
 11
9.3512960299
 21
11.080807399
  0
LINE
  5
292
100
AcDbEntity
  8
02___PRT_ALL_AXES
100
AcDbLine
 62
7
  6
CONTINUOUS
 10
10.0073164946
 20
10.7929615081
 11
10.0066480305
 21
10.7923288954
  0
LINE
  5
293
100
AcDbEntity
  8
02___PRT_ALL_AXES
100
AcDbLine
 62
7
  6
CONTINUOUS
 10
9.9620309985
 20
10.7508195922
 11
10.0073123547
 21
10.7929586477
  0
LINE
  5
294
100
AcDbEntity
  8
0
100
AcDbLine
 62
7
  6
CONTINUOUS
 10
12.6487039701
 20
5.919192601
 11
8.785000436
 21
6.1871413512
  0
LINE
  5
295
100
AcDbEntity
  8
0
100
AcDbLine
 62
4
  6
CONTINUOUS
 10
10.6733855937
 20
6.2010704075
 11
10.7168522574
 21
6.1980559841
  0
LINE
  5
296
100
AcDbEntity
  8
0
100
AcDbLine
 62
7
  6
CONTINUOUS
 10
8.785000436
 20
6.1871413512
 11
8.785000436
 21
10.533807827
  0
LINE
  5
297
100
AcDbEntity
  8
0
100
AcDbLine
 62
4
  6
CONTINUOUS
 10
8.9467930165
 20
7.5620246932
 11
8.9467930165
 21
7.4461135897
  0
LINE
  5
298
100
AcDbEntity
  8
0
100
AcDbLine
 62
4
  6
CONTINUOUS
 10
11.5871056245
 20
6.332820571
 11
11.5595077374
 21
6.3347344909
  0
LINE
  5
299
100
AcDbEntity
  8
0
100
AcDbLine
 62
4
  6
CONTINUOUS
 10
11.5263902951
 20
6.3370311934
 11
11.5098315555
 21
6.3381795458
  0
LINE
  5
29A
100
AcDbEntity
  8
0
100
AcDbLine
 62
4
  6
CONTINUOUS
 10
11.4675148175
 20
6.3411142216
 11
11.4454365226
 21
6.3426453565
  0
LINE
  5
29B
100
AcDbEntity
  8
0
100
AcDbLine
 62
4
  6
CONTINUOUS
 10
11.1436996677
 20
6.3635708785
 11
11.1161017898
 21
6.3654847978
  0
LINE
  5
29C
100
AcDbEntity
  8
0
100
AcDbLine
 62
4
  6
CONTINUOUS
 10
11.3184862533
 20
6.3514493876
 11
11.3516037141
 21
6.3491526839
  0
LINE
  5
29D
100
AcDbEntity
  8
0
100
AcDbLine
 62
4
  6
CONTINUOUS
 10
11.6294223993
 20
6.3298858927
 11
11.6625398416
 21
6.3275891902
  0
LINE
  5
29E
100
AcDbEntity
  8
0
100
AcDbLine
 62
4
  6
CONTINUOUS
 10
11.1933758542
 20
6.3822041297
 11
11.222813593
 21
6.3801626156
  0
LINE
  5
29F
100
AcDbEntity
  8
0
100
AcDbLine
 62
4
  6
CONTINUOUS
 10
11.6515006942
 20
6.3725113705
 11
11.6294223993
 21
6.3740425055
  0
LINE
  5
2A0
100
AcDbEntity
  8
0
100
AcDbLine
 62
4
  6
CONTINUOUS
 10
11.3405645666
 20
6.3940748642
 11
11.3184862533
 21
6.3956060004
  0
LINE
  5
2A1
100
AcDbEntity
  8
0
100
AcDbLine
 62
4
  6
CONTINUOUS
 10
11.1161017898
 20
6.4427588668
 11
11.1436996677
 21
6.4408449475
  0
LINE
  5
2A2
100
AcDbEntity
  8
0
100
AcDbLine
 62
4
  6
CONTINUOUS
 10
11.2522513318
 20
6.433316864
 11
11.29640794
 21
6.4302545928
  0
LINE
  5
2A3
100
AcDbEntity
  8
0
100
AcDbLine
 62
4
  6
CONTINUOUS
 10
11.3184862533
 20
6.4287234566
 11
11.3516037141
 21
6.4264267529
  0
LINE
  5
2A4
100
AcDbEntity
  8
0
100
AcDbLine
 62
4
  6
CONTINUOUS
 10
11.4454365226
 20
6.4199194255
 11
11.4675148175
 21
6.4183882906
  0
LINE
  5
2A5
100
AcDbEntity
  8
0
100
AcDbLine
 62
4
  6
CONTINUOUS
 10
11.5098315555
 20
6.4154536148
 11
11.5263902951
 21
6.4143052623
  0
LINE
  5
2A6
100
AcDbEntity
  8
0
100
AcDbLine
 62
4
  6
CONTINUOUS
 10
11.5595077374
 20
6.4120085599
 11
11.5871056245
 21
6.4100946399
  0
LINE
  5
2A7
100
AcDbEntity
  8
0
100
AcDbLine
 62
4
  6
CONTINUOUS
 10
11.6294223993
 20
6.4071599616
 11
11.6625398416
 21
6.4048632592
  0
LINE
  5
2A8
100
AcDbEntity
  8
0
100
AcDbLine
 62
4
  6
CONTINUOUS
 10
11.4592353518
 20
6.5116913562
 11
11.431637474
 21
6.5136052755
  0
LINE
  5
2A9
100
AcDbEntity
  8
0
100
AcDbLine
 62
4
  6
CONTINUOUS
 10
11.3764417091
 20
6.5174331148
 11
11.3985200132
 21
6.5159019792
  0
LINE
  5
2AA
100
AcDbEntity
  8
0
100
AcDbLine
 62
4
  6
CONTINUOUS
 10
11.348843829
 20
6.5635036471
 11
11.3157263706
 21
6.5658003507
  0
LINE
  5
2AB
100
AcDbEntity
  8
0
100
AcDbLine
 62
4
  6
CONTINUOUS
 10
11.3157263706
 20
6.5989178068
 11
11.348843829
 21
6.5966211033
  0
LINE
  5
2AC
100
AcDbEntity
  8
0
100
AcDbLine
 62
4
  6
CONTINUOUS
 10
11.3819612875
 20
6.5943243997
 11
11.4040395962
 21
6.5927932638
  0
LINE
  5
2AD
100
AcDbEntity
  8
0
100
AcDbLine
 62
4
  6
CONTINUOUS
 10
11.431637474
 20
6.5908793445
 11
11.4592353518
 21
6.5889654251
  0
LINE
  5
2AE
100
AcDbEntity
  8
0
100
AcDbLine
 62
4
  6
CONTINUOUS
 10
11.071945177
 20
6.4016645278
 11
11.1013829181
 21
6.384904143
  0
LINE
  5
2AF
100
AcDbEntity
  8
0
100
AcDbLine
 62
4
  6
CONTINUOUS
 10
11.3295251373
 20
6.7263830022
 11
11.3405642847
 21
6.7256174347
  0
LINE
  5
2B0
100
AcDbEntity
  8
0
100
AcDbLine
 62
4
  6
CONTINUOUS
 10
11.6993367793
 20
6.7191350656
 11
11.6772584108
 21
6.7206662057
  0
LINE
  5
2B1
100
AcDbEntity
  8
0
100
AcDbLine
 62
4
  6
CONTINUOUS
 10
11.6091836743
 20
6.7253872047
 11
11.5981445269
 21
6.7261527722
  0
LINE
  5
2B2
100
AcDbEntity
  8
0
100
AcDbLine
 62
4
  6
CONTINUOUS
 10
11.5153508658
 20
6.731894532
 11
11.4932725709
 21
6.733425667
  0
LINE
  5
2B3
100
AcDbEntity
  8
0
100
AcDbLine
 62
4
  6
CONTINUOUS
 10
11.4104789098
 20
6.7391674269
 11
11.3884006149
 21
6.7406985619
  0
LINE
  5
2B4
100
AcDbEntity
  8
0
100
AcDbLine
 62
4
  6
CONTINUOUS
 10
11.0369875855
 20
6.7650691382
 11
11.0590658914
 21
6.7635380025
  0
LINE
  5
2B5
100
AcDbEntity
  8
0
100
AcDbLine
 62
4
  6
CONTINUOUS
 10
11.1032224996
 20
6.7604757313
 11
11.1197812345
 21
6.7593273792
  0
LINE
  5
2B6
100
AcDbEntity
  8
0
100
AcDbLine
 62
4
  6
CONTINUOUS
 10
11.5429487528
 20
6.7299806121
 11
11.5705466398
 21
6.7280666921
  0
LINE
  5
2B7
100
AcDbEntity
  8
0
100
AcDbLine
 62
4
  6
CONTINUOUS
 10
11.7269346295
 20
6.7172211482
 11
11.7490129244
 21
6.7156900132
  0
LINE
  5
2B8
100
AcDbEntity
  8
0
100
AcDbLine
 62
4
  6
CONTINUOUS
 10
11.4932725709
 20
6.7610235494
 11
11.5153508658
 21
6.7594924145
  0
LINE
  5
2B9
100
AcDbEntity
  8
0
100
AcDbLine
 62
4
  6
CONTINUOUS
 10
11.5098313105
 20
6.7874730794
 11
11.4822334234
 21
6.7893869993
  0
LINE
  5
2BA
100
AcDbEntity
  8
0
100
AcDbLine
 62
4
  6
CONTINUOUS
 10
11.2743293632
 20
6.8038051949
 11
11.3019272503
 21
6.8018912749
  0
LINE
  5
2BB
100
AcDbEntity
  8
0
100
AcDbLine
 62
4
  6
CONTINUOUS
 10
11.3884006149
 20
6.7958943267
 11
11.4104789098
 21
6.7943631918
  0
LINE
  5
2BC
100
AcDbEntity
  8
0
100
AcDbLine
 62
4
  6
CONTINUOUS
 10
11.4325572415
 20
6.7928320542
 11
11.4546355364
 21
6.7913009193
  0
LINE
  5
2BD
100
AcDbEntity
  8
0
100
AcDbLine
 62
4
  6
CONTINUOUS
 10
11.6772584108
 20
6.7758619705
 11
11.6993367793
 21
6.7743308305
  0
LINE
  5
2BE
100
AcDbEntity
  8
0
100
AcDbLine
 62
4
  6
CONTINUOUS
 10
11.7269346295
 20
6.7724169131
 11
11.7490129244
 21
6.7708857781
  0
LINE
  5
2BF
100
AcDbEntity
  8
0
100
AcDbLine
 62
4
  6
CONTINUOUS
 10
11.0425071621
 20
6.8419604232
 11
11.0645854674
 21
6.8404292876
  0
LINE
  5
2C0
100
AcDbEntity
  8
0
100
AcDbLine
 62
4
  6
CONTINUOUS
 10
11.6423011167
 20
6.8003645712
 11
11.6441409684
 21
6.800236977
  0
LINE
  5
2C1
100
AcDbEntity
  8
0
100
AcDbLine
 62
4
  6
CONTINUOUS
 10
11.1925707548
 20
10.2026348595
 11
11.1780818669
 21
10.193980411
  0
LINE
  5
2C2
100
AcDbEntity
  8
0
100
AcDbLine
 62
4
  6
CONTINUOUS
 10
11.7490129244
 20
6.741448037
 11
11.7269346295
 21
6.7466588893
  0
LINE
  5
2C3
100
AcDbEntity
  8
0
100
AcDbLine
 62
4
  6
CONTINUOUS
 10
11.6846181365
 20
6.3738943854
 11
11.7140558753
 21
6.3571339996
  0
LINE
  5
2C4
100
AcDbEntity
  8
0
100
AcDbLine
 62
4
  6
CONTINUOUS
 10
11.3884006149
 20
6.7406985619
 11
11.3773614675
 21
6.7469837059
  0
LINE
  5
2C5
100
AcDbEntity
  8
0
100
AcDbLine
 62
4
  6
CONTINUOUS
 10
11.4932725709
 20
6.733425667
 11
11.4822334234
 21
6.7397108111
  0
LINE
  5
2C6
100
AcDbEntity
  8
0
100
AcDbLine
 62
4
  6
CONTINUOUS
 10
11.0701050434
 20
6.7848507411
 11
11.0314680089
 21
6.820647687
  0
LINE
  5
2C7
100
AcDbEntity
  8
0
100
AcDbLine
 62
4
  6
CONTINUOUS
 10
11.4095591699
 20
6.5372147175
 11
11.3709221354
 21
6.5730116634
  0
LINE
  5
2C8
100
AcDbEntity
  8
0
100
AcDbLine
 62
4
  6
CONTINUOUS
 10
11.1436996677
 20
6.4408449475
 11
11.1547388197
 21
6.4290402276
  0
LINE
  5
2C9
100
AcDbEntity
  8
0
100
AcDbLine
 62
4
  6
CONTINUOUS
 10
11.0314680089
 20
6.7709714987
 11
11.0369875855
 21
6.7650691382
  0
LINE
  5
2CA
100
AcDbEntity
  8
0
100
AcDbLine
 62
4
  6
CONTINUOUS
 10
11.4454365226
 20
6.3426453565
 11
11.4343973752
 21
6.3544500772
  0
LINE
  5
2CB
100
AcDbEntity
  8
0
100
AcDbLine
 62
4
  6
CONTINUOUS
 10
11.0921833475
 20
6.7722804523
 11
11.1032224996
 21
6.7604757313
  0
LINE
  5
2CC
100
AcDbEntity
  8
0
100
AcDbLine
 62
4
  6
CONTINUOUS
 10
11.5098315555
 20
6.3381795458
 11
11.4987924081
 21
6.3499842665
  0
LINE
  5
2CD
100
AcDbEntity
  8
0
100
AcDbLine
 62
4
  6
CONTINUOUS
 10
11.1998151988
 20
10.2117917188
 11
11.1925707548
 21
10.2026348595
  0
LINE
  5
2CE
100
AcDbEntity
  8
0
100
AcDbLine
 62
4
  6
CONTINUOUS
 10
8.9105707967
 20
7.5645367126
 11
8.9830152363
 21
7.5595126737
  0
LINE
  5
2CF
100
AcDbEntity
  8
0
100
AcDbLine
 62
4
  6
CONTINUOUS
 10
11.7269346295
 20
6.7466588893
 11
11.7214150742
 21
6.7507213891
  0
LINE
  5
2D0
100
AcDbEntity
  8
0
100
AcDbLine
 62
4
  6
CONTINUOUS
 10
11.7545324797
 20
6.7373855372
 11
11.7490129244
 21
6.741448037
  0
LINE
  5
2D1
100
AcDbEntity
  8
0
100
AcDbLine
 62
4
  6
CONTINUOUS
 10
11.0645854674
 20
6.8404292876
 11
11.0701050434
 21
6.8345269253
  0
LINE
  5
2D2
100
AcDbEntity
  8
0
100
AcDbLine
 62
4
  6
CONTINUOUS
 10
11.3709221354
 20
6.5233354752
 11
11.3764417091
 21
6.5174331148
  0
LINE
  5
2D3
100
AcDbEntity
  8
0
100
AcDbLine
 62
4
  6
CONTINUOUS
 10
11.5263902951
 20
6.4143052623
 11
11.5374294425
 21
6.4025005428
  0
LINE
  5
2D4
100
AcDbEntity
  8
0
100
AcDbLine
 62
4
  6
CONTINUOUS
 10
11.4040395962
 20
6.5927932638
 11
11.4095591699
 21
6.5868909017
  0
LINE
  5
2D5
100
AcDbEntity
  8
0
100
AcDbLine
 62
4
  6
CONTINUOUS
 10
11.5871056245
 20
6.4100946399
 11
11.5981447719
 21
6.3982899204
  0
LINE
  5
2D6
100
AcDbEntity
  8
0
100
AcDbLine
 62
4
  6
CONTINUOUS
 10
11.4592353518
 20
6.5889654251
 11
11.4702745085
 21
6.577160705
  0
LINE
  5
2D7
100
AcDbEntity
  8
0
100
AcDbLine
 62
4
  6
CONTINUOUS
 10
11.3019272503
 20
6.8018912749
 11
11.307446824
 21
6.7959889128
  0
LINE
  5
2D8
100
AcDbEntity
  8
0
100
AcDbLine
 62
4
  6
CONTINUOUS
 10
10.6951189256
 20
6.2768372636
 11
10.7313411454
 21
6.1584141407
  0
LINE
  5
2D9
100
AcDbEntity
  8
0
100
AcDbLine
 62
7
  6
CONTINUOUS
 10
10.217295886
 20
10.8196544285
 11
10.217295886
 21
10.7357864054
  0
LINE
  5
2DA
100
AcDbEntity
  8
0
100
AcDbLine
 62
4
  6
CONTINUOUS
 10
11.5374291607
 20
6.7358829737
 11
11.5429487528
 21
6.7299806121
  0
LINE
  5
2DB
100
AcDbEntity
  8
0
100
AcDbLine
 62
4
  6
CONTINUOUS
 10
11.5981445269
 20
6.7261527722
 11
11.5926249347
 21
6.7320551338
  0
LINE
  5
2DC
100
AcDbEntity
  8
0
100
AcDbLine
 62
4
  6
CONTINUOUS
 10
11.6772584108
 20
6.7206662057
 11
11.6717388555
 21
6.7265685647
  0
LINE
  5
2DD
100
AcDbEntity
  8
0
100
AcDbLine
 62
4
  6
CONTINUOUS
 10
11.7214150742
 20
6.7231235073
 11
11.7269346295
 21
6.7172211482
  0
LINE
  5
2DE
100
AcDbEntity
  8
0
100
AcDbLine
 62
7
  6
CONTINUOUS
 10
10.3918489651
 20
10.8075491313
 11
10.3918489651
 21
10.7502661903
  0
LINE
  5
2DF
100
AcDbEntity
  8
0
100
AcDbLine
 62
4
  6
CONTINUOUS
 10
11.7490129244
 20
6.7708857781
 11
11.7545324797
 21
6.7649834173
  0
LINE
  5
2E0
100
AcDbEntity
  8
0
100
AcDbLine
 62
4
  6
CONTINUOUS
 10
11.4546355364
 20
6.7913009193
 11
11.4583152399
 21
6.7855261527
  0
LINE
  5
2E1
100
AcDbEntity
  8
0
100
AcDbLine
 62
4
  6
CONTINUOUS
 10
11.1528986861
 20
6.834304745
 11
11.1915357206
 21
6.7543511886
  0
LINE
  5
2E2
100
AcDbEntity
  8
0
100
AcDbLine
 62
4
  6
CONTINUOUS
 10
12.4458594981
 20
8.1394345535
 11
12.4965706059
 21
8.1359177263
  0
LINE
  5
2E3
100
AcDbEntity
  8
0
100
AcDbLine
 62
4
  6
CONTINUOUS
 10
11.5153508658
 20
6.7760511449
 11
11.5098313105
 21
6.7874730794
  0
LINE
  5
2E4
100
AcDbEntity
  8
0
100
AcDbLine
 62
4
  6
CONTINUOUS
 10
11.2080947236
 20
6.4363791352
 11
11.2301730369
 21
6.35757393
  0
LINE
  5
2E5
100
AcDbEntity
  8
0
100
AcDbLine
 62
7
  6
CONTINUOUS
 10
12.6487039701
 20
10.2658590769
 11
13.214999564
 21
10.8128586488
  0
LINE
  5
2E6
100
AcDbEntity
  8
0
100
AcDbLine
 62
4
  6
CONTINUOUS
 10
12.4458594981
 20
8.2070493616
 11
12.4965706059
 21
8.2035325343
  0
LINE
  5
2E7
100
AcDbEntity
  8
0
100
AcDbLine
 62
4
  6
CONTINUOUS
 10
12.4965706059
 20
8.2518288297
 11
12.4458594981
 21
8.255345657
  0
LINE
  5
2E8
100
AcDbEntity
  8
0
100
AcDbLine
 62
4
  6
CONTINUOUS
 10
11.3295251373
 20
6.7999773549
 11
11.3460838769
 21
6.7436332376
  0
LINE
  5
2E9
100
AcDbEntity
  8
0
100
AcDbLine
 62
4
  6
CONTINUOUS
 10
11.0314680089
 20
6.820647687
 11
11.0314680089
 21
6.8316868391
  0
LINE
  5
2EA
100
AcDbEntity
  8
0
100
AcDbLine
 62
4
  6
CONTINUOUS
 10
11.0701050434
 20
6.7738115879
 11
11.0701050434
 21
6.7848507411
  0
LINE
  5
2EB
100
AcDbEntity
  8
0
100
AcDbLine
 62
4
  6
CONTINUOUS
 10
11.0921833475
 20
6.8385153681
 11
11.0921833475
 21
6.7722804523
  0
LINE
  5
2EC
100
AcDbEntity
  8
0
100
AcDbLine
 62
4
  6
CONTINUOUS
 10
11.1161017898
 20
6.3654847978
 11
11.1161017898
 21
6.4427588668
  0
LINE
  5
2ED
100
AcDbEntity
  8
0
100
AcDbLine
 62
4
  6
CONTINUOUS
 10
11.130820382
 20
6.7696009649
 11
11.130820382
 21
6.8358358806
  0
LINE
  5
2EE
100
AcDbEntity
  8
0
100
AcDbLine
 62
4
  6
CONTINUOUS
 10
11.141859647
 20
10.1385368787
 11
11.141859647
 21
10.2544479822
  0
LINE
  5
2EF
100
AcDbEntity
  8
0
100
AcDbLine
 62
4
  6
CONTINUOUS
 10
11.1528986861
 20
6.7570306761
 11
11.1528986861
 21
6.834304745
  0
LINE
  5
2F0
100
AcDbEntity
  8
0
100
AcDbLine
 62
4
  6
CONTINUOUS
 10
11.1547388197
 20
6.4290402276
 11
11.1547388197
 21
6.3738444639
  0
LINE
  5
2F1
100
AcDbEntity
  8
0
100
AcDbLine
 62
4
  6
CONTINUOUS
 10
11.1915357206
 20
6.7543511886
 11
11.1915357206
 21
6.8316252576
  0
LINE
  5
2F2
100
AcDbEntity
  8
0
100
AcDbLine
 62
4
  6
CONTINUOUS
 10
11.1998151988
 20
10.2311102315
 11
11.1998151988
 21
10.2117917188
  0
LINE
  5
2F3
100
AcDbEntity
  8
0
100
AcDbLine
 62
4
  6
CONTINUOUS
 10
11.2743293632
 20
6.74860943
 11
11.2743293632
 21
6.825883499
  0
LINE
  5
2F4
100
AcDbEntity
  8
0
100
AcDbLine
 62
4
  6
CONTINUOUS
 10
11.2743296451
 20
6.3545116588
 11
11.2743296451
 21
6.4317857278
  0
LINE
  5
2F5
100
AcDbEntity
  8
0
100
AcDbLine
 62
4
  6
CONTINUOUS
 10
11.307446824
 20
6.7959889128
 11
11.307446824
 21
6.7463127263
  0
LINE
  5
2F6
100
AcDbEntity
  8
0
100
AcDbLine
 62
4
  6
CONTINUOUS
 10
11.3157263706
 20
6.5216437378
 11
11.3157263706
 21
6.5989178068
  0
LINE
  5
2F7
100
AcDbEntity
  8
0
100
AcDbLine
 62
4
  6
CONTINUOUS
 10
11.3184862533
 20
6.3514493876
 11
11.3184862533
 21
6.4287234566
  0
LINE
  5
2F8
100
AcDbEntity
  8
0
100
AcDbLine
 62
4
  6
CONTINUOUS
 10
11.3709221354
 20
6.5730116634
 11
11.3709221354
 21
6.5840508155
  0
LINE
  5
2F9
100
AcDbEntity
  8
0
100
AcDbLine
 62
4
  6
CONTINUOUS
 10
11.3773614675
 20
6.7469837059
 11
11.3773614675
 21
6.7911403159
  0
LINE
  5
2FA
100
AcDbEntity
  8
0
100
AcDbLine
 62
4
  6
CONTINUOUS
 10
11.4095591699
 20
6.5261755643
 11
11.4095591699
 21
6.5372147175
  0
LINE
  5
2FB
100
AcDbEntity
  8
0
100
AcDbLine
 62
4
  6
CONTINUOUS
 10
11.4104789098
 20
6.8164414959
 11
11.4104789098
 21
6.7391674269
  0
LINE
  5
2FC
100
AcDbEntity
  8
0
100
AcDbLine
 62
4
  6
CONTINUOUS
 10
11.431637474
 20
6.5136052755
 11
11.431637474
 21
6.5908793445
  0
LINE
  5
2FD
100
AcDbEntity
  8
0
100
AcDbLine
 62
4
  6
CONTINUOUS
 10
11.4325572415
 20
6.7376362894
 11
11.4325572415
 21
6.7928320542
  0
LINE
  5
2FE
100
AcDbEntity
  8
0
100
AcDbLine
 62
4
  6
CONTINUOUS
 10
11.4343973752
 20
6.3544500772
 11
11.4343973752
 21
6.4096458409
  0
LINE
  5
2FF
100
AcDbEntity
  8
0
100
AcDbLine
 62
4
  6
CONTINUOUS
 10
11.4583152399
 20
6.7855261527
 11
11.4583152399
 21
6.7744870006
  0
LINE
  5
300
100
AcDbEntity
  8
0
100
AcDbLine
 62
4
  6
CONTINUOUS
 10
11.4702745085
 20
6.577160705
 11
11.4702745085
 21
6.5219649413
  0
LINE
  5
301
100
AcDbEntity
  8
0
100
AcDbLine
 62
4
  6
CONTINUOUS
 10
11.4822334234
 20
6.7397108111
 11
11.4822334234
 21
6.7562695409
  0
LINE
  5
302
100
AcDbEntity
  8
0
100
AcDbLine
 62
4
  6
CONTINUOUS
 10
10.6588967057
 20
6.1634381797
 11
10.6951189256
 21
6.2768372636
  0
LINE
  5
303
100
AcDbEntity
  8
0
100
AcDbLine
 62
4
  6
CONTINUOUS
 10
11.4987924081
 20
6.3499842665
 11
11.4987924081
 21
6.4051800302
  0
LINE
  5
304
100
AcDbEntity
  8
0
100
AcDbLine
 62
4
  6
CONTINUOUS
 10
11.5153508658
 20
6.731894532
 11
11.5153508658
 21
6.7760511449
  0
LINE
  5
305
100
AcDbEntity
  8
0
100
AcDbLine
 62
4
  6
CONTINUOUS
 10
11.5374291607
 20
6.785559162
 11
11.5374291607
 21
6.7358829737
  0
LINE
  5
306
100
AcDbEntity
  8
0
100
AcDbLine
 62
4
  6
CONTINUOUS
 10
11.5374294425
 20
6.4025005428
 11
11.5374294425
 21
6.3473047791
  0
LINE
  5
307
100
AcDbEntity
  8
0
100
AcDbLine
 62
4
  6
CONTINUOUS
 10
11.5595077374
 20
6.3347344909
 11
11.5595077374
 21
6.4120085599
  0
LINE
  5
308
100
AcDbEntity
  8
0
100
AcDbLine
 62
4
  6
CONTINUOUS
 10
11.5705466398
 20
6.7280666921
 11
11.5705466398
 21
6.783262457
  0
LINE
  5
309
100
AcDbEntity
  8
0
100
AcDbLine
 62
4
  6
CONTINUOUS
 10
11.5926249347
 20
6.7320551338
 11
11.5926249347
 21
6.8038096261
  0
LINE
  5
30A
100
AcDbEntity
  8
0
100
AcDbLine
 62
4
  6
CONTINUOUS
 10
11.5981447719
 20
6.3982899204
 11
11.5981447719
 21
6.3430941567
  0
LINE
  5
30B
100
AcDbEntity
  8
0
100
AcDbLine
 62
4
  6
CONTINUOUS
 10
11.6294223993
 20
6.3298858927
 11
11.6294223993
 21
6.4071599616
  0
LINE
  5
30C
100
AcDbEntity
  8
0
100
AcDbLine
 62
4
  6
CONTINUOUS
 10
11.6423011167
 20
6.7230905022
 11
11.6423011167
 21
6.7782862671
  0
LINE
  5
30D
100
AcDbEntity
  8
0
100
AcDbLine
 62
4
  6
CONTINUOUS
 10
11.6423011167
 20
6.7948449929
 11
11.6423011167
 21
6.8003645712
  0
LINE
  5
30E
100
AcDbEntity
  8
0
100
AcDbLine
 62
4
  6
CONTINUOUS
 10
11.6717388555
 20
6.7265685647
 11
11.6717388555
 21
6.7707251747
  0
LINE
  5
30F
100
AcDbEntity
  8
0
100
AcDbLine
 62
4
  6
CONTINUOUS
 10
11.7214150742
 20
6.7507213891
 11
11.7214150742
 21
6.7672801172
  0
LINE
  5
310
100
AcDbEntity
  8
0
100
AcDbLine
 62
4
  6
CONTINUOUS
 10
11.7545324797
 20
6.7208268074
 11
11.7545324797
 21
6.7373855372
  0
LINE
  5
311
100
AcDbEntity
  8
0
100
AcDbLine
 62
4
  6
CONTINUOUS
 10
11.1860164195
 20
6.3606362018
 11
11.2080947236
 21
6.4363791352
  0
LINE
  5
312
100
AcDbEntity
  8
0
100
AcDbLine
 62
4
  6
CONTINUOUS
 10
11.3405642847
 20
6.7256174347
 11
11.3626425796
 21
6.7976806525
  0
LINE
  5
313
100
AcDbEntity
  8
0
100
AcDbLine
 62
4
  6
CONTINUOUS
 10
11.6441409684
 20
6.800236977
 11
11.6423011167
 21
6.7948449929
  0
LINE
  5
314
100
AcDbEntity
  8
0
100
AcDbLine
 62
7
  6
CONTINUOUS
 10
10.0895141994
 20
10.786582107
 11
10.1362855918
 21
10.7414044884
  0
LINE
  5
315
100
AcDbEntity
  8
0
100
AcDbLine
 62
4
  6
CONTINUOUS
 10
12.5110594938
 20
8.1832092104
 11
12.4965706059
 21
8.2035325343
  0
LINE
  5
316
100
AcDbEntity
  8
0
100
AcDbLine
 62
4
  6
CONTINUOUS
 10
12.5038150498
 20
8.2416671695
 11
12.4965706059
 21
8.2518288297
  0
LINE
  5
317
100
AcDbEntity
  8
0
100
AcDbLine
 62
4
  6
CONTINUOUS
 10
12.4965706059
 20
8.2035325343
 11
12.5038150498
 21
8.2126893936
  0
LINE
  5
318
100
AcDbEntity
  8
0
100
AcDbLine
 62
4
  6
CONTINUOUS
 10
11.0314680089
 20
6.8316868391
 11
11.0425071621
 21
6.8419604232
  0
LINE
  5
319
100
AcDbEntity
  8
0
100
AcDbLine
 62
4
  6
CONTINUOUS
 10
11.0590658914
 20
6.7635380025
 11
11.0701050434
 21
6.7738115879
  0
LINE
  5
31A
100
AcDbEntity
  8
0
100
AcDbLine
 62
4
  6
CONTINUOUS
 10
11.1197812345
 20
6.7593273792
 11
11.130820382
 21
6.7696009649
  0
LINE
  5
31B
100
AcDbEntity
  8
02___PRT_ALL_AXES
100
AcDbLine
 62
7
  6
CONTINUOUS
 10
10.5661035584
 20
10.7508195922
 11
10.5208222022
 21
10.7929586477
  0
LINE
  5
31C
100
AcDbEntity
  8
0
100
AcDbLine
 62
7
  6
CONTINUOUS
 10
10.4386203575
 20
10.7623715127
 11
10.3918489651
 21
10.8075491313
  0
LINE
  5
31D
100
AcDbEntity
  8
0
100
AcDbLine
 62
4
  6
CONTINUOUS
 10
11.1925707548
 20
10.2412718986
 11
11.1998151988
 21
10.2311102315
  0
LINE
  5
31E
100
AcDbEntity
  8
0
100
AcDbLine
 62
4
  6
CONTINUOUS
 10
12.4458594981
 20
8.255345657
 11
12.4458594981
 21
8.1394345535
  0
LINE
  5
31F
100
AcDbEntity
  8
0
100
AcDbLine
 62
4
  6
CONTINUOUS
 10
12.5038150498
 20
8.2126893936
 11
12.5038150498
 21
8.2416671695
  0
LINE
  5
320
100
AcDbEntity
  8
0
100
AcDbLine
 62
4
  6
CONTINUOUS
 10
12.5110594938
 20
8.1542314363
 11
12.5110594938
 21
8.1832092104
  0
LINE
  5
321
100
AcDbEntity
  8
0
100
AcDbLine
 62
4
  6
CONTINUOUS
 10
12.4965706059
 20
8.1359177263
 11
12.5110594938
 21
8.1542314363
  0
LINE
  5
322
100
AcDbEntity
  8
0
100
AcDbLine
 62
4
  6
CONTINUOUS
 10
11.1780818669
 20
10.2519359627
 11
11.1925707548
 21
10.2412718986
  0
LINE
  5
323
100
AcDbEntity
  8
0
100
AcDbLine
 62
7
  6
CONTINUOUS
 10
12.6487039701
 20
10.2658590769
 11
12.6487039701
 21
5.919192601
  0
LINE
  5
324
100
AcDbEntity
  8
0
100
AcDbLine
 62
4
  6
CONTINUOUS
 10
11.3709221354
 20
6.5840508155
 11
11.3819612875
 21
6.5943243997
  0
LINE
  5
325
100
AcDbEntity
  8
0
100
AcDbLine
 62
4
  6
CONTINUOUS
 10
11.1547388197
 20
6.3738444639
 11
11.1436996677
 21
6.3635708785
  0
LINE
  5
326
100
AcDbEntity
  8
0
100
AcDbLine
 62
4
  6
CONTINUOUS
 10
11.6717388555
 20
6.7707251747
 11
11.6772584108
 21
6.7758619705
  0
LINE
  5
327
100
AcDbEntity
  8
0
100
AcDbLine
 62
4
  6
CONTINUOUS
 10
11.3985200132
 20
6.5159019792
 11
11.4095591699
 21
6.5261755643
  0
LINE
  5
328
100
AcDbEntity
  8
0
100
AcDbLine
 62
4
  6
CONTINUOUS
 10
11.7214150742
 20
6.7672801172
 11
11.7269346295
 21
6.7724169131
  0
LINE
  5
329
100
AcDbEntity
  8
0
100
AcDbLine
 62
4
  6
CONTINUOUS
 10
11.4702745085
 20
6.5219649413
 11
11.4592353518
 21
6.5116913562
  0
LINE
  5
32A
100
AcDbEntity
  8
0
100
AcDbLine
 62
4
  6
CONTINUOUS
 10
11.7490129244
 20
6.7156900132
 11
11.7545324797
 21
6.7208268074
  0
LINE
  5
32B
100
AcDbEntity
  8
0
100
AcDbLine
 62
4
  6
CONTINUOUS
 10
11.4343973752
 20
6.4096458409
 11
11.4454365226
 21
6.4199194255
  0
LINE
  5
32C
100
AcDbEntity
  8
0
100
AcDbLine
 62
4
  6
CONTINUOUS
 10
11.3773614675
 20
6.7911403159
 11
11.3884006149
 21
6.7958943267
  0
LINE
  5
32D
100
AcDbEntity
  8
0
100
AcDbLine
 62
4
  6
CONTINUOUS
 10
11.4822334234
 20
6.7562695409
 11
11.4932725709
 21
6.7610235494
  0
LINE
  5
32E
100
AcDbEntity
  8
0
100
AcDbLine
 62
4
  6
CONTINUOUS
 10
11.1780818669
 20
10.193980411
 11
11.141859647
 21
10.1964924305
  0
LINE
  5
32F
100
AcDbEntity
  8
0
100
AcDbLine
 62
4
  6
CONTINUOUS
 10
11.141859647
 20
10.2544479822
 11
11.1780818669
 21
10.2519359627
  0
LINE
  5
330
100
AcDbEntity
  8
0
100
AcDbLine
 62
4
  6
CONTINUOUS
 10
11.4987924081
 20
6.4051800302
 11
11.5098315555
 21
6.4154536148
  0
LINE
  5
331
100
AcDbEntity
  8
0
100
AcDbLine
 62
4
  6
CONTINUOUS
 10
11.5374294425
 20
6.3473047791
 11
11.5263902951
 21
6.3370311934
  0
LINE
  5
332
100
AcDbEntity
  8
0
100
AcDbLine
 62
4
  6
CONTINUOUS
 10
11.5981447719
 20
6.3430941567
 11
11.5871056245
 21
6.332820571
  0
LINE
  5
333
100
AcDbEntity
  8
0
100
AcDbLine
 62
4
  6
CONTINUOUS
 10
11.1013829181
 20
6.4143418852
 11
11.071945177
 21
6.4016645278
  0
LINE
  5
334
100
AcDbEntity
  8
0
100
AcDbLine
 62
7
  6
CONTINUOUS
 10
8.785000436
 20
10.533807827
 11
12.6487039701
 21
10.2658590769
  0
LINE
  5
335
100
AcDbEntity
  8
0
100
AcDbLine
 62
7
  6
CONTINUOUS
 10
13.214999564
 20
10.8128586488
 11
13.214999564
 21
6.466192173
  0
LINE
  5
336
100
AcDbEntity
  8
0
100
AcDbLine
 62
4
  6
CONTINUOUS
 10
11.7140558753
 20
6.3571339996
 11
11.6846181365
 21
6.3444566432
  0
LINE
  5
337
100
AcDbEntity
  8
0
100
AcDbLine
 62
7
  6
CONTINUOUS
 10
10.1362855918
 20
10.7414044884
 11
10.3108386708
 21
10.7292991913
  0
LINE
  5
338
100
AcDbEntity
  8
0
100
AcDbLine
 62
7
  6
CONTINUOUS
 10
10.3918489651
 20
10.8075491313
 11
10.217295886
 21
10.8196544285
  0
LINE
  5
339
100
AcDbEntity
  8
0
100
AcDbLine
 62
7
  6
CONTINUOUS
 10
10.3108386708
 20
10.7292991913
 11
10.4386203575
 21
10.7623715127
  0
LINE
  5
33A
100
AcDbEntity
  8
0
100
AcDbLine
 62
7
  6
CONTINUOUS
 10
10.217295886
 20
10.8196544285
 11
10.0895141994
 21
10.786582107
  0
LINE
  5
33B
100
AcDbEntity
  8
0
100
AcDbLine
 62
7
  6
CONTINUOUS
 10
9.3512960299
 20
11.080807399
 11
13.214999564
 21
10.8128586488
  0
LINE
  5
33C
100
AcDbEntity
  8
0
100
AcDbLine
 62
7
  6
CONTINUOUS
 10
12.6487039701
 20
5.919192601
 11
13.214999564
 21
6.466192173
  0
ARC
  5
33D
100
AcDbEntity
  8
0
100
AcDbCircle
 62
7
  6
CONTINUOUS
 10
10.2225064983
 20
8.21292412
 40
0.1932459114
100
AcDbArc
 50
260.7987006577
 51
262.2720444388
  0
ARC
  5
33E
100
AcDbEntity
  8
0
100
AcDbCircle
 62
7
  6
CONTINUOUS
 10
10.3052258273
 20
8.175217655
 40
0.1883235737
100
AcDbArc
 50
234.7447758223
 51
253.8245865288
  0
ARC
  5
33F
100
AcDbEntity
  8
0
100
AcDbCircle
 62
7
  6
CONTINUOUS
 10
10.3036681585
 20
8.1141379507
 40
0.1449725511
100
AcDbArc
 50
215.8004418253
 51
219.3768224367
  0
ARC
  5
340
100
AcDbEntity
  8
0
100
AcDbCircle
 62
7
  6
CONTINUOUS
 10
10.0989780287
 20
9.3477181255
 40
0.1204890005
100
AcDbArc
 50
216.0335857955
 51
232.0498253923
  0
ARC
  5
341
100
AcDbEntity
  8
0
100
AcDbCircle
 62
7
  6
CONTINUOUS
 10
12.1506046753
 20
9.2054373343
 40
0.1204890005
100
AcDbArc
 50
216.0335857955
 51
232.0498253923
  0
ARC
  5
342
100
AcDbEntity
  8
0
100
AcDbCircle
 62
7
  6
CONTINUOUS
 10
12.1506046753
 20
7.4542137424
 40
0.1204890005
100
AcDbArc
 50
216.0335857955
 51
232.0498253923
  0
ARC
  5
343
100
AcDbEntity
  8
0
100
AcDbCircle
 62
7
  6
CONTINUOUS
 10
10.0989780287
 20
7.5964945336
 40
0.1204890005
100
AcDbArc
 50
216.0335857955
 51
232.0498253923
  0
SPLINE
  5
344
100
AcDbEntity
  8
02___PRT_ALL_AXES
100
AcDbSpline
 62
7
  6
CONTINUOUS
 70
0
 71
3
 72
53
 73
49
 74
0
 42
0.0000001
 43
0.0000001
 44
0.0000000001
 40
0.0
 40
0.0
 40
0.0
 40
0.0
 40
0.0077399799
 40
0.016052723
 40
0.0249584452
 40
0.0344694493
 40
0.0445919455
 40
0.0553282332
 40
0.0666760418
 40
0.0786293088
 40
0.0911799795
 40
0.1043171166
 40
0.1180270071
 40
0.1322948172
 40
0.1471037888
 40
0.1624349045
 40
0.1945821942
 40
0.228562875
 40
0.2641846289
 40
0.3012393068
 40
0.3395067188
 40
0.3787566322
 40
0.4187502166
 40
0.4592430662
 40
0.4999866025
 40
0.5407302327
 40
0.5812234957
 40
0.621217678
 40
0.6604684099
 40
0.6987370149
 40
0.7357929206
 40
0.771416211
 40
0.8053987248
 40
0.8375477888
 40
0.852880078
 40
0.867690042
 40
0.881958799
 40
0.8956699692
 40
0.908808293
 40
0.9213600874
 40
0.9333147703
 40
0.9446636624
 40
0.955400558
 40
0.9655241806
 40
0.9750369576
 40
0.9839452147
 40
0.9922603618
 40
1.0
 40
1.0
 40
1.0
 40
1.0
 10
10.5208243414
 20
10.7929565582
 30
0.0
 10
10.5198220443
 20
10.7938893553
 30
0.0
 10
10.517664452
 20
10.7957402984
 30
0.0
 10
10.5141250404
 20
10.7983840808
 30
0.0
 10
10.5101751609
 20
10.8009878407
 30
0.0
 10
10.505821414
 20
10.8035476039
 30
0.0
 10
10.5010706818
 20
10.8060597043
 30
0.0
 10
10.495930352
 20
10.8085197976
 30
0.0
 10
10.4904087208
 20
10.8109240047
 30
0.0
 10
10.4845148133
 20
10.8132686412
 30
0.0
 10
10.4782580708
 20
10.8155495876
 30
0.0
 10
10.4716486953
 20
10.8177630864
 30
0.0
 10
10.4646975786
 20
10.8199057349
 30
0.0
 10
10.457416028
 20
10.8219737669
 30
0.0
 10
10.4498159543
 20
10.8239637271
 30
0.0
 10
10.4391045179
 20
10.8265497562
 30
0.0
 10
10.4250067929
 20
10.8295486189
 30
0.0
 10
10.4072888202
 20
10.8327342827
 30
0.0
 10
10.3886284866
 20
10.8355395223
 30
0.0
 10
10.3691485247
 20
10.8379458572
 30
0.0
 10
10.3489769035
 20
10.8399371521
 30
0.0
 10
10.3282462963
 20
10.8414998232
 30
0.0
 10
10.3070931267
 20
10.8426236842
 30
0.0
 10
10.2856566629
 20
10.8433011571
 30
0.0
 10
10.2640780307
 20
10.8435275305
 30
0.0
 10
10.2424993221
 20
10.8433015651
 30
0.0
 10
10.2210626456
 20
10.8426246288
 30
0.0
 10
10.1999091308
 20
10.8415011473
 30
0.0
 10
10.1791780308
 20
10.8399388907
 30
0.0
 10
10.1590057839
 20
10.8379480975
 30
0.0
 10
10.1395250758
 20
10.8355420888
 30
0.0
 10
10.1208638619
 20
10.8327372499
 30
0.0
 10
10.1031448821
 20
10.8295520343
 30
0.0
 10
10.0890462593
 20
10.8265533359
 30
0.0
 10
10.0783340269
 20
10.8239676366
 30
0.0
 10
10.0707333435
 20
10.8219778275
 30
0.0
 10
10.0634511763
 20
10.8199098852
 30
0.0
 10
10.0564993573
 20
10.8177674682
 30
0.0
 10
10.0498892678
 20
10.8155540961
 30
0.0
 10
10.0436318288
 20
10.8132731383
 30
0.0
 10
10.0377371572
 20
10.8109286943
 30
0.0
 10
10.0322148342
 20
10.8085246954
 30
0.0
 10
10.027073894
 20
10.8060647262
 30
0.0
 10
10.0223223366
 20
10.8035528654
 30
0.0
 10
10.0179675039
 20
10.8009930393
 30
0.0
 10
10.0140165569
 20
10.7983887424
 30
0.0
 10
10.010476157
 20
10.795744942
 30
0.0
 10
10.0083179271
 20
10.7938941801
 30
0.0
 10
10.0073155317
 20
10.7929615775
 30
0.0
  0
SPLINE
  5
345
100
AcDbEntity
  8
02___PRT_ALL_AXES
100
AcDbSpline
 62
7
  6
CONTINUOUS
 70
0
 71
3
 72
23
 73
19
 74
0
 42
0.0000001
 43
0.0000001
 44
0.0000000001
 40
0.0
 40
0.0
 40
0.0
 40
0.0
 40
0.0736647739
 40
0.1430936487
 40
0.2086368851
 40
0.270728476
 40
0.3299061921
 40
0.3868212682
 40
0.4422124387
 40
0.4968853293
 40
0.5516797762
 40
0.6074264519
 40
0.6649107162
 40
0.7248454407
 40
0.7878484149
 40
0.8544372545
 40
0.9250392237
 40
1.0
 40
1.0
 40
1.0
 40
1.0
 10
10.5214865264
 20
10.7566247244
 30
0.0
 10
10.5222294846
 20
10.7573423669
 30
0.0
 10
10.5236283185
 20
10.7587836001
 30
0.0
 10
10.5255051051
 20
10.7610317193
 30
0.0
 10
10.5270934517
 20
10.7632974091
 30
0.0
 10
10.5283903286
 20
10.765578395
 30
0.0
 10
10.5293927632
 20
10.7678725509
 30
0.0
 10
10.5300987806
 20
10.7701771075
 30
0.0
 10
10.5305064511
 20
10.7724890641
 30
0.0
 10
10.5306140283
 20
10.7748047257
 30
0.0
 10
10.5304210957
 20
10.7771197869
 30
0.0
 10
10.5299288166
 20
10.7794300793
 30
0.0
 10
10.5291388204
 20
10.7817319875
 30
0.0
 10
10.5280528857
 20
10.784022374
 30
0.0
 10
10.5266736492
 20
10.7862988972
 30
0.0
 10
10.5250036903
 20
10.7885597103
 30
0.0
 10
10.523045322
 20
10.7908027985
 30
0.0
 10
10.5215938002
 20
10.7922404543
 30
0.0
 10
10.5208243414
 20
10.7929565582
 30
0.0
  0
SPLINE
  5
346
100
AcDbEntity
  8
02___PRT_ALL_AXES
100
AcDbSpline
 62
7
  6
CONTINUOUS
 70
0
 71
3
 72
65
 73
61
 74
0
 42
0.0000001
 43
0.0000001
 44
0.0000000001
 40
0.0
 40
0.0
 40
0.0
 40
0.0
 40
0.0085723643
 40
0.0179216492
 40
0.028075836
 40
0.0390510583
 40
0.0508543353
 40
0.0634854152
 40
0.0769350466
 40
0.0911887195
 40
0.1062274279
 40
0.12202723
 40
0.1385618321
 40
0.155800725
 40
0.173710824
 40
0.1922570097
 40
0.2311015457
 40
0.2720099855
 40
0.3146293227
 40
0.3585850938
 40
0.4034868485
 40
0.4489330893
 40
0.4945159341
 40
0.539825804
 40
0.5844563686
 40
0.6280093224
 40
0.6700990768
 40
0.6904799306
 40
0.7103589787
 40
0.7296934978
 40
0.7484431242
 40
0.7665694983
 40
0.7840357804
 40
0.8008086952
 40
0.816856703
 40
0.8321517329
 40
0.8466695772
 40
0.8603888695
 40
0.873294161
 40
0.8853744714
 40
0.8966253416
 40
0.9070510522
 40
0.9166644869
 40
0.9254924047
 40
0.9335772687
 40
0.9409822728
 40
0.9477979984
 40
0.9510239551
 40
0.9541509498
 40
0.9571994606
 40
0.9601916759
 40
0.9631511386
 40
0.9661022669
 40
0.9690697863
 40
0.9720780213
 40
0.9751502274
 40
0.9783081443
 40
0.9849539939
 40
0.9921525476
 40
1.0
 40
1.0
 40
1.0
 40
1.0
 10
10.5214865264
 20
10.7566247244
 30
0.0
 10
10.5203074848
 20
10.7554858576
 30
0.0
 10
10.517720274
 20
10.7532299178
 30
0.0
 10
10.5133959415
 20
10.7500404029
 30
0.0
 10
10.5084747207
 20
10.7469102316
 30
0.0
 10
10.5029686916
 20
10.7438473031
 30
0.0
 10
10.4968904085
 20
10.7408576958
 30
0.0
 10
10.4902534964
 20
10.7379487397
 30
0.0
 10
10.483073521
 20
10.735126718
 30
0.0
 10
10.4753673552
 20
10.7323986803
 30
0.0
 10
10.4671532881
 20
10.7297714588
 30
0.0
 10
10.458450966
 20
10.7272509239
 30
0.0
 10
10.4492810779
 20
10.7248436677
 30
0.0
 10
10.439665627
 20
10.7225552108
 30
0.0
 10
10.4296276348
 20
10.7203910797
 30
0.0
 10
10.4154933704
 20
10.717636269
 30
0.0
 10
10.3969451323
 20
10.7145601905
 30
0.0
 10
10.3737426773
 20
10.7114925449
 30
0.0
 10
10.3494863694
 20
10.7090243847
 30
0.0
 10
10.3244092925
 20
10.7071798788
 30
0.0
 10
10.2987522403
 20
10.7059771568
 30
0.0
 10
10.272761783
 20
10.7054280329
 30
0.0
 10
10.2466877345
 20
10.7055379515
 30
0.0
 10
10.2207807745
 20
10.7063058765
 30
0.0
 10
10.1952898554
 20
10.7077241595
 30
0.0
 10
10.1704600922
 20
10.7097789526
 30
0.0
 10
10.1503074667
 20
10.7120280052
 30
0.0
 10
10.1347020221
 20
10.714141636
 30
0.0
 10
10.1234349763
 20
10.7158546258
 30
0.0
 10
10.1125064742
 20
10.7177084022
 30
0.0
 10
10.1019427685
 20
10.719698428
 30
0.0
 10
10.0917692303
 20
10.7218196535
 30
0.0
 10
10.0820103249
 20
10.7240673639
 30
0.0
 10
10.0726894172
 20
10.726435647
 30
0.0
 10
10.0638288484
 20
10.728919018
 30
0.0
 10
10.055449825
 20
10.7315115184
 30
0.0
 10
10.047572245
 20
10.7342064834
 30
0.0
 10
10.0402149371
 20
10.7369979724
 30
0.0
 10
10.0333951667
 20
10.7398788001
 30
0.0
 10
10.0271289148
 20
10.7428422672
 30
0.0
 10
10.0214308342
 20
10.7458817262
 30
0.0
 10
10.0163136517
 20
10.7489896611
 30
0.0
 10
10.0117891522
 20
10.7521600888
 30
0.0
 10
10.0078671474
 20
10.7553861908
 30
0.0
 10
10.0045561792
 20
10.7586626703
 30
0.0
 10
10.0018653017
 20
10.7619845815
 30
0.0
 10
10.0001147277
 20
10.7648394976
 30
0.0
 10
9.9990573276
 20
10.7671275921
 30
0.0
 10
9.9984388689
 20
10.7688179949
 30
0.0
 10
9.9979811089
 20
10.7705126638
 30
0.0
 10
9.9976844994
 20
10.7722104679
 30
0.0
 10
9.9975494551
 20
10.7739100916
 30
0.0
 10
9.9975763087
 20
10.7756101655
 30
0.0
 10
9.9977651519
 20
10.7773092743
 30
0.0
 10
9.998115529
 20
10.7790060775
 30
0.0
 10
9.9986270162
 20
10.7806994334
 30
0.0
 10
9.9995382315
 20
10.782989586
 30
0.0
 10
10.0011076886
 20
10.7858526352
 30
0.0
 10
10.0035903839
 20
10.7891883638
 30
0.0
 10
10.0055686932
 20
10.7912863355
 30
0.0
 10
10.0066480305
 20
10.7923288954
 30
0.0
  0
SPLINE
  5
347
100
AcDbEntity
  8
0
100
AcDbSpline
 62
7
  6
CONTINUOUS
 70
0
 71
3
 72
21
 73
17
 74
0
 42
0.0000001
 43
0.0000001
 44
0.0000000001
 40
0.0
 40
0.0
 40
0.0
 40
0.0
 40
0.1273176984
 40
0.2537999461
 40
0.3167619614
 40
0.3795355204
 40
0.4421314992
 40
0.5045621453
 40
0.5668413456
 40
0.6289845231
 40
0.6910084433
 40
0.7529310869
 40
0.8147714401
 40
0.8765493236
 40
0.9382852134
 40
1.0
 40
1.0
 40
1.0
 40
1.0
 10
9.4196137352
 20
10.0667217145
 30
0.0
 10
9.4196137352
 20
10.0599769064
 30
0.0
 10
9.4189698982
 20
10.046522867
 30
0.0
 10
9.416538307
 20
10.0298907699
 30
0.0
 10
9.4136320399
 20
10.0168443463
 30
0.0
 10
9.410981676
 20
10.0072212978
 30
0.0
 10
9.4078636813
 20
9.9977692461
 30
0.0
 10
9.4042852445
 20
9.9885097115
 30
0.0
 10
9.4002546159
 20
9.9794641101
 30
0.0
 10
9.395781008
 20
9.9706533186
 30
0.0
 10
9.3908747699
 20
9.962097647
 30
0.0
 10
9.3855472162
 20
9.9538168131
 30
0.0
 10
9.3798105818
 20
9.9458299785
 30
0.0
 10
9.3736780606
 20
9.938155486
 30
0.0
 10
9.3671640671
 20
9.9308112478
 30
0.0
 10
9.3625761744
 20
9.9261457552
 30
0.0
 10
9.3602246257
 20
9.9238743474
 30
0.0
  0
SPLINE
  5
348
100
AcDbEntity
  8
0
100
AcDbSpline
 62
7
  6
CONTINUOUS
 70
0
 71
3
 72
21
 73
17
 74
0
 42
0.0000001
 43
0.0000001
 44
0.0000000001
 40
0.0
 40
0.0
 40
0.0
 40
0.0
 40
0.1273176984
 40
0.2537999461
 40
0.3167619614
 40
0.3795355204
 40
0.4421314992
 40
0.5045621453
 40
0.5668413456
 40
0.6289845231
 40
0.6910084433
 40
0.7529310869
 40
0.8147714401
 40
0.8765493236
 40
0.9382852134
 40
1.0
 40
1.0
 40
1.0
 40
1.0
 10
12.4371662366
 20
9.8574537378
 30
0.0
 10
12.4371662366
 20
9.8507089297
 30
0.0
 10
12.4365223996
 20
9.8372548902
 30
0.0
 10
12.4340908083
 20
9.8206227932
 30
0.0
 10
12.4311845412
 20
9.8075763695
 30
0.0
 10
12.4285341773
 20
9.7979533211
 30
0.0
 10
12.4254161826
 20
9.7885012693
 30
0.0
 10
12.4218377459
 20
9.7792417348
 30
0.0
 10
12.4178071172
 20
9.7701961334
 30
0.0
 10
12.4133335093
 20
9.7613853418
 30
0.0
 10
12.4084272712
 20
9.7528296703
 30
0.0
 10
12.4030997176
 20
9.7445488364
 30
0.0
 10
12.3973630832
 20
9.7365620018
 30
0.0
 10
12.3912305619
 20
9.7288875093
 30
0.0
 10
12.3847165685
 20
9.721543271
 30
0.0
 10
12.3801286757
 20
9.7168777784
 30
0.0
 10
12.377777127
 20
9.7146063707
 30
0.0
  0
SPLINE
  5
349
100
AcDbEntity
  8
0
100
AcDbSpline
 62
7
  6
CONTINUOUS
 70
0
 71
3
 72
21
 73
17
 74
0
 42
0.0000001
 43
0.0000001
 44
0.0000000001
 40
0.0
 40
0.0
 40
0.0
 40
0.0
 40
0.1273176984
 40
0.2537999461
 40
0.3167619614
 40
0.3795355204
 40
0.4421314992
 40
0.5045621453
 40
0.5668413456
 40
0.6289845231
 40
0.6910084433
 40
0.7529310869
 40
0.8147714401
 40
0.8765493236
 40
0.9382852134
 40
1.0
 40
1.0
 40
1.0
 40
1.0
 10
12.4371662366
 20
6.3569385249
 30
0.0
 10
12.4371662366
 20
6.3501937168
 30
0.0
 10
12.4365223996
 20
6.3367396774
 30
0.0
 10
12.4340908083
 20
6.3201075804
 30
0.0
 10
12.4311845412
 20
6.3070611567
 30
0.0
 10
12.4285341773
 20
6.2974381083
 30
0.0
 10
12.4254161826
 20
6.2879860565
 30
0.0
 10
12.4218377459
 20
6.278726522
 30
0.0
 10
12.4178071172
 20
6.2696809206
 30
0.0
 10
12.4133335093
 20
6.260870129
 30
0.0
 10
12.4084272712
 20
6.2523144575
 30
0.0
 10
12.4030997176
 20
6.2440336236
 30
0.0
 10
12.3973630832
 20
6.236046789
 30
0.0
 10
12.3912305619
 20
6.2283722965
 30
0.0
 10
12.3847165685
 20
6.2210280582
 30
0.0
 10
12.3801286757
 20
6.2163625656
 30
0.0
 10
12.377777127
 20
6.2140911579
 30
0.0
  0
SPLINE
  5
34A
100
AcDbEntity
  8
0
100
AcDbSpline
 62
7
  6
CONTINUOUS
 70
0
 71
3
 72
21
 73
17
 74
0
 42
0.0000001
 43
0.0000001
 44
0.0000000001
 40
0.0
 40
0.0
 40
0.0
 40
0.0
 40
0.1273176984
 40
0.2537999461
 40
0.3167619614
 40
0.3795355204
 40
0.4421314992
 40
0.5045621453
 40
0.5668413456
 40
0.6289845231
 40
0.6910084433
 40
0.7529310869
 40
0.8147714401
 40
0.8765493236
 40
0.9382852134
 40
1.0
 40
1.0
 40
1.0
 40
1.0
 10
9.4196137352
 20
6.5662065017
 30
0.0
 10
9.4196137352
 20
6.5594616936
 30
0.0
 10
9.4189698982
 20
6.5460076542
 30
0.0
 10
9.416538307
 20
6.5293755571
 30
0.0
 10
9.4136320399
 20
6.5163291335
 30
0.0
 10
9.410981676
 20
6.506706085
 30
0.0
 10
9.4078636813
 20
6.4972540333
 30
0.0
 10
9.4042852445
 20
6.4879944987
 30
0.0
 10
9.4002546159
 20
6.4789488973
 30
0.0
 10
9.395781008
 20
6.4701381057
 30
0.0
 10
9.3908747699
 20
6.4615824342
 30
0.0
 10
9.3855472162
 20
6.4533016003
 30
0.0
 10
9.3798105818
 20
6.4453147657
 30
0.0
 10
9.3736780606
 20
6.4376402732
 30
0.0
 10
9.3671640671
 20
6.430296035
 30
0.0
 10
9.3625761744
 20
6.4256305424
 30
0.0
 10
9.3602246257
 20
6.4233591346
 30
0.0
  0
SPLINE
  5
34B
100
AcDbEntity
  8
0
100
AcDbSpline
 62
7
  6
CONTINUOUS
 70
0
 71
3
 72
21
 73
17
 74
0
 42
0.0000001
 43
0.0000001
 44
0.0000000001
 40
0.0
 40
0.0
 40
0.0
 40
0.0
 40
0.1273176984
 40
0.2537999461
 40
0.3167619614
 40
0.3795355204
 40
0.4421314992
 40
0.5045621453
 40
0.5668413456
 40
0.6289845231
 40
0.6910084433
 40
0.7529310869
 40
0.8147714401
 40
0.8765493236
 40
0.9382852134
 40
1.0
 40
1.0
 40
1.0
 40
1.0
 10
11.1698714424
 20
8.8596401959
 30
0.0
 10
11.1698714424
 20
8.8528953878
 30
0.0
 10
11.1692276054
 20
8.8394413484
 30
0.0
 10
11.1667960141
 20
8.8228092514
 30
0.0
 10
11.1638897471
 20
8.8097628277
 30
0.0
 10
11.1612393831
 20
8.8001397792
 30
0.0
 10
11.1581213884
 20
8.7906877275
 30
0.0
 10
11.1545429517
 20
8.781428193
 30
0.0
 10
11.150512323
 20
8.7723825916
 30
0.0
 10
11.1460387152
 20
8.7635718
 30
0.0
 10
11.141132477
 20
8.7550161285
 30
0.0
 10
11.1358049234
 20
8.7467352946
 30
0.0
 10
11.130068289
 20
8.73874846
 30
0.0
 10
11.1239357677
 20
8.7310739675
 30
0.0
 10
11.1174217743
 20
8.7237297292
 30
0.0
 10
11.1128338815
 20
8.7190642366
 30
0.0
 10
11.1104823328
 20
8.7167928289
 30
0.0
  0
SPLINE
  5
34C
100
AcDbEntity
  8
0
100
AcDbSpline
 62
7
  6
CONTINUOUS
 70
0
 71
3
 72
21
 73
17
 74
0
 42
0.0000001
 43
0.0000001
 44
0.0000000001
 40
0.0
 40
0.0
 40
0.0
 40
0.0
 40
0.1273176984
 40
0.2537999461
 40
0.3167619614
 40
0.3795355204
 40
0.4421314992
 40
0.5045621453
 40
0.5668413456
 40
0.6289845231
 40
0.6910084433
 40
0.7529310869
 40
0.8147714401
 40
0.8765493236
 40
0.9382852134
 40
1.0
 40
1.0
 40
1.0
 40
1.0
 10
10.7777055162
 20
8.3130771531
 30
0.0
 10
10.7777055162
 20
8.306332345
 30
0.0
 10
10.7770616792
 20
8.2928783056
 30
0.0
 10
10.7746300879
 20
8.2762462086
 30
0.0
 10
10.7717238208
 20
8.2631997849
 30
0.0
 10
10.7690734569
 20
8.2535767364
 30
0.0
 10
10.7659554622
 20
8.2441246847
 30
0.0
 10
10.7623770255
 20
8.2348651502
 30
0.0
 10
10.7583463968
 20
8.2258195488
 30
0.0
 10
10.7538727889
 20
8.2170087572
 30
0.0
 10
10.7489665508
 20
8.2084530857
 30
0.0
 10
10.7436389972
 20
8.2001722518
 30
0.0
 10
10.7379023628
 20
8.1921854172
 30
0.0
 10
10.7317698415
 20
8.1845109247
 30
0.0
 10
10.7252558481
 20
8.1771666864
 30
0.0
 10
10.7206679553
 20
8.1725011938
 30
0.0
 10
10.7183164066
 20
8.1702297861
 30
0.0
  0
SPLINE
  5
34D
100
AcDbEntity
  8
0
100
AcDbSpline
 62
7
  6
CONTINUOUS
 70
0
 71
3
 72
21
 73
17
 74
0
 42
0.0000001
 43
0.0000001
 44
0.0000000001
 40
0.0
 40
0.0
 40
0.0
 40
0.0
 40
0.1273176984
 40
0.2537999461
 40
0.3167619614
 40
0.3795355204
 40
0.4421314992
 40
0.5045621453
 40
0.5668413456
 40
0.6289845231
 40
0.6910084433
 40
0.7529310869
 40
0.8147714401
 40
0.8765493236
 40
0.9382852134
 40
1.0
 40
1.0
 40
1.0
 40
1.0
 10
11.5620372535
 20
8.2586835624
 30
0.0
 10
11.5620372535
 20
8.2519387543
 30
0.0
 10
11.5613934164
 20
8.2384847149
 30
0.0
 10
11.5589618252
 20
8.2218526178
 30
0.0
 10
11.5560555581
 20
8.2088061942
 30
0.0
 10
11.5534051942
 20
8.1991831457
 30
0.0
 10
11.5502871995
 20
8.189731094
 30
0.0
 10
11.5467087628
 20
8.1804715594
 30
0.0
 10
11.5426781341
 20
8.171425958
 30
0.0
 10
11.5382045262
 20
8.1626151665
 30
0.0
 10
11.5332982881
 20
8.1540594949
 30
0.0
 10
11.5279707345
 20
8.145778661
 30
0.0
 10
11.5222341
 20
8.1377918265
 30
0.0
 10
11.5161015788
 20
8.1301173339
 30
0.0
 10
11.5095875853
 20
8.1227730957
 30
0.0
 10
11.5049996926
 20
8.1181076031
 30
0.0
 10
11.5026481439
 20
8.1158361953
 30
0.0
  0
SPLINE
  5
34E
100
AcDbEntity
  8
0
100
AcDbSpline
 62
7
  6
CONTINUOUS
 70
0
 71
3
 72
21
 73
17
 74
0
 42
0.0000001
 43
0.0000001
 44
0.0000000001
 40
0.0
 40
0.0
 40
0.0
 40
0.0
 40
0.1273176984
 40
0.2537999461
 40
0.3167619614
 40
0.3795355204
 40
0.4421314992
 40
0.5045621453
 40
0.5668413456
 40
0.6289845231
 40
0.6910084433
 40
0.7529310869
 40
0.8147714401
 40
0.8765493236
 40
0.9382852134
 40
1.0
 40
1.0
 40
1.0
 40
1.0
 10
10.2638329987
 20
7.9266046872
 30
0.0
 10
10.2638329987
 20
7.9198598791
 30
0.0
 10
10.2631891616
 20
7.9064058396
 30
0.0
 10
10.2607575704
 20
7.8897737426
 30
0.0
 10
10.2578513033
 20
7.8767273189
 30
0.0
 10
10.2552009394
 20
7.8671042705
 30
0.0
 10
10.2520829447
 20
7.8576522187
 30
0.0
 10
10.248504508
 20
7.8483926842
 30
0.0
 10
10.2444738793
 20
7.8393470828
 30
0.0
 10
10.2400002714
 20
7.8305362912
 30
0.0
 10
10.2350940333
 20
7.8219806197
 30
0.0
 10
10.2297664797
 20
7.8136997858
 30
0.0
 10
10.2240298452
 20
7.8057129512
 30
0.0
 10
10.217897324
 20
7.7980384587
 30
0.0
 10
10.2113833305
 20
7.7906942204
 30
0.0
 10
10.2067954378
 20
7.7860287278
 30
0.0
 10
10.2044438891
 20
7.7837573201
 30
0.0
  0
SPLINE
  5
34F
100
AcDbEntity
  8
0
100
AcDbSpline
 62
7
  6
CONTINUOUS
 70
0
 71
3
 72
33
 73
29
 74
0
 42
0.0000001
 43
0.0000001
 44
0.0000000001
 40
0.0
 40
0.0
 40
0.0
 40
0.0
 40
0.0845017788
 40
0.1673004978
 40
0.2480790993
 40
0.3265292991
 40
0.4023565267
 40
0.4752807408
 40
0.5105720519
 40
0.545040569
 40
0.5786564423
 40
0.6113913393
 40
0.6432183689
 40
0.6741122516
 40
0.7040495377
 40
0.7330085328
 40
0.7609697755
 40
0.7879159095
 40
0.8138321737
 40
0.8387065418
 40
0.8625300234
 40
0.8852972454
 40
0.9070066314
 40
0.9276613459
 40
0.9472697038
 40
0.9658462696
 40
0.9834129066
 40
1.0
 40
1.0
 40
1.0
 40
1.0
 10
11.3928939978
 20
10.5528397199
 30
0.0
 10
11.3818191594
 20
10.5536077625
 30
0.0
 10
11.3599056007
 20
10.5553227447
 30
0.0
 10
11.3274643578
 20
10.5584674697
 30
0.0
 10
11.2958795846
 20
10.5621482575
 30
0.0
 10
11.265283842
 20
10.5663494881
 30
0.0
 10
11.2358056835
 20
10.5710533151
 30
0.0
 10
11.2120221757
 20
10.5754215305
 30
0.0
 10
11.1936537779
 20
10.5791631602
 30
0.0
 10
11.1803830186
 20
10.5820514925
 30
0.0
 10
11.167481158
 20
10.5850495073
 30
0.0
 10
11.154961719
 20
10.5881540394
 30
0.0
 10
11.1428378405
 20
10.5913618163
 30
0.0
 10
11.1311222357
 20
10.5946694695
 30
0.0
 10
11.1198271788
 20
10.5980734757
 30
0.0
 10
11.1089645039
 20
10.6015702957
 30
0.0
 10
11.0985455673
 20
10.6051561933
 30
0.0
 10
11.0885812624
 20
10.6088274367
 30
0.0
 10
11.0790819813
 20
10.6125801456
 30
0.0
 10
11.0700576132
 20
10.616410379
 30
0.0
 10
11.0615175419
 20
10.620314165
 30
0.0
 10
11.0534705942
 20
10.624287386
 30
0.0
 10
11.045925096
 20
10.6283259948
 30
0.0
 10
11.0388887687
 20
10.6324257989
 30
0.0
 10
11.0323688406
 20
10.6365826649
 30
0.0
 10
11.026371858
 20
10.6407925286
 30
0.0
 10
11.0209041617
 20
10.645051017
 30
0.0
 10
11.0175206123
 20
10.648002704
 30
0.0
 10
11.0159253764
 20
10.6494872384
 30
0.0
  0
SPLINE
  5
350
100
AcDbEntity
  8
0
100
AcDbSpline
 62
7
  6
CONTINUOUS
 70
0
 71
3
 72
31
 73
27
 74
0
 42
0.0000001
 43
0.0000001
 44
0.0000000001
 40
0.0
 40
0.0
 40
0.0
 40
0.0
 40
0.0845018904
 40
0.167301158
 40
0.2480799795
 40
0.3265304606
 40
0.4023579462
 40
0.475282401
 40
0.5450409099
 40
0.6113901015
 40
0.6432172375
 40
0.6741112302
 40
0.7040486061
 40
0.7330077048
 40
0.7609690412
 40
0.7879152504
 40
0.8138316265
 40
0.8387060317
 40
0.8625296419
 40
0.8852968756
 40
0.9070063887
 40
0.927661115
 40
0.9472695745
 40
0.9658461645
 40
0.9834128737
 40
1.0
 40
1.0
 40
1.0
 40
1.0
 10
10.1734806874
 20
10.6869768769
 30
0.0
 10
10.1662354797
 20
10.6874793338
 30
0.0
 10
10.1518994959
 20
10.6886012867
 30
0.0
 10
10.1306762465
 20
10.6906585797
 30
0.0
 10
10.1100132829
 20
10.6930665754
 30
0.0
 10
10.0899973926
 20
10.6958150485
 30
0.0
 10
10.0707125535
 20
10.6988923075
 30
0.0
 10
10.0522395538
 20
10.7022852546
 30
0.0
 10
10.0346559015
 20
10.7059794748
 30
0.0
 10
10.0206170096
 20
10.7093408009
 30
0.0
 10
10.0098925084
 20
10.7121782493
 30
0.0
 10
10.0022280865
 20
10.7143421496
 30
0.0
 10
9.9948387986
 20
10.7165690701
 30
0.0
 10
9.9877323741
 20
10.7188567091
 30
0.0
 10
9.9809162471
 20
10.7212026233
 30
0.0
 10
9.9743975439
 20
10.7236043788
 30
0.0
 10
9.9681830585
 20
10.7260594105
 30
0.0
 10
9.9622792717
 20
10.7285651914
 30
0.0
 10
9.9566923029
 20
10.7311190463
 30
0.0
 10
9.951427955
 20
10.7337183797
 30
0.0
 10
9.9464916382
 20
10.736360432
 30
0.0
 10
9.9418884459
 20
10.7390425754
 30
0.0
 10
9.9376230635
 20
10.7417619984
 30
0.0
 10
9.9336998156
 20
10.7445161346
 30
0.0
 10
9.9301228126
 20
10.7473020489
 30
0.0
 10
9.9279092832
 20
10.7492330675
 30
0.0
 10
9.9268656726
 20
10.7502042574
 30
0.0
  0
SPLINE
  5
351
100
AcDbEntity
  8
0
100
AcDbSpline
 62
7
  6
CONTINUOUS
 70
0
 71
3
 72
46
 73
42
 74
0
 42
0.0000001
 43
0.0000001
 44
0.0000000001
 40
0.0
 40
0.0
 40
0.0
 40
0.0
 40
0.0379401838
 40
0.0762768092
 40
0.1149216486
 40
0.1537873577
 40
0.1927848871
 40
0.2318252443
 40
0.2708191621
 40
0.3096775518
 40
0.3483117055
 40
0.3866335705
 40
0.4245560083
 40
0.4619930558
 40
0.4988601901
 40
0.5350745956
 40
0.5705554377
 40
0.605224142
 40
0.6390046849
 40
0.6718238987
 40
0.7036117969
 40
0.7343019176
 40
0.7638317053
 40
0.7921429402
 40
0.8191822331
 40
0.8449016131
 40
0.8692592426
 40
0.8809166414
 40
0.8922212287
 40
0.9031698986
 40
0.9137602333
 40
0.9239904237
 40
0.933859405
 40
0.9433669492
 40
0.9525136668
 40
0.9613012768
 40
0.9697325325
 40
0.9778115943
 40
0.9855440087
 40
0.9929370749
 40
1.0
 40
1.0
 40
1.0
 40
1.0
 10
12.8417828231
 20
8.3698228313
 30
0.0
 10
12.8417828231
 20
8.3783802978
 30
0.0
 10
12.8418972524
 20
8.3955848491
 30
0.0
 10
12.8424043863
 20
8.4215013106
 30
0.0
 10
12.8432468531
 20
8.4476179333
 30
0.0
 10
12.8444225723
 20
8.4738708703
 30
0.0
 10
12.8459287167
 20
8.5001962772
 30
0.0
 10
12.8477616038
 20
8.5265299391
 30
0.0
 10
12.8499167747
 20
8.5528077
 30
0.0
 10
12.85238897
 20
8.5789655133
 30
0.0
 10
12.8551721582
 20
8.6049396337
 30
0.0
 10
12.8582595423
 20
8.6306667641
 30
0.0
 10
12.8616435793
 20
8.6560842134
 30
0.0
 10
12.8653159988
 20
8.6811300497
 30
0.0
 10
12.8692678228
 20
8.705743252
 30
0.0
 10
12.8734893871
 20
8.7298638603
 30
0.0
 10
12.8779703647
 20
8.7534331229
 30
0.0
 10
12.8826997905
 20
8.7763936417
 30
0.0
 10
12.8876660875
 20
8.7986895149
 30
0.0
 10
12.8928570946
 20
8.8202664783
 30
0.0
 10
12.898260094
 20
8.8410720429
 30
0.0
 10
12.9038618456
 20
8.8610556262
 30
0.0
 10
12.9096486188
 20
8.8801686896
 30
0.0
 10
12.9156062288
 20
8.8983648418
 30
0.0
 10
12.9217200737
 20
8.9156000533
 30
0.0
 10
12.9279751826
 20
8.9318324762
 30
0.0
 10
12.9333686898
 20
8.9446725859
 30
0.0
 10
12.9377516772
 20
8.9544046296
 30
0.0
 10
12.9410165347
 20
8.9613218943
 30
0.0
 10
12.9443052219
 20
8.9679603296
 30
0.0
 10
12.9476157331
 20
8.9743159344
 30
0.0
 10
12.9509460689
 20
8.9803848619
 30
0.0
 10
12.9542942229
 20
8.9861634467
 30
0.0
 10
12.9576581429
 20
8.9916482223
 30
0.0
 10
12.9610358597
 20
8.996835869
 30
0.0
 10
12.964425286
 20
9.0017233085
 30
0.0
 10
12.9678244843
 20
9.0063075832
 30
0.0
 10
12.9712313761
 20
9.0105859858
 30
0.0
 10
12.9746440657
 20
9.0145559709
 30
0.0
 10
12.9780604424
 20
9.0182150723
 30
0.0
 10
12.9803914948
 20
9.0204969455
 30
0.0
 10
12.9815576359
 20
9.0215822724
 30
0.0
  0
SPLINE
  5
352
100
AcDbEntity
  8
0
100
AcDbSpline
 62
7
  6
CONTINUOUS
 70
0
 71
3
 72
15
 73
11
 74
0
 42
0.0000001
 43
0.0000001
 44
0.0000000001
 40
0.0
 40
0.0
 40
0.0
 40
0.0
 40
0.1248771465
 40
0.249740813
 40
0.37464622
 40
0.4996318109
 40
0.6247112399
 40
0.7498587255
 40
0.8749988327
 40
1.0
 40
1.0
 40
1.0
 40
1.0
 10
10.1860868215
 20
8.0293342376
 30
0.0
 10
10.1817908818
 20
8.0328200968
 30
0.0
 10
10.1734904132
 20
8.0401584605
 30
0.0
 10
10.1619872938
 20
8.0521469436
 30
0.0
 10
10.1514670003
 20
8.0650127041
 30
0.0
 10
10.1419562885
 20
8.0786516052
 30
0.0
 10
10.133472327
 20
8.0929630898
 30
0.0
 10
10.1260279219
 20
8.1078486928
 30
0.0
 10
10.1196339879
 20
8.123209469
 30
0.0
 10
10.1160739404
 20
8.1337141598
 30
0.0
 10
10.1144721968
 20
8.1390152496
 30
0.0
  0
SPLINE
  5
353
100
AcDbEntity
  8
0
100
AcDbSpline
 62
7
  6
CONTINUOUS
 70
0
 71
3
 72
39
 73
35
 74
0
 42
0.0000001
 43
0.0000001
 44
0.0000000001
 40
0.0
 40
0.0
 40
0.0
 40
0.0
 40
0.0311445425
 40
0.0624433652
 40
0.093888256
 40
0.1254710218
 40
0.1571788766
 40
0.1889972611
 40
0.2209091725
 40
0.2528958428
 40
0.2849370253
 40
0.3170114183
 40
0.349097079
 40
0.3811718482
 40
0.4132137779
 40
0.4452015551
 40
0.4771149166
 40
0.5089350506
 40
0.5406449764
 40
0.5722298984
 40
0.6036775288
 40
0.634978368
 40
0.6661259371
 40
0.6971169555
 40
0.7279514574
 40
0.758632841
 40
0.7891678449
 40
0.819566448
 40
0.8498416915
 40
0.8800094239
 40
0.9100879689
 40
0.9400977235
 40
0.9700606966
 40
1.0
 40
1.0
 40
1.0
 40
1.0
 10
9.9386025931
 20
9.3014739139
 30
0.0
 10
9.9412560904
 20
9.3012898932
 30
0.0
 10
9.9465647313
 20
9.3007266923
 30
0.0
 10
9.9544633062
 20
9.2993080687
 30
0.0
 10
9.9622773114
 20
9.2973208909
 30
0.0
 10
9.9699644675
 20
9.294776018
 30
0.0
 10
9.9774839995
 20
9.2916869703
 30
0.0
 10
9.9847957757
 20
9.2880703337
 30
0.0
 10
9.9918608493
 20
9.2839454071
 30
0.0
 10
9.9986415726
 20
9.2793342234
 30
0.0
 10
10.0051018153
 20
9.2742613816
 30
0.0
 10
10.0112071532
 20
9.2687539381
 30
0.0
 10
10.0169250528
 20
9.262841259
 30
0.0
 10
10.0222250389
 20
9.2565548607
 30
0.0
 10
10.0270788557
 20
9.2499282447
 30
0.0
 10
10.0314606155
 20
9.2429967208
 30
0.0
 10
10.0353469357
 20
9.2357972213
 30
0.0
 10
10.0387170624
 20
9.2283681071
 30
0.0
 10
10.0415529805
 20
9.2207489659
 30
0.0
 10
10.0438395093
 20
9.212980404
 30
0.0
 10
10.0455643913
 20
9.2051038349
 30
0.0
 10
10.0467183548
 20
9.1971612586
 30
0.0
 10
10.0472951624
 20
9.1891950405
 30
0.0
 10
10.0472916481
 20
9.1812476882
 30
0.0
 10
10.0467077368
 20
9.1733616279
 30
0.0
 10
10.0455464494
 20
9.1655789799
 30
0.0
 10
10.0438138918
 20
9.157941335
 30
0.0
 10
10.0415192266
 20
9.1504895314
 30
0.0
 10
10.0386746345
 20
9.1432634386
 30
0.0
 10
10.0352952469
 20
9.136301724
 30
0.0
 10
10.0313991112
 20
9.1296416947
 30
0.0
 10
10.0270069103
 20
9.1233189036
 30
0.0
 10
10.0221425547
 20
9.1173676581
 30
0.0
 10
10.0186006778
 20
9.113667535
 30
0.0
 10
10.0167615805
 20
9.1118911189
 30
0.0
  0
SPLINE
  5
354
100
AcDbEntity
  8
0
100
AcDbSpline
 62
7
  6
CONTINUOUS
 70
0
 71
3
 72
39
 73
35
 74
0
 42
0.0000001
 43
0.0000001
 44
0.0000000001
 40
0.0
 40
0.0
 40
0.0
 40
0.0
 40
0.0311445425
 40
0.0624433652
 40
0.093888256
 40
0.1254710218
 40
0.1571788766
 40
0.1889972611
 40
0.2209091725
 40
0.2528958428
 40
0.2849370253
 40
0.3170114183
 40
0.349097079
 40
0.3811718482
 40
0.4132137779
 40
0.4452015551
 40
0.4771149166
 40
0.5089350506
 40
0.5406449764
 40
0.5722298984
 40
0.6036775288
 40
0.634978368
 40
0.6661259371
 40
0.6971169555
 40
0.7279514574
 40
0.758632841
 40
0.7891678449
 40
0.819566448
 40
0.8498416915
 40
0.8800094239
 40
0.9100879689
 40
0.9400977235
 40
0.9700606966
 40
1.0
 40
1.0
 40
1.0
 40
1.0
 10
11.9902292397
 20
9.1591931227
 30
0.0
 10
11.992882737
 20
9.159009102
 30
0.0
 10
11.9981913779
 20
9.1584459011
 30
0.0
 10
12.0060899528
 20
9.1570272775
 30
0.0
 10
12.013903958
 20
9.1550400997
 30
0.0
 10
12.0215911141
 20
9.1524952268
 30
0.0
 10
12.0291106461
 20
9.1494061791
 30
0.0
 10
12.0364224223
 20
9.1457895425
 30
0.0
 10
12.0434874959
 20
9.1416646159
 30
0.0
 10
12.0502682192
 20
9.1370534322
 30
0.0
 10
12.0567284619
 20
9.1319805904
 30
0.0
 10
12.0628337998
 20
9.126473147
 30
0.0
 10
12.0685516994
 20
9.1205604678
 30
0.0
 10
12.0738516855
 20
9.1142740695
 30
0.0
 10
12.0787055023
 20
9.1076474535
 30
0.0
 10
12.0830872621
 20
9.1007159296
 30
0.0
 10
12.0869735823
 20
9.0935164301
 30
0.0
 10
12.090343709
 20
9.0860873159
 30
0.0
 10
12.0931796271
 20
9.0784681747
 30
0.0
 10
12.095466156
 20
9.0706996128
 30
0.0
 10
12.0971910379
 20
9.0628230437
 30
0.0
 10
12.0983450014
 20
9.0548804674
 30
0.0
 10
12.098921809
 20
9.0469142493
 30
0.0
 10
12.0989182947
 20
9.038966897
 30
0.0
 10
12.0983343834
 20
9.0310808367
 30
0.0
 10
12.097173096
 20
9.0232981887
 30
0.0
 10
12.0954405384
 20
9.0156605438
 30
0.0
 10
12.0931458732
 20
9.0082087402
 30
0.0
 10
12.0903012812
 20
9.0009826474
 30
0.0
 10
12.0869218935
 20
8.9940209328
 30
0.0
 10
12.0830257578
 20
8.9873609035
 30
0.0
 10
12.078633557
 20
8.9810381124
 30
0.0
 10
12.0737692013
 20
8.975086867
 30
0.0
 10
12.0702273244
 20
8.9713867438
 30
0.0
 10
12.0683882271
 20
8.9696103277
 30
0.0
  0
SPLINE
  5
355
100
AcDbEntity
  8
0
100
AcDbSpline
 62
7
  6
CONTINUOUS
 70
0
 71
3
 72
39
 73
35
 74
0
 42
0.0000001
 43
0.0000001
 44
0.0000000001
 40
0.0
 40
0.0
 40
0.0
 40
0.0
 40
0.0311445425
 40
0.0624433652
 40
0.093888256
 40
0.1254710218
 40
0.1571788766
 40
0.1889972611
 40
0.2209091725
 40
0.2528958428
 40
0.2849370253
 40
0.3170114183
 40
0.349097079
 40
0.3811718482
 40
0.4132137779
 40
0.4452015551
 40
0.4771149166
 40
0.5089350506
 40
0.5406449764
 40
0.5722298984
 40
0.6036775288
 40
0.634978368
 40
0.6661259371
 40
0.6971169555
 40
0.7279514574
 40
0.758632841
 40
0.7891678449
 40
0.819566448
 40
0.8498416915
 40
0.8800094239
 40
0.9100879689
 40
0.9400977235
 40
0.9700606966
 40
1.0
 40
1.0
 40
1.0
 40
1.0
 10
11.9902292397
 20
7.4079695309
 30
0.0
 10
11.992882737
 20
7.4077855102
 30
0.0
 10
11.9981913779
 20
7.4072223093
 30
0.0
 10
12.0060899528
 20
7.4058036857
 30
0.0
 10
12.013903958
 20
7.4038165079
 30
0.0
 10
12.0215911141
 20
7.401271635
 30
0.0
 10
12.0291106461
 20
7.3981825873
 30
0.0
 10
12.0364224223
 20
7.3945659507
 30
0.0
 10
12.0434874959
 20
7.3904410241
 30
0.0
 10
12.0502682192
 20
7.3858298404
 30
0.0
 10
12.0567284619
 20
7.3807569986
 30
0.0
 10
12.0628337998
 20
7.3752495551
 30
0.0
 10
12.0685516994
 20
7.369336876
 30
0.0
 10
12.0738516855
 20
7.3630504777
 30
0.0
 10
12.0787055023
 20
7.3564238617
 30
0.0
 10
12.0830872621
 20
7.3494923378
 30
0.0
 10
12.0869735823
 20
7.3422928383
 30
0.0
 10
12.090343709
 20
7.3348637241
 30
0.0
 10
12.0931796271
 20
7.3272445829
 30
0.0
 10
12.095466156
 20
7.319476021
 30
0.0
 10
12.0971910379
 20
7.3115994519
 30
0.0
 10
12.0983450014
 20
7.3036568756
 30
0.0
 10
12.098921809
 20
7.2956906575
 30
0.0
 10
12.0989182947
 20
7.2877433052
 30
0.0
 10
12.0983343834
 20
7.2798572449
 30
0.0
 10
12.097173096
 20
7.2720745969
 30
0.0
 10
12.0954405384
 20
7.264436952
 30
0.0
 10
12.0931458732
 20
7.2569851484
 30
0.0
 10
12.0903012812
 20
7.2497590556
 30
0.0
 10
12.0869218935
 20
7.242797341
 30
0.0
 10
12.0830257578
 20
7.2361373117
 30
0.0
 10
12.078633557
 20
7.2298145206
 30
0.0
 10
12.0737692013
 20
7.2238632751
 30
0.0
 10
12.0702273244
 20
7.220163152
 30
0.0
 10
12.0683882271
 20
7.2183867359
 30
0.0
  0
SPLINE
  5
356
100
AcDbEntity
  8
0
100
AcDbSpline
 62
7
  6
CONTINUOUS
 70
0
 71
3
 72
39
 73
35
 74
0
 42
0.0000001
 43
0.0000001
 44
0.0000000001
 40
0.0
 40
0.0
 40
0.0
 40
0.0
 40
0.0311445425
 40
0.0624433652
 40
0.093888256
 40
0.1254710218
 40
0.1571788766
 40
0.1889972611
 40
0.2209091725
 40
0.2528958428
 40
0.2849370253
 40
0.3170114183
 40
0.349097079
 40
0.3811718482
 40
0.4132137779
 40
0.4452015551
 40
0.4771149166
 40
0.5089350506
 40
0.5406449764
 40
0.5722298984
 40
0.6036775288
 40
0.634978368
 40
0.6661259371
 40
0.6971169555
 40
0.7279514574
 40
0.758632841
 40
0.7891678449
 40
0.819566448
 40
0.8498416915
 40
0.8800094239
 40
0.9100879689
 40
0.9400977235
 40
0.9700606966
 40
1.0
 40
1.0
 40
1.0
 40
1.0
 10
9.9386025931
 20
7.5502503221
 30
0.0
 10
9.9412560904
 20
7.5500663014
 30
0.0
 10
9.9465647313
 20
7.5495031004
 30
0.0
 10
9.9544633062
 20
7.5480844769
 30
0.0
 10
9.9622773114
 20
7.5460972991
 30
0.0
 10
9.9699644675
 20
7.5435524262
 30
0.0
 10
9.9774839995
 20
7.5404633785
 30
0.0
 10
9.9847957757
 20
7.5368467419
 30
0.0
 10
9.9918608493
 20
7.5327218153
 30
0.0
 10
9.9986415726
 20
7.5281106316
 30
0.0
 10
10.0051018153
 20
7.5230377898
 30
0.0
 10
10.0112071532
 20
7.5175303463
 30
0.0
 10
10.0169250528
 20
7.5116176672
 30
0.0
 10
10.0222250389
 20
7.5053312689
 30
0.0
 10
10.0270788557
 20
7.4987046529
 30
0.0
 10
10.0314606155
 20
7.491773129
 30
0.0
 10
10.0353469357
 20
7.4845736295
 30
0.0
 10
10.0387170624
 20
7.4771445153
 30
0.0
 10
10.0415529805
 20
7.469525374
 30
0.0
 10
10.0438395093
 20
7.4617568122
 30
0.0
 10
10.0455643913
 20
7.4538802431
 30
0.0
 10
10.0467183548
 20
7.4459376668
 30
0.0
 10
10.0472951624
 20
7.4379714487
 30
0.0
 10
10.0472916481
 20
7.4300240963
 30
0.0
 10
10.0467077368
 20
7.4221380361
 30
0.0
 10
10.0455464494
 20
7.4143553881
 30
0.0
 10
10.0438138918
 20
7.4067177432
 30
0.0
 10
10.0415192266
 20
7.3992659396
 30
0.0
 10
10.0386746345
 20
7.3920398468
 30
0.0
 10
10.0352952469
 20
7.3850781322
 30
0.0
 10
10.0313991112
 20
7.3784181029
 30
0.0
 10
10.0270069103
 20
7.3720953118
 30
0.0
 10
10.0221425547
 20
7.3661440663
 30
0.0
 10
10.0186006778
 20
7.3624439432
 30
0.0
 10
10.0167615805
 20
7.3606675271
 30
0.0
  0
SPLINE
  5
357
100
AcDbEntity
  8
0
100
AcDbSpline
 62
7
  6
CONTINUOUS
 70
0
 71
3
 72
42
 73
38
 74
0
 42
0.0000001
 43
0.0000001
 44
0.0000000001
 40
0.0
 40
0.0
 40
0.0
 40
0.0
 40
0.0299419634
 40
0.0449235299
 40
0.0599142017
 40
0.0899287029
 40
0.1200139772
 40
0.1350926626
 40
0.1501967046
 40
0.1804840506
 40
0.2108978877
 40
0.2414513551
 40
0.2721543675
 40
0.3030134354
 40
0.3340315696
 40
0.3652082675
 40
0.3965395775
 40
0.4280182343
 40
0.4596338596
 40
0.4913732188
 40
0.5232205284
 40
0.5551578047
 40
0.5871652463
 40
0.6192216448
 40
0.6513048151
 40
0.6833920402
 40
0.7154605222
 40
0.747487836
 40
0.7794523759
 40
0.8113337934
 40
0.8431134117
 40
0.8747746318
 40
0.9063032512
 40
0.9376879208
 40
0.9533258
 40
0.9689252634
 40
1.0
 40
1.0
 40
1.0
 40
1.0
 10
9.0559273078
 20
10.2389094697
 30
0.0
 10
9.059560447
 20
10.2424187913
 30
0.0
 10
9.0652243144
 20
10.2474701244
 30
0.0
 10
9.0731564332
 20
10.2537377288
 30
0.0
 10
9.0813411502
 20
10.2596934476
 30
0.0
 10
9.0920208599
 20
10.2665325422
 30
0.0
 10
9.1032198237
 20
10.2725147708
 30
0.0
 10
9.1124560665
 20
10.2767705341
 30
0.0
 10
9.1218831029
 20
10.2806749777
 30
0.0
 10
9.1339775632
 20
10.2848733579
 30
0.0
 10
9.1488821523
 20
10.288786143
 30
0.0
 10
9.1641119617
 20
10.2915580501
 30
0.0
 10
9.1795825903
 20
10.2931737868
 30
0.0
 10
9.1952090545
 20
10.2936247305
 30
0.0
 10
9.2109053729
 20
10.2929085862
 30
0.0
 10
9.2265852752
 20
10.2910294907
 30
0.0
 10
9.2421626073
 20
10.2879979536
 30
0.0
 10
9.2575518164
 20
10.2838307995
 30
0.0
 10
9.2726684104
 20
10.2785510683
 30
0.0
 10
9.2874294161
 20
10.2721878854
 30
0.0
 10
9.3017538281
 20
10.2647762996
 30
0.0
 10
9.3155630467
 20
10.2563570897
 30
0.0
 10
9.3287813043
 20
10.2469765409
 30
0.0
 10
9.3413360748
 20
10.2366861917
 30
0.0
 10
9.3531584679
 20
10.2255425536
 30
0.0
 10
9.3641836019
 20
10.2136068026
 30
0.0
 10
9.3743509567
 20
10.2009444477
 30
0.0
 10
9.3836047024
 20
10.1876249733
 30
0.0
 10
9.3918940032
 20
10.1737214668
 30
0.0
 10
9.3991732945
 20
10.1593102058
 30
0.0
 10
9.4054025299
 20
10.1444703046
 30
0.0
 10
9.410547413
 20
10.1292830653
 30
0.0
 10
9.4145795219
 20
10.1138323518
 30
0.0
 10
9.4169968609
 20
10.1007902746
 30
0.0
 10
9.4183529163
 20
10.0903111237
 30
0.0
 10
9.4193206997
 20
10.0798420005
 30
0.0
 10
9.4196137352
 20
10.0719640558
 30
0.0
 10
9.4196137352
 20
10.0667217145
 30
0.0
  0
SPLINE
  5
358
100
AcDbEntity
  8
0
100
AcDbSpline
 62
7
  6
CONTINUOUS
 70
0
 71
3
 72
42
 73
38
 74
0
 42
0.0000001
 43
0.0000001
 44
0.0000000001
 40
0.0
 40
0.0
 40
0.0
 40
0.0
 40
0.0299419634
 40
0.0449235299
 40
0.0599142017
 40
0.0899287029
 40
0.1200139772
 40
0.1350926626
 40
0.1501967046
 40
0.1804840506
 40
0.2108978877
 40
0.2414513551
 40
0.2721543675
 40
0.3030134354
 40
0.3340315696
 40
0.3652082675
 40
0.3965395775
 40
0.4280182343
 40
0.4596338596
 40
0.4913732188
 40
0.5232205284
 40
0.5551578047
 40
0.5871652463
 40
0.6192216448
 40
0.6513048151
 40
0.6833920402
 40
0.7154605222
 40
0.747487836
 40
0.7794523759
 40
0.8113337934
 40
0.8431134117
 40
0.8747746318
 40
0.9063032512
 40
0.9376879208
 40
0.9533258
 40
0.9689252634
 40
1.0
 40
1.0
 40
1.0
 40
1.0
 10
12.0734798092
 20
10.029641493
 30
0.0
 10
12.0771129483
 20
10.0331508146
 30
0.0
 10
12.0827768158
 20
10.0382021477
 30
0.0
 10
12.0907089346
 20
10.044469752
 30
0.0
 10
12.0988936515
 20
10.0504254708
 30
0.0
 10
12.1095733613
 20
10.0572645655
 30
0.0
 10
12.120772325
 20
10.0632467941
 30
0.0
 10
12.1300085678
 20
10.0675025574
 30
0.0
 10
12.1394356043
 20
10.0714070009
 30
0.0
 10
12.1515300645
 20
10.0756053812
 30
0.0
 10
12.1664346536
 20
10.0795181663
 30
0.0
 10
12.1816644631
 20
10.0822900734
 30
0.0
 10
12.1971350916
 20
10.0839058101
 30
0.0
 10
12.2127615558
 20
10.0843567538
 30
0.0
 10
12.2284578743
 20
10.0836406095
 30
0.0
 10
12.2441377766
 20
10.081761514
 30
0.0
 10
12.2597151086
 20
10.0787299769
 30
0.0
 10
12.2751043177
 20
10.0745628227
 30
0.0
 10
12.2902209117
 20
10.0692830915
 30
0.0
 10
12.3049819175
 20
10.0629199087
 30
0.0
 10
12.3193063294
 20
10.0555083229
 30
0.0
 10
12.3331155481
 20
10.047089113
 30
0.0
 10
12.3463338056
 20
10.0377085641
 30
0.0
 10
12.3588885762
 20
10.027418215
 30
0.0
 10
12.3707109692
 20
10.0162745768
 30
0.0
 10
12.3817361032
 20
10.0043388259
 30
0.0
 10
12.391903458
 20
9.9916764709
 30
0.0
 10
12.4011572037
 20
9.9783569965
 30
0.0
 10
12.4094465046
 20
9.9644534901
 30
0.0
 10
12.4167257959
 20
9.9500422291
 30
0.0
 10
12.4229550312
 20
9.9352023279
 30
0.0
 10
12.4280999143
 20
9.9200150885
 30
0.0
 10
12.4321320233
 20
9.9045643751
 30
0.0
 10
12.4345493622
 20
9.8915222979
 30
0.0
 10
12.4359054176
 20
9.881043147
 30
0.0
 10
12.4368732011
 20
9.8705740238
 30
0.0
 10
12.4371662366
 20
9.862696079
 30
0.0
 10
12.4371662366
 20
9.8574537378
 30
0.0
  0
SPLINE
  5
359
100
AcDbEntity
  8
0
100
AcDbSpline
 62
7
  6
CONTINUOUS
 70
0
 71
3
 72
42
 73
38
 74
0
 42
0.0000001
 43
0.0000001
 44
0.0000000001
 40
0.0
 40
0.0
 40
0.0
 40
0.0
 40
0.0299419634
 40
0.0449235299
 40
0.0599142017
 40
0.0899287029
 40
0.1200139772
 40
0.1350926626
 40
0.1501967046
 40
0.1804840506
 40
0.2108978877
 40
0.2414513551
 40
0.2721543675
 40
0.3030134354
 40
0.3340315696
 40
0.3652082675
 40
0.3965395775
 40
0.4280182343
 40
0.4596338596
 40
0.4913732188
 40
0.5232205284
 40
0.5551578047
 40
0.5871652463
 40
0.6192216448
 40
0.6513048151
 40
0.6833920402
 40
0.7154605222
 40
0.747487836
 40
0.7794523759
 40
0.8113337934
 40
0.8431134117
 40
0.8747746318
 40
0.9063032512
 40
0.9376879208
 40
0.9533258
 40
0.9689252634
 40
1.0
 40
1.0
 40
1.0
 40
1.0
 10
12.0734798092
 20
6.5291262802
 30
0.0
 10
12.0771129483
 20
6.5326356017
 30
0.0
 10
12.0827768158
 20
6.5376869349
 30
0.0
 10
12.0907089346
 20
6.5439545392
 30
0.0
 10
12.0988936515
 20
6.549910258
 30
0.0
 10
12.1095733613
 20
6.5567493527
 30
0.0
 10
12.120772325
 20
6.5627315813
 30
0.0
 10
12.1300085678
 20
6.5669873446
 30
0.0
 10
12.1394356043
 20
6.5708917881
 30
0.0
 10
12.1515300645
 20
6.5750901684
 30
0.0
 10
12.1664346536
 20
6.5790029535
 30
0.0
 10
12.1816644631
 20
6.5817748606
 30
0.0
 10
12.1971350916
 20
6.5833905973
 30
0.0
 10
12.2127615558
 20
6.583841541
 30
0.0
 10
12.2284578743
 20
6.5831253966
 30
0.0
 10
12.2441377766
 20
6.5812463012
 30
0.0
 10
12.2597151086
 20
6.5782147641
 30
0.0
 10
12.2751043177
 20
6.5740476099
 30
0.0
 10
12.2902209117
 20
6.5687678787
 30
0.0
 10
12.3049819175
 20
6.5624046958
 30
0.0
 10
12.3193063294
 20
6.5549931101
 30
0.0
 10
12.3331155481
 20
6.5465739002
 30
0.0
 10
12.3463338056
 20
6.5371933513
 30
0.0
 10
12.3588885762
 20
6.5269030022
 30
0.0
 10
12.3707109692
 20
6.515759364
 30
0.0
 10
12.3817361032
 20
6.503823613
 30
0.0
 10
12.391903458
 20
6.4911612581
 30
0.0
 10
12.4011572037
 20
6.4778417837
 30
0.0
 10
12.4094465046
 20
6.4639382772
 30
0.0
 10
12.4167257959
 20
6.4495270162
 30
0.0
 10
12.4229550312
 20
6.434687115
 30
0.0
 10
12.4280999143
 20
6.4194998757
 30
0.0
 10
12.4321320233
 20
6.4040491623
 30
0.0
 10
12.4345493622
 20
6.3910070851
 30
0.0
 10
12.4359054176
 20
6.3805279341
 30
0.0
 10
12.4368732011
 20
6.3700588109
 30
0.0
 10
12.4371662366
 20
6.3621808662
 30
0.0
 10
12.4371662366
 20
6.3569385249
 30
0.0
  0
SPLINE
  5
35A
100
AcDbEntity
  8
0
100
AcDbSpline
 62
7
  6
CONTINUOUS
 70
0
 71
3
 72
42
 73
38
 74
0
 42
0.0000001
 43
0.0000001
 44
0.0000000001
 40
0.0
 40
0.0
 40
0.0
 40
0.0
 40
0.0299419634
 40
0.0449235299
 40
0.0599142017
 40
0.0899287029
 40
0.1200139772
 40
0.1350926626
 40
0.1501967046
 40
0.1804840506
 40
0.2108978877
 40
0.2414513551
 40
0.2721543675
 40
0.3030134354
 40
0.3340315696
 40
0.3652082675
 40
0.3965395775
 40
0.4280182343
 40
0.4596338596
 40
0.4913732188
 40
0.5232205284
 40
0.5551578047
 40
0.5871652463
 40
0.6192216448
 40
0.6513048151
 40
0.6833920402
 40
0.7154605222
 40
0.747487836
 40
0.7794523759
 40
0.8113337934
 40
0.8431134117
 40
0.8747746318
 40
0.9063032512
 40
0.9376879208
 40
0.9533258
 40
0.9689252634
 40
1.0
 40
1.0
 40
1.0
 40
1.0
 10
9.0559273078
 20
6.7383942569
 30
0.0
 10
9.059560447
 20
6.7419035785
 30
0.0
 10
9.0652243144
 20
6.7469549116
 30
0.0
 10
9.0731564332
 20
6.753222516
 30
0.0
 10
9.0813411502
 20
6.7591782348
 30
0.0
 10
9.0920208599
 20
6.7660173294
 30
0.0
 10
9.1032198237
 20
6.771999558
 30
0.0
 10
9.1124560665
 20
6.7762553213
 30
0.0
 10
9.1218831029
 20
6.7801597649
 30
0.0
 10
9.1339775632
 20
6.7843581451
 30
0.0
 10
9.1488821523
 20
6.7882709302
 30
0.0
 10
9.1641119617
 20
6.7910428373
 30
0.0
 10
9.1795825903
 20
6.792658574
 30
0.0
 10
9.1952090545
 20
6.7931095177
 30
0.0
 10
9.2109053729
 20
6.7923933734
 30
0.0
 10
9.2265852752
 20
6.7905142779
 30
0.0
 10
9.2421626073
 20
6.7874827408
 30
0.0
 10
9.2575518164
 20
6.7833155867
 30
0.0
 10
9.2726684104
 20
6.7780358554
 30
0.0
 10
9.2874294161
 20
6.7716726726
 30
0.0
 10
9.3017538281
 20
6.7642610868
 30
0.0
 10
9.3155630467
 20
6.7558418769
 30
0.0
 10
9.3287813043
 20
6.7464613281
 30
0.0
 10
9.3413360748
 20
6.7361709789
 30
0.0
 10
9.3531584679
 20
6.7250273408
 30
0.0
 10
9.3641836019
 20
6.7130915898
 30
0.0
 10
9.3743509567
 20
6.7004292349
 30
0.0
 10
9.3836047024
 20
6.6871097605
 30
0.0
 10
9.3918940032
 20
6.673206254
 30
0.0
 10
9.3991732945
 20
6.658794993
 30
0.0
 10
9.4054025299
 20
6.6439550918
 30
0.0
 10
9.410547413
 20
6.6287678525
 30
0.0
 10
9.4145795219
 20
6.613317139
 30
0.0
 10
9.4169968609
 20
6.6002750618
 30
0.0
 10
9.4183529163
 20
6.5897959109
 30
0.0
 10
9.4193206997
 20
6.5793267877
 30
0.0
 10
9.4196137352
 20
6.571448843
 30
0.0
 10
9.4196137352
 20
6.5662065017
 30
0.0
  0
SPLINE
  5
35B
100
AcDbEntity
  8
0
100
AcDbSpline
 62
7
  6
CONTINUOUS
 70
0
 71
3
 72
42
 73
38
 74
0
 42
0.0000001
 43
0.0000001
 44
0.0000000001
 40
0.0
 40
0.0
 40
0.0
 40
0.0
 40
0.0299419634
 40
0.0449235299
 40
0.0599142017
 40
0.0899287029
 40
0.1200139772
 40
0.1350926626
 40
0.1501967046
 40
0.1804840506
 40
0.2108978877
 40
0.2414513551
 40
0.2721543675
 40
0.3030134354
 40
0.3340315696
 40
0.3652082675
 40
0.3965395775
 40
0.4280182343
 40
0.4596338596
 40
0.4913732188
 40
0.5232205284
 40
0.5551578047
 40
0.5871652463
 40
0.6192216448
 40
0.6513048151
 40
0.6833920402
 40
0.7154605222
 40
0.747487836
 40
0.7794523759
 40
0.8113337934
 40
0.8431134117
 40
0.8747746318
 40
0.9063032512
 40
0.9376879208
 40
0.9533258
 40
0.9689252634
 40
1.0
 40
1.0
 40
1.0
 40
1.0
 10
10.806185015
 20
9.0318279512
 30
0.0
 10
10.8098181541
 20
9.0353372727
 30
0.0
 10
10.8154820216
 20
9.0403886059
 30
0.0
 10
10.8234141404
 20
9.0466562102
 30
0.0
 10
10.8315988573
 20
9.052611929
 30
0.0
 10
10.8422785671
 20
9.0594510237
 30
0.0
 10
10.8534775309
 20
9.0654332522
 30
0.0
 10
10.8627137736
 20
9.0696890156
 30
0.0
 10
10.8721408101
 20
9.0735934591
 30
0.0
 10
10.8842352704
 20
9.0777918394
 30
0.0
 10
10.8991398594
 20
9.0817046245
 30
0.0
 10
10.9143696689
 20
9.0844765315
 30
0.0
 10
10.9298402975
 20
9.0860922682
 30
0.0
 10
10.9454667616
 20
9.0865432119
 30
0.0
 10
10.9611630801
 20
9.0858270676
 30
0.0
 10
10.9768429824
 20
9.0839479722
 30
0.0
 10
10.9924203144
 20
9.0809164351
 30
0.0
 10
11.0078095235
 20
9.0767492809
 30
0.0
 10
11.0229261176
 20
9.0714695497
 30
0.0
 10
11.0376871233
 20
9.0651063668
 30
0.0
 10
11.0520115352
 20
9.0576947811
 30
0.0
 10
11.0658207539
 20
9.0492755712
 30
0.0
 10
11.0790390114
 20
9.0398950223
 30
0.0
 10
11.091593782
 20
9.0296046732
 30
0.0
 10
11.1034161751
 20
9.018461035
 30
0.0
 10
11.1144413091
 20
9.006525284
 30
0.0
 10
11.1246086639
 20
8.9938629291
 30
0.0
 10
11.1338624096
 20
8.9805434547
 30
0.0
 10
11.1421517104
 20
8.9666399482
 30
0.0
 10
11.1494310017
 20
8.9522286872
 30
0.0
 10
11.155660237
 20
8.937388786
 30
0.0
 10
11.1608051201
 20
8.9222015467
 30
0.0
 10
11.1648372291
 20
8.9067508333
 30
0.0
 10
11.167254568
 20
8.8937087561
 30
0.0
 10
11.1686106234
 20
8.8832296051
 30
0.0
 10
11.1695784069
 20
8.8727604819
 30
0.0
 10
11.1698714424
 20
8.8648825372
 30
0.0
 10
11.1698714424
 20
8.8596401959
 30
0.0
  0
SPLINE
  5
35C
100
AcDbEntity
  8
0
100
AcDbSpline
 62
7
  6
CONTINUOUS
 70
0
 71
3
 72
42
 73
38
 74
0
 42
0.0000001
 43
0.0000001
 44
0.0000000001
 40
0.0
 40
0.0
 40
0.0
 40
0.0
 40
0.0299419634
 40
0.0449235299
 40
0.0599142017
 40
0.0899287029
 40
0.1200139772
 40
0.1350926626
 40
0.1501967046
 40
0.1804840506
 40
0.2108978877
 40
0.2414513551
 40
0.2721543675
 40
0.3030134354
 40
0.3340315696
 40
0.3652082675
 40
0.3965395775
 40
0.4280182343
 40
0.4596338596
 40
0.4913732188
 40
0.5232205284
 40
0.5551578047
 40
0.5871652463
 40
0.6192216448
 40
0.6513048151
 40
0.6833920402
 40
0.7154605222
 40
0.747487836
 40
0.7794523759
 40
0.8113337934
 40
0.8431134117
 40
0.8747746318
 40
0.9063032512
 40
0.9376879208
 40
0.9533258
 40
0.9689252634
 40
1.0
 40
1.0
 40
1.0
 40
1.0
 10
10.4140190888
 20
8.4852649084
 30
0.0
 10
10.4176522279
 20
8.4887742299
 30
0.0
 10
10.4233160954
 20
8.4938255631
 30
0.0
 10
10.4312482142
 20
8.5000931674
 30
0.0
 10
10.4394329311
 20
8.5060488862
 30
0.0
 10
10.4501126409
 20
8.5128879809
 30
0.0
 10
10.4613116046
 20
8.5188702094
 30
0.0
 10
10.4705478474
 20
8.5231259728
 30
0.0
 10
10.4799748839
 20
8.5270304163
 30
0.0
 10
10.4920693441
 20
8.5312287966
 30
0.0
 10
10.5069739332
 20
8.5351415817
 30
0.0
 10
10.5222037427
 20
8.5379134887
 30
0.0
 10
10.5376743712
 20
8.5395292254
 30
0.0
 10
10.5533008354
 20
8.5399801691
 30
0.0
 10
10.5689971539
 20
8.5392640248
 30
0.0
 10
10.5846770562
 20
8.5373849294
 30
0.0
 10
10.6002543882
 20
8.5343533922
 30
0.0
 10
10.6156435973
 20
8.5301862381
 30
0.0
 10
10.6307601913
 20
8.5249065069
 30
0.0
 10
10.6455211971
 20
8.518543324
 30
0.0
 10
10.659845609
 20
8.5111317383
 30
0.0
 10
10.6736548277
 20
8.5027125284
 30
0.0
 10
10.6868730852
 20
8.4933319795
 30
0.0
 10
10.6994278558
 20
8.4830416304
 30
0.0
 10
10.7112502488
 20
8.4718979922
 30
0.0
 10
10.7222753828
 20
8.4599622412
 30
0.0
 10
10.7324427376
 20
8.4472998863
 30
0.0
 10
10.7416964833
 20
8.4339804119
 30
0.0
 10
10.7499857842
 20
8.4200769054
 30
0.0
 10
10.7572650755
 20
8.4056656444
 30
0.0
 10
10.7634943108
 20
8.3908257432
 30
0.0
 10
10.7686391939
 20
8.3756385039
 30
0.0
 10
10.7726713029
 20
8.3601877905
 30
0.0
 10
10.7750886418
 20
8.3471457133
 30
0.0
 10
10.7764446972
 20
8.3366665623
 30
0.0
 10
10.7774124807
 20
8.3261974391
 30
0.0
 10
10.7777055162
 20
8.3183194944
 30
0.0
 10
10.7777055162
 20
8.3130771531
 30
0.0
  0
SPLINE
  5
35D
100
AcDbEntity
  8
0
100
AcDbSpline
 62
7
  6
CONTINUOUS
 70
0
 71
3
 72
18
 73
14
 74
0
 42
0.0000001
 43
0.0000001
 44
0.0000000001
 40
0.0
 40
0.0
 40
0.0
 40
0.0
 40
0.064936263
 40
0.1294303641
 40
0.1935299256
 40
0.2572765344
 40
0.3838091034
 40
0.5092649998
 40
0.6337251518
 40
0.7571464505
 40
0.8184279012
 40
0.8793692697
 40
1.0
 40
1.0
 40
1.0
 40
1.0
 10
10.766915116
 20
8.3800083314
 30
0.0
 10
10.7647740051
 20
8.3815418978
 30
0.0
 10
10.7605897421
 20
8.3847168985
 30
0.0
 10
10.7545982448
 20
8.3897927865
 30
0.0
 10
10.7489145457
 20
8.3951412017
 30
0.0
 10
10.7417654306
 20
8.4025846422
 30
0.0
 10
10.7335818479
 20
8.4124615195
 30
0.0
 10
10.7249513646
 20
8.4250799502
 30
0.0
 10
10.7175070378
 20
8.4382855697
 30
0.0
 10
10.7122577847
 20
8.4496886269
 30
0.0
 10
10.7086297788
 20
8.4589696606
 30
0.0
 10
10.7053979853
 20
8.4682757695
 30
0.0
 10
10.7033763059
 20
8.475366414
 30
0.0
 10
10.7022122697
 20
8.4801184223
 30
0.0
  0
SPLINE
  5
35E
100
AcDbEntity
  8
0
100
AcDbSpline
 62
7
  6
CONTINUOUS
 70
0
 71
3
 72
42
 73
38
 74
0
 42
0.0000001
 43
0.0000001
 44
0.0000000001
 40
0.0
 40
0.0
 40
0.0
 40
0.0
 40
0.0299419634
 40
0.0449235299
 40
0.0599142017
 40
0.0899287029
 40
0.1200139772
 40
0.1350926626
 40
0.1501967046
 40
0.1804840506
 40
0.2108978877
 40
0.2414513551
 40
0.2721543675
 40
0.3030134354
 40
0.3340315696
 40
0.3652082675
 40
0.3965395775
 40
0.4280182343
 40
0.4596338596
 40
0.4913732188
 40
0.5232205284
 40
0.5551578047
 40
0.5871652463
 40
0.6192216448
 40
0.6513048151
 40
0.6833920402
 40
0.7154605222
 40
0.747487836
 40
0.7794523759
 40
0.8113337934
 40
0.8431134117
 40
0.8747746318
 40
0.9063032512
 40
0.9376879208
 40
0.9533258
 40
0.9689252634
 40
1.0
 40
1.0
 40
1.0
 40
1.0
 10
11.198350826
 20
8.4308713176
 30
0.0
 10
11.2019839652
 20
8.4343806392
 30
0.0
 10
11.2076478326
 20
8.4394319723
 30
0.0
 10
11.2155799514
 20
8.4456995767
 30
0.0
 10
11.2237646684
 20
8.4516552955
 30
0.0
 10
11.2344443782
 20
8.4584943901
 30
0.0
 10
11.2456433419
 20
8.4644766187
 30
0.0
 10
11.2548795847
 20
8.468732382
 30
0.0
 10
11.2643066211
 20
8.4726368256
 30
0.0
 10
11.2764010814
 20
8.4768352058
 30
0.0
 10
11.2913056705
 20
8.480747991
 30
0.0
 10
11.30653548
 20
8.483519898
 30
0.0
 10
11.3220061085
 20
8.4851356347
 30
0.0
 10
11.3376325727
 20
8.4855865784
 30
0.0
 10
11.3533288912
 20
8.4848704341
 30
0.0
 10
11.3690087935
 20
8.4829913386
 30
0.0
 10
11.3845861255
 20
8.4799598015
 30
0.0
 10
11.3999753346
 20
8.4757926474
 30
0.0
 10
11.4150919286
 20
8.4705129162
 30
0.0
 10
11.4298529344
 20
8.4641497333
 30
0.0
 10
11.4441773463
 20
8.4567381475
 30
0.0
 10
11.457986565
 20
8.4483189376
 30
0.0
 10
11.4712048225
 20
8.4389383888
 30
0.0
 10
11.4837595931
 20
8.4286480396
 30
0.0
 10
11.4955819861
 20
8.4175044015
 30
0.0
 10
11.5066071201
 20
8.4055686505
 30
0.0
 10
11.5167744749
 20
8.3929062956
 30
0.0
 10
11.5260282206
 20
8.3795868212
 30
0.0
 10
11.5343175214
 20
8.3656833147
 30
0.0
 10
11.5415968127
 20
8.3512720537
 30
0.0
 10
11.5478260481
 20
8.3364321525
 30
0.0
 10
11.5529709312
 20
8.3212449132
 30
0.0
 10
11.5570030402
 20
8.3057941997
 30
0.0
 10
11.5594203791
 20
8.2927521225
 30
0.0
 10
11.5607764345
 20
8.2822729716
 30
0.0
 10
11.561744218
 20
8.2718038484
 30
0.0
 10
11.5620372535
 20
8.2639259037
 30
0.0
 10
11.5620372535
 20
8.2586835624
 30
0.0
  0
SPLINE
  5
35F
100
AcDbEntity
  8
0
100
AcDbSpline
 62
7
  6
CONTINUOUS
 70
0
 71
3
 72
42
 73
38
 74
0
 42
0.0000001
 43
0.0000001
 44
0.0000000001
 40
0.0
 40
0.0
 40
0.0
 40
0.0
 40
0.0299419634
 40
0.0449235299
 40
0.0599142017
 40
0.0899287029
 40
0.1200139772
 40
0.1350926626
 40
0.1501967046
 40
0.1804840506
 40
0.2108978877
 40
0.2414513551
 40
0.2721543675
 40
0.3030134354
 40
0.3340315696
 40
0.3652082675
 40
0.3965395775
 40
0.4280182343
 40
0.4596338596
 40
0.4913732188
 40
0.5232205284
 40
0.5551578047
 40
0.5871652463
 40
0.6192216448
 40
0.6513048151
 40
0.6833920402
 40
0.7154605222
 40
0.747487836
 40
0.7794523759
 40
0.8113337934
 40
0.8431134117
 40
0.8747746318
 40
0.9063032512
 40
0.9376879208
 40
0.9533258
 40
0.9689252634
 40
1.0
 40
1.0
 40
1.0
 40
1.0
 10
9.9001465712
 20
8.0987924424
 30
0.0
 10
9.9037797104
 20
8.102301764
 30
0.0
 10
9.9094435778
 20
8.1073530971
 30
0.0
 10
9.9173756966
 20
8.1136207014
 30
0.0
 10
9.9255604136
 20
8.1195764202
 30
0.0
 10
9.9362401234
 20
8.1264155149
 30
0.0
 10
9.9474390871
 20
8.1323977435
 30
0.0
 10
9.9566753299
 20
8.1366535068
 30
0.0
 10
9.9661023663
 20
8.1405579503
 30
0.0
 10
9.9781968266
 20
8.1447563306
 30
0.0
 10
9.9931014157
 20
8.1486691157
 30
0.0
 10
10.0083312252
 20
8.1514410228
 30
0.0
 10
10.0238018537
 20
8.1530567595
 30
0.0
 10
10.0394283179
 20
8.1535077032
 30
0.0
 10
10.0551246364
 20
8.1527915589
 30
0.0
 10
10.0708045387
 20
8.1509124634
 30
0.0
 10
10.0863818707
 20
8.1478809263
 30
0.0
 10
10.1017710798
 20
8.1437137721
 30
0.0
 10
10.1168876738
 20
8.1384340409
 30
0.0
 10
10.1316486796
 20
8.1320708581
 30
0.0
 10
10.1459730915
 20
8.1246592723
 30
0.0
 10
10.1597823102
 20
8.1162400624
 30
0.0
 10
10.1730005677
 20
8.1068595135
 30
0.0
 10
10.1855553383
 20
8.0965691644
 30
0.0
 10
10.1973777313
 20
8.0854255262
 30
0.0
 10
10.2084028653
 20
8.0734897753
 30
0.0
 10
10.2185702201
 20
8.0608274203
 30
0.0
 10
10.2278239658
 20
8.0475079459
 30
0.0
 10
10.2361132666
 20
8.0336044395
 30
0.0
 10
10.2433925579
 20
8.0191931785
 30
0.0
 10
10.2496217933
 20
8.0043532773
 30
0.0
 10
10.2547666764
 20
7.9891660379
 30
0.0
 10
10.2587987854
 20
7.9737153245
 30
0.0
 10
10.2612161243
 20
7.9606732473
 30
0.0
 10
10.2625721797
 20
7.9501940964
 30
0.0
 10
10.2635399632
 20
7.9397249732
 30
0.0
 10
10.2638329987
 20
7.9318470284
 30
0.0
 10
10.2638329987
 20
7.9266046872
 30
0.0
  0
SPLINE
  5
360
100
AcDbEntity
  8
0
100
AcDbSpline
 62
7
  6
CONTINUOUS
 70
0
 71
3
 72
15
 73
11
 74
0
 42
0.0000001
 43
0.0000001
 44
0.0000000001
 40
0.0
 40
0.0
 40
0.0
 40
0.0
 40
0.1233171261
 40
0.2468171865
 40
0.3706749939
 40
0.4950495802
 40
0.6200773232
 40
0.7458671315
 40
0.872492731
 40
1.0
 40
1.0
 40
1.0
 40
1.0
 10
9.8604436058
 20
9.2737233851
 30
0.0
 10
9.8629681394
 20
9.2761618762
 30
0.0
 10
9.8682881101
 20
9.280774302
 30
0.0
 10
9.8769708264
 20
9.2868014922
 30
0.0
 10
9.8862746513
 20
9.2918823334
 30
0.0
 10
9.8961043519
 20
9.2959646039
 30
0.0
 10
9.9063607737
 20
9.2990077745
 30
0.0
 10
9.916940598
 20
9.3009814175
 30
0.0
 10
9.9277358289
 20
9.3018663367
 30
0.0
 10
9.9349821111
 20
9.3017249952
 30
0.0
 10
9.9386025931
 20
9.3014739139
 30
0.0
  0
SPLINE
  5
361
100
AcDbEntity
  8
0
100
AcDbSpline
 62
7
  6
CONTINUOUS
 70
0
 71
3
 72
15
 73
11
 74
0
 42
0.0000001
 43
0.0000001
 44
0.0000000001
 40
0.0
 40
0.0
 40
0.0
 40
0.0
 40
0.1233171261
 40
0.2468171865
 40
0.3706749939
 40
0.4950495802
 40
0.6200773232
 40
0.7458671315
 40
0.872492731
 40
1.0
 40
1.0
 40
1.0
 40
1.0
 10
11.9120702524
 20
9.1314425939
 30
0.0
 10
11.9145947861
 20
9.133881085
 30
0.0
 10
11.9199147567
 20
9.1384935108
 30
0.0
 10
11.928597473
 20
9.144520701
 30
0.0
 10
11.9379012979
 20
9.1496015422
 30
0.0
 10
11.9477309985
 20
9.1536838128
 30
0.0
 10
11.9579874204
 20
9.1567269833
 30
0.0
 10
11.9685672446
 20
9.1587006263
 30
0.0
 10
11.9793624755
 20
9.1595855455
 30
0.0
 10
11.9866087577
 20
9.159444204
 30
0.0
 10
11.9902292397
 20
9.1591931227
 30
0.0
  0
SPLINE
  5
362
100
AcDbEntity
  8
0
100
AcDbSpline
 62
7
  6
CONTINUOUS
 70
0
 71
3
 72
15
 73
11
 74
0
 42
0.0000001
 43
0.0000001
 44
0.0000000001
 40
0.0
 40
0.0
 40
0.0
 40
0.0
 40
0.1233171261
 40
0.2468171865
 40
0.3706749939
 40
0.4950495802
 40
0.6200773232
 40
0.7458671315
 40
0.872492731
 40
1.0
 40
1.0
 40
1.0
 40
1.0
 10
11.9120702524
 20
7.3802190021
 30
0.0
 10
11.9145947861
 20
7.3826574932
 30
0.0
 10
11.9199147567
 20
7.387269919
 30
0.0
 10
11.928597473
 20
7.3932971092
 30
0.0
 10
11.9379012979
 20
7.3983779504
 30
0.0
 10
11.9477309985
 20
7.4024602209
 30
0.0
 10
11.9579874204
 20
7.4055033914
 30
0.0
 10
11.9685672446
 20
7.4074770345
 30
0.0
 10
11.9793624755
 20
7.4083619537
 30
0.0
 10
11.9866087577
 20
7.4082206121
 30
0.0
 10
11.9902292397
 20
7.4079695309
 30
0.0
  0
SPLINE
  5
363
100
AcDbEntity
  8
0
100
AcDbSpline
 62
7
  6
CONTINUOUS
 70
0
 71
3
 72
15
 73
11
 74
0
 42
0.0000001
 43
0.0000001
 44
0.0000000001
 40
0.0
 40
0.0
 40
0.0
 40
0.0
 40
0.1233171261
 40
0.2468171865
 40
0.3706749939
 40
0.4950495802
 40
0.6200773232
 40
0.7458671315
 40
0.872492731
 40
1.0
 40
1.0
 40
1.0
 40
1.0
 10
9.8604436058
 20
7.5224997933
 30
0.0
 10
9.8629681394
 20
7.5249382844
 30
0.0
 10
9.8682881101
 20
7.5295507102
 30
0.0
 10
9.8769708264
 20
7.5355779004
 30
0.0
 10
9.8862746513
 20
7.5406587416
 30
0.0
 10
9.8961043519
 20
7.5447410121
 30
0.0
 10
9.9063607737
 20
7.5477841826
 30
0.0
 10
9.916940598
 20
7.5497578257
 30
0.0
 10
9.9277358289
 20
7.5506427449
 30
0.0
 10
9.9349821111
 20
7.5505014033
 30
0.0
 10
9.9386025931
 20
7.5502503221
 30
0.0
  0
SPLINE
  5
364
100
AcDbEntity
  8
0
100
AcDbSpline
 62
7
  6
CONTINUOUS
 70
0
 71
3
 72
38
 73
34
 74
0
 42
0.0000001
 43
0.0000001
 44
0.0000000001
 40
0.0
 40
0.0
 40
0.0
 40
0.0
 40
0.0072740291
 40
0.0148705467
 40
0.0227981199
 40
0.0310634322
 40
0.0396716723
 40
0.0486267104
 40
0.0579310866
 40
0.0675864128
 40
0.087949966
 40
0.1097139675
 40
0.1328621013
 40
0.1573687464
 40
0.1832004224
 40
0.2103168751
 40
0.2386718919
 40
0.2682139819
 40
0.29888699
 40
0.3306305745
 40
0.3633806086
 40
0.3970695153
 40
0.4316266425
 40
0.4669785851
 40
0.5030494707
 40
0.5397612151
 40
0.5770337978
 40
0.6147855483
 40
0.6913914982
 40
0.7689038028
 40
0.8466350203
 40
0.9238949572
 40
1.0
 40
1.0
 40
1.0
 40
1.0
 10
10.60126921
 20
10.7502045503
 30
0.0
 10
10.600489729
 20
10.7494791563
 30
0.0
 10
10.5988603639
 20
10.7480343554
 30
0.0
 10
10.5962696122
 20
10.7459293145
 30
0.0
 10
10.5934815091
 20
10.743841428
 30
0.0
 10
10.5904977844
 20
10.7417718997
 30
0.0
 10
10.5873201488
 20
10.7397218934
 30
0.0
 10
10.5839504493
 20
10.7376926367
 30
0.0
 10
10.5803906767
 20
10.7356852211
 30
0.0
 10
10.5753029355
 20
10.7329915466
 30
0.0
 10
10.568472729
 20
10.7296972835
 30
0.0
 10
10.5596944079
 20
10.7259170458
 30
0.0
 10
10.5502145517
 20
10.7222513931
 30
0.0
 10
10.540055482
 20
10.7187090366
 30
0.0
 10
10.5292409492
 20
10.7152984098
 30
0.0
 10
10.517796424
 20
10.7120276766
 30
0.0
 10
10.5057489201
 20
10.7089046717
 30
0.0
 10
10.493126947
 20
10.7059368739
 30
0.0
 10
10.4799604112
 20
10.7031313991
 30
0.0
 10
10.466280537
 20
10.7004949759
 30
0.0
 10
10.4521197926
 20
10.6980339319
 30
0.0
 10
10.4375118133
 20
10.695754159
 30
0.0
 10
10.422491312
 20
10.6936611165
 30
0.0
 10
10.4070939893
 20
10.6917598186
 30
0.0
 10
10.3913564458
 20
10.6900548223
 30
0.0
 10
10.375316112
 20
10.6885502168
 30
0.0
 10
10.3590111067
 20
10.6872495715
 30
0.0
 10
10.3368628536
 20
10.6857845111
 30
0.0
 10
10.3088027551
 20
10.6844890419
 30
0.0
 10
10.2748676198
 20
10.6837902543
 30
0.0
 10
10.2408297394
 20
10.6839467487
 30
0.0
 10
10.2070128179
 20
10.6849569615
 30
0.0
 10
10.1845944798
 20
10.6862061328
 30
0.0
 10
10.1734806874
 20
10.6869768769
 30
0.0
  0
SPLINE
  5
365
100
AcDbEntity
  8
0
100
AcDbSpline
 62
7
  6
CONTINUOUS
 70
0
 71
3
 72
45
 73
41
 74
0
 42
0.0000001
 43
0.0000001
 44
0.0000000001
 40
0.0
 40
0.0
 40
0.0
 40
0.0
 40
0.0072739558
 40
0.0148704119
 40
0.0227979115
 40
0.0310631355
 40
0.0396713201
 40
0.0486262485
 40
0.0579305549
 40
0.0675857872
 40
0.0775925122
 40
0.0879505101
 40
0.0986586949
 40
0.1097153946
 40
0.1328632833
 40
0.1573696824
 40
0.1832011113
 40
0.2103172952
 40
0.238672015
 40
0.2682138013
 40
0.2988865023
 40
0.3306297636
 40
0.3633794443
 40
0.3970679869
 40
0.4316247534
 40
0.4669763338
 40
0.5030468397
 40
0.5397581883
 40
0.5770303723
 40
0.6147817223
 40
0.6529291636
 40
0.6913884691
 40
0.73007451
 40
0.7689015024
 40
0.8077832695
 40
0.8466334342
 40
0.8853658686
 40
0.9238943066
 40
0.9621342347
 40
1.0
 40
1.0
 40
1.0
 40
1.0
 10
12.0467991743
 20
10.6494876065
 30
0.0
 10
12.0456076809
 20
10.648378791
 30
0.0
 10
12.0431170779
 20
10.6461703063
 30
0.0
 10
12.0391569132
 20
10.6429526118
 30
0.0
 10
12.0348950909
 20
10.6397611325
 30
0.0
 10
12.0303342539
 20
10.6365976967
 30
0.0
 10
12.0254769885
 20
10.6334641497
 30
0.0
 10
12.0203261684
 20
10.6303622502
 30
0.0
 10
12.0148847891
 20
10.6272938261
 30
0.0
 10
12.009156044
 20
10.6242606711
 30
0.0
 10
12.0031433059
 20
10.6212645366
 30
0.0
 10
11.9968501013
 20
10.6183072461
 30
0.0
 10
11.9902801496
 20
10.6153904538
 30
0.0
 10
11.9810142288
 20
10.6114982208
 30
0.0
 10
11.9687583079
 20
10.6067592475
 30
0.0
 10
11.9532295538
 20
10.6013445098
 30
0.0
 10
11.936698726
 20
10.5961311338
 30
0.0
 10
11.9192049561
 20
10.5911315927
 30
0.0
 10
11.9007894845
 20
10.5863578579
 30
0.0
 10
11.8814958986
 20
10.5818213723
 30
0.0
 10
11.8613699063
 20
10.5775330129
 30
0.0
 10
11.8404592438
 20
10.5735030616
 30
0.0
 10
11.8188135448
 20
10.5697411797
 30
0.0
 10
11.7964842171
 20
10.5662563836
 30
0.0
 10
11.7735243154
 20
10.5630570241
 30
0.0
 10
11.7499884121
 20
10.560150765
 30
0.0
 10
11.7259324634
 20
10.557544564
 30
0.0
 10
11.7014136725
 20
10.5552446601
 30
0.0
 10
11.6764903511
 20
10.5532565573
 30
0.0
 10
11.6512217784
 20
10.5515850135
 30
0.0
 10
11.6256680601
 20
10.5502340282
 30
0.0
 10
11.5998899839
 20
10.5492068343
 30
0.0
 10
11.573948875
 20
10.5485058905
 30
0.0
 10
11.5479064471
 20
10.5481328721
 30
0.0
 10
11.5218246643
 20
10.5480886724
 30
0.0
 10
11.495765555
 20
10.5483733903
 30
0.0
 10
11.4697911799
 20
10.5489863577
 30
0.0
 10
11.4439631848
 20
10.5499260865
 30
0.0
 10
11.4183432326
 20
10.5511903593
 30
0.0
 10
11.4013465084
 20
10.5522535363
 30
0.0
 10
11.3928939978
 20
10.5528397199
 30
0.0
  0
SPLINE
  5
366
100
AcDbEntity
  8
0
100
AcDbSpline
 62
7
  6
CONTINUOUS
 70
0
 71
3
 72
33
 73
29
 74
0
 42
0.0000001
 43
0.0000001
 44
0.0000000001
 40
0.0
 40
0.0
 40
0.0
 40
0.0
 40
0.0162143622
 40
0.0334274546
 40
0.0516718384
 40
0.0709709673
 40
0.091340521
 40
0.1127896145
 40
0.1353219486
 40
0.1589362983
 40
0.1836275063
 40
0.2093866716
 40
0.2362017893
 40
0.2640580332
 40
0.292937936
 40
0.3228218741
 40
0.3536879448
 40
0.3855124635
 40
0.4182698709
 40
0.4519329767
 40
0.4864731136
 40
0.5218600733
 40
0.5950461591
 40
0.6712264494
 40
0.7501171679
 40
0.8314196573
 40
0.914821199
 40
1.0
 40
1.0
 40
1.0
 40
1.0
 10
12.9100412203
 20
7.9903412079
 30
0.0
 10
12.9087098092
 20
7.9919782463
 30
0.0
 10
12.9060770378
 20
7.9954453639
 30
0.0
 10
12.9023224312
 20
8.0010276709
 30
0.0
 10
12.8986503395
 20
8.0071378716
 30
0.0
 10
12.8950645708
 20
8.0137695142
 30
0.0
 10
12.8915685912
 20
8.0209159638
 30
0.0
 10
12.8881659228
 20
8.0285698922
 30
0.0
 10
12.8848601054
 20
8.0367234615
 30
0.0
 10
12.8816545048
 20
8.0453682343
 30
0.0
 10
12.8785525274
 20
8.0544952587
 30
0.0
 10
12.8755573929
 20
8.0640950286
 30
0.0
 10
12.8726722688
 20
8.0741575293
 30
0.0
 10
12.8699002192
 20
8.08467224
 30
0.0
 10
12.8672441386
 20
8.0956281445
 30
0.0
 10
12.8647068903
 20
8.1070137564
 30
0.0
 10
12.8622911138
 20
8.1188171204
 30
0.0
 10
12.8599994073
 20
8.1310258361
 30
0.0
 10
12.857834183
 20
8.1436270694
 30
0.0
 10
12.8557977377
 20
8.1566075621
 30
0.0
 10
12.8538922316
 20
8.1699536719
 30
0.0
 10
12.851502079
 20
8.1884245967
 30
0.0
 10
12.8488691001
 20
8.2123260213
 30
0.0
 10
12.8462942283
 20
8.2419214912
 30
0.0
 10
12.8442809916
 20
8.2726189424
 30
0.0
 10
12.8428380693
 20
8.3042890529
 30
0.0
 10
12.8419717122
 20
8.3367985577
 30
0.0
 10
12.8417828231
 20
8.3587378217
 30
0.0
 10
12.8417828231
 20
8.3698228313
 30
0.0
  0
SPLINE
  5
367
100
AcDbEntity
  8
0
100
AcDbSpline
 62
7
  6
CONTINUOUS
 70
0
 71
3
 72
55
 73
51
 74
0
 42
0.0000001
 43
0.0000001
 44
0.0000000001
 40
0.0
 40
0.0
 40
0.0
 40
0.0
 40
0.0528986798
 40
0.105025167
 40
0.1562614457
 40
0.2064947477
 40
0.2556139303
 40
0.3035120078
 40
0.3500857496
 40
0.3952364114
 40
0.438870148
 40
0.4808985781
 40
0.5212393855
 40
0.5598170114
 40
0.5965634737
 40
0.6314193601
 40
0.6481230396
 40
0.6643363723
 40
0.6800549504
 40
0.6952752411
 40
0.7099945348
 40
0.7242112599
 40
0.7379248026
 40
0.7511359392
 40
0.763846696
 40
0.7760607393
 40
0.787783448
 40
0.7990221634
 40
0.8097865507
 40
0.8200887259
 40
0.8299438607
 40
0.8393703024
 40
0.8483902623
 40
0.8570300516
 40
0.8732870956
 40
0.8809922431
 40
0.8884715522
 40
0.8957761651
 40
0.9029614496
 40
0.910085814
 40
0.9172093332
 40
0.9243920993
 40
0.9316926048
 40
0.9391662845
 40
0.9468644641
 40
0.963103959
 40
0.9717335084
 40
0.9807424311
 40
0.9901571715
 40
1.0
 40
1.0
 40
1.0
 40
1.0
 10
11.6698301475
 20
10.8203395149
 30
0.0
 10
11.6782811607
 20
10.8197534352
 30
0.0
 10
11.6950521918
 20
10.818476265
 30
0.0
 10
11.7199757753
 20
10.816227176
 30
0.0
 10
11.7444398558
 20
10.8136628593
 30
0.0
 10
11.7683846443
 20
10.8107896613
 30
0.0
 10
11.7917519568
 20
10.8076145897
 30
0.0
 10
11.8144848407
 20
10.8041454574
 30
0.0
 10
11.8365279818
 20
10.80039077
 30
0.0
 10
11.857827741
 20
10.7963597497
 30
0.0
 10
11.8783323233
 20
10.7920622945
 30
0.0
 10
11.8979919108
 20
10.7875089621
 30
0.0
 10
11.9167587712
 20
10.7827109392
 30
0.0
 10
11.9345874733
 20
10.7776800125
 30
0.0
 10
11.9514347119
 20
10.7724285229
 30
0.0
 10
11.9648057162
 20
10.7678161439
 30
0.0
 10
11.9749725728
 20
10.7640161986
 30
0.0
 10
11.9822189178
 20
10.7611596387
 30
0.0
 10
11.9891906159
 20
10.7582577278
 30
0.0
 10
11.9958834634
 20
10.7553122347
 30
0.0
 10
12.0022933951
 20
10.7523249029
 30
0.0
 10
12.0084165596
 20
10.7492976048
 30
0.0
 10
12.0142492421
 20
10.7462320988
 30
0.0
 10
12.0197879551
 20
10.743130294
 30
0.0
 10
12.0250293547
 20
10.7399939973
 30
0.0
 10
12.0299703101
 20
10.7368251018
 30
0.0
 10
12.0346078702
 20
10.7336254767
 30
0.0
 10
12.0389392487
 20
10.7303969635
 30
0.0
 10
12.0429618976
 20
10.7271414738
 30
0.0
 10
12.0466733549
 20
10.7238607954
 30
0.0
 10
12.0500714724
 20
10.720556795
 30
0.0
 10
12.0531540227
 20
10.717231353
 30
0.0
 10
12.0559194395
 20
10.7138857842
 30
0.0
 10
12.0591154726
 20
10.7094915481
 30
0.0
 10
12.0617647161
 20
10.7049666963
 30
0.0
 10
12.0637711642
 20
10.7003433472
 30
0.0
 10
12.0649240154
 20
10.6969265198
 30
0.0
 10
12.0657497805
 20
10.6935016687
 30
0.0
 10
12.0662476275
 20
10.6900711578
 30
0.0
 10
12.0664166982
 20
10.6866377442
 30
0.0
 10
12.0662568353
 20
10.6832042933
 30
0.0
 10
12.0657682276
 20
10.6797736556
 30
0.0
 10
12.0649515954
 20
10.6763486252
 30
0.0
 10
12.0638079445
 20
10.6729315171
 30
0.0
 10
12.0618139247
 20
10.6683080364
 30
0.0
 10
12.0591767698
 20
10.6637824886
 30
0.0
 10
12.0559923623
 20
10.6593874906
 30
0.0
 10
12.0532358577
 20
10.6560413735
 30
0.0
 10
12.0501622262
 20
10.6527154304
 30
0.0
 10
12.0479530681
 20
10.6505614315
 30
0.0
 10
12.0467991743
 20
10.6494876065
 30
0.0
  0
SPLINE
  5
368
100
AcDbEntity
  8
0
100
AcDbSpline
 62
7
  6
CONTINUOUS
 70
0
 71
3
 72
42
 73
38
 74
0
 42
0.0000001
 43
0.0000001
 44
0.0000000001
 40
0.0
 40
0.0
 40
0.0
 40
0.0
 40
0.0299419634
 40
0.0449235299
 40
0.0599142017
 40
0.0899287029
 40
0.1200139772
 40
0.1350926626
 40
0.1501967046
 40
0.1804840506
 40
0.2108978877
 40
0.2414513551
 40
0.2721543675
 40
0.3030134354
 40
0.3340315696
 40
0.3652082675
 40
0.3965395775
 40
0.4280182343
 40
0.4596338596
 40
0.4913732188
 40
0.5232205284
 40
0.5551578047
 40
0.5871652463
 40
0.6192216448
 40
0.6513048151
 40
0.6833920402
 40
0.7154605222
 40
0.747487836
 40
0.7794523759
 40
0.8113337934
 40
0.8431134117
 40
0.8747746318
 40
0.9063032512
 40
0.9376879208
 40
0.9533258
 40
0.9689252634
 40
1.0
 40
1.0
 40
1.0
 40
1.0
 10
9.3602246257
 20
9.9238743474
 30
0.0
 10
9.3565914865
 20
9.9203650258
 30
0.0
 10
9.3509276191
 20
9.9153136927
 30
0.0
 10
9.3429955003
 20
9.9090460884
 30
0.0
 10
9.3348107833
 20
9.9030903696
 30
0.0
 10
9.3241310735
 20
9.8962512749
 30
0.0
 10
9.3129321098
 20
9.8902690463
 30
0.0
 10
9.303695867
 20
9.886013283
 30
0.0
 10
9.2942688306
 20
9.8821088395
 30
0.0
 10
9.2821743703
 20
9.8779104592
 30
0.0
 10
9.2672697812
 20
9.8739976741
 30
0.0
 10
9.2520399717
 20
9.871225767
 30
0.0
 10
9.2365693432
 20
9.8696100303
 30
0.0
 10
9.220942879
 20
9.8691590866
 30
0.0
 10
9.2052465606
 20
9.8698752309
 30
0.0
 10
9.1895666582
 20
9.8717543264
 30
0.0
 10
9.1739893262
 20
9.8747858635
 30
0.0
 10
9.1586001171
 20
9.8789530177
 30
0.0
 10
9.1434835231
 20
9.8842327489
 30
0.0
 10
9.1287225174
 20
9.8905959317
 30
0.0
 10
9.1143981054
 20
9.8980075175
 30
0.0
 10
9.1005888867
 20
9.9064267274
 30
0.0
 10
9.0873706292
 20
9.9158072763
 30
0.0
 10
9.0748158586
 20
9.9260976254
 30
0.0
 10
9.0629934656
 20
9.9372412636
 30
0.0
 10
9.0519683316
 20
9.9491770145
 30
0.0
 10
9.0418009768
 20
9.9618393695
 30
0.0
 10
9.0325472311
 20
9.9751588439
 30
0.0
 10
9.0242579303
 20
9.9890623503
 30
0.0
 10
9.016978639
 20
10.0034736113
 30
0.0
 10
9.0107494036
 20
10.0183135125
 30
0.0
 10
9.0056045205
 20
10.0335007519
 30
0.0
 10
9.0015724115
 20
10.0489514653
 30
0.0
 10
8.9991550726
 20
10.0619935425
 30
0.0
 10
8.9977990172
 20
10.0724726934
 30
0.0
 10
8.9968312337
 20
10.0829418167
 30
0.0
 10
8.9965381983
 20
10.0908197614
 30
0.0
 10
8.9965381983
 20
10.0960621026
 30
0.0
  0
SPLINE
  5
369
100
AcDbEntity
  8
0
100
AcDbSpline
 62
7
  6
CONTINUOUS
 70
0
 71
3
 72
42
 73
38
 74
0
 42
0.0000001
 43
0.0000001
 44
0.0000000001
 40
0.0
 40
0.0
 40
0.0
 40
0.0
 40
0.0299419634
 40
0.0449235299
 40
0.0599142017
 40
0.0899287029
 40
0.1200139772
 40
0.1350926626
 40
0.1501967046
 40
0.1804840506
 40
0.2108978877
 40
0.2414513551
 40
0.2721543675
 40
0.3030134354
 40
0.3340315696
 40
0.3652082675
 40
0.3965395775
 40
0.4280182343
 40
0.4596338596
 40
0.4913732188
 40
0.5232205284
 40
0.5551578047
 40
0.5871652463
 40
0.6192216448
 40
0.6513048151
 40
0.6833920402
 40
0.7154605222
 40
0.747487836
 40
0.7794523759
 40
0.8113337934
 40
0.8431134117
 40
0.8747746318
 40
0.9063032512
 40
0.9376879208
 40
0.9533258
 40
0.9689252634
 40
1.0
 40
1.0
 40
1.0
 40
1.0
 10
12.377777127
 20
9.7146063707
 30
0.0
 10
12.3741439879
 20
9.7110970491
 30
0.0
 10
12.3684801204
 20
9.706045716
 30
0.0
 10
12.3605480016
 20
9.6997781116
 30
0.0
 10
12.3523632847
 20
9.6938223928
 30
0.0
 10
12.3416835749
 20
9.6869832982
 30
0.0
 10
12.3304846111
 20
9.6810010696
 30
0.0
 10
12.3212483684
 20
9.6767453063
 30
0.0
 10
12.3118213319
 20
9.6728408627
 30
0.0
 10
12.2997268716
 20
9.6686424825
 30
0.0
 10
12.2848222826
 20
9.6647296974
 30
0.0
 10
12.2695924731
 20
9.6619577903
 30
0.0
 10
12.2541218445
 20
9.6603420536
 30
0.0
 10
12.2384953804
 20
9.6598911099
 30
0.0
 10
12.2227990619
 20
9.6606072542
 30
0.0
 10
12.2071191596
 20
9.6624863497
 30
0.0
 10
12.1915418276
 20
9.6655178868
 30
0.0
 10
12.1761526185
 20
9.6696850409
 30
0.0
 10
12.1610360244
 20
9.6749647721
 30
0.0
 10
12.1462750187
 20
9.681327955
 30
0.0
 10
12.1319506068
 20
9.6887395408
 30
0.0
 10
12.1181413881
 20
9.6971587507
 30
0.0
 10
12.1049231306
 20
9.7065392995
 30
0.0
 10
12.09236836
 20
9.7168296487
 30
0.0
 10
12.0805459669
 20
9.7279732868
 30
0.0
 10
12.0695208329
 20
9.7399090378
 30
0.0
 10
12.0593534781
 20
9.7525713927
 30
0.0
 10
12.0500997324
 20
9.7658908671
 30
0.0
 10
12.0418104316
 20
9.7797943736
 30
0.0
 10
12.0345311403
 20
9.7942056346
 30
0.0
 10
12.028301905
 20
9.8090455358
 30
0.0
 10
12.0231570218
 20
9.8242327751
 30
0.0
 10
12.0191249129
 20
9.8396834886
 30
0.0
 10
12.016707574
 20
9.8527255658
 30
0.0
 10
12.0153515186
 20
9.8632047167
 30
0.0
 10
12.0143837351
 20
9.8736738399
 30
0.0
 10
12.0140906996
 20
9.8815517846
 30
0.0
 10
12.0140906996
 20
9.8867941259
 30
0.0
  0
SPLINE
  5
36A
100
AcDbEntity
  8
0
100
AcDbSpline
 62
7
  6
CONTINUOUS
 70
0
 71
3
 72
39
 73
35
 74
0
 42
0.0000001
 43
0.0000001
 44
0.0000000001
 40
0.0
 40
0.0
 40
0.0
 40
0.0
 40
0.0314026134
 40
0.06300949
 40
0.0948071102
 40
0.1267734453
 40
0.1588809722
 40
0.1910970226
 40
0.2233851132
 40
0.2557062446
 40
0.2880202663
 40
0.3202872751
 40
0.3524690067
 40
0.384530184
 40
0.4164397927
 40
0.448172249
 40
0.4797084083
 40
0.5110363809
 40
0.5421521201
 40
0.5730597413
 40
0.6037715194
 40
0.6343075569
 40
0.6646951118
 40
0.6949675896
 40
0.7251632184
 40
0.755323478
 40
0.7854913548
 40
0.8157095105
 40
0.8460184691
 40
0.8764549222
 40
0.9070502335
 40
0.9378293335
 40
0.9688091139
 40
1.0
 40
1.0
 40
1.0
 40
1.0
 10
9.9325203506
 20
9.0555663363
 30
0.0
 10
9.9282086149
 20
9.0558653562
 30
0.0
 10
9.9195808395
 20
9.0568902538
 30
0.0
 10
9.9068130484
 20
9.0596738747
 30
0.0
 10
9.8942927384
 20
9.0636819581
 30
0.0
 10
9.8821417017
 20
9.0688756615
 30
0.0
 10
9.8704761555
 20
9.075204814
 30
0.0
 10
9.8594081151
 20
9.0826084136
 30
0.0
 10
9.849043716
 20
9.0910152337
 30
0.0
 10
9.839482409
 20
9.100344506
 30
0.0
 10
9.8308159793
 20
9.1105066778
 30
0.0
 10
9.823127637
 20
9.1214042089
 30
0.0
 10
9.8164912795
 20
9.1329325454
 30
0.0
 10
9.8109707976
 20
9.1449810959
 30
0.0
 10
9.8066194711
 20
9.157434262
 30
0.0
 10
9.803479383
 20
9.170172498
 30
0.0
 10
9.8015810764
 20
9.1830734636
 30
0.0
 10
9.800943248
 20
9.1960131618
 30
0.0
 10
9.8015725438
 20
9.2088670955
 30
0.0
 10
9.8034633796
 20
9.2215114502
 30
0.0
 10
9.8065980278
 20
9.2338242808
 30
0.0
 10
9.8109467384
 20
9.2456866795
 30
0.0
 10
9.8164679726
 20
9.2569839342
 30
0.0
 10
9.8231086884
 20
9.2676067103
 30
0.0
 10
9.8308049014
 20
9.2774521348
 30
0.0
 10
9.8394822926
 20
9.2864248398
 30
0.0
 10
9.8490569349
 20
9.2944379377
 30
0.0
 10
9.8594360961
 20
9.3014139736
 30
0.0
 10
9.8705192377
 20
9.3072856498
 30
0.0
 10
9.8821990875
 20
9.3119964685
 30
0.0
 10
9.8943625559
 20
9.3155012923
 30
0.0
 10
9.9068924599
 20
9.3177666879
 30
0.0
 10
9.9196663518
 20
9.3187715341
 30
0.0
 10
9.9282376861
 20
9.3185951804
 30
0.0
 10
9.9325203506
 20
9.3182981766
 30
0.0
  0
SPLINE
  5
36B
100
AcDbEntity
  8
0
100
AcDbSpline
 62
7
  6
CONTINUOUS
 70
0
 71
3
 72
42
 73
38
 74
0
 42
0.0000001
 43
0.0000001
 44
0.0000000001
 40
0.0
 40
0.0
 40
0.0
 40
0.0
 40
0.0299419634
 40
0.0449235299
 40
0.0599142017
 40
0.0899287029
 40
0.1200139772
 40
0.1350926626
 40
0.1501967046
 40
0.1804840506
 40
0.2108978877
 40
0.2414513551
 40
0.2721543675
 40
0.3030134354
 40
0.3340315696
 40
0.3652082675
 40
0.3965395775
 40
0.4280182343
 40
0.4596338596
 40
0.4913732188
 40
0.5232205284
 40
0.5551578047
 40
0.5871652463
 40
0.6192216448
 40
0.6513048151
 40
0.6833920402
 40
0.7154605222
 40
0.747487836
 40
0.7794523759
 40
0.8113337934
 40
0.8431134117
 40
0.8747746318
 40
0.9063032512
 40
0.9376879208
 40
0.9533258
 40
0.9689252634
 40
1.0
 40
1.0
 40
1.0
 40
1.0
 10
12.377777127
 20
6.2140911579
 30
0.0
 10
12.3741439879
 20
6.2105818363
 30
0.0
 10
12.3684801204
 20
6.2055305032
 30
0.0
 10
12.3605480016
 20
6.1992628988
 30
0.0
 10
12.3523632847
 20
6.19330718
 30
0.0
 10
12.3416835749
 20
6.1864680854
 30
0.0
 10
12.3304846111
 20
6.1804858568
 30
0.0
 10
12.3212483684
 20
6.1762300935
 30
0.0
 10
12.3118213319
 20
6.1723256499
 30
0.0
 10
12.2997268716
 20
6.1681272697
 30
0.0
 10
12.2848222826
 20
6.1642144845
 30
0.0
 10
12.2695924731
 20
6.1614425775
 30
0.0
 10
12.2541218445
 20
6.1598268408
 30
0.0
 10
12.2384953804
 20
6.1593758971
 30
0.0
 10
12.2227990619
 20
6.1600920414
 30
0.0
 10
12.2071191596
 20
6.1619711369
 30
0.0
 10
12.1915418276
 20
6.165002674
 30
0.0
 10
12.1761526185
 20
6.1691698281
 30
0.0
 10
12.1610360244
 20
6.1744495593
 30
0.0
 10
12.1462750187
 20
6.1808127422
 30
0.0
 10
12.1319506068
 20
6.188224328
 30
0.0
 10
12.1181413881
 20
6.1966435379
 30
0.0
 10
12.1049231306
 20
6.2060240867
 30
0.0
 10
12.09236836
 20
6.2163144359
 30
0.0
 10
12.0805459669
 20
6.227458074
 30
0.0
 10
12.0695208329
 20
6.239393825
 30
0.0
 10
12.0593534781
 20
6.2520561799
 30
0.0
 10
12.0500997324
 20
6.2653756543
 30
0.0
 10
12.0418104316
 20
6.2792791608
 30
0.0
 10
12.0345311403
 20
6.2936904218
 30
0.0
 10
12.028301905
 20
6.308530323
 30
0.0
 10
12.0231570218
 20
6.3237175623
 30
0.0
 10
12.0191249129
 20
6.3391682758
 30
0.0
 10
12.016707574
 20
6.352210353
 30
0.0
 10
12.0153515186
 20
6.3626895039
 30
0.0
 10
12.0143837351
 20
6.3731586271
 30
0.0
 10
12.0140906996
 20
6.3810365718
 30
0.0
 10
12.0140906996
 20
6.3862789131
 30
0.0
  0
SPLINE
  5
36C
100
AcDbEntity
  8
0
100
AcDbSpline
 62
7
  6
CONTINUOUS
 70
0
 71
3
 72
39
 73
35
 74
0
 42
0.0000001
 43
0.0000001
 44
0.0000000001
 40
0.0
 40
0.0
 40
0.0
 40
0.0
 40
0.0314026134
 40
0.06300949
 40
0.0948071102
 40
0.1267734453
 40
0.1588809722
 40
0.1910970226
 40
0.2233851132
 40
0.2557062446
 40
0.2880202663
 40
0.3202872751
 40
0.3524690067
 40
0.384530184
 40
0.4164397927
 40
0.448172249
 40
0.4797084083
 40
0.5110363809
 40
0.5421521201
 40
0.5730597413
 40
0.6037715194
 40
0.6343075569
 40
0.6646951118
 40
0.6949675896
 40
0.7251632184
 40
0.755323478
 40
0.7854913548
 40
0.8157095105
 40
0.8460184691
 40
0.8764549222
 40
0.9070502335
 40
0.9378293335
 40
0.9688091139
 40
1.0
 40
1.0
 40
1.0
 40
1.0
 10
11.9841469972
 20
9.1760173855
 30
0.0
 10
11.9884587329
 20
9.1757183656
 30
0.0
 10
11.9970865083
 20
9.174693468
 30
0.0
 10
12.0098542994
 20
9.1719098471
 30
0.0
 10
12.0223746094
 20
9.1679017637
 30
0.0
 10
12.0345256461
 20
9.1627080603
 30
0.0
 10
12.0461911923
 20
9.1563789078
 30
0.0
 10
12.0572592327
 20
9.1489753082
 30
0.0
 10
12.0676236318
 20
9.1405684881
 30
0.0
 10
12.0771849388
 20
9.1312392158
 30
0.0
 10
12.0858513685
 20
9.1210770439
 30
0.0
 10
12.0935397108
 20
9.1101795129
 30
0.0
 10
12.1001760683
 20
9.0986511764
 30
0.0
 10
12.1056965502
 20
9.0866026259
 30
0.0
 10
12.1100478767
 20
9.0741494597
 30
0.0
 10
12.1131879648
 20
9.0614112237
 30
0.0
 10
12.1150862715
 20
9.0485102582
 30
0.0
 10
12.1157240999
 20
9.03557056
 30
0.0
 10
12.1150948041
 20
9.0227166263
 30
0.0
 10
12.1132039683
 20
9.0100722716
 30
0.0
 10
12.11006932
 20
8.997759441
 30
0.0
 10
12.1057206094
 20
8.9858970422
 30
0.0
 10
12.1001993752
 20
8.9745997876
 30
0.0
 10
12.0935586594
 20
8.9639770114
 30
0.0
 10
12.0858624464
 20
8.954131587
 30
0.0
 10
12.0771850552
 20
8.945158882
 30
0.0
 10
12.0676104129
 20
8.9371457841
 30
0.0
 10
12.0572312517
 20
8.9301697482
 30
0.0
 10
12.0461481101
 20
8.924298072
 30
0.0
 10
12.0344682603
 20
8.9195872532
 30
0.0
 10
12.0223047919
 20
8.9160824295
 30
0.0
 10
12.0097748879
 20
8.9138170339
 30
0.0
 10
11.997000996
 20
8.9128121877
 30
0.0
 10
11.9884296617
 20
8.9129885413
 30
0.0
 10
11.9841469972
 20
8.9132855451
 30
0.0
  0
SPLINE
  5
36D
100
AcDbEntity
  8
0
100
AcDbSpline
 62
7
  6
CONTINUOUS
 70
0
 71
3
 72
42
 73
38
 74
0
 42
0.0000001
 43
0.0000001
 44
0.0000000001
 40
0.0
 40
0.0
 40
0.0
 40
0.0
 40
0.0299419634
 40
0.0449235299
 40
0.0599142017
 40
0.0899287029
 40
0.1200139772
 40
0.1350926626
 40
0.1501967046
 40
0.1804840506
 40
0.2108978877
 40
0.2414513551
 40
0.2721543675
 40
0.3030134354
 40
0.3340315696
 40
0.3652082675
 40
0.3965395775
 40
0.4280182343
 40
0.4596338596
 40
0.4913732188
 40
0.5232205284
 40
0.5551578047
 40
0.5871652463
 40
0.6192216448
 40
0.6513048151
 40
0.6833920402
 40
0.7154605222
 40
0.747487836
 40
0.7794523759
 40
0.8113337934
 40
0.8431134117
 40
0.8747746318
 40
0.9063032512
 40
0.9376879208
 40
0.9533258
 40
0.9689252634
 40
1.0
 40
1.0
 40
1.0
 40
1.0
 10
9.3602246257
 20
6.4233591346
 30
0.0
 10
9.3565914865
 20
6.419849813
 30
0.0
 10
9.3509276191
 20
6.4147984799
 30
0.0
 10
9.3429955003
 20
6.4085308756
 30
0.0
 10
9.3348107833
 20
6.4025751567
 30
0.0
 10
9.3241310735
 20
6.3957360621
 30
0.0
 10
9.3129321098
 20
6.3897538335
 30
0.0
 10
9.303695867
 20
6.3854980702
 30
0.0
 10
9.2942688306
 20
6.3815936267
 30
0.0
 10
9.2821743703
 20
6.3773952464
 30
0.0
 10
9.2672697812
 20
6.3734824613
 30
0.0
 10
9.2520399717
 20
6.3707105542
 30
0.0
 10
9.2365693432
 20
6.3690948175
 30
0.0
 10
9.220942879
 20
6.3686438738
 30
0.0
 10
9.2052465606
 20
6.3693600181
 30
0.0
 10
9.1895666582
 20
6.3712391136
 30
0.0
 10
9.1739893262
 20
6.3742706507
 30
0.0
 10
9.1586001171
 20
6.3784378048
 30
0.0
 10
9.1434835231
 20
6.3837175361
 30
0.0
 10
9.1287225174
 20
6.3900807189
 30
0.0
 10
9.1143981054
 20
6.3974923047
 30
0.0
 10
9.1005888867
 20
6.4059115146
 30
0.0
 10
9.0873706292
 20
6.4152920635
 30
0.0
 10
9.0748158586
 20
6.4255824126
 30
0.0
 10
9.0629934656
 20
6.4367260508
 30
0.0
 10
9.0519683316
 20
6.4486618017
 30
0.0
 10
9.0418009768
 20
6.4613241566
 30
0.0
 10
9.0325472311
 20
6.474643631
 30
0.0
 10
9.0242579303
 20
6.4885471375
 30
0.0
 10
9.016978639
 20
6.5029583985
 30
0.0
 10
9.0107494036
 20
6.5177982997
 30
0.0
 10
9.0056045205
 20
6.5329855391
 30
0.0
 10
9.0015724115
 20
6.5484362525
 30
0.0
 10
8.9991550726
 20
6.5614783297
 30
0.0
 10
8.9977990172
 20
6.5719574806
 30
0.0
 10
8.9968312337
 20
6.5824266038
 30
0.0
 10
8.9965381983
 20
6.5903045485
 30
0.0
 10
8.9965381983
 20
6.5955468898
 30
0.0
  0
SPLINE
  5
36E
100
AcDbEntity
  8
0
100
AcDbSpline
 62
7
  6
CONTINUOUS
 70
0
 71
3
 72
42
 73
38
 74
0
 42
0.0000001
 43
0.0000001
 44
0.0000000001
 40
0.0
 40
0.0
 40
0.0
 40
0.0
 40
0.0299419634
 40
0.0449235299
 40
0.0599142017
 40
0.0899287029
 40
0.1200139772
 40
0.1350926626
 40
0.1501967046
 40
0.1804840506
 40
0.2108978877
 40
0.2414513551
 40
0.2721543675
 40
0.3030134354
 40
0.3340315696
 40
0.3652082675
 40
0.3965395775
 40
0.4280182343
 40
0.4596338596
 40
0.4913732188
 40
0.5232205284
 40
0.5551578047
 40
0.5871652463
 40
0.6192216448
 40
0.6513048151
 40
0.6833920402
 40
0.7154605222
 40
0.747487836
 40
0.7794523759
 40
0.8113337934
 40
0.8431134117
 40
0.8747746318
 40
0.9063032512
 40
0.9376879208
 40
0.9533258
 40
0.9689252634
 40
1.0
 40
1.0
 40
1.0
 40
1.0
 10
11.1104823328
 20
8.7167928289
 30
0.0
 10
11.1068491937
 20
8.7132835073
 30
0.0
 10
11.1011853262
 20
8.7082321741
 30
0.0
 10
11.0932532074
 20
8.7019645698
 30
0.0
 10
11.0850684905
 20
8.696008851
 30
0.0
 10
11.0743887807
 20
8.6891697563
 30
0.0
 10
11.063189817
 20
8.6831875278
 30
0.0
 10
11.0539535742
 20
8.6789317645
 30
0.0
 10
11.0445265377
 20
8.6750273209
 30
0.0
 10
11.0324320774
 20
8.6708289407
 30
0.0
 10
11.0175274884
 20
8.6669161555
 30
0.0
 10
11.0022976789
 20
8.6641442485
 30
0.0
 10
10.9868270504
 20
8.6625285118
 30
0.0
 10
10.9712005862
 20
8.6620775681
 30
0.0
 10
10.9555042677
 20
8.6627937124
 30
0.0
 10
10.9398243654
 20
8.6646728078
 30
0.0
 10
10.9242470334
 20
8.667704345
 30
0.0
 10
10.9088578243
 20
8.6718714991
 30
0.0
 10
10.8937412303
 20
8.6771512303
 30
0.0
 10
10.8789802245
 20
8.6835144132
 30
0.0
 10
10.8646558126
 20
8.690925999
 30
0.0
 10
10.8508465939
 20
8.6993452088
 30
0.0
 10
10.8376283364
 20
8.7087257577
 30
0.0
 10
10.8250735658
 20
8.7190161069
 30
0.0
 10
10.8132511728
 20
8.730159745
 30
0.0
 10
10.8022260388
 20
8.742095496
 30
0.0
 10
10.7920586839
 20
8.7547578509
 30
0.0
 10
10.7828049383
 20
8.7680773253
 30
0.0
 10
10.7745156374
 20
8.7819808318
 30
0.0
 10
10.7672363461
 20
8.7963920928
 30
0.0
 10
10.7610071108
 20
8.811231994
 30
0.0
 10
10.7558622277
 20
8.8264192333
 30
0.0
 10
10.7518301187
 20
8.8418699467
 30
0.0
 10
10.7494127798
 20
8.854912024
 30
0.0
 10
10.7480567244
 20
8.8653911749
 30
0.0
 10
10.7470889409
 20
8.8758602981
 30
0.0
 10
10.7467959054
 20
8.8837382428
 30
0.0
 10
10.7467959054
 20
8.8889805841
 30
0.0
  0
SPLINE
  5
36F
100
AcDbEntity
  8
0
100
AcDbSpline
 62
7
  6
CONTINUOUS
 70
0
 71
3
 72
39
 73
35
 74
0
 42
0.0000001
 43
0.0000001
 44
0.0000000001
 40
0.0
 40
0.0
 40
0.0
 40
0.0
 40
0.0311445425
 40
0.0624433652
 40
0.093888256
 40
0.1254710218
 40
0.1571788766
 40
0.1889972611
 40
0.2209091725
 40
0.2528958428
 40
0.2849370253
 40
0.3170114183
 40
0.349097079
 40
0.3811718482
 40
0.4132137779
 40
0.4452015551
 40
0.4771149166
 40
0.5089350506
 40
0.5406449764
 40
0.5722298984
 40
0.6036775288
 40
0.634978368
 40
0.6661259371
 40
0.6971169555
 40
0.7279514574
 40
0.758632841
 40
0.7891678449
 40
0.819566448
 40
0.8498416915
 40
0.8800094239
 40
0.9100879689
 40
0.9400977235
 40
0.9700606966
 40
1.0
 40
1.0
 40
1.0
 40
1.0
 10
9.9386025931
 20
7.3329169983
 30
0.0
 10
9.9359490959
 20
7.3331010189
 30
0.0
 10
9.930640455
 20
7.3336642199
 30
0.0
 10
9.9227418801
 20
7.3350828434
 30
0.0
 10
9.9149278749
 20
7.3370700213
 30
0.0
 10
9.9072407188
 20
7.3396148941
 30
0.0
 10
9.8997211868
 20
7.3427039419
 30
0.0
 10
9.8924094106
 20
7.3463205784
 30
0.0
 10
9.885344337
 20
7.350445505
 30
0.0
 10
9.8785636136
 20
7.3550566887
 30
0.0
 10
9.872103371
 20
7.3601295305
 30
0.0
 10
9.8659980331
 20
7.365636974
 30
0.0
 10
9.8602801335
 20
7.3715496531
 30
0.0
 10
9.8549801473
 20
7.3778360515
 30
0.0
 10
9.8501263306
 20
7.3844626675
 30
0.0
 10
9.8457445708
 20
7.3913941914
 30
0.0
 10
9.8418582506
 20
7.3985936908
 30
0.0
 10
9.8384881239
 20
7.406022805
 30
0.0
 10
9.8356522058
 20
7.4136419463
 30
0.0
 10
9.8333656769
 20
7.4214105082
 30
0.0
 10
9.8316407949
 20
7.4292870773
 30
0.0
 10
9.8304868315
 20
7.4372296535
 30
0.0
 10
9.8299100238
 20
7.4451958717
 30
0.0
 10
9.8299135382
 20
7.453143224
 30
0.0
 10
9.8304974495
 20
7.4610292843
 30
0.0
 10
9.8316587369
 20
7.4688119323
 30
0.0
 10
9.8333912945
 20
7.4764495772
 30
0.0
 10
9.8356859597
 20
7.4839013807
 30
0.0
 10
9.8385305517
 20
7.4911274735
 30
0.0
 10
9.8419099394
 20
7.4980891882
 30
0.0
 10
9.845806075
 20
7.5047492174
 30
0.0
 10
9.8501982759
 20
7.5110720085
 30
0.0
 10
9.8550626316
 20
7.517023254
 30
0.0
 10
9.8586045085
 20
7.5207233771
 30
0.0
 10
9.8604436058
 20
7.5224997933
 30
0.0
  0
SPLINE
  5
370
100
AcDbEntity
  8
0
100
AcDbSpline
 62
7
  6
CONTINUOUS
 70
0
 71
3
 72
42
 73
38
 74
0
 42
0.0000001
 43
0.0000001
 44
0.0000000001
 40
0.0
 40
0.0
 40
0.0
 40
0.0
 40
0.0299419634
 40
0.0449235299
 40
0.0599142017
 40
0.0899287029
 40
0.1200139772
 40
0.1350926626
 40
0.1501967046
 40
0.1804840506
 40
0.2108978877
 40
0.2414513551
 40
0.2721543675
 40
0.3030134354
 40
0.3340315696
 40
0.3652082675
 40
0.3965395775
 40
0.4280182343
 40
0.4596338596
 40
0.4913732188
 40
0.5232205284
 40
0.5551578047
 40
0.5871652463
 40
0.6192216448
 40
0.6513048151
 40
0.6833920402
 40
0.7154605222
 40
0.747487836
 40
0.7794523759
 40
0.8113337934
 40
0.8431134117
 40
0.8747746318
 40
0.9063032512
 40
0.9376879208
 40
0.9533258
 40
0.9689252634
 40
1.0
 40
1.0
 40
1.0
 40
1.0
 10
10.7183164066
 20
8.1702297861
 30
0.0
 10
10.7146832675
 20
8.1667204645
 30
0.0
 10
10.7090194
 20
8.1616691313
 30
0.0
 10
10.7010872812
 20
8.155401527
 30
0.0
 10
10.6929025643
 20
8.1494458082
 30
0.0
 10
10.6822228545
 20
8.1426067135
 30
0.0
 10
10.6710238907
 20
8.136624485
 30
0.0
 10
10.661787648
 20
8.1323687216
 30
0.0
 10
10.6523606115
 20
8.1284642781
 30
0.0
 10
10.6402661512
 20
8.1242658978
 30
0.0
 10
10.6253615622
 20
8.1203531127
 30
0.0
 10
10.6101317527
 20
8.1175812057
 30
0.0
 10
10.5946611241
 20
8.115965469
 30
0.0
 10
10.57903466
 20
8.1155145253
 30
0.0
 10
10.5633383415
 20
8.1162306696
 30
0.0
 10
10.5476584392
 20
8.118109765
 30
0.0
 10
10.5320811072
 20
8.1211413022
 30
0.0
 10
10.5166918981
 20
8.1253084563
 30
0.0
 10
10.501575304
 20
8.1305881875
 30
0.0
 10
10.4868142983
 20
8.1369513704
 30
0.0
 10
10.4724898864
 20
8.1443629561
 30
0.0
 10
10.4586806677
 20
8.152782166
 30
0.0
 10
10.4454624102
 20
8.1621627149
 30
0.0
 10
10.4329076396
 20
8.172453064
 30
0.0
 10
10.4210852465
 20
8.1835967022
 30
0.0
 10
10.4100601125
 20
8.1955324532
 30
0.0
 10
10.3998927577
 20
8.2081948081
 30
0.0
 10
10.390639012
 20
8.2215142825
 30
0.0
 10
10.3823497112
 20
8.235417789
 30
0.0
 10
10.3750704199
 20
8.24982905
 30
0.0
 10
10.3688411846
 20
8.2646689512
 30
0.0
 10
10.3636963014
 20
8.2798561905
 30
0.0
 10
10.3596641925
 20
8.2953069039
 30
0.0
 10
10.3572468536
 20
8.3083489811
 30
0.0
 10
10.3558907982
 20
8.3188281321
 30
0.0
 10
10.3549230147
 20
8.3292972553
 30
0.0
 10
10.3546299792
 20
8.3371752
 30
0.0
 10
10.3546299792
 20
8.3424175413
 30
0.0
  0
SPLINE
  5
371
100
AcDbEntity
  8
0
100
AcDbSpline
 62
7
  6
CONTINUOUS
 70
0
 71
3
 72
42
 73
38
 74
0
 42
0.0000001
 43
0.0000001
 44
0.0000000001
 40
0.0
 40
0.0
 40
0.0
 40
0.0
 40
0.0299419634
 40
0.0449235299
 40
0.0599142017
 40
0.0899287029
 40
0.1200139772
 40
0.1350926626
 40
0.1501967046
 40
0.1804840506
 40
0.2108978877
 40
0.2414513551
 40
0.2721543675
 40
0.3030134354
 40
0.3340315696
 40
0.3652082675
 40
0.3965395775
 40
0.4280182343
 40
0.4596338596
 40
0.4913732188
 40
0.5232205284
 40
0.5551578047
 40
0.5871652463
 40
0.6192216448
 40
0.6513048151
 40
0.6833920402
 40
0.7154605222
 40
0.747487836
 40
0.7794523759
 40
0.8113337934
 40
0.8431134117
 40
0.8747746318
 40
0.9063032512
 40
0.9376879208
 40
0.9533258
 40
0.9689252634
 40
1.0
 40
1.0
 40
1.0
 40
1.0
 10
11.5026481439
 20
8.1158361953
 30
0.0
 10
11.4990150047
 20
8.1123268738
 30
0.0
 10
11.4933511373
 20
8.1072755406
 30
0.0
 10
11.4854190185
 20
8.1010079363
 30
0.0
 10
11.4772343015
 20
8.0950522175
 30
0.0
 10
11.4665545918
 20
8.0882131228
 30
0.0
 10
11.455355628
 20
8.0822308942
 30
0.0
 10
11.4461193852
 20
8.0779751309
 30
0.0
 10
11.4366923488
 20
8.0740706874
 30
0.0
 10
11.4245978885
 20
8.0698723071
 30
0.0
 10
11.4096932995
 20
8.065959522
 30
0.0
 10
11.39446349
 20
8.0631876149
 30
0.0
 10
11.3789928614
 20
8.0615718782
 30
0.0
 10
11.3633663973
 20
8.0611209345
 30
0.0
 10
11.3476700788
 20
8.0618370788
 30
0.0
 10
11.3319901765
 20
8.0637161743
 30
0.0
 10
11.3164128445
 20
8.0667477114
 30
0.0
 10
11.3010236353
 20
8.0709148656
 30
0.0
 10
11.2859070413
 20
8.0761945968
 30
0.0
 10
11.2711460356
 20
8.0825577797
 30
0.0
 10
11.2568216236
 20
8.0899693654
 30
0.0
 10
11.243012405
 20
8.0983885753
 30
0.0
 10
11.2297941474
 20
8.1077691242
 30
0.0
 10
11.2172393769
 20
8.1180594733
 30
0.0
 10
11.2054169838
 20
8.1292031115
 30
0.0
 10
11.1943918498
 20
8.1411388624
 30
0.0
 10
11.184224495
 20
8.1538012174
 30
0.0
 10
11.1749707493
 20
8.1671206918
 30
0.0
 10
11.1666814485
 20
8.1810241983
 30
0.0
 10
11.1594021572
 20
8.1954354592
 30
0.0
 10
11.1531729218
 20
8.2102753605
 30
0.0
 10
11.1480280387
 20
8.2254625998
 30
0.0
 10
11.1439959298
 20
8.2409133132
 30
0.0
 10
11.1415785909
 20
8.2539553904
 30
0.0
 10
11.1402225355
 20
8.2644345414
 30
0.0
 10
11.139254752
 20
8.2749036646
 30
0.0
 10
11.1389617165
 20
8.2827816093
 30
0.0
 10
11.1389617165
 20
8.2880239505
 30
0.0
  0
SPLINE
  5
372
100
AcDbEntity
  8
0
100
AcDbSpline
 62
7
  6
CONTINUOUS
 70
0
 71
3
 72
42
 73
38
 74
0
 42
0.0000001
 43
0.0000001
 44
0.0000000001
 40
0.0
 40
0.0
 40
0.0
 40
0.0
 40
0.0299419634
 40
0.0449235299
 40
0.0599142017
 40
0.0899287029
 40
0.1200139772
 40
0.1350926626
 40
0.1501967046
 40
0.1804840506
 40
0.2108978877
 40
0.2414513551
 40
0.2721543675
 40
0.3030134354
 40
0.3340315696
 40
0.3652082675
 40
0.3965395775
 40
0.4280182343
 40
0.4596338596
 40
0.4913732188
 40
0.5232205284
 40
0.5551578047
 40
0.5871652463
 40
0.6192216448
 40
0.6513048151
 40
0.6833920402
 40
0.7154605222
 40
0.747487836
 40
0.7794523759
 40
0.8113337934
 40
0.8431134117
 40
0.8747746318
 40
0.9063032512
 40
0.9376879208
 40
0.9533258
 40
0.9689252634
 40
1.0
 40
1.0
 40
1.0
 40
1.0
 10
10.2044438891
 20
7.7837573201
 30
0.0
 10
10.2008107499
 20
7.7802479985
 30
0.0
 10
10.1951468825
 20
7.7751966654
 30
0.0
 10
10.1872147637
 20
7.768929061
 30
0.0
 10
10.1790300467
 20
7.7629733422
 30
0.0
 10
10.168350337
 20
7.7561342476
 30
0.0
 10
10.1571513732
 20
7.750152019
 30
0.0
 10
10.1479151304
 20
7.7458962557
 30
0.0
 10
10.138488094
 20
7.7419918121
 30
0.0
 10
10.1263936337
 20
7.7377934319
 30
0.0
 10
10.1114890447
 20
7.7338806468
 30
0.0
 10
10.0962592352
 20
7.7311087397
 30
0.0
 10
10.0807886066
 20
7.729493003
 30
0.0
 10
10.0651621425
 20
7.7290420593
 30
0.0
 10
10.049465824
 20
7.7297582036
 30
0.0
 10
10.0337859217
 20
7.7316372991
 30
0.0
 10
10.0182085896
 20
7.7346688362
 30
0.0
 10
10.0028193805
 20
7.7388359903
 30
0.0
 10
9.9877027865
 20
7.7441157215
 30
0.0
 10
9.9729417808
 20
7.7504789044
 30
0.0
 10
9.9586173688
 20
7.7578904902
 30
0.0
 10
9.9448081502
 20
7.7663097001
 30
0.0
 10
9.9315898926
 20
7.7756902489
 30
0.0
 10
9.9190351221
 20
7.7859805981
 30
0.0
 10
9.907212729
 20
7.7971242362
 30
0.0
 10
9.896187595
 20
7.8090599872
 30
0.0
 10
9.8860202402
 20
7.8217223421
 30
0.0
 10
9.8767664945
 20
7.8350418165
 30
0.0
 10
9.8684771937
 20
7.848945323
 30
0.0
 10
9.8611979024
 20
7.863356584
 30
0.0
 10
9.854968667
 20
7.8781964852
 30
0.0
 10
9.8498237839
 20
7.8933837245
 30
0.0
 10
9.845791675
 20
7.908834438
 30
0.0
 10
9.8433743361
 20
7.9218765152
 30
0.0
 10
9.8420182807
 20
7.9323556661
 30
0.0
 10
9.8410504972
 20
7.9428247893
 30
0.0
 10
9.8407574617
 20
7.950702734
 30
0.0
 10
9.8407574617
 20
7.9559450753
 30
0.0
  0
SPLINE
  5
373
100
AcDbEntity
  8
0
100
AcDbSpline
 62
7
  6
CONTINUOUS
 70
0
 71
3
 72
15
 73
11
 74
0
 42
0.0000001
 43
0.0000001
 44
0.0000000001
 40
0.0
 40
0.0
 40
0.0
 40
0.0
 40
0.1233171261
 40
0.2468171865
 40
0.3706749939
 40
0.4950495802
 40
0.6200773232
 40
0.7458671315
 40
0.872492731
 40
1.0
 40
1.0
 40
1.0
 40
1.0
 10
10.0167615805
 20
9.1118911189
 30
0.0
 10
10.0142370468
 20
9.1094526278
 30
0.0
 10
10.0089170762
 20
9.104840202
 30
0.0
 10
10.0002343599
 20
9.0988130118
 30
0.0
 10
9.990930535
 20
9.0937321706
 30
0.0
 10
9.9811008344
 20
9.0896499
 30
0.0
 10
9.9708444125
 20
9.0866067295
 30
0.0
 10
9.9602645883
 20
9.0846330865
 30
0.0
 10
9.9494693574
 20
9.0837481673
 30
0.0
 10
9.9422230751
 20
9.0838895088
 30
0.0
 10
9.9386025931
 20
9.0841405901
 30
0.0
  0
SPLINE
  5
374
100
AcDbEntity
  8
0
100
AcDbSpline
 62
7
  6
CONTINUOUS
 70
0
 71
3
 72
39
 73
35
 74
0
 42
0.0000001
 43
0.0000001
 44
0.0000000001
 40
0.0
 40
0.0
 40
0.0
 40
0.0
 40
0.0314026134
 40
0.06300949
 40
0.0948071102
 40
0.1267734453
 40
0.1588809722
 40
0.1910970226
 40
0.2233851132
 40
0.2557062446
 40
0.2880202663
 40
0.3202872751
 40
0.3524690067
 40
0.384530184
 40
0.4164397927
 40
0.448172249
 40
0.4797084083
 40
0.5110363809
 40
0.5421521201
 40
0.5730597413
 40
0.6037715194
 40
0.6343075569
 40
0.6646951118
 40
0.6949675896
 40
0.7251632184
 40
0.755323478
 40
0.7854913548
 40
0.8157095105
 40
0.8460184691
 40
0.8764549222
 40
0.9070502335
 40
0.9378293335
 40
0.9688091139
 40
1.0
 40
1.0
 40
1.0
 40
1.0
 10
11.9841469972
 20
8.9132855451
 30
0.0
 10
11.9798352615
 20
8.913584565
 30
0.0
 10
11.9712074861
 20
8.9146094626
 30
0.0
 10
11.958439695
 20
8.9173930835
 30
0.0
 10
11.9459193851
 20
8.9214011669
 30
0.0
 10
11.9337683483
 20
8.9265948703
 30
0.0
 10
11.9221028021
 20
8.9329240228
 30
0.0
 10
11.9110347617
 20
8.9403276224
 30
0.0
 10
11.9006703626
 20
8.9487344425
 30
0.0
 10
11.8911090556
 20
8.9580637148
 30
0.0
 10
11.8824426259
 20
8.9682258866
 30
0.0
 10
11.8747542836
 20
8.9791234177
 30
0.0
 10
11.8681179261
 20
8.9906517542
 30
0.0
 10
11.8625974442
 20
9.0027003047
 30
0.0
 10
11.8582461177
 20
9.0151534708
 30
0.0
 10
11.8551060296
 20
9.0278917068
 30
0.0
 10
11.853207723
 20
9.0407926724
 30
0.0
 10
11.8525698946
 20
9.0537323706
 30
0.0
 10
11.8531991904
 20
9.0665863043
 30
0.0
 10
11.8550900262
 20
9.079230659
 30
0.0
 10
11.8582246744
 20
9.0915434896
 30
0.0
 10
11.862573385
 20
9.1034058883
 30
0.0
 10
11.8680946192
 20
9.114703143
 30
0.0
 10
11.874735335
 20
9.1253259192
 30
0.0
 10
11.882431548
 20
9.1351713436
 30
0.0
 10
11.8911089392
 20
9.1441440486
 30
0.0
 10
11.9006835815
 20
9.1521571465
 30
0.0
 10
11.9110627427
 20
9.1591331824
 30
0.0
 10
11.9221458843
 20
9.1650048586
 30
0.0
 10
11.9338257341
 20
9.1697156773
 30
0.0
 10
11.9459892025
 20
9.1732205011
 30
0.0
 10
11.9585191065
 20
9.1754858967
 30
0.0
 10
11.9712929984
 20
9.1764907429
 30
0.0
 10
11.9798643327
 20
9.1763143892
 30
0.0
 10
11.9841469972
 20
9.1760173855
 30
0.0
  0
SPLINE
  5
375
100
AcDbEntity
  8
0
100
AcDbSpline
 62
7
  6
CONTINUOUS
 70
0
 71
3
 72
15
 73
11
 74
0
 42
0.0000001
 43
0.0000001
 44
0.0000000001
 40
0.0
 40
0.0
 40
0.0
 40
0.0
 40
0.1233171261
 40
0.2468171865
 40
0.3706749939
 40
0.4950495802
 40
0.6200773232
 40
0.7458671315
 40
0.872492731
 40
1.0
 40
1.0
 40
1.0
 40
1.0
 10
12.0683882271
 20
8.9696103277
 30
0.0
 10
12.0658636934
 20
8.9671718366
 30
0.0
 10
12.0605437228
 20
8.9625594108
 30
0.0
 10
12.0518610065
 20
8.9565322206
 30
0.0
 10
12.0425571816
 20
8.9514513794
 30
0.0
 10
12.032727481
 20
8.9473691088
 30
0.0
 10
12.0224710591
 20
8.9443259383
 30
0.0
 10
12.0118912349
 20
8.9423522953
 30
0.0
 10
12.001096004
 20
8.9414673761
 30
0.0
 10
11.9938497218
 20
8.9416087176
 30
0.0
 10
11.9902292397
 20
8.9418597989
 30
0.0
  0
SPLINE
  5
376
100
AcDbEntity
  8
0
100
AcDbSpline
 62
7
  6
CONTINUOUS
 70
0
 71
3
 72
39
 73
35
 74
0
 42
0.0000001
 43
0.0000001
 44
0.0000000001
 40
0.0
 40
0.0
 40
0.0
 40
0.0
 40
0.0314026134
 40
0.06300949
 40
0.0948071102
 40
0.1267734453
 40
0.1588809722
 40
0.1910970226
 40
0.2233851132
 40
0.2557062446
 40
0.2880202663
 40
0.3202872751
 40
0.3524690067
 40
0.384530184
 40
0.4164397927
 40
0.448172249
 40
0.4797084083
 40
0.5110363809
 40
0.5421521201
 40
0.5730597413
 40
0.6037715194
 40
0.6343075569
 40
0.6646951118
 40
0.6949675896
 40
0.7251632184
 40
0.755323478
 40
0.7854913548
 40
0.8157095105
 40
0.8460184691
 40
0.8764549222
 40
0.9070502335
 40
0.9378293335
 40
0.9688091139
 40
1.0
 40
1.0
 40
1.0
 40
1.0
 10
11.9841469972
 20
7.4247937936
 30
0.0
 10
11.9884587329
 20
7.4244947737
 30
0.0
 10
11.9970865083
 20
7.4234698762
 30
0.0
 10
12.0098542994
 20
7.4206862553
 30
0.0
 10
12.0223746094
 20
7.4166781719
 30
0.0
 10
12.0345256461
 20
7.4114844685
 30
0.0
 10
12.0461911923
 20
7.405155316
 30
0.0
 10
12.0572592327
 20
7.3977517163
 30
0.0
 10
12.0676236318
 20
7.3893448962
 30
0.0
 10
12.0771849388
 20
7.380015624
 30
0.0
 10
12.0858513685
 20
7.3698534521
 30
0.0
 10
12.0935397108
 20
7.358955921
 30
0.0
 10
12.1001760683
 20
7.3474275846
 30
0.0
 10
12.1056965502
 20
7.3353790341
 30
0.0
 10
12.1100478767
 20
7.3229258679
 30
0.0
 10
12.1131879648
 20
7.3101876319
 30
0.0
 10
12.1150862715
 20
7.2972866664
 30
0.0
 10
12.1157240999
 20
7.2843469682
 30
0.0
 10
12.1150948041
 20
7.2714930345
 30
0.0
 10
12.1132039683
 20
7.2588486798
 30
0.0
 10
12.11006932
 20
7.2465358492
 30
0.0
 10
12.1057206094
 20
7.2346734504
 30
0.0
 10
12.1001993752
 20
7.2233761958
 30
0.0
 10
12.0935586594
 20
7.2127534196
 30
0.0
 10
12.0858624464
 20
7.2029079952
 30
0.0
 10
12.0771850552
 20
7.1939352902
 30
0.0
 10
12.0676104129
 20
7.1859221923
 30
0.0
 10
12.0572312517
 20
7.1789461564
 30
0.0
 10
12.0461481101
 20
7.1730744802
 30
0.0
 10
12.0344682603
 20
7.1683636614
 30
0.0
 10
12.0223047919
 20
7.1648588376
 30
0.0
 10
12.0097748879
 20
7.162593442
 30
0.0
 10
11.997000996
 20
7.1615885959
 30
0.0
 10
11.9884296617
 20
7.1617649495
 30
0.0
 10
11.9841469972
 20
7.1620619533
 30
0.0
  0
SPLINE
  5
377
100
AcDbEntity
  8
0
100
AcDbSpline
 62
7
  6
CONTINUOUS
 70
0
 71
3
 72
15
 73
11
 74
0
 42
0.0000001
 43
0.0000001
 44
0.0000000001
 40
0.0
 40
0.0
 40
0.0
 40
0.0
 40
0.1233171261
 40
0.2468171865
 40
0.3706749939
 40
0.4950495802
 40
0.6200773232
 40
0.7458671315
 40
0.872492731
 40
1.0
 40
1.0
 40
1.0
 40
1.0
 10
12.0683882271
 20
7.2183867359
 30
0.0
 10
12.0658636934
 20
7.2159482448
 30
0.0
 10
12.0605437228
 20
7.211335819
 30
0.0
 10
12.0518610065
 20
7.2053086288
 30
0.0
 10
12.0425571816
 20
7.2002277876
 30
0.0
 10
12.032727481
 20
7.196145517
 30
0.0
 10
12.0224710591
 20
7.1931023465
 30
0.0
 10
12.0118912349
 20
7.1911287034
 30
0.0
 10
12.001096004
 20
7.1902437843
 30
0.0
 10
11.9938497218
 20
7.1903851258
 30
0.0
 10
11.9902292397
 20
7.1906362071
 30
0.0
  0
SPLINE
  5
378
100
AcDbEntity
  8
0
100
AcDbSpline
 62
7
  6
CONTINUOUS
 70
0
 71
3
 72
21
 73
17
 74
0
 42
0.0000001
 43
0.0000001
 44
0.0000000001
 40
0.0
 40
0.0
 40
0.0
 40
0.0
 40
0.1273176984
 40
0.2537999461
 40
0.3167619614
 40
0.3795355204
 40
0.4421314992
 40
0.5045621453
 40
0.5668413456
 40
0.6289845231
 40
0.6910084433
 40
0.7529310869
 40
0.8147714401
 40
0.8765493236
 40
0.9382852134
 40
1.0
 40
1.0
 40
1.0
 40
1.0
 10
9.8407574617
 20
7.9559450753
 30
0.0
 10
9.8407574617
 20
7.9626898834
 30
0.0
 10
9.8414012987
 20
7.9761439228
 30
0.0
 10
9.8438328899
 20
7.9927760199
 30
0.0
 10
9.846739157
 20
8.0058224435
 30
0.0
 10
9.8493895209
 20
8.015445492
 30
0.0
 10
9.8525075156
 20
8.0248975437
 30
0.0
 10
9.8560859524
 20
8.0341570783
 30
0.0
 10
9.860116581
 20
8.0432026797
 30
0.0
 10
9.8645901889
 20
8.0520134712
 30
0.0
 10
9.869496427
 20
8.0605691428
 30
0.0
 10
9.8748239807
 20
8.0688499767
 30
0.0
 10
9.8805606151
 20
8.0768368113
 30
0.0
 10
9.8866931363
 20
8.0845113038
 30
0.0
 10
9.8932071298
 20
8.091855542
 30
0.0
 10
9.8977950226
 20
8.0965210346
 30
0.0
 10
9.9001465712
 20
8.0987924424
 30
0.0
  0
SPLINE
  5
379
100
AcDbEntity
  8
0
100
AcDbSpline
 62
7
  6
CONTINUOUS
 70
0
 71
3
 72
54
 73
50
 74
0
 42
0.0000001
 43
0.0000001
 44
0.0000000001
 40
0.0
 40
0.0
 40
0.0
 40
0.0
 40
0.0528972703
 40
0.1050236102
 40
0.1562586956
 40
0.2064912169
 40
0.2556095761
 40
0.3035068022
 40
0.3500797459
 40
0.3952296382
 40
0.4388626511
 40
0.4808903716
 40
0.5212304867
 40
0.5598074629
 40
0.5965533244
 40
0.6314086405
 40
0.6643237754
 40
0.6952605309
 40
0.7241941465
 40
0.7379074947
 40
0.7511184105
 40
0.7638289449
 40
0.7760428194
 40
0.7877653084
 40
0.7990038589
 40
0.8097680706
 40
0.8200700738
 40
0.8299250591
 40
0.8393513485
 40
0.8483711549
 40
0.8570108247
 40
0.8653012609
 40
0.8732784613
 40
0.8809834857
 40
0.8884626614
 40
0.8957671673
 40
0.9029523224
 40
0.9100765681
 40
0.9171999641
 40
0.9243826074
 40
0.9316829711
 40
0.9391565341
 40
0.9468545557
 40
0.954823507
 40
0.9631046608
 40
0.9717340359
 40
0.9807428048
 40
0.9901573598
 40
1.0
 40
1.0
 40
1.0
 40
1.0
 10
10.3546538695
 20
10.8619767429
 30
0.0
 10
10.3601825139
 20
10.8615933301
 30
0.0
 10
10.3711542348
 20
10.8607577908
 30
0.0
 10
10.3874593667
 20
10.8592864356
 30
0.0
 10
10.4034639483
 20
10.8576088338
 30
0.0
 10
10.4191287322
 20
10.855729183
 30
0.0
 10
10.4344157574
 20
10.8536520351
 30
0.0
 10
10.4492877268
 20
10.8513825065
 30
0.0
 10
10.4637084619
 20
10.8489261698
 30
0.0
 10
10.4776428785
 20
10.8462890562
 30
0.0
 10
10.491057089
 20
10.8434776434
 30
0.0
 10
10.5039184958
 20
10.8404988304
 30
0.0
 10
10.516195882
 20
10.8373599375
 30
0.0
 10
10.5278594947
 20
10.8340686793
 30
0.0
 10
10.53888113
 20
10.830633133
 30
0.0
 10
10.5492341815
 20
10.8270617174
 30
0.0
 10
10.5588938435
 20
10.8233631403
 30
0.0
 10
10.5678368251
 20
10.8195464143
 30
0.0
 10
10.5747939163
 20
10.8162180778
 30
0.0
 10
10.5799746894
 20
10.813495318
 30
0.0
 10
10.5835981518
 20
10.8114660801
 30
0.0
 10
10.5870271014
 20
10.8094142945
 30
0.0
 10
10.5902595139
 20
10.8073412026
 30
0.0
 10
10.5932934247
 20
10.805247975
 30
0.0
 10
10.5961270458
 20
10.8031358756
 30
0.0
 10
10.598758687
 20
10.8010061164
 30
0.0
 10
10.6011867469
 20
10.7988598721
 30
0.0
 10
10.6034098115
 20
10.7966983991
 30
0.0
 10
10.6054264739
 20
10.7945228187
 30
0.0
 10
10.6072354967
 20
10.7923343326
 30
0.0
 10
10.6088357075
 20
10.7901341022
 30
0.0
 10
10.6102259243
 20
10.7879232471
 30
0.0
 10
10.6114051569
 20
10.7857030084
 30
0.0
 10
10.6123723076
 20
10.7834745853
 30
0.0
 10
10.6131264399
 20
10.7812393471
 30
0.0
 10
10.6136667274
 20
10.7789987837
 30
0.0
 10
10.6139923731
 20
10.776754522
 30
0.0
 10
10.6141030257
 20
10.7745083681
 30
0.0
 10
10.6139984363
 20
10.7722621835
 30
0.0
 10
10.6136787809
 20
10.7700178526
 30
0.0
 10
10.6131445691
 20
10.7677771487
 30
0.0
 10
10.6123963958
 20
10.765541751
 30
0.0
 10
10.6114352248
 20
10.7633131168
 30
0.0
 10
10.6102619564
 20
10.7610926171
 30
0.0
 10
10.6088776169
 20
10.7588815068
 30
0.0
 10
10.6072833292
 20
10.7566809369
 30
0.0
 10
10.6054801264
 20
10.7544921121
 30
0.0
 10
10.6034693197
 20
10.7523161943
 30
0.0
 10
10.6020240912
 20
10.7509070515
 30
0.0
 10
10.60126921
 20
10.7502045503
 30
0.0
  0
SPLINE
  5
37A
100
AcDbEntity
  8
0
100
AcDbSpline
 62
7
  6
CONTINUOUS
 70
0
 71
3
 72
15
 73
11
 74
0
 42
0.0000001
 43
0.0000001
 44
0.0000000001
 40
0.0
 40
0.0
 40
0.0
 40
0.0
 40
0.1233171261
 40
0.2468171865
 40
0.3706749939
 40
0.4950495802
 40
0.6200773232
 40
0.7458671315
 40
0.872492731
 40
1.0
 40
1.0
 40
1.0
 40
1.0
 10
10.0167615805
 20
7.3606675271
 30
0.0
 10
10.0142370468
 20
7.3582290359
 30
0.0
 10
10.0089170762
 20
7.3536166102
 30
0.0
 10
10.0002343599
 20
7.34758942
 30
0.0
 10
9.990930535
 20
7.3425085787
 30
0.0
 10
9.9811008344
 20
7.3384263082
 30
0.0
 10
9.9708444125
 20
7.3353831377
 30
0.0
 10
9.9602645883
 20
7.3334094946
 30
0.0
 10
9.9494693574
 20
7.3325245755
 30
0.0
 10
9.9422230751
 20
7.332665917
 30
0.0
 10
9.9386025931
 20
7.3329169983
 30
0.0
  0
SPLINE
  5
37B
100
AcDbEntity
  8
0
100
AcDbSpline
 62
7
  6
CONTINUOUS
 70
0
 71
3
 72
21
 73
17
 74
0
 42
0.0000001
 43
0.0000001
 44
0.0000000001
 40
0.0
 40
0.0
 40
0.0
 40
0.0
 40
0.1273176984
 40
0.2537999461
 40
0.3167619614
 40
0.3795355204
 40
0.4421314992
 40
0.5045621453
 40
0.5668413456
 40
0.6289845231
 40
0.6910084433
 40
0.7529310869
 40
0.8147714401
 40
0.8765493236
 40
0.9382852134
 40
1.0
 40
1.0
 40
1.0
 40
1.0
 10
10.3546299792
 20
8.3424175413
 30
0.0
 10
10.3546299792
 20
8.3491623494
 30
0.0
 10
10.3552738162
 20
8.3626163888
 30
0.0
 10
10.3577054075
 20
8.3792484859
 30
0.0
 10
10.3606116745
 20
8.3922949095
 30
0.0
 10
10.3632620385
 20
8.401917958
 30
0.0
 10
10.3663800331
 20
8.4113700097
 30
0.0
 10
10.3699584699
 20
8.4206295442
 30
0.0
 10
10.3739890986
 20
8.4296751457
 30
0.0
 10
10.3784627064
 20
8.4384859372
 30
0.0
 10
10.3833689446
 20
8.4470416087
 30
0.0
 10
10.3886964982
 20
8.4553224427
 30
0.0
 10
10.3944331326
 20
8.4633092772
 30
0.0
 10
10.4005656539
 20
8.4709837697
 30
0.0
 10
10.4070796473
 20
8.478328008
 30
0.0
 10
10.4116675401
 20
8.4829935006
 30
0.0
 10
10.4140190888
 20
8.4852649084
 30
0.0
  0
SPLINE
  5
37C
100
AcDbEntity
  8
0
100
AcDbSpline
 62
7
  6
CONTINUOUS
 70
0
 71
3
 72
39
 73
35
 74
0
 42
0.0000001
 43
0.0000001
 44
0.0000000001
 40
0.0
 40
0.0
 40
0.0
 40
0.0
 40
0.0311445425
 40
0.0624433652
 40
0.093888256
 40
0.1254710218
 40
0.1571788766
 40
0.1889972611
 40
0.2209091725
 40
0.2528958428
 40
0.2849370253
 40
0.3170114183
 40
0.349097079
 40
0.3811718482
 40
0.4132137779
 40
0.4452015551
 40
0.4771149166
 40
0.5089350506
 40
0.5406449764
 40
0.5722298984
 40
0.6036775288
 40
0.634978368
 40
0.6661259371
 40
0.6971169555
 40
0.7279514574
 40
0.758632841
 40
0.7891678449
 40
0.819566448
 40
0.8498416915
 40
0.8800094239
 40
0.9100879689
 40
0.9400977235
 40
0.9700606966
 40
1.0
 40
1.0
 40
1.0
 40
1.0
 10
11.9902292397
 20
8.9418597989
 30
0.0
 10
11.9875757425
 20
8.9420438196
 30
0.0
 10
11.9822671016
 20
8.9426070205
 30
0.0
 10
11.9743685267
 20
8.9440256441
 30
0.0
 10
11.9665545215
 20
8.9460128219
 30
0.0
 10
11.9588673654
 20
8.9485576947
 30
0.0
 10
11.9513478334
 20
8.9516467425
 30
0.0
 10
11.9440360572
 20
8.9552633791
 30
0.0
 10
11.9369709836
 20
8.9593883056
 30
0.0
 10
11.9301902603
 20
8.9639994894
 30
0.0
 10
11.9237300176
 20
8.9690723312
 30
0.0
 10
11.9176246797
 20
8.9745797746
 30
0.0
 10
11.9119067801
 20
8.9804924538
 30
0.0
 10
11.906606794
 20
8.9867788521
 30
0.0
 10
11.9017529772
 20
8.9934054681
 30
0.0
 10
11.8973712174
 20
9.000336992
 30
0.0
 10
11.8934848972
 20
9.0075364915
 30
0.0
 10
11.8901147705
 20
9.0149656057
 30
0.0
 10
11.8872788524
 20
9.0225847469
 30
0.0
 10
11.8849923235
 20
9.0303533088
 30
0.0
 10
11.8832674416
 20
9.0382298779
 30
0.0
 10
11.8821134781
 20
9.0461724542
 30
0.0
 10
11.8815366705
 20
9.0541386723
 30
0.0
 10
11.8815401848
 20
9.0620860246
 30
0.0
 10
11.8821240961
 20
9.0699720849
 30
0.0
 10
11.8832853835
 20
9.0777547329
 30
0.0
 10
11.8850179411
 20
9.0853923778
 30
0.0
 10
11.8873126063
 20
9.0928441814
 30
0.0
 10
11.8901571983
 20
9.1000702742
 30
0.0
 10
11.893536586
 20
9.1070319888
 30
0.0
 10
11.8974327217
 20
9.1136920181
 30
0.0
 10
11.9018249225
 20
9.1200148092
 30
0.0
 10
11.9066892782
 20
9.1259660546
 30
0.0
 10
11.9102311551
 20
9.1296661778
 30
0.0
 10
11.9120702524
 20
9.1314425939
 30
0.0
  0
SPLINE
  5
37D
100
AcDbEntity
  8
0
100
AcDbSpline
 62
7
  6
CONTINUOUS
 70
0
 71
3
 72
21
 73
17
 74
0
 42
0.0000001
 43
0.0000001
 44
0.0000000001
 40
0.0
 40
0.0
 40
0.0
 40
0.0
 40
0.1273176984
 40
0.2537999461
 40
0.3167619614
 40
0.3795355204
 40
0.4421314992
 40
0.5045621453
 40
0.5668413456
 40
0.6289845231
 40
0.6910084433
 40
0.7529310869
 40
0.8147714401
 40
0.8765493236
 40
0.9382852134
 40
1.0
 40
1.0
 40
1.0
 40
1.0
 10
11.1389617165
 20
8.2880239505
 30
0.0
 10
11.1389617165
 20
8.2947687586
 30
0.0
 10
11.1396055535
 20
8.3082227981
 30
0.0
 10
11.1420371447
 20
8.3248548951
 30
0.0
 10
11.1449434118
 20
8.3379013188
 30
0.0
 10
11.1475937757
 20
8.3475243672
 30
0.0
 10
11.1507117704
 20
8.356976419
 30
0.0
 10
11.1542902072
 20
8.3662359535
 30
0.0
 10
11.1583208358
 20
8.3752815549
 30
0.0
 10
11.1627944437
 20
8.3840923465
 30
0.0
 10
11.1677006818
 20
8.392648018
 30
0.0
 10
11.1730282355
 20
8.4009288519
 30
0.0
 10
11.1787648699
 20
8.4089156865
 30
0.0
 10
11.1848973911
 20
8.416590179
 30
0.0
 10
11.1914113846
 20
8.4239344173
 30
0.0
 10
11.1959992774
 20
8.4285999099
 30
0.0
 10
11.198350826
 20
8.4308713176
 30
0.0
  0
SPLINE
  5
37E
100
AcDbEntity
  8
0
100
AcDbSpline
 62
7
  6
CONTINUOUS
 70
0
 71
3
 72
21
 73
17
 74
0
 42
0.0000001
 43
0.0000001
 44
0.0000000001
 40
0.0
 40
0.0
 40
0.0
 40
0.0
 40
0.1273176984
 40
0.2537999461
 40
0.3167619614
 40
0.3795355204
 40
0.4421314992
 40
0.5045621453
 40
0.5668413456
 40
0.6289845231
 40
0.6910084433
 40
0.7529310869
 40
0.8147714401
 40
0.8765493236
 40
0.9382852134
 40
1.0
 40
1.0
 40
1.0
 40
1.0
 10
8.9965381983
 20
10.0960621026
 30
0.0
 10
8.9965381983
 20
10.1028069107
 30
0.0
 10
8.9971820353
 20
10.1162609502
 30
0.0
 10
8.9996136265
 20
10.1328930472
 30
0.0
 10
9.0025198936
 20
10.1459394709
 30
0.0
 10
9.0051702575
 20
10.1555625193
 30
0.0
 10
9.0082882522
 20
10.1650145711
 30
0.0
 10
9.0118666889
 20
10.1742741056
 30
0.0
 10
9.0158973176
 20
10.183319707
 30
0.0
 10
9.0203709255
 20
10.1921304986
 30
0.0
 10
9.0252771636
 20
10.2006861701
 30
0.0
 10
9.0306047172
 20
10.208967004
 30
0.0
 10
9.0363413517
 20
10.2169538386
 30
0.0
 10
9.0424738729
 20
10.2246283311
 30
0.0
 10
9.0489878664
 20
10.2319725694
 30
0.0
 10
9.0535757591
 20
10.236638062
 30
0.0
 10
9.0559273078
 20
10.2389094697
 30
0.0
  0
SPLINE
  5
37F
100
AcDbEntity
  8
0
100
AcDbSpline
 62
7
  6
CONTINUOUS
 70
0
 71
3
 72
57
 73
53
 74
0
 42
0.0000001
 43
0.0000001
 44
0.0000000001
 40
0.0
 40
0.0
 40
0.0
 40
0.0
 40
0.0452110865
 40
0.0910028242
 40
0.1371913659
 40
0.1835897252
 40
0.2300103491
 40
0.2762654306
 40
0.322168039
 40
0.3675330583
 40
0.4121781623
 40
0.455924794
 40
0.4985991619
 40
0.5400332611
 40
0.5800659408
 40
0.6185440327
 40
0.6371551104
 40
0.6553243454
 40
0.6730354391
 40
0.6902727827
 40
0.7070216175
 40
0.7232680569
 40
0.7389991152
 40
0.7542029018
 40
0.7688685534
 40
0.7829865005
 40
0.7965484778
 40
0.8095477097
 40
0.821979148
 40
0.8338395576
 40
0.8451279653
 40
0.8558458254
 40
0.8659975478
 40
0.8755909914
 40
0.884638041
 40
0.8931555401
 40
0.9011660873
 40
0.9086993175
 40
0.9157930777
 40
0.9224947256
 40
0.9288622523
 40
0.9349646745
 40
0.9408815465
 40
0.9467008391
 40
0.9525153883
 40
0.9584182693
 40
0.9644981485
 40
0.9708355186
 40
0.9775005516
 40
0.9845523135
 40
0.9920392032
 40
1.0
 40
1.0
 40
1.0
 40
1.0
 10
13.1187189728
 20
8.6373226264
 30
0.0
 10
13.1187189728
 20
8.6259160101
 30
0.0
 10
13.1185155427
 20
8.6029558193
 30
0.0
 10
13.1176185189
 20
8.5683529388
 30
0.0
 10
13.1161310888
 20
8.5334705151
 30
0.0
 10
13.1140595992
 20
8.4984590062
 30
0.0
 10
13.1114129838
 20
8.4634694286
 30
0.0
 10
13.1082026562
 20
8.4286526534
 30
0.0
 10
13.1044424937
 20
8.3941588156
 30
0.0
 10
13.1001487721
 20
8.3601366415
 30
0.0
 10
13.0953400925
 20
8.326732805
 30
0.0
 10
13.0900373036
 20
8.2940912828
 30
0.0
 10
13.0842634113
 20
8.2623527448
 30
0.0
 10
13.0780434931
 20
8.2316538594
 30
0.0
 10
13.071404553
 20
8.2021269515
 30
0.0
 10
13.0654832487
 20
8.1783469469
 30
0.0
 10
13.0605479319
 20
8.1600116415
 30
0.0
 10
13.0568010747
 20
8.14678362
 30
0.0
 10
13.0529718865
 20
8.1339404402
 30
0.0
 10
13.0490644514
 20
8.1214959248
 30
0.0
 10
13.0450830158
 20
8.1094634731
 30
0.0
 10
13.0410318955
 20
8.0978560299
 30
0.0
 10
13.0369154395
 20
8.0866860832
 30
0.0
 10
13.032738144
 20
8.0759656264
 30
0.0
 10
13.0285044761
 20
8.0657061762
 30
0.0
 10
13.0242190401
 20
8.0559187233
 30
0.0
 10
13.0198864464
 20
8.0466137441
 30
0.0
 10
13.0155113391
 20
8.0378011826
 30
0.0
 10
13.0110984545
 20
8.0294904108
 30
0.0
 10
13.0066524496
 20
8.0216902721
 30
0.0
 10
13.0021780988
 20
8.0144089902
 30
0.0
 10
12.9976800716
 20
8.0076542373
 30
0.0
 10
12.9931630436
 20
8.0014330765
 30
0.0
 10
12.9886316425
 20
7.9957519572
 30
0.0
 10
12.984090309
 20
7.9906168009
 30
0.0
 10
12.9795434549
 20
7.9860328873
 30
0.0
 10
12.9749951709
 20
7.9820051017
 30
0.0
 10
12.9704494262
 20
7.9785378669
 30
0.0
 10
12.9659099546
 20
7.9756354053
 30
0.0
 10
12.9613804139
 20
7.9733019636
 30
0.0
 10
12.956864782
 20
7.9715417813
 30
0.0
 10
12.9523676877
 20
7.9703593815
 30
0.0
 10
12.9478950917
 20
7.9697587436
 30
0.0
 10
12.9434543409
 20
7.969742821
 30
0.0
 10
12.9390537708
 20
7.9703124097
 30
0.0
 10
12.9347015713
 20
7.9714657526
 30
0.0
 10
12.9304048282
 20
7.9731992225
 30
0.0
 10
12.9261689542
 20
7.9755079078
 30
0.0
 10
12.9219981315
 20
7.9783868581
 30
0.0
 10
12.9178956337
 20
7.9818312331
 30
0.0
 10
12.913864725
 20
7.9858361196
 30
0.0
 10
12.9113085107
 20
7.988783009
 30
0.0
 10
12.9100412203
 20
7.9903412079
 30
0.0
  0
SPLINE
  5
380
100
AcDbEntity
  8
0
100
AcDbSpline
 62
7
  6
CONTINUOUS
 70
0
 71
3
 72
21
 73
17
 74
0
 42
0.0000001
 43
0.0000001
 44
0.0000000001
 40
0.0
 40
0.0
 40
0.0
 40
0.0
 40
0.1273176984
 40
0.2537999461
 40
0.3167619614
 40
0.3795355204
 40
0.4421314992
 40
0.5045621453
 40
0.5668413456
 40
0.6289845231
 40
0.6910084433
 40
0.7529310869
 40
0.8147714401
 40
0.8765493236
 40
0.9382852134
 40
1.0
 40
1.0
 40
1.0
 40
1.0
 10
12.0140906996
 20
6.3862789131
 30
0.0
 10
12.0140906996
 20
6.3930237212
 30
0.0
 10
12.0147345366
 20
6.4064777606
 30
0.0
 10
12.0171661279
 20
6.4231098577
 30
0.0
 10
12.0200723949
 20
6.4361562813
 30
0.0
 10
12.0227227589
 20
6.4457793298
 30
0.0
 10
12.0258407535
 20
6.4552313815
 30
0.0
 10
12.0294191903
 20
6.4644909161
 30
0.0
 10
12.033449819
 20
6.4735365175
 30
0.0
 10
12.0379234268
 20
6.482347309
 30
0.0
 10
12.0428296649
 20
6.4909029806
 30
0.0
 10
12.0481572186
 20
6.4991838145
 30
0.0
 10
12.053893853
 20
6.507170649
 30
0.0
 10
12.0600263743
 20
6.5148451416
 30
0.0
 10
12.0665403677
 20
6.5221893798
 30
0.0
 10
12.0711282605
 20
6.5268548724
 30
0.0
 10
12.0734798092
 20
6.5291262802
 30
0.0
  0
SPLINE
  5
381
100
AcDbEntity
  8
0
100
AcDbSpline
 62
7
  6
CONTINUOUS
 70
0
 71
3
 72
39
 73
35
 74
0
 42
0.0000001
 43
0.0000001
 44
0.0000000001
 40
0.0
 40
0.0
 40
0.0
 40
0.0
 40
0.0314026134
 40
0.06300949
 40
0.0948071102
 40
0.1267734453
 40
0.1588809722
 40
0.1910970226
 40
0.2233851132
 40
0.2557062446
 40
0.2880202663
 40
0.3202872751
 40
0.3524690067
 40
0.384530184
 40
0.4164397927
 40
0.448172249
 40
0.4797084083
 40
0.5110363809
 40
0.5421521201
 40
0.5730597413
 40
0.6037715194
 40
0.6343075569
 40
0.6646951118
 40
0.6949675896
 40
0.7251632184
 40
0.755323478
 40
0.7854913548
 40
0.8157095105
 40
0.8460184691
 40
0.8764549222
 40
0.9070502335
 40
0.9378293335
 40
0.9688091139
 40
1.0
 40
1.0
 40
1.0
 40
1.0
 10
11.9841469972
 20
7.1620619533
 30
0.0
 10
11.9798352615
 20
7.1623609732
 30
0.0
 10
11.9712074861
 20
7.1633858707
 30
0.0
 10
11.958439695
 20
7.1661694917
 30
0.0
 10
11.9459193851
 20
7.170177575
 30
0.0
 10
11.9337683483
 20
7.1753712785
 30
0.0
 10
11.9221028021
 20
7.181700431
 30
0.0
 10
11.9110347617
 20
7.1891040306
 30
0.0
 10
11.9006703626
 20
7.1975108507
 30
0.0
 10
11.8911090556
 20
7.206840123
 30
0.0
 10
11.8824426259
 20
7.2170022948
 30
0.0
 10
11.8747542836
 20
7.2278998259
 30
0.0
 10
11.8681179261
 20
7.2394281624
 30
0.0
 10
11.8625974442
 20
7.2514767129
 30
0.0
 10
11.8582461177
 20
7.263929879
 30
0.0
 10
11.8551060296
 20
7.276668115
 30
0.0
 10
11.853207723
 20
7.2895690806
 30
0.0
 10
11.8525698946
 20
7.3025087787
 30
0.0
 10
11.8531991904
 20
7.3153627125
 30
0.0
 10
11.8550900262
 20
7.3280070672
 30
0.0
 10
11.8582246744
 20
7.3403198978
 30
0.0
 10
11.862573385
 20
7.3521822965
 30
0.0
 10
11.8680946192
 20
7.3634795511
 30
0.0
 10
11.874735335
 20
7.3741023273
 30
0.0
 10
11.882431548
 20
7.3839477518
 30
0.0
 10
11.8911089392
 20
7.3929204568
 30
0.0
 10
11.9006835815
 20
7.4009335547
 30
0.0
 10
11.9110627427
 20
7.4079095906
 30
0.0
 10
11.9221458843
 20
7.4137812668
 30
0.0
 10
11.9338257341
 20
7.4184920855
 30
0.0
 10
11.9459892025
 20
7.4219969093
 30
0.0
 10
11.9585191065
 20
7.4242623049
 30
0.0
 10
11.9712929984
 20
7.4252671511
 30
0.0
 10
11.9798643327
 20
7.4250907974
 30
0.0
 10
11.9841469972
 20
7.4247937936
 30
0.0
  0
SPLINE
  5
382
100
AcDbEntity
  8
0
100
AcDbSpline
 62
7
  6
CONTINUOUS
 70
0
 71
3
 72
39
 73
35
 74
0
 42
0.0000001
 43
0.0000001
 44
0.0000000001
 40
0.0
 40
0.0
 40
0.0
 40
0.0
 40
0.0314026134
 40
0.06300949
 40
0.0948071102
 40
0.1267734453
 40
0.1588809722
 40
0.1910970226
 40
0.2233851132
 40
0.2557062446
 40
0.2880202663
 40
0.3202872751
 40
0.3524690067
 40
0.384530184
 40
0.4164397927
 40
0.448172249
 40
0.4797084083
 40
0.5110363809
 40
0.5421521201
 40
0.5730597413
 40
0.6037715194
 40
0.6343075569
 40
0.6646951118
 40
0.6949675896
 40
0.7251632184
 40
0.755323478
 40
0.7854913548
 40
0.8157095105
 40
0.8460184691
 40
0.8764549222
 40
0.9070502335
 40
0.9378293335
 40
0.9688091139
 40
1.0
 40
1.0
 40
1.0
 40
1.0
 10
9.9325203506
 20
9.3182981766
 30
0.0
 10
9.9368320863
 20
9.3179991568
 30
0.0
 10
9.9454598617
 20
9.3169742592
 30
0.0
 10
9.9582276528
 20
9.3141906383
 30
0.0
 10
9.9707479628
 20
9.3101825549
 30
0.0
 10
9.9828989995
 20
9.3049888515
 30
0.0
 10
9.9945645457
 20
9.298659699
 30
0.0
 10
10.0056325861
 20
9.2912560994
 30
0.0
 10
10.0159969852
 20
9.2828492793
 30
0.0
 10
10.0255582922
 20
9.273520007
 30
0.0
 10
10.0342247219
 20
9.2633578351
 30
0.0
 10
10.0419130642
 20
9.252460304
 30
0.0
 10
10.0485494217
 20
9.2409319676
 30
0.0
 10
10.0540699036
 20
9.2288834171
 30
0.0
 10
10.0584212301
 20
9.2164302509
 30
0.0
 10
10.0615613182
 20
9.2036920149
 30
0.0
 10
10.0634596248
 20
9.1907910494
 30
0.0
 10
10.0640974532
 20
9.1778513512
 30
0.0
 10
10.0634681574
 20
9.1649974175
 30
0.0
 10
10.0615773216
 20
9.1523530628
 30
0.0
 10
10.0584426734
 20
9.1400402322
 30
0.0
 10
10.0540939628
 20
9.1281778334
 30
0.0
 10
10.0485727286
 20
9.1168805788
 30
0.0
 10
10.0419320128
 20
9.1062578026
 30
0.0
 10
10.0342357998
 20
9.0964123782
 30
0.0
 10
10.0255584086
 20
9.0874396732
 30
0.0
 10
10.0159837663
 20
9.0794265753
 30
0.0
 10
10.0056046051
 20
9.0724505394
 30
0.0
 10
9.9945214635
 20
9.0665788632
 30
0.0
 10
9.9828416137
 20
9.0618680444
 30
0.0
 10
9.9706781453
 20
9.0583632206
 30
0.0
 10
9.9581482413
 20
9.0560978251
 30
0.0
 10
9.9453743494
 20
9.0550929789
 30
0.0
 10
9.9368030151
 20
9.0552693325
 30
0.0
 10
9.9325203506
 20
9.0555663363
 30
0.0
  0
SPLINE
  5
383
100
AcDbEntity
  8
0
100
AcDbSpline
 62
7
  6
CONTINUOUS
 70
0
 71
3
 72
39
 73
35
 74
0
 42
0.0000001
 43
0.0000001
 44
0.0000000001
 40
0.0
 40
0.0
 40
0.0
 40
0.0
 40
0.0314026134
 40
0.06300949
 40
0.0948071102
 40
0.1267734453
 40
0.1588809722
 40
0.1910970226
 40
0.2233851132
 40
0.2557062446
 40
0.2880202663
 40
0.3202872751
 40
0.3524690067
 40
0.384530184
 40
0.4164397927
 40
0.448172249
 40
0.4797084083
 40
0.5110363809
 40
0.5421521201
 40
0.5730597413
 40
0.6037715194
 40
0.6343075569
 40
0.6646951118
 40
0.6949675896
 40
0.7251632184
 40
0.755323478
 40
0.7854913548
 40
0.8157095105
 40
0.8460184691
 40
0.8764549222
 40
0.9070502335
 40
0.9378293335
 40
0.9688091139
 40
1.0
 40
1.0
 40
1.0
 40
1.0
 10
9.9325203506
 20
7.5670745848
 30
0.0
 10
9.9368320863
 20
7.5667755649
 30
0.0
 10
9.9454598617
 20
7.5657506674
 30
0.0
 10
9.9582276528
 20
7.5629670465
 30
0.0
 10
9.9707479628
 20
7.5589589631
 30
0.0
 10
9.9828989995
 20
7.5537652597
 30
0.0
 10
9.9945645457
 20
7.5474361072
 30
0.0
 10
10.0056325861
 20
7.5400325075
 30
0.0
 10
10.0159969852
 20
7.5316256874
 30
0.0
 10
10.0255582922
 20
7.5222964151
 30
0.0
 10
10.0342247219
 20
7.5121342433
 30
0.0
 10
10.0419130642
 20
7.5012367122
 30
0.0
 10
10.0485494217
 20
7.4897083758
 30
0.0
 10
10.0540699036
 20
7.4776598253
 30
0.0
 10
10.0584212301
 20
7.4652066591
 30
0.0
 10
10.0615613182
 20
7.4524684231
 30
0.0
 10
10.0634596248
 20
7.4395674576
 30
0.0
 10
10.0640974532
 20
7.4266277594
 30
0.0
 10
10.0634681574
 20
7.4137738257
 30
0.0
 10
10.0615773216
 20
7.401129471
 30
0.0
 10
10.0584426734
 20
7.3888166404
 30
0.0
 10
10.0540939628
 20
7.3769542416
 30
0.0
 10
10.0485727286
 20
7.365656987
 30
0.0
 10
10.0419320128
 20
7.3550342108
 30
0.0
 10
10.0342357998
 20
7.3451887864
 30
0.0
 10
10.0255584086
 20
7.3362160814
 30
0.0
 10
10.0159837663
 20
7.3282029835
 30
0.0
 10
10.0056046051
 20
7.3212269476
 30
0.0
 10
9.9945214635
 20
7.3153552714
 30
0.0
 10
9.9828416137
 20
7.3106444526
 30
0.0
 10
9.9706781453
 20
7.3071396288
 30
0.0
 10
9.9581482413
 20
7.3048742332
 30
0.0
 10
9.9453743494
 20
7.3038693871
 30
0.0
 10
9.9368030151
 20
7.3040457407
 30
0.0
 10
9.9325203506
 20
7.3043427445
 30
0.0
  0
SPLINE
  5
384
100
AcDbEntity
  8
0
100
AcDbSpline
 62
7
  6
CONTINUOUS
 70
0
 71
3
 72
39
 73
35
 74
0
 42
0.0000001
 43
0.0000001
 44
0.0000000001
 40
0.0
 40
0.0
 40
0.0
 40
0.0
 40
0.0314026134
 40
0.06300949
 40
0.0948071102
 40
0.1267734453
 40
0.1588809722
 40
0.1910970226
 40
0.2233851132
 40
0.2557062446
 40
0.2880202663
 40
0.3202872751
 40
0.3524690067
 40
0.384530184
 40
0.4164397927
 40
0.448172249
 40
0.4797084083
 40
0.5110363809
 40
0.5421521201
 40
0.5730597413
 40
0.6037715194
 40
0.6343075569
 40
0.6646951118
 40
0.6949675896
 40
0.7251632184
 40
0.755323478
 40
0.7854913548
 40
0.8157095105
 40
0.8460184691
 40
0.8764549222
 40
0.9070502335
 40
0.9378293335
 40
0.9688091139
 40
1.0
 40
1.0
 40
1.0
 40
1.0
 10
9.9325203506
 20
7.3043427445
 30
0.0
 10
9.9282086149
 20
7.3046417644
 30
0.0
 10
9.9195808395
 20
7.3056666619
 30
0.0
 10
9.9068130484
 20
7.3084502829
 30
0.0
 10
9.8942927384
 20
7.3124583662
 30
0.0
 10
9.8821417017
 20
7.3176520697
 30
0.0
 10
9.8704761555
 20
7.3239812221
 30
0.0
 10
9.8594081151
 20
7.3313848218
 30
0.0
 10
9.849043716
 20
7.3397916419
 30
0.0
 10
9.839482409
 20
7.3491209142
 30
0.0
 10
9.8308159793
 20
7.359283086
 30
0.0
 10
9.823127637
 20
7.3701806171
 30
0.0
 10
9.8164912795
 20
7.3817089536
 30
0.0
 10
9.8109707976
 20
7.3937575041
 30
0.0
 10
9.8066194711
 20
7.4062106702
 30
0.0
 10
9.803479383
 20
7.4189489062
 30
0.0
 10
9.8015810764
 20
7.4318498718
 30
0.0
 10
9.800943248
 20
7.4447895699
 30
0.0
 10
9.8015725438
 20
7.4576435037
 30
0.0
 10
9.8034633796
 20
7.4702878584
 30
0.0
 10
9.8065980278
 20
7.482600689
 30
0.0
 10
9.8109467384
 20
7.4944630877
 30
0.0
 10
9.8164679726
 20
7.5057603423
 30
0.0
 10
9.8231086884
 20
7.5163831185
 30
0.0
 10
9.8308049014
 20
7.526228543
 30
0.0
 10
9.8394822926
 20
7.535201248
 30
0.0
 10
9.8490569349
 20
7.5432143459
 30
0.0
 10
9.8594360961
 20
7.5501903818
 30
0.0
 10
9.8705192377
 20
7.556062058
 30
0.0
 10
9.8821990875
 20
7.5607728767
 30
0.0
 10
9.8943625559
 20
7.5642777005
 30
0.0
 10
9.9068924599
 20
7.5665430961
 30
0.0
 10
9.9196663518
 20
7.5675479423
 30
0.0
 10
9.9282376861
 20
7.5673715886
 30
0.0
 10
9.9325203506
 20
7.5670745848
 30
0.0
  0
SPLINE
  5
385
100
AcDbEntity
  8
0
100
AcDbSpline
 62
7
  6
CONTINUOUS
 70
0
 71
3
 72
21
 73
17
 74
0
 42
0.0000001
 43
0.0000001
 44
0.0000000001
 40
0.0
 40
0.0
 40
0.0
 40
0.0
 40
0.1273176984
 40
0.2537999461
 40
0.3167619614
 40
0.3795355204
 40
0.4421314992
 40
0.5045621453
 40
0.5668413456
 40
0.6289845231
 40
0.6910084433
 40
0.7529310869
 40
0.8147714401
 40
0.8765493236
 40
0.9382852134
 40
1.0
 40
1.0
 40
1.0
 40
1.0
 10
8.9965381983
 20
6.5955468898
 30
0.0
 10
8.9965381983
 20
6.6022916979
 30
0.0
 10
8.9971820353
 20
6.6157457373
 30
0.0
 10
8.9996136265
 20
6.6323778344
 30
0.0
 10
9.0025198936
 20
6.6454242581
 30
0.0
 10
9.0051702575
 20
6.6550473065
 30
0.0
 10
9.0082882522
 20
6.6644993583
 30
0.0
 10
9.0118666889
 20
6.6737588928
 30
0.0
 10
9.0158973176
 20
6.6828044942
 30
0.0
 10
9.0203709255
 20
6.6916152858
 30
0.0
 10
9.0252771636
 20
6.7001709573
 30
0.0
 10
9.0306047172
 20
6.7084517912
 30
0.0
 10
9.0363413517
 20
6.7164386258
 30
0.0
 10
9.0424738729
 20
6.7241131183
 30
0.0
 10
9.0489878664
 20
6.7314573566
 30
0.0
 10
9.0535757591
 20
6.7361228491
 30
0.0
 10
9.0559273078
 20
6.7383942569
 30
0.0
  0
SPLINE
  5
386
100
AcDbEntity
  8
0
100
AcDbSpline
 62
7
  6
CONTINUOUS
 70
0
 71
3
 72
55
 73
51
 74
0
 42
0.0000001
 43
0.0000001
 44
0.0000000001
 40
0.0
 40
0.0
 40
0.0
 40
0.0
 40
0.0082491178
 40
0.0160249553
 40
0.0233639829
 40
0.0303114802
 40
0.0369227124
 40
0.0432632191
 40
0.0494084978
 40
0.0554422202
 40
0.0614532215
 40
0.0675314279
 40
0.0737635734
 40
0.0802295678
 40
0.0870001076
 40
0.0941356026
 40
0.1016862967
 40
0.1096929194
 40
0.1181879204
 40
0.1271964447
 40
0.1367376591
 40
0.1468254487
 40
0.1574695253
 40
0.1686757809
 40
0.1804471637
 40
0.1927837889
 40
0.2056836241
 40
0.2191424695
 40
0.2331544853
 40
0.247712128
 40
0.2628065382
 40
0.2784274902
 40
0.2945636526
 40
0.3112025835
 40
0.3459332145
 40
0.3825027187
 40
0.4207806566
 40
0.4606256652
 40
0.5018868761
 40
0.5444051764
 40
0.588014366
 40
0.6325422452
 40
0.6778116579
 40
0.723641506
 40
0.7698477386
 40
0.8162443522
 40
0.8626443093
 40
0.9088606872
 40
0.9547071706
 40
1.0
 40
1.0
 40
1.0
 40
1.0
 10
9.9268656726
 20
10.7502042574
 30
0.0
 10
9.9258680587
 20
10.7511326424
 30
0.0
 10
9.9239846957
 20
10.7529964249
 30
0.0
 10
9.9214393076
 20
10.7559026476
 30
0.0
 10
9.9192626839
 20
10.758831562
 30
0.0
 10
9.9174579897
 20
10.7617807047
 30
0.0
 10
9.916028051
 20
10.7647475016
 30
0.0
 10
9.914975956
 20
10.7677290502
 30
0.0
 10
9.9143044397
 20
10.7707216701
 30
0.0
 10
9.9140157983
 20
10.7737208676
 30
0.0
 10
9.9141110641
 20
10.7767214259
 30
0.0
 10
9.9145899038
 20
10.7797179777
 30
0.0
 10
9.91545059
 20
10.7827056107
 30
0.0
 10
9.9166905299
 20
10.7856802501
 30
0.0
 10
9.9183068033
 20
10.7886386167
 30
0.0
 10
9.9202963904
 20
10.7915780299
 30
0.0
 10
9.9226564062
 20
10.7944960028
 30
0.0
 10
9.9253838488
 20
10.7973901832
 30
0.0
 10
9.9284757009
 20
10.8002580339
 30
0.0
 10
9.9319286017
 20
10.8030970509
 30
0.0
 10
9.9357389956
 20
10.8059044769
 30
0.0
 10
9.939902872
 20
10.8086776467
 30
0.0
 10
9.944415938
 20
10.8114136738
 30
0.0
 10
9.9492734309
 20
10.8141098248
 30
0.0
 10
9.954470272
 20
10.8167631913
 30
0.0
 10
9.9600009377
 20
10.8193710447
 30
0.0
 10
9.965859576
 20
10.8219305289
 30
0.0
 10
9.9720399258
 20
10.8244389655
 30
0.0
 10
9.978535395
 20
10.8268935963
 30
0.0
 10
9.985339017
 20
10.8292918209
 30
0.0
 10
9.9924434989
 20
10.8316310092
 30
0.0
 10
9.999841201
 20
10.8339086522
 30
0.0
 10
10.007524179
 20
10.8361222907
 30
0.0
 10
10.018291819
 20
10.8390267828
 30
0.0
 10
10.0324086195
 20
10.8424679077
 30
0.0
 10
10.0501138975
 20
10.8462494183
 30
0.0
 10
10.0687421101
 20
10.8497232563
 30
0.0
 10
10.0882129623
 20
10.8528742556
 30
0.0
 10
10.1084426554
 20
10.8556886243
 30
0.0
 10
10.1293439855
 20
10.8581540654
 30
0.0
 10
10.1508268199
 20
10.8602598094
 30
0.0
 10
10.1727984754
 20
10.8619966647
 30
0.0
 10
10.1951641348
 20
10.863357053
 30
0.0
 10
10.2178272605
 20
10.8643350408
 30
0.0
 10
10.2406900196
 20
10.8649263643
 30
0.0
 10
10.2636537061
 20
10.8651284438
 30
0.0
 10
10.286619182
 20
10.8649404027
 30
0.0
 10
10.3094872927
 20
10.8643630521
 30
0.0
 10
10.3321592492
 20
10.8633989247
 30
0.0
 10
10.3471893562
 20
10.8624944086
 30
0.0
 10
10.3546538695
 20
10.8619767429
 30
0.0
  0
SPLINE
  5
387
100
AcDbEntity
  8
0
100
AcDbSpline
 62
7
  6
CONTINUOUS
 70
0
 71
3
 72
38
 73
34
 74
0
 42
0.0000001
 43
0.0000001
 44
0.0000000001
 40
0.0
 40
0.0
 40
0.0
 40
0.0
 40
0.0064782753
 40
0.0130675952
 40
0.0197982322
 40
0.0266984022
 40
0.04110225
 40
0.0564655635
 40
0.0729305943
 40
0.090606868
 40
0.1095762504
 40
0.1298976004
 40
0.1516112354
 40
0.17474239
 40
0.1993037294
 40
0.225297757
 40
0.2527183974
 40
0.281552114
 40
0.3117792006
 40
0.3433744454
 40
0.3763076746
 40
0.4105445273
 40
0.4460467083
 40
0.4827723273
 40
0.520676413
 40
0.5597109845
 40
0.5998253288
 40
0.6409663659
 40
0.683078657
 40
0.726104619
 40
0.8146566022
 40
0.9061275403
 40
1.0
 40
1.0
 40
1.0
 40
1.0
 10
11.9838805162
 20
10.6127883408
 30
0.0
 10
11.983742232
 20
10.6135639112
 30
0.0
 10
11.9834047581
 20
10.615118494
 30
0.0
 10
11.9827254969
 20
10.6174302509
 30
0.0
 10
11.9818699641
 20
10.6197376087
 30
0.0
 10
11.9804752208
 20
10.6228507523
 30
0.0
 10
11.9782671266
 20
10.6267380052
 30
0.0
 10
11.974960208
 20
10.6312966146
 30
0.0
 10
11.9709657329
 20
10.6358115842
 30
0.0
 10
11.9662909218
 20
10.6402774508
 30
0.0
 10
11.9609429265
 20
10.6446892095
 30
0.0
 10
11.9549297522
 20
10.6490412495
 30
0.0
 10
11.948260236
 20
10.6533276701
 30
0.0
 10
11.9409442319
 20
10.6575423135
 30
0.0
 10
11.9329926921
 20
10.6616790113
 30
0.0
 10
11.9244175918
 20
10.6657315149
 30
0.0
 10
11.9152319447
 20
10.6696936081
 30
0.0
 10
11.9054497995
 20
10.6735592208
 30
0.0
 10
11.8950861605
 20
10.6773223365
 30
0.0
 10
11.8841569837
 20
10.6809770837
 30
0.0
 10
11.8726791524
 20
10.6845177929
 30
0.0
 10
11.8606704152
 20
10.6879389075
 30
0.0
 10
11.8481493748
 20
10.6912350735
 30
0.0
 10
11.8351354554
 20
10.6944011608
 30
0.0
 10
11.8216488518
 20
10.697432189
 30
0.0
 10
11.8077105123
 20
10.7003234185
 30
0.0
 10
11.7933420986
 20
10.7030703474
 30
0.0
 10
11.7785659479
 20
10.7056686438
 30
0.0
 10
11.7634050191
 20
10.7081142814
 30
0.0
 10
11.7425085909
 20
10.7111959072
 30
0.0
 10
11.7155989978
 20
10.7146266307
 30
0.0
 10
11.6824643026
 20
10.7180425754
 30
0.0
 10
11.659995174
 20
10.7198438359
 30
0.0
 10
11.6486070033
 20
10.7206336082
 30
0.0
  0
SPLINE
  5
388
100
AcDbEntity
  8
0
100
AcDbSpline
 62
7
  6
CONTINUOUS
 70
0
 71
3
 72
50
 73
46
 74
0
 42
0.0000001
 43
0.0000001
 44
0.0000000001
 40
0.0
 40
0.0
 40
0.0
 40
0.0
 40
0.0055932033
 40
0.0113363099
 40
0.0172793521
 40
0.0234669574
 40
0.0299379588
 40
0.0367255103
 40
0.0438574511
 40
0.0513567498
 40
0.0592421703
 40
0.0675286452
 40
0.0762279933
 40
0.0853491022
 40
0.0948985906
 40
0.1048808428
 40
0.1152985551
 40
0.126152719
 40
0.1374430095
 40
0.1491678025
 40
0.161324386
 40
0.1739090622
 40
0.1869171854
 40
0.2003433639
 40
0.2284234017
 40
0.2580927463
 40
0.289284314
 40
0.3219227246
 40
0.3559252992
 40
0.3912028964
 40
0.4276606321
 40
0.4651985209
 40
0.5037120599
 40
0.5430927738
 40
0.5832287334
 40
0.6240050535
 40
0.6653043768
 40
0.7070073498
 40
0.7489930862
 40
0.7911396475
 40
0.8333244505
 40
0.8754248912
 40
0.9173183484
 40
0.9588837575
 40
1.0
 40
1.0
 40
1.0
 40
1.0
 10
11.0788338041
 20
10.6127328772
 30
0.0
 10
11.0790280555
 20
10.6138336751
 30
0.0
 10
11.07954056
 20
10.6160454019
 30
0.0
 10
11.080655995
 20
10.61931907
 30
0.0
 10
11.082124141
 20
10.6225810094
 30
0.0
 10
11.0839429727
 20
10.625828219
 30
0.0
 10
11.0861103783
 20
10.629058631
 30
0.0
 10
11.0886242121
 20
10.6322701031
 30
0.0
 10
11.0914822695
 20
10.6354605557
 30
0.0
 10
11.0946821681
 20
10.6386279386
 30
0.0
 10
11.0982214446
 20
10.6417700576
 30
0.0
 10
11.1020973268
 20
10.644884813
 30
0.0
 10
11.1063069268
 20
10.6479698955
 30
0.0
 10
11.1108469977
 20
10.6510231556
 30
0.0
 10
11.1157141427
 20
10.6540422339
 30
0.0
 10
11.120904615
 20
10.6570249518
 30
0.0
 10
11.1264144833
 20
10.6599689663
 30
0.0
 10
11.132239502
 20
10.6628720877
 30
0.0
 10
11.1383752114
 20
10.6657320368
 30
0.0
 10
11.1448168763
 20
10.6685466283
 30
0.0
 10
11.1515595284
 20
10.6713136753
 30
0.0
 10
11.1585979531
 20
10.6740310078
 30
0.0
 10
11.1659267061
 20
10.6766965686
 30
0.0
 10
11.1762324947
 20
10.6802316822
 30
0.0
 10
11.189806573
 20
10.684493192
 30
0.0
 10
11.2069230177
 20
10.6892952523
 30
0.0
 10
11.2250490876
 20
10.6938439349
 30
0.0
 10
11.2441284829
 20
10.6981249423
 30
0.0
 10
11.264102094
 20
10.702124794
 30
0.0
 10
11.2849078809
 20
10.7058309029
 30
0.0
 10
11.3064811787
 20
10.7092316087
 30
0.0
 10
11.328754885
 20
10.7123162169
 30
0.0
 10
11.3516596861
 20
10.715075031
 30
0.0
 10
11.3751242778
 20
10.7174993829
 30
0.0
 10
11.3990755938
 20
10.7195816579
 30
0.0
 10
11.4234390379
 20
10.7213153178
 30
0.0
 10
11.44813872
 20
10.7226949206
 30
0.0
 10
11.4730976938
 20
10.7237161362
 30
0.0
 10
11.4982382018
 20
10.724375761
 30
0.0
 10
11.5234819106
 20
10.7246717229
 30
0.0
 10
11.5487501837
 20
10.7246030985
 30
0.0
 10
11.5739642499
 20
10.7241700931
 30
0.0
 10
11.599045649
 20
10.7233740807
 30
0.0
 10
11.6239160664
 20
10.7222175397
 30
0.0
 10
11.6404095815
 20
10.7212021013
 30
0.0
 10
11.6486070033
 20
10.7206336082
 30
0.0
  0
SPLINE
  5
389
100
AcDbEntity
  8
0
100
AcDbSpline
 62
7
  6
CONTINUOUS
 70
0
 71
3
 72
57
 73
53
 74
0
 42
0.0000001
 43
0.0000001
 44
0.0000000001
 40
0.0
 40
0.0
 40
0.0
 40
0.0
 40
0.0082491011
 40
0.0160249384
 40
0.0233639457
 40
0.0303114481
 40
0.0369226589
 40
0.0432631671
 40
0.0494084306
 40
0.0554421443
 40
0.0614531353
 40
0.0675313301
 40
0.073763459
 40
0.0802294471
 40
0.0869999615
 40
0.0941354521
 40
0.1016861194
 40
0.1096927308
 40
0.1181877075
 40
0.1271962167
 40
0.1367374022
 40
0.1468251843
 40
0.1574692163
 40
0.1686754753
 40
0.1804468004
 40
0.1927834323
 40
0.2056832124
 40
0.2191420515
 40
0.2331540259
 40
0.2477116429
 40
0.2628060249
 40
0.2784269408
 40
0.2945630767
 40
0.3112019731
 40
0.3283302325
 40
0.3459335429
 40
0.3639967142
 40
0.3825038352
 40
0.4207816961
 40
0.4606266263
 40
0.5018877623
 40
0.5444059891
 40
0.5880151022
 40
0.6325429014
 40
0.677812232
 40
0.7236419972
 40
0.7698481497
 40
0.8162446779
 40
0.8626445532
 40
0.9088608697
 40
0.9547071639
 40
1.0
 40
1.0
 40
1.0
 40
1.0
 10
11.0159253764
 20
10.6494872384
 30
0.0
 10
11.014400452
 20
10.6509063406
 30
0.0
 10
11.0115216031
 20
10.6537552754
 30
0.0
 10
11.0076307678
 20
10.6581976245
 30
0.0
 10
11.0043036689
 20
10.6626747054
 30
0.0
 10
11.0015450121
 20
10.6671826517
 30
0.0
 10
10.9993592996
 20
10.6717176426
 30
0.0
 10
10.9977510272
 20
10.6762751289
 30
0.0
 10
10.9967246194
 20
10.6808495784
 30
0.0
 10
10.9962833627
 20
10.6854340597
 30
0.0
 10
10.9964289963
 20
10.690020631
 30
0.0
 10
10.9971609379
 20
10.694601071
 30
0.0
 10
10.9984765255
 20
10.6991678933
 30
0.0
 10
11.000371896
 20
10.7037148248
 30
0.0
 10
11.0028424415
 20
10.708236924
 30
0.0
 10
11.005883697
 20
10.7127300038
 30
0.0
 10
11.0094911218
 20
10.7171903557
 30
0.0
 10
11.0136602239
 20
10.7216143025
 30
0.0
 10
11.0183863273
 20
10.7259980306
 30
0.0
 10
11.023664337
 20
10.7303376599
 30
0.0
 10
11.0294887848
 20
10.7346290286
 30
0.0
 10
11.0358535763
 20
10.7388679931
 30
0.0
 10
11.0427521029
 20
10.7430502412
 30
0.0
 10
11.0501771409
 20
10.7471714601
 30
0.0
 10
11.0581208654
 20
10.7512273675
 30
0.0
 10
11.0665748945
 20
10.7552136142
 30
0.0
 10
11.0755302298
 20
10.7591260081
 30
0.0
 10
11.084977341
 20
10.7629603053
 30
0.0
 10
11.0949061248
 20
10.7667124021
 30
0.0
 10
11.1053059465
 20
10.7703782551
 30
0.0
 10
11.1161656534
 20
10.7739538696
 30
0.0
 10
11.1274735704
 20
10.777435423
 30
0.0
 10
11.139217542
 20
10.7808190959
 30
0.0
 10
11.1513849211
 20
10.7841012578
 30
0.0
 10
11.1639626035
 20
10.7872783382
 30
0.0
 10
11.1769370297
 20
10.7903468759
 30
0.0
 10
11.1902942246
 20
10.793303602
 30
0.0
 10
11.2088030884
 20
10.7971354525
 30
0.0
 10
11.232793603
 20
10.8016091624
 30
0.0
 10
11.2625560974
 20
10.8064257131
 30
0.0
 10
11.2934786586
 20
10.8107276729
 30
0.0
 10
11.3254278336
 20
10.8144962765
 30
0.0
 10
11.3582658892
 20
10.8177150563
 30
0.0
 10
11.3918511392
 20
10.8203699652
 30
0.0
 10
11.4260386523
 20
10.8224494183
 30
0.0
 10
11.4606808648
 20
10.8239443447
 30
0.0
 10
11.495628231
 20
10.8248482235
 30
0.0
 10
11.5307298725
 20
10.8251571143
 30
0.0
 10
11.5658342538
 20
10.8248696788
 30
0.0
 10
11.600789779
 20
10.8239871558
 30
0.0
 10
11.6354454907
 20
10.8225134241
 30
0.0
 10
11.6584200817
 20
10.8211308057
 30
0.0
 10
11.6698301475
 20
10.8203395149
 30
0.0
  0
SPLINE
  5
38A
100
AcDbEntity
  8
0
100
AcDbSpline
 62
7
  6
CONTINUOUS
 70
0
 71
3
 72
39
 73
35
 74
0
 42
0.0000001
 43
0.0000001
 44
0.0000000001
 40
0.0
 40
0.0
 40
0.0
 40
0.0
 40
0.0311445425
 40
0.0624433652
 40
0.093888256
 40
0.1254710218
 40
0.1571788766
 40
0.1889972611
 40
0.2209091725
 40
0.2528958428
 40
0.2849370253
 40
0.3170114183
 40
0.349097079
 40
0.3811718482
 40
0.4132137779
 40
0.4452015551
 40
0.4771149166
 40
0.5089350506
 40
0.5406449764
 40
0.5722298984
 40
0.6036775288
 40
0.634978368
 40
0.6661259371
 40
0.6971169555
 40
0.7279514574
 40
0.758632841
 40
0.7891678449
 40
0.819566448
 40
0.8498416915
 40
0.8800094239
 40
0.9100879689
 40
0.9400977235
 40
0.9700606966
 40
1.0
 40
1.0
 40
1.0
 40
1.0
 10
9.9386025931
 20
9.0841405901
 30
0.0
 10
9.9359490959
 20
9.0843246108
 30
0.0
 10
9.930640455
 20
9.0848878117
 30
0.0
 10
9.9227418801
 20
9.0863064352
 30
0.0
 10
9.9149278749
 20
9.0882936131
 30
0.0
 10
9.9072407188
 20
9.0908384859
 30
0.0
 10
9.8997211868
 20
9.0939275337
 30
0.0
 10
9.8924094106
 20
9.0975441703
 30
0.0
 10
9.885344337
 20
9.1016690968
 30
0.0
 10
9.8785636136
 20
9.1062802806
 30
0.0
 10
9.872103371
 20
9.1113531224
 30
0.0
 10
9.8659980331
 20
9.1168605658
 30
0.0
 10
9.8602801335
 20
9.122773245
 30
0.0
 10
9.8549801473
 20
9.1290596433
 30
0.0
 10
9.8501263306
 20
9.1356862593
 30
0.0
 10
9.8457445708
 20
9.1426177832
 30
0.0
 10
9.8418582506
 20
9.1498172827
 30
0.0
 10
9.8384881239
 20
9.1572463969
 30
0.0
 10
9.8356522058
 20
9.1648655381
 30
0.0
 10
9.8333656769
 20
9.1726341
 30
0.0
 10
9.8316407949
 20
9.1805106691
 30
0.0
 10
9.8304868315
 20
9.1884532453
 30
0.0
 10
9.8299100238
 20
9.1964194635
 30
0.0
 10
9.8299135382
 20
9.2043668158
 30
0.0
 10
9.8304974495
 20
9.2122528761
 30
0.0
 10
9.8316587369
 20
9.2200355241
 30
0.0
 10
9.8333912945
 20
9.227673169
 30
0.0
 10
9.8356859597
 20
9.2351249726
 30
0.0
 10
9.8385305517
 20
9.2423510653
 30
0.0
 10
9.8419099394
 20
9.24931278
 30
0.0
 10
9.845806075
 20
9.2559728092
 30
0.0
 10
9.8501982759
 20
9.2622956004
 30
0.0
 10
9.8550626316
 20
9.2682468458
 30
0.0
 10
9.8586045085
 20
9.271946969
 30
0.0
 10
9.8604436058
 20
9.2737233851
 30
0.0
  0
SPLINE
  5
38B
100
AcDbEntity
  8
0
100
AcDbSpline
 62
7
  6
CONTINUOUS
 70
0
 71
3
 72
56
 73
52
 74
0
 42
0.0000001
 43
0.0000001
 44
0.0000000001
 40
0.0
 40
0.0
 40
0.0
 40
0.0
 40
0.0095826463
 40
0.0187373237
 40
0.0274872322
 40
0.0358600994
 40
0.0515986136
 40
0.0590564877
 40
0.0662992873
 40
0.073380533
 40
0.080357834
 40
0.0872916669
 40
0.0942437336
 40
0.10127521
 40
0.1084450684
 40
0.1158086287
 40
0.1234165411
 40
0.1313142379
 40
0.1395416378
 40
0.1481334222
 40
0.157119135
 40
0.1665238348
 40
0.1763683738
 40
0.1866699898
 40
0.1974427275
 40
0.2086977483
 40
0.2204438775
 40
0.2326876386
 40
0.2454338207
 40
0.2586854188
 40
0.2724440397
 40
0.2867099548
 40
0.3014822243
 40
0.316758949
 40
0.3325371361
 40
0.3488130808
 40
0.3655821332
 40
0.4005767357
 40
0.4374718065
 40
0.4762076239
 40
0.5167162603
 40
0.5589225138
 40
0.6027446803
 40
0.6480952062
 40
0.6948812507
 40
0.7430052179
 40
0.7923651483
 40
0.842855441
 40
0.8943663587
 40
0.9467867582
 40
1.0
 40
1.0
 40
1.0
 40
1.0
 10
12.9815576359
 20
9.0215822724
 30
0.0
 10
12.9826581574
 20
9.0226065271
 30
0.0
 10
12.9848582239
 20
9.0245585309
 30
0.0
 10
12.9882336701
 20
9.0272457583
 30
0.0
 10
12.9916060843
 20
9.0296221923
 30
0.0
 10
12.9960032808
 20
9.0323177837
 30
0.0
 10
13.0004893044
 20
9.0344701823
 30
0.0
 10
13.0050230215
 20
9.035986356
 30
0.0
 10
13.0083505002
 20
9.0367852787
 30
0.0
 10
13.0116627739
 20
9.0372648575
 30
0.0
 10
13.0149575292
 20
9.037424271
 30
0.0
 10
13.0182320043
 20
9.0372632233
 30
0.0
 10
13.0214834309
 20
9.036781669
 30
0.0
 10
13.0247091229
 20
9.0359803149
 30
0.0
 10
13.0279065757
 20
9.0348600902
 30
0.0
 10
13.031073575
 20
9.0334223495
 30
0.0
 10
13.0342081832
 20
9.0316686076
 30
0.0
 10
13.0373086222
 20
9.0296004107
 30
0.0
 10
13.0403733559
 20
9.0272194896
 30
0.0
 10
13.0434007825
 20
9.0245274571
 30
0.0
 10
13.0463894834
 20
9.0215261618
 30
0.0
 10
13.0493378908
 20
9.018217402
 30
0.0
 10
13.052244531
 20
9.0146031949
 30
0.0
 10
13.055107858
 20
9.0106856493
 30
0.0
 10
13.0579263011
 20
9.0064670344
 30
0.0
 10
13.0606983533
 20
9.0019498201
 30
0.0
 10
13.0634223851
 20
8.9971365951
 30
0.0
 10
13.0660969211
 20
8.99203019
 30
0.0
 10
13.068720347
 20
8.986633554
 30
0.0
 10
13.0712911919
 20
8.9809498615
 30
0.0
 10
13.0738079212
 20
8.9749824337
 30
0.0
 10
13.0762690555
 20
8.9687347787
 30
0.0
 10
13.0786731664
 20
8.9622105793
 30
0.0
 10
13.0810187842
 20
8.9554136741
 30
0.0
 10
13.0833045701
 20
8.9483480903
 30
0.0
 10
13.0855291278
 20
8.9410179867
 30
0.0
 10
13.0884534491
 20
8.9307512418
 30
0.0
 10
13.091934616
 20
8.9172818272
 30
0.0
 10
13.0957907443
 20
8.9003575768
 30
0.0
 10
13.0993734366
 20
8.8824903177
 30
0.0
 10
13.1026740815
 20
8.8637224337
 30
0.0
 10
13.1056847084
 20
8.8440983043
 30
0.0
 10
13.1083980538
 20
8.8236644605
 30
0.0
 10
13.1108075676
 20
8.8024693831
 30
0.0
 10
13.1129074366
 20
8.7805633997
 30
0.0
 10
13.1146925907
 20
8.7579985606
 30
0.0
 10
13.116158728
 20
8.7348284735
 30
0.0
 10
13.1173022877
 20
8.7111082837
 30
0.0
 10
13.1181205348
 20
8.6868942498
 30
0.0
 10
13.118611437
 20
8.6622441659
 30
0.0
 10
13.1187189728
 20
8.645671195
 30
0.0
 10
13.1187189728
 20
8.6373226264
 30
0.0
  0
SPLINE
  5
38C
100
AcDbEntity
  8
0
100
AcDbSpline
 62
7
  6
CONTINUOUS
 70
0
 71
3
 72
37
 73
33
 74
0
 42
0.0000001
 43
0.0000001
 44
0.0000000001
 40
0.0
 40
0.0
 40
0.0
 40
0.0
 40
0.006385096
 40
0.0129165889
 40
0.0265184754
 40
0.0410028123
 40
0.0565219939
 40
0.07319467
 40
0.0911104107
 40
0.1103347548
 40
0.1309138979
 40
0.1528780924
 40
0.1762447852
 40
0.2010209722
 40
0.2272046832
 40
0.2547866708
 40
0.283751364
 40
0.3140775619
 40
0.3457394072
 40
0.37870668
 40
0.4129452763
 40
0.4484177698
 40
0.4850834375
 40
0.5228987139
 40
0.5618174659
 40
0.6017909706
 40
0.642768363
 40
0.6846967056
 40
0.7275209982
 40
0.8156280338
 40
0.9066183044
 40
1.0
 40
1.0
 40
1.0
 40
1.0
 10
12.940102632
 20
8.9593638012
 30
0.0
 10
12.9408184848
 20
8.9591113635
 30
0.0
 10
12.9422485633
 20
8.9585479219
 30
0.0
 10
12.9450967795
 20
8.9571919718
 30
0.0
 10
12.94862782
 20
8.9550552037
 30
0.0
 10
12.9527272007
 20
8.9518663168
 30
0.0
 10
12.9567433664
 20
8.9480252281
 30
0.0
 10
12.9606719815
 20
8.9435387507
 30
0.0
 10
12.9645093729
 20
8.9384135005
 30
0.0
 10
12.968251202
 20
8.9326567107
 30
0.0
 10
12.9718928094
 20
8.9262763173
 30
0.0
 10
12.975429421
 20
8.9192812373
 30
0.0
 10
12.9788561658
 20
8.9116813258
 30
0.0
 10
12.982168134
 20
8.9034873949
 30
0.0
 10
12.985360583
 20
8.8947112414
 30
0.0
 10
12.9884288193
 20
8.8853655653
 30
0.0
 10
12.9913682976
 20
8.8754639677
 30
0.0
 10
12.9941747011
 20
8.8650209288
 30
0.0
 10
12.9968438238
 20
8.8540517512
 30
0.0
 10
12.9993716949
 20
8.8425725524
 30
0.0
 10
13.0017545697
 20
8.8306002281
 30
0.0
 10
13.0039888561
 20
8.8181524152
 30
0.0
 10
13.0060712424
 20
8.8052474754
 30
0.0
 10
13.0079986262
 20
8.7919044553
 30
0.0
 10
13.0097680999
 20
8.778143058
 30
0.0
 10
13.0113770552
 20
8.7639836139
 30
0.0
 10
13.0128230729
 20
8.7494470535
 30
0.0
 10
13.0141040015
 20
8.7345548466
 30
0.0
 10
13.0156033628
 20
8.7140596421
 30
0.0
 10
13.0170401965
 20
8.6877140599
 30
0.0
 10
13.018066841
 20
8.6553356666
 30
0.0
 10
13.0182899061
 20
8.6334167846
 30
0.0
 10
13.0182899061
 20
8.6223155915
 30
0.0
  0
SPLINE
  5
38D
100
AcDbEntity
  8
0
100
AcDbSpline
 62
7
  6
CONTINUOUS
 70
0
 71
3
 72
21
 73
17
 74
0
 42
0.0000001
 43
0.0000001
 44
0.0000000001
 40
0.0
 40
0.0
 40
0.0
 40
0.0
 40
0.1273176984
 40
0.2537999461
 40
0.3167619614
 40
0.3795355204
 40
0.4421314992
 40
0.5045621453
 40
0.5668413456
 40
0.6289845231
 40
0.6910084433
 40
0.7529310869
 40
0.8147714401
 40
0.8765493236
 40
0.9382852134
 40
1.0
 40
1.0
 40
1.0
 40
1.0
 10
10.7467959054
 20
8.8889805841
 30
0.0
 10
10.7467959054
 20
8.8957253922
 30
0.0
 10
10.7474397424
 20
8.9091794316
 30
0.0
 10
10.7498713337
 20
8.9258115287
 30
0.0
 10
10.7527776008
 20
8.9388579523
 30
0.0
 10
10.7554279647
 20
8.9484810008
 30
0.0
 10
10.7585459594
 20
8.9579330525
 30
0.0
 10
10.7621243961
 20
8.967192587
 30
0.0
 10
10.7661550248
 20
8.9762381885
 30
0.0
 10
10.7706286327
 20
8.98504898
 30
0.0
 10
10.7755348708
 20
8.9936046515
 30
0.0
 10
10.7808624244
 20
9.0018854855
 30
0.0
 10
10.7865990588
 20
9.00987232
 30
0.0
 10
10.7927315801
 20
9.0175468125
 30
0.0
 10
10.7992455735
 20
9.0248910508
 30
0.0
 10
10.8038334663
 20
9.0295565434
 30
0.0
 10
10.806185015
 20
9.0318279512
 30
0.0
  0
SPLINE
  5
38E
100
AcDbEntity
  8
0
100
AcDbSpline
 62
7
  6
CONTINUOUS
 70
0
 71
3
 72
52
 73
48
 74
0
 42
0.0000001
 43
0.0000001
 44
0.0000000001
 40
0.0
 40
0.0
 40
0.0
 40
0.0
 40
0.0054969081
 40
0.0111889645
 40
0.0171217697
 40
0.0233350066
 40
0.0298623563
 40
0.0367320893
 40
0.0439673886
 40
0.0515871594
 40
0.0596064177
 40
0.0680369624
 40
0.0768877523
 40
0.086165318
 40
0.0958741514
 40
0.1060168564
 40
0.1165945725
 40
0.1276069224
 40
0.1390524534
 40
0.1509284735
 40
0.1632314549
 40
0.1759568653
 40
0.1890994652
 40
0.2026532186
 40
0.230966024
 40
0.2457106702
 40
0.260836181
 40
0.2763335675
 40
0.292193483
 40
0.3249604215
 40
0.3590538856
 40
0.3943842052
 40
0.4308563988
 40
0.4683707595
 40
0.5068233932
 40
0.5461067255
 40
0.5861099859
 40
0.6267196776
 40
0.6678200357
 40
0.709293479
 40
0.75102105
 40
0.7928828748
 40
0.8347585452
 40
0.8765277366
 40
0.918070145
 40
0.9592671574
 40
1.0
 40
1.0
 40
1.0
 40
1.0
 10
12.8775401107
 20
8.0576805263
 30
0.0
 10
12.8786159626
 20
8.0578980927
 30
0.0
 10
12.8807839243
 20
8.0584565103
 30
0.0
 10
12.8840004326
 20
8.0596292195
 30
0.0
 10
12.8872275858
 20
8.0611474215
 30
0.0
 10
12.8904626277
 20
8.0630092384
 30
0.0
 10
12.8937037062
 20
8.0652126279
 30
0.0
 10
12.8969486528
 20
8.0677556984
 30
0.0
 10
12.9001954834
 20
8.0706362621
 30
0.0
 10
12.903441984
 20
8.0738521447
 30
0.0
 10
12.9066860026
 20
8.0774008619
 30
0.0
 10
12.9099252376
 20
8.0812797887
 30
0.0
 10
12.9131573811
 20
8.0854860255
 30
0.0
 10
12.9163800905
 20
8.090016431
 30
0.0
 10
12.919590949
 20
8.0948676333
 30
0.0
 10
12.9227876114
 20
8.1000359685
 30
0.0
 10
12.9259676036
 20
8.1055175727
 30
0.0
 10
12.9291285944
 20
8.1113082761
 30
0.0
 10
12.9322681002
 20
8.1174037212
 30
0.0
 10
12.9353838035
 20
8.123799256
 30
0.0
 10
12.9384732548
 20
8.1304900384
 30
0.0
 10
12.9415341378
 20
8.1374709532
 30
0.0
 10
12.9445640961
 20
8.1447367009
 30
0.0
 10
12.948618766
 20
8.1549457083
 30
0.0
 10
12.9525352205
 20
8.1655520071
 30
0.0
 10
12.9563284209
 20
8.1765336383
 30
0.0
 10
12.9591693223
 20
8.1851360273
 30
0.0
 10
12.9619657961
 20
8.1939867474
 30
0.0
 10
12.965672495
 20
8.206243196
 30
0.0
 10
12.9701712944
 20
8.2221380732
 30
0.0
 10
12.9753023962
 20
8.2418894718
 30
0.0
 10
12.9802071319
 20
8.2624596142
 30
0.0
 10
12.9848703721
 20
8.2837854714
 30
0.0
 10
12.9892777312
 20
8.3058017857
 30
0.0
 10
12.9934156215
 20
8.3284411207
 30
0.0
 10
12.9972712917
 20
8.3516341187
 30
0.0
 10
13.0008328667
 20
8.3753097051
 30
0.0
 10
13.0040893823
 20
8.399395314
 30
0.0
 10
13.0070308184
 20
8.4238171134
 30
0.0
 10
13.0096481285
 20
8.4485002326
 30
0.0
 10
13.0119332694
 20
8.4733689973
 30
0.0
 10
13.0138792196
 20
8.4983471531
 30
0.0
 10
13.0154800145
 20
8.5233581299
 30
0.0
 10
13.0167307351
 20
8.5483251956
 30
0.0
 10
13.0176275805
 20
8.5731719015
 30
0.0
 10
13.0181677861
 20
8.5978218936
 30
0.0
 10
13.0182899061
 20
8.6141820001
 30
0.0
 10
13.0182899061
 20
8.6223155915
 30
0.0
  0
SPLINE
  5
38F
100
AcDbEntity
  8
0
100
AcDbSpline
 62
7
  6
CONTINUOUS
 70
0
 71
3
 72
21
 73
17
 74
0
 42
0.0000001
 43
0.0000001
 44
0.0000000001
 40
0.0
 40
0.0
 40
0.0
 40
0.0
 40
0.1273176984
 40
0.2537999461
 40
0.3167619614
 40
0.3795355204
 40
0.4421314992
 40
0.5045621453
 40
0.5668413456
 40
0.6289845231
 40
0.6910084433
 40
0.7529310869
 40
0.8147714401
 40
0.8765493236
 40
0.9382852134
 40
1.0
 40
1.0
 40
1.0
 40
1.0
 10
12.0140906996
 20
9.8867941259
 30
0.0
 10
12.0140906996
 20
9.893538934
 30
0.0
 10
12.0147345366
 20
9.9069929734
 30
0.0
 10
12.0171661279
 20
9.9236250705
 30
0.0
 10
12.0200723949
 20
9.9366714941
 30
0.0
 10
12.0227227589
 20
9.9462945426
 30
0.0
 10
12.0258407535
 20
9.9557465943
 30
0.0
 10
12.0294191903
 20
9.9650061289
 30
0.0
 10
12.033449819
 20
9.9740517303
 30
0.0
 10
12.0379234268
 20
9.9828625218
 30
0.0
 10
12.0428296649
 20
9.9914181934
 30
0.0
 10
12.0481572186
 20
9.9996990273
 30
0.0
 10
12.053893853
 20
10.0076858619
 30
0.0
 10
12.0600263743
 20
10.0153603544
 30
0.0
 10
12.0665403677
 20
10.0227045926
 30
0.0
 10
12.0711282605
 20
10.0273700852
 30
0.0
 10
12.0734798092
 20
10.029641493
 30
0.0
  0
SPLINE
  5
390
100
AcDbEntity
  8
0
100
AcDbSpline
 62
7
  6
CONTINUOUS
 70
0
 71
3
 72
39
 73
35
 74
0
 42
0.0000001
 43
0.0000001
 44
0.0000000001
 40
0.0
 40
0.0
 40
0.0
 40
0.0
 40
0.0311445425
 40
0.0624433652
 40
0.093888256
 40
0.1254710218
 40
0.1571788766
 40
0.1889972611
 40
0.2209091725
 40
0.2528958428
 40
0.2849370253
 40
0.3170114183
 40
0.349097079
 40
0.3811718482
 40
0.4132137779
 40
0.4452015551
 40
0.4771149166
 40
0.5089350506
 40
0.5406449764
 40
0.5722298984
 40
0.6036775288
 40
0.634978368
 40
0.6661259371
 40
0.6971169555
 40
0.7279514574
 40
0.758632841
 40
0.7891678449
 40
0.819566448
 40
0.8498416915
 40
0.8800094239
 40
0.9100879689
 40
0.9400977235
 40
0.9700606966
 40
1.0
 40
1.0
 40
1.0
 40
1.0
 10
11.9902292397
 20
7.1906362071
 30
0.0
 10
11.9875757425
 20
7.1908202277
 30
0.0
 10
11.9822671016
 20
7.1913834287
 30
0.0
 10
11.9743685267
 20
7.1928020522
 30
0.0
 10
11.9665545215
 20
7.1947892301
 30
0.0
 10
11.9588673654
 20
7.1973341029
 30
0.0
 10
11.9513478334
 20
7.2004231507
 30
0.0
 10
11.9440360572
 20
7.2040397873
 30
0.0
 10
11.9369709836
 20
7.2081647138
 30
0.0
 10
11.9301902603
 20
7.2127758975
 30
0.0
 10
11.9237300176
 20
7.2178487393
 30
0.0
 10
11.9176246797
 20
7.2233561828
 30
0.0
 10
11.9119067801
 20
7.229268862
 30
0.0
 10
11.906606794
 20
7.2355552603
 30
0.0
 10
11.9017529772
 20
7.2421818763
 30
0.0
 10
11.8973712174
 20
7.2491134002
 30
0.0
 10
11.8934848972
 20
7.2563128996
 30
0.0
 10
11.8901147705
 20
7.2637420139
 30
0.0
 10
11.8872788524
 20
7.2713611551
 30
0.0
 10
11.8849923235
 20
7.279129717
 30
0.0
 10
11.8832674416
 20
7.2870062861
 30
0.0
 10
11.8821134781
 20
7.2949488623
 30
0.0
 10
11.8815366705
 20
7.3029150805
 30
0.0
 10
11.8815401848
 20
7.3108624328
 30
0.0
 10
11.8821240961
 20
7.3187484931
 30
0.0
 10
11.8832853835
 20
7.3265311411
 30
0.0
 10
11.8850179411
 20
7.334168786
 30
0.0
 10
11.8873126063
 20
7.3416205896
 30
0.0
 10
11.8901571983
 20
7.3488466823
 30
0.0
 10
11.893536586
 20
7.355808397
 30
0.0
 10
11.8974327217
 20
7.3624684262
 30
0.0
 10
11.9018249225
 20
7.3687912173
 30
0.0
 10
11.9066892782
 20
7.3747424628
 30
0.0
 10
11.9102311551
 20
7.378442586
 30
0.0
 10
11.9120702524
 20
7.3802190021
 30
0.0
  0
SPLINE
  5
391
100
AcDbEntity
  8
0
100
AcDbSpline
 62
4
  6
CONTINUOUS
 70
0
 71
3
 72
313
 73
309
 74
0
 42
0.0000001
 43
0.0000001
 44
0.0000000001
 40
0.0
 40
0.0
 40
0.0
 40
0.0
 40
0.015625
 40
0.0234375
 40
0.03125
 40
0.0390625
 40
0.046875
 40
0.05078125
 40
0.0546875
 40
0.056640625
 40
0.05859375
 40
0.060546875
 40
0.0615234375
 40
0.0620117188
 40
0.0625
 40
0.0629882812
 40
0.0634765625
 40
0.064453125
 40
0.06640625
 40
0.068359375
 40
0.0703125
 40
0.07421875
 40
0.078125
 40
0.0859375
 40
0.09375
 40
0.1015625
 40
0.109375
 40
0.11328125
 40
0.1171875
 40
0.119140625
 40
0.12109375
 40
0.123046875
 40
0.1240234375
 40
0.1245117188
 40
0.125
 40
0.1254882812
 40
0.1259765625
 40
0.126953125
 40
0.12890625
 40
0.130859375
 40
0.1328125
 40
0.13671875
 40
0.140625
 40
0.1484375
 40
0.15625
 40
0.1640625
 40
0.171875
 40
0.17578125
 40
0.1796875
 40
0.181640625
 40
0.18359375
 40
0.185546875
 40
0.1865234375
 40
0.1870117188
 40
0.1875
 40
0.1879882812
 40
0.1884765625
 40
0.189453125
 40
0.19140625
 40
0.193359375
 40
0.1953125
 40
0.19921875
 40
0.203125
 40
0.2109375
 40
0.21875
 40
0.2265625
 40
0.234375
 40
0.23828125
 40
0.2421875
 40
0.244140625
 40
0.24609375
 40
0.248046875
 40
0.2490234375
 40
0.2495117188
 40
0.25
 40
0.2504882812
 40
0.2509765625
 40
0.251953125
 40
0.25390625
 40
0.255859375
 40
0.2578125
 40
0.26171875
 40
0.265625
 40
0.2734375
 40
0.28125
 40
0.2890625
 40
0.296875
 40
0.30078125
 40
0.3046875
 40
0.306640625
 40
0.30859375
 40
0.310546875
 40
0.3115234375
 40
0.3120117188
 40
0.3125
 40
0.3129882812
 40
0.3134765625
 40
0.314453125
 40
0.31640625
 40
0.318359375
 40
0.3203125
 40
0.32421875
 40
0.328125
 40
0.3359375
 40
0.34375
 40
0.3515625
 40
0.359375
 40
0.36328125
 40
0.3671875
 40
0.369140625
 40
0.37109375
 40
0.373046875
 40
0.3740234375
 40
0.3745117188
 40
0.375
 40
0.3754882812
 40
0.3759765625
 40
0.376953125
 40
0.37890625
 40
0.380859375
 40
0.3828125
 40
0.38671875
 40
0.390625
 40
0.3984375
 40
0.40625
 40
0.4140625
 40
0.421875
 40
0.42578125
 40
0.4296875
 40
0.431640625
 40
0.43359375
 40
0.435546875
 40
0.4365234375
 40
0.4370117188
 40
0.4375
 40
0.4379882812
 40
0.4384765625
 40
0.439453125
 40
0.44140625
 40
0.443359375
 40
0.4453125
 40
0.44921875
 40
0.453125
 40
0.4609375
 40
0.46875
 40
0.4765625
 40
0.484375
 40
0.48828125
 40
0.4921875
 40
0.494140625
 40
0.49609375
 40
0.498046875
 40
0.4990234375
 40
0.4995117188
 40
0.5
 40
0.5004882812
 40
0.5009765625
 40
0.501953125
 40
0.50390625
 40
0.505859375
 40
0.5078125
 40
0.51171875
 40
0.515625
 40
0.5234375
 40
0.53125
 40
0.5390625
 40
0.546875
 40
0.55078125
 40
0.5546875
 40
0.556640625
 40
0.55859375
 40
0.560546875
 40
0.5615234375
 40
0.5620117188
 40
0.5625
 40
0.5629882812
 40
0.5634765625
 40
0.564453125
 40
0.56640625
 40
0.568359375
 40
0.5703125
 40
0.57421875
 40
0.578125
 40
0.5859375
 40
0.59375
 40
0.6015625
 40
0.609375
 40
0.61328125
 40
0.6171875
 40
0.619140625
 40
0.62109375
 40
0.623046875
 40
0.6240234375
 40
0.6245117188
 40
0.625
 40
0.6254882812
 40
0.6259765625
 40
0.626953125
 40
0.62890625
 40
0.630859375
 40
0.6328125
 40
0.63671875
 40
0.640625
 40
0.6484375
 40
0.65625
 40
0.6640625
 40
0.671875
 40
0.67578125
 40
0.6796875
 40
0.681640625
 40
0.68359375
 40
0.685546875
 40
0.6865234375
 40
0.6870117188
 40
0.6875
 40
0.6879882812
 40
0.6884765625
 40
0.689453125
 40
0.69140625
 40
0.693359375
 40
0.6953125
 40
0.69921875
 40
0.703125
 40
0.7109375
 40
0.71875
 40
0.7265625
 40
0.734375
 40
0.73828125
 40
0.7421875
 40
0.744140625
 40
0.74609375
 40
0.748046875
 40
0.7490234375
 40
0.7495117188
 40
0.75
 40
0.7504882812
 40
0.7509765625
 40
0.751953125
 40
0.75390625
 40
0.755859375
 40
0.7578125
 40
0.76171875
 40
0.765625
 40
0.7734375
 40
0.78125
 40
0.7890625
 40
0.796875
 40
0.80078125
 40
0.8046875
 40
0.806640625
 40
0.80859375
 40
0.810546875
 40
0.8115234375
 40
0.8120117188
 40
0.8125
 40
0.8129882812
 40
0.8134765625
 40
0.814453125
 40
0.81640625
 40
0.818359375
 40
0.8203125
 40
0.82421875
 40
0.828125
 40
0.8359375
 40
0.84375
 40
0.8515625
 40
0.859375
 40
0.86328125
 40
0.8671875
 40
0.869140625
 40
0.87109375
 40
0.873046875
 40
0.8740234375
 40
0.8745117188
 40
0.875
 40
0.8754882812
 40
0.8759765625
 40
0.876953125
 40
0.87890625
 40
0.880859375
 40
0.8828125
 40
0.88671875
 40
0.890625
 40
0.8984375
 40
0.90625
 40
0.9140625
 40
0.921875
 40
0.92578125
 40
0.9296875
 40
0.931640625
 40
0.93359375
 40
0.935546875
 40
0.9365234375
 40
0.9370117188
 40
0.9375
 40
0.9379882812
 40
0.9384765625
 40
0.939453125
 40
0.94140625
 40
0.943359375
 40
0.9453125
 40
0.94921875
 40
0.953125
 40
0.9609375
 40
0.96875
 40
0.9765625
 40
0.984375
 40
1.0
 40
1.0
 40
1.0
 40
1.0
 10
11.1094045345
 20
6.9277317354
 30
0.0
 10
11.1073157432
 20
6.9276717858
 30
0.0
 10
11.1041825563
 20
6.9275818615
 30
0.0
 10
11.1000049738
 20
6.9274619619
 30
0.0
 10
11.0968717866
 20
6.9273720388
 30
0.0
 10
11.0937386007
 20
6.9272821094
 30
0.0
 10
11.0911276085
 20
6.9272071879
 30
0.0
 10
11.0890388234
 20
6.9271472067
 30
0.0
 10
11.0877333132
 20
6.9271098185
 30
0.0
 10
11.0866889498
 20
6.9270796787
 30
0.0
 10
11.0859055546
 20
6.9270577017
 30
0.0
 10
11.0852531154
 20
6.9270373903
 30
0.0
 10
11.0847956423
 20
6.9270270919
 30
0.0
 10
11.0845354246
 20
6.927015087
 30
0.0
 10
11.0843368938
 20
6.9270233236
 30
0.0
 10
11.0841512351
 20
6.926965659
 30
0.0
 10
11.0838992002
 20
6.92691176
 30
0.0
 10
11.0834602311
 20
6.9268067266
 30
0.0
 10
11.0828320387
 20
6.9266622783
 30
0.0
 10
11.082078676
 20
6.9264865435
 30
0.0
 10
11.0810740288
 20
6.9262530677
 30
0.0
 10
11.0798182759
 20
6.9259609362
 30
0.0
 10
11.0778090398
 20
6.9254936862
 30
0.0
 10
11.0752975056
 20
6.9249095682
 30
0.0
 10
11.0722836593
 20
6.924208652
 30
0.0
 10
11.0692698167
 20
6.9235077233
 30
0.0
 10
11.0667582734
 20
6.9229236363
 30
0.0
 10
11.0647490556
 20
6.9224563244
 30
0.0
 10
11.0634932561
 20
6.9221643502
 30
0.0
 10
11.0624887044
 20
6.9219305515
 30
0.0
 10
11.0617350501
 20
6.921755803
 30
0.0
 10
11.0611077701
 20
6.9216082692
 30
0.0
 10
11.0606671721
 20
6.9215087438
 30
0.0
 10
11.0604177471
 20
6.9214460195
 30
0.0
 10
11.0602240718
 20
6.9214154633
 30
0.0
 10
11.0600556502
 20
6.9213218854
 30
0.0
 10
11.0598222793
 20
6.9212190976
 30
0.0
 10
11.0594179844
 20
6.9210289768
 30
0.0
 10
11.0588382745
 20
6.9207627303
 30
0.0
 10
11.0581435411
 20
6.9204409426
 30
0.0
 10
11.0572169091
 20
6.9200126928
 30
0.0
 10
11.056058729
 20
6.9194771064
 30
0.0
 10
11.0542055794
 20
6.9186203215
 30
0.0
 10
11.0518891636
 20
6.9175492874
 30
0.0
 10
11.0491094547
 20
6.9162640707
 30
0.0
 10
11.0463297514
 20
6.914978842
 30
0.0
 10
11.0440133218
 20
6.9139078378
 30
0.0
 10
11.0421601998
 20
6.913050993
 30
0.0
 10
11.0410019494
 20
6.9125155588
 30
0.0
 10
11.0400754616
 20
6.9120869967
 30
0.0
 10
11.0393802875
 20
6.9117661632
 30
0.0
 10
11.0388019567
 20
6.9114969311
 30
0.0
 10
11.0383951999
 20
6.9113121401
 30
0.0
 10
11.0381657736
 20
6.9112008125
 30
0.0
 10
11.0379852353
 20
6.911133466
 30
0.0
 10
11.0378370686
 20
6.9110043893
 30
0.0
 10
11.0376282214
 20
6.9108538192
 30
0.0
 10
11.0372679998
 20
6.9105802893
 30
0.0
 10
11.036750647
 20
6.9101947772
 30
0.0
 10
11.036131001
 20
6.9097299177
 30
0.0
 10
11.0353043951
 20
6.9091108892
 30
0.0
 10
11.0342712786
 20
6.9083368351
 30
0.0
 10
11.0326182133
 20
6.9070984986
 30
0.0
 10
11.030551909
 20
6.9055505262
 30
0.0
 10
11.028072331
 20
6.9036929827
 30
0.0
 10
11.025592761
 20
6.9018354287
 30
0.0
 10
11.0235264365
 20
6.9002874824
 30
0.0
 10
11.0218734117
 20
6.8990490937
 30
0.0
 10
11.0208401924
 20
6.8982751723
 30
0.0
 10
11.0200137975
 20
6.8976558714
 30
0.0
 10
11.0193935068
 20
6.8971918443
 30
0.0
 10
11.0188781711
 20
6.8968037279
 30
0.0
 10
11.0185143486
 20
6.8965348472
 30
0.0
 10
11.018311271
 20
6.8963768278
 30
0.0
 10
11.018145382
 20
6.8962706327
 30
0.0
 10
11.018031406
 20
6.8961173467
 30
0.0
 10
11.0178613302
 20
6.8959293912
 30
0.0
 10
11.0175721342
 20
6.8955928159
 30
0.0
 10
11.0171545863
 20
6.8951159952
 30
0.0
 10
11.0166554169
 20
6.8945420978
 30
0.0
 10
11.0159891981
 20
6.8937774994
 30
0.0
 10
11.0151566505
 20
6.8928215465
 30
0.0
 10
11.0138244481
 20
6.8912921365
 30
0.0
 10
11.0121592387
 20
6.8893803345
 30
0.0
 10
11.0101609674
 20
6.8870861899
 30
0.0
 10
11.0081627063
 20
6.884792037
 30
0.0
 10
11.0064974712
 20
6.882880256
 30
0.0
 10
11.0051653202
 20
6.8813508038
 30
0.0
 10
11.004332642
 20
6.8803949581
 30
0.0
 10
11.0036666912
 20
6.8796301399
 30
0.0
 10
11.0031667034
 20
6.8790569139
 30
0.0
 10
11.0027517158
 20
6.8785779925
 30
0.0
 10
11.0024579492
 20
6.8782451673
 30
0.0
 10
11.0022951968
 20
6.8780512032
 30
0.0
 10
11.0021587257
 20
6.8779163737
 30
0.0
 10
11.0020773245
 20
6.877740859
 30
0.0
 10
11.0019495806
 20
6.8775210308
 30
0.0
 10
11.0017349786
 20
6.8771297195
 30
0.0
 10
11.0014237252
 20
6.8765741602
 30
0.0
 10
11.0010522239
 20
6.8759060093
 30
0.0
 10
11.0005561894
 20
6.8750156583
 30
0.0
 10
10.9999363857
 20
6.8739025427
 30
0.0
 10
10.9989445659
 20
6.8721216565
 30
0.0
 10
10.9977048375
 20
6.8698955147
 30
0.0
 10
10.9962171421
 20
6.8672241599
 30
0.0
 10
10.9947294578
 20
6.8645527983
 30
0.0
 10
10.9934897014
 20
6.8623266734
 30
0.0
 10
10.9924979375
 20
6.8605457534
 30
0.0
 10
10.991877992
 20
6.8594327236
 30
0.0
 10
10.9913822485
 20
6.8585421964
 30
0.0
 10
10.991009858
 20
6.857874584
 30
0.0
 10
10.9907013868
 20
6.85731734
 30
0.0
 10
10.9904818181
 20
6.8569290362
 30
0.0
 10
10.9903620321
 20
6.8567043892
 30
0.0
 10
10.9902561869
 20
6.8565436764
 30
0.0
 10
10.9902115234
 20
6.8563532532
 30
0.0
 10
10.9901306313
 20
6.8561097189
 30
0.0
 10
10.9899990132
 20
6.8556787055
 30
0.0
 10
10.9898057889
 20
6.8550654963
 30
0.0
 10
10.9895761449
 20
6.8543285648
 30
0.0
 10
10.9892691756
 20
6.8533463669
 30
0.0
 10
10.9888857302
 20
6.8521184903
 30
0.0
 10
10.9882720688
 20
6.85015396
 30
0.0
 10
10.9875050434
 20
6.8476982721
 30
0.0
 10
10.9865845893
 20
6.844751458
 30
0.0
 10
10.9856641473
 20
6.8418046387
 30
0.0
 10
10.9848970916
 20
6.8393489637
 30
0.0
 10
10.9842834907
 20
6.8373844077
 30
0.0
 10
10.9838998914
 20
6.8361565962
 30
0.0
 10
10.983593238
 20
6.8351742647
 30
0.0
 10
10.9833626291
 20
6.8344377416
 30
0.0
 10
10.9831724236
 20
6.8338232547
 30
0.0
 10
10.9830354166
 20
6.8333945221
 30
0.0
 10
10.9829631588
 20
6.8331473333
 30
0.0
 10
10.9828919733
 20
6.8329681357
 30
0.0
 10
10.9828857405
 20
6.8327652615
 30
0.0
 10
10.9828547738
 20
6.8325030212
 30
0.0
 10
10.9828111381
 20
6.8320402528
 30
0.0
 10
10.9827432826
 20
6.8313811668
 30
0.0
 10
10.9826642182
 20
6.8305894025
 30
0.0
 10
10.9825579739
 20
6.8295340176
 30
0.0
 10
10.9824254511
 20
6.8282146834
 30
0.0
 10
10.9822132567
 20
6.8261038063
 30
0.0
 10
10.9819480681
 20
6.8234651902
 30
0.0
 10
10.9816298169
 20
6.8202988593
 30
0.0
 10
10.9813115784
 20
6.8171325262
 30
0.0
 10
10.9810463581
 20
6.8144939155
 30
0.0
 10
10.9808342272
 20
6.8123830277
 30
0.0
 10
10.9807015429
 20
6.8110637208
 30
0.0
 10
10.9805956301
 20
6.8100082798
 30
0.0
 10
10.9805155529
 20
6.8092166869
 30
0.0
 10
10.9804508664
 20
6.8085570648
 30
0.0
 10
10.9804015735
 20
6.8080952534
 30
0.0
 10
10.980379671
 20
6.8078314798
 30
0.0
 10
10.9803455959
 20
6.8076333154
 30
0.0
 10
10.9803789814
 20
6.8074364282
 30
0.0
 10
10.9803999645
 20
6.8071734664
 30
0.0
 10
10.9804476483
 20
6.8067134909
 30
0.0
 10
10.9805100363
 20
6.8060562745
 30
0.0
 10
10.9805873552
 20
6.8052676612
 30
0.0
 10
10.9806895902
 20
6.8042161606
 30
0.0
 10
10.9808176773
 20
6.8029017905
 30
0.0
 10
10.9810224527
 20
6.8007987951
 30
0.0
 10
10.9812784786
 20
6.798170052
 30
0.0
 10
10.9815856839
 20
6.7950155596
 30
0.0
 10
10.9818929018
 20
6.7918610682
 30
0.0
 10
10.9821488959
 20
6.7892323228
 30
0.0
 10
10.9823537349
 20
6.787129332
 30
0.0
 10
10.9824816605
 20
6.7858149501
 30
0.0
 10
10.9825842271
 20
6.7847634737
 30
0.0
 10
10.9826605328
 20
6.7839747867
 30
0.0
 10
10.982726091
 20
6.783317801
 30
0.0
 10
10.9827681153
 20
6.7828574136
 30
0.0
 10
10.9827981664
 20
6.7825951117
 30
0.0
 10
10.9828036979
 20
6.7823961974
 30
0.0
 10
10.9828742379
 20
6.7822056467
 30
0.0
 10
10.9829456156
 20
6.7819486618
 30
0.0
 10
10.9830810917
 20
6.7815002974
 30
0.0
 10
10.9832691053
 20
6.7808590662
 30
0.0
 10
10.9834970859
 20
6.7800898929
 30
0.0
 10
10.9838002343
 20
6.7790642224
 30
0.0
 10
10.9841794525
 20
6.7777821705
 30
0.0
 10
10.9847860436
 20
6.7757308672
 30
0.0
 10
10.985544337
 20
6.7731667452
 30
0.0
 10
10.9864542642
 20
6.7700897953
 30
0.0
 10
10.9873642035
 20
6.7670128481
 30
0.0
 10
10.9881224666
 20
6.7644487191
 30
0.0
 10
10.9887291183
 20
6.7623974299
 30
0.0
 10
10.9891081825
 20
6.7611153422
 30
0.0
 10
10.989411647
 20
6.7600897452
 30
0.0
 10
10.9896386617
 20
6.7593203473
 30
0.0
 10
10.9898296975
 20
6.758679819
 30
0.0
 10
10.9899597785
 20
6.7582301998
 30
0.0
 10
10.9900398004
 20
6.7579752253
 30
0.0
 10
10.9900837881
 20
6.7577784994
 30
0.0
 10
10.990189046
 20
6.7576027781
 30
0.0
 10
10.9903080182
 20
6.7573611565
 30
0.0
 10
10.9905261769
 20
6.7569417322
 30
0.0
 10
10.9908326264
 20
6.75634077
 30
0.0
 10
10.9912025941
 20
6.7556203793
 30
0.0
 10
10.991695106
 20
6.7546595915
 30
0.0
 10
10.9923110125
 20
6.7534586981
 30
0.0
 10
10.9932963138
 20
6.7515372175
 30
0.0
 10
10.9945279918
 20
6.7491353846
 30
0.0
 10
10.996005982
 20
6.7462531768
 30
0.0
 10
10.9974839838
 20
6.7433709737
 30
0.0
 10
10.9987156329
 20
6.7409691289
 30
0.0
 10
10.9997009921
 20
6.739047672
 30
0.0
 10
11.0003167513
 20
6.7378467185
 30
0.0
 10
11.0008095655
 20
6.7368860541
 30
0.0
 10
11.0011786095
 20
6.7361652866
 30
0.0
 10
11.001487949
 20
6.7355655031
 30
0.0
 10
11.0017009487
 20
6.7351439746
 30
0.0
 10
11.001828187
 20
6.7349057244
 30
0.0
 10
11.0019080539
 20
6.7347196472
 30
0.0
 10
11.002047406
 20
6.7345618165
 30
0.0
 10
11.0022124597
 20
6.7343415228
 30
0.0
 10
11.0025109711
 20
6.7339605993
 30
0.0
 10
11.0029323617
 20
6.733414023
 30
0.0
 10
11.0034401938
 20
6.7327591588
 30
0.0
 10
11.0041165476
 20
6.7318856476
 30
0.0
 10
11.0049622486
 20
6.7307938814
 30
0.0
 10
11.0063152255
 20
6.7290469869
 30
0.0
 10
11.0080064966
 20
6.7268633926
 30
0.0
 10
11.0100359995
 20
6.724243068
 30
0.0
 10
11.0120655122
 20
6.7216227509
 30
0.0
 10
11.0137567586
 20
6.7194391381
 30
0.0
 10
11.015109785
 20
6.7176922806
 30
0.0
 10
11.0159553604
 20
6.7166004203
 30
0.0
 10
11.016631972
 20
6.7157271023
 30
0.0
 10
11.0171390164
 20
6.7150716479
 30
0.0
 10
11.0175628715
 20
6.7145269178
 30
0.0
 10
11.0178569833
 20
6.7141426986
 30
0.0
 10
11.0180290861
 20
6.7139276856
 30
0.0
 10
11.0181467857
 20
6.7137536341
 30
0.0
 10
11.018307976
 20
6.7136284795
 30
0.0
 10
11.0185077263
 20
6.7134445509
 30
0.0
 10
11.0188643574
 20
6.7131306226
 30
0.0
 10
11.0193701351
 20
6.7126779989
 30
0.0
 10
11.0199786501
 20
6.7121366288
 30
0.0
 10
11.0207894509
 20
6.7114141808
 30
0.0
 10
11.0218031411
 20
6.7105113335
 30
0.0
 10
11.0234249397
 20
6.709066659
 30
0.0
 10
11.0254522244
 20
6.7072608569
 30
0.0
 10
11.0278849495
 20
6.7050938755
 30
0.0
 10
11.0303176824
 20
6.7029269039
 30
0.0
 10
11.0323449478
 20
6.7011210775
 30
0.0
 10
11.0339667849
 20
6.6996764516
 30
0.0
 10
11.0349803771
 20
6.6987734806
 30
0.0
 10
11.0357913791
 20
6.6980512866
 30
0.0
 10
11.0363992794
 20
6.6975091407
 30
0.0
 10
11.0369069803
 20
6.697058944
 30
0.0
 10
11.0372601783
 20
6.6967406831
 30
0.0
 10
11.0374654293
 20
6.6965636964
 30
0.0
 10
11.0376097231
 20
6.6964172185
 30
0.0
 10
11.037790883
 20
6.6963232538
 30
0.0
 10
11.0380195703
 20
6.6961796504
 30
0.0
 10
11.0384257643
 20
6.6959368788
 30
0.0
 10
11.0390029091
 20
6.6955856002
 30
0.0
 10
11.0396968236
 20
6.6951659758
 30
0.0
 10
11.0406215747
 20
6.6946058096
 30
0.0
 10
11.0417776739
 20
6.6939058302
 30
0.0
 10
11.043627343
 20
6.6927857354
 30
0.0
 10
11.0459394603
 20
6.6913856611
 30
0.0
 10
11.0487139872
 20
6.6897055515
 30
0.0
 10
11.05148852
 20
6.6880254528
 30
0.0
 10
11.0538006223
 20
6.6866253516
 30
0.0
 10
11.0556503213
 20
6.6855053105
 30
0.0
 10
11.0568063445
 20
6.6848051946
 30
0.0
 10
11.0577312516
 20
6.6842453086
 30
0.0
 10
11.0584246894
 20
6.683824828
 30
0.0
 10
11.059003326
 20
6.6834762282
 30
0.0
 10
11.0594068569
 20
6.6832286746
 30
0.0
 10
11.0596398111
 20
6.6830927331
 30
0.0
 10
11.0598078643
 20
6.6829752334
 30
0.0
 10
11.0600013849
 20
6.6829171492
 30
0.0
 10
11.0602505291
 20
6.6828189789
 30
0.0
 10
11.0606906703
 20
6.6826568369
 30
0.0
 10
11.0613172796
 20
6.6824201571
 30
0.0
 10
11.0620701369
 20
6.6821383022
 30
0.0
 10
11.0630736232
 20
6.681761741
 30
0.0
 10
11.0643280918
 20
6.6812912979
 30
0.0
 10
11.0663351797
 20
6.6805384444
 30
0.0
 10
11.068844061
 20
6.6795974275
 30
0.0
 10
11.0718547088
 20
6.6784681843
 30
0.0
 10
11.074865361
 20
6.6773389529
 30
0.0
 10
11.0773742315
 20
6.6763979064
 30
0.0
 10
11.0793813408
 20
6.675645112
 30
0.0
 10
11.080635755
 20
6.6751745188
 30
0.0
 10
11.0816393531
 20
6.6747982656
 30
0.0
 10
11.082391869
 20
6.6745154696
 30
0.0
 10
11.0830195466
 20
6.6742817344
 30
0.0
 10
11.0834577807
 20
6.6741143358
 30
0.0
 10
11.0837099806
 20
6.6740245879
 30
0.0
 10
11.0838941149
 20
6.6739406327
 30
0.0
 10
11.0840974215
 20
6.6739203005
 30
0.0
 10
11.0843618094
 20
6.6738709984
 30
0.0
 10
11.0848276042
 20
6.6737950598
 30
0.0
 10
11.0854913963
 20
6.6736811701
 30
0.0
 10
11.086288644
 20
6.6735468164
 30
0.0
 10
11.0873513975
 20
6.6733668699
 30
0.0
 10
11.0886799228
 20
6.6731422136
 30
0.0
 10
11.0908055165
 20
6.6727826087
 30
0.0
 10
11.0934625247
 20
6.6723331557
 30
0.0
 10
11.0966509277
 20
6.6717937894
 30
0.0
 10
11.0998393325
 20
6.6712544291
 30
0.0
 10
11.1040905383
 20
6.67053528
 30
0.0
 10
11.1072789428
 20
6.6699959186
 30
0.0
 10
11.1094045458
 20
6.6696363443
 30
0.0
  0
SPLINE
  5
392
100
AcDbEntity
  8
0
100
AcDbSpline
 62
4
  6
CONTINUOUS
 70
0
 71
3
 72
313
 73
309
 74
0
 42
0.0000001
 43
0.0000001
 44
0.0000000001
 40
0.0
 40
0.0
 40
0.0
 40
0.0
 40
0.015625
 40
0.0234375
 40
0.03125
 40
0.0390625
 40
0.046875
 40
0.05078125
 40
0.0546875
 40
0.056640625
 40
0.05859375
 40
0.060546875
 40
0.0615234375
 40
0.0620117188
 40
0.0625
 40
0.0629882812
 40
0.0634765625
 40
0.064453125
 40
0.06640625
 40
0.068359375
 40
0.0703125
 40
0.07421875
 40
0.078125
 40
0.0859375
 40
0.09375
 40
0.1015625
 40
0.109375
 40
0.11328125
 40
0.1171875
 40
0.119140625
 40
0.12109375
 40
0.123046875
 40
0.1240234375
 40
0.1245117188
 40
0.125
 40
0.1254882812
 40
0.1259765625
 40
0.126953125
 40
0.12890625
 40
0.130859375
 40
0.1328125
 40
0.13671875
 40
0.140625
 40
0.1484375
 40
0.15625
 40
0.1640625
 40
0.171875
 40
0.17578125
 40
0.1796875
 40
0.181640625
 40
0.18359375
 40
0.185546875
 40
0.1865234375
 40
0.1870117188
 40
0.1875
 40
0.1879882812
 40
0.1884765625
 40
0.189453125
 40
0.19140625
 40
0.193359375
 40
0.1953125
 40
0.19921875
 40
0.203125
 40
0.2109375
 40
0.21875
 40
0.2265625
 40
0.234375
 40
0.23828125
 40
0.2421875
 40
0.244140625
 40
0.24609375
 40
0.248046875
 40
0.2490234375
 40
0.2495117188
 40
0.25
 40
0.2504882812
 40
0.2509765625
 40
0.251953125
 40
0.25390625
 40
0.255859375
 40
0.2578125
 40
0.26171875
 40
0.265625
 40
0.2734375
 40
0.28125
 40
0.2890625
 40
0.296875
 40
0.30078125
 40
0.3046875
 40
0.306640625
 40
0.30859375
 40
0.310546875
 40
0.3115234375
 40
0.3120117188
 40
0.3125
 40
0.3129882812
 40
0.3134765625
 40
0.314453125
 40
0.31640625
 40
0.318359375
 40
0.3203125
 40
0.32421875
 40
0.328125
 40
0.3359375
 40
0.34375
 40
0.3515625
 40
0.359375
 40
0.36328125
 40
0.3671875
 40
0.369140625
 40
0.37109375
 40
0.373046875
 40
0.3740234375
 40
0.3745117188
 40
0.375
 40
0.3754882812
 40
0.3759765625
 40
0.376953125
 40
0.37890625
 40
0.380859375
 40
0.3828125
 40
0.38671875
 40
0.390625
 40
0.3984375
 40
0.40625
 40
0.4140625
 40
0.421875
 40
0.42578125
 40
0.4296875
 40
0.431640625
 40
0.43359375
 40
0.435546875
 40
0.4365234375
 40
0.4370117188
 40
0.4375
 40
0.4379882812
 40
0.4384765625
 40
0.439453125
 40
0.44140625
 40
0.443359375
 40
0.4453125
 40
0.44921875
 40
0.453125
 40
0.4609375
 40
0.46875
 40
0.4765625
 40
0.484375
 40
0.48828125
 40
0.4921875
 40
0.494140625
 40
0.49609375
 40
0.498046875
 40
0.4990234375
 40
0.4995117188
 40
0.5
 40
0.5004882812
 40
0.5009765625
 40
0.501953125
 40
0.50390625
 40
0.505859375
 40
0.5078125
 40
0.51171875
 40
0.515625
 40
0.5234375
 40
0.53125
 40
0.5390625
 40
0.546875
 40
0.55078125
 40
0.5546875
 40
0.556640625
 40
0.55859375
 40
0.560546875
 40
0.5615234375
 40
0.5620117188
 40
0.5625
 40
0.5629882812
 40
0.5634765625
 40
0.564453125
 40
0.56640625
 40
0.568359375
 40
0.5703125
 40
0.57421875
 40
0.578125
 40
0.5859375
 40
0.59375
 40
0.6015625
 40
0.609375
 40
0.61328125
 40
0.6171875
 40
0.619140625
 40
0.62109375
 40
0.623046875
 40
0.6240234375
 40
0.6245117188
 40
0.625
 40
0.6254882812
 40
0.6259765625
 40
0.626953125
 40
0.62890625
 40
0.630859375
 40
0.6328125
 40
0.63671875
 40
0.640625
 40
0.6484375
 40
0.65625
 40
0.6640625
 40
0.671875
 40
0.67578125
 40
0.6796875
 40
0.681640625
 40
0.68359375
 40
0.685546875
 40
0.6865234375
 40
0.6870117188
 40
0.6875
 40
0.6879882812
 40
0.6884765625
 40
0.689453125
 40
0.69140625
 40
0.693359375
 40
0.6953125
 40
0.69921875
 40
0.703125
 40
0.7109375
 40
0.71875
 40
0.7265625
 40
0.734375
 40
0.73828125
 40
0.7421875
 40
0.744140625
 40
0.74609375
 40
0.748046875
 40
0.7490234375
 40
0.7495117188
 40
0.75
 40
0.7504882812
 40
0.7509765625
 40
0.751953125
 40
0.75390625
 40
0.755859375
 40
0.7578125
 40
0.76171875
 40
0.765625
 40
0.7734375
 40
0.78125
 40
0.7890625
 40
0.796875
 40
0.80078125
 40
0.8046875
 40
0.806640625
 40
0.80859375
 40
0.810546875
 40
0.8115234375
 40
0.8120117188
 40
0.8125
 40
0.8129882812
 40
0.8134765625
 40
0.814453125
 40
0.81640625
 40
0.818359375
 40
0.8203125
 40
0.82421875
 40
0.828125
 40
0.8359375
 40
0.84375
 40
0.8515625
 40
0.859375
 40
0.86328125
 40
0.8671875
 40
0.869140625
 40
0.87109375
 40
0.873046875
 40
0.8740234375
 40
0.8745117188
 40
0.875
 40
0.8754882812
 40
0.8759765625
 40
0.876953125
 40
0.87890625
 40
0.880859375
 40
0.8828125
 40
0.88671875
 40
0.890625
 40
0.8984375
 40
0.90625
 40
0.9140625
 40
0.921875
 40
0.92578125
 40
0.9296875
 40
0.931640625
 40
0.93359375
 40
0.935546875
 40
0.9365234375
 40
0.9370117188
 40
0.9375
 40
0.9379882812
 40
0.9384765625
 40
0.939453125
 40
0.94140625
 40
0.943359375
 40
0.9453125
 40
0.94921875
 40
0.953125
 40
0.9609375
 40
0.96875
 40
0.9765625
 40
0.984375
 40
1.0
 40
1.0
 40
1.0
 40
1.0
 10
11.1094045345
 20
6.6696363451
 30
0.0
 10
11.1114933258
 20
6.6696962947
 30
0.0
 10
11.1146265127
 20
6.6697862189
 30
0.0
 10
11.1188040952
 20
6.6699061186
 30
0.0
 10
11.1219372824
 20
6.6699960417
 30
0.0
 10
11.1250704683
 20
6.6700859711
 30
0.0
 10
11.1276814604
 20
6.6701608926
 30
0.0
 10
11.1297702455
 20
6.6702208738
 30
0.0
 10
11.1310757558
 20
6.6702582619
 30
0.0
 10
11.1321201192
 20
6.6702884017
 30
0.0
 10
11.1329035144
 20
6.6703103787
 30
0.0
 10
11.1335559536
 20
6.6703306901
 30
0.0
 10
11.1340134266
 20
6.6703409886
 30
0.0
 10
11.1342736444
 20
6.6703529935
 30
0.0
 10
11.1344721752
 20
6.6703447568
 30
0.0
 10
11.1346578339
 20
6.6704024214
 30
0.0
 10
11.1349098688
 20
6.6704563204
 30
0.0
 10
11.1353488379
 20
6.6705613538
 30
0.0
 10
11.1359770303
 20
6.6707058022
 30
0.0
 10
11.136730393
 20
6.6708815369
 30
0.0
 10
11.1377350402
 20
6.6711150128
 30
0.0
 10
11.1389907931
 20
6.6714071442
 30
0.0
 10
11.1410000292
 20
6.6718743943
 30
0.0
 10
11.1435115634
 20
6.6724585122
 30
0.0
 10
11.1465254096
 20
6.6731594285
 30
0.0
 10
11.1495392523
 20
6.6738603571
 30
0.0
 10
11.1520507956
 20
6.6744444441
 30
0.0
 10
11.1540600134
 20
6.6749117561
 30
0.0
 10
11.1553158128
 20
6.6752037303
 30
0.0
 10
11.1563203645
 20
6.6754375289
 30
0.0
 10
11.1570740189
 20
6.6756122775
 30
0.0
 10
11.1577012989
 20
6.6757598113
 30
0.0
 10
11.1581418968
 20
6.6758593366
 30
0.0
 10
11.1583913218
 20
6.6759220609
 30
0.0
 10
11.1585849972
 20
6.6759526171
 30
0.0
 10
11.1587534188
 20
6.676046195
 30
0.0
 10
11.1589867897
 20
6.6761489828
 30
0.0
 10
11.1593910846
 20
6.6763391036
 30
0.0
 10
11.1599707945
 20
6.6766053501
 30
0.0
 10
11.1606655279
 20
6.6769271379
 30
0.0
 10
11.1615921598
 20
6.6773553877
 30
0.0
 10
11.16275034
 20
6.677890974
 30
0.0
 10
11.1646034896
 20
6.678747759
 30
0.0
 10
11.1669199054
 20
6.679818793
 30
0.0
 10
11.1696996143
 20
6.6811040098
 30
0.0
 10
11.1724793176
 20
6.6823892385
 30
0.0
 10
11.1747957472
 20
6.6834602426
 30
0.0
 10
11.1766488692
 20
6.6843170874
 30
0.0
 10
11.1778071196
 20
6.6848525216
 30
0.0
 10
11.1787336073
 20
6.6852810838
 30
0.0
 10
11.1794287815
 20
6.6856019173
 30
0.0
 10
11.1800071123
 20
6.6858711494
 30
0.0
 10
11.1804138691
 20
6.6860559403
 30
0.0
 10
11.1806432953
 20
6.6861672679
 30
0.0
 10
11.1808238337
 20
6.6862346144
 30
0.0
 10
11.1809720004
 20
6.6863636911
 30
0.0
 10
11.1811808476
 20
6.6865142612
 30
0.0
 10
11.1815410692
 20
6.6867877912
 30
0.0
 10
11.1820584219
 20
6.6871733032
 30
0.0
 10
11.1826780679
 20
6.6876381627
 30
0.0
 10
11.1835046738
 20
6.6882571912
 30
0.0
 10
11.1845377904
 20
6.6890312453
 30
0.0
 10
11.1861908557
 20
6.6902695818
 30
0.0
 10
11.1882571599
 20
6.6918175542
 30
0.0
 10
11.190736738
 20
6.6936750978
 30
0.0
 10
11.1932163079
 20
6.6955326517
 30
0.0
 10
11.1952826324
 20
6.697080598
 30
0.0
 10
11.1969356572
 20
6.6983189867
 30
0.0
 10
11.1979688766
 20
6.6990929081
 30
0.0
 10
11.1987952715
 20
6.6997122091
 30
0.0
 10
11.1994155622
 20
6.7001762362
 30
0.0
 10
11.1999308978
 20
6.7005643526
 30
0.0
 10
11.2002947204
 20
6.7008332333
 30
0.0
 10
11.2004977979
 20
6.7009912526
 30
0.0
 10
11.200663687
 20
6.7010974477
 30
0.0
 10
11.200777663
 20
6.7012507337
 30
0.0
 10
11.2009477388
 20
6.7014386893
 30
0.0
 10
11.2012369347
 20
6.7017752645
 30
0.0
 10
11.2016544826
 20
6.7022520852
 30
0.0
 10
11.2021536521
 20
6.7028259827
 30
0.0
 10
11.2028198708
 20
6.7035905811
 30
0.0
 10
11.2036524184
 20
6.7045465339
 30
0.0
 10
11.2049846209
 20
6.7060759439
 30
0.0
 10
11.2066498303
 20
6.707987746
 30
0.0
 10
11.2086481016
 20
6.7102818905
 30
0.0
 10
11.2106463626
 20
6.7125760435
 30
0.0
 10
11.2123115977
 20
6.7144878245
 30
0.0
 10
11.2136437488
 20
6.7160172766
 30
0.0
 10
11.2144764269
 20
6.7169731224
 30
0.0
 10
11.2151423778
 20
6.7177379405
 30
0.0
 10
11.2156423656
 20
6.7183111666
 30
0.0
 10
11.2160573531
 20
6.718790088
 30
0.0
 10
11.2163511197
 20
6.7191229131
 30
0.0
 10
11.2165138722
 20
6.7193168773
 30
0.0
 10
11.2166503433
 20
6.7194517068
 30
0.0
 10
11.2167317445
 20
6.7196272215
 30
0.0
 10
11.2168594884
 20
6.7198470496
 30
0.0
 10
11.2170740904
 20
6.720238361
 30
0.0
 10
11.2173853438
 20
6.7207939203
 30
0.0
 10
11.217756845
 20
6.7214620711
 30
0.0
 10
11.2182528796
 20
6.7223524221
 30
0.0
 10
11.2188726832
 20
6.7234655378
 30
0.0
 10
11.219864503
 20
6.7252464239
 30
0.0
 10
11.2211042315
 20
6.7274725657
 30
0.0
 10
11.2225919269
 20
6.7301439206
 30
0.0
 10
11.2240796112
 20
6.7328152822
 30
0.0
 10
11.2253193675
 20
6.7350414071
 30
0.0
 10
11.2263111315
 20
6.736822327
 30
0.0
 10
11.226931077
 20
6.7379353568
 30
0.0
 10
11.2274268205
 20
6.7388258841
 30
0.0
 10
11.227799211
 20
6.7394934964
 30
0.0
 10
11.2281076822
 20
6.7400507405
 30
0.0
 10
11.2283272509
 20
6.7404390443
 30
0.0
 10
11.2284470369
 20
6.7406636913
 30
0.0
 10
11.2285528821
 20
6.740824404
 30
0.0
 10
11.2285975455
 20
6.7410148272
 30
0.0
 10
11.2286784377
 20
6.7412583615
 30
0.0
 10
11.2288100558
 20
6.741689375
 30
0.0
 10
11.2290032801
 20
6.7423025841
 30
0.0
 10
11.2292329241
 20
6.7430395156
 30
0.0
 10
11.2295398933
 20
6.7440217135
 30
0.0
 10
11.2299233387
 20
6.7452495901
 30
0.0
 10
11.2305370002
 20
6.7472141205
 30
0.0
 10
11.2313040256
 20
6.7496698083
 30
0.0
 10
11.2322244797
 20
6.7526166225
 30
0.0
 10
11.2331449217
 20
6.7555634417
 30
0.0
 10
11.2339119773
 20
6.7580191168
 30
0.0
 10
11.2345255783
 20
6.7599836727
 30
0.0
 10
11.2349091775
 20
6.7612114842
 30
0.0
 10
11.235215831
 20
6.7621938158
 30
0.0
 10
11.2354464398
 20
6.7629303389
 30
0.0
 10
11.2356366454
 20
6.7635448257
 30
0.0
 10
11.2357736524
 20
6.7639735583
 30
0.0
 10
11.2358459102
 20
6.7642207471
 30
0.0
 10
11.2359170956
 20
6.7643999447
 30
0.0
 10
11.2359233285
 20
6.764602819
 30
0.0
 10
11.2359542951
 20
6.7648650593
 30
0.0
 10
11.2359979309
 20
6.7653278277
 30
0.0
 10
11.2360657864
 20
6.7659869137
 30
0.0
 10
11.2361448508
 20
6.7667786779
 30
0.0
 10
11.236251095
 20
6.7678340629
 30
0.0
 10
11.2363836178
 20
6.769153397
 30
0.0
 10
11.2365958123
 20
6.7712642741
 30
0.0
 10
11.2368610008
 20
6.7739028902
 30
0.0
 10
11.237179252
 20
6.7770692211
 30
0.0
 10
11.2374974905
 20
6.7802355542
 30
0.0
 10
11.2377627108
 20
6.7828741649
 30
0.0
 10
11.2379748417
 20
6.7849850528
 30
0.0
 10
11.2381075261
 20
6.7863043596
 30
0.0
 10
11.2382134388
 20
6.7873598006
 30
0.0
 10
11.2382935161
 20
6.7881513936
 30
0.0
 10
11.2383582026
 20
6.7888110156
 30
0.0
 10
11.2384074955
 20
6.7892728271
 30
0.0
 10
11.2384293979
 20
6.7895366007
 30
0.0
 10
11.2384634731
 20
6.789734765
 30
0.0
 10
11.2384300875
 20
6.7899316522
 30
0.0
 10
11.2384091045
 20
6.790194614
 30
0.0
 10
11.2383614206
 20
6.7906545895
 30
0.0
 10
11.2382990327
 20
6.791311806
 30
0.0
 10
11.2382217138
 20
6.7921004192
 30
0.0
 10
11.2381194788
 20
6.7931519198
 30
0.0
 10
11.2379913916
 20
6.79446629
 30
0.0
 10
11.2377866162
 20
6.7965692853
 30
0.0
 10
11.2375305903
 20
6.7991980284
 30
0.0
 10
11.2372233851
 20
6.8023525208
 30
0.0
 10
11.2369161672
 20
6.8055070123
 30
0.0
 10
11.236660173
 20
6.8081357577
 30
0.0
 10
11.2364553341
 20
6.8102387484
 30
0.0
 10
11.2363274085
 20
6.8115531303
 30
0.0
 10
11.2362248419
 20
6.8126046068
 30
0.0
 10
11.2361485362
 20
6.8133932938
 30
0.0
 10
11.236082978
 20
6.8140502795
 30
0.0
 10
11.2360409537
 20
6.8145106669
 30
0.0
 10
11.2360109026
 20
6.8147729687
 30
0.0
 10
11.2360053711
 20
6.8149718831
 30
0.0
 10
11.235934831
 20
6.8151624338
 30
0.0
 10
11.2358634533
 20
6.8154194187
 30
0.0
 10
11.2357279773
 20
6.8158677831
 30
0.0
 10
11.2355399637
 20
6.8165090143
 30
0.0
 10
11.2353119831
 20
6.8172781875
 30
0.0
 10
11.2350088347
 20
6.8183038581
 30
0.0
 10
11.2346296165
 20
6.8195859099
 30
0.0
 10
11.2340230254
 20
6.8216372132
 30
0.0
 10
11.233264732
 20
6.8242013352
 30
0.0
 10
11.2323548048
 20
6.8272782852
 30
0.0
 10
11.2314448654
 20
6.8303552323
 30
0.0
 10
11.2306866023
 20
6.8329193614
 30
0.0
 10
11.2300799507
 20
6.8349706506
 30
0.0
 10
11.2297008865
 20
6.8362527382
 30
0.0
 10
11.2293974219
 20
6.8372783353
 30
0.0
 10
11.2291704073
 20
6.8380477332
 30
0.0
 10
11.2289793715
 20
6.8386882615
 30
0.0
 10
11.2288492905
 20
6.8391378806
 30
0.0
 10
11.2287692686
 20
6.8393928552
 30
0.0
 10
11.2287252809
 20
6.8395895811
 30
0.0
 10
11.228620023
 20
6.8397653023
 30
0.0
 10
11.2285010508
 20
6.840006924
 30
0.0
 10
11.228282892
 20
6.8404263482
 30
0.0
 10
11.2279764425
 20
6.8410273104
 30
0.0
 10
11.2276064749
 20
6.8417477012
 30
0.0
 10
11.2271139629
 20
6.842708489
 30
0.0
 10
11.2264980565
 20
6.8439093824
 30
0.0
 10
11.2255127552
 20
6.8458308629
 30
0.0
 10
11.2242810771
 20
6.8482326959
 30
0.0
 10
11.2228030869
 20
6.8511149037
 30
0.0
 10
11.2213250852
 20
6.8539971068
 30
0.0
 10
11.2200934361
 20
6.8563989515
 30
0.0
 10
11.2191080768
 20
6.8583204084
 30
0.0
 10
11.2184923177
 20
6.8595213619
 30
0.0
 10
11.2179995034
 20
6.8604820264
 30
0.0
 10
11.2176304594
 20
6.8612027939
 30
0.0
 10
11.21732112
 20
6.8618025774
 30
0.0
 10
11.2171081203
 20
6.8622241058
 30
0.0
 10
11.216980882
 20
6.862462356
 30
0.0
 10
11.216901015
 20
6.8626484332
 30
0.0
 10
11.2167616629
 20
6.862806264
 30
0.0
 10
11.2165966092
 20
6.8630265577
 30
0.0
 10
11.2162980979
 20
6.8634074811
 30
0.0
 10
11.2158767073
 20
6.8639540574
 30
0.0
 10
11.2153688752
 20
6.8646089217
 30
0.0
 10
11.2146925214
 20
6.8654824329
 30
0.0
 10
11.2138468204
 20
6.866574199
 30
0.0
 10
11.2124938434
 20
6.8683210935
 30
0.0
 10
11.2108025723
 20
6.8705046878
 30
0.0
 10
11.2087730695
 20
6.8731250124
 30
0.0
 10
11.2067435567
 20
6.8757453296
 30
0.0
 10
11.2050523104
 20
6.8779289424
 30
0.0
 10
11.203699284
 20
6.8796757999
 30
0.0
 10
11.2028537086
 20
6.8807676601
 30
0.0
 10
11.202177097
 20
6.8816409782
 30
0.0
 10
11.2016700526
 20
6.8822964325
 30
0.0
 10
11.2012461975
 20
6.8828411626
 30
0.0
 10
11.2009520856
 20
6.8832253819
 30
0.0
 10
11.2007799828
 20
6.8834403948
 30
0.0
 10
11.2006622833
 20
6.8836144464
 30
0.0
 10
11.200501093
 20
6.8837396009
 30
0.0
 10
11.2003013427
 20
6.8839235295
 30
0.0
 10
11.1999447116
 20
6.8842374579
 30
0.0
 10
11.1994389339
 20
6.8846900816
 30
0.0
 10
11.1988304189
 20
6.8852314517
 30
0.0
 10
11.1980196181
 20
6.8859538996
 30
0.0
 10
11.1970059279
 20
6.8868567469
 30
0.0
 10
11.1953841293
 20
6.8883014215
 30
0.0
 10
11.1933568446
 20
6.8901072235
 30
0.0
 10
11.1909241194
 20
6.8922742049
 30
0.0
 10
11.1884913866
 20
6.8944411766
 30
0.0
 10
11.1864641212
 20
6.896247003
 30
0.0
 10
11.184842284
 20
6.8976916289
 30
0.0
 10
11.1838286919
 20
6.8985945998
 30
0.0
 10
11.1830176898
 20
6.8993167939
 30
0.0
 10
11.1824097895
 20
6.8998589397
 30
0.0
 10
11.1819020887
 20
6.9003091364
 30
0.0
 10
11.1815488907
 20
6.9006273974
 30
0.0
 10
11.1813436396
 20
6.900804384
 30
0.0
 10
11.1811993458
 20
6.9009508619
 30
0.0
 10
11.1810181859
 20
6.9010448266
 30
0.0
 10
11.1807894987
 20
6.90118843
 30
0.0
 10
11.1803833047
 20
6.9014312017
 30
0.0
 10
11.1798061599
 20
6.9017824802
 30
0.0
 10
11.1791122453
 20
6.9022021046
 30
0.0
 10
11.1781874942
 20
6.9027622709
 30
0.0
 10
11.177031395
 20
6.9034622503
 30
0.0
 10
11.1751817259
 20
6.904582345
 30
0.0
 10
11.1728696087
 20
6.9059824194
 30
0.0
 10
11.1700950818
 20
6.9076625289
 30
0.0
 10
11.167320549
 20
6.9093426277
 30
0.0
 10
11.1650084467
 20
6.9107427289
 30
0.0
 10
11.1631587476
 20
6.9118627699
 30
0.0
 10
11.1620027245
 20
6.9125628859
 30
0.0
 10
11.1610778173
 20
6.9131227719
 30
0.0
 10
11.1603843796
 20
6.9135432524
 30
0.0
 10
11.159805743
 20
6.9138918522
 30
0.0
 10
11.159402212
 20
6.9141394059
 30
0.0
 10
11.1591692578
 20
6.9142753474
 30
0.0
 10
11.1590012047
 20
6.9143928471
 30
0.0
 10
11.1588076841
 20
6.9144509312
 30
0.0
 10
11.1585585399
 20
6.9145491016
 30
0.0
 10
11.1581183987
 20
6.9147112436
 30
0.0
 10
11.1574917894
 20
6.9149479233
 30
0.0
 10
11.1567389321
 20
6.9152297782
 30
0.0
 10
11.1557354458
 20
6.9156063395
 30
0.0
 10
11.1544809771
 20
6.9160767826
 30
0.0
 10
11.1524738892
 20
6.916829636
 30
0.0
 10
11.149965008
 20
6.917770653
 30
0.0
 10
11.1469543601
 20
6.9188998962
 30
0.0
 10
11.143943708
 20
6.9200291276
 30
0.0
 10
11.1414348375
 20
6.920970174
 30
0.0
 10
11.1394277281
 20
6.9217229684
 30
0.0
 10
11.1381733139
 20
6.9221935616
 30
0.0
 10
11.1371697159
 20
6.9225698148
 30
0.0
 10
11.1364172
 20
6.9228526109
 30
0.0
 10
11.1357895224
 20
6.923086346
 30
0.0
 10
11.1353512883
 20
6.9232537446
 30
0.0
 10
11.1350990884
 20
6.9233434925
 30
0.0
 10
11.1349149541
 20
6.9234274478
 30
0.0
 10
11.1347116475
 20
6.92344778
 30
0.0
 10
11.1344472595
 20
6.923497082
 30
0.0
 10
11.1339814648
 20
6.9235730207
 30
0.0
 10
11.1333176727
 20
6.9236869103
 30
0.0
 10
11.1325204249
 20
6.923821264
 30
0.0
 10
11.1314576714
 20
6.9240012105
 30
0.0
 10
11.1301291462
 20
6.9242258669
 30
0.0
 10
11.1280035524
 20
6.9245854717
 30
0.0
 10
11.1253465442
 20
6.9250349247
 30
0.0
 10
11.1221581413
 20
6.9255742911
 30
0.0
 10
11.1189697364
 20
6.9261136513
 30
0.0
 10
11.1147185306
 20
6.9268328004
 30
0.0
 10
11.1115301262
 20
6.9273721618
 30
0.0
 10
11.1094045232
 20
6.9277317362
 30
0.0
  0
ENDSEC
  0
SECTION
  2
OBJECTS
  0
DICTIONARY
  5
C
100
AcDbDictionary
280
0
281
1
  3
ACAD_GROUP
350
D
  3
ACAD_MLINESTYLE
350
17
  3
ACAD_LAYOUT
350
1A
  3
ACAD_PLOTSETTINGS
350
19
  3
ACAD_PLOTSTYLENAME
350
E
  3
ACAD_IMAGE_DICT
350
       394
  3
ACAD_IMAGE_VARS
350
       395
  3
ACAD_TABLESTYLE
350
       396
  0
IMAGEDEF_REACTOR
  5
393
100
AcDbRasterImageDefReactor
 90
2
330
287
  0
DICTIONARY
  5
D
102
{ACAD_REACTORS
330
C
102
}
100
AcDbDictionary
280
0
281
1
  0
ACDBDICTIONARYWDFLT
  5
E
102
{ACAD_REACTORS
330
C
102
}
100
AcDbDictionary
281
1
  3
Normal
350
F
100
AcDbDictionaryWithDefault
340
F
  0
DICTIONARY
  5
394
330
C
100
AcDbDictionary
281
1
  3
FSD_assy_2_img_1
350
       399
  0
RASTERVARIABLES
  5
395
330
C
100
AcDbRasterVariables
 90
0
 70
0
 71
1
 72
5
  0
DICTIONARY
  5
17
102
{ACAD_REACTORS
330
C
102
}
100
AcDbDictionary
280
0
281
1
  3
Standard
350
18
  0
DICTIONARY
  5
396
330
C
100
AcDbDictionary
281
1
  3
Standard
350
       39A
  3
Standard1
350
       39B
  0
DICTIONARY
  5
19
102
{ACAD_REACTORS
330
C
102
}
100
AcDbDictionary
281
1
  0
DICTIONARY
  5
1A
102
{ACAD_REACTORS
330
C
102
}
100
AcDbDictionary
281
1
  3
Model
350
397
  3
Layout1
350
398
  0
ACDBPLACEHOLDER
  5
F
102
{ACAD_REACTORS
330
E
102
}
  0
MLINESTYLE
  5
18
102
{ACAD_REACTORS
330
17
102
}
100
AcDbMlineStyle
  2
STANDARD
 70
0
  3

 62
256
 51
90.0
 52
90.0
 71
2
 49
0.5
 62
256
  6
BYLAYER
 49
-0.5
 62
256
  6
BYLAYER
  0
LAYOUT
  5
397
102
{ACAD_REACTORS
330
1A
102
}
100
AcDbPlotSettings
  1

  2
none_device
  4
ANSI_C_(22.00_x_17.00_Inches)
  6

 40
0.0
 41
0.0
 42
0.0
 43
0.0
 44
558.8
 45
431.8
 46
0.0
 47
0.0
 48
0.0
 49
0.0
140
0.0
141
0.0
142
1.0
143
1.0
 70
1024
 72
0
 73
0
 74
0
  7

 75
0
147
1.0
148
0.0
149
0.0
100
AcDbLayout
  1
Model
 70
0
 71
0
 10
0.0
 20
0.0
 11
22.0
 21
17.0
 12
0.0
 22
0.0
 32
0.0
 14
0.0
 24
0.0
 34
0.0
 15
0.0
 25
0.0
 35
0.0
146
0.0
 13
0.0
 23
0.0
 33
0.0
 16
1.0
 26
0.0
 36
0.0
 17
0.0
 27
1.0
 37
0.0
 76
0
330
20C
345
0
346
0
  0
LAYOUT
  5
398
102
{ACAD_REACTORS
330
1A
102
}
100
AcDbPlotSettings
  1

  2
none_device
  4
ANSI_C_(22.00_x_17.00_Inches)
  6

 40
0.0
 41
0.0
 42
0.0
 43
0.0
 44
558.8
 45
431.8
 46
0.0
 47
0.0
 48
0.0
 49
0.0
140
0.0
141
0.0
142
1.0
143
1.0
 70
0
 72
0
 73
0
 74
0
  7

 75
0
147
1.0
148
0.0
149
0.0
100
AcDbLayout
  1
Layout1
 70
0
 71
1
 10
0.0
 20
0.0
 11
22.0
 21
17.0
 12
0.0
 22
0.0
 32
0.0
 14
0.0
 24
0.0
 34
0.0
 15
0.0
 25
0.0
 35
0.0
146
0.0
 13
0.0
 23
0.0
 33
0.0
 16
1.0
 26
0.0
 36
0.0
 17
0.0
 27
1.0
 37
0.0
 76
0
330
20D
345
0
346
0
  0
IMAGEDEF
  5
399
102
{ACAD_REACTORS
330
394
330
393
102
}
100
AcDbRasterImageDef
 90
0
  1
FSD_assy_2_img_1.png
 10
369.0
 20
92.0
 11
0.0066666667
 21
0.0066666667
280
1
281
0
  0
TABLESTYLE
  5
39A
102
{ACAD_REACTORS
330
396
330
28A
330
28B
102
}
330
396
100
AcDbTableStyle
  3
Standard
 70
0
 71
0
 40
0.06
 41
0.06
280
1
281
1
  7
Standard
140
0.18
170
1
 62
0
 63
7
283
0
  7
Standard
140
0.18
170
1
 62
0
 63
7
283
0
  7
Standard
140
0.18
170
1
 62
0
 63
7
283
0
  0
TABLESTYLE
  5
39B
102
{ACAD_REACTORS
330
396
330
289
102
}
330
396
100
AcDbTableStyle
  3
Standard1
 70
1
 71
0
 40
0.06
 41
0.06
280
1
281
1
  7
Standard
140
0.18
170
1
 62
0
 63
7
283
0
  7
Standard
140
0.18
170
1
 62
0
 63
7
283
0
  7
Standard
140
0.18
170
1
 62
0
 63
7
283
0
  0
ENDSEC
  0
EOF
