999
DXF file: FSB_assy_2.dxf
999
Pro/ENGINEER 2014200 by Parametric Technology Corporation
  0
SECTION
  2
HEADER
  9
$ACADVER
  1
AC1021
  9
$DWGCODEPAGE
  3
ANSI_1252
  9
$EXTMAX
 10
22.0
 20
17.0
 30
0.0
  9
$EXTMIN
 10
0.0
 20
0.0
 30
0.0
  9
$LIMMIN
 10
0.0
 20
0.0
  9
$LIMMAX
 10
22.0
 20
17.0
  9
$VIEWCTR
 10
11.0
 20
8.5
  9
$VIEWSIZE
 40
17.0
  9
$CLAYER
  8
0
  9
$LTSCALE
 40
1.21
  9
$CELTYPE
  6
BYLAYER
  9
$DIMSCALE
 40
1.0
  9
$DIMASZ
 40
0.1875
  9
$DIMEXO
 40
0.0625
  9
$DIMDLI
 40
0.836
  9
$DIMEXE
 40
0.125
  9
$DIMCEN
 40
0.198
  9
$DIMLFAC
 40
1.0
  9
$DIMBLK
  1
_FILLED
  9
$DIMTXT
 40
0.1
  9
$DIMTOL
 70
0
  9
$DIMLIM
 70
0
  9
$DIMTFAC
 40
1.0
  9
$DIMGAP
 40
0.09
  9
$DIMDSEP
 70
46
  9
$AUNITS
 70
0
  9
$PDMODE
 70
3
  9
$PDSIZE
 40
0.3125
  9
$HANDSEED
  5
3A3
  9
$TILEMODE
 70
1
  9
$MEASUREMENT
 70
0
  9
$INSUNITS
 70
1
  0
ENDSEC
  0
SECTION
  2
CLASSES
  0
CLASS
  1
ACDBDICTIONARYWDFLT
  2
AcDbDictionaryWithDefault
  3
AutoCAD 2000
 90
0
 91
1
280
0
281
0
  0
CLASS
  1
ACDBPLACEHOLDER
  2
AcDbPlaceHolder
  3
AutoCAD 2000
 90
0
 91
1
280
0
281
0
  0
CLASS
  1
LAYOUT
  2
AcDbLayout
  3
AutoCAD 2000
 90
0
 91
0
280
0
281
0
  0
CLASS
  1
RASTERVARIABLES
  2
AcDbRasterVariables
  3
ISM
 90
0
 91
1
280
0
281
0
  0
CLASS
  1
IMAGEDEF
  2
AcDbRasterImageDef
  3
ISM
 90
0
 91
1
280
0
281
0
  0
CLASS
  1
IMAGEDEF_REACTOR
  2
AcDbRasterImageDefReactor
  3
ISM
 90
0
 91
1
280
0
281
0
  0
CLASS
  1
IMAGE
  2
AcDbRasterImage
  3
ISM
 90
127
 91
1
280
0
281
1
  0
CLASS
  1
TABLESTYLE
  2
AcDbTableStyle
  3
ObjectDBX Classes
 90
2047
 91
1
280
0
281
0
  0
CLASS
  1
ACAD_TABLE
  2
AcDbTable
  3
ObjectDBX Classes
 90
1025
 91
3
280
0
281
1
  0
ENDSEC
  0
SECTION
  2
TABLES
  0
TABLE
  2
VPORT
  5
8
100
AcDbSymbolTable
 70
2
  0
VPORT
  5
1F4
100
AcDbSymbolTableRecord
100
AcDbViewportTableRecord
  2
*ACTIVE
 70
0
 10
0.0
 20
0.0
 11
1.0
 21
1.0
 12
11.0
 22
8.5
 13
0.0
 23
0.0
 14
1.0
 24
1.0
 15
0.0
 25
0.0
 16
0.0
 26
0.0
 36
1.0
 17
0.0
 27
0.0
 37
0.0
 40
17.0
 41
1.2941176471
 42
50.0
 43
0.0
 44
0.0
 50
0.0
 51
0.0
 71
0
 72
100
 73
1
 74
1
 75
0
 76
0
 77
0
 78
0
  0
ENDTAB
  0
TABLE
  2
LTYPE
  5
5
100
AcDbSymbolTable
 70
6
  0
LTYPE
  5
14
100
AcDbSymbolTableRecord
100
AcDbLinetypeTableRecord
  2
BYBLOCK
 70
0
  3

 72
65
 73
0
 40
0.0
  0
LTYPE
  5
15
100
AcDbSymbolTableRecord
100
AcDbLinetypeTableRecord
  2
BYLAYER
 70
0
  3

 72
65
 73
0
 40
0.0
  0
LTYPE
  5
16
100
AcDbSymbolTableRecord
100
AcDbLinetypeTableRecord
  2
CONTINUOUS
 70
64
  3
Solid line
 72
65
 73
0
 40
0.0
  0
LTYPE
  5
1F5
100
AcDbSymbolTableRecord
100
AcDbLinetypeTableRecord
  2
CENTER
 70
64
  3
____ _ ____ _ ____ _ ____ _ ____ _ ____ _ ____
 72
65
 73
4
 40
0.6
 49
0.375
 74
0
 49
-0.075
 74
0
 49
0.075
 74
0
 49
-0.075
 74
0
  0
LTYPE
  5
1F6
100
AcDbSymbolTableRecord
100
AcDbLinetypeTableRecord
  2
HIDDEN
 70
64
  3
- - - - - - - - - - - - - - - - - - - -
 72
65
 73
2
 40
0.2
 49
0.1
 74
0
 49
-0.1
 74
0
  0
LTYPE
  5
1F7
100
AcDbSymbolTableRecord
100
AcDbLinetypeTableRecord
  2
PHANTOM
 70
64
  3
_____ _ _ _____ _ _ _____ _ _ _____
 72
65
 73
6
 40
0.8
 49
0.45
 74
0
 49
-0.05
 74
0
 49
0.1
 74
0
 49
-0.05
 74
0
 49
0.1
 74
0
 49
-0.05
 74
0
  0
LTYPE
  5
1F8
100
AcDbSymbolTableRecord
100
AcDbLinetypeTableRecord
  2
DOT
 70
64
  3
. . . . . . . . . . . . . . . . . . . .
 72
65
 73
2
 40
0.2
 49
0.1
 74
0
 49
-0.1
 74
0
  0
LTYPE
  5
1F9
100
AcDbSymbolTableRecord
100
AcDbLinetypeTableRecord
  2
DASHED
 70
64
  3
- - - - - - - - - - - - - - - - - - - -
 72
65
 73
2
 40
0.2
 49
0.1
 74
0
 49
-0.1
 74
0
  0
ENDTAB
  0
TABLE
  2
LAYER
  5
2
100
AcDbSymbolTable
 70
36
  0
LAYER
  5
10
100
AcDbSymbolTableRecord
100
AcDbLayerTableRecord
  2
0
 70
0
 62
7
  6
CONTINUOUS
370
-3
390
F
  0
LAYER
  5
1FA
100
AcDbSymbolTableRecord
100
AcDbLayerTableRecord
  2
DEFAULT_1
 70
0
 62
7
  6
CENTER
370
-3
390
F
  0
LAYER
  5
1FB
100
AcDbSymbolTableRecord
100
AcDbLayerTableRecord
  2
DEFAULT_2
 70
0
 62
8
  6
HIDDEN
370
-3
390
F
  0
LAYER
  5
1FC
100
AcDbSymbolTableRecord
100
AcDbLayerTableRecord
  2
DEFAULT_3
 70
0
 62
7
  6
PHANTOM
370
-3
390
F
  0
LAYER
  5
1FD
100
AcDbSymbolTableRecord
100
AcDbLayerTableRecord
  2
DATUM_PLANES
 70
0
 62
7
  6
CONTINUOUS
370
-3
390
F
  0
LAYER
  5
1FE
100
AcDbSymbolTableRecord
100
AcDbLayerTableRecord
  2
PORT_AREAS
 70
0
 62
7
  6
CONTINUOUS
370
-3
390
F
  0
LAYER
  5
1FF
100
AcDbSymbolTableRecord
100
AcDbLayerTableRecord
  2
SUNNBOMCOSMETIC
 70
0
 62
7
  6
CONTINUOUS
370
-3
390
F
  0
LAYER
  5
200
100
AcDbSymbolTableRecord
100
AcDbLayerTableRecord
  2
SUNNBOMSTAMPING
 70
0
 62
7
  6
CONTINUOUS
370
-3
390
F
  0
LAYER
  5
201
100
AcDbSymbolTableRecord
100
AcDbLayerTableRecord
  2
THREADS
 70
0
 62
7
  6
CONTINUOUS
370
-3
390
F
  0
ENDTAB
  0
TABLE
  2
STYLE
  5
3
100
AcDbSymbolTable
 70
1
  0
STYLE
  5
11
100
AcDbSymbolTableRecord
100
AcDbTextStyleTableRecord
  2
STANDARD
 70
0
 40
0.0
 41
0.8
 50
0.0
 71
0
 42
0.2
  3
txt
  4

  0
STYLE
  5
202
100
AcDbSymbolTableRecord
100
AcDbTextStyleTableRecord
  2
TEXTSTYLE_1
 70
0
 40
0.0
 41
0.8
 50
0.0
 71
0
 42
0.2
  3
gdt
  4

  0
ENDTAB
  0
TABLE
  2
VIEW
  5
6
100
AcDbSymbolTable
 70
0
  0
ENDTAB
  0
TABLE
  2
UCS
  5
7
100
AcDbSymbolTable
 70
0
  0
ENDTAB
  0
TABLE
  2
APPID
  5
9
100
AcDbSymbolTable
 70
1
  0
APPID
  5
203
100
AcDbSymbolTableRecord
100
AcDbRegAppTableRecord
  2
ACAD
 70
0
  0
ENDTAB
  0
TABLE
  2
BLOCK_RECORD
  5
1
100
AcDbSymbolTable
 70
0
  0
BLOCK_RECORD
  5
204
100
AcDbSymbolTableRecord
100
AcDbBlockTableRecord
  2
*Model_Space
  0
BLOCK_RECORD
  5
205
100
AcDbSymbolTableRecord
100
AcDbBlockTableRecord
  2
*Paper_Space
  0
BLOCK_RECORD
  5
206
100
AcDbSymbolTableRecord
100
AcDbBlockTableRecord
  2
SUN_FIRST_THIRD_ANGLE_BL0
  0
BLOCK_RECORD
  5
207
100
AcDbSymbolTableRecord
100
AcDbBlockTableRecord
  2
*T1
  0
BLOCK_RECORD
  5
208
100
AcDbSymbolTableRecord
100
AcDbBlockTableRecord
  2
*T2
  0
BLOCK_RECORD
  5
209
100
AcDbSymbolTableRecord
100
AcDbBlockTableRecord
  2
*T3
  0
ENDTAB
  0
TABLE
  2
DIMSTYLE
  5
A
100
AcDbSymbolTable
 70
1
100
AcDbDimStyleTable
 71
0
  0
DIMSTYLE
105
20A
100
AcDbSymbolTableRecord
100
AcDbDimStyleTableRecord
  2
STANDARD
 70
0
  3

  4

 40
1.0
 41
0.1875
 42
0.0625
 43
0.38
 44
0.125
 45
0.0
 46
0.0
 47
0.001
 48
0.001
140
0.1
141
0.09
142
0.0
143
25.4
144
1.0
145
0.0
146
1.0
147
0.09
 71
0.0
 72
0.0
 73
1
 74
1
 75
0
 76
0
 77
0
 78
4
170
0
171
2
172
0
173
0
174
0
175
0
176
0
177
0
178
0
270
2
271
3
272
3
273
2
274
2
275
0
280
0
281
0
282
0
283
1
284
4
285
0
286
0
287
3
288
0
340
11
278
46
  0
ENDTAB
  0
ENDSEC
  0
SECTION
  2
BLOCKS
  0
BLOCK
  5
20
100
AcDbEntity
  8
0
100
AcDbBlockBegin
  2
*Model_Space
 70
0
 10
0.0
 20
0.0
 30
0.0
  3
*Model_Space
  1

  0
ENDBLK
  5
21
100
AcDbEntity
  8
0
100
AcDbBlockEnd
  0
BLOCK
  5
1C
100
AcDbEntity
  8
0
100
AcDbBlockBegin
  2
*Paper_Space
 70
0
 10
0.0
 20
0.0
 30
0.0
  3
*Paper_Space
  1

  0
ENDBLK
  5
1D
100
AcDbEntity
  8
0
100
AcDbBlockEnd
  0
BLOCK
  5
20B
100
AcDbEntity
  8
0
100
AcDbBlockBegin
 62
2
  6
CONTINUOUS
  2
SUN_FIRST_THIRD_ANGLE_BL0
 70
64
 10
20.4816717061
 20
1.2289683772
  3
SUN_FIRST_THIRD_ANGLE_BL0
  1

  0
TEXT
  5
20C
100
AcDbEntity
  8
0
100
AcDbText
 62
2
  6
CONTINUOUS
 10
19.4750896608
 20
1.4136269581
  7
STANDARD
 40
0.08
  1
FIRST ANGLE
 41
0.8
 72
0
100
AcDbText
  0
TEXT
  5
20D
100
AcDbEntity
  8
0
100
AcDbText
 62
2
  6
CONTINUOUS
 10
20.7842537513
 20
1.4047600029
  7
STANDARD
 40
0.08
  1
THIRD ANGLE
 41
0.8
 72
0
100
AcDbText
  0
LINE
  5
20E
100
AcDbEntity
  8
0
100
AcDbLine
 62
7
  6
CONTINUOUS
 10
19.4767170086
 20
1.1727031207
 11
19.6334271527
 21
1.1717972817
  0
LINE
  5
20F
100
AcDbEntity
  8
0
100
AcDbLine
 62
7
  6
CONTINUOUS
 10
19.6596964832
 20
1.1717972817
 11
19.6950230232
 21
1.171593082
  0
LINE
  5
210
100
AcDbEntity
  8
0
100
AcDbLine
 62
7
  6
CONTINUOUS
 10
19.7194818561
 20
1.1708914427
 11
19.8852396156
 21
1.1699333054
  0
LINE
  5
211
100
AcDbEntity
  8
0
100
AcDbLine
 62
7
  6
CONTINUOUS
 10
19.4758111696
 20
1.2723454088
 11
19.88525039
 21
1.3511534004
  0
LINE
  5
212
100
AcDbEntity
  8
0
100
AcDbLine
 62
7
  6
CONTINUOUS
 10
19.88525039
 20
1.3511534004
 11
19.8831348489
 21
0.9851647912
  0
LINE
  5
213
100
AcDbEntity
  8
0
100
AcDbLine
 62
7
  6
CONTINUOUS
 10
19.8831348489
 20
0.9851647912
 11
19.4767170086
 21
1.0658141206
  0
LINE
  5
214
100
AcDbEntity
  8
0
100
AcDbLine
 62
7
  6
CONTINUOUS
 10
19.4767170086
 20
1.0658141206
 11
19.4779056764
 21
1.2714536432
  0
CIRCLE
  5
215
100
AcDbEntity
  8
0
100
AcDbCircle
 62
7
  6
CONTINUOUS
 10
20.2068232291
 20
1.1717972817
 40
0.175742101
  0
CIRCLE
  5
216
100
AcDbEntity
  8
0
100
AcDbCircle
 62
7
  6
CONTINUOUS
 10
20.2068232291
 20
1.1717972817
 40
0.1005522074
  0
LINE
  5
217
100
AcDbEntity
  8
0
100
AcDbLine
 62
7
  6
CONTINUOUS
 10
20.2077290681
 20
1.3756110529
 11
20.2071171714
 21
1.2379342989
  0
LINE
  5
218
100
AcDbEntity
  8
0
100
AcDbLine
 62
7
  6
CONTINUOUS
 10
20.2077290681
 20
1.2016899681
 11
20.2074674401
 21
1.1428236749
  0
LINE
  5
219
100
AcDbEntity
  8
0
100
AcDbLine
 62
7
  6
CONTINUOUS
 10
20.208634907
 20
1.101141841
 11
20.2080230104
 21
0.963465087
  0
LINE
  5
21A
100
AcDbEntity
  8
0
100
AcDbLine
 62
7
  6
CONTINUOUS
 10
20.0066328138
 20
1.1745147986
 11
20.1443095678
 21
1.1739029019
  0
LINE
  5
21B
100
AcDbEntity
  8
0
100
AcDbLine
 62
7
  6
CONTINUOUS
 10
20.1832714155
 20
1.1727031207
 11
20.238153505
 21
1.172335442
  0
LINE
  5
21C
100
AcDbEntity
  8
0
100
AcDbLine
 62
7
  6
CONTINUOUS
 10
20.2756669918
 20
1.1717972817
 11
20.407916871
 21
1.1712095044
  0
CIRCLE
  5
21D
100
AcDbEntity
  8
0
100
AcDbCircle
 62
7
  6
CONTINUOUS
 10
20.7509457401
 20
1.1693297793
 40
0.1722024983
  0
CIRCLE
  5
21E
100
AcDbEntity
  8
0
100
AcDbCircle
 62
7
  6
CONTINUOUS
 10
20.7509457401
 20
1.1693297793
 40
0.0985164967
  0
LINE
  5
21F
100
AcDbEntity
  8
0
100
AcDbLine
 62
7
  6
CONTINUOUS
 10
20.7169767782
 20
1.170462078
 11
20.7825395137
 21
1.1682766535
  0
LINE
  5
220
100
AcDbEntity
  8
0
100
AcDbLine
 62
7
  6
CONTINUOUS
 10
20.8177513651
 20
1.1693297793
 11
20.947965719
 21
1.1693297793
  0
LINE
  5
221
100
AcDbEntity
  8
0
100
AcDbLine
 62
7
  6
CONTINUOUS
 10
20.6875370113
 20
1.170462078
 11
20.5573226574
 21
1.170462078
  0
LINE
  5
222
100
AcDbEntity
  8
0
100
AcDbLine
 62
7
  6
CONTINUOUS
 10
20.7486811426
 20
1.1987695462
 11
20.7486811426
 21
1.1432869085
  0
LINE
  5
223
100
AcDbEntity
  8
0
100
AcDbLine
 62
7
  6
CONTINUOUS
 10
20.7498134414
 20
1.1059210505
 11
20.7498134414
 21
0.9757066966
  0
LINE
  5
224
100
AcDbEntity
  8
0
100
AcDbLine
 62
7
  6
CONTINUOUS
 10
20.7486811426
 20
1.2338708068
 11
20.7486811426
 21
1.3640851607
  0
LINE
  5
225
100
AcDbEntity
  8
0
100
AcDbLine
 62
7
  6
CONTINUOUS
 10
21.0702539817
 20
1.2701043662
 11
21.4790138229
 21
1.3448360823
  0
LINE
  5
226
100
AcDbEntity
  8
0
100
AcDbLine
 62
7
  6
CONTINUOUS
 10
21.4790138229
 20
1.3448360823
 11
21.4790138229
 21
0.9779712941
  0
LINE
  5
227
100
AcDbEntity
  8
0
100
AcDbLine
 62
7
  6
CONTINUOUS
 10
21.4790138229
 20
0.9779712941
 11
21.069121683
 21
1.0617614
  0
LINE
  5
228
100
AcDbEntity
  8
0
100
AcDbLine
 62
7
  6
CONTINUOUS
 10
21.0702539817
 20
1.2701043662
 11
21.069121683
 21
1.0617614
  0
LINE
  5
229
100
AcDbEntity
  8
0
100
AcDbLine
 62
7
  6
CONTINUOUS
 10
21.4790138229
 20
1.1693297793
 11
21.3159628059
 21
1.1693297793
  0
LINE
  5
22A
100
AcDbEntity
  8
0
100
AcDbLine
 62
7
  6
CONTINUOUS
 10
21.2876553377
 20
1.1693297793
 11
21.2502894796
 21
1.1693297793
  0
LINE
  5
22B
100
AcDbEntity
  8
0
100
AcDbLine
 62
7
  6
CONTINUOUS
 10
21.2208497126
 20
1.1659328831
 11
21.0713862804
 21
1.1659328831
  0
LINE
  5
22C
100
AcDbEntity
  8
0
100
AcDbLine
 62
7
  6
CONTINUOUS
 10
20.4796138713
 20
1.5284908897
 11
20.4766766948
 21
0.9294458646
  0
ENDBLK
  5
22D
100
AcDbEntity
  8
0
  6
BYBLOCK
 62
0
100
AcDbBlockEnd
  0
BLOCK
  5
22E
100
AcDbEntity
  8
0
100
AcDbBlockBegin
  2
*T1
 70
1
 10
0.0
 20
0.0
  3
*T1
  1

  0
LINE
  5
22F
100
AcDbEntity
  8
0
100
AcDbLine
 62
2
  6
CONTINUOUS
 10
9.275
 20
0.0
 11
-0.0
 21
0.0
  0
LINE
  5
230
100
AcDbEntity
  8
0
100
AcDbLine
 62
2
  6
CONTINUOUS
 10
9.275
 20
0.0
 11
9.275
 21
1.25
  0
LINE
  5
231
100
AcDbEntity
  8
0
100
AcDbLine
 62
2
  6
CONTINUOUS
 10
9.275
 20
0.625
 11
-0.0
 21
0.625
  0
LINE
  5
232
100
AcDbEntity
  8
0
100
AcDbLine
 62
2
  6
CONTINUOUS
 10
9.275
 20
1.25
 11
-0.0
 21
1.25
  0
LINE
  5
233
100
AcDbEntity
  8
0
100
AcDbLine
 62
2
  6
CONTINUOUS
 10
6.8
 20
0.0
 11
6.8
 21
1.25
  0
LINE
  5
234
100
AcDbEntity
  8
0
100
AcDbLine
 62
2
  6
CONTINUOUS
 10
6.4
 20
0.0
 11
6.4
 21
0.625
  0
LINE
  5
235
100
AcDbEntity
  8
0
100
AcDbLine
 62
2
  6
CONTINUOUS
 10
5.9
 20
0.0
 11
5.9
 21
0.625
  0
LINE
  5
236
100
AcDbEntity
  8
0
100
AcDbLine
 62
2
  6
CONTINUOUS
 10
5.2
 20
0.0
 11
5.2
 21
0.625
  0
LINE
  5
237
100
AcDbEntity
  8
0
100
AcDbLine
 62
2
  6
CONTINUOUS
 10
4.1
 20
0.0
 11
4.1
 21
1.25
  0
LINE
  5
238
100
AcDbEntity
  8
0
100
AcDbLine
 62
2
  6
CONTINUOUS
 10
-0.0
 20
0.0
 11
-0.0
 21
1.25
  0
MTEXT
  5
239
100
AcDbEntity
  8
0
100
AcDbMText
 62
2
  6
CONTINUOUS
  7
STANDARD
 71
2
 72
1
 10
6.6
 20
0.325
 30
0.0
 11
1.0
 21
0.0
 31
0.0
 44
0.9
  1
2
 40
0.125
 41
0.2
  0
MTEXT
  5
23A
100
AcDbEntity
  8
0
100
AcDbMText
 62
2
  6
CONTINUOUS
  7
STANDARD
 71
2
 72
1
 10
6.15
 20
0.325
 30
0.0
 11
1.0
 21
0.0
 31
0.0
 44
0.9
  1
C
 40
0.125
 41
0.2
  0
MTEXT
  5
23B
100
AcDbEntity
  8
0
100
AcDbMText
 62
2
  6
CONTINUOUS
  7
STANDARD
 71
2
 72
1
 10
5.55
 20
0.325
 30
0.0
 11
1.0
 21
0.0
 31
0.0
 44
0.9
  1
1.000
 40
0.125
 41
1.0
  0
MTEXT
  5
23C
100
AcDbEntity
  8
0
100
AcDbMText
 62
2
  6
CONTINUOUS
  7
STANDARD
 71
2
 72
1
 10
4.65
 20
0.325
 30
0.0
 11
1.0
 21
0.0
 31
0.0
 44
0.9
  1
Jan-27-20
 40
0.125
 41
1.8
  0
MTEXT
  5
23D
100
AcDbEntity
  8
0
100
AcDbMText
 62
2
  6
CONTINUOUS
  7
STANDARD
 71
2
 72
1
 10
2.05
 20
0.4625
 30
0.0
 11
1.0
 21
0.0
 31
0.0
 44
0.9
  1
T-10A Subplate ISO 03\PP to T, side ports
 40
0.125
 41
4.2
  0
MTEXT
  5
23E
100
AcDbEntity
  8
0
100
AcDbMText
 62
2
  6
CONTINUOUS
  7
STANDARD
 71
1
 72
1
 10
6.45
 20
0.5625
 30
0.0
 11
1.0
 21
0.0
 31
0.0
 44
0.9
  1
SHEET
 40
0.06
 41
0.48
  0
MTEXT
  5
23F
100
AcDbEntity
  8
0
100
AcDbMText
 62
2
  6
CONTINUOUS
  7
STANDARD
 71
1
 72
1
 10
5.95
 20
0.5625
 30
0.0
 11
1.0
 21
0.0
 31
0.0
 44
0.9
  1
DWG SIZE
 40
0.06
 41
0.768
  0
MTEXT
  5
240
100
AcDbEntity
  8
0
100
AcDbMText
 62
2
  6
CONTINUOUS
  7
STANDARD
 71
1
 72
1
 10
5.25
 20
0.5625
 30
0.0
 11
1.0
 21
0.0
 31
0.0
 44
0.9
  1
SCALE
 40
0.06
 41
0.48
  0
MTEXT
  5
241
100
AcDbEntity
  8
0
100
AcDbMText
 62
2
  6
CONTINUOUS
  7
STANDARD
 71
1
 72
1
 10
4.15
 20
0.5625
 30
0.0
 11
1.0
 21
0.0
 31
0.0
 44
0.9
  1
DATE
 40
0.06
 41
0.384
  0
MTEXT
  5
242
100
AcDbEntity
  8
0
100
AcDbMText
 62
2
  6
CONTINUOUS
  7
STANDARD
 71
1
 72
1
 10
0.05
 20
0.5625
 30
0.0
 11
1.0
 21
0.0
 31
0.0
 44
0.9
  1
DESCRIPTION
 40
0.06
 41
1.056
  0
MTEXT
  5
243
100
AcDbEntity
  8
0
100
AcDbMText
 62
2
  6
CONTINUOUS
  7
STANDARD
 71
2
 72
1
 10
5.45
 20
1.0375
 30
0.0
 11
1.0
 21
0.0
 31
0.0
 44
0.9
  1
ALL DIMENSIONS IN INCH\PVIEWS ARE THIRD ANGLE
 40
0.12
 41
4.224
  0
MTEXT
  5
244
100
AcDbEntity
  8
0
100
AcDbMText
 62
2
  6
CONTINUOUS
  7
STANDARD
 71
2
 72
1
 10
2.05
 20
0.95
 30
0.0
 11
1.0
 21
0.0
 31
0.0
 44
0.9
  1
FSB
 40
0.125
 41
0.6
  0
MTEXT
  5
245
100
AcDbEntity
  8
0
100
AcDbMText
 62
2
  6
CONTINUOUS
  7
STANDARD
 71
1
 72
1
 10
0.05
 20
1.1875
 30
0.0
 11
1.0
 21
0.0
 31
0.0
 44
0.9
  1
MODEL
 40
0.06
 41
0.48
  0
ENDBLK
  5
246
100
AcDbEntity
  8
0
  6
BYBLOCK
 62
0
100
AcDbBlockEnd
  0
BLOCK
  5
247
100
AcDbEntity
  8
0
100
AcDbBlockBegin
  2
*T2
 70
1
 10
0.0
 20
0.0
  3
*T2
  1

  0
LINE
  5
248
100
AcDbEntity
  8
0
100
AcDbLine
 62
2
  6
CONTINUOUS
 10
0.0
 20
0.0
 11
9.055
 21
0.0
  0
LINE
  5
249
100
AcDbEntity
  8
0
100
AcDbLine
 62
2
  6
CONTINUOUS
 10
0.0
 20
0.0
 11
0.0
 21
-2.594
  0
LINE
  5
24A
100
AcDbEntity
  8
0
100
AcDbLine
 62
2
  6
CONTINUOUS
 10
0.0
 20
-0.344
 11
9.055
 21
-0.344
  0
LINE
  5
24B
100
AcDbEntity
  8
0
100
AcDbLine
 62
2
  6
CONTINUOUS
 10
0.0
 20
-0.594
 11
9.055
 21
-0.594
  0
LINE
  5
24C
100
AcDbEntity
  8
0
100
AcDbLine
 62
2
  6
CONTINUOUS
 10
0.0
 20
-0.844
 11
9.055
 21
-0.844
  0
LINE
  5
24D
100
AcDbEntity
  8
0
100
AcDbLine
 62
2
  6
CONTINUOUS
 10
0.0
 20
-1.094
 11
9.055
 21
-1.094
  0
LINE
  5
24E
100
AcDbEntity
  8
0
100
AcDbLine
 62
2
  6
CONTINUOUS
 10
0.0
 20
-1.344
 11
9.055
 21
-1.344
  0
LINE
  5
24F
100
AcDbEntity
  8
0
100
AcDbLine
 62
2
  6
CONTINUOUS
 10
0.0
 20
-1.594
 11
9.055
 21
-1.594
  0
LINE
  5
250
100
AcDbEntity
  8
0
100
AcDbLine
 62
2
  6
CONTINUOUS
 10
0.0
 20
-1.844
 11
9.055
 21
-1.844
  0
LINE
  5
251
100
AcDbEntity
  8
0
100
AcDbLine
 62
2
  6
CONTINUOUS
 10
0.0
 20
-2.094
 11
9.055
 21
-2.094
  0
LINE
  5
252
100
AcDbEntity
  8
0
100
AcDbLine
 62
2
  6
CONTINUOUS
 10
0.0
 20
-2.344
 11
9.055
 21
-2.344
  0
LINE
  5
253
100
AcDbEntity
  8
0
100
AcDbLine
 62
2
  6
CONTINUOUS
 10
0.0
 20
-2.594
 11
9.055
 21
-2.594
  0
LINE
  5
254
100
AcDbEntity
  8
0
100
AcDbLine
 62
2
  6
CONTINUOUS
 10
3.055
 20
0.0
 11
3.055
 21
-2.594
  0
LINE
  5
255
100
AcDbEntity
  8
0
100
AcDbLine
 62
2
  6
CONTINUOUS
 10
9.055
 20
0.0
 11
9.055
 21
-2.594
  0
MTEXT
  5
256
100
AcDbEntity
  8
0
100
AcDbMText
 62
2
  6
CONTINUOUS
  7
STANDARD
 71
2
 72
1
 10
1.5275
 20
-0.0995
 30
0.0
 11
1.0
 21
0.0
 31
0.0
 44
0.9
  1
Technical Data
 40
0.145
 41
3.248
  0
MTEXT
  5
257
100
AcDbEntity
  8
0
100
AcDbMText
 62
2
  6
CONTINUOUS
  7
STANDARD
 71
2
 72
1
 10
4.555
 20
-0.0995
 30
0.0
 11
1.0
 21
0.0
 31
0.0
 44
0.9
  1
U.S. Units
 40
0.145
 41
2.32
  0
MTEXT
  5
258
100
AcDbEntity
  8
0
100
AcDbMText
 62
2
  6
CONTINUOUS
  7
STANDARD
 71
2
 72
1
 10
7.555
 20
-0.0995
 30
0.0
 11
1.0
 21
0.0
 31
0.0
 44
0.9
  1
Metric Units
 40
0.145
 41
2.784
  0
MTEXT
  5
259
100
AcDbEntity
  8
0
100
AcDbMText
 62
2
  6
CONTINUOUS
  7
STANDARD
 71
2
 72
1
 10
1.5275
 20
-0.4065
 30
0.0
 11
1.0
 21
0.0
 31
0.0
 44
0.9
  1
Cavity
 40
0.125
 41
1.2
  0
MTEXT
  5
25A
100
AcDbEntity
  8
0
100
AcDbMText
 62
2
  6
CONTINUOUS
  7
STANDARD
 71
2
 72
1
 10
6.055
 20
-0.4065
 30
0.0
 11
1.0
 21
0.0
 31
0.0
 44
0.9
  1
T-10A
 40
0.125
 41
1.0
  0
MTEXT
  5
25B
100
AcDbEntity
  8
0
100
AcDbMText
 62
2
  6
CONTINUOUS
  7
STANDARD
 71
2
 72
1
 10
1.5275
 20
-0.6565
 30
0.0
 11
1.0
 21
0.0
 31
0.0
 44
0.9
  1
Body Features
 40
0.125
 41
2.6
  0
MTEXT
  5
25C
100
AcDbEntity
  8
0
100
AcDbMText
 62
2
  6
CONTINUOUS
  7
STANDARD
 71
2
 72
1
 10
6.055
 20
-0.6565
 30
0.0
 11
1.0
 21
0.0
 31
0.0
 44
0.9
  1
P to T, side ports
 40
0.125
 41
3.6
  0
MTEXT
  5
25D
100
AcDbEntity
  8
0
100
AcDbMText
 62
2
  6
CONTINUOUS
  7
STANDARD
 71
2
 72
1
 10
1.5275
 20
-0.9065
 30
0.0
 11
1.0
 21
0.0
 31
0.0
 44
0.9
  1
Body Type
 40
0.125
 41
1.8
  0
MTEXT
  5
25E
100
AcDbEntity
  8
0
100
AcDbMText
 62
2
  6
CONTINUOUS
  7
STANDARD
 71
2
 72
1
 10
6.055
 20
-0.9065
 30
0.0
 11
1.0
 21
0.0
 31
0.0
 44
0.9
  1
Subplate
 40
0.125
 41
1.6
  0
MTEXT
  5
25F
100
AcDbEntity
  8
0
100
AcDbMText
 62
2
  6
CONTINUOUS
  7
STANDARD
 71
2
 72
1
 10
1.5275
 20
-1.1565
 30
0.0
 11
1.0
 21
0.0
 31
0.0
 44
0.9
  1
Interface
 40
0.125
 41
1.8
  0
MTEXT
  5
260
100
AcDbEntity
  8
0
100
AcDbMText
 62
2
  6
CONTINUOUS
  7
STANDARD
 71
2
 72
1
 10
6.055
 20
-1.1565
 30
0.0
 11
1.0
 21
0.0
 31
0.0
 44
0.9
  1
ISO 03
 40
0.125
 41
1.2
  0
MTEXT
  5
261
100
AcDbEntity
  8
0
100
AcDbMText
 62
2
  6
CONTINUOUS
  7
STANDARD
 71
2
 72
1
 10
1.5275
 20
-1.4065
 30
0.0
 11
1.0
 21
0.0
 31
0.0
 44
0.9
  1
Open Cavity Quantity
 40
0.125
 41
4.0
  0
MTEXT
  5
262
100
AcDbEntity
  8
0
100
AcDbMText
 62
2
  6
CONTINUOUS
  7
STANDARD
 71
2
 72
1
 10
6.055
 20
-1.4065
 30
0.0
 11
1.0
 21
0.0
 31
0.0
 44
0.9
  1
1
 40
0.125
 41
0.2
  0
MTEXT
  5
263
100
AcDbEntity
  8
0
100
AcDbMText
 62
2
  6
CONTINUOUS
  7
STANDARD
 71
2
 72
1
 10
1.5275
 20
-1.6565
 30
0.0
 11
1.0
 21
0.0
 31
0.0
 44
0.9
  1
Weight
 40
0.125
 41
1.2
  0
MTEXT
  5
264
100
AcDbEntity
  8
0
100
AcDbMText
 62
2
  6
CONTINUOUS
  7
STANDARD
 71
2
 72
1
 10
4.555
 20
-1.6565
 30
0.0
 11
1.0
 21
0.0
 31
0.0
 44
0.9
  1
2.093 lb.
 40
0.125
 41
1.8
  0
MTEXT
  5
265
100
AcDbEntity
  8
0
100
AcDbMText
 62
2
  6
CONTINUOUS
  7
STANDARD
 71
2
 72
1
 10
7.555
 20
-1.6565
 30
0.0
 11
1.0
 21
0.0
 31
0.0
 44
0.9
  1
0,949 kg.
 40
0.125
 41
1.8
  0
MTEXT
  5
266
100
AcDbEntity
  8
0
100
AcDbMText
 62
2
  6
CONTINUOUS
  7
STANDARD
 71
2
 72
1
 10
1.5275
 20
-1.9065
 30
0.0
 11
1.0
 21
0.0
 31
0.0
 44
0.9
  1
Mounting Hole Diameter
 40
0.125
 41
4.4
  0
MTEXT
  5
267
100
AcDbEntity
  8
0
100
AcDbMText
 62
2
  6
CONTINUOUS
  7
STANDARD
 71
2
 72
1
 10
4.555
 20
-1.9065
 30
0.0
 11
1.0
 21
0.0
 31
0.0
 44
0.9
  1
.28 in.
 40
0.125
 41
1.4
  0
MTEXT
  5
268
100
AcDbEntity
  8
0
100
AcDbMText
 62
2
  6
CONTINUOUS
  7
STANDARD
 71
2
 72
1
 10
7.555
 20
-1.9065
 30
0.0
 11
1.0
 21
0.0
 31
0.0
 44
0.9
  1
7,1 mm
 40
0.125
 41
1.2
  0
MTEXT
  5
269
100
AcDbEntity
  8
0
100
AcDbMText
 62
2
  6
CONTINUOUS
  7
STANDARD
 71
2
 72
1
 10
1.5275
 20
-2.1565
 30
0.0
 11
1.0
 21
0.0
 31
0.0
 44
0.9
  1
Mounting Hole Depth
 40
0.125
 41
3.8
  0
MTEXT
  5
26A
100
AcDbEntity
  8
0
100
AcDbMText
 62
2
  6
CONTINUOUS
  7
STANDARD
 71
2
 72
1
 10
6.055
 20
-2.1565
 30
0.0
 11
1.0
 21
0.0
 31
0.0
 44
0.9
  1
Through
 40
0.125
 41
1.4
  0
MTEXT
  5
26B
100
AcDbEntity
  8
0
100
AcDbMText
 62
2
  6
CONTINUOUS
  7
STANDARD
 71
2
 72
1
 10
1.5275
 20
-2.4065
 30
0.0
 11
1.0
 21
0.0
 31
0.0
 44
0.9
  1
Mounting Hole Quantity
 40
0.125
 41
4.4
  0
MTEXT
  5
26C
100
AcDbEntity
  8
0
100
AcDbMText
 62
2
  6
CONTINUOUS
  7
STANDARD
 71
2
 72
1
 10
6.055
 20
-2.4065
 30
0.0
 11
1.0
 21
0.0
 31
0.0
 44
0.9
  1
4
 40
0.125
 41
0.2
  0
ENDBLK
  5
26D
100
AcDbEntity
  8
0
  6
BYBLOCK
 62
0
100
AcDbBlockEnd
  0
BLOCK
  5
26E
100
AcDbEntity
  8
0
100
AcDbBlockBegin
  2
*T3
 70
1
 10
0.0
 20
0.0
  3
*T3
  1

  0
LINE
  5
26F
100
AcDbEntity
  8
0
100
AcDbLine
 62
2
  6
CONTINUOUS
 10
0.0
 20
0.0
 11
4.6
 21
0.0
  0
LINE
  5
270
100
AcDbEntity
  8
0
100
AcDbLine
 62
2
  6
CONTINUOUS
 10
0.0
 20
0.0
 11
0.0
 21
-1.18775
  0
LINE
  5
271
100
AcDbEntity
  8
0
100
AcDbLine
 62
2
  6
CONTINUOUS
 10
0.0
 20
-0.34375
 11
4.6
 21
-0.34375
  0
LINE
  5
272
100
AcDbEntity
  8
0
100
AcDbLine
 62
2
  6
CONTINUOUS
 10
0.0
 20
-0.68775
 11
4.6
 21
-0.68775
  0
LINE
  5
273
100
AcDbEntity
  8
0
100
AcDbLine
 62
2
  6
CONTINUOUS
 10
0.0
 20
-0.93775
 11
4.6
 21
-0.93775
  0
LINE
  5
274
100
AcDbEntity
  8
0
100
AcDbLine
 62
2
  6
CONTINUOUS
 10
0.0
 20
-1.18775
 11
4.6
 21
-1.18775
  0
LINE
  5
275
100
AcDbEntity
  8
0
100
AcDbLine
 62
2
  6
CONTINUOUS
 10
1.3
 20
-0.34375
 11
1.3
 21
-1.18775
  0
LINE
  5
276
100
AcDbEntity
  8
0
100
AcDbLine
 62
2
  6
CONTINUOUS
 10
3.3
 20
-0.34375
 11
3.3
 21
-1.18775
  0
LINE
  5
277
100
AcDbEntity
  8
0
100
AcDbLine
 62
2
  6
CONTINUOUS
 10
4.6
 20
0.0
 11
4.6
 21
-1.18775
  0
MTEXT
  5
278
100
AcDbEntity
  8
0
100
AcDbMText
 62
2
  6
CONTINUOUS
  7
STANDARD
 71
2
 72
1
 10
2.3
 20
-0.099375
 30
0.0
 11
1.0
 21
0.0
 31
0.0
 44
0.9
  1
Port Headings
 40
0.145
 41
3.016
  0
MTEXT
  5
279
100
AcDbEntity
  8
0
100
AcDbMText
 62
2
  6
CONTINUOUS
  7
STANDARD
 71
2
 72
1
 10
0.65
 20
-0.44325
 30
0.0
 11
1.0
 21
0.0
 31
0.0
 44
0.9
  1
Product
 40
0.145
 41
1.624
  0
MTEXT
  5
27A
100
AcDbEntity
  8
0
100
AcDbMText
 62
2
  6
CONTINUOUS
  7
STANDARD
 71
2
 72
1
 10
2.3
 20
-0.44325
 30
0.0
 11
1.0
 21
0.0
 31
0.0
 44
0.9
  1
Port
 40
0.145
 41
0.928
  0
MTEXT
  5
27B
100
AcDbEntity
  8
0
100
AcDbMText
 62
2
  6
CONTINUOUS
  7
STANDARD
 71
2
 72
1
 10
3.95
 20
-0.44325
 30
0.0
 11
1.0
 21
0.0
 31
0.0
 44
0.9
  1
Size
 40
0.145
 41
0.928
  0
MTEXT
  5
27C
100
AcDbEntity
  8
0
100
AcDbMText
 62
2
  6
CONTINUOUS
  7
STANDARD
 71
2
 72
1
 10
0.65
 20
-0.75025
 30
0.0
 11
1.0
 21
0.0
 31
0.0
 44
0.9
  1
FSB
 40
0.125
 41
0.6
  0
MTEXT
  5
27D
100
AcDbEntity
  8
0
100
AcDbMText
 62
2
  6
CONTINUOUS
  7
STANDARD
 71
2
 72
1
 10
2.3
 20
-0.75025
 30
0.0
 11
1.0
 21
0.0
 31
0.0
 44
0.9
  1
Ports A, B, P, T
 40
0.125
 41
3.2
  0
MTEXT
  5
27E
100
AcDbEntity
  8
0
100
AcDbMText
 62
2
  6
CONTINUOUS
  7
STANDARD
 71
2
 72
1
 10
3.95
 20
-0.75025
 30
0.0
 11
1.0
 21
0.0
 31
0.0
 44
0.9
  1
3/8" NPTF
 40
0.125
 41
1.8
  0
MTEXT
  5
27F
100
AcDbEntity
  8
0
100
AcDbMText
 62
2
  6
CONTINUOUS
  7
STANDARD
 71
2
 72
1
 10
0.65
 20
-1.00025
 30
0.0
 11
1.0
 21
0.0
 31
0.0
 44
0.9
  1
FSB
 40
0.125
 41
0.6
  0
MTEXT
  5
280
100
AcDbEntity
  8
0
100
AcDbMText
 62
2
  6
CONTINUOUS
  7
STANDARD
 71
2
 72
1
 10
2.3
 20
-1.00025
 30
0.0
 11
1.0
 21
0.0
 31
0.0
 44
0.9
  1
Gage Port
 40
0.125
 41
1.8
  0
MTEXT
  5
281
100
AcDbEntity
  8
0
100
AcDbMText
 62
2
  6
CONTINUOUS
  7
STANDARD
 71
2
 72
1
 10
3.95
 20
-1.00025
 30
0.0
 11
1.0
 21
0.0
 31
0.0
 44
0.9
  1
1/4" NPTF
 40
0.125
 41
1.8
  0
ENDBLK
  5
282
100
AcDbEntity
  8
0
  6
BYBLOCK
 62
0
100
AcDbBlockEnd
  0
ENDSEC
  0
SECTION
  2
ENTITIES
  0
IMAGE
  5
283
100
AcDbEntity
  8
0
100
AcDbRasterImage
 62
7
  6
CONTINUOUS
 10
19.2297077316
 20
0.3094318264
 30
0.0
 11
0.0066666667
 21
0.0
 31
0.0
 12
0.0
 22
0.0066666667
 32
0.0
 13
369.0
 23
92.0
340
       3A0
 70
9
280
0
281
50
282
50
283
0
360
       39A
 71
1
 91
2
 14
-0.5
 24
-0.5
 14
368.5
 24
91.5
  0
INSERT
  5
284
100
AcDbEntity
  8
0
100
AcDbBlockReference
 62
2
  6
CONTINUOUS
  2
SUN_FIRST_THIRD_ANGLE_BL0
 10
20.4816717061
 20
1.2289683772
  0
ACAD_TABLE
  5
285
100
AcDbEntity
  8
0
 62
2
  6
CONTINUOUS
100
AcDbBlockReference
  2
*T1
 10
12.42375
 20
0.30125
 30
0.0
100
AcDbTable
342
       3A2
343
207
 11
1.0
 21
0.0
 31
0.0
 90
6
 91
4
 92
6
 93
20
 94
0
 95
0
 96
0
 70
1
 41
0.0
141
0.525
141
0.1
141
0.525
141
0.1
142
4.1
142
1.1
142
0.7
142
0.5
142
0.4
142
2.475
171
1
172
0
173
0
174
0
175
1
176
1
 91
33
178
0
145
0.0
301
CELL_VALUE
 90
4
  1
T-10A Subplate ISO 03\PP to T, side ports
304
ACVALUE_END
170
2
140
0.125
171
1
172
0
173
0
174
0
175
1
176
1
 91
33
178
0
145
0.0
301
CELL_VALUE
 90
4
  1
Jan-27-20
304
ACVALUE_END
170
5
140
0.125
171
1
172
0
173
0
174
0
175
1
176
1
 91
33
178
0
145
0.0
301
CELL_VALUE
 90
4
  1
1.000
304
ACVALUE_END
170
5
140
0.125
171
1
172
0
173
0
174
0
175
1
176
1
 91
33
178
0
145
0.0
301
CELL_VALUE
 90
4
  1
C
304
ACVALUE_END
170
5
140
0.125
171
1
172
0
173
0
174
0
175
1
176
1
 91
33
178
0
145
0.0
301
CELL_VALUE
 90
4
  1
2
304
ACVALUE_END
170
5
140
0.125
171
1
172
0
173
0
174
0
175
1
176
1
 91
33
178
0
145
0.0
301
CELL_VALUE
 90
4
  1
 
304
ACVALUE_END
170
1
140
0.125
171
1
172
0
173
0
174
0
175
1
176
1
 91
33
178
0
145
0.0
301
CELL_VALUE
 90
4
  1
DESCRIPTION
304
ACVALUE_END
170
1
140
0.06
171
1
172
0
173
0
174
0
175
1
176
1
 91
33
178
0
145
0.0
301
CELL_VALUE
 90
4
  1
DATE
304
ACVALUE_END
170
1
140
0.06
171
1
172
0
173
0
174
0
175
1
176
1
 91
33
178
0
145
0.0
301
CELL_VALUE
 90
4
  1
SCALE
304
ACVALUE_END
170
1
140
0.06
171
1
172
0
173
0
174
0
175
1
176
1
 91
33
178
0
145
0.0
301
CELL_VALUE
 90
4
  1
DWG SIZE
304
ACVALUE_END
170
1
140
0.06
171
1
172
0
173
0
174
0
175
1
176
1
 91
33
178
0
145
0.0
301
CELL_VALUE
 90
4
  1
SHEET
304
ACVALUE_END
170
1
140
0.06
171
1
172
0
173
0
174
0
175
1
176
1
 91
33
178
0
145
0.0
301
CELL_VALUE
 90
4
  1
 
304
ACVALUE_END
170
1
140
0.125
171
1
172
0
173
0
174
0
175
1
176
1
 91
33
178
0
145
0.0
301
CELL_VALUE
 90
4
  1
FSB
304
ACVALUE_END
170
5
140
0.125
171
1
172
0
173
0
174
0
175
4
176
1
 91
33
178
0
145
0.0
301
CELL_VALUE
 90
4
  1
ALL DIMENSIONS IN INCH\PVIEWS ARE THIRD ANGLE
304
ACVALUE_END
170
5
140
0.12
171
1
172
0
173
1
174
0
175
1
176
1
 91
1
178
0
145
0.0
170
1
171
1
172
0
173
1
174
0
175
1
176
1
 91
1
178
0
145
0.0
170
1
171
1
172
0
173
1
174
0
175
1
176
1
 91
1
178
0
145
0.0
170
5
171
1
172
0
173
0
174
0
175
1
176
1
 91
33
178
0
145
0.0
301
CELL_VALUE
 90
4
  1
 
304
ACVALUE_END
170
1
140
0.125
171
1
172
0
173
0
174
0
175
1
176
1
 91
33
178
0
145
0.0
301
CELL_VALUE
 90
4
  1
MODEL
304
ACVALUE_END
170
1
140
0.06
171
1
172
0
173
0
174
0
175
1
176
1
 91
33
178
0
145
0.0
301
CELL_VALUE
 90
4
  1
 
304
ACVALUE_END
170
1
140
0.125
171
1
172
0
173
0
174
0
175
1
176
1
 91
33
178
0
145
0.0
301
CELL_VALUE
 90
4
  1
 
304
ACVALUE_END
170
1
140
0.125
171
1
172
0
173
0
174
0
175
1
176
1
 91
33
178
0
145
0.0
301
CELL_VALUE
 90
4
  1
 
304
ACVALUE_END
170
1
140
0.125
171
1
172
0
173
0
174
0
175
1
176
1
 91
33
178
0
145
0.0
301
CELL_VALUE
 90
4
  1
 
304
ACVALUE_END
170
1
140
0.125
171
1
172
0
173
0
174
0
175
1
176
1
 91
33
178
0
145
0.0
301
CELL_VALUE
 90
4
  1
 
304
ACVALUE_END
170
1
140
0.125
  0
ACAD_TABLE
  5
286
100
AcDbEntity
  8
0
 62
2
  6
CONTINUOUS
100
AcDbBlockReference
  2
*T2
 10
12.4237499994
 20
16.47875
 30
0.0
100
AcDbTable
342
       3A1
343
208
 11
1.0
 21
0.0
 31
0.0
 90
22
 91
10
 92
3
 93
16
 94
0
 95
0
 96
0
 41
0.028
141
0.344
141
0.25
141
0.25
141
0.25
141
0.25
141
0.25
141
0.25
141
0.25
141
0.25
141
0.25
142
3.055
142
3.0
142
3.0
171
1
172
0
173
0
174
0
175
1
176
1
 91
33
178
0
145
0.0
301
CELL_VALUE
 90
4
  1
Technical Data
304
ACVALUE_END
170
5
140
0.145
171
1
172
0
173
0
174
0
175
1
176
1
 91
33
178
0
145
0.0
301
CELL_VALUE
 90
4
  1
U.S. Units
304
ACVALUE_END
170
5
140
0.145
171
1
172
0
173
0
174
0
175
1
176
1
 91
33
178
0
145
0.0
301
CELL_VALUE
 90
4
  1
Metric Units
304
ACVALUE_END
170
5
140
0.145
171
1
172
0
173
0
174
0
175
1
176
1
 91
33
178
0
145
0.0
301
CELL_VALUE
 90
4
  1
Cavity
304
ACVALUE_END
170
5
140
0.125
171
1
172
0
173
0
174
0
175
2
176
1
 91
33
178
0
145
0.0
301
CELL_VALUE
 90
4
  1
T-10A
304
ACVALUE_END
170
5
140
0.125
171
1
172
0
173
1
174
0
175
1
176
1
 91
1
178
0
145
0.0
170
1
171
1
172
0
173
0
174
0
175
1
176
1
 91
33
178
0
145
0.0
301
CELL_VALUE
 90
4
  1
Body Features
304
ACVALUE_END
170
5
140
0.125
171
1
172
0
173
0
174
0
175
2
176
1
 91
33
178
0
145
0.0
301
CELL_VALUE
 90
4
  1
P to T, side ports
304
ACVALUE_END
170
5
140
0.125
171
1
172
0
173
1
174
0
175
1
176
1
 91
1
178
0
145
0.0
170
1
171
1
172
0
173
0
174
0
175
1
176
1
 91
33
178
0
145
0.0
301
CELL_VALUE
 90
4
  1
Body Type
304
ACVALUE_END
170
5
140
0.125
171
1
172
0
173
0
174
0
175
2
176
1
 91
33
178
0
145
0.0
301
CELL_VALUE
 90
4
  1
Subplate
304
ACVALUE_END
170
5
140
0.125
171
1
172
0
173
1
174
0
175
1
176
1
 91
1
178
0
145
0.0
170
1
171
1
172
0
173
0
174
0
175
1
176
1
 91
33
178
0
145
0.0
301
CELL_VALUE
 90
4
  1
Interface
304
ACVALUE_END
170
5
140
0.125
171
1
172
0
173
0
174
0
175
2
176
1
 91
33
178
0
145
0.0
301
CELL_VALUE
 90
4
  1
ISO 03
304
ACVALUE_END
170
5
140
0.125
171
1
172
0
173
1
174
0
175
1
176
1
 91
1
178
0
145
0.0
170
1
171
1
172
0
173
0
174
0
175
1
176
1
 91
33
178
0
145
0.0
301
CELL_VALUE
 90
4
  1
Open Cavity Quantity
304
ACVALUE_END
170
5
140
0.125
171
1
172
0
173
0
174
0
175
2
176
1
 91
33
178
0
145
0.0
301
CELL_VALUE
 90
4
  1
1
304
ACVALUE_END
170
5
140
0.125
171
1
172
0
173
1
174
0
175
1
176
1
 91
1
178
0
145
0.0
170
1
171
1
172
0
173
0
174
0
175
1
176
1
 91
33
178
0
145
0.0
301
CELL_VALUE
 90
4
  1
Weight
304
ACVALUE_END
170
5
140
0.125
171
1
172
0
173
0
174
0
175
1
176
1
 91
33
178
0
145
0.0
301
CELL_VALUE
 90
4
  1
2.093 lb.
304
ACVALUE_END
170
5
140
0.125
171
1
172
0
173
0
174
0
175
1
176
1
 91
33
178
0
145
0.0
301
CELL_VALUE
 90
4
  1
0,949 kg.
304
ACVALUE_END
170
5
140
0.125
171
1
172
0
173
0
174
0
175
1
176
1
 91
33
178
0
145
0.0
301
CELL_VALUE
 90
4
  1
Mounting Hole Diameter
304
ACVALUE_END
170
5
140
0.125
171
1
172
0
173
0
174
0
175
1
176
1
 91
33
178
0
145
0.0
301
CELL_VALUE
 90
4
  1
.28 in.
304
ACVALUE_END
170
5
140
0.125
171
1
172
0
173
0
174
0
175
1
176
1
 91
33
178
0
145
0.0
301
CELL_VALUE
 90
4
  1
7,1 mm
304
ACVALUE_END
170
5
140
0.125
171
1
172
0
173
0
174
0
175
1
176
1
 91
33
178
0
145
0.0
301
CELL_VALUE
 90
4
  1
Mounting Hole Depth
304
ACVALUE_END
170
5
140
0.125
171
1
172
0
173
0
174
0
175
2
176
1
 91
33
178
0
145
0.0
301
CELL_VALUE
 90
4
  1
Through
304
ACVALUE_END
170
5
140
0.125
171
1
172
0
173
1
174
0
175
1
176
1
 91
1
178
0
145
0.0
170
1
171
1
172
0
173
0
174
0
175
1
176
1
 91
33
178
0
145
0.0
301
CELL_VALUE
 90
4
  1
Mounting Hole Quantity
304
ACVALUE_END
170
5
140
0.125
171
1
172
0
173
0
174
0
175
2
176
1
 91
33
178
0
145
0.0
301
CELL_VALUE
 90
4
  1
4
304
ACVALUE_END
170
5
140
0.125
171
1
172
0
173
1
174
0
175
1
176
1
 91
1
178
0
145
0.0
170
1
  0
ACAD_TABLE
  5
287
100
AcDbEntity
  8
0
 62
2
  6
CONTINUOUS
100
AcDbBlockReference
  2
*T3
 10
0.52125
 20
1.709
 30
0.0
100
AcDbTable
342
       3A1
343
209
 11
1.0
 21
0.0
 31
0.0
 90
22
 91
4
 92
3
 93
16
 94
0
 95
0
 96
0
 41
0.05
141
0.34375
141
0.344
141
0.25
141
0.25
142
1.3
142
2.0
142
1.3
171
1
172
0
173
0
174
0
175
3
176
1
 91
33
178
0
145
0.0
301
CELL_VALUE
 90
4
  1
Port Headings
304
ACVALUE_END
170
5
140
0.145
171
1
172
0
173
1
174
0
175
1
176
1
 91
1
178
0
145
0.0
170
1
171
1
172
0
173
1
174
0
175
1
176
1
 91
1
178
0
145
0.0
170
1
171
1
172
0
173
0
174
0
175
1
176
1
 91
33
178
0
145
0.0
301
CELL_VALUE
 90
4
  1
Product
304
ACVALUE_END
170
5
140
0.145
171
1
172
0
173
0
174
0
175
1
176
1
 91
33
178
0
145
0.0
301
CELL_VALUE
 90
4
  1
Port
304
ACVALUE_END
170
5
140
0.145
171
1
172
0
173
0
174
0
175
1
176
1
 91
33
178
0
145
0.0
301
CELL_VALUE
 90
4
  1
Size
304
ACVALUE_END
170
5
140
0.145
171
1
172
0
173
0
174
0
175
1
176
1
 91
33
178
0
145
0.0
301
CELL_VALUE
 90
4
  1
FSB
304
ACVALUE_END
170
5
140
0.125
171
1
172
0
173
0
174
0
175
1
176
1
 91
33
178
0
145
0.0
301
CELL_VALUE
 90
4
  1
Ports A, B, P, T
304
ACVALUE_END
170
5
140
0.125
171
1
172
0
173
0
174
0
175
1
176
1
 91
33
178
0
145
0.0
301
CELL_VALUE
 90
4
  1
3/8" NPTF
304
ACVALUE_END
170
5
140
0.125
171
1
172
0
173
0
174
0
175
1
176
1
 91
33
178
0
145
0.0
301
CELL_VALUE
 90
4
  1
FSB
304
ACVALUE_END
170
5
140
0.125
171
1
172
0
173
0
174
0
175
1
176
1
 91
33
178
0
145
0.0
301
CELL_VALUE
 90
4
  1
Gage Port
304
ACVALUE_END
170
5
140
0.125
171
1
172
0
173
0
174
0
175
1
176
1
 91
33
178
0
145
0.0
301
CELL_VALUE
 90
4
  1
1/4" NPTF
304
ACVALUE_END
170
5
140
0.125
  0
MTEXT
  5
288
100
AcDbEntity
  8
0
100
AcDbMText
 62
2
  6
CONTINUOUS
  7
STANDARD
 71
1
 72
1
 10
0.52125
 20
5.75995
 30
0.0
 11
1.0
 21
0.0
 31
0.0
 44
0.6
  3
Notes\P \P1. Important: Carefully consider\P   the maximum system pressure. The\P   pressure rating of the manifold is\P   dependent on the manifold material,\P   with the port type/size a secondary\P   consideration. Manifolds\P   constructed of alu
  1
minum are not\P   rated for pressures higher than\P   3000 psi (210 bar), regardless of\P   the port type/size specified.
 40
0.1
 41
3.04
  0
LINE
  5
289
100
AcDbEntity
  8
0
100
AcDbLine
 62
7
  6
CONTINUOUS
 10
0.30125
 20
0.30125
 11
0.30125
 21
16.69875
  0
LINE
  5
28A
100
AcDbEntity
  8
0
100
AcDbLine
 62
7
  6
CONTINUOUS
 10
0.30125
 20
0.30125
 11
21.69875
 21
0.30125
  0
LINE
  5
28B
100
AcDbEntity
  8
0
100
AcDbLine
 62
7
  6
CONTINUOUS
 10
0.30125
 20
16.69875
 11
21.69875
 21
16.69875
  0
LINE
  5
28C
100
AcDbEntity
  8
0
100
AcDbLine
 62
7
  6
CONTINUOUS
 10
21.69875
 20
0.30125
 11
21.69875
 21
16.69875
  0
LINE
  5
28D
100
AcDbEntity
  8
0
100
AcDbLine
 62
7
  6
CONTINUOUS
 10
9.0508108723
 20
10.0575980659
 11
9.5684485353
 21
10.5575976829
  0
LINE
  5
28E
100
AcDbEntity
  8
0
100
AcDbLine
 62
7
  6
CONTINUOUS
 10
9.0508108723
 20
6.6768574735
 11
9.0508108723
 21
10.0575980659
  0
LINE
  5
28F
100
AcDbEntity
  8
0
100
AcDbLine
 62
7
  6
CONTINUOUS
 10
12.4315514647
 20
6.4424023171
 11
9.0508108723
 21
6.6768574735
  0
LINE
  5
290
100
AcDbEntity
  8
0
100
AcDbLine
 62
4
  6
CONTINUOUS
 10
9.2560701229
 20
7.5126374763
 11
9.2198479031
 21
7.6310605992
  0
LINE
  5
291
100
AcDbEntity
  8
0
100
AcDbLine
 62
4
  6
CONTINUOUS
 10
9.2270923471
 20
9.0601285027
 11
9.2270923471
 21
9.0311507286
  0
LINE
  5
292
100
AcDbEntity
  8
0
100
AcDbLine
 62
4
  6
CONTINUOUS
 10
9.234336791
 20
9.0016705454
 11
9.234336791
 21
8.9726927695
  0
LINE
  5
293
100
AcDbEntity
  8
0
100
AcDbLine
 62
4
  6
CONTINUOUS
 10
9.2922923428
 20
8.9590142821
 11
9.2922923428
 21
9.0749253855
  0
LINE
  5
294
100
AcDbEntity
  8
0
100
AcDbLine
 62
4
  6
CONTINUOUS
 10
9.241581235
 20
9.0784422128
 11
9.2270923471
 21
9.0601285027
  0
LINE
  5
295
100
AcDbEntity
  8
0
100
AcDbLine
 62
4
  6
CONTINUOUS
 10
9.241581235
 20
9.0108274047
 11
9.234336791
 21
9.0016705454
  0
LINE
  5
296
100
AcDbEntity
  8
0
100
AcDbLine
 62
4
  6
CONTINUOUS
 10
11.2178654952
 20
6.6231643148
 11
11.2033766072
 21
6.6241691226
  0
LINE
  5
297
100
AcDbEntity
  8
0
100
AcDbLine
 62
4
  6
CONTINUOUS
 10
10.4089026821
 20
6.6792660764
 11
10.3726804622
 21
6.6817780959
  0
LINE
  5
298
100
AcDbEntity
  8
0
100
AcDbLine
 62
4
  6
CONTINUOUS
 10
11.2106210512
 20
6.6816222704
 11
11.1816432754
 21
6.683631886
  0
LINE
  5
299
100
AcDbEntity
  8
0
100
AcDbLine
 62
4
  6
CONTINUOUS
 10
10.3726804622
 20
6.7397336476
 11
10.4089026821
 21
6.7372216282
  0
LINE
  5
29A
100
AcDbEntity
  8
0
100
AcDbLine
 62
4
  6
CONTINUOUS
 10
11.2033766072
 20
6.740080226
 11
11.2178654952
 21
6.7390754182
  0
LINE
  5
29B
100
AcDbEntity
  8
0
100
AcDbLine
 62
4
  6
CONTINUOUS
 10
10.3726804622
 20
6.6817780959
 11
10.3581915743
 21
6.69244216
  0
LINE
  5
29C
100
AcDbEntity
  8
0
100
AcDbLine
 62
4
  6
CONTINUOUS
 10
10.2595981371
 20
9.8970462113
 11
10.3037547453
 21
9.916062246
  0
LINE
  5
29D
100
AcDbEntity
  8
0
100
AcDbLine
 62
4
  6
CONTINUOUS
 10
10.3581915743
 20
6.69244216
 11
10.3509471303
 21
6.7026038271
  0
LINE
  5
29E
100
AcDbEntity
  8
0
100
AcDbLine
 62
4
  6
CONTINUOUS
 10
9.2922923428
 20
7.6260365602
 11
9.2560701229
 21
7.5126374763
  0
LINE
  5
29F
100
AcDbEntity
  8
0
100
AcDbLine
 62
4
  6
CONTINUOUS
 10
10.4334647923
 20
9.9181059757
 11
10.4500235134
 21
9.9335163543
  0
LINE
  5
2A0
100
AcDbEntity
  8
0
100
AcDbLine
 62
4
  6
CONTINUOUS
 10
10.5245377863
 20
9.9117900421
 11
10.5410965075
 21
9.9272004207
  0
LINE
  5
2A1
100
AcDbEntity
  8
0
100
AcDbLine
 62
4
  6
CONTINUOUS
 10
11.2033766072
 20
6.6241691226
 11
11.1888877193
 21
6.6348331867
  0
LINE
  5
2A2
100
AcDbEntity
  8
0
100
AcDbLine
 62
4
  6
CONTINUOUS
 10
10.582493338
 20
9.8249771654
 11
10.5659346169
 21
9.8095667886
  0
LINE
  5
2A3
100
AcDbEntity
  8
0
100
AcDbLine
 62
4
  6
CONTINUOUS
 10
10.6790858874
 20
9.8182784494
 11
10.6625271662
 21
9.8028680725
  0
LINE
  5
2A4
100
AcDbEntity
  8
0
100
AcDbLine
 62
4
  6
CONTINUOUS
 10
10.2071621605
 20
9.3592122189
 11
10.1988828275
 21
9.3515070276
  0
LINE
  5
2A5
100
AcDbEntity
  8
0
100
AcDbLine
 62
4
  6
CONTINUOUS
 10
11.1786075729
 20
9.811234383
 11
11.2227641846
 21
9.8302504191
  0
LINE
  5
2A6
100
AcDbEntity
  8
0
100
AcDbLine
 62
4
  6
CONTINUOUS
 10
11.2178654952
 20
6.7390754182
 11
11.2323543831
 21
6.7284113515
  0
LINE
  5
2A7
100
AcDbEntity
  8
0
100
AcDbLine
 62
4
  6
CONTINUOUS
 10
9.234336791
 20
8.9726927695
 11
9.241581235
 21
8.9625311093
  0
LINE
  5
2A8
100
AcDbEntity
  8
0
100
AcDbLine
 62
4
  6
CONTINUOUS
 10
9.2270923471
 20
9.0311507286
 11
9.241581235
 21
9.0108274047
  0
LINE
  5
2A9
100
AcDbEntity
  8
0
100
AcDbLine
 62
4
  6
CONTINUOUS
 10
10.6252700723
 20
9.6497998068
 11
10.6418288072
 21
9.6652101845
  0
LINE
  5
2AA
100
AcDbEntity
  8
0
100
AcDbLine
 62
4
  6
CONTINUOUS
 10
10.2485589358
 20
9.2818270629
 11
10.2402796028
 21
9.2741218691
  0
LINE
  5
2AB
100
AcDbEntity
  8
0
100
AcDbLine
 62
4
  6
CONTINUOUS
 10
10.6335494328
 20
9.5912700812
 11
10.6501081678
 21
9.6066804571
  0
LINE
  5
2AC
100
AcDbEntity
  8
0
100
AcDbLine
 62
4
  6
CONTINUOUS
 10
10.7329018151
 20
9.6588942499
 11
10.7163430801
 21
9.6434838723
  0
LINE
  5
2AD
100
AcDbEntity
  8
0
100
AcDbLine
 62
4
  6
CONTINUOUS
 10
10.3230732639
 20
9.2766594767
 11
10.314793931
 21
9.2689542829
  0
LINE
  5
2AE
100
AcDbEntity
  8
0
100
AcDbLine
 62
4
  6
CONTINUOUS
 10
11.0985737205
 20
9.8719805149
 11
11.1151324486
 21
9.887390893
  0
LINE
  5
2AF
100
AcDbEntity
  8
0
100
AcDbLine
 62
4
  6
CONTINUOUS
 10
10.7742986318
 20
9.5566709956
 11
10.7577399038
 21
9.5412606192
  0
LINE
  5
2B0
100
AcDbEntity
  8
0
100
AcDbLine
 62
4
  6
CONTINUOUS
 10
9.2778034548
 20
7.5884043324
 11
9.234336791
 21
7.5914187557
  0
LINE
  5
2B1
100
AcDbEntity
  8
0
100
AcDbLine
 62
4
  6
CONTINUOUS
 10
11.1888877193
 20
6.6348331867
 11
11.1816432754
 21
6.6449948538
  0
LINE
  5
2B2
100
AcDbEntity
  8
0
100
AcDbLine
 62
4
  6
CONTINUOUS
 10
10.1988828275
 20
9.3515070276
 11
10.1988828275
 21
9.3266689329
  0
LINE
  5
2B3
100
AcDbEntity
  8
0
100
AcDbLine
 62
4
  6
CONTINUOUS
 10
10.2485589358
 20
9.3066651551
 11
10.2485589358
 21
9.2818270629
  0
LINE
  5
2B4
100
AcDbEntity
  8
0
100
AcDbLine
 62
4
  6
CONTINUOUS
 10
10.3644700945
 20
9.2323917731
 11
10.3672298721
 21
9.2404797494
  0
LINE
  5
2B5
100
AcDbEntity
  8
0
100
AcDbLine
 62
4
  6
CONTINUOUS
 10
10.6073314119
 20
9.2983429274
 11
10.5907726908
 21
9.2912119146
  0
LINE
  5
2B6
100
AcDbEntity
  8
0
100
AcDbLine
 62
4
  6
CONTINUOUS
 10
10.7646393459
 20
9.2460367649
 11
10.7480806247
 21
9.2389057487
  0
LINE
  5
2B7
100
AcDbEntity
  8
0
100
AcDbLine
 62
4
  6
CONTINUOUS
 10
11.2323543831
 20
6.7284113515
 11
11.246843271
 21
6.7080880268
  0
LINE
  5
2B8
100
AcDbEntity
  8
0
100
AcDbLine
 62
4
  6
CONTINUOUS
 10
10.3230732639
 20
9.3428943916
 11
10.3230732639
 21
9.2766594767
  0
LINE
  5
2B9
100
AcDbEntity
  8
0
100
AcDbLine
 62
4
  6
CONTINUOUS
 10
10.3509471303
 20
6.7026038271
 11
10.3509471303
 21
6.7219223398
  0
LINE
  5
2BA
100
AcDbEntity
  8
0
100
AcDbLine
 62
4
  6
CONTINUOUS
 10
10.3672298721
 20
9.3481114853
 11
10.3672298721
 21
9.2653178381
  0
LINE
  5
2BB
100
AcDbEntity
  8
0
100
AcDbLine
 62
4
  6
CONTINUOUS
 10
10.3672298721
 20
9.2404797494
 11
10.3672298721
 21
9.2322003819
  0
LINE
  5
2BC
100
AcDbEntity
  8
0
100
AcDbLine
 62
4
  6
CONTINUOUS
 10
10.3865483511
 20
9.9379183718
 11
10.3865483511
 21
9.8220072683
  0
LINE
  5
2BD
100
AcDbEntity
  8
0
100
AcDbLine
 62
4
  6
CONTINUOUS
 10
10.4089026821
 20
6.7951771799
 11
10.4089026821
 21
6.6792660764
  0
LINE
  5
2BE
100
AcDbEntity
  8
0
100
AcDbLine
 62
4
  6
CONTINUOUS
 10
10.4334647923
 20
9.8353123302
 11
10.4334647923
 21
9.9181059757
  0
LINE
  5
2BF
100
AcDbEntity
  8
0
100
AcDbLine
 62
4
  6
CONTINUOUS
 10
10.441744145
 20
9.3346645381
 11
10.441744145
 21
9.2270327995
  0
LINE
  5
2C0
100
AcDbEntity
  8
0
100
AcDbLine
 62
4
  6
CONTINUOUS
 10
10.4748615873
 20
9.3406472005
 11
10.4748615873
 21
9.2578535533
  0
LINE
  5
2C1
100
AcDbEntity
  8
0
100
AcDbLine
 62
4
  6
CONTINUOUS
 10
10.491420344
 20
9.9306454744
 11
10.491420344
 21
9.8147343709
  0
LINE
  5
2C2
100
AcDbEntity
  8
0
100
AcDbLine
 62
4
  6
CONTINUOUS
 10
10.5245377863
 20
9.8289963966
 11
10.5245377863
 21
9.9117900421
  0
LINE
  5
2C3
100
AcDbEntity
  8
0
100
AcDbLine
 62
4
  6
CONTINUOUS
 10
10.5245378061
 20
9.2544084958
 11
10.5245378061
 21
9.3289227782
  0
LINE
  5
2C4
100
AcDbEntity
  8
0
100
AcDbLine
 62
4
  6
CONTINUOUS
 10
10.5576552484
 20
9.3349054406
 11
10.5576552484
 21
9.2686705214
  0
LINE
  5
2C5
100
AcDbEntity
  8
0
100
AcDbLine
 62
4
  6
CONTINUOUS
 10
10.582493338
 20
9.907770811
 11
10.582493338
 21
9.8249771654
  0
LINE
  5
2C6
100
AcDbEntity
  8
0
100
AcDbLine
 62
4
  6
CONTINUOUS
 10
10.6073314119
 20
9.3231810221
 11
10.6073314119
 21
9.2983429274
  0
LINE
  5
2C7
100
AcDbEntity
  8
0
100
AcDbLine
 62
4
  6
CONTINUOUS
 10
10.6252700723
 20
9.624961713
 11
10.6252700723
 21
9.6497998068
  0
LINE
  5
2C8
100
AcDbEntity
  8
0
100
AcDbLine
 62
4
  6
CONTINUOUS
 10
10.6335494328
 20
9.5664319857
 11
10.6335494328
 21
9.5912700812
  0
LINE
  5
2C9
100
AcDbEntity
  8
0
100
AcDbLine
 62
4
  6
CONTINUOUS
 10
10.6432086872
 20
9.2544580097
 11
10.6432086872
 21
9.2710167378
  0
LINE
  5
2CA
100
AcDbEntity
  8
0
100
AcDbLine
 62
4
  6
CONTINUOUS
 10
10.81983512
 20
9.3443210867
 11
10.7867176776
 21
9.2362262599
  0
LINE
  5
2CB
100
AcDbEntity
  8
0
100
AcDbLine
 62
4
  6
CONTINUOUS
 10
11.1510096953
 20
9.29375617
 11
11.1344509741
 21
9.2783457914
  0
LINE
  5
2CC
100
AcDbEntity
  8
0
100
AcDbLine
 62
4
  6
CONTINUOUS
 10
11.2420827101
 20
9.287440235
 11
11.225523982
 21
9.2720298569
  0
LINE
  5
2CD
100
AcDbEntity
  8
0
100
AcDbLine
 62
4
  6
CONTINUOUS
 10
10.6790858874
 20
9.9010720949
 11
10.6790858874
 21
9.8182784494
  0
LINE
  5
2CE
100
AcDbEntity
  8
0
100
AcDbLine
 62
4
  6
CONTINUOUS
 10
10.6818456848
 20
9.3262928046
 11
10.6818456848
 21
9.2434991573
  0
LINE
  5
2CF
100
AcDbEntity
  8
0
100
AcDbLine
 62
4
  6
CONTINUOUS
 10
10.683225624
 20
9.6623393055
 11
10.683225624
 21
9.546428202
  0
LINE
  5
2D0
100
AcDbEntity
  8
0
100
AcDbLine
 62
4
  6
CONTINUOUS
 10
10.7149631824
 20
9.2080849949
 11
10.7149631824
 21
9.3239960984
  0
LINE
  5
2D1
100
AcDbEntity
  8
0
100
AcDbLine
 62
4
  6
CONTINUOUS
 10
10.7163430801
 20
9.6434838723
 11
10.7163430801
 21
9.6269251425
  0
LINE
  5
2D2
100
AcDbEntity
  8
0
100
AcDbLine
 62
4
  6
CONTINUOUS
 10
10.7646393459
 20
9.3122716798
 11
10.7646393459
 21
9.2460367649
  0
LINE
  5
2D3
100
AcDbEntity
  8
0
100
AcDbLine
 62
4
  6
CONTINUOUS
 10
10.7742986318
 20
9.5732297236
 11
10.7742986318
 21
9.5566709956
  0
LINE
  5
2D4
100
AcDbEntity
  8
0
100
AcDbLine
 62
4
  6
CONTINUOUS
 10
11.0516573209
 20
9.8917929081
 11
11.0185398647
 21
9.778178508
  0
LINE
  5
2D5
100
AcDbEntity
  8
0
100
AcDbLine
 62
4
  6
CONTINUOUS
 10
11.2834795337
 20
9.1852169801
 11
11.2669208039
 21
9.1698066039
  0
LINE
  5
2D6
100
AcDbEntity
  8
0
100
AcDbLine
 62
4
  6
CONTINUOUS
 10
11.246843271
 20
6.7080880268
 11
11.254087715
 21
6.678607847
  0
LINE
  5
2D7
100
AcDbEntity
  8
0
100
AcDbLine
 62
4
  6
CONTINUOUS
 10
10.8529525702
 20
9.9055731293
 11
10.8529525702
 21
9.7896620259
  0
LINE
  5
2D8
100
AcDbEntity
  8
0
100
AcDbLine
 62
4
  6
CONTINUOUS
 10
10.8570922791
 20
9.650281612
 11
10.8570922791
 21
9.5343705086
  0
LINE
  5
2D9
100
AcDbEntity
  8
0
100
AcDbLine
 62
4
  6
CONTINUOUS
 10
10.8695113111
 20
9.2387638695
 11
10.8695113111
 21
9.3132781492
  0
LINE
  5
2DA
100
AcDbEntity
  8
0
100
AcDbLine
 62
4
  6
CONTINUOUS
 10
10.9191874825
 20
9.9009797226
 11
10.9191874825
 21
9.7850686191
  0
LINE
  5
2DB
100
AcDbEntity
  8
0
100
AcDbLine
 62
4
  6
CONTINUOUS
 10
10.9191875022
 20
9.3098330937
 11
10.9191875022
 21
9.1939219903
  0
LINE
  5
2DC
100
AcDbEntity
  8
0
100
AcDbLine
 62
4
  6
CONTINUOUS
 10
10.2071621605
 20
9.2764185716
 11
10.1988828275
 21
9.2852721128
  0
LINE
  5
2DD
100
AcDbEntity
  8
0
100
AcDbLine
 62
4
  6
CONTINUOUS
 10
10.5576552484
 20
9.2686705214
 11
10.5659345814
 21
9.2515376197
  0
LINE
  5
2DE
100
AcDbEntity
  8
0
100
AcDbLine
 62
4
  6
CONTINUOUS
 10
11.0433779663
 20
9.3012204558
 11
11.0433779663
 21
9.1853093523
  0
LINE
  5
2DF
100
AcDbEntity
  8
0
100
AcDbLine
 62
4
  6
CONTINUOUS
 10
11.0985737205
 20
9.7891868693
 11
11.0985737205
 21
9.8719805149
  0
LINE
  5
2E0
100
AcDbEntity
  8
0
100
AcDbLine
 62
4
  6
CONTINUOUS
 10
11.101333518
 20
9.2972012246
 11
11.101333518
 21
9.1812901212
  0
LINE
  5
2E1
100
AcDbEntity
  8
0
100
AcDbLine
 62
4
  6
CONTINUOUS
 10
11.1344509741
 20
9.2783457914
 11
11.1344509741
 21
9.1789934178
  0
LINE
  5
2E2
100
AcDbEntity
  8
0
100
AcDbLine
 62
4
  6
CONTINUOUS
 10
11.1565292653
 20
9.884520014
 11
11.1565292653
 21
9.7686089106
  0
LINE
  5
2E3
100
AcDbEntity
  8
0
100
AcDbLine
 62
4
  6
CONTINUOUS
 10
11.1816432754
 20
6.683631886
 11
11.1816432754
 21
6.7222689199
  0
LINE
  5
2E4
100
AcDbEntity
  8
0
100
AcDbLine
 62
4
  6
CONTINUOUS
 10
11.1924065258
 20
9.1749741866
 11
11.1924065258
 21
9.2743265602
  0
LINE
  5
2E5
100
AcDbEntity
  8
0
100
AcDbLine
 62
7
  6
CONTINUOUS
 10
12.4315514647
 20
9.8231429095
 11
12.9491891277
 21
10.3231425265
  0
LINE
  5
2E6
100
AcDbEntity
  8
0
100
AcDbLine
 62
4
  6
CONTINUOUS
 10
10.1988828275
 20
9.3266689329
 11
10.2071621605
 21
9.3205751832
  0
LINE
  5
2E7
100
AcDbEntity
  8
0
100
AcDbLine
 62
4
  6
CONTINUOUS
 10
10.2402796028
 20
9.3127589048
 11
10.2485589358
 21
9.3066651551
  0
LINE
  5
2E8
100
AcDbEntity
  8
0
100
AcDbLine
 62
4
  6
CONTINUOUS
 10
10.2485589358
 20
9.3480619778
 11
10.2402796028
 21
9.3569155164
  0
LINE
  5
2E9
100
AcDbEntity
  8
0
100
AcDbLine
 62
4
  6
CONTINUOUS
 10
10.314793931
 20
9.3517479302
 11
10.3230732639
 21
9.3428943916
  0
LINE
  5
2EA
100
AcDbEntity
  8
0
100
AcDbLine
 62
4
  6
CONTINUOUS
 10
10.4334647568
 20
9.3435180805
 11
10.441744145
 21
9.3346645381
  0
LINE
  5
2EB
100
AcDbEntity
  8
0
100
AcDbLine
 62
4
  6
CONTINUOUS
 10
10.6487282425
 20
9.2457958598
 11
10.6432086872
 21
9.2544580097
  0
LINE
  5
2EC
100
AcDbEntity
  8
0
100
AcDbLine
 62
4
  6
CONTINUOUS
 10
10.8363938411
 20
9.2327812063
 11
10.8115557318
 21
9.3172973823
  0
LINE
  5
2ED
100
AcDbEntity
  8
0
100
AcDbLine
 62
4
  6
CONTINUOUS
 10
11.225523982
 20
9.2720298569
 11
11.225523982
 21
9.2554711271
  0
LINE
  5
2EE
100
AcDbEntity
  8
0
100
AcDbLine
 62
4
  6
CONTINUOUS
 10
11.2834795337
 20
9.2017757082
 11
11.2834795337
 21
9.1852169801
  0
LINE
  5
2EF
100
AcDbEntity
  8
0
100
AcDbLine
 62
4
  6
CONTINUOUS
 10
9.241581235
 20
8.9625311093
 11
9.2922923428
 21
8.9590142821
  0
LINE
  5
2F0
100
AcDbEntity
  8
0
100
AcDbLine
 62
4
  6
CONTINUOUS
 10
9.2922923428
 20
9.0073105775
 11
9.241581235
 21
9.0108274047
  0
LINE
  5
2F1
100
AcDbEntity
  8
0
100
AcDbLine
 62
4
  6
CONTINUOUS
 10
10.5245378061
 20
9.3289227782
 11
10.5162584179
 21
9.3377763206
  0
LINE
  5
2F2
100
AcDbEntity
  8
0
100
AcDbLine
 62
4
  6
CONTINUOUS
 10
11.101333518
 20
9.1812901212
 11
11.0433779663
 21
9.3012204558
  0
LINE
  5
2F3
100
AcDbEntity
  8
0
100
AcDbLine
 62
4
  6
CONTINUOUS
 10
11.0185398647
 20
9.778178508
 11
10.9854223948
 21
9.8963863158
  0
LINE
  5
2F4
100
AcDbEntity
  8
0
100
AcDbLine
 62
4
  6
CONTINUOUS
 10
11.5202004916
 20
9.6738417145
 11
11.5202004916
 21
9.7897528179
  0
LINE
  5
2F5
100
AcDbEntity
  8
0
100
AcDbLine
 62
4
  6
CONTINUOUS
 10
9.2922923428
 20
9.0749253855
 11
9.241581235
 21
9.0784422128
  0
LINE
  5
2F6
100
AcDbEntity
  8
0
100
AcDbLine
 62
4
  6
CONTINUOUS
 10
10.5907726908
 20
9.3326087382
 11
10.6073314119
 21
9.3231810221
  0
LINE
  5
2F7
100
AcDbEntity
  8
0
100
AcDbLine
 62
4
  6
CONTINUOUS
 10
10.7480806247
 20
9.3216993959
 11
10.7646393459
 21
9.3122716798
  0
LINE
  5
2F8
100
AcDbEntity
  8
0
100
AcDbLine
 62
4
  6
CONTINUOUS
 10
10.6501081678
 20
9.5514846969
 11
10.6335494328
 21
9.5664319857
  0
LINE
  5
2F9
100
AcDbEntity
  8
0
100
AcDbLine
 62
4
  6
CONTINUOUS
 10
10.8777906717
 20
9.2299103264
 11
10.8695113111
 21
9.2387638695
  0
LINE
  5
2FA
100
AcDbEntity
  8
0
100
AcDbLine
 62
4
  6
CONTINUOUS
 10
10.6418288072
 20
9.6072546328
 11
10.6252700723
 21
9.624961713
  0
LINE
  5
2FB
100
AcDbEntity
  8
0
100
AcDbLine
 62
4
  6
CONTINUOUS
 10
10.4500235134
 20
9.8176052509
 11
10.4334647923
 21
9.8353123302
  0
LINE
  5
2FC
100
AcDbEntity
  8
0
100
AcDbLine
 62
4
  6
CONTINUOUS
 10
10.7246224407
 20
9.5435573231
 11
10.7163430801
 21
9.5524108662
  0
LINE
  5
2FD
100
AcDbEntity
  8
0
100
AcDbLine
 62
4
  6
CONTINUOUS
 10
10.5410965075
 20
9.8112893173
 11
10.5245377863
 21
9.8289963966
  0
LINE
  5
2FE
100
AcDbEntity
  8
0
100
AcDbLine
 62
4
  6
CONTINUOUS
 10
11.254087715
 20
6.678607847
 11
11.246843271
 21
6.6501324751
  0
LINE
  5
2FF
100
AcDbEntity
  8
0
100
AcDbLine
 62
4
  6
CONTINUOUS
 10
10.3509471303
 20
6.7219223398
 11
10.3581915743
 21
6.7310791991
  0
LINE
  5
300
100
AcDbEntity
  8
0
100
AcDbLine
 62
4
  6
CONTINUOUS
 10
11.2669208039
 20
9.1698066039
 11
11.233803346
 21
9.1721033074
  0
LINE
  5
301
100
AcDbEntity
  8
0
100
AcDbLine
 62
4
  6
CONTINUOUS
 10
10.3672298721
 20
9.2322003819
 11
10.3644700945
 21
9.2323917731
  0
LINE
  5
302
100
AcDbEntity
  8
0
100
AcDbLine
 62
4
  6
CONTINUOUS
 10
10.9191875022
 20
9.2270394464
 11
10.8777906717
 21
9.2299103264
  0
LINE
  5
303
100
AcDbEntity
  8
0
100
AcDbLine
 62
4
  6
CONTINUOUS
 10
10.7480806247
 20
9.2389057487
 11
10.7149631824
 21
9.2412024511
  0
LINE
  5
304
100
AcDbEntity
  8
0
100
AcDbLine
 62
4
  6
CONTINUOUS
 10
10.6818456848
 20
9.2434991573
 11
10.6487282425
 21
9.2457958598
  0
LINE
  5
305
100
AcDbEntity
  8
0
100
AcDbLine
 62
4
  6
CONTINUOUS
 10
10.314793931
 20
9.2689542829
 11
10.2816763781
 21
9.271250993
  0
LINE
  5
306
100
AcDbEntity
  8
0
100
AcDbLine
 62
4
  6
CONTINUOUS
 10
10.2402796028
 20
9.2741218691
 11
10.2071621605
 21
9.2764185716
  0
LINE
  5
307
100
AcDbEntity
  8
0
100
AcDbLine
 62
4
  6
CONTINUOUS
 10
10.5659345814
 20
9.2515376197
 11
10.6073314119
 21
9.2486667397
  0
LINE
  5
308
100
AcDbEntity
  8
0
100
AcDbLine
 62
4
  6
CONTINUOUS
 10
10.5907726908
 20
9.2912119146
 11
10.5576552484
 21
9.293508617
  0
LINE
  5
309
100
AcDbEntity
  8
0
100
AcDbLine
 62
4
  6
CONTINUOUS
 10
10.2071621605
 20
9.3205751832
 11
10.2402796028
 21
9.3127589048
  0
LINE
  5
30A
100
AcDbEntity
  8
0
100
AcDbLine
 62
4
  6
CONTINUOUS
 10
10.7163430801
 20
9.6269251425
 11
10.7742986318
 21
9.5732297236
  0
LINE
  5
30B
100
AcDbEntity
  8
0
100
AcDbLine
 62
4
  6
CONTINUOUS
 10
11.225523982
 20
9.2554711271
 11
11.2834795337
 21
9.2017757082
  0
LINE
  5
30C
100
AcDbEntity
  8
0
100
AcDbLine
 62
4
  6
CONTINUOUS
 10
10.7742986318
 20
9.647744006
 11
10.7660192713
 21
9.6565975465
  0
LINE
  5
30D
100
AcDbEntity
  8
0
100
AcDbLine
 62
4
  6
CONTINUOUS
 10
11.233803346
 20
9.1721033074
 11
11.225523982
 21
9.1809568507
  0
LINE
  5
30E
100
AcDbEntity
  8
0
100
AcDbLine
 62
4
  6
CONTINUOUS
 10
10.5659346169
 20
9.925477892
 11
10.582493338
 21
9.907770811
  0
LINE
  5
30F
100
AcDbEntity
  8
0
100
AcDbLine
 62
4
  6
CONTINUOUS
 10
11.1924065258
 20
9.2743265602
 11
11.1758477978
 21
9.2920336417
  0
LINE
  5
310
100
AcDbEntity
  8
0
100
AcDbLine
 62
4
  6
CONTINUOUS
 10
10.6625271662
 20
9.9187791759
 11
10.6790858874
 21
9.9010720949
  0
LINE
  5
311
100
AcDbEntity
  8
0
100
AcDbLine
 62
4
  6
CONTINUOUS
 10
11.2834795337
 20
9.2762899906
 11
11.2752001688
 21
9.2851435314
  0
LINE
  5
312
100
AcDbEntity
  8
0
100
AcDbLine
 62
4
  6
CONTINUOUS
 10
11.2752001688
 20
9.2851435314
 11
11.2420827101
 21
9.287440235
  0
LINE
  5
313
100
AcDbEntity
  8
0
100
AcDbLine
 62
4
  6
CONTINUOUS
 10
11.1758477978
 20
9.2920336417
 11
11.1510096953
 21
9.29375617
  0
LINE
  5
314
100
AcDbEntity
  8
0
100
AcDbLine
 62
4
  6
CONTINUOUS
 10
10.5162584179
 20
9.3377763206
 11
10.4748615873
 21
9.3406472005
  0
LINE
  5
315
100
AcDbEntity
  8
0
100
AcDbLine
 62
4
  6
CONTINUOUS
 10
10.2402796028
 20
9.3569155164
 11
10.2071621605
 21
9.3592122189
  0
LINE
  5
316
100
AcDbEntity
  8
0
100
AcDbLine
 62
4
  6
CONTINUOUS
 10
10.2816763781
 20
9.3540446403
 11
10.314793931
 21
9.3517479302
  0
LINE
  5
317
100
AcDbEntity
  8
0
100
AcDbLine
 62
4
  6
CONTINUOUS
 10
10.4169060356
 20
9.3446664317
 11
10.4334647568
 21
9.3435180805
  0
LINE
  5
318
100
AcDbEntity
  8
0
100
AcDbLine
 62
4
  6
CONTINUOUS
 10
10.5576552484
 20
9.3349054406
 11
10.5907726908
 21
9.3326087382
  0
LINE
  5
319
100
AcDbEntity
  8
0
100
AcDbLine
 62
4
  6
CONTINUOUS
 10
10.7149631824
 20
9.3239960984
 11
10.7480806247
 21
9.3216993959
  0
LINE
  5
31A
100
AcDbEntity
  8
0
100
AcDbLine
 62
4
  6
CONTINUOUS
 10
10.8363938411
 20
9.3431727354
 11
10.81983512
 21
9.3443210867
  0
LINE
  5
31B
100
AcDbEntity
  8
0
100
AcDbLine
 62
4
  6
CONTINUOUS
 10
10.6583875284
 20
9.5481507298
 11
10.6501081678
 21
9.5514846969
  0
LINE
  5
31C
100
AcDbEntity
  8
0
100
AcDbLine
 62
4
  6
CONTINUOUS
 10
10.3037547453
 20
9.8719056326
 11
10.2595981371
 21
9.8970462113
  0
LINE
  5
31D
100
AcDbEntity
  8
0
100
AcDbLine
 62
4
  6
CONTINUOUS
 10
11.1151324486
 20
9.7714797896
 11
11.0985737205
 21
9.7891868693
  0
LINE
  5
31E
100
AcDbEntity
  8
0
100
AcDbLine
 62
4
  6
CONTINUOUS
 10
10.8570922791
 20
9.5343705086
 11
10.8074160914
 21
9.5378155639
  0
LINE
  5
31F
100
AcDbEntity
  8
0
100
AcDbLine
 62
4
  6
CONTINUOUS
 10
10.7577399038
 20
9.5412606192
 11
10.7246224407
 21
9.5435573231
  0
LINE
  5
320
100
AcDbEntity
  8
0
100
AcDbLine
 62
4
  6
CONTINUOUS
 10
10.683225624
 20
9.546428202
 11
10.6583875284
 21
9.5481507298
  0
LINE
  5
321
100
AcDbEntity
  8
0
100
AcDbLine
 62
4
  6
CONTINUOUS
 10
10.8074160914
 20
9.5874917481
 11
10.8570922791
 21
9.5840466928
  0
LINE
  5
322
100
AcDbEntity
  8
0
100
AcDbLine
 62
4
  6
CONTINUOUS
 10
10.6418288072
 20
9.6072546328
 11
10.683225624
 21
9.6043837538
  0
LINE
  5
323
100
AcDbEntity
  8
0
100
AcDbLine
 62
4
  6
CONTINUOUS
 10
10.7660192713
 20
9.6565975465
 11
10.7329018151
 21
9.6588942499
  0
LINE
  5
324
100
AcDbEntity
  8
0
100
AcDbLine
 62
4
  6
CONTINUOUS
 10
10.6418288072
 20
9.6652101845
 11
10.683225624
 21
9.6623393055
  0
LINE
  5
325
100
AcDbEntity
  8
0
100
AcDbLine
 62
4
  6
CONTINUOUS
 10
11.1816432754
 20
6.7222689199
 11
11.1888877193
 21
6.7314257749
  0
LINE
  5
326
100
AcDbEntity
  8
0
100
AcDbLine
 62
4
  6
CONTINUOUS
 10
11.246843271
 20
6.6501324751
 11
11.2323543831
 21
6.6318187633
  0
LINE
  5
327
100
AcDbEntity
  8
0
100
AcDbLine
 62
4
  6
CONTINUOUS
 10
10.3581915743
 20
6.7310791991
 11
10.3726804622
 21
6.7397336476
  0
LINE
  5
328
100
AcDbEntity
  8
0
100
AcDbLine
 62
4
  6
CONTINUOUS
 10
11.5564227114
 20
9.671329695
 11
11.4839782717
 21
9.6763537339
  0
LINE
  5
329
100
AcDbEntity
  8
0
100
AcDbLine
 62
4
  6
CONTINUOUS
 10
11.1565292653
 20
9.7686089106
 11
11.1151324486
 21
9.7714797896
  0
LINE
  5
32A
100
AcDbEntity
  8
0
100
AcDbLine
 62
4
  6
CONTINUOUS
 10
10.9523049524
 20
9.7827719148
 11
10.8860700401
 21
9.7873653216
  0
LINE
  5
32B
100
AcDbEntity
  8
0
100
AcDbLine
 62
4
  6
CONTINUOUS
 10
10.8529525702
 20
9.7896620259
 11
10.803276379
 21
9.7931070815
  0
LINE
  5
32C
100
AcDbEntity
  8
0
100
AcDbLine
 62
4
  6
CONTINUOUS
 10
10.6625271662
 20
9.8028680725
 11
10.6294097239
 21
9.8051647749
  0
LINE
  5
32D
100
AcDbEntity
  8
0
100
AcDbLine
 62
4
  6
CONTINUOUS
 10
10.5659346169
 20
9.8095667886
 11
10.5410965075
 21
9.8112893173
  0
LINE
  5
32E
100
AcDbEntity
  8
0
100
AcDbLine
 62
4
  6
CONTINUOUS
 10
10.491420344
 20
9.8147343709
 11
10.4500235134
 21
9.8176052509
  0
LINE
  5
32F
100
AcDbEntity
  8
0
100
AcDbLine
 62
4
  6
CONTINUOUS
 10
10.3865483511
 20
9.8220072683
 11
10.3368721876
 21
9.825452322
  0
LINE
  5
330
100
AcDbEntity
  8
0
100
AcDbLine
 62
4
  6
CONTINUOUS
 10
10.3534309088
 20
9.873980155
 11
10.3865483511
 21
9.8716834526
  0
LINE
  5
331
100
AcDbEntity
  8
0
100
AcDbLine
 62
4
  6
CONTINUOUS
 10
10.8198351002
 20
9.8416349145
 11
10.8529525702
 21
9.8393382101
  0
LINE
  5
332
100
AcDbEntity
  8
0
100
AcDbLine
 62
4
  6
CONTINUOUS
 10
11.2227641846
 20
9.8302504191
 11
11.1786075729
 21
9.8553909963
  0
LINE
  5
333
100
AcDbEntity
  8
0
100
AcDbLine
 62
7
  6
CONTINUOUS
 10
12.4315514647
 20
9.8231429095
 11
12.4315514647
 21
6.4424023171
  0
LINE
  5
334
100
AcDbEntity
  8
0
100
AcDbLine
 62
4
  6
CONTINUOUS
 10
11.0406181688
 20
9.8594410163
 11
10.9964615606
 21
9.8625032874
  0
LINE
  5
335
100
AcDbEntity
  8
0
100
AcDbLine
 62
4
  6
CONTINUOUS
 10
10.8529525702
 20
9.9055731293
 11
10.803276379
 21
9.9090181849
  0
LINE
  5
336
100
AcDbEntity
  8
0
100
AcDbLine
 62
4
  6
CONTINUOUS
 10
10.3865483511
 20
9.9379183718
 11
10.3368721876
 21
9.9413634254
  0
LINE
  5
337
100
AcDbEntity
  8
0
100
AcDbLine
 62
4
  6
CONTINUOUS
 10
10.4500235134
 20
9.9335163543
 11
10.491420344
 21
9.9306454744
  0
LINE
  5
338
100
AcDbEntity
  8
0
100
AcDbLine
 62
4
  6
CONTINUOUS
 10
10.5410965075
 20
9.9272004207
 11
10.5659346169
 21
9.925477892
  0
LINE
  5
339
100
AcDbEntity
  8
0
100
AcDbLine
 62
4
  6
CONTINUOUS
 10
10.6294097239
 20
9.9210758784
 11
10.6625271662
 21
9.9187791759
  0
LINE
  5
33A
100
AcDbEntity
  8
0
100
AcDbLine
 62
4
  6
CONTINUOUS
 10
11.1151324486
 20
9.887390893
 11
11.1565292653
 21
9.884520014
  0
LINE
  5
33B
100
AcDbEntity
  8
0
100
AcDbLine
 62
7
  6
CONTINUOUS
 10
9.0508108723
 20
10.0575980659
 11
12.4315514647
 21
9.8231429095
  0
LINE
  5
33C
100
AcDbEntity
  8
0
100
AcDbLine
 62
4
  6
CONTINUOUS
 10
11.1888877193
 20
6.7314257749
 11
11.2033766072
 21
6.740080226
  0
LINE
  5
33D
100
AcDbEntity
  8
0
100
AcDbLine
 62
4
  6
CONTINUOUS
 10
11.2323543831
 20
6.6318187633
 11
11.2178654952
 21
6.6231643148
  0
LINE
  5
33E
100
AcDbEntity
  8
0
100
AcDbLine
 62
7
  6
CONTINUOUS
 10
12.9491891277
 20
10.3231425265
 11
12.9491891277
 21
6.9424019341
  0
LINE
  5
33F
100
AcDbEntity
  8
0
100
AcDbLine
 62
7
  6
CONTINUOUS
 10
9.5684485353
 20
10.5575976829
 11
12.9491891277
 21
10.3231425265
  0
LINE
  5
340
100
AcDbEntity
  8
0
100
AcDbLine
 62
7
  6
CONTINUOUS
 10
12.4315514647
 20
6.4424023171
 11
12.9491891277
 21
6.9424019341
  0
ARC
  5
341
100
AcDbEntity
  8
0
100
AcDbCircle
 62
7
  6
CONTINUOUS
 10
10.8998840847
 20
8.0437146499
 40
0.1347052891
100
AcDbArc
 50
248.6390477131
 51
261.324305314
  0
ARC
  5
342
100
AcDbEntity
  8
0
100
AcDbCircle
 62
7
  6
CONTINUOUS
 10
10.8959351772
 20
8.0406207271
 40
0.1304094323
100
AcDbArc
 50
223.9125124965
 51
249.7597666007
  0
ARC
  5
343
100
AcDbEntity
  8
0
100
AcDbCircle
 62
7
  6
CONTINUOUS
 10
10.8947040584
 20
8.0393177123
 40
0.1286169696
100
AcDbArc
 50
218.5888154194
 51
223.8747193564
  0
ARC
  5
344
100
AcDbEntity
  8
0
100
AcDbCircle
 62
7
  6
CONTINUOUS
 10
10.8932638501
 20
8.0351765991
 40
0.1238305071
100
AcDbArc
 50
217.9882854481
 51
222.968653505
  0
SPLINE
  5
345
100
AcDbEntity
  8
0
100
AcDbSpline
 62
7
  6
CONTINUOUS
 70
0
 71
3
 72
41
 73
37
 74
0
 42
0.0000001
 43
0.0000001
 44
0.0000000001
 40
0.0
 40
0.0
 40
0.0
 40
0.0
 40
0.0311444983
 40
0.062442467
 40
0.093887251
 40
0.1254695609
 40
0.157177086
 40
0.1889950997
 40
0.2209066479
 40
0.2528929497
 40
0.284933762
 40
0.3170077852
 40
0.3490930781
 40
0.3811674822
 40
0.4132090489
 40
0.445196464
 40
0.4771094635
 40
0.5089292351
 40
0.540638799
 40
0.5722233621
 40
0.6036706378
 40
0.6349711269
 40
0.6661183495
 40
0.6971090237
 40
0.7279431823
 40
0.7586242225
 40
0.7891588828
 40
0.8195571428
 40
0.8498320452
 40
0.86493089
 40
0.8800050502
 40
0.9100832578
 40
0.9400926753
 40
0.9550812784
 40
0.9700610371
 40
1.0
 40
1.0
 40
1.0
 40
1.0
 10
9.3714982535
 20
7.1110176959
 30
0.0
 10
9.374812201
 20
7.1107878728
 30
0.0
 10
9.381442069
 20
7.1100845201
 30
0.0
 10
9.3913064859
 20
7.108312789
 30
0.0
 10
9.4010652604
 20
7.1058310858
 30
0.0
 10
9.410665654
 20
7.1026528107
 30
0.0
 10
9.4200566887
 20
7.0987949643
 30
0.0
 10
9.4291882637
 20
7.0942781985
 30
0.0
 10
9.4380117349
 20
7.0891266445
 30
0.0
 10
9.446480086
 20
7.0833678102
 30
0.0
 10
9.4545481977
 20
7.0770324237
 30
0.0
 10
9.4621730801
 20
7.0701542744
 30
0.0
 10
9.4693141002
 20
7.0627700326
 30
0.0
 10
9.4759331962
 20
7.0549190569
 30
0.0
 10
9.4819950783
 20
7.0466431858
 30
0.0
 10
9.4874674148
 20
7.0379865172
 30
0.0
 10
9.4923210039
 20
7.0289951762
 30
0.0
 10
9.4965299275
 20
7.019717072
 30
0.0
 10
9.5000716898
 20
7.0102016456
 30
0.0
 10
9.5029273366
 20
7.0004996103
 30
0.0
 10
9.5050815575
 20
6.9906626844
 30
0.0
 10
9.5065227694
 20
6.9807433198
 30
0.0
 10
9.5072431798
 20
6.9707944251
 30
0.0
 10
9.507238834
 20
6.9608690896
 30
0.0
 10
9.5065096345
 20
6.9510202931
 30
0.0
 10
9.5050593672
 20
6.9413006629
 30
0.0
 10
9.5028956146
 20
6.9317620526
 30
0.0
 10
9.5000299906
 20
6.92245579
 30
0.0
 10
9.4970664406
 20
6.9149275671
 30
0.0
 10
9.4943620573
 20
6.9090732006
 30
0.0
 10
9.4914434852
 20
6.9033461341
 30
0.0
 10
9.4873912259
 20
6.8964189371
 30
0.0
 10
9.4828177655
 20
6.8898352575
 30
0.0
 10
9.4788656277
 20
6.8848028484
 30
0.0
 10
9.4747249472
 20
6.8799347036
 30
0.0
 10
9.4714075509
 20
6.8764689829
 30
0.0
 10
9.469110746
 20
6.8742504245
 30
0.0
  0
SPLINE
  5
346
100
AcDbEntity
  8
0
100
AcDbSpline
 62
7
  6
CONTINUOUS
 70
0
 71
3
 72
41
 73
37
 74
0
 42
0.0000001
 43
0.0000001
 44
0.0000000001
 40
0.0
 40
0.0
 40
0.0
 40
0.0
 40
0.0311444983
 40
0.062442467
 40
0.093887251
 40
0.1254695609
 40
0.157177086
 40
0.1889950997
 40
0.2209066479
 40
0.2528929497
 40
0.284933762
 40
0.3170077852
 40
0.3490930781
 40
0.3811674822
 40
0.4132090489
 40
0.445196464
 40
0.4771094635
 40
0.5089292351
 40
0.540638799
 40
0.5722233621
 40
0.6036706378
 40
0.6349711269
 40
0.6661183495
 40
0.6971090237
 40
0.7279431823
 40
0.7586242225
 40
0.7891588828
 40
0.8195571428
 40
0.8498320452
 40
0.86493089
 40
0.8800050502
 40
0.9100832578
 40
0.9400926753
 40
0.9550812784
 40
0.9700610371
 40
1.0
 40
1.0
 40
1.0
 40
1.0
 10
12.1108640547
 20
6.9210420323
 30
0.0
 10
12.1141780023
 20
6.9208122093
 30
0.0
 10
12.1208078703
 20
6.9201088565
 30
0.0
 10
12.1306722872
 20
6.9183371255
 30
0.0
 10
12.1404310617
 20
6.9158554222
 30
0.0
 10
12.1500314553
 20
6.9126771472
 30
0.0
 10
12.15942249
 20
6.9088193008
 30
0.0
 10
12.168554065
 20
6.904302535
 30
0.0
 10
12.1773775362
 20
6.8991509809
 30
0.0
 10
12.1858458873
 20
6.8933921467
 30
0.0
 10
12.193913999
 20
6.8870567602
 30
0.0
 10
12.2015388814
 20
6.8801786108
 30
0.0
 10
12.2086799015
 20
6.872794369
 30
0.0
 10
12.2152989975
 20
6.8649433933
 30
0.0
 10
12.2213608796
 20
6.8566675222
 30
0.0
 10
12.2268332161
 20
6.8480108536
 30
0.0
 10
12.2316868052
 20
6.8390195126
 30
0.0
 10
12.2358957288
 20
6.8297414084
 30
0.0
 10
12.2394374911
 20
6.8202259821
 30
0.0
 10
12.2422931379
 20
6.8105239468
 30
0.0
 10
12.2444473588
 20
6.8006870209
 30
0.0
 10
12.2458885707
 20
6.7907676563
 30
0.0
 10
12.2466089811
 20
6.7808187615
 30
0.0
 10
12.2466046353
 20
6.770893426
 30
0.0
 10
12.2458754358
 20
6.7610446295
 30
0.0
 10
12.2444251685
 20
6.7513249993
 30
0.0
 10
12.2422614159
 20
6.7417863891
 30
0.0
 10
12.2393957919
 20
6.7324801264
 30
0.0
 10
12.2364322419
 20
6.7249519036
 30
0.0
 10
12.2337278586
 20
6.7190975371
 30
0.0
 10
12.2308092865
 20
6.7133704706
 30
0.0
 10
12.2267570272
 20
6.7064432735
 30
0.0
 10
12.2221835668
 20
6.699859594
 30
0.0
 10
12.218231429
 20
6.6948271848
 30
0.0
 10
12.2140907484
 20
6.68995904
 30
0.0
 10
12.2107733522
 20
6.6864933193
 30
0.0
 10
12.2084765473
 20
6.6842747609
 30
0.0
  0
SPLINE
  5
347
100
AcDbEntity
  8
0
100
AcDbSpline
 62
7
  6
CONTINUOUS
 70
0
 71
3
 72
41
 73
37
 74
0
 42
0.0000001
 43
0.0000001
 44
0.0000000001
 40
0.0
 40
0.0
 40
0.0
 40
0.0
 40
0.0311444983
 40
0.062442467
 40
0.093887251
 40
0.1254695609
 40
0.157177086
 40
0.1889950997
 40
0.2209066479
 40
0.2528929497
 40
0.284933762
 40
0.3170077852
 40
0.3490930781
 40
0.3811674822
 40
0.4132090489
 40
0.445196464
 40
0.4771094635
 40
0.5089292351
 40
0.540638799
 40
0.5722233621
 40
0.6036706378
 40
0.6349711269
 40
0.6661183495
 40
0.6971090237
 40
0.7279431823
 40
0.7586242225
 40
0.7891588828
 40
0.8195571428
 40
0.8498320452
 40
0.86493089
 40
0.8800050502
 40
0.9100832578
 40
0.9400926753
 40
0.9550812784
 40
0.9700610371
 40
1.0
 40
1.0
 40
1.0
 40
1.0
 10
12.1108640547
 20
9.6604078336
 30
0.0
 10
12.1141780023
 20
9.6601780106
 30
0.0
 10
12.1208078703
 20
9.6594746578
 30
0.0
 10
12.1306722872
 20
9.6577029268
 30
0.0
 10
12.1404310617
 20
9.6552212235
 30
0.0
 10
12.1500314553
 20
9.6520429484
 30
0.0
 10
12.15942249
 20
9.648185102
 30
0.0
 10
12.168554065
 20
9.6436683362
 30
0.0
 10
12.1773775362
 20
9.6385167822
 30
0.0
 10
12.1858458873
 20
9.632757948
 30
0.0
 10
12.193913999
 20
9.6264225615
 30
0.0
 10
12.2015388814
 20
9.6195444121
 30
0.0
 10
12.2086799015
 20
9.6121601703
 30
0.0
 10
12.2152989975
 20
9.6043091946
 30
0.0
 10
12.2213608796
 20
9.5960333235
 30
0.0
 10
12.2268332161
 20
9.5873766549
 30
0.0
 10
12.2316868052
 20
9.5783853139
 30
0.0
 10
12.2358957288
 20
9.5691072097
 30
0.0
 10
12.2394374911
 20
9.5595917834
 30
0.0
 10
12.2422931379
 20
9.5498897481
 30
0.0
 10
12.2444473588
 20
9.5400528222
 30
0.0
 10
12.2458885707
 20
9.5301334576
 30
0.0
 10
12.2466089811
 20
9.5201845628
 30
0.0
 10
12.2466046353
 20
9.5102592273
 30
0.0
 10
12.2458754358
 20
9.5004104308
 30
0.0
 10
12.2444251685
 20
9.4906908006
 30
0.0
 10
12.2422614159
 20
9.4811521903
 30
0.0
 10
12.2393957919
 20
9.4718459277
 30
0.0
 10
12.2364322419
 20
9.4643177049
 30
0.0
 10
12.2337278586
 20
9.4584633384
 30
0.0
 10
12.2308092865
 20
9.4527362719
 30
0.0
 10
12.2267570272
 20
9.4458090748
 30
0.0
 10
12.2221835668
 20
9.4392253953
 30
0.0
 10
12.218231429
 20
9.4341929861
 30
0.0
 10
12.2140907484
 20
9.4293248413
 30
0.0
 10
12.2107733522
 20
9.4258591206
 30
0.0
 10
12.2084765473
 20
9.4236405622
 30
0.0
  0
SPLINE
  5
348
100
AcDbEntity
  8
0
100
AcDbSpline
 62
7
  6
CONTINUOUS
 70
0
 71
3
 72
41
 73
37
 74
0
 42
0.0000001
 43
0.0000001
 44
0.0000000001
 40
0.0
 40
0.0
 40
0.0
 40
0.0
 40
0.0311444983
 40
0.062442467
 40
0.093887251
 40
0.1254695609
 40
0.157177086
 40
0.1889950997
 40
0.2209066479
 40
0.2528929497
 40
0.284933762
 40
0.3170077852
 40
0.3490930781
 40
0.3811674822
 40
0.4132090489
 40
0.445196464
 40
0.4771094635
 40
0.5089292351
 40
0.540638799
 40
0.5722233621
 40
0.6036706378
 40
0.6349711269
 40
0.6661183495
 40
0.6971090237
 40
0.7279431823
 40
0.7586242225
 40
0.7891588828
 40
0.8195571428
 40
0.8498320452
 40
0.86493089
 40
0.8800050502
 40
0.9100832578
 40
0.9400926753
 40
0.9550812784
 40
0.9700610371
 40
1.0
 40
1.0
 40
1.0
 40
1.0
 10
9.3714982535
 20
9.8503834972
 30
0.0
 10
9.374812201
 20
9.8501536741
 30
0.0
 10
9.381442069
 20
9.8494503214
 30
0.0
 10
9.3913064859
 20
9.8476785903
 30
0.0
 10
9.4010652604
 20
9.845196887
 30
0.0
 10
9.410665654
 20
9.842018612
 30
0.0
 10
9.4200566887
 20
9.8381607656
 30
0.0
 10
9.4291882637
 20
9.8336439998
 30
0.0
 10
9.4380117349
 20
9.8284924458
 30
0.0
 10
9.446480086
 20
9.8227336115
 30
0.0
 10
9.4545481977
 20
9.816398225
 30
0.0
 10
9.4621730801
 20
9.8095200757
 30
0.0
 10
9.4693141002
 20
9.8021358339
 30
0.0
 10
9.4759331962
 20
9.7942848582
 30
0.0
 10
9.4819950783
 20
9.7860089871
 30
0.0
 10
9.4874674148
 20
9.7773523185
 30
0.0
 10
9.4923210039
 20
9.7683609775
 30
0.0
 10
9.4965299275
 20
9.7590828733
 30
0.0
 10
9.5000716898
 20
9.7495674469
 30
0.0
 10
9.5029273366
 20
9.7398654116
 30
0.0
 10
9.5050815575
 20
9.7300284857
 30
0.0
 10
9.5065227694
 20
9.7201091211
 30
0.0
 10
9.5072431798
 20
9.7101602264
 30
0.0
 10
9.507238834
 20
9.7002348909
 30
0.0
 10
9.5065096345
 20
9.6903860943
 30
0.0
 10
9.5050593672
 20
9.6806664642
 30
0.0
 10
9.5028956146
 20
9.6711278539
 30
0.0
 10
9.5000299906
 20
9.6618215913
 30
0.0
 10
9.4970664406
 20
9.6542933684
 30
0.0
 10
9.4943620573
 20
9.6484390019
 30
0.0
 10
9.4914434852
 20
9.6427119354
 30
0.0
 10
9.4873912259
 20
9.6357847384
 30
0.0
 10
9.4828177655
 20
9.6292010588
 30
0.0
 10
9.4788656277
 20
9.6241686497
 30
0.0
 10
9.4747249472
 20
9.6193005049
 30
0.0
 10
9.4714075509
 20
9.6158347842
 30
0.0
 10
9.469110746
 20
9.6136162258
 30
0.0
  0
SPLINE
  5
349
100
AcDbEntity
  8
0
100
AcDbSpline
 62
7
  6
CONTINUOUS
 70
0
 71
3
 72
37
 73
33
 74
0
 42
0.0000001
 43
0.0000001
 44
0.0000000001
 40
0.0
 40
0.0
 40
0.0
 40
0.0
 40
0.031146624
 40
0.0624481919
 40
0.0938952571
 40
0.1254804469
 40
0.1571906758
 40
0.1890114524
 40
0.2209257687
 40
0.25291484
 40
0.2849584237
 40
0.3170352183
 40
0.381163152
 40
0.4451601237
 40
0.4770758719
 40
0.5088983814
 40
0.5406106743
 40
0.5721979571
 40
0.6036479386
 40
0.6349511145
 40
0.6661010055
 40
0.697094333
 40
0.7279311336
 40
0.7586148063
 40
0.7891520874
 40
0.819552954
 40
0.8498304507
 40
0.8800004308
 40
0.9100812223
 40
0.9400932249
 40
0.9700584477
 40
1.0
 40
1.0
 40
1.0
 40
1.0
 10
11.2241441103
 20
7.672690294
 30
0.0
 10
11.2259838616
 20
7.6725627068
 30
0.0
 10
11.229664543
 20
7.6721722088
 30
0.0
 10
11.2351409128
 20
7.6711886377
 30
0.0
 10
11.2405586583
 20
7.6698108325
 30
0.0
 10
11.2458884375
 20
7.6680463871
 30
0.0
 10
11.251102005
 20
7.6659046306
 30
0.0
 10
11.2561715215
 20
7.6633970815
 30
0.0
 10
11.2610699958
 20
7.6605370928
 30
0.0
 10
11.2657712719
 20
7.6573400118
 30
0.0
 10
11.2702505095
 20
7.653822661
 30
0.0
 10
11.2758926285
 20
7.6487332236
 30
0.0
 10
11.2822720366
 20
7.6416712284
 30
0.0
 10
11.2876254345
 20
7.6338141086
 30
0.0
 10
11.2912202637
 20
7.6271542289
 30
0.0
 10
11.2935569817
 20
7.6220031861
 30
0.0
 10
11.2955231704
 20
7.6167205917
 30
0.0
 10
11.2971084889
 20
7.6113343483
 30
0.0
 10
11.2983043803
 20
7.6058732337
 30
0.0
 10
11.2991044274
 20
7.6003663515
 30
0.0
 10
11.2995043089
 20
7.5948430819
 30
0.0
 10
11.2995018329
 20
7.5893328954
 30
0.0
 10
11.2990969475
 20
7.5838652078
 30
0.0
 10
11.2982917454
 20
7.5784692223
 30
0.0
 10
11.2970904541
 20
7.5731737774
 30
0.0
 10
11.2954994268
 20
7.5680071894
 30
0.0
 10
11.2935271195
 20
7.562997098
 30
0.0
 10
11.2911840235
 20
7.5581703115
 30
0.0
 10
11.2884826518
 20
7.5535526948
 30
0.0
 10
11.2854373378
 20
7.5491689032
 30
0.0
 10
11.282064668
 20
7.5450427137
 30
0.0
 10
11.2796089012
 20
7.5424773366
 30
0.0
 10
11.2783337862
 20
7.5412456841
 30
0.0
  0
SPLINE
  5
34A
100
AcDbEntity
  8
0
100
AcDbSpline
 62
7
  6
CONTINUOUS
 70
0
 71
3
 72
31
 73
27
 74
0
 42
0.0000001
 43
0.0000001
 44
0.0000000001
 40
0.0
 40
0.0
 40
0.0
 40
0.0
 40
0.0327356707
 40
0.0653802138
 40
0.0979116937
 40
0.1303124798
 40
0.1625699567
 40
0.1946765521
 40
0.2266294165
 40
0.2584298612
 40
0.2900826137
 40
0.3215950425
 40
0.3529763909
 40
0.3842370838
 40
0.4153883208
 40
0.4464418017
 40
0.5082794995
 40
0.569864136
 40
0.6312783036
 40
0.6925974207
 40
0.7538898512
 40
0.7845531233
 40
0.8152327444
 40
0.8766551666
 40
0.9382266456
 40
1.0
 40
1.0
 40
1.0
 40
1.0
 10
10.3142999856
 20
8.1917198629
 30
0.0
 10
10.3128039688
 20
8.1939601453
 30
0.0
 10
10.3099875203
 20
8.1985517548
 30
0.0
 10
10.3063142337
 20
8.2057315828
 30
0.0
 10
10.3032139018
 20
8.2131472793
 30
0.0
 10
10.3006963237
 20
8.2207465844
 30
0.0
 10
10.2987626147
 20
8.228478684
 30
0.0
 10
10.2974066509
 20
8.2362949386
 30
0.0
 10
10.2966161303
 20
8.2441502584
 30
0.0
 10
10.2963739537
 20
8.2520037658
 30
0.0
 10
10.2966595533
 20
8.2598191404
 30
0.0
 10
10.2974501018
 20
8.2675646071
 30
0.0
 10
10.2987215506
 20
8.2752127282
 30
0.0
 10
10.3004493894
 20
8.2827399256
 30
0.0
 10
10.3026094424
 20
8.2901264399
 30
0.0
 10
10.3060285258
 20
8.2997492246
 30
0.0
 10
10.3112681263
 20
8.3113604678
 30
0.0
 10
10.318937586
 20
8.3245246495
 30
0.0
 10
10.3278340211
 20
8.3368384442
 30
0.0
 10
10.33782637
 20
8.3482453492
 30
0.0
 10
10.3469729064
 20
8.3569568262
 30
0.0
 10
10.3547254632
 20
8.3634220058
 30
0.0
 10
10.3627606178
 20
8.3695500613
 30
0.0
 10
10.3733061921
 20
8.3765606452
 30
0.0
 10
10.386658139
 20
8.3838706266
 30
0.0
 10
10.3959611823
 20
8.3879679139
 30
0.0
 10
10.400698069
 20
8.3898126678
 30
0.0
  0
SPLINE
  5
34B
100
AcDbEntity
  8
0
100
AcDbSpline
 62
7
  6
CONTINUOUS
 70
0
 71
3
 72
15
 73
11
 74
0
 42
0.0000001
 43
0.0000001
 44
0.0000000001
 40
0.0
 40
0.0
 40
0.0
 40
0.0
 40
0.1266936983
 40
0.2528686031
 40
0.3785207723
 40
0.5036798165
 40
0.628369457
 40
0.7526243637
 40
0.8764856181
 40
1.0
 40
1.0
 40
1.0
 40
1.0
 10
10.9082272158
 20
7.8307946181
 30
0.0
 10
10.9082272158
 20
7.8283887923
 30
0.0
 10
10.9080824862
 20
7.8235856981
 30
0.0
 10
10.9074290457
 20
7.8164233326
 30
0.0
 10
10.9063419478
 20
7.8093430122
 30
0.0
 10
10.9048254689
 20
7.8023709607
 30
0.0
 10
10.9028851919
 20
7.7955323014
 30
0.0
 10
10.9005284298
 20
7.7888517723
 30
0.0
 10
10.8977642264
 20
7.7823537999
 30
0.0
 10
10.8956536177
 20
7.7781529774
 30
0.0
 10
10.8945343941
 20
7.7760917915
 30
0.0
  0
SPLINE
  5
34C
100
AcDbEntity
  8
0
100
AcDbSpline
 62
7
  6
CONTINUOUS
 70
0
 71
3
 72
28
 73
24
 74
0
 42
0.0000001
 43
0.0000001
 44
0.0000000001
 40
0.0
 40
0.0
 40
0.0
 40
0.0
 40
0.0319755697
 40
0.063824576
 40
0.0955450652
 40
0.1271459269
 40
0.1586341287
 40
0.1900188941
 40
0.2213107377
 40
0.2525207312
 40
0.2836607982
 40
0.3147424014
 40
0.3457771079
 40
0.376776229
 40
0.4386907359
 40
0.5005804029
 40
0.5625072725
 40
0.6245210496
 40
0.6866605258
 40
0.7489553323
 40
0.8114276695
 40
0.8740938964
 40
1.0
 40
1.0
 40
1.0
 40
1.0
 10
10.9465627771
 20
8.6424117292
 30
0.0
 10
10.9465627771
 20
8.6406253292
 30
0.0
 10
10.9464577735
 20
8.6370586867
 30
0.0
 10
10.94598449
 20
8.6317388307
 30
0.0
 10
10.9451992537
 20
8.6264769921
 30
0.0
 10
10.9441081696
 20
8.6212906654
 30
0.0
 10
10.9427192991
 20
8.6161955282
 30
0.0
 10
10.9410426165
 20
8.6112060328
 30
0.0
 10
10.9390894237
 20
8.6063350102
 30
0.0
 10
10.9368721939
 20
8.6015935883
 30
0.0
 10
10.9344042377
 20
8.5969911688
 30
0.0
 10
10.9316991799
 20
8.5925356307
 30
0.0
 10
10.9287708425
 20
8.5882331152
 30
0.0
 10
10.9245896585
 20
8.5827101934
 30
0.0
 10
10.9188692246
 20
8.5762048327
 30
0.0
 10
10.9113241378
 20
8.5690625364
 30
0.0
 10
10.9031933904
 20
8.5625877764
 30
0.0
 10
10.8945614959
 20
8.5567758316
 30
0.0
 10
10.8855023293
 20
8.5516159732
 30
0.0
 10
10.8760809371
 20
8.5470948908
 30
0.0
 10
10.8663533099
 20
8.5431978336
 30
0.0
 10
10.8530256347
 20
8.5388089712
 30
0.0
 10
10.8427332078
 20
8.5364199902
 30
0.0
 10
10.8358040768
 20
8.5352094528
 30
0.0
  0
SPLINE
  5
34D
100
AcDbEntity
  8
0
100
AcDbSpline
 62
7
  6
CONTINUOUS
 70
0
 71
3
 72
39
 73
35
 74
0
 42
0.0000001
 43
0.0000001
 44
0.0000000001
 40
0.0
 40
0.0
 40
0.0
 40
0.0
 40
0.0150372896
 40
0.0300556468
 40
0.0450568371
 40
0.0600475667
 40
0.0750337651
 40
0.0900203008
 40
0.1050124404
 40
0.1200149939
 40
0.1500600302
 40
0.1801952917
 40
0.2104437494
 40
0.2408211971
 40
0.2713371051
 40
0.3019957395
 40
0.3327973231
 40
0.3637390833
 40
0.3948161085
 40
0.4260219988
 40
0.4573493408
 40
0.4887901099
 40
0.5519583573
 40
0.5836891559
 40
0.6154993673
 40
0.679305968
 40
0.7113021854
 40
0.7433425717
 40
0.8075007581
 40
0.839616405
 40
0.871736569
 40
0.9038498882
 40
0.9359443166
 40
1.0
 40
1.0
 40
1.0
 40
1.0
 10
11.0006526684
 20
8.3086168782
 30
0.0
 10
11.0014501148
 20
8.3099427928
 30
0.0
 10
11.0031152582
 20
8.3125508467
 30
0.0
 10
11.0058169275
 20
8.3163209591
 30
0.0
 10
11.0087135013
 20
8.3199374967
 30
0.0
 10
11.0117961147
 20
8.3233922945
 30
0.0
 10
11.0150554361
 20
8.3266787445
 30
0.0
 10
11.0184816715
 20
8.3297908791
 30
0.0
 10
11.0220643793
 20
8.3327242362
 30
0.0
 10
11.0270372665
 20
8.3363932125
 30
0.0
 10
11.0335966252
 20
8.3405191637
 30
0.0
 10
11.0419155074
 20
8.3447153168
 30
0.0
 10
11.0506063645
 20
8.3481653158
 30
0.0
 10
11.059592785
 20
8.3508829114
 30
0.0
 10
11.0688062961
 20
8.3528892228
 30
0.0
 10
11.078185862
 20
8.3542095273
 30
0.0
 10
11.0876777841
 20
8.3548714306
 30
0.0
 10
11.097234992
 20
8.3549033259
 30
0.0
 10
11.1068162996
 20
8.3543333442
 30
0.0
 10
11.1163853839
 20
8.3531887027
 30
0.0
 10
11.125910598
 20
8.3514951254
 30
0.0
 10
11.1385307719
 20
8.3485336042
 30
0.0
 10
11.1509389994
 20
8.3445682962
 30
0.0
 10
11.1630344234
 20
8.3396916694
 30
0.0
 10
11.1749404685
 20
8.3342095654
 30
0.0
 10
11.1864670102
 20
8.3278731765
 30
0.0
 10
11.197529841
 20
8.3207493999
 30
0.0
 10
11.2082810437
 20
8.3131009012
 30
0.0
 10
11.2184996504
 20
8.3047045906
 30
0.0
 10
11.2280915961
 20
8.2956147125
 30
0.0
 10
11.2349547323
 20
8.2884551768
 30
0.0
 10
11.2414572204
 20
8.2809688162
 30
0.0
 10
11.2496007524
 20
8.2705789748
 30
0.0
 10
11.2550928799
 20
8.2623195838
 30
0.0
 10
11.2584277186
 20
8.256634571
 30
0.0
  0
SPLINE
  5
34E
100
AcDbEntity
  8
0
100
AcDbSpline
 62
7
  6
CONTINUOUS
 70
0
 71
3
 72
31
 73
27
 74
0
 42
0.0000001
 43
0.0000001
 44
0.0000000001
 40
0.0
 40
0.0
 40
0.0
 40
0.0
 40
0.0845018384
 40
0.1673008267
 40
0.2480795732
 40
0.3265299266
 40
0.4023573228
 40
0.4752817062
 40
0.5450401698
 40
0.6113893435
 40
0.6432164948
 40
0.674110483
 40
0.70404787
 40
0.7330069974
 40
0.7609683376
 40
0.7879146109
 40
0.8138309834
 40
0.8387054861
 40
0.8625290878
 40
0.8852964461
 40
0.9070059517
 40
0.9276608186
 40
0.9472692798
 40
0.965846013
 40
0.9834127402
 40
1.0
 40
1.0
 40
1.0
 40
1.0
 10
11.6937452614
 20
10.0484767645
 30
0.0
 10
11.6865000716
 20
10.0489792201
 30
0.0
 10
11.6721641427
 20
10.0501011675
 30
0.0
 10
11.6509409675
 20
10.0521584538
 30
0.0
 10
11.6302780829
 20
10.0545664354
 30
0.0
 10
11.610262254
 20
10.0573148959
 30
0.0
 10
11.5909774741
 20
10.060392138
 30
0.0
 10
11.5725045246
 20
10.0637850671
 30
0.0
 10
11.5549209136
 20
10.0674792657
 30
0.0
 10
11.5408820498
 20
10.0708405758
 30
0.0
 10
11.5301575646
 20
10.073678002
 30
0.0
 10
11.5224931538
 20
10.0758418941
 30
0.0
 10
11.515103874
 20
10.0780688021
 30
0.0
 10
11.5079974547
 20
10.0803564244
 30
0.0
 10
11.5011813319
 20
10.0827023349
 30
0.0
 10
11.4946626264
 20
10.0851040633
 30
0.0
 10
11.4884481423
 20
10.087559101
 30
0.0
 10
11.4825443442
 20
10.0900648442
 30
0.0
 10
11.4769573753
 20
10.0926187147
 30
0.0
 10
11.4716930056
 20
10.0952180012
 30
0.0
 10
11.4667566882
 20
10.0978600765
 30
0.0
 10
11.462153463
 20
10.1005421674
 30
0.0
 10
11.4578880799
 20
10.1032616167
 30
0.0
 10
11.4539647878
 20
10.1060156994
 30
0.0
 10
11.4503877842
 20
10.1088016399
 30
0.0
 10
11.4481742128
 20
10.1107326215
 30
0.0
 10
11.4471305922
 20
10.1117038135
 30
0.0
  0
SPLINE
  5
34F
100
AcDbEntity
  8
0
100
AcDbSpline
 62
7
  6
CONTINUOUS
 70
0
 71
3
 72
18
 73
14
 74
0
 42
0.0000001
 43
0.0000001
 44
0.0000000001
 40
0.0
 40
0.0
 40
0.0
 40
0.0
 40
0.1504680185
 40
0.2917144324
 40
0.4244425615
 40
0.4879099171
 40
0.5496094205
 40
0.6682625585
 40
0.7817882768
 40
0.8371379945
 40
0.8918078237
 40
0.9460192726
 40
1.0
 40
1.0
 40
1.0
 40
1.0
 10
12.6903702962
 20
8.3156405729
 30
0.0
 10
12.6915873649
 20
8.3168161711
 30
0.0
 10
12.6940198527
 20
8.3190219359
 30
0.0
 10
12.697786301
 20
8.3219613876
 30
0.0
 10
12.7009677106
 20
8.3240403199
 30
0.0
 10
12.7035046017
 20
8.3254481084
 30
0.0
 10
12.7059668603
 20
8.3266567353
 30
0.0
 10
12.7090454632
 20
8.3278780117
 30
0.0
 10
12.7121788304
 20
8.3287114136
 30
0.0
 10
12.7146605502
 20
8.329121955
 30
0.0
 10
12.7164998473
 20
8.32930416
 30
0.0
 10
12.718331704
 20
8.3293629952
 30
0.0
 10
12.719548744
 20
8.329319937
 30
0.0
 10
12.7201543428
 20
8.3292779353
 30
0.0
  0
SPLINE
  5
350
100
AcDbEntity
  8
0
100
AcDbSpline
 62
7
  6
CONTINUOUS
 70
0
 71
3
 72
15
 73
11
 74
0
 42
0.0000001
 43
0.0000001
 44
0.0000000001
 40
0.0
 40
0.0
 40
0.0
 40
0.0
 40
0.1273482292
 40
0.2538605354
 40
0.3795879276
 40
0.5046050833
 40
0.6290174349
 40
0.7529533662
 40
0.8765605734
 40
1.0
 40
1.0
 40
1.0
 40
1.0
 10
10.0585235901
 20
7.7138887551
 30
0.0
 10
10.0585235901
 20
7.7112863252
 30
0.0
 10
10.0582751115
 20
7.70609495
 30
0.0
 10
10.0571513854
 20
7.6984077318
 30
0.0
 10
10.0552880572
 20
7.6909136649
 30
0.0
 10
10.0527019535
 20
7.6836828367
 30
0.0
 10
10.0494168186
 20
7.6767819257
 30
0.0
 10
10.0454625866
 20
7.6702746553
 30
0.0
 10
10.0408764379
 20
7.664222
 30
0.0
 10
10.0374233019
 20
7.6605246912
 30
0.0
 10
10.0356089414
 20
7.6587721611
 30
0.0
  0
SPLINE
  5
351
100
AcDbEntity
  8
0
100
AcDbSpline
 62
7
  6
CONTINUOUS
 70
0
 71
3
 72
15
 73
11
 74
0
 42
0.0000001
 43
0.0000001
 44
0.0000000001
 40
0.0
 40
0.0
 40
0.0
 40
0.0
 40
0.1273482292
 40
0.2538605354
 40
0.3795879276
 40
0.5046050833
 40
0.6290174349
 40
0.7529533662
 40
0.8765605734
 40
1.0
 40
1.0
 40
1.0
 40
1.0
 10
10.0585235901
 20
8.8913523897
 30
0.0
 10
10.0585235901
 20
8.8887499597
 30
0.0
 10
10.0582751115
 20
8.8835585845
 30
0.0
 10
10.0571513854
 20
8.8758713663
 30
0.0
 10
10.0552880572
 20
8.8683772994
 30
0.0
 10
10.0527019535
 20
8.8611464712
 30
0.0
 10
10.0494168186
 20
8.8542455602
 30
0.0
 10
10.0454625866
 20
8.8477382898
 30
0.0
 10
10.0408764379
 20
8.8416856345
 30
0.0
 10
10.0374233019
 20
8.8379883257
 30
0.0
 10
10.0356089414
 20
8.8362357956
 30
0.0
  0
SPLINE
  5
352
100
AcDbEntity
  8
0
100
AcDbSpline
 62
7
  6
CONTINUOUS
 70
0
 71
3
 72
15
 73
11
 74
0
 42
0.0000001
 43
0.0000001
 44
0.0000000001
 40
0.0
 40
0.0
 40
0.0
 40
0.0
 40
0.1273482292
 40
0.2538605354
 40
0.3795879276
 40
0.5046050833
 40
0.6290174349
 40
0.7529533662
 40
0.8765605734
 40
1.0
 40
1.0
 40
1.0
 40
1.0
 10
11.5982093734
 20
8.8154845088
 30
0.0
 10
11.5982093734
 20
8.8128820789
 30
0.0
 10
11.5979608948
 20
8.8076907037
 30
0.0
 10
11.5968371687
 20
8.8000034855
 30
0.0
 10
11.5949738405
 20
8.7925094186
 30
0.0
 10
11.5923877368
 20
8.7852785903
 30
0.0
 10
11.5891026019
 20
8.7783776794
 30
0.0
 10
11.5851483699
 20
8.771870409
 30
0.0
 10
11.5805622212
 20
8.7658177537
 30
0.0
 10
11.5771090851
 20
8.7621204448
 30
0.0
 10
11.5752947247
 20
8.7603679147
 30
0.0
  0
SPLINE
  5
353
100
AcDbEntity
  8
0
100
AcDbSpline
 62
7
  6
CONTINUOUS
 70
0
 71
3
 72
15
 73
11
 74
0
 42
0.0000001
 43
0.0000001
 44
0.0000000001
 40
0.0
 40
0.0
 40
0.0
 40
0.0
 40
0.1273482292
 40
0.2538605354
 40
0.3795879276
 40
0.5046050833
 40
0.6290174349
 40
0.7529533662
 40
0.8765605734
 40
1.0
 40
1.0
 40
1.0
 40
1.0
 10
11.5982093734
 20
7.5771674635
 30
0.0
 10
11.5982093734
 20
7.5745650336
 30
0.0
 10
11.5979608948
 20
7.5693736584
 30
0.0
 10
11.5968371687
 20
7.5616864402
 30
0.0
 10
11.5949738405
 20
7.5541923733
 30
0.0
 10
11.5923877368
 20
7.546961545
 30
0.0
 10
11.5891026019
 20
7.5400606341
 30
0.0
 10
11.5851483699
 20
7.5335533637
 30
0.0
 10
11.5805622212
 20
7.5275007084
 30
0.0
 10
11.5771090851
 20
7.5238033995
 30
0.0
 10
11.5752947247
 20
7.5220508694
 30
0.0
  0
SPLINE
  5
354
100
AcDbEntity
  8
0
100
AcDbSpline
 62
7
  6
CONTINUOUS
 70
0
 71
3
 72
31
 73
27
 74
0
 42
0.0000001
 43
0.0000001
 44
0.0000000001
 40
0.0
 40
0.0
 40
0.0
 40
0.0
 40
0.0682258423
 40
0.1395782324
 40
0.1761096426
 40
0.2130176157
 40
0.2873380246
 40
0.3613630857
 40
0.434012556
 40
0.5044822892
 40
0.5723068553
 40
0.6373029505
 40
0.6994491534
 40
0.758752699
 40
0.8151340675
 40
0.842162929
 40
0.8683345561
 40
0.8935620661
 40
0.9177252521
 40
0.9406684482
 40
0.9516239449
 40
0.9621960316
 40
0.9723529327
 40
0.9820622369
 40
0.9912885064
 40
1.0
 40
1.0
 40
1.0
 40
1.0
 10
10.9079599019
 20
7.8233678309
 30
0.0
 10
10.9054676919
 20
7.8211271431
 30
0.0
 10
10.9001974152
 20
7.8167297409
 30
0.0
 10
10.8931137151
 20
7.8117435155
 30
0.0
 10
10.8870275634
 20
7.8080581756
 30
0.0
 10
10.8806405914
 20
7.8046050512
 30
0.0
 10
10.8723090072
 20
7.800898833
 30
0.0
 10
10.8619400853
 20
7.7976060516
 30
0.0
 10
10.8514404153
 20
7.7955860121
 30
0.0
 10
10.8410776201
 20
7.7948686161
 30
0.0
 10
10.8310809278
 20
7.7953930883
 30
0.0
 10
10.8216233504
 20
7.7970373782
 30
0.0
 10
10.812823987
 20
7.7996489668
 30
0.0
 10
10.8047656781
 20
7.8030658876
 30
0.0
 10
10.7986353792
 20
7.8064976238
 30
0.0
 10
10.7941688845
 20
7.8095059071
 30
0.0
 10
10.7910945512
 20
7.8118310338
 30
0.0
 10
10.788262685
 20
7.8142336991
 30
0.0
 10
10.7856909447
 20
7.8166884723
 30
0.0
 10
10.783753686
 20
7.8187848676
 30
0.0
 10
10.7823584684
 20
7.8204663066
 30
0.0
 10
10.7814103243
 20
7.8217010947
 30
0.0
 10
10.7805490231
 20
7.8229238423
 30
0.0
 10
10.7797797052
 20
7.8241288478
 30
0.0
 10
10.7791081228
 20
7.8253099604
 30
0.0
 10
10.7787178569
 20
7.8261007543
 30
0.0
 10
10.7785421239
 20
7.8264909315
 30
0.0
  0
SPLINE
  5
355
100
AcDbEntity
  8
0
100
AcDbSpline
 62
7
  6
CONTINUOUS
 70
0
 71
3
 72
21
 73
17
 74
0
 42
0.0000001
 43
0.0000001
 44
0.0000000001
 40
0.0
 40
0.0
 40
0.0
 40
0.0
 40
0.061653237
 40
0.123329498
 40
0.1850515502
 40
0.2468416698
 40
0.3087213548
 40
0.370711108
 40
0.4328302426
 40
0.495096636
 40
0.5575265765
 40
0.6201345494
 40
0.682933126
 40
0.7459332432
 40
0.8725261314
 40
1.0
 40
1.0
 40
1.0
 40
1.0
 10
9.2738857609
 20
7.076359794
 30
0.0
 10
9.2754624677
 20
7.0778827863
 30
0.0
 10
9.2786990548
 20
7.0808451595
 30
0.0
 10
9.2837867597
 20
7.0850221758
 30
0.0
 10
9.2890953757
 20
7.0889231212
 30
0.0
 10
9.2946113636
 20
7.0925379789
 30
0.0
 10
9.3003208879
 20
7.0958576606
 30
0.0
 10
9.3062095169
 20
7.0988738471
 30
0.0
 10
9.3122624243
 20
7.1015789444
 30
0.0
 10
9.3184643695
 20
7.1039661099
 30
0.0
 10
9.3247997188
 20
7.1060293952
 30
0.0
 10
9.3312524676
 20
7.1077636121
 30
0.0
 10
9.3378065642
 20
7.1091643772
 30
0.0
 10
9.3466709172
 20
7.1105849433
 30
0.0
 10
9.3579272387
 20
7.1115078793
 30
0.0
 10
9.3669766429
 20
7.1113312706
 30
0.0
 10
9.3714982535
 20
7.1110176959
 30
0.0
  0
SPLINE
  5
356
100
AcDbEntity
  8
0
100
AcDbSpline
 62
7
  6
CONTINUOUS
 70
0
 71
3
 72
21
 73
17
 74
0
 42
0.0000001
 43
0.0000001
 44
0.0000000001
 40
0.0
 40
0.0
 40
0.0
 40
0.0
 40
0.061653237
 40
0.123329498
 40
0.1850515502
 40
0.2468416698
 40
0.3087213548
 40
0.370711108
 40
0.4328302426
 40
0.495096636
 40
0.5575265765
 40
0.6201345494
 40
0.682933126
 40
0.7459332432
 40
0.8725261314
 40
1.0
 40
1.0
 40
1.0
 40
1.0
 10
12.0132515622
 20
6.8863841304
 30
0.0
 10
12.014828269
 20
6.8879071227
 30
0.0
 10
12.0180648561
 20
6.8908694959
 30
0.0
 10
12.023152561
 20
6.8950465123
 30
0.0
 10
12.028461177
 20
6.8989474576
 30
0.0
 10
12.0339771649
 20
6.9025623153
 30
0.0
 10
12.0396866892
 20
6.905881997
 30
0.0
 10
12.0455753182
 20
6.9088981835
 30
0.0
 10
12.0516282256
 20
6.9116032808
 30
0.0
 10
12.0578301708
 20
6.9139904463
 30
0.0
 10
12.0641655201
 20
6.9160537316
 30
0.0
 10
12.0706182689
 20
6.9177879485
 30
0.0
 10
12.0771723655
 20
6.9191887137
 30
0.0
 10
12.0860367185
 20
6.9206092797
 30
0.0
 10
12.09729304
 20
6.9215322157
 30
0.0
 10
12.1063424442
 20
6.9213556071
 30
0.0
 10
12.1108640547
 20
6.9210420323
 30
0.0
  0
SPLINE
  5
357
100
AcDbEntity
  8
0
100
AcDbSpline
 62
7
  6
CONTINUOUS
 70
0
 71
3
 72
21
 73
17
 74
0
 42
0.0000001
 43
0.0000001
 44
0.0000000001
 40
0.0
 40
0.0
 40
0.0
 40
0.0
 40
0.061653237
 40
0.123329498
 40
0.1850515502
 40
0.2468416698
 40
0.3087213548
 40
0.370711108
 40
0.4328302426
 40
0.495096636
 40
0.5575265765
 40
0.6201345494
 40
0.682933126
 40
0.7459332432
 40
0.8725261314
 40
1.0
 40
1.0
 40
1.0
 40
1.0
 10
12.0132515622
 20
9.6257499317
 30
0.0
 10
12.014828269
 20
9.627272924
 30
0.0
 10
12.0180648561
 20
9.6302352972
 30
0.0
 10
12.023152561
 20
9.6344123136
 30
0.0
 10
12.028461177
 20
9.6383132589
 30
0.0
 10
12.0339771649
 20
9.6419281166
 30
0.0
 10
12.0396866892
 20
9.6452477983
 30
0.0
 10
12.0455753182
 20
9.6482639848
 30
0.0
 10
12.0516282256
 20
9.6509690821
 30
0.0
 10
12.0578301708
 20
9.6533562476
 30
0.0
 10
12.0641655201
 20
9.6554195329
 30
0.0
 10
12.0706182689
 20
9.6571537498
 30
0.0
 10
12.0771723655
 20
9.658554515
 30
0.0
 10
12.0860367185
 20
9.659975081
 30
0.0
 10
12.09729304
 20
9.660898017
 30
0.0
 10
12.1063424442
 20
9.6607214084
 30
0.0
 10
12.1108640547
 20
9.6604078336
 30
0.0
  0
SPLINE
  5
358
100
AcDbEntity
  8
0
100
AcDbSpline
 62
7
  6
CONTINUOUS
 70
0
 71
3
 72
21
 73
17
 74
0
 42
0.0000001
 43
0.0000001
 44
0.0000000001
 40
0.0
 40
0.0
 40
0.0
 40
0.0
 40
0.061653237
 40
0.123329498
 40
0.1850515502
 40
0.2468416698
 40
0.3087213548
 40
0.370711108
 40
0.4328302426
 40
0.495096636
 40
0.5575265765
 40
0.6201345494
 40
0.682933126
 40
0.7459332432
 40
0.8725261314
 40
1.0
 40
1.0
 40
1.0
 40
1.0
 10
9.2738857609
 20
9.8157255953
 30
0.0
 10
9.2754624677
 20
9.8172485875
 30
0.0
 10
9.2786990548
 20
9.8202109608
 30
0.0
 10
9.2837867597
 20
9.8243879771
 30
0.0
 10
9.2890953757
 20
9.8282889225
 30
0.0
 10
9.2946113636
 20
9.8319037802
 30
0.0
 10
9.3003208879
 20
9.8352234619
 30
0.0
 10
9.3062095169
 20
9.8382396483
 30
0.0
 10
9.3122624243
 20
9.8409447457
 30
0.0
 10
9.3184643695
 20
9.8433319112
 30
0.0
 10
9.3247997188
 20
9.8453951965
 30
0.0
 10
9.3312524676
 20
9.8471294133
 30
0.0
 10
9.3378065642
 20
9.8485301785
 30
0.0
 10
9.3466709172
 20
9.8499507446
 30
0.0
 10
9.3579272387
 20
9.8508736805
 30
0.0
 10
9.3669766429
 20
9.8506970719
 30
0.0
 10
9.3714982535
 20
9.8503834972
 30
0.0
  0
SPLINE
  5
359
100
AcDbEntity
  8
0
100
AcDbSpline
 62
7
  6
CONTINUOUS
 70
0
 71
3
 72
39
 73
35
 74
0
 42
0.0000001
 43
0.0000001
 44
0.0000000001
 40
0.0
 40
0.0
 40
0.0
 40
0.0
 40
0.0299424741
 40
0.0599093236
 40
0.0899243299
 40
0.1200101071
 40
0.1501875628
 40
0.1804754121
 40
0.2108897558
 40
0.2414437341
 40
0.2721472619
 40
0.3030068476
 40
0.3340255003
 40
0.3652027176
 40
0.3965345493
 40
0.4280137317
 40
0.459629888
 40
0.4913697842
 40
0.5232176352
 40
0.5551554541
 40
0.5871634377
 40
0.6192203778
 40
0.6513040905
 40
0.68339186
 40
0.715460889
 40
0.7474887514
 40
0.779453839
 40
0.8113357971
 40
0.8431159663
 40
0.8747776774
 40
0.9063069717
 40
0.937691796
 40
0.9689252179
 40
1.0
 40
1.0
 40
1.0
 40
1.0
 10
9.9181967645
 20
7.7803261839
 30
0.0
 10
9.9195985944
 20
7.7816802418
 30
0.0
 10
9.9225124727
 20
7.7842790898
 30
0.0
 10
9.9271809712
 20
7.7878195484
 30
0.0
 10
9.932123274
 20
7.7909844896
 30
0.0
 10
9.9373117682
 20
7.7937561574
 30
0.0
 10
9.9427179269
 20
7.7961194116
 30
0.0
 10
9.9483119151
 20
7.7980612611
 30
0.0
 10
9.9540629075
 20
7.7995710802
 30
0.0
 10
9.959939221
 20
7.8006406236
 30
0.0
 10
9.9659085018
 20
7.8012640773
 30
0.0
 10
9.9719379008
 20
7.8014380913
 30
0.0
 10
9.9779942573
 20
7.8011617903
 30
0.0
 10
9.98404428
 20
7.8004367701
 30
0.0
 10
9.9900547285
 20
7.7992670871
 30
0.0
 10
9.9959925927
 20
7.797659232
 30
0.0
 10
10.0018252718
 20
7.7956220933
 30
0.0
 10
10.00752075
 20
7.7931669065
 30
0.0
 10
10.0130477691
 20
7.7903071914
 30
0.0
 10
10.0183760021
 20
7.7870586852
 30
0.0
 10
10.0234762152
 20
7.7834392497
 30
0.0
 10
10.0283204258
 20
7.7794687721
 30
0.0
 10
10.0328820535
 20
7.7751690573
 30
0.0
 10
10.037136064
 20
7.7705637092
 30
0.0
 10
10.041059105
 20
7.7656780028
 30
0.0
 10
10.0446296328
 20
7.7605387473
 30
0.0
 10
10.0478280279
 20
7.7551741408
 30
0.0
 10
10.0506367142
 20
7.7496136207
 30
0.0
 10
10.0530402347
 20
7.743887703
 30
0.0
 10
10.0550253766
 20
7.7380277975
 30
0.0
 10
10.0565811415
 20
7.7320661187
 30
0.0
 10
10.0576990203
 20
7.7260352271
 30
0.0
 10
10.0583726798
 20
7.7199687461
 30
0.0
 10
10.0585235901
 20
7.7159114584
 30
0.0
 10
10.0585235901
 20
7.7138887551
 30
0.0
  0
SPLINE
  5
35A
100
AcDbEntity
  8
0
100
AcDbSpline
 62
7
  6
CONTINUOUS
 70
0
 71
3
 72
39
 73
35
 74
0
 42
0.0000001
 43
0.0000001
 44
0.0000000001
 40
0.0
 40
0.0
 40
0.0
 40
0.0
 40
0.0299424741
 40
0.0599093236
 40
0.0899243299
 40
0.1200101071
 40
0.1501875628
 40
0.1804754121
 40
0.2108897558
 40
0.2414437341
 40
0.2721472619
 40
0.3030068476
 40
0.3340255003
 40
0.3652027176
 40
0.3965345493
 40
0.4280137317
 40
0.459629888
 40
0.4913697842
 40
0.5232176352
 40
0.5551554541
 40
0.5871634377
 40
0.6192203778
 40
0.6513040905
 40
0.68339186
 40
0.715460889
 40
0.7474887514
 40
0.779453839
 40
0.8113357971
 40
0.8431159663
 40
0.8747776774
 40
0.9063069717
 40
0.937691796
 40
0.9689252179
 40
1.0
 40
1.0
 40
1.0
 40
1.0
 10
9.9181967645
 20
8.9577898184
 30
0.0
 10
9.9195985944
 20
8.9591438763
 30
0.0
 10
9.9225124727
 20
8.9617427243
 30
0.0
 10
9.9271809712
 20
8.9652831829
 30
0.0
 10
9.932123274
 20
8.9684481241
 30
0.0
 10
9.9373117682
 20
8.9712197919
 30
0.0
 10
9.9427179269
 20
8.9735830461
 30
0.0
 10
9.9483119151
 20
8.9755248956
 30
0.0
 10
9.9540629075
 20
8.9770347147
 30
0.0
 10
9.959939221
 20
8.9781042581
 30
0.0
 10
9.9659085018
 20
8.9787277118
 30
0.0
 10
9.9719379008
 20
8.9789017258
 30
0.0
 10
9.9779942573
 20
8.9786254248
 30
0.0
 10
9.98404428
 20
8.9779004047
 30
0.0
 10
9.9900547285
 20
8.9767307216
 30
0.0
 10
9.9959925927
 20
8.9751228666
 30
0.0
 10
10.0018252718
 20
8.9730857278
 30
0.0
 10
10.00752075
 20
8.970630541
 30
0.0
 10
10.0130477691
 20
8.9677708259
 30
0.0
 10
10.0183760021
 20
8.9645223197
 30
0.0
 10
10.0234762152
 20
8.9609028842
 30
0.0
 10
10.0283204258
 20
8.9569324066
 30
0.0
 10
10.0328820535
 20
8.9526326918
 30
0.0
 10
10.037136064
 20
8.9480273437
 30
0.0
 10
10.041059105
 20
8.9431416373
 30
0.0
 10
10.0446296328
 20
8.9380023818
 30
0.0
 10
10.0478280279
 20
8.9326377754
 30
0.0
 10
10.0506367142
 20
8.9270772552
 30
0.0
 10
10.0530402347
 20
8.9213513375
 30
0.0
 10
10.0550253766
 20
8.915491432
 30
0.0
 10
10.0565811415
 20
8.9095297532
 30
0.0
 10
10.0576990203
 20
8.9034988616
 30
0.0
 10
10.0583726798
 20
8.8974323806
 30
0.0
 10
10.0585235901
 20
8.8933750929
 30
0.0
 10
10.0585235901
 20
8.8913523897
 30
0.0
  0
SPLINE
  5
35B
100
AcDbEntity
  8
0
100
AcDbSpline
 62
7
  6
CONTINUOUS
 70
0
 71
3
 72
39
 73
35
 74
0
 42
0.0000001
 43
0.0000001
 44
0.0000000001
 40
0.0
 40
0.0
 40
0.0
 40
0.0
 40
0.0299424741
 40
0.0599093236
 40
0.0899243299
 40
0.1200101071
 40
0.1501875628
 40
0.1804754121
 40
0.2108897558
 40
0.2414437341
 40
0.2721472619
 40
0.3030068476
 40
0.3340255003
 40
0.3652027176
 40
0.3965345493
 40
0.4280137317
 40
0.459629888
 40
0.4913697842
 40
0.5232176352
 40
0.5551554541
 40
0.5871634377
 40
0.6192203778
 40
0.6513040905
 40
0.68339186
 40
0.715460889
 40
0.7474887514
 40
0.779453839
 40
0.8113357971
 40
0.8431159663
 40
0.8747776774
 40
0.9063069717
 40
0.937691796
 40
0.9689252179
 40
1.0
 40
1.0
 40
1.0
 40
1.0
 10
11.4578825478
 20
8.8819219376
 30
0.0
 10
11.4592843776
 20
8.8832759955
 30
0.0
 10
11.462198256
 20
8.8858748435
 30
0.0
 10
11.4668667544
 20
8.8894153021
 30
0.0
 10
11.4718090573
 20
8.8925802433
 30
0.0
 10
11.4769975515
 20
8.8953519111
 30
0.0
 10
11.4824037101
 20
8.8977151653
 30
0.0
 10
11.4879976983
 20
8.8996570148
 30
0.0
 10
11.4937486907
 20
8.9011668338
 30
0.0
 10
11.4996250043
 20
8.9022363773
 30
0.0
 10
11.5055942851
 20
8.9028598309
 30
0.0
 10
11.5116236841
 20
8.903033845
 30
0.0
 10
11.5176800406
 20
8.902757544
 30
0.0
 10
11.5237300633
 20
8.9020325238
 30
0.0
 10
11.5297405118
 20
8.9008628408
 30
0.0
 10
11.535678376
 20
8.8992549857
 30
0.0
 10
11.5415110551
 20
8.897217847
 30
0.0
 10
11.5472065333
 20
8.8947626602
 30
0.0
 10
11.5527335524
 20
8.8919029451
 30
0.0
 10
11.5580617853
 20
8.8886544389
 30
0.0
 10
11.5631619985
 20
8.8850350033
 30
0.0
 10
11.568006209
 20
8.8810645258
 30
0.0
 10
11.5725678367
 20
8.876764811
 30
0.0
 10
11.5768218473
 20
8.8721594628
 30
0.0
 10
11.5807448883
 20
8.8672737565
 30
0.0
 10
11.584315416
 20
8.862134501
 30
0.0
 10
11.5875138111
 20
8.8567698945
 30
0.0
 10
11.5903224974
 20
8.8512093744
 30
0.0
 10
11.592726018
 20
8.8454834567
 30
0.0
 10
11.5947111599
 20
8.8396235512
 30
0.0
 10
11.5962669247
 20
8.8336618723
 30
0.0
 10
11.5973848036
 20
8.8276309808
 30
0.0
 10
11.598058463
 20
8.8215644998
 30
0.0
 10
11.5982093734
 20
8.8175072121
 30
0.0
 10
11.5982093734
 20
8.8154845088
 30
0.0
  0
SPLINE
  5
35C
100
AcDbEntity
  8
0
100
AcDbSpline
 62
7
  6
CONTINUOUS
 70
0
 71
3
 72
39
 73
35
 74
0
 42
0.0000001
 43
0.0000001
 44
0.0000000001
 40
0.0
 40
0.0
 40
0.0
 40
0.0
 40
0.0299424741
 40
0.0599093236
 40
0.0899243299
 40
0.1200101071
 40
0.1501875628
 40
0.1804754121
 40
0.2108897558
 40
0.2414437341
 40
0.2721472619
 40
0.3030068476
 40
0.3340255003
 40
0.3652027176
 40
0.3965345493
 40
0.4280137317
 40
0.459629888
 40
0.4913697842
 40
0.5232176352
 40
0.5551554541
 40
0.5871634377
 40
0.6192203778
 40
0.6513040905
 40
0.68339186
 40
0.715460889
 40
0.7474887514
 40
0.779453839
 40
0.8113357971
 40
0.8431159663
 40
0.8747776774
 40
0.9063069717
 40
0.937691796
 40
0.9689252179
 40
1.0
 40
1.0
 40
1.0
 40
1.0
 10
11.4578825478
 20
7.6436048923
 30
0.0
 10
11.4592843776
 20
7.6449589502
 30
0.0
 10
11.462198256
 20
7.6475577982
 30
0.0
 10
11.4668667544
 20
7.6510982568
 30
0.0
 10
11.4718090573
 20
7.654263198
 30
0.0
 10
11.4769975515
 20
7.6570348658
 30
0.0
 10
11.4824037101
 20
7.65939812
 30
0.0
 10
11.4879976983
 20
7.6613399695
 30
0.0
 10
11.4937486907
 20
7.6628497885
 30
0.0
 10
11.4996250043
 20
7.663919332
 30
0.0
 10
11.5055942851
 20
7.6645427856
 30
0.0
 10
11.5116236841
 20
7.6647167997
 30
0.0
 10
11.5176800406
 20
7.6644404987
 30
0.0
 10
11.5237300633
 20
7.6637154785
 30
0.0
 10
11.5297405118
 20
7.6625457954
 30
0.0
 10
11.535678376
 20
7.6609379404
 30
0.0
 10
11.5415110551
 20
7.6589008017
 30
0.0
 10
11.5472065333
 20
7.6564456149
 30
0.0
 10
11.5527335524
 20
7.6535858998
 30
0.0
 10
11.5580617853
 20
7.6503373936
 30
0.0
 10
11.5631619985
 20
7.646717958
 30
0.0
 10
11.568006209
 20
7.6427474804
 30
0.0
 10
11.5725678367
 20
7.6384477656
 30
0.0
 10
11.5768218473
 20
7.6338424175
 30
0.0
 10
11.5807448883
 20
7.6289567111
 30
0.0
 10
11.584315416
 20
7.6238174557
 30
0.0
 10
11.5875138111
 20
7.6184528492
 30
0.0
 10
11.5903224974
 20
7.6128923291
 30
0.0
 10
11.592726018
 20
7.6071664114
 30
0.0
 10
11.5947111599
 20
7.6013065059
 30
0.0
 10
11.5962669247
 20
7.595344827
 30
0.0
 10
11.5973848036
 20
7.5893139354
 30
0.0
 10
11.598058463
 20
7.5832474544
 30
0.0
 10
11.5982093734
 20
7.5791901668
 30
0.0
 10
11.5982093734
 20
7.5771674635
 30
0.0
  0
SPLINE
  5
35D
100
AcDbEntity
  8
0
100
AcDbSpline
 62
7
  6
CONTINUOUS
 70
0
 71
3
 72
15
 73
11
 74
0
 42
0.0000001
 43
0.0000001
 44
0.0000000001
 40
0.0
 40
0.0
 40
0.0
 40
0.0
 40
0.1233171148
 40
0.2468171822
 40
0.3706750007
 40
0.4950496181
 40
0.6200773069
 40
0.7458672043
 40
0.8724928123
 40
1.0
 40
1.0
 40
1.0
 40
1.0
 10
11.1699544343
 20
7.653450466
 30
0.0
 10
11.1717047568
 20
7.6551411287
 30
0.0
 10
11.1753932729
 20
7.6583389788
 30
0.0
 10
11.1814132444
 20
7.6625177249
 30
0.0
 10
11.1878638487
 20
7.6660403316
 30
0.0
 10
11.1946790363
 20
7.6688706229
 30
0.0
 10
11.201790071
 20
7.670980502
 30
0.0
 10
11.2091253252
 20
7.6723488533
 30
0.0
 10
11.2166099221
 20
7.6729623748
 30
0.0
 10
11.2216339438
 20
7.6728643746
 30
0.0
 10
11.2241441103
 20
7.672690294
 30
0.0
  0
SPLINE
  5
35E
100
AcDbEntity
  8
0
100
AcDbSpline
 62
7
  6
CONTINUOUS
 70
0
 71
3
 72
27
 73
23
 74
0
 42
0.0000001
 43
0.0000001
 44
0.0000000001
 40
0.0
 40
0.0
 40
0.0
 40
0.0
 40
0.0604864217
 40
0.121177625
 40
0.182099126
 40
0.2432758325
 40
0.3047315625
 40
0.366488231
 40
0.4285645896
 40
0.4909743908
 40
0.5537238637
 40
0.6168085021
 40
0.6484796758
 40
0.6802264851
 40
0.7439063363
 40
0.8078062033
 40
0.839825191
 40
0.8718676838
 40
0.9039205889
 40
0.935969165
 40
0.9680020961
 40
1.0
 40
1.0
 40
1.0
 40
1.0
 10
10.4789264466
 20
8.1519877251
 30
0.0
 10
10.4754920228
 20
8.1506502081
 30
0.0
 10
10.4685249701
 20
8.1481869676
 30
0.0
 10
10.4578413312
 20
8.1451629006
 30
0.0
 10
10.4469410551
 20
8.1428339363
 30
0.0
 10
10.435862676
 20
8.1412342014
 30
0.0
 10
10.4246487661
 20
8.140400615
 30
0.0
 10
10.4133483423
 20
8.1403729913
 30
0.0
 10
10.4020184837
 20
8.1411932864
 30
0.0
 10
10.3907261426
 20
8.1429045364
 30
0.0
 10
10.3795511051
 20
8.1455484878
 30
0.0
 10
10.3704232657
 20
8.1485577931
 30
0.0
 10
10.3632808828
 20
8.1514632058
 30
0.0
 10
10.3562481244
 20
8.1547122794
 30
0.0
 10
10.3477340892
 20
8.1594110328
 30
0.0
 10
10.3397156498
 20
8.1649458643
 30
0.0
 10
10.333660994
 20
8.1698636698
 30
0.0
 10
10.3293146456
 20
8.1737934679
 30
0.0
 10
10.3251848088
 20
8.1779526576
 30
0.0
 10
10.3212880789
 20
8.1823304308
 30
0.0
 10
10.3176406247
 20
8.1869134975
 30
0.0
 10
10.3153827672
 20
8.1900983992
 30
0.0
 10
10.3142999856
 20
8.1917198629
 30
0.0
  0
SPLINE
  5
35F
100
AcDbEntity
  8
0
100
AcDbSpline
 62
7
  6
CONTINUOUS
 70
0
 71
3
 72
40
 73
36
 74
0
 42
0.0000001
 43
0.0000001
 44
0.0000000001
 40
0.0
 40
0.0
 40
0.0
 40
0.0
 40
0.0301996485
 40
0.0603260018
 40
0.090408568
 40
0.1204780458
 40
0.1505653679
 40
0.180700751
 40
0.2109127941
 40
0.2412276545
 40
0.2716683301
 40
0.3022540645
 40
0.3329998873
 40
0.3639162908
 40
0.3950090433
 40
0.4262791311
 40
0.4577228188
 40
0.4893318204
 40
0.521093566
 40
0.5529915582
 40
0.5850058036
 40
0.6171133156
 40
0.6492886757
 40
0.6815046486
 40
0.7137328417
 40
0.7459444004
 40
0.7781107281
 40
0.810204221
 40
0.8421989964
 40
0.8740716259
 40
0.9058017443
 40
0.9373728996
 40
0.9530977793
 40
0.9687791416
 40
1.0
 40
1.0
 40
1.0
 40
1.0
 10
10.6786250736
 20
7.9023702456
 30
0.0
 10
10.6801815622
 20
7.905236708
 30
0.0
 10
10.6835465533
 20
7.9108280635
 30
0.0
 10
10.6893141466
 20
7.9187228583
 30
0.0
 10
10.6957543905
 20
7.9260615881
 30
0.0
 10
10.7028206803
 20
7.932793179
 30
0.0
 10
10.7104628578
 20
7.9388722345
 30
0.0
 10
10.7186268867
 20
7.9442578619
 30
0.0
 10
10.7272554989
 20
7.9489142565
 30
0.0
 10
10.7362885837
 20
7.9528107521
 30
0.0
 10
10.7456636402
 20
7.9559219596
 30
0.0
 10
10.7553162006
 20
7.9582278327
 30
0.0
 10
10.7651802463
 20
7.9597137134
 30
0.0
 10
10.7751886098
 20
7.9603703507
 30
0.0
 10
10.7852733647
 20
7.9601939002
 30
0.0
 10
10.7953662073
 20
7.9591859088
 30
0.0
 10
10.8053988319
 20
7.9573532858
 30
0.0
 10
10.8153033038
 20
7.9547082622
 30
0.0
 10
10.8250124341
 20
7.9512683365
 30
0.0
 10
10.8344601587
 20
7.9470562073
 30
0.0
 10
10.8435819239
 20
7.9420996856
 30
0.0
 10
10.8523150806
 20
7.9364315876
 30
0.0
 10
10.8605992861
 20
7.9300896003
 30
0.0
 10
10.8683769144
 20
7.9231161175
 30
0.0
 10
10.8755934708
 20
7.91555804
 30
0.0
 10
10.8821980077
 20
7.9074665353
 30
0.0
 10
10.8881435362
 20
7.8988967597
 30
0.0
 10
10.8933874281
 20
7.8899075164
 30
0.0
 10
10.8978917977
 20
7.8805609325
 30
0.0
 10
10.901623869
 20
7.8709218552
 30
0.0
 10
10.9045562476
 20
7.8610580623
 30
0.0
 10
10.9063180106
 20
7.8526958875
 30
0.0
 10
10.9073070692
 20
7.8459643723
 30
0.0
 10
10.9080130879
 20
7.8392357595
 30
0.0
 10
10.9082272158
 20
7.8341667047
 30
0.0
 10
10.9082272158
 20
7.8307946181
 30
0.0
  0
SPLINE
  5
360
100
AcDbEntity
  8
0
100
AcDbSpline
 62
7
  6
CONTINUOUS
 70
0
 71
3
 72
32
 73
28
 74
0
 42
0.0000001
 43
0.0000001
 44
0.0000000001
 40
0.0
 40
0.0
 40
0.0
 40
0.0
 40
0.0607419964
 40
0.1218244709
 40
0.152500256
 40
0.1832613649
 40
0.2450255445
 40
0.3071229908
 40
0.3695430058
 40
0.4322692266
 40
0.4952772073
 40
0.5585300109
 40
0.5902421074
 40
0.6219940071
 40
0.6855473442
 40
0.7173458412
 40
0.7491274465
 40
0.7808715421
 40
0.8125549726
 40
0.8441525206
 40
0.8599138795
 40
0.8756441522
 40
0.9069913079
 40
0.9381767892
 40
0.953706146
 40
0.9691887995
 40
1.0
 40
1.0
 40
1.0
 40
1.0
 10
10.7373553909
 20
8.7718037291
 30
0.0
 10
10.7428586246
 20
8.7727651585
 30
0.0
 10
10.7539855215
 20
8.7742102506
 30
0.0
 10
10.7680127335
 20
8.7748515924
 30
0.0
 10
10.7792825722
 20
8.7746843331
 30
0.0
 10
10.7905991985
 20
8.7740627218
 30
0.0
 10
10.8047431168
 20
8.7724355516
 30
0.0
 10
10.8215725613
 20
8.7691331229
 30
0.0
 10
10.8381698648
 20
8.7644690481
 30
0.0
 10
10.854406904
 20
8.7584250314
 30
0.0
 10
10.8701357119
 20
8.7509761958
 30
0.0
 10
10.8826672007
 20
8.743577244
 30
0.0
 10
10.8922449169
 20
8.7369289115
 30
0.0
 10
10.901491533
 20
8.7297834202
 30
0.0
 10
10.9101606103
 20
8.7218969959
 30
0.0
 10
10.9180832927
 20
8.7132895026
 30
0.0
 10
10.9236107519
 20
8.7064762261
 30
0.0
 10
10.9286710773
 20
8.6993215952
 30
0.0
 10
10.9332118629
 20
8.6918455706
 30
0.0
 10
10.9365210217
 20
8.6853641235
 30
0.0
 10
10.9388539172
 20
8.6800498266
 30
0.0
 10
10.9409644776
 20
8.6746681203
 30
0.0
 10
10.9431799784
 20
8.6678102423
 30
0.0
 10
10.9447972688
 20
8.660805223
 30
0.0
 10
10.945710098
 20
8.6551562586
 30
0.0
 10
10.9463636164
 20
8.6495065647
 30
0.0
 10
10.9465627771
 20
8.645245508
 30
0.0
 10
10.9465627771
 20
8.6424117292
 30
0.0
  0
SPLINE
  5
361
100
AcDbEntity
  8
0
100
AcDbSpline
 62
7
  6
CONTINUOUS
 70
0
 71
3
 72
21
 73
17
 74
0
 42
0.0000001
 43
0.0000001
 44
0.0000000001
 40
0.0
 40
0.0
 40
0.0
 40
0.0
 40
0.12814043
 40
0.192023601
 40
0.2557379297
 40
0.382509707
 40
0.4455697851
 40
0.5083638436
 40
0.570871374
 40
0.6330761101
 40
0.6949677794
 40
0.7565438903
 40
0.8178116377
 40
0.8787888151
 40
0.9395050436
 40
1.0
 40
1.0
 40
1.0
 40
1.0
 10
11.0082662405
 20
8.1889722293
 30
0.0
 10
11.0055476383
 20
8.1936067227
 30
0.0
 10
11.0017893242
 20
8.2007457567
 30
0.0
 10
10.9975154147
 20
8.2105846517
 30
0.0
 10
10.9937790098
 20
8.2205785521
 30
0.0
 10
10.9908719762
 20
8.2308335978
 30
0.0
 10
10.9889117283
 20
8.2412489968
 30
0.0
 10
10.98794305
 20
8.2490933187
 30
0.0
 10
10.9874995345
 20
8.2569491034
 30
0.0
 10
10.9876049634
 20
8.2647795284
 30
0.0
 10
10.9882802594
 20
8.2725428879
 30
0.0
 10
10.9895419458
 20
8.280193571
 30
0.0
 10
10.9914007358
 20
8.2876825511
 30
0.0
 10
10.9938602975
 20
8.2949589259
 30
0.0
 10
10.9969155837
 20
8.3019703848
 30
0.0
 10
10.9993453136
 20
8.3064431387
 30
0.0
 10
11.0006526684
 20
8.3086168782
 30
0.0
  0
SPLINE
  5
362
100
AcDbEntity
  8
0
100
AcDbSpline
 62
7
  6
CONTINUOUS
 70
0
 71
3
 72
39
 73
35
 74
0
 42
0.0000001
 43
0.0000001
 44
0.0000000001
 40
0.0
 40
0.0
 40
0.0
 40
0.0
 40
0.0072740202
 40
0.0148705335
 40
0.022798101
 40
0.0310633997
 40
0.0396716423
 40
0.0486266635
 40
0.0579310299
 40
0.0675863562
 40
0.0775931691
 40
0.0879512404
 40
0.1097152016
 40
0.1328633047
 40
0.157369934
 40
0.1832015935
 40
0.2103180061
 40
0.2386729657
 40
0.2682150183
 40
0.298888004
 40
0.3306315568
 40
0.3633815329
 40
0.3970703789
 40
0.431627463
 40
0.4669793706
 40
0.5030502068
 40
0.5397618887
 40
0.5770344129
 40
0.6147861138
 40
0.691391955
 40
0.7689041411
 40
0.8466352401
 40
0.9238951378
 40
1.0
 40
1.0
 40
1.0
 40
1.0
 10
12.1215337504
 20
10.1117044063
 30
0.0
 10
12.1207542692
 20
10.1109790125
 30
0.0
 10
12.1191249035
 20
10.109534211
 30
0.0
 10
12.1165341484
 20
10.107429172
 30
0.0
 10
12.1137460426
 20
10.105341288
 30
0.0
 10
12.1107623184
 20
10.1032717547
 30
0.0
 10
12.1075846769
 20
10.1012217579
 30
0.0
 10
12.1042149783
 20
10.0991924917
 30
0.0
 10
12.1006552064
 20
10.0971850948
 30
0.0
 10
12.0969074284
 20
10.0952007993
 30
0.0
 10
12.0929738609
 20
10.0932406954
 30
0.0
 10
12.0873920116
 20
10.0906177393
 30
0.0
 10
12.0799588181
 20
10.0874168992
 30
0.0
 10
12.0704791068
 20
10.0837512597
 30
0.0
 10
12.0603199888
 20
10.0802089036
 30
0.0
 10
12.0495054629
 20
10.0767982832
 30
0.0
 10
12.038060936
 20
10.0735275502
 30
0.0
 10
12.0260134387
 20
10.0704045406
 30
0.0
 10
12.0133914658
 20
10.0674367447
 30
0.0
 10
12.0002249254
 20
10.0646312755
 30
0.0
 10
11.9865450493
 20
10.0619948575
 30
0.0
 10
11.9723843097
 20
10.0595338107
 30
0.0
 10
11.9577763362
 20
10.0572540341
 30
0.0
 10
11.942755836
 20
10.0551609938
 30
0.0
 10
11.9273585118
 20
10.0532597028
 30
0.0
 10
11.9116209699
 20
10.0515547087
 30
0.0
 10
11.8955806413
 20
10.0500500998
 30
0.0
 10
11.8792756409
 20
10.048749452
 30
0.0
 10
11.8571273915
 20
10.0472843958
 30
0.0
 10
11.8290672984
 20
10.0459889324
 30
0.0
 10
11.7951321715
 20
10.0452901367
 30
0.0
 10
11.7610942892
 20
10.0454466394
 30
0.0
 10
11.7272773751
 20
10.046456849
 30
0.0
 10
11.7048590413
 20
10.0477060212
 30
0.0
 10
11.6937452614
 20
10.0484767645
 30
0.0
  0
SPLINE
  5
363
100
AcDbEntity
  8
0
100
AcDbSpline
 62
7
  6
CONTINUOUS
 70
0
 71
3
 72
80
 73
76
 74
0
 42
0.0000001
 43
0.0000001
 44
0.0000000001
 40
0.0
 40
0.0
 40
0.0
 40
0.0
 40
0.0027164327
 40
0.0054532447
 40
0.0082303176
 40
0.0110666212
 40
0.0139798388
 40
0.016986154
 40
0.0201001347
 40
0.0233346582
 40
0.0267010284
 40
0.0302089968
 40
0.0338669183
 40
0.0376819076
 40
0.0416598906
 40
0.0458058349
 40
0.0501237838
 40
0.0546169826
 40
0.0592880207
 40
0.0641388059
 40
0.0691707482
 40
0.0743847477
 40
0.0853596785
 40
0.0970635549
 40
0.1094903305
 40
0.1226296146
 40
0.1364673135
 40
0.1509861535
 40
0.1661660759
 40
0.1819845508
 40
0.1984168195
 40
0.2154361185
 40
0.2330138792
 40
0.2511198904
 40
0.2697224401
 40
0.2887884373
 40
0.3082835515
 40
0.3281723331
 40
0.348418324
 40
0.368984158
 40
0.3898316649
 40
0.4109219833
 40
0.4536720365
 40
0.4969140898
 40
0.5403224212
 40
0.5835697178
 40
0.6263302119
 40
0.6682828124
 40
0.6888582723
 40
0.7091151075
 40
0.7290159233
 40
0.74852422
 40
0.7676045125
 40
0.7862224423
 40
0.804344885
 40
0.8219400731
 40
0.8389777322
 40
0.8554292445
 40
0.8712678001
 40
0.8864685754
 40
0.9010089485
 40
0.9148687687
 40
0.92803068
 40
0.940480496
 40
0.9522076877
 40
0.9577984663
 40
0.9632066952
 40
0.9684323943
 40
0.9734759977
 40
0.9783383604
 40
0.9830208115
 40
0.987525367
 40
0.9918546057
 40
0.996011597
 40
1.0
 40
1.0
 40
1.0
 40
1.0
 10
12.6605862495
 20
7.4703410248
 30
0.0
 10
12.6597827751
 20
7.4703967503
 30
0.0
 10
12.6581739127
 20
7.4705813469
 30
0.0
 10
12.655781111
 20
7.4710753343
 30
0.0
 10
12.6534063823
 20
7.4717862627
 30
0.0
 10
12.6510514403
 20
7.4727135212
 30
0.0
 10
12.6487174896
 20
7.4738562372
 30
0.0
 10
12.6464057165
 20
7.4752135145
 30
0.0
 10
12.6441172224
 20
7.4767844339
 30
0.0
 10
12.6418529727
 20
7.478567932
 30
0.0
 10
12.6396139939
 20
7.4805630272
 30
0.0
 10
12.637401227
 20
7.4827685974
 30
0.0
 10
12.6352156265
 20
7.4851834884
 30
0.0
 10
12.6330582057
 20
7.487806507
 30
0.0
 10
12.6309298854
 20
7.4906363053
 30
0.0
 10
12.6288316932
 20
7.4936715161
 30
0.0
 10
12.6267645992
 20
7.4969106326
 30
0.0
 10
12.6247295682
 20
7.5003520529
 30
0.0
 10
12.6227276274
 20
7.5039941035
 30
0.0
 10
12.620759707
 20
7.5078349615
 30
0.0
 10
12.6188267797
 20
7.5118727493
 30
0.0
 10
12.6162534386
 20
7.517614898
 30
0.0
 10
12.6131415005
 20
7.5252803028
 30
0.0
 10
12.6096227385
 20
7.5350786292
 30
0.0
 10
12.6062654049
 20
7.5456088337
 30
0.0
 10
12.6030762561
 20
7.5568499525
 30
0.0
 10
12.6000617234
 20
7.5687797671
 30
0.0
 10
12.5972279203
 20
7.5813745184
 30
0.0
 10
12.5945806052
 20
7.5946090819
 30
0.0
 10
12.5921251686
 20
7.6084569957
 30
0.0
 10
12.5898666059
 20
7.6228905274
 30
0.0
 10
12.5878095096
 20
7.6378807365
 30
0.0
 10
12.5859580671
 20
7.653397546
 30
0.0
 10
12.5843160492
 20
7.6694098079
 30
0.0
 10
12.5828868038
 20
7.6858853638
 30
0.0
 10
12.5816732365
 20
7.7027911095
 30
0.0
 10
12.5806778171
 20
7.7200930673
 30
0.0
 10
12.5799025755
 20
7.7377564591
 30
0.0
 10
12.5793490971
 20
7.7557457788
 30
0.0
 10
12.5790185231
 20
7.7740248488
 30
0.0
 10
12.5789115105
 20
7.7925569411
 30
0.0
 10
12.5790680168
 20
7.8176663514
 30
0.0
 10
12.5798273599
 20
7.8494096118
 30
0.0
 10
12.5816169217
 20
7.8877373952
 30
0.0
 10
12.5842748045
 20
7.9261626247
 30
0.0
 10
12.5877796249
 20
7.9643765412
 30
0.0
 10
12.5921031305
 20
8.00207208
 30
0.0
 10
12.5963862082
 20
8.0329975605
 30
0.0
 10
12.6002036774
 20
8.0572446091
 30
0.0
 10
12.603229352
 20
8.0749960838
 30
0.0
 10
12.6064298545
 20
8.0923952557
 30
0.0
 10
12.6097987596
 20
8.1094071716
 30
0.0
 10
12.6133292586
 20
8.1259976332
 30
0.0
 10
12.6170142214
 20
8.1421333084
 30
0.0
 10
12.6208462058
 20
8.1577817837
 30
0.0
 10
12.6248174723
 20
8.1729116323
 30
0.0
 10
12.6289200021
 20
8.187492483
 30
0.0
 10
12.6331454999
 20
8.2014950909
 30
0.0
 10
12.6374854242
 20
8.2148913971
 30
0.0
 10
12.6419310045
 20
8.2276545822
 30
0.0
 10
12.6464732647
 20
8.2397591349
 30
0.0
 10
12.6511030398
 20
8.2511808953
 30
0.0
 10
12.6558110031
 20
8.2618972069
 30
0.0
 10
12.6605876825
 20
8.271886675
 30
0.0
 10
12.6646801727
 20
8.2797091961
 30
0.0
 10
12.6679879536
 20
8.2855801023
 30
0.0
 10
12.6704404082
 20
8.2897190133
 30
0.0
 10
12.6729028721
 20
8.2936619826
 30
0.0
 10
12.6753741266
 20
8.2974070537
 30
0.0
 10
12.6778529143
 20
8.3009523725
 30
0.0
 10
12.6803380701
 20
8.3042961752
 30
0.0
 10
12.6828283673
 20
8.3074368623
 30
0.0
 10
12.6853226643
 20
8.3103728787
 30
0.0
 10
12.6878195914
 20
8.3131026311
 30
0.0
 10
12.6895197521
 20
8.3148190104
 30
0.0
 10
12.6903702962
 20
8.3156405729
 30
0.0
  0
SPLINE
  5
364
100
AcDbEntity
  8
0
100
AcDbSpline
 62
7
  6
CONTINUOUS
 70
0
 71
3
 72
13
 73
9
 74
0
 42
0.0000001
 43
0.0000001
 44
0.0000000001
 40
0.0
 40
0.0
 40
0.0
 40
0.0
 40
0.125117737
 40
0.2502688738
 40
0.375438572
 40
0.5006006352
 40
0.750633325
 40
1.0
 40
1.0
 40
1.0
 40
1.0
 10
10.8026537601
 20
7.9507739564
 30
0.0
 10
10.8043188658
 20
7.9489861549
 30
0.0
 10
10.8077553967
 20
7.9455070615
 30
0.0
 10
10.8132035277
 20
7.9405961106
 30
0.0
 10
10.8189244808
 20
7.9360039455
 30
0.0
 10
10.8268805578
 20
7.9303252981
 30
0.0
 10
10.8373865895
 20
7.9240812874
 30
0.0
 10
10.8462835731
 20
7.9200356171
 30
0.0
 10
10.8508187372
 20
7.9182630394
 30
0.0
  0
SPLINE
  5
365
100
AcDbEntity
  8
0
100
AcDbSpline
 62
7
  6
CONTINUOUS
 70
0
 71
3
 72
21
 73
17
 74
0
 42
0.0000001
 43
0.0000001
 44
0.0000000001
 40
0.0
 40
0.0
 40
0.0
 40
0.0
 40
0.061653237
 40
0.123329498
 40
0.1850515502
 40
0.2468416698
 40
0.3087213548
 40
0.370711108
 40
0.4328302426
 40
0.495096636
 40
0.5575265765
 40
0.6201345494
 40
0.682933126
 40
0.7459332432
 40
0.8725261314
 40
1.0
 40
1.0
 40
1.0
 40
1.0
 10
12.2084765473
 20
9.4236405622
 30
0.0
 10
12.2068998405
 20
9.42211757
 30
0.0
 10
12.2036632534
 20
9.4191551967
 30
0.0
 10
12.1985755485
 20
9.4149781804
 30
0.0
 10
12.1932669325
 20
9.4110772351
 30
0.0
 10
12.1877509446
 20
9.4074623774
 30
0.0
 10
12.1820414203
 20
9.4041426956
 30
0.0
 10
12.1761527913
 20
9.4011265092
 30
0.0
 10
12.1700998839
 20
9.3984214118
 30
0.0
 10
12.1638979387
 20
9.3960342463
 30
0.0
 10
12.1575625894
 20
9.393970961
 30
0.0
 10
12.1511098406
 20
9.3922367442
 30
0.0
 10
12.144555744
 20
9.390835979
 30
0.0
 10
12.135691391
 20
9.3894154129
 30
0.0
 10
12.1244350695
 20
9.388492477
 30
0.0
 10
12.1153856653
 20
9.3886690856
 30
0.0
 10
12.1108640547
 20
9.3889826603
 30
0.0
  0
SPLINE
  5
366
100
AcDbEntity
  8
0
100
AcDbSpline
 62
7
  6
CONTINUOUS
 70
0
 71
3
 72
54
 73
50
 74
0
 42
0.0000001
 43
0.0000001
 44
0.0000000001
 40
0.0
 40
0.0
 40
0.0
 40
0.0
 40
0.0528979508
 40
0.1050244644
 40
0.1562601213
 40
0.2064930773
 40
0.2556118675
 40
0.3035095491
 40
0.3500829046
 40
0.3952331878
 40
0.4388665769
 40
0.4808946873
 40
0.5212351886
 40
0.5598125039
 40
0.5965586632
 40
0.6314142682
 40
0.6643297169
 40
0.6952667767
 40
0.7099859496
 40
0.7242025693
 40
0.7379160094
 40
0.7511270329
 40
0.763837715
 40
0.7760516423
 40
0.7877742824
 40
0.7990129041
 40
0.8097772016
 40
0.8200793243
 40
0.8299343527
 40
0.8393607613
 40
0.8483806258
 40
0.8570203645
 40
0.8732772736
 40
0.8809823834
 40
0.8884616163
 40
0.8957661846
 40
0.9029514073
 40
0.9100757151
 40
0.9171991744
 40
0.9243818855
 40
0.9316823189
 40
0.9391559456
 40
0.9468540479
 40
0.9548230675
 40
0.9631043031
 40
0.9717337648
 40
0.9807426146
 40
0.9901572638
 40
1.0
 40
1.0
 40
1.0
 40
1.0
 10
11.8749184435
 20
10.2234766304
 30
0.0
 10
11.8804471104
 20
10.2230932161
 30
0.0
 10
11.8914188244
 20
10.2222576798
 30
0.0
 10
11.9077239615
 20
10.2207863202
 30
0.0
 10
11.9237285257
 20
10.2191087221
 30
0.0
 10
11.9393933212
 20
10.217229067
 30
0.0
 10
11.9546803493
 20
10.2151519192
 30
0.0
 10
11.9695523231
 20
10.212882394
 30
0.0
 10
11.9839730612
 20
10.2104260551
 30
0.0
 10
11.9979074762
 20
10.2077889384
 30
0.0
 10
12.0113216866
 20
10.2049775215
 30
0.0
 10
12.024183099
 20
10.2019987102
 30
0.0
 10
12.0364604909
 20
10.1988598213
 30
0.0
 10
12.0481241075
 20
10.1955685605
 30
0.0
 10
12.0591457238
 20
10.1921330096
 30
0.0
 10
12.0694988156
 20
10.1885615867
 30
0.0
 10
12.0791583318
 20
10.1848630195
 30
0.0
 10
12.0867317085
 20
10.1816309921
 30
0.0
 10
12.0924177085
 20
10.1789811264
 30
0.0
 10
12.0964235214
 20
10.1770006363
 30
0.0
 10
12.1002392962
 20
10.1749951733
 30
0.0
 10
12.1038627515
 20
10.1729659471
 30
0.0
 10
12.1072917118
 20
10.1709141783
 30
0.0
 10
12.1105241075
 20
10.1688410561
 30
0.0
 10
12.1135580328
 20
10.1667478556
 30
0.0
 10
12.1163916448
 20
10.1646357418
 30
0.0
 10
12.1190232802
 20
10.1625059755
 30
0.0
 10
12.1214513531
 20
10.1603597567
 30
0.0
 10
12.1236744017
 20
10.1581982368
 30
0.0
 10
12.125691052
 20
10.1560227423
 30
0.0
 10
12.1275001825
 20
10.1538340311
 30
0.0
 10
12.1295910698
 20
10.1509593166
 30
0.0
 10
12.1313241877
 20
10.1479991137
 30
0.0
 10
12.1326368706
 20
10.1449745152
 30
0.0
 10
12.1333910292
 20
10.1427391916
 30
0.0
 10
12.133931296
 20
10.1404986481
 30
0.0
 10
12.1342569661
 20
10.1382543831
 30
0.0
 10
12.1343675847
 20
10.1360082286
 30
0.0
 10
12.1342630205
 20
10.1337620425
 30
0.0
 10
12.1339433484
 20
10.1315177118
 30
0.0
 10
12.1334091304
 20
10.1292770095
 30
0.0
 10
12.1326609675
 20
10.127041606
 30
0.0
 10
12.1316997786
 20
10.1248129784
 30
0.0
 10
12.1305265186
 20
10.1225924723
 30
0.0
 10
12.1291421712
 20
10.1203813642
 30
0.0
 10
12.1275478785
 20
10.1181807954
 30
0.0
 10
12.1257446762
 20
10.1159919669
 30
0.0
 10
12.1237338637
 20
10.113816051
 30
0.0
 10
12.1222886325
 20
10.1124069079
 30
0.0
 10
12.1215337504
 20
10.1117044063
 30
0.0
  0
SPLINE
  5
367
100
AcDbEntity
  8
0
100
AcDbSpline
 62
7
  6
CONTINUOUS
 70
0
 71
3
 72
21
 73
17
 74
0
 42
0.0000001
 43
0.0000001
 44
0.0000000001
 40
0.0
 40
0.0
 40
0.0
 40
0.0
 40
0.061653237
 40
0.123329498
 40
0.1850515502
 40
0.2468416698
 40
0.3087213548
 40
0.370711108
 40
0.4328302426
 40
0.495096636
 40
0.5575265765
 40
0.6201345494
 40
0.682933126
 40
0.7459332432
 40
0.8725261314
 40
1.0
 40
1.0
 40
1.0
 40
1.0
 10
9.469110746
 20
9.6136162258
 30
0.0
 10
9.4675340392
 20
9.6120932335
 30
0.0
 10
9.4642974521
 20
9.6091308603
 30
0.0
 10
9.4592097472
 20
9.604953844
 30
0.0
 10
9.4539011312
 20
9.6010528986
 30
0.0
 10
9.4483851433
 20
9.5974380409
 30
0.0
 10
9.442675619
 20
9.5941183592
 30
0.0
 10
9.43678699
 20
9.5911021727
 30
0.0
 10
9.4307340826
 20
9.5883970754
 30
0.0
 10
9.4245321374
 20
9.5860099099
 30
0.0
 10
9.4181967881
 20
9.5839466246
 30
0.0
 10
9.4117440393
 20
9.5822124077
 30
0.0
 10
9.4051899427
 20
9.5808116426
 30
0.0
 10
9.3963255897
 20
9.5793910765
 30
0.0
 10
9.3850692682
 20
9.5784681405
 30
0.0
 10
9.376019864
 20
9.5786447491
 30
0.0
 10
9.3714982535
 20
9.5789583239
 30
0.0
  0
SPLINE
  5
368
100
AcDbEntity
  8
0
100
AcDbSpline
 62
7
  6
CONTINUOUS
 70
0
 71
3
 72
18
 73
14
 74
0
 42
0.0000001
 43
0.0000001
 44
0.0000000001
 40
0.0
 40
0.0
 40
0.0
 40
0.0
 40
0.1504680185
 40
0.2917144324
 40
0.4244425615
 40
0.4879099171
 40
0.5496094205
 40
0.6682625585
 40
0.7817882768
 40
0.8371379945
 40
0.8918078237
 40
0.9460192726
 40
1.0
 40
1.0
 40
1.0
 40
1.0
 10
12.6903702962
 20
7.4839783872
 30
0.0
 10
12.6891532274
 20
7.482802789
 30
0.0
 10
12.6867207396
 20
7.4805970242
 30
0.0
 10
12.6829542913
 20
7.4776575725
 30
0.0
 10
12.6797728818
 20
7.4755786401
 30
0.0
 10
12.6772359906
 20
7.4741708517
 30
0.0
 10
12.674773732
 20
7.4729622247
 30
0.0
 10
12.6716951291
 20
7.4717409484
 30
0.0
 10
12.6685617619
 20
7.4709075465
 30
0.0
 10
12.6660800421
 20
7.4704970051
 30
0.0
 10
12.664240745
 20
7.4703148001
 30
0.0
 10
12.6624088883
 20
7.4702559649
 30
0.0
 10
12.6611918483
 20
7.4702990231
 30
0.0
 10
12.6605862495
 20
7.4703410248
 30
0.0
  0
SPLINE
  5
369
100
AcDbEntity
  8
0
100
AcDbSpline
 62
7
  6
CONTINUOUS
 70
0
 71
3
 72
11
 73
7
 74
0
 42
0.0000001
 43
0.0000001
 44
0.0000000001
 40
0.0
 40
0.0
 40
0.0
 40
0.0
 40
0.2520316917
 40
0.5026839526
 40
0.7519785275
 40
1.0
 40
1.0
 40
1.0
 40
1.0
 10
11.2728020489
 20
7.5690058186
 30
0.0
 10
11.2747996812
 20
7.5688672823
 30
0.0
 10
11.2787968167
 20
7.5687487134
 30
0.0
 10
11.2847700122
 20
7.569051451
 30
0.0
 10
11.2906674842
 20
7.5698333072
 30
0.0
 10
11.2945338884
 20
7.570673018
 30
0.0
 10
11.2964405457
 20
7.5711708112
 30
0.0
  0
SPLINE
  5
36A
100
AcDbEntity
  8
0
100
AcDbSpline
 62
7
  6
CONTINUOUS
 70
0
 71
3
 72
39
 73
35
 74
0
 42
0.0000001
 43
0.0000001
 44
0.0000000001
 40
0.0
 40
0.0
 40
0.0
 40
0.0
 40
0.0299424741
 40
0.0599093236
 40
0.0899243299
 40
0.1200101071
 40
0.1501875628
 40
0.1804754121
 40
0.2108897558
 40
0.2414437341
 40
0.2721472619
 40
0.3030068476
 40
0.3340255003
 40
0.3652027176
 40
0.3965345493
 40
0.4280137317
 40
0.459629888
 40
0.4913697842
 40
0.5232176352
 40
0.5551554541
 40
0.5871634377
 40
0.6192203778
 40
0.6513040905
 40
0.68339186
 40
0.715460889
 40
0.7474887514
 40
0.779453839
 40
0.8113357971
 40
0.8431159663
 40
0.8747776774
 40
0.9063069717
 40
0.937691796
 40
0.9689252179
 40
1.0
 40
1.0
 40
1.0
 40
1.0
 10
10.0356089414
 20
7.6587721611
 30
0.0
 10
10.0342071115
 20
7.6574181032
 30
0.0
 10
10.0312932332
 20
7.6548192552
 30
0.0
 10
10.0266247347
 20
7.6512787966
 30
0.0
 10
10.0216824319
 20
7.6481138554
 30
0.0
 10
10.0164939377
 20
7.6453421875
 30
0.0
 10
10.011087779
 20
7.6429789334
 30
0.0
 10
10.0054937908
 20
7.6410370839
 30
0.0
 10
9.9997427984
 20
7.6395272648
 30
0.0
 10
9.9938664849
 20
7.6384577214
 30
0.0
 10
9.9878972041
 20
7.6378342677
 30
0.0
 10
9.9818678051
 20
7.6376602536
 30
0.0
 10
9.9758114486
 20
7.6379365547
 30
0.0
 10
9.9697614259
 20
7.6386615748
 30
0.0
 10
9.9637509774
 20
7.6398312579
 30
0.0
 10
9.9578131132
 20
7.6414391129
 30
0.0
 10
9.9519804341
 20
7.6434762516
 30
0.0
 10
9.9462849559
 20
7.6459314385
 30
0.0
 10
9.9407579368
 20
7.6487911536
 30
0.0
 10
9.9354297039
 20
7.6520396598
 30
0.0
 10
9.9303294907
 20
7.6556590953
 30
0.0
 10
9.9254852801
 20
7.6596295729
 30
0.0
 10
9.9209236524
 20
7.6639292877
 30
0.0
 10
9.9166696419
 20
7.6685346358
 30
0.0
 10
9.9127466009
 20
7.6734203422
 30
0.0
 10
9.9091760731
 20
7.6785595977
 30
0.0
 10
9.905977678
 20
7.6839242041
 30
0.0
 10
9.9031689918
 20
7.6894847243
 30
0.0
 10
9.9007654712
 20
7.695210642
 30
0.0
 10
9.8987803293
 20
7.7010705475
 30
0.0
 10
9.8972245644
 20
7.7070322263
 30
0.0
 10
9.8961066856
 20
7.7130631179
 30
0.0
 10
9.8954330261
 20
7.7191295989
 30
0.0
 10
9.8952821158
 20
7.7231868866
 30
0.0
 10
9.8952821158
 20
7.7252095898
 30
0.0
  0
SPLINE
  5
36B
100
AcDbEntity
  8
0
100
AcDbSpline
 62
7
  6
CONTINUOUS
 70
0
 71
3
 72
33
 73
29
 74
0
 42
0.0000001
 43
0.0000001
 44
0.0000000001
 40
0.0
 40
0.0
 40
0.0
 40
0.0
 40
0.0890603419
 40
0.1760882071
 40
0.260674651
 40
0.3424243346
 40
0.4209624524
 40
0.4959364432
 40
0.5319849233
 40
0.5670225083
 40
0.6010132373
 40
0.6339235597
 40
0.6657221295
 40
0.6963805454
 40
0.7258730558
 40
0.7541773793
 40
0.7812746797
 40
0.8071502238
 40
0.8317939282
 40
0.855200814
 40
0.8773722611
 40
0.8983165152
 40
0.918050624
 40
0.9366015365
 40
0.9540086317
 40
0.9703259884
 40
0.9856254418
 40
1.0
 40
1.0
 40
1.0
 40
1.0
 10
11.8570599441
 20
10.1395777577
 30
0.0
 10
11.8635011668
 20
10.1391310574
 30
0.0
 10
11.8762283558
 20
10.1381228697
 30
0.0
 10
11.8950342781
 20
10.136242173
 30
0.0
 10
11.913269037
 20
10.1340179308
 30
0.0
 10
11.9308386615
 20
10.13146177
 30
0.0
 10
11.9476525117
 20
10.1285870638
 30
0.0
 10
11.9611330769
 20
10.125904758
 30
0.0
 10
11.9714691913
 20
10.1236024356
 30
0.0
 10
11.9788779461
 20
10.1218283596
 30
0.0
 10
11.986035512
 20
10.1199866591
 30
0.0
 10
11.9929326833
 20
10.1180797351
 30
0.0
 10
11.999560577
 20
10.1161100207
 30
0.0
 10
12.0059106778
 20
10.1140801174
 30
0.0
 10
12.0119748255
 20
10.1119926077
 30
0.0
 10
12.0177452516
 20
10.109850228
 30
0.0
 10
12.0232145712
 20
10.107655724
 30
0.0
 10
12.0283758058
 20
10.1054119191
 30
0.0
 10
12.0332224009
 20
10.10312171
 30
0.0
 10
12.0377482092
 20
10.1007879669
 30
0.0
 10
12.0419475566
 20
10.0984136867
 30
0.0
 10
12.0458151669
 20
10.0960017458
 30
0.0
 10
12.0493462672
 20
10.0935551367
 30
0.0
 10
12.0525364784
 20
10.0910766687
 30
0.0
 10
12.0553818543
 20
10.0885691954
 30
0.0
 10
12.0578788897
 20
10.0860352355
 30
0.0
 10
12.0600240067
 20
10.0834777107
 30
0.0
 10
12.0612530147
 20
10.0817070816
 30
0.0
 10
12.0618010881
 20
10.0808207168
 30
0.0
  0
SPLINE
  5
36C
100
AcDbEntity
  8
0
100
AcDbSpline
 62
7
  6
CONTINUOUS
 70
0
 71
3
 72
41
 73
37
 74
0
 42
0.0000001
 43
0.0000001
 44
0.0000000001
 40
0.0
 40
0.0
 40
0.0
 40
0.0
 40
0.0311444983
 40
0.062442467
 40
0.093887251
 40
0.1254695609
 40
0.157177086
 40
0.1889950997
 40
0.2209066479
 40
0.2528929497
 40
0.284933762
 40
0.3170077852
 40
0.3490930781
 40
0.3811674822
 40
0.4132090489
 40
0.445196464
 40
0.4771094635
 40
0.5089292351
 40
0.540638799
 40
0.5722233621
 40
0.6036706378
 40
0.6349711269
 40
0.6661183495
 40
0.6971090237
 40
0.7279431823
 40
0.7586242225
 40
0.7891588828
 40
0.8195571428
 40
0.8498320452
 40
0.86493089
 40
0.8800050502
 40
0.9100832578
 40
0.9400926753
 40
0.9550812784
 40
0.9700610371
 40
1.0
 40
1.0
 40
1.0
 40
1.0
 10
12.1108640547
 20
6.649616859
 30
0.0
 10
12.1075501072
 20
6.6498466821
 30
0.0
 10
12.1009202392
 20
6.6505500349
 30
0.0
 10
12.0910558223
 20
6.6523217659
 30
0.0
 10
12.0812970478
 20
6.6548034692
 30
0.0
 10
12.0716966542
 20
6.6579817442
 30
0.0
 10
12.0623056195
 20
6.6618395906
 30
0.0
 10
12.0531740445
 20
6.6663563564
 30
0.0
 10
12.0443505733
 20
6.6715079104
 30
0.0
 10
12.0358822222
 20
6.6772667447
 30
0.0
 10
12.0278141105
 20
6.6836021312
 30
0.0
 10
12.0201892281
 20
6.6904802806
 30
0.0
 10
12.013048208
 20
6.6978645223
 30
0.0
 10
12.006429112
 20
6.705715498
 30
0.0
 10
12.0003672299
 20
6.7139913692
 30
0.0
 10
11.9948948934
 20
6.7226480377
 30
0.0
 10
11.9900413043
 20
6.7316393787
 30
0.0
 10
11.9858323807
 20
6.740917483
 30
0.0
 10
11.9822906184
 20
6.7504329093
 30
0.0
 10
11.9794349716
 20
6.7601349446
 30
0.0
 10
11.9772807507
 20
6.7699718705
 30
0.0
 10
11.9758395388
 20
6.7798912351
 30
0.0
 10
11.9751191284
 20
6.7898401299
 30
0.0
 10
11.9751234742
 20
6.7997654653
 30
0.0
 10
11.9758526737
 20
6.8096142619
 30
0.0
 10
11.977302941
 20
6.8193338921
 30
0.0
 10
11.9794666936
 20
6.8288725023
 30
0.0
 10
11.9823323176
 20
6.838178765
 30
0.0
 10
11.9852958676
 20
6.8457069878
 30
0.0
 10
11.9880002509
 20
6.8515613543
 30
0.0
 10
11.990918823
 20
6.8572884208
 30
0.0
 10
11.9949710823
 20
6.8642156178
 30
0.0
 10
11.9995445427
 20
6.8707992974
 30
0.0
 10
12.0034966805
 20
6.8758317065
 30
0.0
 10
12.0076373611
 20
6.8806998513
 30
0.0
 10
12.0109547573
 20
6.884165572
 30
0.0
 10
12.0132515622
 20
6.8863841304
 30
0.0
  0
SPLINE
  5
36D
100
AcDbEntity
  8
0
100
AcDbSpline
 62
7
  6
CONTINUOUS
 70
0
 71
3
 72
41
 73
37
 74
0
 42
0.0000001
 43
0.0000001
 44
0.0000000001
 40
0.0
 40
0.0
 40
0.0
 40
0.0
 40
0.0311444983
 40
0.062442467
 40
0.093887251
 40
0.1254695609
 40
0.157177086
 40
0.1889950997
 40
0.2209066479
 40
0.2528929497
 40
0.284933762
 40
0.3170077852
 40
0.3490930781
 40
0.3811674822
 40
0.4132090489
 40
0.445196464
 40
0.4771094635
 40
0.5089292351
 40
0.540638799
 40
0.5722233621
 40
0.6036706378
 40
0.6349711269
 40
0.6661183495
 40
0.6971090237
 40
0.7279431823
 40
0.7586242225
 40
0.7891588828
 40
0.8195571428
 40
0.8498320452
 40
0.86493089
 40
0.8800050502
 40
0.9100832578
 40
0.9400926753
 40
0.9550812784
 40
0.9700610371
 40
1.0
 40
1.0
 40
1.0
 40
1.0
 10
9.3714982535
 20
6.8395925226
 30
0.0
 10
9.3681843059
 20
6.8398223457
 30
0.0
 10
9.3615544379
 20
6.8405256984
 30
0.0
 10
9.351690021
 20
6.8422974295
 30
0.0
 10
9.3419312465
 20
6.8447791327
 30
0.0
 10
9.3323308529
 20
6.8479574078
 30
0.0
 10
9.3229398182
 20
6.8518152542
 30
0.0
 10
9.3138082432
 20
6.85633202
 30
0.0
 10
9.304984772
 20
6.861483574
 30
0.0
 10
9.2965164209
 20
6.8672424082
 30
0.0
 10
9.2884483092
 20
6.8735777947
 30
0.0
 10
9.2808234268
 20
6.8804559441
 30
0.0
 10
9.2736824067
 20
6.8878401859
 30
0.0
 10
9.2670633107
 20
6.8956911616
 30
0.0
 10
9.2610014286
 20
6.9039670327
 30
0.0
 10
9.2555290921
 20
6.9126237013
 30
0.0
 10
9.250675503
 20
6.9216150423
 30
0.0
 10
9.2464665794
 20
6.9308931465
 30
0.0
 10
9.2429248171
 20
6.9404085729
 30
0.0
 10
9.2400691703
 20
6.9501106082
 30
0.0
 10
9.2379149494
 20
6.959947534
 30
0.0
 10
9.2364737375
 20
6.9698668987
 30
0.0
 10
9.2357533271
 20
6.9798157934
 30
0.0
 10
9.2357576729
 20
6.9897411289
 30
0.0
 10
9.2364868724
 20
6.9995899254
 30
0.0
 10
9.2379371397
 20
7.0093095556
 30
0.0
 10
9.2401008923
 20
7.0188481659
 30
0.0
 10
9.2429665163
 20
7.0281544285
 30
0.0
 10
9.2459300663
 20
7.0356826514
 30
0.0
 10
9.2486344496
 20
7.0415370179
 30
0.0
 10
9.2515530217
 20
7.0472640843
 30
0.0
 10
9.255605281
 20
7.0541912814
 30
0.0
 10
9.2601787414
 20
7.060774961
 30
0.0
 10
9.2641308792
 20
7.0658073701
 30
0.0
 10
9.2682715598
 20
7.0706755149
 30
0.0
 10
9.271588956
 20
7.0741412356
 30
0.0
 10
9.2738857609
 20
7.076359794
 30
0.0
  0
SPLINE
  5
36E
100
AcDbEntity
  8
0
100
AcDbSpline
 62
7
  6
CONTINUOUS
 70
0
 71
3
 72
39
 73
35
 74
0
 42
0.0000001
 43
0.0000001
 44
0.0000000001
 40
0.0
 40
0.0
 40
0.0
 40
0.0
 40
0.0299424741
 40
0.0599093236
 40
0.0899243299
 40
0.1200101071
 40
0.1501875628
 40
0.1804754121
 40
0.2108897558
 40
0.2414437341
 40
0.2721472619
 40
0.3030068476
 40
0.3340255003
 40
0.3652027176
 40
0.3965345493
 40
0.4280137317
 40
0.459629888
 40
0.4913697842
 40
0.5232176352
 40
0.5551554541
 40
0.5871634377
 40
0.6192203778
 40
0.6513040905
 40
0.68339186
 40
0.715460889
 40
0.7474887514
 40
0.779453839
 40
0.8113357971
 40
0.8431159663
 40
0.8747776774
 40
0.9063069717
 40
0.937691796
 40
0.9689252179
 40
1.0
 40
1.0
 40
1.0
 40
1.0
 10
10.0356089414
 20
8.8362357956
 30
0.0
 10
10.0342071115
 20
8.8348817377
 30
0.0
 10
10.0312932332
 20
8.8322828897
 30
0.0
 10
10.0266247347
 20
8.8287424311
 30
0.0
 10
10.0216824319
 20
8.8255774899
 30
0.0
 10
10.0164939377
 20
8.8228058221
 30
0.0
 10
10.011087779
 20
8.8204425679
 30
0.0
 10
10.0054937908
 20
8.8185007184
 30
0.0
 10
9.9997427984
 20
8.8169908993
 30
0.0
 10
9.9938664849
 20
8.8159213559
 30
0.0
 10
9.9878972041
 20
8.8152979022
 30
0.0
 10
9.9818678051
 20
8.8151238882
 30
0.0
 10
9.9758114486
 20
8.8154001892
 30
0.0
 10
9.9697614259
 20
8.8161252093
 30
0.0
 10
9.9637509774
 20
8.8172948924
 30
0.0
 10
9.9578131132
 20
8.8189027474
 30
0.0
 10
9.9519804341
 20
8.8209398862
 30
0.0
 10
9.9462849559
 20
8.823395073
 30
0.0
 10
9.9407579368
 20
8.8262547881
 30
0.0
 10
9.9354297039
 20
8.8295032943
 30
0.0
 10
9.9303294907
 20
8.8331227298
 30
0.0
 10
9.9254852801
 20
8.8370932074
 30
0.0
 10
9.9209236524
 20
8.8413929222
 30
0.0
 10
9.9166696419
 20
8.8459982703
 30
0.0
 10
9.9127466009
 20
8.8508839767
 30
0.0
 10
9.9091760731
 20
8.8560232322
 30
0.0
 10
9.905977678
 20
8.8613878386
 30
0.0
 10
9.9031689918
 20
8.8669483588
 30
0.0
 10
9.9007654712
 20
8.8726742765
 30
0.0
 10
9.8987803293
 20
8.878534182
 30
0.0
 10
9.8972245644
 20
8.8844958608
 30
0.0
 10
9.8961066856
 20
8.8905267524
 30
0.0
 10
9.8954330261
 20
8.8965932334
 30
0.0
 10
9.8952821158
 20
8.9006505211
 30
0.0
 10
9.8952821158
 20
8.9026732243
 30
0.0
  0
SPLINE
  5
36F
100
AcDbEntity
  8
0
100
AcDbSpline
 62
7
  6
CONTINUOUS
 70
0
 71
3
 72
31
 73
27
 74
0
 42
0.0000001
 43
0.0000001
 44
0.0000000001
 40
0.0
 40
0.0
 40
0.0
 40
0.0
 40
0.0327356706
 40
0.0653802138
 40
0.0979116937
 40
0.1303124799
 40
0.1625699567
 40
0.1946765523
 40
0.2266294167
 40
0.2584298615
 40
0.290082614
 40
0.3215950428
 40
0.3529763913
 40
0.3842370842
 40
0.4153883212
 40
0.4464418021
 40
0.5082794999
 40
0.5698641364
 40
0.6312783039
 40
0.692597421
 40
0.7538898514
 40
0.7845531236
 40
0.8152327446
 40
0.8766551667
 40
0.9382266457
 40
1.0
 40
1.0
 40
1.0
 40
1.0
 10
10.5653245287
 20
8.3500805355
 30
0.0
 10
10.5668205454
 20
8.3478402531
 30
0.0
 10
10.569636992
 20
8.3432486423
 30
0.0
 10
10.57331028
 20
8.3360688148
 30
0.0
 10
10.576410612
 20
8.3286531182
 30
0.0
 10
10.5789281907
 20
8.3210538131
 30
0.0
 10
10.5808619001
 20
8.3133217134
 30
0.0
 10
10.5822178642
 20
8.3055054586
 30
0.0
 10
10.5830083851
 20
8.2976501386
 30
0.0
 10
10.583250562
 20
8.2897966311
 30
0.0
 10
10.5829649626
 20
8.2819812563
 30
0.0
 10
10.5821744144
 20
8.2742357894
 30
0.0
 10
10.5809029658
 20
8.2665876681
 30
0.0
 10
10.579175127
 20
8.2590604704
 30
0.0
 10
10.5770150742
 20
8.2516739559
 30
0.0
 10
10.573595991
 20
8.242051171
 30
0.0
 10
10.5683563905
 20
8.2304399274
 30
0.0
 10
10.5606869308
 20
8.2172757452
 30
0.0
 10
10.5517904958
 20
8.2049619501
 30
0.0
 10
10.5417981468
 20
8.1935550449
 30
0.0
 10
10.5326516102
 20
8.1848435675
 30
0.0
 10
10.5248990533
 20
8.1783783877
 30
0.0
 10
10.5168638986
 20
8.1722503321
 30
0.0
 10
10.506318324
 20
8.165239748
 30
0.0
 10
10.4929663769
 20
8.1579297664
 30
0.0
 10
10.4836633334
 20
8.153832479
 30
0.0
 10
10.4789264466
 20
8.1519877251
 30
0.0
  0
SPLINE
  5
370
100
AcDbEntity
  8
0
100
AcDbSpline
 62
7
  6
CONTINUOUS
 70
0
 71
3
 72
15
 73
11
 74
0
 42
0.0000001
 43
0.0000001
 44
0.0000000001
 40
0.0
 40
0.0
 40
0.0
 40
0.0
 40
0.1273482292
 40
0.2538605354
 40
0.3795879276
 40
0.5046050833
 40
0.6290174349
 40
0.7529533662
 40
0.8765605734
 40
1.0
 40
1.0
 40
1.0
 40
1.0
 10
11.4349678991
 20
7.5884882982
 30
0.0
 10
11.4349678991
 20
7.5910907281
 30
0.0
 10
11.4352163776
 20
7.5962821033
 30
0.0
 10
11.4363401037
 20
7.6039693215
 30
0.0
 10
11.438203432
 20
7.6114633884
 30
0.0
 10
11.4407895356
 20
7.6186942167
 30
0.0
 10
11.4440746705
 20
7.6255951277
 30
0.0
 10
11.4480289025
 20
7.632102398
 30
0.0
 10
11.4526150513
 20
7.6381550534
 30
0.0
 10
11.4560681873
 20
7.6418523622
 30
0.0
 10
11.4578825478
 20
7.6436048923
 30
0.0
  0
SPLINE
  5
371
100
AcDbEntity
  8
0
100
AcDbSpline
 62
7
  6
CONTINUOUS
 70
0
 71
3
 72
39
 73
35
 74
0
 42
0.0000001
 43
0.0000001
 44
0.0000000001
 40
0.0
 40
0.0
 40
0.0
 40
0.0
 40
0.0299424741
 40
0.0599093236
 40
0.0899243299
 40
0.1200101071
 40
0.1501875628
 40
0.1804754121
 40
0.2108897558
 40
0.2414437341
 40
0.2721472619
 40
0.3030068476
 40
0.3340255003
 40
0.3652027176
 40
0.3965345493
 40
0.4280137317
 40
0.459629888
 40
0.4913697842
 40
0.5232176352
 40
0.5551554541
 40
0.5871634377
 40
0.6192203778
 40
0.6513040905
 40
0.68339186
 40
0.715460889
 40
0.7474887514
 40
0.779453839
 40
0.8113357971
 40
0.8431159663
 40
0.8747776774
 40
0.9063069717
 40
0.937691796
 40
0.9689252179
 40
1.0
 40
1.0
 40
1.0
 40
1.0
 10
11.5752947247
 20
8.7603679147
 30
0.0
 10
11.5738928948
 20
8.7590138569
 30
0.0
 10
11.5709790165
 20
8.7564150089
 30
0.0
 10
11.566310518
 20
8.7528745503
 30
0.0
 10
11.5613682151
 20
8.7497096091
 30
0.0
 10
11.556179721
 20
8.7469379412
 30
0.0
 10
11.5507735623
 20
8.7445746871
 30
0.0
 10
11.5451795741
 20
8.7426328376
 30
0.0
 10
11.5394285817
 20
8.7411230185
 30
0.0
 10
11.5335522682
 20
8.7400534751
 30
0.0
 10
11.5275829874
 20
8.7394300214
 30
0.0
 10
11.5215535883
 20
8.7392560073
 30
0.0
 10
11.5154972319
 20
8.7395323084
 30
0.0
 10
11.5094472091
 20
8.7402573285
 30
0.0
 10
11.5034367607
 20
8.7414270116
 30
0.0
 10
11.4974988964
 20
8.7430348666
 30
0.0
 10
11.4916662174
 20
8.7450720053
 30
0.0
 10
11.4859707392
 20
8.7475271922
 30
0.0
 10
11.48044372
 20
8.7503869072
 30
0.0
 10
11.4751154871
 20
8.7536354135
 30
0.0
 10
11.470015274
 20
8.757254849
 30
0.0
 10
11.4651710634
 20
8.7612253266
 30
0.0
 10
11.4606094357
 20
8.7655250414
 30
0.0
 10
11.4563554251
 20
8.7701303895
 30
0.0
 10
11.4524323841
 20
8.7750160959
 30
0.0
 10
11.4488618564
 20
8.7801553513
 30
0.0
 10
11.4456634613
 20
8.7855199578
 30
0.0
 10
11.442854775
 20
8.791080478
 30
0.0
 10
11.4404512544
 20
8.7968063957
 30
0.0
 10
11.4384661126
 20
8.8026663012
 30
0.0
 10
11.4369103477
 20
8.80862798
 30
0.0
 10
11.4357924689
 20
8.8146588716
 30
0.0
 10
11.4351188094
 20
8.8207253526
 30
0.0
 10
11.4349678991
 20
8.8247826402
 30
0.0
 10
11.4349678991
 20
8.8268053435
 30
0.0
  0
SPLINE
  5
372
100
AcDbEntity
  8
0
100
AcDbSpline
 62
7
  6
CONTINUOUS
 70
0
 71
3
 72
39
 73
35
 74
0
 42
0.0000001
 43
0.0000001
 44
0.0000000001
 40
0.0
 40
0.0
 40
0.0
 40
0.0
 40
0.0299424741
 40
0.0599093236
 40
0.0899243299
 40
0.1200101071
 40
0.1501875628
 40
0.1804754121
 40
0.2108897558
 40
0.2414437341
 40
0.2721472619
 40
0.3030068476
 40
0.3340255003
 40
0.3652027176
 40
0.3965345493
 40
0.4280137317
 40
0.459629888
 40
0.4913697842
 40
0.5232176352
 40
0.5551554541
 40
0.5871634377
 40
0.6192203778
 40
0.6513040905
 40
0.68339186
 40
0.715460889
 40
0.7474887514
 40
0.779453839
 40
0.8113357971
 40
0.8431159663
 40
0.8747776774
 40
0.9063069717
 40
0.937691796
 40
0.9689252179
 40
1.0
 40
1.0
 40
1.0
 40
1.0
 10
11.5752947247
 20
7.5220508694
 30
0.0
 10
11.5738928948
 20
7.5206968116
 30
0.0
 10
11.5709790165
 20
7.5180979635
 30
0.0
 10
11.566310518
 20
7.514557505
 30
0.0
 10
11.5613682151
 20
7.5113925638
 30
0.0
 10
11.556179721
 20
7.5086208959
 30
0.0
 10
11.5507735623
 20
7.5062576417
 30
0.0
 10
11.5451795741
 20
7.5043157922
 30
0.0
 10
11.5394285817
 20
7.5028059732
 30
0.0
 10
11.5335522682
 20
7.5017364298
 30
0.0
 10
11.5275829874
 20
7.5011129761
 30
0.0
 10
11.5215535883
 20
7.500938962
 30
0.0
 10
11.5154972319
 20
7.5012152631
 30
0.0
 10
11.5094472091
 20
7.5019402832
 30
0.0
 10
11.5034367607
 20
7.5031099663
 30
0.0
 10
11.4974988964
 20
7.5047178213
 30
0.0
 10
11.4916662174
 20
7.50675496
 30
0.0
 10
11.4859707392
 20
7.5092101468
 30
0.0
 10
11.48044372
 20
7.5120698619
 30
0.0
 10
11.4751154871
 20
7.5153183682
 30
0.0
 10
11.470015274
 20
7.5189378037
 30
0.0
 10
11.4651710634
 20
7.5229082813
 30
0.0
 10
11.4606094357
 20
7.5272079961
 30
0.0
 10
11.4563554251
 20
7.5318133442
 30
0.0
 10
11.4524323841
 20
7.5366990506
 30
0.0
 10
11.4488618564
 20
7.541838306
 30
0.0
 10
11.4456634613
 20
7.5472029125
 30
0.0
 10
11.442854775
 20
7.5527634326
 30
0.0
 10
11.4404512544
 20
7.5584893504
 30
0.0
 10
11.4384661126
 20
7.5643492558
 30
0.0
 10
11.4369103477
 20
7.5703109347
 30
0.0
 10
11.4357924689
 20
7.5763418263
 30
0.0
 10
11.4351188094
 20
7.5824083073
 30
0.0
 10
11.4349678991
 20
7.5864655949
 30
0.0
 10
11.4349678991
 20
7.5884882982
 30
0.0
  0
SPLINE
  5
373
100
AcDbEntity
  8
0
100
AcDbSpline
 62
7
  6
CONTINUOUS
 70
0
 71
3
 72
36
 73
32
 74
0
 42
0.0000001
 43
0.0000001
 44
0.0000000001
 40
0.0
 40
0.0
 40
0.0
 40
0.0
 40
0.0066012247
 40
0.0137419834
 40
0.0214592348
 40
0.029768143
 40
0.0386669517
 40
0.048142596
 40
0.0581736025
 40
0.0687352323
 40
0.0798011535
 40
0.0913431958
 40
0.1033359769
 40
0.1157538009
 40
0.1417700135
 40
0.169223012
 40
0.1979695306
 40
0.2278879767
 40
0.2588776635
 40
0.2908503101
 40
0.3237288285
 40
0.3574417864
 40
0.4270962077
 40
0.4992533318
 40
0.5732673473
 40
0.6483405014
 40
0.7234814503
 40
0.7975116406
 40
0.8691291243
 40
0.9370233958
 40
1.0
 40
1.0
 40
1.0
 40
1.0
 10
10.7798744523
 20
7.8347464595
 30
0.0
 10
10.7801257647
 20
7.8348792201
 30
0.0
 10
10.7806679163
 20
7.8351203375
 30
0.0
 10
10.7815484743
 20
7.8354043475
 30
0.0
 10
10.7825217214
 20
7.8356275467
 30
0.0
 10
10.7835825237
 20
7.8357944212
 30
0.0
 10
10.784726126
 20
7.8359093668
 30
0.0
 10
10.78594761
 20
7.8359770258
 30
0.0
 10
10.7872422169
 20
7.8360020956
 30
0.0
 10
10.788605404
 20
7.8359890934
 30
0.0
 10
10.7900329002
 20
7.8359424591
 30
0.0
 10
10.7915208123
 20
7.8358666284
 30
0.0
 10
10.7930655311
 20
7.8357654694
 30
0.0
 10
10.7952303952
 20
7.8355994145
 30
0.0
 10
10.7980560566
 20
7.8353467668
 30
0.0
 10
10.8015792831
 20
7.8350035918
 30
0.0
 10
10.8052691041
 20
7.8346377068
 30
0.0
 10
10.8091116436
 20
7.8342688033
 30
0.0
 10
10.8130949683
 20
7.8339134443
 30
0.0
 10
10.8172086506
 20
7.8335868341
 30
0.0
 10
10.8214430335
 20
7.8333022576
 30
0.0
 10
10.8273011889
 20
7.8329913851
 30
0.0
 10
10.834857029
 20
7.8327721037
 30
0.0
 10
10.8441517299
 20
7.8328467264
 30
0.0
 10
10.8536690837
 20
7.8333157673
 30
0.0
 10
10.8632844002
 20
7.8342212071
 30
0.0
 10
10.8728470578
 20
7.835581628
 30
0.0
 10
10.882184612
 20
7.8373864035
 30
0.0
 10
10.8911150463
 20
7.8395907034
 30
0.0
 10
10.8994637661
 20
7.842115383
 30
0.0
 10
10.9047695272
 20
7.8440210877
 30
0.0
 10
10.9072968972
 20
7.8450033455
 30
0.0
  0
SPLINE
  5
374
100
AcDbEntity
  8
0
100
AcDbSpline
 62
7
  6
CONTINUOUS
 70
0
 71
3
 72
15
 73
11
 74
0
 42
0.0000001
 43
0.0000001
 44
0.0000000001
 40
0.0
 40
0.0
 40
0.0
 40
0.0
 40
0.1233171148
 40
0.2468171822
 40
0.3706750007
 40
0.4950496181
 40
0.6200773069
 40
0.7458672043
 40
0.8724928123
 40
1.0
 40
1.0
 40
1.0
 40
1.0
 10
11.2783337862
 20
7.5412456841
 30
0.0
 10
11.2765834637
 20
7.5395550215
 30
0.0
 10
11.2728949477
 20
7.5363571714
 30
0.0
 10
11.2668749761
 20
7.5321784252
 30
0.0
 10
11.2604243719
 20
7.5286558185
 30
0.0
 10
11.2536091842
 20
7.5258255272
 30
0.0
 10
11.2464981495
 20
7.5237156482
 30
0.0
 10
11.2391628953
 20
7.5223472969
 30
0.0
 10
11.2316782984
 20
7.5217337753
 30
0.0
 10
11.2266542768
 20
7.5218317755
 30
0.0
 10
11.2241441103
 20
7.5220058562
 30
0.0
  0
SPLINE
  5
375
100
AcDbEntity
  8
0
100
AcDbSpline
 62
7
  6
CONTINUOUS
 70
0
 71
3
 72
39
 73
35
 74
0
 42
0.0000001
 43
0.0000001
 44
0.0000000001
 40
0.0
 40
0.0
 40
0.0
 40
0.0
 40
0.0150372895
 40
0.0300556469
 40
0.0450568371
 40
0.0600475666
 40
0.0750337651
 40
0.0900203008
 40
0.1050124404
 40
0.1200149939
 40
0.1500600302
 40
0.1801952917
 40
0.2104437494
 40
0.240821197
 40
0.271337105
 40
0.3019957393
 40
0.3327973229
 40
0.363739083
 40
0.3948161082
 40
0.4260219986
 40
0.4573493406
 40
0.4887901096
 40
0.551958357
 40
0.5836891556
 40
0.615499367
 40
0.6793059677
 40
0.7113021852
 40
0.7433425715
 40
0.8075007579
 40
0.8396164048
 40
0.8717365689
 40
0.9038498881
 40
0.9359443165
 40
1.0
 40
1.0
 40
1.0
 40
1.0
 10
11.2660412958
 20
8.136989926
 30
0.0
 10
11.2652438493
 20
8.1356640113
 30
0.0
 10
11.2635787051
 20
8.1330559579
 30
0.0
 10
11.2608770347
 20
8.1292858462
 30
0.0
 10
11.2579804615
 20
8.125669308
 30
0.0
 10
11.2548978484
 20
8.1222145098
 30
0.0
 10
11.251638527
 20
8.1189280597
 30
0.0
 10
11.2482122917
 20
8.1158159248
 30
0.0
 10
11.2446295841
 20
8.1128825674
 30
0.0
 10
11.239656697
 20
8.1092135907
 30
0.0
 10
11.2330973384
 20
8.1050876391
 30
0.0
 10
11.2247784562
 20
8.1008914855
 30
0.0
 10
11.2160875992
 20
8.0974414861
 30
0.0
 10
11.2071011786
 20
8.09472389
 30
0.0
 10
11.1978876674
 20
8.0927175783
 30
0.0
 10
11.1885081014
 20
8.0913972734
 30
0.0
 10
11.1790161791
 20
8.0907353698
 30
0.0
 10
11.169458971
 20
8.0907034742
 30
0.0
 10
11.1598776633
 20
8.0912734557
 30
0.0
 10
11.1503085787
 20
8.0924180971
 30
0.0
 10
11.1407833645
 20
8.0941116742
 30
0.0
 10
11.1281631902
 20
8.0970731952
 30
0.0
 10
11.1157549624
 20
8.1010385031
 30
0.0
 10
11.1036595382
 20
8.1059151299
 30
0.0
 10
11.0917534927
 20
8.1113972338
 30
0.0
 10
11.0802269507
 20
8.1177336227
 30
0.0
 10
11.0691641196
 20
8.1248573994
 30
0.0
 10
11.0584129167
 20
8.1325058982
 30
0.0
 10
11.0481943097
 20
8.1409022088
 30
0.0
 10
11.0386023638
 20
8.149992087
 30
0.0
 10
11.0317392273
 20
8.1571516229
 30
0.0
 10
11.0252367391
 20
8.1646379836
 30
0.0
 10
11.0170932069
 20
8.1750278252
 30
0.0
 10
11.0116010793
 20
8.1832872163
 30
0.0
 10
11.0082662405
 20
8.1889722293
 30
0.0
  0
SPLINE
  5
376
100
AcDbEntity
  8
0
100
AcDbSpline
 62
7
  6
CONTINUOUS
 70
0
 71
3
 72
28
 73
24
 74
0
 42
0.0000001
 43
0.0000001
 44
0.0000000001
 40
0.0
 40
0.0
 40
0.0
 40
0.0
 40
0.0319755698
 40
0.0638245763
 40
0.0955450658
 40
0.1271459277
 40
0.1586341297
 40
0.1900188953
 40
0.221310739
 40
0.2525207327
 40
0.2836607997
 40
0.3147424029
 40
0.3457771094
 40
0.3767762306
 40
0.4386907374
 40
0.5005804042
 40
0.5625072737
 40
0.6245210506
 40
0.6866605266
 40
0.748955333
 40
0.8114276699
 40
0.8740938967
 40
1.0
 40
1.0
 40
1.0
 40
1.0
 10
10.6265966899
 20
8.6646014376
 30
0.0
 10
10.6265966899
 20
8.6663878378
 30
0.0
 10
10.6267016933
 20
8.6699544807
 30
0.0
 10
10.6271749761
 20
8.6752743373
 30
0.0
 10
10.6279602115
 20
8.6805361765
 30
0.0
 10
10.629051295
 20
8.6857225038
 30
0.0
 10
10.630440165
 20
8.6908176418
 30
0.0
 10
10.632116847
 20
8.6958071379
 30
0.0
 10
10.6340700394
 20
8.7006781611
 30
0.0
 10
10.6362872688
 20
8.7054195838
 30
0.0
 10
10.6387552247
 20
8.7100220039
 30
0.0
 10
10.6414602823
 20
8.7144775427
 30
0.0
 10
10.6443886195
 20
8.7187800589
 30
0.0
 10
10.6485698035
 20
8.7243029816
 30
0.0
 10
10.6542902373
 20
8.7308083433
 30
0.0
 10
10.6618353244
 20
8.7379506408
 30
0.0
 10
10.6699660721
 20
8.7444254018
 30
0.0
 10
10.6785979671
 20
8.7502373474
 30
0.0
 10
10.6876571343
 20
8.7553972066
 30
0.0
 10
10.6970785272
 20
8.7599182896
 30
0.0
 10
10.7068061552
 20
8.7638153474
 30
0.0
 10
10.7201338315
 20
8.7682042103
 30
0.0
 10
10.7304262593
 20
8.7705931916
 30
0.0
 10
10.7373553909
 20
8.7718037291
 30
0.0
  0
SPLINE
  5
377
100
AcDbEntity
  8
0
100
AcDbSpline
 62
7
  6
CONTINUOUS
 70
0
 71
3
 72
27
 73
23
 74
0
 42
0.0000001
 43
0.0000001
 44
0.0000000001
 40
0.0
 40
0.0
 40
0.0
 40
0.0
 40
0.0604864218
 40
0.121177625
 40
0.182099126
 40
0.2432758325
 40
0.3047315625
 40
0.3664882309
 40
0.4285645896
 40
0.4909743906
 40
0.5537238635
 40
0.6168085018
 40
0.6484796755
 40
0.6802264848
 40
0.7439063359
 40
0.8078062029
 40
0.8398251905
 40
0.8718676833
 40
0.9039205885
 40
0.9359691643
 40
0.9680020959
 40
1.0
 40
1.0
 40
1.0
 40
1.0
 10
10.400698069
 20
8.3898126678
 30
0.0
 10
10.4041324927
 20
8.3911501848
 30
0.0
 10
10.4110995452
 20
8.3936134252
 30
0.0
 10
10.4217831838
 20
8.3966374921
 30
0.0
 10
10.4326834596
 20
8.3989664564
 30
0.0
 10
10.4437618384
 20
8.4005661914
 30
0.0
 10
10.4549757479
 20
8.4013997778
 30
0.0
 10
10.4662761714
 20
8.4014274016
 30
0.0
 10
10.4776060296
 20
8.4006071068
 30
0.0
 10
10.4888983704
 20
8.398895857
 30
0.0
 10
10.5000734077
 20
8.3962519059
 30
0.0
 10
10.5092012469
 20
8.3932426009
 30
0.0
 10
10.5163436296
 20
8.3903371885
 30
0.0
 10
10.5233763879
 20
8.3870881152
 30
0.0
 10
10.531890423
 20
8.3823893622
 30
0.0
 10
10.5399088624
 20
8.3768545312
 30
0.0
 10
10.5459635182
 20
8.371936726
 30
0.0
 10
10.5503098666
 20
8.3680069282
 30
0.0
 10
10.5544397037
 20
8.363847739
 30
0.0
 10
10.5583364331
 20
8.3594699656
 30
0.0
 10
10.5619838881
 20
8.3548868998
 30
0.0
 10
10.564241747
 20
8.3517019992
 30
0.0
 10
10.5653245287
 20
8.3500805355
 30
0.0
  0
SPLINE
  5
378
100
AcDbEntity
  8
0
100
AcDbSpline
 62
7
  6
CONTINUOUS
 70
0
 71
3
 72
40
 73
36
 74
0
 42
0.0000001
 43
0.0000001
 44
0.0000000001
 40
0.0
 40
0.0
 40
0.0
 40
0.0
 40
0.0301996485
 40
0.0603260018
 40
0.090408568
 40
0.1204780459
 40
0.1505653679
 40
0.1807007509
 40
0.2109127937
 40
0.2412276538
 40
0.271668329
 40
0.3022540629
 40
0.332999885
 40
0.3639162877
 40
0.3950090395
 40
0.4262791263
 40
0.4577228131
 40
0.4893318137
 40
0.5210935585
 40
0.5529915498
 40
0.5850057946
 40
0.617113306
 40
0.6492886656
 40
0.6815046383
 40
0.7137328315
 40
0.7459443904
 40
0.7781107186
 40
0.8102042124
 40
0.8421989889
 40
0.8740716197
 40
0.9058017396
 40
0.9373728967
 40
0.9530977775
 40
0.9687791407
 40
1.0
 40
1.0
 40
1.0
 40
1.0
 10
10.8945343941
 20
7.7760917915
 30
0.0
 10
10.892977906
 20
7.7732253302
 30
0.0
 10
10.8896129163
 20
7.7676339768
 30
0.0
 10
10.8838453254
 20
7.7597391846
 30
0.0
 10
10.8774050846
 20
7.7524004569
 30
0.0
 10
10.8703387981
 20
7.7456688678
 30
0.0
 10
10.8626966244
 20
7.7395898134
 30
0.0
 10
10.8545325995
 20
7.7342041865
 30
0.0
 10
10.8459039915
 20
7.7295477919
 30
0.0
 10
10.8368709111
 20
7.7256512956
 30
0.0
 10
10.827495859
 20
7.7225400868
 30
0.0
 10
10.8178433031
 20
7.7202342117
 30
0.0
 10
10.8079792617
 20
7.7187483283
 30
0.0
 10
10.7979709024
 20
7.7180916878
 30
0.0
 10
10.7878861514
 20
7.7182681343
 30
0.0
 10
10.7777933124
 20
7.7192761212
 30
0.0
 10
10.767760691
 20
7.7211087391
 30
0.0
 10
10.7578562219
 20
7.7237537572
 30
0.0
 10
10.7481470938
 20
7.7271936768
 30
0.0
 10
10.7386993708
 20
7.7314057996
 30
0.0
 10
10.7295776064
 20
7.7363623144
 30
0.0
 10
10.72084445
 20
7.7420304054
 30
0.0
 10
10.712560244
 20
7.7483723854
 30
0.0
 10
10.7047826143
 20
7.7553458608
 30
0.0
 10
10.6975660557
 20
7.7629039309
 30
0.0
 10
10.6909615157
 20
7.7709954282
 30
0.0
 10
10.6850159832
 20
7.7795651966
 30
0.0
 10
10.6797720865
 20
7.7885544328
 30
0.0
 10
10.6752677112
 20
7.7979010102
 30
0.0
 10
10.6715356333
 20
7.8075400812
 30
0.0
 10
10.6686032472
 20
7.8174038684
 30
0.0
 10
10.6668414775
 20
7.8257660391
 30
0.0
 10
10.6658524126
 20
7.8324975513
 30
0.0
 10
10.6651463877
 20
7.8392261612
 30
0.0
 10
10.6649322566
 20
7.8442952143
 30
0.0
 10
10.6649322566
 20
7.8476672998
 30
0.0
  0
SPLINE
  5
379
100
AcDbEntity
  8
0
100
AcDbSpline
 62
7
  6
CONTINUOUS
 70
0
 71
3
 72
72
 73
68
 74
0
 42
0.0000001
 43
0.0000001
 44
0.0000000001
 40
0.0
 40
0.0
 40
0.0
 40
0.0
 40
0.0038577872
 40
0.0078706379
 40
0.0120417989
 40
0.016373998
 40
0.0208695662
 40
0.025530388
 40
0.0303577982
 40
0.0353526471
 40
0.0458457985
 40
0.057010757
 40
0.0688432322
 40
0.0813351508
 40
0.0944752071
 40
0.1082492878
 40
0.1226408497
 40
0.137631187
 40
0.1531996177
 40
0.1693236973
 40
0.1859793989
 40
0.203141239
 40
0.2207823749
 40
0.2388747516
 40
0.2573892106
 40
0.2762955685
 40
0.2955627006
 40
0.3151586557
 40
0.3552048809
 40
0.396165797
 40
0.4377641133
 40
0.4797169416
 40
0.5217383276
 40
0.5635417216
 40
0.6048424552
 40
0.6453602545
 40
0.6652401271
 40
0.6848224416
 40
0.7040745256
 40
0.7229644518
 40
0.7414611486
 40
0.75953448
 40
0.7771553207
 40
0.7942956584
 40
0.81092873
 40
0.827029109
 40
0.8425728172
 40
0.8575374847
 40
0.8719025356
 40
0.8856493411
 40
0.8987614389
 40
0.911224845
 40
0.9230284005
 40
0.9341641721
 40
0.9446280174
 40
0.9544203652
 40
0.9590667794
 40
0.9635480768
 40
0.9678660966
 40
0.9720231996
 40
0.9760223019
 40
0.9798670466
 40
0.9835617895
 40
0.9871117241
 40
0.9905230284
 40
0.9938028811
 40
1.0
 40
1.0
 40
1.0
 40
1.0
 10
12.6604265943
 20
7.48605499
 30
0.0
 10
12.6612346104
 20
7.4868354736
 30
0.0
 10
12.6628498602
 20
7.4884625489
 30
0.0
 10
12.6652245829
 20
7.4910436894
 30
0.0
 10
12.6675970725
 20
7.4938115254
 30
0.0
 10
12.6699661117
 20
7.4967646973
 30
0.0
 10
12.6723307178
 20
7.4999018572
 30
0.0
 10
12.6746898381
 20
7.5032216499
 30
0.0
 10
12.6770424764
 20
7.5067226031
 30
0.0
 10
12.6802216408
 20
7.5117123148
 30
0.0
 10
12.6841639957
 20
7.5184010766
 30
0.0
 10
12.6887774005
 20
7.5269960124
 30
0.0
 10
12.6933398195
 20
7.5362712789
 30
0.0
 10
12.6978429759
 20
7.5462101851
 30
0.0
 10
12.7022787174
 20
7.5567949847
 30
0.0
 10
12.7066389786
 20
7.5680066234
 30
0.0
 10
12.7109158081
 20
7.5798248912
 30
0.0
 10
12.7151013875
 20
7.5922284371
 30
0.0
 10
12.719188079
 20
7.6051948076
 30
0.0
 10
12.7231684219
 20
7.6187005013
 30
0.0
 10
12.727035141
 20
7.6327210268
 30
0.0
 10
12.7307811634
 20
7.6472309424
 30
0.0
 10
12.7343996574
 20
7.6622038963
 30
0.0
 10
12.7378840168
 20
7.6776126867
 30
0.0
 10
12.7412278766
 20
7.6934293201
 30
0.0
 10
12.7444251216
 20
7.7096250455
 30
0.0
 10
12.7474699532
 20
7.7261704394
 30
0.0
 10
12.7513469306
 20
7.7488203169
 30
0.0
 10
12.7557634932
 20
7.7777846401
 30
0.0
 10
12.7603380997
 20
7.8131966144
 30
0.0
 10
12.7641912733
 20
7.8492527474
 30
0.0
 10
12.7672949281
 20
7.8856909549
 30
0.0
 10
12.7696263938
 20
7.9222465353
 30
0.0
 10
12.7711688094
 20
7.9586539104
 30
0.0
 10
12.7719109992
 20
7.9946484255
 30
0.0
 10
12.7718581905
 20
8.0242663426
 30
0.0
 10
12.7714041507
 20
8.0475529719
 30
0.0
 10
12.7708641724
 20
8.0646427898
 30
0.0
 10
12.7701236721
 20
8.0814365427
 30
0.0
 10
12.7691839849
 20
8.0979037182
 30
0.0
 10
12.7680468519
 20
8.1140143728
 30
0.0
 10
12.7667143702
 20
8.1297392265
 30
0.0
 10
12.7651889884
 20
8.1450496995
 30
0.0
 10
12.7634735018
 20
8.1599179729
 30
0.0
 10
12.7615710748
 20
8.1743170461
 30
0.0
 10
12.759485209
 20
8.1882207837
 30
0.0
 10
12.7572197343
 20
8.2016039578
 30
0.0
 10
12.7547788089
 20
8.2144423072
 30
0.0
 10
12.752166931
 20
8.2267125917
 30
0.0
 10
12.7493889002
 20
8.2383926308
 30
0.0
 10
12.7464498024
 20
8.249461345
 30
0.0
 10
12.7433550154
 20
8.2598988283
 30
0.0
 10
12.7401101955
 20
8.2696863675
 30
0.0
 10
12.7367212065
 20
8.2788065925
 30
0.0
 10
12.7331941428
 20
8.2872431343
 30
0.0
 10
12.7300930131
 20
8.2938019857
 30
0.0
 10
12.7275402341
 20
8.298685221
 30
0.0
 10
12.7256286548
 20
8.3021030021
 30
0.0
 10
12.7236873949
 20
8.3053389801
 30
0.0
 10
12.7217172928
 20
8.3083917292
 30
0.0
 10
12.7197191598
 20
8.3112598599
 30
0.0
 10
12.7176938978
 20
8.3139421135
 30
0.0
 10
12.7156423254
 20
8.316437303
 30
0.0
 10
12.7135653416
 20
8.3187442143
 30
0.0
 10
12.7114635671
 20
8.3208620553
 30
0.0
 10
12.708682775
 20
8.3233839326
 30
0.0
 10
12.7064835036
 20
8.3250660366
 30
0.0
 10
12.7049788416
 20
8.3260623766
 30
0.0
  0
SPLINE
  5
37A
100
AcDbEntity
  8
0
100
AcDbSpline
 62
7
  6
CONTINUOUS
 70
0
 71
3
 72
11
 73
7
 74
0
 42
0.0000001
 43
0.0000001
 44
0.0000000001
 40
0.0
 40
0.0
 40
0.0
 40
0.0
 40
0.2730455232
 40
0.5298860536
 40
0.7716949754
 40
1.0
 40
1.0
 40
1.0
 40
1.0
 10
12.6604265943
 20
7.48605499
 30
0.0
 10
12.6592480214
 20
7.4849165759
 30
0.0
 10
12.6568924433
 20
7.4827762913
 30
0.0
 10
12.6532486215
 20
7.4799109587
 30
0.0
 10
12.6496094799
 20
7.4774959436
 30
0.0
 10
12.6471225222
 20
7.4761528689
 30
0.0
 10
12.6458847629
 20
7.4755653803
 30
0.0
  0
SPLINE
  5
37B
100
AcDbEntity
  8
0
100
AcDbSpline
 62
7
  6
CONTINUOUS
 70
0
 71
3
 72
15
 73
11
 74
0
 42
0.0000001
 43
0.0000001
 44
0.0000000001
 40
0.0
 40
0.0
 40
0.0
 40
0.0
 40
0.148189077
 40
0.2884124565
 40
0.4211645545
 40
0.5470824521
 40
0.6669392739
 40
0.7816491473
 40
0.892270482
 40
1.0
 40
1.0
 40
1.0
 40
1.0
 10
12.6604265943
 20
7.4986120265
 30
0.0
 10
12.6593914295
 20
7.497612134
 30
0.0
 10
12.6573222272
 20
7.4957212483
 30
0.0
 10
12.6541313116
 20
7.4931573842
 30
0.0
 10
12.6509437394
 20
7.4909492009
 30
0.0
 10
12.6477620142
 20
7.489099095
 30
0.0
 10
12.6445883102
 20
7.4876093298
 30
0.0
 10
12.6414249285
 20
7.4864820204
 30
0.0
 10
12.6382751984
 20
7.4857195606
 30
0.0
 10
12.6361658343
 20
7.4854531502
 30
0.0
 10
12.6351218981
 20
7.48538325
 30
0.0
  0
SPLINE
  5
37C
100
AcDbEntity
  8
0
100
AcDbSpline
 62
7
  6
CONTINUOUS
 70
0
 71
3
 72
11
 73
7
 74
0
 42
0.0000001
 43
0.0000001
 44
0.0000000001
 40
0.0
 40
0.0
 40
0.0
 40
0.0
 40
0.2783980103
 40
0.5363556557
 40
0.7759608084
 40
1.0
 40
1.0
 40
1.0
 40
1.0
 10
12.6428597508
 20
7.509972513
 30
0.0
 10
12.6414791747
 20
7.5086389787
 30
0.0
 10
12.6387206163
 20
7.5061685499
 30
0.0
 10
12.634418792
 20
7.5029734428
 30
0.0
 10
12.6301232436
 20
7.5004432549
 30
0.0
 10
12.6271801067
 20
7.4991675774
 30
0.0
 10
12.6257224211
 20
7.4986565424
 30
0.0
  0
SPLINE
  5
37D
100
AcDbEntity
  8
0
100
AcDbSpline
 62
7
  6
CONTINUOUS
 70
0
 71
3
 72
32
 73
28
 74
0
 42
0.0000001
 43
0.0000001
 44
0.0000000001
 40
0.0
 40
0.0
 40
0.0
 40
0.0
 40
0.0607419963
 40
0.1218244707
 40
0.1525002557
 40
0.1832613646
 40
0.245025544
 40
0.3071229902
 40
0.3695430051
 40
0.4322692257
 40
0.4952772062
 40
0.5585300097
 40
0.590242106
 40
0.6219940056
 40
0.6855473426
 40
0.7173458396
 40
0.7491274449
 40
0.7808715406
 40
0.8125549711
 40
0.8441525192
 40
0.8599138782
 40
0.875644151
 40
0.9069913069
 40
0.9381767885
 40
0.9537061453
 40
0.969188799
 40
1.0
 40
1.0
 40
1.0
 40
1.0
 10
10.8358040768
 20
8.5352094528
 30
0.0
 10
10.8303008434
 20
8.5342480235
 30
0.0
 10
10.8191739471
 20
8.5328029314
 30
0.0
 10
10.805146736
 20
8.5321615896
 30
0.0
 10
10.7938768979
 20
8.5323288487
 30
0.0
 10
10.7825602722
 20
8.5329504599
 30
0.0
 10
10.7684163546
 20
8.5345776297
 30
0.0
 10
10.7515869111
 20
8.5378800579
 30
0.0
 10
10.7349896084
 20
8.542544132
 30
0.0
 10
10.7187525699
 20
8.5485881479
 30
0.0
 10
10.7030237626
 20
8.5560369825
 30
0.0
 10
10.6904922742
 20
8.5634359333
 30
0.0
 10
10.6809145582
 20
8.570084265
 30
0.0
 10
10.6716679423
 20
8.5772297554
 30
0.0
 10
10.662998865
 20
8.5851161786
 30
0.0
 10
10.6550761824
 20
8.5937236708
 30
0.0
 10
10.6495487228
 20
8.6005369465
 30
0.0
 10
10.6444883971
 20
8.6076915765
 30
0.0
 10
10.6399476109
 20
8.6151676003
 30
0.0
 10
10.6366384516
 20
8.6216490467
 30
0.0
 10
10.6343055556
 20
8.626963343
 30
0.0
 10
10.6321949946
 20
8.6323450488
 30
0.0
 10
10.6299794931
 20
8.6392029262
 30
0.0
 10
10.6283622016
 20
8.6462079449
 30
0.0
 10
10.6274493718
 20
8.651856909
 30
0.0
 10
10.6267958528
 20
8.6575066025
 30
0.0
 10
10.6265966899
 20
8.661767659
 30
0.0
 10
10.6265966899
 20
8.6646014376
 30
0.0
  0
SPLINE
  5
37E
100
AcDbEntity
  8
0
100
AcDbSpline
 62
7
  6
CONTINUOUS
 70
0
 71
3
 72
21
 73
17
 74
0
 42
0.0000001
 43
0.0000001
 44
0.0000000001
 40
0.0
 40
0.0
 40
0.0
 40
0.0
 40
0.1281404297
 40
0.1920236005
 40
0.2557379291
 40
0.3825097062
 40
0.4455697842
 40
0.5083638426
 40
0.570871373
 40
0.633076109
 40
0.6949677784
 40
0.7565438893
 40
0.8178116368
 40
0.8787888141
 40
0.9395050427
 40
1.0
 40
1.0
 40
1.0
 40
1.0
 10
11.2584277186
 20
8.256634571
 30
0.0
 10
11.2611463207
 20
8.2520000778
 30
0.0
 10
11.2649046346
 20
8.2448610442
 30
0.0
 10
11.269178544
 20
8.2350221497
 30
0.0
 10
11.2729149488
 20
8.2250282498
 30
0.0
 10
11.2758219824
 20
8.2147732046
 30
0.0
 10
11.2777822303
 20
8.2043578061
 30
0.0
 10
11.2787509088
 20
8.1965134847
 30
0.0
 10
11.2791944246
 20
8.1886577004
 30
0.0
 10
11.2790889959
 20
8.1808272757
 30
0.0
 10
11.2784137002
 20
8.1730639165
 30
0.0
 10
11.2771520142
 20
8.1654132338
 30
0.0
 10
11.2752932247
 20
8.1579242539
 30
0.0
 10
11.2728336637
 20
8.1506478792
 30
0.0
 10
11.2697783769
 20
8.143636421
 30
0.0
 10
11.2673486505
 20
8.1391636654
 30
0.0
 10
11.2660412958
 20
8.136989926
 30
0.0
  0
SPLINE
  5
37F
100
AcDbEntity
  8
0
100
AcDbSpline
 62
7
  6
CONTINUOUS
 70
0
 71
3
 72
41
 73
37
 74
0
 42
0.0000001
 43
0.0000001
 44
0.0000000001
 40
0.0
 40
0.0
 40
0.0
 40
0.0
 40
0.0126985403
 40
0.0195010823
 40
0.0266310864
 40
0.0341048881
 40
0.0419359307
 40
0.0501348639
 40
0.0587100934
 40
0.0676680171
 40
0.0770131694
 40
0.0867486951
 40
0.096876215
 40
0.1073962623
 40
0.1183082723
 40
0.1412998422
 40
0.1658302961
 40
0.1918660235
 40
0.2193637992
 40
0.2482721242
 40
0.2785323127
 40
0.3100793645
 40
0.3428426679
 40
0.376746597
 40
0.4117110212
 40
0.4476517723
 40
0.4844811018
 40
0.5221080849
 40
0.5604390011
 40
0.5993776996
 40
0.6388259491
 40
0.6786838086
 40
0.7592202386
 40
0.840168237
 40
0.9207014604
 40
1.0
 40
1.0
 40
1.0
 40
1.0
 10
11.5068444103
 20
10.0807912313
 30
0.0
 10
11.5076511551
 20
10.0820993943
 30
0.0
 10
11.5090486375
 20
10.0840135206
 30
0.0
 10
11.5111804858
 20
10.0864320799
 30
0.0
 10
11.5130029007
 20
10.0882757587
 30
0.0
 10
11.5150102687
 20
10.0901058094
 30
0.0
 10
11.5172015388
 20
10.0919213602
 30
0.0
 10
11.5195751315
 20
10.0937212269
 30
0.0
 10
11.5221294962
 20
10.0955042663
 30
0.0
 10
11.524862927
 20
10.0972692933
 30
0.0
 10
11.5277735755
 20
10.0990151911
 30
0.0
 10
11.5308595142
 20
10.1007407419
 30
0.0
 10
11.5341186431
 20
10.1024448331
 30
0.0
 10
11.5375487805
 20
10.104126311
 30
0.0
 10
11.5424326891
 20
10.1063758678
 30
0.0
 10
11.5489558626
 20
10.1091143409
 30
0.0
 10
11.5572947364
 20
10.1122378958
 30
0.0
 10
11.5662533693
 20
10.1152450846
 30
0.0
 10
11.5758074461
 20
10.1181276411
 30
0.0
 10
11.5859311535
 20
10.1208776306
 30
0.0
 10
11.5965969851
 20
10.1234874694
 30
0.0
 10
11.6077759235
 20
10.1259499547
 30
0.0
 10
11.6194375077
 20
10.1282582889
 30
0.0
 10
11.6315499303
 20
10.1304060986
 30
0.0
 10
11.6440801254
 20
10.1323874569
 30
0.0
 10
11.6569938649
 20
10.1341969026
 30
0.0
 10
11.6702558595
 20
10.1358294482
 30
0.0
 10
11.6838298588
 20
10.1372805937
 30
0.0
 10
11.6976787551
 20
10.138546341
 30
0.0
 10
11.7117646711
 20
10.1396231938
 30
0.0
 10
11.7260491137
 20
10.1405082136
 30
0.0
 10
11.7453735168
 20
10.141432251
 30
0.0
 10
11.7697366824
 20
10.1420898428
 30
0.0
 10
11.7990319136
 20
10.1420884541
 30
0.0
 10
11.8281665523
 20
10.1412991138
 30
0.0
 10
11.8474853318
 20
10.1402417593
 30
0.0
 10
11.8570599441
 20
10.1395777577
 30
0.0
  0
SPLINE
  5
380
100
AcDbEntity
  8
0
100
AcDbSpline
 62
7
  6
CONTINUOUS
 70
0
 71
3
 72
15
 73
11
 74
0
 42
0.0000001
 43
0.0000001
 44
0.0000000001
 40
0.0
 40
0.0
 40
0.0
 40
0.0
 40
0.1273482292
 40
0.2538605354
 40
0.3795879276
 40
0.5046050833
 40
0.6290174349
 40
0.7529533662
 40
0.8765605734
 40
1.0
 40
1.0
 40
1.0
 40
1.0
 10
9.8952821158
 20
7.7252095898
 30
0.0
 10
9.8952821158
 20
7.7278120197
 30
0.0
 10
9.8955305944
 20
7.733003395
 30
0.0
 10
9.8966543205
 20
7.7406906131
 30
0.0
 10
9.8985176487
 20
7.7481846801
 30
0.0
 10
9.9011037524
 20
7.7554155083
 30
0.0
 10
9.9043888873
 20
7.7623164193
 30
0.0
 10
9.9083431193
 20
7.7688236897
 30
0.0
 10
9.912929268
 20
7.774876345
 30
0.0
 10
9.916382404
 20
7.7785736538
 30
0.0
 10
9.9181967645
 20
7.7803261839
 30
0.0
  0
SPLINE
  5
381
100
AcDbEntity
  8
0
100
AcDbSpline
 62
7
  6
CONTINUOUS
 70
0
 71
3
 72
39
 73
35
 74
0
 42
0.0000001
 43
0.0000001
 44
0.0000000001
 40
0.0
 40
0.0
 40
0.0
 40
0.0
 40
0.0311160054
 40
0.0620232808
 40
0.0927351539
 40
0.1232711756
 40
0.1536587326
 40
0.1839312105
 40
0.2141268386
 40
0.2442870981
 40
0.2744549747
 40
0.3046731306
 40
0.33498209
 40
0.365418544
 40
0.3960138629
 40
0.4267928807
 40
0.457772997
 40
0.4889636213
 40
0.5203659688
 40
0.551973177
 40
0.5837707173
 40
0.6157370643
 40
0.6478445906
 40
0.6800606397
 40
0.7123487305
 40
0.7446698622
 40
0.7769838838
 40
0.8092508928
 40
0.841432625
 40
0.8734938027
 40
0.9054033951
 40
0.9371359477
 40
0.9686717614
 40
1.0
 40
1.0
 40
1.0
 40
1.0
 10
9.8689501044
 20
7.7212748185
 30
0.0
 10
9.8689501044
 20
7.724612762
 30
0.0
 10
9.8692759714
 20
7.7312710875
 30
0.0
 10
9.8707497457
 20
7.7411254607
 30
0.0
 10
9.8731929038
 20
7.7507224091
 30
0.0
 10
9.8765823506
 20
7.7599680527
 30
0.0
 10
9.8808856526
 20
7.7687732848
 30
0.0
 10
9.8860615091
 20
7.7770527957
 30
0.0
 10
9.8920600353
 20
7.7847264307
 30
0.0
 10
9.8988232982
 20
7.7917198588
 30
0.0
 10
9.9062858746
 20
7.7979653765
 30
0.0
 10
9.9143755151
 20
7.803402581
 30
0.0
 10
9.9230138568
 20
7.8079790216
 30
0.0
 10
9.932117258
 20
7.8116506834
 30
0.0
 10
9.9415976506
 20
7.8143823902
 30
0.0
 10
9.9513634238
 20
7.816148113
 30
0.0
 10
9.9613203234
 20
7.8169312007
 30
0.0
 10
9.9713723741
 20
7.8167245258
 30
0.0
 10
9.9814228076
 20
7.8155304699
 30
0.0
 10
9.9913749767
 20
7.8133608772
 30
0.0
 10
10.0011332589
 20
7.8102369087
 30
0.0
 10
10.0106039654
 20
7.8061888639
 30
0.0
 10
10.0196962178
 20
7.801255855
 30
0.0
 10
10.0283227903
 20
7.7954854134
 30
0.0
 10
10.0364009245
 20
7.788933039
 30
0.0
 10
10.0438531072
 20
7.7816616814
 30
0.0
 10
10.0506078268
 20
7.7737411683
 30
0.0
 10
10.0566002182
 20
7.7652475081
 30
0.0
 10
10.0617726777
 20
7.7562621931
 30
0.0
 10
10.0660753936
 20
7.7468713917
 30
0.0
 10
10.0694668793
 20
7.7371653003
 30
0.0
 10
10.0719142767
 20
7.727236777
 30
0.0
 10
10.073393877
 20
7.717182417
 30
0.0
 10
10.0737263917
 20
7.7104342454
 30
0.0
 10
10.0737263917
 20
7.7070735347
 30
0.0
  0
SPLINE
  5
382
100
AcDbEntity
  8
0
100
AcDbSpline
 62
7
  6
CONTINUOUS
 70
0
 71
3
 72
56
 73
52
 74
0
 42
0.0000001
 43
0.0000001
 44
0.0000000001
 40
0.0
 40
0.0
 40
0.0
 40
0.0
 40
0.0082491499
 40
0.0160250538
 40
0.0233641161
 40
0.0303116573
 40
0.0369229204
 40
0.0432634494
 40
0.0494087454
 40
0.0554424722
 40
0.0614534699
 40
0.0675316669
 40
0.0737637884
 40
0.0802297614
 40
0.0870002635
 40
0.0941357268
 40
0.1016863766
 40
0.1096929593
 40
0.118187914
 40
0.1271963941
 40
0.1367375611
 40
0.1468253081
 40
0.1574693339
 40
0.168675553
 40
0.1804468798
 40
0.192783477
 40
0.2056832513
 40
0.2191420768
 40
0.2331540294
 40
0.2477116579
 40
0.262806007
 40
0.2784269465
 40
0.2945630556
 40
0.3112019707
 40
0.3283302236
 40
0.3459335412
 40
0.3825029876
 40
0.4207808749
 40
0.4606258407
 40
0.5018870173
 40
0.5444052908
 40
0.588014459
 40
0.6325423207
 40
0.6778117188
 40
0.7236415542
 40
0.7698477761
 40
0.8162443812
 40
0.8626443253
 40
0.908860718
 40
0.9547071319
 40
1.0
 40
1.0
 40
1.0
 40
1.0
 10
11.4471305922
 20
10.1117038135
 30
0.0
 10
11.4461329691
 20
10.1126322004
 30
0.0
 10
11.4442495891
 20
10.1144959951
 30
0.0
 10
11.4417041354
 20
10.1174022
 30
0.0
 10
11.4395274831
 20
10.1203311322
 30
0.0
 10
11.4377227338
 20
10.1232802697
 30
0.0
 10
11.436292755
 20
10.1262470732
 30
0.0
 10
11.435240623
 20
10.1292286266
 30
0.0
 10
11.4345690526
 20
10.1322212488
 30
0.0
 10
11.4342803909
 20
10.1352204527
 30
0.0
 10
11.4343755957
 20
10.1382210178
 30
0.0
 10
11.4348544226
 20
10.1412175717
 30
0.0
 10
11.4357150519
 20
10.1442052177
 30
0.0
 10
11.4369549772
 20
10.1471798559
 30
0.0
 10
11.4385712044
 20
10.1501382377
 30
0.0
 10
11.4405607718
 20
10.1530776507
 30
0.0
 10
11.4429207521
 20
10.1559956368
 30
0.0
 10
11.4456481719
 20
10.1588898204
 30
0.0
 10
11.448739996
 20
10.1617576816
 30
0.0
 10
11.4521928745
 20
10.1645967039
 30
0.0
 10
11.4560032449
 20
10.1674041402
 30
0.0
 10
11.4601671026
 20
10.1701773139
 30
0.0
 10
11.4646801473
 20
10.1729133551
 30
0.0
 10
11.4695376261
 20
10.1756095053
 30
0.0
 10
11.4747344477
 20
10.1782628915
 30
0.0
 10
11.4802651034
 20
10.1808707385
 30
0.0
 10
11.4861237248
 20
10.1834302478
 30
0.0
 10
11.4923040676
 20
10.1859386737
 30
0.0
 10
11.4987995235
 20
10.1883933328
 30
0.0
 10
11.5056031408
 20
10.1907915453
 30
0.0
 10
11.5127076132
 20
10.1931307606
 30
0.0
 10
11.5201053142
 20
10.1954083975
 30
0.0
 10
11.5277882818
 20
10.1976220428
 30
0.0
 10
11.5357482474
 20
10.1997692409
 30
0.0
 10
11.5439766436
 20
10.2018477328
 30
0.0
 10
11.5554398521
 20
10.2045588011
 30
0.0
 10
11.5703781009
 20
10.2077491978
 30
0.0
 10
11.5890062082
 20
10.2112230743
 30
0.0
 10
11.608477109
 20
10.2143740807
 30
0.0
 10
11.6287068145
 20
10.2171884638
 30
0.0
 10
11.6496081741
 20
10.2196539149
 30
0.0
 10
11.6710910388
 20
10.2217596682
 30
0.0
 10
11.6930627287
 20
10.2234965311
 30
0.0
 10
11.7154284245
 20
10.2248569261
 30
0.0
 10
11.7380915885
 20
10.2258349193
 30
0.0
 10
11.7609543874
 20
10.2264262473
 30
0.0
 10
11.7839181139
 20
10.2266283301
 30
0.0
 10
11.806883634
 20
10.2264402919
 30
0.0
 10
11.8297517788
 20
10.2258629414
 30
0.0
 10
11.8524237775
 20
10.2248988155
 30
0.0
 10
11.867453909
 20
10.2239942976
 30
0.0
 10
11.8749184435
 20
10.2234766304
 30
0.0
  0
SPLINE
  5
383
100
AcDbEntity
  8
0
100
AcDbSpline
 62
7
  6
CONTINUOUS
 70
0
 71
3
 72
79
 73
75
 74
0
 42
0.0000001
 43
0.0000001
 44
0.0000000001
 40
0.0
 40
0.0
 40
0.0
 40
0.0
 40
0.0039560108
 40
0.0080772526
 40
0.0123672752
 40
0.0168290416
 40
0.0214650553
 40
0.0262773074
 40
0.0312671531
 40
0.0364354308
 40
0.041782613
 40
0.0473087458
 40
0.0588960363
 40
0.0711922394
 40
0.0841874692
 40
0.0978682933
 40
0.112218173
 40
0.1272178823
 40
0.1428458183
 40
0.1590782331
 40
0.1758894199
 40
0.1932519274
 40
0.2111367204
 40
0.2295133047
 40
0.248349839
 40
0.2676132841
 40
0.2872695146
 40
0.3072834118
 40
0.3276189584
 40
0.3691063989
 40
0.4114305973
 40
0.4542815324
 40
0.4973442442
 40
0.5403017884
 40
0.5828381983
 40
0.6246414709
 40
0.6451728663
 40
0.6654072997
 40
0.6853082261
 40
0.7048399086
 40
0.7239675321
 40
0.7426573194
 40
0.7608766185
 40
0.778594011
 40
0.7957794528
 40
0.8124044178
 40
0.8284420169
 40
0.8438671561
 40
0.8586567504
 40
0.8727899539
 40
0.8862483937
 40
0.8990164912
 40
0.9110819013
 40
0.9224360403
 40
0.9278452092
 40
0.9330754179
 40
0.9381269739
 40
0.943000636
 40
0.9476975505
 40
0.9522194153
 40
0.9565684954
 40
0.9607476489
 40
0.964760521
 40
0.9686115289
 40
0.9723060082
 40
0.9758503723
 40
0.9792521397
 40
0.9825201504
 40
0.9856646502
 40
0.9886973594
 40
0.9916316148
 40
0.994482309
 40
0.9972658479
 40
1.0
 40
1.0
 40
1.0
 40
1.0
 10
12.6604265943
 20
7.4986120265
 30
0.0
 10
12.6612413299
 20
7.4993990006
 30
0.0
 10
12.6628699416
 20
7.5010422634
 30
0.0
 10
12.6652624129
 20
7.5036541124
 30
0.0
 10
12.6676524444
 20
7.5064612616
 30
0.0
 10
12.6700387259
 20
7.5094622252
 30
0.0
 10
12.6724201919
 20
7.5126555332
 30
0.0
 10
12.6747957001
 20
7.5160396993
 30
0.0
 10
12.6771641487
 20
7.5196130937
 30
0.0
 10
12.6795243966
 20
7.5233739753
 30
0.0
 10
12.6818752696
 20
7.5273205381
 30
0.0
 10
12.6850459901
 20
7.5329163803
 30
0.0
 10
12.688969852
 20
7.5403699726
 30
0.0
 10
12.6935516134
 20
7.5498860458
 30
0.0
 10
12.6980690713
 20
7.5600918513
 30
0.0
 10
12.7025133471
 20
7.5709675006
 30
0.0
 10
12.7068757215
 20
7.5824919249
 30
0.0
 10
12.7111476024
 20
7.5946426724
 30
0.0
 10
12.7153205653
 20
7.6073960481
 30
0.0
 10
12.7193863722
 20
7.6207271357
 30
0.0
 10
12.7233370135
 20
7.6346098516
 30
0.0
 10
12.7271646977
 20
7.6490170125
 30
0.0
 10
12.7308618725
 20
7.6639203978
 30
0.0
 10
12.7344212418
 20
7.6792907986
 30
0.0
 10
12.737835798
 20
7.6950980715
 30
0.0
 10
12.7410988151
 20
7.7113112123
 30
0.0
 10
12.744203853
 20
7.7278984111
 30
0.0
 10
12.7471448172
 20
7.744827147
 30
0.0
 10
12.7508642022
 20
7.7679634833
 30
0.0
 10
12.7550538283
 20
7.7974919943
 30
0.0
 10
12.7593119262
 20
7.8335123529
 30
0.0
 10
12.7627996735
 20
7.8700685949
 30
0.0
 10
12.7654895863
 20
7.9068739353
 30
0.0
 10
12.7673605954
 20
7.943639869
 30
0.0
 10
12.7683980358
 20
7.9800779535
 30
0.0
 10
12.7685625028
 20
8.0101089551
 30
0.0
 10
12.7682636458
 20
8.0337501025
 30
0.0
 10
12.7678294289
 20
8.0511162491
 30
0.0
 10
12.7671847533
 20
8.0681894032
 30
0.0
 10
12.7663308769
 20
8.0849360832
 30
0.0
 10
12.7652695021
 20
8.1013234199
 30
0.0
 10
12.7640027465
 20
8.1173192674
 30
0.0
 10
12.762533129
 20
8.1328922505
 30
0.0
 10
12.7608635624
 20
8.148011828
 30
0.0
 10
12.7589973605
 20
8.1626483613
 30
0.0
 10
12.7569382394
 20
8.1767731786
 30
0.0
 10
12.7546902903
 20
8.190358625
 30
0.0
 10
12.7522579701
 20
8.2033781196
 30
0.0
 10
12.7496461061
 20
8.2158062215
 30
0.0
 10
12.7468598904
 20
8.2276186978
 30
0.0
 10
12.7439048456
 20
8.2387925452
 30
0.0
 10
12.7407868022
 20
8.2493061303
 30
0.0
 10
12.7375118979
 20
8.2591389702
 30
0.0
 10
12.7346124796
 20
8.2668703343
 30
0.0
 10
12.7322118667
 20
8.2726928607
 30
0.0
 10
12.7304053499
 20
8.2768070205
 30
0.0
 10
12.7285645025
 20
8.2807372776
 30
0.0
 10
12.726690236
 20
8.2844817527
 30
0.0
 10
12.7247834139
 20
8.2880386173
 30
0.0
 10
12.7228449603
 20
8.2914061611
 30
0.0
 10
12.7208758164
 20
8.2945827764
 30
0.0
 10
12.7188768522
 20
8.2975669075
 30
0.0
 10
12.7168490396
 20
8.3003571468
 30
0.0
 10
12.7147932851
 20
8.3029521448
 30
0.0
 10
12.7127104807
 20
8.3053506208
 30
0.0
 10
12.7106015914
 20
8.30755144
 30
0.0
 10
12.7084674772
 20
8.3095534593
 30
0.0
 10
12.7063090593
 20
8.311355646
 30
0.0
 10
12.7041272749
 20
8.3129570434
 30
0.0
 10
12.7019230027
 20
8.3143566383
 30
0.0
 10
12.6996972823
 20
8.3155535767
 30
0.0
 10
12.6974510794
 20
8.3165469917
 30
0.0
 10
12.6951857639
 20
8.3173359872
 30
0.0
 10
12.6936528699
 20
8.31772802
 30
0.0
 10
12.6928866124
 20
8.3178885253
 30
0.0
  0
SPLINE
  5
384
100
AcDbEntity
  8
0
100
AcDbSpline
 62
7
  6
CONTINUOUS
 70
0
 71
3
 72
73
 73
69
 74
0
 42
0.0000001
 43
0.0000001
 44
0.0000000001
 40
0.0
 40
0.0
 40
0.0
 40
0.0
 40
0.003888158
 40
0.00793453
 40
0.0121424545
 40
0.0165147245
 40
0.0210537193
 40
0.0257613561
 40
0.0306389886
 40
0.0356874595
 40
0.0462979645
 40
0.057593527
 40
0.0695694391
 40
0.0822170854
 40
0.0955245076
 40
0.109476859
 40
0.1240567902
 40
0.1392447181
 40
0.1550190179
 40
0.1713562586
 40
0.1882313812
 40
0.2056178167
 40
0.2234876029
 40
0.2418115391
 40
0.260559291
 40
0.279699464
 40
0.2991997122
 40
0.3190268502
 40
0.3595246125
 40
0.4009142557
 40
0.4429084572
 40
0.4852144645
 40
0.5275367606
 40
0.5695796857
 40
0.6110500563
 40
0.6516598133
 40
0.6715543697
 40
0.6911294516
 40
0.7103516841
 40
0.7291885321
 40
0.7476084002
 40
0.7655807029
 40
0.7830759632
 40
0.8000659552
 40
0.816523803
 40
0.832424084
 40
0.8477429844
 40
0.8624584964
 40
0.876550566
 40
0.8900013042
 40
0.9027952922
 40
0.9149199278
 40
0.9263658059
 40
0.9371272639
 40
0.9472031429
 40
0.9519855063
 40
0.9565985865
 40
0.961043988
 40
0.9653238287
 40
0.9694407631
 40
0.973398162
 40
0.977200097
 40
0.9808514547
 40
0.984358102
 40
0.9877268954
 40
0.9909658603
 40
0.9940843021
 40
1.0
 40
1.0
 40
1.0
 40
1.0
 10
12.6428597508
 20
7.509972513
 30
0.0
 10
12.6436331846
 20
7.5107195927
 30
0.0
 10
12.645179284
 20
7.5122778248
 30
0.0
 10
12.6474517791
 20
7.5147512592
 30
0.0
 10
12.6497220865
 20
7.5174055064
 30
0.0
 10
12.6519890095
 20
7.5202392316
 30
0.0
 10
12.6542515853
 20
7.5232511077
 30
0.0
 10
12.6565087836
 20
7.5264398017
 30
0.0
 10
12.6587596254
 20
7.5298038676
 30
0.0
 10
12.6618014542
 20
7.5346009166
 30
0.0
 10
12.6655727725
 20
7.5410342373
 30
0.0
 10
12.6699844138
 20
7.549303721
 30
0.0
 10
12.6743460879
 20
7.5582310394
 30
0.0
 10
12.6786496837
 20
7.5677997353
 30
0.0
 10
12.6828872198
 20
7.5779922992
 30
0.0
 10
12.6870507982
 20
7.5887899314
 30
0.0
 10
12.6911326358
 20
7.6001726898
 30
0.0
 10
12.6951250854
 20
7.612119502
 30
0.0
 10
12.6990206857
 20
7.6246082059
 30
0.0
 10
12.7028121465
 20
7.6376156093
 30
0.0
 10
12.7064923637
 20
7.6511175447
 30
0.0
 10
12.7100544431
 20
7.6650889057
 30
0.0
 10
12.7134917294
 20
7.6795036924
 30
0.0
 10
12.7167977906
 20
7.6943350743
 30
0.0
 10
12.7199664347
 20
7.709555444
 30
0.0
 10
12.7229917314
 20
7.7251364509
 30
0.0
 10
12.7258680569
 20
7.7410490913
 30
0.0
 10
12.7295229524
 20
7.7628217409
 30
0.0
 10
12.7336724276
 20
7.790647571
 30
0.0
 10
12.7379462096
 20
7.8246440628
 30
0.0
 10
12.7415165847
 20
7.8592244006
 30
0.0
 10
12.744356895
 20
7.8941310503
 30
0.0
 10
12.7464459045
 20
7.9291042034
 30
0.0
 10
12.7477681406
 20
7.9638835421
 30
0.0
 10
12.7483138365
 20
7.9982100375
 30
0.0
 10
12.7481171383
 20
8.0264147923
 30
0.0
 10
12.7475604553
 20
8.0485553907
 30
0.0
 10
12.7469509319
 20
8.0647764841
 30
0.0
 10
12.7461477736
 20
8.0806962573
 30
0.0
 10
12.7451524753
 20
8.0962850788
 30
0.0
 10
12.7439669292
 20
8.11151391
 30
0.0
 10
12.7425933687
 20
8.126354393
 30
0.0
 10
12.7410343719
 20
8.1407788953
 30
0.0
 10
12.7392928837
 20
8.1547605733
 30
0.0
 10
12.7373721923
 20
8.168273421
 30
0.0
 10
12.7352759134
 20
8.1812923119
 30
0.0
 10
12.7330079869
 20
8.1937930564
 30
0.0
 10
12.7305726977
 20
8.2057524591
 30
0.0
 10
12.7279746348
 20
8.2171483592
 30
0.0
 10
12.725218676
 20
8.2279596701
 30
0.0
 10
12.7223099915
 20
8.2381664503
 30
0.0
 10
12.7192540392
 20
8.2477499285
 30
0.0
 10
12.716056495
 20
8.2566926441
 30
0.0
 10
12.7127232659
 20
8.264978135
 30
0.0
 10
12.7097886023
 20
8.2714306316
 30
0.0
 10
12.7073702736
 20
8.2762427862
 30
0.0
 10
12.7055580616
 20
8.2796151211
 30
0.0
 10
12.7037166197
 20
8.2828122052
 30
0.0
 10
12.7018467703
 20
8.2858325951
 30
0.0
 10
12.6999493061
 20
8.2886748825
 30
0.0
 10
12.6980251023
 20
8.2913377924
 30
0.0
 10
12.696074986
 20
8.2938201074
 30
0.0
 10
12.6940997641
 20
8.2961206539
 30
0.0
 10
12.6921002869
 20
8.2982384167
 30
0.0
 10
12.6900774448
 20
8.3001723129
 30
0.0
 10
12.6880317104
 20
8.3019215796
 30
0.0
 10
12.6853237133
 20
8.3039698602
 30
0.0
 10
12.6831877912
 20
8.3052861729
 30
0.0
 10
12.6817338326
 20
8.3060363315
 30
0.0
  0
SPLINE
  5
385
100
AcDbEntity
  8
0
100
AcDbSpline
 62
7
  6
CONTINUOUS
 70
0
 71
3
 72
23
 73
19
 74
0
 42
0.0000001
 43
0.0000001
 44
0.0000000001
 40
0.0
 40
0.0
 40
0.0
 40
0.0
 40
0.0577246198
 40
0.1173320982
 40
0.1785736765
 40
0.2411911447
 40
0.3049184956
 40
0.3694835237
 40
0.434609394
 40
0.5000161937
 40
0.5654224726
 40
0.6305467826
 40
0.6951092183
 40
0.7588329591
 40
0.8214458204
 40
0.8826818227
 40
0.9422827907
 40
1.0
 40
1.0
 40
1.0
 40
1.0
 10
12.5821728173
 20
7.6968475873
 30
0.0
 10
12.5839317224
 20
7.7047627953
 30
0.0
 10
12.5873225931
 20
7.7208928276
 30
0.0
 10
12.5919666704
 20
7.7455441525
 30
0.0
 10
12.5962356308
 20
7.770960373
 30
0.0
 10
12.6001097341
 20
7.7970248269
 30
0.0
 10
12.6035711109
 20
7.8236180649
 30
0.0
 10
12.6066038014
 20
7.8506181242
 30
0.0
 10
12.6091938381
 20
7.8779011748
 30
0.0
 10
12.6113293059
 20
7.9053420712
 30
0.0
 10
12.6130003961
 20
7.9328149381
 30
0.0
 10
12.6141994546
 20
7.9601937514
 30
0.0
 10
12.6149210169
 20
7.9873529215
 30
0.0
 10
12.6151618322
 20
8.0141678804
 30
0.0
 10
12.6149208811
 20
8.0405156373
 30
0.0
 10
12.6141993819
 20
8.0662754295
 30
0.0
 10
12.6130007926
 20
8.091328998
 30
0.0
 10
12.6118677306
 20
8.1077706427
 30
0.0
 10
12.6112176613
 20
8.115851781
 30
0.0
  0
SPLINE
  5
386
100
AcDbEntity
  8
0
100
AcDbSpline
 62
7
  6
CONTINUOUS
 70
0
 71
3
 72
15
 73
11
 74
0
 42
0.0000001
 43
0.0000001
 44
0.0000000001
 40
0.0
 40
0.0
 40
0.0
 40
0.0
 40
0.1273482292
 40
0.2538605354
 40
0.3795879276
 40
0.5046050833
 40
0.6290174349
 40
0.7529533662
 40
0.8765605734
 40
1.0
 40
1.0
 40
1.0
 40
1.0
 10
9.8952821158
 20
8.9026732243
 30
0.0
 10
9.8952821158
 20
8.9052756542
 30
0.0
 10
9.8955305944
 20
8.9104670295
 30
0.0
 10
9.8966543205
 20
8.9181542476
 30
0.0
 10
9.8985176487
 20
8.9256483146
 30
0.0
 10
9.9011037524
 20
8.9328791428
 30
0.0
 10
9.9043888873
 20
8.9397800538
 30
0.0
 10
9.9083431193
 20
8.9462873242
 30
0.0
 10
9.912929268
 20
8.9523399795
 30
0.0
 10
9.916382404
 20
8.9560372883
 30
0.0
 10
9.9181967645
 20
8.9577898184
 30
0.0
  0
SPLINE
  5
387
100
AcDbEntity
  8
0
100
AcDbSpline
 62
7
  6
CONTINUOUS
 70
0
 71
3
 72
39
 73
35
 74
0
 42
0.0000001
 43
0.0000001
 44
0.0000000001
 40
0.0
 40
0.0
 40
0.0
 40
0.0
 40
0.0311160054
 40
0.0620232808
 40
0.0927351539
 40
0.1232711756
 40
0.1536587326
 40
0.1839312105
 40
0.2141268386
 40
0.2442870981
 40
0.2744549747
 40
0.3046731306
 40
0.33498209
 40
0.365418544
 40
0.3960138629
 40
0.4267928807
 40
0.457772997
 40
0.4889636213
 40
0.5203659688
 40
0.551973177
 40
0.5837707173
 40
0.6157370643
 40
0.6478445906
 40
0.6800606397
 40
0.7123487305
 40
0.7446698622
 40
0.7769838838
 40
0.8092508928
 40
0.841432625
 40
0.8734938027
 40
0.9054033951
 40
0.9371359477
 40
0.9686717614
 40
1.0
 40
1.0
 40
1.0
 40
1.0
 10
10.0737263917
 20
7.7070735347
 30
0.0
 10
10.0737263917
 20
7.7037355912
 30
0.0
 10
10.0734005247
 20
7.6970772657
 30
0.0
 10
10.0719267505
 20
7.6872228925
 30
0.0
 10
10.0694835924
 20
7.6776259441
 30
0.0
 10
10.0660941455
 20
7.6683803005
 30
0.0
 10
10.0617908436
 20
7.6595750684
 30
0.0
 10
10.056614987
 20
7.6512955575
 30
0.0
 10
10.0506164609
 20
7.6436219226
 30
0.0
 10
10.0438531979
 20
7.6366284944
 30
0.0
 10
10.0363906215
 20
7.6303829767
 30
0.0
 10
10.0283009811
 20
7.6249457722
 30
0.0
 10
10.0196626393
 20
7.6203693316
 30
0.0
 10
10.0105592382
 20
7.6166976698
 30
0.0
 10
10.0010788456
 20
7.613965963
 30
0.0
 10
9.9913130723
 20
7.6122002402
 30
0.0
 10
9.9813561728
 20
7.6114171525
 30
0.0
 10
9.9713041221
 20
7.6116238274
 30
0.0
 10
9.9612536885
 20
7.6128178833
 30
0.0
 10
9.9513015195
 20
7.614987476
 30
0.0
 10
9.9415432372
 20
7.6181114445
 30
0.0
 10
9.9320725308
 20
7.6221594894
 30
0.0
 10
9.9229802784
 20
7.6270924982
 30
0.0
 10
9.9143537059
 20
7.6328629398
 30
0.0
 10
9.9062755717
 20
7.6394153142
 30
0.0
 10
9.898823389
 20
7.6466866718
 30
0.0
 10
9.8920686694
 20
7.6546071849
 30
0.0
 10
9.886076278
 20
7.6631008451
 30
0.0
 10
9.8809038184
 20
7.6720861601
 30
0.0
 10
9.8766011025
 20
7.6814769615
 30
0.0
 10
9.8732096169
 20
7.6911830529
 30
0.0
 10
9.8707622194
 20
7.7011115762
 30
0.0
 10
9.8692826191
 20
7.7111659362
 30
0.0
 10
9.8689501044
 20
7.7179141078
 30
0.0
 10
9.8689501044
 20
7.7212748185
 30
0.0
  0
SPLINE
  5
388
100
AcDbEntity
  8
0
100
AcDbSpline
 62
7
  6
CONTINUOUS
 70
0
 71
3
 72
39
 73
35
 74
0
 42
0.0000001
 43
0.0000001
 44
0.0000000001
 40
0.0
 40
0.0
 40
0.0
 40
0.0
 40
0.0311160054
 40
0.0620232808
 40
0.0927351539
 40
0.1232711756
 40
0.1536587326
 40
0.1839312105
 40
0.2141268386
 40
0.2442870981
 40
0.2744549747
 40
0.3046731306
 40
0.33498209
 40
0.365418544
 40
0.3960138629
 40
0.4267928807
 40
0.457772997
 40
0.4889636213
 40
0.5203659688
 40
0.551973177
 40
0.5837707173
 40
0.6157370643
 40
0.6478445906
 40
0.6800606397
 40
0.7123487305
 40
0.7446698622
 40
0.7769838838
 40
0.8092508928
 40
0.841432625
 40
0.8734938027
 40
0.9054033951
 40
0.9371359477
 40
0.9686717614
 40
1.0
 40
1.0
 40
1.0
 40
1.0
 10
9.8689501044
 20
8.898738453
 30
0.0
 10
9.8689501044
 20
8.9020763965
 30
0.0
 10
9.8692759714
 20
8.908734722
 30
0.0
 10
9.8707497457
 20
8.9185890953
 30
0.0
 10
9.8731929038
 20
8.9281860436
 30
0.0
 10
9.8765823506
 20
8.9374316872
 30
0.0
 10
9.8808856526
 20
8.9462369194
 30
0.0
 10
9.8860615091
 20
8.9545164302
 30
0.0
 10
9.8920600353
 20
8.9621900652
 30
0.0
 10
9.8988232982
 20
8.9691834933
 30
0.0
 10
9.9062858746
 20
8.9754290111
 30
0.0
 10
9.9143755151
 20
8.9808662155
 30
0.0
 10
9.9230138568
 20
8.9854426561
 30
0.0
 10
9.932117258
 20
8.9891143179
 30
0.0
 10
9.9415976506
 20
8.9918460247
 30
0.0
 10
9.9513634238
 20
8.9936117475
 30
0.0
 10
9.9613203234
 20
8.9943948352
 30
0.0
 10
9.9713723741
 20
8.9941881603
 30
0.0
 10
9.9814228076
 20
8.9929941044
 30
0.0
 10
9.9913749767
 20
8.9908245117
 30
0.0
 10
10.0011332589
 20
8.9877005432
 30
0.0
 10
10.0106039654
 20
8.9836524984
 30
0.0
 10
10.0196962178
 20
8.9787194895
 30
0.0
 10
10.0283227903
 20
8.9729490479
 30
0.0
 10
10.0364009245
 20
8.9663966735
 30
0.0
 10
10.0438531072
 20
8.9591253159
 30
0.0
 10
10.0506078268
 20
8.9512048028
 30
0.0
 10
10.0566002182
 20
8.9427111426
 30
0.0
 10
10.0617726777
 20
8.9337258276
 30
0.0
 10
10.0660753936
 20
8.9243350262
 30
0.0
 10
10.0694668793
 20
8.9146289348
 30
0.0
 10
10.0719142767
 20
8.9047004115
 30
0.0
 10
10.073393877
 20
8.8946460515
 30
0.0
 10
10.0737263917
 20
8.8878978799
 30
0.0
 10
10.0737263917
 20
8.8845371692
 30
0.0
  0
SPLINE
  5
389
100
AcDbEntity
  8
0
100
AcDbSpline
 62
7
  6
CONTINUOUS
 70
0
 71
3
 72
41
 73
37
 74
0
 42
0.0000001
 43
0.0000001
 44
0.0000000001
 40
0.0
 40
0.0
 40
0.0
 40
0.0
 40
0.0311444983
 40
0.062442467
 40
0.093887251
 40
0.1254695609
 40
0.157177086
 40
0.1889950997
 40
0.2209066479
 40
0.2528929497
 40
0.284933762
 40
0.3170077852
 40
0.3490930781
 40
0.3811674822
 40
0.4132090489
 40
0.445196464
 40
0.4771094635
 40
0.5089292351
 40
0.540638799
 40
0.5722233621
 40
0.6036706378
 40
0.6349711269
 40
0.6661183495
 40
0.6971090237
 40
0.7279431823
 40
0.7586242225
 40
0.7891588828
 40
0.8195571428
 40
0.8498320452
 40
0.86493089
 40
0.8800050502
 40
0.9100832578
 40
0.9400926753
 40
0.9550812784
 40
0.9700610371
 40
1.0
 40
1.0
 40
1.0
 40
1.0
 10
12.1108640547
 20
9.3889826603
 30
0.0
 10
12.1075501072
 20
9.3892124834
 30
0.0
 10
12.1009202392
 20
9.3899158362
 30
0.0
 10
12.0910558223
 20
9.3916875672
 30
0.0
 10
12.0812970478
 20
9.3941692705
 30
0.0
 10
12.0716966542
 20
9.3973475455
 30
0.0
 10
12.0623056195
 20
9.4012053919
 30
0.0
 10
12.0531740445
 20
9.4057221577
 30
0.0
 10
12.0443505733
 20
9.4108737117
 30
0.0
 10
12.0358822222
 20
9.416632546
 30
0.0
 10
12.0278141105
 20
9.4229679325
 30
0.0
 10
12.0201892281
 20
9.4298460819
 30
0.0
 10
12.013048208
 20
9.4372303236
 30
0.0
 10
12.006429112
 20
9.4450812993
 30
0.0
 10
12.0003672299
 20
9.4533571704
 30
0.0
 10
11.9948948934
 20
9.462013839
 30
0.0
 10
11.9900413043
 20
9.47100518
 30
0.0
 10
11.9858323807
 20
9.4802832843
 30
0.0
 10
11.9822906184
 20
9.4897987106
 30
0.0
 10
11.9794349716
 20
9.4995007459
 30
0.0
 10
11.9772807507
 20
9.5093376718
 30
0.0
 10
11.9758395388
 20
9.5192570364
 30
0.0
 10
11.9751191284
 20
9.5292059312
 30
0.0
 10
11.9751234742
 20
9.5391312666
 30
0.0
 10
11.9758526737
 20
9.5489800632
 30
0.0
 10
11.977302941
 20
9.5586996934
 30
0.0
 10
11.9794666936
 20
9.5682383036
 30
0.0
 10
11.9823323176
 20
9.5775445663
 30
0.0
 10
11.9852958676
 20
9.5850727891
 30
0.0
 10
11.9880002509
 20
9.5909271556
 30
0.0
 10
11.990918823
 20
9.5966542221
 30
0.0
 10
11.9949710823
 20
9.6035814191
 30
0.0
 10
11.9995445427
 20
9.6101650987
 30
0.0
 10
12.0034966805
 20
9.6151975078
 30
0.0
 10
12.0076373611
 20
9.6200656526
 30
0.0
 10
12.0109547573
 20
9.6235313733
 30
0.0
 10
12.0132515622
 20
9.6257499317
 30
0.0
  0
SPLINE
  5
38A
100
AcDbEntity
  8
0
100
AcDbSpline
 62
7
  6
CONTINUOUS
 70
0
 71
3
 72
39
 73
35
 74
0
 42
0.0000001
 43
0.0000001
 44
0.0000000001
 40
0.0
 40
0.0
 40
0.0
 40
0.0
 40
0.0311160054
 40
0.0620232808
 40
0.0927351539
 40
0.1232711756
 40
0.1536587326
 40
0.1839312105
 40
0.2141268386
 40
0.2442870981
 40
0.2744549747
 40
0.3046731306
 40
0.33498209
 40
0.365418544
 40
0.3960138629
 40
0.4267928807
 40
0.457772997
 40
0.4889636213
 40
0.5203659688
 40
0.551973177
 40
0.5837707173
 40
0.6157370643
 40
0.6478445906
 40
0.6800606397
 40
0.7123487305
 40
0.7446698622
 40
0.7769838838
 40
0.8092508928
 40
0.841432625
 40
0.8734938027
 40
0.9054033951
 40
0.9371359477
 40
0.9686717614
 40
1.0
 40
1.0
 40
1.0
 40
1.0
 10
10.0737263917
 20
8.8845371692
 30
0.0
 10
10.0737263917
 20
8.8811992257
 30
0.0
 10
10.0734005247
 20
8.8745409002
 30
0.0
 10
10.0719267505
 20
8.864686527
 30
0.0
 10
10.0694835924
 20
8.8550895787
 30
0.0
 10
10.0660941455
 20
8.845843935
 30
0.0
 10
10.0617908436
 20
8.8370387029
 30
0.0
 10
10.056614987
 20
8.828759192
 30
0.0
 10
10.0506164609
 20
8.8210855571
 30
0.0
 10
10.0438531979
 20
8.8140921289
 30
0.0
 10
10.0363906215
 20
8.8078466112
 30
0.0
 10
10.0283009811
 20
8.8024094067
 30
0.0
 10
10.0196626393
 20
8.7978329661
 30
0.0
 10
10.0105592382
 20
8.7941613044
 30
0.0
 10
10.0010788456
 20
8.7914295975
 30
0.0
 10
9.9913130723
 20
8.7896638747
 30
0.0
 10
9.9813561728
 20
8.788880787
 30
0.0
 10
9.9713041221
 20
8.7890874619
 30
0.0
 10
9.9612536885
 20
8.7902815179
 30
0.0
 10
9.9513015195
 20
8.7924511105
 30
0.0
 10
9.9415432372
 20
8.795575079
 30
0.0
 10
9.9320725308
 20
8.7996231239
 30
0.0
 10
9.9229802784
 20
8.8045561327
 30
0.0
 10
9.9143537059
 20
8.8103265744
 30
0.0
 10
9.9062755717
 20
8.8168789487
 30
0.0
 10
9.898823389
 20
8.8241503063
 30
0.0
 10
9.8920686694
 20
8.8320708195
 30
0.0
 10
9.886076278
 20
8.8405644796
 30
0.0
 10
9.8809038184
 20
8.8495497946
 30
0.0
 10
9.8766011025
 20
8.858940596
 30
0.0
 10
9.8732096169
 20
8.8686466874
 30
0.0
 10
9.8707622194
 20
8.8785752107
 30
0.0
 10
9.8692826191
 20
8.8886295707
 30
0.0
 10
9.8689501044
 20
8.8953777423
 30
0.0
 10
9.8689501044
 20
8.898738453
 30
0.0
  0
SPLINE
  5
38B
100
AcDbEntity
  8
0
100
AcDbSpline
 62
7
  6
CONTINUOUS
 70
0
 71
3
 72
41
 73
37
 74
0
 42
0.0000001
 43
0.0000001
 44
0.0000000001
 40
0.0
 40
0.0
 40
0.0
 40
0.0
 40
0.0311444983
 40
0.062442467
 40
0.093887251
 40
0.1254695609
 40
0.157177086
 40
0.1889950997
 40
0.2209066479
 40
0.2528929497
 40
0.284933762
 40
0.3170077852
 40
0.3490930781
 40
0.3811674822
 40
0.4132090489
 40
0.445196464
 40
0.4771094635
 40
0.5089292351
 40
0.540638799
 40
0.5722233621
 40
0.6036706378
 40
0.6349711269
 40
0.6661183495
 40
0.6971090237
 40
0.7279431823
 40
0.7586242225
 40
0.7891588828
 40
0.8195571428
 40
0.8498320452
 40
0.86493089
 40
0.8800050502
 40
0.9100832578
 40
0.9400926753
 40
0.9550812784
 40
0.9700610371
 40
1.0
 40
1.0
 40
1.0
 40
1.0
 10
9.3714982535
 20
9.5789583239
 30
0.0
 10
9.3681843059
 20
9.5791881469
 30
0.0
 10
9.3615544379
 20
9.5798914997
 30
0.0
 10
9.351690021
 20
9.5816632308
 30
0.0
 10
9.3419312465
 20
9.584144934
 30
0.0
 10
9.3323308529
 20
9.5873232091
 30
0.0
 10
9.3229398182
 20
9.5911810555
 30
0.0
 10
9.3138082432
 20
9.5956978213
 30
0.0
 10
9.304984772
 20
9.6008493753
 30
0.0
 10
9.2965164209
 20
9.6066082095
 30
0.0
 10
9.2884483092
 20
9.612943596
 30
0.0
 10
9.2808234268
 20
9.6198217454
 30
0.0
 10
9.2736824067
 20
9.6272059872
 30
0.0
 10
9.2670633107
 20
9.6350569629
 30
0.0
 10
9.2610014286
 20
9.643332834
 30
0.0
 10
9.2555290921
 20
9.6519895026
 30
0.0
 10
9.250675503
 20
9.6609808436
 30
0.0
 10
9.2464665794
 20
9.6702589478
 30
0.0
 10
9.2429248171
 20
9.6797743742
 30
0.0
 10
9.2400691703
 20
9.6894764095
 30
0.0
 10
9.2379149494
 20
9.6993133353
 30
0.0
 10
9.2364737375
 20
9.7092327
 30
0.0
 10
9.2357533271
 20
9.7191815947
 30
0.0
 10
9.2357576729
 20
9.7291069302
 30
0.0
 10
9.2364868724
 20
9.7389557267
 30
0.0
 10
9.2379371397
 20
9.7486753569
 30
0.0
 10
9.2401008923
 20
9.7582139672
 30
0.0
 10
9.2429665163
 20
9.7675202298
 30
0.0
 10
9.2459300663
 20
9.7750484527
 30
0.0
 10
9.2486344496
 20
9.7809028192
 30
0.0
 10
9.2515530217
 20
9.7866298856
 30
0.0
 10
9.255605281
 20
9.7935570827
 30
0.0
 10
9.2601787414
 20
9.8001407623
 30
0.0
 10
9.2641308792
 20
9.8051731714
 30
0.0
 10
9.2682715598
 20
9.8100413162
 30
0.0
 10
9.271588956
 20
9.8135070369
 30
0.0
 10
9.2738857609
 20
9.8157255953
 30
0.0
  0
SPLINE
  5
38C
100
AcDbEntity
  8
0
100
AcDbSpline
 62
7
  6
CONTINUOUS
 70
0
 71
3
 72
39
 73
35
 74
0
 42
0.0000001
 43
0.0000001
 44
0.0000000001
 40
0.0
 40
0.0
 40
0.0
 40
0.0
 40
0.0311160054
 40
0.0620232808
 40
0.0927351539
 40
0.1232711756
 40
0.1536587326
 40
0.1839312105
 40
0.2141268386
 40
0.2442870981
 40
0.2744549747
 40
0.3046731306
 40
0.33498209
 40
0.365418544
 40
0.3960138629
 40
0.4267928807
 40
0.457772997
 40
0.4889636213
 40
0.5203659688
 40
0.551973177
 40
0.5837707173
 40
0.6157370643
 40
0.6478445906
 40
0.6800606397
 40
0.7123487305
 40
0.7446698622
 40
0.7769838838
 40
0.8092508928
 40
0.841432625
 40
0.8734938027
 40
0.9054033951
 40
0.9371359477
 40
0.9686717614
 40
1.0
 40
1.0
 40
1.0
 40
1.0
 10
11.4086358877
 20
8.8228705722
 30
0.0
 10
11.4086358877
 20
8.8262085157
 30
0.0
 10
11.4089617547
 20
8.8328668412
 30
0.0
 10
11.410435529
 20
8.8427212144
 30
0.0
 10
11.412878687
 20
8.8523181628
 30
0.0
 10
11.4162681339
 20
8.8615638064
 30
0.0
 10
11.4205714358
 20
8.8703690385
 30
0.0
 10
11.4257472924
 20
8.8786485494
 30
0.0
 10
11.4317458185
 20
8.8863221843
 30
0.0
 10
11.4385090815
 20
8.8933156125
 30
0.0
 10
11.4459716579
 20
8.8995611302
 30
0.0
 10
11.4540612983
 20
8.9049983347
 30
0.0
 10
11.4626996401
 20
8.9095747753
 30
0.0
 10
11.4718030412
 20
8.9132464371
 30
0.0
 10
11.4812834338
 20
8.9159781439
 30
0.0
 10
11.4910492071
 20
8.9177438667
 30
0.0
 10
11.5010061067
 20
8.9185269544
 30
0.0
 10
11.5110581573
 20
8.9183202795
 30
0.0
 10
11.5211085909
 20
8.9171262236
 30
0.0
 10
11.5310607599
 20
8.9149566309
 30
0.0
 10
11.5408190422
 20
8.9118326624
 30
0.0
 10
11.5502897487
 20
8.9077846175
 30
0.0
 10
11.559382001
 20
8.9028516087
 30
0.0
 10
11.5680085735
 20
8.8970811671
 30
0.0
 10
11.5760867078
 20
8.8905287927
 30
0.0
 10
11.5835388904
 20
8.8832574351
 30
0.0
 10
11.59029361
 20
8.875336922
 30
0.0
 10
11.5962860014
 20
8.8668432618
 30
0.0
 10
11.601458461
 20
8.8578579468
 30
0.0
 10
11.6057611769
 20
8.8484671454
 30
0.0
 10
11.6091526625
 20
8.838761054
 30
0.0
 10
11.61160006
 20
8.8288325307
 30
0.0
 10
11.6130796603
 20
8.8187781707
 30
0.0
 10
11.613412175
 20
8.8120299991
 30
0.0
 10
11.613412175
 20
8.8086692884
 30
0.0
  0
SPLINE
  5
38D
100
AcDbEntity
  8
0
100
AcDbSpline
 62
7
  6
CONTINUOUS
 70
0
 71
3
 72
24
 73
20
 74
0
 42
0.0000001
 43
0.0000001
 44
0.0000000001
 40
0.0
 40
0.0
 40
0.0
 40
0.0
 40
0.0617854814
 40
0.1240400259
 40
0.1867209793
 40
0.2497603258
 40
0.3130734852
 40
0.376562205
 40
0.4401196767
 40
0.5036357633
 40
0.5670023331
 40
0.6301185305
 40
0.6928957858
 40
0.7552624133
 40
0.817167521
 40
0.8785840523
 40
0.939510779
 40
0.9698107803
 40
1.0
 40
1.0
 40
1.0
 40
1.0
 10
11.2728020489
 20
7.5690058186
 30
0.0
 10
11.2698803601
 20
7.5692084384
 30
0.0
 10
11.2640330554
 20
7.5699558273
 30
0.0
 10
11.2554201936
 20
7.5720702516
 30
0.0
 10
11.2470406773
 20
7.5751537846
 30
0.0
 10
11.2390080192
 20
7.5791647924
 30
0.0
 10
11.2314291251
 20
7.5840492903
 30
0.0
 10
11.2244052909
 20
7.589741752
 30
0.0
 10
11.2180303071
 20
7.5961660058
 30
0.0
 10
11.2123894078
 20
7.6032361926
 30
0.0
 10
11.2075580357
 20
7.6108578376
 30
0.0
 10
11.2036009504
 20
7.6189291519
 30
0.0
 10
11.2005713989
 20
7.6273423614
 30
0.0
 10
11.1985102774
 20
7.6359849557
 30
0.0
 10
11.1974457153
 20
7.6447415508
 30
0.0
 10
11.1973923706
 20
7.6534940115
 30
0.0
 10
11.1981940426
 20
7.6607034403
 30
0.0
 10
11.1993372873
 20
7.6663467225
 30
0.0
 10
11.2000739772
 20
7.669119934
 30
0.0
 10
11.2004828885
 20
7.670491272
 30
0.0
  0
SPLINE
  5
38E
100
AcDbEntity
  8
0
100
AcDbSpline
 62
7
  6
CONTINUOUS
 70
0
 71
3
 72
80
 73
76
 74
0
 42
0.0000001
 43
0.0000001
 44
0.0000000001
 40
0.0
 40
0.0
 40
0.0
 40
0.0
 40
0.0027164327
 40
0.0054532447
 40
0.0082303176
 40
0.0110666212
 40
0.0139798388
 40
0.016986154
 40
0.0201001347
 40
0.0233346582
 40
0.0267010284
 40
0.0302089968
 40
0.0338669183
 40
0.0376819076
 40
0.0416598906
 40
0.0458058349
 40
0.0501237838
 40
0.0546169826
 40
0.0592880207
 40
0.0641388059
 40
0.0691707482
 40
0.0743847477
 40
0.0853596785
 40
0.0970635549
 40
0.1094903305
 40
0.1226296146
 40
0.1364673135
 40
0.1509861535
 40
0.1661660759
 40
0.1819845508
 40
0.1984168195
 40
0.2154361185
 40
0.2330138792
 40
0.2511198904
 40
0.2697224401
 40
0.2887884373
 40
0.3082835515
 40
0.3281723331
 40
0.348418324
 40
0.368984158
 40
0.3898316649
 40
0.4109219833
 40
0.4536720365
 40
0.4969140898
 40
0.5403224212
 40
0.5835697178
 40
0.6263302119
 40
0.6682828124
 40
0.6888582723
 40
0.7091151075
 40
0.7290159233
 40
0.74852422
 40
0.7676045125
 40
0.7862224423
 40
0.804344885
 40
0.8219400731
 40
0.8389777322
 40
0.8554292445
 40
0.8712678001
 40
0.8864685754
 40
0.9010089485
 40
0.9148687687
 40
0.92803068
 40
0.940480496
 40
0.9522076877
 40
0.9577984663
 40
0.9632066952
 40
0.9684323943
 40
0.9734759977
 40
0.9783383604
 40
0.9830208115
 40
0.987525367
 40
0.9918546057
 40
0.996011597
 40
1.0
 40
1.0
 40
1.0
 40
1.0
 10
12.7201543428
 20
8.3292779353
 30
0.0
 10
12.7209578172
 20
8.3292222097
 30
0.0
 10
12.7225666796
 20
8.3290376132
 30
0.0
 10
12.7249594814
 20
8.3285436257
 30
0.0
 10
12.72733421
 20
8.3278326974
 30
0.0
 10
12.729689152
 20
8.3269054389
 30
0.0
 10
12.7320231028
 20
8.3257627229
 30
0.0
 10
12.7343348758
 20
8.3244054456
 30
0.0
 10
12.7366233699
 20
8.3228345262
 30
0.0
 10
12.7388876196
 20
8.3210510281
 30
0.0
 10
12.7411265984
 20
8.3190559329
 30
0.0
 10
12.7433393653
 20
8.3168503626
 30
0.0
 10
12.7455249659
 20
8.3144354717
 30
0.0
 10
12.7476823866
 20
8.3118124531
 30
0.0
 10
12.749810707
 20
8.3089826548
 30
0.0
 10
12.7519088991
 20
8.305947444
 30
0.0
 10
12.7539759932
 20
8.3027083275
 30
0.0
 10
12.7560110241
 20
8.2992669072
 30
0.0
 10
12.7580129649
 20
8.2956248566
 30
0.0
 10
12.7599808853
 20
8.2917839986
 30
0.0
 10
12.7619138127
 20
8.2877462108
 30
0.0
 10
12.7644871537
 20
8.2820040621
 30
0.0
 10
12.7675990918
 20
8.2743386573
 30
0.0
 10
12.7711178538
 20
8.2645403309
 30
0.0
 10
12.7744751874
 20
8.2540101263
 30
0.0
 10
12.7776643363
 20
8.2427690076
 30
0.0
 10
12.780678869
 20
8.230839193
 30
0.0
 10
12.783512672
 20
8.2182444416
 30
0.0
 10
12.7861599872
 20
8.2050098782
 30
0.0
 10
12.7886154237
 20
8.1911619644
 30
0.0
 10
12.7908739865
 20
8.1767284327
 30
0.0
 10
12.7929310827
 20
8.1617382236
 30
0.0
 10
12.7947825252
 20
8.1462214141
 30
0.0
 10
12.7964245431
 20
8.1302091522
 30
0.0
 10
12.7978537885
 20
8.1137335963
 30
0.0
 10
12.7990673558
 20
8.0968278506
 30
0.0
 10
12.8000627753
 20
8.0795258928
 30
0.0
 10
12.8008380168
 20
8.061862501
 30
0.0
 10
12.8013914953
 20
8.0438731812
 30
0.0
 10
12.8017220693
 20
8.0255941113
 30
0.0
 10
12.8018290818
 20
8.007062019
 30
0.0
 10
12.8016725756
 20
7.9819526087
 30
0.0
 10
12.8009132324
 20
7.9502093482
 30
0.0
 10
12.7991236706
 20
7.9118815649
 30
0.0
 10
12.7964657878
 20
7.8734563354
 30
0.0
 10
12.7929609675
 20
7.8352424188
 30
0.0
 10
12.7886374618
 20
7.7975468801
 30
0.0
 10
12.7843543841
 20
7.7666213996
 30
0.0
 10
12.7805369149
 20
7.7423743509
 30
0.0
 10
12.7775112403
 20
7.7246228763
 30
0.0
 10
12.7743107378
 20
7.7072237044
 30
0.0
 10
12.7709418327
 20
7.6902117885
 30
0.0
 10
12.7674113338
 20
7.6736213269
 30
0.0
 10
12.7637263709
 20
7.6574856517
 30
0.0
 10
12.7598943865
 20
7.6418371763
 30
0.0
 10
12.75592312
 20
7.6267073278
 30
0.0
 10
12.7518205902
 20
7.6121264771
 30
0.0
 10
12.7475950924
 20
7.5981238691
 30
0.0
 10
12.7432551681
 20
7.5847275629
 30
0.0
 10
12.7388095879
 20
7.5719643778
 30
0.0
 10
12.7342673276
 20
7.5598598252
 30
0.0
 10
12.7296375525
 20
7.5484380647
 30
0.0
 10
12.7249295892
 20
7.5377217532
 30
0.0
 10
12.7201529098
 20
7.5277322851
 30
0.0
 10
12.7160604196
 20
7.519909764
 30
0.0
 10
12.7127526387
 20
7.5140388578
 30
0.0
 10
12.7103001842
 20
7.5098999468
 30
0.0
 10
12.7078377202
 20
7.5059569775
 30
0.0
 10
12.7053664657
 20
7.5022119064
 30
0.0
 10
12.7028876781
 20
7.4986665875
 30
0.0
 10
12.7004025223
 20
7.4953227849
 30
0.0
 10
12.697912225
 20
7.4921820978
 30
0.0
 10
12.695417928
 20
7.4892460813
 30
0.0
 10
12.6929210009
 20
7.4865163289
 30
0.0
 10
12.6912208402
 20
7.4847999497
 30
0.0
 10
12.6903702962
 20
7.4839783872
 30
0.0
  0
SPLINE
  5
38F
100
AcDbEntity
  8
0
100
AcDbSpline
 62
7
  6
CONTINUOUS
 70
0
 71
3
 72
39
 73
35
 74
0
 42
0.0000001
 43
0.0000001
 44
0.0000000001
 40
0.0
 40
0.0
 40
0.0
 40
0.0
 40
0.0311160054
 40
0.0620232808
 40
0.0927351539
 40
0.1232711756
 40
0.1536587326
 40
0.1839312105
 40
0.2141268386
 40
0.2442870981
 40
0.2744549747
 40
0.3046731306
 40
0.33498209
 40
0.365418544
 40
0.3960138629
 40
0.4267928807
 40
0.457772997
 40
0.4889636213
 40
0.5203659688
 40
0.551973177
 40
0.5837707173
 40
0.6157370643
 40
0.6478445906
 40
0.6800606397
 40
0.7123487305
 40
0.7446698622
 40
0.7769838838
 40
0.8092508928
 40
0.841432625
 40
0.8734938027
 40
0.9054033951
 40
0.9371359477
 40
0.9686717614
 40
1.0
 40
1.0
 40
1.0
 40
1.0
 10
11.613412175
 20
8.8086692884
 30
0.0
 10
11.613412175
 20
8.8053313449
 30
0.0
 10
11.613086308
 20
8.7986730194
 30
0.0
 10
11.6116125337
 20
8.7888186462
 30
0.0
 10
11.6091693756
 20
8.7792216978
 30
0.0
 10
11.6057799288
 20
8.7699760542
 30
0.0
 10
11.6014766268
 20
8.7611708221
 30
0.0
 10
11.5963007703
 20
8.7528913112
 30
0.0
 10
11.5903022441
 20
8.7452176762
 30
0.0
 10
11.5835389812
 20
8.7382242481
 30
0.0
 10
11.5760764048
 20
8.7319787304
 30
0.0
 10
11.5679867644
 20
8.7265415259
 30
0.0
 10
11.5593484226
 20
8.7219650853
 30
0.0
 10
11.5502450214
 20
8.7182934235
 30
0.0
 10
11.5407646288
 20
8.7155617167
 30
0.0
 10
11.5309988556
 20
8.7137959939
 30
0.0
 10
11.521041956
 20
8.7130129062
 30
0.0
 10
11.5109899053
 20
8.7132195811
 30
0.0
 10
11.5009394718
 20
8.714413637
 30
0.0
 10
11.4909873027
 20
8.7165832297
 30
0.0
 10
11.4812290205
 20
8.7197071982
 30
0.0
 10
11.471758314
 20
8.723755243
 30
0.0
 10
11.4626660616
 20
8.7286882519
 30
0.0
 10
11.4540394892
 20
8.7344586935
 30
0.0
 10
11.4459613549
 20
8.7410110679
 30
0.0
 10
11.4385091723
 20
8.7482824255
 30
0.0
 10
11.4317544526
 20
8.7562029386
 30
0.0
 10
11.4257620613
 20
8.7646965988
 30
0.0
 10
11.4205896017
 20
8.7736819138
 30
0.0
 10
11.4162868858
 20
8.7830727152
 30
0.0
 10
11.4128954001
 20
8.7927788066
 30
0.0
 10
11.4104480027
 20
8.8027073299
 30
0.0
 10
11.4089684024
 20
8.8127616899
 30
0.0
 10
11.4086358877
 20
8.8195098615
 30
0.0
 10
11.4086358877
 20
8.8228705722
 30
0.0
  0
SPLINE
  5
390
100
AcDbEntity
  8
0
100
AcDbSpline
 62
7
  6
CONTINUOUS
 70
0
 71
3
 72
15
 73
11
 74
0
 42
0.0000001
 43
0.0000001
 44
0.0000000001
 40
0.0
 40
0.0
 40
0.0
 40
0.0
 40
0.1273482292
 40
0.2538605354
 40
0.3795879276
 40
0.5046050833
 40
0.6290174349
 40
0.7529533662
 40
0.8765605734
 40
1.0
 40
1.0
 40
1.0
 40
1.0
 10
11.4349678991
 20
8.8268053435
 30
0.0
 10
11.4349678991
 20
8.8294077734
 30
0.0
 10
11.4352163776
 20
8.8345991487
 30
0.0
 10
11.4363401037
 20
8.8422863668
 30
0.0
 10
11.438203432
 20
8.8497804338
 30
0.0
 10
11.4407895356
 20
8.857011262
 30
0.0
 10
11.4440746705
 20
8.863912173
 30
0.0
 10
11.4480289025
 20
8.8704194433
 30
0.0
 10
11.4526150513
 20
8.8764720987
 30
0.0
 10
11.4560681873
 20
8.8801694075
 30
0.0
 10
11.4578825478
 20
8.8819219376
 30
0.0
  0
SPLINE
  5
391
100
AcDbEntity
  8
0
100
AcDbSpline
 62
7
  6
CONTINUOUS
 70
0
 71
3
 72
21
 73
17
 74
0
 42
0.0000001
 43
0.0000001
 44
0.0000000001
 40
0.0
 40
0.0
 40
0.0
 40
0.0
 40
0.061653237
 40
0.123329498
 40
0.1850515502
 40
0.2468416698
 40
0.3087213548
 40
0.370711108
 40
0.4328302426
 40
0.495096636
 40
0.5575265765
 40
0.6201345494
 40
0.682933126
 40
0.7459332432
 40
0.8725261314
 40
1.0
 40
1.0
 40
1.0
 40
1.0
 10
9.469110746
 20
6.8742504245
 30
0.0
 10
9.4675340392
 20
6.8727274322
 30
0.0
 10
9.4642974521
 20
6.869765059
 30
0.0
 10
9.4592097472
 20
6.8655880427
 30
0.0
 10
9.4539011312
 20
6.8616870973
 30
0.0
 10
9.4483851433
 20
6.8580722396
 30
0.0
 10
9.442675619
 20
6.8547525579
 30
0.0
 10
9.43678699
 20
6.8517363714
 30
0.0
 10
9.4307340826
 20
6.8490312741
 30
0.0
 10
9.4245321374
 20
6.8466441086
 30
0.0
 10
9.4181967881
 20
6.8445808233
 30
0.0
 10
9.4117440393
 20
6.8428466064
 30
0.0
 10
9.4051899427
 20
6.8414458413
 30
0.0
 10
9.3963255897
 20
6.8400252752
 30
0.0
 10
9.3850692682
 20
6.8391023392
 30
0.0
 10
9.376019864
 20
6.8392789479
 30
0.0
 10
9.3714982535
 20
6.8395925226
 30
0.0
  0
SPLINE
  5
392
100
AcDbEntity
  8
0
100
AcDbSpline
 62
7
  6
CONTINUOUS
 70
0
 71
3
 72
39
 73
35
 74
0
 42
0.0000001
 43
0.0000001
 44
0.0000000001
 40
0.0
 40
0.0
 40
0.0
 40
0.0
 40
0.0311160054
 40
0.0620232808
 40
0.0927351539
 40
0.1232711756
 40
0.1536587326
 40
0.1839312105
 40
0.2141268386
 40
0.2442870981
 40
0.2744549747
 40
0.3046731306
 40
0.33498209
 40
0.365418544
 40
0.3960138629
 40
0.4267928807
 40
0.457772997
 40
0.4889636213
 40
0.5203659688
 40
0.551973177
 40
0.5837707173
 40
0.6157370643
 40
0.6478445906
 40
0.6800606397
 40
0.7123487305
 40
0.7446698622
 40
0.7769838838
 40
0.8092508928
 40
0.841432625
 40
0.8734938027
 40
0.9054033951
 40
0.9371359477
 40
0.9686717614
 40
1.0
 40
1.0
 40
1.0
 40
1.0
 10
11.4086358877
 20
7.5845535269
 30
0.0
 10
11.4086358877
 20
7.5878914704
 30
0.0
 10
11.4089617547
 20
7.5945497959
 30
0.0
 10
11.410435529
 20
7.6044041691
 30
0.0
 10
11.412878687
 20
7.6140011174
 30
0.0
 10
11.4162681339
 20
7.6232467611
 30
0.0
 10
11.4205714358
 20
7.6320519932
 30
0.0
 10
11.4257472924
 20
7.6403315041
 30
0.0
 10
11.4317458185
 20
7.648005139
 30
0.0
 10
11.4385090815
 20
7.6549985672
 30
0.0
 10
11.4459716579
 20
7.6612440849
 30
0.0
 10
11.4540612983
 20
7.6666812894
 30
0.0
 10
11.4626996401
 20
7.67125773
 30
0.0
 10
11.4718030412
 20
7.6749293917
 30
0.0
 10
11.4812834338
 20
7.6776610986
 30
0.0
 10
11.4910492071
 20
7.6794268213
 30
0.0
 10
11.5010061067
 20
7.680209909
 30
0.0
 10
11.5110581573
 20
7.6800032342
 30
0.0
 10
11.5211085909
 20
7.6788091782
 30
0.0
 10
11.5310607599
 20
7.6766395856
 30
0.0
 10
11.5408190422
 20
7.673515617
 30
0.0
 10
11.5502897487
 20
7.6694675722
 30
0.0
 10
11.559382001
 20
7.6645345634
 30
0.0
 10
11.5680085735
 20
7.6587641217
 30
0.0
 10
11.5760867078
 20
7.6522117474
 30
0.0
 10
11.5835388904
 20
7.6449403898
 30
0.0
 10
11.59029361
 20
7.6370198766
 30
0.0
 10
11.5962860014
 20
7.6285262165
 30
0.0
 10
11.601458461
 20
7.6195409015
 30
0.0
 10
11.6057611769
 20
7.6101501001
 30
0.0
 10
11.6091526625
 20
7.6004440087
 30
0.0
 10
11.61160006
 20
7.5905154854
 30
0.0
 10
11.6130796603
 20
7.5804611254
 30
0.0
 10
11.613412175
 20
7.5737129538
 30
0.0
 10
11.613412175
 20
7.5703522431
 30
0.0
  0
SPLINE
  5
393
100
AcDbEntity
  8
0
100
AcDbSpline
 62
7
  6
CONTINUOUS
 70
0
 71
3
 72
21
 73
17
 74
0
 42
0.0000001
 43
0.0000001
 44
0.0000000001
 40
0.0
 40
0.0
 40
0.0
 40
0.0
 40
0.061653237
 40
0.123329498
 40
0.1850515502
 40
0.2468416698
 40
0.3087213548
 40
0.370711108
 40
0.4328302426
 40
0.495096636
 40
0.5575265765
 40
0.6201345494
 40
0.682933126
 40
0.7459332432
 40
0.8725261314
 40
1.0
 40
1.0
 40
1.0
 40
1.0
 10
12.2084765473
 20
6.6842747609
 30
0.0
 10
12.2068998405
 20
6.6827517687
 30
0.0
 10
12.2036632534
 20
6.6797893954
 30
0.0
 10
12.1985755485
 20
6.6756123791
 30
0.0
 10
12.1932669325
 20
6.6717114338
 30
0.0
 10
12.1877509446
 20
6.6680965761
 30
0.0
 10
12.1820414203
 20
6.6647768944
 30
0.0
 10
12.1761527913
 20
6.6617607079
 30
0.0
 10
12.1700998839
 20
6.6590556105
 30
0.0
 10
12.1638979387
 20
6.656668445
 30
0.0
 10
12.1575625894
 20
6.6546051597
 30
0.0
 10
12.1511098406
 20
6.6528709429
 30
0.0
 10
12.144555744
 20
6.6514701777
 30
0.0
 10
12.135691391
 20
6.6500496117
 30
0.0
 10
12.1244350695
 20
6.6491266757
 30
0.0
 10
12.1153856653
 20
6.6493032843
 30
0.0
 10
12.1108640547
 20
6.649616859
 30
0.0
  0
SPLINE
  5
394
100
AcDbEntity
  8
0
100
AcDbSpline
 62
7
  6
CONTINUOUS
 70
0
 71
3
 72
39
 73
35
 74
0
 42
0.0000001
 43
0.0000001
 44
0.0000000001
 40
0.0
 40
0.0
 40
0.0
 40
0.0
 40
0.0311160054
 40
0.0620232808
 40
0.0927351539
 40
0.1232711756
 40
0.1536587326
 40
0.1839312105
 40
0.2141268386
 40
0.2442870981
 40
0.2744549747
 40
0.3046731306
 40
0.33498209
 40
0.365418544
 40
0.3960138629
 40
0.4267928807
 40
0.457772997
 40
0.4889636213
 40
0.5203659688
 40
0.551973177
 40
0.5837707173
 40
0.6157370643
 40
0.6478445906
 40
0.6800606397
 40
0.7123487305
 40
0.7446698622
 40
0.7769838838
 40
0.8092508928
 40
0.841432625
 40
0.8734938027
 40
0.9054033951
 40
0.9371359477
 40
0.9686717614
 40
1.0
 40
1.0
 40
1.0
 40
1.0
 10
11.613412175
 20
7.5703522431
 30
0.0
 10
11.613412175
 20
7.5670142995
 30
0.0
 10
11.613086308
 20
7.5603559741
 30
0.0
 10
11.6116125337
 20
7.5505016008
 30
0.0
 10
11.6091693756
 20
7.5409046525
 30
0.0
 10
11.6057799288
 20
7.5316590088
 30
0.0
 10
11.6014766268
 20
7.5228537767
 30
0.0
 10
11.5963007703
 20
7.5145742658
 30
0.0
 10
11.5903022441
 20
7.5069006309
 30
0.0
 10
11.5835389812
 20
7.4999072027
 30
0.0
 10
11.5760764048
 20
7.493661685
 30
0.0
 10
11.5679867644
 20
7.4882244806
 30
0.0
 10
11.5593484226
 20
7.48364804
 30
0.0
 10
11.5502450214
 20
7.4799763782
 30
0.0
 10
11.5407646288
 20
7.4772446714
 30
0.0
 10
11.5309988556
 20
7.4754789486
 30
0.0
 10
11.521041956
 20
7.4746958609
 30
0.0
 10
11.5109899053
 20
7.4749025358
 30
0.0
 10
11.5009394718
 20
7.4760965917
 30
0.0
 10
11.4909873027
 20
7.4782661844
 30
0.0
 10
11.4812290205
 20
7.4813901529
 30
0.0
 10
11.471758314
 20
7.4854381977
 30
0.0
 10
11.4626660616
 20
7.4903712066
 30
0.0
 10
11.4540394892
 20
7.4961416482
 30
0.0
 10
11.4459613549
 20
7.5026940226
 30
0.0
 10
11.4385091723
 20
7.5099653802
 30
0.0
 10
11.4317544526
 20
7.5178858933
 30
0.0
 10
11.4257620613
 20
7.5263795535
 30
0.0
 10
11.4205896017
 20
7.5353648685
 30
0.0
 10
11.4162868858
 20
7.5447556698
 30
0.0
 10
11.4128954001
 20
7.5544617613
 30
0.0
 10
11.4104480027
 20
7.5643902846
 30
0.0
 10
11.4089684024
 20
7.5744446446
 30
0.0
 10
11.4086358877
 20
7.5811928162
 30
0.0
 10
11.4086358877
 20
7.5845535269
 30
0.0
  0
SPLINE
  5
395
100
AcDbEntity
  8
0
100
AcDbSpline
 62
7
  6
CONTINUOUS
 70
0
 71
3
 72
37
 73
33
 74
0
 42
0.0000001
 43
0.0000001
 44
0.0000000001
 40
0.0
 40
0.0
 40
0.0
 40
0.0
 40
0.031146624
 40
0.0624481919
 40
0.0938952571
 40
0.1254804469
 40
0.1571906758
 40
0.1890114524
 40
0.2209257687
 40
0.25291484
 40
0.2849584237
 40
0.3170352183
 40
0.381163152
 40
0.4451601237
 40
0.4770758719
 40
0.5088983814
 40
0.5406106743
 40
0.5721979571
 40
0.6036479386
 40
0.6349511145
 40
0.6661010055
 40
0.697094333
 40
0.7279311336
 40
0.7586148063
 40
0.7891520874
 40
0.819552954
 40
0.8498304507
 40
0.8800004308
 40
0.9100812223
 40
0.9400932249
 40
0.9700584477
 40
1.0
 40
1.0
 40
1.0
 40
1.0
 10
11.2241441103
 20
7.5220058562
 30
0.0
 10
11.2223043589
 20
7.5221334434
 30
0.0
 10
11.2186236776
 20
7.5225239414
 30
0.0
 10
11.2131473077
 20
7.5235075124
 30
0.0
 10
11.2077295622
 20
7.5248853177
 30
0.0
 10
11.2023997831
 20
7.5266497631
 30
0.0
 10
11.1971862155
 20
7.5287915195
 30
0.0
 10
11.192116699
 20
7.5312990686
 30
0.0
 10
11.1872182247
 20
7.5341590574
 30
0.0
 10
11.1825169486
 20
7.5373561384
 30
0.0
 10
11.178037711
 20
7.5408734891
 30
0.0
 10
11.172395592
 20
7.5459629266
 30
0.0
 10
11.1660161839
 20
7.5530249218
 30
0.0
 10
11.160662786
 20
7.5608820415
 30
0.0
 10
11.1570679568
 20
7.5675419213
 30
0.0
 10
11.1547312388
 20
7.5726929641
 30
0.0
 10
11.1527650501
 20
7.5779755584
 30
0.0
 10
11.1511797316
 20
7.5833618019
 30
0.0
 10
11.1499838402
 20
7.5888229165
 30
0.0
 10
11.1491837931
 20
7.5943297986
 30
0.0
 10
11.1487839116
 20
7.5998530683
 30
0.0
 10
11.1487863876
 20
7.6053632547
 30
0.0
 10
11.149191273
 20
7.6108309424
 30
0.0
 10
11.1499964751
 20
7.6162269278
 30
0.0
 10
11.1511977664
 20
7.6215223727
 30
0.0
 10
11.1527887937
 20
7.6266889607
 30
0.0
 10
11.154761101
 20
7.6316990522
 30
0.0
 10
11.157104197
 20
7.6365258386
 30
0.0
 10
11.1598055687
 20
7.6411434553
 30
0.0
 10
11.1628508827
 20
7.6455272469
 30
0.0
 10
11.1662235525
 20
7.6496534364
 30
0.0
 10
11.1686793193
 20
7.6522188135
 30
0.0
 10
11.1699544343
 20
7.653450466
 30
0.0
  0
SPLINE
  5
396
100
AcDbEntity
  8
0
100
AcDbSpline
 62
7
  6
CONTINUOUS
 70
0
 71
3
 72
18
 73
14
 74
0
 42
0.0000001
 43
0.0000001
 44
0.0000000001
 40
0.0
 40
0.0
 40
0.0
 40
0.0
 40
0.159142261
 40
0.3044437359
 40
0.4361114101
 40
0.5555938859
 40
0.6117735518
 40
0.6662786461
 40
0.7198039134
 40
0.773136081
 40
0.8270934025
 40
0.8824650627
 40
1.0
 40
1.0
 40
1.0
 40
1.0
 10
10.7785421239
 20
7.8264909315
 30
0.0
 10
10.7783382232
 20
7.8269436491
 30
0.0
 10
10.7779830906
 20
7.8278263408
 30
0.0
 10
10.777610107
 20
7.8291381474
 30
0.0
 10
10.777433051
 20
7.8303667695
 30
0.0
 10
10.7774615479
 20
7.8313320966
 30
0.0
 10
10.7776014123
 20
7.832037932
 30
0.0
 10
10.7777598341
 20
7.8325265104
 30
0.0
 10
10.777974713
 20
7.8329833294
 30
0.0
 10
10.7782460187
 20
7.8334070425
 30
0.0
 10
10.7785731484
 20
7.8337968787
 30
0.0
 10
10.7790926952
 20
7.8342796439
 30
0.0
 10
10.779550211
 20
7.8345751729
 30
0.0
 10
10.7798744523
 20
7.8347464595
 30
0.0
  0
SPLINE
  5
397
100
AcDbEntity
  8
0
100
AcDbSpline
 62
7
  6
CONTINUOUS
 70
0
 71
3
 72
15
 73
11
 74
0
 42
0.0000001
 43
0.0000001
 44
0.0000000001
 40
0.0
 40
0.0
 40
0.0
 40
0.0
 40
0.1266937056
 40
0.2528686122
 40
0.3785207841
 40
0.5036798275
 40
0.6283694668
 40
0.7526243713
 40
0.8764856222
 40
1.0
 40
1.0
 40
1.0
 40
1.0
 10
10.6649322566
 20
7.8476672998
 30
0.0
 10
10.6649322566
 20
7.8500731308
 30
0.0
 10
10.6650769756
 20
7.8548762353
 30
0.0
 10
10.6657304091
 20
7.8620386171
 30
0.0
 10
10.6668175071
 20
7.8691189527
 30
0.0
 10
10.668333984
 20
7.8760910199
 30
0.0
 10
10.6702742623
 20
7.8829296942
 30
0.0
 10
10.672631027
 20
7.8896102379
 30
0.0
 10
10.6753952348
 20
7.8961082242
 30
0.0
 10
10.6775058477
 20
7.9003090555
 30
0.0
 10
10.6786250736
 20
7.9023702456
 30
0.0
  0
SPLINE
  5
398
100
AcDbEntity
  8
0
100
AcDbSpline
 62
4
  6
CONTINUOUS
 70
0
 71
3
 72
397
 73
393
 74
0
 42
0.0000001
 43
0.0000001
 44
0.0000000001
 40
0.0
 40
0.0
 40
0.0
 40
0.0
 40
0.015625
 40
0.0234375
 40
0.03125
 40
0.0390625
 40
0.04296875
 40
0.046875
 40
0.05078125
 40
0.0546875
 40
0.056640625
 40
0.05859375
 40
0.0595703125
 40
0.060546875
 40
0.0615234375
 40
0.0620117188
 40
0.0622558594
 40
0.0625
 40
0.0627441406
 40
0.0629882812
 40
0.0634765625
 40
0.064453125
 40
0.0654296875
 40
0.06640625
 40
0.068359375
 40
0.0703125
 40
0.07421875
 40
0.078125
 40
0.08203125
 40
0.0859375
 40
0.09375
 40
0.1015625
 40
0.10546875
 40
0.109375
 40
0.11328125
 40
0.1171875
 40
0.119140625
 40
0.12109375
 40
0.1220703125
 40
0.123046875
 40
0.1240234375
 40
0.1245117188
 40
0.125
 40
0.1254882812
 40
0.1259765625
 40
0.126953125
 40
0.1279296875
 40
0.12890625
 40
0.130859375
 40
0.1328125
 40
0.13671875
 40
0.140625
 40
0.14453125
 40
0.1484375
 40
0.15625
 40
0.1640625
 40
0.16796875
 40
0.171875
 40
0.17578125
 40
0.1796875
 40
0.181640625
 40
0.18359375
 40
0.1845703125
 40
0.185546875
 40
0.1865234375
 40
0.1870117188
 40
0.1872558594
 40
0.1875
 40
0.1877441406
 40
0.1879882812
 40
0.1884765625
 40
0.189453125
 40
0.1904296875
 40
0.19140625
 40
0.193359375
 40
0.1953125
 40
0.19921875
 40
0.203125
 40
0.20703125
 40
0.2109375
 40
0.21875
 40
0.2265625
 40
0.23046875
 40
0.234375
 40
0.23828125
 40
0.2421875
 40
0.244140625
 40
0.24609375
 40
0.2470703125
 40
0.248046875
 40
0.2490234375
 40
0.2495117188
 40
0.2497558594
 40
0.25
 40
0.2502441406
 40
0.2504882812
 40
0.2509765625
 40
0.251953125
 40
0.2529296875
 40
0.25390625
 40
0.255859375
 40
0.2578125
 40
0.26171875
 40
0.265625
 40
0.26953125
 40
0.2734375
 40
0.28125
 40
0.2890625
 40
0.29296875
 40
0.296875
 40
0.30078125
 40
0.3046875
 40
0.306640625
 40
0.30859375
 40
0.3095703125
 40
0.310546875
 40
0.3115234375
 40
0.3120117188
 40
0.3125
 40
0.3129882812
 40
0.3134765625
 40
0.314453125
 40
0.3154296875
 40
0.31640625
 40
0.318359375
 40
0.3203125
 40
0.32421875
 40
0.328125
 40
0.33203125
 40
0.3359375
 40
0.34375
 40
0.3515625
 40
0.35546875
 40
0.359375
 40
0.36328125
 40
0.3671875
 40
0.369140625
 40
0.37109375
 40
0.3720703125
 40
0.373046875
 40
0.3740234375
 40
0.3745117188
 40
0.375
 40
0.3754882812
 40
0.3759765625
 40
0.376953125
 40
0.3779296875
 40
0.37890625
 40
0.380859375
 40
0.3828125
 40
0.38671875
 40
0.390625
 40
0.39453125
 40
0.3984375
 40
0.40625
 40
0.4140625
 40
0.41796875
 40
0.421875
 40
0.42578125
 40
0.4296875
 40
0.431640625
 40
0.43359375
 40
0.4345703125
 40
0.435546875
 40
0.4365234375
 40
0.4370117188
 40
0.4372558594
 40
0.4375
 40
0.4377441406
 40
0.4379882812
 40
0.4384765625
 40
0.439453125
 40
0.4404296875
 40
0.44140625
 40
0.443359375
 40
0.4453125
 40
0.44921875
 40
0.453125
 40
0.45703125
 40
0.4609375
 40
0.46875
 40
0.4765625
 40
0.48046875
 40
0.484375
 40
0.48828125
 40
0.4921875
 40
0.494140625
 40
0.49609375
 40
0.4970703125
 40
0.498046875
 40
0.4990234375
 40
0.4995117188
 40
0.4997558594
 40
0.5
 40
0.5002441406
 40
0.5004882812
 40
0.5009765625
 40
0.501953125
 40
0.5029296875
 40
0.50390625
 40
0.505859375
 40
0.5078125
 40
0.51171875
 40
0.515625
 40
0.51953125
 40
0.5234375
 40
0.53125
 40
0.5390625
 40
0.54296875
 40
0.546875
 40
0.55078125
 40
0.5546875
 40
0.556640625
 40
0.55859375
 40
0.5595703125
 40
0.560546875
 40
0.5615234375
 40
0.5620117188
 40
0.5622558594
 40
0.5625
 40
0.5627441406
 40
0.5629882812
 40
0.5634765625
 40
0.564453125
 40
0.5654296875
 40
0.56640625
 40
0.568359375
 40
0.5703125
 40
0.57421875
 40
0.578125
 40
0.58203125
 40
0.5859375
 40
0.59375
 40
0.6015625
 40
0.60546875
 40
0.609375
 40
0.61328125
 40
0.6171875
 40
0.619140625
 40
0.62109375
 40
0.6220703125
 40
0.623046875
 40
0.6240234375
 40
0.6245117188
 40
0.6247558594
 40
0.625
 40
0.6252441406
 40
0.6254882812
 40
0.6259765625
 40
0.626953125
 40
0.6279296875
 40
0.62890625
 40
0.630859375
 40
0.6328125
 40
0.63671875
 40
0.640625
 40
0.64453125
 40
0.6484375
 40
0.65625
 40
0.6640625
 40
0.66796875
 40
0.671875
 40
0.67578125
 40
0.6796875
 40
0.681640625
 40
0.68359375
 40
0.6845703125
 40
0.685546875
 40
0.6865234375
 40
0.6870117188
 40
0.6872558594
 40
0.6875
 40
0.6877441406
 40
0.6879882812
 40
0.6884765625
 40
0.689453125
 40
0.6904296875
 40
0.69140625
 40
0.693359375
 40
0.6953125
 40
0.69921875
 40
0.703125
 40
0.70703125
 40
0.7109375
 40
0.71875
 40
0.7265625
 40
0.73046875
 40
0.734375
 40
0.73828125
 40
0.7421875
 40
0.744140625
 40
0.74609375
 40
0.7470703125
 40
0.748046875
 40
0.7490234375
 40
0.7495117188
 40
0.7497558594
 40
0.75
 40
0.7502441406
 40
0.7504882812
 40
0.7509765625
 40
0.751953125
 40
0.7529296875
 40
0.75390625
 40
0.755859375
 40
0.7578125
 40
0.76171875
 40
0.765625
 40
0.76953125
 40
0.7734375
 40
0.78125
 40
0.7890625
 40
0.79296875
 40
0.796875
 40
0.80078125
 40
0.8046875
 40
0.806640625
 40
0.80859375
 40
0.8095703125
 40
0.810546875
 40
0.8115234375
 40
0.8120117188
 40
0.8122558594
 40
0.8125
 40
0.8127441406
 40
0.8129882812
 40
0.8134765625
 40
0.814453125
 40
0.8154296875
 40
0.81640625
 40
0.818359375
 40
0.8203125
 40
0.82421875
 40
0.828125
 40
0.83203125
 40
0.8359375
 40
0.84375
 40
0.8515625
 40
0.85546875
 40
0.859375
 40
0.86328125
 40
0.8671875
 40
0.869140625
 40
0.87109375
 40
0.8720703125
 40
0.873046875
 40
0.8740234375
 40
0.8745117188
 40
0.8747558594
 40
0.875
 40
0.8752441406
 40
0.8754882812
 40
0.8759765625
 40
0.876953125
 40
0.8779296875
 40
0.87890625
 40
0.880859375
 40
0.8828125
 40
0.88671875
 40
0.890625
 40
0.89453125
 40
0.8984375
 40
0.90625
 40
0.9140625
 40
0.91796875
 40
0.921875
 40
0.92578125
 40
0.9296875
 40
0.931640625
 40
0.93359375
 40
0.9345703125
 40
0.935546875
 40
0.9365234375
 40
0.9370117188
 40
0.9372558594
 40
0.9375
 40
0.9377441406
 40
0.9379882812
 40
0.9384765625
 40
0.939453125
 40
0.9404296875
 40
0.94140625
 40
0.943359375
 40
0.9453125
 40
0.94921875
 40
0.953125
 40
0.95703125
 40
0.9609375
 40
0.96875
 40
0.9765625
 40
0.984375
 40
1.0
 40
1.0
 40
1.0
 40
1.0
 10
10.9730033754
 20
9.2481453985
 30
0.0
 10
10.973310587
 20
9.2449909064
 30
0.0
 10
10.9737714045
 20
9.2402591682
 30
0.0
 10
10.9743858278
 20
9.233950184
 30
0.0
 10
10.9748466454
 20
9.2292184458
 30
0.0
 10
10.9752306598
 20
9.2252753306
 30
0.0
 10
10.9755378718
 20
9.2221208385
 30
0.0
 10
10.9757682796
 20
9.2197549693
 30
0.0
 10
10.975998692
 20
9.2173891007
 30
0.0
 10
10.9761906878
 20
9.2154175417
 30
0.0
 10
10.976344317
 20
9.2138402986
 30
0.0
 10
10.9764402612
 20
9.2128545122
 30
0.0
 10
10.9765171862
 20
9.2120659048
 30
0.0
 10
10.9765744154
 20
9.2114743896
 30
0.0
 10
10.9766235841
 20
9.2109816503
 30
0.0
 10
10.9766551023
 20
9.2106363597
 30
0.0
 10
10.9766776406
 20
9.2104396334
 30
0.0
 10
10.9766817892
 20
9.2102904476
 30
0.0
 10
10.9767346943
 20
9.2101475346
 30
0.0
 10
10.9767882276
 20
9.2099547959
 30
0.0
 10
10.9768898346
 20
9.2096185226
 30
0.0
 10
10.9770308448
 20
9.2091375992
 30
0.0
 10
10.9772018303
 20
9.2085607193
 30
0.0
 10
10.9774291915
 20
9.2077914663
 30
0.0
 10
10.9777136052
 20
9.2068299275
 30
0.0
 10
10.9781685485
 20
9.20529145
 30
0.0
 10
10.9787372684
 20
9.2033683584
 30
0.0
 10
10.9794197147
 20
9.2010606463
 30
0.0
 10
10.9801021657
 20
9.1987529347
 30
0.0
 10
10.9810120988
 20
9.1956759858
 30
0.0
 10
10.9821495156
 20
9.1918297996
 30
0.0
 10
10.9832869327
 20
9.1879836137
 30
0.0
 10
10.9841968653
 20
9.1849066645
 30
0.0
 10
10.9848793179
 20
9.1825989537
 30
0.0
 10
10.9855617582
 20
9.1802912387
 30
0.0
 10
10.986130497
 20
9.1783681561
 30
0.0
 10
10.9865854016
 20
9.1768296603
 30
0.0
 10
10.9868699139
 20
9.175868168
 30
0.0
 10
10.9870970726
 20
9.1750988195
 30
0.0
 10
10.987268677
 20
9.1745222316
 30
0.0
 10
10.9874077509
 20
9.1740403945
 30
0.0
 10
10.9875278236
 20
9.1736579463
 30
0.0
 10
10.9875937951
 20
9.173362854
 30
0.0
 10
10.987751692
 20
9.1730992755
 30
0.0
 10
10.9879301104
 20
9.1727368294
 30
0.0
 10
10.9881641505
 20
9.1722875486
 30
0.0
 10
10.9884402829
 20
9.171746795
 30
0.0
 10
10.9888101066
 20
9.1710263549
 30
0.0
 10
10.9892718222
 20
9.1701256114
 30
0.0
 10
10.9900108824
 20
9.1686845299
 30
0.0
 10
10.9909345994
 20
9.1668831409
 30
0.0
 10
10.9920431062
 20
9.1647214901
 30
0.0
 10
10.9931516007
 20
9.1625598349
 30
0.0
 10
10.9946295975
 20
9.1596776296
 30
0.0
 10
10.9964770922
 20
9.1560748724
 30
0.0
 10
10.9983245873
 20
9.1524721153
 30
0.0
 10
10.9998025836
 20
9.1495899098
 30
0.0
 10
11.0009110797
 20
9.1474282551
 30
0.0
 10
11.0020195801
 20
9.1452666025
 30
0.0
 10
11.0029433172
 20
9.143465219
 30
0.0
 10
11.0036823366
 20
9.1420241263
 30
0.0
 10
11.0041441559
 20
9.1411234112
 30
0.0
 10
11.0045137666
 20
9.1404029128
 30
0.0
 10
11.0047905496
 20
9.1398623372
 30
0.0
 10
11.0050225542
 20
9.1394124996
 30
0.0
 10
11.005182304
 20
9.1390963533
 30
0.0
 10
11.0052777327
 20
9.1389176656
 30
0.0
 10
11.0053376329
 20
9.1387781077
 30
0.0
 10
11.005442147
 20
9.1386597347
 30
0.0
 10
11.0055659373
 20
9.1384945144
 30
0.0
 10
11.0057898208
 20
9.1382088218
 30
0.0
 10
11.0061058637
 20
9.1377988896
 30
0.0
 10
11.0064867378
 20
9.1373077414
 30
0.0
 10
11.0069940031
 20
9.136652608
 30
0.0
 10
11.0076282789
 20
9.1358337834
 30
0.0
 10
11.0086430116
 20
9.1345236125
 30
0.0
 10
11.0099114648
 20
9.1328859166
 30
0.0
 10
11.0114335926
 20
9.1309206739
 30
0.0
 10
11.0129557247
 20
9.1289554333
 30
0.0
 10
11.0149852326
 20
9.1263351117
 30
0.0
 10
11.0175221181
 20
9.12305971
 30
0.0
 10
11.0200590033
 20
9.1197843081
 30
0.0
 10
11.0220885118
 20
9.1171639869
 30
0.0
 10
11.0236106423
 20
9.1151987451
 30
0.0
 10
11.025132776
 20
9.1132335068
 30
0.0
 10
11.0264012109
 20
9.1115957973
 30
0.0
 10
11.0274159807
 20
9.1102856542
 30
0.0
 10
11.0280501623
 20
9.109466759
 30
0.0
 10
11.028557621
 20
9.1088117705
 30
0.0
 10
11.0289379043
 20
9.1083201797
 30
0.0
 10
11.0292557956
 20
9.1079116321
 30
0.0
 10
11.0294763795
 20
9.1076234677
 30
0.0
 10
11.0296054566
 20
9.107462208
 30
0.0
 10
11.0296937312
 20
9.1073316693
 30
0.0
 10
11.029814624
 20
9.1072378034
 30
0.0
 10
11.0299644367
 20
9.107099857
 30
0.0
 10
11.03023191
 20
9.1068644107
 30
0.0
 10
11.0306112433
 20
9.1065249429
 30
0.0
 10
11.0310676295
 20
9.1061189153
 30
0.0
 10
11.0316757302
 20
9.1055770794
 30
0.0
 10
11.0324359978
 20
9.1048999439
 30
0.0
 10
11.0336523468
 20
9.103816438
 30
0.0
 10
11.0351728101
 20
9.1024620863
 30
0.0
 10
11.0369973546
 20
9.100836851
 30
0.0
 10
11.0388219021
 20
9.0992116193
 30
0.0
 10
11.0412546311
 20
9.0970446425
 30
0.0
 10
11.0442955425
 20
9.0943359217
 30
0.0
 10
11.0473364542
 20
9.0916272013
 30
0.0
 10
11.0497691829
 20
9.089460224
 30
0.0
 10
11.0515937313
 20
9.0878349938
 30
0.0
 10
11.0534182723
 20
9.0862097529
 30
0.0
 10
11.0549387464
 20
9.0848554186
 30
0.0
 10
11.0561550736
 20
9.0837718771
 30
0.0
 10
11.0569153966
 20
9.0830948324
 30
0.0
 10
11.0575233835
 20
9.08255281
 30
0.0
 10
11.057980117
 20
9.082147352
 30
0.0
 10
11.0583583638
 20
9.0818061022
 30
0.0
 10
11.0586662643
 20
9.0815406564
 30
0.0
 10
11.0588826991
 20
9.081320931
 30
0.0
 10
11.0591544449
 20
9.0811799925
 30
0.0
 10
11.0594974518
 20
9.0809645533
 30
0.0
 10
11.0599328393
 20
9.0807046966
 30
0.0
 10
11.0604524669
 20
9.080388827
 30
0.0
 10
11.0611462948
 20
9.0799690792
 30
0.0
 10
11.0620132403
 20
9.079443911
 30
0.0
 10
11.0634005428
 20
9.0786039121
 30
0.0
 10
11.0651346058
 20
9.0775538208
 30
0.0
 10
11.0672155093
 20
9.0762937509
 30
0.0
 10
11.0692964054
 20
9.0750336704
 30
0.0
 10
11.0720709361
 20
9.0733535668
 30
0.0
 10
11.0755390985
 20
9.0712534359
 30
0.0
 10
11.0790072615
 20
9.069153306
 30
0.0
 10
11.0817817913
 20
9.0674732008
 30
0.0
 10
11.08386269
 20
9.0662131251
 30
0.0
 10
11.0859435835
 20
9.0649530373
 30
0.0
 10
11.0876776775
 20
9.0639030016
 30
0.0
 10
11.0890649168
 20
9.0630628892
 30
0.0
 10
11.0899320232
 20
9.06253801
 30
0.0
 10
11.0906255208
 20
9.0621176691
 30
0.0
 10
11.0911461575
 20
9.0618036113
 30
0.0
 10
11.091578388
 20
9.0615380858
 30
0.0
 10
11.0919278358
 20
9.0613342121
 30
0.0
 10
11.0921799114
 20
9.0611579529
 30
0.0
 10
11.0924701965
 20
9.0610708363
 30
0.0
 10
11.0928438962
 20
9.0609235422
 30
0.0
 10
11.0933156001
 20
9.0607501081
 30
0.0
 10
11.0938796848
 20
9.0605374143
 30
0.0
 10
11.0946324823
 20
9.0602554198
 30
0.0
 10
11.0955732447
 20
9.0599023797
 30
0.0
 10
11.0970785956
 20
9.0593378213
 30
0.0
 10
11.0989602393
 20
9.0586320183
 30
0.0
 10
11.101218231
 20
9.0577850997
 30
0.0
 10
11.1034762176
 20
9.0569381691
 30
0.0
 10
11.1064868681
 20
9.0558089325
 30
0.0
 10
11.1102501807
 20
9.0543973854
 30
0.0
 10
11.1140134934
 20
9.0529858385
 30
0.0
 10
11.1170241437
 20
9.0518566014
 30
0.0
 10
11.119282131
 20
9.0510096724
 30
0.0
 10
11.1215401197
 20
9.0501627479
 30
0.0
 10
11.1234217727
 20
9.0494569633
 30
0.0
 10
11.1249271047
 20
9.0488923675
 30
0.0
 10
11.1258679153
 20
9.0485394226
 30
0.0
 10
11.1266206139
 20
9.0482572327
 30
0.0
 10
11.1271850008
 20
9.0480451357
 30
0.0
 10
11.127655759
 20
9.0478698343
 30
0.0
 10
11.1279844346
 20
9.0477442853
 30
0.0
 10
11.1281735845
 20
9.0476769744
 30
0.0
 10
11.1283116853
 20
9.047614008
 30
0.0
 10
11.1284641651
 20
9.0475987588
 30
0.0
 10
11.128662456
 20
9.0475617823
 30
0.0
 10
11.1290118019
 20
9.0475048283
 30
0.0
 10
11.1295096458
 20
9.0474194111
 30
0.0
 10
11.1301075813
 20
9.0473186458
 30
0.0
 10
11.1309046461
 20
9.047183686
 30
0.0
 10
11.1319010396
 20
9.0470151937
 30
0.0
 10
11.1334952342
 20
9.0467454902
 30
0.0
 10
11.1354879894
 20
9.0464084005
 30
0.0
 10
11.1378792906
 20
9.0460038758
 30
0.0
 10
11.1402705932
 20
9.0455993557
 30
0.0
 10
11.1434589961
 20
9.0450599939
 30
0.0
 10
11.1474444999
 20
9.0443857924
 30
0.0
 10
11.1514300037
 20
9.0437115904
 30
0.0
 10
11.1546184067
 20
9.0431722293
 30
0.0
 10
11.1570097091
 20
9.0427677072
 30
0.0
 10
11.159401011
 20
9.0423631899
 30
0.0
 10
11.161393764
 20
9.0420260771
 30
0.0
 10
11.1629879633
 20
9.0417564208
 30
0.0
 10
11.1639843447
 20
9.0415878082
 30
0.0
 10
11.1647814343
 20
9.0414530953
 30
0.0
 10
11.165379294
 20
9.0413515757
 30
0.0
 10
11.1658773751
 20
9.0412685187
 30
0.0
 10
11.1662262975
 20
9.0412073512
 30
0.0
 10
11.1664252669
 20
9.0411771258
 30
0.0
 10
11.1665756625
 20
9.0411411395
 30
0.0
 10
11.1667215915
 20
9.0411560584
 30
0.0
 10
11.1669177214
 20
9.041158194
 30
0.0
 10
11.1672602229
 20
9.0411702044
 30
0.0
 10
11.1677498903
 20
9.0411830368
 30
0.0
 10
11.1683373286
 20
9.041200287
 30
0.0
 10
11.1691206366
 20
9.0412226406
 30
0.0
 10
11.170099752
 20
9.0412508041
 30
0.0
 10
11.1716663476
 20
9.0412957419
 30
0.0
 10
11.1736245884
 20
9.0413519566
 30
0.0
 10
11.1759744789
 20
9.0414193961
 30
0.0
 10
11.178324369
 20
9.0414868404
 30
0.0
 10
11.181457556
 20
9.0415767645
 30
0.0
 10
11.1853740396
 20
9.0416891702
 30
0.0
 10
11.1892905233
 20
9.0418015755
 30
0.0
 10
11.1924237101
 20
9.0418915003
 30
0.0
 10
11.1947736005
 20
9.0419589426
 30
0.0
 10
11.19712349
 20
9.0420263896
 30
0.0
 10
11.1990817341
 20
9.0420825808
 30
0.0
 10
11.2006483229
 20
9.0421275667
 30
0.0
 10
11.2016274556
 20
9.0421556078
 30
0.0
 10
11.2024107281
 20
9.0421782126
 30
0.0
 10
11.2029982745
 20
9.0421946954
 30
0.0
 10
11.2034876039
 20
9.042209929
 30
0.0
 10
11.2038307087
 20
9.0422176528
 30
0.0
 10
11.204025872
 20
9.0422266565
 30
0.0
 10
11.2041747701
 20
9.042220479
 30
0.0
 10
11.2043140142
 20
9.0422637274
 30
0.0
 10
11.2045030403
 20
9.0423041517
 30
0.0
 10
11.2048322671
 20
9.0423829267
 30
0.0
 10
11.2053034114
 20
9.042491263
 30
0.0
 10
11.2058684335
 20
9.042623064
 30
0.0
 10
11.2066219189
 20
9.0427981709
 30
0.0
 10
11.2075637336
 20
9.0430172695
 30
0.0
 10
11.2090706606
 20
9.0433677071
 30
0.0
 10
11.2109543113
 20
9.0438057953
 30
0.0
 10
11.2132146957
 20
9.0443314835
 30
0.0
 10
11.2154750791
 20
9.0448571764
 30
0.0
 10
11.2184889239
 20
9.0455580986
 30
0.0
 10
11.2222562299
 20
9.046434252
 30
0.0
 10
11.226023536
 20
9.047310405
 30
0.0
 10
11.2290373806
 20
9.0480113278
 30
0.0
 10
11.2312977646
 20
9.0485370188
 30
0.0
 10
11.2335581468
 20
9.0490627143
 30
0.0
 10
11.2354418042
 20
9.0495007798
 30
0.0
 10
11.2369487176
 20
9.0498512637
 30
0.0
 10
11.2378905672
 20
9.0500702443
 30
0.0
 10
11.238643981
 20
9.0502455933
 30
0.0
 10
11.2392092217
 20
9.0503766547
 30
0.0
 10
11.2396796817
 20
9.0504873051
 30
0.0
 10
11.2400101302
 20
9.0505619491
 30
0.0
 10
11.2401971989
 20
9.0506089923
 30
0.0
 10
11.2403424555
 20
9.0506319095
 30
0.0
 10
11.2404687716
 20
9.0507020929
 30
0.0
 10
11.2406437998
 20
9.0507791837
 30
0.0
 10
11.240947021
 20
9.0509217744
 30
0.0
 10
11.2413818034
 20
9.0511214592
 30
0.0
 10
11.2419028534
 20
9.0513628
 30
0.0
 10
11.2425978274
 20
9.0516839874
 30
0.0
 10
11.2434664625
 20
9.0520856772
 30
0.0
 10
11.2448563247
 20
9.0527282659
 30
0.0
 10
11.2465936367
 20
9.0535315412
 30
0.0
 10
11.2486784179
 20
9.0544954547
 30
0.0
 10
11.2507631972
 20
9.0554593727
 30
0.0
 10
11.2535429036
 20
9.0567445952
 30
0.0
 10
11.2570175363
 20
9.0583511238
 30
0.0
 10
11.2604921693
 20
9.0599576521
 30
0.0
 10
11.2632718754
 20
9.0612428751
 30
0.0
 10
11.2653566556
 20
9.0622067913
 30
0.0
 10
11.2674414334
 20
9.0631707118
 30
0.0
 10
11.2691787556
 20
9.0639739652
 30
0.0
 10
11.2705685971
 20
9.0646165987
 30
0.0
 10
11.2714372849
 20
9.0650181744
 30
0.0
 10
11.2721321507
 20
9.065339596
 30
0.0
 10
11.2726535313
 20
9.0655802211
 30
0.0
 10
11.2730872794
 20
9.0657821452
 30
0.0
 10
11.273392347
 20
9.0659207384
 30
0.0
 10
11.2735644167
 20
9.0660042341
 30
0.0
 10
11.2736998205
 20
9.066054744
 30
0.0
 10
11.2738109455
 20
9.0661515515
 30
0.0
 10
11.2739675809
 20
9.0662644791
 30
0.0
 10
11.2742377471
 20
9.0664696266
 30
0.0
 10
11.2746257616
 20
9.0667587606
 30
0.0
 10
11.2750904961
 20
9.0671074052
 30
0.0
 10
11.2757104506
 20
9.0675716766
 30
0.0
 10
11.276485288
 20
9.0681522172
 30
0.0
 10
11.2777250869
 20
9.0690809696
 30
0.0
 10
11.2792748153
 20
9.0702419487
 30
0.0
 10
11.281134498
 20
9.0716351071
 30
0.0
 10
11.2829941785
 20
9.0730282699
 30
0.0
 10
11.2854737532
 20
9.0748858187
 30
0.0
 10
11.2885732213
 20
9.0772077554
 30
0.0
 10
11.2916726896
 20
9.0795296917
 30
0.0
 10
11.2941522639
 20
9.0813872411
 30
0.0
 10
11.2960119456
 20
9.0827804023
 30
0.0
 10
11.2978716235
 20
9.0841735668
 30
0.0
 10
11.2994213668
 20
9.0853345268
 30
0.0
 10
11.3006611354
 20
9.0862633183
 30
0.0
 10
11.3014360499
 20
9.0868437593
 30
0.0
 10
11.3020558461
 20
9.087308235
 30
0.0
 10
11.3025210641
 20
9.0876562553
 30
0.0
 10
11.3029075659
 20
9.0879473427
 30
0.0
 10
11.3031804328
 20
9.0881490032
 30
0.0
 10
11.3033327409
 20
9.0882675177
 30
0.0
 10
11.3034571577
 20
9.088347164
 30
0.0
 10
11.3035426397
 20
9.0884621285
 30
0.0
 10
11.3036701966
 20
9.0886030952
 30
0.0
 10
11.3038870935
 20
9.0888555266
 30
0.0
 10
11.3042002544
 20
9.0892131421
 30
0.0
 10
11.3045746316
 20
9.0896435652
 30
0.0
 10
11.3050742956
 20
9.090217014
 30
0.0
 10
11.3056987063
 20
9.0909339786
 30
0.0
 10
11.3066978581
 20
9.0920810362
 30
0.0
 10
11.3079467654
 20
9.0935148876
 30
0.0
 10
11.309445468
 20
9.0952354966
 30
0.0
 10
11.3109441669
 20
9.096956109
 30
0.0
 10
11.3129424335
 20
9.0992502577
 30
0.0
 10
11.3154402661
 20
9.102117944
 30
0.0
 10
11.3179380991
 20
9.10498563
 30
0.0
 10
11.3199363651
 20
9.1072797792
 30
0.0
 10
11.3214350657
 20
9.1090003903
 30
0.0
 10
11.3229337622
 20
9.1107210043
 30
0.0
 10
11.3241826884
 20
9.1121548402
 30
0.0
 10
11.3251818017
 20
9.1133019293
 30
0.0
 10
11.3258063103
 20
9.1140188136
 30
0.0
 10
11.3263057734
 20
9.1145924272
 30
0.0
 10
11.3266807643
 20
9.1150223467
 30
0.0
 10
11.3269920049
 20
9.1153815378
 30
0.0
 10
11.3272123299
 20
9.1156311566
 30
0.0
 10
11.3273343942
 20
9.1157766297
 30
0.0
 10
11.3274367475
 20
9.1158777519
 30
0.0
 10
11.3274977984
 20
9.1160093879
 30
0.0
 10
11.3275936064
 20
9.116174259
 30
0.0
 10
11.3277545579
 20
9.1164677425
 30
0.0
 10
11.3279879979
 20
9.116884412
 30
0.0
 10
11.3282666239
 20
9.1173855251
 30
0.0
 10
11.3286386498
 20
9.1180532884
 30
0.0
 10
11.3291035025
 20
9.1188881251
 30
0.0
 10
11.3298473673
 20
9.1202237898
 30
0.0
 10
11.3307771639
 20
9.121893396
 30
0.0
 10
11.3318929345
 20
9.1238969126
 30
0.0
 10
11.3330087012
 20
9.1259004321
 30
0.0
 10
11.3344963915
 20
9.1285717904
 30
0.0
 10
11.3363560039
 20
9.1319109887
 30
0.0
 10
11.3382156166
 20
9.1352501867
 30
0.0
 10
11.3397033063
 20
9.1379215454
 30
0.0
 10
11.3408190747
 20
9.1399250638
 30
0.0
 10
11.3419348388
 20
9.1419285844
 30
0.0
 10
11.3428646558
 20
9.1435981782
 30
0.0
 10
11.3436084789
 20
9.1449338682
 30
0.0
 10
11.344073438
 20
9.1457686405
 30
0.0
 10
11.3444452456
 20
9.1464365359
 30
0.0
 10
11.3447245385
 20
9.1469372452
 30
0.0
 10
11.3449558918
 20
9.1473551783
 30
0.0
 10
11.3451205684
 20
9.1476464061
 30
0.0
 10
11.3452104079
 20
9.1478148914
 30
0.0
 10
11.3452897918
 20
9.1479354259
 30
0.0
 10
11.3453232894
 20
9.1480782433
 30
0.0
 10
11.3453839585
 20
9.148260894
 30
0.0
 10
11.3454826721
 20
9.1485841541
 30
0.0
 10
11.3456275903
 20
9.149044061
 30
0.0
 10
11.3457998233
 20
9.1495967596
 30
0.0
 10
11.3460300502
 20
9.150333408
 30
0.0
 10
11.3463176343
 20
9.1512543155
 30
0.0
 10
11.3467778803
 20
9.1527277133
 30
0.0
 10
11.3473531496
 20
9.154569479
 30
0.0
 10
11.3480434892
 20
9.15677959
 30
0.0
 10
11.3487338244
 20
9.1589897031
 30
0.0
 10
11.3496542728
 20
9.1619365199
 30
0.0
 10
11.3508048328
 20
9.1656200411
 30
0.0
 10
11.3519553932
 20
9.1693035621
 30
0.0
 10
11.352875841
 20
9.1722503791
 30
0.0
 10
11.353566178
 20
9.1744604914
 30
0.0
 10
11.3542565105
 20
9.1766706054
 30
0.0
 10
11.354831802
 20
9.1785123618
 30
0.0
 10
11.3552920027
 20
9.1799857787
 30
0.0
 10
11.3555797022
 20
9.1809066374
 30
0.0
 10
11.3558096922
 20
9.181643386
 30
0.0
 10
11.3559826489
 20
9.1821957784
 30
0.0
 10
11.356125303
 20
9.1826566435
 30
0.0
 10
11.3562280583
 20
9.1829781929
 30
0.0
 10
11.3562822516
 20
9.1831635846
 30
0.0
 10
11.3563356407
 20
9.1832979828
 30
0.0
 10
11.3563403154
 20
9.1834501385
 30
0.0
 10
11.3563635404
 20
9.1836468188
 30
0.0
 10
11.3563962672
 20
9.1839938953
 30
0.0
 10
11.3564471588
 20
9.18448821
 30
0.0
 10
11.3565064571
 20
9.1850820335
 30
0.0
 10
11.3565861403
 20
9.1858735725
 30
0.0
 10
11.3566855324
 20
9.1868630736
 30
0.0
 10
11.3568446782
 20
9.1884462321
 30
0.0
 10
11.3570435698
 20
9.1904251951
 30
0.0
 10
11.3572822572
 20
9.1927999443
 30
0.0
 10
11.3575209399
 20
9.1951746952
 30
0.0
 10
11.3578391852
 20
9.1983410292
 30
0.0
 10
11.3582369912
 20
9.2022989468
 30
0.0
 10
11.3587143586
 20
9.2070484479
 30
0.0
 10
11.3593508485
 20
9.2133811161
 30
0.0
 10
11.3598282159
 20
9.2181306172
 30
0.0
 10
11.3601464608
 20
9.2212969513
 30
0.0
  0
SPLINE
  5
399
100
AcDbEntity
  8
0
100
AcDbSpline
 62
4
  6
CONTINUOUS
 70
0
 71
3
 72
397
 73
393
 74
0
 42
0.0000001
 43
0.0000001
 44
0.0000000001
 40
0.0
 40
0.0
 40
0.0
 40
0.0
 40
0.015625
 40
0.0234375
 40
0.03125
 40
0.0390625
 40
0.04296875
 40
0.046875
 40
0.05078125
 40
0.0546875
 40
0.056640625
 40
0.05859375
 40
0.0595703125
 40
0.060546875
 40
0.0615234375
 40
0.0620117188
 40
0.0622558594
 40
0.0625
 40
0.0627441406
 40
0.0629882812
 40
0.0634765625
 40
0.064453125
 40
0.0654296875
 40
0.06640625
 40
0.068359375
 40
0.0703125
 40
0.07421875
 40
0.078125
 40
0.08203125
 40
0.0859375
 40
0.09375
 40
0.1015625
 40
0.10546875
 40
0.109375
 40
0.11328125
 40
0.1171875
 40
0.119140625
 40
0.12109375
 40
0.1220703125
 40
0.123046875
 40
0.1240234375
 40
0.1245117188
 40
0.125
 40
0.1254882812
 40
0.1259765625
 40
0.126953125
 40
0.1279296875
 40
0.12890625
 40
0.130859375
 40
0.1328125
 40
0.13671875
 40
0.140625
 40
0.14453125
 40
0.1484375
 40
0.15625
 40
0.1640625
 40
0.16796875
 40
0.171875
 40
0.17578125
 40
0.1796875
 40
0.181640625
 40
0.18359375
 40
0.1845703125
 40
0.185546875
 40
0.1865234375
 40
0.1870117188
 40
0.1872558594
 40
0.1875
 40
0.1877441406
 40
0.1879882812
 40
0.1884765625
 40
0.189453125
 40
0.1904296875
 40
0.19140625
 40
0.193359375
 40
0.1953125
 40
0.19921875
 40
0.203125
 40
0.20703125
 40
0.2109375
 40
0.21875
 40
0.2265625
 40
0.23046875
 40
0.234375
 40
0.23828125
 40
0.2421875
 40
0.244140625
 40
0.24609375
 40
0.2470703125
 40
0.248046875
 40
0.2490234375
 40
0.2495117188
 40
0.2497558594
 40
0.25
 40
0.2502441406
 40
0.2504882812
 40
0.2509765625
 40
0.251953125
 40
0.2529296875
 40
0.25390625
 40
0.255859375
 40
0.2578125
 40
0.26171875
 40
0.265625
 40
0.26953125
 40
0.2734375
 40
0.28125
 40
0.2890625
 40
0.29296875
 40
0.296875
 40
0.30078125
 40
0.3046875
 40
0.306640625
 40
0.30859375
 40
0.3095703125
 40
0.310546875
 40
0.3115234375
 40
0.3120117188
 40
0.3125
 40
0.3129882812
 40
0.3134765625
 40
0.314453125
 40
0.3154296875
 40
0.31640625
 40
0.318359375
 40
0.3203125
 40
0.32421875
 40
0.328125
 40
0.33203125
 40
0.3359375
 40
0.34375
 40
0.3515625
 40
0.35546875
 40
0.359375
 40
0.36328125
 40
0.3671875
 40
0.369140625
 40
0.37109375
 40
0.3720703125
 40
0.373046875
 40
0.3740234375
 40
0.3745117188
 40
0.375
 40
0.3754882812
 40
0.3759765625
 40
0.376953125
 40
0.3779296875
 40
0.37890625
 40
0.380859375
 40
0.3828125
 40
0.38671875
 40
0.390625
 40
0.39453125
 40
0.3984375
 40
0.40625
 40
0.4140625
 40
0.41796875
 40
0.421875
 40
0.42578125
 40
0.4296875
 40
0.431640625
 40
0.43359375
 40
0.4345703125
 40
0.435546875
 40
0.4365234375
 40
0.4370117188
 40
0.4372558594
 40
0.4375
 40
0.4377441406
 40
0.4379882812
 40
0.4384765625
 40
0.439453125
 40
0.4404296875
 40
0.44140625
 40
0.443359375
 40
0.4453125
 40
0.44921875
 40
0.453125
 40
0.45703125
 40
0.4609375
 40
0.46875
 40
0.4765625
 40
0.48046875
 40
0.484375
 40
0.48828125
 40
0.4921875
 40
0.494140625
 40
0.49609375
 40
0.4970703125
 40
0.498046875
 40
0.4990234375
 40
0.4995117188
 40
0.4997558594
 40
0.5
 40
0.5002441406
 40
0.5004882812
 40
0.5009765625
 40
0.501953125
 40
0.5029296875
 40
0.50390625
 40
0.505859375
 40
0.5078125
 40
0.51171875
 40
0.515625
 40
0.51953125
 40
0.5234375
 40
0.53125
 40
0.5390625
 40
0.54296875
 40
0.546875
 40
0.55078125
 40
0.5546875
 40
0.556640625
 40
0.55859375
 40
0.5595703125
 40
0.560546875
 40
0.5615234375
 40
0.5620117188
 40
0.5622558594
 40
0.5625
 40
0.5627441406
 40
0.5629882812
 40
0.5634765625
 40
0.564453125
 40
0.5654296875
 40
0.56640625
 40
0.568359375
 40
0.5703125
 40
0.57421875
 40
0.578125
 40
0.58203125
 40
0.5859375
 40
0.59375
 40
0.6015625
 40
0.60546875
 40
0.609375
 40
0.61328125
 40
0.6171875
 40
0.619140625
 40
0.62109375
 40
0.6220703125
 40
0.623046875
 40
0.6240234375
 40
0.6245117188
 40
0.6247558594
 40
0.625
 40
0.6252441406
 40
0.6254882812
 40
0.6259765625
 40
0.626953125
 40
0.6279296875
 40
0.62890625
 40
0.630859375
 40
0.6328125
 40
0.63671875
 40
0.640625
 40
0.64453125
 40
0.6484375
 40
0.65625
 40
0.6640625
 40
0.66796875
 40
0.671875
 40
0.67578125
 40
0.6796875
 40
0.681640625
 40
0.68359375
 40
0.6845703125
 40
0.685546875
 40
0.6865234375
 40
0.6870117188
 40
0.6872558594
 40
0.6875
 40
0.6877441406
 40
0.6879882812
 40
0.6884765625
 40
0.689453125
 40
0.6904296875
 40
0.69140625
 40
0.693359375
 40
0.6953125
 40
0.69921875
 40
0.703125
 40
0.70703125
 40
0.7109375
 40
0.71875
 40
0.7265625
 40
0.73046875
 40
0.734375
 40
0.73828125
 40
0.7421875
 40
0.744140625
 40
0.74609375
 40
0.7470703125
 40
0.748046875
 40
0.7490234375
 40
0.7495117188
 40
0.7497558594
 40
0.75
 40
0.7502441406
 40
0.7504882812
 40
0.7509765625
 40
0.751953125
 40
0.7529296875
 40
0.75390625
 40
0.755859375
 40
0.7578125
 40
0.76171875
 40
0.765625
 40
0.76953125
 40
0.7734375
 40
0.78125
 40
0.7890625
 40
0.79296875
 40
0.796875
 40
0.80078125
 40
0.8046875
 40
0.806640625
 40
0.80859375
 40
0.8095703125
 40
0.810546875
 40
0.8115234375
 40
0.8120117188
 40
0.8122558594
 40
0.8125
 40
0.8127441406
 40
0.8129882812
 40
0.8134765625
 40
0.814453125
 40
0.8154296875
 40
0.81640625
 40
0.818359375
 40
0.8203125
 40
0.82421875
 40
0.828125
 40
0.83203125
 40
0.8359375
 40
0.84375
 40
0.8515625
 40
0.85546875
 40
0.859375
 40
0.86328125
 40
0.8671875
 40
0.869140625
 40
0.87109375
 40
0.8720703125
 40
0.873046875
 40
0.8740234375
 40
0.8745117188
 40
0.8747558594
 40
0.875
 40
0.8752441406
 40
0.8754882812
 40
0.8759765625
 40
0.876953125
 40
0.8779296875
 40
0.87890625
 40
0.880859375
 40
0.8828125
 40
0.88671875
 40
0.890625
 40
0.89453125
 40
0.8984375
 40
0.90625
 40
0.9140625
 40
0.91796875
 40
0.921875
 40
0.92578125
 40
0.9296875
 40
0.931640625
 40
0.93359375
 40
0.9345703125
 40
0.935546875
 40
0.9365234375
 40
0.9370117188
 40
0.9372558594
 40
0.9375
 40
0.9377441406
 40
0.9379882812
 40
0.9384765625
 40
0.939453125
 40
0.9404296875
 40
0.94140625
 40
0.943359375
 40
0.9453125
 40
0.94921875
 40
0.953125
 40
0.95703125
 40
0.9609375
 40
0.96875
 40
0.9765625
 40
0.984375
 40
1.0
 40
1.0
 40
1.0
 40
1.0
 10
11.3601464608
 20
9.2212969343
 30
0.0
 10
11.3598392492
 20
9.2244514264
 30
0.0
 10
11.3593784317
 20
9.2291831646
 30
0.0
 10
11.3587640083
 20
9.2354921489
 30
0.0
 10
11.3583031908
 20
9.240223887
 30
0.0
 10
11.3579191764
 20
9.2441670022
 30
0.0
 10
11.3576119644
 20
9.2473214943
 30
0.0
 10
11.3573815566
 20
9.2496873635
 30
0.0
 10
11.3571511442
 20
9.2520532321
 30
0.0
 10
11.3569591484
 20
9.2540247912
 30
0.0
 10
11.3568055192
 20
9.2556020342
 30
0.0
 10
11.356709575
 20
9.2565878207
 30
0.0
 10
11.35663265
 20
9.257376428
 30
0.0
 10
11.3565754208
 20
9.2579679432
 30
0.0
 10
11.3565262521
 20
9.2584606825
 30
0.0
 10
11.3564947338
 20
9.2588059731
 30
0.0
 10
11.3564721956
 20
9.2590026994
 30
0.0
 10
11.3564680469
 20
9.2591518852
 30
0.0
 10
11.3564151419
 20
9.2592947982
 30
0.0
 10
11.3563616086
 20
9.2594875369
 30
0.0
 10
11.3562600016
 20
9.2598238102
 30
0.0
 10
11.3561189914
 20
9.2603047336
 30
0.0
 10
11.3559480059
 20
9.2608816136
 30
0.0
 10
11.3557206446
 20
9.2616508665
 30
0.0
 10
11.355436231
 20
9.2626124054
 30
0.0
 10
11.3549812877
 20
9.2641508828
 30
0.0
 10
11.3544125678
 20
9.2660739744
 30
0.0
 10
11.3537301215
 20
9.2683816866
 30
0.0
 10
11.3530476704
 20
9.2706893981
 30
0.0
 10
11.3521377373
 20
9.273766347
 30
0.0
 10
11.3510003206
 20
9.2776125332
 30
0.0
 10
11.3498629035
 20
9.2814587192
 30
0.0
 10
11.3489529709
 20
9.2845356683
 30
0.0
 10
11.3482705183
 20
9.2868433791
 30
0.0
 10
11.347588078
 20
9.2891510942
 30
0.0
 10
11.3470193392
 20
9.2910741768
 30
0.0
 10
11.3465644346
 20
9.2926126725
 30
0.0
 10
11.3462799223
 20
9.2935741648
 30
0.0
 10
11.3460527636
 20
9.2943435134
 30
0.0
 10
11.3458811592
 20
9.2949201013
 30
0.0
 10
11.3457420853
 20
9.2954019383
 30
0.0
 10
11.3456220126
 20
9.2957843865
 30
0.0
 10
11.345556041
 20
9.2960794788
 30
0.0
 10
11.3453981442
 20
9.2963430573
 30
0.0
 10
11.3452197257
 20
9.2967055034
 30
0.0
 10
11.3449856857
 20
9.2971547842
 30
0.0
 10
11.3447095533
 20
9.2976955378
 30
0.0
 10
11.3443397296
 20
9.2984159779
 30
0.0
 10
11.343878014
 20
9.2993167214
 30
0.0
 10
11.3431389538
 20
9.3007578029
 30
0.0
 10
11.3422152368
 20
9.3025591919
 30
0.0
 10
11.3411067299
 20
9.3047208428
 30
0.0
 10
11.3399982355
 20
9.3068824979
 30
0.0
 10
11.3385202386
 20
9.3097647032
 30
0.0
 10
11.336672744
 20
9.3133674604
 30
0.0
 10
11.3348252489
 20
9.3169702175
 30
0.0
 10
11.3333472526
 20
9.319852423
 30
0.0
 10
11.3322387565
 20
9.3220140777
 30
0.0
 10
11.3311302561
 20
9.3241757303
 30
0.0
 10
11.330206519
 20
9.3259771138
 30
0.0
 10
11.3294674996
 20
9.3274182065
 30
0.0
 10
11.3290056803
 20
9.3283189216
 30
0.0
 10
11.3286360696
 20
9.32903942
 30
0.0
 10
11.3283592866
 20
9.3295799956
 30
0.0
 10
11.328127282
 20
9.3300298332
 30
0.0
 10
11.3279675322
 20
9.3303459795
 30
0.0
 10
11.3278721035
 20
9.3305246672
 30
0.0
 10
11.3278122033
 20
9.3306642251
 30
0.0
 10
11.3277076892
 20
9.3307825982
 30
0.0
 10
11.3275838989
 20
9.3309478184
 30
0.0
 10
11.3273600154
 20
9.331233511
 30
0.0
 10
11.3270439725
 20
9.3316434432
 30
0.0
 10
11.3266630984
 20
9.3321345915
 30
0.0
 10
11.326155833
 20
9.3327897249
 30
0.0
 10
11.3255215573
 20
9.3336085495
 30
0.0
 10
11.3245068245
 20
9.3349187203
 30
0.0
 10
11.3232383714
 20
9.3365564162
 30
0.0
 10
11.3217162436
 20
9.3385216589
 30
0.0
 10
11.3201941115
 20
9.3404868995
 30
0.0
 10
11.3181646035
 20
9.3431072211
 30
0.0
 10
11.315627718
 20
9.3463826228
 30
0.0
 10
11.3130908329
 20
9.3496580247
 30
0.0
 10
11.3110613244
 20
9.3522783459
 30
0.0
 10
11.3095391939
 20
9.3542435877
 30
0.0
 10
11.3080170602
 20
9.356208826
 30
0.0
 10
11.3067486252
 20
9.3578465355
 30
0.0
 10
11.3057338555
 20
9.3591566786
 30
0.0
 10
11.3050996739
 20
9.3599755738
 30
0.0
 10
11.3045922152
 20
9.3606305624
 30
0.0
 10
11.3042119319
 20
9.3611221531
 30
0.0
 10
11.3038940406
 20
9.3615307007
 30
0.0
 10
11.3036734567
 20
9.3618188651
 30
0.0
 10
11.3035443796
 20
9.3619801248
 30
0.0
 10
11.3034561049
 20
9.3621106635
 30
0.0
 10
11.3033352122
 20
9.3622045294
 30
0.0
 10
11.3031853995
 20
9.3623424759
 30
0.0
 10
11.3029179262
 20
9.3625779221
 30
0.0
 10
11.3025385929
 20
9.3629173899
 30
0.0
 10
11.3020822067
 20
9.3633234175
 30
0.0
 10
11.301474106
 20
9.3638652535
 30
0.0
 10
11.3007138384
 20
9.3645423889
 30
0.0
 10
11.2994974894
 20
9.3656258948
 30
0.0
 10
11.297977026
 20
9.3669802466
 30
0.0
 10
11.2961524816
 20
9.3686054818
 30
0.0
 10
11.2943279341
 20
9.3702307135
 30
0.0
 10
11.2918952051
 20
9.3723976903
 30
0.0
 10
11.2888542936
 20
9.3751064111
 30
0.0
 10
11.285813382
 20
9.3778151315
 30
0.0
 10
11.2833806533
 20
9.3799821089
 30
0.0
 10
11.2815561049
 20
9.3816073391
 30
0.0
 10
11.2797315639
 20
9.3832325799
 30
0.0
 10
11.2782110898
 20
9.3845869142
 30
0.0
 10
11.2769947626
 20
9.3856704558
 30
0.0
 10
11.2762344396
 20
9.3863475004
 30
0.0
 10
11.2756264526
 20
9.3868895228
 30
0.0
 10
11.2751697191
 20
9.3872949808
 30
0.0
 10
11.2747914724
 20
9.3876362306
 30
0.0
 10
11.2744835718
 20
9.3879016764
 30
0.0
 10
11.2742671371
 20
9.3881214018
 30
0.0
 10
11.2739953913
 20
9.3882623403
 30
0.0
 10
11.2736523844
 20
9.3884777795
 30
0.0
 10
11.2732169969
 20
9.3887376362
 30
0.0
 10
11.2726973693
 20
9.3890535058
 30
0.0
 10
11.2720035414
 20
9.3894732537
 30
0.0
 10
11.2711365959
 20
9.3899984218
 30
0.0
 10
11.2697492934
 20
9.3908384207
 30
0.0
 10
11.2680152304
 20
9.3918885121
 30
0.0
 10
11.2659343268
 20
9.3931485819
 30
0.0
 10
11.2638534308
 20
9.3944086624
 30
0.0
 10
11.2610789001
 20
9.396088766
 30
0.0
 10
11.2576107377
 20
9.3981888969
 30
0.0
 10
11.2541425747
 20
9.4002890269
 30
0.0
 10
11.2513680449
 20
9.401969132
 30
0.0
 10
11.2492871462
 20
9.4032292078
 30
0.0
 10
11.2472062527
 20
9.4044892955
 30
0.0
 10
11.2454721586
 20
9.4055393312
 30
0.0
 10
11.2440849194
 20
9.4063794436
 30
0.0
 10
11.243217813
 20
9.4069043229
 30
0.0
 10
11.2425243154
 20
9.4073246638
 30
0.0
 10
11.2420036787
 20
9.4076387215
 30
0.0
 10
11.2415714482
 20
9.4079042471
 30
0.0
 10
11.2412220004
 20
9.4081081207
 30
0.0
 10
11.2409699248
 20
9.4082843799
 30
0.0
 10
11.2406796397
 20
9.4083714965
 30
0.0
 10
11.24030594
 20
9.4085187906
 30
0.0
 10
11.2398342361
 20
9.4086922247
 30
0.0
 10
11.2392701514
 20
9.4089049185
 30
0.0
 10
11.2385173539
 20
9.4091869131
 30
0.0
 10
11.2375765915
 20
9.4095399531
 30
0.0
 10
11.2360712406
 20
9.4101045116
 30
0.0
 10
11.2341895969
 20
9.4108103145
 30
0.0
 10
11.2319316052
 20
9.4116572331
 30
0.0
 10
11.2296736186
 20
9.4125041637
 30
0.0
 10
11.2266629681
 20
9.4136334003
 30
0.0
 10
11.2228996555
 20
9.4150449475
 30
0.0
 10
11.2191363428
 20
9.4164564943
 30
0.0
 10
11.2161256925
 20
9.4175857314
 30
0.0
 10
11.2138677052
 20
9.4184326604
 30
0.0
 10
11.2116097164
 20
9.4192795849
 30
0.0
 10
11.2097280635
 20
9.4199853695
 30
0.0
 10
11.2082227315
 20
9.4205499654
 30
0.0
 10
11.2072819208
 20
9.4209029103
 30
0.0
 10
11.2065292223
 20
9.4211851001
 30
0.0
 10
11.2059648354
 20
9.4213971972
 30
0.0
 10
11.2054940772
 20
9.4215724985
 30
0.0
 10
11.2051654016
 20
9.4216980475
 30
0.0
 10
11.2049762517
 20
9.4217653584
 30
0.0
 10
11.2048381509
 20
9.4218283248
 30
0.0
 10
11.2046856711
 20
9.421843574
 30
0.0
 10
11.2044873802
 20
9.4218805505
 30
0.0
 10
11.2041380343
 20
9.4219375045
 30
0.0
 10
11.2036401904
 20
9.4220229217
 30
0.0
 10
11.2030422549
 20
9.422123687
 30
0.0
 10
11.2022451901
 20
9.4222586468
 30
0.0
 10
11.2012487966
 20
9.4224271391
 30
0.0
 10
11.199654602
 20
9.4226968427
 30
0.0
 10
11.1976618467
 20
9.4230339323
 30
0.0
 10
11.1952705456
 20
9.423438457
 30
0.0
 10
11.192879243
 20
9.4238429771
 30
0.0
 10
11.1896908401
 20
9.4243823389
 30
0.0
 10
11.1857053362
 20
9.4250565405
 30
0.0
 10
11.1817198325
 20
9.4257307425
 30
0.0
 10
11.1785314295
 20
9.4262701036
 30
0.0
 10
11.1761401271
 20
9.4266746257
 30
0.0
 10
11.1737488252
 20
9.4270791429
 30
0.0
 10
11.1717560722
 20
9.4274162557
 30
0.0
 10
11.1701618729
 20
9.4276859121
 30
0.0
 10
11.1691654915
 20
9.4278545246
 30
0.0
 10
11.1683684019
 20
9.4279892375
 30
0.0
 10
11.1677705422
 20
9.4280907572
 30
0.0
 10
11.1672724611
 20
9.4281738141
 30
0.0
 10
11.1669235387
 20
9.4282349816
 30
0.0
 10
11.1667245692
 20
9.428265207
 30
0.0
 10
11.1665741737
 20
9.4283011934
 30
0.0
 10
11.1664282447
 20
9.4282862744
 30
0.0
 10
11.1662321148
 20
9.4282841388
 30
0.0
 10
11.1658896133
 20
9.4282721284
 30
0.0
 10
11.1653999459
 20
9.428259296
 30
0.0
 10
11.1648125075
 20
9.4282420458
 30
0.0
 10
11.1640291996
 20
9.4282196922
 30
0.0
 10
11.1630500842
 20
9.4281915287
 30
0.0
 10
11.1614834886
 20
9.4281465909
 30
0.0
 10
11.1595252478
 20
9.4280903762
 30
0.0
 10
11.1571753573
 20
9.4280229367
 30
0.0
 10
11.1548254672
 20
9.4279554924
 30
0.0
 10
11.1516922802
 20
9.4278655683
 30
0.0
 10
11.1477757966
 20
9.4277531626
 30
0.0
 10
11.1438593129
 20
9.4276407573
 30
0.0
 10
11.1407261261
 20
9.4275508325
 30
0.0
 10
11.1383762357
 20
9.4274833902
 30
0.0
 10
11.1360263462
 20
9.4274159432
 30
0.0
 10
11.1340681021
 20
9.427359752
 30
0.0
 10
11.1325015133
 20
9.4273147661
 30
0.0
 10
11.1315223806
 20
9.427286725
 30
0.0
 10
11.130739108
 20
9.4272641202
 30
0.0
 10
11.1301515617
 20
9.4272476374
 30
0.0
 10
11.1296622322
 20
9.4272324039
 30
0.0
 10
11.1293191275
 20
9.42722468
 30
0.0
 10
11.1291239641
 20
9.4272156764
 30
0.0
 10
11.1289750661
 20
9.4272218538
 30
0.0
 10
11.128835822
 20
9.4271786054
 30
0.0
 10
11.1286467959
 20
9.4271381811
 30
0.0
 10
11.1283175691
 20
9.4270594061
 30
0.0
 10
11.1278464248
 20
9.4269510698
 30
0.0
 10
11.1272814027
 20
9.4268192688
 30
0.0
 10
11.1265279173
 20
9.4266441619
 30
0.0
 10
11.1255861026
 20
9.4264250633
 30
0.0
 10
11.1240791756
 20
9.4260746257
 30
0.0
 10
11.1221955248
 20
9.4256365375
 30
0.0
 10
11.1199351405
 20
9.4251108493
 30
0.0
 10
11.1176747571
 20
9.4245851564
 30
0.0
 10
11.1146609122
 20
9.4238842342
 30
0.0
 10
11.1108936063
 20
9.4230080808
 30
0.0
 10
11.1071263002
 20
9.4221319279
 30
0.0
 10
11.1041124555
 20
9.421431005
 30
0.0
 10
11.1018520716
 20
9.420905314
 30
0.0
 10
11.0995916894
 20
9.4203796185
 30
0.0
 10
11.0977080319
 20
9.4199415531
 30
0.0
 10
11.0962011186
 20
9.4195910691
 30
0.0
 10
11.095259269
 20
9.4193720885
 30
0.0
 10
11.0945058552
 20
9.4191967395
 30
0.0
 10
11.0939406144
 20
9.4190656781
 30
0.0
 10
11.0934701545
 20
9.4189550277
 30
0.0
 10
11.093139706
 20
9.4188803837
 30
0.0
 10
11.0929526373
 20
9.4188333405
 30
0.0
 10
11.0928073807
 20
9.4188104233
 30
0.0
 10
11.0926810645
 20
9.4187402399
 30
0.0
 10
11.0925060364
 20
9.4186631491
 30
0.0
 10
11.0922028152
 20
9.4185205585
 30
0.0
 10
11.0917680328
 20
9.4183208736
 30
0.0
 10
11.0912469827
 20
9.4180795328
 30
0.0
 10
11.0905520088
 20
9.4177583454
 30
0.0
 10
11.0896833736
 20
9.4173566557
 30
0.0
 10
11.0882935114
 20
9.4167140669
 30
0.0
 10
11.0865561995
 20
9.4159107916
 30
0.0
 10
11.0844714183
 20
9.4149468781
 30
0.0
 10
11.082386639
 20
9.4139829601
 30
0.0
 10
11.0796069326
 20
9.4126977377
 30
0.0
 10
11.0761322998
 20
9.411091209
 30
0.0
 10
11.0726576669
 20
9.4094846808
 30
0.0
 10
11.0698779608
 20
9.4081994577
 30
0.0
 10
11.0677931806
 20
9.4072355416
 30
0.0
 10
11.0657084027
 20
9.406271621
 30
0.0
 10
11.0639710806
 20
9.4054683676
 30
0.0
 10
11.0625812391
 20
9.4048257341
 30
0.0
 10
11.0617125513
 20
9.4044241584
 30
0.0
 10
11.0610176855
 20
9.4041027368
 30
0.0
 10
11.0604963049
 20
9.4038621117
 30
0.0
 10
11.0600625568
 20
9.4036601876
 30
0.0
 10
11.0597574892
 20
9.4035215944
 30
0.0
 10
11.0595854195
 20
9.4034380987
 30
0.0
 10
11.0594500157
 20
9.4033875888
 30
0.0
 10
11.0593388907
 20
9.4032907813
 30
0.0
 10
11.0591822553
 20
9.4031778537
 30
0.0
 10
11.0589120891
 20
9.4029727063
 30
0.0
 10
11.0585240746
 20
9.4026835722
 30
0.0
 10
11.05805934
 20
9.4023349276
 30
0.0
 10
11.0574393856
 20
9.4018706562
 30
0.0
 10
11.0566645482
 20
9.4012901157
 30
0.0
 10
11.0554247493
 20
9.4003613633
 30
0.0
 10
11.0538750209
 20
9.3992003841
 30
0.0
 10
11.0520153381
 20
9.3978072258
 30
0.0
 10
11.0501556577
 20
9.3964140629
 30
0.0
 10
11.047676083
 20
9.3945565141
 30
0.0
 10
11.0445766149
 20
9.3922345774
 30
0.0
 10
11.0414771466
 20
9.3899126411
 30
0.0
 10
11.0389975723
 20
9.3880550917
 30
0.0
 10
11.0371378906
 20
9.3866619305
 30
0.0
 10
11.0352782126
 20
9.385268766
 30
0.0
 10
11.0337284694
 20
9.3841078061
 30
0.0
 10
11.0324887008
 20
9.3831790145
 30
0.0
 10
11.0317137862
 20
9.3825985735
 30
0.0
 10
11.0310939901
 20
9.3821340978
 30
0.0
 10
11.030628772
 20
9.3817860775
 30
0.0
 10
11.0302422703
 20
9.3814949902
 30
0.0
 10
11.0299694034
 20
9.3812933296
 30
0.0
 10
11.0298170953
 20
9.3811748152
 30
0.0
 10
11.0296926784
 20
9.3810951688
 30
0.0
 10
11.0296071965
 20
9.3809802043
 30
0.0
 10
11.0294796396
 20
9.3808392377
 30
0.0
 10
11.0292627426
 20
9.3805868062
 30
0.0
 10
11.0289495817
 20
9.3802291907
 30
0.0
 10
11.0285752046
 20
9.3797987676
 30
0.0
 10
11.0280755406
 20
9.3792253188
 30
0.0
 10
11.0274511299
 20
9.3785083542
 30
0.0
 10
11.0264519781
 20
9.3773612966
 30
0.0
 10
11.0252030708
 20
9.3759274453
 30
0.0
 10
11.0237043682
 20
9.3742068362
 30
0.0
 10
11.0222056692
 20
9.3724862238
 30
0.0
 10
11.0202074027
 20
9.3701920751
 30
0.0
 10
11.0177095701
 20
9.3673243888
 30
0.0
 10
11.015211737
 20
9.3644567028
 30
0.0
 10
11.0132134711
 20
9.3621625537
 30
0.0
 10
11.0117147705
 20
9.3604419426
 30
0.0
 10
11.0102160739
 20
9.3587213286
 30
0.0
 10
11.0089671478
 20
9.3572874927
 30
0.0
 10
11.0079680345
 20
9.3561404036
 30
0.0
 10
11.0073435259
 20
9.3554235192
 30
0.0
 10
11.0068440627
 20
9.3548499056
 30
0.0
 10
11.0064690719
 20
9.3544199861
 30
0.0
 10
11.0061578313
 20
9.3540607951
 30
0.0
 10
11.0059375063
 20
9.3538111762
 30
0.0
 10
11.005815442
 20
9.3536657031
 30
0.0
 10
11.0057130886
 20
9.3535645809
 30
0.0
 10
11.0056520378
 20
9.3534329449
 30
0.0
 10
11.0055562298
 20
9.3532680738
 30
0.0
 10
11.0053952783
 20
9.3529745903
 30
0.0
 10
11.0051618383
 20
9.3525579208
 30
0.0
 10
11.0048832123
 20
9.3520568077
 30
0.0
 10
11.0045111864
 20
9.3513890444
 30
0.0
 10
11.0040463337
 20
9.3505542077
 30
0.0
 10
11.0033024689
 20
9.3492185431
 30
0.0
 10
11.0023726723
 20
9.3475489368
 30
0.0
 10
11.0012569017
 20
9.3455454202
 30
0.0
 10
11.000141135
 20
9.3435419007
 30
0.0
 10
10.9986534447
 20
9.3408705424
 30
0.0
 10
10.9967938323
 20
9.3375313442
 30
0.0
 10
10.9949342196
 20
9.3341921461
 30
0.0
 10
10.9934465299
 20
9.3315207874
 30
0.0
 10
10.9923307614
 20
9.329517269
 30
0.0
 10
10.9912149974
 20
9.3275137484
 30
0.0
 10
10.9902851803
 20
9.3258441546
 30
0.0
 10
10.9895413573
 20
9.3245084647
 30
0.0
 10
10.9890763982
 20
9.3236736923
 30
0.0
 10
10.9887045906
 20
9.3230057969
 30
0.0
 10
10.9884252977
 20
9.3225050876
 30
0.0
 10
10.9881939443
 20
9.3220871546
 30
0.0
 10
10.9880292678
 20
9.3217959267
 30
0.0
 10
10.9879394283
 20
9.3216274415
 30
0.0
 10
10.9878600444
 20
9.3215069069
 30
0.0
 10
10.9878265468
 20
9.3213640895
 30
0.0
 10
10.9877658777
 20
9.3211814388
 30
0.0
 10
10.9876671641
 20
9.3208581787
 30
0.0
 10
10.9875222459
 20
9.3203982718
 30
0.0
 10
10.9873500129
 20
9.3198455732
 30
0.0
 10
10.987119786
 20
9.3191089248
 30
0.0
 10
10.9868322019
 20
9.3181880173
 30
0.0
 10
10.9863719558
 20
9.3167146196
 30
0.0
 10
10.9857966865
 20
9.3148728538
 30
0.0
 10
10.985106347
 20
9.3126627428
 30
0.0
 10
10.9844160118
 20
9.3104526297
 30
0.0
 10
10.9834955634
 20
9.3075058129
 30
0.0
 10
10.9823450034
 20
9.3038222918
 30
0.0
 10
10.981194443
 20
9.3001387707
 30
0.0
 10
10.9802739952
 20
9.2971919537
 30
0.0
 10
10.9795836581
 20
9.2949818414
 30
0.0
 10
10.9788933257
 20
9.2927717274
 30
0.0
 10
10.9783180342
 20
9.290929971
 30
0.0
 10
10.9778578335
 20
9.2894565541
 30
0.0
 10
10.977570134
 20
9.2885356955
 30
0.0
 10
10.9773401439
 20
9.2877989468
 30
0.0
 10
10.9771671873
 20
9.2872465544
 30
0.0
 10
10.9770245331
 20
9.2867856893
 30
0.0
 10
10.9769217779
 20
9.2864641399
 30
0.0
 10
10.9768675845
 20
9.2862787483
 30
0.0
 10
10.9768141954
 20
9.2861443501
 30
0.0
 10
10.9768095208
 20
9.2859921943
 30
0.0
 10
10.9767862958
 20
9.285795514
 30
0.0
 10
10.976753569
 20
9.2854484375
 30
0.0
 10
10.9767026774
 20
9.2849541228
 30
0.0
 10
10.9766433791
 20
9.2843602994
 30
0.0
 10
10.9765636959
 20
9.2835687603
 30
0.0
 10
10.9764643038
 20
9.2825792592
 30
0.0
 10
10.976305158
 20
9.2809961007
 30
0.0
 10
10.9761062663
 20
9.2790171377
 30
0.0
 10
10.975867579
 20
9.2766423885
 30
0.0
 10
10.9756288962
 20
9.2742676376
 30
0.0
 10
10.975310651
 20
9.2711013037
 30
0.0
 10
10.974912845
 20
9.267143386
 30
0.0
 10
10.9744354775
 20
9.2623938849
 30
0.0
 10
10.9737989877
 20
9.2560612168
 30
0.0
 10
10.9733216203
 20
9.2513117156
 30
0.0
 10
10.9730033754
 20
9.2481453816
 30
0.0
  0
ENDSEC
  0
SECTION
  2
OBJECTS
  0
DICTIONARY
  5
C
100
AcDbDictionary
280
0
281
1
  3
ACAD_GROUP
350
D
  3
ACAD_MLINESTYLE
350
17
  3
ACAD_LAYOUT
350
1A
  3
ACAD_PLOTSETTINGS
350
19
  3
ACAD_PLOTSTYLENAME
350
E
  3
ACAD_IMAGE_DICT
350
       39B
  3
ACAD_IMAGE_VARS
350
       39C
  3
ACAD_TABLESTYLE
350
       39D
  0
IMAGEDEF_REACTOR
  5
39A
100
AcDbRasterImageDefReactor
 90
2
330
283
  0
DICTIONARY
  5
D
102
{ACAD_REACTORS
330
C
102
}
100
AcDbDictionary
280
0
281
1
  0
ACDBDICTIONARYWDFLT
  5
E
102
{ACAD_REACTORS
330
C
102
}
100
AcDbDictionary
281
1
  3
Normal
350
F
100
AcDbDictionaryWithDefault
340
F
  0
DICTIONARY
  5
39B
330
C
100
AcDbDictionary
281
1
  3
FSB_assy_2_img_1
350
       3A0
  0
RASTERVARIABLES
  5
39C
330
C
100
AcDbRasterVariables
 90
0
 70
0
 71
1
 72
5
  0
DICTIONARY
  5
17
102
{ACAD_REACTORS
330
C
102
}
100
AcDbDictionary
280
0
281
1
  3
Standard
350
18
  0
DICTIONARY
  5
39D
330
C
100
AcDbDictionary
281
1
  3
Standard
350
       3A1
  3
Standard1
350
       3A2
  0
DICTIONARY
  5
19
102
{ACAD_REACTORS
330
C
102
}
100
AcDbDictionary
281
1
  0
DICTIONARY
  5
1A
102
{ACAD_REACTORS
330
C
102
}
100
AcDbDictionary
281
1
  3
Model
350
39E
  3
Layout1
350
39F
  0
ACDBPLACEHOLDER
  5
F
102
{ACAD_REACTORS
330
E
102
}
  0
MLINESTYLE
  5
18
102
{ACAD_REACTORS
330
17
102
}
100
AcDbMlineStyle
  2
STANDARD
 70
0
  3

 62
256
 51
90.0
 52
90.0
 71
2
 49
0.5
 62
256
  6
BYLAYER
 49
-0.5
 62
256
  6
BYLAYER
  0
LAYOUT
  5
39E
102
{ACAD_REACTORS
330
1A
102
}
100
AcDbPlotSettings
  1

  2
none_device
  4
ANSI_C_(22.00_x_17.00_Inches)
  6

 40
0.0
 41
0.0
 42
0.0
 43
0.0
 44
558.8
 45
431.8
 46
0.0
 47
0.0
 48
0.0
 49
0.0
140
0.0
141
0.0
142
1.0
143
1.0
 70
1024
 72
0
 73
0
 74
0
  7

 75
0
147
1.0
148
0.0
149
0.0
100
AcDbLayout
  1
Model
 70
0
 71
0
 10
0.0
 20
0.0
 11
22.0
 21
17.0
 12
0.0
 22
0.0
 32
0.0
 14
0.0
 24
0.0
 34
0.0
 15
0.0
 25
0.0
 35
0.0
146
0.0
 13
0.0
 23
0.0
 33
0.0
 16
1.0
 26
0.0
 36
0.0
 17
0.0
 27
1.0
 37
0.0
 76
0
330
204
345
0
346
0
  0
LAYOUT
  5
39F
102
{ACAD_REACTORS
330
1A
102
}
100
AcDbPlotSettings
  1

  2
none_device
  4
ANSI_C_(22.00_x_17.00_Inches)
  6

 40
0.0
 41
0.0
 42
0.0
 43
0.0
 44
558.8
 45
431.8
 46
0.0
 47
0.0
 48
0.0
 49
0.0
140
0.0
141
0.0
142
1.0
143
1.0
 70
0
 72
0
 73
0
 74
0
  7

 75
0
147
1.0
148
0.0
149
0.0
100
AcDbLayout
  1
Layout1
 70
0
 71
1
 10
0.0
 20
0.0
 11
22.0
 21
17.0
 12
0.0
 22
0.0
 32
0.0
 14
0.0
 24
0.0
 34
0.0
 15
0.0
 25
0.0
 35
0.0
146
0.0
 13
0.0
 23
0.0
 33
0.0
 16
1.0
 26
0.0
 36
0.0
 17
0.0
 27
1.0
 37
0.0
 76
0
330
205
345
0
346
0
  0
IMAGEDEF
  5
3A0
102
{ACAD_REACTORS
330
39B
330
39A
102
}
100
AcDbRasterImageDef
 90
0
  1
FSB_assy_2_img_1.png
 10
369.0
 20
92.0
 11
0.0066666667
 21
0.0066666667
280
1
281
0
  0
TABLESTYLE
  5
3A1
102
{ACAD_REACTORS
330
39D
330
286
330
287
102
}
330
39D
100
AcDbTableStyle
  3
Standard
 70
0
 71
0
 40
0.06
 41
0.06
280
1
281
1
  7
Standard
140
0.18
170
1
 62
0
 63
7
283
0
  7
Standard
140
0.18
170
1
 62
0
 63
7
283
0
  7
Standard
140
0.18
170
1
 62
0
 63
7
283
0
  0
TABLESTYLE
  5
3A2
102
{ACAD_REACTORS
330
39D
330
285
102
}
330
39D
100
AcDbTableStyle
  3
Standard1
 70
1
 71
0
 40
0.06
 41
0.06
280
1
281
1
  7
Standard
140
0.18
170
1
 62
0
 63
7
283
0
  7
Standard
140
0.18
170
1
 62
0
 63
7
283
0
  7
Standard
140
0.18
170
1
 62
0
 63
7
283
0
  0
ENDSEC
  0
EOF
