999
DXF file: FNI_assy_2.dxf
999
Pro/ENGINEER 2014200 by Parametric Technology Corporation
  0
SECTION
  2
HEADER
  9
$ACADVER
  1
AC1021
  9
$DWGCODEPAGE
  3
ANSI_1252
  9
$EXTMAX
 10
22.0
 20
17.0
 30
0.0
  9
$EXTMIN
 10
0.0
 20
0.0
 30
0.0
  9
$LIMMIN
 10
0.0
 20
0.0
  9
$LIMMAX
 10
22.0
 20
17.0
  9
$VIEWCTR
 10
11.0
 20
8.5
  9
$VIEWSIZE
 40
17.0
  9
$CLAYER
  8
0
  9
$LTSCALE
 40
1.21
  9
$CELTYPE
  6
BYLAYER
  9
$DIMSCALE
 40
1.0
  9
$DIMASZ
 40
0.1875
  9
$DIMEXO
 40
0.0625
  9
$DIMDLI
 40
0.836
  9
$DIMEXE
 40
0.125
  9
$DIMCEN
 40
0.198
  9
$DIMLFAC
 40
1.0
  9
$DIMBLK
  1
_FILLED
  9
$DIMTXT
 40
0.1
  9
$DIMTOL
 70
0
  9
$DIMLIM
 70
0
  9
$DIMTFAC
 40
1.0
  9
$DIMGAP
 40
0.09
  9
$DIMDSEP
 70
46
  9
$AUNITS
 70
0
  9
$PDMODE
 70
3
  9
$PDSIZE
 40
0.3125
  9
$HANDSEED
  5
363
  9
$TILEMODE
 70
1
  9
$MEASUREMENT
 70
0
  9
$INSUNITS
 70
1
  0
ENDSEC
  0
SECTION
  2
CLASSES
  0
CLASS
  1
ACDBDICTIONARYWDFLT
  2
AcDbDictionaryWithDefault
  3
AutoCAD 2000
 90
0
 91
1
280
0
281
0
  0
CLASS
  1
ACDBPLACEHOLDER
  2
AcDbPlaceHolder
  3
AutoCAD 2000
 90
0
 91
1
280
0
281
0
  0
CLASS
  1
LAYOUT
  2
AcDbLayout
  3
AutoCAD 2000
 90
0
 91
0
280
0
281
0
  0
CLASS
  1
RASTERVARIABLES
  2
AcDbRasterVariables
  3
ISM
 90
0
 91
1
280
0
281
0
  0
CLASS
  1
IMAGEDEF
  2
AcDbRasterImageDef
  3
ISM
 90
0
 91
1
280
0
281
0
  0
CLASS
  1
IMAGEDEF_REACTOR
  2
AcDbRasterImageDefReactor
  3
ISM
 90
0
 91
1
280
0
281
0
  0
CLASS
  1
IMAGE
  2
AcDbRasterImage
  3
ISM
 90
127
 91
1
280
0
281
1
  0
CLASS
  1
TABLESTYLE
  2
AcDbTableStyle
  3
ObjectDBX Classes
 90
2047
 91
1
280
0
281
0
  0
CLASS
  1
ACAD_TABLE
  2
AcDbTable
  3
ObjectDBX Classes
 90
1025
 91
3
280
0
281
1
  0
ENDSEC
  0
SECTION
  2
TABLES
  0
TABLE
  2
VPORT
  5
8
100
AcDbSymbolTable
 70
2
  0
VPORT
  5
1F4
100
AcDbSymbolTableRecord
100
AcDbViewportTableRecord
  2
*ACTIVE
 70
0
 10
0.0
 20
0.0
 11
1.0
 21
1.0
 12
11.0
 22
8.5
 13
0.0
 23
0.0
 14
1.0
 24
1.0
 15
0.0
 25
0.0
 16
0.0
 26
0.0
 36
1.0
 17
0.0
 27
0.0
 37
0.0
 40
17.0
 41
1.2941176471
 42
50.0
 43
0.0
 44
0.0
 50
0.0
 51
0.0
 71
0
 72
100
 73
1
 74
1
 75
0
 76
0
 77
0
 78
0
  0
ENDTAB
  0
TABLE
  2
LTYPE
  5
5
100
AcDbSymbolTable
 70
6
  0
LTYPE
  5
14
100
AcDbSymbolTableRecord
100
AcDbLinetypeTableRecord
  2
BYBLOCK
 70
0
  3

 72
65
 73
0
 40
0.0
  0
LTYPE
  5
15
100
AcDbSymbolTableRecord
100
AcDbLinetypeTableRecord
  2
BYLAYER
 70
0
  3

 72
65
 73
0
 40
0.0
  0
LTYPE
  5
16
100
AcDbSymbolTableRecord
100
AcDbLinetypeTableRecord
  2
CONTINUOUS
 70
64
  3
Solid line
 72
65
 73
0
 40
0.0
  0
LTYPE
  5
1F5
100
AcDbSymbolTableRecord
100
AcDbLinetypeTableRecord
  2
CENTER
 70
64
  3
____ _ ____ _ ____ _ ____ _ ____ _ ____ _ ____
 72
65
 73
4
 40
0.6
 49
0.375
 74
0
 49
-0.075
 74
0
 49
0.075
 74
0
 49
-0.075
 74
0
  0
LTYPE
  5
1F6
100
AcDbSymbolTableRecord
100
AcDbLinetypeTableRecord
  2
HIDDEN
 70
64
  3
- - - - - - - - - - - - - - - - - - - -
 72
65
 73
2
 40
0.2
 49
0.1
 74
0
 49
-0.1
 74
0
  0
LTYPE
  5
1F7
100
AcDbSymbolTableRecord
100
AcDbLinetypeTableRecord
  2
PHANTOM
 70
64
  3
_____ _ _ _____ _ _ _____ _ _ _____
 72
65
 73
6
 40
0.8
 49
0.45
 74
0
 49
-0.05
 74
0
 49
0.1
 74
0
 49
-0.05
 74
0
 49
0.1
 74
0
 49
-0.05
 74
0
  0
LTYPE
  5
1F8
100
AcDbSymbolTableRecord
100
AcDbLinetypeTableRecord
  2
DOT
 70
64
  3
. . . . . . . . . . . . . . . . . . . .
 72
65
 73
2
 40
0.2
 49
0.1
 74
0
 49
-0.1
 74
0
  0
LTYPE
  5
1F9
100
AcDbSymbolTableRecord
100
AcDbLinetypeTableRecord
  2
DASHED
 70
64
  3
- - - - - - - - - - - - - - - - - - - -
 72
65
 73
2
 40
0.2
 49
0.1
 74
0
 49
-0.1
 74
0
  0
ENDTAB
  0
TABLE
  2
LAYER
  5
2
100
AcDbSymbolTable
 70
36
  0
LAYER
  5
10
100
AcDbSymbolTableRecord
100
AcDbLayerTableRecord
  2
0
 70
0
 62
7
  6
CONTINUOUS
370
-3
390
F
  0
LAYER
  5
1FA
100
AcDbSymbolTableRecord
100
AcDbLayerTableRecord
  2
DEFAULT_1
 70
0
 62
7
  6
CENTER
370
-3
390
F
  0
LAYER
  5
1FB
100
AcDbSymbolTableRecord
100
AcDbLayerTableRecord
  2
DEFAULT_2
 70
0
 62
8
  6
HIDDEN
370
-3
390
F
  0
LAYER
  5
1FC
100
AcDbSymbolTableRecord
100
AcDbLayerTableRecord
  2
DEFAULT_3
 70
0
 62
7
  6
PHANTOM
370
-3
390
F
  0
LAYER
  5
1FD
100
AcDbSymbolTableRecord
100
AcDbLayerTableRecord
  2
DATUM_PLANES
 70
0
 62
7
  6
CONTINUOUS
370
-3
390
F
  0
LAYER
  5
1FE
100
AcDbSymbolTableRecord
100
AcDbLayerTableRecord
  2
PORT_AREAS
 70
0
 62
7
  6
CONTINUOUS
370
-3
390
F
  0
LAYER
  5
1FF
100
AcDbSymbolTableRecord
100
AcDbLayerTableRecord
  2
SUNNBOMCOSMETIC
 70
0
 62
7
  6
CONTINUOUS
370
-3
390
F
  0
LAYER
  5
200
100
AcDbSymbolTableRecord
100
AcDbLayerTableRecord
  2
SUNNBOMSTAMPING
 70
0
 62
7
  6
CONTINUOUS
370
-3
390
F
  0
LAYER
  5
201
100
AcDbSymbolTableRecord
100
AcDbLayerTableRecord
  2
THREADS
 70
0
 62
7
  6
CONTINUOUS
370
-3
390
F
  0
ENDTAB
  0
TABLE
  2
STYLE
  5
3
100
AcDbSymbolTable
 70
1
  0
STYLE
  5
11
100
AcDbSymbolTableRecord
100
AcDbTextStyleTableRecord
  2
STANDARD
 70
0
 40
0.0
 41
0.8
 50
0.0
 71
0
 42
0.2
  3
txt
  4

  0
STYLE
  5
202
100
AcDbSymbolTableRecord
100
AcDbTextStyleTableRecord
  2
TEXTSTYLE_1
 70
0
 40
0.0
 41
0.8
 50
0.0
 71
0
 42
0.2
  3
gdt
  4

  0
ENDTAB
  0
TABLE
  2
VIEW
  5
6
100
AcDbSymbolTable
 70
0
  0
ENDTAB
  0
TABLE
  2
UCS
  5
7
100
AcDbSymbolTable
 70
0
  0
ENDTAB
  0
TABLE
  2
APPID
  5
9
100
AcDbSymbolTable
 70
1
  0
APPID
  5
203
100
AcDbSymbolTableRecord
100
AcDbRegAppTableRecord
  2
ACAD
 70
0
  0
ENDTAB
  0
TABLE
  2
BLOCK_RECORD
  5
1
100
AcDbSymbolTable
 70
0
  0
BLOCK_RECORD
  5
204
100
AcDbSymbolTableRecord
100
AcDbBlockTableRecord
  2
*Model_Space
  0
BLOCK_RECORD
  5
205
100
AcDbSymbolTableRecord
100
AcDbBlockTableRecord
  2
*Paper_Space
  0
BLOCK_RECORD
  5
206
100
AcDbSymbolTableRecord
100
AcDbBlockTableRecord
  2
SUN_FIRST_THIRD_ANGLE_BL0
  0
BLOCK_RECORD
  5
207
100
AcDbSymbolTableRecord
100
AcDbBlockTableRecord
  2
*T1
  0
BLOCK_RECORD
  5
208
100
AcDbSymbolTableRecord
100
AcDbBlockTableRecord
  2
*T2
  0
BLOCK_RECORD
  5
209
100
AcDbSymbolTableRecord
100
AcDbBlockTableRecord
  2
*T3
  0
ENDTAB
  0
TABLE
  2
DIMSTYLE
  5
A
100
AcDbSymbolTable
 70
1
100
AcDbDimStyleTable
 71
0
  0
DIMSTYLE
105
20A
100
AcDbSymbolTableRecord
100
AcDbDimStyleTableRecord
  2
STANDARD
 70
0
  3

  4

 40
1.0
 41
0.1875
 42
0.0625
 43
0.38
 44
0.125
 45
0.0
 46
0.0
 47
0.001
 48
0.001
140
0.1
141
0.09
142
0.0
143
25.4
144
1.0
145
0.0
146
1.0
147
0.09
 71
0.0
 72
0.0
 73
1
 74
1
 75
0
 76
0
 77
0
 78
4
170
0
171
2
172
0
173
0
174
0
175
0
176
0
177
0
178
0
270
2
271
3
272
3
273
2
274
2
275
0
280
0
281
0
282
0
283
1
284
4
285
0
286
0
287
3
288
0
340
11
278
46
  0
ENDTAB
  0
ENDSEC
  0
SECTION
  2
BLOCKS
  0
BLOCK
  5
20
100
AcDbEntity
  8
0
100
AcDbBlockBegin
  2
*Model_Space
 70
0
 10
0.0
 20
0.0
 30
0.0
  3
*Model_Space
  1

  0
ENDBLK
  5
21
100
AcDbEntity
  8
0
100
AcDbBlockEnd
  0
BLOCK
  5
1C
100
AcDbEntity
  8
0
100
AcDbBlockBegin
  2
*Paper_Space
 70
0
 10
0.0
 20
0.0
 30
0.0
  3
*Paper_Space
  1

  0
ENDBLK
  5
1D
100
AcDbEntity
  8
0
100
AcDbBlockEnd
  0
BLOCK
  5
20B
100
AcDbEntity
  8
0
100
AcDbBlockBegin
 62
2
  6
CONTINUOUS
  2
SUN_FIRST_THIRD_ANGLE_BL0
 70
64
 10
20.4816717061
 20
1.2289683772
  3
SUN_FIRST_THIRD_ANGLE_BL0
  1

  0
TEXT
  5
20C
100
AcDbEntity
  8
0
100
AcDbText
 62
2
  6
CONTINUOUS
 10
19.4750896608
 20
1.4136269581
  7
STANDARD
 40
0.08
  1
FIRST ANGLE
 41
0.8
 72
0
100
AcDbText
  0
TEXT
  5
20D
100
AcDbEntity
  8
0
100
AcDbText
 62
2
  6
CONTINUOUS
 10
20.7842537513
 20
1.4047600029
  7
STANDARD
 40
0.08
  1
THIRD ANGLE
 41
0.8
 72
0
100
AcDbText
  0
LINE
  5
20E
100
AcDbEntity
  8
0
100
AcDbLine
 62
7
  6
CONTINUOUS
 10
19.4767170086
 20
1.1727031207
 11
19.6334271527
 21
1.1717972817
  0
LINE
  5
20F
100
AcDbEntity
  8
0
100
AcDbLine
 62
7
  6
CONTINUOUS
 10
19.6596964832
 20
1.1717972817
 11
19.6950230232
 21
1.171593082
  0
LINE
  5
210
100
AcDbEntity
  8
0
100
AcDbLine
 62
7
  6
CONTINUOUS
 10
19.7194818561
 20
1.1708914427
 11
19.8852396156
 21
1.1699333054
  0
LINE
  5
211
100
AcDbEntity
  8
0
100
AcDbLine
 62
7
  6
CONTINUOUS
 10
19.4758111696
 20
1.2723454088
 11
19.88525039
 21
1.3511534004
  0
LINE
  5
212
100
AcDbEntity
  8
0
100
AcDbLine
 62
7
  6
CONTINUOUS
 10
19.88525039
 20
1.3511534004
 11
19.8831348489
 21
0.9851647912
  0
LINE
  5
213
100
AcDbEntity
  8
0
100
AcDbLine
 62
7
  6
CONTINUOUS
 10
19.8831348489
 20
0.9851647912
 11
19.4767170086
 21
1.0658141206
  0
LINE
  5
214
100
AcDbEntity
  8
0
100
AcDbLine
 62
7
  6
CONTINUOUS
 10
19.4767170086
 20
1.0658141206
 11
19.4779056764
 21
1.2714536432
  0
CIRCLE
  5
215
100
AcDbEntity
  8
0
100
AcDbCircle
 62
7
  6
CONTINUOUS
 10
20.2068232291
 20
1.1717972817
 40
0.175742101
  0
CIRCLE
  5
216
100
AcDbEntity
  8
0
100
AcDbCircle
 62
7
  6
CONTINUOUS
 10
20.2068232291
 20
1.1717972817
 40
0.1005522074
  0
LINE
  5
217
100
AcDbEntity
  8
0
100
AcDbLine
 62
7
  6
CONTINUOUS
 10
20.2077290681
 20
1.3756110529
 11
20.2071171714
 21
1.2379342989
  0
LINE
  5
218
100
AcDbEntity
  8
0
100
AcDbLine
 62
7
  6
CONTINUOUS
 10
20.2077290681
 20
1.2016899681
 11
20.2074674401
 21
1.1428236749
  0
LINE
  5
219
100
AcDbEntity
  8
0
100
AcDbLine
 62
7
  6
CONTINUOUS
 10
20.208634907
 20
1.101141841
 11
20.2080230104
 21
0.963465087
  0
LINE
  5
21A
100
AcDbEntity
  8
0
100
AcDbLine
 62
7
  6
CONTINUOUS
 10
20.0066328138
 20
1.1745147986
 11
20.1443095678
 21
1.1739029019
  0
LINE
  5
21B
100
AcDbEntity
  8
0
100
AcDbLine
 62
7
  6
CONTINUOUS
 10
20.1832714155
 20
1.1727031207
 11
20.238153505
 21
1.172335442
  0
LINE
  5
21C
100
AcDbEntity
  8
0
100
AcDbLine
 62
7
  6
CONTINUOUS
 10
20.2756669918
 20
1.1717972817
 11
20.407916871
 21
1.1712095044
  0
CIRCLE
  5
21D
100
AcDbEntity
  8
0
100
AcDbCircle
 62
7
  6
CONTINUOUS
 10
20.7509457401
 20
1.1693297793
 40
0.1722024983
  0
CIRCLE
  5
21E
100
AcDbEntity
  8
0
100
AcDbCircle
 62
7
  6
CONTINUOUS
 10
20.7509457401
 20
1.1693297793
 40
0.0985164967
  0
LINE
  5
21F
100
AcDbEntity
  8
0
100
AcDbLine
 62
7
  6
CONTINUOUS
 10
20.7169767782
 20
1.170462078
 11
20.7825395137
 21
1.1682766535
  0
LINE
  5
220
100
AcDbEntity
  8
0
100
AcDbLine
 62
7
  6
CONTINUOUS
 10
20.8177513651
 20
1.1693297793
 11
20.947965719
 21
1.1693297793
  0
LINE
  5
221
100
AcDbEntity
  8
0
100
AcDbLine
 62
7
  6
CONTINUOUS
 10
20.6875370113
 20
1.170462078
 11
20.5573226574
 21
1.170462078
  0
LINE
  5
222
100
AcDbEntity
  8
0
100
AcDbLine
 62
7
  6
CONTINUOUS
 10
20.7486811426
 20
1.1987695462
 11
20.7486811426
 21
1.1432869085
  0
LINE
  5
223
100
AcDbEntity
  8
0
100
AcDbLine
 62
7
  6
CONTINUOUS
 10
20.7498134414
 20
1.1059210505
 11
20.7498134414
 21
0.9757066966
  0
LINE
  5
224
100
AcDbEntity
  8
0
100
AcDbLine
 62
7
  6
CONTINUOUS
 10
20.7486811426
 20
1.2338708068
 11
20.7486811426
 21
1.3640851607
  0
LINE
  5
225
100
AcDbEntity
  8
0
100
AcDbLine
 62
7
  6
CONTINUOUS
 10
21.0702539817
 20
1.2701043662
 11
21.4790138229
 21
1.3448360823
  0
LINE
  5
226
100
AcDbEntity
  8
0
100
AcDbLine
 62
7
  6
CONTINUOUS
 10
21.4790138229
 20
1.3448360823
 11
21.4790138229
 21
0.9779712941
  0
LINE
  5
227
100
AcDbEntity
  8
0
100
AcDbLine
 62
7
  6
CONTINUOUS
 10
21.4790138229
 20
0.9779712941
 11
21.069121683
 21
1.0617614
  0
LINE
  5
228
100
AcDbEntity
  8
0
100
AcDbLine
 62
7
  6
CONTINUOUS
 10
21.0702539817
 20
1.2701043662
 11
21.069121683
 21
1.0617614
  0
LINE
  5
229
100
AcDbEntity
  8
0
100
AcDbLine
 62
7
  6
CONTINUOUS
 10
21.4790138229
 20
1.1693297793
 11
21.3159628059
 21
1.1693297793
  0
LINE
  5
22A
100
AcDbEntity
  8
0
100
AcDbLine
 62
7
  6
CONTINUOUS
 10
21.2876553377
 20
1.1693297793
 11
21.2502894796
 21
1.1693297793
  0
LINE
  5
22B
100
AcDbEntity
  8
0
100
AcDbLine
 62
7
  6
CONTINUOUS
 10
21.2208497126
 20
1.1659328831
 11
21.0713862804
 21
1.1659328831
  0
LINE
  5
22C
100
AcDbEntity
  8
0
100
AcDbLine
 62
7
  6
CONTINUOUS
 10
20.4796138713
 20
1.5284908897
 11
20.4766766948
 21
0.9294458646
  0
ENDBLK
  5
22D
100
AcDbEntity
  8
0
  6
BYBLOCK
 62
0
100
AcDbBlockEnd
  0
BLOCK
  5
22E
100
AcDbEntity
  8
0
100
AcDbBlockBegin
  2
*T1
 70
1
 10
0.0
 20
0.0
  3
*T1
  1

  0
LINE
  5
22F
100
AcDbEntity
  8
0
100
AcDbLine
 62
2
  6
CONTINUOUS
 10
9.275
 20
0.0
 11
-0.0
 21
0.0
  0
LINE
  5
230
100
AcDbEntity
  8
0
100
AcDbLine
 62
2
  6
CONTINUOUS
 10
9.275
 20
0.0
 11
9.275
 21
1.25
  0
LINE
  5
231
100
AcDbEntity
  8
0
100
AcDbLine
 62
2
  6
CONTINUOUS
 10
9.275
 20
0.625
 11
-0.0
 21
0.625
  0
LINE
  5
232
100
AcDbEntity
  8
0
100
AcDbLine
 62
2
  6
CONTINUOUS
 10
9.275
 20
1.25
 11
-0.0
 21
1.25
  0
LINE
  5
233
100
AcDbEntity
  8
0
100
AcDbLine
 62
2
  6
CONTINUOUS
 10
6.8
 20
0.0
 11
6.8
 21
1.25
  0
LINE
  5
234
100
AcDbEntity
  8
0
100
AcDbLine
 62
2
  6
CONTINUOUS
 10
6.4
 20
0.0
 11
6.4
 21
0.625
  0
LINE
  5
235
100
AcDbEntity
  8
0
100
AcDbLine
 62
2
  6
CONTINUOUS
 10
5.9
 20
0.0
 11
5.9
 21
0.625
  0
LINE
  5
236
100
AcDbEntity
  8
0
100
AcDbLine
 62
2
  6
CONTINUOUS
 10
5.2
 20
0.0
 11
5.2
 21
0.625
  0
LINE
  5
237
100
AcDbEntity
  8
0
100
AcDbLine
 62
2
  6
CONTINUOUS
 10
4.1
 20
0.0
 11
4.1
 21
1.25
  0
LINE
  5
238
100
AcDbEntity
  8
0
100
AcDbLine
 62
2
  6
CONTINUOUS
 10
-0.0
 20
0.0
 11
-0.0
 21
1.25
  0
MTEXT
  5
239
100
AcDbEntity
  8
0
100
AcDbMText
 62
2
  6
CONTINUOUS
  7
STANDARD
 71
2
 72
1
 10
6.6
 20
0.325
 30
0.0
 11
1.0
 21
0.0
 31
0.0
 44
0.9
  1
2
 40
0.125
 41
0.2
  0
MTEXT
  5
23A
100
AcDbEntity
  8
0
100
AcDbMText
 62
2
  6
CONTINUOUS
  7
STANDARD
 71
2
 72
1
 10
6.15
 20
0.325
 30
0.0
 11
1.0
 21
0.0
 31
0.0
 44
0.9
  1
C
 40
0.125
 41
0.2
  0
MTEXT
  5
23B
100
AcDbEntity
  8
0
100
AcDbMText
 62
2
  6
CONTINUOUS
  7
STANDARD
 71
2
 72
1
 10
5.55
 20
0.325
 30
0.0
 11
1.0
 21
0.0
 31
0.0
 44
0.9
  1
2.000
 40
0.125
 41
1.0
  0
MTEXT
  5
23C
100
AcDbEntity
  8
0
100
AcDbMText
 62
2
  6
CONTINUOUS
  7
STANDARD
 71
2
 72
1
 10
4.65
 20
0.325
 30
0.0
 11
1.0
 21
0.0
 31
0.0
 44
0.9
  1
Jun-25-24
 40
0.125
 41
1.8
  0
MTEXT
  5
23D
100
AcDbEntity
  8
0
100
AcDbMText
 62
2
  6
CONTINUOUS
  7
STANDARD
 71
2
 72
1
 10
2.05
 20
0.4625
 30
0.0
 11
1.0
 21
0.0
 31
0.0
 44
0.9
  1
T-10A Line mount\PNinety degree with reverse flow check
 40
0.125
 41
7.4
  0
MTEXT
  5
23E
100
AcDbEntity
  8
0
100
AcDbMText
 62
2
  6
CONTINUOUS
  7
STANDARD
 71
1
 72
1
 10
6.45
 20
0.5625
 30
0.0
 11
1.0
 21
0.0
 31
0.0
 44
0.9
  1
SHEET
 40
0.06
 41
0.48
  0
MTEXT
  5
23F
100
AcDbEntity
  8
0
100
AcDbMText
 62
2
  6
CONTINUOUS
  7
STANDARD
 71
1
 72
1
 10
5.95
 20
0.5625
 30
0.0
 11
1.0
 21
0.0
 31
0.0
 44
0.9
  1
DWG SIZE
 40
0.06
 41
0.768
  0
MTEXT
  5
240
100
AcDbEntity
  8
0
100
AcDbMText
 62
2
  6
CONTINUOUS
  7
STANDARD
 71
1
 72
1
 10
5.25
 20
0.5625
 30
0.0
 11
1.0
 21
0.0
 31
0.0
 44
0.9
  1
SCALE
 40
0.06
 41
0.48
  0
MTEXT
  5
241
100
AcDbEntity
  8
0
100
AcDbMText
 62
2
  6
CONTINUOUS
  7
STANDARD
 71
1
 72
1
 10
4.15
 20
0.5625
 30
0.0
 11
1.0
 21
0.0
 31
0.0
 44
0.9
  1
DATE
 40
0.06
 41
0.384
  0
MTEXT
  5
242
100
AcDbEntity
  8
0
100
AcDbMText
 62
2
  6
CONTINUOUS
  7
STANDARD
 71
1
 72
1
 10
0.05
 20
0.5625
 30
0.0
 11
1.0
 21
0.0
 31
0.0
 44
0.9
  1
DESCRIPTION
 40
0.06
 41
1.056
  0
MTEXT
  5
243
100
AcDbEntity
  8
0
100
AcDbMText
 62
2
  6
CONTINUOUS
  7
STANDARD
 71
2
 72
1
 10
5.45
 20
1.0375
 30
0.0
 11
1.0
 21
0.0
 31
0.0
 44
0.9
  1
ALL DIMENSIONS IN INCH\PVIEWS ARE THIRD ANGLE
 40
0.12
 41
4.224
  0
MTEXT
  5
244
100
AcDbEntity
  8
0
100
AcDbMText
 62
2
  6
CONTINUOUS
  7
STANDARD
 71
2
 72
1
 10
2.05
 20
0.95
 30
0.0
 11
1.0
 21
0.0
 31
0.0
 44
0.9
  1
FNI
 40
0.125
 41
0.6
  0
MTEXT
  5
245
100
AcDbEntity
  8
0
100
AcDbMText
 62
2
  6
CONTINUOUS
  7
STANDARD
 71
1
 72
1
 10
0.05
 20
1.1875
 30
0.0
 11
1.0
 21
0.0
 31
0.0
 44
0.9
  1
MODEL
 40
0.06
 41
0.48
  0
ENDBLK
  5
246
100
AcDbEntity
  8
0
  6
BYBLOCK
 62
0
100
AcDbBlockEnd
  0
BLOCK
  5
247
100
AcDbEntity
  8
0
100
AcDbBlockBegin
  2
*T2
 70
1
 10
0.0
 20
0.0
  3
*T2
  1

  0
LINE
  5
248
100
AcDbEntity
  8
0
100
AcDbLine
 62
2
  6
CONTINUOUS
 10
0.0
 20
0.0
 11
9.055
 21
0.0
  0
LINE
  5
249
100
AcDbEntity
  8
0
100
AcDbLine
 62
2
  6
CONTINUOUS
 10
0.0
 20
0.0
 11
0.0
 21
-2.844
  0
LINE
  5
24A
100
AcDbEntity
  8
0
100
AcDbLine
 62
2
  6
CONTINUOUS
 10
0.0
 20
-0.344
 11
9.055
 21
-0.344
  0
LINE
  5
24B
100
AcDbEntity
  8
0
100
AcDbLine
 62
2
  6
CONTINUOUS
 10
0.0
 20
-0.594
 11
9.055
 21
-0.594
  0
LINE
  5
24C
100
AcDbEntity
  8
0
100
AcDbLine
 62
2
  6
CONTINUOUS
 10
0.0
 20
-0.844
 11
9.055
 21
-0.844
  0
LINE
  5
24D
100
AcDbEntity
  8
0
100
AcDbLine
 62
2
  6
CONTINUOUS
 10
0.0
 20
-1.094
 11
9.055
 21
-1.094
  0
LINE
  5
24E
100
AcDbEntity
  8
0
100
AcDbLine
 62
2
  6
CONTINUOUS
 10
0.0
 20
-1.344
 11
9.055
 21
-1.344
  0
LINE
  5
24F
100
AcDbEntity
  8
0
100
AcDbLine
 62
2
  6
CONTINUOUS
 10
0.0
 20
-1.594
 11
9.055
 21
-1.594
  0
LINE
  5
250
100
AcDbEntity
  8
0
100
AcDbLine
 62
2
  6
CONTINUOUS
 10
0.0
 20
-1.844
 11
9.055
 21
-1.844
  0
LINE
  5
251
100
AcDbEntity
  8
0
100
AcDbLine
 62
2
  6
CONTINUOUS
 10
0.0
 20
-2.094
 11
9.055
 21
-2.094
  0
LINE
  5
252
100
AcDbEntity
  8
0
100
AcDbLine
 62
2
  6
CONTINUOUS
 10
0.0
 20
-2.344
 11
9.055
 21
-2.344
  0
LINE
  5
253
100
AcDbEntity
  8
0
100
AcDbLine
 62
2
  6
CONTINUOUS
 10
0.0
 20
-2.594
 11
9.055
 21
-2.594
  0
LINE
  5
254
100
AcDbEntity
  8
0
100
AcDbLine
 62
2
  6
CONTINUOUS
 10
0.0
 20
-2.844
 11
9.055
 21
-2.844
  0
LINE
  5
255
100
AcDbEntity
  8
0
100
AcDbLine
 62
2
  6
CONTINUOUS
 10
3.055
 20
0.0
 11
3.055
 21
-2.844
  0
LINE
  5
256
100
AcDbEntity
  8
0
100
AcDbLine
 62
2
  6
CONTINUOUS
 10
9.055
 20
0.0
 11
9.055
 21
-2.844
  0
MTEXT
  5
257
100
AcDbEntity
  8
0
100
AcDbMText
 62
2
  6
CONTINUOUS
  7
STANDARD
 71
2
 72
1
 10
1.5275
 20
-0.0995
 30
0.0
 11
1.0
 21
0.0
 31
0.0
 44
0.9
  1
Technical Data
 40
0.145
 41
3.248
  0
MTEXT
  5
258
100
AcDbEntity
  8
0
100
AcDbMText
 62
2
  6
CONTINUOUS
  7
STANDARD
 71
2
 72
1
 10
4.555
 20
-0.0995
 30
0.0
 11
1.0
 21
0.0
 31
0.0
 44
0.9
  1
U.S. Units
 40
0.145
 41
2.32
  0
MTEXT
  5
259
100
AcDbEntity
  8
0
100
AcDbMText
 62
2
  6
CONTINUOUS
  7
STANDARD
 71
2
 72
1
 10
7.555
 20
-0.0995
 30
0.0
 11
1.0
 21
0.0
 31
0.0
 44
0.9
  1
Metric Units
 40
0.145
 41
2.784
  0
MTEXT
  5
25A
100
AcDbEntity
  8
0
100
AcDbMText
 62
2
  6
CONTINUOUS
  7
STANDARD
 71
2
 72
1
 10
1.5275
 20
-0.4065
 30
0.0
 11
1.0
 21
0.0
 31
0.0
 44
0.9
  1
Cavity
 40
0.125
 41
1.2
  0
MTEXT
  5
25B
100
AcDbEntity
  8
0
100
AcDbMText
 62
2
  6
CONTINUOUS
  7
STANDARD
 71
2
 72
1
 10
6.055
 20
-0.4065
 30
0.0
 11
1.0
 21
0.0
 31
0.0
 44
0.9
  1
T-10A
 40
0.125
 41
1.0
  0
MTEXT
  5
25C
100
AcDbEntity
  8
0
100
AcDbMText
 62
2
  6
CONTINUOUS
  7
STANDARD
 71
2
 72
1
 10
1.5275
 20
-0.6565
 30
0.0
 11
1.0
 21
0.0
 31
0.0
 44
0.9
  1
Body Features
 40
0.125
 41
2.6
  0
MTEXT
  5
25D
100
AcDbEntity
  8
0
100
AcDbMText
 62
2
  6
CONTINUOUS
  7
STANDARD
 71
2
 72
1
 10
6.055
 20
-0.6565
 30
0.0
 11
1.0
 21
0.0
 31
0.0
 44
0.9
  1
Ninety degree with reverse flow check
 40
0.125
 41
7.4
  0
MTEXT
  5
25E
100
AcDbEntity
  8
0
100
AcDbMText
 62
2
  6
CONTINUOUS
  7
STANDARD
 71
2
 72
1
 10
1.5275
 20
-0.9065
 30
0.0
 11
1.0
 21
0.0
 31
0.0
 44
0.9
  1
Body Type
 40
0.125
 41
1.8
  0
MTEXT
  5
25F
100
AcDbEntity
  8
0
100
AcDbMText
 62
2
  6
CONTINUOUS
  7
STANDARD
 71
2
 72
1
 10
6.055
 20
-0.9065
 30
0.0
 11
1.0
 21
0.0
 31
0.0
 44
0.9
  1
Line mount
 40
0.125
 41
2.0
  0
MTEXT
  5
260
100
AcDbEntity
  8
0
100
AcDbMText
 62
2
  6
CONTINUOUS
  7
STANDARD
 71
2
 72
1
 10
1.5275
 20
-1.1565
 30
0.0
 11
1.0
 21
0.0
 31
0.0
 44
0.9
  1
Interface
 40
0.125
 41
1.8
  0
MTEXT
  5
261
100
AcDbEntity
  8
0
100
AcDbMText
 62
2
  6
CONTINUOUS
  7
STANDARD
 71
2
 72
1
 10
6.055
 20
-1.1565
 30
0.0
 11
1.0
 21
0.0
 31
0.0
 44
0.9
  1
None
 40
0.125
 41
0.8
  0
MTEXT
  5
262
100
AcDbEntity
  8
0
100
AcDbMText
 62
2
  6
CONTINUOUS
  7
STANDARD
 71
2
 72
1
 10
1.5275
 20
-1.4065
 30
0.0
 11
1.0
 21
0.0
 31
0.0
 44
0.9
  1
Open Cavity Quantity
 40
0.125
 41
4.0
  0
MTEXT
  5
263
100
AcDbEntity
  8
0
100
AcDbMText
 62
2
  6
CONTINUOUS
  7
STANDARD
 71
2
 72
1
 10
6.055
 20
-1.4065
 30
0.0
 11
1.0
 21
0.0
 31
0.0
 44
0.9
  1
1
 40
0.125
 41
0.2
  0
MTEXT
  5
264
100
AcDbEntity
  8
0
100
AcDbMText
 62
2
  6
CONTINUOUS
  7
STANDARD
 71
2
 72
1
 10
1.5275
 20
-1.6565
 30
0.0
 11
1.0
 21
0.0
 31
0.0
 44
0.9
  1
Weight
 40
0.125
 41
1.2
  0
MTEXT
  5
265
100
AcDbEntity
  8
0
100
AcDbMText
 62
2
  6
CONTINUOUS
  7
STANDARD
 71
2
 72
1
 10
4.555
 20
-1.6565
 30
0.0
 11
1.0
 21
0.0
 31
0.0
 44
0.9
  1
0.939 lb.
 40
0.125
 41
1.8
  0
MTEXT
  5
266
100
AcDbEntity
  8
0
100
AcDbMText
 62
2
  6
CONTINUOUS
  7
STANDARD
 71
2
 72
1
 10
7.555
 20
-1.6565
 30
0.0
 11
1.0
 21
0.0
 31
0.0
 44
0.9
  1
0,426 kg.
 40
0.125
 41
1.8
  0
MTEXT
  5
267
100
AcDbEntity
  8
0
100
AcDbMText
 62
2
  6
CONTINUOUS
  7
STANDARD
 71
2
 72
1
 10
1.5275
 20
-1.9065
 30
0.0
 11
1.0
 21
0.0
 31
0.0
 44
0.9
  1
Mounting Hole Diameter
 40
0.125
 41
4.4
  0
MTEXT
  5
268
100
AcDbEntity
  8
0
100
AcDbMText
 62
2
  6
CONTINUOUS
  7
STANDARD
 71
2
 72
1
 10
4.555
 20
-1.9065
 30
0.0
 11
1.0
 21
0.0
 31
0.0
 44
0.9
  1
.28 in.
 40
0.125
 41
1.4
  0
MTEXT
  5
269
100
AcDbEntity
  8
0
100
AcDbMText
 62
2
  6
CONTINUOUS
  7
STANDARD
 71
2
 72
1
 10
7.555
 20
-1.9065
 30
0.0
 11
1.0
 21
0.0
 31
0.0
 44
0.9
  1
7,1 mm
 40
0.125
 41
1.2
  0
MTEXT
  5
26A
100
AcDbEntity
  8
0
100
AcDbMText
 62
2
  6
CONTINUOUS
  7
STANDARD
 71
2
 72
1
 10
1.5275
 20
-2.1565
 30
0.0
 11
1.0
 21
0.0
 31
0.0
 44
0.9
  1
Mounting Hole Depth
 40
0.125
 41
3.8
  0
MTEXT
  5
26B
100
AcDbEntity
  8
0
100
AcDbMText
 62
2
  6
CONTINUOUS
  7
STANDARD
 71
2
 72
1
 10
6.055
 20
-2.1565
 30
0.0
 11
1.0
 21
0.0
 31
0.0
 44
0.9
  1
Through
 40
0.125
 41
1.4
  0
MTEXT
  5
26C
100
AcDbEntity
  8
0
100
AcDbMText
 62
2
  6
CONTINUOUS
  7
STANDARD
 71
2
 72
1
 10
1.5275
 20
-2.4065
 30
0.0
 11
1.0
 21
0.0
 31
0.0
 44
0.9
  1
Mounting Hole Quantity
 40
0.125
 41
4.4
  0
MTEXT
  5
26D
100
AcDbEntity
  8
0
100
AcDbMText
 62
2
  6
CONTINUOUS
  7
STANDARD
 71
2
 72
1
 10
6.055
 20
-2.4065
 30
0.0
 11
1.0
 21
0.0
 31
0.0
 44
0.9
  1
2
 40
0.125
 41
0.2
  0
MTEXT
  5
26E
100
AcDbEntity
  8
0
100
AcDbMText
 62
2
  6
CONTINUOUS
  7
STANDARD
 71
2
 72
1
 10
1.5275
 20
-2.6565
 30
0.0
 11
1.0
 21
0.0
 31
0.0
 44
0.9
  1
Includes integral cartridge(s)
 40
0.125
 41
6.0
  0
MTEXT
  5
26F
100
AcDbEntity
  8
0
100
AcDbMText
 62
2
  6
CONTINUOUS
  7
STANDARD
 71
2
 72
1
 10
6.055
 20
-2.6565
 30
0.0
 11
1.0
 21
0.0
 31
0.0
 44
0.9
  1
Yes (see Included Components)
 40
0.125
 41
5.8
  0
ENDBLK
  5
270
100
AcDbEntity
  8
0
  6
BYBLOCK
 62
0
100
AcDbBlockEnd
  0
BLOCK
  5
271
100
AcDbEntity
  8
0
100
AcDbBlockBegin
  2
*T3
 70
1
 10
0.0
 20
0.0
  3
*T3
  1

  0
LINE
  5
272
100
AcDbEntity
  8
0
100
AcDbLine
 62
2
  6
CONTINUOUS
 10
0.0
 20
0.0
 11
4.6
 21
0.0
  0
LINE
  5
273
100
AcDbEntity
  8
0
100
AcDbLine
 62
2
  6
CONTINUOUS
 10
0.0
 20
0.0
 11
0.0
 21
-0.93775
  0
LINE
  5
274
100
AcDbEntity
  8
0
100
AcDbLine
 62
2
  6
CONTINUOUS
 10
0.0
 20
-0.34375
 11
4.6
 21
-0.34375
  0
LINE
  5
275
100
AcDbEntity
  8
0
100
AcDbLine
 62
2
  6
CONTINUOUS
 10
0.0
 20
-0.68775
 11
4.6
 21
-0.68775
  0
LINE
  5
276
100
AcDbEntity
  8
0
100
AcDbLine
 62
2
  6
CONTINUOUS
 10
0.0
 20
-0.93775
 11
4.6
 21
-0.93775
  0
LINE
  5
277
100
AcDbEntity
  8
0
100
AcDbLine
 62
2
  6
CONTINUOUS
 10
1.3
 20
-0.34375
 11
1.3
 21
-0.93775
  0
LINE
  5
278
100
AcDbEntity
  8
0
100
AcDbLine
 62
2
  6
CONTINUOUS
 10
3.3
 20
-0.34375
 11
3.3
 21
-0.93775
  0
LINE
  5
279
100
AcDbEntity
  8
0
100
AcDbLine
 62
2
  6
CONTINUOUS
 10
4.6
 20
0.0
 11
4.6
 21
-0.93775
  0
MTEXT
  5
27A
100
AcDbEntity
  8
0
100
AcDbMText
 62
2
  6
CONTINUOUS
  7
STANDARD
 71
2
 72
1
 10
2.3
 20
-0.099375
 30
0.0
 11
1.0
 21
0.0
 31
0.0
 44
0.9
  1
Port Headings
 40
0.145
 41
3.016
  0
MTEXT
  5
27B
100
AcDbEntity
  8
0
100
AcDbMText
 62
2
  6
CONTINUOUS
  7
STANDARD
 71
2
 72
1
 10
0.65
 20
-0.44325
 30
0.0
 11
1.0
 21
0.0
 31
0.0
 44
0.9
  1
Product
 40
0.145
 41
1.624
  0
MTEXT
  5
27C
100
AcDbEntity
  8
0
100
AcDbMText
 62
2
  6
CONTINUOUS
  7
STANDARD
 71
2
 72
1
 10
2.3
 20
-0.44325
 30
0.0
 11
1.0
 21
0.0
 31
0.0
 44
0.9
  1
Port
 40
0.145
 41
0.928
  0
MTEXT
  5
27D
100
AcDbEntity
  8
0
100
AcDbMText
 62
2
  6
CONTINUOUS
  7
STANDARD
 71
2
 72
1
 10
3.95
 20
-0.44325
 30
0.0
 11
1.0
 21
0.0
 31
0.0
 44
0.9
  1
Size
 40
0.145
 41
0.928
  0
MTEXT
  5
27E
100
AcDbEntity
  8
0
100
AcDbMText
 62
2
  6
CONTINUOUS
  7
STANDARD
 71
2
 72
1
 10
0.65
 20
-0.75025
 30
0.0
 11
1.0
 21
0.0
 31
0.0
 44
0.9
  1
FNI
 40
0.125
 41
0.6
  0
MTEXT
  5
27F
100
AcDbEntity
  8
0
100
AcDbMText
 62
2
  6
CONTINUOUS
  7
STANDARD
 71
2
 72
1
 10
2.3
 20
-0.75025
 30
0.0
 11
1.0
 21
0.0
 31
0.0
 44
0.9
  1
All Ports
 40
0.125
 41
1.8
  0
MTEXT
  5
280
100
AcDbEntity
  8
0
100
AcDbMText
 62
2
  6
CONTINUOUS
  7
STANDARD
 71
2
 72
1
 10
3.95
 20
-0.75025
 30
0.0
 11
1.0
 21
0.0
 31
0.0
 44
0.9
  1
SAE 6
 40
0.125
 41
1.0
  0
ENDBLK
  5
281
100
AcDbEntity
  8
0
  6
BYBLOCK
 62
0
100
AcDbBlockEnd
  0
ENDSEC
  0
SECTION
  2
ENTITIES
  0
IMAGE
  5
282
100
AcDbEntity
  8
0
100
AcDbRasterImage
 62
7
  6
CONTINUOUS
 10
19.2297077316
 20
0.3094318264
 30
0.0
 11
0.0066666667
 21
0.0
 31
0.0
 12
0.0
 22
0.0066666667
 32
0.0
 13
369.0
 23
92.0
340
       360
 70
9
280
0
281
50
282
50
283
0
360
       35A
 71
1
 91
2
 14
-0.5
 24
-0.5
 14
368.5
 24
91.5
  0
INSERT
  5
283
100
AcDbEntity
  8
0
100
AcDbBlockReference
 62
2
  6
CONTINUOUS
  2
SUN_FIRST_THIRD_ANGLE_BL0
 10
20.4816717061
 20
1.2289683772
  0
ACAD_TABLE
  5
284
100
AcDbEntity
  8
0
 62
2
  6
CONTINUOUS
100
AcDbBlockReference
  2
*T1
 10
12.42375
 20
0.30125
 30
0.0
100
AcDbTable
342
       362
343
207
 11
1.0
 21
0.0
 31
0.0
 90
6
 91
4
 92
6
 93
20
 94
0
 95
0
 96
0
 70
1
 41
0.0
141
0.525
141
0.1
141
0.525
141
0.1
142
4.1
142
1.1
142
0.7
142
0.5
142
0.4
142
2.475
171
1
172
0
173
0
174
0
175
1
176
1
 91
33
178
0
145
0.0
301
CELL_VALUE
 90
4
  1
T-10A Line mount\PNinety degree with reverse flow check
304
ACVALUE_END
170
2
140
0.125
171
1
172
0
173
0
174
0
175
1
176
1
 91
33
178
0
145
0.0
301
CELL_VALUE
 90
4
  1
Jun-25-24
304
ACVALUE_END
170
5
140
0.125
171
1
172
0
173
0
174
0
175
1
176
1
 91
33
178
0
145
0.0
301
CELL_VALUE
 90
4
  1
2.000
304
ACVALUE_END
170
5
140
0.125
171
1
172
0
173
0
174
0
175
1
176
1
 91
33
178
0
145
0.0
301
CELL_VALUE
 90
4
  1
C
304
ACVALUE_END
170
5
140
0.125
171
1
172
0
173
0
174
0
175
1
176
1
 91
33
178
0
145
0.0
301
CELL_VALUE
 90
4
  1
2
304
ACVALUE_END
170
5
140
0.125
171
1
172
0
173
0
174
0
175
1
176
1
 91
33
178
0
145
0.0
301
CELL_VALUE
 90
4
  1
 
304
ACVALUE_END
170
1
140
0.125
171
1
172
0
173
0
174
0
175
1
176
1
 91
33
178
0
145
0.0
301
CELL_VALUE
 90
4
  1
DESCRIPTION
304
ACVALUE_END
170
1
140
0.06
171
1
172
0
173
0
174
0
175
1
176
1
 91
33
178
0
145
0.0
301
CELL_VALUE
 90
4
  1
DATE
304
ACVALUE_END
170
1
140
0.06
171
1
172
0
173
0
174
0
175
1
176
1
 91
33
178
0
145
0.0
301
CELL_VALUE
 90
4
  1
SCALE
304
ACVALUE_END
170
1
140
0.06
171
1
172
0
173
0
174
0
175
1
176
1
 91
33
178
0
145
0.0
301
CELL_VALUE
 90
4
  1
DWG SIZE
304
ACVALUE_END
170
1
140
0.06
171
1
172
0
173
0
174
0
175
1
176
1
 91
33
178
0
145
0.0
301
CELL_VALUE
 90
4
  1
SHEET
304
ACVALUE_END
170
1
140
0.06
171
1
172
0
173
0
174
0
175
1
176
1
 91
33
178
0
145
0.0
301
CELL_VALUE
 90
4
  1
 
304
ACVALUE_END
170
1
140
0.125
171
1
172
0
173
0
174
0
175
1
176
1
 91
33
178
0
145
0.0
301
CELL_VALUE
 90
4
  1
FNI
304
ACVALUE_END
170
5
140
0.125
171
1
172
0
173
0
174
0
175
4
176
1
 91
33
178
0
145
0.0
301
CELL_VALUE
 90
4
  1
ALL DIMENSIONS IN INCH\PVIEWS ARE THIRD ANGLE
304
ACVALUE_END
170
5
140
0.12
171
1
172
0
173
1
174
0
175
1
176
1
 91
1
178
0
145
0.0
170
1
171
1
172
0
173
1
174
0
175
1
176
1
 91
1
178
0
145
0.0
170
1
171
1
172
0
173
1
174
0
175
1
176
1
 91
1
178
0
145
0.0
170
5
171
1
172
0
173
0
174
0
175
1
176
1
 91
33
178
0
145
0.0
301
CELL_VALUE
 90
4
  1
 
304
ACVALUE_END
170
1
140
0.125
171
1
172
0
173
0
174
0
175
1
176
1
 91
33
178
0
145
0.0
301
CELL_VALUE
 90
4
  1
MODEL
304
ACVALUE_END
170
1
140
0.06
171
1
172
0
173
0
174
0
175
1
176
1
 91
33
178
0
145
0.0
301
CELL_VALUE
 90
4
  1
 
304
ACVALUE_END
170
1
140
0.125
171
1
172
0
173
0
174
0
175
1
176
1
 91
33
178
0
145
0.0
301
CELL_VALUE
 90
4
  1
 
304
ACVALUE_END
170
1
140
0.125
171
1
172
0
173
0
174
0
175
1
176
1
 91
33
178
0
145
0.0
301
CELL_VALUE
 90
4
  1
 
304
ACVALUE_END
170
1
140
0.125
171
1
172
0
173
0
174
0
175
1
176
1
 91
33
178
0
145
0.0
301
CELL_VALUE
 90
4
  1
 
304
ACVALUE_END
170
1
140
0.125
171
1
172
0
173
0
174
0
175
1
176
1
 91
33
178
0
145
0.0
301
CELL_VALUE
 90
4
  1
 
304
ACVALUE_END
170
1
140
0.125
  0
ACAD_TABLE
  5
285
100
AcDbEntity
  8
0
 62
2
  6
CONTINUOUS
100
AcDbBlockReference
  2
*T2
 10
12.4237499994
 20
16.47875
 30
0.0
100
AcDbTable
342
       361
343
208
 11
1.0
 21
0.0
 31
0.0
 90
22
 91
11
 92
3
 93
16
 94
0
 95
0
 96
0
 41
0.028
141
0.344
141
0.25
141
0.25
141
0.25
141
0.25
141
0.25
141
0.25
141
0.25
141
0.25
141
0.25
141
0.25
142
3.055
142
3.0
142
3.0
171
1
172
0
173
0
174
0
175
1
176
1
 91
33
178
0
145
0.0
301
CELL_VALUE
 90
4
  1
Technical Data
304
ACVALUE_END
170
5
140
0.145
171
1
172
0
173
0
174
0
175
1
176
1
 91
33
178
0
145
0.0
301
CELL_VALUE
 90
4
  1
U.S. Units
304
ACVALUE_END
170
5
140
0.145
171
1
172
0
173
0
174
0
175
1
176
1
 91
33
178
0
145
0.0
301
CELL_VALUE
 90
4
  1
Metric Units
304
ACVALUE_END
170
5
140
0.145
171
1
172
0
173
0
174
0
175
1
176
1
 91
33
178
0
145
0.0
301
CELL_VALUE
 90
4
  1
Cavity
304
ACVALUE_END
170
5
140
0.125
171
1
172
0
173
0
174
0
175
2
176
1
 91
33
178
0
145
0.0
301
CELL_VALUE
 90
4
  1
T-10A
304
ACVALUE_END
170
5
140
0.125
171
1
172
0
173
1
174
0
175
1
176
1
 91
1
178
0
145
0.0
170
1
171
1
172
0
173
0
174
0
175
1
176
1
 91
33
178
0
145
0.0
301
CELL_VALUE
 90
4
  1
Body Features
304
ACVALUE_END
170
5
140
0.125
171
1
172
0
173
0
174
0
175
2
176
1
 91
33
178
0
145
0.0
301
CELL_VALUE
 90
4
  1
Ninety degree with reverse flow check
304
ACVALUE_END
170
5
140
0.125
171
1
172
0
173
1
174
0
175
1
176
1
 91
1
178
0
145
0.0
170
1
171
1
172
0
173
0
174
0
175
1
176
1
 91
33
178
0
145
0.0
301
CELL_VALUE
 90
4
  1
Body Type
304
ACVALUE_END
170
5
140
0.125
171
1
172
0
173
0
174
0
175
2
176
1
 91
33
178
0
145
0.0
301
CELL_VALUE
 90
4
  1
Line mount
304
ACVALUE_END
170
5
140
0.125
171
1
172
0
173
1
174
0
175
1
176
1
 91
1
178
0
145
0.0
170
1
171
1
172
0
173
0
174
0
175
1
176
1
 91
33
178
0
145
0.0
301
CELL_VALUE
 90
4
  1
Interface
304
ACVALUE_END
170
5
140
0.125
171
1
172
0
173
0
174
0
175
2
176
1
 91
33
178
0
145
0.0
301
CELL_VALUE
 90
4
  1
None
304
ACVALUE_END
170
5
140
0.125
171
1
172
0
173
1
174
0
175
1
176
1
 91
1
178
0
145
0.0
170
1
171
1
172
0
173
0
174
0
175
1
176
1
 91
33
178
0
145
0.0
301
CELL_VALUE
 90
4
  1
Open Cavity Quantity
304
ACVALUE_END
170
5
140
0.125
171
1
172
0
173
0
174
0
175
2
176
1
 91
33
178
0
145
0.0
301
CELL_VALUE
 90
4
  1
1
304
ACVALUE_END
170
5
140
0.125
171
1
172
0
173
1
174
0
175
1
176
1
 91
1
178
0
145
0.0
170
1
171
1
172
0
173
0
174
0
175
1
176
1
 91
33
178
0
145
0.0
301
CELL_VALUE
 90
4
  1
Weight
304
ACVALUE_END
170
5
140
0.125
171
1
172
0
173
0
174
0
175
1
176
1
 91
33
178
0
145
0.0
301
CELL_VALUE
 90
4
  1
0.939 lb.
304
ACVALUE_END
170
5
140
0.125
171
1
172
0
173
0
174
0
175
1
176
1
 91
33
178
0
145
0.0
301
CELL_VALUE
 90
4
  1
0,426 kg.
304
ACVALUE_END
170
5
140
0.125
171
1
172
0
173
0
174
0
175
1
176
1
 91
33
178
0
145
0.0
301
CELL_VALUE
 90
4
  1
Mounting Hole Diameter
304
ACVALUE_END
170
5
140
0.125
171
1
172
0
173
0
174
0
175
1
176
1
 91
33
178
0
145
0.0
301
CELL_VALUE
 90
4
  1
.28 in.
304
ACVALUE_END
170
5
140
0.125
171
1
172
0
173
0
174
0
175
1
176
1
 91
33
178
0
145
0.0
301
CELL_VALUE
 90
4
  1
7,1 mm
304
ACVALUE_END
170
5
140
0.125
171
1
172
0
173
0
174
0
175
1
176
1
 91
33
178
0
145
0.0
301
CELL_VALUE
 90
4
  1
Mounting Hole Depth
304
ACVALUE_END
170
5
140
0.125
171
1
172
0
173
0
174
0
175
2
176
1
 91
33
178
0
145
0.0
301
CELL_VALUE
 90
4
  1
Through
304
ACVALUE_END
170
5
140
0.125
171
1
172
0
173
1
174
0
175
1
176
1
 91
1
178
0
145
0.0
170
1
171
1
172
0
173
0
174
0
175
1
176
1
 91
33
178
0
145
0.0
301
CELL_VALUE
 90
4
  1
Mounting Hole Quantity
304
ACVALUE_END
170
5
140
0.125
171
1
172
0
173
0
174
0
175
2
176
1
 91
33
178
0
145
0.0
301
CELL_VALUE
 90
4
  1
2
304
ACVALUE_END
170
5
140
0.125
171
1
172
0
173
1
174
0
175
1
176
1
 91
1
178
0
145
0.0
170
1
171
1
172
0
173
0
174
0
175
1
176
1
 91
33
178
0
145
0.0
301
CELL_VALUE
 90
4
  1
Includes integral cartridge(s)
304
ACVALUE_END
170
5
140
0.125
171
1
172
0
173
0
174
0
175
2
176
1
 91
33
178
0
145
0.0
301
CELL_VALUE
 90
4
  1
Yes (see Included Components)
304
ACVALUE_END
170
5
140
0.125
171
1
172
0
173
1
174
0
175
1
176
1
 91
1
178
0
145
0.0
170
1
  0
ACAD_TABLE
  5
286
100
AcDbEntity
  8
0
 62
2
  6
CONTINUOUS
100
AcDbBlockReference
  2
*T3
 10
0.52125
 20
1.459
 30
0.0
100
AcDbTable
342
       361
343
209
 11
1.0
 21
0.0
 31
0.0
 90
22
 91
3
 92
3
 93
16
 94
0
 95
0
 96
0
 41
0.05
141
0.34375
141
0.344
141
0.25
142
1.3
142
2.0
142
1.3
171
1
172
0
173
0
174
0
175
3
176
1
 91
33
178
0
145
0.0
301
CELL_VALUE
 90
4
  1
Port Headings
304
ACVALUE_END
170
5
140
0.145
171
1
172
0
173
1
174
0
175
1
176
1
 91
1
178
0
145
0.0
170
1
171
1
172
0
173
1
174
0
175
1
176
1
 91
1
178
0
145
0.0
170
1
171
1
172
0
173
0
174
0
175
1
176
1
 91
33
178
0
145
0.0
301
CELL_VALUE
 90
4
  1
Product
304
ACVALUE_END
170
5
140
0.145
171
1
172
0
173
0
174
0
175
1
176
1
 91
33
178
0
145
0.0
301
CELL_VALUE
 90
4
  1
Port
304
ACVALUE_END
170
5
140
0.145
171
1
172
0
173
0
174
0
175
1
176
1
 91
33
178
0
145
0.0
301
CELL_VALUE
 90
4
  1
Size
304
ACVALUE_END
170
5
140
0.145
171
1
172
0
173
0
174
0
175
1
176
1
 91
33
178
0
145
0.0
301
CELL_VALUE
 90
4
  1
FNI
304
ACVALUE_END
170
5
140
0.125
171
1
172
0
173
0
174
0
175
1
176
1
 91
33
178
0
145
0.0
301
CELL_VALUE
 90
4
  1
All Ports
304
ACVALUE_END
170
5
140
0.125
171
1
172
0
173
0
174
0
175
1
176
1
 91
33
178
0
145
0.0
301
CELL_VALUE
 90
4
  1
SAE 6
304
ACVALUE_END
170
5
140
0.125
  0
MTEXT
  5
287
100
AcDbEntity
  8
0
100
AcDbMText
 62
2
  6
CONTINUOUS
  7
STANDARD
 71
1
 72
1
 10
0.52125
 20
5.75995
 30
0.0
 11
1.0
 21
0.0
 31
0.0
 44
0.6
  3
Notes\P \P1. Important: Carefully consider\P   the maximum system pressure. The\P   pressure rating of the manifold is\P   dependent on the manifold material,\P   with the port type/size a secondary\P   consideration. Manifolds\P   constructed of alu
  3
minum are not\P   rated for pressures higher than\P   3000 psi (210 bar), regardless of\P   the port type/size specified.\P2. This drawing is for reference\P   only. It is generated by an\P   automated process and does not fall\P   under Sun's docume
  1
nt control\P   process.
 40
0.1
 41
3.04
  0
LINE
  5
288
100
AcDbEntity
  8
0
100
AcDbLine
 62
7
  6
CONTINUOUS
 10
0.30125
 20
0.30125
 11
0.30125
 21
16.69875
  0
LINE
  5
289
100
AcDbEntity
  8
0
100
AcDbLine
 62
7
  6
CONTINUOUS
 10
0.30125
 20
0.30125
 11
21.69875
 21
0.30125
  0
LINE
  5
28A
100
AcDbEntity
  8
0
100
AcDbLine
 62
7
  6
CONTINUOUS
 10
0.30125
 20
16.69875
 11
21.69875
 21
16.69875
  0
LINE
  5
28B
100
AcDbEntity
  8
0
100
AcDbLine
 62
7
  6
CONTINUOUS
 10
21.69875
 20
0.30125
 11
21.69875
 21
16.69875
  0
LINE
  5
28C
100
AcDbEntity
  8
0
100
AcDbLine
 62
7
  6
CONTINUOUS
 10
8.9087088306
 20
12.3494099593
 11
8.2616617518
 21
11.724410438
  0
LINE
  5
28D
100
AcDbEntity
  8
0
100
AcDbLine
 62
7
  6
CONTINUOUS
 10
10.7906337102
 20
4.7945369821
 11
10.8409650307
 21
4.7696742735
  0
LINE
  5
28E
100
AcDbEntity
  8
0
100
AcDbLine
 62
7
  6
CONTINUOUS
 10
8.2616617518
 20
11.724410438
 11
8.2616617518
 21
5.9288551369
  0
LINE
  5
28F
100
AcDbEntity
  8
0
100
AcDbLine
 62
7
  6
CONTINUOUS
 10
8.2616617518
 20
5.9288551369
 11
13.0912911694
 21
5.5939191992
  0
LINE
  5
290
100
AcDbEntity
  8
0
100
AcDbLine
 62
4
  6
CONTINUOUS
 10
11.4685356728
 20
5.8262324827
 11
11.4105801211
 21
5.8302517139
  0
LINE
  5
291
100
AcDbEntity
  8
0
100
AcDbLine
 62
4
  6
CONTINUOUS
 10
11.019380147
 20
5.8573815242
 11
10.9904023711
 21
5.8593911398
  0
LINE
  5
292
100
AcDbEntity
  8
0
100
AcDbLine
 62
4
  6
CONTINUOUS
 10
11.6568912159
 20
5.8904440527
 11
11.7438245435
 21
5.884415206
  0
LINE
  5
293
100
AcDbEntity
  8
0
100
AcDbLine
 62
4
  6
CONTINUOUS
 10
8.590076347
 20
7.8282720104
 11
8.590076347
 21
7.5964498035
  0
LINE
  5
294
100
AcDbEntity
  8
0
100
AcDbLine
 62
4
  6
CONTINUOUS
 10
10.9904023711
 20
6.0912133467
 11
11.019380147
 21
6.0892037311
  0
LINE
  5
295
100
AcDbEntity
  8
0
100
AcDbLine
 62
4
  6
CONTINUOUS
 10
11.4105801211
 20
6.0620739207
 11
11.4685356728
 21
6.0580546896
  0
LINE
  5
296
100
AcDbEntity
  8
0
100
AcDbLine
 62
4
  6
CONTINUOUS
 10
10.9904023711
 20
5.8593911398
 11
10.9614245953
 21
5.8807192732
  0
LINE
  5
297
100
AcDbEntity
  8
0
100
AcDbLine
 62
4
  6
CONTINUOUS
 10
11.019380147
 20
6.0892037311
 11
11.0483579229
 21
6.0678756029
  0
LINE
  5
298
100
AcDbEntity
  8
0
100
AcDbLine
 62
4
  6
CONTINUOUS
 10
11.4685356728
 20
6.0580546896
 11
11.4975134487
 21
6.0367265614
  0
LINE
  5
299
100
AcDbEntity
  8
0
100
AcDbLine
 62
4
  6
CONTINUOUS
 10
10.9614245953
 20
5.8807192732
 11
10.9324468194
 21
5.9213659227
  0
LINE
  5
29A
100
AcDbEntity
  8
0
100
AcDbLine
 62
4
  6
CONTINUOUS
 10
9.5772528276
 20
9.0927888108
 11
9.5772528276
 21
8.9768777074
  0
LINE
  5
29B
100
AcDbEntity
  8
0
100
AcDbLine
 62
4
  6
CONTINUOUS
 10
9.6931639311
 20
8.968839245
 11
9.6931639311
 21
8.8529281416
  0
LINE
  5
29C
100
AcDbEntity
  8
0
100
AcDbLine
 62
4
  6
CONTINUOUS
 10
9.7511194828
 20
8.8489089104
 11
9.7511194828
 21
9.0807311173
  0
LINE
  5
29D
100
AcDbEntity
  8
0
100
AcDbLine
 62
4
  6
CONTINUOUS
 10
9.7133103709
 20
7.7685901016
 11
9.8016235942
 21
7.7183089471
  0
LINE
  5
29E
100
AcDbEntity
  8
0
100
AcDbLine
 62
4
  6
CONTINUOUS
 10
11.0483579229
 20
6.0678756029
 11
11.0628468108
 21
6.0475522686
  0
LINE
  5
29F
100
AcDbEntity
  8
0
100
AcDbLine
 62
4
  6
CONTINUOUS
 10
9.8457802093
 20
7.6600509118
 11
9.8457802093
 21
7.8918731186
  0
LINE
  5
2A0
100
AcDbEntity
  8
0
100
AcDbLine
 62
4
  6
CONTINUOUS
 10
9.8670305862
 20
9.072692655
 11
9.8670305862
 21
8.8408704481
  0
LINE
  5
2A1
100
AcDbEntity
  8
0
100
AcDbLine
 62
4
  6
CONTINUOUS
 10
9.9249861379
 20
9.0686734238
 11
9.9249861379
 21
8.836851217
  0
LINE
  5
2A2
100
AcDbEntity
  8
0
100
AcDbLine
 62
4
  6
CONTINUOUS
 10
9.961691299
 20
7.8507172011
 11
9.961691299
 21
7.68512991
  0
LINE
  5
2A3
100
AcDbEntity
  8
0
100
AcDbLine
 62
4
  6
CONTINUOUS
 10
10.0408972414
 20
9.0606349615
 11
10.0408972414
 21
8.8288127546
  0
LINE
  5
2A4
100
AcDbEntity
  8
0
100
AcDbLine
 62
4
  6
CONTINUOUS
 10
11.2587917132
 20
7.5620582311
 11
11.1759980521
 21
7.567799991
  0
LINE
  5
2A5
100
AcDbEntity
  8
0
100
AcDbLine
 62
4
  6
CONTINUOUS
 10
11.0766457251
 20
7.5746900983
 11
11.0269695063
 21
7.5781351558
  0
LINE
  5
2A6
100
AcDbEntity
  8
0
100
AcDbLine
 62
4
  6
CONTINUOUS
 10
10.9000192923
 20
7.586939183
 11
10.8337844076
 21
7.5915325879
  0
LINE
  5
2A7
100
AcDbEntity
  8
0
100
AcDbLine
 62
4
  6
CONTINUOUS
 10
9.9285738428
 20
7.6543091538
 11
9.8457802093
 21
7.6600509118
  0
LINE
  5
2A8
100
AcDbEntity
  8
0
100
AcDbLine
 62
4
  6
CONTINUOUS
 10
10.4529335997
 20
7.6179446811
 11
10.552285982
 21
7.61105457
  0
LINE
  5
2A9
100
AcDbEntity
  8
0
100
AcDbLine
 62
4
  6
CONTINUOUS
 10
11.3857420377
 20
7.5532541962
 11
11.4850943647
 21
7.5463640889
  0
LINE
  5
2AA
100
AcDbEntity
  8
0
100
AcDbLine
 62
4
  6
CONTINUOUS
 10
9.9285738428
 20
7.8861313606
 11
9.961691299
 21
7.8507172011
  0
LINE
  5
2AB
100
AcDbEntity
  8
0
100
AcDbLine
 62
4
  6
CONTINUOUS
 10
11.4975134487
 20
6.0367265614
 11
11.5264912245
 21
5.9960799067
  0
LINE
  5
2AC
100
AcDbEntity
  8
0
100
AcDbLine
 62
4
  6
CONTINUOUS
 10
10.1217590106
 20
7.8727339237
 11
10.1879939505
 21
7.6363183082
  0
LINE
  5
2AD
100
AcDbEntity
  8
0
100
AcDbLine
 62
4
  6
CONTINUOUS
 10
10.2727194482
 20
8.81273583
 11
10.2727194482
 21
9.0445580368
  0
LINE
  5
2AE
100
AcDbEntity
  8
0
100
AcDbLine
 62
4
  6
CONTINUOUS
 10
10.3204637751
 20
7.6271314947
 11
10.3204637751
 21
7.8589537015
  0
LINE
  5
2AF
100
AcDbEntity
  8
0
100
AcDbLine
 62
4
  6
CONTINUOUS
 10
10.3886305516
 20
8.8046973677
 11
10.3886305516
 21
8.9206084711
  0
LINE
  5
2B0
100
AcDbEntity
  8
0
100
AcDbLine
 62
4
  6
CONTINUOUS
 10
10.0555240983
 20
7.6455051236
 11
10.1217590106
 21
7.8727339237
  0
LINE
  5
2B1
100
AcDbEntity
  8
0
100
AcDbLine
 62
7
  6
CONTINUOUS
 10
13.7383382482
 20
12.0144740216
 11
13.0912911694
 21
11.3894745003
  0
LINE
  5
2B2
100
AcDbEntity
  8
0
100
AcDbLine
 62
4
  6
CONTINUOUS
 10
10.0776024024
 20
7.7102089073
 11
10.1659156188
 21
7.7040843649
  0
LINE
  5
2B3
100
AcDbEntity
  8
0
100
AcDbLine
 62
4
  6
CONTINUOUS
 10
11.4519769224
 20
7.6811306298
 11
11.3857420377
 21
7.6857240346
  0
LINE
  5
2B4
100
AcDbEntity
  8
0
100
AcDbLine
 62
4
  6
CONTINUOUS
 10
10.5191685397
 20
7.7458211108
 11
10.4529335997
 21
7.7504145195
  0
LINE
  5
2B5
100
AcDbEntity
  8
0
100
AcDbLine
 62
4
  6
CONTINUOUS
 10
9.8457802093
 20
7.8918731186
 11
9.9285738428
 21
7.8861313606
  0
LINE
  5
2B6
100
AcDbEntity
  8
0
100
AcDbLine
 62
4
  6
CONTINUOUS
 10
10.2542288352
 20
7.8635471102
 11
10.3866986598
 21
7.8543602967
  0
LINE
  5
2B7
100
AcDbEntity
  8
0
100
AcDbLine
 62
4
  6
CONTINUOUS
 10
10.4529335997
 20
7.849766888
 11
10.552285982
 21
7.8428767769
  0
LINE
  5
2B8
100
AcDbEntity
  8
0
100
AcDbLine
 62
4
  6
CONTINUOUS
 10
10.8337844076
 20
7.8233547947
 11
10.9000192923
 21
7.8187613899
  0
LINE
  5
2B9
100
AcDbEntity
  8
0
100
AcDbLine
 62
4
  6
CONTINUOUS
 10
11.0269695063
 20
7.8099573626
 11
11.0766457251
 21
7.8065123052
  0
LINE
  5
2BA
100
AcDbEntity
  8
0
100
AcDbLine
 62
4
  6
CONTINUOUS
 10
11.1759980521
 20
7.7996221979
 11
11.2587917132
 21
7.793880438
  0
LINE
  5
2BB
100
AcDbEntity
  8
0
100
AcDbLine
 62
4
  6
CONTINUOUS
 10
11.3857420377
 20
7.7850764031
 11
11.4850943647
 21
7.7781862958
  0
LINE
  5
2BC
100
AcDbEntity
  8
0
100
AcDbLine
 62
4
  6
CONTINUOUS
 10
10.8337844076
 20
7.5915325879
 11
10.8006669653
 21
7.6269467499
  0
LINE
  5
2BD
100
AcDbEntity
  8
0
100
AcDbLine
 62
4
  6
CONTINUOUS
 10
11.0269695063
 20
7.5781351558
 11
10.993852064
 21
7.6135493178
  0
LINE
  5
2BE
100
AcDbEntity
  8
0
100
AcDbLine
 62
4
  6
CONTINUOUS
 10
11.1787579142
 20
6.0781508454
 11
11.2946690177
 21
5.8382901762
  0
LINE
  5
2BF
100
AcDbEntity
  8
0
100
AcDbLine
 62
4
  6
CONTINUOUS
 10
10.9324468194
 20
5.9213659227
 11
10.9179579315
 21
5.9803262822
  0
LINE
  5
2C0
100
AcDbEntity
  8
0
100
AcDbLine
 62
4
  6
CONTINUOUS
 10
10.4529335997
 20
7.6179446811
 11
10.4529335997
 21
7.849766888
  0
LINE
  5
2C1
100
AcDbEntity
  8
0
100
AcDbLine
 62
4
  6
CONTINUOUS
 10
10.4805315016
 20
8.1260396152
 11
10.4805315016
 21
8.3578618221
  0
LINE
  5
2C2
100
AcDbEntity
  8
0
100
AcDbLine
 62
4
  6
CONTINUOUS
 10
10.4832912882
 20
8.7981326233
 11
10.4832912882
 21
8.9140437267
  0
LINE
  5
2C3
100
AcDbEntity
  8
0
100
AcDbLine
 62
4
  6
CONTINUOUS
 10
10.5992023917
 20
8.9060052644
 11
10.5992023917
 21
8.6741830575
  0
LINE
  5
2C4
100
AcDbEntity
  8
0
100
AcDbLine
 62
7
  6
CONTINUOUS
 10
10.6444669575
 20
5.7293938196
 11
10.6444669575
 21
4.8881953681
  0
LINE
  5
2C5
100
AcDbEntity
  8
0
100
AcDbLine
 62
4
  6
CONTINUOUS
 10
10.6461187962
 20
8.1145560973
 11
10.6461187962
 21
8.3463783042
  0
LINE
  5
2C6
100
AcDbEntity
  8
0
100
AcDbLine
 62
7
  6
CONTINUOUS
 10
10.6751254304
 20
5.6997800594
 11
10.6751254304
 21
4.8585816079
  0
LINE
  5
2C7
100
AcDbEntity
  8
0
100
AcDbLine
 62
4
  6
CONTINUOUS
 10
10.6764764606
 20
8.7847351861
 11
10.6764764606
 21
8.9006462895
  0
LINE
  5
2C8
100
AcDbEntity
  8
0
100
AcDbLine
 62
4
  6
CONTINUOUS
 10
12.6228171156
 20
9.8223900931
 11
12.6517948915
 21
9.8396989901
  0
LINE
  5
2C9
100
AcDbEntity
  8
0
100
AcDbLine
 62
4
  6
CONTINUOUS
 10
10.579883877
 20
8.251619343
 11
10.4805315016
 21
8.2585094536
  0
LINE
  5
2CA
100
AcDbEntity
  8
0
100
AcDbLine
 62
4
  6
CONTINUOUS
 10
11.5513292494
 20
7.6852796746
 11
11.6396424658
 21
7.6349985171
  0
LINE
  5
2CB
100
AcDbEntity
  8
0
100
AcDbLine
 62
4
  6
CONTINUOUS
 10
11.0766457251
 20
7.8065123052
 11
11.1097631674
 21
7.7710981466
  0
LINE
  5
2CC
100
AcDbEntity
  8
0
100
AcDbLine
 62
4
  6
CONTINUOUS
 10
11.2587917132
 20
7.793880438
 11
11.2919091555
 21
7.7584662794
  0
LINE
  5
2CD
100
AcDbEntity
  8
0
100
AcDbLine
 62
4
  6
CONTINUOUS
 10
10.6461187962
 20
8.3463783042
 11
10.7620298996
 21
8.106517635
  0
LINE
  5
2CE
100
AcDbEntity
  8
0
100
AcDbLine
 62
4
  6
CONTINUOUS
 10
10.7620298996
 20
8.106517635
 11
10.7620298996
 21
8.3383398419
  0
LINE
  5
2CF
100
AcDbEntity
  8
0
100
AcDbLine
 62
4
  6
CONTINUOUS
 10
10.7923875641
 20
9.0085189306
 11
10.7923875641
 21
8.7766967237
  0
LINE
  5
2D0
100
AcDbEntity
  8
0
100
AcDbLine
 62
4
  6
CONTINUOUS
 10
10.8006669653
 20
7.6269467499
 11
10.8006669653
 21
7.792534041
  0
LINE
  5
2D1
100
AcDbEntity
  8
0
100
AcDbLine
 62
4
  6
CONTINUOUS
 10
10.869661633
 20
8.8872488523
 11
10.869661633
 21
8.7713377489
  0
LINE
  5
2D2
100
AcDbEntity
  8
0
100
AcDbLine
 62
4
  6
CONTINUOUS
 10
10.8724214201
 20
8.0988619571
 11
10.8724214201
 21
8.3306841639
  0
LINE
  5
2D3
100
AcDbEntity
  8
0
100
AcDbLine
 62
4
  6
CONTINUOUS
 10
10.993852064
 20
7.6135493178
 11
10.993852064
 21
7.7791366089
  0
LINE
  5
2D4
100
AcDbEntity
  8
0
100
AcDbLine
 62
4
  6
CONTINUOUS
 10
9.961691299
 20
7.68512991
 11
9.9285738428
 21
7.6543091538
  0
LINE
  5
2D5
100
AcDbEntity
  8
0
100
AcDbLine
 62
4
  6
CONTINUOUS
 10
12.7097504432
 20
9.7390871681
 11
12.6517948915
 21
9.7044693671
  0
LINE
  5
2D6
100
AcDbEntity
  8
0
100
AcDbLine
 62
4
  6
CONTINUOUS
 10
10.4805315016
 20
8.3578618221
 11
10.579883877
 21
8.3509717115
  0
LINE
  5
2D7
100
AcDbEntity
  8
0
100
AcDbLine
 62
4
  6
CONTINUOUS
 10
11.7003578797
 20
6.0419777649
 11
11.7728023193
 21
5.8051315191
  0
LINE
  5
2D8
100
AcDbEntity
  8
0
100
AcDbLine
 62
4
  6
CONTINUOUS
 10
11.5264912245
 20
5.9960799067
 11
11.5409801124
 21
5.9371195472
  0
LINE
  5
2D9
100
AcDbEntity
  8
0
100
AcDbLine
 62
4
  6
CONTINUOUS
 10
11.0628468054
 20
8.7579403116
 11
11.0628468054
 21
8.8352143806
  0
LINE
  5
2DA
100
AcDbEntity
  8
0
100
AcDbLine
 62
4
  6
CONTINUOUS
 10
11.1097631674
 20
7.7710981466
 11
11.1097631674
 21
7.6055108555
  0
LINE
  5
2DB
100
AcDbEntity
  8
0
100
AcDbLine
 62
4
  6
CONTINUOUS
 10
11.1759980521
 20
7.567799991
 11
11.1759980521
 21
7.7996221979
  0
LINE
  5
2DC
100
AcDbEntity
  8
0
100
AcDbLine
 62
4
  6
CONTINUOUS
 10
11.1787579088
 20
8.8658129528
 11
11.1787579088
 21
8.7499018493
  0
LINE
  5
2DD
100
AcDbEntity
  8
0
100
AcDbLine
 62
4
  6
CONTINUOUS
 10
11.2560319778
 20
8.8604539779
 11
11.2560319778
 21
8.7445428744
  0
LINE
  5
2DE
100
AcDbEntity
  8
0
100
AcDbLine
 62
4
  6
CONTINUOUS
 10
11.2919091555
 20
7.7584662794
 11
11.2919091555
 21
7.5928789883
  0
LINE
  5
2DF
100
AcDbEntity
  8
0
100
AcDbLine
 62
7
  6
CONTINUOUS
 10
11.2928680376
 20
5.5398967104
 11
11.2928680376
 21
4.6986982589
  0
LINE
  5
2E0
100
AcDbEntity
  8
0
100
AcDbLine
 62
4
  6
CONTINUOUS
 10
9.8016235942
 20
7.8066221739
 11
9.7133103709
 21
7.7685901016
  0
LINE
  5
2E1
100
AcDbEntity
  8
0
100
AcDbLine
 62
4
  6
CONTINUOUS
 10
10.5992023917
 20
8.6741830575
 11
10.5219283227
 21
8.6795420324
  0
LINE
  5
2E2
100
AcDbEntity
  8
0
100
AcDbLine
 62
4
  6
CONTINUOUS
 10
11.9128615639
 20
8.6989915879
 11
11.7969504605
 21
8.7070300503
  0
LINE
  5
2E3
100
AcDbEntity
  8
0
100
AcDbLine
 62
4
  6
CONTINUOUS
 10
11.1787579088
 20
8.7499018493
 11
11.0628468054
 21
8.7579403116
  0
LINE
  5
2E4
100
AcDbEntity
  8
0
100
AcDbLine
 62
4
  6
CONTINUOUS
 10
10.7923875641
 20
8.7766967237
 11
10.6764764606
 21
8.7847351861
  0
LINE
  5
2E5
100
AcDbEntity
  8
0
100
AcDbLine
 62
4
  6
CONTINUOUS
 10
10.5992023917
 20
8.7900941609
 11
10.4832912882
 21
8.7981326233
  0
LINE
  5
2E6
100
AcDbEntity
  8
0
100
AcDbLine
 62
4
  6
CONTINUOUS
 10
9.8670305862
 20
8.8408704481
 11
9.7511194828
 21
8.8489089104
  0
LINE
  5
2E7
100
AcDbEntity
  8
0
100
AcDbLine
 62
4
  6
CONTINUOUS
 10
9.6931639311
 20
8.8529281416
 11
9.5772528276
 21
8.8609666039
  0
LINE
  5
2E8
100
AcDbEntity
  8
0
100
AcDbLine
 62
4
  6
CONTINUOUS
 10
11.2560319778
 20
8.7445428744
 11
11.3719430812
 21
8.7365044121
  0
LINE
  5
2E9
100
AcDbEntity
  8
0
100
AcDbLine
 62
4
  6
CONTINUOUS
 10
11.6037652881
 20
8.7204274875
 11
11.7196763915
 21
8.7123890251
  0
LINE
  5
2EA
100
AcDbEntity
  8
0
100
AcDbLine
 62
4
  6
CONTINUOUS
 10
11.7969504605
 20
8.764985602
 11
11.9128615639
 21
8.7569471396
  0
LINE
  5
2EB
100
AcDbEntity
  8
0
100
AcDbLine
 62
4
  6
CONTINUOUS
 10
11.0628468054
 20
8.8352143806
 11
11.1787579088
 21
8.8271759183
  0
LINE
  5
2EC
100
AcDbEntity
  8
0
100
AcDbLine
 62
4
  6
CONTINUOUS
 10
11.3719430812
 20
8.7365044121
 11
11.3719430812
 21
8.8524155155
  0
LINE
  5
2ED
100
AcDbEntity
  8
0
100
AcDbLine
 62
4
  6
CONTINUOUS
 10
11.3857420377
 20
7.5532541962
 11
11.3857420377
 21
7.7850764031
  0
LINE
  5
2EE
100
AcDbEntity
  8
0
100
AcDbLine
 62
7
  6
CONTINUOUS
 10
11.4072869284
 20
5.5319617334
 11
11.4072869284
 21
4.6907632819
  0
LINE
  5
2EF
100
AcDbEntity
  8
0
100
AcDbLine
 62
4
  6
CONTINUOUS
 10
11.4105801211
 20
5.8302517139
 11
11.4105801211
 21
6.0620739207
  0
LINE
  5
2F0
100
AcDbEntity
  8
0
100
AcDbLine
 62
4
  6
CONTINUOUS
 10
11.4492171502
 20
8.7311454372
 11
11.4492171502
 21
8.9629676441
  0
LINE
  5
2F1
100
AcDbEntity
  8
0
100
AcDbLine
 62
4
  6
CONTINUOUS
 10
11.5264912191
 20
8.7257864623
 11
11.5264912191
 21
8.8416975658
  0
LINE
  5
2F2
100
AcDbEntity
  8
0
100
AcDbLine
 62
4
  6
CONTINUOUS
 10
11.6037652881
 20
8.8363385909
 11
11.6037652881
 21
8.7204274875
  0
LINE
  5
2F3
100
AcDbEntity
  8
0
100
AcDbLine
 62
4
  6
CONTINUOUS
 10
10.9179579315
 20
5.9803262822
 11
10.9324468194
 21
6.0372770261
  0
LINE
  5
2F4
100
AcDbEntity
  8
0
100
AcDbLine
 62
4
  6
CONTINUOUS
 10
12.6083282277
 20
9.8040763744
 11
12.6228171156
 21
9.8223900931
  0
LINE
  5
2F5
100
AcDbEntity
  8
0
100
AcDbLine
 62
4
  6
CONTINUOUS
 10
12.6517948915
 20
9.7044693671
 11
12.6228171156
 21
9.6678419505
  0
LINE
  5
2F6
100
AcDbEntity
  8
0
100
AcDbLine
 62
4
  6
CONTINUOUS
 10
12.7242393311
 20
9.7574008868
 11
12.7097504432
 21
9.7390871681
  0
LINE
  5
2F7
100
AcDbEntity
  8
0
100
AcDbLine
 62
4
  6
CONTINUOUS
 10
10.8006669653
 20
7.792534041
 11
10.8337844076
 21
7.8233547947
  0
LINE
  5
2F8
100
AcDbEntity
  8
0
100
AcDbLine
 62
4
  6
CONTINUOUS
 10
10.993852064
 20
7.7791366089
 11
11.0269695063
 21
7.8099573626
  0
LINE
  5
2F9
100
AcDbEntity
  8
0
100
AcDbLine
 62
4
  6
CONTINUOUS
 10
11.1787579088
 20
8.8658129528
 11
11.1014838399
 21
8.8711719276
  0
LINE
  5
2FA
100
AcDbEntity
  8
0
100
AcDbLine
 62
4
  6
CONTINUOUS
 10
10.3886305516
 20
8.9206084711
 11
10.2727194482
 21
8.9286469334
  0
LINE
  5
2FB
100
AcDbEntity
  8
0
100
AcDbLine
 62
4
  6
CONTINUOUS
 10
9.5772528276
 20
8.9768777074
 11
9.6931639311
 21
8.968839245
  0
LINE
  5
2FC
100
AcDbEntity
  8
0
100
AcDbLine
 62
4
  6
CONTINUOUS
 10
10.6764764606
 20
8.9006462895
 11
10.7923875641
 21
8.8926078272
  0
LINE
  5
2FD
100
AcDbEntity
  8
0
100
AcDbLine
 62
4
  6
CONTINUOUS
 10
10.869661633
 20
8.8872488523
 11
10.9855727364
 21
8.87921039
  0
LINE
  5
2FE
100
AcDbEntity
  8
0
100
AcDbLine
 62
4
  6
CONTINUOUS
 10
11.6037652881
 20
8.8363385909
 11
11.7196763915
 21
8.8283001286
  0
LINE
  5
2FF
100
AcDbEntity
  8
0
100
AcDbLine
 62
4
  6
CONTINUOUS
 10
11.7969504605
 20
8.8229411537
 11
11.9128615639
 21
8.8149026914
  0
LINE
  5
300
100
AcDbEntity
  8
0
100
AcDbLine
 62
4
  6
CONTINUOUS
 10
11.5120023312
 20
8.9006579253
 11
11.540980107
 21
8.8986483097
  0
LINE
  5
301
100
AcDbEntity
  8
0
100
AcDbLine
 62
4
  6
CONTINUOUS
 10
9.6931639311
 20
9.0847503485
 11
9.5772528276
 21
9.0927888108
  0
LINE
  5
302
100
AcDbEntity
  8
0
100
AcDbLine
 62
4
  6
CONTINUOUS
 10
9.9249861379
 20
9.0686734238
 11
10.0408972414
 21
9.0606349615
  0
LINE
  5
303
100
AcDbEntity
  8
0
100
AcDbLine
 62
4
  6
CONTINUOUS
 10
11.7969504605
 20
8.8229411537
 11
11.7969504605
 21
8.764985602
  0
LINE
  5
304
100
AcDbEntity
  8
0
100
AcDbLine
 62
4
  6
CONTINUOUS
 10
11.9128615639
 20
8.7569471396
 11
11.9128615639
 21
8.6989915879
  0
LINE
  5
305
100
AcDbEntity
  8
0
100
AcDbLine
 62
4
  6
CONTINUOUS
 10
11.1097631674
 20
7.6055108555
 11
11.0766457251
 21
7.5746900983
  0
LINE
  5
306
100
AcDbEntity
  8
0
100
AcDbLine
 62
4
  6
CONTINUOUS
 10
11.2919091555
 20
7.5928789883
 11
11.2587917132
 21
7.5620582311
  0
LINE
  5
307
100
AcDbEntity
  8
0
100
AcDbLine
 62
7
  6
CONTINUOUS
 10
12.2511387863
 20
5.590483162
 11
12.2511387863
 21
4.7492847105
  0
LINE
  5
308
100
AcDbEntity
  8
0
100
AcDbLine
 62
4
  6
CONTINUOUS
 10
11.5409801124
 20
5.9371195472
 11
11.5264912245
 21
5.8801688033
  0
LINE
  5
309
100
AcDbEntity
  8
0
100
AcDbLine
 62
4
  6
CONTINUOUS
 10
12.6228171156
 20
9.6678419505
 11
12.6083282277
 21
9.6108912066
  0
LINE
  5
30A
100
AcDbEntity
  8
0
100
AcDbLine
 62
4
  6
CONTINUOUS
 10
11.6396424658
 20
7.6349985171
 11
11.5513292494
 21
7.5969664478
  0
LINE
  5
30B
100
AcDbEntity
  8
0
100
AcDbLine
 62
4
  6
CONTINUOUS
 10
12.6083282277
 20
9.6108912066
 11
12.7242393311
 21
9.6028527443
  0
LINE
  5
30C
100
AcDbEntity
  8
0
100
AcDbLine
 62
7
  6
CONTINUOUS
 10
12.3348992042
 20
5.6121619451
 11
12.3348992042
 21
4.7709634936
  0
LINE
  5
30D
100
AcDbEntity
  8
0
100
AcDbLine
 62
7
  6
CONTINUOUS
 10
12.5610084549
 20
5.6306944304
 11
12.5610084549
 21
4.9893682713
  0
LINE
  5
30E
100
AcDbEntity
  8
0
100
AcDbLine
 62
4
  6
CONTINUOUS
 10
11.62791344
 20
5.815179597
 11
11.7003578797
 21
6.0419777649
  0
LINE
  5
30F
100
AcDbEntity
  8
0
100
AcDbLine
 62
4
  6
CONTINUOUS
 10
11.1787579142
 20
5.8463286385
 11
11.2946690177
 21
6.0701123831
  0
LINE
  5
310
100
AcDbEntity
  8
0
100
AcDbLine
 62
4
  6
CONTINUOUS
 10
10.9324468194
 20
6.0372770261
 11
10.9614245953
 21
6.0739044496
  0
LINE
  5
311
100
AcDbEntity
  8
0
100
AcDbLine
 62
4
  6
CONTINUOUS
 10
12.6517948915
 20
9.8396989901
 11
12.6807726673
 21
9.8376893745
  0
LINE
  5
312
100
AcDbEntity
  8
0
100
AcDbLine
 62
4
  6
CONTINUOUS
 10
12.7242393311
 20
9.7960379121
 11
12.7242393311
 21
9.7574008868
  0
LINE
  5
313
100
AcDbEntity
  8
0
100
AcDbLine
 62
4
  6
CONTINUOUS
 10
11.0628468108
 20
5.8930041365
 11
11.0483579229
 21
5.8746904265
  0
LINE
  5
314
100
AcDbEntity
  8
0
100
AcDbLine
 62
7
  6
CONTINUOUS
 10
13.0912911694
 20
5.5939191992
 11
13.0912911694
 21
11.3894745003
  0
LINE
  5
315
100
AcDbEntity
  8
0
100
AcDbLine
 62
4
  6
CONTINUOUS
 10
11.5264912245
 20
5.8801688033
 11
11.4975134487
 21
5.8435413849
  0
LINE
  5
316
100
AcDbEntity
  8
0
100
AcDbLine
 62
4
  6
CONTINUOUS
 10
10.9614245953
 20
6.0739044496
 11
10.9904023711
 21
6.0912133467
  0
LINE
  5
317
100
AcDbEntity
  8
0
100
AcDbLine
 62
4
  6
CONTINUOUS
 10
12.6807726673
 20
9.8376893745
 11
12.7097504432
 21
9.8163612463
  0
LINE
  5
318
100
AcDbEntity
  8
0
100
AcDbLine
 62
4
  6
CONTINUOUS
 10
12.7097504432
 20
9.8163612463
 11
12.7242393311
 21
9.7960379121
  0
LINE
  5
319
100
AcDbEntity
  8
0
100
AcDbLine
 62
4
  6
CONTINUOUS
 10
11.0483579229
 20
5.8746904265
 11
11.019380147
 21
5.8573815242
  0
LINE
  5
31A
100
AcDbEntity
  8
0
100
AcDbLine
 62
4
  6
CONTINUOUS
 10
11.4975134487
 20
5.8435413849
 11
11.4685356728
 21
5.8262324827
  0
LINE
  5
31B
100
AcDbEntity
  8
0
100
AcDbLine
 62
7
  6
CONTINUOUS
 10
13.7383382482
 20
6.2189187204
 11
13.7383382482
 21
12.0144740216
  0
LINE
  5
31C
100
AcDbEntity
  8
0
100
AcDbLine
 62
7
  6
CONTINUOUS
 10
13.0912911694
 20
11.3894745003
 11
8.2616617518
 21
11.724410438
  0
LINE
  5
31D
100
AcDbEntity
  8
0
100
AcDbLine
 62
7
  6
CONTINUOUS
 10
13.7383382482
 20
6.2189187204
 11
13.0912911694
 21
5.5939191992
  0
LINE
  5
31E
100
AcDbEntity
  8
0
100
AcDbLine
 62
7
  6
CONTINUOUS
 10
13.7383382482
 20
12.0144740216
 11
8.9087088306
 21
12.3494099593
  0
LINE
  5
31F
100
AcDbEntity
  8
0
100
AcDbLine
 62
7
  6
CONTINUOUS
 10
12.3971161258
 20
4.7857808867
 11
12.3645103817
 21
4.7696742735
  0
ARC
  5
320
100
AcDbEntity
  8
0
100
AcDbCircle
 62
7
  6
CONTINUOUS
 10
11.5924626739
 20
8.2003217149
 40
3.5144402757
100
AcDbArc
 50
266.0376720962
 51
266.9796885983
  0
ARC
  5
321
100
AcDbEntity
  8
0
100
AcDbCircle
 62
7
  6
CONTINUOUS
 10
11.5924626739
 20
9.0415201663
 40
3.5144402757
100
AcDbArc
 50
266.0376720962
 51
266.9796885983
  0
ARC
  5
322
100
AcDbEntity
  8
0
100
AcDbCircle
 62
7
  6
CONTINUOUS
 10
11.5820950746
 20
8.0482364586
 40
3.3620021461
100
AcDbArc
 50
265.0648462661
 51
266.0348369886
  0
ARC
  5
323
100
AcDbEntity
  8
0
100
AcDbCircle
 62
7
  6
CONTINUOUS
 10
11.5798997236
 20
8.8612266305
 40
3.3337095895
100
AcDbArc
 50
265.0607301035
 51
266.0389531511
  0
ARC
  5
324
100
AcDbEntity
  8
0
100
AcDbCircle
 62
7
  6
CONTINUOUS
 10
11.4484244596
 20
10.1618779154
 40
1.7697741294
100
AcDbArc
 50
359.9918235663
 51
1.3297664509
  0
ARC
  5
325
100
AcDbEntity
  8
0
100
AcDbCircle
 62
7
  6
CONTINUOUS
 10
12.2529528745
 20
5.1188171811
 40
1.7204739976
100
AcDbArc
 50
158.0101016106
 51
159.2133818387
  0
ARC
  5
326
100
AcDbEntity
  8
0
100
AcDbCircle
 62
7
  6
CONTINUOUS
 10
13.8824321932
 20
5.0254580894
 40
1.6550165456
100
AcDbArc
 50
157.9863052277
 51
159.2371781952
  0
ARC
  5
327
100
AcDbEntity
  8
0
100
AcDbCircle
 62
7
  6
CONTINUOUS
 10
11.3049344781
 20
5.8334766947
 40
1.159267388
100
AcDbArc
 50
243.6664579456
 51
246.4394383889
  0
SPLINE
  5
328
100
AcDbEntity
  8
0
100
AcDbSpline
 62
7
  6
CONTINUOUS
 70
0
 71
3
 72
23
 73
19
 74
0
 42
0.0000001
 43
0.0000001
 44
0.0000000001
 40
0.0
 40
0.0
 40
0.0
 40
0.0
 40
0.0771591088
 40
0.153151303
 40
0.2277613898
 40
0.3008118635
 40
0.3721337705
 40
0.4415569994
 40
0.508915912
 40
0.5740562277
 40
0.6368307546
 40
0.6971028067
 40
0.7547446115
 40
0.8096420695
 40
0.8616928899
 40
0.9108117328
 40
0.9569295723
 40
1.0
 40
1.0
 40
1.0
 40
1.0
 10
11.3801535111
 20
4.6579760312
 30
0.0
 10
11.3659521248
 20
4.6589609007
 30
0.0
 10
11.3377775273
 20
4.6611154455
 30
0.0
 10
11.2959288279
 20
4.6649322709
 30
0.0
 10
11.2548963945
 20
4.6693028988
 30
0.0
 10
11.2147930613
 20
4.6742145034
 30
0.0
 10
11.1757238148
 20
4.6796545505
 30
0.0
 10
11.1377918812
 20
4.6856077891
 30
0.0
 10
11.1010987174
 20
4.6920590951
 30
0.0
 10
11.0657421361
 20
4.6989902477
 30
0.0
 10
11.0318160044
 20
4.7063834082
 30
0.0
 10
10.9994103416
 20
4.7142179026
 30
0.0
 10
10.9686111789
 20
4.7224734913
 30
0.0
 10
10.9394999598
 20
4.7311271685
 30
0.0
 10
10.9121536863
 20
4.7401564945
 30
0.0
 10
10.8866438756
 20
4.749536583
 30
0.0
 10
10.8630382397
 20
4.7592429503
 30
0.0
 10
10.8480962359
 20
4.7661517065
 30
0.0
 10
10.8409717548
 20
4.769670988
 30
0.0
  0
SPLINE
  5
329
100
AcDbEntity
  8
0
100
AcDbSpline
 62
7
  6
CONTINUOUS
 70
0
 71
3
 72
11
 73
7
 74
0
 42
0.0000001
 43
0.0000001
 44
0.0000000001
 40
0.0
 40
0.0
 40
0.0
 40
0.0
 40
0.2706838103
 40
0.527147417
 40
0.7699959294
 40
1.0
 40
1.0
 40
1.0
 40
1.0
 10
10.6751254304
 20
4.8585816079
 30
0.0
 10
10.6720781823
 20
4.8609425782
 30
0.0
 10
10.6662513898
 20
4.8656821754
 30
0.0
 10
10.6581273886
 20
4.87305613
 30
0.0
 10
10.6508675235
 20
4.880492983
 30
0.0
 10
10.6464943634
 20
4.885622684
 30
0.0
 10
10.6444669575
 20
4.8881953681
 30
0.0
  0
SPLINE
  5
32A
100
AcDbEntity
  8
0
100
AcDbSpline
 62
7
  6
CONTINUOUS
 70
0
 71
3
 72
23
 73
19
 74
0
 42
0.0000001
 43
0.0000001
 44
0.0000000001
 40
0.0
 40
0.0
 40
0.0
 40
0.0
 40
0.080971538
 40
0.1598879644
 40
0.2366109899
 40
0.3110079654
 40
0.3829545068
 40
0.4523386671
 40
0.5190634269
 40
0.5830595163
 40
0.6442826854
 40
0.70272999
 40
0.758431804
 40
0.811469128
 40
0.8619597678
 40
0.9100718893
 40
0.9560057306
 40
1.0
 40
1.0
 40
1.0
 40
1.0
 10
12.5610084549
 20
4.9893682713
 30
0.0
 10
12.5577123273
 20
4.9830123706
 30
0.0
 10
12.5511141969
 20
4.9705080018
 30
0.0
 10
12.5410521516
 20
4.952163519
 30
0.0
 10
12.5309476572
 20
4.9345088766
 30
0.0
 10
12.5208025944
 20
4.9175919513
 30
0.0
 10
12.5106184703
 20
4.9014605741
 30
0.0
 10
12.5003990211
 20
4.8861604976
 30
0.0
 10
12.4901467026
 20
4.8717361608
 30
0.0
 10
12.479867366
 20
4.8582266404
 30
0.0
 10
12.4695642472
 20
4.845667764
 30
0.0
 10
12.4592449208
 20
4.8340864874
 30
0.0
 10
12.4489131496
 20
4.8235052676
 30
0.0
 10
12.4385774798
 20
4.8139347951
 30
0.0
 10
12.4282420516
 20
4.805381064
 30
0.0
 10
12.417915276
 20
4.7978368719
 30
0.0
 10
12.4076023419
 20
4.7912915262
 30
0.0
 10
12.4006020876
 20
4.787502916
 30
0.0
 10
12.3971143283
 20
4.7857799987
 30
0.0
  0
SPLINE
  5
32B
100
AcDbEntity
  8
0
100
AcDbSpline
 62
7
  6
CONTINUOUS
 70
0
 71
3
 72
9
 73
5
 74
0
 42
0.0000001
 43
0.0000001
 44
0.0000000001
 40
0.0
 40
0.0
 40
0.0
 40
0.0
 40
0.4960083102
 40
1.0
 40
1.0
 40
1.0
 40
1.0
 10
10.7906881768
 20
4.7945100839
 30
0.0
 10
10.7710960855
 20
4.804188609
 30
0.0
 10
10.7321028406
 20
4.8247375867
 30
0.0
 10
10.6940720859
 20
4.8470038889
 30
0.0
 10
10.6751254304
 20
4.8585816079
 30
0.0
  0
SPLINE
  5
32C
100
AcDbEntity
  8
0
100
AcDbSpline
 62
7
  6
CONTINUOUS
 70
0
 71
3
 72
30
 73
26
 74
0
 42
0.0000001
 43
0.0000001
 44
0.0000000001
 40
0.0
 40
0.0
 40
0.0
 40
0.0
 40
0.0193648516
 40
0.0398589858
 40
0.061469503
 40
0.0841791322
 40
0.1079647721
 40
0.1327996946
 40
0.1586534104
 40
0.1854915569
 40
0.2132776379
 40
0.2419713852
 40
0.2715308561
 40
0.3019113755
 40
0.333066161
 40
0.3649469428
 40
0.4306813696
 40
0.4986954582
 40
0.5685475621
 40
0.6397796875
 40
0.7119215783
 40
0.784496127
 40
0.8570190166
 40
0.9290157221
 40
1.0
 40
1.0
 40
1.0
 40
1.0
 10
12.3645059342
 20
4.7696721766
 30
0.0
 10
12.3587243879
 20
4.766816231
 30
0.0
 10
12.3467003639
 20
4.761186075
 30
0.0
 10
12.3278579914
 20
4.753179484
 30
0.0
 10
12.3077281717
 20
4.7453840795
 30
0.0
 10
12.2863463992
 20
4.7378148141
 30
0.0
 10
12.263750308
 20
4.7304843834
 30
0.0
 10
12.2399797077
 20
4.7234062132
 30
0.0
 10
12.2150766018
 20
4.7165930683
 30
0.0
 10
12.1890851022
 20
4.7100566296
 30
0.0
 10
12.1620512068
 20
4.7038093295
 30
0.0
 10
12.1340229241
 20
4.6978615911
 30
0.0
 10
12.1050499645
 20
4.6922246211
 30
0.0
 10
12.0751838128
 20
4.6869082717
 30
0.0
 10
12.0444774627
 20
4.681921879
 30
0.0
 10
12.0020553667
 20
4.6756621444
 30
0.0
 10
11.9473281224
 20
4.6687540753
 30
0.0
 10
11.8798612995
 20
4.6619867561
 30
0.0
 10
11.8104257013
 20
4.6567088189
 30
0.0
 10
11.7395148114
 20
4.6529583979
 30
0.0
 10
11.6676319649
 20
4.6507624588
 30
0.0
 10
11.5952886062
 20
4.6501370852
 30
0.0
 10
11.5229969954
 20
4.6510862698
 30
0.0
 10
11.451273171
 20
4.6536039246
 30
0.0
 10
11.4037345261
 20
4.6563406823
 30
0.0
 10
11.3801535111
 20
4.6579760312
 30
0.0
  0
SPLINE
  5
32D
100
AcDbEntity
  8
0
100
AcDbSpline
 62
7
  6
CONTINUOUS
 70
0
 71
3
 72
28
 73
24
 74
0
 42
0.0000001
 43
0.0000001
 44
0.0000000001
 40
0.0
 40
0.0
 40
0.0
 40
0.0
 40
0.1268659191
 40
0.1901463679
 40
0.25330733
 40
0.2848402857
 40
0.3163394042
 40
0.3792283979
 40
0.4106187434
 40
0.4419710208
 40
0.4732845857
 40
0.5045591139
 40
0.5357943787
 40
0.5669902228
 40
0.5981469641
 40
0.629265076
 40
0.6913849328
 40
0.7223910769
 40
0.7533616145
 40
0.8151995131
 40
0.8769107384
 40
0.9385080012
 40
1.0
 40
1.0
 40
1.0
 40
1.0
 10
12.2511387863
 20
4.7492847105
 30
0.0
 10
12.2167399162
 20
4.738028859
 30
0.0
 10
12.1647828929
 20
4.7223288343
 30
0.0
 10
12.0948018514
 20
4.7042705237
 30
0.0
 10
12.0508419618
 20
4.6942992836
 30
0.0
 10
12.0155523384
 20
4.6871677345
 30
0.0
 10
11.9802278523
 20
4.6806251816
 30
0.0
 10
11.9447841323
 20
4.6749722103
 30
0.0
 10
11.909252893
 20
4.670255794
 30
0.0
 10
11.8825932418
 20
4.6671948404
 30
0.0
 10
11.855915954
 20
4.6646154656
 30
0.0
 10
11.8292296184
 20
4.6625217123
 30
0.0
 10
11.8025432695
 20
4.6609134403
 30
0.0
 10
11.7758656891
 20
4.659792034
 30
0.0
 10
11.7492055096
 20
4.6591546716
 30
0.0
 10
11.7137161013
 20
4.6589423404
 30
0.0
 10
11.6782694284
 20
4.6596763788
 30
0.0
 10
11.6429028246
 20
4.6613206954
 30
0.0
 10
11.6076489614
 20
4.6635546259
 30
0.0
 10
11.5637278411
 20
4.6674222355
 30
0.0
 10
11.5112716182
 20
4.6736797116
 30
0.0
 10
11.4591159061
 20
4.6814292142
 30
0.0
 10
11.4245263378
 20
4.6875133943
 30
0.0
 10
11.4072869284
 20
4.6907632819
 30
0.0
  0
SPLINE
  5
32E
100
AcDbEntity
  8
0
100
AcDbSpline
 62
7
  6
CONTINUOUS
 70
0
 71
3
 72
27
 73
23
 74
0
 42
0.0000001
 43
0.0000001
 44
0.0000000001
 40
0.0
 40
0.0
 40
0.0
 40
0.0
 40
0.060919931
 40
0.1219725003
 40
0.1831790974
 40
0.2445697664
 40
0.306172584
 40
0.368014351
 40
0.3990356526
 40
0.4301246832
 40
0.4612823654
 40
0.4925098844
 40
0.5238069761
 40
0.5551729231
 40
0.5866065737
 40
0.6181055251
 40
0.681282706
 40
0.744686725
 40
0.8082887534
 40
0.8720589913
 40
0.9359723153
 40
1.0
 40
1.0
 40
1.0
 40
1.0
 10
12.2511387863
 20
5.590483162
 30
0.0
 10
12.2345083381
 20
5.5967575902
 30
0.0
 10
12.2009747633
 20
5.6087059733
 30
0.0
 10
12.1499143782
 20
5.6245524635
 30
0.0
 10
12.0980417596
 20
5.6380693136
 30
0.0
 10
12.0453886972
 20
5.6489707772
 30
0.0
 10
11.9920268835
 20
5.6569729731
 30
0.0
 10
11.9471078871
 20
5.6610037781
 30
0.0
 10
11.9109702455
 20
5.6625503249
 30
0.0
 10
11.8837541493
 20
5.6628512688
 30
0.0
 10
11.856482338
 20
5.662280201
 30
0.0
 10
11.8291824744
 20
5.6608258981
 30
0.0
 10
11.8018827754
 20
5.6584917411
 30
0.0
 10
11.7746121233
 20
5.6552783836
 30
0.0
 10
11.7473976159
 20
5.6512009272
 30
0.0
 10
11.7111894759
 20
5.6446268122
 30
0.0
 10
11.6661986169
 20
5.6343383432
 30
0.0
 10
11.6128629639
 20
5.6189313883
 30
0.0
 10
11.56023662
 20
5.6007272703
 30
0.0
 10
11.5083890696
 20
5.5800187395
 30
0.0
 10
11.4573507431
 20
5.557094761
 30
0.0
 10
11.4238886278
 20
5.5405279826
 30
0.0
 10
11.4072869284
 20
5.5319617334
 30
0.0
  0
SPLINE
  5
32F
100
AcDbEntity
  8
0
100
AcDbSpline
 62
7
  6
CONTINUOUS
 70
0
 71
3
 72
15
 73
11
 74
0
 42
0.0000001
 43
0.0000001
 44
0.0000000001
 40
0.0
 40
0.0
 40
0.0
 40
0.0
 40
0.1200543119
 40
0.2408745055
 40
0.3627723785
 40
0.4861015007
 40
0.611221097
 40
0.7384475142
 40
0.8680059215
 40
1.0
 40
1.0
 40
1.0
 40
1.0
 10
11.2928680376
 20
4.6986982589
 30
0.0
 10
11.2744511817
 20
4.6969775382
 30
0.0
 10
11.2374050446
 20
4.6944489249
 30
0.0
 10
11.1814844165
 20
4.6937781187
 30
0.0
 10
11.1251176022
 20
4.6965936069
 30
0.0
 10
11.0683994325
 20
4.7032227255
 30
0.0
 10
11.0114641575
 20
4.71389958
 30
0.0
 10
10.954473882
 20
4.7287251812
 30
0.0
 10
10.8975984242
 20
4.7476466868
 30
0.0
 10
10.86019772
 20
4.7627240278
 30
0.0
 10
10.8415542299
 20
4.7708480567
 30
0.0
  0
SPLINE
  5
330
100
AcDbEntity
  8
0
100
AcDbSpline
 62
7
  6
CONTINUOUS
 70
0
 71
3
 72
30
 73
26
 74
0
 42
0.0000001
 43
0.0000001
 44
0.0000000001
 40
0.0
 40
0.0
 40
0.0
 40
0.0
 40
0.071178206
 40
0.1063864824
 40
0.1413173684
 40
0.2102772599
 40
0.2779404401
 40
0.3112551436
 40
0.3442083408
 40
0.4089957047
 40
0.4408350868
 40
0.4723063752
 40
0.5034184842
 40
0.534184955
 40
0.5646245079
 40
0.5947586506
 40
0.6246138194
 40
0.6542175698
 40
0.6836000373
 40
0.7127918723
 40
0.7707116392
 40
0.8282172138
 40
0.8855033008
 40
0.9427270794
 40
1.0
 40
1.0
 40
1.0
 40
1.0
 10
11.2928680376
 20
5.5398967104
 30
0.0
 10
11.2807866107
 20
5.5503946799
 30
0.0
 10
11.2624711276
 20
5.5657938067
 30
0.0
 10
11.2375737029
 20
5.5855421518
 30
0.0
 10
11.2126760983
 20
5.6044774111
 30
0.0
 10
11.1812135634
 20
5.6268228392
 30
0.0
 10
11.1489714353
 20
5.6473698562
 30
0.0
 10
11.1228942843
 20
5.6624435609
 30
0.0
 10
11.0969401442
 20
5.6764083045
 30
0.0
 10
11.0706193725
 20
5.6889703026
 30
0.0
 10
11.0439848601
 20
5.6999522191
 30
0.0
 10
11.0240602686
 20
5.7073035195
 30
0.0
 10
11.0040935347
 20
5.7137976692
 30
0.0
 10
10.9841035407
 20
5.7194163404
 30
0.0
 10
10.9641125838
 20
5.7241549004
 30
0.0
 10
10.9441405078
 20
5.7280065839
 30
0.0
 10
10.9242087544
 20
5.7309789401
 30
0.0
 10
10.9043365301
 20
5.7330803471
 30
0.0
 10
10.8845417605
 20
5.7343270794
 30
0.0
 10
10.8583461816
 20
5.7348789064
 30
0.0
 10
10.8258157158
 20
5.7335603362
 30
0.0
 10
10.7872154496
 20
5.7289795874
 30
0.0
 10
10.7491989365
 20
5.7216846983
 30
0.0
 10
10.7117914575
 20
5.7119610579
 30
0.0
 10
10.687275978
 20
5.7040485121
 30
0.0
 10
10.6751254304
 20
5.6997800594
 30
0.0
  0
SPLINE
  5
331
100
AcDbEntity
  8
0
100
AcDbSpline
 62
7
  6
CONTINUOUS
 70
0
 71
3
 72
15
 73
11
 74
0
 42
0.0000001
 43
0.0000001
 44
0.0000000001
 40
0.0
 40
0.0
 40
0.0
 40
0.0
 40
0.1340175358
 40
0.2644724274
 40
0.3918735456
 40
0.5167249534
 40
0.6395193915
 40
0.760718379
 40
0.8807495477
 40
1.0
 40
1.0
 40
1.0
 40
1.0
 10
12.3971143283
 20
4.7857799987
 30
0.0
 10
12.3945302679
 20
4.7845034994
 30
0.0
 10
12.3893599904
 20
4.7821246301
 30
0.0
 10
12.3815103321
 20
4.7790452736
 30
0.0
 10
12.3736815944
 20
4.7764899917
 30
0.0
 10
12.3658758036
 20
4.7744407333
 30
0.0
 10
12.3580945794
 20
4.7728771717
 30
0.0
 10
12.350338981
 20
4.7717791767
 30
0.0
 10
12.3426103058
 20
4.7711259607
 30
0.0
 10
12.3374637652
 20
4.7709726195
 30
0.0
 10
12.3348992042
 20
4.7709634936
 30
0.0
  0
SPLINE
  5
332
100
AcDbEntity
  8
0
100
AcDbSpline
 62
7
  6
CONTINUOUS
 70
0
 71
3
 72
15
 73
11
 74
0
 42
0.0000001
 43
0.0000001
 44
0.0000000001
 40
0.0
 40
0.0
 40
0.0
 40
0.0
 40
0.1097867181
 40
0.2247132299
 40
0.3444131583
 40
0.4684947016
 40
0.5965354434
 40
0.7281039141
 40
0.8627644476
 40
1.0
 40
1.0
 40
1.0
 40
1.0
 10
11.0165999325
 20
5.7376825042
 30
0.0
 10
11.029721223
 20
5.7344847292
 30
0.0
 10
11.0566741959
 20
5.7283290867
 30
0.0
 10
11.0982111801
 20
5.7199600593
 30
0.0
 10
11.1416654521
 20
5.7122666201
 30
0.0
 10
11.1868714247
 20
5.7052791116
 30
0.0
 10
11.2336576029
 20
5.6990235198
 30
0.0
 10
11.2818485374
 20
5.6935242382
 30
0.0
 10
11.3312579355
 20
5.6888030503
 30
0.0
 10
11.3646061241
 20
5.6862072793
 30
0.0
 10
11.3814476052
 20
5.6850393186
 30
0.0
  0
SPLINE
  5
333
100
AcDbEntity
  8
0
100
AcDbSpline
 62
7
  6
CONTINUOUS
 70
0
 71
3
 72
15
 73
11
 74
0
 42
0.0000001
 43
0.0000001
 44
0.0000000001
 40
0.0
 40
0.0
 40
0.0
 40
0.0
 40
0.1238190299
 40
0.2488653922
 40
0.3746972357
 40
0.5008688785
 40
0.6269279472
 40
0.7524308765
 40
0.8769490408
 40
1.0
 40
1.0
 40
1.0
 40
1.0
 10
11.7991138702
 20
5.6834149783
 30
0.0
 10
11.7818957596
 20
5.6823633614
 30
0.0
 10
11.7472703847
 20
5.6805416568
 30
0.0
 10
11.6951003857
 20
5.6786532043
 30
0.0
 10
11.6425789213
 20
5.6775991381
 30
0.0
 10
11.5899062893
 20
5.677384026
 30
0.0
 10
11.5372827369
 20
5.6780079494
 30
0.0
 10
11.4849061464
 20
5.6794690688
 30
0.0
 10
11.4329789707
 20
5.6817620267
 30
0.0
 10
11.3985497178
 20
5.683853283
 30
0.0
 10
11.3814476052
 20
5.6850393186
 30
0.0
  0
SPLINE
  5
334
100
AcDbEntity
  8
0
100
AcDbSpline
 62
7
  6
CONTINUOUS
 70
0
 71
3
 72
9
 73
5
 74
0
 42
0.0000001
 43
0.0000001
 44
0.0000000001
 40
0.0
 40
0.0
 40
0.0
 40
0.0
 40
0.4867517019
 40
1.0
 40
1.0
 40
1.0
 40
1.0
 10
12.3348992042
 20
5.6121619451
 30
0.0
 10
12.3214234105
 20
5.6082236015
 30
0.0
 10
12.2936008195
 20
5.6005982774
 30
0.0
 10
12.265568343
 20
5.5937905555
 30
0.0
 10
12.2511387863
 20
5.590483162
 30
0.0
  0
SPLINE
  5
335
100
AcDbEntity
  8
0
100
AcDbSpline
 62
7
  6
CONTINUOUS
 70
0
 71
3
 72
11
 73
7
 74
0
 42
0.0000001
 43
0.0000001
 44
0.0000000001
 40
0.0
 40
0.0
 40
0.0
 40
0.0
 40
0.2300040706
 40
0.472852583
 40
0.7293161897
 40
1.0
 40
1.0
 40
1.0
 40
1.0
 10
10.6444669575
 20
5.7293938196
 30
0.0
 10
10.6464943634
 20
5.7268211355
 30
0.0
 10
10.6508675235
 20
5.7216914345
 30
0.0
 10
10.6581273886
 20
5.7142545815
 30
0.0
 10
10.6662513898
 20
5.7068806269
 30
0.0
 10
10.6720781823
 20
5.7021410297
 30
0.0
 10
10.6751254304
 20
5.6997800594
 30
0.0
  0
SPLINE
  5
336
100
AcDbEntity
  8
0
100
AcDbSpline
 62
7
  6
CONTINUOUS
 70
0
 71
3
 72
9
 73
5
 74
0
 42
0.0000001
 43
0.0000001
 44
0.0000000001
 40
0.0
 40
0.0
 40
0.0
 40
0.0
 40
0.4867517019
 40
1.0
 40
1.0
 40
1.0
 40
1.0
 10
12.3348992042
 20
4.7709634936
 30
0.0
 10
12.3214234105
 20
4.76702515
 30
0.0
 10
12.2936008195
 20
4.7593998259
 30
0.0
 10
12.265568343
 20
4.752592104
 30
0.0
 10
12.2511387863
 20
4.7492847105
 30
0.0
  0
SPLINE
  5
337
100
AcDbEntity
  8
0
100
AcDbSpline
 62
7
  6
CONTINUOUS
 70
0
 71
3
 72
23
 73
19
 74
0
 42
0.0000001
 43
0.0000001
 44
0.0000000001
 40
0.0
 40
0.0
 40
0.0
 40
0.0
 40
0.063775992
 40
0.1273452426
 40
0.190702051
 40
0.2538559967
 40
0.3168132418
 40
0.3795820857
 40
0.4421733813
 40
0.504599339
 40
0.5668738627
 40
0.6290123824
 40
0.6910316504
 40
0.7529496423
 40
0.8147853556
 40
0.8765586046
 40
0.9382898526
 40
1.0
 40
1.0
 40
1.0
 40
1.0
 10
12.8797534009
 20
6.091552335
 30
0.0
 10
12.8797534009
 20
6.0872169308
 30
0.0
 10
12.8795458544
 20
6.0785587084
 30
0.0
 10
12.8786092888
 20
6.0656240715
 30
0.0
 10
12.8770498233
 20
6.0527919096
 30
0.0
 10
12.874871198
 20
6.0400924924
 30
0.0
 10
12.8720783575
 20
6.0275547465
 30
0.0
 10
12.868677726
 20
6.015207655
 30
0.0
 10
12.8646770856
 20
6.0030797004
 30
0.0
 10
12.8600856322
 20
5.9911988388
 30
0.0
 10
12.8549139781
 20
5.9795924537
 30
0.0
 10
12.8491739792
 20
5.968287334
 30
0.0
 10
12.8428788386
 20
5.9573095716
 30
0.0
 10
12.8360431108
 20
5.946684452
 30
0.0
 10
12.8286825407
 20
5.9364365246
 30
0.0
 10
12.8208139734
 20
5.9265893829
 30
0.0
 10
12.8124559247
 20
5.9171660045
 30
0.0
 10
12.8065692962
 20
5.9111796589
 30
0.0
 10
12.8035520443
 20
5.9082652169
 30
0.0
  0
SPLINE
  5
338
100
AcDbEntity
  8
0
100
AcDbSpline
 62
7
  6
CONTINUOUS
 70
0
 71
3
 72
23
 73
19
 74
0
 42
0.0000001
 43
0.0000001
 44
0.0000000001
 40
0.0
 40
0.0
 40
0.0
 40
0.0
 40
0.063775992
 40
0.1273452426
 40
0.190702051
 40
0.2538559967
 40
0.3168132418
 40
0.3795820857
 40
0.4421733813
 40
0.504599339
 40
0.5668738627
 40
0.6290123824
 40
0.6910316504
 40
0.7529496423
 40
0.8147853556
 40
0.8765586046
 40
0.9382898526
 40
1.0
 40
1.0
 40
1.0
 40
1.0
 10
9.0160498668
 20
6.3595010852
 30
0.0
 10
9.0160498668
 20
6.355165681
 30
0.0
 10
9.0158423203
 20
6.3465074586
 30
0.0
 10
9.0149057548
 20
6.3335728217
 30
0.0
 10
9.0133462892
 20
6.3207406597
 30
0.0
 10
9.0111676639
 20
6.3080412426
 30
0.0
 10
9.0083748234
 20
6.2955034967
 30
0.0
 10
9.0049741919
 20
6.2831564052
 30
0.0
 10
9.0009735515
 20
6.2710284505
 30
0.0
 10
8.9963820981
 20
6.259147589
 30
0.0
 10
8.991210444
 20
6.2475412039
 30
0.0
 10
8.9854704451
 20
6.2362360841
 30
0.0
 10
8.9791753046
 20
6.2252583218
 30
0.0
 10
8.9723395767
 20
6.2146332022
 30
0.0
 10
8.9649790066
 20
6.2043852748
 30
0.0
 10
8.9571104393
 20
6.1945381331
 30
0.0
 10
8.9487523906
 20
6.1851147547
 30
0.0
 10
8.9428657621
 20
6.1791284091
 30
0.0
 10
8.9398485102
 20
6.1762139671
 30
0.0
  0
SPLINE
  5
339
100
AcDbEntity
  8
0
100
AcDbSpline
 62
7
  6
CONTINUOUS
 70
0
 71
3
 72
61
 73
57
 74
0
 42
0.0000001
 43
0.0000001
 44
0.0000000001
 40
0.0
 40
0.0
 40
0.0
 40
0.0
 40
0.041773683
 40
0.0840361744
 40
0.126657356
 40
0.1695049536
 40
0.2124461739
 40
0.255347734
 40
0.2980765393
 40
0.3405001682
 40
0.3824874064
 40
0.4239087759
 40
0.4646370687
 40
0.5045478875
 40
0.5435201962
 40
0.5814368877
 40
0.5999642174
 40
0.6181858165
 40
0.6360884225
 40
0.6536591429
 40
0.6708854449
 40
0.6877552479
 40
0.7042568506
 40
0.7203790744
 40
0.7361111744
 40
0.7514429752
 40
0.7663648323
 40
0.7808677049
 40
0.7949432137
 40
0.8085836306
 40
0.8217820383
 40
0.8345322654
 40
0.8468291079
 40
0.8586682842
 40
0.8700466517
 40
0.8809622685
 40
0.8914145636
 40
0.9014045599
 40
0.9109350136
 40
0.9200108095
 40
0.9286391477
 40
0.9368300847
 40
0.9445968849
 40
0.951956666
 40
0.9589309937
 40
0.9655465745
 40
0.9718360038
 40
0.977838309
 40
0.9807467497
 40
0.9836012173
 40
0.9864085083
 40
0.9891758169
 40
0.9919106779
 40
0.9946209207
 40
0.9973146171
 40
1.0
 40
1.0
 40
1.0
 40
1.0
 10
13.1601369786
 20
9.7656041532
 30
0.0
 10
13.1601369786
 20
9.7839615816
 30
0.0
 10
13.1604233728
 20
9.8208918221
 30
0.0
 10
13.1616894809
 20
9.8765388771
 30
0.0
 10
13.1637908978
 20
9.9326330051
 30
0.0
 10
13.1667207467
 20
9.9889885717
 30
0.0
 10
13.1704693387
 20
10.0454190863
 30
0.0
 10
13.1750242857
 20
10.1017378729
 30
0.0
 10
13.1803704985
 20
10.1577586018
 30
0.0
 10
13.1864902552
 20
10.2132959427
 30
0.0
 10
13.1933632529
 20
10.2681661723
 30
0.0
 10
13.2009666741
 20
10.3221877949
 30
0.0
 10
13.2092752622
 20
10.37518213
 30
0.0
 10
13.2182613981
 20
10.4269739774
 30
0.0
 10
13.2278952167
 20
10.4773919641
 30
0.0
 10
13.2365011718
 20
10.5184326606
 30
0.0
 10
13.2436953952
 20
10.5504464786
 30
0.0
 10
13.2491910521
 20
10.5738262658
 30
0.0
 10
13.2548235677
 20
10.5967407968
 30
0.0
 10
13.260588278
 20
10.619171138
 30
0.0
 10
13.2664804324
 20
10.6410987326
 30
0.0
 10
13.2724950956
 20
10.6625054544
 30
0.0
 10
13.27862734
 20
10.6833735999
 30
0.0
 10
13.2848720183
 20
10.703685927
 30
0.0
 10
13.2912240065
 20
10.7234256447
 30
0.0
 10
13.2976779975
 20
10.7425764511
 30
0.0
 10
13.3042286582
 20
10.7611225294
 30
0.0
 10
13.3108705632
 20
10.7790485706
 30
0.0
 10
13.3175981767
 20
10.7963397921
 30
0.0
 10
13.3244059774
 20
10.812981929
 30
0.0
 10
13.3312882581
 20
10.8289612882
 30
0.0
 10
13.3382394014
 20
10.8442647036
 30
0.0
 10
13.3452535881
 20
10.8588796187
 30
0.0
 10
13.3523250912
 20
10.8727940266
 30
0.0
 10
13.3594480515
 20
10.8859965449
 30
0.0
 10
13.3666166329
 20
10.8984763878
 30
0.0
 10
13.3738250027
 20
10.9102233802
 30
0.0
 10
13.3810672552
 20
10.9212280118
 30
0.0
 10
13.3883376397
 20
10.931481345
 30
0.0
 10
13.3956302776
 20
10.9409751724
 30
0.0
 10
13.4029395535
 20
10.9497018151
 30
0.0
 10
13.4102597752
 20
10.9576543298
 30
0.0
 10
13.4175855319
 20
10.964826266
 30
0.0
 10
13.4249115076
 20
10.9712117792
 30
0.0
 10
13.4322325334
 20
10.9768054521
 30
0.0
 10
13.4395438602
 20
10.9816021993
 30
0.0
 10
13.446839953
 20
10.9855970523
 30
0.0
 10
13.4529678422
 20
10.988281794
 30
0.0
 10
13.4578436594
 20
10.9900069884
 30
0.0
 10
13.4614540762
 20
10.9910847501
 30
0.0
 10
13.4650552226
 20
10.9919594243
 30
0.0
 10
13.4686463781
 20
10.9926308365
 30
0.0
 10
13.4722267159
 20
10.9930987648
 30
0.0
 10
13.4757954707
 20
10.9933629899
 30
0.0
 10
13.4793516501
 20
10.9934234424
 30
0.0
 10
13.4817150935
 20
10.9933278161
 30
0.0
 10
13.482892356
 20
10.9932461676
 30
0.0
  0
SPLINE
  5
33A
100
AcDbEntity
  8
0
100
AcDbSpline
 62
7
  6
CONTINUOUS
 70
0
 71
3
 72
55
 73
51
 74
0
 42
0.0000001
 43
0.0000001
 44
0.0000000001
 40
0.0
 40
0.0
 40
0.0
 40
0.0
 40
0.0481975415
 40
0.0958290817
 40
0.142818713
 40
0.1890963521
 40
0.2345910715
 40
0.279234315
 40
0.3229593385
 40
0.3657013756
 40
0.4073979227
 40
0.4479889149
 40
0.4874169784
 40
0.525627636
 40
0.5625695632
 40
0.5981948995
 40
0.6324596307
 40
0.6653239472
 40
0.681220104
 40
0.69675341
 40
0.7119202568
 40
0.7267175098
 40
0.7411423279
 40
0.7551923488
 40
0.7688656914
 40
0.782160877
 40
0.7950770786
 40
0.8076139743
 40
0.8197718786
 40
0.8315518771
 40
0.8429557109
 40
0.8539860605
 40
0.8646465134
 40
0.8749416424
 40
0.8848772785
 40
0.8944604376
 40
0.9036996141
 40
0.912604918
 40
0.921188144
 40
0.9294631376
 40
0.9374458256
 40
0.9451544636
 40
0.952609859
 40
0.9598353745
 40
0.966857131
 40
0.9737039172
 40
0.9804070573
 40
0.9870002114
 40
0.9935188976
 40
1.0
 40
1.0
 40
1.0
 40
1.0
 10
9.8112311026
 20
11.7211795822
 30
0.0
 10
9.7999518742
 20
11.7219617994
 30
0.0
 10
9.7775343845
 20
11.7236429639
 30
0.0
 10
9.7441557662
 20
11.7265336453
 30
0.0
 10
9.7112618167
 20
11.729774896
 30
0.0
 10
9.6789079517
 20
11.7333611602
 30
0.0
 10
9.6471479635
 20
11.7372864942
 30
0.0
 10
9.6160350572
 20
11.7415442733
 30
0.0
 10
9.5856212109
 20
11.7461273385
 30
0.0
 10
9.5559572497
 20
11.7510279893
 30
0.0
 10
9.527092746
 20
11.7562379921
 30
0.0
 10
9.4990759129
 20
11.7617485916
 30
0.0
 10
9.471953526
 20
11.7675505107
 30
0.0
 10
9.4457708439
 20
11.773633991
 30
0.0
 10
9.420571553
 20
11.7799888046
 30
0.0
 10
9.3963976163
 20
11.7866042745
 30
0.0
 10
9.3732894072
 20
11.7934692719
 30
0.0
 10
9.3547527508
 20
11.7994528287
 30
0.0
 10
9.3404920543
 20
11.8043637667
 30
0.0
 10
9.330205342
 20
11.8080612571
 30
0.0
 10
9.3202129474
 20
11.8118123826
 30
0.0
 10
9.3105190112
 20
11.8156155356
 30
0.0
 10
9.3011275859
 20
11.8194691643
 30
0.0
 10
9.2920425818
 20
11.8233716552
 30
0.0
 10
9.2832677688
 20
11.8273213429
 30
0.0
 10
9.2748068172
 20
11.8313166436
 30
0.0
 10
9.2666632237
 20
11.8353558378
 30
0.0
 10
9.2588403743
 20
11.8394372671
 30
0.0
 10
9.2513415263
 20
11.843559266
 30
0.0
 10
9.2441697585
 20
11.8477200686
 30
0.0
 10
9.2373280674
 20
11.8519180254
 30
0.0
 10
9.2308192632
 20
11.8561513758
 30
0.0
 10
9.2246460215
 20
11.8604183769
 30
0.0
 10
9.2188109243
 20
11.8647173542
 30
0.0
 10
9.2133163303
 20
11.8690464996
 30
0.0
 10
9.2081645373
 20
11.8734041334
 30
0.0
 10
9.2033576775
 20
11.8777885251
 30
0.0
 10
9.1988977077
 20
11.8821979089
 30
0.0
 10
9.1947865681
 20
11.8866306503
 30
0.0
 10
9.1910259522
 20
11.8910849824
 30
0.0
 10
9.1876175189
 20
11.8955592328
 30
0.0
 10
9.1845628563
 20
11.9000517334
 30
0.0
 10
9.1818633301
 20
11.9045607124
 30
0.0
 10
9.1795204021
 20
11.9090844913
 30
0.0
 10
9.1775353075
 20
11.9136212339
 30
0.0
 10
9.1759092035
 20
11.9181690628
 30
0.0
 10
9.1746432612
 20
11.9227259913
 30
0.0
 10
9.1737382592
 20
11.9272899673
 30
0.0
 10
9.1731949841
 20
11.9318583994
 30
0.0
 10
9.1730741305
 20
11.9349092887
 30
0.0
 10
9.1730741335
 20
11.9364296446
 30
0.0
  0
SPLINE
  5
33B
100
AcDbEntity
  8
0
100
AcDbSpline
 62
7
  6
CONTINUOUS
 70
0
 71
3
 72
39
 73
35
 74
0
 42
0.0000001
 43
0.0000001
 44
0.0000000001
 40
0.0
 40
0.0
 40
0.0
 40
0.0
 40
0.0299424718
 40
0.0599093198
 40
0.0899243266
 40
0.120010106
 40
0.1501875647
 40
0.1804754164
 40
0.2108897604
 40
0.2414437366
 40
0.2721472601
 40
0.3030068419
 40
0.3340254933
 40
0.365202712
 40
0.3965345466
 40
0.4280137318
 40
0.4596298892
 40
0.491369784
 40
0.5232176323
 40
0.5551554498
 40
0.5871634345
 40
0.6192203774
 40
0.651304093
 40
0.6833918636
 40
0.7154608911
 40
0.7474887497
 40
0.7794538335
 40
0.8113357936
 40
0.8431159524
 40
0.8747777124
 40
0.906306864
 40
0.9376920822
 40
0.9689247084
 40
1.0
 40
1.0
 40
1.0
 40
1.0
 10
12.413104411
 20
6.3124862526
 30
0.0
 10
12.4177661075
 20
6.3169891063
 30
0.0
 10
12.4274560602
 20
6.3256314147
 30
0.0
 10
12.4429808746
 20
6.3374050295
 30
0.0
 10
12.4594162211
 20
6.3479298742
 30
0.0
 10
12.4766702658
 20
6.3571469074
 30
0.0
 10
12.4946481471
 20
6.3650057746
 30
0.0
 10
12.513250647
 20
6.3714632759
 30
0.0
 10
12.5323752545
 20
6.3764840798
 30
0.0
 10
12.5519166068
 20
6.380040775
 30
0.0
 10
12.5717671128
 20
6.3821140417
 30
0.0
 10
12.5918175392
 20
6.3826927338
 30
0.0
 10
12.6119576139
 20
6.3817739278
 30
0.0
 10
12.6320766281
 20
6.3793629249
 30
0.0
 10
12.6520640403
 20
6.3754732106
 30
0.0
 10
12.6718100752
 20
6.3701263715
 30
0.0
 10
12.6912063199
 20
6.3633519695
 30
0.0
 10
12.7101463095
 20
6.3551873749
 30
0.0
 10
12.7285261038
 20
6.3456775585
 30
0.0
 10
12.7462448506
 20
6.3348748445
 30
0.0
 10
12.7632053309
 20
6.3228386227
 30
0.0
 10
12.7793144857
 20
6.3096350233
 30
0.0
 10
12.7944839207
 20
6.295336557
 30
0.0
 10
12.8086303856
 20
6.2800217201
 30
0.0
 10
12.8216762261
 20
6.2637745678
 30
0.0
 10
12.8335498062
 20
6.2466842572
 30
0.0
 10
12.8441858983
 20
6.228844565
 30
0.0
 10
12.8535260359
 20
6.2103533744
 30
0.0
 10
12.8615188413
 20
6.191312158
 30
0.0
 10
12.8681202851
 20
6.1718253841
 30
0.0
 10
12.8732939818
 20
6.152000108
 30
0.0
 10
12.8770112775
 20
6.1319448087
 30
0.0
 10
12.8792516177
 20
6.1117710579
 30
0.0
 10
12.8797534009
 20
6.0982788319
 30
0.0
 10
12.8797534009
 20
6.091552335
 30
0.0
  0
SPLINE
  5
33C
100
AcDbEntity
  8
0
100
AcDbSpline
 62
7
  6
CONTINUOUS
 70
0
 71
3
 72
39
 73
35
 74
0
 42
0.0000001
 43
0.0000001
 44
0.0000000001
 40
0.0
 40
0.0
 40
0.0
 40
0.0
 40
0.0299424718
 40
0.0599093198
 40
0.0899243266
 40
0.120010106
 40
0.1501875647
 40
0.1804754164
 40
0.2108897604
 40
0.2414437366
 40
0.2721472601
 40
0.3030068419
 40
0.3340254933
 40
0.365202712
 40
0.3965345466
 40
0.4280137318
 40
0.4596298892
 40
0.491369784
 40
0.5232176323
 40
0.5551554498
 40
0.5871634345
 40
0.6192203774
 40
0.651304093
 40
0.6833918636
 40
0.7154608911
 40
0.7474887497
 40
0.7794538335
 40
0.8113357936
 40
0.8431159524
 40
0.8747777124
 40
0.906306864
 40
0.9376920822
 40
0.9689247084
 40
1.0
 40
1.0
 40
1.0
 40
1.0
 10
8.5494008769
 20
6.5804350027
 30
0.0
 10
8.5540625734
 20
6.5849378565
 30
0.0
 10
8.5637525261
 20
6.5935801649
 30
0.0
 10
8.5792773405
 20
6.6053537797
 30
0.0
 10
8.595712687
 20
6.6158786244
 30
0.0
 10
8.6129667317
 20
6.6250956576
 30
0.0
 10
8.630944613
 20
6.6329545248
 30
0.0
 10
8.6495471129
 20
6.6394120261
 30
0.0
 10
8.6686717204
 20
6.64443283
 30
0.0
 10
8.6882130727
 20
6.6479895252
 30
0.0
 10
8.7080635787
 20
6.6500627919
 30
0.0
 10
8.7281140051
 20
6.650641484
 30
0.0
 10
8.7482540798
 20
6.649722678
 30
0.0
 10
8.7683730941
 20
6.6473116751
 30
0.0
 10
8.7883605062
 20
6.6434219608
 30
0.0
 10
8.8081065412
 20
6.6380751216
 30
0.0
 10
8.8275027858
 20
6.6313007196
 30
0.0
 10
8.8464427754
 20
6.6231361251
 30
0.0
 10
8.8648225697
 20
6.6136263086
 30
0.0
 10
8.8825413165
 20
6.6028235947
 30
0.0
 10
8.8995017968
 20
6.5907873728
 30
0.0
 10
8.9156109516
 20
6.5775837734
 30
0.0
 10
8.9307803866
 20
6.5632853072
 30
0.0
 10
8.9449268515
 20
6.5479704703
 30
0.0
 10
8.957972692
 20
6.531723318
 30
0.0
 10
8.9698462721
 20
6.5146330074
 30
0.0
 10
8.9804823642
 20
6.4967933151
 30
0.0
 10
8.9898225019
 20
6.4783021246
 30
0.0
 10
8.9978153072
 20
6.4592609082
 30
0.0
 10
9.004416751
 20
6.4397741342
 30
0.0
 10
9.0095904477
 20
6.4199488582
 30
0.0
 10
9.0133077434
 20
6.3998935588
 30
0.0
 10
9.0155480836
 20
6.379719808
 30
0.0
 10
9.0160498668
 20
6.366227582
 30
0.0
 10
9.0160498668
 20
6.3595010852
 30
0.0
  0
SPLINE
  5
33D
100
AcDbEntity
  8
0
100
AcDbSpline
 62
7
  6
CONTINUOUS
 70
0
 71
3
 72
61
 73
57
 74
0
 42
0.0000001
 43
0.0000001
 44
0.0000000001
 40
0.0
 40
0.0
 40
0.0
 40
0.0
 40
0.0027758433
 40
0.0055595941
 40
0.0083590873
 40
0.0111820092
 40
0.0140358402
 40
0.0169278032
 40
0.0228516385
 40
0.0290063602
 40
0.0354367082
 40
0.0387681006
 40
0.0421822872
 40
0.0492730731
 40
0.0567370731
 40
0.064596108
 40
0.072867737
 40
0.081565694
 40
0.09070057
 40
0.1002800962
 40
0.110309688
 40
0.1207926208
 40
0.131730418
 40
0.1431229861
 40
0.1549688512
 40
0.1672653029
 40
0.1800084954
 40
0.1931936241
 40
0.2068149163
 40
0.2208658417
 40
0.235339028
 40
0.2502264837
 40
0.2655194851
 40
0.2812087772
 40
0.2972844765
 40
0.3137362206
 40
0.3305531169
 40
0.3477238252
 40
0.3652365653
 40
0.3830791312
 40
0.4012389558
 40
0.4197030683
 40
0.4574902793
 40
0.4963311237
 40
0.5361109391
 40
0.5767111052
 40
0.6180096092
 40
0.6598815936
 40
0.7021998921
 40
0.7448355581
 40
0.7876583843
 40
0.8305374341
 40
0.8733415137
 40
0.9159398405
 40
0.9582021223
 40
1.0
 40
1.0
 40
1.0
 40
1.0
 10
10.8950740994
 20
11.9364291901
 30
0.0
 10
10.8950740973
 20
11.9353653279
 30
0.0
 10
10.8950150756
 20
11.9332341043
 30
0.0
 10
10.894749599
 20
11.9300398993
 30
0.0
 10
10.8943072098
 20
11.9268470629
 30
0.0
 10
10.893688097
 20
11.9236564619
 30
0.0
 10
10.8928923932
 20
11.9204686938
 30
0.0
 10
10.891586086
 20
11.9161895038
 30
0.0
 10
10.8894955912
 20
11.9108355663
 30
0.0
 10
10.8863039781
 20
11.9044902497
 30
0.0
 10
10.8830999898
 20
11.8992905839
 30
0.0
 10
10.8802046052
 20
11.8951521718
 30
0.0
 10
10.8770034027
 20
11.8909231218
 30
0.0
 10
10.8725525705
 20
11.8856602744
 30
0.0
 10
10.8665920683
 20
11.8794672981
 30
0.0
 10
10.8599511193
 20
11.8733228758
 30
0.0
 10
10.8526352511
 20
11.8672317699
 30
0.0
 10
10.8446503343
 20
11.8611982878
 30
0.0
 10
10.8360026782
 20
11.8552271338
 30
0.0
 10
10.8266992243
 20
11.8493228133
 30
0.0
 10
10.8167473621
 20
11.8434900591
 30
0.0
 10
10.8061551008
 20
11.8377334365
 30
0.0
 10
10.794930941
 20
11.8320576174
 30
0.0
 10
10.7830839514
 20
11.8264671588
 30
0.0
 10
10.7706237161
 20
11.8209666059
 30
0.0
 10
10.7575603386
 20
11.815560457
 30
0.0
 10
10.7439044424
 20
11.8102530928
 30
0.0
 10
10.7296671324
 20
11.8050489108
 30
0.0
 10
10.7148600229
 20
11.7999521102
 30
0.0
 10
10.6994951823
 20
11.7949669483
 30
0.0
 10
10.6835851666
 20
11.7900974378
 30
0.0
 10
10.6671429664
 20
11.7853476583
 30
0.0
 10
10.6501820305
 20
11.7807214375
 30
0.0
 10
10.6327162262
 20
11.776222643
 30
0.0
 10
10.6147598473
 20
11.771854919
 30
0.0
 10
10.5963275885
 20
11.7676218946
 30
0.0
 10
10.5774345401
 20
11.7635270257
 30
0.0
 10
10.5580961729
 20
11.7595736859
 30
0.0
 10
10.5383283228
 20
11.7557651316
 30
0.0
 10
10.518147187
 20
11.7521044755
 30
0.0
 10
10.4975692793
 20
11.7485947412
 30
0.0
 10
10.4694089946
 20
11.7440855286
 30
0.0
 10
10.4333386701
 20
11.7388576376
 30
0.0
 10
10.3890726517
 20
11.7332762531
 30
0.0
 10
10.3436435524
 20
11.7283582713
 30
0.0
 10
10.2972002652
 20
11.72411992
 30
0.0
 10
10.2498948646
 20
11.7205752093
 30
0.0
 10
10.2018823233
 20
11.7177358449
 30
0.0
 10
10.1533199356
 20
11.7156112029
 30
0.0
 10
10.1043668151
 20
11.7142082982
 30
0.0
 10
10.0551833615
 20
11.7135317607
 30
0.0
 10
10.0059307415
 20
11.7135838267
 30
0.0
 10
9.9567703301
 20
11.7143643172
 30
0.0
 10
9.9078632363
 20
11.7158706708
 30
0.0
 10
9.8593697866
 20
11.7180978866
 30
0.0
 10
9.8272120608
 20
11.720071299
 30
0.0
 10
9.8112311026
 20
11.7211795822
 30
0.0
  0
SPLINE
  5
33E
100
AcDbEntity
  8
0
100
AcDbSpline
 62
7
  6
CONTINUOUS
 70
0
 71
3
 72
55
 73
51
 74
0
 42
0.0000001
 43
0.0000001
 44
0.0000000001
 40
0.0
 40
0.0
 40
0.0
 40
0.0
 40
0.0063157967
 40
0.0126705064
 40
0.0191022577
 40
0.0256477311
 40
0.0323415292
 40
0.039215794
 40
0.0462999396
 40
0.0536204765
 40
0.0612011269
 40
0.0690627967
 40
0.077223814
 40
0.0857001286
 40
0.0945054138
 40
0.1036514395
 40
0.1131481141
 40
0.1230037529
 40
0.1332252839
 40
0.1438182539
 40
0.1547871578
 40
0.1661353969
 40
0.1778654436
 40
0.1899790024
 40
0.2024769158
 40
0.215359436
 40
0.2286261423
 40
0.2422760211
 40
0.2563076146
 40
0.2707188714
 40
0.2855073776
 40
0.3006702734
 40
0.3162042724
 40
0.3321058142
 40
0.3649946654
 40
0.3993021056
 40
0.4349881404
 40
0.4720086211
 40
0.5103156623
 40
0.5498579758
 40
0.5905811562
 40
0.6324279171
 40
0.6753383233
 40
0.7192500409
 40
0.7640984978
 40
0.8098171101
 40
0.8563375432
 40
0.9035891104
 40
0.9515016896
 40
1.0
 40
1.0
 40
1.0
 40
1.0
 10
13.3467370616
 20
9.0299617619
 30
0.0
 10
13.3450739202
 20
9.0300771083
 30
0.0
 10
13.3417452518
 20
9.0304446619
 30
0.0
 10
13.33678956
 20
9.0314026853
 30
0.0
 10
13.3318669831
 20
9.0327672674
 30
0.0
 10
13.326980398
 20
9.0345375233
 30
0.0
 10
13.3221318794
 20
9.0367121398
 30
0.0
 10
13.3173235223
 20
9.0392897708
 30
0.0
 10
13.3125572711
 20
9.042268972
 30
0.0
 10
13.3078348722
 20
9.0456480695
 30
0.0
 10
13.3031581446
 20
9.0494255052
 30
0.0
 10
13.2985287426
 20
9.0535994709
 30
0.0
 10
13.2939483552
 20
9.0581681421
 30
0.0
 10
13.2894187183
 20
9.0631296158
 30
0.0
 10
13.2849414361
 20
9.0684817634
 30
0.0
 10
13.2805182799
 20
9.0742224483
 30
0.0
 10
13.2761509011
 20
9.0803492983
 30
0.0
 10
13.271840985
 20
9.086859826
 30
0.0
 10
13.2675902846
 20
9.0937514226
 30
0.0
 10
13.2634004044
 20
9.1010212532
 30
0.0
 10
13.259273089
 20
9.1086663999
 30
0.0
 10
13.255209972
 20
9.1166837397
 30
0.0
 10
13.2512126763
 20
9.1250700023
 30
0.0
 10
13.2472828904
 20
9.1338217887
 30
0.0
 10
13.2434221442
 20
9.1429354996
 30
0.0
 10
13.2396320724
 20
9.1524074246
 30
0.0
 10
13.2359142167
 20
9.1622336789
 30
0.0
 10
13.2322700741
 20
9.1724102288
 30
0.0
 10
13.2287012067
 20
9.1829329123
 30
0.0
 10
13.2252090207
 20
9.1937973941
 30
0.0
 10
13.2217949956
 20
9.2049992184
 30
0.0
 10
13.2184605448
 20
9.2165337749
 30
0.0
 10
13.2152069882
 20
9.2283963272
 30
0.0
 10
13.2109306449
 20
9.2448286679
 30
0.0
 10
13.2058087478
 20
9.2661594312
 30
0.0
 10
13.2000729412
 20
9.2927060613
 30
0.0
 10
13.1946902345
 20
9.320438189
 30
0.0
 10
13.1896695763
 20
9.349310104
 30
0.0
 10
13.1850193335
 20
9.3792743594
 30
0.0
 10
13.1807472556
 20
9.4102816293
 30
0.0
 10
13.1768604696
 20
9.4422808581
 30
0.0
 10
13.1733654533
 20
9.4752193218
 30
0.0
 10
13.1702680234
 20
9.5090427293
 30
0.0
 10
13.167573344
 20
9.5436953142
 30
0.0
 10
13.1652859085
 20
9.5791199373
 30
0.0
 10
13.1634095356
 20
9.6152582065
 30
0.0
 10
13.1619473747
 20
9.6520503951
 30
0.0
 10
13.1609018144
 20
9.6894361069
 30
0.0
 10
13.1602746867
 20
9.7273532566
 30
0.0
 10
13.1601369786
 20
9.7528023949
 30
0.0
 10
13.1601369786
 20
9.7656041532
 30
0.0
  0
SPLINE
  5
33F
100
AcDbEntity
  8
0
100
AcDbSpline
 62
7
  6
CONTINUOUS
 70
0
 71
3
 72
51
 73
47
 74
0
 42
0.0000001
 43
0.0000001
 44
0.0000000001
 40
0.0
 40
0.0
 40
0.0
 40
0.0
 40
0.0063396096
 40
0.0128069396
 40
0.0194315486
 40
0.0262407626
 40
0.0332594175
 40
0.0405099132
 40
0.0480123017
 40
0.0557842366
 40
0.0638412318
 40
0.072196883
 40
0.0808628532
 40
0.0898491663
 40
0.0991644441
 40
0.1088158504
 40
0.1188093494
 40
0.1291499225
 40
0.1398414629
 40
0.150886983
 40
0.1622888116
 40
0.1740484524
 40
0.1861667434
 40
0.1986440426
 40
0.211480067
 40
0.2246740089
 40
0.2521296966
 40
0.2809973068
 40
0.3112562963
 40
0.3428809072
 40
0.3758407581
 40
0.4101015212
 40
0.4456251143
 40
0.4823700872
 40
0.5202920569
 40
0.5593437547
 40
0.5994753343
 40
0.6406346759
 40
0.6827673919
 40
0.7258170545
 40
0.7697254855
 40
0.8144328907
 40
0.8598773702
 40
0.9059959849
 40
0.9527270034
 40
1.0
 40
1.0
 40
1.0
 40
1.0
 10
13.3018451747
 20
9.4008877509
 30
0.0
 10
13.3008540979
 20
9.4011788178
 30
0.0
 10
13.298873383
 20
9.4018423456
 30
0.0
 10
13.2959491323
 20
9.4030623069
 30
0.0
 10
13.2930472936
 20
9.4045147522
 30
0.0
 10
13.290169222
 20
9.4061989146
 30
0.0
 10
13.2873158483
 20
9.4081139088
 30
0.0
 10
13.2844881657
 20
9.4102588473
 30
0.0
 10
13.28168718
 20
9.4126328686
 30
0.0
 10
13.2789137986
 20
9.4152349438
 30
0.0
 10
13.2761689481
 20
9.4180640364
 30
0.0
 10
13.2734536206
 20
9.4211191045
 30
0.0
 10
13.2707687169
 20
9.4243989493
 30
0.0
 10
13.2681151622
 20
9.42790233
 30
0.0
 10
13.2654939508
 20
9.4316279771
 30
0.0
 10
13.2629059885
 20
9.4355744751
 30
0.0
 10
13.2603521944
 20
9.4397403445
 30
0.0
 10
13.257833552
 20
9.444124065
 30
0.0
 10
13.2553509593
 20
9.4487239829
 30
0.0
 10
13.2529053141
 20
9.4535383707
 30
0.0
 10
13.2504975729
 20
9.4585654528
 30
0.0
 10
13.2481286125
 20
9.463803334
 30
0.0
 10
13.2457992955
 20
9.4692500409
 30
0.0
 10
13.2435105451
 20
9.4749035459
 30
0.0
 10
13.2412631867
 20
9.4807617249
 30
0.0
 10
13.2382834587
 20
9.4889514661
 30
0.0
 10
13.2346769498
 20
9.4996907991
 30
0.0
 10
13.2305828413
 20
9.5131926584
 30
0.0
 10
13.2266732603
 20
9.5274545469
 30
0.0
 10
13.222954147
 20
9.5424549539
 30
0.0
 10
13.219431136
 20
9.5581713779
 30
0.0
 10
13.2161096378
 20
9.5745801619
 30
0.0
 10
13.2129947152
 20
9.591656579
 30
0.0
 10
13.2100910999
 20
9.6093748645
 30
0.0
 10
13.2074032622
 20
9.6277082736
 30
0.0
 10
13.2049352941
 20
9.6466291095
 30
0.0
 10
13.2026909469
 20
9.6661087755
 30
0.0
 10
13.2006736823
 20
9.6861178257
 30
0.0
 10
13.1988865651
 20
9.7066259973
 30
0.0
 10
13.1973323117
 20
9.727602266
 30
0.0
 10
13.1960133261
 20
9.749014923
 30
0.0
 10
13.1949316158
 20
9.7708315331
 30
0.0
 10
13.1940888148
 20
9.7930190291
 30
0.0
 10
13.1934862296
 20
9.8155441682
 30
0.0
 10
13.1931248267
 20
9.8383723884
 30
0.0
 10
13.1930454129
 20
9.8536889122
 30
0.0
 10
13.1930454129
 20
9.8613912632
 30
0.0
  0
SPLINE
  5
340
100
AcDbEntity
  8
0
100
AcDbSpline
 62
7
  6
CONTINUOUS
 70
0
 71
3
 72
54
 73
50
 74
0
 42
0.0000001
 43
0.0000001
 44
0.0000000001
 40
0.0
 40
0.0
 40
0.0
 40
0.0
 40
0.0054465069
 40
0.0110657958
 40
0.0169073432
 40
0.0230145597
 40
0.0294246974
 40
0.0361691224
 40
0.0432737866
 40
0.0507599027
 40
0.058644442
 40
0.0669408647
 40
0.0756594323
 40
0.0848078783
 40
0.0943915212
 40
0.1044138512
 40
0.1148765072
 40
0.1257797672
 40
0.1371224676
 40
0.148902384
 40
0.1611161573
 40
0.1737595554
 40
0.1868274485
 40
0.2003139495
 40
0.2142124612
 40
0.2285157012
 40
0.2432158261
 40
0.2583043571
 40
0.2737723706
 40
0.2896103491
 40
0.305808417
 40
0.3223561487
 40
0.3564567233
 40
0.3918218213
 40
0.428355103
 40
0.4659552986
 40
0.5045167728
 40
0.5439300524
 40
0.5840823313
 40
0.6248579578
 40
0.6661389094
 40
0.7078052621
 40
0.749735648
 40
0.7918077272
 40
0.8338986045
 40
0.8758854024
 40
0.9176453936
 40
0.9590572421
 40
1.0
 40
1.0
 40
1.0
 40
1.0
 10
13.387227378
 20
10.6320677338
 30
0.0
 10
13.3857557713
 20
10.6318495621
 30
0.0
 10
13.3827878679
 20
10.631243688
 30
0.0
 10
13.3783733208
 20
10.629863898
 30
0.0
 10
13.3739425204
 20
10.6280040054
 30
0.0
 10
13.3694993768
 20
10.6256668148
 30
0.0
 10
13.3650466439
 20
10.6228549909
 30
0.0
 10
13.3605872409
 20
10.6195712855
 30
0.0
 10
13.3561239797
 20
10.6158185899
 30
0.0
 10
13.351659858
 20
10.6115998902
 30
0.0
 10
13.3471978348
 20
10.6069185254
 30
0.0
 10
13.3427411274
 20
10.601777996
 30
0.0
 10
13.3382928378
 20
10.5961822623
 30
0.0
 10
13.3338563447
 20
10.5901354891
 30
0.0
 10
13.3294348427
 20
10.5836423248
 30
0.0
 10
13.3250317875
 20
10.5767076521
 30
0.0
 10
13.3206504242
 20
10.5693368162
 30
0.0
 10
13.3162942171
 20
10.561535422
 30
0.0
 10
13.3119664348
 20
10.5533094973
 30
0.0
 10
13.3076705023
 20
10.544665352
 30
0.0
 10
13.3034096923
 20
10.5356096764
 30
0.0
 10
13.29918736
 20
10.5261494586
 30
0.0
 10
13.2950067651
 20
10.5162920295
 30
0.0
 10
13.2908711744
 20
10.5060450253
 30
0.0
 10
13.2867838181
 20
10.4954163944
 30
0.0
 10
13.2827478626
 20
10.4844143899
 30
0.0
 10
13.2787664918
 20
10.4730475529
 30
0.0
 10
13.2748427653
 20
10.4613247225
 30
0.0
 10
13.2709798017
 20
10.449255005
 30
0.0
 10
13.2671805555
 20
10.4368477963
 30
0.0
 10
13.2634480421
 20
10.4241127308
 30
0.0
 10
13.2585148025
 20
10.4065326353
 30
0.0
 10
13.2525459156
 20
10.3838072622
 30
0.0
 10
13.2457638893
 20
10.3556577405
 30
0.0
 10
13.2393140756
 20
10.3264506071
 30
0.0
 10
13.2332166644
 20
10.2962767886
 30
0.0
 10
13.2274907563
 20
10.2652301061
 30
0.0
 10
13.2221542726
 20
10.2334071727
 30
0.0
 10
13.2172239092
 20
10.2009070296
 30
0.0
 10
13.2127150837
 20
10.1678308484
 30
0.0
 10
13.2086418885
 20
10.1342816071
 30
0.0
 10
13.2050170481
 20
10.1003637682
 30
0.0
 10
13.2018518781
 20
10.0661829476
 30
0.0
 10
13.1991562556
 20
10.0318455919
 30
0.0
 10
13.1969385764
 20
9.9974586182
 30
0.0
 10
13.1952057553
 20
9.963129156
 30
0.0
 10
13.1939631529
 20
9.928964012
 30
0.0
 10
13.193214643
 20
9.8950697685
 30
0.0
 10
13.1930454129
 20
9.8725746111
 30
0.0
 10
13.1930454129
 20
9.8613912632
 30
0.0
  0
SPLINE
  5
341
100
AcDbEntity
  8
0
100
AcDbSpline
 62
7
  6
CONTINUOUS
 70
0
 71
3
 72
23
 73
19
 74
0
 42
0.0000001
 43
0.0000001
 44
0.0000000001
 40
0.0
 40
0.0
 40
0.0
 40
0.0
 40
0.063775992
 40
0.1273452426
 40
0.190702051
 40
0.2538559967
 40
0.3168132418
 40
0.3795820857
 40
0.4421733813
 40
0.504599339
 40
0.5668738627
 40
0.6290123824
 40
0.6910316504
 40
0.7529496423
 40
0.8147853556
 40
0.8765586046
 40
0.9382898526
 40
1.0
 40
1.0
 40
1.0
 40
1.0
 10
12.3369030544
 20
6.1291991344
 30
0.0
 10
12.3369030544
 20
6.1335345386
 30
0.0
 10
12.3371106009
 20
6.142192761
 30
0.0
 10
12.3380471665
 20
6.1551273979
 30
0.0
 10
12.3396066321
 20
6.1679595599
 30
0.0
 10
12.3417852573
 20
6.180658977
 30
0.0
 10
12.3445780979
 20
6.1931967229
 30
0.0
 10
12.3479787293
 20
6.2055438144
 30
0.0
 10
12.3519793697
 20
6.2176717691
 30
0.0
 10
12.3565708231
 20
6.2295526306
 30
0.0
 10
12.3617424772
 20
6.2411590157
 30
0.0
 10
12.3674824761
 20
6.2524641355
 30
0.0
 10
12.3737776167
 20
6.2634418978
 30
0.0
 10
12.3806133445
 20
6.2740670174
 30
0.0
 10
12.3879739146
 20
6.2843149448
 30
0.0
 10
12.3958424819
 20
6.2941620865
 30
0.0
 10
12.4042005306
 20
6.303585465
 30
0.0
 10
12.4100871591
 20
6.3095718106
 30
0.0
 10
12.413104411
 20
6.3124862526
 30
0.0
  0
SPLINE
  5
342
100
AcDbEntity
  8
0
100
AcDbSpline
 62
7
  6
CONTINUOUS
 70
0
 71
3
 72
53
 73
49
 74
0
 42
0.0000001
 43
0.0000001
 44
0.0000000001
 40
0.0
 40
0.0
 40
0.0
 40
0.0
 40
0.0496807096
 40
0.0987337499
 40
0.1470735357
 40
0.1946230643
 40
0.2413039669
 40
0.2870403556
 40
0.3317587549
 40
0.3753878772
 40
0.4178592014
 40
0.4591070858
 40
0.4990689794
 40
0.5376858169
 40
0.5749023574
 40
0.6106674528
 40
0.6449345025
 40
0.6776620953
 40
0.7088145195
 40
0.7237910509
 40
0.7383634583
 40
0.7525291913
 40
0.7662863379
 40
0.7796335993
 40
0.7925701863
 40
0.8050961567
 40
0.8172122978
 40
0.8289201588
 40
0.8402223952
 40
0.8511226166
 40
0.8616255804
 40
0.8717374976
 40
0.8814659305
 40
0.8908201421
 40
0.8998113445
 40
0.9084527167
 40
0.9167598629
 40
0.9247509939
 40
0.9324470609
 40
0.9470456288
 40
0.9540141106
 40
0.9608035334
 40
0.9674508821
 40
0.9739958129
 40
0.9804800779
 40
0.986946688
 40
0.9934390503
 40
1.0
 40
1.0
 40
1.0
 40
1.0
 10
13.5129454887
 20
10.1703910265
 30
0.0
 10
13.5129454887
 20
10.1787685894
 30
0.0
 10
13.5128516107
 20
10.1954180383
 30
0.0
 10
13.5124239244
 20
10.2202156247
 30
0.0
 10
13.5117108815
 20
10.2446471776
 30
0.0
 10
13.510713851
 20
10.2686684632
 30
0.0
 10
13.5094346054
 20
10.2922367714
 30
0.0
 10
13.507875484
 20
10.3153097873
 30
0.0
 10
13.506039319
 20
10.3378461765
 30
0.0
 10
13.5039294137
 20
10.3598055901
 30
0.0
 10
13.5015496104
 20
10.3811487076
 30
0.0
 10
13.4989042273
 20
10.401837332
 30
0.0
 10
13.4959980402
 20
10.4218344442
 30
0.0
 10
13.4928363129
 20
10.4411042864
 30
0.0
 10
13.4894247914
 20
10.4596124402
 30
0.0
 10
13.4857696497
 20
10.4773258563
 30
0.0
 10
13.481877486
 20
10.4942129939
 30
0.0
 10
13.4777553441
 20
10.5102436756
 30
0.0
 10
13.4740883295
 20
10.5230276699
 30
0.0
 10
13.4710374062
 20
10.5327987647
 30
0.0
 10
13.4687264584
 20
10.5397990512
 30
0.0
 10
13.4663636997
 20
10.5465646081
 30
0.0
 10
13.4639501778
 20
10.5530924314
 30
0.0
 10
13.4614870112
 20
10.5593796237
 30
0.0
 10
13.4589752389
 20
10.5654233706
 30
0.0
 10
13.456416015
 20
10.5712209996
 30
0.0
 10
13.4538104897
 20
10.5767699471
 30
0.0
 10
13.4511597553
 20
10.5820677311
 30
0.0
 10
13.4484650348
 20
10.5871120346
 30
0.0
 10
13.4457274942
 20
10.5919006303
 30
0.0
 10
13.4429482762
 20
10.5964313836
 30
0.0
 10
13.4401286422
 20
10.6007023391
 30
0.0
 10
13.437269752
 20
10.604711599
 30
0.0
 10
13.4343727846
 20
10.6084573838
 30
0.0
 10
13.4314390082
 20
10.6119380785
 30
0.0
 10
13.4284695229
 20
10.6151521048
 30
0.0
 10
13.4254656421
 20
10.6180979441
 30
0.0
 10
13.4224282062
 20
10.620774512
 30
0.0
 10
13.4184073121
 20
10.6239260589
 30
0.0
 10
13.4142472422
 20
10.6266124609
 30
0.0
 10
13.4099708048
 20
10.6287599136
 30
0.0
 10
13.4067855333
 20
10.6300706265
 30
0.0
 10
13.4035749515
 20
10.6311049181
 30
0.0
 10
13.4003405462
 20
10.6318619875
 30
0.0
 10
13.3970841996
 20
10.6323413018
 30
0.0
 10
13.3938077001
 20
10.6325423996
 30
0.0
 10
13.3905132784
 20
10.6324651847
 30
0.0
 10
13.3883217767
 20
10.6322299829
 30
0.0
 10
13.387227378
 20
10.6320677338
 30
0.0
  0
SPLINE
  5
343
100
AcDbEntity
  8
0
100
AcDbSpline
 62
7
  6
CONTINUOUS
 70
0
 71
3
 72
21
 73
17
 74
0
 42
0.0000001
 43
0.0000001
 44
0.0000000001
 40
0.0
 40
0.0
 40
0.0
 40
0.0
 40
0.1411199528
 40
0.2788812635
 40
0.3462964617
 40
0.4126254796
 40
0.4777897869
 40
0.541712797
 40
0.6043198853
 40
0.6655388834
 40
0.7252999682
 40
0.7835362609
 40
0.8401835989
 40
0.8951810474
 40
0.9484711746
 40
1.0
 40
1.0
 40
1.0
 40
1.0
 10
13.2965063095
 20
10.1733268212
 30
0.0
 10
13.2965063095
 20
10.1865554244
 30
0.0
 10
13.2962555524
 20
10.2126985255
 30
0.0
 10
13.2952884085
 20
10.2451484648
 30
0.0
 10
13.2941203645
 20
10.2705730515
 30
0.0
 10
13.2930594096
 20
10.2891889563
 30
0.0
 10
13.2918087556
 20
10.3074649755
 30
0.0
 10
13.290370015
 20
10.3253771827
 30
0.0
 10
13.2887450911
 20
10.3429021002
 30
0.0
 10
13.2869361616
 20
10.3600167501
 30
0.0
 10
13.2849455694
 20
10.3766987042
 30
0.0
 10
13.2827759964
 20
10.3929261077
 30
0.0
 10
13.2804302811
 20
10.4086777007
 30
0.0
 10
13.2779115193
 20
10.4239328803
 30
0.0
 10
13.2752230922
 20
10.4386716087
 30
0.0
 10
13.2732868414
 20
10.448305372
 30
0.0
 10
13.2722888206
 20
10.453031463
 30
0.0
  0
SPLINE
  5
344
100
AcDbEntity
  8
0
100
AcDbSpline
 62
7
  6
CONTINUOUS
 70
0
 71
3
 72
54
 73
50
 74
0
 42
0.0000001
 43
0.0000001
 44
0.0000000001
 40
0.0
 40
0.0
 40
0.0
 40
0.0
 40
0.0398033734
 40
0.0800254056
 40
0.120560708
 40
0.1613030477
 40
0.2021453548
 40
0.2429802772
 40
0.2837004667
 40
0.3241989715
 40
0.3643695906
 40
0.404107244
 40
0.4433083399
 40
0.4818711486
 40
0.5196961804
 40
0.5566865734
 40
0.5927484924
 40
0.6277915442
 40
0.661729217
 40
0.6782579103
 40
0.6944798197
 40
0.7103854633
 40
0.7259656533
 40
0.7412116136
 40
0.7561148929
 40
0.7706675075
 40
0.7848618374
 40
0.7986907952
 40
0.8121477074
 40
0.8252265103
 40
0.8379216217
 40
0.8502281642
 40
0.8621418335
 40
0.8736591506
 40
0.8847773371
 40
0.8954945982
 40
0.9058100181
 40
0.915723879
 40
0.9252375938
 40
0.9343540703
 40
0.9430777036
 40
0.951414797
 40
0.9593736415
 40
0.9669650058
 40
0.974202323
 40
0.9811022498
 40
0.9876849501
 40
0.993974666
 40
1.0
 40
1.0
 40
1.0
 40
1.0
 10
10.2569171304
 20
12.0917918487
 30
0.0
 10
10.2421087753
 20
12.0928188116
 30
0.0
 10
10.2123206712
 20
12.0946642161
 30
0.0
 10
10.1674092658
 20
12.0968025129
 30
0.0
 10
10.1221222272
 20
12.098321831
 30
0.0
 10
10.076587255
 20
12.0992178636
 30
0.0
 10
10.0309325327
 20
12.0994880682
 30
0.0
 10
9.9852866637
 20
12.0991316815
 30
0.0
 10
9.9397781986
 20
12.0981497121
 30
0.0
 10
9.894535308
 20
12.0965449439
 30
0.0
 10
9.8496854069
 20
12.0943219253
 30
0.0
 10
9.8053547981
 20
12.0914869583
 30
0.0
 10
9.7616683114
 20
12.088048081
 30
0.0
 10
9.7187489512
 20
12.0840150456
 30
0.0
 10
9.6767175409
 20
12.0793992924
 30
0.0
 10
9.635692395
 20
12.0742139168
 30
0.0
 10
9.5957889183
 20
12.0684736414
 30
0.0
 10
9.5571194926
 20
12.0621947478
 30
0.0
 10
9.5257443448
 20
12.0564793608
 30
0.0
 10
9.5013488088
 20
12.0516418623
 30
0.0
 10
9.4835883016
 20
12.0479223642
 30
0.0
 10
9.4662155532
 20
12.0440823203
 30
0.0
 10
9.4492427763
 20
12.0401243741
 30
0.0
 10
9.4326819159
 20
12.0360513796
 30
0.0
 10
9.4165446251
 20
12.0318661526
 30
0.0
 10
9.4008422502
 20
12.0275717124
 30
0.0
 10
9.3855858372
 20
12.0231710225
 30
0.0
 10
9.3707861027
 20
12.0186672627
 30
0.0
 10
9.3564534532
 20
12.0140635333
 30
0.0
 10
9.3425979424
 20
12.0093631653
 30
0.0
 10
9.329229306
 20
12.0045693855
 30
0.0
 10
9.316356903
 20
11.999685664
 30
0.0
 10
9.3039897691
 20
11.9947153424
 30
0.0
 10
9.2921365367
 20
11.9896620157
 30
0.0
 10
9.2808055136
 20
11.9845291261
 30
0.0
 10
9.2700045756
 20
11.9793203755
 30
0.0
 10
9.2597412763
 20
11.974039288
 30
0.0
 10
9.2500227072
 20
11.9686896476
 30
0.0
 10
9.2408556452
 20
11.9632750351
 30
0.0
 10
9.2322463752
 20
11.9577992819
 30
0.0
 10
9.2242008842
 20
11.9522659887
 30
0.0
 10
9.2167246428
 20
11.9466789854
 30
0.0
 10
9.2098228563
 20
11.9410418409
 30
0.0
 10
9.2035002087
 20
11.9353583225
 30
0.0
 10
9.1977611752
 20
11.9296318981
 30
0.0
 10
9.192609769
 20
11.9238662546
 30
0.0
 10
9.188049808
 20
11.9180645971
 30
0.0
 10
9.1840850809
 20
11.9122310513
 30
0.0
 10
9.1817954095
 20
11.9082432613
 30
0.0
 10
9.1807591891
 20
11.9062494168
 30
0.0
  0
SPLINE
  5
345
100
AcDbEntity
  8
0
100
AcDbSpline
 62
7
  6
CONTINUOUS
 70
0
 71
3
 72
61
 73
57
 74
0
 42
0.0000001
 43
0.0000001
 44
0.0000000001
 40
0.0
 40
0.0
 40
0.0
 40
0.0
 40
0.0027758433
 40
0.0055595941
 40
0.0083590873
 40
0.0111820092
 40
0.0140358402
 40
0.0169278032
 40
0.0228516385
 40
0.0290063602
 40
0.0354367082
 40
0.0387681006
 40
0.0421822872
 40
0.0492730731
 40
0.0567370731
 40
0.064596108
 40
0.072867737
 40
0.081565694
 40
0.09070057
 40
0.1002800962
 40
0.110309688
 40
0.1207926208
 40
0.131730418
 40
0.1431229861
 40
0.1549688512
 40
0.1672653029
 40
0.1800084954
 40
0.1931936241
 40
0.2068149163
 40
0.2208658417
 40
0.235339028
 40
0.2502264837
 40
0.2655194851
 40
0.2812087772
 40
0.2972844765
 40
0.3137362206
 40
0.3305531169
 40
0.3477238252
 40
0.3652365653
 40
0.3830791312
 40
0.4012389558
 40
0.4197030683
 40
0.4574902793
 40
0.4963311237
 40
0.5361109391
 40
0.5767111052
 40
0.6180096092
 40
0.6598815936
 40
0.7021998921
 40
0.7448355581
 40
0.7876583843
 40
0.8305374341
 40
0.8733415137
 40
0.9159398405
 40
0.9582021223
 40
1.0
 40
1.0
 40
1.0
 40
1.0
 10
9.1730741335
 20
11.9364296446
 30
0.0
 10
9.1730741356
 20
11.9374935068
 30
0.0
 10
9.1731331573
 20
11.9396247304
 30
0.0
 10
9.173398634
 20
11.9428189354
 30
0.0
 10
9.1738410232
 20
11.9460117718
 30
0.0
 10
9.1744601359
 20
11.9492023728
 30
0.0
 10
9.1752558397
 20
11.9523901409
 30
0.0
 10
9.176562147
 20
11.9566693309
 30
0.0
 10
9.1786526417
 20
11.9620232684
 30
0.0
 10
9.1818442548
 20
11.9683685849
 30
0.0
 10
9.1850482432
 20
11.9735682508
 30
0.0
 10
9.1879436278
 20
11.9777066629
 30
0.0
 10
9.1911448303
 20
11.9819357129
 30
0.0
 10
9.1955956624
 20
11.9871985603
 30
0.0
 10
9.2015561646
 20
11.9933915366
 30
0.0
 10
9.2081971136
 20
11.9995359589
 30
0.0
 10
9.2155129818
 20
12.0056270648
 30
0.0
 10
9.2234978986
 20
12.0116605469
 30
0.0
 10
9.2321455548
 20
12.0176317009
 30
0.0
 10
9.2414490087
 20
12.0235360213
 30
0.0
 10
9.2514008709
 20
12.0293687756
 30
0.0
 10
9.2619931322
 20
12.0351253982
 30
0.0
 10
9.273217292
 20
12.0408012173
 30
0.0
 10
9.2850642816
 20
12.0463916758
 30
0.0
 10
9.2975245168
 20
12.0518922287
 30
0.0
 10
9.3105878943
 20
12.0572983777
 30
0.0
 10
9.3242437905
 20
12.0626057419
 30
0.0
 10
9.3384811005
 20
12.0678099239
 30
0.0
 10
9.3532882101
 20
12.0729067245
 30
0.0
 10
9.3686530506
 20
12.0778918863
 30
0.0
 10
9.3845630663
 20
12.0827613968
 30
0.0
 10
9.4010052666
 20
12.0875111764
 30
0.0
 10
9.4179662025
 20
12.0921373972
 30
0.0
 10
9.4354320068
 20
12.0966361917
 30
0.0
 10
9.4533883857
 20
12.1010039157
 30
0.0
 10
9.4718206445
 20
12.1052369401
 30
0.0
 10
9.4907136929
 20
12.109331809
 30
0.0
 10
9.51005206
 20
12.1132851487
 30
0.0
 10
9.5298199101
 20
12.1170937031
 30
0.0
 10
9.550001046
 20
12.1207543592
 30
0.0
 10
9.5705789537
 20
12.1242640935
 30
0.0
 10
9.5987392384
 20
12.1287733061
 30
0.0
 10
9.6348095629
 20
12.1340011971
 30
0.0
 10
9.6790755812
 20
12.1395825816
 30
0.0
 10
9.7245046805
 20
12.1445005634
 30
0.0
 10
9.7709479678
 20
12.1487389147
 30
0.0
 10
9.8182533683
 20
12.1522836254
 30
0.0
 10
9.8662659096
 20
12.1551229898
 30
0.0
 10
9.9148282973
 20
12.1572476318
 30
0.0
 10
9.9637814178
 20
12.1586505365
 30
0.0
 10
10.0129648715
 20
12.159327074
 30
0.0
 10
10.0622174915
 20
12.159275008
 30
0.0
 10
10.1113779028
 20
12.1584945175
 30
0.0
 10
10.1602849967
 20
12.1569881639
 30
0.0
 10
10.2087784463
 20
12.154760948
 30
0.0
 10
10.2409361722
 20
12.1527875357
 30
0.0
 10
10.2569171304
 20
12.1516792525
 30
0.0
  0
SPLINE
  5
346
100
AcDbEntity
  8
0
100
AcDbSpline
 62
7
  6
CONTINUOUS
 70
0
 71
3
 72
49
 73
45
 74
0
 42
0.0000001
 43
0.0000001
 44
0.0000000001
 40
0.0
 40
0.0
 40
0.0
 40
0.0
 40
0.0452815664
 40
0.0900934916
 40
0.1343764452
 40
0.1780778156
 40
0.2211437761
 40
0.2635215776
 40
0.3051600111
 40
0.3460090596
 40
0.3860201398
 40
0.4251461855
 40
0.4633418347
 40
0.5005635451
 40
0.5367696648
 40
0.5719206903
 40
0.6059794313
 40
0.6389111097
 40
0.6706836833
 40
0.7012681201
 40
0.7306385835
 40
0.7587728829
 40
0.7856529568
 40
0.7986186113
 40
0.8112660877
 40
0.8235944712
 40
0.835603312
 40
0.8472925624
 40
0.8586625372
 40
0.8697141245
 40
0.8804487193
 40
0.8908682143
 40
0.9009752246
 40
0.910773026
 40
0.9202655834
 40
0.9294577897
 40
0.9383554191
 40
0.9469651977
 40
0.9552950545
 40
0.9633540956
 40
0.9711527135
 40
0.9787028343
 40
0.9860179023
 40
1.0
 40
1.0
 40
1.0
 40
1.0
 10
10.2569171304
 20
12.0917918487
 30
0.0
 10
10.267045506
 20
12.0910894434
 30
0.0
 10
10.2871903218
 20
12.0895902996
 30
0.0
 10
10.3172119714
 20
12.0870441283
 30
0.0
 10
10.3468524072
 20
12.0842146585
 30
0.0
 10
10.3760712091
 20
12.081105799
 30
0.0
 10
10.4048293816
 20
12.0777217233
 30
0.0
 10
10.4330881183
 20
12.0740670112
 30
0.0
 10
10.4608093366
 20
12.0701465934
 30
0.0
 10
10.4879557358
 20
12.065965781
 30
0.0
 10
10.5144907647
 20
12.0615302413
 30
0.0
 10
10.5403786984
 20
12.0568459503
 30
0.0
 10
10.565584701
 20
12.0519192552
 30
0.0
 10
10.590074863
 20
12.0467568399
 30
0.0
 10
10.6138162388
 20
12.0413656648
 30
0.0
 10
10.6367769111
 20
12.0357530299
 30
0.0
 10
10.6589260342
 20
12.0299265528
 30
0.0
 10
10.6802338582
 20
12.0238940931
 30
0.0
 10
10.7006717983
 20
12.0176638063
 30
0.0
 10
10.7202124636
 20
12.0112441431
 30
0.0
 10
10.7388297416
 20
12.0046437479
 30
0.0
 10
10.7564986115
 20
11.9978715182
 30
0.0
 10
10.7705770043
 20
11.9920243346
 30
0.0
 10
10.7813398139
 20
11.987260274
 30
0.0
 10
10.7890631189
 20
11.9836929568
 30
0.0
 10
10.7965321832
 20
11.98008957
 30
0.0
 10
10.8037445245
 20
11.9764513243
 30
0.0
 10
10.8106977378
 20
11.9727794666
 30
0.0
 10
10.817389473
 20
11.9690751751
 30
0.0
 10
10.8238175076
 20
11.9653397148
 30
0.0
 10
10.8299797082
 20
11.9615743494
 30
0.0
 10
10.8358739881
 20
11.9577802778
 30
0.0
 10
10.8414984029
 20
11.9539587897
 30
0.0
 10
10.8468510923
 20
11.9501111607
 30
0.0
 10
10.8519302361
 20
11.9462385994
 30
0.0
 10
10.8567341711
 20
11.9423424089
 30
0.0
 10
10.8612613082
 20
11.9384238641
 30
0.0
 10
10.8655100893
 20
11.9344841698
 30
0.0
 10
10.8694791212
 20
11.930524638
 30
0.0
 10
10.8731670907
 20
11.9265464989
 30
0.0
 10
10.8765726151
 20
11.9225510581
 30
0.0
 10
10.8796947847
 20
11.9185392389
 30
0.0
 10
10.8834213808
 20
11.9132511392
 30
0.0
 10
10.885879304
 20
11.9091432243
 30
0.0
 10
10.887329467
 20
11.9063638312
 30
0.0
  0
SPLINE
  5
347
100
AcDbEntity
  8
0
100
AcDbSpline
 62
7
  6
CONTINUOUS
 70
0
 71
3
 72
61
 73
57
 74
0
 42
0.0000001
 43
0.0000001
 44
0.0000000001
 40
0.0
 40
0.0
 40
0.0
 40
0.0
 40
0.041773683
 40
0.0840361744
 40
0.126657356
 40
0.1695049536
 40
0.2124461739
 40
0.255347734
 40
0.2980765393
 40
0.3405001682
 40
0.3824874064
 40
0.4239087759
 40
0.4646370687
 40
0.5045478875
 40
0.5435201962
 40
0.5814368877
 40
0.5999642174
 40
0.6181858165
 40
0.6360884225
 40
0.6536591429
 40
0.6708854449
 40
0.6877552479
 40
0.7042568506
 40
0.7203790744
 40
0.7361111744
 40
0.7514429752
 40
0.7663648323
 40
0.7808677049
 40
0.7949432137
 40
0.8085836306
 40
0.8217820383
 40
0.8345322654
 40
0.8468291079
 40
0.8586682842
 40
0.8700466517
 40
0.8809622685
 40
0.8914145636
 40
0.9014045599
 40
0.9109350136
 40
0.9200108095
 40
0.9286391477
 40
0.9368300847
 40
0.9445968849
 40
0.951956666
 40
0.9589309937
 40
0.9655465745
 40
0.9718360038
 40
0.977838309
 40
0.9807467497
 40
0.9836012173
 40
0.9864085083
 40
0.9891758169
 40
0.9919106779
 40
0.9946209207
 40
0.9973146171
 40
1.0
 40
1.0
 40
1.0
 40
1.0
 10
13.669492439
 20
10.2576037763
 30
0.0
 10
13.669492439
 20
10.239246348
 30
0.0
 10
13.6692060448
 20
10.2023161075
 30
0.0
 10
13.6679399367
 20
10.1466690525
 30
0.0
 10
13.6658385198
 20
10.0905749244
 30
0.0
 10
13.662908671
 20
10.0342193579
 30
0.0
 10
13.6591600789
 20
9.9777888432
 30
0.0
 10
13.6546051319
 20
9.9214700566
 30
0.0
 10
13.6492589191
 20
9.8654493278
 30
0.0
 10
13.6431391624
 20
9.8099119869
 30
0.0
 10
13.6362661647
 20
9.7550417572
 30
0.0
 10
13.6286627435
 20
9.7010201347
 30
0.0
 10
13.6203541554
 20
9.6480257995
 30
0.0
 10
13.6113680195
 20
9.5962339522
 30
0.0
 10
13.6017342009
 20
9.5458159654
 30
0.0
 10
13.5931282458
 20
9.504775269
 30
0.0
 10
13.5859340224
 20
9.472761451
 30
0.0
 10
13.5804383655
 20
9.4493816638
 30
0.0
 10
13.5748058499
 20
9.4264671327
 30
0.0
 10
13.5690411396
 20
9.4040367916
 30
0.0
 10
13.5631489852
 20
9.382109197
 30
0.0
 10
13.5571343221
 20
9.3607024752
 30
0.0
 10
13.5510020776
 20
9.3398343296
 30
0.0
 10
13.5447573993
 20
9.3195220026
 30
0.0
 10
13.5384054111
 20
9.2997822849
 30
0.0
 10
13.5319514201
 20
9.2806314785
 30
0.0
 10
13.5254007595
 20
9.2620854002
 30
0.0
 10
13.5187588544
 20
9.2441593589
 30
0.0
 10
13.5120312409
 20
9.2268681374
 30
0.0
 10
13.5052234403
 20
9.2102260006
 30
0.0
 10
13.4983411596
 20
9.1942466414
 30
0.0
 10
13.4913900162
 20
9.178943226
 30
0.0
 10
13.4843758295
 20
9.1643283109
 30
0.0
 10
13.4773043265
 20
9.150413903
 30
0.0
 10
13.4701813662
 20
9.1372113847
 30
0.0
 10
13.4630127847
 20
9.1247315417
 30
0.0
 10
13.4558044149
 20
9.1129845494
 30
0.0
 10
13.4485621624
 20
9.1019799178
 30
0.0
 10
13.4412917779
 20
9.0917265846
 30
0.0
 10
13.43399914
 20
9.0822327572
 30
0.0
 10
13.4266898641
 20
9.0735061144
 30
0.0
 10
13.4193696424
 20
9.0655535998
 30
0.0
 10
13.4120438857
 20
9.0583816635
 30
0.0
 10
13.40471791
 20
9.0519961503
 30
0.0
 10
13.3973968842
 20
9.0464024774
 30
0.0
 10
13.3900855575
 20
9.0416057303
 30
0.0
 10
13.3827894646
 20
9.0376108773
 30
0.0
 10
13.3766615755
 20
9.0349261356
 30
0.0
 10
13.3717857583
 20
9.0332009412
 30
0.0
 10
13.3681753415
 20
9.0321231795
 30
0.0
 10
13.364574195
 20
9.0312485052
 30
0.0
 10
13.3609830395
 20
9.030577093
 30
0.0
 10
13.3574027017
 20
9.0301091647
 30
0.0
 10
13.3538339469
 20
9.0298449396
 30
0.0
 10
13.3502777675
 20
9.0297844872
 30
0.0
 10
13.3479143241
 20
9.0298801134
 30
0.0
 10
13.3467370616
 20
9.0299617619
 30
0.0
  0
SPLINE
  5
348
100
AcDbEntity
  8
0
100
AcDbSpline
 62
7
  6
CONTINUOUS
 70
0
 71
3
 72
54
 73
50
 74
0
 42
0.0000001
 43
0.0000001
 44
0.0000000001
 40
0.0
 40
0.0
 40
0.0
 40
0.0
 40
0.0476755643
 40
0.0948035029
 40
0.1413105796
 40
0.1871303663
 40
0.2321952114
 40
0.2764395567
 40
0.3197996841
 40
0.3622136003
 40
0.4036214605
 40
0.443965691
 40
0.4831911402
 40
0.5212453112
 40
0.5580786713
 40
0.5936448614
 40
0.6279009647
 40
0.660807902
 40
0.6923308943
 40
0.7075641742
 40
0.7224406167
 40
0.7369572781
 40
0.7511116813
 40
0.7649016442
 40
0.7783254858
 40
0.7913820263
 40
0.8040704929
 40
0.8163907811
 40
0.8283433533
 40
0.8399292739
 40
0.8511504567
 40
0.8620095274
 40
0.8725100023
 40
0.8826564649
 40
0.8924544799
 40
0.9019108907
 40
0.9110339098
 40
0.9198331545
 40
0.9283200011
 40
0.9365076151
 40
0.9444111214
 40
0.9520479116
 40
0.9594376359
 40
0.9666024071
 40
0.9735669077
 40
0.9803582746
 40
0.9870060946
 40
0.9935421425
 40
1.0
 40
1.0
 40
1.0
 40
1.0
 10
10.2501878408
 20
12.0852918536
 30
0.0
 10
10.2609247793
 20
12.0845472444
 30
0.0
 10
10.2822673685
 20
12.082948905
 30
0.0
 10
10.3140507257
 20
12.0802066878
 30
0.0
 10
10.3453832545
 20
12.0771367687
 30
0.0
 10
10.3762140058
 20
12.0737442277
 30
0.0
 10
10.4064936745
 20
12.0700344768
 30
0.0
 10
10.4361733932
 20
12.0660135501
 30
0.0
 10
10.4652053785
 20
12.0616879628
 30
0.0
 10
10.4935428978
 20
12.0570646939
 30
0.0
 10
10.5211403333
 20
12.0521512363
 30
0.0
 10
10.5479532846
 20
12.046955558
 30
0.0
 10
10.5739386167
 20
12.0414860701
 30
0.0
 10
10.5990545385
 20
12.0357516134
 30
0.0
 10
10.6232606969
 20
12.029761492
 30
0.0
 10
10.6465182144
 20
12.0235254146
 30
0.0
 10
10.6687898081
 20
12.0170534683
 30
0.0
 10
10.6900396483
 20
12.010356117
 30
0.0
 10
10.7070566121
 20
12.0045317921
 30
0.0
 10
10.7201267103
 20
11.9997600163
 30
0.0
 10
10.7295410327
 20
11.9961724277
 30
0.0
 10
10.7386752403
 20
11.9925366933
 30
0.0
 10
10.7475256942
 20
11.9888543119
 30
0.0
 10
10.756088827
 20
11.9851267241
 30
0.0
 10
10.7643612072
 20
11.9813554325
 30
0.0
 10
10.7723395359
 20
11.9775419914
 30
0.0
 10
10.7800205954
 20
11.9736878684
 30
0.0
 10
10.7874013298
 20
11.9697946462
 30
0.0
 10
10.7944787975
 20
11.9658638909
 30
0.0
 10
10.8012501454
 20
11.9618971109
 30
0.0
 10
10.8077127066
 20
11.9578959453
 30
0.0
 10
10.8138638976
 20
11.9538619509
 30
0.0
 10
10.819701252
 20
11.9497966855
 30
0.0
 10
10.8252224914
 20
11.9457018057
 30
0.0
 10
10.8304253873
 20
11.9415788462
 30
0.0
 10
10.8353078742
 20
11.9374294076
 30
0.0
 10
10.8398680446
 20
11.9332551209
 30
0.0
 10
10.8441040103
 20
11.9290574937
 30
0.0
 10
10.8480140993
 20
11.9248381479
 30
0.0
 10
10.8515967215
 20
11.9205986558
 30
0.0
 10
10.8548503005
 20
11.9163405186
 30
0.0
 10
10.8577735027
 20
11.9120653657
 30
0.0
 10
10.8603649659
 20
11.9077747369
 30
0.0
 10
10.8626233924
 20
11.9034702143
 30
0.0
 10
10.864547708
 20
11.899153489
 30
0.0
 10
10.866136733
 20
11.8948262565
 30
0.0
 10
10.8673895142
 20
11.8904902492
 30
0.0
 10
10.8683052548
 20
11.8861477432
 30
0.0
 10
10.8686922384
 20
11.8832366031
 30
0.0
 10
10.8688283302
 20
11.8817851121
 30
0.0
  0
SPLINE
  5
349
100
AcDbEntity
  8
0
100
AcDbSpline
 62
7
  6
CONTINUOUS
 70
0
 71
3
 72
50
 73
46
 74
0
 42
0.0000001
 43
0.0000001
 44
0.0000000001
 40
0.0
 40
0.0
 40
0.0
 40
0.0
 40
0.0461558267
 40
0.0918143428
 40
0.1369111716
 40
0.1813889563
 40
0.2251890572
 40
0.2682542074
 40
0.3105288172
 40
0.3519586522
 40
0.3924911667
 40
0.4320755631
 40
0.4706629685
 40
0.5082066558
 40
0.5446621138
 40
0.5799872674
 40
0.6141427892
 40
0.6470922259
 40
0.678802274
 40
0.709243238
 40
0.7383893172
 40
0.7662190323
 40
0.7927159385
 40
0.8054614736
 40
0.8178702801
 40
0.8299420431
 40
0.8416769836
 40
0.8530757429
 40
0.8641395922
 40
0.8748704598
 40
0.8852708599
 40
0.895344137
 40
0.9050944757
 40
0.9145268872
 40
0.9236474839
 40
0.9324634853
 40
0.94098327
 40
0.9492166701
 40
0.9571749795
 40
0.9648710636
 40
0.9723196366
 40
0.9795372547
 40
0.9865424271
 40
0.9933557882
 40
1.0
 40
1.0
 40
1.0
 40
1.0
 10
10.2447526453
 20
12.0449081708
 30
0.0
 10
10.2546545389
 20
12.0442214722
 30
0.0
 10
10.2743446809
 20
12.0427527649
 30
0.0
 10
10.303680925
 20
12.0402489808
 30
0.0
 10
10.3326288784
 20
12.0374589719
 30
0.0
 10
10.3611463437
 20
12.0343868637
 30
0.0
 10
10.389192592
 20
12.0310370598
 30
0.0
 10
10.4167271387
 20
12.0274144182
 30
0.0
 10
10.4437103016
 20
12.0235241733
 30
0.0
 10
10.470103241
 20
12.0193719505
 30
0.0
 10
10.4958679495
 20
12.0149637789
 30
0.0
 10
10.5209673289
 20
12.010306025
 30
0.0
 10
10.545365252
 20
12.005405422
 30
0.0
 10
10.5690266196
 20
12.0002690897
 30
0.0
 10
10.5919173967
 20
11.9949044574
 30
0.0
 10
10.6140046701
 20
11.989319272
 30
0.0
 10
10.6352567178
 20
11.9835216466
 30
0.0
 10
10.655643034
 20
11.9775199742
 30
0.0
 10
10.6751343819
 20
11.9713229075
 30
0.0
 10
10.6937028492
 20
11.9649394297
 30
0.0
 10
10.7113219575
 20
11.9583787573
 30
0.0
 10
10.7279664014
 20
11.9516503296
 30
0.0
 10
10.7411704984
 20
11.9458388097
 30
0.0
 10
10.7512193033
 20
11.941105114
 30
0.0
 10
10.7583998563
 20
11.9375649324
 30
0.0
 10
10.7653195273
 20
11.9339901294
 30
0.0
 10
10.7719758729
 20
11.9303820048
 30
0.0
 10
10.7783664904
 20
11.9267418102
 30
0.0
 10
10.7844890985
 20
11.9230708448
 30
0.0
 10
10.7903415368
 20
11.9193704532
 30
0.0
 10
10.7959216903
 20
11.9156418946
 30
0.0
 10
10.80122758
 20
11.9118864992
 30
0.0
 10
10.8062573429
 20
11.9081056181
 30
0.0
 10
10.8110091487
 20
11.9043005128
 30
0.0
 10
10.8154813241
 20
11.9004725297
 30
0.0
 10
10.8196722971
 20
11.896623009
 30
0.0
 10
10.8235805115
 20
11.8927532034
 30
0.0
 10
10.827204589
 20
11.8888644604
 30
0.0
 10
10.8305432236
 20
11.8849580956
 30
0.0
 10
10.8335951029
 20
11.8810353543
 30
0.0
 10
10.8363591133
 20
11.8770975797
 30
0.0
 10
10.8388341596
 20
11.873146097
 30
0.0
 10
10.8410191555
 20
11.8691821183
 30
0.0
 10
10.8429131251
 20
11.8652072807
 30
0.0
 10
10.8439936137
 20
11.8625200105
 30
0.0
 10
10.8444825201
 20
11.8611774411
 30
0.0
  0
SPLINE
  5
34A
100
AcDbEntity
  8
0
100
AcDbSpline
 62
7
  6
CONTINUOUS
 70
0
 71
3
 72
23
 73
19
 74
0
 42
0.0000001
 43
0.0000001
 44
0.0000000001
 40
0.0
 40
0.0
 40
0.0
 40
0.0
 40
0.063775992
 40
0.1273452426
 40
0.190702051
 40
0.2538559967
 40
0.3168132418
 40
0.3795820857
 40
0.4421733813
 40
0.504599339
 40
0.5668738627
 40
0.6290123824
 40
0.6910316504
 40
0.7529496423
 40
0.8147853556
 40
0.8765586046
 40
0.9382898526
 40
1.0
 40
1.0
 40
1.0
 40
1.0
 10
8.4731995203
 20
6.3971478846
 30
0.0
 10
8.4731995203
 20
6.4014832888
 30
0.0
 10
8.4734070669
 20
6.4101415112
 30
0.0
 10
8.4743436324
 20
6.4230761481
 30
0.0
 10
8.475903098
 20
6.4359083101
 30
0.0
 10
8.4780817232
 20
6.4486077272
 30
0.0
 10
8.4808745638
 20
6.4611454731
 30
0.0
 10
8.4842751952
 20
6.4734925646
 30
0.0
 10
8.4882758357
 20
6.4856205193
 30
0.0
 10
8.4928672891
 20
6.4975013808
 30
0.0
 10
8.4980389432
 20
6.5091077659
 30
0.0
 10
8.503778942
 20
6.5204128857
 30
0.0
 10
8.5100740826
 20
6.531390648
 30
0.0
 10
8.5169098104
 20
6.5420157676
 30
0.0
 10
8.5242703805
 20
6.552263695
 30
0.0
 10
8.5321389478
 20
6.5621108367
 30
0.0
 10
8.5404969965
 20
6.5715342151
 30
0.0
 10
8.5463836251
 20
6.5775205607
 30
0.0
 10
8.5494008769
 20
6.5804350027
 30
0.0
  0
SPLINE
  5
34B
100
AcDbEntity
  8
0
100
AcDbSpline
 62
7
  6
CONTINUOUS
 70
0
 71
3
 72
15
 73
11
 74
0
 42
0.0000001
 43
0.0000001
 44
0.0000000001
 40
0.0
 40
0.0
 40
0.0
 40
0.0
 40
0.1322285991
 40
0.2628226728
 40
0.3915550757
 40
0.5182156063
 40
0.642592113
 40
0.7644798976
 40
0.8836800241
 40
1.0
 40
1.0
 40
1.0
 40
1.0
 10
10.2447526453
 20
11.778672982
 30
0.0
 10
10.2559040988
 20
11.7778996261
 30
0.0
 10
10.2780603736
 20
11.7762323337
 30
0.0
 10
10.3110364046
 20
11.773349946
 30
0.0
 10
10.3435058439
 20
11.7701054597
 30
0.0
 10
10.3754088691
 20
11.7665049592
 30
0.0
 10
10.4066874234
 20
11.7625549801
 30
0.0
 10
10.4372842104
 20
11.7582628143
 30
0.0
 10
10.4671432076
 20
11.7536363711
 30
0.0
 10
10.4867715232
 20
11.7502922262
 30
0.0
 10
10.4964516545
 20
11.7485630182
 30
0.0
  0
SPLINE
  5
34C
100
AcDbEntity
  8
0
100
AcDbSpline
 62
7
  6
CONTINUOUS
 70
0
 71
3
 72
55
 73
51
 74
0
 42
0.0000001
 43
0.0000001
 44
0.0000000001
 40
0.0
 40
0.0
 40
0.0
 40
0.0
 40
0.0481975415
 40
0.0958290817
 40
0.142818713
 40
0.1890963521
 40
0.2345910715
 40
0.279234315
 40
0.3229593385
 40
0.3657013756
 40
0.4073979227
 40
0.4479889149
 40
0.4874169784
 40
0.525627636
 40
0.5625695632
 40
0.5981948995
 40
0.6324596307
 40
0.6653239472
 40
0.681220104
 40
0.69675341
 40
0.7119202568
 40
0.7267175098
 40
0.7411423279
 40
0.7551923488
 40
0.7688656914
 40
0.782160877
 40
0.7950770786
 40
0.8076139743
 40
0.8197718786
 40
0.8315518771
 40
0.8429557109
 40
0.8539860605
 40
0.8646465134
 40
0.8749416424
 40
0.8848772785
 40
0.8944604376
 40
0.9036996141
 40
0.912604918
 40
0.921188144
 40
0.9294631376
 40
0.9374458256
 40
0.9451544636
 40
0.952609859
 40
0.9598353745
 40
0.966857131
 40
0.9737039172
 40
0.9804070573
 40
0.9870002114
 40
0.9935188976
 40
1.0
 40
1.0
 40
1.0
 40
1.0
 10
10.2569171304
 20
12.1516792525
 30
0.0
 10
10.2681963587
 20
12.1508970353
 30
0.0
 10
10.2906138484
 20
12.1492158708
 30
0.0
 10
10.3239924668
 20
12.1463251894
 30
0.0
 10
10.3568864162
 20
12.1430839387
 30
0.0
 10
10.3892402813
 20
12.1394976745
 30
0.0
 10
10.4210002695
 20
12.1355723405
 30
0.0
 10
10.4521131758
 20
12.1313145613
 30
0.0
 10
10.482527022
 20
12.1267314962
 30
0.0
 10
10.5121909833
 20
12.1218308454
 30
0.0
 10
10.541055487
 20
12.1166208426
 30
0.0
 10
10.5690723201
 20
12.1111102431
 30
0.0
 10
10.596194707
 20
12.1053083239
 30
0.0
 10
10.6223773891
 20
12.0992248437
 30
0.0
 10
10.64757668
 20
12.0928700301
 30
0.0
 10
10.6717506167
 20
12.0862545602
 30
0.0
 10
10.6948588257
 20
12.0793895628
 30
0.0
 10
10.7133954822
 20
12.073406006
 30
0.0
 10
10.7276561786
 20
12.068495068
 30
0.0
 10
10.7379428909
 20
12.0647975776
 30
0.0
 10
10.7479352855
 20
12.0610464521
 30
0.0
 10
10.7576292218
 20
12.057243299
 30
0.0
 10
10.7670206471
 20
12.0533896703
 30
0.0
 10
10.7761056511
 20
12.0494871795
 30
0.0
 10
10.7848804642
 20
12.0455374917
 30
0.0
 10
10.7933414158
 20
12.0415421911
 30
0.0
 10
10.8014850093
 20
12.0375029969
 30
0.0
 10
10.8093078586
 20
12.0334215676
 30
0.0
 10
10.8168067067
 20
12.0292995687
 30
0.0
 10
10.8239784745
 20
12.0251387661
 30
0.0
 10
10.8308201655
 20
12.0209408093
 30
0.0
 10
10.8373289698
 20
12.0167074589
 30
0.0
 10
10.8435022115
 20
12.0124404578
 30
0.0
 10
10.8493373087
 20
12.0081414805
 30
0.0
 10
10.8548319027
 20
12.0038123351
 30
0.0
 10
10.8599836957
 20
11.9994547013
 30
0.0
 10
10.8647905555
 20
11.9950703096
 30
0.0
 10
10.8692505252
 20
11.9906609258
 30
0.0
 10
10.8733616648
 20
11.9862281844
 30
0.0
 10
10.8771222808
 20
11.9817738523
 30
0.0
 10
10.8805307141
 20
11.9772996019
 30
0.0
 10
10.8835853766
 20
11.9728071013
 30
0.0
 10
10.8862849028
 20
11.9682981223
 30
0.0
 10
10.8886278308
 20
11.9637743434
 30
0.0
 10
10.8906129255
 20
11.9592376007
 30
0.0
 10
10.8922390294
 20
11.9546897719
 30
0.0
 10
10.8935049718
 20
11.9501328433
 30
0.0
 10
10.8944099738
 20
11.9455688674
 30
0.0
 10
10.8949532489
 20
11.9410004352
 30
0.0
 10
10.8950741024
 20
11.9379495459
 30
0.0
 10
10.8950740994
 20
11.9364291901
 30
0.0
  0
SPLINE
  5
34D
100
AcDbEntity
  8
0
100
AcDbSpline
 62
7
  6
CONTINUOUS
 70
0
 71
3
 72
39
 73
35
 74
0
 42
0.0000001
 43
0.0000001
 44
0.0000000001
 40
0.0
 40
0.0
 40
0.0
 40
0.0
 40
0.0299424718
 40
0.0599093198
 40
0.0899243266
 40
0.120010106
 40
0.1501875647
 40
0.1804754164
 40
0.2108897604
 40
0.2414437366
 40
0.2721472601
 40
0.3030068419
 40
0.3340254933
 40
0.365202712
 40
0.3965345466
 40
0.4280137318
 40
0.4596298892
 40
0.491369784
 40
0.5232176323
 40
0.5551554498
 40
0.5871634345
 40
0.6192203774
 40
0.651304093
 40
0.6833918636
 40
0.7154608911
 40
0.7474887497
 40
0.7794538335
 40
0.8113357936
 40
0.8431159524
 40
0.8747777124
 40
0.906306864
 40
0.9376920822
 40
0.9689247084
 40
1.0
 40
1.0
 40
1.0
 40
1.0
 10
12.8035520443
 20
5.9082652169
 30
0.0
 10
12.7988903478
 20
5.9037623631
 30
0.0
 10
12.7892003952
 20
5.8951200547
 30
0.0
 10
12.7736755807
 20
5.88334644
 30
0.0
 10
12.7572402343
 20
5.8728215953
 30
0.0
 10
12.7399861895
 20
5.863604562
 30
0.0
 10
12.7220083082
 20
5.8557456948
 30
0.0
 10
12.7034058083
 20
5.8492881935
 30
0.0
 10
12.6842812008
 20
5.8442673896
 30
0.0
 10
12.6647398485
 20
5.8407106945
 30
0.0
 10
12.6448893425
 20
5.8386374277
 30
0.0
 10
12.6248389161
 20
5.8380587356
 30
0.0
 10
12.6046988415
 20
5.8389775416
 30
0.0
 10
12.5845798272
 20
5.8413885446
 30
0.0
 10
12.5645924151
 20
5.8452782588
 30
0.0
 10
12.5448463801
 20
5.850625098
 30
0.0
 10
12.5254501354
 20
5.8573995
 30
0.0
 10
12.5065101459
 20
5.8655640946
 30
0.0
 10
12.4881303515
 20
5.875073911
 30
0.0
 10
12.4704116047
 20
5.8858766249
 30
0.0
 10
12.4534511245
 20
5.8979128468
 30
0.0
 10
12.4373419696
 20
5.9111164462
 30
0.0
 10
12.4221725346
 20
5.9254149124
 30
0.0
 10
12.4080260698
 20
5.9407297493
 30
0.0
 10
12.3949802292
 20
5.9569769017
 30
0.0
 10
12.3831066491
 20
5.9740672122
 30
0.0
 10
12.3724705571
 20
5.9919069045
 30
0.0
 10
12.3631304194
 20
6.0103980951
 30
0.0
 10
12.355137614
 20
6.0294393114
 30
0.0
 10
12.3485361702
 20
6.0489260854
 30
0.0
 10
12.3433624735
 20
6.0687513614
 30
0.0
 10
12.3396451778
 20
6.0888066608
 30
0.0
 10
12.3374048377
 20
6.1089804116
 30
0.0
 10
12.3369030544
 20
6.1224726376
 30
0.0
 10
12.3369030544
 20
6.1291991344
 30
0.0
  0
SPLINE
  5
34E
100
AcDbEntity
  8
0
100
AcDbSpline
 62
7
  6
CONTINUOUS
 70
0
 71
3
 72
50
 73
46
 74
0
 42
0.0000001
 43
0.0000001
 44
0.0000000001
 40
0.0
 40
0.0
 40
0.0
 40
0.0
 40
0.0456766109
 40
0.0908622396
 40
0.1354973684
 40
0.1795286107
 40
0.2229013809
 40
0.2655624428
 40
0.3074600057
 40
0.3485434644
 40
0.3887637328
 40
0.4280732756
 40
0.4664262187
 40
0.503778574
 40
0.5400883166
 40
0.5753155127
 40
0.609422579
 40
0.6423744613
 40
0.6741387923
 40
0.7046862065
 40
0.7339907023
 40
0.7620299133
 40
0.7755694729
 40
0.7887862663
 40
0.8016787388
 40
0.8142456478
 40
0.8264861982
 40
0.8383999018
 40
0.8499866984
 40
0.8612470521
 40
0.8721818343
 40
0.8827924965
 40
0.8930811269
 40
0.9030503778
 40
0.9127036848
 40
0.9220452888
 40
0.9310802296
 40
0.9398145983
 40
0.948255542
 40
0.9564113344
 40
0.9642916414
 40
0.9719075246
 40
0.9792715769
 40
0.9863981615
 40
1.0
 40
1.0
 40
1.0
 40
1.0
 10
13.607673181
 20
10.2618909564
 30
0.0
 10
13.607673181
 20
10.2734575856
 30
0.0
 10
13.6075606702
 20
10.2964666835
 30
0.0
 10
13.6070489202
 20
10.3307752513
 30
0.0
 10
13.6061956444
 20
10.3646602955
 30
0.0
 10
13.6050020666
 20
10.3980757197
 30
0.0
 10
13.6034697852
 20
10.4309769337
 30
0.0
 10
13.6016008945
 20
10.4633195824
 30
0.0
 10
13.5993979305
 20
10.4950601448
 30
0.0
 10
13.5968638683
 20
10.5261559474
 30
0.0
 10
13.5940021679
 20
10.556565167
 30
0.0
 10
13.5908167099
 20
10.5862469131
 30
0.0
 10
13.5873117942
 20
10.6151612792
 30
0.0
 10
13.5834921951
 20
10.6432694071
 30
0.0
 10
13.5793631011
 20
10.6705335338
 30
0.0
 10
13.5749300919
 20
10.6969170365
 30
0.0
 10
13.5701991867
 20
10.7223845005
 30
0.0
 10
13.5651768196
 20
10.746901774
 30
0.0
 10
13.559869786
 20
10.7704359812
 30
0.0
 10
13.5542852644
 20
10.7929556551
 30
0.0
 10
13.5484308343
 20
10.8144305601
 30
0.0
 10
13.5432756083
 20
10.8316264145
 30
0.0
 10
13.5390139881
 20
10.8448320152
 30
0.0
 10
13.535792503
 20
10.8543417816
 30
0.0
 10
13.5325095898
 20
10.8635695113
 30
0.0
 10
13.529166294
 20
10.8725121123
 30
0.0
 10
13.5257637945
 20
10.8811666047
 30
0.0
 10
13.5223032052
 20
10.8895300871
 30
0.0
 10
13.5187856619
 20
10.8975997544
 30
0.0
 10
13.5152123915
 20
10.9053729323
 30
0.0
 10
13.5115845447
 20
10.9128470131
 30
0.0
 10
13.5079033216
 20
10.9200195024
 30
0.0
 10
13.5041699887
 20
10.9268880364
 30
0.0
 10
13.5003857242
 20
10.9334503068
 30
0.0
 10
13.4965517842
 20
10.9397041402
 30
0.0
 10
13.492669457
 20
10.9456474857
 30
0.0
 10
13.4887399377
 20
10.9512783346
 30
0.0
 10
13.4847645246
 20
10.9565948385
 30
0.0
 10
13.4807445027
 20
10.9615952514
 30
0.0
 10
13.4766810849
 20
10.9662778473
 30
0.0
 10
13.4725755559
 20
10.9706411144
 30
0.0
 10
13.4684293088
 20
10.9746834943
 30
0.0
 10
13.4642431193
 20
10.9784038186
 30
0.0
 10
13.4586980663
 20
10.9828626759
 30
0.0
 10
13.4543525327
 20
10.9858324716
 30
0.0
 10
13.451395667
 20
10.9875990137
 30
0.0
  0
SPLINE
  5
34F
100
AcDbEntity
  8
0
100
AcDbSpline
 62
7
  6
CONTINUOUS
 70
0
 71
3
 72
54
 73
50
 74
0
 42
0.0000001
 43
0.0000001
 44
0.0000000001
 40
0.0
 40
0.0
 40
0.0
 40
0.0
 40
0.0398683851
 40
0.0801795791
 40
0.1208256769
 40
0.1616974081
 40
0.2026848509
 40
0.2436776399
 40
0.2845654083
 40
0.3252381427
 40
0.3655865674
 40
0.4055025217
 40
0.4448793417
 40
0.4836122452
 40
0.521598722
 40
0.5587389327
 40
0.5949361178
 40
0.6300970239
 40
0.6641323517
 40
0.6807014417
 40
0.6969576854
 40
0.7128912859
 40
0.7284927294
 40
0.743752936
 40
0.7586631433
 40
0.7732150759
 40
0.7874008199
 40
0.8012130087
 40
0.8146446948
 40
0.82768955
 40
0.8403417416
 40
0.8525961455
 40
0.8644482359
 40
0.8758943116
 40
0.886931411
 40
0.8975575536
 40
0.9077716945
 40
0.9175739881
 40
0.9269658016
 40
0.9359500123
 40
0.9445311035
 40
0.9527155153
 40
0.9605118513
 40
0.967931304
 40
0.9749879957
 40
0.981699488
 40
0.9880872409
 40
0.9941771507
 40
1.0
 40
1.0
 40
1.0
 40
1.0
 10
13.607673181
 20
10.2618909564
 30
0.0
 10
13.607673181
 20
10.2447990927
 30
0.0
 10
13.6074249534
 20
10.210425061
 30
0.0
 10
13.6063262277
 20
10.1586363096
 30
0.0
 10
13.604501838
 20
10.1064375634
 30
0.0
 10
13.6019569796
 20
10.0539787802
 30
0.0
 10
13.5986989435
 20
10.0014105472
 30
0.0
 10
13.5947370723
 20
9.9488837781
 30
0.0
 10
13.5900827476
 20
9.896549269
 30
0.0
 10
13.5847493494
 20
9.844557259
 30
0.0
 10
13.578752222
 20
9.7930569991
 30
0.0
 10
13.5721086282
 20
9.7421963198
 30
0.0
 10
13.5648377012
 20
9.6921212037
 30
0.0
 10
13.5569603903
 20
9.6429753638
 30
0.0
 10
13.548499402
 20
9.5948998214
 30
0.0
 10
13.5394791346
 20
9.5480325142
 30
0.0
 10
13.5299256146
 20
9.5025078252
 30
0.0
 10
13.5198664048
 20
9.4584564316
 30
0.0
 10
13.5110093429
 20
9.4227683051
 30
0.0
 10
13.5036824371
 20
9.3950564674
 30
0.0
 10
13.4981282582
 20
9.3749041379
 30
0.0
 10
13.4924700859
 20
9.3552120201
 30
0.0
 10
13.4867119001
 20
9.3359942296
 30
0.0
 10
13.4808579205
 20
9.3172645478
 30
0.0
 10
13.4749122814
 20
9.2990364116
 30
0.0
 10
13.4688793386
 20
9.2813228798
 30
0.0
 10
13.4627633498
 20
9.2641366571
 30
0.0
 10
13.4565687975
 20
9.2474900434
 30
0.0
 10
13.4503000497
 20
9.2313949721
 30
0.0
 10
13.4439617002
 20
9.2158629461
 30
0.0
 10
13.437558214
 20
9.2009050906
 30
0.0
 10
13.4310942787
 20
9.1865320744
 30
0.0
 10
13.4245744417
 20
9.1727541791
 30
0.0
 10
13.4180034638
 20
9.1595812038
 30
0.0
 10
13.4113859569
 20
9.1470225524
 30
0.0
 10
13.4047267304
 20
9.1350871204
 30
0.0
 10
13.3980304371
 20
9.1237834014
 30
0.0
 10
13.3913019021
 20
9.1131193572
 30
0.0
 10
13.3845457864
 20
9.1031025424
 30
0.0
 10
13.3777668857
 20
9.0937399626
 30
0.0
 10
13.3709698208
 20
9.0850382157
 30
0.0
 10
13.3641592943
 20
9.0770033483
 30
0.0
 10
13.3573398172
 20
9.0696410126
 30
0.0
 10
13.3505159205
 20
9.0629563421
 30
0.0
 10
13.3436919113
 20
9.0569541154
 30
0.0
 10
13.3368721298
 20
9.0516387154
 30
0.0
 10
13.3300604703
 20
9.0470141779
 30
0.0
 10
13.3232617811
 20
9.0430846644
 30
0.0
 10
13.3186447517
 20
9.0408853034
 30
0.0
 10
13.3163458593
 20
9.0399123725
 30
0.0
  0
SPLINE
  5
350
100
AcDbEntity
  8
0
100
AcDbSpline
 62
7
  6
CONTINUOUS
 70
0
 71
3
 72
62
 73
58
 74
0
 42
0.0000001
 43
0.0000001
 44
0.0000000001
 40
0.0
 40
0.0
 40
0.0
 40
0.0
 40
0.0425879204
 40
0.0856851367
 40
0.1291504194
 40
0.1728409961
 40
0.2166131501
 40
0.2603228251
 40
0.3038262252
 40
0.346980417
 40
0.3896439332
 40
0.43167738
 40
0.4729440506
 40
0.5133105482
 40
0.5526474231
 40
0.5908298313
 40
0.6094507562
 40
0.6277387247
 40
0.6456796929
 40
0.6632601452
 40
0.6804669141
 40
0.697287424
 40
0.7137094997
 40
0.7297216303
 40
0.7453127688
 40
0.7604726172
 40
0.7751914217
 40
0.7894602805
 40
0.8032709413
 40
0.8166161352
 40
0.8294893846
 40
0.8418853704
 40
0.853799763
 40
0.8652296333
 40
0.8761733266
 40
0.886630935
 40
0.8966042431
 40
0.9060972905
 40
0.9151164306
 40
0.9236710231
 40
0.9317736597
 40
0.9394410267
 40
0.9466943388
 40
0.9535603619
 40
0.9600719918
 40
0.9662692266
 40
0.9721995149
 40
0.9750825387
 40
0.9779201363
 40
0.9807202885
 40
0.9834913471
 40
0.9862419487
 40
0.9889809369
 40
0.9917172815
 40
0.9944599814
 40
0.9972179642
 40
1.0
 40
1.0
 40
1.0
 40
1.0
 10
13.5129454887
 20
10.1703910265
 30
0.0
 10
13.5129454887
 20
10.1585156649
 30
0.0
 10
13.512754645
 20
10.1346225331
 30
0.0
 10
13.5119114273
 20
10.0986183375
 30
0.0
 10
13.510512148
 20
10.0623237038
 30
0.0
 10
13.5085616864
 20
10.0258660884
 30
0.0
 10
13.5060668685
 20
9.9893733687
 30
0.0
 10
13.5030364467
 20
9.952973588
 30
0.0
 10
13.4994810672
 20
9.9167944497
 30
0.0
 10
13.4954132334
 20
9.8809628807
 30
0.0
 10
13.4908472619
 20
9.8456045794
 30
0.0
 10
13.4857992341
 20
9.8108435684
 30
0.0
 10
13.4802869379
 20
9.7768017679
 30
0.0
 10
13.4743298153
 20
9.7435985128
 30
0.0
 10
13.4679488652
 20
9.7113503044
 30
0.0
 10
13.4622505878
 20
9.685152932
 30
0.0
 10
13.4574898682
 20
9.6647622845
 30
0.0
 10
13.453857534
 20
9.6499050417
 30
0.0
 10
13.4501367981
 20
9.6353689831
 30
0.0
 10
13.4463309881
 20
9.6211668408
 30
0.0
 10
13.4424433803
 20
9.6073110763
 30
0.0
 10
13.4384774704
 20
9.5938138303
 30
0.0
 10
13.4344366676
 20
9.5806869401
 30
0.0
 10
13.4303246073
 20
9.5679419003
 30
0.0
 10
13.426144823
 20
9.5555898844
 30
0.0
 10
13.4219010761
 20
9.5436416969
 30
0.0
 10
13.4175970107
 20
9.5321078069
 30
0.0
 10
13.4132365002
 20
9.5209982875
 30
0.0
 10
13.4088232838
 20
9.5103228642
 30
0.0
 10
13.4043613318
 20
9.5000908384
 30
0.0
 10
13.3998544608
 20
9.4903111547
 30
0.0
 10
13.3953067197
 20
9.4809923032
 30
0.0
 10
13.3907219809
 20
9.4721424123
 30
0.0
 10
13.3861043487
 20
9.463769122
 30
0.0
 10
13.381457723
 20
9.4558797114
 30
0.0
 10
13.3767862302
 20
9.4484809346
 30
0.0
 10
13.372093757
 20
9.4415791939
 30
0.0
 10
13.3673844019
 20
9.4351803289
 30
0.0
 10
13.3626619772
 20
9.4292898544
 30
0.0
 10
13.3579304768
 20
9.423912693
 30
0.0
 10
13.3531935498
 20
9.4190535057
 30
0.0
 10
13.3484549857
 20
9.4147163661
 30
0.0
 10
13.3437181715
 20
9.4109052234
 30
0.0
 10
13.3389866591
 20
9.4076235261
 30
0.0
 10
13.3342635152
 20
9.4048748222
 30
0.0
 10
13.3295526391
 20
9.4026623973
 30
0.0
 10
13.325602259
 20
9.40125533
 30
0.0
 10
13.3224636252
 20
9.4004113655
 30
0.0
 10
13.3201378536
 20
9.3999195439
 30
0.0
 10
13.317819076
 20
9.3995632907
 30
0.0
 10
13.3155078032
 20
9.3993426661
 30
0.0
 10
13.3132046185
 20
9.3992577497
 30
0.0
 10
13.3109100919
 20
9.3993085984
 30
0.0
 10
13.3086248169
 20
9.3994952551
 30
0.0
 10
13.3063493486
 20
9.3998176331
 30
0.0
 10
13.3040843482
 20
9.4002755919
 30
0.0
 10
13.3025894914
 20
9.4006691543
 30
0.0
 10
13.3018451747
 20
9.4008877509
 30
0.0
  0
SPLINE
  5
351
100
AcDbEntity
  8
0
100
AcDbSpline
 62
7
  6
CONTINUOUS
 70
0
 71
3
 72
29
 73
25
 74
0
 42
0.0000001
 43
0.0000001
 44
0.0000000001
 40
0.0
 40
0.0
 40
0.0
 40
0.0
 40
0.0665035265
 40
0.1338981385
 40
0.2018762096
 40
0.27012487
 40
0.3383305422
 40
0.4061796505
 40
0.4733607523
 40
0.5395663204
 40
0.6044946068
 40
0.6678515165
 40
0.6988518055
 40
0.7293534199
 40
0.7593226247
 40
0.7887265513
 40
0.8175331866
 40
0.8457116172
 40
0.873231875
 40
0.9000652532
 40
0.9261842135
 40
0.9515625542
 40
0.9761755735
 40
1.0
 40
1.0
 40
1.0
 40
1.0
 10
13.2965063095
 20
10.1733268212
 30
0.0
 10
13.2965063095
 20
10.1602975597
 30
0.0
 10
13.2962584342
 20
10.134063861
 30
0.0
 10
13.2951669325
 20
10.0945256647
 30
0.0
 10
13.293357992
 20
10.0546714398
 30
0.0
 10
13.290840387
 20
10.0146965458
 30
0.0
 10
13.2876264646
 20
9.9747969354
 30
0.0
 10
13.2837319885
 20
9.9351681189
 30
0.0
 10
13.279176105
 20
9.8960043016
 30
0.0
 10
13.2739812492
 20
9.8574973356
 30
0.0
 10
13.268173006
 20
9.8198359844
 30
0.0
 10
13.2628075111
 20
9.78909134
 30
0.0
 10
13.2582224
 20
9.7650623595
 30
0.0
 10
13.2546737081
 20
9.7474959808
 30
0.0
 10
13.2509947107
 20
9.7302761147
 30
0.0
 10
13.2471899277
 20
9.7134238487
 30
0.0
 10
13.2432640011
 20
9.6969598415
 30
0.0
 10
13.2392218116
 20
9.680904261
 30
0.0
 10
13.2350682737
 20
9.6652767809
 30
0.0
 10
13.2308085385
 20
9.6500965345
 30
0.0
 10
13.2264478278
 20
9.6353821146
 30
0.0
 10
13.2219914873
 20
9.6211515129
 30
0.0
 10
13.2174450618
 20
9.6074221968
 30
0.0
 10
13.2143056486
 20
9.5984661
 30
0.0
 10
13.2127200682
 20
9.5940760179
 30
0.0
  0
SPLINE
  5
352
100
AcDbEntity
  8
0
100
AcDbSpline
 62
7
  6
CONTINUOUS
 70
0
 71
3
 72
39
 73
35
 74
0
 42
0.0000001
 43
0.0000001
 44
0.0000000001
 40
0.0
 40
0.0
 40
0.0
 40
0.0
 40
0.0299424718
 40
0.0599093198
 40
0.0899243266
 40
0.120010106
 40
0.1501875647
 40
0.1804754164
 40
0.2108897604
 40
0.2414437366
 40
0.2721472601
 40
0.3030068419
 40
0.3340254933
 40
0.365202712
 40
0.3965345466
 40
0.4280137318
 40
0.4596298892
 40
0.491369784
 40
0.5232176323
 40
0.5551554498
 40
0.5871634345
 40
0.6192203774
 40
0.651304093
 40
0.6833918636
 40
0.7154608911
 40
0.7474887497
 40
0.7794538335
 40
0.8113357936
 40
0.8431159524
 40
0.8747777124
 40
0.906306864
 40
0.9376920822
 40
0.9689247084
 40
1.0
 40
1.0
 40
1.0
 40
1.0
 10
8.9398485102
 20
6.1762139671
 30
0.0
 10
8.9351868138
 20
6.1717111133
 30
0.0
 10
8.9254968611
 20
6.1630688049
 30
0.0
 10
8.9099720466
 20
6.1512951901
 30
0.0
 10
8.8935367002
 20
6.1407703454
 30
0.0
 10
8.8762826554
 20
6.1315533122
 30
0.0
 10
8.8583047741
 20
6.123694445
 30
0.0
 10
8.8397022742
 20
6.1172369437
 30
0.0
 10
8.8205776667
 20
6.1122161398
 30
0.0
 10
8.8010363144
 20
6.1086594446
 30
0.0
 10
8.7811858084
 20
6.1065861779
 30
0.0
 10
8.761135382
 20
6.1060074858
 30
0.0
 10
8.7409953074
 20
6.1069262918
 30
0.0
 10
8.7208762931
 20
6.1093372947
 30
0.0
 10
8.700888881
 20
6.113227009
 30
0.0
 10
8.681142846
 20
6.1185738481
 30
0.0
 10
8.6617466014
 20
6.1253482501
 30
0.0
 10
8.6428066118
 20
6.1335128447
 30
0.0
 10
8.6244268174
 20
6.1430226612
 30
0.0
 10
8.6067080707
 20
6.1538253751
 30
0.0
 10
8.5897475904
 20
6.165861597
 30
0.0
 10
8.5736384355
 20
6.1790651963
 30
0.0
 10
8.5584690005
 20
6.1933636626
 30
0.0
 10
8.5443225357
 20
6.2086784995
 30
0.0
 10
8.5312766951
 20
6.2249256518
 30
0.0
 10
8.519403115
 20
6.2420159624
 30
0.0
 10
8.508767023
 20
6.2598556546
 30
0.0
 10
8.4994268853
 20
6.2783468452
 30
0.0
 10
8.4914340799
 20
6.2973880616
 30
0.0
 10
8.4848326361
 20
6.3168748355
 30
0.0
 10
8.4796589394
 20
6.3367001116
 30
0.0
 10
8.4759416437
 20
6.3567554109
 30
0.0
 10
8.4737013036
 20
6.3769291618
 30
0.0
 10
8.4731995203
 20
6.3904213877
 30
0.0
 10
8.4731995203
 20
6.3971478846
 30
0.0
  0
SPLINE
  5
353
100
AcDbEntity
  8
0
100
AcDbSpline
 62
7
  6
CONTINUOUS
 70
0
 71
3
 72
15
 73
11
 74
0
 42
0.0000001
 43
0.0000001
 44
0.0000000001
 40
0.0
 40
0.0
 40
0.0
 40
0.0
 40
0.1238418467
 40
0.2494617772
 40
0.3761423742
 40
0.5031548325
 40
0.6297693132
 40
0.7552586706
 40
0.878904004
 40
1.0
 40
1.0
 40
1.0
 40
1.0
 10
13.218198571
 20
10.1616253586
 30
0.0
 10
13.218198571
 20
10.1486714089
 30
0.0
 10
13.2179227386
 20
10.1225767892
 30
0.0
 10
13.2167113373
 20
10.0832481969
 30
0.0
 10
13.21470587
 20
10.0436198987
 30
0.0
 10
13.2119185094
 20
10.0039346894
 30
0.0
 10
13.2083663456
 20
9.9644356978
 30
0.0
 10
13.204071206
 20
9.9253647651
 30
0.0
 10
13.1990595623
 20
9.8869614051
 30
0.0
 10
13.1952140827
 20
9.8616493681
 30
0.0
 10
13.1931718601
 20
9.8491483514
 30
0.0
  0
SPLINE
  5
354
100
AcDbEntity
  8
0
100
AcDbSpline
 62
7
  6
CONTINUOUS
 70
0
 71
3
 72
55
 73
51
 74
0
 42
0.0000001
 43
0.0000001
 44
0.0000000001
 40
0.0
 40
0.0
 40
0.0
 40
0.0
 40
0.0063157967
 40
0.0126705064
 40
0.0191022577
 40
0.0256477311
 40
0.0323415292
 40
0.039215794
 40
0.0462999396
 40
0.0536204765
 40
0.0612011269
 40
0.0690627967
 40
0.077223814
 40
0.0857001286
 40
0.0945054138
 40
0.1036514395
 40
0.1131481141
 40
0.1230037529
 40
0.1332252839
 40
0.1438182539
 40
0.1547871578
 40
0.1661353969
 40
0.1778654436
 40
0.1899790024
 40
0.2024769158
 40
0.215359436
 40
0.2286261423
 40
0.2422760211
 40
0.2563076146
 40
0.2707188714
 40
0.2855073776
 40
0.3006702734
 40
0.3162042724
 40
0.3321058142
 40
0.3649946654
 40
0.3993021056
 40
0.4349881404
 40
0.4720086211
 40
0.5103156623
 40
0.5498579758
 40
0.5905811562
 40
0.6324279171
 40
0.6753383233
 40
0.7192500409
 40
0.7640984978
 40
0.8098171101
 40
0.8563375432
 40
0.9035891104
 40
0.9515016896
 40
1.0
 40
1.0
 40
1.0
 40
1.0
 10
13.482892356
 20
10.9932461676
 30
0.0
 10
13.4845554974
 20
10.9931308212
 30
0.0
 10
13.4878841658
 20
10.9927632676
 30
0.0
 10
13.4928398576
 20
10.9918052443
 30
0.0
 10
13.4977624346
 20
10.9904406621
 30
0.0
 10
13.5026490196
 20
10.9886704063
 30
0.0
 10
13.5074975382
 20
10.9864957898
 30
0.0
 10
13.5123058953
 20
10.9839181587
 30
0.0
 10
13.5170721465
 20
10.9809389576
 30
0.0
 10
13.5217945454
 20
10.97755986
 30
0.0
 10
13.526471273
 20
10.9737824244
 30
0.0
 10
13.531100675
 20
10.9696084587
 30
0.0
 10
13.5356810624
 20
10.9650397874
 30
0.0
 10
13.5402106993
 20
10.9600783138
 30
0.0
 10
13.5446879815
 20
10.9547261662
 30
0.0
 10
13.5491111377
 20
10.9489854813
 30
0.0
 10
13.5534785165
 20
10.9428586312
 30
0.0
 10
13.5577884326
 20
10.9363481036
 30
0.0
 10
13.562039133
 20
10.929456507
 30
0.0
 10
13.5662290132
 20
10.9221866763
 30
0.0
 10
13.5703563286
 20
10.9145415296
 30
0.0
 10
13.5744194456
 20
10.9065241899
 30
0.0
 10
13.5784167413
 20
10.8981379273
 30
0.0
 10
13.5823465272
 20
10.8893861409
 30
0.0
 10
13.5862072734
 20
10.8802724299
 30
0.0
 10
13.5899973452
 20
10.870800505
 30
0.0
 10
13.5937152009
 20
10.8609742506
 30
0.0
 10
13.5973593435
 20
10.8507977007
 30
0.0
 10
13.6009282109
 20
10.8402750172
 30
0.0
 10
13.6044203969
 20
10.8294105355
 30
0.0
 10
13.6078344221
 20
10.8182087111
 30
0.0
 10
13.6111688728
 20
10.8066741547
 30
0.0
 10
13.6144224294
 20
10.7948116024
 30
0.0
 10
13.6186987728
 20
10.7783792616
 30
0.0
 10
13.6238206699
 20
10.7570484984
 30
0.0
 10
13.6295564765
 20
10.7305018683
 30
0.0
 10
13.6349391831
 20
10.7027697405
 30
0.0
 10
13.6399598413
 20
10.6738978256
 30
0.0
 10
13.6446100841
 20
10.6439335702
 30
0.0
 10
13.648882162
 20
10.6129263002
 30
0.0
 10
13.652768948
 20
10.5809270715
 30
0.0
 10
13.6562639643
 20
10.5479886077
 30
0.0
 10
13.6593613942
 20
10.5141652002
 30
0.0
 10
13.6620560736
 20
10.4795126154
 30
0.0
 10
13.6643435091
 20
10.4440879923
 30
0.0
 10
13.666219882
 20
10.4079497231
 30
0.0
 10
13.6676820429
 20
10.3711575344
 30
0.0
 10
13.6687276032
 20
10.3337718227
 30
0.0
 10
13.6693547309
 20
10.295854673
 30
0.0
 10
13.669492439
 20
10.2704055347
 30
0.0
 10
13.669492439
 20
10.2576037763
 30
0.0
  0
SPLINE
  5
355
100
AcDbEntity
  8
0
100
AcDbSpline
 62
7
  6
CONTINUOUS
 70
0
 71
3
 72
58
 73
54
 74
0
 42
0.0000001
 43
0.0000001
 44
0.0000000001
 40
0.0
 40
0.0
 40
0.0
 40
0.0
 40
0.0414402715
 40
0.0833367342
 40
0.1255652605
 40
0.1680001769
 40
0.2105151651
 40
0.2529835401
 40
0.2952788166
 40
0.337275168
 40
0.3788479236
 40
0.4198740573
 40
0.4602326839
 40
0.4998055622
 40
0.5384776081
 40
0.5761374243
 40
0.6126778504
 40
0.6304963547
 40
0.6479970419
 40
0.6651680091
 40
0.6819976694
 40
0.6984749153
 40
0.7145889933
 40
0.7303296919
 40
0.7456872009
 40
0.7606523228
 40
0.775216323
 40
0.7893711612
 40
0.8031093422
 40
0.8164241639
 40
0.82930958
 40
0.8417604635
 40
0.8537724942
 40
0.8653424394
 40
0.8764680839
 40
0.8871485323
 40
0.8973842036
 40
0.9071771682
 40
0.9165312336
 40
0.9254523369
 40
0.9339487549
 40
0.9420315775
 40
0.9497150732
 40
0.9570172582
 40
0.963960412
 40
0.9705716931
 40
0.9768836793
 40
0.9829348042
 40
0.9887695487
 40
0.9916222058
 40
0.9944400804
 40
0.9972302449
 40
1.0
 40
1.0
 40
1.0
 40
1.0
 10
10.2501878408
 20
12.0852918536
 30
0.0
 10
10.2348936327
 20
12.0863525106
 30
0.0
 10
10.2041196229
 20
12.0882442361
 30
0.0
 10
10.1577143132
 20
12.090389556
 30
0.0
 10
10.1109143001
 20
12.0918540664
 30
0.0
 10
10.0638690586
 20
12.0926330426
 30
0.0
 10
10.0167287241
 20
12.0927239886
 30
0.0
 10
9.9696437483
 20
12.092126608
 30
0.0
 10
9.9227644079
 20
12.0908428231
 30
0.0
 10
9.8762403167
 20
12.0888767598
 30
0.0
 10
9.8302199479
 20
12.0862347395
 30
0.0
 10
9.7848501561
 20
12.0829252576
 30
0.0
 10
9.7402757001
 20
12.0789589588
 30
0.0
 10
9.6966387922
 20
12.0743486018
 30
0.0
 10
9.6540785753
 20
12.0691090294
 30
0.0
 10
9.6127308967
 20
12.0632570909
 30
0.0
 10
9.5791193227
 20
12.0578416218
 30
0.0
 10
9.5529412115
 20
12.0532077523
 30
0.0
 10
9.53385615
 20
12.0496204975
 30
0.0
 10
9.5151704168
 20
12.0458952788
 30
0.0
 10
9.4968989009
 20
12.0420349932
 30
0.0
 10
9.4790561797
 20
12.0380428066
 30
0.0
 10
9.461656483
 20
12.0339218383
 30
0.0
 10
9.4447136808
 20
12.0296754671
 30
0.0
 10
9.428241282
 20
12.025307009
 30
0.0
 10
9.4122524064
 20
12.0208200472
 30
0.0
 10
9.3967597963
 20
12.016218083
 30
0.0
 10
9.3817757767
 20
12.0115048907
 30
0.0
 10
9.3673122804
 20
12.0066841461
 30
0.0
 10
9.3533807939
 20
12.0017597981
 30
0.0
 10
9.3399923989
 20
11.9967356843
 30
0.0
 10
9.3271577017
 20
11.9916159095
 30
0.0
 10
9.3148868928
 20
11.9864044575
 30
0.0
 10
9.3031896579
 20
11.9811055659
 30
0.0
 10
9.2920752573
 20
11.9757233438
 30
0.0
 10
9.2815524191
 20
11.9702621308
 30
0.0
 10
9.2716294376
 20
11.9647261317
 30
0.0
 10
9.2623140517
 20
11.959119745
 30
0.0
 10
9.2536135626
 20
11.9534472262
 30
0.0
 10
9.245534705
 20
11.94771297
 30
0.0
 10
9.2380837829
 20
11.9419212157
 30
0.0
 10
9.231266553
 20
11.9360762682
 30
0.0
 10
9.225088378
 20
11.9301822623
 30
0.0
 10
9.219554155
 20
11.9242433259
 30
0.0
 10
9.214668481
 20
11.9182634221
 30
0.0
 10
9.2104356714
 20
11.9122465457
 30
0.0
 10
9.2068598619
 20
11.9061965145
 30
0.0
 10
9.2039452086
 20
11.9001179778
 30
0.0
 10
9.2020562482
 20
11.8949929504
 30
0.0
 10
9.2008904726
 20
11.8908976659
 30
0.0
 10
9.200189209
 20
11.8878456519
 30
0.0
 10
9.1996548139
 20
11.8847912897
 30
0.0
 10
9.1994091569
 20
11.8827479132
 30
0.0
 10
9.1993145337
 20
11.881727613
 30
0.0
  0
SPLINE
  5
356
100
AcDbEntity
  8
0
100
AcDbSpline
 62
7
  6
CONTINUOUS
 70
0
 71
3
 72
55
 73
51
 74
0
 42
0.0000001
 43
0.0000001
 44
0.0000000001
 40
0.0
 40
0.0
 40
0.0
 40
0.0
 40
0.0404000695
 40
0.0812324805
 40
0.1223851511
 40
0.1637450173
 40
0.2051981811
 40
0.2466304537
 40
0.2879277054
 40
0.3289762917
 40
0.3696634525
 40
0.4098777235
 40
0.449509347
 40
0.4884506895
 40
0.5265966653
 40
0.5638451714
 40
0.6000975371
 40
0.6352589949
 40
0.6524024329
 40
0.6692396463
 40
0.6857601119
 40
0.7019536632
 40
0.7178104933
 40
0.7333211878
 40
0.748476745
 40
0.7632685977
 40
0.7776886544
 40
0.7917293095
 40
0.8053835093
 40
0.8186447521
 40
0.8315071823
 40
0.8439655837
 40
0.8560155069
 40
0.8676532613
 40
0.8788760822
 40
0.8896821293
 40
0.9000707037
 40
0.9100422668
 40
0.9195987184
 40
0.9287434558
 40
0.9374817317
 40
0.9458207769
 40
0.9537702576
 40
0.9613424892
 40
0.9685530006
 40
0.9754208446
 40
0.9819692325
 40
0.9882258689
 40
0.9942234935
 40
1.0
 40
1.0
 40
1.0
 40
1.0
 10
10.2447526453
 20
12.0449081708
 30
0.0
 10
10.230419052
 20
12.0459022089
 30
0.0
 10
10.2015829683
 20
12.0476835622
 30
0.0
 10
10.1581042584
 20
12.0497316016
 30
0.0
 10
10.1142593908
 20
12.051166228
 30
0.0
 10
10.0701779113
 20
12.0519831764
 30
0.0
 10
10.0259898645
 20
12.0521800184
 30
0.0
 10
9.9818256814
 20
12.0517561706
 30
0.0
 10
9.937815699
 20
12.0507128914
 30
0.0
 10
9.8940898039
 20
12.0490532808
 30
0.0
 10
9.8507770369
 20
12.0467822697
 30
0.0
 10
9.808005212
 20
12.0439066068
 30
0.0
 10
9.7659005365
 20
12.0404348392
 30
0.0
 10
9.7245872304
 20
12.0363772883
 30
0.0
 10
9.6841871714
 20
12.0317460187
 30
0.0
 10
9.6448194719
 20
12.0265548124
 30
0.0
 10
9.6066003264
 20
12.0208190968
 30
0.0
 10
9.5755460446
 20
12.0155565489
 30
0.0
 10
9.5513669315
 20
12.0110783919
 30
0.0
 10
9.5337417228
 20
12.0076229153
 30
0.0
 10
9.5164858453
 20
12.0040448911
 30
0.0
 10
9.4996120126
 20
12.0003469531
 30
0.0
 10
9.4831326729
 20
11.9965318418
 30
0.0
 10
9.4670599774
 20
11.9926023772
 30
0.0
 10
9.4514057744
 20
11.9885614734
 30
0.0
 10
9.4361816026
 20
11.9844121114
 30
0.0
 10
9.4213986772
 20
11.9801573747
 30
0.0
 10
9.4070678881
 20
11.975800394
 30
0.0
 10
9.393199782
 20
11.9713444132
 30
0.0
 10
9.3798045658
 20
11.9667927012
 30
0.0
 10
9.3668920833
 20
11.9621486518
 30
0.0
 10
9.3544718263
 20
11.9574156592
 30
0.0
 10
9.3425529015
 20
11.9525972546
 30
0.0
 10
9.3311440549
 20
11.9476969419
 30
0.0
 10
9.3202536233
 20
11.942718374
 30
0.0
 10
9.309889578
 20
11.9376651452
 30
0.0
 10
9.3000594542
 20
11.9325410087
 30
0.0
 10
9.2907704233
 20
11.9273496223
 30
0.0
 10
9.2820291911
 20
11.9220948098
 30
0.0
 10
9.2738421111
 20
11.9167802551
 30
0.0
 10
9.2662150424
 20
11.9114098075
 30
0.0
 10
9.2591535221
 20
11.9059871241
 30
0.0
 10
9.2526625722
 20
11.9005160177
 30
0.0
 10
9.2467469575
 20
11.8950000509
 30
0.0
 10
9.2414109353
 20
11.8894429346
 30
0.0
 10
9.2366586243
 20
11.8838480752
 30
0.0
 10
9.23249371
 20
11.8782191176
 30
0.0
 10
9.2289198497
 20
11.8725592214
 30
0.0
 10
9.2259406167
 20
11.8668727819
 30
0.0
 10
9.2243262936
 20
11.8630016603
 30
0.0
 10
9.2236267347
 20
11.8610700596
 30
0.0
  0
SPLINE
  5
357
100
AcDbEntity
  8
0
100
AcDbSpline
 62
7
  6
CONTINUOUS
 70
0
 71
3
 72
23
 73
19
 74
0
 42
0.0000001
 43
0.0000001
 44
0.0000000001
 40
0.0
 40
0.0
 40
0.0
 40
0.0
 40
0.0635608666
 40
0.1277998777
 40
0.1925421144
 40
0.2576112089
 40
0.3228294401
 40
0.388018646
 40
0.4530007355
 40
0.517598358
 40
0.5816355185
 40
0.6449382144
 40
0.7073350709
 40
0.7686579867
 40
0.8287427892
 40
0.8874299067
 40
0.9445650622
 40
1.0
 40
1.0
 40
1.0
 40
1.0
 10
10.2447526453
 20
11.778672982
 30
0.0
 10
10.230478753
 20
11.7796628798
 30
0.0
 10
10.2017633017
 20
11.7814376848
 30
0.0
 10
10.1584669472
 20
11.7834810619
 30
0.0
 10
10.1148063949
 20
11.7849161245
 30
0.0
 10
10.0709095873
 20
11.7857386435
 30
0.0
 10
10.0269049491
 20
11.7859461929
 30
0.0
 10
9.9829212998
 20
11.7855381635
 30
0.0
 10
9.9390873708
 20
11.7845157562
 30
0.0
 10
9.8955314612
 20
11.7828819839
 30
0.0
 10
9.8523810487
 20
11.7806416603
 30
0.0
 10
9.8097624171
 20
11.7778013876
 30
0.0
 10
9.7678002841
 20
11.7743695375
 30
0.0
 10
9.7266174264
 20
11.7703562268
 30
0.0
 10
9.6863343414
 20
11.7657732932
 30
0.0
 10
9.6470687947
 20
11.7606342459
 30
0.0
 10
9.6089358091
 20
11.7549542851
 30
0.0
 10
9.5839442676
 20
11.750751125
 30
0.0
 10
9.5716598228
 20
11.7485564506
 30
0.0
  0
SPLINE
  5
358
100
AcDbEntity
  8
0
100
AcDbSpline
 62
4
  6
CONTINUOUS
 70
0
 71
3
 72
403
 73
399
 74
0
 42
0.0000001
 43
0.0000001
 44
0.0000000001
 40
0.0
 40
0.0
 40
0.0
 40
0.0
 40
0.015625
 40
0.0234375
 40
0.03125
 40
0.0390625
 40
0.04296875
 40
0.046875
 40
0.05078125
 40
0.0546875
 40
0.056640625
 40
0.05859375
 40
0.0595703125
 40
0.060546875
 40
0.0615234375
 40
0.0620117188
 40
0.0622558594
 40
0.0625
 40
0.0627441406
 40
0.0629882812
 40
0.0634765625
 40
0.064453125
 40
0.0654296875
 40
0.06640625
 40
0.068359375
 40
0.0703125
 40
0.07421875
 40
0.078125
 40
0.08203125
 40
0.0859375
 40
0.09375
 40
0.1015625
 40
0.10546875
 40
0.109375
 40
0.11328125
 40
0.1171875
 40
0.119140625
 40
0.12109375
 40
0.1220703125
 40
0.123046875
 40
0.1240234375
 40
0.1245117188
 40
0.1247558594
 40
0.125
 40
0.1252441406
 40
0.1254882812
 40
0.1259765625
 40
0.126953125
 40
0.1279296875
 40
0.12890625
 40
0.130859375
 40
0.1328125
 40
0.13671875
 40
0.140625
 40
0.14453125
 40
0.1484375
 40
0.15625
 40
0.1640625
 40
0.16796875
 40
0.171875
 40
0.17578125
 40
0.1796875
 40
0.181640625
 40
0.18359375
 40
0.1845703125
 40
0.185546875
 40
0.1865234375
 40
0.1870117188
 40
0.1872558594
 40
0.1875
 40
0.1877441406
 40
0.1879882812
 40
0.1884765625
 40
0.189453125
 40
0.1904296875
 40
0.19140625
 40
0.193359375
 40
0.1953125
 40
0.19921875
 40
0.203125
 40
0.20703125
 40
0.2109375
 40
0.21875
 40
0.2265625
 40
0.23046875
 40
0.234375
 40
0.23828125
 40
0.2421875
 40
0.244140625
 40
0.24609375
 40
0.2470703125
 40
0.248046875
 40
0.2490234375
 40
0.2495117188
 40
0.2497558594
 40
0.25
 40
0.2502441406
 40
0.2504882812
 40
0.2509765625
 40
0.251953125
 40
0.2529296875
 40
0.25390625
 40
0.255859375
 40
0.2578125
 40
0.26171875
 40
0.265625
 40
0.26953125
 40
0.2734375
 40
0.28125
 40
0.2890625
 40
0.29296875
 40
0.296875
 40
0.30078125
 40
0.3046875
 40
0.306640625
 40
0.30859375
 40
0.3095703125
 40
0.310546875
 40
0.3115234375
 40
0.3120117188
 40
0.3122558594
 40
0.3125
 40
0.3127441406
 40
0.3129882812
 40
0.3134765625
 40
0.314453125
 40
0.3154296875
 40
0.31640625
 40
0.318359375
 40
0.3203125
 40
0.32421875
 40
0.328125
 40
0.33203125
 40
0.3359375
 40
0.34375
 40
0.3515625
 40
0.35546875
 40
0.359375
 40
0.36328125
 40
0.3671875
 40
0.369140625
 40
0.37109375
 40
0.3720703125
 40
0.373046875
 40
0.3740234375
 40
0.3745117188
 40
0.3747558594
 40
0.375
 40
0.3752441406
 40
0.3754882812
 40
0.3759765625
 40
0.376953125
 40
0.3779296875
 40
0.37890625
 40
0.380859375
 40
0.3828125
 40
0.38671875
 40
0.390625
 40
0.39453125
 40
0.3984375
 40
0.40625
 40
0.4140625
 40
0.41796875
 40
0.421875
 40
0.42578125
 40
0.4296875
 40
0.431640625
 40
0.43359375
 40
0.4345703125
 40
0.435546875
 40
0.4365234375
 40
0.4370117188
 40
0.4372558594
 40
0.4375
 40
0.4377441406
 40
0.4379882812
 40
0.4384765625
 40
0.439453125
 40
0.4404296875
 40
0.44140625
 40
0.443359375
 40
0.4453125
 40
0.44921875
 40
0.453125
 40
0.45703125
 40
0.4609375
 40
0.46875
 40
0.4765625
 40
0.48046875
 40
0.484375
 40
0.48828125
 40
0.4921875
 40
0.494140625
 40
0.49609375
 40
0.4970703125
 40
0.498046875
 40
0.4990234375
 40
0.4995117188
 40
0.4997558594
 40
0.5
 40
0.5002441406
 40
0.5004882812
 40
0.5009765625
 40
0.501953125
 40
0.5029296875
 40
0.50390625
 40
0.505859375
 40
0.5078125
 40
0.51171875
 40
0.515625
 40
0.51953125
 40
0.5234375
 40
0.53125
 40
0.5390625
 40
0.54296875
 40
0.546875
 40
0.55078125
 40
0.5546875
 40
0.556640625
 40
0.55859375
 40
0.5595703125
 40
0.560546875
 40
0.5615234375
 40
0.5620117188
 40
0.5622558594
 40
0.5625
 40
0.5627441406
 40
0.5629882812
 40
0.5634765625
 40
0.564453125
 40
0.5654296875
 40
0.56640625
 40
0.568359375
 40
0.5703125
 40
0.57421875
 40
0.578125
 40
0.58203125
 40
0.5859375
 40
0.59375
 40
0.6015625
 40
0.60546875
 40
0.609375
 40
0.61328125
 40
0.6171875
 40
0.619140625
 40
0.62109375
 40
0.6220703125
 40
0.623046875
 40
0.6240234375
 40
0.6245117188
 40
0.6247558594
 40
0.625
 40
0.6252441406
 40
0.6254882812
 40
0.6259765625
 40
0.626953125
 40
0.6279296875
 40
0.62890625
 40
0.630859375
 40
0.6328125
 40
0.63671875
 40
0.640625
 40
0.64453125
 40
0.6484375
 40
0.65625
 40
0.6640625
 40
0.66796875
 40
0.671875
 40
0.67578125
 40
0.6796875
 40
0.681640625
 40
0.68359375
 40
0.6845703125
 40
0.685546875
 40
0.6865234375
 40
0.6870117188
 40
0.6872558594
 40
0.6875
 40
0.6877441406
 40
0.6879882812
 40
0.6884765625
 40
0.689453125
 40
0.6904296875
 40
0.69140625
 40
0.693359375
 40
0.6953125
 40
0.69921875
 40
0.703125
 40
0.70703125
 40
0.7109375
 40
0.71875
 40
0.7265625
 40
0.73046875
 40
0.734375
 40
0.73828125
 40
0.7421875
 40
0.744140625
 40
0.74609375
 40
0.7470703125
 40
0.748046875
 40
0.7490234375
 40
0.7495117188
 40
0.7497558594
 40
0.75
 40
0.7502441406
 40
0.7504882812
 40
0.7509765625
 40
0.751953125
 40
0.7529296875
 40
0.75390625
 40
0.755859375
 40
0.7578125
 40
0.76171875
 40
0.765625
 40
0.76953125
 40
0.7734375
 40
0.78125
 40
0.7890625
 40
0.79296875
 40
0.796875
 40
0.80078125
 40
0.8046875
 40
0.806640625
 40
0.80859375
 40
0.8095703125
 40
0.810546875
 40
0.8115234375
 40
0.8120117188
 40
0.8122558594
 40
0.8125
 40
0.8127441406
 40
0.8129882812
 40
0.8134765625
 40
0.814453125
 40
0.8154296875
 40
0.81640625
 40
0.818359375
 40
0.8203125
 40
0.82421875
 40
0.828125
 40
0.83203125
 40
0.8359375
 40
0.84375
 40
0.8515625
 40
0.85546875
 40
0.859375
 40
0.86328125
 40
0.8671875
 40
0.869140625
 40
0.87109375
 40
0.8720703125
 40
0.873046875
 40
0.8740234375
 40
0.8745117188
 40
0.8747558594
 40
0.875
 40
0.8752441406
 40
0.8754882812
 40
0.8759765625
 40
0.876953125
 40
0.8779296875
 40
0.87890625
 40
0.880859375
 40
0.8828125
 40
0.88671875
 40
0.890625
 40
0.89453125
 40
0.8984375
 40
0.90625
 40
0.9140625
 40
0.91796875
 40
0.921875
 40
0.92578125
 40
0.9296875
 40
0.931640625
 40
0.93359375
 40
0.9345703125
 40
0.935546875
 40
0.9365234375
 40
0.9370117188
 40
0.9372558594
 40
0.9375
 40
0.9377441406
 40
0.9379882812
 40
0.9384765625
 40
0.939453125
 40
0.9404296875
 40
0.94140625
 40
0.943359375
 40
0.9453125
 40
0.94921875
 40
0.953125
 40
0.95703125
 40
0.9609375
 40
0.96875
 40
0.9765625
 40
0.984375
 40
1.0
 40
1.0
 40
1.0
 40
1.0
 10
9.8090750345
 20
8.6130674724
 30
0.0
 10
9.814703514
 20
8.6132290133
 30
0.0
 10
9.8231462332
 20
8.6134713246
 30
0.0
 10
9.8344031922
 20
8.6137944063
 30
0.0
 10
9.8428459114
 20
8.6140367177
 30
0.0
 10
9.8498815109
 20
8.6142386434
 30
0.0
 10
9.8555099902
 20
8.6144001849
 30
0.0
 10
9.8597313502
 20
8.6145213387
 30
0.0
 10
9.8639527085
 20
8.6146425011
 30
0.0
 10
9.8674705123
 20
8.6147434433
 30
0.0
 10
9.8702847437
 20
8.6148242563
 30
0.0
 10
9.8720436647
 20
8.6148746295
 30
0.0
 10
9.8734507412
 20
8.614915237
 30
0.0
 10
9.8745062137
 20
8.6149448467
 30
0.0
 10
9.8753852486
 20
8.6149722124
 30
0.0
 10
9.8760016045
 20
8.6149860876
 30
0.0
 10
9.8763521973
 20
8.6150022618
 30
0.0
 10
9.8766196788
 20
8.6149911646
 30
0.0
 10
9.8768698178
 20
8.6150688564
 30
0.0
 10
9.8772093858
 20
8.6151414748
 30
0.0
 10
9.8778008112
 20
8.6152829869
 30
0.0
 10
9.8786471782
 20
8.6154776029
 30
0.0
 10
9.8796621879
 20
8.6157143713
 30
0.0
 10
9.8810157544
 20
8.6160289345
 30
0.0
 10
9.8827076372
 20
8.6164225248
 30
0.0
 10
9.8854146917
 20
8.6170520534
 30
0.0
 10
9.8887984954
 20
8.6178390382
 30
0.0
 10
9.8928590661
 20
8.6187833882
 30
0.0
 10
9.8969196351
 20
8.6197277467
 30
0.0
 10
9.9023337276
 20
8.6209868884
 30
0.0
 10
9.9091013431
 20
8.6225608167
 30
0.0
 10
9.9158689588
 20
8.6241347442
 30
0.0
 10
9.9212830511
 20
8.6253938871
 30
0.0
 10
9.9253436211
 20
8.6263382421
 30
0.0
 10
9.9294041879
 20
8.6272826052
 30
0.0
 10
9.9327880036
 20
8.6280695492
 30
0.0
 10
9.9354950336
 20
8.628699161
 30
0.0
 10
9.937186979
 20
8.6290925394
 30
0.0
 10
9.9385404169
 20
8.6294075376
 30
0.0
 10
9.9395558195
 20
8.6296429773
 30
0.0
 10
9.9404009571
 20
8.6298417504
 30
0.0
 10
9.9409945771
 20
8.6299758414
 30
0.0
 10
9.9413306288
 20
8.6300603502
 30
0.0
 10
9.9415915687
 20
8.6301015188
 30
0.0
 10
9.941818484
 20
8.6302275967
 30
0.0
 10
9.9421329059
 20
8.6303660833
 30
0.0
 10
9.9426776146
 20
8.6306222341
 30
0.0
 10
9.9434586608
 20
8.6309809494
 30
0.0
 10
9.9443946788
 20
8.6314144958
 30
0.0
 10
9.9456431351
 20
8.6319914791
 30
0.0
 10
9.9472035574
 20
8.6327130775
 30
0.0
 10
9.9497003159
 20
8.6338674285
 30
0.0
 10
9.9528212356
 20
8.635310438
 30
0.0
 10
9.9565663514
 20
8.6370420192
 30
0.0
 10
9.960311464
 20
8.6387736084
 30
0.0
 10
9.9653049485
 20
8.6410823913
 30
0.0
 10
9.9715468038
 20
8.6439683709
 30
0.0
 10
9.9777886594
 20
8.6468543498
 30
0.0
 10
9.9827821434
 20
8.6491631337
 30
0.0
 10
9.9865272575
 20
8.6508947196
 30
0.0
 10
9.9902723675
 20
8.6526263134
 30
0.0
 10
9.9933933054
 20
8.6540692835
 30
0.0
 10
9.9958900267
 20
8.6552237151
 30
0.0
 10
9.9974505437
 20
8.6559451084
 30
0.0
 10
9.9986988056
 20
8.6565225125
 30
0.0
 10
9.9996354175
 20
8.6569547732
 30
0.0
 10
10.0004146057
 20
8.6573175111
 30
0.0
 10
10.0009626314
 20
8.657566481
 30
0.0
 10
10.0012717386
 20
8.6577164732
 30
0.0
 10
10.0015149789
 20
8.6578072095
 30
0.0
 10
10.0017146046
 20
8.6579811153
 30
0.0
 10
10.0019959856
 20
8.6581839792
 30
0.0
 10
10.0024813141
 20
8.6585525075
 30
0.0
 10
10.0031783462
 20
8.65907191
 30
0.0
 10
10.0040131987
 20
8.6596982177
 30
0.0
 10
10.0051268892
 20
8.6605322381
 30
0.0
 10
10.0065188128
 20
8.6615751254
 30
0.0
 10
10.0087459964
 20
8.6632435429
 30
0.0
 10
10.0115299397
 20
8.6653291341
 30
0.0
 10
10.0148706871
 20
8.6678318138
 30
0.0
 10
10.0182114304
 20
8.6703345015
 30
0.0
 10
10.0226657562
 20
8.6736714156
 30
0.0
 10
10.0282336629
 20
8.6778425593
 30
0.0
 10
10.0338015701
 20
8.6820137024
 30
0.0
 10
10.0382558952
 20
8.6853506175
 30
0.0
 10
10.0415966407
 20
8.6878533022
 30
0.0
 10
10.0449373796
 20
8.690355993
 30
0.0
 10
10.0477213495
 20
8.6924415498
 30
0.0
 10
10.0499484788
 20
8.6941100376
 30
0.0
 10
10.0513405408
 20
8.695152746
 30
0.0
 10
10.0524539471
 20
8.6959871335
 30
0.0
 10
10.0532896681
 20
8.6966123197
 30
0.0
 10
10.0539839826
 20
8.6971352311
 30
0.0
 10
10.0544741626
 20
8.6974974955
 30
0.0
 10
10.0547477701
 20
8.6977103957
 30
0.0
 10
10.0549712734
 20
8.697853473
 30
0.0
 10
10.0551248338
 20
8.6980599961
 30
0.0
 10
10.0553539779
 20
8.6983132296
 30
0.0
 10
10.0557436131
 20
8.6987666992
 30
0.0
 10
10.0563061776
 20
8.6994091223
 30
0.0
 10
10.0569787114
 20
8.7001823374
 30
0.0
 10
10.0578763115
 20
8.701212485
 30
0.0
 10
10.0589980074
 20
8.7025004454
 30
0.0
 10
10.0607928908
 20
8.7045610278
 30
0.0
 10
10.0630364368
 20
8.7071368087
 30
0.0
 10
10.065728717
 20
8.7102277232
 30
0.0
 10
10.0684209905
 20
8.7133186436
 30
0.0
 10
10.0720106908
 20
8.7174398688
 30
0.0
 10
10.0764978154
 20
8.7225914011
 30
0.0
 10
10.0809849406
 20
8.7277429329
 30
0.0
 10
10.0845746399
 20
8.7318641589
 30
0.0
 10
10.0872669163
 20
8.734955077
 30
0.0
 10
10.0899591856
 20
8.7380460004
 30
0.0
 10
10.0922027655
 20
8.7406217535
 30
0.0
 10
10.0939975799
 20
8.7426823926
 30
0.0
 10
10.0951194516
 20
8.7439702088
 30
0.0
 10
10.0960166908
 20
8.7450006524
 30
0.0
 10
10.0966903271
 20
8.7457729629
 30
0.0
 10
10.097249442
 20
8.7464182163
 30
0.0
 10
10.0976452353
 20
8.7468666334
 30
0.0
 10
10.0978645126
 20
8.7471279624
 30
0.0
 10
10.0980483808
 20
8.7473096189
 30
0.0
 10
10.098158053
 20
8.7475460908
 30
0.0
 10
10.0983301631
 20
8.7478422664
 30
0.0
 10
10.0986192976
 20
8.7483694823
 30
0.0
 10
10.0990386509
 20
8.7491179904
 30
0.0
 10
10.0995391766
 20
8.7500181936
 30
0.0
 10
10.1002074866
 20
8.7512177683
 30
0.0
 10
10.1010425514
 20
8.752717475
 30
0.0
 10
10.1023788355
 20
8.7551168726
 30
0.0
 10
10.1040491287
 20
8.7581161652
 30
0.0
 10
10.1060535071
 20
8.7617152968
 30
0.0
 10
10.1080578784
 20
8.7653144336
 30
0.0
 10
10.110730376
 20
8.7701132809
 30
0.0
 10
10.114070997
 20
8.7761118407
 30
0.0
 10
10.1174116186
 20
8.7821104
 30
0.0
 10
10.1200841151
 20
8.7869092479
 30
0.0
 10
10.1220884896
 20
8.7905083828
 30
0.0
 10
10.1240928561
 20
8.7941075216
 30
0.0
 10
10.1257631861
 20
8.797106792
 30
0.0
 10
10.1270993952
 20
8.799506235
 30
0.0
 10
10.127934651
 20
8.801005826
 30
0.0
 10
10.1286025689
 20
8.8022056381
 30
0.0
 10
10.1291042926
 20
8.8031051159
 30
0.0
 10
10.1295198975
 20
8.8038558938
 30
0.0
 10
10.1298157236
 20
8.8043790576
 30
0.0
 10
10.129977112
 20
8.8046817257
 30
0.0
 10
10.1301197178
 20
8.8048982549
 30
0.0
 10
10.1301798931
 20
8.8051548131
 30
0.0
 10
10.1302888795
 20
8.8054829281
 30
0.0
 10
10.1304662093
 20
8.8060636349
 30
0.0
 10
10.1307265414
 20
8.8068898149
 30
0.0
 10
10.131035942
 20
8.8078826866
 30
0.0
 10
10.1314495233
 20
8.8092060072
 30
0.0
 10
10.1319661414
 20
8.810860332
 30
0.0
 10
10.1327929308
 20
8.8135071543
 30
0.0
 10
10.1338263487
 20
8.8168157156
 30
0.0
 10
10.1350664796
 20
8.8207859748
 30
0.0
 10
10.1363066027
 20
8.8247562379
 30
0.0
 10
10.1379601029
 20
8.8300499207
 30
0.0
 10
10.1400269771
 20
8.8366670246
 30
0.0
 10
10.142093852
 20
8.8432841283
 30
0.0
 10
10.143747351
 20
8.8485778115
 30
0.0
 10
10.1449874775
 20
8.8525480731
 30
0.0
 10
10.1462275956
 20
8.8565183378
 30
0.0
 10
10.1472610535
 20
8.8598268822
 30
0.0
 10
10.1480877613
 20
8.862473739
 30
0.0
 10
10.1486045867
 20
8.864127976
 30
0.0
 10
10.1490177425
 20
8.8654514767
 30
0.0
 10
10.1493284431
 20
8.8664437982
 30
0.0
 10
10.1495847081
 20
8.8672716996
 30
0.0
 10
10.1497692984
 20
8.8678493334
 30
0.0
 10
10.1498666516
 20
8.8681823722
 30
0.0
 10
10.1499625602
 20
8.8684238061
 30
0.0
 10
10.1499709577
 20
8.8686971397
 30
0.0
 10
10.1500126793
 20
8.8690504574
 30
0.0
 10
10.1500714699
 20
8.8696739478
 30
0.0
 10
10.150162892
 20
8.8705619379
 30
0.0
 10
10.1502694159
 20
8.8716286862
 30
0.0
 10
10.1504125594
 20
8.873050612
 30
0.0
 10
10.1505911081
 20
8.874828158
 30
0.0
 10
10.1508769988
 20
8.8776721541
 30
0.0
 10
10.1512342891
 20
8.8812271758
 30
0.0
 10
10.1516630689
 20
8.8854931905
 30
0.0
 10
10.1520918402
 20
8.8897592082
 30
0.0
 10
10.1526635383
 20
8.8954472307
 30
0.0
 10
10.1533781598
 20
8.9025572593
 30
0.0
 10
10.154092782
 20
8.9096672877
 30
0.0
 10
10.1546644789
 20
8.9153553104
 30
0.0
 10
10.1550932538
 20
8.9196213275
 30
0.0
 10
10.15552202
 20
8.9238873444
 30
0.0
 10
10.1558793523
 20
8.9274423591
 30
0.0
 10
10.1561651575
 20
8.9302863696
 30
0.0
 10
10.1563439238
 20
8.9320638788
 30
0.0
 10
10.1564866206
 20
8.9334858802
 30
0.0
 10
10.1565945091
 20
8.9345523976
 30
0.0
 10
10.1566816617
 20
8.93544111
 30
0.0
 10
10.1567480742
 20
8.936063311
 30
0.0
 10
10.1567775835
 20
8.9364186946
 30
0.0
 10
10.1568234931
 20
8.9366856825
 30
0.0
 10
10.1567785126
 20
8.9369509497
 30
0.0
 10
10.156750242
 20
8.9373052395
 30
0.0
 10
10.1566859973
 20
8.9379249671
 30
0.0
 10
10.1566019417
 20
8.9388104383
 30
0.0
 10
10.1564977695
 20
8.9398729412
 30
0.0
 10
10.1563600278
 20
8.9412896336
 30
0.0
 10
10.1561874553
 20
8.9430604916
 30
0.0
 10
10.1559115602
 20
8.9458938685
 30
0.0
 10
10.1555666156
 20
8.9494355883
 30
0.0
 10
10.1551527145
 20
8.9536856527
 30
0.0
 10
10.1547388048
 20
8.9579357169
 30
0.0
 10
10.1541869281
 20
8.9636024692
 30
0.0
 10
10.1534970812
 20
8.9706859096
 30
0.0
 10
10.152807235
 20
8.97776935
 30
0.0
 10
10.1522553572
 20
8.9834361022
 30
0.0
 10
10.151841451
 20
8.9876861667
 30
0.0
 10
10.1514275365
 20
8.9919362301
 30
0.0
 10
10.1510826338
 20
8.9954779529
 30
0.0
 10
10.1508066532
 20
8.9983113237
 30
0.0
 10
10.1506342984
 20
9.0000821975
 30
0.0
 10
10.1504961098
 20
9.0014988574
 30
0.0
 10
10.1503933028
 20
9.0025614596
 30
0.0
 10
10.1503049758
 20
9.00344662
 30
0.0
 10
10.1502483562
 20
9.0040669025
 30
0.0
 10
10.1502078683
 20
9.0044203031
 30
0.0
 10
10.1502004156
 20
9.0046883015
 30
0.0
 10
10.1501053766
 20
9.0049450315
 30
0.0
 10
10.1500092091
 20
9.0052912687
 30
0.0
 10
10.1498266815
 20
9.0058953524
 30
0.0
 10
10.1495733697
 20
9.0067592867
 30
0.0
 10
10.1492662102
 20
9.0077955979
 30
0.0
 10
10.1488577768
 20
9.0091774894
 30
0.0
 10
10.148346854
 20
9.0109048048
 30
0.0
 10
10.1475295906
 20
9.0136685367
 30
0.0
 10
10.1465079382
 20
9.0171231923
 30
0.0
 10
10.1452819866
 20
9.021268783
 30
0.0
 10
10.1440560267
 20
9.0254143726
 30
0.0
 10
10.1424214164
 20
9.0309418257
 30
0.0
 10
10.1403781524
 20
9.0378511421
 30
0.0
 10
10.1383348892
 20
9.0447604586
 30
0.0
 10
10.1367002778
 20
9.0502879115
 30
0.0
 10
10.1354743213
 20
9.0544335019
 30
0.0
 10
10.1342483569
 20
9.0585790896
 30
0.0
 10
10.1332267444
 20
9.0620337544
 30
0.0
 10
10.1324093994
 20
9.0647974674
 30
0.0
 10
10.1318986842
 20
9.066524831
 30
0.0
 10
10.1314898248
 20
9.0679066234
 30
0.0
 10
10.1311839667
 20
9.0689432374
 30
0.0
 10
10.1309265832
 20
9.0698062246
 30
0.0
 10
10.1307513244
 20
9.0704119989
 30
0.0
 10
10.1306435104
 20
9.0707555275
 30
0.0
 10
10.1305842456
 20
9.0710205774
 30
0.0
 10
10.130442431
 20
9.0712573275
 30
0.0
 10
10.1302821392
 20
9.0715828657
 30
0.0
 10
10.1299882127
 20
9.0721479583
 30
0.0
 10
10.1295753316
 20
9.0729576379
 30
0.0
 10
10.1290768722
 20
9.0739282242
 30
0.0
 10
10.1284133082
 20
9.0752226988
 30
0.0
 10
10.1275834941
 20
9.076840669
 30
0.0
 10
10.1262559924
 20
9.07942949
 30
0.0
 10
10.1245965463
 20
9.0826654927
 30
0.0
 10
10.1226052405
 20
9.086548706
 30
0.0
 10
10.1206139268
 20
9.0904319166
 30
0.0
 10
10.1179588446
 20
9.0956095318
 30
0.0
 10
10.1146399909
 20
9.1020815503
 30
0.0
 10
10.1113211378
 20
9.1085535691
 30
0.0
 10
10.1086660546
 20
9.1137311838
 30
0.0
 10
10.1066747441
 20
9.1176143958
 30
0.0
 10
10.1046834261
 20
9.1214976041
 30
0.0
 10
10.1030240182
 20
9.1247336224
 30
0.0
 10
10.1016964384
 20
9.1273224116
 30
0.0
 10
10.1008668228
 20
9.1289404627
 30
0.0
 10
10.1002028515
 20
9.1302347711
 30
0.0
 10
10.0997056365
 20
9.1312058651
 30
0.0
 10
10.0992888618
 20
9.1320139566
 30
0.0
 10
10.0990018862
 20
9.1325818841
 30
0.0
 10
10.0988304573
 20
9.13290288
 30
0.0
 10
10.0987228522
 20
9.1331535827
 30
0.0
 10
10.0985351024
 20
9.133366229
 30
0.0
 10
10.0983127246
 20
9.1336630319
 30
0.0
 10
10.0979105386
 20
9.134176252
 30
0.0
 10
10.0973427968
 20
9.1349126572
 30
0.0
 10
10.0966585919
 20
9.1357949594
 30
0.0
 10
10.0957473368
 20
9.1369718458
 30
0.0
 10
10.0946079193
 20
9.1384427882
 30
0.0
 10
10.0927850461
 20
9.1407963885
 30
0.0
 10
10.0905063877
 20
9.1437383572
 30
0.0
 10
10.0877720264
 20
9.1472687333
 30
0.0
 10
10.0850376574
 20
9.1507991057
 30
0.0
 10
10.0813918347
 20
9.1555062702
 30
0.0
 10
10.0768345554
 20
9.1613902253
 30
0.0
 10
10.0722772766
 20
9.1672741808
 30
0.0
 10
10.068631453
 20
9.1719813446
 30
0.0
 10
10.0658970868
 20
9.1755117191
 30
0.0
 10
10.063162715
 20
9.1790420873
 30
0.0
 10
10.0608840892
 20
9.1819840805
 30
0.0
 10
10.0590611495
 20
9.184337631
 30
0.0
 10
10.0579219013
 20
9.1858087002
 30
0.0
 10
10.0570102988
 20
9.1869853263
 30
0.0
 10
10.0563271551
 20
9.1878684235
 30
0.0
 10
10.0557560929
 20
9.1886023413
 30
0.0
 10
10.0553598344
 20
9.189120002
 30
0.0
 10
10.0551279594
 20
9.1894096901
 30
0.0
 10
10.0549693821
 20
9.1896441907
 30
0.0
 10
10.0547522096
 20
9.1898128121
 30
0.0
 10
10.0544830849
 20
9.19006062
 30
0.0
 10
10.0540025939
 20
9.1904835774
 30
0.0
 10
10.0533211569
 20
9.1910933998
 30
0.0
 10
10.0525013014
 20
9.1918227906
 30
0.0
 10
10.051408905
 20
9.1927961487
 30
0.0
 10
10.0500431548
 20
9.1940125597
 30
0.0
 10
10.0478580968
 20
9.1959589774
 30
0.0
 10
10.0451267254
 20
9.1983919447
 30
0.0
 10
10.0418491007
 20
9.2013115289
 30
0.0
 10
10.0385714704
 20
9.2042311068
 30
0.0
 10
10.0342012986
 20
9.2081238796
 30
0.0
 10
10.0287385832
 20
9.2129898448
 30
0.0
 10
10.0232758682
 20
9.2178558105
 30
0.0
 10
10.0189056957
 20
9.2217485824
 30
0.0
 10
10.0156280676
 20
9.2246681631
 30
0.0
 10
10.0123504348
 20
9.227587737
 30
0.0
 10
10.0096190888
 20
9.2300207363
 30
0.0
 10
10.007433979
 20
9.2319670886
 30
0.0
 10
10.0060683607
 20
9.2331836662
 30
0.0
 10
10.0049756933
 20
9.2341566822
 30
0.0
 10
10.004156666
 20
9.2348871182
 30
0.0
 10
10.0034726379
 20
9.2354936706
 30
0.0
 10
10.0029967724
 20
9.2359224653
 30
0.0
 10
10.0027202365
 20
9.2361609204
 30
0.0
 10
10.0025258287
 20
9.2363582709
 30
0.0
 10
10.002281751
 20
9.23648487
 30
0.0
 10
10.0019736394
 20
9.2366783476
 30
0.0
 10
10.001426372
 20
9.2370054352
 30
0.0
 10
10.0006487817
 20
9.2374787146
 30
0.0
 10
9.9997138669
 20
9.2380440769
 30
0.0
 10
9.9984679448
 20
9.2387987919
 30
0.0
 10
9.9969103261
 20
9.2397418779
 30
0.0
 10
9.9944182569
 20
9.2412509876
 30
0.0
 10
9.9913031291
 20
9.2431373157
 30
0.0
 10
9.9875649934
 20
9.2454009347
 30
0.0
 10
9.9838268529
 20
9.2476645469
 30
0.0
 10
9.9788426673
 20
9.2506826989
 30
0.0
 10
9.9726124347
 20
9.254455388
 30
0.0
 10
9.9663822024
 20
9.2582280777
 30
0.0
 10
9.9613980163
 20
9.2612462287
 30
0.0
 10
9.9576598775
 20
9.2635098439
 30
0.0
 10
9.9539217355
 20
9.2657734515
 30
0.0
 10
9.9508066273
 20
9.267659815
 30
0.0
 10
9.9483145179
 20
9.2691688524
 30
0.0
 10
9.9467570017
 20
9.2701121224
 30
0.0
 10
9.9455108693
 20
9.2708664598
 30
0.0
 10
9.9445765969
 20
9.2714329756
 30
0.0
 10
9.9437969966
 20
9.2719026459
 30
0.0
 10
9.9432533173
 20
9.2722361763
 30
0.0
 10
9.9429394568
 20
9.272419331
 30
0.0
 10
9.9427130379
 20
9.272577639
 30
0.0
 10
9.9424523065
 20
9.2726558961
 30
0.0
 10
9.9421166332
 20
9.2727881615
 30
0.0
 10
9.9415236286
 20
9.2730066163
 30
0.0
 10
9.9406793945
 20
9.2733254962
 30
0.0
 10
9.9396650658
 20
9.2737052408
 30
0.0
 10
9.9383130633
 20
9.2742125838
 30
0.0
 10
9.9366229109
 20
9.2748464144
 30
0.0
 10
9.9339187506
 20
9.2758607379
 30
0.0
 10
9.9305385215
 20
9.2771285754
 30
0.0
 10
9.9264822589
 20
9.2786500092
 30
0.0
 10
9.922425993
 20
9.2801714352
 30
0.0
 10
9.9170176396
 20
9.282200006
 30
0.0
 10
9.9102571974
 20
9.2847357185
 30
0.0
 10
9.9034967555
 20
9.2872714316
 30
0.0
 10
9.8980884017
 20
9.2893000013
 30
0.0
 10
9.894032137
 20
9.2908214307
 30
0.0
 10
9.8899758699
 20
9.2923428519
 30
0.0
 10
9.8865956549
 20
9.2936107284
 30
0.0
 10
9.8838914657
 20
9.2946249724
 30
0.0
 10
9.8822013867
 20
9.2952590052
 30
0.0
 10
9.8808492337
 20
9.2957659331
 30
0.0
 10
9.8798353649
 20
9.2961469457
 30
0.0
 10
9.8789896915
 20
9.2964618584
 30
0.0
 10
9.8783992564
 20
9.2966873955
 30
0.0
 10
9.8780594661
 20
9.2968083133
 30
0.0
 10
9.8778113809
 20
9.2969214266
 30
0.0
 10
9.8775374648
 20
9.2969488203
 30
0.0
 10
9.8771812535
 20
9.2970152452
 30
0.0
 10
9.8765536857
 20
9.2971175578
 30
0.0
 10
9.8756593551
 20
9.2972710019
 30
0.0
 10
9.8745852189
 20
9.2974520174
 30
0.0
 10
9.8731533654
 20
9.2976944603
 30
0.0
 10
9.8713634362
 20
9.297997141
 30
0.0
 10
9.8684996123
 20
9.2984816385
 30
0.0
 10
9.8649198108
 20
9.299087189
 30
0.0
 10
9.8606240583
 20
9.2998138801
 30
0.0
 10
9.8563283033
 20
9.3005405631
 30
0.0
 10
9.8506006308
 20
9.3015094766
 30
0.0
 10
9.8434410399
 20
9.3027206175
 30
0.0
 10
9.834849531
 20
9.304173987
 30
0.0
 10
9.8233941857
 20
9.3061118128
 30
0.0
 10
9.8148026767
 20
9.3075651822
 30
0.0
 10
9.8090750041
 20
9.3085340951
 30
0.0
  0
SPLINE
  5
359
100
AcDbEntity
  8
0
100
AcDbSpline
 62
4
  6
CONTINUOUS
 70
0
 71
3
 72
403
 73
399
 74
0
 42
0.0000001
 43
0.0000001
 44
0.0000000001
 40
0.0
 40
0.0
 40
0.0
 40
0.0
 40
0.015625
 40
0.0234375
 40
0.03125
 40
0.0390625
 40
0.04296875
 40
0.046875
 40
0.05078125
 40
0.0546875
 40
0.056640625
 40
0.05859375
 40
0.0595703125
 40
0.060546875
 40
0.0615234375
 40
0.0620117188
 40
0.0622558594
 40
0.0625
 40
0.0627441406
 40
0.0629882812
 40
0.0634765625
 40
0.064453125
 40
0.0654296875
 40
0.06640625
 40
0.068359375
 40
0.0703125
 40
0.07421875
 40
0.078125
 40
0.08203125
 40
0.0859375
 40
0.09375
 40
0.1015625
 40
0.10546875
 40
0.109375
 40
0.11328125
 40
0.1171875
 40
0.119140625
 40
0.12109375
 40
0.1220703125
 40
0.123046875
 40
0.1240234375
 40
0.1245117188
 40
0.1247558594
 40
0.125
 40
0.1252441406
 40
0.1254882812
 40
0.1259765625
 40
0.126953125
 40
0.1279296875
 40
0.12890625
 40
0.130859375
 40
0.1328125
 40
0.13671875
 40
0.140625
 40
0.14453125
 40
0.1484375
 40
0.15625
 40
0.1640625
 40
0.16796875
 40
0.171875
 40
0.17578125
 40
0.1796875
 40
0.181640625
 40
0.18359375
 40
0.1845703125
 40
0.185546875
 40
0.1865234375
 40
0.1870117188
 40
0.1872558594
 40
0.1875
 40
0.1877441406
 40
0.1879882812
 40
0.1884765625
 40
0.189453125
 40
0.1904296875
 40
0.19140625
 40
0.193359375
 40
0.1953125
 40
0.19921875
 40
0.203125
 40
0.20703125
 40
0.2109375
 40
0.21875
 40
0.2265625
 40
0.23046875
 40
0.234375
 40
0.23828125
 40
0.2421875
 40
0.244140625
 40
0.24609375
 40
0.2470703125
 40
0.248046875
 40
0.2490234375
 40
0.2495117188
 40
0.2497558594
 40
0.25
 40
0.2502441406
 40
0.2504882812
 40
0.2509765625
 40
0.251953125
 40
0.2529296875
 40
0.25390625
 40
0.255859375
 40
0.2578125
 40
0.26171875
 40
0.265625
 40
0.26953125
 40
0.2734375
 40
0.28125
 40
0.2890625
 40
0.29296875
 40
0.296875
 40
0.30078125
 40
0.3046875
 40
0.306640625
 40
0.30859375
 40
0.3095703125
 40
0.310546875
 40
0.3115234375
 40
0.3120117188
 40
0.3122558594
 40
0.3125
 40
0.3127441406
 40
0.3129882812
 40
0.3134765625
 40
0.314453125
 40
0.3154296875
 40
0.31640625
 40
0.318359375
 40
0.3203125
 40
0.32421875
 40
0.328125
 40
0.33203125
 40
0.3359375
 40
0.34375
 40
0.3515625
 40
0.35546875
 40
0.359375
 40
0.36328125
 40
0.3671875
 40
0.369140625
 40
0.37109375
 40
0.3720703125
 40
0.373046875
 40
0.3740234375
 40
0.3745117188
 40
0.3747558594
 40
0.375
 40
0.3752441406
 40
0.3754882812
 40
0.3759765625
 40
0.376953125
 40
0.3779296875
 40
0.37890625
 40
0.380859375
 40
0.3828125
 40
0.38671875
 40
0.390625
 40
0.39453125
 40
0.3984375
 40
0.40625
 40
0.4140625
 40
0.41796875
 40
0.421875
 40
0.42578125
 40
0.4296875
 40
0.431640625
 40
0.43359375
 40
0.4345703125
 40
0.435546875
 40
0.4365234375
 40
0.4370117188
 40
0.4372558594
 40
0.4375
 40
0.4377441406
 40
0.4379882812
 40
0.4384765625
 40
0.439453125
 40
0.4404296875
 40
0.44140625
 40
0.443359375
 40
0.4453125
 40
0.44921875
 40
0.453125
 40
0.45703125
 40
0.4609375
 40
0.46875
 40
0.4765625
 40
0.48046875
 40
0.484375
 40
0.48828125
 40
0.4921875
 40
0.494140625
 40
0.49609375
 40
0.4970703125
 40
0.498046875
 40
0.4990234375
 40
0.4995117188
 40
0.4997558594
 40
0.5
 40
0.5002441406
 40
0.5004882812
 40
0.5009765625
 40
0.501953125
 40
0.5029296875
 40
0.50390625
 40
0.505859375
 40
0.5078125
 40
0.51171875
 40
0.515625
 40
0.51953125
 40
0.5234375
 40
0.53125
 40
0.5390625
 40
0.54296875
 40
0.546875
 40
0.55078125
 40
0.5546875
 40
0.556640625
 40
0.55859375
 40
0.5595703125
 40
0.560546875
 40
0.5615234375
 40
0.5620117188
 40
0.5622558594
 40
0.5625
 40
0.5627441406
 40
0.5629882812
 40
0.5634765625
 40
0.564453125
 40
0.5654296875
 40
0.56640625
 40
0.568359375
 40
0.5703125
 40
0.57421875
 40
0.578125
 40
0.58203125
 40
0.5859375
 40
0.59375
 40
0.6015625
 40
0.60546875
 40
0.609375
 40
0.61328125
 40
0.6171875
 40
0.619140625
 40
0.62109375
 40
0.6220703125
 40
0.623046875
 40
0.6240234375
 40
0.6245117188
 40
0.6247558594
 40
0.625
 40
0.6252441406
 40
0.6254882812
 40
0.6259765625
 40
0.626953125
 40
0.6279296875
 40
0.62890625
 40
0.630859375
 40
0.6328125
 40
0.63671875
 40
0.640625
 40
0.64453125
 40
0.6484375
 40
0.65625
 40
0.6640625
 40
0.66796875
 40
0.671875
 40
0.67578125
 40
0.6796875
 40
0.681640625
 40
0.68359375
 40
0.6845703125
 40
0.685546875
 40
0.6865234375
 40
0.6870117188
 40
0.6872558594
 40
0.6875
 40
0.6877441406
 40
0.6879882812
 40
0.6884765625
 40
0.689453125
 40
0.6904296875
 40
0.69140625
 40
0.693359375
 40
0.6953125
 40
0.69921875
 40
0.703125
 40
0.70703125
 40
0.7109375
 40
0.71875
 40
0.7265625
 40
0.73046875
 40
0.734375
 40
0.73828125
 40
0.7421875
 40
0.744140625
 40
0.74609375
 40
0.7470703125
 40
0.748046875
 40
0.7490234375
 40
0.7495117188
 40
0.7497558594
 40
0.75
 40
0.7502441406
 40
0.7504882812
 40
0.7509765625
 40
0.751953125
 40
0.7529296875
 40
0.75390625
 40
0.755859375
 40
0.7578125
 40
0.76171875
 40
0.765625
 40
0.76953125
 40
0.7734375
 40
0.78125
 40
0.7890625
 40
0.79296875
 40
0.796875
 40
0.80078125
 40
0.8046875
 40
0.806640625
 40
0.80859375
 40
0.8095703125
 40
0.810546875
 40
0.8115234375
 40
0.8120117188
 40
0.8122558594
 40
0.8125
 40
0.8127441406
 40
0.8129882812
 40
0.8134765625
 40
0.814453125
 40
0.8154296875
 40
0.81640625
 40
0.818359375
 40
0.8203125
 40
0.82421875
 40
0.828125
 40
0.83203125
 40
0.8359375
 40
0.84375
 40
0.8515625
 40
0.85546875
 40
0.859375
 40
0.86328125
 40
0.8671875
 40
0.869140625
 40
0.87109375
 40
0.8720703125
 40
0.873046875
 40
0.8740234375
 40
0.8745117188
 40
0.8747558594
 40
0.875
 40
0.8752441406
 40
0.8754882812
 40
0.8759765625
 40
0.876953125
 40
0.8779296875
 40
0.87890625
 40
0.880859375
 40
0.8828125
 40
0.88671875
 40
0.890625
 40
0.89453125
 40
0.8984375
 40
0.90625
 40
0.9140625
 40
0.91796875
 40
0.921875
 40
0.92578125
 40
0.9296875
 40
0.931640625
 40
0.93359375
 40
0.9345703125
 40
0.935546875
 40
0.9365234375
 40
0.9370117188
 40
0.9372558594
 40
0.9375
 40
0.9377441406
 40
0.9379882812
 40
0.9384765625
 40
0.939453125
 40
0.9404296875
 40
0.94140625
 40
0.943359375
 40
0.9453125
 40
0.94921875
 40
0.953125
 40
0.95703125
 40
0.9609375
 40
0.96875
 40
0.9765625
 40
0.984375
 40
1.0
 40
1.0
 40
1.0
 40
1.0
 10
9.8090750345
 20
9.308534093
 30
0.0
 10
9.803446555
 20
9.3083725521
 30
0.0
 10
9.7950038358
 20
9.3081302408
 30
0.0
 10
9.7837468768
 20
9.3078071591
 30
0.0
 10
9.7753041575
 20
9.3075648478
 30
0.0
 10
9.7682685581
 20
9.307362922
 30
0.0
 10
9.7626400787
 20
9.3072013805
 30
0.0
 10
9.7584187188
 20
9.3070802267
 30
0.0
 10
9.7541973605
 20
9.3069590643
 30
0.0
 10
9.7506795567
 20
9.3068581221
 30
0.0
 10
9.7478653253
 20
9.3067773092
 30
0.0
 10
9.7461064043
 20
9.3067269359
 30
0.0
 10
9.7446993278
 20
9.3066863284
 30
0.0
 10
9.7436438553
 20
9.3066567187
 30
0.0
 10
9.7427648204
 20
9.306629353
 30
0.0
 10
9.7421484645
 20
9.3066154778
 30
0.0
 10
9.7417978717
 20
9.3065993036
 30
0.0
 10
9.7415303901
 20
9.3066104009
 30
0.0
 10
9.7412802511
 20
9.3065327091
 30
0.0
 10
9.7409406832
 20
9.3064600906
 30
0.0
 10
9.7403492578
 20
9.3063185785
 30
0.0
 10
9.7395028908
 20
9.3061239625
 30
0.0
 10
9.7384878811
 20
9.3058871941
 30
0.0
 10
9.7371343146
 20
9.3055726309
 30
0.0
 10
9.7354424318
 20
9.3051790406
 30
0.0
 10
9.7327353773
 20
9.304549512
 30
0.0
 10
9.7293515736
 20
9.3037625272
 30
0.0
 10
9.7252910029
 20
9.3028181772
 30
0.0
 10
9.7212304339
 20
9.3018738187
 30
0.0
 10
9.7158163413
 20
9.300614677
 30
0.0
 10
9.7090487259
 20
9.2990407487
 30
0.0
 10
9.7022811102
 20
9.2974668212
 30
0.0
 10
9.6968670179
 20
9.2962076784
 30
0.0
 10
9.6928064479
 20
9.2952633233
 30
0.0
 10
9.6887458811
 20
9.2943189602
 30
0.0
 10
9.6853620653
 20
9.2935320162
 30
0.0
 10
9.6826550354
 20
9.2929024044
 30
0.0
 10
9.68096309
 20
9.292509026
 30
0.0
 10
9.6796096521
 20
9.2921940278
 30
0.0
 10
9.6785942495
 20
9.2919585881
 30
0.0
 10
9.6777491118
 20
9.291759815
 30
0.0
 10
9.6771554918
 20
9.291625724
 30
0.0
 10
9.6768194402
 20
9.2915412152
 30
0.0
 10
9.6765585003
 20
9.2915000467
 30
0.0
 10
9.676331585
 20
9.2913739687
 30
0.0
 10
9.6760171631
 20
9.2912354821
 30
0.0
 10
9.6754724544
 20
9.2909793313
 30
0.0
 10
9.6746914082
 20
9.290620616
 30
0.0
 10
9.6737553902
 20
9.2901870696
 30
0.0
 10
9.6725069339
 20
9.2896100863
 30
0.0
 10
9.6709465115
 20
9.288888488
 30
0.0
 10
9.6684497531
 20
9.287734137
 30
0.0
 10
9.6653288334
 20
9.2862911274
 30
0.0
 10
9.6615837176
 20
9.2845595462
 30
0.0
 10
9.657838605
 20
9.282827957
 30
0.0
 10
9.6528451204
 20
9.2805191742
 30
0.0
 10
9.6466032652
 20
9.2776331946
 30
0.0
 10
9.6403614096
 20
9.2747472157
 30
0.0
 10
9.6353679256
 20
9.2724384317
 30
0.0
 10
9.6316228115
 20
9.2707068458
 30
0.0
 10
9.6278777015
 20
9.268975252
 30
0.0
 10
9.6247567636
 20
9.2675322819
 30
0.0
 10
9.6222600423
 20
9.2663778504
 30
0.0
 10
9.6206995252
 20
9.265656457
 30
0.0
 10
9.6194512634
 20
9.2650790529
 30
0.0
 10
9.6185146514
 20
9.2646467922
 30
0.0
 10
9.6177354633
 20
9.2642840544
 30
0.0
 10
9.6171874376
 20
9.2640350845
 30
0.0
 10
9.6168783304
 20
9.2638850922
 30
0.0
 10
9.6166350901
 20
9.2637943559
 30
0.0
 10
9.6164354643
 20
9.2636204501
 30
0.0
 10
9.6161540834
 20
9.2634175862
 30
0.0
 10
9.6156687549
 20
9.2630490579
 30
0.0
 10
9.6149717227
 20
9.2625296554
 30
0.0
 10
9.6141368703
 20
9.2619033477
 30
0.0
 10
9.6130231797
 20
9.2610693273
 30
0.0
 10
9.6116312562
 20
9.26002644
 30
0.0
 10
9.6094040725
 20
9.2583580225
 30
0.0
 10
9.6066201293
 20
9.2562724313
 30
0.0
 10
9.6032793819
 20
9.2537697516
 30
0.0
 10
9.5999386386
 20
9.2512670639
 30
0.0
 10
9.5954843128
 20
9.2479301498
 30
0.0
 10
9.5899164061
 20
9.2437590061
 30
0.0
 10
9.5843484989
 20
9.239587863
 30
0.0
 10
9.5798941738
 20
9.2362509479
 30
0.0
 10
9.5765534282
 20
9.2337482632
 30
0.0
 10
9.5732126894
 20
9.2312455724
 30
0.0
 10
9.5704287195
 20
9.2291600156
 30
0.0
 10
9.5682015902
 20
9.2274915279
 30
0.0
 10
9.5668095282
 20
9.2264488194
 30
0.0
 10
9.5656961219
 20
9.2256144319
 30
0.0
 10
9.5648604009
 20
9.2249892457
 30
0.0
 10
9.5641660864
 20
9.2244663344
 30
0.0
 10
9.5636759063
 20
9.2241040699
 30
0.0
 10
9.5634022988
 20
9.2238911697
 30
0.0
 10
9.5631787956
 20
9.2237480924
 30
0.0
 10
9.5630252352
 20
9.2235415693
 30
0.0
 10
9.5627960911
 20
9.2232883359
 30
0.0
 10
9.5624064558
 20
9.2228348662
 30
0.0
 10
9.5618438913
 20
9.2221924431
 30
0.0
 10
9.5611713576
 20
9.221419228
 30
0.0
 10
9.5602737575
 20
9.2203890804
 30
0.0
 10
9.5591520616
 20
9.21910112
 30
0.0
 10
9.5573571782
 20
9.2170405376
 30
0.0
 10
9.5551136322
 20
9.2144647567
 30
0.0
 10
9.552421352
 20
9.2113738423
 30
0.0
 10
9.5497290785
 20
9.2082829218
 30
0.0
 10
9.5461393781
 20
9.2041616966
 30
0.0
 10
9.5416522536
 20
9.1990101643
 30
0.0
 10
9.5371651284
 20
9.1938586325
 30
0.0
 10
9.533575429
 20
9.1897374065
 30
0.0
 10
9.5308831526
 20
9.1866464884
 30
0.0
 10
9.5281908833
 20
9.183555565
 30
0.0
 10
9.5259473035
 20
9.1809798119
 30
0.0
 10
9.5241524891
 20
9.1789191728
 30
0.0
 10
9.5230306174
 20
9.1776313567
 30
0.0
 10
9.5221333782
 20
9.176600913
 30
0.0
 10
9.5214597419
 20
9.1758286025
 30
0.0
 10
9.520900627
 20
9.1751833491
 30
0.0
 10
9.5205048337
 20
9.174734932
 30
0.0
 10
9.5202855564
 20
9.1744736031
 30
0.0
 10
9.5201016882
 20
9.1742919465
 30
0.0
 10
9.5199920159
 20
9.1740554746
 30
0.0
 10
9.5198199059
 20
9.173759299
 30
0.0
 10
9.5195307714
 20
9.1732320831
 30
0.0
 10
9.5191114181
 20
9.172483575
 30
0.0
 10
9.5186108924
 20
9.1715833718
 30
0.0
 10
9.5179425824
 20
9.1703837971
 30
0.0
 10
9.5171075175
 20
9.1688840904
 30
0.0
 10
9.5157712335
 20
9.1664846928
 30
0.0
 10
9.5141009402
 20
9.1634854002
 30
0.0
 10
9.5120965619
 20
9.1598862686
 30
0.0
 10
9.5100921906
 20
9.1562871318
 30
0.0
 10
9.507419693
 20
9.1514882845
 30
0.0
 10
9.504079072
 20
9.1454897248
 30
0.0
 10
9.5007384504
 20
9.1394911654
 30
0.0
 10
9.4980659539
 20
9.1346923175
 30
0.0
 10
9.4960615794
 20
9.1310931826
 30
0.0
 10
9.4940572129
 20
9.1274940438
 30
0.0
 10
9.4923868828
 20
9.1244947735
 30
0.0
 10
9.4910506738
 20
9.1220953305
 30
0.0
 10
9.4902154179
 20
9.1205957394
 30
0.0
 10
9.4895475001
 20
9.1193959273
 30
0.0
 10
9.4890457763
 20
9.1184964495
 30
0.0
 10
9.4886301714
 20
9.1177456716
 30
0.0
 10
9.4883343454
 20
9.1172225078
 30
0.0
 10
9.488172957
 20
9.1169198397
 30
0.0
 10
9.4880303512
 20
9.1167033105
 30
0.0
 10
9.4879701759
 20
9.1164467523
 30
0.0
 10
9.4878611895
 20
9.1161186373
 30
0.0
 10
9.4876838597
 20
9.1155379305
 30
0.0
 10
9.4874235276
 20
9.1147117505
 30
0.0
 10
9.4871141269
 20
9.1137188788
 30
0.0
 10
9.4867005456
 20
9.1123955582
 30
0.0
 10
9.4861839275
 20
9.1107412335
 30
0.0
 10
9.4853571382
 20
9.1080944111
 30
0.0
 10
9.4843237203
 20
9.1047858498
 30
0.0
 10
9.4830835894
 20
9.1008155906
 30
0.0
 10
9.4818434663
 20
9.0968453275
 30
0.0
 10
9.4801899661
 20
9.0915516448
 30
0.0
 10
9.4781230919
 20
9.0849345408
 30
0.0
 10
9.476056217
 20
9.0783174372
 30
0.0
 10
9.474402718
 20
9.0730237539
 30
0.0
 10
9.4731625915
 20
9.0690534923
 30
0.0
 10
9.4719224733
 20
9.0650832276
 30
0.0
 10
9.4708890155
 20
9.0617746832
 30
0.0
 10
9.4700623076
 20
9.0591278264
 30
0.0
 10
9.4695454823
 20
9.0574735894
 30
0.0
 10
9.4691323264
 20
9.0561500888
 30
0.0
 10
9.4688216259
 20
9.0551577672
 30
0.0
 10
9.4685653609
 20
9.0543298658
 30
0.0
 10
9.4683807706
 20
9.0537522321
 30
0.0
 10
9.4682834173
 20
9.0534191932
 30
0.0
 10
9.4681875088
 20
9.0531777593
 30
0.0
 10
9.4681791112
 20
9.0529044258
 30
0.0
 10
9.4681373897
 20
9.052551108
 30
0.0
 10
9.468078599
 20
9.0519276176
 30
0.0
 10
9.467987177
 20
9.0510396275
 30
0.0
 10
9.4678806531
 20
9.0499728793
 30
0.0
 10
9.4677375096
 20
9.0485509534
 30
0.0
 10
9.4675589609
 20
9.0467734074
 30
0.0
 10
9.4672730702
 20
9.0439294113
 30
0.0
 10
9.4669157798
 20
9.0403743896
 30
0.0
 10
9.4664870001
 20
9.036108375
 30
0.0
 10
9.4660582288
 20
9.0318423573
 30
0.0
 10
9.4654865307
 20
9.0261543347
 30
0.0
 10
9.4647719092
 20
9.0190443062
 30
0.0
 10
9.464057287
 20
9.0119342778
 30
0.0
 10
9.4634855901
 20
9.006246255
 30
0.0
 10
9.4630568152
 20
9.0019802379
 30
0.0
 10
9.4626280489
 20
8.997714221
 30
0.0
 10
9.4622707167
 20
8.9941592064
 30
0.0
 10
9.4619849115
 20
8.9913151958
 30
0.0
 10
9.4618061451
 20
8.9895376866
 30
0.0
 10
9.4616634483
 20
8.9881156852
 30
0.0
 10
9.4615555598
 20
8.9870491678
 30
0.0
 10
9.4614684073
 20
8.9861604554
 30
0.0
 10
9.4614019948
 20
8.9855382544
 30
0.0
 10
9.4613724854
 20
8.9851828708
 30
0.0
 10
9.4613265758
 20
8.9849158829
 30
0.0
 10
9.4613715564
 20
8.9846506157
 30
0.0
 10
9.4613998269
 20
8.9842963259
 30
0.0
 10
9.4614640716
 20
8.9836765984
 30
0.0
 10
9.4615481272
 20
8.9827911271
 30
0.0
 10
9.4616522995
 20
8.9817286242
 30
0.0
 10
9.4617900412
 20
8.9803119319
 30
0.0
 10
9.4619626137
 20
8.9785410739
 30
0.0
 10
9.4622385088
 20
8.9757076969
 30
0.0
 10
9.4625834534
 20
8.9721659771
 30
0.0
 10
9.4629973545
 20
8.9679159127
 30
0.0
 10
9.4634112642
 20
8.9636658485
 30
0.0
 10
9.4639631409
 20
8.9579990962
 30
0.0
 10
9.4646529878
 20
8.9509156558
 30
0.0
 10
9.465342834
 20
8.9438322154
 30
0.0
 10
9.4658947118
 20
8.9381654632
 30
0.0
 10
9.466308618
 20
8.9339153987
 30
0.0
 10
9.4667225325
 20
8.9296653353
 30
0.0
 10
9.4670674352
 20
8.9261236125
 30
0.0
 10
9.4673434158
 20
8.9232902417
 30
0.0
 10
9.4675157706
 20
8.9215193679
 30
0.0
 10
9.4676539592
 20
8.920102708
 30
0.0
 10
9.4677567662
 20
8.9190401058
 30
0.0
 10
9.4678450932
 20
8.9181549454
 30
0.0
 10
9.4679017128
 20
8.917534663
 30
0.0
 10
9.4679422007
 20
8.9171812623
 30
0.0
 10
9.4679496533
 20
8.9169132639
 30
0.0
 10
9.4680446923
 20
8.9166565339
 30
0.0
 10
9.4681408599
 20
8.9163102967
 30
0.0
 10
9.4683233875
 20
8.915706213
 30
0.0
 10
9.4685766993
 20
8.9148422787
 30
0.0
 10
9.4688838588
 20
8.9138059675
 30
0.0
 10
9.4692922922
 20
8.912424076
 30
0.0
 10
9.4698032149
 20
8.9106967606
 30
0.0
 10
9.4706204784
 20
8.9079330287
 30
0.0
 10
9.4716421308
 20
8.9044783731
 30
0.0
 10
9.4728680823
 20
8.9003327825
 30
0.0
 10
9.4740940423
 20
8.8961871929
 30
0.0
 10
9.4757286526
 20
8.8906597397
 30
0.0
 10
9.4777719165
 20
8.8837504233
 30
0.0
 10
9.4798151798
 20
8.8768411069
 30
0.0
 10
9.4814497912
 20
8.8713136539
 30
0.0
 10
9.4826757477
 20
8.8671680635
 30
0.0
 10
9.4839017121
 20
8.8630224758
 30
0.0
 10
9.4849233245
 20
8.859567811
 30
0.0
 10
9.4857406695
 20
8.856804098
 30
0.0
 10
9.4862513847
 20
8.8550767344
 30
0.0
 10
9.4866602442
 20
8.853694942
 30
0.0
 10
9.4869661023
 20
8.852658328
 30
0.0
 10
9.4872234858
 20
8.8517953408
 30
0.0
 10
9.4873987446
 20
8.8511895665
 30
0.0
 10
9.4875065586
 20
8.8508460379
 30
0.0
 10
9.4875658234
 20
8.850580988
 30
0.0
 10
9.487707638
 20
8.8503442379
 30
0.0
 10
9.4878679298
 20
8.8500186997
 30
0.0
 10
9.4881618563
 20
8.8494536071
 30
0.0
 10
9.4885747374
 20
8.8486439275
 30
0.0
 10
9.4890731968
 20
8.8476733412
 30
0.0
 10
9.4897367608
 20
8.8463788666
 30
0.0
 10
9.4905665748
 20
8.8447608965
 30
0.0
 10
9.4918940766
 20
8.8421720754
 30
0.0
 10
9.4935535227
 20
8.8389360727
 30
0.0
 10
9.4955448285
 20
8.8350528594
 30
0.0
 10
9.4975361422
 20
8.8311696488
 30
0.0
 10
9.5001912244
 20
8.8259920336
 30
0.0
 10
9.5035100781
 20
8.8195200151
 30
0.0
 10
9.5068289312
 20
8.8130479963
 30
0.0
 10
9.5094840144
 20
8.8078703816
 30
0.0
 10
9.5114753248
 20
8.8039871696
 30
0.0
 10
9.5134666429
 20
8.8001039613
 30
0.0
 10
9.5151260508
 20
8.796867943
 30
0.0
 10
9.5164536305
 20
8.7942791538
 30
0.0
 10
9.5172832461
 20
8.7926611027
 30
0.0
 10
9.5179472175
 20
8.7913667943
 30
0.0
 10
9.5184444324
 20
8.7903957004
 30
0.0
 10
9.5188612072
 20
8.7895876088
 30
0.0
 10
9.5191481828
 20
8.7890196813
 30
0.0
 10
9.5193196117
 20
8.7886986855
 30
0.0
 10
9.5194272168
 20
8.7884479827
 30
0.0
 10
9.5196149666
 20
8.7882353364
 30
0.0
 10
9.5198373444
 20
8.7879385336
 30
0.0
 10
9.5202395303
 20
8.7874253134
 30
0.0
 10
9.5208072722
 20
8.7866889082
 30
0.0
 10
9.5214914771
 20
8.785806606
 30
0.0
 10
9.5224027322
 20
8.7846297196
 30
0.0
 10
9.5235421497
 20
8.7831587772
 30
0.0
 10
9.5253650229
 20
8.7808051769
 30
0.0
 10
9.5276436812
 20
8.7778632082
 30
0.0
 10
9.5303780426
 20
8.7743328321
 30
0.0
 10
9.5331124116
 20
8.7708024597
 30
0.0
 10
9.5367582343
 20
8.7660952952
 30
0.0
 10
9.5413155136
 20
8.7602113401
 30
0.0
 10
9.5458727923
 20
8.7543273846
 30
0.0
 10
9.549518616
 20
8.7496202208
 30
0.0
 10
9.5522529822
 20
8.7460898463
 30
0.0
 10
9.554987354
 20
8.7425594781
 30
0.0
 10
9.5572659797
 20
8.7396174849
 30
0.0
 10
9.5590889194
 20
8.7372639344
 30
0.0
 10
9.5602281677
 20
8.7357928652
 30
0.0
 10
9.5611397702
 20
8.7346162391
 30
0.0
 10
9.5618229139
 20
8.7337331419
 30
0.0
 10
9.5623939761
 20
8.7329992241
 30
0.0
 10
9.5627902346
 20
8.7324815634
 30
0.0
 10
9.5630221096
 20
8.7321918754
 30
0.0
 10
9.5631806869
 20
8.7319573747
 30
0.0
 10
9.5633978594
 20
8.7317887533
 30
0.0
 10
9.5636669841
 20
8.7315409454
 30
0.0
 10
9.5641474751
 20
8.731117988
 30
0.0
 10
9.5648289121
 20
8.7305081657
 30
0.0
 10
9.5656487676
 20
8.7297787748
 30
0.0
 10
9.5667411639
 20
8.7288054167
 30
0.0
 10
9.5681069142
 20
8.7275890057
 30
0.0
 10
9.5702919722
 20
8.725642588
 30
0.0
 10
9.5730233436
 20
8.7232096208
 30
0.0
 10
9.5763009683
 20
8.7202900365
 30
0.0
 10
9.5795785986
 20
8.7173704586
 30
0.0
 10
9.5839487703
 20
8.7134776858
 30
0.0
 10
9.5894114858
 20
8.7086117206
 30
0.0
 10
9.5948742007
 20
8.7037457549
 30
0.0
 10
9.5992443732
 20
8.699852983
 30
0.0
 10
9.6025220013
 20
8.6969334024
 30
0.0
 10
9.6057996342
 20
8.6940138284
 30
0.0
 10
9.6085309801
 20
8.6915808291
 30
0.0
 10
9.61071609
 20
8.6896344768
 30
0.0
 10
9.6120817082
 20
8.6884178992
 30
0.0
 10
9.6131743756
 20
8.6874448832
 30
0.0
 10
9.613993403
 20
8.6867144472
 30
0.0
 10
9.6146774311
 20
8.6861078948
 30
0.0
 10
9.6151532966
 20
8.6856791001
 30
0.0
 10
9.6154298325
 20
8.685440645
 30
0.0
 10
9.6156242403
 20
8.6852432946
 30
0.0
 10
9.615868318
 20
8.6851166955
 30
0.0
 10
9.6161764295
 20
8.6849232178
 30
0.0
 10
9.6167236969
 20
8.6845961302
 30
0.0
 10
9.6175012873
 20
8.6841228508
 30
0.0
 10
9.6184362021
 20
8.6835574886
 30
0.0
 10
9.6196821242
 20
8.6828027735
 30
0.0
 10
9.6212397429
 20
8.6818596875
 30
0.0
 10
9.623731812
 20
8.6803505778
 30
0.0
 10
9.6268469399
 20
8.6784642497
 30
0.0
 10
9.6305850756
 20
8.6762006308
 30
0.0
 10
9.6343232161
 20
8.6739370186
 30
0.0
 10
9.6393074017
 20
8.6709188666
 30
0.0
 10
9.6455376343
 20
8.6671461775
 30
0.0
 10
9.6517678665
 20
8.6633734877
 30
0.0
 10
9.6567520527
 20
8.6603553368
 30
0.0
 10
9.6604901915
 20
8.6580917215
 30
0.0
 10
9.6642283335
 20
8.6558281139
 30
0.0
 10
9.6673434416
 20
8.6539417504
 30
0.0
 10
9.6698355511
 20
8.652432713
 30
0.0
 10
9.6713930673
 20
8.651489443
 30
0.0
 10
9.6726391997
 20
8.6507351056
 30
0.0
 10
9.6735734721
 20
8.6501685898
 30
0.0
 10
9.6743530723
 20
8.6496989195
 30
0.0
 10
9.6748967517
 20
8.6493653891
 30
0.0
 10
9.6752106122
 20
8.6491822344
 30
0.0
 10
9.6754370311
 20
8.6490239264
 30
0.0
 10
9.6756977625
 20
8.6489456693
 30
0.0
 10
9.6760334357
 20
8.6488134039
 30
0.0
 10
9.6766264404
 20
8.6485949491
 30
0.0
 10
9.6774706744
 20
8.6482760692
 30
0.0
 10
9.6784850032
 20
8.6478963246
 30
0.0
 10
9.6798370057
 20
8.6473889816
 30
0.0
 10
9.6815271581
 20
8.646755151
 30
0.0
 10
9.6842313184
 20
8.6457408276
 30
0.0
 10
9.6876115475
 20
8.64447299
 30
0.0
 10
9.6916678101
 20
8.6429515563
 30
0.0
 10
9.695724076
 20
8.6414301302
 30
0.0
 10
9.7011324294
 20
8.6394015594
 30
0.0
 10
9.7078928716
 20
8.636865847
 30
0.0
 10
9.7146533135
 20
8.6343301338
 30
0.0
 10
9.7200616673
 20
8.6323015642
 30
0.0
 10
9.724117932
 20
8.6307801348
 30
0.0
 10
9.7281741991
 20
8.6292587136
 30
0.0
 10
9.7315544141
 20
8.627990837
 30
0.0
 10
9.7342586032
 20
8.626976593
 30
0.0
 10
9.7359486822
 20
8.6263425602
 30
0.0
 10
9.7373008353
 20
8.6258356323
 30
0.0
 10
9.738314704
 20
8.6254546197
 30
0.0
 10
9.7391603775
 20
8.6251397071
 30
0.0
 10
9.7397508126
 20
8.62491417
 30
0.0
 10
9.7400906029
 20
8.6247932521
 30
0.0
 10
9.7403386881
 20
8.6246801388
 30
0.0
 10
9.7406126041
 20
8.6246527451
 30
0.0
 10
9.7409688154
 20
8.6245863202
 30
0.0
 10
9.7415963832
 20
8.6244840076
 30
0.0
 10
9.7424907139
 20
8.6243305635
 30
0.0
 10
9.7435648501
 20
8.624149548
 30
0.0
 10
9.7449967036
 20
8.6239071052
 30
0.0
 10
9.7467866328
 20
8.6236044244
 30
0.0
 10
9.7496504567
 20
8.6231199269
 30
0.0
 10
9.7532302582
 20
8.6225143764
 30
0.0
 10
9.7575260107
 20
8.6217876853
 30
0.0
 10
9.7618217657
 20
8.6210610023
 30
0.0
 10
9.7675494382
 20
8.6200920888
 30
0.0
 10
9.7747090291
 20
8.6188809479
 30
0.0
 10
9.783300538
 20
8.6174275785
 30
0.0
 10
9.7947558833
 20
8.6154897526
 30
0.0
 10
9.8033473922
 20
8.6140363832
 30
0.0
 10
9.8090750649
 20
8.6130674703
 30
0.0
  0
ENDSEC
  0
SECTION
  2
OBJECTS
  0
DICTIONARY
  5
C
100
AcDbDictionary
280
0
281
1
  3
ACAD_GROUP
350
D
  3
ACAD_MLINESTYLE
350
17
  3
ACAD_LAYOUT
350
1A
  3
ACAD_PLOTSETTINGS
350
19
  3
ACAD_PLOTSTYLENAME
350
E
  3
ACAD_IMAGE_DICT
350
       35B
  3
ACAD_IMAGE_VARS
350
       35C
  3
ACAD_TABLESTYLE
350
       35D
  0
IMAGEDEF_REACTOR
  5
35A
100
AcDbRasterImageDefReactor
 90
2
330
282
  0
DICTIONARY
  5
D
102
{ACAD_REACTORS
330
C
102
}
100
AcDbDictionary
280
0
281
1
  0
ACDBDICTIONARYWDFLT
  5
E
102
{ACAD_REACTORS
330
C
102
}
100
AcDbDictionary
281
1
  3
Normal
350
F
100
AcDbDictionaryWithDefault
340
F
  0
DICTIONARY
  5
35B
330
C
100
AcDbDictionary
281
1
  3
FNI_assy_2_img_1
350
       360
  0
RASTERVARIABLES
  5
35C
330
C
100
AcDbRasterVariables
 90
0
 70
0
 71
1
 72
5
  0
DICTIONARY
  5
17
102
{ACAD_REACTORS
330
C
102
}
100
AcDbDictionary
280
0
281
1
  3
Standard
350
18
  0
DICTIONARY
  5
35D
330
C
100
AcDbDictionary
281
1
  3
Standard
350
       361
  3
Standard1
350
       362
  0
DICTIONARY
  5
19
102
{ACAD_REACTORS
330
C
102
}
100
AcDbDictionary
281
1
  0
DICTIONARY
  5
1A
102
{ACAD_REACTORS
330
C
102
}
100
AcDbDictionary
281
1
  3
Model
350
35E
  3
Layout1
350
35F
  0
ACDBPLACEHOLDER
  5
F
102
{ACAD_REACTORS
330
E
102
}
  0
MLINESTYLE
  5
18
102
{ACAD_REACTORS
330
17
102
}
100
AcDbMlineStyle
  2
STANDARD
 70
0
  3

 62
256
 51
90.0
 52
90.0
 71
2
 49
0.5
 62
256
  6
BYLAYER
 49
-0.5
 62
256
  6
BYLAYER
  0
LAYOUT
  5
35E
102
{ACAD_REACTORS
330
1A
102
}
100
AcDbPlotSettings
  1

  2
none_device
  4
ANSI_C_(22.00_x_17.00_Inches)
  6

 40
0.0
 41
0.0
 42
0.0
 43
0.0
 44
558.8
 45
431.8
 46
0.0
 47
0.0
 48
0.0
 49
0.0
140
0.0
141
0.0
142
1.0
143
1.0
 70
1024
 72
0
 73
0
 74
0
  7

 75
0
147
1.0
148
0.0
149
0.0
100
AcDbLayout
  1
Model
 70
0
 71
0
 10
0.0
 20
0.0
 11
22.0
 21
17.0
 12
0.0
 22
0.0
 32
0.0
 14
0.0
 24
0.0
 34
0.0
 15
0.0
 25
0.0
 35
0.0
146
0.0
 13
0.0
 23
0.0
 33
0.0
 16
1.0
 26
0.0
 36
0.0
 17
0.0
 27
1.0
 37
0.0
 76
0
330
204
345
0
346
0
  0
LAYOUT
  5
35F
102
{ACAD_REACTORS
330
1A
102
}
100
AcDbPlotSettings
  1

  2
none_device
  4
ANSI_C_(22.00_x_17.00_Inches)
  6

 40
0.0
 41
0.0
 42
0.0
 43
0.0
 44
558.8
 45
431.8
 46
0.0
 47
0.0
 48
0.0
 49
0.0
140
0.0
141
0.0
142
1.0
143
1.0
 70
0
 72
0
 73
0
 74
0
  7

 75
0
147
1.0
148
0.0
149
0.0
100
AcDbLayout
  1
Layout1
 70
0
 71
1
 10
0.0
 20
0.0
 11
22.0
 21
17.0
 12
0.0
 22
0.0
 32
0.0
 14
0.0
 24
0.0
 34
0.0
 15
0.0
 25
0.0
 35
0.0
146
0.0
 13
0.0
 23
0.0
 33
0.0
 16
1.0
 26
0.0
 36
0.0
 17
0.0
 27
1.0
 37
0.0
 76
0
330
205
345
0
346
0
  0
IMAGEDEF
  5
360
102
{ACAD_REACTORS
330
35B
330
35A
102
}
100
AcDbRasterImageDef
 90
0
  1
FNI_assy_2_img_1.png
 10
369.0
 20
92.0
 11
0.0066666667
 21
0.0066666667
280
1
281
0
  0
TABLESTYLE
  5
361
102
{ACAD_REACTORS
330
35D
330
285
330
286
102
}
330
35D
100
AcDbTableStyle
  3
Standard
 70
0
 71
0
 40
0.06
 41
0.06
280
1
281
1
  7
Standard
140
0.18
170
1
 62
0
 63
7
283
0
  7
Standard
140
0.18
170
1
 62
0
 63
7
283
0
  7
Standard
140
0.18
170
1
 62
0
 63
7
283
0
  0
TABLESTYLE
  5
362
102
{ACAD_REACTORS
330
35D
330
284
102
}
330
35D
100
AcDbTableStyle
  3
Standard1
 70
1
 71
0
 40
0.06
 41
0.06
280
1
281
1
  7
Standard
140
0.18
170
1
 62
0
 63
7
283
0
  7
Standard
140
0.18
170
1
 62
0
 63
7
283
0
  7
Standard
140
0.18
170
1
 62
0
 63
7
283
0
  0
ENDSEC
  0
EOF
