999
DXF file: FNC_assy_2.dxf
999
Pro/ENGINEER 2014200 by Parametric Technology Corporation
  0
SECTION
  2
HEADER
  9
$ACADVER
  1
AC1021
  9
$DWGCODEPAGE
  3
ANSI_1252
  9
$EXTMAX
 10
22.0
 20
17.0
 30
0.0
  9
$EXTMIN
 10
0.0
 20
0.0
 30
0.0
  9
$LIMMIN
 10
0.0
 20
0.0
  9
$LIMMAX
 10
22.0
 20
17.0
  9
$VIEWCTR
 10
11.0
 20
8.5
  9
$VIEWSIZE
 40
17.0
  9
$CLAYER
  8
0
  9
$LTSCALE
 40
1.21
  9
$CELTYPE
  6
BYLAYER
  9
$DIMSCALE
 40
1.0
  9
$DIMASZ
 40
0.1875
  9
$DIMEXO
 40
0.0625
  9
$DIMDLI
 40
0.836
  9
$DIMEXE
 40
0.125
  9
$DIMCEN
 40
0.198
  9
$DIMLFAC
 40
1.0
  9
$DIMBLK
  1
_FILLED
  9
$DIMTXT
 40
0.1
  9
$DIMTOL
 70
0
  9
$DIMLIM
 70
0
  9
$DIMTFAC
 40
1.0
  9
$DIMGAP
 40
0.09
  9
$DIMDSEP
 70
46
  9
$AUNITS
 70
0
  9
$PDMODE
 70
3
  9
$PDSIZE
 40
0.3125
  9
$HANDSEED
  5
376
  9
$TILEMODE
 70
1
  9
$MEASUREMENT
 70
0
  9
$INSUNITS
 70
1
  0
ENDSEC
  0
SECTION
  2
CLASSES
  0
CLASS
  1
ACDBDICTIONARYWDFLT
  2
AcDbDictionaryWithDefault
  3
AutoCAD 2000
 90
0
 91
1
280
0
281
0
  0
CLASS
  1
ACDBPLACEHOLDER
  2
AcDbPlaceHolder
  3
AutoCAD 2000
 90
0
 91
1
280
0
281
0
  0
CLASS
  1
LAYOUT
  2
AcDbLayout
  3
AutoCAD 2000
 90
0
 91
0
280
0
281
0
  0
CLASS
  1
RASTERVARIABLES
  2
AcDbRasterVariables
  3
ISM
 90
0
 91
1
280
0
281
0
  0
CLASS
  1
IMAGEDEF
  2
AcDbRasterImageDef
  3
ISM
 90
0
 91
1
280
0
281
0
  0
CLASS
  1
IMAGEDEF_REACTOR
  2
AcDbRasterImageDefReactor
  3
ISM
 90
0
 91
1
280
0
281
0
  0
CLASS
  1
IMAGE
  2
AcDbRasterImage
  3
ISM
 90
127
 91
1
280
0
281
1
  0
CLASS
  1
TABLESTYLE
  2
AcDbTableStyle
  3
ObjectDBX Classes
 90
2047
 91
1
280
0
281
0
  0
CLASS
  1
ACAD_TABLE
  2
AcDbTable
  3
ObjectDBX Classes
 90
1025
 91
3
280
0
281
1
  0
ENDSEC
  0
SECTION
  2
TABLES
  0
TABLE
  2
VPORT
  5
8
100
AcDbSymbolTable
 70
2
  0
VPORT
  5
1F4
100
AcDbSymbolTableRecord
100
AcDbViewportTableRecord
  2
*ACTIVE
 70
0
 10
0.0
 20
0.0
 11
1.0
 21
1.0
 12
11.0
 22
8.5
 13
0.0
 23
0.0
 14
1.0
 24
1.0
 15
0.0
 25
0.0
 16
0.0
 26
0.0
 36
1.0
 17
0.0
 27
0.0
 37
0.0
 40
17.0
 41
1.2941176471
 42
50.0
 43
0.0
 44
0.0
 50
0.0
 51
0.0
 71
0
 72
100
 73
1
 74
1
 75
0
 76
0
 77
0
 78
0
  0
ENDTAB
  0
TABLE
  2
LTYPE
  5
5
100
AcDbSymbolTable
 70
6
  0
LTYPE
  5
14
100
AcDbSymbolTableRecord
100
AcDbLinetypeTableRecord
  2
BYBLOCK
 70
0
  3

 72
65
 73
0
 40
0.0
  0
LTYPE
  5
15
100
AcDbSymbolTableRecord
100
AcDbLinetypeTableRecord
  2
BYLAYER
 70
0
  3

 72
65
 73
0
 40
0.0
  0
LTYPE
  5
16
100
AcDbSymbolTableRecord
100
AcDbLinetypeTableRecord
  2
CONTINUOUS
 70
64
  3
Solid line
 72
65
 73
0
 40
0.0
  0
LTYPE
  5
1F5
100
AcDbSymbolTableRecord
100
AcDbLinetypeTableRecord
  2
CENTER
 70
64
  3
____ _ ____ _ ____ _ ____ _ ____ _ ____ _ ____
 72
65
 73
4
 40
0.6
 49
0.375
 74
0
 49
-0.075
 74
0
 49
0.075
 74
0
 49
-0.075
 74
0
  0
LTYPE
  5
1F6
100
AcDbSymbolTableRecord
100
AcDbLinetypeTableRecord
  2
HIDDEN
 70
64
  3
- - - - - - - - - - - - - - - - - - - -
 72
65
 73
2
 40
0.2
 49
0.1
 74
0
 49
-0.1
 74
0
  0
LTYPE
  5
1F7
100
AcDbSymbolTableRecord
100
AcDbLinetypeTableRecord
  2
PHANTOM
 70
64
  3
_____ _ _ _____ _ _ _____ _ _ _____
 72
65
 73
6
 40
0.8
 49
0.45
 74
0
 49
-0.05
 74
0
 49
0.1
 74
0
 49
-0.05
 74
0
 49
0.1
 74
0
 49
-0.05
 74
0
  0
LTYPE
  5
1F8
100
AcDbSymbolTableRecord
100
AcDbLinetypeTableRecord
  2
DOT
 70
64
  3
. . . . . . . . . . . . . . . . . . . .
 72
65
 73
2
 40
0.2
 49
0.1
 74
0
 49
-0.1
 74
0
  0
LTYPE
  5
1F9
100
AcDbSymbolTableRecord
100
AcDbLinetypeTableRecord
  2
DASHED
 70
64
  3
- - - - - - - - - - - - - - - - - - - -
 72
65
 73
2
 40
0.2
 49
0.1
 74
0
 49
-0.1
 74
0
  0
ENDTAB
  0
TABLE
  2
LAYER
  5
2
100
AcDbSymbolTable
 70
36
  0
LAYER
  5
10
100
AcDbSymbolTableRecord
100
AcDbLayerTableRecord
  2
0
 70
0
 62
7
  6
CONTINUOUS
370
-3
390
F
  0
LAYER
  5
1FA
100
AcDbSymbolTableRecord
100
AcDbLayerTableRecord
  2
DEFAULT_1
 70
0
 62
7
  6
CENTER
370
-3
390
F
  0
LAYER
  5
1FB
100
AcDbSymbolTableRecord
100
AcDbLayerTableRecord
  2
DEFAULT_2
 70
0
 62
8
  6
HIDDEN
370
-3
390
F
  0
LAYER
  5
1FC
100
AcDbSymbolTableRecord
100
AcDbLayerTableRecord
  2
DEFAULT_3
 70
0
 62
7
  6
PHANTOM
370
-3
390
F
  0
LAYER
  5
1FD
100
AcDbSymbolTableRecord
100
AcDbLayerTableRecord
  2
DATUM_PLANES
 70
0
 62
7
  6
CONTINUOUS
370
-3
390
F
  0
LAYER
  5
1FE
100
AcDbSymbolTableRecord
100
AcDbLayerTableRecord
  2
PORT_AREAS
 70
0
 62
7
  6
CONTINUOUS
370
-3
390
F
  0
LAYER
  5
1FF
100
AcDbSymbolTableRecord
100
AcDbLayerTableRecord
  2
SUNNBOMCOSMETIC
 70
0
 62
7
  6
CONTINUOUS
370
-3
390
F
  0
LAYER
  5
200
100
AcDbSymbolTableRecord
100
AcDbLayerTableRecord
  2
SUNNBOMSTAMPING
 70
0
 62
7
  6
CONTINUOUS
370
-3
390
F
  0
LAYER
  5
201
100
AcDbSymbolTableRecord
100
AcDbLayerTableRecord
  2
THREADS
 70
0
 62
7
  6
CONTINUOUS
370
-3
390
F
  0
ENDTAB
  0
TABLE
  2
STYLE
  5
3
100
AcDbSymbolTable
 70
1
  0
STYLE
  5
11
100
AcDbSymbolTableRecord
100
AcDbTextStyleTableRecord
  2
STANDARD
 70
0
 40
0.0
 41
0.8
 50
0.0
 71
0
 42
0.2
  3
txt
  4

  0
STYLE
  5
202
100
AcDbSymbolTableRecord
100
AcDbTextStyleTableRecord
  2
TEXTSTYLE_1
 70
0
 40
0.0
 41
0.8
 50
0.0
 71
0
 42
0.2
  3
gdt
  4

  0
ENDTAB
  0
TABLE
  2
VIEW
  5
6
100
AcDbSymbolTable
 70
0
  0
ENDTAB
  0
TABLE
  2
UCS
  5
7
100
AcDbSymbolTable
 70
0
  0
ENDTAB
  0
TABLE
  2
APPID
  5
9
100
AcDbSymbolTable
 70
1
  0
APPID
  5
203
100
AcDbSymbolTableRecord
100
AcDbRegAppTableRecord
  2
ACAD
 70
0
  0
ENDTAB
  0
TABLE
  2
BLOCK_RECORD
  5
1
100
AcDbSymbolTable
 70
0
  0
BLOCK_RECORD
  5
204
100
AcDbSymbolTableRecord
100
AcDbBlockTableRecord
  2
*Model_Space
  0
BLOCK_RECORD
  5
205
100
AcDbSymbolTableRecord
100
AcDbBlockTableRecord
  2
*Paper_Space
  0
BLOCK_RECORD
  5
206
100
AcDbSymbolTableRecord
100
AcDbBlockTableRecord
  2
SUN_FIRST_THIRD_ANGLE_BL0
  0
BLOCK_RECORD
  5
207
100
AcDbSymbolTableRecord
100
AcDbBlockTableRecord
  2
*T1
  0
BLOCK_RECORD
  5
208
100
AcDbSymbolTableRecord
100
AcDbBlockTableRecord
  2
*T2
  0
BLOCK_RECORD
  5
209
100
AcDbSymbolTableRecord
100
AcDbBlockTableRecord
  2
*T3
  0
ENDTAB
  0
TABLE
  2
DIMSTYLE
  5
A
100
AcDbSymbolTable
 70
1
100
AcDbDimStyleTable
 71
0
  0
DIMSTYLE
105
20A
100
AcDbSymbolTableRecord
100
AcDbDimStyleTableRecord
  2
STANDARD
 70
0
  3

  4

 40
1.0
 41
0.1875
 42
0.0625
 43
0.38
 44
0.125
 45
0.0
 46
0.0
 47
0.001
 48
0.001
140
0.1
141
0.09
142
0.0
143
25.4
144
1.0
145
0.0
146
1.0
147
0.09
 71
0.0
 72
0.0
 73
1
 74
1
 75
0
 76
0
 77
0
 78
4
170
0
171
2
172
0
173
0
174
0
175
0
176
0
177
0
178
0
270
2
271
3
272
3
273
2
274
2
275
0
280
0
281
0
282
0
283
1
284
4
285
0
286
0
287
3
288
0
340
11
278
46
  0
ENDTAB
  0
ENDSEC
  0
SECTION
  2
BLOCKS
  0
BLOCK
  5
20
100
AcDbEntity
  8
0
100
AcDbBlockBegin
  2
*Model_Space
 70
0
 10
0.0
 20
0.0
 30
0.0
  3
*Model_Space
  1

  0
ENDBLK
  5
21
100
AcDbEntity
  8
0
100
AcDbBlockEnd
  0
BLOCK
  5
1C
100
AcDbEntity
  8
0
100
AcDbBlockBegin
  2
*Paper_Space
 70
0
 10
0.0
 20
0.0
 30
0.0
  3
*Paper_Space
  1

  0
ENDBLK
  5
1D
100
AcDbEntity
  8
0
100
AcDbBlockEnd
  0
BLOCK
  5
20B
100
AcDbEntity
  8
0
100
AcDbBlockBegin
 62
2
  6
CONTINUOUS
  2
SUN_FIRST_THIRD_ANGLE_BL0
 70
64
 10
20.4816717061
 20
1.2289683772
  3
SUN_FIRST_THIRD_ANGLE_BL0
  1

  0
TEXT
  5
20C
100
AcDbEntity
  8
0
100
AcDbText
 62
2
  6
CONTINUOUS
 10
19.4750896608
 20
1.4136269581
  7
STANDARD
 40
0.08
  1
FIRST ANGLE
 41
0.8
 72
0
100
AcDbText
  0
TEXT
  5
20D
100
AcDbEntity
  8
0
100
AcDbText
 62
2
  6
CONTINUOUS
 10
20.7842537513
 20
1.4047600029
  7
STANDARD
 40
0.08
  1
THIRD ANGLE
 41
0.8
 72
0
100
AcDbText
  0
LINE
  5
20E
100
AcDbEntity
  8
0
100
AcDbLine
 62
7
  6
CONTINUOUS
 10
19.4767170086
 20
1.1727031207
 11
19.6334271527
 21
1.1717972817
  0
LINE
  5
20F
100
AcDbEntity
  8
0
100
AcDbLine
 62
7
  6
CONTINUOUS
 10
19.6596964832
 20
1.1717972817
 11
19.6950230232
 21
1.171593082
  0
LINE
  5
210
100
AcDbEntity
  8
0
100
AcDbLine
 62
7
  6
CONTINUOUS
 10
19.7194818561
 20
1.1708914427
 11
19.8852396156
 21
1.1699333054
  0
LINE
  5
211
100
AcDbEntity
  8
0
100
AcDbLine
 62
7
  6
CONTINUOUS
 10
19.4758111696
 20
1.2723454088
 11
19.88525039
 21
1.3511534004
  0
LINE
  5
212
100
AcDbEntity
  8
0
100
AcDbLine
 62
7
  6
CONTINUOUS
 10
19.88525039
 20
1.3511534004
 11
19.8831348489
 21
0.9851647912
  0
LINE
  5
213
100
AcDbEntity
  8
0
100
AcDbLine
 62
7
  6
CONTINUOUS
 10
19.8831348489
 20
0.9851647912
 11
19.4767170086
 21
1.0658141206
  0
LINE
  5
214
100
AcDbEntity
  8
0
100
AcDbLine
 62
7
  6
CONTINUOUS
 10
19.4767170086
 20
1.0658141206
 11
19.4779056764
 21
1.2714536432
  0
CIRCLE
  5
215
100
AcDbEntity
  8
0
100
AcDbCircle
 62
7
  6
CONTINUOUS
 10
20.2068232291
 20
1.1717972817
 40
0.175742101
  0
CIRCLE
  5
216
100
AcDbEntity
  8
0
100
AcDbCircle
 62
7
  6
CONTINUOUS
 10
20.2068232291
 20
1.1717972817
 40
0.1005522074
  0
LINE
  5
217
100
AcDbEntity
  8
0
100
AcDbLine
 62
7
  6
CONTINUOUS
 10
20.2077290681
 20
1.3756110529
 11
20.2071171714
 21
1.2379342989
  0
LINE
  5
218
100
AcDbEntity
  8
0
100
AcDbLine
 62
7
  6
CONTINUOUS
 10
20.2077290681
 20
1.2016899681
 11
20.2074674401
 21
1.1428236749
  0
LINE
  5
219
100
AcDbEntity
  8
0
100
AcDbLine
 62
7
  6
CONTINUOUS
 10
20.208634907
 20
1.101141841
 11
20.2080230104
 21
0.963465087
  0
LINE
  5
21A
100
AcDbEntity
  8
0
100
AcDbLine
 62
7
  6
CONTINUOUS
 10
20.0066328138
 20
1.1745147986
 11
20.1443095678
 21
1.1739029019
  0
LINE
  5
21B
100
AcDbEntity
  8
0
100
AcDbLine
 62
7
  6
CONTINUOUS
 10
20.1832714155
 20
1.1727031207
 11
20.238153505
 21
1.172335442
  0
LINE
  5
21C
100
AcDbEntity
  8
0
100
AcDbLine
 62
7
  6
CONTINUOUS
 10
20.2756669918
 20
1.1717972817
 11
20.407916871
 21
1.1712095044
  0
CIRCLE
  5
21D
100
AcDbEntity
  8
0
100
AcDbCircle
 62
7
  6
CONTINUOUS
 10
20.7509457401
 20
1.1693297793
 40
0.1722024983
  0
CIRCLE
  5
21E
100
AcDbEntity
  8
0
100
AcDbCircle
 62
7
  6
CONTINUOUS
 10
20.7509457401
 20
1.1693297793
 40
0.0985164967
  0
LINE
  5
21F
100
AcDbEntity
  8
0
100
AcDbLine
 62
7
  6
CONTINUOUS
 10
20.7169767782
 20
1.170462078
 11
20.7825395137
 21
1.1682766535
  0
LINE
  5
220
100
AcDbEntity
  8
0
100
AcDbLine
 62
7
  6
CONTINUOUS
 10
20.8177513651
 20
1.1693297793
 11
20.947965719
 21
1.1693297793
  0
LINE
  5
221
100
AcDbEntity
  8
0
100
AcDbLine
 62
7
  6
CONTINUOUS
 10
20.6875370113
 20
1.170462078
 11
20.5573226574
 21
1.170462078
  0
LINE
  5
222
100
AcDbEntity
  8
0
100
AcDbLine
 62
7
  6
CONTINUOUS
 10
20.7486811426
 20
1.1987695462
 11
20.7486811426
 21
1.1432869085
  0
LINE
  5
223
100
AcDbEntity
  8
0
100
AcDbLine
 62
7
  6
CONTINUOUS
 10
20.7498134414
 20
1.1059210505
 11
20.7498134414
 21
0.9757066966
  0
LINE
  5
224
100
AcDbEntity
  8
0
100
AcDbLine
 62
7
  6
CONTINUOUS
 10
20.7486811426
 20
1.2338708068
 11
20.7486811426
 21
1.3640851607
  0
LINE
  5
225
100
AcDbEntity
  8
0
100
AcDbLine
 62
7
  6
CONTINUOUS
 10
21.0702539817
 20
1.2701043662
 11
21.4790138229
 21
1.3448360823
  0
LINE
  5
226
100
AcDbEntity
  8
0
100
AcDbLine
 62
7
  6
CONTINUOUS
 10
21.4790138229
 20
1.3448360823
 11
21.4790138229
 21
0.9779712941
  0
LINE
  5
227
100
AcDbEntity
  8
0
100
AcDbLine
 62
7
  6
CONTINUOUS
 10
21.4790138229
 20
0.9779712941
 11
21.069121683
 21
1.0617614
  0
LINE
  5
228
100
AcDbEntity
  8
0
100
AcDbLine
 62
7
  6
CONTINUOUS
 10
21.0702539817
 20
1.2701043662
 11
21.069121683
 21
1.0617614
  0
LINE
  5
229
100
AcDbEntity
  8
0
100
AcDbLine
 62
7
  6
CONTINUOUS
 10
21.4790138229
 20
1.1693297793
 11
21.3159628059
 21
1.1693297793
  0
LINE
  5
22A
100
AcDbEntity
  8
0
100
AcDbLine
 62
7
  6
CONTINUOUS
 10
21.2876553377
 20
1.1693297793
 11
21.2502894796
 21
1.1693297793
  0
LINE
  5
22B
100
AcDbEntity
  8
0
100
AcDbLine
 62
7
  6
CONTINUOUS
 10
21.2208497126
 20
1.1659328831
 11
21.0713862804
 21
1.1659328831
  0
LINE
  5
22C
100
AcDbEntity
  8
0
100
AcDbLine
 62
7
  6
CONTINUOUS
 10
20.4796138713
 20
1.5284908897
 11
20.4766766948
 21
0.9294458646
  0
ENDBLK
  5
22D
100
AcDbEntity
  8
0
  6
BYBLOCK
 62
0
100
AcDbBlockEnd
  0
BLOCK
  5
22E
100
AcDbEntity
  8
0
100
AcDbBlockBegin
  2
*T1
 70
1
 10
0.0
 20
0.0
  3
*T1
  1

  0
LINE
  5
22F
100
AcDbEntity
  8
0
100
AcDbLine
 62
2
  6
CONTINUOUS
 10
9.275
 20
0.0
 11
-0.0
 21
0.0
  0
LINE
  5
230
100
AcDbEntity
  8
0
100
AcDbLine
 62
2
  6
CONTINUOUS
 10
9.275
 20
0.0
 11
9.275
 21
1.25
  0
LINE
  5
231
100
AcDbEntity
  8
0
100
AcDbLine
 62
2
  6
CONTINUOUS
 10
9.275
 20
0.625
 11
-0.0
 21
0.625
  0
LINE
  5
232
100
AcDbEntity
  8
0
100
AcDbLine
 62
2
  6
CONTINUOUS
 10
9.275
 20
1.25
 11
-0.0
 21
1.25
  0
LINE
  5
233
100
AcDbEntity
  8
0
100
AcDbLine
 62
2
  6
CONTINUOUS
 10
6.8
 20
0.0
 11
6.8
 21
1.25
  0
LINE
  5
234
100
AcDbEntity
  8
0
100
AcDbLine
 62
2
  6
CONTINUOUS
 10
6.4
 20
0.0
 11
6.4
 21
0.625
  0
LINE
  5
235
100
AcDbEntity
  8
0
100
AcDbLine
 62
2
  6
CONTINUOUS
 10
5.9
 20
0.0
 11
5.9
 21
0.625
  0
LINE
  5
236
100
AcDbEntity
  8
0
100
AcDbLine
 62
2
  6
CONTINUOUS
 10
5.2
 20
0.0
 11
5.2
 21
0.625
  0
LINE
  5
237
100
AcDbEntity
  8
0
100
AcDbLine
 62
2
  6
CONTINUOUS
 10
4.1
 20
0.0
 11
4.1
 21
1.25
  0
LINE
  5
238
100
AcDbEntity
  8
0
100
AcDbLine
 62
2
  6
CONTINUOUS
 10
-0.0
 20
0.0
 11
-0.0
 21
1.25
  0
MTEXT
  5
239
100
AcDbEntity
  8
0
100
AcDbMText
 62
2
  6
CONTINUOUS
  7
STANDARD
 71
2
 72
1
 10
6.6
 20
0.325
 30
0.0
 11
1.0
 21
0.0
 31
0.0
 44
0.9
  1
2
 40
0.125
 41
0.2
  0
MTEXT
  5
23A
100
AcDbEntity
  8
0
100
AcDbMText
 62
2
  6
CONTINUOUS
  7
STANDARD
 71
2
 72
1
 10
6.15
 20
0.325
 30
0.0
 11
1.0
 21
0.0
 31
0.0
 44
0.9
  1
C
 40
0.125
 41
0.2
  0
MTEXT
  5
23B
100
AcDbEntity
  8
0
100
AcDbMText
 62
2
  6
CONTINUOUS
  7
STANDARD
 71
2
 72
1
 10
5.55
 20
0.325
 30
0.0
 11
1.0
 21
0.0
 31
0.0
 44
0.9
  1
2.000
 40
0.125
 41
1.0
  0
MTEXT
  5
23C
100
AcDbEntity
  8
0
100
AcDbMText
 62
2
  6
CONTINUOUS
  7
STANDARD
 71
2
 72
1
 10
4.65
 20
0.325
 30
0.0
 11
1.0
 21
0.0
 31
0.0
 44
0.9
  1
Feb-14-20
 40
0.125
 41
1.8
  0
MTEXT
  5
23D
100
AcDbEntity
  8
0
100
AcDbMText
 62
2
  6
CONTINUOUS
  7
STANDARD
 71
2
 72
1
 10
2.05
 20
0.4625
 30
0.0
 11
1.0
 21
0.0
 31
0.0
 44
0.9
  1
T-10A Line mount\PNinety degree with reverse flow check
 40
0.125
 41
7.4
  0
MTEXT
  5
23E
100
AcDbEntity
  8
0
100
AcDbMText
 62
2
  6
CONTINUOUS
  7
STANDARD
 71
1
 72
1
 10
6.45
 20
0.5625
 30
0.0
 11
1.0
 21
0.0
 31
0.0
 44
0.9
  1
SHEET
 40
0.06
 41
0.48
  0
MTEXT
  5
23F
100
AcDbEntity
  8
0
100
AcDbMText
 62
2
  6
CONTINUOUS
  7
STANDARD
 71
1
 72
1
 10
5.95
 20
0.5625
 30
0.0
 11
1.0
 21
0.0
 31
0.0
 44
0.9
  1
DWG SIZE
 40
0.06
 41
0.768
  0
MTEXT
  5
240
100
AcDbEntity
  8
0
100
AcDbMText
 62
2
  6
CONTINUOUS
  7
STANDARD
 71
1
 72
1
 10
5.25
 20
0.5625
 30
0.0
 11
1.0
 21
0.0
 31
0.0
 44
0.9
  1
SCALE
 40
0.06
 41
0.48
  0
MTEXT
  5
241
100
AcDbEntity
  8
0
100
AcDbMText
 62
2
  6
CONTINUOUS
  7
STANDARD
 71
1
 72
1
 10
4.15
 20
0.5625
 30
0.0
 11
1.0
 21
0.0
 31
0.0
 44
0.9
  1
DATE
 40
0.06
 41
0.384
  0
MTEXT
  5
242
100
AcDbEntity
  8
0
100
AcDbMText
 62
2
  6
CONTINUOUS
  7
STANDARD
 71
1
 72
1
 10
0.05
 20
0.5625
 30
0.0
 11
1.0
 21
0.0
 31
0.0
 44
0.9
  1
DESCRIPTION
 40
0.06
 41
1.056
  0
MTEXT
  5
243
100
AcDbEntity
  8
0
100
AcDbMText
 62
2
  6
CONTINUOUS
  7
STANDARD
 71
2
 72
1
 10
5.45
 20
1.0375
 30
0.0
 11
1.0
 21
0.0
 31
0.0
 44
0.9
  1
ALL DIMENSIONS IN INCH\PVIEWS ARE THIRD ANGLE
 40
0.12
 41
4.224
  0
MTEXT
  5
244
100
AcDbEntity
  8
0
100
AcDbMText
 62
2
  6
CONTINUOUS
  7
STANDARD
 71
2
 72
1
 10
2.05
 20
0.95
 30
0.0
 11
1.0
 21
0.0
 31
0.0
 44
0.9
  1
FNC
 40
0.125
 41
0.6
  0
MTEXT
  5
245
100
AcDbEntity
  8
0
100
AcDbMText
 62
2
  6
CONTINUOUS
  7
STANDARD
 71
1
 72
1
 10
0.05
 20
1.1875
 30
0.0
 11
1.0
 21
0.0
 31
0.0
 44
0.9
  1
MODEL
 40
0.06
 41
0.48
  0
ENDBLK
  5
246
100
AcDbEntity
  8
0
  6
BYBLOCK
 62
0
100
AcDbBlockEnd
  0
BLOCK
  5
247
100
AcDbEntity
  8
0
100
AcDbBlockBegin
  2
*T2
 70
1
 10
0.0
 20
0.0
  3
*T2
  1

  0
LINE
  5
248
100
AcDbEntity
  8
0
100
AcDbLine
 62
2
  6
CONTINUOUS
 10
0.0
 20
0.0
 11
9.055
 21
0.0
  0
LINE
  5
249
100
AcDbEntity
  8
0
100
AcDbLine
 62
2
  6
CONTINUOUS
 10
0.0
 20
0.0
 11
0.0
 21
-2.594
  0
LINE
  5
24A
100
AcDbEntity
  8
0
100
AcDbLine
 62
2
  6
CONTINUOUS
 10
0.0
 20
-0.344
 11
9.055
 21
-0.344
  0
LINE
  5
24B
100
AcDbEntity
  8
0
100
AcDbLine
 62
2
  6
CONTINUOUS
 10
0.0
 20
-0.594
 11
9.055
 21
-0.594
  0
LINE
  5
24C
100
AcDbEntity
  8
0
100
AcDbLine
 62
2
  6
CONTINUOUS
 10
0.0
 20
-0.844
 11
9.055
 21
-0.844
  0
LINE
  5
24D
100
AcDbEntity
  8
0
100
AcDbLine
 62
2
  6
CONTINUOUS
 10
0.0
 20
-1.094
 11
9.055
 21
-1.094
  0
LINE
  5
24E
100
AcDbEntity
  8
0
100
AcDbLine
 62
2
  6
CONTINUOUS
 10
0.0
 20
-1.344
 11
9.055
 21
-1.344
  0
LINE
  5
24F
100
AcDbEntity
  8
0
100
AcDbLine
 62
2
  6
CONTINUOUS
 10
0.0
 20
-1.594
 11
9.055
 21
-1.594
  0
LINE
  5
250
100
AcDbEntity
  8
0
100
AcDbLine
 62
2
  6
CONTINUOUS
 10
0.0
 20
-1.844
 11
9.055
 21
-1.844
  0
LINE
  5
251
100
AcDbEntity
  8
0
100
AcDbLine
 62
2
  6
CONTINUOUS
 10
0.0
 20
-2.094
 11
9.055
 21
-2.094
  0
LINE
  5
252
100
AcDbEntity
  8
0
100
AcDbLine
 62
2
  6
CONTINUOUS
 10
0.0
 20
-2.344
 11
9.055
 21
-2.344
  0
LINE
  5
253
100
AcDbEntity
  8
0
100
AcDbLine
 62
2
  6
CONTINUOUS
 10
0.0
 20
-2.594
 11
9.055
 21
-2.594
  0
LINE
  5
254
100
AcDbEntity
  8
0
100
AcDbLine
 62
2
  6
CONTINUOUS
 10
3.055
 20
0.0
 11
3.055
 21
-2.594
  0
LINE
  5
255
100
AcDbEntity
  8
0
100
AcDbLine
 62
2
  6
CONTINUOUS
 10
9.055
 20
0.0
 11
9.055
 21
-2.594
  0
MTEXT
  5
256
100
AcDbEntity
  8
0
100
AcDbMText
 62
2
  6
CONTINUOUS
  7
STANDARD
 71
2
 72
1
 10
1.5275
 20
-0.0995
 30
0.0
 11
1.0
 21
0.0
 31
0.0
 44
0.9
  1
Technical Data
 40
0.145
 41
3.248
  0
MTEXT
  5
257
100
AcDbEntity
  8
0
100
AcDbMText
 62
2
  6
CONTINUOUS
  7
STANDARD
 71
2
 72
1
 10
4.555
 20
-0.0995
 30
0.0
 11
1.0
 21
0.0
 31
0.0
 44
0.9
  1
U.S. Units
 40
0.145
 41
2.32
  0
MTEXT
  5
258
100
AcDbEntity
  8
0
100
AcDbMText
 62
2
  6
CONTINUOUS
  7
STANDARD
 71
2
 72
1
 10
7.555
 20
-0.0995
 30
0.0
 11
1.0
 21
0.0
 31
0.0
 44
0.9
  1
Metric Units
 40
0.145
 41
2.784
  0
MTEXT
  5
259
100
AcDbEntity
  8
0
100
AcDbMText
 62
2
  6
CONTINUOUS
  7
STANDARD
 71
2
 72
1
 10
1.5275
 20
-0.4065
 30
0.0
 11
1.0
 21
0.0
 31
0.0
 44
0.9
  1
Cavity
 40
0.125
 41
1.2
  0
MTEXT
  5
25A
100
AcDbEntity
  8
0
100
AcDbMText
 62
2
  6
CONTINUOUS
  7
STANDARD
 71
2
 72
1
 10
6.055
 20
-0.4065
 30
0.0
 11
1.0
 21
0.0
 31
0.0
 44
0.9
  1
T-10A
 40
0.125
 41
1.0
  0
MTEXT
  5
25B
100
AcDbEntity
  8
0
100
AcDbMText
 62
2
  6
CONTINUOUS
  7
STANDARD
 71
2
 72
1
 10
1.5275
 20
-0.6565
 30
0.0
 11
1.0
 21
0.0
 31
0.0
 44
0.9
  1
Body Features
 40
0.125
 41
2.6
  0
MTEXT
  5
25C
100
AcDbEntity
  8
0
100
AcDbMText
 62
2
  6
CONTINUOUS
  7
STANDARD
 71
2
 72
1
 10
6.055
 20
-0.6565
 30
0.0
 11
1.0
 21
0.0
 31
0.0
 44
0.9
  1
Ninety degree with reverse flow check
 40
0.125
 41
7.4
  0
MTEXT
  5
25D
100
AcDbEntity
  8
0
100
AcDbMText
 62
2
  6
CONTINUOUS
  7
STANDARD
 71
2
 72
1
 10
1.5275
 20
-0.9065
 30
0.0
 11
1.0
 21
0.0
 31
0.0
 44
0.9
  1
Body Type
 40
0.125
 41
1.8
  0
MTEXT
  5
25E
100
AcDbEntity
  8
0
100
AcDbMText
 62
2
  6
CONTINUOUS
  7
STANDARD
 71
2
 72
1
 10
6.055
 20
-0.9065
 30
0.0
 11
1.0
 21
0.0
 31
0.0
 44
0.9
  1
Line mount
 40
0.125
 41
2.0
  0
MTEXT
  5
25F
100
AcDbEntity
  8
0
100
AcDbMText
 62
2
  6
CONTINUOUS
  7
STANDARD
 71
2
 72
1
 10
1.5275
 20
-1.1565
 30
0.0
 11
1.0
 21
0.0
 31
0.0
 44
0.9
  1
Interface
 40
0.125
 41
1.8
  0
MTEXT
  5
260
100
AcDbEntity
  8
0
100
AcDbMText
 62
2
  6
CONTINUOUS
  7
STANDARD
 71
2
 72
1
 10
6.055
 20
-1.1565
 30
0.0
 11
1.0
 21
0.0
 31
0.0
 44
0.9
  1
None
 40
0.125
 41
0.8
  0
MTEXT
  5
261
100
AcDbEntity
  8
0
100
AcDbMText
 62
2
  6
CONTINUOUS
  7
STANDARD
 71
2
 72
1
 10
1.5275
 20
-1.4065
 30
0.0
 11
1.0
 21
0.0
 31
0.0
 44
0.9
  1
Open Cavity Quantity
 40
0.125
 41
4.0
  0
MTEXT
  5
262
100
AcDbEntity
  8
0
100
AcDbMText
 62
2
  6
CONTINUOUS
  7
STANDARD
 71
2
 72
1
 10
6.055
 20
-1.4065
 30
0.0
 11
1.0
 21
0.0
 31
0.0
 44
0.9
  1
1
 40
0.125
 41
0.2
  0
MTEXT
  5
263
100
AcDbEntity
  8
0
100
AcDbMText
 62
2
  6
CONTINUOUS
  7
STANDARD
 71
2
 72
1
 10
1.5275
 20
-1.6565
 30
0.0
 11
1.0
 21
0.0
 31
0.0
 44
0.9
  1
Weight
 40
0.125
 41
1.2
  0
MTEXT
  5
264
100
AcDbEntity
  8
0
100
AcDbMText
 62
2
  6
CONTINUOUS
  7
STANDARD
 71
2
 72
1
 10
4.555
 20
-1.6565
 30
0.0
 11
1.0
 21
0.0
 31
0.0
 44
0.9
  1
0.900 lb.
 40
0.125
 41
1.8
  0
MTEXT
  5
265
100
AcDbEntity
  8
0
100
AcDbMText
 62
2
  6
CONTINUOUS
  7
STANDARD
 71
2
 72
1
 10
7.555
 20
-1.6565
 30
0.0
 11
1.0
 21
0.0
 31
0.0
 44
0.9
  1
0,408 kg.
 40
0.125
 41
1.8
  0
MTEXT
  5
266
100
AcDbEntity
  8
0
100
AcDbMText
 62
2
  6
CONTINUOUS
  7
STANDARD
 71
2
 72
1
 10
1.5275
 20
-1.9065
 30
0.0
 11
1.0
 21
0.0
 31
0.0
 44
0.9
  1
Mounting Hole Diameter
 40
0.125
 41
4.4
  0
MTEXT
  5
267
100
AcDbEntity
  8
0
100
AcDbMText
 62
2
  6
CONTINUOUS
  7
STANDARD
 71
2
 72
1
 10
4.555
 20
-1.9065
 30
0.0
 11
1.0
 21
0.0
 31
0.0
 44
0.9
  1
.28 in.
 40
0.125
 41
1.4
  0
MTEXT
  5
268
100
AcDbEntity
  8
0
100
AcDbMText
 62
2
  6
CONTINUOUS
  7
STANDARD
 71
2
 72
1
 10
7.555
 20
-1.9065
 30
0.0
 11
1.0
 21
0.0
 31
0.0
 44
0.9
  1
7,1 mm
 40
0.125
 41
1.2
  0
MTEXT
  5
269
100
AcDbEntity
  8
0
100
AcDbMText
 62
2
  6
CONTINUOUS
  7
STANDARD
 71
2
 72
1
 10
1.5275
 20
-2.1565
 30
0.0
 11
1.0
 21
0.0
 31
0.0
 44
0.9
  1
Mounting Hole Depth
 40
0.125
 41
3.8
  0
MTEXT
  5
26A
100
AcDbEntity
  8
0
100
AcDbMText
 62
2
  6
CONTINUOUS
  7
STANDARD
 71
2
 72
1
 10
6.055
 20
-2.1565
 30
0.0
 11
1.0
 21
0.0
 31
0.0
 44
0.9
  1
Through
 40
0.125
 41
1.4
  0
MTEXT
  5
26B
100
AcDbEntity
  8
0
100
AcDbMText
 62
2
  6
CONTINUOUS
  7
STANDARD
 71
2
 72
1
 10
1.5275
 20
-2.4065
 30
0.0
 11
1.0
 21
0.0
 31
0.0
 44
0.9
  1
Mounting Hole Quantity
 40
0.125
 41
4.4
  0
MTEXT
  5
26C
100
AcDbEntity
  8
0
100
AcDbMText
 62
2
  6
CONTINUOUS
  7
STANDARD
 71
2
 72
1
 10
6.055
 20
-2.4065
 30
0.0
 11
1.0
 21
0.0
 31
0.0
 44
0.9
  1
2
 40
0.125
 41
0.2
  0
ENDBLK
  5
26D
100
AcDbEntity
  8
0
  6
BYBLOCK
 62
0
100
AcDbBlockEnd
  0
BLOCK
  5
26E
100
AcDbEntity
  8
0
100
AcDbBlockBegin
  2
*T3
 70
1
 10
0.0
 20
0.0
  3
*T3
  1

  0
LINE
  5
26F
100
AcDbEntity
  8
0
100
AcDbLine
 62
2
  6
CONTINUOUS
 10
0.0
 20
0.0
 11
4.6
 21
0.0
  0
LINE
  5
270
100
AcDbEntity
  8
0
100
AcDbLine
 62
2
  6
CONTINUOUS
 10
0.0
 20
0.0
 11
0.0
 21
-0.93775
  0
LINE
  5
271
100
AcDbEntity
  8
0
100
AcDbLine
 62
2
  6
CONTINUOUS
 10
0.0
 20
-0.34375
 11
4.6
 21
-0.34375
  0
LINE
  5
272
100
AcDbEntity
  8
0
100
AcDbLine
 62
2
  6
CONTINUOUS
 10
0.0
 20
-0.68775
 11
4.6
 21
-0.68775
  0
LINE
  5
273
100
AcDbEntity
  8
0
100
AcDbLine
 62
2
  6
CONTINUOUS
 10
0.0
 20
-0.93775
 11
4.6
 21
-0.93775
  0
LINE
  5
274
100
AcDbEntity
  8
0
100
AcDbLine
 62
2
  6
CONTINUOUS
 10
1.3
 20
-0.34375
 11
1.3
 21
-0.93775
  0
LINE
  5
275
100
AcDbEntity
  8
0
100
AcDbLine
 62
2
  6
CONTINUOUS
 10
3.3
 20
-0.34375
 11
3.3
 21
-0.93775
  0
LINE
  5
276
100
AcDbEntity
  8
0
100
AcDbLine
 62
2
  6
CONTINUOUS
 10
4.6
 20
0.0
 11
4.6
 21
-0.93775
  0
MTEXT
  5
277
100
AcDbEntity
  8
0
100
AcDbMText
 62
2
  6
CONTINUOUS
  7
STANDARD
 71
2
 72
1
 10
2.3
 20
-0.099375
 30
0.0
 11
1.0
 21
0.0
 31
0.0
 44
0.9
  1
Port Headings
 40
0.145
 41
3.016
  0
MTEXT
  5
278
100
AcDbEntity
  8
0
100
AcDbMText
 62
2
  6
CONTINUOUS
  7
STANDARD
 71
2
 72
1
 10
0.65
 20
-0.44325
 30
0.0
 11
1.0
 21
0.0
 31
0.0
 44
0.9
  1
Product
 40
0.145
 41
1.624
  0
MTEXT
  5
279
100
AcDbEntity
  8
0
100
AcDbMText
 62
2
  6
CONTINUOUS
  7
STANDARD
 71
2
 72
1
 10
2.3
 20
-0.44325
 30
0.0
 11
1.0
 21
0.0
 31
0.0
 44
0.9
  1
Port
 40
0.145
 41
0.928
  0
MTEXT
  5
27A
100
AcDbEntity
  8
0
100
AcDbMText
 62
2
  6
CONTINUOUS
  7
STANDARD
 71
2
 72
1
 10
3.95
 20
-0.44325
 30
0.0
 11
1.0
 21
0.0
 31
0.0
 44
0.9
  1
Size
 40
0.145
 41
0.928
  0
MTEXT
  5
27B
100
AcDbEntity
  8
0
100
AcDbMText
 62
2
  6
CONTINUOUS
  7
STANDARD
 71
2
 72
1
 10
0.65
 20
-0.75025
 30
0.0
 11
1.0
 21
0.0
 31
0.0
 44
0.9
  1
FNC
 40
0.125
 41
0.6
  0
MTEXT
  5
27C
100
AcDbEntity
  8
0
100
AcDbMText
 62
2
  6
CONTINUOUS
  7
STANDARD
 71
2
 72
1
 10
2.3
 20
-0.75025
 30
0.0
 11
1.0
 21
0.0
 31
0.0
 44
0.9
  1
All Ports
 40
0.125
 41
1.8
  0
MTEXT
  5
27D
100
AcDbEntity
  8
0
100
AcDbMText
 62
2
  6
CONTINUOUS
  7
STANDARD
 71
2
 72
1
 10
3.95
 20
-0.75025
 30
0.0
 11
1.0
 21
0.0
 31
0.0
 44
0.9
  1
1/2" NPTF
 40
0.125
 41
1.8
  0
ENDBLK
  5
27E
100
AcDbEntity
  8
0
  6
BYBLOCK
 62
0
100
AcDbBlockEnd
  0
ENDSEC
  0
SECTION
  2
ENTITIES
  0
IMAGE
  5
27F
100
AcDbEntity
  8
0
100
AcDbRasterImage
 62
7
  6
CONTINUOUS
 10
19.2297077316
 20
0.3094318264
 30
0.0
 11
0.0066666667
 21
0.0
 31
0.0
 12
0.0
 22
0.0066666667
 32
0.0
 13
369.0
 23
92.0
340
       373
 70
9
280
0
281
50
282
50
283
0
360
       36D
 71
1
 91
2
 14
-0.5
 24
-0.5
 14
368.5
 24
91.5
  0
INSERT
  5
280
100
AcDbEntity
  8
0
100
AcDbBlockReference
 62
2
  6
CONTINUOUS
  2
SUN_FIRST_THIRD_ANGLE_BL0
 10
20.4816717061
 20
1.2289683772
  0
ACAD_TABLE
  5
281
100
AcDbEntity
  8
0
 62
2
  6
CONTINUOUS
100
AcDbBlockReference
  2
*T1
 10
12.42375
 20
0.30125
 30
0.0
100
AcDbTable
342
       375
343
207
 11
1.0
 21
0.0
 31
0.0
 90
6
 91
4
 92
6
 93
20
 94
0
 95
0
 96
0
 70
1
 41
0.0
141
0.525
141
0.1
141
0.525
141
0.1
142
4.1
142
1.1
142
0.7
142
0.5
142
0.4
142
2.475
171
1
172
0
173
0
174
0
175
1
176
1
 91
33
178
0
145
0.0
301
CELL_VALUE
 90
4
  1
T-10A Line mount\PNinety degree with reverse flow check
304
ACVALUE_END
170
2
140
0.125
171
1
172
0
173
0
174
0
175
1
176
1
 91
33
178
0
145
0.0
301
CELL_VALUE
 90
4
  1
Feb-14-20
304
ACVALUE_END
170
5
140
0.125
171
1
172
0
173
0
174
0
175
1
176
1
 91
33
178
0
145
0.0
301
CELL_VALUE
 90
4
  1
2.000
304
ACVALUE_END
170
5
140
0.125
171
1
172
0
173
0
174
0
175
1
176
1
 91
33
178
0
145
0.0
301
CELL_VALUE
 90
4
  1
C
304
ACVALUE_END
170
5
140
0.125
171
1
172
0
173
0
174
0
175
1
176
1
 91
33
178
0
145
0.0
301
CELL_VALUE
 90
4
  1
2
304
ACVALUE_END
170
5
140
0.125
171
1
172
0
173
0
174
0
175
1
176
1
 91
33
178
0
145
0.0
301
CELL_VALUE
 90
4
  1
 
304
ACVALUE_END
170
1
140
0.125
171
1
172
0
173
0
174
0
175
1
176
1
 91
33
178
0
145
0.0
301
CELL_VALUE
 90
4
  1
DESCRIPTION
304
ACVALUE_END
170
1
140
0.06
171
1
172
0
173
0
174
0
175
1
176
1
 91
33
178
0
145
0.0
301
CELL_VALUE
 90
4
  1
DATE
304
ACVALUE_END
170
1
140
0.06
171
1
172
0
173
0
174
0
175
1
176
1
 91
33
178
0
145
0.0
301
CELL_VALUE
 90
4
  1
SCALE
304
ACVALUE_END
170
1
140
0.06
171
1
172
0
173
0
174
0
175
1
176
1
 91
33
178
0
145
0.0
301
CELL_VALUE
 90
4
  1
DWG SIZE
304
ACVALUE_END
170
1
140
0.06
171
1
172
0
173
0
174
0
175
1
176
1
 91
33
178
0
145
0.0
301
CELL_VALUE
 90
4
  1
SHEET
304
ACVALUE_END
170
1
140
0.06
171
1
172
0
173
0
174
0
175
1
176
1
 91
33
178
0
145
0.0
301
CELL_VALUE
 90
4
  1
 
304
ACVALUE_END
170
1
140
0.125
171
1
172
0
173
0
174
0
175
1
176
1
 91
33
178
0
145
0.0
301
CELL_VALUE
 90
4
  1
FNC
304
ACVALUE_END
170
5
140
0.125
171
1
172
0
173
0
174
0
175
4
176
1
 91
33
178
0
145
0.0
301
CELL_VALUE
 90
4
  1
ALL DIMENSIONS IN INCH\PVIEWS ARE THIRD ANGLE
304
ACVALUE_END
170
5
140
0.12
171
1
172
0
173
1
174
0
175
1
176
1
 91
1
178
0
145
0.0
170
1
171
1
172
0
173
1
174
0
175
1
176
1
 91
1
178
0
145
0.0
170
1
171
1
172
0
173
1
174
0
175
1
176
1
 91
1
178
0
145
0.0
170
5
171
1
172
0
173
0
174
0
175
1
176
1
 91
33
178
0
145
0.0
301
CELL_VALUE
 90
4
  1
 
304
ACVALUE_END
170
1
140
0.125
171
1
172
0
173
0
174
0
175
1
176
1
 91
33
178
0
145
0.0
301
CELL_VALUE
 90
4
  1
MODEL
304
ACVALUE_END
170
1
140
0.06
171
1
172
0
173
0
174
0
175
1
176
1
 91
33
178
0
145
0.0
301
CELL_VALUE
 90
4
  1
 
304
ACVALUE_END
170
1
140
0.125
171
1
172
0
173
0
174
0
175
1
176
1
 91
33
178
0
145
0.0
301
CELL_VALUE
 90
4
  1
 
304
ACVALUE_END
170
1
140
0.125
171
1
172
0
173
0
174
0
175
1
176
1
 91
33
178
0
145
0.0
301
CELL_VALUE
 90
4
  1
 
304
ACVALUE_END
170
1
140
0.125
171
1
172
0
173
0
174
0
175
1
176
1
 91
33
178
0
145
0.0
301
CELL_VALUE
 90
4
  1
 
304
ACVALUE_END
170
1
140
0.125
171
1
172
0
173
0
174
0
175
1
176
1
 91
33
178
0
145
0.0
301
CELL_VALUE
 90
4
  1
 
304
ACVALUE_END
170
1
140
0.125
  0
ACAD_TABLE
  5
282
100
AcDbEntity
  8
0
 62
2
  6
CONTINUOUS
100
AcDbBlockReference
  2
*T2
 10
12.4237499994
 20
16.47875
 30
0.0
100
AcDbTable
342
       374
343
208
 11
1.0
 21
0.0
 31
0.0
 90
22
 91
10
 92
3
 93
16
 94
0
 95
0
 96
0
 41
0.028
141
0.344
141
0.25
141
0.25
141
0.25
141
0.25
141
0.25
141
0.25
141
0.25
141
0.25
141
0.25
142
3.055
142
3.0
142
3.0
171
1
172
0
173
0
174
0
175
1
176
1
 91
33
178
0
145
0.0
301
CELL_VALUE
 90
4
  1
Technical Data
304
ACVALUE_END
170
5
140
0.145
171
1
172
0
173
0
174
0
175
1
176
1
 91
33
178
0
145
0.0
301
CELL_VALUE
 90
4
  1
U.S. Units
304
ACVALUE_END
170
5
140
0.145
171
1
172
0
173
0
174
0
175
1
176
1
 91
33
178
0
145
0.0
301
CELL_VALUE
 90
4
  1
Metric Units
304
ACVALUE_END
170
5
140
0.145
171
1
172
0
173
0
174
0
175
1
176
1
 91
33
178
0
145
0.0
301
CELL_VALUE
 90
4
  1
Cavity
304
ACVALUE_END
170
5
140
0.125
171
1
172
0
173
0
174
0
175
2
176
1
 91
33
178
0
145
0.0
301
CELL_VALUE
 90
4
  1
T-10A
304
ACVALUE_END
170
5
140
0.125
171
1
172
0
173
1
174
0
175
1
176
1
 91
1
178
0
145
0.0
170
1
171
1
172
0
173
0
174
0
175
1
176
1
 91
33
178
0
145
0.0
301
CELL_VALUE
 90
4
  1
Body Features
304
ACVALUE_END
170
5
140
0.125
171
1
172
0
173
0
174
0
175
2
176
1
 91
33
178
0
145
0.0
301
CELL_VALUE
 90
4
  1
Ninety degree with reverse flow check
304
ACVALUE_END
170
5
140
0.125
171
1
172
0
173
1
174
0
175
1
176
1
 91
1
178
0
145
0.0
170
1
171
1
172
0
173
0
174
0
175
1
176
1
 91
33
178
0
145
0.0
301
CELL_VALUE
 90
4
  1
Body Type
304
ACVALUE_END
170
5
140
0.125
171
1
172
0
173
0
174
0
175
2
176
1
 91
33
178
0
145
0.0
301
CELL_VALUE
 90
4
  1
Line mount
304
ACVALUE_END
170
5
140
0.125
171
1
172
0
173
1
174
0
175
1
176
1
 91
1
178
0
145
0.0
170
1
171
1
172
0
173
0
174
0
175
1
176
1
 91
33
178
0
145
0.0
301
CELL_VALUE
 90
4
  1
Interface
304
ACVALUE_END
170
5
140
0.125
171
1
172
0
173
0
174
0
175
2
176
1
 91
33
178
0
145
0.0
301
CELL_VALUE
 90
4
  1
None
304
ACVALUE_END
170
5
140
0.125
171
1
172
0
173
1
174
0
175
1
176
1
 91
1
178
0
145
0.0
170
1
171
1
172
0
173
0
174
0
175
1
176
1
 91
33
178
0
145
0.0
301
CELL_VALUE
 90
4
  1
Open Cavity Quantity
304
ACVALUE_END
170
5
140
0.125
171
1
172
0
173
0
174
0
175
2
176
1
 91
33
178
0
145
0.0
301
CELL_VALUE
 90
4
  1
1
304
ACVALUE_END
170
5
140
0.125
171
1
172
0
173
1
174
0
175
1
176
1
 91
1
178
0
145
0.0
170
1
171
1
172
0
173
0
174
0
175
1
176
1
 91
33
178
0
145
0.0
301
CELL_VALUE
 90
4
  1
Weight
304
ACVALUE_END
170
5
140
0.125
171
1
172
0
173
0
174
0
175
1
176
1
 91
33
178
0
145
0.0
301
CELL_VALUE
 90
4
  1
0.900 lb.
304
ACVALUE_END
170
5
140
0.125
171
1
172
0
173
0
174
0
175
1
176
1
 91
33
178
0
145
0.0
301
CELL_VALUE
 90
4
  1
0,408 kg.
304
ACVALUE_END
170
5
140
0.125
171
1
172
0
173
0
174
0
175
1
176
1
 91
33
178
0
145
0.0
301
CELL_VALUE
 90
4
  1
Mounting Hole Diameter
304
ACVALUE_END
170
5
140
0.125
171
1
172
0
173
0
174
0
175
1
176
1
 91
33
178
0
145
0.0
301
CELL_VALUE
 90
4
  1
.28 in.
304
ACVALUE_END
170
5
140
0.125
171
1
172
0
173
0
174
0
175
1
176
1
 91
33
178
0
145
0.0
301
CELL_VALUE
 90
4
  1
7,1 mm
304
ACVALUE_END
170
5
140
0.125
171
1
172
0
173
0
174
0
175
1
176
1
 91
33
178
0
145
0.0
301
CELL_VALUE
 90
4
  1
Mounting Hole Depth
304
ACVALUE_END
170
5
140
0.125
171
1
172
0
173
0
174
0
175
2
176
1
 91
33
178
0
145
0.0
301
CELL_VALUE
 90
4
  1
Through
304
ACVALUE_END
170
5
140
0.125
171
1
172
0
173
1
174
0
175
1
176
1
 91
1
178
0
145
0.0
170
1
171
1
172
0
173
0
174
0
175
1
176
1
 91
33
178
0
145
0.0
301
CELL_VALUE
 90
4
  1
Mounting Hole Quantity
304
ACVALUE_END
170
5
140
0.125
171
1
172
0
173
0
174
0
175
2
176
1
 91
33
178
0
145
0.0
301
CELL_VALUE
 90
4
  1
2
304
ACVALUE_END
170
5
140
0.125
171
1
172
0
173
1
174
0
175
1
176
1
 91
1
178
0
145
0.0
170
1
  0
ACAD_TABLE
  5
283
100
AcDbEntity
  8
0
 62
2
  6
CONTINUOUS
100
AcDbBlockReference
  2
*T3
 10
0.52125
 20
1.459
 30
0.0
100
AcDbTable
342
       374
343
209
 11
1.0
 21
0.0
 31
0.0
 90
22
 91
3
 92
3
 93
16
 94
0
 95
0
 96
0
 41
0.05
141
0.34375
141
0.344
141
0.25
142
1.3
142
2.0
142
1.3
171
1
172
0
173
0
174
0
175
3
176
1
 91
33
178
0
145
0.0
301
CELL_VALUE
 90
4
  1
Port Headings
304
ACVALUE_END
170
5
140
0.145
171
1
172
0
173
1
174
0
175
1
176
1
 91
1
178
0
145
0.0
170
1
171
1
172
0
173
1
174
0
175
1
176
1
 91
1
178
0
145
0.0
170
1
171
1
172
0
173
0
174
0
175
1
176
1
 91
33
178
0
145
0.0
301
CELL_VALUE
 90
4
  1
Product
304
ACVALUE_END
170
5
140
0.145
171
1
172
0
173
0
174
0
175
1
176
1
 91
33
178
0
145
0.0
301
CELL_VALUE
 90
4
  1
Port
304
ACVALUE_END
170
5
140
0.145
171
1
172
0
173
0
174
0
175
1
176
1
 91
33
178
0
145
0.0
301
CELL_VALUE
 90
4
  1
Size
304
ACVALUE_END
170
5
140
0.145
171
1
172
0
173
0
174
0
175
1
176
1
 91
33
178
0
145
0.0
301
CELL_VALUE
 90
4
  1
FNC
304
ACVALUE_END
170
5
140
0.125
171
1
172
0
173
0
174
0
175
1
176
1
 91
33
178
0
145
0.0
301
CELL_VALUE
 90
4
  1
All Ports
304
ACVALUE_END
170
5
140
0.125
171
1
172
0
173
0
174
0
175
1
176
1
 91
33
178
0
145
0.0
301
CELL_VALUE
 90
4
  1
1/2" NPTF
304
ACVALUE_END
170
5
140
0.125
  0
MTEXT
  5
284
100
AcDbEntity
  8
0
100
AcDbMText
 62
2
  6
CONTINUOUS
  7
STANDARD
 71
1
 72
1
 10
0.52125
 20
5.75995
 30
0.0
 11
1.0
 21
0.0
 31
0.0
 44
0.6
  3
Notes\P \P1. Important: Carefully consider\P   the maximum system pressure. The\P   pressure rating of the manifold is\P   dependent on the manifold material,\P   with the port type/size a secondary\P   consideration. Manifolds\P   constructed of alu
  1
minum are not\P   rated for pressures higher than\P   3000 psi (210 bar), regardless of\P   the port type/size specified.
 40
0.1
 41
3.04
  0
LINE
  5
285
100
AcDbEntity
  8
0
100
AcDbLine
 62
7
  6
CONTINUOUS
 10
0.30125
 20
0.30125
 11
0.30125
 21
16.69875
  0
LINE
  5
286
100
AcDbEntity
  8
0
100
AcDbLine
 62
7
  6
CONTINUOUS
 10
0.30125
 20
0.30125
 11
21.69875
 21
0.30125
  0
LINE
  5
287
100
AcDbEntity
  8
0
100
AcDbLine
 62
7
  6
CONTINUOUS
 10
0.30125
 20
16.69875
 11
21.69875
 21
16.69875
  0
LINE
  5
288
100
AcDbEntity
  8
0
100
AcDbLine
 62
7
  6
CONTINUOUS
 10
21.69875
 20
0.30125
 11
21.69875
 21
16.69875
  0
LINE
  5
289
100
AcDbEntity
  8
0
100
AcDbLine
 62
7
  6
CONTINUOUS
 10
8.9087088306
 20
12.3494099593
 11
8.2616617518
 21
11.724410438
  0
LINE
  5
28A
100
AcDbEntity
  8
0
100
AcDbLine
 62
7
  6
CONTINUOUS
 10
10.7906337102
 20
4.7945369821
 11
10.8409650307
 21
4.7696742735
  0
LINE
  5
28B
100
AcDbEntity
  8
0
100
AcDbLine
 62
7
  6
CONTINUOUS
 10
8.2616617518
 20
11.724410438
 11
8.2616617518
 21
5.9288551369
  0
LINE
  5
28C
100
AcDbEntity
  8
0
100
AcDbLine
 62
7
  6
CONTINUOUS
 10
8.2616617518
 20
5.9288551369
 11
13.0912911694
 21
5.5939191992
  0
LINE
  5
28D
100
AcDbEntity
  8
0
100
AcDbLine
 62
4
  6
CONTINUOUS
 10
11.4685356728
 20
5.8262324827
 11
11.4105801211
 21
5.8302517139
  0
LINE
  5
28E
100
AcDbEntity
  8
0
100
AcDbLine
 62
4
  6
CONTINUOUS
 10
11.019380147
 20
5.8573815242
 11
10.9904023711
 21
5.8593911398
  0
LINE
  5
28F
100
AcDbEntity
  8
0
100
AcDbLine
 62
4
  6
CONTINUOUS
 10
11.6568912159
 20
5.8904440527
 11
11.7438245435
 21
5.884415206
  0
LINE
  5
290
100
AcDbEntity
  8
0
100
AcDbLine
 62
4
  6
CONTINUOUS
 10
8.628713806
 20
7.8255924935
 11
8.628713806
 21
7.5937702866
  0
LINE
  5
291
100
AcDbEntity
  8
0
100
AcDbLine
 62
4
  6
CONTINUOUS
 10
10.9904023711
 20
6.0912133467
 11
11.019380147
 21
6.0892037311
  0
LINE
  5
292
100
AcDbEntity
  8
0
100
AcDbLine
 62
4
  6
CONTINUOUS
 10
11.4105801211
 20
6.0620739207
 11
11.4685356728
 21
6.0580546896
  0
LINE
  5
293
100
AcDbEntity
  8
0
100
AcDbLine
 62
4
  6
CONTINUOUS
 10
10.9904023711
 20
5.8593911398
 11
10.9614245953
 21
5.8807192732
  0
LINE
  5
294
100
AcDbEntity
  8
0
100
AcDbLine
 62
4
  6
CONTINUOUS
 10
11.019380147
 20
6.0892037311
 11
11.0483579229
 21
6.0678756029
  0
LINE
  5
295
100
AcDbEntity
  8
0
100
AcDbLine
 62
4
  6
CONTINUOUS
 10
11.4685356728
 20
6.0580546896
 11
11.4975134487
 21
6.0367265614
  0
LINE
  5
296
100
AcDbEntity
  8
0
100
AcDbLine
 62
4
  6
CONTINUOUS
 10
10.9614245953
 20
5.8807192732
 11
10.9324468194
 21
5.9213659227
  0
LINE
  5
297
100
AcDbEntity
  8
0
100
AcDbLine
 62
4
  6
CONTINUOUS
 10
9.5918797302
 20
9.0255395194
 11
9.5918797302
 21
9.0586569755
  0
LINE
  5
298
100
AcDbEntity
  8
0
100
AcDbLine
 62
4
  6
CONTINUOUS
 10
9.7077908336
 20
8.8850312221
 11
9.7077908336
 21
8.9181486817
  0
LINE
  5
299
100
AcDbEntity
  8
0
100
AcDbLine
 62
4
  6
CONTINUOUS
 10
9.7740257459
 20
9.0791425626
 11
9.7740257459
 21
8.8804378153
  0
LINE
  5
29A
100
AcDbEntity
  8
0
100
AcDbLine
 62
4
  6
CONTINUOUS
 10
9.5918797302
 20
9.0586569755
 11
9.6249971898
 21
9.089477728
  0
LINE
  5
29B
100
AcDbEntity
  8
0
100
AcDbLine
 62
4
  6
CONTINUOUS
 10
9.7133103709
 20
7.7685901016
 11
9.8016235942
 21
7.7183089471
  0
LINE
  5
29C
100
AcDbEntity
  8
0
100
AcDbLine
 62
4
  6
CONTINUOUS
 10
11.0483579229
 20
6.0678756029
 11
11.0628468108
 21
6.0475522686
  0
LINE
  5
29D
100
AcDbEntity
  8
0
100
AcDbLine
 62
4
  6
CONTINUOUS
 10
9.8457802093
 20
7.6600509118
 11
9.8457802093
 21
7.8918731186
  0
LINE
  5
29E
100
AcDbEntity
  8
0
100
AcDbLine
 62
4
  6
CONTINUOUS
 10
9.8899368494
 20
8.872399353
 11
9.8899368494
 21
9.0711041002
  0
LINE
  5
29F
100
AcDbEntity
  8
0
100
AcDbLine
 62
4
  6
CONTINUOUS
 10
9.9561717617
 20
8.8346884866
 11
9.9561717617
 21
9.0665106935
  0
LINE
  5
2A0
100
AcDbEntity
  8
0
100
AcDbLine
 62
4
  6
CONTINUOUS
 10
9.961691299
 20
7.8507172011
 11
9.961691299
 21
7.68512991
  0
LINE
  5
2A1
100
AcDbEntity
  8
0
100
AcDbLine
 62
4
  6
CONTINUOUS
 10
10.0720828651
 20
8.8266500243
 11
10.0720828651
 21
9.0584722311
  0
LINE
  5
2A2
100
AcDbEntity
  8
0
100
AcDbLine
 62
4
  6
CONTINUOUS
 10
9.6746733775
 20
8.8542104658
 11
9.7077908336
 21
8.8850312221
  0
LINE
  5
2A3
100
AcDbEntity
  8
0
100
AcDbLine
 62
4
  6
CONTINUOUS
 10
9.856819407
 20
8.8415785958
 11
9.8899368494
 21
8.872399353
  0
LINE
  5
2A4
100
AcDbEntity
  8
0
100
AcDbLine
 62
4
  6
CONTINUOUS
 10
11.2587917132
 20
7.5620582311
 11
11.1759980521
 21
7.567799991
  0
LINE
  5
2A5
100
AcDbEntity
  8
0
100
AcDbLine
 62
4
  6
CONTINUOUS
 10
11.0766457251
 20
7.5746900983
 11
11.0269695063
 21
7.5781351558
  0
LINE
  5
2A6
100
AcDbEntity
  8
0
100
AcDbLine
 62
4
  6
CONTINUOUS
 10
10.9000192923
 20
7.586939183
 11
10.8337844076
 21
7.5915325879
  0
LINE
  5
2A7
100
AcDbEntity
  8
0
100
AcDbLine
 62
4
  6
CONTINUOUS
 10
9.9285738428
 20
7.6543091538
 11
9.8457802093
 21
7.6600509118
  0
LINE
  5
2A8
100
AcDbEntity
  8
0
100
AcDbLine
 62
4
  6
CONTINUOUS
 10
10.4529335997
 20
7.6179446811
 11
10.552285982
 21
7.61105457
  0
LINE
  5
2A9
100
AcDbEntity
  8
0
100
AcDbLine
 62
4
  6
CONTINUOUS
 10
11.3857420377
 20
7.5532541962
 11
11.4850943647
 21
7.5463640889
  0
LINE
  5
2AA
100
AcDbEntity
  8
0
100
AcDbLine
 62
4
  6
CONTINUOUS
 10
9.9285738428
 20
7.8861313606
 11
9.961691299
 21
7.8507172011
  0
LINE
  5
2AB
100
AcDbEntity
  8
0
100
AcDbLine
 62
4
  6
CONTINUOUS
 10
11.4975134487
 20
6.0367265614
 11
11.5264912245
 21
5.9960799067
  0
LINE
  5
2AC
100
AcDbEntity
  8
0
100
AcDbLine
 62
4
  6
CONTINUOUS
 10
10.1217590106
 20
7.8727339237
 11
10.1879939505
 21
7.6363183082
  0
LINE
  5
2AD
100
AcDbEntity
  8
0
100
AcDbLine
 62
4
  6
CONTINUOUS
 10
10.3204637751
 20
7.6271314947
 11
10.3204637751
 21
7.8589537015
  0
LINE
  5
2AE
100
AcDbEntity
  8
0
100
AcDbLine
 62
4
  6
CONTINUOUS
 10
10.3204637931
 20
8.8094247484
 11
10.3204637931
 21
9.0412469553
  0
LINE
  5
2AF
100
AcDbEntity
  8
0
100
AcDbLine
 62
4
  6
CONTINUOUS
 10
10.0555240983
 20
7.6455051236
 11
10.1217590106
 21
7.8727339237
  0
LINE
  5
2B0
100
AcDbEntity
  8
0
100
AcDbLine
 62
7
  6
CONTINUOUS
 10
13.7383382482
 20
12.0144740216
 11
13.0912911694
 21
11.3894745003
  0
LINE
  5
2B1
100
AcDbEntity
  8
0
100
AcDbLine
 62
4
  6
CONTINUOUS
 10
10.0776024024
 20
7.7102089073
 11
10.1659156188
 21
7.7040843649
  0
LINE
  5
2B2
100
AcDbEntity
  8
0
100
AcDbLine
 62
4
  6
CONTINUOUS
 10
11.4519769224
 20
7.6811306298
 11
11.3857420377
 21
7.6857240346
  0
LINE
  5
2B3
100
AcDbEntity
  8
0
100
AcDbLine
 62
4
  6
CONTINUOUS
 10
10.5191685397
 20
7.7458211108
 11
10.4529335997
 21
7.7504145195
  0
LINE
  5
2B4
100
AcDbEntity
  8
0
100
AcDbLine
 62
4
  6
CONTINUOUS
 10
9.8457802093
 20
7.8918731186
 11
9.9285738428
 21
7.8861313606
  0
LINE
  5
2B5
100
AcDbEntity
  8
0
100
AcDbLine
 62
4
  6
CONTINUOUS
 10
10.2542288352
 20
7.8635471102
 11
10.3866986598
 21
7.8543602967
  0
LINE
  5
2B6
100
AcDbEntity
  8
0
100
AcDbLine
 62
4
  6
CONTINUOUS
 10
10.4529335997
 20
7.849766888
 11
10.552285982
 21
7.8428767769
  0
LINE
  5
2B7
100
AcDbEntity
  8
0
100
AcDbLine
 62
4
  6
CONTINUOUS
 10
10.8337844076
 20
7.8233547947
 11
10.9000192923
 21
7.8187613899
  0
LINE
  5
2B8
100
AcDbEntity
  8
0
100
AcDbLine
 62
4
  6
CONTINUOUS
 10
11.0269695063
 20
7.8099573626
 11
11.0766457251
 21
7.8065123052
  0
LINE
  5
2B9
100
AcDbEntity
  8
0
100
AcDbLine
 62
4
  6
CONTINUOUS
 10
11.1759980521
 20
7.7996221979
 11
11.2587917132
 21
7.793880438
  0
LINE
  5
2BA
100
AcDbEntity
  8
0
100
AcDbLine
 62
4
  6
CONTINUOUS
 10
11.3857420377
 20
7.7850764031
 11
11.4850943647
 21
7.7781862958
  0
LINE
  5
2BB
100
AcDbEntity
  8
0
100
AcDbLine
 62
4
  6
CONTINUOUS
 10
9.5918797302
 20
8.8765109546
 11
9.60843846
 21
8.858803873
  0
LINE
  5
2BC
100
AcDbEntity
  8
0
100
AcDbLine
 62
4
  6
CONTINUOUS
 10
10.8337844076
 20
7.5915325879
 11
10.8006669653
 21
7.6269467499
  0
LINE
  5
2BD
100
AcDbEntity
  8
0
100
AcDbLine
 62
4
  6
CONTINUOUS
 10
9.7740257459
 20
8.8804378153
 11
9.8071432021
 21
8.8450236523
  0
LINE
  5
2BE
100
AcDbEntity
  8
0
100
AcDbLine
 62
4
  6
CONTINUOUS
 10
11.0269695063
 20
7.5781351558
 11
10.993852064
 21
7.6135493178
  0
LINE
  5
2BF
100
AcDbEntity
  8
0
100
AcDbLine
 62
4
  6
CONTINUOUS
 10
11.1787579142
 20
6.0781508454
 11
11.2946690177
 21
5.8382901762
  0
LINE
  5
2C0
100
AcDbEntity
  8
0
100
AcDbLine
 62
4
  6
CONTINUOUS
 10
9.9561717617
 20
9.0665106935
 11
10.0720828651
 21
8.8266500243
  0
LINE
  5
2C1
100
AcDbEntity
  8
0
100
AcDbLine
 62
4
  6
CONTINUOUS
 10
10.9324468194
 20
5.9213659227
 11
10.9179579315
 21
5.9803262822
  0
LINE
  5
2C2
100
AcDbEntity
  8
0
100
AcDbLine
 62
4
  6
CONTINUOUS
 10
10.4198161754
 20
8.9515631969
 11
10.4198161754
 21
8.8025346373
  0
LINE
  5
2C3
100
AcDbEntity
  8
0
100
AcDbLine
 62
4
  6
CONTINUOUS
 10
10.4529335997
 20
7.6179446811
 11
10.4529335997
 21
7.849766888
  0
LINE
  5
2C4
100
AcDbEntity
  8
0
100
AcDbLine
 62
4
  6
CONTINUOUS
 10
10.4529335633
 20
8.1279535387
 11
10.4529335633
 21
8.3597757456
  0
LINE
  5
2C5
100
AcDbEntity
  8
0
100
AcDbLine
 62
4
  6
CONTINUOUS
 10
10.6185208578
 20
8.1164700209
 11
10.6185208578
 21
8.3482922277
  0
LINE
  5
2C6
100
AcDbEntity
  8
0
100
AcDbLine
 62
4
  6
CONTINUOUS
 10
10.6295601058
 20
8.8045475761
 11
10.6295601058
 21
8.9370174059
  0
LINE
  5
2C7
100
AcDbEntity
  8
0
100
AcDbLine
 62
7
  6
CONTINUOUS
 10
10.6444669575
 20
5.7293938196
 11
10.6444669575
 21
4.8881953681
  0
LINE
  5
2C8
100
AcDbEntity
  8
0
100
AcDbLine
 62
7
  6
CONTINUOUS
 10
10.6751254304
 20
5.6997800594
 11
10.6751254304
 21
4.8585816079
  0
LINE
  5
2C9
100
AcDbEntity
  8
0
100
AcDbLine
 62
4
  6
CONTINUOUS
 10
10.5191685577
 20
8.7404487625
 11
10.5854034423
 21
8.9566384159
  0
LINE
  5
2CA
100
AcDbEntity
  8
0
100
AcDbLine
 62
4
  6
CONTINUOUS
 10
12.5841800595
 20
9.825069582
 11
12.6131578354
 21
9.8423784791
  0
LINE
  5
2CB
100
AcDbEntity
  8
0
100
AcDbLine
 62
4
  6
CONTINUOUS
 10
10.6295601058
 20
8.9370174059
 11
10.6626775481
 21
8.9512794385
  0
LINE
  5
2CC
100
AcDbEntity
  8
0
100
AcDbLine
 62
4
  6
CONTINUOUS
 10
10.9441759738
 20
8.832405081
 11
10.9772934161
 21
8.8466671066
  0
LINE
  5
2CD
100
AcDbEntity
  8
0
100
AcDbLine
 62
4
  6
CONTINUOUS
 10
10.9000192558
 20
8.0969480407
 11
10.8337843435
 21
8.1015414474
  0
LINE
  5
2CE
100
AcDbEntity
  8
0
100
AcDbLine
 62
4
  6
CONTINUOUS
 10
10.5522859386
 20
8.2535332665
 11
10.4529335633
 21
8.2604233772
  0
LINE
  5
2CF
100
AcDbEntity
  8
0
100
AcDbLine
 62
4
  6
CONTINUOUS
 10
11.5513292494
 20
7.6852796746
 11
11.6396424658
 21
7.6349985171
  0
LINE
  5
2D0
100
AcDbEntity
  8
0
100
AcDbLine
 62
4
  6
CONTINUOUS
 10
9.7077908336
 20
8.9181486817
 11
9.5918797302
 21
9.0255395194
  0
LINE
  5
2D1
100
AcDbEntity
  8
0
100
AcDbLine
 62
4
  6
CONTINUOUS
 10
9.6912321056
 20
9.084884321
 11
9.7077908336
 21
9.0671772343
  0
LINE
  5
2D2
100
AcDbEntity
  8
0
100
AcDbLine
 62
4
  6
CONTINUOUS
 10
11.0766457251
 20
7.8065123052
 11
11.1097631674
 21
7.7710981466
  0
LINE
  5
2D3
100
AcDbEntity
  8
0
100
AcDbLine
 62
4
  6
CONTINUOUS
 10
10.8337843435
 20
8.1015414474
 11
10.8006668736
 21
8.1369556114
  0
LINE
  5
2D4
100
AcDbEntity
  8
0
100
AcDbLine
 62
4
  6
CONTINUOUS
 10
11.2587917132
 20
7.793880438
 11
11.2919091555
 21
7.7584662794
  0
LINE
  5
2D5
100
AcDbEntity
  8
0
100
AcDbLine
 62
4
  6
CONTINUOUS
 10
10.6185208578
 20
8.3482922277
 11
10.7344319613
 21
8.1084315585
  0
LINE
  5
2D6
100
AcDbEntity
  8
0
100
AcDbLine
 62
4
  6
CONTINUOUS
 10
10.4860511153
 20
8.9635285232
 11
10.5357273341
 21
8.7944961711
  0
LINE
  5
2D7
100
AcDbEntity
  8
0
100
AcDbLine
 62
4
  6
CONTINUOUS
 10
10.7289124328
 20
9.0129209459
 11
10.7289124328
 21
8.781098739
  0
LINE
  5
2D8
100
AcDbEntity
  8
0
100
AcDbLine
 62
4
  6
CONTINUOUS
 10
10.7344319613
 20
8.1084315585
 11
10.7344319613
 21
8.3402537654
  0
LINE
  5
2D9
100
AcDbEntity
  8
0
100
AcDbLine
 62
4
  6
CONTINUOUS
 10
10.795147428
 20
8.7765053265
 11
10.795147428
 21
8.9420926211
  0
LINE
  5
2DA
100
AcDbEntity
  8
0
100
AcDbLine
 62
4
  6
CONTINUOUS
 10
10.8006668736
 20
8.1369556114
 11
10.8006668736
 21
8.3025429025
  0
LINE
  5
2DB
100
AcDbEntity
  8
0
100
AcDbLine
 62
4
  6
CONTINUOUS
 10
10.8006669653
 20
7.6269467499
 11
10.8006669653
 21
7.792534041
  0
LINE
  5
2DC
100
AcDbEntity
  8
0
100
AcDbLine
 62
4
  6
CONTINUOUS
 10
10.8724214233
 20
8.9201749163
 11
10.8724214233
 21
8.8870574602
  0
LINE
  5
2DD
100
AcDbEntity
  8
0
100
AcDbLine
 62
4
  6
CONTINUOUS
 10
10.9441759738
 20
8.7827288916
 11
10.9441759738
 21
8.832405081
  0
LINE
  5
2DE
100
AcDbEntity
  8
0
100
AcDbLine
 62
4
  6
CONTINUOUS
 10
10.993852064
 20
7.6135493178
 11
10.993852064
 21
7.7791366089
  0
LINE
  5
2DF
100
AcDbEntity
  8
0
100
AcDbLine
 62
4
  6
CONTINUOUS
 10
9.961691299
 20
7.68512991
 11
9.9285738428
 21
7.6543091538
  0
LINE
  5
2E0
100
AcDbEntity
  8
0
100
AcDbLine
 62
4
  6
CONTINUOUS
 10
10.8006668736
 20
8.3025429025
 11
10.8337843435
 21
8.3333636543
  0
LINE
  5
2E1
100
AcDbEntity
  8
0
100
AcDbLine
 62
4
  6
CONTINUOUS
 10
12.6711133871
 20
9.7417666571
 11
12.6131578354
 21
9.7071488561
  0
LINE
  5
2E2
100
AcDbEntity
  8
0
100
AcDbLine
 62
4
  6
CONTINUOUS
 10
10.4529335633
 20
8.3597757456
 11
10.5522859386
 21
8.352885635
  0
LINE
  5
2E3
100
AcDbEntity
  8
0
100
AcDbLine
 62
4
  6
CONTINUOUS
 10
10.8337843435
 20
8.3333636543
 11
10.9000192558
 21
8.3287702475
  0
LINE
  5
2E4
100
AcDbEntity
  8
0
100
AcDbLine
 62
4
  6
CONTINUOUS
 10
10.4032574542
 20
8.9692702831
 11
10.4198161754
 21
8.9515631969
  0
LINE
  5
2E5
100
AcDbEntity
  8
0
100
AcDbLine
 62
4
  6
CONTINUOUS
 10
11.7003578797
 20
6.0419777649
 11
11.7728023193
 21
5.8051315191
  0
LINE
  5
2E6
100
AcDbEntity
  8
0
100
AcDbLine
 62
4
  6
CONTINUOUS
 10
11.5264912245
 20
5.9960799067
 11
11.5409801124
 21
5.9371195472
  0
LINE
  5
2E7
100
AcDbEntity
  8
0
100
AcDbLine
 62
4
  6
CONTINUOUS
 10
11.0435283008
 20
8.7592800545
 11
11.0435283008
 21
8.8917498929
  0
LINE
  5
2E8
100
AcDbEntity
  8
0
100
AcDbLine
 62
4
  6
CONTINUOUS
 10
11.1097631674
 20
7.7710981466
 11
11.1097631674
 21
7.6055108555
  0
LINE
  5
2E9
100
AcDbEntity
  8
0
100
AcDbLine
 62
4
  6
CONTINUOUS
 10
11.1097631854
 20
8.9202739442
 11
11.1097631854
 21
8.7712453794
  0
LINE
  5
2EA
100
AcDbEntity
  8
0
100
AcDbLine
 62
4
  6
CONTINUOUS
 10
11.1759980521
 20
7.567799991
 11
11.1759980521
 21
7.7996221979
  0
LINE
  5
2EB
100
AcDbEntity
  8
0
100
AcDbLine
 62
4
  6
CONTINUOUS
 10
11.209115623
 20
8.7477965347
 11
11.209115623
 21
8.9133838293
  0
LINE
  5
2EC
100
AcDbEntity
  8
0
100
AcDbLine
 62
4
  6
CONTINUOUS
 10
11.2753505076
 20
8.7597618596
 11
11.2753505076
 21
8.9750253367
  0
LINE
  5
2ED
100
AcDbEntity
  8
0
100
AcDbLine
 62
4
  6
CONTINUOUS
 10
11.2919091555
 20
7.7584662794
 11
11.2919091555
 21
7.5928789883
  0
LINE
  5
2EE
100
AcDbEntity
  8
0
100
AcDbLine
 62
7
  6
CONTINUOUS
 10
11.2928680376
 20
5.5398967104
 11
11.2928680376
 21
4.6986982589
  0
LINE
  5
2EF
100
AcDbEntity
  8
0
100
AcDbLine
 62
4
  6
CONTINUOUS
 10
11.4298986087
 20
8.9643073895
 11
11.4243790534
 21
8.948131437
  0
LINE
  5
2F0
100
AcDbEntity
  8
0
100
AcDbLine
 62
4
  6
CONTINUOUS
 10
11.5126922698
 20
8.8757719823
 11
11.5292509357
 21
8.8911823699
  0
LINE
  5
2F1
100
AcDbEntity
  8
0
100
AcDbLine
 62
4
  6
CONTINUOUS
 10
11.6617209261
 20
8.8654368099
 11
11.678279592
 21
8.8808471975
  0
LINE
  5
2F2
100
AcDbEntity
  8
0
100
AcDbLine
 62
4
  6
CONTINUOUS
 10
11.7445144766
 20
8.7106664981
 11
11.7610731425
 21
8.7260768805
  0
LINE
  5
2F3
100
AcDbEntity
  8
0
100
AcDbLine
 62
4
  6
CONTINUOUS
 10
9.8016235942
 20
7.8066221739
 11
9.7133103709
 21
7.7685901016
  0
LINE
  5
2F4
100
AcDbEntity
  8
0
100
AcDbLine
 62
4
  6
CONTINUOUS
 10
10.4860511153
 20
8.7427454649
 11
10.5191685577
 21
8.7404487625
  0
LINE
  5
2F5
100
AcDbEntity
  8
0
100
AcDbLine
 62
4
  6
CONTINUOUS
 10
11.5954860414
 20
8.7210016552
 11
11.5292509357
 21
8.7255950754
  0
LINE
  5
2F6
100
AcDbEntity
  8
0
100
AcDbLine
 62
4
  6
CONTINUOUS
 10
11.3250267264
 20
8.7397580724
 11
11.2919092841
 21
8.7420547748
  0
LINE
  5
2F7
100
AcDbEntity
  8
0
100
AcDbLine
 62
4
  6
CONTINUOUS
 10
11.0435283008
 20
8.7592800545
 11
10.9772934161
 21
8.7638734593
  0
LINE
  5
2F8
100
AcDbEntity
  8
0
100
AcDbLine
 62
4
  6
CONTINUOUS
 10
10.7289124328
 20
8.781098739
 11
10.6626775481
 21
8.7856921439
  0
LINE
  5
2F9
100
AcDbEntity
  8
0
100
AcDbLine
 62
4
  6
CONTINUOUS
 10
9.60843846
 20
8.858803873
 11
9.6746733775
 21
8.8542104658
  0
LINE
  5
2FA
100
AcDbEntity
  8
0
100
AcDbLine
 62
4
  6
CONTINUOUS
 10
9.8071432021
 20
8.8450236523
 11
9.856819407
 21
8.8415785958
  0
LINE
  5
2FB
100
AcDbEntity
  8
0
100
AcDbLine
 62
4
  6
CONTINUOUS
 10
11.1263219619
 20
8.7535382946
 11
11.209115623
 21
8.7477965347
  0
LINE
  5
2FC
100
AcDbEntity
  8
0
100
AcDbLine
 62
4
  6
CONTINUOUS
 10
11.678279592
 20
8.7152599029
 11
11.7445144766
 21
8.7106664981
  0
LINE
  5
2FD
100
AcDbEntity
  8
0
100
AcDbLine
 62
4
  6
CONTINUOUS
 10
10.9772934161
 20
8.8466671066
 11
11.0435283008
 21
8.8420737018
  0
LINE
  5
2FE
100
AcDbEntity
  8
0
100
AcDbLine
 62
4
  6
CONTINUOUS
 10
10.6626775481
 20
8.7856921439
 11
10.6295601058
 21
8.8045475761
  0
LINE
  5
2FF
100
AcDbEntity
  8
0
100
AcDbLine
 62
4
  6
CONTINUOUS
 10
10.9772934161
 20
8.7638734593
 11
10.9441759738
 21
8.7827288916
  0
LINE
  5
300
100
AcDbEntity
  8
0
100
AcDbLine
 62
4
  6
CONTINUOUS
 10
11.1097631854
 20
8.7712453794
 11
11.1263219619
 21
8.7535382946
  0
LINE
  5
301
100
AcDbEntity
  8
0
100
AcDbLine
 62
4
  6
CONTINUOUS
 10
10.8613823127
 20
8.9374992162
 11
10.8724214233
 21
8.9201749163
  0
LINE
  5
302
100
AcDbEntity
  8
0
100
AcDbLine
 62
4
  6
CONTINUOUS
 10
11.0435283008
 20
8.8917498929
 11
11.0269696349
 21
8.9260156964
  0
LINE
  5
303
100
AcDbEntity
  8
0
100
AcDbLine
 62
4
  6
CONTINUOUS
 10
11.3857420377
 20
7.5532541962
 11
11.3857420377
 21
7.7850764031
  0
LINE
  5
304
100
AcDbEntity
  8
0
100
AcDbLine
 62
7
  6
CONTINUOUS
 10
11.4072869284
 20
5.5319617334
 11
11.4072869284
 21
4.6907632819
  0
LINE
  5
305
100
AcDbEntity
  8
0
100
AcDbLine
 62
4
  6
CONTINUOUS
 10
11.4105801211
 20
5.8302517139
 11
11.4105801211
 21
6.0620739207
  0
LINE
  5
306
100
AcDbEntity
  8
0
100
AcDbLine
 62
4
  6
CONTINUOUS
 10
11.4243790534
 20
8.7328679651
 11
11.4243790534
 21
8.8984552597
  0
LINE
  5
307
100
AcDbEntity
  8
0
100
AcDbLine
 62
4
  6
CONTINUOUS
 10
11.4243790534
 20
8.948131437
 11
11.4243790534
 21
8.964690172
  0
LINE
  5
308
100
AcDbEntity
  8
0
100
AcDbLine
 62
4
  6
CONTINUOUS
 10
11.5126922698
 20
8.7433021525
 11
11.5126922698
 21
8.8757719823
  0
LINE
  5
309
100
AcDbEntity
  8
0
100
AcDbLine
 62
4
  6
CONTINUOUS
 10
11.6617209261
 20
8.8157606257
 11
11.6617209261
 21
8.8654368099
  0
LINE
  5
30A
100
AcDbEntity
  8
0
100
AcDbLine
 62
4
  6
CONTINUOUS
 10
10.9179579315
 20
5.9803262822
 11
10.9324468194
 21
6.0372770261
  0
LINE
  5
30B
100
AcDbEntity
  8
0
100
AcDbLine
 62
4
  6
CONTINUOUS
 10
12.5696911716
 20
9.8067558633
 11
12.5841800595
 21
9.825069582
  0
LINE
  5
30C
100
AcDbEntity
  8
0
100
AcDbLine
 62
4
  6
CONTINUOUS
 10
12.6131578354
 20
9.7071488561
 11
12.5841800595
 21
9.6705214395
  0
LINE
  5
30D
100
AcDbEntity
  8
0
100
AcDbLine
 62
4
  6
CONTINUOUS
 10
12.685602275
 20
9.7600803757
 11
12.6711133871
 21
9.7417666571
  0
LINE
  5
30E
100
AcDbEntity
  8
0
100
AcDbLine
 62
4
  6
CONTINUOUS
 10
10.8006669653
 20
7.792534041
 11
10.8337844076
 21
7.8233547947
  0
LINE
  5
30F
100
AcDbEntity
  8
0
100
AcDbLine
 62
4
  6
CONTINUOUS
 10
10.993852064
 20
7.7791366089
 11
11.0269695063
 21
7.8099573626
  0
LINE
  5
310
100
AcDbEntity
  8
0
100
AcDbLine
 62
4
  6
CONTINUOUS
 10
11.0269696349
 20
8.9260156964
 11
10.9441759738
 21
8.9317574563
  0
LINE
  5
311
100
AcDbEntity
  8
0
100
AcDbLine
 62
4
  6
CONTINUOUS
 10
10.3204637931
 20
8.975012043
 11
10.4032574542
 21
8.9692702831
  0
LINE
  5
312
100
AcDbEntity
  8
0
100
AcDbLine
 62
4
  6
CONTINUOUS
 10
10.6626775481
 20
8.9512794385
 11
10.7289124328
 21
8.9466860336
  0
LINE
  5
313
100
AcDbEntity
  8
0
100
AcDbLine
 62
4
  6
CONTINUOUS
 10
10.795147428
 20
8.9420926211
 11
10.8613823127
 21
8.9374992162
  0
LINE
  5
314
100
AcDbEntity
  8
0
100
AcDbLine
 62
4
  6
CONTINUOUS
 10
11.5292509357
 20
8.8911823699
 11
11.5954860414
 21
8.8865889497
  0
LINE
  5
315
100
AcDbEntity
  8
0
100
AcDbLine
 62
4
  6
CONTINUOUS
 10
11.678279592
 20
8.8808471975
 11
11.7445144766
 21
8.8762537926
  0
LINE
  5
316
100
AcDbEntity
  8
0
100
AcDbLine
 62
4
  6
CONTINUOUS
 10
9.6249971898
 20
9.089477728
 11
9.6912321056
 21
9.084884321
  0
LINE
  5
317
100
AcDbEntity
  8
0
100
AcDbLine
 62
4
  6
CONTINUOUS
 10
11.4243790534
 20
8.964690172
 11
11.4298986087
 21
8.9643073895
  0
LINE
  5
318
100
AcDbEntity
  8
0
100
AcDbLine
 62
4
  6
CONTINUOUS
 10
11.7445144766
 20
8.7879405693
 11
11.678279592
 21
8.8035731262
  0
LINE
  5
319
100
AcDbEntity
  8
0
100
AcDbLine
 62
4
  6
CONTINUOUS
 10
11.678279592
 20
8.8035731262
 11
11.6617209261
 21
8.8157606257
  0
LINE
  5
31A
100
AcDbEntity
  8
0
100
AcDbLine
 62
4
  6
CONTINUOUS
 10
11.2919092841
 20
8.7420547748
 11
11.2753505076
 21
8.7597618596
  0
LINE
  5
31B
100
AcDbEntity
  8
0
100
AcDbLine
 62
4
  6
CONTINUOUS
 10
11.5292509357
 20
8.7255950754
 11
11.5126922698
 21
8.7433021525
  0
LINE
  5
31C
100
AcDbEntity
  8
0
100
AcDbLine
 62
4
  6
CONTINUOUS
 10
11.6617209261
 20
8.7329669801
 11
11.678279592
 21
8.7152599029
  0
LINE
  5
31D
100
AcDbEntity
  8
0
100
AcDbLine
 62
4
  6
CONTINUOUS
 10
11.7610731425
 20
8.7260768805
 11
11.7610731425
 21
8.7757530699
  0
LINE
  5
31E
100
AcDbEntity
  8
0
100
AcDbLine
 62
4
  6
CONTINUOUS
 10
11.1097631674
 20
7.6055108555
 11
11.0766457251
 21
7.5746900983
  0
LINE
  5
31F
100
AcDbEntity
  8
0
100
AcDbLine
 62
4
  6
CONTINUOUS
 10
11.2919091555
 20
7.5928789883
 11
11.2587917132
 21
7.5620582311
  0
LINE
  5
320
100
AcDbEntity
  8
0
100
AcDbLine
 62
4
  6
CONTINUOUS
 10
11.7610731425
 20
8.7757530699
 11
11.7445144766
 21
8.7879405693
  0
LINE
  5
321
100
AcDbEntity
  8
0
100
AcDbLine
 62
4
  6
CONTINUOUS
 10
11.7445144766
 20
8.8762537926
 11
11.7610731425
 21
8.8585467103
  0
LINE
  5
322
100
AcDbEntity
  8
0
100
AcDbLine
 62
7
  6
CONTINUOUS
 10
12.2511387863
 20
5.590483162
 11
12.2511387863
 21
4.7492847105
  0
LINE
  5
323
100
AcDbEntity
  8
0
100
AcDbLine
 62
4
  6
CONTINUOUS
 10
11.5409801124
 20
5.9371195472
 11
11.5264912245
 21
5.8801688033
  0
LINE
  5
324
100
AcDbEntity
  8
0
100
AcDbLine
 62
4
  6
CONTINUOUS
 10
12.5841800595
 20
9.6705214395
 11
12.5696911716
 21
9.6135706956
  0
LINE
  5
325
100
AcDbEntity
  8
0
100
AcDbLine
 62
4
  6
CONTINUOUS
 10
11.6396424658
 20
7.6349985171
 11
11.5513292494
 21
7.5969664478
  0
LINE
  5
326
100
AcDbEntity
  8
0
100
AcDbLine
 62
4
  6
CONTINUOUS
 10
12.5696911716
 20
9.6135706956
 11
12.685602275
 21
9.6055322332
  0
LINE
  5
327
100
AcDbEntity
  8
0
100
AcDbLine
 62
7
  6
CONTINUOUS
 10
12.3348992042
 20
5.6121619451
 11
12.3348992042
 21
4.7709634936
  0
LINE
  5
328
100
AcDbEntity
  8
0
100
AcDbLine
 62
7
  6
CONTINUOUS
 10
12.5610084549
 20
5.6306944304
 11
12.5610084549
 21
4.9893682713
  0
LINE
  5
329
100
AcDbEntity
  8
0
100
AcDbLine
 62
4
  6
CONTINUOUS
 10
11.62791344
 20
5.815179597
 11
11.7003578797
 21
6.0419777649
  0
LINE
  5
32A
100
AcDbEntity
  8
0
100
AcDbLine
 62
4
  6
CONTINUOUS
 10
11.1787579142
 20
5.8463286385
 11
11.2946690177
 21
6.0701123831
  0
LINE
  5
32B
100
AcDbEntity
  8
0
100
AcDbLine
 62
4
  6
CONTINUOUS
 10
10.9324468194
 20
6.0372770261
 11
10.9614245953
 21
6.0739044496
  0
LINE
  5
32C
100
AcDbEntity
  8
0
100
AcDbLine
 62
4
  6
CONTINUOUS
 10
12.6131578354
 20
9.8423784791
 11
12.6421356112
 21
9.8403688635
  0
LINE
  5
32D
100
AcDbEntity
  8
0
100
AcDbLine
 62
4
  6
CONTINUOUS
 10
12.685602275
 20
9.798717401
 11
12.685602275
 21
9.7600803757
  0
LINE
  5
32E
100
AcDbEntity
  8
0
100
AcDbLine
 62
4
  6
CONTINUOUS
 10
11.0628468108
 20
5.8930041365
 11
11.0483579229
 21
5.8746904265
  0
LINE
  5
32F
100
AcDbEntity
  8
0
100
AcDbLine
 62
7
  6
CONTINUOUS
 10
13.0912911694
 20
5.5939191992
 11
13.0912911694
 21
11.3894745003
  0
LINE
  5
330
100
AcDbEntity
  8
0
100
AcDbLine
 62
4
  6
CONTINUOUS
 10
11.5264912245
 20
5.8801688033
 11
11.4975134487
 21
5.8435413849
  0
LINE
  5
331
100
AcDbEntity
  8
0
100
AcDbLine
 62
4
  6
CONTINUOUS
 10
10.9614245953
 20
6.0739044496
 11
10.9904023711
 21
6.0912133467
  0
LINE
  5
332
100
AcDbEntity
  8
0
100
AcDbLine
 62
4
  6
CONTINUOUS
 10
12.6421356112
 20
9.8403688635
 11
12.6711133871
 21
9.8190407353
  0
LINE
  5
333
100
AcDbEntity
  8
0
100
AcDbLine
 62
4
  6
CONTINUOUS
 10
12.6711133871
 20
9.8190407353
 11
12.685602275
 21
9.798717401
  0
LINE
  5
334
100
AcDbEntity
  8
0
100
AcDbLine
 62
4
  6
CONTINUOUS
 10
11.0483579229
 20
5.8746904265
 11
11.019380147
 21
5.8573815242
  0
LINE
  5
335
100
AcDbEntity
  8
0
100
AcDbLine
 62
4
  6
CONTINUOUS
 10
11.4975134487
 20
5.8435413849
 11
11.4685356728
 21
5.8262324827
  0
LINE
  5
336
100
AcDbEntity
  8
0
100
AcDbLine
 62
7
  6
CONTINUOUS
 10
13.7383382482
 20
6.2189187204
 11
13.7383382482
 21
12.0144740216
  0
LINE
  5
337
100
AcDbEntity
  8
0
100
AcDbLine
 62
7
  6
CONTINUOUS
 10
13.0912911694
 20
11.3894745003
 11
8.2616617518
 21
11.724410438
  0
LINE
  5
338
100
AcDbEntity
  8
0
100
AcDbLine
 62
7
  6
CONTINUOUS
 10
13.7383382482
 20
6.2189187204
 11
13.0912911694
 21
5.5939191992
  0
LINE
  5
339
100
AcDbEntity
  8
0
100
AcDbLine
 62
7
  6
CONTINUOUS
 10
13.7383382482
 20
12.0144740216
 11
8.9087088306
 21
12.3494099593
  0
LINE
  5
33A
100
AcDbEntity
  8
0
100
AcDbLine
 62
7
  6
CONTINUOUS
 10
12.3971161258
 20
4.7857808867
 11
12.3645103817
 21
4.7696742735
  0
ARC
  5
33B
100
AcDbEntity
  8
0
100
AcDbCircle
 62
7
  6
CONTINUOUS
 10
11.5924626739
 20
8.2003217149
 40
3.5144402757
100
AcDbArc
 50
266.0376720962
 51
266.9796885983
  0
ARC
  5
33C
100
AcDbEntity
  8
0
100
AcDbCircle
 62
7
  6
CONTINUOUS
 10
11.5924626739
 20
9.0415201663
 40
3.5144402757
100
AcDbArc
 50
266.0376720962
 51
266.9796885983
  0
ARC
  5
33D
100
AcDbEntity
  8
0
100
AcDbCircle
 62
7
  6
CONTINUOUS
 10
11.5820950746
 20
8.0482364586
 40
3.3620021461
100
AcDbArc
 50
265.0648462661
 51
266.0348369886
  0
ARC
  5
33E
100
AcDbEntity
  8
0
100
AcDbCircle
 62
7
  6
CONTINUOUS
 10
11.5798997236
 20
8.8612266305
 40
3.3337095895
100
AcDbArc
 50
265.0607301035
 51
266.0389531511
  0
ARC
  5
33F
100
AcDbEntity
  8
0
100
AcDbCircle
 62
7
  6
CONTINUOUS
 10
12.2529528745
 20
5.1188171811
 40
1.7204739976
100
AcDbArc
 50
158.0101016106
 51
159.2133818387
  0
ARC
  5
340
100
AcDbEntity
  8
0
100
AcDbCircle
 62
7
  6
CONTINUOUS
 10
13.8824321932
 20
5.0254580894
 40
1.6550165456
100
AcDbArc
 50
157.9863052277
 51
159.2371781952
  0
ARC
  5
341
100
AcDbEntity
  8
0
100
AcDbCircle
 62
7
  6
CONTINUOUS
 10
11.3049344781
 20
5.8334766947
 40
1.159267388
100
AcDbArc
 50
243.6664579456
 51
246.4394383889
  0
SPLINE
  5
342
100
AcDbEntity
  8
0
100
AcDbSpline
 62
7
  6
CONTINUOUS
 70
0
 71
3
 72
23
 73
19
 74
0
 42
0.0000001
 43
0.0000001
 44
0.0000000001
 40
0.0
 40
0.0
 40
0.0
 40
0.0
 40
0.0771591088
 40
0.153151303
 40
0.2277613898
 40
0.3008118635
 40
0.3721337705
 40
0.4415569994
 40
0.508915912
 40
0.5740562277
 40
0.6368307546
 40
0.6971028067
 40
0.7547446115
 40
0.8096420695
 40
0.8616928899
 40
0.9108117328
 40
0.9569295723
 40
1.0
 40
1.0
 40
1.0
 40
1.0
 10
11.3801535111
 20
4.6579760312
 30
0.0
 10
11.3659521248
 20
4.6589609007
 30
0.0
 10
11.3377775273
 20
4.6611154455
 30
0.0
 10
11.2959288279
 20
4.6649322709
 30
0.0
 10
11.2548963945
 20
4.6693028988
 30
0.0
 10
11.2147930613
 20
4.6742145034
 30
0.0
 10
11.1757238148
 20
4.6796545505
 30
0.0
 10
11.1377918812
 20
4.6856077891
 30
0.0
 10
11.1010987174
 20
4.6920590951
 30
0.0
 10
11.0657421361
 20
4.6989902477
 30
0.0
 10
11.0318160044
 20
4.7063834082
 30
0.0
 10
10.9994103416
 20
4.7142179026
 30
0.0
 10
10.9686111789
 20
4.7224734913
 30
0.0
 10
10.9394999598
 20
4.7311271685
 30
0.0
 10
10.9121536863
 20
4.7401564945
 30
0.0
 10
10.8866438756
 20
4.749536583
 30
0.0
 10
10.8630382397
 20
4.7592429503
 30
0.0
 10
10.8480962359
 20
4.7661517065
 30
0.0
 10
10.8409717548
 20
4.769670988
 30
0.0
  0
SPLINE
  5
343
100
AcDbEntity
  8
0
100
AcDbSpline
 62
7
  6
CONTINUOUS
 70
0
 71
3
 72
11
 73
7
 74
0
 42
0.0000001
 43
0.0000001
 44
0.0000000001
 40
0.0
 40
0.0
 40
0.0
 40
0.0
 40
0.2706838103
 40
0.527147417
 40
0.7699959294
 40
1.0
 40
1.0
 40
1.0
 40
1.0
 10
10.6751254304
 20
4.8585816079
 30
0.0
 10
10.6720781823
 20
4.8609425782
 30
0.0
 10
10.6662513898
 20
4.8656821754
 30
0.0
 10
10.6581273886
 20
4.87305613
 30
0.0
 10
10.6508675235
 20
4.880492983
 30
0.0
 10
10.6464943634
 20
4.885622684
 30
0.0
 10
10.6444669575
 20
4.8881953681
 30
0.0
  0
SPLINE
  5
344
100
AcDbEntity
  8
0
100
AcDbSpline
 62
7
  6
CONTINUOUS
 70
0
 71
3
 72
23
 73
19
 74
0
 42
0.0000001
 43
0.0000001
 44
0.0000000001
 40
0.0
 40
0.0
 40
0.0
 40
0.0
 40
0.080971538
 40
0.1598879644
 40
0.2366109899
 40
0.3110079654
 40
0.3829545068
 40
0.4523386671
 40
0.5190634269
 40
0.5830595163
 40
0.6442826854
 40
0.70272999
 40
0.758431804
 40
0.811469128
 40
0.8619597678
 40
0.9100718893
 40
0.9560057306
 40
1.0
 40
1.0
 40
1.0
 40
1.0
 10
12.5610084549
 20
4.9893682713
 30
0.0
 10
12.5577123273
 20
4.9830123706
 30
0.0
 10
12.5511141969
 20
4.9705080018
 30
0.0
 10
12.5410521516
 20
4.952163519
 30
0.0
 10
12.5309476572
 20
4.9345088766
 30
0.0
 10
12.5208025944
 20
4.9175919513
 30
0.0
 10
12.5106184703
 20
4.9014605741
 30
0.0
 10
12.5003990211
 20
4.8861604976
 30
0.0
 10
12.4901467026
 20
4.8717361608
 30
0.0
 10
12.479867366
 20
4.8582266404
 30
0.0
 10
12.4695642472
 20
4.845667764
 30
0.0
 10
12.4592449208
 20
4.8340864874
 30
0.0
 10
12.4489131496
 20
4.8235052676
 30
0.0
 10
12.4385774798
 20
4.8139347951
 30
0.0
 10
12.4282420516
 20
4.805381064
 30
0.0
 10
12.417915276
 20
4.7978368719
 30
0.0
 10
12.4076023419
 20
4.7912915262
 30
0.0
 10
12.4006020876
 20
4.787502916
 30
0.0
 10
12.3971143283
 20
4.7857799987
 30
0.0
  0
SPLINE
  5
345
100
AcDbEntity
  8
0
100
AcDbSpline
 62
7
  6
CONTINUOUS
 70
0
 71
3
 72
9
 73
5
 74
0
 42
0.0000001
 43
0.0000001
 44
0.0000000001
 40
0.0
 40
0.0
 40
0.0
 40
0.0
 40
0.4960083102
 40
1.0
 40
1.0
 40
1.0
 40
1.0
 10
10.7906881768
 20
4.7945100839
 30
0.0
 10
10.7710960855
 20
4.804188609
 30
0.0
 10
10.7321028406
 20
4.8247375867
 30
0.0
 10
10.6940720859
 20
4.8470038889
 30
0.0
 10
10.6751254304
 20
4.8585816079
 30
0.0
  0
SPLINE
  5
346
100
AcDbEntity
  8
0
100
AcDbSpline
 62
7
  6
CONTINUOUS
 70
0
 71
3
 72
30
 73
26
 74
0
 42
0.0000001
 43
0.0000001
 44
0.0000000001
 40
0.0
 40
0.0
 40
0.0
 40
0.0
 40
0.0193648516
 40
0.0398589858
 40
0.061469503
 40
0.0841791322
 40
0.1079647721
 40
0.1327996946
 40
0.1586534104
 40
0.1854915569
 40
0.2132776379
 40
0.2419713852
 40
0.2715308561
 40
0.3019113755
 40
0.333066161
 40
0.3649469428
 40
0.4306813696
 40
0.4986954582
 40
0.5685475621
 40
0.6397796875
 40
0.7119215783
 40
0.784496127
 40
0.8570190166
 40
0.9290157221
 40
1.0
 40
1.0
 40
1.0
 40
1.0
 10
12.3645059342
 20
4.7696721766
 30
0.0
 10
12.3587243879
 20
4.766816231
 30
0.0
 10
12.3467003639
 20
4.761186075
 30
0.0
 10
12.3278579914
 20
4.753179484
 30
0.0
 10
12.3077281717
 20
4.7453840795
 30
0.0
 10
12.2863463992
 20
4.7378148141
 30
0.0
 10
12.263750308
 20
4.7304843834
 30
0.0
 10
12.2399797077
 20
4.7234062132
 30
0.0
 10
12.2150766018
 20
4.7165930683
 30
0.0
 10
12.1890851022
 20
4.7100566296
 30
0.0
 10
12.1620512068
 20
4.7038093295
 30
0.0
 10
12.1340229241
 20
4.6978615911
 30
0.0
 10
12.1050499645
 20
4.6922246211
 30
0.0
 10
12.0751838128
 20
4.6869082717
 30
0.0
 10
12.0444774627
 20
4.681921879
 30
0.0
 10
12.0020553667
 20
4.6756621444
 30
0.0
 10
11.9473281224
 20
4.6687540753
 30
0.0
 10
11.8798612995
 20
4.6619867561
 30
0.0
 10
11.8104257013
 20
4.6567088189
 30
0.0
 10
11.7395148114
 20
4.6529583979
 30
0.0
 10
11.6676319649
 20
4.6507624588
 30
0.0
 10
11.5952886062
 20
4.6501370852
 30
0.0
 10
11.5229969954
 20
4.6510862698
 30
0.0
 10
11.451273171
 20
4.6536039246
 30
0.0
 10
11.4037345261
 20
4.6563406823
 30
0.0
 10
11.3801535111
 20
4.6579760312
 30
0.0
  0
SPLINE
  5
347
100
AcDbEntity
  8
0
100
AcDbSpline
 62
7
  6
CONTINUOUS
 70
0
 71
3
 72
28
 73
24
 74
0
 42
0.0000001
 43
0.0000001
 44
0.0000000001
 40
0.0
 40
0.0
 40
0.0
 40
0.0
 40
0.1268659191
 40
0.1901463679
 40
0.25330733
 40
0.2848402857
 40
0.3163394042
 40
0.3792283979
 40
0.4106187434
 40
0.4419710208
 40
0.4732845857
 40
0.5045591139
 40
0.5357943787
 40
0.5669902228
 40
0.5981469641
 40
0.629265076
 40
0.6913849328
 40
0.7223910769
 40
0.7533616145
 40
0.8151995131
 40
0.8769107384
 40
0.9385080012
 40
1.0
 40
1.0
 40
1.0
 40
1.0
 10
12.2511387863
 20
4.7492847105
 30
0.0
 10
12.2167399162
 20
4.738028859
 30
0.0
 10
12.1647828929
 20
4.7223288343
 30
0.0
 10
12.0948018514
 20
4.7042705237
 30
0.0
 10
12.0508419618
 20
4.6942992836
 30
0.0
 10
12.0155523384
 20
4.6871677345
 30
0.0
 10
11.9802278523
 20
4.6806251816
 30
0.0
 10
11.9447841323
 20
4.6749722103
 30
0.0
 10
11.909252893
 20
4.670255794
 30
0.0
 10
11.8825932418
 20
4.6671948404
 30
0.0
 10
11.855915954
 20
4.6646154656
 30
0.0
 10
11.8292296184
 20
4.6625217123
 30
0.0
 10
11.8025432695
 20
4.6609134403
 30
0.0
 10
11.7758656891
 20
4.659792034
 30
0.0
 10
11.7492055096
 20
4.6591546716
 30
0.0
 10
11.7137161013
 20
4.6589423404
 30
0.0
 10
11.6782694284
 20
4.6596763788
 30
0.0
 10
11.6429028246
 20
4.6613206954
 30
0.0
 10
11.6076489614
 20
4.6635546259
 30
0.0
 10
11.5637278411
 20
4.6674222355
 30
0.0
 10
11.5112716182
 20
4.6736797116
 30
0.0
 10
11.4591159061
 20
4.6814292142
 30
0.0
 10
11.4245263378
 20
4.6875133943
 30
0.0
 10
11.4072869284
 20
4.6907632819
 30
0.0
  0
SPLINE
  5
348
100
AcDbEntity
  8
0
100
AcDbSpline
 62
7
  6
CONTINUOUS
 70
0
 71
3
 72
27
 73
23
 74
0
 42
0.0000001
 43
0.0000001
 44
0.0000000001
 40
0.0
 40
0.0
 40
0.0
 40
0.0
 40
0.060919931
 40
0.1219725003
 40
0.1831790974
 40
0.2445697664
 40
0.306172584
 40
0.368014351
 40
0.3990356526
 40
0.4301246832
 40
0.4612823654
 40
0.4925098844
 40
0.5238069761
 40
0.5551729231
 40
0.5866065737
 40
0.6181055251
 40
0.681282706
 40
0.744686725
 40
0.8082887534
 40
0.8720589913
 40
0.9359723153
 40
1.0
 40
1.0
 40
1.0
 40
1.0
 10
12.2511387863
 20
5.590483162
 30
0.0
 10
12.2345083381
 20
5.5967575902
 30
0.0
 10
12.2009747633
 20
5.6087059733
 30
0.0
 10
12.1499143782
 20
5.6245524635
 30
0.0
 10
12.0980417596
 20
5.6380693136
 30
0.0
 10
12.0453886972
 20
5.6489707772
 30
0.0
 10
11.9920268835
 20
5.6569729731
 30
0.0
 10
11.9471078871
 20
5.6610037781
 30
0.0
 10
11.9109702455
 20
5.6625503249
 30
0.0
 10
11.8837541493
 20
5.6628512688
 30
0.0
 10
11.856482338
 20
5.662280201
 30
0.0
 10
11.8291824744
 20
5.6608258981
 30
0.0
 10
11.8018827754
 20
5.6584917411
 30
0.0
 10
11.7746121233
 20
5.6552783836
 30
0.0
 10
11.7473976159
 20
5.6512009272
 30
0.0
 10
11.7111894759
 20
5.6446268122
 30
0.0
 10
11.6661986169
 20
5.6343383432
 30
0.0
 10
11.6128629639
 20
5.6189313883
 30
0.0
 10
11.56023662
 20
5.6007272703
 30
0.0
 10
11.5083890696
 20
5.5800187395
 30
0.0
 10
11.4573507431
 20
5.557094761
 30
0.0
 10
11.4238886278
 20
5.5405279826
 30
0.0
 10
11.4072869284
 20
5.5319617334
 30
0.0
  0
SPLINE
  5
349
100
AcDbEntity
  8
0
100
AcDbSpline
 62
7
  6
CONTINUOUS
 70
0
 71
3
 72
15
 73
11
 74
0
 42
0.0000001
 43
0.0000001
 44
0.0000000001
 40
0.0
 40
0.0
 40
0.0
 40
0.0
 40
0.1200543119
 40
0.2408745055
 40
0.3627723785
 40
0.4861015007
 40
0.611221097
 40
0.7384475142
 40
0.8680059215
 40
1.0
 40
1.0
 40
1.0
 40
1.0
 10
11.2928680376
 20
4.6986982589
 30
0.0
 10
11.2744511817
 20
4.6969775382
 30
0.0
 10
11.2374050446
 20
4.6944489249
 30
0.0
 10
11.1814844165
 20
4.6937781187
 30
0.0
 10
11.1251176022
 20
4.6965936069
 30
0.0
 10
11.0683994325
 20
4.7032227255
 30
0.0
 10
11.0114641575
 20
4.71389958
 30
0.0
 10
10.954473882
 20
4.7287251812
 30
0.0
 10
10.8975984242
 20
4.7476466868
 30
0.0
 10
10.86019772
 20
4.7627240278
 30
0.0
 10
10.8415542299
 20
4.7708480567
 30
0.0
  0
SPLINE
  5
34A
100
AcDbEntity
  8
0
100
AcDbSpline
 62
7
  6
CONTINUOUS
 70
0
 71
3
 72
30
 73
26
 74
0
 42
0.0000001
 43
0.0000001
 44
0.0000000001
 40
0.0
 40
0.0
 40
0.0
 40
0.0
 40
0.071178206
 40
0.1063864824
 40
0.1413173684
 40
0.2102772599
 40
0.2779404401
 40
0.3112551436
 40
0.3442083408
 40
0.4089957047
 40
0.4408350868
 40
0.4723063752
 40
0.5034184842
 40
0.534184955
 40
0.5646245079
 40
0.5947586506
 40
0.6246138194
 40
0.6542175698
 40
0.6836000373
 40
0.7127918723
 40
0.7707116392
 40
0.8282172138
 40
0.8855033008
 40
0.9427270794
 40
1.0
 40
1.0
 40
1.0
 40
1.0
 10
11.2928680376
 20
5.5398967104
 30
0.0
 10
11.2807866107
 20
5.5503946799
 30
0.0
 10
11.2624711276
 20
5.5657938067
 30
0.0
 10
11.2375737029
 20
5.5855421518
 30
0.0
 10
11.2126760983
 20
5.6044774111
 30
0.0
 10
11.1812135634
 20
5.6268228392
 30
0.0
 10
11.1489714353
 20
5.6473698562
 30
0.0
 10
11.1228942843
 20
5.6624435609
 30
0.0
 10
11.0969401442
 20
5.6764083045
 30
0.0
 10
11.0706193725
 20
5.6889703026
 30
0.0
 10
11.0439848601
 20
5.6999522191
 30
0.0
 10
11.0240602686
 20
5.7073035195
 30
0.0
 10
11.0040935347
 20
5.7137976692
 30
0.0
 10
10.9841035407
 20
5.7194163404
 30
0.0
 10
10.9641125838
 20
5.7241549004
 30
0.0
 10
10.9441405078
 20
5.7280065839
 30
0.0
 10
10.9242087544
 20
5.7309789401
 30
0.0
 10
10.9043365301
 20
5.7330803471
 30
0.0
 10
10.8845417605
 20
5.7343270794
 30
0.0
 10
10.8583461816
 20
5.7348789064
 30
0.0
 10
10.8258157158
 20
5.7335603362
 30
0.0
 10
10.7872154496
 20
5.7289795874
 30
0.0
 10
10.7491989365
 20
5.7216846983
 30
0.0
 10
10.7117914575
 20
5.7119610579
 30
0.0
 10
10.687275978
 20
5.7040485121
 30
0.0
 10
10.6751254304
 20
5.6997800594
 30
0.0
  0
SPLINE
  5
34B
100
AcDbEntity
  8
0
100
AcDbSpline
 62
7
  6
CONTINUOUS
 70
0
 71
3
 72
15
 73
11
 74
0
 42
0.0000001
 43
0.0000001
 44
0.0000000001
 40
0.0
 40
0.0
 40
0.0
 40
0.0
 40
0.1340175358
 40
0.2644724274
 40
0.3918735456
 40
0.5167249534
 40
0.6395193915
 40
0.760718379
 40
0.8807495477
 40
1.0
 40
1.0
 40
1.0
 40
1.0
 10
12.3971143283
 20
4.7857799987
 30
0.0
 10
12.3945302679
 20
4.7845034994
 30
0.0
 10
12.3893599904
 20
4.7821246301
 30
0.0
 10
12.3815103321
 20
4.7790452736
 30
0.0
 10
12.3736815944
 20
4.7764899917
 30
0.0
 10
12.3658758036
 20
4.7744407333
 30
0.0
 10
12.3580945794
 20
4.7728771717
 30
0.0
 10
12.350338981
 20
4.7717791767
 30
0.0
 10
12.3426103058
 20
4.7711259607
 30
0.0
 10
12.3374637652
 20
4.7709726195
 30
0.0
 10
12.3348992042
 20
4.7709634936
 30
0.0
  0
SPLINE
  5
34C
100
AcDbEntity
  8
0
100
AcDbSpline
 62
7
  6
CONTINUOUS
 70
0
 71
3
 72
15
 73
11
 74
0
 42
0.0000001
 43
0.0000001
 44
0.0000000001
 40
0.0
 40
0.0
 40
0.0
 40
0.0
 40
0.1097867181
 40
0.2247132299
 40
0.3444131583
 40
0.4684947016
 40
0.5965354434
 40
0.7281039141
 40
0.8627644476
 40
1.0
 40
1.0
 40
1.0
 40
1.0
 10
11.0165999325
 20
5.7376825042
 30
0.0
 10
11.029721223
 20
5.7344847292
 30
0.0
 10
11.0566741959
 20
5.7283290867
 30
0.0
 10
11.0982111801
 20
5.7199600593
 30
0.0
 10
11.1416654521
 20
5.7122666201
 30
0.0
 10
11.1868714247
 20
5.7052791116
 30
0.0
 10
11.2336576029
 20
5.6990235198
 30
0.0
 10
11.2818485374
 20
5.6935242382
 30
0.0
 10
11.3312579355
 20
5.6888030503
 30
0.0
 10
11.3646061241
 20
5.6862072793
 30
0.0
 10
11.3814476052
 20
5.6850393186
 30
0.0
  0
SPLINE
  5
34D
100
AcDbEntity
  8
0
100
AcDbSpline
 62
7
  6
CONTINUOUS
 70
0
 71
3
 72
15
 73
11
 74
0
 42
0.0000001
 43
0.0000001
 44
0.0000000001
 40
0.0
 40
0.0
 40
0.0
 40
0.0
 40
0.1238190299
 40
0.2488653922
 40
0.3746972357
 40
0.5008688785
 40
0.6269279472
 40
0.7524308765
 40
0.8769490408
 40
1.0
 40
1.0
 40
1.0
 40
1.0
 10
11.7991138702
 20
5.6834149783
 30
0.0
 10
11.7818957596
 20
5.6823633614
 30
0.0
 10
11.7472703847
 20
5.6805416568
 30
0.0
 10
11.6951003857
 20
5.6786532043
 30
0.0
 10
11.6425789213
 20
5.6775991381
 30
0.0
 10
11.5899062893
 20
5.677384026
 30
0.0
 10
11.5372827369
 20
5.6780079494
 30
0.0
 10
11.4849061464
 20
5.6794690688
 30
0.0
 10
11.4329789707
 20
5.6817620267
 30
0.0
 10
11.3985497178
 20
5.683853283
 30
0.0
 10
11.3814476052
 20
5.6850393186
 30
0.0
  0
SPLINE
  5
34E
100
AcDbEntity
  8
0
100
AcDbSpline
 62
7
  6
CONTINUOUS
 70
0
 71
3
 72
9
 73
5
 74
0
 42
0.0000001
 43
0.0000001
 44
0.0000000001
 40
0.0
 40
0.0
 40
0.0
 40
0.0
 40
0.4867517019
 40
1.0
 40
1.0
 40
1.0
 40
1.0
 10
12.3348992042
 20
5.6121619451
 30
0.0
 10
12.3214234105
 20
5.6082236015
 30
0.0
 10
12.2936008195
 20
5.6005982774
 30
0.0
 10
12.265568343
 20
5.5937905555
 30
0.0
 10
12.2511387863
 20
5.590483162
 30
0.0
  0
SPLINE
  5
34F
100
AcDbEntity
  8
0
100
AcDbSpline
 62
7
  6
CONTINUOUS
 70
0
 71
3
 72
11
 73
7
 74
0
 42
0.0000001
 43
0.0000001
 44
0.0000000001
 40
0.0
 40
0.0
 40
0.0
 40
0.0
 40
0.2300040706
 40
0.472852583
 40
0.7293161897
 40
1.0
 40
1.0
 40
1.0
 40
1.0
 10
10.6444669575
 20
5.7293938196
 30
0.0
 10
10.6464943634
 20
5.7268211355
 30
0.0
 10
10.6508675235
 20
5.7216914345
 30
0.0
 10
10.6581273886
 20
5.7142545815
 30
0.0
 10
10.6662513898
 20
5.7068806269
 30
0.0
 10
10.6720781823
 20
5.7021410297
 30
0.0
 10
10.6751254304
 20
5.6997800594
 30
0.0
  0
SPLINE
  5
350
100
AcDbEntity
  8
0
100
AcDbSpline
 62
7
  6
CONTINUOUS
 70
0
 71
3
 72
9
 73
5
 74
0
 42
0.0000001
 43
0.0000001
 44
0.0000000001
 40
0.0
 40
0.0
 40
0.0
 40
0.0
 40
0.4867517019
 40
1.0
 40
1.0
 40
1.0
 40
1.0
 10
12.3348992042
 20
4.7709634936
 30
0.0
 10
12.3214234105
 20
4.76702515
 30
0.0
 10
12.2936008195
 20
4.7593998259
 30
0.0
 10
12.265568343
 20
4.752592104
 30
0.0
 10
12.2511387863
 20
4.7492847105
 30
0.0
  0
SPLINE
  5
351
100
AcDbEntity
  8
0
100
AcDbSpline
 62
7
  6
CONTINUOUS
 70
0
 71
3
 72
23
 73
19
 74
0
 42
0.0000001
 43
0.0000001
 44
0.0000000001
 40
0.0
 40
0.0
 40
0.0
 40
0.0
 40
0.063775992
 40
0.1273452426
 40
0.190702051
 40
0.2538559967
 40
0.3168132418
 40
0.3795820857
 40
0.4421733813
 40
0.504599339
 40
0.5668738627
 40
0.6290123824
 40
0.6910316504
 40
0.7529496423
 40
0.8147853556
 40
0.8765586046
 40
0.9382898526
 40
1.0
 40
1.0
 40
1.0
 40
1.0
 10
12.8797534009
 20
6.091552335
 30
0.0
 10
12.8797534009
 20
6.0872169308
 30
0.0
 10
12.8795458544
 20
6.0785587084
 30
0.0
 10
12.8786092888
 20
6.0656240715
 30
0.0
 10
12.8770498233
 20
6.0527919096
 30
0.0
 10
12.874871198
 20
6.0400924924
 30
0.0
 10
12.8720783575
 20
6.0275547465
 30
0.0
 10
12.868677726
 20
6.015207655
 30
0.0
 10
12.8646770856
 20
6.0030797004
 30
0.0
 10
12.8600856322
 20
5.9911988388
 30
0.0
 10
12.8549139781
 20
5.9795924537
 30
0.0
 10
12.8491739792
 20
5.968287334
 30
0.0
 10
12.8428788386
 20
5.9573095716
 30
0.0
 10
12.8360431108
 20
5.946684452
 30
0.0
 10
12.8286825407
 20
5.9364365246
 30
0.0
 10
12.8208139734
 20
5.9265893829
 30
0.0
 10
12.8124559247
 20
5.9171660045
 30
0.0
 10
12.8065692962
 20
5.9111796589
 30
0.0
 10
12.8035520443
 20
5.9082652169
 30
0.0
  0
SPLINE
  5
352
100
AcDbEntity
  8
0
100
AcDbSpline
 62
7
  6
CONTINUOUS
 70
0
 71
3
 72
23
 73
19
 74
0
 42
0.0000001
 43
0.0000001
 44
0.0000000001
 40
0.0
 40
0.0
 40
0.0
 40
0.0
 40
0.063775992
 40
0.1273452426
 40
0.190702051
 40
0.2538559967
 40
0.3168132418
 40
0.3795820857
 40
0.4421733813
 40
0.504599339
 40
0.5668738627
 40
0.6290123824
 40
0.6910316504
 40
0.7529496423
 40
0.8147853556
 40
0.8765586046
 40
0.9382898526
 40
1.0
 40
1.0
 40
1.0
 40
1.0
 10
9.0160498668
 20
6.3595010852
 30
0.0
 10
9.0160498668
 20
6.355165681
 30
0.0
 10
9.0158423203
 20
6.3465074586
 30
0.0
 10
9.0149057548
 20
6.3335728217
 30
0.0
 10
9.0133462892
 20
6.3207406597
 30
0.0
 10
9.0111676639
 20
6.3080412426
 30
0.0
 10
9.0083748234
 20
6.2955034967
 30
0.0
 10
9.0049741919
 20
6.2831564052
 30
0.0
 10
9.0009735515
 20
6.2710284505
 30
0.0
 10
8.9963820981
 20
6.259147589
 30
0.0
 10
8.991210444
 20
6.2475412039
 30
0.0
 10
8.9854704451
 20
6.2362360841
 30
0.0
 10
8.9791753046
 20
6.2252583218
 30
0.0
 10
8.9723395767
 20
6.2146332022
 30
0.0
 10
8.9649790066
 20
6.2043852748
 30
0.0
 10
8.9571104393
 20
6.1945381331
 30
0.0
 10
8.9487523906
 20
6.1851147547
 30
0.0
 10
8.9428657621
 20
6.1791284091
 30
0.0
 10
8.9398485102
 20
6.1762139671
 30
0.0
  0
SPLINE
  5
353
100
AcDbEntity
  8
0
100
AcDbSpline
 62
7
  6
CONTINUOUS
 70
0
 71
3
 72
50
 73
46
 74
0
 42
0.0000001
 43
0.0000001
 44
0.0000000001
 40
0.0
 40
0.0
 40
0.0
 40
0.0
 40
0.03794026
 40
0.076276687
 40
0.1149215832
 40
0.1537872318
 40
0.192784741
 40
0.2318250647
 40
0.2708189487
 40
0.3096773017
 40
0.3483114168
 40
0.3866332421
 40
0.4245556382
 40
0.4619926406
 40
0.4988597244
 40
0.5350740728
 40
0.5705548502
 40
0.6052234832
 40
0.6390039506
 40
0.6718230867
 40
0.7036109031
 40
0.7343009362
 40
0.763830629
 40
0.7781422172
 40
0.7921422485
 40
0.8058242434
 40
0.8191819904
 40
0.8322096955
 40
0.8449019038
 40
0.8572535946
 40
0.8692601787
 40
0.8809175248
 40
0.8922220445
 40
0.90317065
 40
0.9137609262
 40
0.9239910372
 40
0.9338599693
 40
0.9433674225
 40
0.9525140952
 40
0.9613016125
 40
0.969732819
 40
0.9778117975
 40
0.9855441507
 40
0.9929371491
 40
1.0
 40
1.0
 40
1.0
 40
1.0
 10
13.1922305137
 20
9.7966041295
 30
0.0
 10
13.1922305137
 20
9.8103601363
 30
0.0
 10
13.1924144532
 20
9.8380161106
 30
0.0
 10
13.1932296712
 20
9.87967635
 30
0.0
 10
13.1945839152
 20
9.921658296
 30
0.0
 10
13.1964738733
 20
9.9638594287
 30
0.0
 10
13.1988949779
 20
10.0061770232
 30
0.0
 10
13.2018413216
 20
10.0485078965
 30
0.0
 10
13.2053057304
 20
10.0907489038
 30
0.0
 10
13.2092797511
 20
10.1327970953
 30
0.0
 10
13.2137536858
 20
10.1745500016
 30
0.0
 10
13.2187166091
 20
10.2159058739
 30
0.0
 10
13.2241563974
 20
10.2567639365
 30
0.0
 10
13.230059757
 20
10.2970246333
 30
0.0
 10
13.2364122562
 20
10.3365898724
 30
0.0
 10
13.2431983602
 20
10.3753632673
 30
0.0
 10
13.2504014682
 20
10.4132503752
 30
0.0
 10
13.2580039525
 20
10.45015893
 30
0.0
 10
13.2659872019
 20
10.4859990761
 30
0.0
 10
13.2743316667
 20
10.5206835744
 30
0.0
 10
13.2830169036
 20
10.5541280884
 30
0.0
 10
13.2920216351
 20
10.5862511654
 30
0.0
 10
13.2998528075
 20
10.6121168146
 30
0.0
 10
13.30627033
 20
10.6320827224
 30
0.0
 10
13.3110993356
 20
10.6465226685
 30
0.0
 10
13.3159913834
 20
10.6605757034
 30
0.0
 10
13.3209435628
 20
10.6742332825
 30
0.0
 10
13.3259528038
 20
10.6874871014
 30
0.0
 10
13.3310160791
 20
10.7003290992
 30
0.0
 10
13.3361302883
 20
10.7127514727
 30
0.0
 10
13.3412923067
 20
10.7247466795
 30
0.0
 10
13.3464990126
 20
10.7363074325
 30
0.0
 10
13.3517471926
 20
10.7474267319
 30
0.0
 10
13.3570337127
 20
10.7580978239
 30
0.0
 10
13.3623552863
 20
10.7683142729
 30
0.0
 10
13.3677087712
 20
10.7780698764
 30
0.0
 10
13.3730908336
 20
10.7873587813
 30
0.0
 10
13.3784983218
 20
10.7961753565
 30
0.0
 10
13.3839278929
 20
10.8045143429
 30
0.0
 10
13.389376384
 20
10.8123707022
 30
0.0
 10
13.3948404927
 20
10.8197397752
 30
0.0
 10
13.4003170398
 20
10.8266171223
 30
0.0
 10
13.4058028621
 20
10.8329987168
 30
0.0
 10
13.4112946192
 20
10.8388805686
 30
0.0
 10
13.4150417617
 20
10.8425485494
 30
0.0
 10
13.4169163019
 20
10.8442931665
 30
0.0
  0
SPLINE
  5
354
100
AcDbEntity
  8
0
100
AcDbSpline
 62
7
  6
CONTINUOUS
 70
0
 71
3
 72
55
 73
51
 74
0
 42
0.0000001
 43
0.0000001
 44
0.0000000001
 40
0.0
 40
0.0
 40
0.0
 40
0.0
 40
0.0481975415
 40
0.0958290817
 40
0.142818713
 40
0.1890963521
 40
0.2345910715
 40
0.279234315
 40
0.3229593385
 40
0.3657013756
 40
0.4073979227
 40
0.4479889149
 40
0.4874169784
 40
0.525627636
 40
0.5625695632
 40
0.5981948995
 40
0.6324596307
 40
0.6653239472
 40
0.681220104
 40
0.69675341
 40
0.7119202568
 40
0.7267175098
 40
0.7411423279
 40
0.7551923488
 40
0.7688656914
 40
0.782160877
 40
0.7950770786
 40
0.8076139743
 40
0.8197718786
 40
0.8315518771
 40
0.8429557109
 40
0.8539860605
 40
0.8646465134
 40
0.8749416424
 40
0.8848772785
 40
0.8944604376
 40
0.9036996141
 40
0.912604918
 40
0.921188144
 40
0.9294631376
 40
0.9374458256
 40
0.9451544636
 40
0.952609859
 40
0.9598353745
 40
0.966857131
 40
0.9737039172
 40
0.9804070573
 40
0.9870002114
 40
0.9935188976
 40
1.0
 40
1.0
 40
1.0
 40
1.0
 10
9.8112311026
 20
11.7211795822
 30
0.0
 10
9.7999518742
 20
11.7219617994
 30
0.0
 10
9.7775343845
 20
11.7236429639
 30
0.0
 10
9.7441557662
 20
11.7265336453
 30
0.0
 10
9.7112618167
 20
11.729774896
 30
0.0
 10
9.6789079517
 20
11.7333611602
 30
0.0
 10
9.6471479635
 20
11.7372864942
 30
0.0
 10
9.6160350572
 20
11.7415442733
 30
0.0
 10
9.5856212109
 20
11.7461273385
 30
0.0
 10
9.5559572497
 20
11.7510279893
 30
0.0
 10
9.527092746
 20
11.7562379921
 30
0.0
 10
9.4990759129
 20
11.7617485916
 30
0.0
 10
9.471953526
 20
11.7675505107
 30
0.0
 10
9.4457708439
 20
11.773633991
 30
0.0
 10
9.420571553
 20
11.7799888046
 30
0.0
 10
9.3963976163
 20
11.7866042745
 30
0.0
 10
9.3732894072
 20
11.7934692719
 30
0.0
 10
9.3547527508
 20
11.7994528287
 30
0.0
 10
9.3404920543
 20
11.8043637667
 30
0.0
 10
9.330205342
 20
11.8080612571
 30
0.0
 10
9.3202129474
 20
11.8118123826
 30
0.0
 10
9.3105190112
 20
11.8156155356
 30
0.0
 10
9.3011275859
 20
11.8194691643
 30
0.0
 10
9.2920425818
 20
11.8233716552
 30
0.0
 10
9.2832677688
 20
11.8273213429
 30
0.0
 10
9.2748068172
 20
11.8313166436
 30
0.0
 10
9.2666632237
 20
11.8353558378
 30
0.0
 10
9.2588403743
 20
11.8394372671
 30
0.0
 10
9.2513415263
 20
11.843559266
 30
0.0
 10
9.2441697585
 20
11.8477200686
 30
0.0
 10
9.2373280674
 20
11.8519180254
 30
0.0
 10
9.2308192632
 20
11.8561513758
 30
0.0
 10
9.2246460215
 20
11.8604183769
 30
0.0
 10
9.2188109243
 20
11.8647173542
 30
0.0
 10
9.2133163303
 20
11.8690464996
 30
0.0
 10
9.2081645373
 20
11.8734041334
 30
0.0
 10
9.2033576775
 20
11.8777885251
 30
0.0
 10
9.1988977077
 20
11.8821979089
 30
0.0
 10
9.1947865681
 20
11.8866306503
 30
0.0
 10
9.1910259522
 20
11.8910849824
 30
0.0
 10
9.1876175189
 20
11.8955592328
 30
0.0
 10
9.1845628563
 20
11.9000517334
 30
0.0
 10
9.1818633301
 20
11.9045607124
 30
0.0
 10
9.1795204021
 20
11.9090844913
 30
0.0
 10
9.1775353075
 20
11.9136212339
 30
0.0
 10
9.1759092035
 20
11.9181690628
 30
0.0
 10
9.1746432612
 20
11.9227259913
 30
0.0
 10
9.1737382592
 20
11.9272899673
 30
0.0
 10
9.1731949841
 20
11.9318583994
 30
0.0
 10
9.1730741305
 20
11.9349092887
 30
0.0
 10
9.1730741335
 20
11.9364296446
 30
0.0
  0
SPLINE
  5
355
100
AcDbEntity
  8
0
100
AcDbSpline
 62
7
  6
CONTINUOUS
 70
0
 71
3
 72
39
 73
35
 74
0
 42
0.0000001
 43
0.0000001
 44
0.0000000001
 40
0.0
 40
0.0
 40
0.0
 40
0.0
 40
0.0299424718
 40
0.0599093198
 40
0.0899243266
 40
0.120010106
 40
0.1501875647
 40
0.1804754164
 40
0.2108897604
 40
0.2414437366
 40
0.2721472601
 40
0.3030068419
 40
0.3340254933
 40
0.365202712
 40
0.3965345466
 40
0.4280137318
 40
0.4596298892
 40
0.491369784
 40
0.5232176323
 40
0.5551554498
 40
0.5871634345
 40
0.6192203774
 40
0.651304093
 40
0.6833918636
 40
0.7154608911
 40
0.7474887497
 40
0.7794538335
 40
0.8113357936
 40
0.8431159524
 40
0.8747777124
 40
0.906306864
 40
0.9376920822
 40
0.9689247084
 40
1.0
 40
1.0
 40
1.0
 40
1.0
 10
12.413104411
 20
6.3124862526
 30
0.0
 10
12.4177661075
 20
6.3169891063
 30
0.0
 10
12.4274560602
 20
6.3256314147
 30
0.0
 10
12.4429808746
 20
6.3374050295
 30
0.0
 10
12.4594162211
 20
6.3479298742
 30
0.0
 10
12.4766702658
 20
6.3571469074
 30
0.0
 10
12.4946481471
 20
6.3650057746
 30
0.0
 10
12.513250647
 20
6.3714632759
 30
0.0
 10
12.5323752545
 20
6.3764840798
 30
0.0
 10
12.5519166068
 20
6.380040775
 30
0.0
 10
12.5717671128
 20
6.3821140417
 30
0.0
 10
12.5918175392
 20
6.3826927338
 30
0.0
 10
12.6119576139
 20
6.3817739278
 30
0.0
 10
12.6320766281
 20
6.3793629249
 30
0.0
 10
12.6520640403
 20
6.3754732106
 30
0.0
 10
12.6718100752
 20
6.3701263715
 30
0.0
 10
12.6912063199
 20
6.3633519695
 30
0.0
 10
12.7101463095
 20
6.3551873749
 30
0.0
 10
12.7285261038
 20
6.3456775585
 30
0.0
 10
12.7462448506
 20
6.3348748445
 30
0.0
 10
12.7632053309
 20
6.3228386227
 30
0.0
 10
12.7793144857
 20
6.3096350233
 30
0.0
 10
12.7944839207
 20
6.295336557
 30
0.0
 10
12.8086303856
 20
6.2800217201
 30
0.0
 10
12.8216762261
 20
6.2637745678
 30
0.0
 10
12.8335498062
 20
6.2466842572
 30
0.0
 10
12.8441858983
 20
6.228844565
 30
0.0
 10
12.8535260359
 20
6.2103533744
 30
0.0
 10
12.8615188413
 20
6.191312158
 30
0.0
 10
12.8681202851
 20
6.1718253841
 30
0.0
 10
12.8732939818
 20
6.152000108
 30
0.0
 10
12.8770112775
 20
6.1319448087
 30
0.0
 10
12.8792516177
 20
6.1117710579
 30
0.0
 10
12.8797534009
 20
6.0982788319
 30
0.0
 10
12.8797534009
 20
6.091552335
 30
0.0
  0
SPLINE
  5
356
100
AcDbEntity
  8
0
100
AcDbSpline
 62
7
  6
CONTINUOUS
 70
0
 71
3
 72
39
 73
35
 74
0
 42
0.0000001
 43
0.0000001
 44
0.0000000001
 40
0.0
 40
0.0
 40
0.0
 40
0.0
 40
0.0299424718
 40
0.0599093198
 40
0.0899243266
 40
0.120010106
 40
0.1501875647
 40
0.1804754164
 40
0.2108897604
 40
0.2414437366
 40
0.2721472601
 40
0.3030068419
 40
0.3340254933
 40
0.365202712
 40
0.3965345466
 40
0.4280137318
 40
0.4596298892
 40
0.491369784
 40
0.5232176323
 40
0.5551554498
 40
0.5871634345
 40
0.6192203774
 40
0.651304093
 40
0.6833918636
 40
0.7154608911
 40
0.7474887497
 40
0.7794538335
 40
0.8113357936
 40
0.8431159524
 40
0.8747777124
 40
0.906306864
 40
0.9376920822
 40
0.9689247084
 40
1.0
 40
1.0
 40
1.0
 40
1.0
 10
8.5494008769
 20
6.5804350027
 30
0.0
 10
8.5540625734
 20
6.5849378565
 30
0.0
 10
8.5637525261
 20
6.5935801649
 30
0.0
 10
8.5792773405
 20
6.6053537797
 30
0.0
 10
8.595712687
 20
6.6158786244
 30
0.0
 10
8.6129667317
 20
6.6250956576
 30
0.0
 10
8.630944613
 20
6.6329545248
 30
0.0
 10
8.6495471129
 20
6.6394120261
 30
0.0
 10
8.6686717204
 20
6.64443283
 30
0.0
 10
8.6882130727
 20
6.6479895252
 30
0.0
 10
8.7080635787
 20
6.6500627919
 30
0.0
 10
8.7281140051
 20
6.650641484
 30
0.0
 10
8.7482540798
 20
6.649722678
 30
0.0
 10
8.7683730941
 20
6.6473116751
 30
0.0
 10
8.7883605062
 20
6.6434219608
 30
0.0
 10
8.8081065412
 20
6.6380751216
 30
0.0
 10
8.8275027858
 20
6.6313007196
 30
0.0
 10
8.8464427754
 20
6.6231361251
 30
0.0
 10
8.8648225697
 20
6.6136263086
 30
0.0
 10
8.8825413165
 20
6.6028235947
 30
0.0
 10
8.8995017968
 20
6.5907873728
 30
0.0
 10
8.9156109516
 20
6.5775837734
 30
0.0
 10
8.9307803866
 20
6.5632853072
 30
0.0
 10
8.9449268515
 20
6.5479704703
 30
0.0
 10
8.957972692
 20
6.531723318
 30
0.0
 10
8.9698462721
 20
6.5146330074
 30
0.0
 10
8.9804823642
 20
6.4967933151
 30
0.0
 10
8.9898225019
 20
6.4783021246
 30
0.0
 10
8.9978153072
 20
6.4592609082
 30
0.0
 10
9.004416751
 20
6.4397741342
 30
0.0
 10
9.0095904477
 20
6.4199488582
 30
0.0
 10
9.0133077434
 20
6.3998935588
 30
0.0
 10
9.0155480836
 20
6.379719808
 30
0.0
 10
9.0160498668
 20
6.366227582
 30
0.0
 10
9.0160498668
 20
6.3595010852
 30
0.0
  0
SPLINE
  5
357
100
AcDbEntity
  8
0
100
AcDbSpline
 62
7
  6
CONTINUOUS
 70
0
 71
3
 72
61
 73
57
 74
0
 42
0.0000001
 43
0.0000001
 44
0.0000000001
 40
0.0
 40
0.0
 40
0.0
 40
0.0
 40
0.0027758433
 40
0.0055595941
 40
0.0083590873
 40
0.0111820092
 40
0.0140358402
 40
0.0169278032
 40
0.0228516385
 40
0.0290063602
 40
0.0354367082
 40
0.0387681006
 40
0.0421822872
 40
0.0492730731
 40
0.0567370731
 40
0.064596108
 40
0.072867737
 40
0.081565694
 40
0.09070057
 40
0.1002800962
 40
0.110309688
 40
0.1207926208
 40
0.131730418
 40
0.1431229861
 40
0.1549688512
 40
0.1672653029
 40
0.1800084954
 40
0.1931936241
 40
0.2068149163
 40
0.2208658417
 40
0.235339028
 40
0.2502264837
 40
0.2655194851
 40
0.2812087772
 40
0.2972844765
 40
0.3137362206
 40
0.3305531169
 40
0.3477238252
 40
0.3652365653
 40
0.3830791312
 40
0.4012389558
 40
0.4197030683
 40
0.4574902793
 40
0.4963311237
 40
0.5361109391
 40
0.5767111052
 40
0.6180096092
 40
0.6598815936
 40
0.7021998921
 40
0.7448355581
 40
0.7876583843
 40
0.8305374341
 40
0.8733415137
 40
0.9159398405
 40
0.9582021223
 40
1.0
 40
1.0
 40
1.0
 40
1.0
 10
10.8950740994
 20
11.9364291901
 30
0.0
 10
10.8950740973
 20
11.9353653279
 30
0.0
 10
10.8950150756
 20
11.9332341043
 30
0.0
 10
10.894749599
 20
11.9300398993
 30
0.0
 10
10.8943072098
 20
11.9268470629
 30
0.0
 10
10.893688097
 20
11.9236564619
 30
0.0
 10
10.8928923932
 20
11.9204686938
 30
0.0
 10
10.891586086
 20
11.9161895038
 30
0.0
 10
10.8894955912
 20
11.9108355663
 30
0.0
 10
10.8863039781
 20
11.9044902497
 30
0.0
 10
10.8830999898
 20
11.8992905839
 30
0.0
 10
10.8802046052
 20
11.8951521718
 30
0.0
 10
10.8770034027
 20
11.8909231218
 30
0.0
 10
10.8725525705
 20
11.8856602744
 30
0.0
 10
10.8665920683
 20
11.8794672981
 30
0.0
 10
10.8599511193
 20
11.8733228758
 30
0.0
 10
10.8526352511
 20
11.8672317699
 30
0.0
 10
10.8446503343
 20
11.8611982878
 30
0.0
 10
10.8360026782
 20
11.8552271338
 30
0.0
 10
10.8266992243
 20
11.8493228133
 30
0.0
 10
10.8167473621
 20
11.8434900591
 30
0.0
 10
10.8061551008
 20
11.8377334365
 30
0.0
 10
10.794930941
 20
11.8320576174
 30
0.0
 10
10.7830839514
 20
11.8264671588
 30
0.0
 10
10.7706237161
 20
11.8209666059
 30
0.0
 10
10.7575603386
 20
11.815560457
 30
0.0
 10
10.7439044424
 20
11.8102530928
 30
0.0
 10
10.7296671324
 20
11.8050489108
 30
0.0
 10
10.7148600229
 20
11.7999521102
 30
0.0
 10
10.6994951823
 20
11.7949669483
 30
0.0
 10
10.6835851666
 20
11.7900974378
 30
0.0
 10
10.6671429664
 20
11.7853476583
 30
0.0
 10
10.6501820305
 20
11.7807214375
 30
0.0
 10
10.6327162262
 20
11.776222643
 30
0.0
 10
10.6147598473
 20
11.771854919
 30
0.0
 10
10.5963275885
 20
11.7676218946
 30
0.0
 10
10.5774345401
 20
11.7635270257
 30
0.0
 10
10.5580961729
 20
11.7595736859
 30
0.0
 10
10.5383283228
 20
11.7557651316
 30
0.0
 10
10.518147187
 20
11.7521044755
 30
0.0
 10
10.4975692793
 20
11.7485947412
 30
0.0
 10
10.4694089946
 20
11.7440855286
 30
0.0
 10
10.4333386701
 20
11.7388576376
 30
0.0
 10
10.3890726517
 20
11.7332762531
 30
0.0
 10
10.3436435524
 20
11.7283582713
 30
0.0
 10
10.2972002652
 20
11.72411992
 30
0.0
 10
10.2498948646
 20
11.7205752093
 30
0.0
 10
10.2018823233
 20
11.7177358449
 30
0.0
 10
10.1533199356
 20
11.7156112029
 30
0.0
 10
10.1043668151
 20
11.7142082982
 30
0.0
 10
10.0551833615
 20
11.7135317607
 30
0.0
 10
10.0059307415
 20
11.7135838267
 30
0.0
 10
9.9567703301
 20
11.7143643172
 30
0.0
 10
9.9078632363
 20
11.7158706708
 30
0.0
 10
9.8593697866
 20
11.7180978866
 30
0.0
 10
9.8272120608
 20
11.720071299
 30
0.0
 10
9.8112311026
 20
11.7211795822
 30
0.0
  0
SPLINE
  5
358
100
AcDbEntity
  8
0
100
AcDbSpline
 62
7
  6
CONTINUOUS
 70
0
 71
3
 72
41
 73
37
 74
0
 42
0.0000001
 43
0.0000001
 44
0.0000000001
 40
0.0
 40
0.0
 40
0.0
 40
0.0
 40
0.0079857009
 40
0.0162160954
 40
0.0246962756
 40
0.0334305851
 40
0.042422793
 40
0.0516761225
 40
0.0611931896
 40
0.0709761621
 40
0.0913455143
 40
0.1127943922
 40
0.1353264753
 40
0.1589406095
 40
0.183631528
 40
0.20939045
 40
0.2362052853
 40
0.2640612238
 40
0.2929408601
 40
0.3228244455
 40
0.3536902276
 40
0.3855143998
 40
0.418271458
 40
0.4519342377
 40
0.4864739802
 40
0.5218606008
 40
0.5580625853
 40
0.5950472217
 40
0.6327806522
 40
0.6712278697
 40
0.710352927
 40
0.7501188358
 40
0.790487845
 40
0.8314214108
 40
0.9148220797
 40
1.0
 40
1.0
 40
1.0
 40
1.0
 10
13.3019542644
 20
9.1865963159
 30
0.0
 10
13.3009001823
 20
9.1878923645
 30
0.0
 10
13.2988029272
 20
9.1905595844
 30
0.0
 10
13.295734613
 20
9.1947170027
 30
0.0
 10
13.2926977777
 20
9.1990895478
 30
0.0
 10
13.2896932045
 20
9.2036759934
 30
0.0
 10
13.2867216571
 20
9.2084751716
 30
0.0
 10
13.2837839404
 20
9.2134858447
 30
0.0
 10
13.2808807519
 20
9.2187066944
 30
0.0
 10
13.2770047112
 20
9.2260451819
 30
0.0
 10
13.2722599347
 20
9.235744622
 30
0.0
 10
13.2667902555
 20
9.2480480233
 30
0.0
 10
13.2614762055
 20
9.2611547246
 30
0.0
 10
13.2563233107
 20
9.2750509921
 30
0.0
 10
13.2513369232
 20
9.2897224669
 30
0.0
 10
13.2465223379
 20
9.3051538763
 30
0.0
 10
13.2418845656
 20
9.3213291107
 30
0.0
 10
13.2374285463
 20
9.3382312614
 30
0.0
 10
13.2331589906
 20
9.3558426237
 30
0.0
 10
13.229080388
 20
9.3741447255
 30
0.0
 10
13.2251971139
 20
9.3931183574
 30
0.0
 10
13.221513237
 20
9.4127435815
 30
0.0
 10
13.2180326856
 20
9.4329997669
 30
0.0
 10
13.2147591637
 20
9.4538656085
 30
0.0
 10
13.2116961049
 20
9.4753191503
 30
0.0
 10
13.2088468049
 20
9.4973378117
 30
0.0
 10
13.2062142522
 20
9.5198984107
 30
0.0
 10
13.2038012447
 20
9.5429771893
 30
0.0
 10
13.2016103654
 20
9.5665498415
 30
0.0
 10
13.1996438989
 20
9.5905915384
 30
0.0
 10
13.1979039692
 20
9.6150769457
 30
0.0
 10
13.1963924043
 20
9.6399802687
 30
0.0
 10
13.195110786
 20
9.6652753071
 30
0.0
 10
13.1937017669
 20
9.6997022345
 30
0.0
 10
13.1925341675
 20
9.7435184525
 30
0.0
 10
13.1922305137
 20
9.7787852352
 30
0.0
 10
13.1922305137
 20
9.7966041295
 30
0.0
  0
SPLINE
  5
359
100
AcDbEntity
  8
0
100
AcDbSpline
 62
7
  6
CONTINUOUS
 70
0
 71
3
 72
15
 73
11
 74
0
 42
0.0000001
 43
0.0000001
 44
0.0000000001
 40
0.0
 40
0.0
 40
0.0
 40
0.0
 40
0.1322285991
 40
0.2628226728
 40
0.3915550757
 40
0.5182156063
 40
0.642592113
 40
0.7644798976
 40
0.8836800241
 40
1.0
 40
1.0
 40
1.0
 40
1.0
 10
10.2447526453
 20
11.778672982
 30
0.0
 10
10.2559040988
 20
11.7778996261
 30
0.0
 10
10.2780603736
 20
11.7762323337
 30
0.0
 10
10.3110364046
 20
11.773349946
 30
0.0
 10
10.3435058439
 20
11.7701054597
 30
0.0
 10
10.3754088691
 20
11.7665049592
 30
0.0
 10
10.4066874234
 20
11.7625549801
 30
0.0
 10
10.4372842104
 20
11.7582628143
 30
0.0
 10
10.4671432076
 20
11.7536363711
 30
0.0
 10
10.4867715232
 20
11.7502922262
 30
0.0
 10
10.4964516545
 20
11.7485630182
 30
0.0
  0
SPLINE
  5
35A
100
AcDbEntity
  8
0
100
AcDbSpline
 62
7
  6
CONTINUOUS
 70
0
 71
3
 72
55
 73
51
 74
0
 42
0.0000001
 43
0.0000001
 44
0.0000000001
 40
0.0
 40
0.0
 40
0.0
 40
0.0
 40
0.0481975415
 40
0.0958290817
 40
0.142818713
 40
0.1890963521
 40
0.2345910715
 40
0.279234315
 40
0.3229593385
 40
0.3657013756
 40
0.4073979227
 40
0.4479889149
 40
0.4874169784
 40
0.525627636
 40
0.5625695632
 40
0.5981948995
 40
0.6324596307
 40
0.6653239472
 40
0.681220104
 40
0.69675341
 40
0.7119202568
 40
0.7267175098
 40
0.7411423279
 40
0.7551923488
 40
0.7688656914
 40
0.782160877
 40
0.7950770786
 40
0.8076139743
 40
0.8197718786
 40
0.8315518771
 40
0.8429557109
 40
0.8539860605
 40
0.8646465134
 40
0.8749416424
 40
0.8848772785
 40
0.8944604376
 40
0.9036996141
 40
0.912604918
 40
0.921188144
 40
0.9294631376
 40
0.9374458256
 40
0.9451544636
 40
0.952609859
 40
0.9598353745
 40
0.966857131
 40
0.9737039172
 40
0.9804070573
 40
0.9870002114
 40
0.9935188976
 40
1.0
 40
1.0
 40
1.0
 40
1.0
 10
10.2569171304
 20
12.1516792525
 30
0.0
 10
10.2681963587
 20
12.1508970353
 30
0.0
 10
10.2906138484
 20
12.1492158708
 30
0.0
 10
10.3239924668
 20
12.1463251894
 30
0.0
 10
10.3568864162
 20
12.1430839387
 30
0.0
 10
10.3892402813
 20
12.1394976745
 30
0.0
 10
10.4210002695
 20
12.1355723405
 30
0.0
 10
10.4521131758
 20
12.1313145613
 30
0.0
 10
10.482527022
 20
12.1267314962
 30
0.0
 10
10.5121909833
 20
12.1218308454
 30
0.0
 10
10.541055487
 20
12.1166208426
 30
0.0
 10
10.5690723201
 20
12.1111102431
 30
0.0
 10
10.596194707
 20
12.1053083239
 30
0.0
 10
10.6223773891
 20
12.0992248437
 30
0.0
 10
10.64757668
 20
12.0928700301
 30
0.0
 10
10.6717506167
 20
12.0862545602
 30
0.0
 10
10.6948588257
 20
12.0793895628
 30
0.0
 10
10.7133954822
 20
12.073406006
 30
0.0
 10
10.7276561786
 20
12.068495068
 30
0.0
 10
10.7379428909
 20
12.0647975776
 30
0.0
 10
10.7479352855
 20
12.0610464521
 30
0.0
 10
10.7576292218
 20
12.057243299
 30
0.0
 10
10.7670206471
 20
12.0533896703
 30
0.0
 10
10.7761056511
 20
12.0494871795
 30
0.0
 10
10.7848804642
 20
12.0455374917
 30
0.0
 10
10.7933414158
 20
12.0415421911
 30
0.0
 10
10.8014850093
 20
12.0375029969
 30
0.0
 10
10.8093078586
 20
12.0334215676
 30
0.0
 10
10.8168067067
 20
12.0292995687
 30
0.0
 10
10.8239784745
 20
12.0251387661
 30
0.0
 10
10.8308201655
 20
12.0209408093
 30
0.0
 10
10.8373289698
 20
12.0167074589
 30
0.0
 10
10.8435022115
 20
12.0124404578
 30
0.0
 10
10.8493373087
 20
12.0081414805
 30
0.0
 10
10.8548319027
 20
12.0038123351
 30
0.0
 10
10.8599836957
 20
11.9994547013
 30
0.0
 10
10.8647905555
 20
11.9950703096
 30
0.0
 10
10.8692505252
 20
11.9906609258
 30
0.0
 10
10.8733616648
 20
11.9862281844
 30
0.0
 10
10.8771222808
 20
11.9817738523
 30
0.0
 10
10.8805307141
 20
11.9772996019
 30
0.0
 10
10.8835853766
 20
11.9728071013
 30
0.0
 10
10.8862849028
 20
11.9682981223
 30
0.0
 10
10.8886278308
 20
11.9637743434
 30
0.0
 10
10.8906129255
 20
11.9592376007
 30
0.0
 10
10.8922390294
 20
11.9546897719
 30
0.0
 10
10.8935049718
 20
11.9501328433
 30
0.0
 10
10.8944099738
 20
11.9455688674
 30
0.0
 10
10.8949532489
 20
11.9410004352
 30
0.0
 10
10.8950741024
 20
11.9379495459
 30
0.0
 10
10.8950740994
 20
11.9364291901
 30
0.0
  0
SPLINE
  5
35B
100
AcDbEntity
  8
0
100
AcDbSpline
 62
7
  6
CONTINUOUS
 70
0
 71
3
 72
77
 73
73
 74
0
 42
0.0000001
 43
0.0000001
 44
0.0000000001
 40
0.0
 40
0.0
 40
0.0
 40
0.0
 40
0.045209572
 40
0.0909997778
 40
0.1371867504
 40
0.1835835602
 40
0.2300026216
 40
0.2762561486
 40
0.3221572158
 40
0.3675207148
 40
0.4121643196
 40
0.4559094764
 40
0.4773908694
 40
0.4985829101
 40
0.5194648079
 40
0.5400161702
 40
0.5602170763
 40
0.5800481215
 40
0.599490396
 40
0.618525607
 40
0.6371360535
 40
0.6553046799
 40
0.6730151776
 40
0.6902519411
 40
0.7070002119
 40
0.7232461044
 40
0.7389766351
 40
0.754179903
 40
0.768845071
 40
0.7829625328
 40
0.7965240589
 40
0.8095228544
 40
0.8219538609
 40
0.8338138898
 40
0.8451018991
 40
0.8558194074
 40
0.8609657343
 40
0.8659713748
 40
0.8708374097
 40
0.8755651742
 40
0.8801563183
 40
0.8846127673
 40
0.8889367626
 40
0.8931309512
 40
0.8971983612
 40
0.9011424304
 40
0.904967104
 40
0.9086768412
 40
0.9122766287
 40
0.9157720683
 40
0.9224735029
 40
0.9256960045
 40
0.9288431775
 40
0.9319239961
 40
0.9349480951
 40
0.9379257404
 40
0.9408677257
 40
0.943785275
 40
0.9466899306
 40
0.9495933982
 40
0.9525074006
 40
0.9554435237
 40
0.9584130653
 40
0.9614269198
 40
0.9644954649
 40
0.9676284627
 40
0.970835031
 40
0.9774998438
 40
0.9845513675
 40
0.988238434
 40
0.9920394709
 40
1.0
 40
1.0
 40
1.0
 40
1.0
 10
13.6373989039
 20
10.2266038001
 30
0.0
 10
13.6373989039
 20
10.208267928
 30
0.0
 10
13.6370718937
 20
10.1713599508
 30
0.0
 10
13.6356299503
 20
10.1157366279
 30
0.0
 10
13.6332389416
 20
10.0596639439
 30
0.0
 10
13.6299090748
 20
10.0033837617
 30
0.0
 10
13.6256546955
 20
9.9471388281
 30
0.0
 10
13.6204941632
 20
9.8911716715
 30
0.0
 10
13.6144497914
 20
9.8357236344
 30
0.0
 10
13.6075477431
 20
9.7810337531
 30
0.0
 10
13.5998178929
 20
9.7273379533
 30
0.0
 10
13.5926720833
 20
9.6833512179
 30
0.0
 10
13.5865585508
 20
9.6488388364
 30
0.0
 10
13.5818159122
 20
9.6235020003
 30
0.0
 10
13.5768933703
 20
9.5985838799
 30
0.0
 10
13.5717962006
 20
9.5741113314
 30
0.0
 10
13.5665299186
 20
9.5501107532
 30
0.0
 10
13.5611002438
 20
9.5266080233
 30
0.0
 10
13.5555130078
 20
9.5036284881
 30
0.0
 10
13.5497742857
 20
9.481196917
 30
0.0
 10
13.5438902776
 20
9.4593374899
 30
0.0
 10
13.5378673248
 20
9.4380737672
 30
0.0
 10
13.5317119842
 20
9.4174286517
 30
0.0
 10
13.5254308754
 20
9.397424385
 30
0.0
 10
13.5190308093
 20
9.3780825001
 30
0.0
 10
13.5125187261
 20
9.3594238063
 30
0.0
 10
13.5059016243
 20
9.3414683782
 30
0.0
 10
13.4991867061
 20
9.3242354974
 30
0.0
 10
13.4923812006
 20
9.3077436672
 30
0.0
 10
13.4854924452
 20
9.2920105701
 30
0.0
 10
13.4785279103
 20
9.2770530325
 30
0.0
 10
13.4714950322
 20
9.2628870429
 30
0.0
 10
13.4644014014
 20
9.2495276916
 30
0.0
 10
13.4572545765
 20
9.2369891041
 30
0.0
 10
13.4500621666
 20
9.2252847429
 30
0.0
 10
13.4439569801
 20
9.2161163094
 30
0.0
 10
13.439050329
 20
9.2092188022
 30
0.0
 10
13.4354136081
 20
9.204332103
 30
0.0
 10
13.4317713048
 20
9.1996630361
 30
0.0
 10
13.4281243373
 20
9.1952128597
 30
0.0
 10
13.4244737078
 20
9.1909827343
 30
0.0
 10
13.42082037
 20
9.1869737913
 30
0.0
 10
13.417165247
 20
9.1831871362
 30
0.0
 10
13.4135093209
 20
9.1796237533
 30
0.0
 10
13.4098535429
 20
9.1762845881
 30
0.0
 10
13.4061988235
 20
9.1731705875
 30
0.0
 10
13.4025460981
 20
9.170282572
 30
0.0
 10
13.3988963757
 20
9.167621345
 30
0.0
 10
13.3952503272
 20
9.1651875743
 30
0.0
 10
13.3904632482
 20
9.1622879882
 30
0.0
 10
13.3856154997
 20
9.1597907113
 30
0.0
 10
13.3807239192
 20
9.1577416302
 30
0.0
 10
13.3771111545
 20
9.1564552319
 30
0.0
 10
13.3735079824
 20
9.1553999478
 30
0.0
 10
13.3699152863
 20
9.1545762138
 30
0.0
 10
13.366334155
 20
9.1539843408
 30
0.0
 10
13.3627656522
 20
9.1536245966
 30
0.0
 10
13.359210882
 20
9.1534972521
 30
0.0
 10
13.3556709808
 20
9.1536023577
 30
0.0
 10
13.35214708
 20
9.1539398647
 30
0.0
 10
13.3486403169
 20
9.1545097159
 30
0.0
 10
13.3451518077
 20
9.1553116727
 30
0.0
 10
13.3416826162
 20
9.15634535
 30
0.0
 10
13.3382337818
 20
9.1576103817
 30
0.0
 10
13.334806329
 20
9.1591062939
 30
0.0
 10
13.33140111
 20
9.1608325179
 30
0.0
 10
13.3268334327
 20
9.1634741214
 30
0.0
 10
13.3211745084
 20
9.1673800757
 30
0.0
 10
13.315761513
 20
9.1719247259
 30
0.0
 10
13.3114875448
 20
9.1759894727
 30
0.0
 10
13.3071204745
 20
9.1804841799
 30
0.0
 10
13.3039914039
 20
9.1840915473
 30
0.0
 10
13.3019542644
 20
9.1865963159
 30
0.0
  0
SPLINE
  5
35C
100
AcDbEntity
  8
0
100
AcDbSpline
 62
7
  6
CONTINUOUS
 70
0
 71
3
 72
52
 73
48
 74
0
 42
0.0000001
 43
0.0000001
 44
0.0000000001
 40
0.0
 40
0.0
 40
0.0
 40
0.0
 40
0.0395716416
 40
0.0795793209
 40
0.1199176908
 40
0.1604813507
 40
0.2011635082
 40
0.2418572485
 40
0.2824555179
 40
0.3228516147
 40
0.3629395029
 40
0.4026141843
 40
0.4417720554
 40
0.4803112729
 40
0.5181321219
 40
0.5551373928
 40
0.5912327672
 40
0.6263272193
 40
0.6603334361
 40
0.6931682654
 40
0.7247532044
 40
0.74005411
 40
0.7550154864
 40
0.7696291328
 40
0.7838871564
 40
0.7977822078
 40
0.8113072908
 40
0.8244560117
 40
0.8372224144
 40
0.8496011974
 40
0.8615876234
 40
0.8731776683
 40
0.884368042
 40
0.8951562544
 40
0.9055407663
 40
0.9155209811
 40
0.9250975279
 40
0.9342722125
 40
0.943048419
 40
0.9514310812
 40
0.9594271736
 40
0.9670457818
 40
0.9742986501
 40
0.9812004183
 40
0.9877691892
 40
0.9940269343
 40
1.0
 40
1.0
 40
1.0
 40
1.0
 10
13.4451139836
 20
10.1978708186
 30
0.0
 10
13.4451139836
 20
10.185803128
 30
0.0
 10
13.4449407782
 20
10.1615344501
 30
0.0
 10
13.4441740018
 20
10.1249715427
 30
0.0
 10
13.4429006889
 20
10.088120014
 30
0.0
 10
13.4411244225
 20
10.0510834157
 30
0.0
 10
13.4388501436
 20
10.0139654872
 30
0.0
 10
13.4360842395
 20
9.976870371
 30
0.0
 10
13.4328344631
 20
9.9399020741
 30
0.0
 10
13.4291099432
 20
9.9031642715
 30
0.0
 10
13.4249211442
 20
9.8667599795
 30
0.0
 10
13.4202798436
 20
9.8307912766
 30
0.0
 10
13.4151990964
 20
9.7953590115
 30
0.0
 10
13.4096932003
 20
9.7605625192
 30
0.0
 10
13.4037776559
 20
9.7264993387
 30
0.0
 10
13.3974691237
 20
9.6932649375
 30
0.0
 10
13.3907853789
 20
9.6609524338
 30
0.0
 10
13.3837452618
 20
9.6296523465
 30
0.0
 10
13.3763686286
 20
9.5994522723
 30
0.0
 10
13.3686762823
 20
9.5704368495
 30
0.0
 10
13.3619518986
 20
9.5470715881
 30
0.0
 10
13.35642199
 20
9.5290392747
 30
0.0
 10
13.3522531129
 20
9.5160040579
 30
0.0
 10
13.3480219349
 20
9.5033237593
 30
0.0
 10
13.343731331
 20
9.491007256
 30
0.0
 10
13.3393844011
 20
9.4790631606
 30
0.0
 10
13.3349841182
 20
9.4674998411
 30
0.0
 10
13.3305336459
 20
9.4563253721
 30
0.0
 10
13.3260360452
 20
9.4455475744
 30
0.0
 10
13.3214945214
 20
9.4351739658
 30
0.0
 10
13.3169122258
 20
9.4252117911
 30
0.0
 10
13.3122923817
 20
9.4156679923
 30
0.0
 10
13.3076382278
 20
9.4065492093
 30
0.0
 10
13.3029529847
 20
9.3978617906
 30
0.0
 10
13.2982399655
 20
9.389611744
 30
0.0
 10
13.2935023705
 20
9.3818048081
 30
0.0
 10
13.2887435609
 20
9.3744463345
 30
0.0
 10
13.2839667014
 20
9.3675414364
 30
0.0
 10
13.2791751555
 20
9.3610947952
 30
0.0
 10
13.2743720369
 20
9.3551108862
 30
0.0
 10
13.2695606435
 20
9.3495937289
 30
0.0
 10
13.2647440173
 20
9.3445471634
 30
0.0
 10
13.2599253016
 20
9.3399745945
 30
0.0
 10
13.2551074688
 20
9.3358792868
 30
0.0
 10
13.2502933376
 20
9.332264105
 30
0.0
 10
13.2454862088
 20
9.3291320453
 30
0.0
 10
13.2422163652
 20
9.3273284449
 30
0.0
 10
13.240586628
 20
9.3265148454
 30
0.0
  0
SPLINE
  5
35D
100
AcDbEntity
  8
0
100
AcDbSpline
 62
7
  6
CONTINUOUS
 70
0
 71
3
 72
39
 73
35
 74
0
 42
0.0000001
 43
0.0000001
 44
0.0000000001
 40
0.0
 40
0.0
 40
0.0
 40
0.0
 40
0.0299424718
 40
0.0599093198
 40
0.0899243266
 40
0.120010106
 40
0.1501875647
 40
0.1804754164
 40
0.2108897604
 40
0.2414437366
 40
0.2721472601
 40
0.3030068419
 40
0.3340254933
 40
0.365202712
 40
0.3965345466
 40
0.4280137318
 40
0.4596298892
 40
0.491369784
 40
0.5232176323
 40
0.5551554498
 40
0.5871634345
 40
0.6192203774
 40
0.651304093
 40
0.6833918636
 40
0.7154608911
 40
0.7474887497
 40
0.7794538335
 40
0.8113357936
 40
0.8431159524
 40
0.8747777124
 40
0.906306864
 40
0.9376920822
 40
0.9689247084
 40
1.0
 40
1.0
 40
1.0
 40
1.0
 10
8.9398485102
 20
6.1762139671
 30
0.0
 10
8.9351868138
 20
6.1717111133
 30
0.0
 10
8.9254968611
 20
6.1630688049
 30
0.0
 10
8.9099720466
 20
6.1512951901
 30
0.0
 10
8.8935367002
 20
6.1407703454
 30
0.0
 10
8.8762826554
 20
6.1315533122
 30
0.0
 10
8.8583047741
 20
6.123694445
 30
0.0
 10
8.8397022742
 20
6.1172369437
 30
0.0
 10
8.8205776667
 20
6.1122161398
 30
0.0
 10
8.8010363144
 20
6.1086594446
 30
0.0
 10
8.7811858084
 20
6.1065861779
 30
0.0
 10
8.761135382
 20
6.1060074858
 30
0.0
 10
8.7409953074
 20
6.1069262918
 30
0.0
 10
8.7208762931
 20
6.1093372947
 30
0.0
 10
8.700888881
 20
6.113227009
 30
0.0
 10
8.681142846
 20
6.1185738481
 30
0.0
 10
8.6617466014
 20
6.1253482501
 30
0.0
 10
8.6428066118
 20
6.1335128447
 30
0.0
 10
8.6244268174
 20
6.1430226612
 30
0.0
 10
8.6067080707
 20
6.1538253751
 30
0.0
 10
8.5897475904
 20
6.165861597
 30
0.0
 10
8.5736384355
 20
6.1790651963
 30
0.0
 10
8.5584690005
 20
6.1933636626
 30
0.0
 10
8.5443225357
 20
6.2086784995
 30
0.0
 10
8.5312766951
 20
6.2249256518
 30
0.0
 10
8.519403115
 20
6.2420159624
 30
0.0
 10
8.508767023
 20
6.2598556546
 30
0.0
 10
8.4994268853
 20
6.2783468452
 30
0.0
 10
8.4914340799
 20
6.2973880616
 30
0.0
 10
8.4848326361
 20
6.3168748355
 30
0.0
 10
8.4796589394
 20
6.3367001116
 30
0.0
 10
8.4759416437
 20
6.3567554109
 30
0.0
 10
8.4737013036
 20
6.3769291618
 30
0.0
 10
8.4731995203
 20
6.3904213877
 30
0.0
 10
8.4731995203
 20
6.3971478846
 30
0.0
  0
SPLINE
  5
35E
100
AcDbEntity
  8
0
100
AcDbSpline
 62
7
  6
CONTINUOUS
 70
0
 71
3
 72
45
 73
41
 74
0
 42
0.0000001
 43
0.0000001
 44
0.0000000001
 40
0.0
 40
0.0
 40
0.0
 40
0.0
 40
0.0899879192
 40
0.1342100116
 40
0.1778467995
 40
0.2208465615
 40
0.2631578977
 40
0.3047311736
 40
0.3455179488
 40
0.3854709645
 40
0.424544559
 40
0.4626946122
 40
0.4998786403
 40
0.5360561069
 40
0.5711883531
 40
0.6052388745
 40
0.6381735539
 40
0.6699606618
 40
0.700571321
 40
0.7299796661
 40
0.7581630746
 40
0.7851028077
 40
0.8107842364
 40
0.8351975083
 40
0.8583384164
 40
0.8694326524
 40
0.8802102468
 40
0.8906726342
 40
0.9008218324
 40
0.9106605649
 40
0.9201921537
 40
0.9294206569
 40
0.9383510659
 40
0.9469892222
 40
0.9553419371
 40
0.9634172434
 40
0.9712243603
 40
0.9787737971
 40
0.9860776199
 40
1.0
 40
1.0
 40
1.0
 40
1.0
 10
13.4451139836
 20
10.1978708186
 30
0.0
 10
13.4451139836
 20
10.2140315977
 30
0.0
 10
13.4448838763
 20
10.2381351271
 30
0.0
 10
13.4440939747
 20
10.2700649578
 30
0.0
 10
13.4432699328
 20
10.2935516515
 30
0.0
 10
13.4422120478
 20
10.316685451
 30
0.0
 10
13.4409216405
 20
10.3394363101
 30
0.0
 10
13.4394004252
 20
10.3617745945
 30
0.0
 10
13.4376504188
 20
10.3836712989
 30
0.0
 10
13.4356738734
 20
10.4050979709
 30
0.0
 10
13.4334734097
 20
10.4260267679
 30
0.0
 10
13.4310519131
 20
10.4464305045
 30
0.0
 10
13.4284125239
 20
10.4662826819
 30
0.0
 10
13.4255587433
 20
10.4855575269
 30
0.0
 10
13.422494286
 20
10.5042300236
 30
0.0
 10
13.4192231582
 20
10.522275949
 30
0.0
 10
13.4157496842
 20
10.5396719112
 30
0.0
 10
13.4120783685
 20
10.5563953713
 30
0.0
 10
13.4082140392
 20
10.572424691
 30
0.0
 10
13.4041617698
 20
10.587739157
 30
0.0
 10
13.3999268018
 20
10.6023190079
 30
0.0
 10
13.3955147063
 20
10.6161454729
 30
0.0
 10
13.3909311923
 20
10.6292008617
 30
0.0
 10
13.3861821671
 20
10.6414682982
 30
0.0
 10
13.3820356189
 20
10.6511532591
 30
0.0
 10
13.3786330063
 20
10.6584865637
 30
0.0
 10
13.3760794366
 20
10.6637023164
 30
0.0
 10
13.3734891741
 20
10.6687096343
 30
0.0
 10
13.3708630052
 20
10.6735069051
 30
0.0
 10
13.3682018138
 20
10.6780926101
 30
0.0
 10
13.3655064288
 20
10.6824652711
 30
0.0
 10
13.3627776663
 20
10.6866234623
 30
0.0
 10
13.3600164252
 20
10.6905658804
 30
0.0
 10
13.3572235595
 20
10.6942912631
 30
0.0
 10
13.354399891
 20
10.6977983721
 30
0.0
 10
13.3515463021
 20
10.7010861242
 30
0.0
 10
13.3486637344
 20
10.7041534056
 30
0.0
 10
13.3457527502
 20
10.7069993664
 30
0.0
 10
13.3418972851
 20
10.710441908
 30
0.0
 10
13.3388732796
 20
10.7127772808
 30
0.0
 10
13.3368115423
 20
10.7141917501
 30
0.0
  0
SPLINE
  5
35F
100
AcDbEntity
  8
0
100
AcDbSpline
 62
7
  6
CONTINUOUS
 70
0
 71
3
 72
61
 73
57
 74
0
 42
0.0000001
 43
0.0000001
 44
0.0000000001
 40
0.0
 40
0.0
 40
0.0
 40
0.0
 40
0.0095824316
 40
0.0187368604
 40
0.0274865878
 40
0.0358592316
 40
0.0438873608
 40
0.0516086784
 40
0.0590664005
 40
0.0663090527
 40
0.0733901626
 40
0.080367344
 40
0.0873010654
 40
0.094253028
 40
0.1012844153
 40
0.1084541803
 40
0.1158176625
 40
0.1234254915
 40
0.1313231085
 40
0.1395504311
 40
0.1481421271
 40
0.1571277574
 40
0.1665323626
 40
0.1763768034
 40
0.1866783196
 40
0.1974509389
 40
0.2087058493
 40
0.2204518429
 40
0.2326954707
 40
0.2454415096
 40
0.2586929429
 40
0.2724514174
 40
0.2867171368
 40
0.3014892504
 40
0.3167657561
 40
0.332543764
 40
0.34881948
 40
0.3655883158
 40
0.3828449847
 40
0.4005834608
 40
0.4187971818
 40
0.4374788916
 40
0.4566209103
 40
0.4762149216
 40
0.4962522455
 40
0.516723646
 40
0.5589292939
 40
0.6027508185
 40
0.6481006643
 40
0.6948859941
 40
0.7430092175
 40
0.7923683962
 40
0.8428578613
 40
0.8943681026
 40
0.9467874352
 40
1.0
 40
1.0
 40
1.0
 40
1.0
 10
13.4169163019
 20
10.8442931665
 30
0.0
 10
13.418685355
 20
10.8459396077
 30
0.0
 10
13.4222218465
 20
10.8490773371
 30
0.0
 10
13.4276479878
 20
10.8533969107
 30
0.0
 10
13.433068439
 20
10.8572166751
 30
0.0
 10
13.438480351
 20
10.8605338364
 30
0.0
 10
13.4438808848
 20
10.8633461549
 30
0.0
 10
13.4492672623
 20
10.8656511574
 30
0.0
 10
13.4546363887
 20
10.8674467844
 30
0.0
 10
13.4599850193
 20
10.8687308394
 30
0.0
 10
13.4653094535
 20
10.8695016646
 30
0.0
 10
13.4706056608
 20
10.8697578732
 30
0.0
 10
13.4758692809
 20
10.8694988502
 30
0.0
 10
13.4810958606
 20
10.8687247513
 30
0.0
 10
13.4862810479
 20
10.8674364579
 30
0.0
 10
13.4914208725
 20
10.8656356997
 30
0.0
 10
13.496511713
 20
10.8633244642
 30
0.0
 10
13.5015505077
 20
10.860505316
 30
0.0
 10
13.5065343671
 20
10.8571806724
 30
0.0
 10
13.5114608259
 20
10.8533533328
 30
0.0
 10
13.5163273299
 20
10.8490259077
 30
0.0
 10
13.5211315652
 20
10.8442013361
 30
0.0
 10
13.5258710434
 20
10.8388825384
 30
0.0
 10
13.5305433777
 20
10.8330727401
 30
0.0
 10
13.5351460793
 20
10.8267753315
 30
0.0
 10
13.53967665
 20
10.8199939742
 30
0.0
 10
13.544132623
 20
10.8127326162
 30
0.0
 10
13.54851143
 20
10.8049954436
 30
0.0
 10
13.552810657
 20
10.7967869865
 30
0.0
 10
13.5570277276
 20
10.7881119953
 30
0.0
 10
13.5611602933
 20
10.7789755746
 30
0.0
 10
13.5652058319
 20
10.76938305
 30
0.0
 10
13.5691620577
 20
10.7593400819
 30
0.0
 10
13.5730265541
 20
10.7488525646
 30
0.0
 10
13.576797093
 20
10.7379266964
 30
0.0
 10
13.5804713969
 20
10.7265689229
 30
0.0
 10
13.5840472971
 20
10.7147859644
 30
0.0
 10
13.5875226714
 20
10.7025847956
 30
0.0
 10
13.590895421
 20
10.689972644
 30
0.0
 10
13.5941635811
 20
10.6769569897
 30
0.0
 10
13.5973251411
 20
10.6635455512
 30
0.0
 10
13.6003782847
 20
10.6497462912
 30
0.0
 10
13.6033211151
 20
10.6355674005
 30
0.0
 10
13.6061519447
 20
10.6210173055
 30
0.0
 10
13.6088690353
 20
10.6061046366
 30
0.0
 10
13.6123736352
 20
10.5855403102
 30
0.0
 10
13.6164467362
 20
10.5589899406
 30
0.0
 10
13.6208083658
 20
10.5261431548
 30
0.0
 10
13.6246815749
 20
10.4920726157
 30
0.0
 10
13.6280570489
 20
10.4568593532
 30
0.0
 10
13.6309266284
 20
10.4205869932
 30
0.0
 10
13.6332833951
 20
10.3833417302
 30
0.0
 10
13.6351216361
 20
10.3452121618
 30
0.0
 10
13.6364369312
 20
10.3062888201
 30
0.0
 10
13.637226048
 20
10.2666644922
 30
0.0
 10
13.6373989039
 20
10.2400239293
 30
0.0
 10
13.6373989039
 20
10.2266038001
 30
0.0
  0
SPLINE
  5
360
100
AcDbEntity
  8
0
100
AcDbSpline
 62
7
  6
CONTINUOUS
 70
0
 71
3
 72
23
 73
19
 74
0
 42
0.0000001
 43
0.0000001
 44
0.0000000001
 40
0.0
 40
0.0
 40
0.0
 40
0.0
 40
0.063775992
 40
0.1273452426
 40
0.190702051
 40
0.2538559967
 40
0.3168132418
 40
0.3795820857
 40
0.4421733813
 40
0.504599339
 40
0.5668738627
 40
0.6290123824
 40
0.6910316504
 40
0.7529496423
 40
0.8147853556
 40
0.8765586046
 40
0.9382898526
 40
1.0
 40
1.0
 40
1.0
 40
1.0
 10
12.3369030544
 20
6.1291991344
 30
0.0
 10
12.3369030544
 20
6.1335345386
 30
0.0
 10
12.3371106009
 20
6.142192761
 30
0.0
 10
12.3380471665
 20
6.1551273979
 30
0.0
 10
12.3396066321
 20
6.1679595599
 30
0.0
 10
12.3417852573
 20
6.180658977
 30
0.0
 10
12.3445780979
 20
6.1931967229
 30
0.0
 10
12.3479787293
 20
6.2055438144
 30
0.0
 10
12.3519793697
 20
6.2176717691
 30
0.0
 10
12.3565708231
 20
6.2295526306
 30
0.0
 10
12.3617424772
 20
6.2411590157
 30
0.0
 10
12.3674824761
 20
6.2524641355
 30
0.0
 10
12.3737776167
 20
6.2634418978
 30
0.0
 10
12.3806133445
 20
6.2740670174
 30
0.0
 10
12.3879739146
 20
6.2843149448
 30
0.0
 10
12.3958424819
 20
6.2941620865
 30
0.0
 10
12.4042005306
 20
6.303585465
 30
0.0
 10
12.4100871591
 20
6.3095718106
 30
0.0
 10
12.413104411
 20
6.3124862526
 30
0.0
  0
SPLINE
  5
361
100
AcDbEntity
  8
0
100
AcDbSpline
 62
7
  6
CONTINUOUS
 70
0
 71
3
 72
23
 73
19
 74
0
 42
0.0000001
 43
0.0000001
 44
0.0000000001
 40
0.0
 40
0.0
 40
0.0
 40
0.0
 40
0.063775992
 40
0.1273452426
 40
0.190702051
 40
0.2538559967
 40
0.3168132418
 40
0.3795820857
 40
0.4421733813
 40
0.504599339
 40
0.5668738627
 40
0.6290123824
 40
0.6910316504
 40
0.7529496423
 40
0.8147853556
 40
0.8765586046
 40
0.9382898526
 40
1.0
 40
1.0
 40
1.0
 40
1.0
 10
8.4731995203
 20
6.3971478846
 30
0.0
 10
8.4731995203
 20
6.4014832888
 30
0.0
 10
8.4734070669
 20
6.4101415112
 30
0.0
 10
8.4743436324
 20
6.4230761481
 30
0.0
 10
8.475903098
 20
6.4359083101
 30
0.0
 10
8.4780817232
 20
6.4486077272
 30
0.0
 10
8.4808745638
 20
6.4611454731
 30
0.0
 10
8.4842751952
 20
6.4734925646
 30
0.0
 10
8.4882758357
 20
6.4856205193
 30
0.0
 10
8.4928672891
 20
6.4975013808
 30
0.0
 10
8.4980389432
 20
6.5091077659
 30
0.0
 10
8.503778942
 20
6.5204128857
 30
0.0
 10
8.5100740826
 20
6.531390648
 30
0.0
 10
8.5169098104
 20
6.5420157676
 30
0.0
 10
8.5242703805
 20
6.552263695
 30
0.0
 10
8.5321389478
 20
6.5621108367
 30
0.0
 10
8.5404969965
 20
6.5715342151
 30
0.0
 10
8.5463836251
 20
6.5775205607
 30
0.0
 10
8.5494008769
 20
6.5804350027
 30
0.0
  0
SPLINE
  5
362
100
AcDbEntity
  8
0
100
AcDbSpline
 62
7
  6
CONTINUOUS
 70
0
 71
3
 72
58
 73
54
 74
0
 42
0.0000001
 43
0.0000001
 44
0.0000000001
 40
0.0
 40
0.0
 40
0.0
 40
0.0
 40
0.0414402715
 40
0.0833367342
 40
0.1255652605
 40
0.1680001769
 40
0.2105151651
 40
0.2529835401
 40
0.2952788166
 40
0.337275168
 40
0.3788479236
 40
0.4198740573
 40
0.4602326839
 40
0.4998055622
 40
0.5384776081
 40
0.5761374243
 40
0.6126778504
 40
0.6304963547
 40
0.6479970419
 40
0.6651680091
 40
0.6819976694
 40
0.6984749153
 40
0.7145889933
 40
0.7303296919
 40
0.7456872009
 40
0.7606523228
 40
0.775216323
 40
0.7893711612
 40
0.8031093422
 40
0.8164241639
 40
0.82930958
 40
0.8417604635
 40
0.8537724942
 40
0.8653424394
 40
0.8764680839
 40
0.8871485323
 40
0.8973842036
 40
0.9071771682
 40
0.9165312336
 40
0.9254523369
 40
0.9339487549
 40
0.9420315775
 40
0.9497150732
 40
0.9570172582
 40
0.963960412
 40
0.9705716931
 40
0.9768836793
 40
0.9829348042
 40
0.9887695487
 40
0.9916222058
 40
0.9944400804
 40
0.9972302449
 40
1.0
 40
1.0
 40
1.0
 40
1.0
 10
10.2501878408
 20
12.0852918536
 30
0.0
 10
10.2348936327
 20
12.0863525106
 30
0.0
 10
10.2041196229
 20
12.0882442361
 30
0.0
 10
10.1577143132
 20
12.090389556
 30
0.0
 10
10.1109143001
 20
12.0918540664
 30
0.0
 10
10.0638690586
 20
12.0926330426
 30
0.0
 10
10.0167287241
 20
12.0927239886
 30
0.0
 10
9.9696437483
 20
12.092126608
 30
0.0
 10
9.9227644079
 20
12.0908428231
 30
0.0
 10
9.8762403167
 20
12.0888767598
 30
0.0
 10
9.8302199479
 20
12.0862347395
 30
0.0
 10
9.7848501561
 20
12.0829252576
 30
0.0
 10
9.7402757001
 20
12.0789589588
 30
0.0
 10
9.6966387922
 20
12.0743486018
 30
0.0
 10
9.6540785753
 20
12.0691090294
 30
0.0
 10
9.6127308967
 20
12.0632570909
 30
0.0
 10
9.5791193227
 20
12.0578416218
 30
0.0
 10
9.5529412115
 20
12.0532077523
 30
0.0
 10
9.53385615
 20
12.0496204975
 30
0.0
 10
9.5151704168
 20
12.0458952788
 30
0.0
 10
9.4968989009
 20
12.0420349932
 30
0.0
 10
9.4790561797
 20
12.0380428066
 30
0.0
 10
9.461656483
 20
12.0339218383
 30
0.0
 10
9.4447136808
 20
12.0296754671
 30
0.0
 10
9.428241282
 20
12.025307009
 30
0.0
 10
9.4122524064
 20
12.0208200472
 30
0.0
 10
9.3967597963
 20
12.016218083
 30
0.0
 10
9.3817757767
 20
12.0115048907
 30
0.0
 10
9.3673122804
 20
12.0066841461
 30
0.0
 10
9.3533807939
 20
12.0017597981
 30
0.0
 10
9.3399923989
 20
11.9967356843
 30
0.0
 10
9.3271577017
 20
11.9916159095
 30
0.0
 10
9.3148868928
 20
11.9864044575
 30
0.0
 10
9.3031896579
 20
11.9811055659
 30
0.0
 10
9.2920752573
 20
11.9757233438
 30
0.0
 10
9.2815524191
 20
11.9702621308
 30
0.0
 10
9.2716294376
 20
11.9647261317
 30
0.0
 10
9.2623140517
 20
11.959119745
 30
0.0
 10
9.2536135626
 20
11.9534472262
 30
0.0
 10
9.245534705
 20
11.94771297
 30
0.0
 10
9.2380837829
 20
11.9419212157
 30
0.0
 10
9.231266553
 20
11.9360762682
 30
0.0
 10
9.225088378
 20
11.9301822623
 30
0.0
 10
9.219554155
 20
11.9242433259
 30
0.0
 10
9.214668481
 20
11.9182634221
 30
0.0
 10
9.2104356714
 20
11.9122465457
 30
0.0
 10
9.2068598619
 20
11.9061965145
 30
0.0
 10
9.2039452086
 20
11.9001179778
 30
0.0
 10
9.2020562482
 20
11.8949929504
 30
0.0
 10
9.2008904726
 20
11.8908976659
 30
0.0
 10
9.200189209
 20
11.8878456519
 30
0.0
 10
9.1996548139
 20
11.8847912897
 30
0.0
 10
9.1994091569
 20
11.8827479132
 30
0.0
 10
9.1993145337
 20
11.881727613
 30
0.0
  0
SPLINE
  5
363
100
AcDbEntity
  8
0
100
AcDbSpline
 62
7
  6
CONTINUOUS
 70
0
 71
3
 72
61
 73
57
 74
0
 42
0.0000001
 43
0.0000001
 44
0.0000000001
 40
0.0
 40
0.0
 40
0.0
 40
0.0
 40
0.0027758433
 40
0.0055595941
 40
0.0083590873
 40
0.0111820092
 40
0.0140358402
 40
0.0169278032
 40
0.0228516385
 40
0.0290063602
 40
0.0354367082
 40
0.0387681006
 40
0.0421822872
 40
0.0492730731
 40
0.0567370731
 40
0.064596108
 40
0.072867737
 40
0.081565694
 40
0.09070057
 40
0.1002800962
 40
0.110309688
 40
0.1207926208
 40
0.131730418
 40
0.1431229861
 40
0.1549688512
 40
0.1672653029
 40
0.1800084954
 40
0.1931936241
 40
0.2068149163
 40
0.2208658417
 40
0.235339028
 40
0.2502264837
 40
0.2655194851
 40
0.2812087772
 40
0.2972844765
 40
0.3137362206
 40
0.3305531169
 40
0.3477238252
 40
0.3652365653
 40
0.3830791312
 40
0.4012389558
 40
0.4197030683
 40
0.4574902793
 40
0.4963311237
 40
0.5361109391
 40
0.5767111052
 40
0.6180096092
 40
0.6598815936
 40
0.7021998921
 40
0.7448355581
 40
0.7876583843
 40
0.8305374341
 40
0.8733415137
 40
0.9159398405
 40
0.9582021223
 40
1.0
 40
1.0
 40
1.0
 40
1.0
 10
9.1730741335
 20
11.9364296446
 30
0.0
 10
9.1730741356
 20
11.9374935068
 30
0.0
 10
9.1731331573
 20
11.9396247304
 30
0.0
 10
9.173398634
 20
11.9428189354
 30
0.0
 10
9.1738410232
 20
11.9460117718
 30
0.0
 10
9.1744601359
 20
11.9492023728
 30
0.0
 10
9.1752558397
 20
11.9523901409
 30
0.0
 10
9.176562147
 20
11.9566693309
 30
0.0
 10
9.1786526417
 20
11.9620232684
 30
0.0
 10
9.1818442548
 20
11.9683685849
 30
0.0
 10
9.1850482432
 20
11.9735682508
 30
0.0
 10
9.1879436278
 20
11.9777066629
 30
0.0
 10
9.1911448303
 20
11.9819357129
 30
0.0
 10
9.1955956624
 20
11.9871985603
 30
0.0
 10
9.2015561646
 20
11.9933915366
 30
0.0
 10
9.2081971136
 20
11.9995359589
 30
0.0
 10
9.2155129818
 20
12.0056270648
 30
0.0
 10
9.2234978986
 20
12.0116605469
 30
0.0
 10
9.2321455548
 20
12.0176317009
 30
0.0
 10
9.2414490087
 20
12.0235360213
 30
0.0
 10
9.2514008709
 20
12.0293687756
 30
0.0
 10
9.2619931322
 20
12.0351253982
 30
0.0
 10
9.273217292
 20
12.0408012173
 30
0.0
 10
9.2850642816
 20
12.0463916758
 30
0.0
 10
9.2975245168
 20
12.0518922287
 30
0.0
 10
9.3105878943
 20
12.0572983777
 30
0.0
 10
9.3242437905
 20
12.0626057419
 30
0.0
 10
9.3384811005
 20
12.0678099239
 30
0.0
 10
9.3532882101
 20
12.0729067245
 30
0.0
 10
9.3686530506
 20
12.0778918863
 30
0.0
 10
9.3845630663
 20
12.0827613968
 30
0.0
 10
9.4010052666
 20
12.0875111764
 30
0.0
 10
9.4179662025
 20
12.0921373972
 30
0.0
 10
9.4354320068
 20
12.0966361917
 30
0.0
 10
9.4533883857
 20
12.1010039157
 30
0.0
 10
9.4718206445
 20
12.1052369401
 30
0.0
 10
9.4907136929
 20
12.109331809
 30
0.0
 10
9.51005206
 20
12.1132851487
 30
0.0
 10
9.5298199101
 20
12.1170937031
 30
0.0
 10
9.550001046
 20
12.1207543592
 30
0.0
 10
9.5705789537
 20
12.1242640935
 30
0.0
 10
9.5987392384
 20
12.1287733061
 30
0.0
 10
9.6348095629
 20
12.1340011971
 30
0.0
 10
9.6790755812
 20
12.1395825816
 30
0.0
 10
9.7245046805
 20
12.1445005634
 30
0.0
 10
9.7709479678
 20
12.1487389147
 30
0.0
 10
9.8182533683
 20
12.1522836254
 30
0.0
 10
9.8662659096
 20
12.1551229898
 30
0.0
 10
9.9148282973
 20
12.1572476318
 30
0.0
 10
9.9637814178
 20
12.1586505365
 30
0.0
 10
10.0129648715
 20
12.159327074
 30
0.0
 10
10.0622174915
 20
12.159275008
 30
0.0
 10
10.1113779028
 20
12.1584945175
 30
0.0
 10
10.1602849967
 20
12.1569881639
 30
0.0
 10
10.2087784463
 20
12.154760948
 30
0.0
 10
10.2409361722
 20
12.1527875357
 30
0.0
 10
10.2569171304
 20
12.1516792525
 30
0.0
  0
SPLINE
  5
364
100
AcDbEntity
  8
0
100
AcDbSpline
 62
7
  6
CONTINUOUS
 70
0
 71
3
 72
55
 73
51
 74
0
 42
0.0000001
 43
0.0000001
 44
0.0000000001
 40
0.0
 40
0.0
 40
0.0
 40
0.0
 40
0.0404000695
 40
0.0812324805
 40
0.1223851511
 40
0.1637450173
 40
0.2051981811
 40
0.2466304537
 40
0.2879277054
 40
0.3289762917
 40
0.3696634525
 40
0.4098777235
 40
0.449509347
 40
0.4884506895
 40
0.5265966653
 40
0.5638451714
 40
0.6000975371
 40
0.6352589949
 40
0.6524024329
 40
0.6692396463
 40
0.6857601119
 40
0.7019536632
 40
0.7178104933
 40
0.7333211878
 40
0.748476745
 40
0.7632685977
 40
0.7776886544
 40
0.7917293095
 40
0.8053835093
 40
0.8186447521
 40
0.8315071823
 40
0.8439655837
 40
0.8560155069
 40
0.8676532613
 40
0.8788760822
 40
0.8896821293
 40
0.9000707037
 40
0.9100422668
 40
0.9195987184
 40
0.9287434558
 40
0.9374817317
 40
0.9458207769
 40
0.9537702576
 40
0.9613424892
 40
0.9685530006
 40
0.9754208446
 40
0.9819692325
 40
0.9882258689
 40
0.9942234935
 40
1.0
 40
1.0
 40
1.0
 40
1.0
 10
10.2447526453
 20
12.0449081708
 30
0.0
 10
10.230419052
 20
12.0459022089
 30
0.0
 10
10.2015829683
 20
12.0476835622
 30
0.0
 10
10.1581042584
 20
12.0497316016
 30
0.0
 10
10.1142593908
 20
12.051166228
 30
0.0
 10
10.0701779113
 20
12.0519831764
 30
0.0
 10
10.0259898645
 20
12.0521800184
 30
0.0
 10
9.9818256814
 20
12.0517561706
 30
0.0
 10
9.937815699
 20
12.0507128914
 30
0.0
 10
9.8940898039
 20
12.0490532808
 30
0.0
 10
9.8507770369
 20
12.0467822697
 30
0.0
 10
9.808005212
 20
12.0439066068
 30
0.0
 10
9.7659005365
 20
12.0404348392
 30
0.0
 10
9.7245872304
 20
12.0363772883
 30
0.0
 10
9.6841871714
 20
12.0317460187
 30
0.0
 10
9.6448194719
 20
12.0265548124
 30
0.0
 10
9.6066003264
 20
12.0208190968
 30
0.0
 10
9.5755460446
 20
12.0155565489
 30
0.0
 10
9.5513669315
 20
12.0110783919
 30
0.0
 10
9.5337417228
 20
12.0076229153
 30
0.0
 10
9.5164858453
 20
12.0040448911
 30
0.0
 10
9.4996120126
 20
12.0003469531
 30
0.0
 10
9.4831326729
 20
11.9965318418
 30
0.0
 10
9.4670599774
 20
11.9926023772
 30
0.0
 10
9.4514057744
 20
11.9885614734
 30
0.0
 10
9.4361816026
 20
11.9844121114
 30
0.0
 10
9.4213986772
 20
11.9801573747
 30
0.0
 10
9.4070678881
 20
11.975800394
 30
0.0
 10
9.393199782
 20
11.9713444132
 30
0.0
 10
9.3798045658
 20
11.9667927012
 30
0.0
 10
9.3668920833
 20
11.9621486518
 30
0.0
 10
9.3544718263
 20
11.9574156592
 30
0.0
 10
9.3425529015
 20
11.9525972546
 30
0.0
 10
9.3311440549
 20
11.9476969419
 30
0.0
 10
9.3202536233
 20
11.942718374
 30
0.0
 10
9.309889578
 20
11.9376651452
 30
0.0
 10
9.3000594542
 20
11.9325410087
 30
0.0
 10
9.2907704233
 20
11.9273496223
 30
0.0
 10
9.2820291911
 20
11.9220948098
 30
0.0
 10
9.2738421111
 20
11.9167802551
 30
0.0
 10
9.2662150424
 20
11.9114098075
 30
0.0
 10
9.2591535221
 20
11.9059871241
 30
0.0
 10
9.2526625722
 20
11.9005160177
 30
0.0
 10
9.2467469575
 20
11.8950000509
 30
0.0
 10
9.2414109353
 20
11.8894429346
 30
0.0
 10
9.2366586243
 20
11.8838480752
 30
0.0
 10
9.23249371
 20
11.8782191176
 30
0.0
 10
9.2289198497
 20
11.8725592214
 30
0.0
 10
9.2259406167
 20
11.8668727819
 30
0.0
 10
9.2243262936
 20
11.8630016603
 30
0.0
 10
9.2236267347
 20
11.8610700596
 30
0.0
  0
SPLINE
  5
365
100
AcDbEntity
  8
0
100
AcDbSpline
 62
7
  6
CONTINUOUS
 70
0
 71
3
 72
23
 73
19
 74
0
 42
0.0000001
 43
0.0000001
 44
0.0000000001
 40
0.0
 40
0.0
 40
0.0
 40
0.0
 40
0.0635608666
 40
0.1277998777
 40
0.1925421144
 40
0.2576112089
 40
0.3228294401
 40
0.388018646
 40
0.4530007355
 40
0.517598358
 40
0.5816355185
 40
0.6449382144
 40
0.7073350709
 40
0.7686579867
 40
0.8287427892
 40
0.8874299067
 40
0.9445650622
 40
1.0
 40
1.0
 40
1.0
 40
1.0
 10
10.2447526453
 20
11.778672982
 30
0.0
 10
10.230478753
 20
11.7796628798
 30
0.0
 10
10.2017633017
 20
11.7814376848
 30
0.0
 10
10.1584669472
 20
11.7834810619
 30
0.0
 10
10.1148063949
 20
11.7849161245
 30
0.0
 10
10.0709095873
 20
11.7857386435
 30
0.0
 10
10.0269049491
 20
11.7859461929
 30
0.0
 10
9.9829212998
 20
11.7855381635
 30
0.0
 10
9.9390873708
 20
11.7845157562
 30
0.0
 10
9.8955314612
 20
11.7828819839
 30
0.0
 10
9.8523810487
 20
11.7806416603
 30
0.0
 10
9.8097624171
 20
11.7778013876
 30
0.0
 10
9.7678002841
 20
11.7743695375
 30
0.0
 10
9.7266174264
 20
11.7703562268
 30
0.0
 10
9.6863343414
 20
11.7657732932
 30
0.0
 10
9.6470687947
 20
11.7606342459
 30
0.0
 10
9.6089358091
 20
11.7549542851
 30
0.0
 10
9.5839442676
 20
11.750751125
 30
0.0
 10
9.5716598228
 20
11.7485564506
 30
0.0
  0
SPLINE
  5
366
100
AcDbEntity
  8
0
100
AcDbSpline
 62
7
  6
CONTINUOUS
 70
0
 71
3
 72
54
 73
50
 74
0
 42
0.0000001
 43
0.0000001
 44
0.0000000001
 40
0.0
 40
0.0
 40
0.0
 40
0.0
 40
0.0398033734
 40
0.0800254056
 40
0.120560708
 40
0.1613030477
 40
0.2021453548
 40
0.2429802772
 40
0.2837004667
 40
0.3241989715
 40
0.3643695906
 40
0.404107244
 40
0.4433083399
 40
0.4818711486
 40
0.5196961804
 40
0.5566865734
 40
0.5927484924
 40
0.6277915442
 40
0.661729217
 40
0.6782579103
 40
0.6944798197
 40
0.7103854633
 40
0.7259656533
 40
0.7412116136
 40
0.7561148929
 40
0.7706675075
 40
0.7848618374
 40
0.7986907952
 40
0.8121477074
 40
0.8252265103
 40
0.8379216217
 40
0.8502281642
 40
0.8621418335
 40
0.8736591506
 40
0.8847773371
 40
0.8954945982
 40
0.9058100181
 40
0.915723879
 40
0.9252375938
 40
0.9343540703
 40
0.9430777036
 40
0.951414797
 40
0.9593736415
 40
0.9669650058
 40
0.974202323
 40
0.9811022498
 40
0.9876849501
 40
0.993974666
 40
1.0
 40
1.0
 40
1.0
 40
1.0
 10
10.2569171304
 20
12.0917918487
 30
0.0
 10
10.2421087753
 20
12.0928188116
 30
0.0
 10
10.2123206712
 20
12.0946642161
 30
0.0
 10
10.1674092658
 20
12.0968025129
 30
0.0
 10
10.1221222272
 20
12.098321831
 30
0.0
 10
10.076587255
 20
12.0992178636
 30
0.0
 10
10.0309325327
 20
12.0994880682
 30
0.0
 10
9.9852866637
 20
12.0991316815
 30
0.0
 10
9.9397781986
 20
12.0981497121
 30
0.0
 10
9.894535308
 20
12.0965449439
 30
0.0
 10
9.8496854069
 20
12.0943219253
 30
0.0
 10
9.8053547981
 20
12.0914869583
 30
0.0
 10
9.7616683114
 20
12.088048081
 30
0.0
 10
9.7187489512
 20
12.0840150456
 30
0.0
 10
9.6767175409
 20
12.0793992924
 30
0.0
 10
9.635692395
 20
12.0742139168
 30
0.0
 10
9.5957889183
 20
12.0684736414
 30
0.0
 10
9.5571194926
 20
12.0621947478
 30
0.0
 10
9.5257443448
 20
12.0564793608
 30
0.0
 10
9.5013488088
 20
12.0516418623
 30
0.0
 10
9.4835883016
 20
12.0479223642
 30
0.0
 10
9.4662155532
 20
12.0440823203
 30
0.0
 10
9.4492427763
 20
12.0401243741
 30
0.0
 10
9.4326819159
 20
12.0360513796
 30
0.0
 10
9.4165446251
 20
12.0318661526
 30
0.0
 10
9.4008422502
 20
12.0275717124
 30
0.0
 10
9.3855858372
 20
12.0231710225
 30
0.0
 10
9.3707861027
 20
12.0186672627
 30
0.0
 10
9.3564534532
 20
12.0140635333
 30
0.0
 10
9.3425979424
 20
12.0093631653
 30
0.0
 10
9.329229306
 20
12.0045693855
 30
0.0
 10
9.316356903
 20
11.999685664
 30
0.0
 10
9.3039897691
 20
11.9947153424
 30
0.0
 10
9.2921365367
 20
11.9896620157
 30
0.0
 10
9.2808055136
 20
11.9845291261
 30
0.0
 10
9.2700045756
 20
11.9793203755
 30
0.0
 10
9.2597412763
 20
11.974039288
 30
0.0
 10
9.2500227072
 20
11.9686896476
 30
0.0
 10
9.2408556452
 20
11.9632750351
 30
0.0
 10
9.2322463752
 20
11.9577992819
 30
0.0
 10
9.2242008842
 20
11.9522659887
 30
0.0
 10
9.2167246428
 20
11.9466789854
 30
0.0
 10
9.2098228563
 20
11.9410418409
 30
0.0
 10
9.2035002087
 20
11.9353583225
 30
0.0
 10
9.1977611752
 20
11.9296318981
 30
0.0
 10
9.192609769
 20
11.9238662546
 30
0.0
 10
9.188049808
 20
11.9180645971
 30
0.0
 10
9.1840850809
 20
11.9122310513
 30
0.0
 10
9.1817954095
 20
11.9082432613
 30
0.0
 10
9.1807591891
 20
11.9062494168
 30
0.0
  0
SPLINE
  5
367
100
AcDbEntity
  8
0
100
AcDbSpline
 62
7
  6
CONTINUOUS
 70
0
 71
3
 72
49
 73
45
 74
0
 42
0.0000001
 43
0.0000001
 44
0.0000000001
 40
0.0
 40
0.0
 40
0.0
 40
0.0
 40
0.0452815664
 40
0.0900934916
 40
0.1343764452
 40
0.1780778156
 40
0.2211437761
 40
0.2635215776
 40
0.3051600111
 40
0.3460090596
 40
0.3860201398
 40
0.4251461855
 40
0.4633418347
 40
0.5005635451
 40
0.5367696648
 40
0.5719206903
 40
0.6059794313
 40
0.6389111097
 40
0.6706836833
 40
0.7012681201
 40
0.7306385835
 40
0.7587728829
 40
0.7856529568
 40
0.7986186113
 40
0.8112660877
 40
0.8235944712
 40
0.835603312
 40
0.8472925624
 40
0.8586625372
 40
0.8697141245
 40
0.8804487193
 40
0.8908682143
 40
0.9009752246
 40
0.910773026
 40
0.9202655834
 40
0.9294577897
 40
0.9383554191
 40
0.9469651977
 40
0.9552950545
 40
0.9633540956
 40
0.9711527135
 40
0.9787028343
 40
0.9860179023
 40
1.0
 40
1.0
 40
1.0
 40
1.0
 10
10.2569171304
 20
12.0917918487
 30
0.0
 10
10.267045506
 20
12.0910894434
 30
0.0
 10
10.2871903218
 20
12.0895902996
 30
0.0
 10
10.3172119714
 20
12.0870441283
 30
0.0
 10
10.3468524072
 20
12.0842146585
 30
0.0
 10
10.3760712091
 20
12.081105799
 30
0.0
 10
10.4048293816
 20
12.0777217233
 30
0.0
 10
10.4330881183
 20
12.0740670112
 30
0.0
 10
10.4608093366
 20
12.0701465934
 30
0.0
 10
10.4879557358
 20
12.065965781
 30
0.0
 10
10.5144907647
 20
12.0615302413
 30
0.0
 10
10.5403786984
 20
12.0568459503
 30
0.0
 10
10.565584701
 20
12.0519192552
 30
0.0
 10
10.590074863
 20
12.0467568399
 30
0.0
 10
10.6138162388
 20
12.0413656648
 30
0.0
 10
10.6367769111
 20
12.0357530299
 30
0.0
 10
10.6589260342
 20
12.0299265528
 30
0.0
 10
10.6802338582
 20
12.0238940931
 30
0.0
 10
10.7006717983
 20
12.0176638063
 30
0.0
 10
10.7202124636
 20
12.0112441431
 30
0.0
 10
10.7388297416
 20
12.0046437479
 30
0.0
 10
10.7564986115
 20
11.9978715182
 30
0.0
 10
10.7705770043
 20
11.9920243346
 30
0.0
 10
10.7813398139
 20
11.987260274
 30
0.0
 10
10.7890631189
 20
11.9836929568
 30
0.0
 10
10.7965321832
 20
11.98008957
 30
0.0
 10
10.8037445245
 20
11.9764513243
 30
0.0
 10
10.8106977378
 20
11.9727794666
 30
0.0
 10
10.817389473
 20
11.9690751751
 30
0.0
 10
10.8238175076
 20
11.9653397148
 30
0.0
 10
10.8299797082
 20
11.9615743494
 30
0.0
 10
10.8358739881
 20
11.9577802778
 30
0.0
 10
10.8414984029
 20
11.9539587897
 30
0.0
 10
10.8468510923
 20
11.9501111607
 30
0.0
 10
10.8519302361
 20
11.9462385994
 30
0.0
 10
10.8567341711
 20
11.9423424089
 30
0.0
 10
10.8612613082
 20
11.9384238641
 30
0.0
 10
10.8655100893
 20
11.9344841698
 30
0.0
 10
10.8694791212
 20
11.930524638
 30
0.0
 10
10.8731670907
 20
11.9265464989
 30
0.0
 10
10.8765726151
 20
11.9225510581
 30
0.0
 10
10.8796947847
 20
11.9185392389
 30
0.0
 10
10.8834213808
 20
11.9132511392
 30
0.0
 10
10.885879304
 20
11.9091432243
 30
0.0
 10
10.887329467
 20
11.9063638312
 30
0.0
  0
SPLINE
  5
368
100
AcDbEntity
  8
0
100
AcDbSpline
 62
7
  6
CONTINUOUS
 70
0
 71
3
 72
54
 73
50
 74
0
 42
0.0000001
 43
0.0000001
 44
0.0000000001
 40
0.0
 40
0.0
 40
0.0
 40
0.0
 40
0.0476755643
 40
0.0948035029
 40
0.1413105796
 40
0.1871303663
 40
0.2321952114
 40
0.2764395567
 40
0.3197996841
 40
0.3622136003
 40
0.4036214605
 40
0.443965691
 40
0.4831911402
 40
0.5212453112
 40
0.5580786713
 40
0.5936448614
 40
0.6279009647
 40
0.660807902
 40
0.6923308943
 40
0.7075641742
 40
0.7224406167
 40
0.7369572781
 40
0.7511116813
 40
0.7649016442
 40
0.7783254858
 40
0.7913820263
 40
0.8040704929
 40
0.8163907811
 40
0.8283433533
 40
0.8399292739
 40
0.8511504567
 40
0.8620095274
 40
0.8725100023
 40
0.8826564649
 40
0.8924544799
 40
0.9019108907
 40
0.9110339098
 40
0.9198331545
 40
0.9283200011
 40
0.9365076151
 40
0.9444111214
 40
0.9520479116
 40
0.9594376359
 40
0.9666024071
 40
0.9735669077
 40
0.9803582746
 40
0.9870060946
 40
0.9935421425
 40
1.0
 40
1.0
 40
1.0
 40
1.0
 10
10.2501878408
 20
12.0852918536
 30
0.0
 10
10.2609247793
 20
12.0845472444
 30
0.0
 10
10.2822673685
 20
12.082948905
 30
0.0
 10
10.3140507257
 20
12.0802066878
 30
0.0
 10
10.3453832545
 20
12.0771367687
 30
0.0
 10
10.3762140058
 20
12.0737442277
 30
0.0
 10
10.4064936745
 20
12.0700344768
 30
0.0
 10
10.4361733932
 20
12.0660135501
 30
0.0
 10
10.4652053785
 20
12.0616879628
 30
0.0
 10
10.4935428978
 20
12.0570646939
 30
0.0
 10
10.5211403333
 20
12.0521512363
 30
0.0
 10
10.5479532846
 20
12.046955558
 30
0.0
 10
10.5739386167
 20
12.0414860701
 30
0.0
 10
10.5990545385
 20
12.0357516134
 30
0.0
 10
10.6232606969
 20
12.029761492
 30
0.0
 10
10.6465182144
 20
12.0235254146
 30
0.0
 10
10.6687898081
 20
12.0170534683
 30
0.0
 10
10.6900396483
 20
12.010356117
 30
0.0
 10
10.7070566121
 20
12.0045317921
 30
0.0
 10
10.7201267103
 20
11.9997600163
 30
0.0
 10
10.7295410327
 20
11.9961724277
 30
0.0
 10
10.7386752403
 20
11.9925366933
 30
0.0
 10
10.7475256942
 20
11.9888543119
 30
0.0
 10
10.756088827
 20
11.9851267241
 30
0.0
 10
10.7643612072
 20
11.9813554325
 30
0.0
 10
10.7723395359
 20
11.9775419914
 30
0.0
 10
10.7800205954
 20
11.9736878684
 30
0.0
 10
10.7874013298
 20
11.9697946462
 30
0.0
 10
10.7944787975
 20
11.9658638909
 30
0.0
 10
10.8012501454
 20
11.9618971109
 30
0.0
 10
10.8077127066
 20
11.9578959453
 30
0.0
 10
10.8138638976
 20
11.9538619509
 30
0.0
 10
10.819701252
 20
11.9497966855
 30
0.0
 10
10.8252224914
 20
11.9457018057
 30
0.0
 10
10.8304253873
 20
11.9415788462
 30
0.0
 10
10.8353078742
 20
11.9374294076
 30
0.0
 10
10.8398680446
 20
11.9332551209
 30
0.0
 10
10.8441040103
 20
11.9290574937
 30
0.0
 10
10.8480140993
 20
11.9248381479
 30
0.0
 10
10.8515967215
 20
11.9205986558
 30
0.0
 10
10.8548503005
 20
11.9163405186
 30
0.0
 10
10.8577735027
 20
11.9120653657
 30
0.0
 10
10.8603649659
 20
11.9077747369
 30
0.0
 10
10.8626233924
 20
11.9034702143
 30
0.0
 10
10.864547708
 20
11.899153489
 30
0.0
 10
10.866136733
 20
11.8948262565
 30
0.0
 10
10.8673895142
 20
11.8904902492
 30
0.0
 10
10.8683052548
 20
11.8861477432
 30
0.0
 10
10.8686922384
 20
11.8832366031
 30
0.0
 10
10.8688283302
 20
11.8817851121
 30
0.0
  0
SPLINE
  5
369
100
AcDbEntity
  8
0
100
AcDbSpline
 62
7
  6
CONTINUOUS
 70
0
 71
3
 72
50
 73
46
 74
0
 42
0.0000001
 43
0.0000001
 44
0.0000000001
 40
0.0
 40
0.0
 40
0.0
 40
0.0
 40
0.0461558267
 40
0.0918143428
 40
0.1369111716
 40
0.1813889563
 40
0.2251890572
 40
0.2682542074
 40
0.3105288172
 40
0.3519586522
 40
0.3924911667
 40
0.4320755631
 40
0.4706629685
 40
0.5082066558
 40
0.5446621138
 40
0.5799872674
 40
0.6141427892
 40
0.6470922259
 40
0.678802274
 40
0.709243238
 40
0.7383893172
 40
0.7662190323
 40
0.7927159385
 40
0.8054614736
 40
0.8178702801
 40
0.8299420431
 40
0.8416769836
 40
0.8530757429
 40
0.8641395922
 40
0.8748704598
 40
0.8852708599
 40
0.895344137
 40
0.9050944757
 40
0.9145268872
 40
0.9236474839
 40
0.9324634853
 40
0.94098327
 40
0.9492166701
 40
0.9571749795
 40
0.9648710636
 40
0.9723196366
 40
0.9795372547
 40
0.9865424271
 40
0.9933557882
 40
1.0
 40
1.0
 40
1.0
 40
1.0
 10
10.2447526453
 20
12.0449081708
 30
0.0
 10
10.2546545389
 20
12.0442214722
 30
0.0
 10
10.2743446809
 20
12.0427527649
 30
0.0
 10
10.303680925
 20
12.0402489808
 30
0.0
 10
10.3326288784
 20
12.0374589719
 30
0.0
 10
10.3611463437
 20
12.0343868637
 30
0.0
 10
10.389192592
 20
12.0310370598
 30
0.0
 10
10.4167271387
 20
12.0274144182
 30
0.0
 10
10.4437103016
 20
12.0235241733
 30
0.0
 10
10.470103241
 20
12.0193719505
 30
0.0
 10
10.4958679495
 20
12.0149637789
 30
0.0
 10
10.5209673289
 20
12.010306025
 30
0.0
 10
10.545365252
 20
12.005405422
 30
0.0
 10
10.5690266196
 20
12.0002690897
 30
0.0
 10
10.5919173967
 20
11.9949044574
 30
0.0
 10
10.6140046701
 20
11.989319272
 30
0.0
 10
10.6352567178
 20
11.9835216466
 30
0.0
 10
10.655643034
 20
11.9775199742
 30
0.0
 10
10.6751343819
 20
11.9713229075
 30
0.0
 10
10.6937028492
 20
11.9649394297
 30
0.0
 10
10.7113219575
 20
11.9583787573
 30
0.0
 10
10.7279664014
 20
11.9516503296
 30
0.0
 10
10.7411704984
 20
11.9458388097
 30
0.0
 10
10.7512193033
 20
11.941105114
 30
0.0
 10
10.7583998563
 20
11.9375649324
 30
0.0
 10
10.7653195273
 20
11.9339901294
 30
0.0
 10
10.7719758729
 20
11.9303820048
 30
0.0
 10
10.7783664904
 20
11.9267418102
 30
0.0
 10
10.7844890985
 20
11.9230708448
 30
0.0
 10
10.7903415368
 20
11.9193704532
 30
0.0
 10
10.7959216903
 20
11.9156418946
 30
0.0
 10
10.80122758
 20
11.9118864992
 30
0.0
 10
10.8062573429
 20
11.9081056181
 30
0.0
 10
10.8110091487
 20
11.9043005128
 30
0.0
 10
10.8154813241
 20
11.9004725297
 30
0.0
 10
10.8196722971
 20
11.896623009
 30
0.0
 10
10.8235805115
 20
11.8927532034
 30
0.0
 10
10.827204589
 20
11.8888644604
 30
0.0
 10
10.8305432236
 20
11.8849580956
 30
0.0
 10
10.8335951029
 20
11.8810353543
 30
0.0
 10
10.8363591133
 20
11.8770975797
 30
0.0
 10
10.8388341596
 20
11.873146097
 30
0.0
 10
10.8410191555
 20
11.8691821183
 30
0.0
 10
10.8429131251
 20
11.8652072807
 30
0.0
 10
10.8439936137
 20
11.8625200105
 30
0.0
 10
10.8444825201
 20
11.8611774411
 30
0.0
  0
SPLINE
  5
36A
100
AcDbEntity
  8
0
100
AcDbSpline
 62
7
  6
CONTINUOUS
 70
0
 71
3
 72
39
 73
35
 74
0
 42
0.0000001
 43
0.0000001
 44
0.0000000001
 40
0.0
 40
0.0
 40
0.0
 40
0.0
 40
0.0299424718
 40
0.0599093198
 40
0.0899243266
 40
0.120010106
 40
0.1501875647
 40
0.1804754164
 40
0.2108897604
 40
0.2414437366
 40
0.2721472601
 40
0.3030068419
 40
0.3340254933
 40
0.365202712
 40
0.3965345466
 40
0.4280137318
 40
0.4596298892
 40
0.491369784
 40
0.5232176323
 40
0.5551554498
 40
0.5871634345
 40
0.6192203774
 40
0.651304093
 40
0.6833918636
 40
0.7154608911
 40
0.7474887497
 40
0.7794538335
 40
0.8113357936
 40
0.8431159524
 40
0.8747777124
 40
0.906306864
 40
0.9376920822
 40
0.9689247084
 40
1.0
 40
1.0
 40
1.0
 40
1.0
 10
12.8035520443
 20
5.9082652169
 30
0.0
 10
12.7988903478
 20
5.9037623631
 30
0.0
 10
12.7892003952
 20
5.8951200547
 30
0.0
 10
12.7736755807
 20
5.88334644
 30
0.0
 10
12.7572402343
 20
5.8728215953
 30
0.0
 10
12.7399861895
 20
5.863604562
 30
0.0
 10
12.7220083082
 20
5.8557456948
 30
0.0
 10
12.7034058083
 20
5.8492881935
 30
0.0
 10
12.6842812008
 20
5.8442673896
 30
0.0
 10
12.6647398485
 20
5.8407106945
 30
0.0
 10
12.6448893425
 20
5.8386374277
 30
0.0
 10
12.6248389161
 20
5.8380587356
 30
0.0
 10
12.6046988415
 20
5.8389775416
 30
0.0
 10
12.5845798272
 20
5.8413885446
 30
0.0
 10
12.5645924151
 20
5.8452782588
 30
0.0
 10
12.5448463801
 20
5.850625098
 30
0.0
 10
12.5254501354
 20
5.8573995
 30
0.0
 10
12.5065101459
 20
5.8655640946
 30
0.0
 10
12.4881303515
 20
5.875073911
 30
0.0
 10
12.4704116047
 20
5.8858766249
 30
0.0
 10
12.4534511245
 20
5.8979128468
 30
0.0
 10
12.4373419696
 20
5.9111164462
 30
0.0
 10
12.4221725346
 20
5.9254149124
 30
0.0
 10
12.4080260698
 20
5.9407297493
 30
0.0
 10
12.3949802292
 20
5.9569769017
 30
0.0
 10
12.3831066491
 20
5.9740672122
 30
0.0
 10
12.3724705571
 20
5.9919069045
 30
0.0
 10
12.3631304194
 20
6.0103980951
 30
0.0
 10
12.355137614
 20
6.0294393114
 30
0.0
 10
12.3485361702
 20
6.0489260854
 30
0.0
 10
12.3433624735
 20
6.0687513614
 30
0.0
 10
12.3396451778
 20
6.0888066608
 30
0.0
 10
12.3374048377
 20
6.1089804116
 30
0.0
 10
12.3369030544
 20
6.1224726376
 30
0.0
 10
12.3369030544
 20
6.1291991344
 30
0.0
  0
SPLINE
  5
36B
100
AcDbEntity
  8
0
100
AcDbSpline
 62
4
  6
CONTINUOUS
 70
0
 71
3
 72
403
 73
399
 74
0
 42
0.0000001
 43
0.0000001
 44
0.0000000001
 40
0.0
 40
0.0
 40
0.0
 40
0.0
 40
0.015625
 40
0.0234375
 40
0.03125
 40
0.0390625
 40
0.04296875
 40
0.046875
 40
0.05078125
 40
0.0546875
 40
0.056640625
 40
0.05859375
 40
0.0595703125
 40
0.060546875
 40
0.0615234375
 40
0.0620117188
 40
0.0622558594
 40
0.0625
 40
0.0627441406
 40
0.0629882812
 40
0.0634765625
 40
0.064453125
 40
0.0654296875
 40
0.06640625
 40
0.068359375
 40
0.0703125
 40
0.07421875
 40
0.078125
 40
0.08203125
 40
0.0859375
 40
0.09375
 40
0.1015625
 40
0.10546875
 40
0.109375
 40
0.11328125
 40
0.1171875
 40
0.119140625
 40
0.12109375
 40
0.1220703125
 40
0.123046875
 40
0.1240234375
 40
0.1245117188
 40
0.1247558594
 40
0.125
 40
0.1252441406
 40
0.1254882812
 40
0.1259765625
 40
0.126953125
 40
0.1279296875
 40
0.12890625
 40
0.130859375
 40
0.1328125
 40
0.13671875
 40
0.140625
 40
0.14453125
 40
0.1484375
 40
0.15625
 40
0.1640625
 40
0.16796875
 40
0.171875
 40
0.17578125
 40
0.1796875
 40
0.181640625
 40
0.18359375
 40
0.1845703125
 40
0.185546875
 40
0.1865234375
 40
0.1870117188
 40
0.1872558594
 40
0.1875
 40
0.1877441406
 40
0.1879882812
 40
0.1884765625
 40
0.189453125
 40
0.1904296875
 40
0.19140625
 40
0.193359375
 40
0.1953125
 40
0.19921875
 40
0.203125
 40
0.20703125
 40
0.2109375
 40
0.21875
 40
0.2265625
 40
0.23046875
 40
0.234375
 40
0.23828125
 40
0.2421875
 40
0.244140625
 40
0.24609375
 40
0.2470703125
 40
0.248046875
 40
0.2490234375
 40
0.2495117188
 40
0.2497558594
 40
0.25
 40
0.2502441406
 40
0.2504882812
 40
0.2509765625
 40
0.251953125
 40
0.2529296875
 40
0.25390625
 40
0.255859375
 40
0.2578125
 40
0.26171875
 40
0.265625
 40
0.26953125
 40
0.2734375
 40
0.28125
 40
0.2890625
 40
0.29296875
 40
0.296875
 40
0.30078125
 40
0.3046875
 40
0.306640625
 40
0.30859375
 40
0.3095703125
 40
0.310546875
 40
0.3115234375
 40
0.3120117188
 40
0.3122558594
 40
0.3125
 40
0.3127441406
 40
0.3129882812
 40
0.3134765625
 40
0.314453125
 40
0.3154296875
 40
0.31640625
 40
0.318359375
 40
0.3203125
 40
0.32421875
 40
0.328125
 40
0.33203125
 40
0.3359375
 40
0.34375
 40
0.3515625
 40
0.35546875
 40
0.359375
 40
0.36328125
 40
0.3671875
 40
0.369140625
 40
0.37109375
 40
0.3720703125
 40
0.373046875
 40
0.3740234375
 40
0.3745117188
 40
0.3747558594
 40
0.375
 40
0.3752441406
 40
0.3754882812
 40
0.3759765625
 40
0.376953125
 40
0.3779296875
 40
0.37890625
 40
0.380859375
 40
0.3828125
 40
0.38671875
 40
0.390625
 40
0.39453125
 40
0.3984375
 40
0.40625
 40
0.4140625
 40
0.41796875
 40
0.421875
 40
0.42578125
 40
0.4296875
 40
0.431640625
 40
0.43359375
 40
0.4345703125
 40
0.435546875
 40
0.4365234375
 40
0.4370117188
 40
0.4372558594
 40
0.4375
 40
0.4377441406
 40
0.4379882812
 40
0.4384765625
 40
0.439453125
 40
0.4404296875
 40
0.44140625
 40
0.443359375
 40
0.4453125
 40
0.44921875
 40
0.453125
 40
0.45703125
 40
0.4609375
 40
0.46875
 40
0.4765625
 40
0.48046875
 40
0.484375
 40
0.48828125
 40
0.4921875
 40
0.494140625
 40
0.49609375
 40
0.4970703125
 40
0.498046875
 40
0.4990234375
 40
0.4995117188
 40
0.4997558594
 40
0.5
 40
0.5002441406
 40
0.5004882812
 40
0.5009765625
 40
0.501953125
 40
0.5029296875
 40
0.50390625
 40
0.505859375
 40
0.5078125
 40
0.51171875
 40
0.515625
 40
0.51953125
 40
0.5234375
 40
0.53125
 40
0.5390625
 40
0.54296875
 40
0.546875
 40
0.55078125
 40
0.5546875
 40
0.556640625
 40
0.55859375
 40
0.5595703125
 40
0.560546875
 40
0.5615234375
 40
0.5620117188
 40
0.5622558594
 40
0.5625
 40
0.5627441406
 40
0.5629882812
 40
0.5634765625
 40
0.564453125
 40
0.5654296875
 40
0.56640625
 40
0.568359375
 40
0.5703125
 40
0.57421875
 40
0.578125
 40
0.58203125
 40
0.5859375
 40
0.59375
 40
0.6015625
 40
0.60546875
 40
0.609375
 40
0.61328125
 40
0.6171875
 40
0.619140625
 40
0.62109375
 40
0.6220703125
 40
0.623046875
 40
0.6240234375
 40
0.6245117188
 40
0.6247558594
 40
0.625
 40
0.6252441406
 40
0.6254882812
 40
0.6259765625
 40
0.626953125
 40
0.6279296875
 40
0.62890625
 40
0.630859375
 40
0.6328125
 40
0.63671875
 40
0.640625
 40
0.64453125
 40
0.6484375
 40
0.65625
 40
0.6640625
 40
0.66796875
 40
0.671875
 40
0.67578125
 40
0.6796875
 40
0.681640625
 40
0.68359375
 40
0.6845703125
 40
0.685546875
 40
0.6865234375
 40
0.6870117188
 40
0.6872558594
 40
0.6875
 40
0.6877441406
 40
0.6879882812
 40
0.6884765625
 40
0.689453125
 40
0.6904296875
 40
0.69140625
 40
0.693359375
 40
0.6953125
 40
0.69921875
 40
0.703125
 40
0.70703125
 40
0.7109375
 40
0.71875
 40
0.7265625
 40
0.73046875
 40
0.734375
 40
0.73828125
 40
0.7421875
 40
0.744140625
 40
0.74609375
 40
0.7470703125
 40
0.748046875
 40
0.7490234375
 40
0.7495117188
 40
0.7497558594
 40
0.75
 40
0.7502441406
 40
0.7504882812
 40
0.7509765625
 40
0.751953125
 40
0.7529296875
 40
0.75390625
 40
0.755859375
 40
0.7578125
 40
0.76171875
 40
0.765625
 40
0.76953125
 40
0.7734375
 40
0.78125
 40
0.7890625
 40
0.79296875
 40
0.796875
 40
0.80078125
 40
0.8046875
 40
0.806640625
 40
0.80859375
 40
0.8095703125
 40
0.810546875
 40
0.8115234375
 40
0.8120117188
 40
0.8122558594
 40
0.8125
 40
0.8127441406
 40
0.8129882812
 40
0.8134765625
 40
0.814453125
 40
0.8154296875
 40
0.81640625
 40
0.818359375
 40
0.8203125
 40
0.82421875
 40
0.828125
 40
0.83203125
 40
0.8359375
 40
0.84375
 40
0.8515625
 40
0.85546875
 40
0.859375
 40
0.86328125
 40
0.8671875
 40
0.869140625
 40
0.87109375
 40
0.8720703125
 40
0.873046875
 40
0.8740234375
 40
0.8745117188
 40
0.8747558594
 40
0.875
 40
0.8752441406
 40
0.8754882812
 40
0.8759765625
 40
0.876953125
 40
0.8779296875
 40
0.87890625
 40
0.880859375
 40
0.8828125
 40
0.88671875
 40
0.890625
 40
0.89453125
 40
0.8984375
 40
0.90625
 40
0.9140625
 40
0.91796875
 40
0.921875
 40
0.92578125
 40
0.9296875
 40
0.931640625
 40
0.93359375
 40
0.9345703125
 40
0.935546875
 40
0.9365234375
 40
0.9370117188
 40
0.9372558594
 40
0.9375
 40
0.9377441406
 40
0.9379882812
 40
0.9384765625
 40
0.939453125
 40
0.9404296875
 40
0.94140625
 40
0.943359375
 40
0.9453125
 40
0.94921875
 40
0.953125
 40
0.95703125
 40
0.9609375
 40
0.96875
 40
0.9765625
 40
0.984375
 40
1.0
 40
1.0
 40
1.0
 40
1.0
 10
9.8256889614
 20
9.3467916884
 30
0.0
 10
9.8194225876
 20
9.3466118396
 30
0.0
 10
9.8100230268
 20
9.3463420663
 30
0.0
 10
9.7974902792
 20
9.3459823687
 30
0.0
 10
9.7880907184
 20
9.3457125954
 30
0.0
 10
9.7802577511
 20
9.3454877847
 30
0.0
 10
9.7739913774
 20
9.3453079352
 30
0.0
 10
9.7692915966
 20
9.3451730506
 30
0.0
 10
9.7645918177
 20
9.3450381565
 30
0.0
 10
9.7606753295
 20
9.3449257742
 30
0.0
 10
9.7575421518
 20
9.3448358024
 30
0.0
 10
9.7555838865
 20
9.3447797202
 30
0.0
 10
9.7540173413
 20
9.3447345105
 30
0.0
 10
9.7528422486
 20
9.344701545
 30
0.0
 10
9.7518635897
 20
9.3446710779
 30
0.0
 10
9.7511773802
 20
9.3446556302
 30
0.0
 10
9.7507870535
 20
9.3446376229
 30
0.0
 10
9.7504892574
 20
9.3446499778
 30
0.0
 10
9.7502107693
 20
9.344563481
 30
0.0
 10
9.749832717
 20
9.3444826324
 30
0.0
 10
9.7491742634
 20
9.3443250823
 30
0.0
 10
9.7482319748
 20
9.3441084098
 30
0.0
 10
9.7471019307
 20
9.3438448077
 30
0.0
 10
9.7455949599
 20
9.3434945939
 30
0.0
 10
9.7437113305
 20
9.3430563968
 30
0.0
 10
9.7406974764
 20
9.3423555216
 30
0.0
 10
9.7369301749
 20
9.3414793452
 30
0.0
 10
9.7324094063
 20
9.3404279688
 30
0.0
 10
9.7278886395
 20
9.339376583
 30
0.0
 10
9.7218609497
 20
9.3379747386
 30
0.0
 10
9.7143263378
 20
9.3362224318
 30
0.0
 10
9.7067917257
 20
9.3344701258
 30
0.0
 10
9.7007640363
 20
9.3330682801
 30
0.0
 10
9.6962432684
 20
9.3320168982
 30
0.0
 10
9.691722504
 20
9.3309655072
 30
0.0
 10
9.6879551891
 20
9.3300893763
 30
0.0
 10
9.6849413625
 20
9.3293884084
 30
0.0
 10
9.6830576633
 20
9.3289504471
 30
0.0
 10
9.6815508357
 20
9.3285997492
 30
0.0
 10
9.6804203541
 20
9.3283376263
 30
0.0
 10
9.6794794342
 20
9.3281163256
 30
0.0
 10
9.6788185373
 20
9.3279670376
 30
0.0
 10
9.6784443998
 20
9.3278729512
 30
0.0
 10
9.6781538867
 20
9.3278271168
 30
0.0
 10
9.6779012543
 20
9.32768675
 30
0.0
 10
9.677551198
 20
9.3275325683
 30
0.0
 10
9.6769447556
 20
9.3272473871
 30
0.0
 10
9.6760751908
 20
9.3268480173
 30
0.0
 10
9.6750330907
 20
9.3263653357
 30
0.0
 10
9.6736431428
 20
9.325722961
 30
0.0
 10
9.6719058725
 20
9.3249195815
 30
0.0
 10
9.6691261481
 20
9.323634404
 30
0.0
 10
9.6656515242
 20
9.3220278534
 30
0.0
 10
9.6614819619
 20
9.3201000264
 30
0.0
 10
9.6573124033
 20
9.3181721903
 30
0.0
 10
9.6517529905
 20
9.3156017454
 30
0.0
 10
9.6448037249
 20
9.3123886882
 30
0.0
 10
9.6378544591
 20
9.3091756317
 30
0.0
 10
9.6322950468
 20
9.3066051855
 30
0.0
 10
9.6281254865
 20
9.3046773532
 30
0.0
 10
9.6239559307
 20
9.3027495121
 30
0.0
 10
9.6204812865
 20
9.3011430054
 30
0.0
 10
9.6177016035
 20
9.2998577383
 30
0.0
 10
9.6159642278
 20
9.299054587
 30
0.0
 10
9.6145744962
 20
9.2984117438
 30
0.0
 10
9.613531735
 20
9.2979304935
 30
0.0
 10
9.6126642389
 20
9.2975266454
 30
0.0
 10
9.6120541036
 20
9.2972494589
 30
0.0
 10
9.6117099642
 20
9.2970824676
 30
0.0
 10
9.6114391567
 20
9.2969814478
 30
0.0
 10
9.6112169066
 20
9.2967878327
 30
0.0
 10
9.6109036359
 20
9.2965619775
 30
0.0
 10
9.6103633035
 20
9.2961516827
 30
0.0
 10
9.6095872743
 20
9.2955734146
 30
0.0
 10
9.6086578053
 20
9.2948761254
 30
0.0
 10
9.6074178965
 20
9.2939475826
 30
0.0
 10
9.6058682216
 20
9.2927865014
 30
0.0
 10
9.6033886238
 20
9.2909289966
 30
0.0
 10
9.600289167
 20
9.2886070384
 30
0.0
 10
9.5965698015
 20
9.2858207217
 30
0.0
 10
9.5928504407
 20
9.283034396
 30
0.0
 10
9.5878912912
 20
9.2793192983
 30
0.0
 10
9.5816923551
 20
9.274675425
 30
0.0
 10
9.5754934184
 20
9.2700315524
 30
0.0
 10
9.5705342699
 20
9.2663164536
 30
0.0
 10
9.5668149065
 20
9.2635301312
 30
0.0
 10
9.5630955505
 20
9.2607438021
 30
0.0
 10
9.559996064
 20
9.2584218823
 30
0.0
 10
9.5575165268
 20
9.2565642992
 30
0.0
 10
9.5559666977
 20
9.2554034172
 30
0.0
 10
9.5547271054
 20
9.2544744657
 30
0.0
 10
9.5537966693
 20
9.2537784251
 30
0.0
 10
9.5530236659
 20
9.2531962505
 30
0.0
 10
9.5524779321
 20
9.2527929294
 30
0.0
 10
9.5521733157
 20
9.2525559004
 30
0.0
 10
9.5519244821
 20
9.2523966078
 30
0.0
 10
9.5517535182
 20
9.2521666788
 30
0.0
 10
9.5514984044
 20
9.2518847455
 30
0.0
 10
9.5510646105
 20
9.2513798826
 30
0.0
 10
9.5504382887
 20
9.2506646515
 30
0.0
 10
9.5496895345
 20
9.2498038054
 30
0.0
 10
9.5486902064
 20
9.2486569077
 30
0.0
 10
9.547441385
 20
9.2472229785
 30
0.0
 10
9.5454430814
 20
9.2449288634
 30
0.0
 10
9.5429452669
 20
9.2420611607
 30
0.0
 10
9.5399478616
 20
9.2386199426
 30
0.0
 10
9.5369504637
 20
9.2351787178
 30
0.0
 10
9.5329539307
 20
9.2305904204
 30
0.0
 10
9.5279582654
 20
9.2248550478
 30
0.0
 10
9.5229625993
 20
9.2191196757
 30
0.0
 10
9.5189660674
 20
9.2145313774
 30
0.0
 10
9.5159686663
 20
9.2110901553
 30
0.0
 10
9.5129712731
 20
9.2076489273
 30
0.0
 10
9.5104734209
 20
9.2047812555
 30
0.0
 10
9.5084751942
 20
9.2024870773
 30
0.0
 10
9.507226177
 20
9.2010533086
 30
0.0
 10
9.5062272507
 20
9.1999060814
 30
0.0
 10
9.505477269
 20
9.1990462423
 30
0.0
 10
9.5048547878
 20
9.1983278602
 30
0.0
 10
9.5044141378
 20
9.1978286225
 30
0.0
 10
9.5041700092
 20
9.1975376763
 30
0.0
 10
9.5039653025
 20
9.197335432
 30
0.0
 10
9.5038432008
 20
9.19707216
 30
0.0
 10
9.5036515849
 20
9.1967424177
 30
0.0
 10
9.5033296819
 20
9.1961554507
 30
0.0
 10
9.5028628018
 20
9.1953221117
 30
0.0
 10
9.5023055499
 20
9.1943198855
 30
0.0
 10
9.5015614981
 20
9.192984359
 30
0.0
 10
9.5006317926
 20
9.1913146855
 30
0.0
 10
9.499144063
 20
9.1886433563
 30
0.0
 10
9.4972844698
 20
9.1853041438
 30
0.0
 10
9.4950529286
 20
9.1812971106
 30
0.0
 10
9.4928213952
 20
9.1772900716
 30
0.0
 10
9.4898460146
 20
9.171947355
 30
0.0
 10
9.4861267899
 20
9.1652689584
 30
0.0
 10
9.4824075644
 20
9.1585905624
 30
0.0
 10
9.479432185
 20
9.153247845
 30
0.0
 10
9.4772006481
 20
9.1492408081
 30
0.0
 10
9.47496912
 20
9.145233767
 30
0.0
 10
9.4731094859
 20
9.1418945793
 30
0.0
 10
9.4716218399
 20
9.1392231995
 30
0.0
 10
9.4706919217
 20
9.1375536547
 30
0.0
 10
9.4699483064
 20
9.1362178639
 30
0.0
 10
9.4693897207
 20
9.1352164454
 30
0.0
 10
9.4689270139
 20
9.1343805792
 30
0.0
 10
9.4685976609
 20
9.1337981236
 30
0.0
 10
9.4684179818
 20
9.1334611531
 30
0.0
 10
9.468259214
 20
9.133220084
 30
0.0
 10
9.4681922188
 20
9.1329344491
 30
0.0
 10
9.4680708806
 20
9.1325691477
 30
0.0
 10
9.4678734535
 20
9.1319226275
 30
0.0
 10
9.4675836171
 20
9.1310028138
 30
0.0
 10
9.467239151
 20
9.1298974166
 30
0.0
 10
9.4667786972
 20
9.1284241197
 30
0.0
 10
9.466203529
 20
9.1265823048
 30
0.0
 10
9.4652830369
 20
9.1236355093
 30
0.0
 10
9.4641324983
 20
9.1199519777
 30
0.0
 10
9.4627518192
 20
9.1155317557
 30
0.0
 10
9.4613711488
 20
9.1111115295
 30
0.0
 10
9.459530252
 20
9.105217896
 30
0.0
 10
9.457229132
 20
9.0978508536
 30
0.0
 10
9.4549280113
 20
9.0904838116
 30
0.0
 10
9.4530871157
 20
9.0845901776
 30
0.0
 10
9.4517064415
 20
9.080169953
 30
0.0
 10
9.4503257767
 20
9.075749725
 30
0.0
 10
9.4491751936
 20
9.0720662122
 30
0.0
 10
9.4482547922
 20
9.0691193783
 30
0.0
 10
9.4476793933
 20
9.0672776611
 30
0.0
 10
9.4472194131
 20
9.0658041637
 30
0.0
 10
9.4468734998
 20
9.064699379
 30
0.0
 10
9.4465881915
 20
9.0637776488
 30
0.0
 10
9.446382681
 20
9.0631345499
 30
0.0
 10
9.4462742943
 20
9.0627637667
 30
0.0
 10
9.4461675161
 20
9.0624949702
 30
0.0
 10
9.4461581669
 20
9.0621906589
 30
0.0
 10
9.4461117169
 20
9.0617972984
 30
0.0
 10
9.4460462633
 20
9.0611031459
 30
0.0
 10
9.44594448
 20
9.0601145169
 30
0.0
 10
9.4458258834
 20
9.0589268704
 30
0.0
 10
9.445666517
 20
9.057343793
 30
0.0
 10
9.4454677328
 20
9.0553647918
 30
0.0
 10
9.4451494412
 20
9.0521984762
 30
0.0
 10
9.4447516579
 20
9.048240552
 30
0.0
 10
9.4442742832
 20
9.0434910557
 30
0.0
 10
9.4437969177
 20
9.038741556
 30
0.0
 10
9.4431604272
 20
9.0324088909
 30
0.0
 10
9.4423648153
 20
9.0244930591
 30
0.0
 10
9.4415692026
 20
9.0165772274
 30
0.0
 10
9.4409327134
 20
9.0102445621
 30
0.0
 10
9.4404553439
 20
9.0054950631
 30
0.0
 10
9.4399779842
 20
9.0007455642
 30
0.0
 10
9.4395801542
 20
8.996787648
 30
0.0
 10
9.4392619578
 20
8.9936213162
 30
0.0
 10
9.4390629313
 20
8.991642356
 30
0.0
 10
9.4389040622
 20
8.9900591944
 30
0.0
 10
9.4387839463
 20
8.988871805
 30
0.0
 10
9.4386869165
 20
8.9878823719
 30
0.0
 10
9.4386129772
 20
8.9871896548
 30
0.0
 10
9.4385801235
 20
8.9867939943
 30
0.0
 10
9.4385290108
 20
8.9864967479
 30
0.0
 10
9.4385790891
 20
8.986201417
 30
0.0
 10
9.4386105637
 20
8.9858069744
 30
0.0
 10
9.4386820895
 20
8.9851170111
 30
0.0
 10
9.4387756714
 20
8.9841311864
 30
0.0
 10
9.4388916498
 20
8.9829482665
 30
0.0
 10
9.4390450022
 20
8.9813710157
 30
0.0
 10
9.439237133
 20
8.9793994604
 30
0.0
 10
9.4395442961
 20
8.9762449674
 30
0.0
 10
9.4399283345
 20
8.9723018527
 30
0.0
 10
9.4403891443
 20
8.9675701144
 30
0.0
 10
9.4408499639
 20
8.9628383762
 30
0.0
 10
9.4414643865
 20
8.956529392
 30
0.0
 10
9.4422324161
 20
8.9486431617
 30
0.0
 10
9.4430004448
 20
8.9407569314
 30
0.0
 10
9.4436148688
 20
8.9344479472
 30
0.0
 10
9.4440756844
 20
8.9297162088
 30
0.0
 10
9.4445365092
 20
8.9249844716
 30
0.0
 10
9.4449205009
 20
8.9210413535
 30
0.0
 10
9.4452277593
 20
8.9178868673
 30
0.0
 10
9.4454196476
 20
8.9159152945
 30
0.0
 10
9.4455734976
 20
8.9143380798
 30
0.0
 10
9.4456879561
 20
8.9131550493
 30
0.0
 10
9.4457862934
 20
8.9121695708
 30
0.0
 10
9.4458493299
 20
8.9114789896
 30
0.0
 10
9.4458944065
 20
8.9110855369
 30
0.0
 10
9.4459027037
 20
8.9107871653
 30
0.0
 10
9.4460085138
 20
8.9105013393
 30
0.0
 10
9.4461155804
 20
8.9101158619
 30
0.0
 10
9.4463187944
 20
8.9094433153
 30
0.0
 10
9.4466008149
 20
8.9084814686
 30
0.0
 10
9.4469427858
 20
8.9073277087
 30
0.0
 10
9.4473975083
 20
8.9057892028
 30
0.0
 10
9.4479663357
 20
8.9038661251
 30
0.0
 10
9.4488762223
 20
8.9007891701
 30
0.0
 10
9.450013662
 20
8.896942987
 30
0.0
 10
9.4513785547
 20
8.8923275627
 30
0.0
 10
9.4527434567
 20
8.8877121396
 30
0.0
 10
9.4545633229
 20
8.8815582417
 30
0.0
 10
9.4568381568
 20
8.8738658695
 30
0.0
 10
9.4591129899
 20
8.8661734972
 30
0.0
 10
9.4609328573
 20
8.8600195996
 30
0.0
 10
9.4622977555
 20
8.8554041756
 30
0.0
 10
9.4636626625
 20
8.8507887547
 30
0.0
 10
9.4648000577
 20
8.8469425611
 30
0.0
 10
9.4657100351
 20
8.8438656273
 30
0.0
 10
9.4662786314
 20
8.8419424958
 30
0.0
 10
9.4667338282
 20
8.8404041003
 30
0.0
 10
9.4670743502
 20
8.8392500034
 30
0.0
 10
9.4673609039
 20
8.8382892109
 30
0.0
 10
9.4675560253
 20
8.8376147823
 30
0.0
 10
9.4676760583
 20
8.8372323204
 30
0.0
 10
9.4677420398
 20
8.8369372316
 30
0.0
 10
9.4678999267
 20
8.8366736497
 30
0.0
 10
9.4680783849
 20
8.8363112172
 30
0.0
 10
9.468405623
 20
8.8356820808
 30
0.0
 10
9.4688652973
 20
8.8347806375
 30
0.0
 10
9.4694202488
 20
8.8337000514
 30
0.0
 10
9.4701590167
 20
8.8322588697
 30
0.0
 10
9.4710828763
 20
8.8304575296
 30
0.0
 10
9.4725608283
 20
8.8275753089
 30
0.0
 10
9.474408345
 20
8.8239725592
 30
0.0
 10
9.4766253321
 20
8.8196492484
 30
0.0
 10
9.478842328
 20
8.8153259405
 30
0.0
 10
9.4817983195
 20
8.809561529
 30
0.0
 10
9.48549331
 20
8.802356015
 30
0.0
 10
9.4891882997
 20
8.7951505007
 30
0.0
 10
9.4921442924
 20
8.7893860897
 30
0.0
 10
9.4943612847
 20
8.7850627804
 30
0.0
 10
9.4965782855
 20
8.7807394751
 30
0.0
 10
9.4984257596
 20
8.7771367081
 30
0.0
 10
9.4999037984
 20
8.7742545228
 30
0.0
 10
9.5008274371
 20
8.7724530926
 30
0.0
 10
9.5015666585
 20
8.7710120958
 30
0.0
 10
9.5021202245
 20
8.7699309446
 30
0.0
 10
9.5025842337
 20
8.7690312694
 30
0.0
 10
9.5029037332
 20
8.7683989767
 30
0.0
 10
9.5030945907
 20
8.7680416014
 30
0.0
 10
9.5032143911
 20
8.7677624856
 30
0.0
 10
9.5034234192
 20
8.7675257394
 30
0.0
 10
9.5036709998
 20
8.7671952989
 30
0.0
 10
9.5041187668
 20
8.7666239138
 30
0.0
 10
9.5047508527
 20
8.7658040493
 30
0.0
 10
9.5055126008
 20
8.7648217529
 30
0.0
 10
9.5065271315
 20
8.7635114861
 30
0.0
 10
9.507795683
 20
8.7618738369
 30
0.0
 10
9.5098251485
 20
8.7592534951
 30
0.0
 10
9.5123620548
 20
8.7559781033
 30
0.0
 10
9.5154063104
 20
8.752047618
 30
0.0
 10
9.5184505746
 20
8.7481171367
 30
0.0
 10
9.5225095905
 20
8.7428764936
 30
0.0
 10
9.5275833615
 20
8.7363256902
 30
0.0
 10
9.5326571318
 20
8.7297748864
 30
0.0
 10
9.5367161488
 20
8.724534244
 30
0.0
 10
9.5397604099
 20
8.7206037604
 30
0.0
 10
9.5428046772
 20
8.7166732838
 30
0.0
 10
9.5453415471
 20
8.7133978648
 30
0.0
 10
9.5473710867
 20
8.7107775785
 30
0.0
 10
9.5486394497
 20
8.7091397882
 30
0.0
 10
9.5496543672
 20
8.7078298111
 30
0.0
 10
9.5504149338
 20
8.7068466295
 30
0.0
 10
9.5510507164
 20
8.7060295344
 30
0.0
 10
9.5514918842
 20
8.7054532055
 30
0.0
 10
9.5517500384
 20
8.7051306861
 30
0.0
 10
9.5519265877
 20
8.7048696088
 30
0.0
 10
9.5521683732
 20
8.7046818769
 30
0.0
 10
9.5524679986
 20
8.7044059841
 30
0.0
 10
9.5530029453
 20
8.7039350915
 30
0.0
 10
9.5537616119
 20
8.703256156
 30
0.0
 10
9.5546743843
 20
8.7024441008
 30
0.0
 10
9.5558905856
 20
8.7013604289
 30
0.0
 10
9.5574111209
 20
8.7000061579
 30
0.0
 10
9.5598438188
 20
8.6978391462
 30
0.0
 10
9.5628847455
 20
8.6951304427
 30
0.0
 10
9.5665338344
 20
8.6918799722
 30
0.0
 10
9.5701829294
 20
8.6886295088
 30
0.0
 10
9.5750483873
 20
8.6842955551
 30
0.0
 10
9.5811302105
 20
8.6788781139
 30
0.0
 10
9.5872120332
 20
8.673460672
 30
0.0
 10
9.5920774919
 20
8.6691267193
 30
0.0
 10
9.5957265845
 20
8.6658762528
 30
0.0
 10
9.5993756825
 20
8.6626257939
 30
0.0
 10
9.6024165809
 20
8.6599170546
 30
0.0
 10
9.6048493366
 20
8.6577501158
 30
0.0
 10
9.6063697249
 20
8.6563956593
 30
0.0
 10
9.6075862279
 20
8.6553123682
 30
0.0
 10
9.6084980784
 20
8.6544991495
 30
0.0
 10
9.6092596297
 20
8.6538238544
 30
0.0
 10
9.6097894266
 20
8.653346463
 30
0.0
 10
9.6100973032
 20
8.653080983
 30
0.0
 10
9.6103137439
 20
8.6528612661
 30
0.0
 10
9.6105854837
 20
8.6527203191
 30
0.0
 10
9.6109285146
 20
8.652504914
 30
0.0
 10
9.6115378056
 20
8.6521407565
 30
0.0
 10
9.6124035229
 20
8.6516138387
 30
0.0
 10
9.6134443947
 20
8.6509844021
 30
0.0
 10
9.6148315213
 20
8.6501441528
 30
0.0
 10
9.6165656701
 20
8.6490941836
 30
0.0
 10
9.6193401738
 20
8.6474140415
 30
0.0
 10
9.6228083495
 20
8.6453139296
 30
0.0
 10
9.6269701406
 20
8.6427937671
 30
0.0
 10
9.6311319369
 20
8.6402736122
 30
0.0
 10
9.6366809969
 20
8.636913403
 30
0.0
 10
9.6436173225
 20
8.6327131425
 30
0.0
 10
9.6505536478
 20
8.6285128812
 30
0.0
 10
9.6561027084
 20
8.6251526731
 30
0.0
 10
9.6602645029
 20
8.6226325148
 30
0.0
 10
9.664426301
 20
8.620112365
 30
0.0
 10
9.6678944547
 20
8.6180122137
 30
0.0
 10
9.6706690032
 20
8.616332152
 30
0.0
 10
9.672403038
 20
8.6152819781
 30
0.0
 10
9.6737903987
 20
8.6144421491
 30
0.0
 10
9.6748305553
 20
8.6138114282
 30
0.0
 10
9.6756985102
 20
8.6132885286
 30
0.0
 10
9.6763038066
 20
8.6129171981
 30
0.0
 10
9.6766532379
 20
8.6127132859
 30
0.0
 10
9.6769053176
 20
8.6125370363
 30
0.0
 10
9.6771955986
 20
8.6124499101
 30
0.0
 10
9.6775693148
 20
8.6123026546
 30
0.0
 10
9.6782295266
 20
8.6120594415
 30
0.0
 10
9.6791694406
 20
8.6117044219
 30
0.0
 10
9.6802987266
 20
8.6112816396
 30
0.0
 10
9.681803956
 20
8.6107167977
 30
0.0
 10
9.683685659
 20
8.610011133
 30
0.0
 10
9.6866962909
 20
8.6088818529
 30
0.0
 10
9.6904596126
 20
8.6074703271
 30
0.0
 10
9.694975585
 20
8.6057764642
 30
0.0
 10
9.699491561
 20
8.6040826098
 30
0.0
 10
9.7055128611
 20
8.6018241344
 30
0.0
 10
9.7130394867
 20
8.5990010412
 30
0.0
 10
9.720566112
 20
8.5961779472
 30
0.0
 10
9.7265874126
 20
8.593919473
 30
0.0
 10
9.7311033873
 20
8.5922256149
 30
0.0
 10
9.7356193647
 20
8.590531766
 30
0.0
 10
9.7393826707
 20
8.5891201968
 30
0.0
 10
9.7423933346
 20
8.5879910051
 30
0.0
 10
9.7442749559
 20
8.5872851153
 30
0.0
 10
9.745780353
 20
8.5867207355
 30
0.0
 10
9.7469091269
 20
8.5862965415
 30
0.0
 10
9.7478506433
 20
8.5859459387
 30
0.0
 10
9.7485079944
 20
8.5856948408
 30
0.0
 10
9.7488862943
 20
8.5855602189
 30
0.0
 10
9.7491624957
 20
8.5854342861
 30
0.0
 10
9.7494674556
 20
8.5854037878
 30
0.0
 10
9.7498640376
 20
8.5853298347
 30
0.0
 10
9.7505627297
 20
8.5852159267
 30
0.0
 10
9.7515584178
 20
8.5850450922
 30
0.0
 10
9.7527542895
 20
8.5848435617
 30
0.0
 10
9.7543484197
 20
8.584573642
 30
0.0
 10
9.7563412075
 20
8.5842366574
 30
0.0
 10
9.7595295982
 20
8.5836972501
 30
0.0
 10
9.7635151105
 20
8.5830230707
 30
0.0
 10
9.768297715
 20
8.5822140212
 30
0.0
 10
9.7730803222
 20
8.5814049808
 30
0.0
 10
9.7794571309
 20
8.5803262571
 30
0.0
 10
9.7874281421
 20
8.5789778536
 30
0.0
 10
9.7969933553
 20
8.5773597689
 30
0.0
 10
9.8097469731
 20
8.5752023228
 30
0.0
 10
9.8193121864
 20
8.5735842382
 30
0.0
 10
9.8256889953
 20
8.5725055152
 30
0.0
  0
SPLINE
  5
36C
100
AcDbEntity
  8
0
100
AcDbSpline
 62
4
  6
CONTINUOUS
 70
0
 71
3
 72
403
 73
399
 74
0
 42
0.0000001
 43
0.0000001
 44
0.0000000001
 40
0.0
 40
0.0
 40
0.0
 40
0.0
 40
0.015625
 40
0.0234375
 40
0.03125
 40
0.0390625
 40
0.04296875
 40
0.046875
 40
0.05078125
 40
0.0546875
 40
0.056640625
 40
0.05859375
 40
0.0595703125
 40
0.060546875
 40
0.0615234375
 40
0.0620117188
 40
0.0622558594
 40
0.0625
 40
0.0627441406
 40
0.0629882812
 40
0.0634765625
 40
0.064453125
 40
0.0654296875
 40
0.06640625
 40
0.068359375
 40
0.0703125
 40
0.07421875
 40
0.078125
 40
0.08203125
 40
0.0859375
 40
0.09375
 40
0.1015625
 40
0.10546875
 40
0.109375
 40
0.11328125
 40
0.1171875
 40
0.119140625
 40
0.12109375
 40
0.1220703125
 40
0.123046875
 40
0.1240234375
 40
0.1245117188
 40
0.1247558594
 40
0.125
 40
0.1252441406
 40
0.1254882812
 40
0.1259765625
 40
0.126953125
 40
0.1279296875
 40
0.12890625
 40
0.130859375
 40
0.1328125
 40
0.13671875
 40
0.140625
 40
0.14453125
 40
0.1484375
 40
0.15625
 40
0.1640625
 40
0.16796875
 40
0.171875
 40
0.17578125
 40
0.1796875
 40
0.181640625
 40
0.18359375
 40
0.1845703125
 40
0.185546875
 40
0.1865234375
 40
0.1870117188
 40
0.1872558594
 40
0.1875
 40
0.1877441406
 40
0.1879882812
 40
0.1884765625
 40
0.189453125
 40
0.1904296875
 40
0.19140625
 40
0.193359375
 40
0.1953125
 40
0.19921875
 40
0.203125
 40
0.20703125
 40
0.2109375
 40
0.21875
 40
0.2265625
 40
0.23046875
 40
0.234375
 40
0.23828125
 40
0.2421875
 40
0.244140625
 40
0.24609375
 40
0.2470703125
 40
0.248046875
 40
0.2490234375
 40
0.2495117188
 40
0.2497558594
 40
0.25
 40
0.2502441406
 40
0.2504882812
 40
0.2509765625
 40
0.251953125
 40
0.2529296875
 40
0.25390625
 40
0.255859375
 40
0.2578125
 40
0.26171875
 40
0.265625
 40
0.26953125
 40
0.2734375
 40
0.28125
 40
0.2890625
 40
0.29296875
 40
0.296875
 40
0.30078125
 40
0.3046875
 40
0.306640625
 40
0.30859375
 40
0.3095703125
 40
0.310546875
 40
0.3115234375
 40
0.3120117188
 40
0.3122558594
 40
0.3125
 40
0.3127441406
 40
0.3129882812
 40
0.3134765625
 40
0.314453125
 40
0.3154296875
 40
0.31640625
 40
0.318359375
 40
0.3203125
 40
0.32421875
 40
0.328125
 40
0.33203125
 40
0.3359375
 40
0.34375
 40
0.3515625
 40
0.35546875
 40
0.359375
 40
0.36328125
 40
0.3671875
 40
0.369140625
 40
0.37109375
 40
0.3720703125
 40
0.373046875
 40
0.3740234375
 40
0.3745117188
 40
0.3747558594
 40
0.375
 40
0.3752441406
 40
0.3754882812
 40
0.3759765625
 40
0.376953125
 40
0.3779296875
 40
0.37890625
 40
0.380859375
 40
0.3828125
 40
0.38671875
 40
0.390625
 40
0.39453125
 40
0.3984375
 40
0.40625
 40
0.4140625
 40
0.41796875
 40
0.421875
 40
0.42578125
 40
0.4296875
 40
0.431640625
 40
0.43359375
 40
0.4345703125
 40
0.435546875
 40
0.4365234375
 40
0.4370117188
 40
0.4372558594
 40
0.4375
 40
0.4377441406
 40
0.4379882812
 40
0.4384765625
 40
0.439453125
 40
0.4404296875
 40
0.44140625
 40
0.443359375
 40
0.4453125
 40
0.44921875
 40
0.453125
 40
0.45703125
 40
0.4609375
 40
0.46875
 40
0.4765625
 40
0.48046875
 40
0.484375
 40
0.48828125
 40
0.4921875
 40
0.494140625
 40
0.49609375
 40
0.4970703125
 40
0.498046875
 40
0.4990234375
 40
0.4995117188
 40
0.4997558594
 40
0.5
 40
0.5002441406
 40
0.5004882812
 40
0.5009765625
 40
0.501953125
 40
0.5029296875
 40
0.50390625
 40
0.505859375
 40
0.5078125
 40
0.51171875
 40
0.515625
 40
0.51953125
 40
0.5234375
 40
0.53125
 40
0.5390625
 40
0.54296875
 40
0.546875
 40
0.55078125
 40
0.5546875
 40
0.556640625
 40
0.55859375
 40
0.5595703125
 40
0.560546875
 40
0.5615234375
 40
0.5620117188
 40
0.5622558594
 40
0.5625
 40
0.5627441406
 40
0.5629882812
 40
0.5634765625
 40
0.564453125
 40
0.5654296875
 40
0.56640625
 40
0.568359375
 40
0.5703125
 40
0.57421875
 40
0.578125
 40
0.58203125
 40
0.5859375
 40
0.59375
 40
0.6015625
 40
0.60546875
 40
0.609375
 40
0.61328125
 40
0.6171875
 40
0.619140625
 40
0.62109375
 40
0.6220703125
 40
0.623046875
 40
0.6240234375
 40
0.6245117188
 40
0.6247558594
 40
0.625
 40
0.6252441406
 40
0.6254882812
 40
0.6259765625
 40
0.626953125
 40
0.6279296875
 40
0.62890625
 40
0.630859375
 40
0.6328125
 40
0.63671875
 40
0.640625
 40
0.64453125
 40
0.6484375
 40
0.65625
 40
0.6640625
 40
0.66796875
 40
0.671875
 40
0.67578125
 40
0.6796875
 40
0.681640625
 40
0.68359375
 40
0.6845703125
 40
0.685546875
 40
0.6865234375
 40
0.6870117188
 40
0.6872558594
 40
0.6875
 40
0.6877441406
 40
0.6879882812
 40
0.6884765625
 40
0.689453125
 40
0.6904296875
 40
0.69140625
 40
0.693359375
 40
0.6953125
 40
0.69921875
 40
0.703125
 40
0.70703125
 40
0.7109375
 40
0.71875
 40
0.7265625
 40
0.73046875
 40
0.734375
 40
0.73828125
 40
0.7421875
 40
0.744140625
 40
0.74609375
 40
0.7470703125
 40
0.748046875
 40
0.7490234375
 40
0.7495117188
 40
0.7497558594
 40
0.75
 40
0.7502441406
 40
0.7504882812
 40
0.7509765625
 40
0.751953125
 40
0.7529296875
 40
0.75390625
 40
0.755859375
 40
0.7578125
 40
0.76171875
 40
0.765625
 40
0.76953125
 40
0.7734375
 40
0.78125
 40
0.7890625
 40
0.79296875
 40
0.796875
 40
0.80078125
 40
0.8046875
 40
0.806640625
 40
0.80859375
 40
0.8095703125
 40
0.810546875
 40
0.8115234375
 40
0.8120117188
 40
0.8122558594
 40
0.8125
 40
0.8127441406
 40
0.8129882812
 40
0.8134765625
 40
0.814453125
 40
0.8154296875
 40
0.81640625
 40
0.818359375
 40
0.8203125
 40
0.82421875
 40
0.828125
 40
0.83203125
 40
0.8359375
 40
0.84375
 40
0.8515625
 40
0.85546875
 40
0.859375
 40
0.86328125
 40
0.8671875
 40
0.869140625
 40
0.87109375
 40
0.8720703125
 40
0.873046875
 40
0.8740234375
 40
0.8745117188
 40
0.8747558594
 40
0.875
 40
0.8752441406
 40
0.8754882812
 40
0.8759765625
 40
0.876953125
 40
0.8779296875
 40
0.87890625
 40
0.880859375
 40
0.8828125
 40
0.88671875
 40
0.890625
 40
0.89453125
 40
0.8984375
 40
0.90625
 40
0.9140625
 40
0.91796875
 40
0.921875
 40
0.92578125
 40
0.9296875
 40
0.931640625
 40
0.93359375
 40
0.9345703125
 40
0.935546875
 40
0.9365234375
 40
0.9370117188
 40
0.9372558594
 40
0.9375
 40
0.9377441406
 40
0.9379882812
 40
0.9384765625
 40
0.939453125
 40
0.9404296875
 40
0.94140625
 40
0.943359375
 40
0.9453125
 40
0.94921875
 40
0.953125
 40
0.95703125
 40
0.9609375
 40
0.96875
 40
0.9765625
 40
0.984375
 40
1.0
 40
1.0
 40
1.0
 40
1.0
 10
9.8256889614
 20
8.5725055175
 30
0.0
 10
9.8319553353
 20
8.5726853663
 30
0.0
 10
9.841354896
 20
8.5729551396
 30
0.0
 10
9.8538876437
 20
8.5733148372
 30
0.0
 10
9.8632872044
 20
8.5735846105
 30
0.0
 10
9.8711201718
 20
8.5738094212
 30
0.0
 10
9.8773865455
 20
8.5739892707
 30
0.0
 10
9.8820863263
 20
8.5741241554
 30
0.0
 10
9.8867861052
 20
8.5742590494
 30
0.0
 10
9.8907025934
 20
8.5743714317
 30
0.0
 10
9.893835771
 20
8.5744614035
 30
0.0
 10
9.8957940364
 20
8.5745174857
 30
0.0
 10
9.8973605815
 20
8.5745626954
 30
0.0
 10
9.8985356743
 20
8.5745956609
 30
0.0
 10
9.8995143331
 20
8.5746261281
 30
0.0
 10
9.9002005427
 20
8.5746415757
 30
0.0
 10
9.9005908693
 20
8.5746595831
 30
0.0
 10
9.9008886655
 20
8.5746472281
 30
0.0
 10
9.9011671536
 20
8.574733725
 30
0.0
 10
9.9015452059
 20
8.5748145735
 30
0.0
 10
9.9022036595
 20
8.5749721236
 30
0.0
 10
9.9031459481
 20
8.5751887961
 30
0.0
 10
9.9042759922
 20
8.5754523982
 30
0.0
 10
9.905782963
 20
8.575802612
 30
0.0
 10
9.9076665924
 20
8.5762408092
 30
0.0
 10
9.9106804465
 20
8.5769416843
 30
0.0
 10
9.9144477479
 20
8.5778178608
 30
0.0
 10
9.9189685166
 20
8.5788692371
 30
0.0
 10
9.9234892834
 20
8.5799206229
 30
0.0
 10
9.9295169731
 20
8.5813224673
 30
0.0
 10
9.937051585
 20
8.5830747741
 30
0.0
 10
9.9445861972
 20
8.5848270801
 30
0.0
 10
9.9506138865
 20
8.5862289258
 30
0.0
 10
9.9551346545
 20
8.5872803077
 30
0.0
 10
9.9596554188
 20
8.5883316987
 30
0.0
 10
9.9634227337
 20
8.5892078297
 30
0.0
 10
9.9664365604
 20
8.5899087975
 30
0.0
 10
9.9683202596
 20
8.5903467588
 30
0.0
 10
9.9698270872
 20
8.5906974568
 30
0.0
 10
9.9709575687
 20
8.5909595796
 30
0.0
 10
9.9718984886
 20
8.5911808803
 30
0.0
 10
9.9725593856
 20
8.5913301684
 30
0.0
 10
9.9729335231
 20
8.5914242548
 30
0.0
 10
9.9732240362
 20
8.5914700891
 30
0.0
 10
9.9734766685
 20
8.5916104559
 30
0.0
 10
9.9738267249
 20
8.5917646376
 30
0.0
 10
9.9744331672
 20
8.5920498189
 30
0.0
 10
9.975302732
 20
8.5924491886
 30
0.0
 10
9.9763448321
 20
8.5929318702
 30
0.0
 10
9.9777347801
 20
8.5935742449
 30
0.0
 10
9.9794720503
 20
8.5943776244
 30
0.0
 10
9.9822517747
 20
8.5956628019
 30
0.0
 10
9.9857263987
 20
8.5972693526
 30
0.0
 10
9.989895961
 20
8.5991971796
 30
0.0
 10
9.9940655196
 20
8.6011250156
 30
0.0
 10
9.9996249324
 20
8.6036954605
 30
0.0
 10
10.0065741979
 20
8.6069085178
 30
0.0
 10
10.0135234638
 20
8.6101215743
 30
0.0
 10
10.019082876
 20
8.6126920204
 30
0.0
 10
10.0232524364
 20
8.6146198527
 30
0.0
 10
10.0274219921
 20
8.6165476938
 30
0.0
 10
10.0308966364
 20
8.6181542005
 30
0.0
 10
10.0336763194
 20
8.6194394676
 30
0.0
 10
10.0354136951
 20
8.6202426189
 30
0.0
 10
10.0368034266
 20
8.6208854621
 30
0.0
 10
10.0378461879
 20
8.6213667124
 30
0.0
 10
10.038713684
 20
8.6217705605
 30
0.0
 10
10.0393238193
 20
8.622047747
 30
0.0
 10
10.0396679586
 20
8.6222147384
 30
0.0
 10
10.0399387662
 20
8.6223157582
 30
0.0
 10
10.0401610162
 20
8.6225093732
 30
0.0
 10
10.040474287
 20
8.6227352284
 30
0.0
 10
10.0410146194
 20
8.6231455233
 30
0.0
 10
10.0417906485
 20
8.6237237913
 30
0.0
 10
10.0427201175
 20
8.6244210806
 30
0.0
 10
10.0439600264
 20
8.6253496233
 30
0.0
 10
10.0455097013
 20
8.6265107045
 30
0.0
 10
10.0479892991
 20
8.6283682093
 30
0.0
 10
10.0510887558
 20
8.6306901675
 30
0.0
 10
10.0548081213
 20
8.6334764843
 30
0.0
 10
10.0585274822
 20
8.6362628099
 30
0.0
 10
10.0634866316
 20
8.6399779076
 30
0.0
 10
10.0696855678
 20
8.6446217809
 30
0.0
 10
10.0758845044
 20
8.6492656535
 30
0.0
 10
10.080843653
 20
8.6529807524
 30
0.0
 10
10.0845630164
 20
8.6557670747
 30
0.0
 10
10.0882823723
 20
8.6585534038
 30
0.0
 10
10.0913818588
 20
8.6608753237
 30
0.0
 10
10.0938613961
 20
8.6627329067
 30
0.0
 10
10.0954112251
 20
8.6638937888
 30
0.0
 10
10.0966508174
 20
8.6648227402
 30
0.0
 10
10.0975812535
 20
8.6655187808
 30
0.0
 10
10.098354257
 20
8.6661009555
 30
0.0
 10
10.0988999908
 20
8.6665042765
 30
0.0
 10
10.0992046071
 20
8.6667413055
 30
0.0
 10
10.0994534407
 20
8.6669005981
 30
0.0
 10
10.0996244047
 20
8.6671305272
 30
0.0
 10
10.0998795184
 20
8.6674124605
 30
0.0
 10
10.1003133123
 20
8.6679173234
 30
0.0
 10
10.1009396341
 20
8.6686325544
 30
0.0
 10
10.1016883884
 20
8.6694934006
 30
0.0
 10
10.1026877165
 20
8.6706402982
 30
0.0
 10
10.1039365379
 20
8.6720742274
 30
0.0
 10
10.1059348415
 20
8.6743683425
 30
0.0
 10
10.108432656
 20
8.6772360453
 30
0.0
 10
10.1114300613
 20
8.6806772633
 30
0.0
 10
10.1144274591
 20
8.6841184881
 30
0.0
 10
10.1184239922
 20
8.6887067855
 30
0.0
 10
10.1234196575
 20
8.6944421581
 30
0.0
 10
10.1284153235
 20
8.7001775302
 30
0.0
 10
10.1324118555
 20
8.7047658285
 30
0.0
 10
10.1354092566
 20
8.7082070506
 30
0.0
 10
10.1384066497
 20
8.7116482787
 30
0.0
 10
10.140904502
 20
8.7145159505
 30
0.0
 10
10.1429027286
 20
8.7168101287
 30
0.0
 10
10.1441517458
 20
8.7182438973
 30
0.0
 10
10.1451506721
 20
8.7193911246
 30
0.0
 10
10.1459006538
 20
8.7202509636
 30
0.0
 10
10.1465231351
 20
8.7209693457
 30
0.0
 10
10.146963785
 20
8.7214685834
 30
0.0
 10
10.1472079137
 20
8.7217595296
 30
0.0
 10
10.1474126203
 20
8.7219617739
 30
0.0
 10
10.1475347221
 20
8.722225046
 30
0.0
 10
10.147726338
 20
8.7225547882
 30
0.0
 10
10.148048241
 20
8.7231417552
 30
0.0
 10
10.1485151211
 20
8.7239750942
 30
0.0
 10
10.1490723729
 20
8.7249773204
 30
0.0
 10
10.1498164248
 20
8.7263128469
 30
0.0
 10
10.1507461303
 20
8.7279825204
 30
0.0
 10
10.1522338599
 20
8.7306538497
 30
0.0
 10
10.154093453
 20
8.7339930622
 30
0.0
 10
10.1563249943
 20
8.7380000953
 30
0.0
 10
10.1585565277
 20
8.7420071343
 30
0.0
 10
10.1615319083
 20
8.747349851
 30
0.0
 10
10.165251133
 20
8.7540282475
 30
0.0
 10
10.1689703584
 20
8.7607066436
 30
0.0
 10
10.1719457378
 20
8.7660493609
 30
0.0
 10
10.1741772747
 20
8.7700563978
 30
0.0
 10
10.1764088028
 20
8.7740634389
 30
0.0
 10
10.1782684369
 20
8.7774026266
 30
0.0
 10
10.179756083
 20
8.7800740065
 30
0.0
 10
10.1806860012
 20
8.7817435512
 30
0.0
 10
10.1814296164
 20
8.783079342
 30
0.0
 10
10.1819882022
 20
8.7840807606
 30
0.0
 10
10.1824509089
 20
8.7849166267
 30
0.0
 10
10.182780262
 20
8.7854990823
 30
0.0
 10
10.1829599411
 20
8.7858360529
 30
0.0
 10
10.1831187089
 20
8.786077122
 30
0.0
 10
10.183185704
 20
8.7863627568
 30
0.0
 10
10.1833070422
 20
8.7867280582
 30
0.0
 10
10.1835044694
 20
8.7873745784
 30
0.0
 10
10.1837943058
 20
8.7882943921
 30
0.0
 10
10.1841387718
 20
8.7893997893
 30
0.0
 10
10.1845992257
 20
8.7908730862
 30
0.0
 10
10.1851743938
 20
8.7927149011
 30
0.0
 10
10.1860948859
 20
8.7956616966
 30
0.0
 10
10.1872454245
 20
8.7993452282
 30
0.0
 10
10.1886261037
 20
8.8037654502
 30
0.0
 10
10.190006774
 20
8.8081856764
 30
0.0
 10
10.1918476709
 20
8.8140793099
 30
0.0
 10
10.1941487908
 20
8.8214463523
 30
0.0
 10
10.1964499116
 20
8.8288133943
 30
0.0
 10
10.1982908072
 20
8.8347070283
 30
0.0
 10
10.1996714813
 20
8.839127253
 30
0.0
 10
10.2010521462
 20
8.843547481
 30
0.0
 10
10.2022027292
 20
8.8472309937
 30
0.0
 10
10.2031231307
 20
8.8501778276
 30
0.0
 10
10.2036985296
 20
8.8520195449
 30
0.0
 10
10.2041585097
 20
8.8534930422
 30
0.0
 10
10.204504423
 20
8.8545978269
 30
0.0
 10
10.2047897313
 20
8.8555195571
 30
0.0
 10
10.2049952419
 20
8.856162656
 30
0.0
 10
10.2051036285
 20
8.8565334393
 30
0.0
 10
10.2052104067
 20
8.8568022357
 30
0.0
 10
10.205219756
 20
8.857106547
 30
0.0
 10
10.205266206
 20
8.8574999075
 30
0.0
 10
10.2053316596
 20
8.8581940601
 30
0.0
 10
10.2054334428
 20
8.8591826891
 30
0.0
 10
10.2055520394
 20
8.8603703355
 30
0.0
 10
10.2057114058
 20
8.8619534129
 30
0.0
 10
10.2059101901
 20
8.8639324141
 30
0.0
 10
10.2062284817
 20
8.8670987298
 30
0.0
 10
10.2066262649
 20
8.8710566539
 30
0.0
 10
10.2071036397
 20
8.8758061503
 30
0.0
 10
10.2075810051
 20
8.88055565
 30
0.0
 10
10.2082174956
 20
8.8868883151
 30
0.0
 10
10.2090131076
 20
8.8948041468
 30
0.0
 10
10.2098087203
 20
8.9027199785
 30
0.0
 10
10.2104452095
 20
8.9090526438
 30
0.0
 10
10.2109225789
 20
8.9138021428
 30
0.0
 10
10.2113999387
 20
8.9185516417
 30
0.0
 10
10.2117977686
 20
8.922509558
 30
0.0
 10
10.212115965
 20
8.9256758897
 30
0.0
 10
10.2123149916
 20
8.92765485
 30
0.0
 10
10.2124738607
 20
8.9292380115
 30
0.0
 10
10.2125939765
 20
8.9304254009
 30
0.0
 10
10.2126910063
 20
8.931414834
 30
0.0
 10
10.2127649457
 20
8.9321075511
 30
0.0
 10
10.2127977994
 20
8.9325032116
 30
0.0
 10
10.2128489121
 20
8.9328004581
 30
0.0
 10
10.2127988337
 20
8.9330957889
 30
0.0
 10
10.2127673592
 20
8.9334902316
 30
0.0
 10
10.2126958334
 20
8.9341801949
 30
0.0
 10
10.2126022515
 20
8.9351660195
 30
0.0
 10
10.2124862731
 20
8.9363489394
 30
0.0
 10
10.2123329206
 20
8.9379261902
 30
0.0
 10
10.2121407899
 20
8.9398977455
 30
0.0
 10
10.2118336267
 20
8.9430522385
 30
0.0
 10
10.2114495884
 20
8.9469953532
 30
0.0
 10
10.2109887785
 20
8.9517270915
 30
0.0
 10
10.210527959
 20
8.9564588297
 30
0.0
 10
10.2099135363
 20
8.9627678139
 30
0.0
 10
10.2091455068
 20
8.9706540442
 30
0.0
 10
10.208377478
 20
8.9785402746
 30
0.0
 10
10.207763054
 20
8.9848492587
 30
0.0
 10
10.2073022385
 20
8.9895809971
 30
0.0
 10
10.2068414136
 20
8.9943127344
 30
0.0
 10
10.206457422
 20
8.9982558525
 30
0.0
 10
10.2061501636
 20
9.0014103386
 30
0.0
 10
10.2059582752
 20
9.0033819115
 30
0.0
 10
10.2058044253
 20
9.0049591261
 30
0.0
 10
10.2056899668
 20
9.0061421566
 30
0.0
 10
10.2055916294
 20
9.0071276352
 30
0.0
 10
10.2055285929
 20
9.0078182163
 30
0.0
 10
10.2054835164
 20
9.008211669
 30
0.0
 10
10.2054752191
 20
9.0085100406
 30
0.0
 10
10.205369409
 20
9.0087958666
 30
0.0
 10
10.2052623425
 20
9.009181344
 30
0.0
 10
10.2050591284
 20
9.0098538906
 30
0.0
 10
10.204777108
 20
9.0108157374
 30
0.0
 10
10.2044351371
 20
9.0119694972
 30
0.0
 10
10.2039804145
 20
9.0135080031
 30
0.0
 10
10.2034115872
 20
9.0154310809
 30
0.0
 10
10.2025017006
 20
9.0185080358
 30
0.0
 10
10.2013642609
 20
9.0223542189
 30
0.0
 10
10.1999993682
 20
9.0269696432
 30
0.0
 10
10.1986344661
 20
9.0315850663
 30
0.0
 10
10.1968146
 20
9.0377389642
 30
0.0
 10
10.1945397661
 20
9.0454313364
 30
0.0
 10
10.192264933
 20
9.0531237087
 30
0.0
 10
10.1904450656
 20
9.0592776063
 30
0.0
 10
10.1890801674
 20
9.0638930303
 30
0.0
 10
10.1877152603
 20
9.0685084513
 30
0.0
 10
10.1865778652
 20
9.0723546448
 30
0.0
 10
10.1856678877
 20
9.0754315786
 30
0.0
 10
10.1850992915
 20
9.0773547101
 30
0.0
 10
10.1846440947
 20
9.0788931057
 30
0.0
 10
10.1843035727
 20
9.0800472025
 30
0.0
 10
10.1840170189
 20
9.081007995
 30
0.0
 10
10.1838218975
 20
9.0816824236
 30
0.0
 10
10.1837018646
 20
9.0820648855
 30
0.0
 10
10.1836358831
 20
9.0823599744
 30
0.0
 10
10.1834779962
 20
9.0826235562
 30
0.0
 10
10.183299538
 20
9.0829859887
 30
0.0
 10
10.1829722998
 20
9.0836151251
 30
0.0
 10
10.1825126256
 20
9.0845165684
 30
0.0
 10
10.1819576741
 20
9.0855971545
 30
0.0
 10
10.1812189061
 20
9.0870383362
 30
0.0
 10
10.1802950465
 20
9.0888396763
 30
0.0
 10
10.1788170945
 20
9.0917218971
 30
0.0
 10
10.1769695779
 20
9.0953246467
 30
0.0
 10
10.1747525907
 20
9.0996479576
 30
0.0
 10
10.1725355948
 20
9.1039712654
 30
0.0
 10
10.1695796034
 20
9.1097356769
 30
0.0
 10
10.1658846129
 20
9.1169411909
 30
0.0
 10
10.1621896231
 20
9.1241467052
 30
0.0
 10
10.1592336305
 20
9.1299111162
 30
0.0
 10
10.1570166382
 20
9.1342344255
 30
0.0
 10
10.1547996374
 20
9.1385577308
 30
0.0
 10
10.1529521633
 20
9.1421604978
 30
0.0
 10
10.1514741245
 20
9.1450426831
 30
0.0
 10
10.1505504858
 20
9.1468441133
 30
0.0
 10
10.1498112644
 20
9.1482851101
 30
0.0
 10
10.1492576984
 20
9.1493662613
 30
0.0
 10
10.1487936892
 20
9.1502659366
 30
0.0
 10
10.1484741897
 20
9.1508982292
 30
0.0
 10
10.1482833322
 20
9.1512556046
 30
0.0
 10
10.1481635318
 20
9.1515347203
 30
0.0
 10
10.1479545037
 20
9.1517714665
 30
0.0
 10
10.1477069231
 20
9.152101907
 30
0.0
 10
10.147259156
 20
9.1526732922
 30
0.0
 10
10.1466270702
 20
9.1534931566
 30
0.0
 10
10.145865322
 20
9.154475453
 30
0.0
 10
10.1448507913
 20
9.1557857198
 30
0.0
 10
10.1435822398
 20
9.1574233691
 30
0.0
 10
10.1415527743
 20
9.1600437108
 30
0.0
 10
10.1390158681
 20
9.1633191026
 30
0.0
 10
10.1359716124
 20
9.1672495879
 30
0.0
 10
10.1329273482
 20
9.1711800692
 30
0.0
 10
10.1288683323
 20
9.1764207124
 30
0.0
 10
10.1237945613
 20
9.1829715157
 30
0.0
 10
10.118720791
 20
9.1895223196
 30
0.0
 10
10.1146617741
 20
9.1947629619
 30
0.0
 10
10.111617513
 20
9.1986934455
 30
0.0
 10
10.1085732457
 20
9.2026239221
 30
0.0
 10
10.1060363757
 20
9.2058993411
 30
0.0
 10
10.1040068362
 20
9.2085196274
 30
0.0
 10
10.1027384731
 20
9.2101574178
 30
0.0
 10
10.1017235556
 20
9.2114673948
 30
0.0
 10
10.1009629891
 20
9.2124505764
 30
0.0
 10
10.1003272065
 20
9.2132676715
 30
0.0
 10
10.0998860387
 20
9.2138440004
 30
0.0
 10
10.0996278845
 20
9.2141665198
 30
0.0
 10
10.0994513351
 20
9.2144275972
 30
0.0
 10
10.0992095497
 20
9.214615329
 30
0.0
 10
10.0989099242
 20
9.2148912218
 30
0.0
 10
10.0983749776
 20
9.2153621144
 30
0.0
 10
10.097616311
 20
9.2160410499
 30
0.0
 10
10.0967035386
 20
9.2168531051
 30
0.0
 10
10.0954873373
 20
9.2179367771
 30
0.0
 10
10.093966802
 20
9.219291048
 30
0.0
 10
10.0915341041
 20
9.2214580597
 30
0.0
 10
10.0884931773
 20
9.2241667633
 30
0.0
 10
10.0848440885
 20
9.2274172337
 30
0.0
 10
10.0811949934
 20
9.2306676971
 30
0.0
 10
10.0763295355
 20
9.2350016509
 30
0.0
 10
10.0702477123
 20
9.2404190921
 30
0.0
 10
10.0641658897
 20
9.2458365339
 30
0.0
 10
10.059300431
 20
9.2501704866
 30
0.0
 10
10.0556513383
 20
9.2534209531
 30
0.0
 10
10.0520022404
 20
9.256671412
 30
0.0
 10
10.0489613419
 20
9.2593801513
 30
0.0
 10
10.0465285863
 20
9.2615470902
 30
0.0
 10
10.045008198
 20
9.2629015466
 30
0.0
 10
10.043791695
 20
9.2639848377
 30
0.0
 10
10.0428798445
 20
9.2647980565
 30
0.0
 10
10.0421182932
 20
9.2654733515
 30
0.0
 10
10.0415884963
 20
9.265950743
 30
0.0
 10
10.0412806197
 20
9.2662162229
 30
0.0
 10
10.041064179
 20
9.2664359398
 30
0.0
 10
10.0407924391
 20
9.2665768868
 30
0.0
 10
10.0404494083
 20
9.2667922919
 30
0.0
 10
10.0398401172
 20
9.2671564494
 30
0.0
 10
10.0389744
 20
9.2676833672
 30
0.0
 10
10.0379335282
 20
9.2683128038
 30
0.0
 10
10.0365464016
 20
9.2691530532
 30
0.0
 10
10.0348122528
 20
9.2702030223
 30
0.0
 10
10.0320377491
 20
9.2718831644
 30
0.0
 10
10.0285695734
 20
9.2739832763
 30
0.0
 10
10.0244077823
 20
9.2765034388
 30
0.0
 10
10.0202459859
 20
9.2790235937
 30
0.0
 10
10.014696926
 20
9.2823838029
 30
0.0
 10
10.0077606003
 20
9.2865840635
 30
0.0
 10
10.0008242751
 20
9.2907843247
 30
0.0
 10
9.9952752145
 20
9.2941445328
 30
0.0
 10
9.99111342
 20
9.2966646911
 30
0.0
 10
9.9869516219
 20
9.2991848409
 30
0.0
 10
9.9834834681
 20
9.3012849923
 30
0.0
 10
9.9807089196
 20
9.3029650539
 30
0.0
 10
9.9789748849
 20
9.3040152278
 30
0.0
 10
9.9775875242
 20
9.3048550568
 30
0.0
 10
9.9765473676
 20
9.3054857777
 30
0.0
 10
9.9756794126
 20
9.3060086774
 30
0.0
 10
9.9750741162
 20
9.3063800078
 30
0.0
 10
9.9747246849
 20
9.3065839201
 30
0.0
 10
9.9744726052
 20
9.3067601696
 30
0.0
 10
9.9741823243
 20
9.3068472959
 30
0.0
 10
9.973808608
 20
9.3069945514
 30
0.0
 10
9.9731483962
 20
9.3072377644
 30
0.0
 10
9.9722084823
 20
9.307592784
 30
0.0
 10
9.9710791963
 20
9.3080155663
 30
0.0
 10
9.9695739668
 20
9.3085804082
 30
0.0
 10
9.9676922639
 20
9.3092860729
 30
0.0
 10
9.964681632
 20
9.310415353
 30
0.0
 10
9.9609183103
 20
9.3118268789
 30
0.0
 10
9.9564023379
 20
9.3135207417
 30
0.0
 10
9.9518863619
 20
9.3152145961
 30
0.0
 10
9.9458650618
 20
9.3174730716
 30
0.0
 10
9.9383384362
 20
9.3202961648
 30
0.0
 10
9.9308118108
 20
9.3231192587
 30
0.0
 10
9.9247905103
 20
9.3253777329
 30
0.0
 10
9.9202745356
 20
9.327071591
 30
0.0
 10
9.9157585581
 20
9.32876544
 30
0.0
 10
9.9119952522
 20
9.3301770092
 30
0.0
 10
9.9089845882
 20
9.3313062009
 30
0.0
 10
9.9071029669
 20
9.3320120907
 30
0.0
 10
9.9055975698
 20
9.3325764704
 30
0.0
 10
9.904468796
 20
9.3330006645
 30
0.0
 10
9.9035272796
 20
9.3333512672
 30
0.0
 10
9.9028699285
 20
9.3336023652
 30
0.0
 10
9.9024916286
 20
9.333736987
 30
0.0
 10
9.9022154271
 20
9.3338629198
 30
0.0
 10
9.9019104672
 20
9.3338934181
 30
0.0
 10
9.9015138853
 20
9.3339673712
 30
0.0
 10
9.9008151932
 20
9.3340812792
 30
0.0
 10
9.899819505
 20
9.3342521137
 30
0.0
 10
9.8986236334
 20
9.3344536443
 30
0.0
 10
9.8970295032
 20
9.334723564
 30
0.0
 10
9.8950367153
 20
9.3350605485
 30
0.0
 10
9.8918483247
 20
9.3355999558
 30
0.0
 10
9.8878628124
 20
9.3362741353
 30
0.0
 10
9.8830802079
 20
9.3370831848
 30
0.0
 10
9.8782976007
 20
9.3378922251
 30
0.0
 10
9.871920792
 20
9.3389709488
 30
0.0
 10
9.8639497808
 20
9.3403193523
 30
0.0
 10
9.8543845675
 20
9.341937437
 30
0.0
 10
9.8416309498
 20
9.3440948831
 30
0.0
 10
9.8320657365
 20
9.3457129677
 30
0.0
 10
9.8256889276
 20
9.3467916908
 30
0.0
  0
ENDSEC
  0
SECTION
  2
OBJECTS
  0
DICTIONARY
  5
C
100
AcDbDictionary
280
0
281
1
  3
ACAD_GROUP
350
D
  3
ACAD_MLINESTYLE
350
17
  3
ACAD_LAYOUT
350
1A
  3
ACAD_PLOTSETTINGS
350
19
  3
ACAD_PLOTSTYLENAME
350
E
  3
ACAD_IMAGE_DICT
350
       36E
  3
ACAD_IMAGE_VARS
350
       36F
  3
ACAD_TABLESTYLE
350
       370
  0
IMAGEDEF_REACTOR
  5
36D
100
AcDbRasterImageDefReactor
 90
2
330
27F
  0
DICTIONARY
  5
D
102
{ACAD_REACTORS
330
C
102
}
100
AcDbDictionary
280
0
281
1
  0
ACDBDICTIONARYWDFLT
  5
E
102
{ACAD_REACTORS
330
C
102
}
100
AcDbDictionary
281
1
  3
Normal
350
F
100
AcDbDictionaryWithDefault
340
F
  0
DICTIONARY
  5
36E
330
C
100
AcDbDictionary
281
1
  3
FNC_assy_2_img_1
350
       373
  0
RASTERVARIABLES
  5
36F
330
C
100
AcDbRasterVariables
 90
0
 70
0
 71
1
 72
5
  0
DICTIONARY
  5
17
102
{ACAD_REACTORS
330
C
102
}
100
AcDbDictionary
280
0
281
1
  3
Standard
350
18
  0
DICTIONARY
  5
370
330
C
100
AcDbDictionary
281
1
  3
Standard
350
       374
  3
Standard1
350
       375
  0
DICTIONARY
  5
19
102
{ACAD_REACTORS
330
C
102
}
100
AcDbDictionary
281
1
  0
DICTIONARY
  5
1A
102
{ACAD_REACTORS
330
C
102
}
100
AcDbDictionary
281
1
  3
Model
350
371
  3
Layout1
350
372
  0
ACDBPLACEHOLDER
  5
F
102
{ACAD_REACTORS
330
E
102
}
  0
MLINESTYLE
  5
18
102
{ACAD_REACTORS
330
17
102
}
100
AcDbMlineStyle
  2
STANDARD
 70
0
  3

 62
256
 51
90.0
 52
90.0
 71
2
 49
0.5
 62
256
  6
BYLAYER
 49
-0.5
 62
256
  6
BYLAYER
  0
LAYOUT
  5
371
102
{ACAD_REACTORS
330
1A
102
}
100
AcDbPlotSettings
  1

  2
none_device
  4
ANSI_C_(22.00_x_17.00_Inches)
  6

 40
0.0
 41
0.0
 42
0.0
 43
0.0
 44
558.8
 45
431.8
 46
0.0
 47
0.0
 48
0.0
 49
0.0
140
0.0
141
0.0
142
1.0
143
1.0
 70
1024
 72
0
 73
0
 74
0
  7

 75
0
147
1.0
148
0.0
149
0.0
100
AcDbLayout
  1
Model
 70
0
 71
0
 10
0.0
 20
0.0
 11
22.0
 21
17.0
 12
0.0
 22
0.0
 32
0.0
 14
0.0
 24
0.0
 34
0.0
 15
0.0
 25
0.0
 35
0.0
146
0.0
 13
0.0
 23
0.0
 33
0.0
 16
1.0
 26
0.0
 36
0.0
 17
0.0
 27
1.0
 37
0.0
 76
0
330
204
345
0
346
0
  0
LAYOUT
  5
372
102
{ACAD_REACTORS
330
1A
102
}
100
AcDbPlotSettings
  1

  2
none_device
  4
ANSI_C_(22.00_x_17.00_Inches)
  6

 40
0.0
 41
0.0
 42
0.0
 43
0.0
 44
558.8
 45
431.8
 46
0.0
 47
0.0
 48
0.0
 49
0.0
140
0.0
141
0.0
142
1.0
143
1.0
 70
0
 72
0
 73
0
 74
0
  7

 75
0
147
1.0
148
0.0
149
0.0
100
AcDbLayout
  1
Layout1
 70
0
 71
1
 10
0.0
 20
0.0
 11
22.0
 21
17.0
 12
0.0
 22
0.0
 32
0.0
 14
0.0
 24
0.0
 34
0.0
 15
0.0
 25
0.0
 35
0.0
146
0.0
 13
0.0
 23
0.0
 33
0.0
 16
1.0
 26
0.0
 36
0.0
 17
0.0
 27
1.0
 37
0.0
 76
0
330
205
345
0
346
0
  0
IMAGEDEF
  5
373
102
{ACAD_REACTORS
330
36E
330
36D
102
}
100
AcDbRasterImageDef
 90
0
  1
FNC_assy_2_img_1.png
 10
369.0
 20
92.0
 11
0.0066666667
 21
0.0066666667
280
1
281
0
  0
TABLESTYLE
  5
374
102
{ACAD_REACTORS
330
370
330
282
330
283
102
}
330
370
100
AcDbTableStyle
  3
Standard
 70
0
 71
0
 40
0.06
 41
0.06
280
1
281
1
  7
Standard
140
0.18
170
1
 62
0
 63
7
283
0
  7
Standard
140
0.18
170
1
 62
0
 63
7
283
0
  7
Standard
140
0.18
170
1
 62
0
 63
7
283
0
  0
TABLESTYLE
  5
375
102
{ACAD_REACTORS
330
370
330
281
102
}
330
370
100
AcDbTableStyle
  3
Standard1
 70
1
 71
0
 40
0.06
 41
0.06
280
1
281
1
  7
Standard
140
0.18
170
1
 62
0
 63
7
283
0
  7
Standard
140
0.18
170
1
 62
0
 63
7
283
0
  7
Standard
140
0.18
170
1
 62
0
 63
7
283
0
  0
ENDSEC
  0
EOF
