999
DXF file: FMV_assy_2.dxf
999
Pro/ENGINEER 2014200 by Parametric Technology Corporation
  0
SECTION
  2
HEADER
  9
$ACADVER
  1
AC1021
  9
$DWGCODEPAGE
  3
ANSI_1252
  9
$EXTMAX
 10
22.0
 20
17.0
 30
0.0
  9
$EXTMIN
 10
0.0
 20
0.0
 30
0.0
  9
$LIMMIN
 10
0.0
 20
0.0
  9
$LIMMAX
 10
22.0
 20
17.0
  9
$VIEWCTR
 10
11.0
 20
8.5
  9
$VIEWSIZE
 40
17.0
  9
$CLAYER
  8
0
  9
$LTSCALE
 40
1.21
  9
$CELTYPE
  6
BYLAYER
  9
$DIMSCALE
 40
1.0
  9
$DIMASZ
 40
0.1875
  9
$DIMEXO
 40
0.0625
  9
$DIMDLI
 40
0.836
  9
$DIMEXE
 40
0.125
  9
$DIMCEN
 40
0.198
  9
$DIMLFAC
 40
1.0
  9
$DIMBLK
  1
_FILLED
  9
$DIMTXT
 40
0.1
  9
$DIMTOL
 70
0
  9
$DIMLIM
 70
0
  9
$DIMTFAC
 40
1.0
  9
$DIMGAP
 40
0.09
  9
$DIMDSEP
 70
46
  9
$AUNITS
 70
0
  9
$PDMODE
 70
3
  9
$PDSIZE
 40
0.3125
  9
$HANDSEED
  5
39A
  9
$TILEMODE
 70
1
  9
$MEASUREMENT
 70
0
  9
$INSUNITS
 70
1
  0
ENDSEC
  0
SECTION
  2
CLASSES
  0
CLASS
  1
ACDBDICTIONARYWDFLT
  2
AcDbDictionaryWithDefault
  3
AutoCAD 2000
 90
0
 91
1
280
0
281
0
  0
CLASS
  1
ACDBPLACEHOLDER
  2
AcDbPlaceHolder
  3
AutoCAD 2000
 90
0
 91
1
280
0
281
0
  0
CLASS
  1
LAYOUT
  2
AcDbLayout
  3
AutoCAD 2000
 90
0
 91
0
280
0
281
0
  0
CLASS
  1
RASTERVARIABLES
  2
AcDbRasterVariables
  3
ISM
 90
0
 91
1
280
0
281
0
  0
CLASS
  1
IMAGEDEF
  2
AcDbRasterImageDef
  3
ISM
 90
0
 91
1
280
0
281
0
  0
CLASS
  1
IMAGEDEF_REACTOR
  2
AcDbRasterImageDefReactor
  3
ISM
 90
0
 91
1
280
0
281
0
  0
CLASS
  1
IMAGE
  2
AcDbRasterImage
  3
ISM
 90
127
 91
1
280
0
281
1
  0
CLASS
  1
TABLESTYLE
  2
AcDbTableStyle
  3
ObjectDBX Classes
 90
2047
 91
1
280
0
281
0
  0
CLASS
  1
ACAD_TABLE
  2
AcDbTable
  3
ObjectDBX Classes
 90
1025
 91
3
280
0
281
1
  0
ENDSEC
  0
SECTION
  2
TABLES
  0
TABLE
  2
VPORT
  5
8
100
AcDbSymbolTable
 70
2
  0
VPORT
  5
1F4
100
AcDbSymbolTableRecord
100
AcDbViewportTableRecord
  2
*ACTIVE
 70
0
 10
0.0
 20
0.0
 11
1.0
 21
1.0
 12
11.0
 22
8.5
 13
0.0
 23
0.0
 14
1.0
 24
1.0
 15
0.0
 25
0.0
 16
0.0
 26
0.0
 36
1.0
 17
0.0
 27
0.0
 37
0.0
 40
17.0
 41
1.2941176471
 42
50.0
 43
0.0
 44
0.0
 50
0.0
 51
0.0
 71
0
 72
100
 73
1
 74
1
 75
0
 76
0
 77
0
 78
0
  0
ENDTAB
  0
TABLE
  2
LTYPE
  5
5
100
AcDbSymbolTable
 70
6
  0
LTYPE
  5
14
100
AcDbSymbolTableRecord
100
AcDbLinetypeTableRecord
  2
BYBLOCK
 70
0
  3

 72
65
 73
0
 40
0.0
  0
LTYPE
  5
15
100
AcDbSymbolTableRecord
100
AcDbLinetypeTableRecord
  2
BYLAYER
 70
0
  3

 72
65
 73
0
 40
0.0
  0
LTYPE
  5
16
100
AcDbSymbolTableRecord
100
AcDbLinetypeTableRecord
  2
CONTINUOUS
 70
64
  3
Solid line
 72
65
 73
0
 40
0.0
  0
LTYPE
  5
1F5
100
AcDbSymbolTableRecord
100
AcDbLinetypeTableRecord
  2
CENTER
 70
64
  3
____ _ ____ _ ____ _ ____ _ ____ _ ____ _ ____
 72
65
 73
4
 40
0.6
 49
0.375
 74
0
 49
-0.075
 74
0
 49
0.075
 74
0
 49
-0.075
 74
0
  0
LTYPE
  5
1F6
100
AcDbSymbolTableRecord
100
AcDbLinetypeTableRecord
  2
HIDDEN
 70
64
  3
- - - - - - - - - - - - - - - - - - - -
 72
65
 73
2
 40
0.2
 49
0.1
 74
0
 49
-0.1
 74
0
  0
LTYPE
  5
1F7
100
AcDbSymbolTableRecord
100
AcDbLinetypeTableRecord
  2
PHANTOM
 70
64
  3
_____ _ _ _____ _ _ _____ _ _ _____
 72
65
 73
6
 40
0.8
 49
0.45
 74
0
 49
-0.05
 74
0
 49
0.1
 74
0
 49
-0.05
 74
0
 49
0.1
 74
0
 49
-0.05
 74
0
  0
LTYPE
  5
1F8
100
AcDbSymbolTableRecord
100
AcDbLinetypeTableRecord
  2
DOT
 70
64
  3
. . . . . . . . . . . . . . . . . . . .
 72
65
 73
2
 40
0.2
 49
0.1
 74
0
 49
-0.1
 74
0
  0
LTYPE
  5
1F9
100
AcDbSymbolTableRecord
100
AcDbLinetypeTableRecord
  2
DASHED
 70
64
  3
- - - - - - - - - - - - - - - - - - - -
 72
65
 73
2
 40
0.2
 49
0.1
 74
0
 49
-0.1
 74
0
  0
ENDTAB
  0
TABLE
  2
LAYER
  5
2
100
AcDbSymbolTable
 70
36
  0
LAYER
  5
10
100
AcDbSymbolTableRecord
100
AcDbLayerTableRecord
  2
0
 70
0
 62
7
  6
CONTINUOUS
370
-3
390
F
  0
LAYER
  5
1FA
100
AcDbSymbolTableRecord
100
AcDbLayerTableRecord
  2
DEFAULT_1
 70
0
 62
7
  6
CENTER
370
-3
390
F
  0
LAYER
  5
1FB
100
AcDbSymbolTableRecord
100
AcDbLayerTableRecord
  2
DEFAULT_2
 70
0
 62
8
  6
HIDDEN
370
-3
390
F
  0
LAYER
  5
1FC
100
AcDbSymbolTableRecord
100
AcDbLayerTableRecord
  2
DEFAULT_3
 70
0
 62
7
  6
PHANTOM
370
-3
390
F
  0
LAYER
  5
1FD
100
AcDbSymbolTableRecord
100
AcDbLayerTableRecord
  2
DATUM_PLANES
 70
0
 62
7
  6
CONTINUOUS
370
-3
390
F
  0
LAYER
  5
1FE
100
AcDbSymbolTableRecord
100
AcDbLayerTableRecord
  2
PORT_AREAS
 70
0
 62
7
  6
CONTINUOUS
370
-3
390
F
  0
LAYER
  5
1FF
100
AcDbSymbolTableRecord
100
AcDbLayerTableRecord
  2
SUNNBOMCOSMETIC
 70
0
 62
7
  6
CONTINUOUS
370
-3
390
F
  0
LAYER
  5
200
100
AcDbSymbolTableRecord
100
AcDbLayerTableRecord
  2
SUNNBOMSTAMPING
 70
0
 62
7
  6
CONTINUOUS
370
-3
390
F
  0
LAYER
  5
201
100
AcDbSymbolTableRecord
100
AcDbLayerTableRecord
  2
THREADS
 70
0
 62
7
  6
CONTINUOUS
370
-3
390
F
  0
ENDTAB
  0
TABLE
  2
STYLE
  5
3
100
AcDbSymbolTable
 70
1
  0
STYLE
  5
11
100
AcDbSymbolTableRecord
100
AcDbTextStyleTableRecord
  2
STANDARD
 70
0
 40
0.0
 41
0.8
 50
0.0
 71
0
 42
0.2
  3
txt
  4

  0
STYLE
  5
202
100
AcDbSymbolTableRecord
100
AcDbTextStyleTableRecord
  2
TEXTSTYLE_1
 70
0
 40
0.0
 41
0.8
 50
0.0
 71
0
 42
0.2
  3
gdt
  4

  0
ENDTAB
  0
TABLE
  2
VIEW
  5
6
100
AcDbSymbolTable
 70
0
  0
ENDTAB
  0
TABLE
  2
UCS
  5
7
100
AcDbSymbolTable
 70
0
  0
ENDTAB
  0
TABLE
  2
APPID
  5
9
100
AcDbSymbolTable
 70
1
  0
APPID
  5
203
100
AcDbSymbolTableRecord
100
AcDbRegAppTableRecord
  2
ACAD
 70
0
  0
ENDTAB
  0
TABLE
  2
BLOCK_RECORD
  5
1
100
AcDbSymbolTable
 70
0
  0
BLOCK_RECORD
  5
204
100
AcDbSymbolTableRecord
100
AcDbBlockTableRecord
  2
*Model_Space
  0
BLOCK_RECORD
  5
205
100
AcDbSymbolTableRecord
100
AcDbBlockTableRecord
  2
*Paper_Space
  0
BLOCK_RECORD
  5
206
100
AcDbSymbolTableRecord
100
AcDbBlockTableRecord
  2
SUN_FIRST_THIRD_ANGLE_BL0
  0
BLOCK_RECORD
  5
207
100
AcDbSymbolTableRecord
100
AcDbBlockTableRecord
  2
*T1
  0
BLOCK_RECORD
  5
208
100
AcDbSymbolTableRecord
100
AcDbBlockTableRecord
  2
*T2
  0
BLOCK_RECORD
  5
209
100
AcDbSymbolTableRecord
100
AcDbBlockTableRecord
  2
*T3
  0
ENDTAB
  0
TABLE
  2
DIMSTYLE
  5
A
100
AcDbSymbolTable
 70
1
100
AcDbDimStyleTable
 71
0
  0
DIMSTYLE
105
20A
100
AcDbSymbolTableRecord
100
AcDbDimStyleTableRecord
  2
STANDARD
 70
0
  3

  4

 40
1.0
 41
0.1875
 42
0.0625
 43
0.38
 44
0.125
 45
0.0
 46
0.0
 47
0.001
 48
0.001
140
0.1
141
0.09
142
0.0
143
25.4
144
1.0
145
0.0
146
1.0
147
0.09
 71
0.0
 72
0.0
 73
1
 74
1
 75
0
 76
0
 77
0
 78
4
170
0
171
2
172
0
173
0
174
0
175
0
176
0
177
0
178
0
270
2
271
3
272
3
273
2
274
2
275
0
280
0
281
0
282
0
283
1
284
4
285
0
286
0
287
3
288
0
340
11
278
46
  0
ENDTAB
  0
ENDSEC
  0
SECTION
  2
BLOCKS
  0
BLOCK
  5
20
100
AcDbEntity
  8
0
100
AcDbBlockBegin
  2
*Model_Space
 70
0
 10
0.0
 20
0.0
 30
0.0
  3
*Model_Space
  1

  0
ENDBLK
  5
21
100
AcDbEntity
  8
0
100
AcDbBlockEnd
  0
BLOCK
  5
1C
100
AcDbEntity
  8
0
100
AcDbBlockBegin
  2
*Paper_Space
 70
0
 10
0.0
 20
0.0
 30
0.0
  3
*Paper_Space
  1

  0
ENDBLK
  5
1D
100
AcDbEntity
  8
0
100
AcDbBlockEnd
  0
BLOCK
  5
20B
100
AcDbEntity
  8
0
100
AcDbBlockBegin
 62
2
  6
CONTINUOUS
  2
SUN_FIRST_THIRD_ANGLE_BL0
 70
64
 10
20.4816717061
 20
1.2289683772
  3
SUN_FIRST_THIRD_ANGLE_BL0
  1

  0
TEXT
  5
20C
100
AcDbEntity
  8
0
100
AcDbText
 62
2
  6
CONTINUOUS
 10
19.4750896608
 20
1.4136269581
  7
STANDARD
 40
0.08
  1
FIRST ANGLE
 41
0.8
 72
0
100
AcDbText
  0
TEXT
  5
20D
100
AcDbEntity
  8
0
100
AcDbText
 62
2
  6
CONTINUOUS
 10
20.7842537513
 20
1.4047600029
  7
STANDARD
 40
0.08
  1
THIRD ANGLE
 41
0.8
 72
0
100
AcDbText
  0
LINE
  5
20E
100
AcDbEntity
  8
0
100
AcDbLine
 62
7
  6
CONTINUOUS
 10
19.4767170086
 20
1.1727031207
 11
19.6334271527
 21
1.1717972817
  0
LINE
  5
20F
100
AcDbEntity
  8
0
100
AcDbLine
 62
7
  6
CONTINUOUS
 10
19.6596964832
 20
1.1717972817
 11
19.6950230232
 21
1.171593082
  0
LINE
  5
210
100
AcDbEntity
  8
0
100
AcDbLine
 62
7
  6
CONTINUOUS
 10
19.7194818561
 20
1.1708914427
 11
19.8852396156
 21
1.1699333054
  0
LINE
  5
211
100
AcDbEntity
  8
0
100
AcDbLine
 62
7
  6
CONTINUOUS
 10
19.4758111696
 20
1.2723454088
 11
19.88525039
 21
1.3511534004
  0
LINE
  5
212
100
AcDbEntity
  8
0
100
AcDbLine
 62
7
  6
CONTINUOUS
 10
19.88525039
 20
1.3511534004
 11
19.8831348489
 21
0.9851647912
  0
LINE
  5
213
100
AcDbEntity
  8
0
100
AcDbLine
 62
7
  6
CONTINUOUS
 10
19.8831348489
 20
0.9851647912
 11
19.4767170086
 21
1.0658141206
  0
LINE
  5
214
100
AcDbEntity
  8
0
100
AcDbLine
 62
7
  6
CONTINUOUS
 10
19.4767170086
 20
1.0658141206
 11
19.4779056764
 21
1.2714536432
  0
CIRCLE
  5
215
100
AcDbEntity
  8
0
100
AcDbCircle
 62
7
  6
CONTINUOUS
 10
20.2068232291
 20
1.1717972817
 40
0.175742101
  0
CIRCLE
  5
216
100
AcDbEntity
  8
0
100
AcDbCircle
 62
7
  6
CONTINUOUS
 10
20.2068232291
 20
1.1717972817
 40
0.1005522074
  0
LINE
  5
217
100
AcDbEntity
  8
0
100
AcDbLine
 62
7
  6
CONTINUOUS
 10
20.2077290681
 20
1.3756110529
 11
20.2071171714
 21
1.2379342989
  0
LINE
  5
218
100
AcDbEntity
  8
0
100
AcDbLine
 62
7
  6
CONTINUOUS
 10
20.2077290681
 20
1.2016899681
 11
20.2074674401
 21
1.1428236749
  0
LINE
  5
219
100
AcDbEntity
  8
0
100
AcDbLine
 62
7
  6
CONTINUOUS
 10
20.208634907
 20
1.101141841
 11
20.2080230104
 21
0.963465087
  0
LINE
  5
21A
100
AcDbEntity
  8
0
100
AcDbLine
 62
7
  6
CONTINUOUS
 10
20.0066328138
 20
1.1745147986
 11
20.1443095678
 21
1.1739029019
  0
LINE
  5
21B
100
AcDbEntity
  8
0
100
AcDbLine
 62
7
  6
CONTINUOUS
 10
20.1832714155
 20
1.1727031207
 11
20.238153505
 21
1.172335442
  0
LINE
  5
21C
100
AcDbEntity
  8
0
100
AcDbLine
 62
7
  6
CONTINUOUS
 10
20.2756669918
 20
1.1717972817
 11
20.407916871
 21
1.1712095044
  0
CIRCLE
  5
21D
100
AcDbEntity
  8
0
100
AcDbCircle
 62
7
  6
CONTINUOUS
 10
20.7509457401
 20
1.1693297793
 40
0.1722024983
  0
CIRCLE
  5
21E
100
AcDbEntity
  8
0
100
AcDbCircle
 62
7
  6
CONTINUOUS
 10
20.7509457401
 20
1.1693297793
 40
0.0985164967
  0
LINE
  5
21F
100
AcDbEntity
  8
0
100
AcDbLine
 62
7
  6
CONTINUOUS
 10
20.7169767782
 20
1.170462078
 11
20.7825395137
 21
1.1682766535
  0
LINE
  5
220
100
AcDbEntity
  8
0
100
AcDbLine
 62
7
  6
CONTINUOUS
 10
20.8177513651
 20
1.1693297793
 11
20.947965719
 21
1.1693297793
  0
LINE
  5
221
100
AcDbEntity
  8
0
100
AcDbLine
 62
7
  6
CONTINUOUS
 10
20.6875370113
 20
1.170462078
 11
20.5573226574
 21
1.170462078
  0
LINE
  5
222
100
AcDbEntity
  8
0
100
AcDbLine
 62
7
  6
CONTINUOUS
 10
20.7486811426
 20
1.1987695462
 11
20.7486811426
 21
1.1432869085
  0
LINE
  5
223
100
AcDbEntity
  8
0
100
AcDbLine
 62
7
  6
CONTINUOUS
 10
20.7498134414
 20
1.1059210505
 11
20.7498134414
 21
0.9757066966
  0
LINE
  5
224
100
AcDbEntity
  8
0
100
AcDbLine
 62
7
  6
CONTINUOUS
 10
20.7486811426
 20
1.2338708068
 11
20.7486811426
 21
1.3640851607
  0
LINE
  5
225
100
AcDbEntity
  8
0
100
AcDbLine
 62
7
  6
CONTINUOUS
 10
21.0702539817
 20
1.2701043662
 11
21.4790138229
 21
1.3448360823
  0
LINE
  5
226
100
AcDbEntity
  8
0
100
AcDbLine
 62
7
  6
CONTINUOUS
 10
21.4790138229
 20
1.3448360823
 11
21.4790138229
 21
0.9779712941
  0
LINE
  5
227
100
AcDbEntity
  8
0
100
AcDbLine
 62
7
  6
CONTINUOUS
 10
21.4790138229
 20
0.9779712941
 11
21.069121683
 21
1.0617614
  0
LINE
  5
228
100
AcDbEntity
  8
0
100
AcDbLine
 62
7
  6
CONTINUOUS
 10
21.0702539817
 20
1.2701043662
 11
21.069121683
 21
1.0617614
  0
LINE
  5
229
100
AcDbEntity
  8
0
100
AcDbLine
 62
7
  6
CONTINUOUS
 10
21.4790138229
 20
1.1693297793
 11
21.3159628059
 21
1.1693297793
  0
LINE
  5
22A
100
AcDbEntity
  8
0
100
AcDbLine
 62
7
  6
CONTINUOUS
 10
21.2876553377
 20
1.1693297793
 11
21.2502894796
 21
1.1693297793
  0
LINE
  5
22B
100
AcDbEntity
  8
0
100
AcDbLine
 62
7
  6
CONTINUOUS
 10
21.2208497126
 20
1.1659328831
 11
21.0713862804
 21
1.1659328831
  0
LINE
  5
22C
100
AcDbEntity
  8
0
100
AcDbLine
 62
7
  6
CONTINUOUS
 10
20.4796138713
 20
1.5284908897
 11
20.4766766948
 21
0.9294458646
  0
ENDBLK
  5
22D
100
AcDbEntity
  8
0
  6
BYBLOCK
 62
0
100
AcDbBlockEnd
  0
BLOCK
  5
22E
100
AcDbEntity
  8
0
100
AcDbBlockBegin
  2
*T1
 70
1
 10
0.0
 20
0.0
  3
*T1
  1

  0
LINE
  5
22F
100
AcDbEntity
  8
0
100
AcDbLine
 62
2
  6
CONTINUOUS
 10
9.275
 20
0.0
 11
-0.0
 21
0.0
  0
LINE
  5
230
100
AcDbEntity
  8
0
100
AcDbLine
 62
2
  6
CONTINUOUS
 10
9.275
 20
0.0
 11
9.275
 21
1.25
  0
LINE
  5
231
100
AcDbEntity
  8
0
100
AcDbLine
 62
2
  6
CONTINUOUS
 10
9.275
 20
0.625
 11
-0.0
 21
0.625
  0
LINE
  5
232
100
AcDbEntity
  8
0
100
AcDbLine
 62
2
  6
CONTINUOUS
 10
9.275
 20
1.25
 11
-0.0
 21
1.25
  0
LINE
  5
233
100
AcDbEntity
  8
0
100
AcDbLine
 62
2
  6
CONTINUOUS
 10
6.8
 20
0.0
 11
6.8
 21
1.25
  0
LINE
  5
234
100
AcDbEntity
  8
0
100
AcDbLine
 62
2
  6
CONTINUOUS
 10
6.4
 20
0.0
 11
6.4
 21
0.625
  0
LINE
  5
235
100
AcDbEntity
  8
0
100
AcDbLine
 62
2
  6
CONTINUOUS
 10
5.9
 20
0.0
 11
5.9
 21
0.625
  0
LINE
  5
236
100
AcDbEntity
  8
0
100
AcDbLine
 62
2
  6
CONTINUOUS
 10
5.2
 20
0.0
 11
5.2
 21
0.625
  0
LINE
  5
237
100
AcDbEntity
  8
0
100
AcDbLine
 62
2
  6
CONTINUOUS
 10
4.1
 20
0.0
 11
4.1
 21
1.25
  0
LINE
  5
238
100
AcDbEntity
  8
0
100
AcDbLine
 62
2
  6
CONTINUOUS
 10
-0.0
 20
0.0
 11
-0.0
 21
1.25
  0
MTEXT
  5
239
100
AcDbEntity
  8
0
100
AcDbMText
 62
2
  6
CONTINUOUS
  7
STANDARD
 71
2
 72
1
 10
6.6
 20
0.325
 30
0.0
 11
1.0
 21
0.0
 31
0.0
 44
0.9
  1
2
 40
0.125
 41
0.2
  0
MTEXT
  5
23A
100
AcDbEntity
  8
0
100
AcDbMText
 62
2
  6
CONTINUOUS
  7
STANDARD
 71
2
 72
1
 10
6.15
 20
0.325
 30
0.0
 11
1.0
 21
0.0
 31
0.0
 44
0.9
  1
C
 40
0.125
 41
0.2
  0
MTEXT
  5
23B
100
AcDbEntity
  8
0
100
AcDbMText
 62
2
  6
CONTINUOUS
  7
STANDARD
 71
2
 72
1
 10
5.55
 20
0.325
 30
0.0
 11
1.0
 21
0.0
 31
0.0
 44
0.9
  1
2.000
 40
0.125
 41
1.0
  0
MTEXT
  5
23C
100
AcDbEntity
  8
0
100
AcDbMText
 62
2
  6
CONTINUOUS
  7
STANDARD
 71
2
 72
1
 10
4.65
 20
0.325
 30
0.0
 11
1.0
 21
0.0
 31
0.0
 44
0.9
  1
Jul-29-19
 40
0.125
 41
1.8
  0
MTEXT
  5
23D
100
AcDbEntity
  8
0
100
AcDbMText
 62
2
  6
CONTINUOUS
  7
STANDARD
 71
2
 72
1
 10
2.05
 20
0.4625
 30
0.0
 11
1.0
 21
0.0
 31
0.0
 44
0.9
  1
T-10A Line mount\PCross port with make up checks
 40
0.125
 41
6.0
  0
MTEXT
  5
23E
100
AcDbEntity
  8
0
100
AcDbMText
 62
2
  6
CONTINUOUS
  7
STANDARD
 71
1
 72
1
 10
6.45
 20
0.5625
 30
0.0
 11
1.0
 21
0.0
 31
0.0
 44
0.9
  1
SHEET
 40
0.06
 41
0.48
  0
MTEXT
  5
23F
100
AcDbEntity
  8
0
100
AcDbMText
 62
2
  6
CONTINUOUS
  7
STANDARD
 71
1
 72
1
 10
5.95
 20
0.5625
 30
0.0
 11
1.0
 21
0.0
 31
0.0
 44
0.9
  1
DWG SIZE
 40
0.06
 41
0.768
  0
MTEXT
  5
240
100
AcDbEntity
  8
0
100
AcDbMText
 62
2
  6
CONTINUOUS
  7
STANDARD
 71
1
 72
1
 10
5.25
 20
0.5625
 30
0.0
 11
1.0
 21
0.0
 31
0.0
 44
0.9
  1
SCALE
 40
0.06
 41
0.48
  0
MTEXT
  5
241
100
AcDbEntity
  8
0
100
AcDbMText
 62
2
  6
CONTINUOUS
  7
STANDARD
 71
1
 72
1
 10
4.15
 20
0.5625
 30
0.0
 11
1.0
 21
0.0
 31
0.0
 44
0.9
  1
DATE
 40
0.06
 41
0.384
  0
MTEXT
  5
242
100
AcDbEntity
  8
0
100
AcDbMText
 62
2
  6
CONTINUOUS
  7
STANDARD
 71
1
 72
1
 10
0.05
 20
0.5625
 30
0.0
 11
1.0
 21
0.0
 31
0.0
 44
0.9
  1
DESCRIPTION
 40
0.06
 41
1.056
  0
MTEXT
  5
243
100
AcDbEntity
  8
0
100
AcDbMText
 62
2
  6
CONTINUOUS
  7
STANDARD
 71
2
 72
1
 10
5.45
 20
1.0375
 30
0.0
 11
1.0
 21
0.0
 31
0.0
 44
0.9
  1
ALL DIMENSIONS IN INCH\PVIEWS ARE THIRD ANGLE
 40
0.12
 41
4.224
  0
MTEXT
  5
244
100
AcDbEntity
  8
0
100
AcDbMText
 62
2
  6
CONTINUOUS
  7
STANDARD
 71
2
 72
1
 10
2.05
 20
0.95
 30
0.0
 11
1.0
 21
0.0
 31
0.0
 44
0.9
  1
FMV
 40
0.125
 41
0.6
  0
MTEXT
  5
245
100
AcDbEntity
  8
0
100
AcDbMText
 62
2
  6
CONTINUOUS
  7
STANDARD
 71
1
 72
1
 10
0.05
 20
1.1875
 30
0.0
 11
1.0
 21
0.0
 31
0.0
 44
0.9
  1
MODEL
 40
0.06
 41
0.48
  0
ENDBLK
  5
246
100
AcDbEntity
  8
0
  6
BYBLOCK
 62
0
100
AcDbBlockEnd
  0
BLOCK
  5
247
100
AcDbEntity
  8
0
100
AcDbBlockBegin
  2
*T2
 70
1
 10
0.0
 20
0.0
  3
*T2
  1

  0
LINE
  5
248
100
AcDbEntity
  8
0
100
AcDbLine
 62
2
  6
CONTINUOUS
 10
0.0
 20
0.0
 11
9.055
 21
0.0
  0
LINE
  5
249
100
AcDbEntity
  8
0
100
AcDbLine
 62
2
  6
CONTINUOUS
 10
0.0
 20
0.0
 11
0.0
 21
-2.594
  0
LINE
  5
24A
100
AcDbEntity
  8
0
100
AcDbLine
 62
2
  6
CONTINUOUS
 10
0.0
 20
-0.344
 11
9.055
 21
-0.344
  0
LINE
  5
24B
100
AcDbEntity
  8
0
100
AcDbLine
 62
2
  6
CONTINUOUS
 10
0.0
 20
-0.594
 11
9.055
 21
-0.594
  0
LINE
  5
24C
100
AcDbEntity
  8
0
100
AcDbLine
 62
2
  6
CONTINUOUS
 10
0.0
 20
-0.844
 11
9.055
 21
-0.844
  0
LINE
  5
24D
100
AcDbEntity
  8
0
100
AcDbLine
 62
2
  6
CONTINUOUS
 10
0.0
 20
-1.094
 11
9.055
 21
-1.094
  0
LINE
  5
24E
100
AcDbEntity
  8
0
100
AcDbLine
 62
2
  6
CONTINUOUS
 10
0.0
 20
-1.344
 11
9.055
 21
-1.344
  0
LINE
  5
24F
100
AcDbEntity
  8
0
100
AcDbLine
 62
2
  6
CONTINUOUS
 10
0.0
 20
-1.594
 11
9.055
 21
-1.594
  0
LINE
  5
250
100
AcDbEntity
  8
0
100
AcDbLine
 62
2
  6
CONTINUOUS
 10
0.0
 20
-1.844
 11
9.055
 21
-1.844
  0
LINE
  5
251
100
AcDbEntity
  8
0
100
AcDbLine
 62
2
  6
CONTINUOUS
 10
0.0
 20
-2.094
 11
9.055
 21
-2.094
  0
LINE
  5
252
100
AcDbEntity
  8
0
100
AcDbLine
 62
2
  6
CONTINUOUS
 10
0.0
 20
-2.344
 11
9.055
 21
-2.344
  0
LINE
  5
253
100
AcDbEntity
  8
0
100
AcDbLine
 62
2
  6
CONTINUOUS
 10
0.0
 20
-2.594
 11
9.055
 21
-2.594
  0
LINE
  5
254
100
AcDbEntity
  8
0
100
AcDbLine
 62
2
  6
CONTINUOUS
 10
3.055
 20
0.0
 11
3.055
 21
-2.594
  0
LINE
  5
255
100
AcDbEntity
  8
0
100
AcDbLine
 62
2
  6
CONTINUOUS
 10
9.055
 20
0.0
 11
9.055
 21
-2.594
  0
MTEXT
  5
256
100
AcDbEntity
  8
0
100
AcDbMText
 62
2
  6
CONTINUOUS
  7
STANDARD
 71
2
 72
1
 10
1.5275
 20
-0.0995
 30
0.0
 11
1.0
 21
0.0
 31
0.0
 44
0.9
  1
Technical Data
 40
0.145
 41
3.248
  0
MTEXT
  5
257
100
AcDbEntity
  8
0
100
AcDbMText
 62
2
  6
CONTINUOUS
  7
STANDARD
 71
2
 72
1
 10
4.555
 20
-0.0995
 30
0.0
 11
1.0
 21
0.0
 31
0.0
 44
0.9
  1
U.S. Units
 40
0.145
 41
2.32
  0
MTEXT
  5
258
100
AcDbEntity
  8
0
100
AcDbMText
 62
2
  6
CONTINUOUS
  7
STANDARD
 71
2
 72
1
 10
7.555
 20
-0.0995
 30
0.0
 11
1.0
 21
0.0
 31
0.0
 44
0.9
  1
Metric Units
 40
0.145
 41
2.784
  0
MTEXT
  5
259
100
AcDbEntity
  8
0
100
AcDbMText
 62
2
  6
CONTINUOUS
  7
STANDARD
 71
2
 72
1
 10
1.5275
 20
-0.4065
 30
0.0
 11
1.0
 21
0.0
 31
0.0
 44
0.9
  1
Cavity
 40
0.125
 41
1.2
  0
MTEXT
  5
25A
100
AcDbEntity
  8
0
100
AcDbMText
 62
2
  6
CONTINUOUS
  7
STANDARD
 71
2
 72
1
 10
6.055
 20
-0.4065
 30
0.0
 11
1.0
 21
0.0
 31
0.0
 44
0.9
  1
T-10A
 40
0.125
 41
1.0
  0
MTEXT
  5
25B
100
AcDbEntity
  8
0
100
AcDbMText
 62
2
  6
CONTINUOUS
  7
STANDARD
 71
2
 72
1
 10
1.5275
 20
-0.6565
 30
0.0
 11
1.0
 21
0.0
 31
0.0
 44
0.9
  1
Body Features
 40
0.125
 41
2.6
  0
MTEXT
  5
25C
100
AcDbEntity
  8
0
100
AcDbMText
 62
2
  6
CONTINUOUS
  7
STANDARD
 71
2
 72
1
 10
6.055
 20
-0.6565
 30
0.0
 11
1.0
 21
0.0
 31
0.0
 44
0.9
  1
Cross port with make up checks
 40
0.125
 41
6.0
  0
MTEXT
  5
25D
100
AcDbEntity
  8
0
100
AcDbMText
 62
2
  6
CONTINUOUS
  7
STANDARD
 71
2
 72
1
 10
1.5275
 20
-0.9065
 30
0.0
 11
1.0
 21
0.0
 31
0.0
 44
0.9
  1
Body Type
 40
0.125
 41
1.8
  0
MTEXT
  5
25E
100
AcDbEntity
  8
0
100
AcDbMText
 62
2
  6
CONTINUOUS
  7
STANDARD
 71
2
 72
1
 10
6.055
 20
-0.9065
 30
0.0
 11
1.0
 21
0.0
 31
0.0
 44
0.9
  1
Line mount
 40
0.125
 41
2.0
  0
MTEXT
  5
25F
100
AcDbEntity
  8
0
100
AcDbMText
 62
2
  6
CONTINUOUS
  7
STANDARD
 71
2
 72
1
 10
1.5275
 20
-1.1565
 30
0.0
 11
1.0
 21
0.0
 31
0.0
 44
0.9
  1
Interface
 40
0.125
 41
1.8
  0
MTEXT
  5
260
100
AcDbEntity
  8
0
100
AcDbMText
 62
2
  6
CONTINUOUS
  7
STANDARD
 71
2
 72
1
 10
6.055
 20
-1.1565
 30
0.0
 11
1.0
 21
0.0
 31
0.0
 44
0.9
  1
None
 40
0.125
 41
0.8
  0
MTEXT
  5
261
100
AcDbEntity
  8
0
100
AcDbMText
 62
2
  6
CONTINUOUS
  7
STANDARD
 71
2
 72
1
 10
1.5275
 20
-1.4065
 30
0.0
 11
1.0
 21
0.0
 31
0.0
 44
0.9
  1
Open Cavity Quantity
 40
0.125
 41
4.0
  0
MTEXT
  5
262
100
AcDbEntity
  8
0
100
AcDbMText
 62
2
  6
CONTINUOUS
  7
STANDARD
 71
2
 72
1
 10
6.055
 20
-1.4065
 30
0.0
 11
1.0
 21
0.0
 31
0.0
 44
0.9
  1
2
 40
0.125
 41
0.2
  0
MTEXT
  5
263
100
AcDbEntity
  8
0
100
AcDbMText
 62
2
  6
CONTINUOUS
  7
STANDARD
 71
2
 72
1
 10
1.5275
 20
-1.6565
 30
0.0
 11
1.0
 21
0.0
 31
0.0
 44
0.9
  1
Weight
 40
0.125
 41
1.2
  0
MTEXT
  5
264
100
AcDbEntity
  8
0
100
AcDbMText
 62
2
  6
CONTINUOUS
  7
STANDARD
 71
2
 72
1
 10
4.555
 20
-1.6565
 30
0.0
 11
1.0
 21
0.0
 31
0.0
 44
0.9
  1
2.538 lb.
 40
0.125
 41
1.8
  0
MTEXT
  5
265
100
AcDbEntity
  8
0
100
AcDbMText
 62
2
  6
CONTINUOUS
  7
STANDARD
 71
2
 72
1
 10
7.555
 20
-1.6565
 30
0.0
 11
1.0
 21
0.0
 31
0.0
 44
0.9
  1
1,151 kg.
 40
0.125
 41
1.8
  0
MTEXT
  5
266
100
AcDbEntity
  8
0
100
AcDbMText
 62
2
  6
CONTINUOUS
  7
STANDARD
 71
2
 72
1
 10
1.5275
 20
-1.9065
 30
0.0
 11
1.0
 21
0.0
 31
0.0
 44
0.9
  1
Mounting Hole Diameter
 40
0.125
 41
4.4
  0
MTEXT
  5
267
100
AcDbEntity
  8
0
100
AcDbMText
 62
2
  6
CONTINUOUS
  7
STANDARD
 71
2
 72
1
 10
4.555
 20
-1.9065
 30
0.0
 11
1.0
 21
0.0
 31
0.0
 44
0.9
  1
.34 in.
 40
0.125
 41
1.4
  0
MTEXT
  5
268
100
AcDbEntity
  8
0
100
AcDbMText
 62
2
  6
CONTINUOUS
  7
STANDARD
 71
2
 72
1
 10
7.555
 20
-1.9065
 30
0.0
 11
1.0
 21
0.0
 31
0.0
 44
0.9
  1
8.6 mm
 40
0.125
 41
1.2
  0
MTEXT
  5
269
100
AcDbEntity
  8
0
100
AcDbMText
 62
2
  6
CONTINUOUS
  7
STANDARD
 71
2
 72
1
 10
1.5275
 20
-2.1565
 30
0.0
 11
1.0
 21
0.0
 31
0.0
 44
0.9
  1
Mounting Hole Depth
 40
0.125
 41
3.8
  0
MTEXT
  5
26A
100
AcDbEntity
  8
0
100
AcDbMText
 62
2
  6
CONTINUOUS
  7
STANDARD
 71
2
 72
1
 10
6.055
 20
-2.1565
 30
0.0
 11
1.0
 21
0.0
 31
0.0
 44
0.9
  1
Through
 40
0.125
 41
1.4
  0
MTEXT
  5
26B
100
AcDbEntity
  8
0
100
AcDbMText
 62
2
  6
CONTINUOUS
  7
STANDARD
 71
2
 72
1
 10
1.5275
 20
-2.4065
 30
0.0
 11
1.0
 21
0.0
 31
0.0
 44
0.9
  1
Mounting Hole Quantity
 40
0.125
 41
4.4
  0
MTEXT
  5
26C
100
AcDbEntity
  8
0
100
AcDbMText
 62
2
  6
CONTINUOUS
  7
STANDARD
 71
2
 72
1
 10
6.055
 20
-2.4065
 30
0.0
 11
1.0
 21
0.0
 31
0.0
 44
0.9
  1
2
 40
0.125
 41
0.2
  0
ENDBLK
  5
26D
100
AcDbEntity
  8
0
  6
BYBLOCK
 62
0
100
AcDbBlockEnd
  0
BLOCK
  5
26E
100
AcDbEntity
  8
0
100
AcDbBlockBegin
  2
*T3
 70
1
 10
0.0
 20
0.0
  3
*T3
  1

  0
LINE
  5
26F
100
AcDbEntity
  8
0
100
AcDbLine
 62
2
  6
CONTINUOUS
 10
0.0
 20
0.0
 11
4.6
 21
0.0
  0
LINE
  5
270
100
AcDbEntity
  8
0
100
AcDbLine
 62
2
  6
CONTINUOUS
 10
0.0
 20
0.0
 11
0.0
 21
-0.93775
  0
LINE
  5
271
100
AcDbEntity
  8
0
100
AcDbLine
 62
2
  6
CONTINUOUS
 10
0.0
 20
-0.34375
 11
4.6
 21
-0.34375
  0
LINE
  5
272
100
AcDbEntity
  8
0
100
AcDbLine
 62
2
  6
CONTINUOUS
 10
0.0
 20
-0.68775
 11
4.6
 21
-0.68775
  0
LINE
  5
273
100
AcDbEntity
  8
0
100
AcDbLine
 62
2
  6
CONTINUOUS
 10
0.0
 20
-0.93775
 11
4.6
 21
-0.93775
  0
LINE
  5
274
100
AcDbEntity
  8
0
100
AcDbLine
 62
2
  6
CONTINUOUS
 10
1.3
 20
-0.34375
 11
1.3
 21
-0.93775
  0
LINE
  5
275
100
AcDbEntity
  8
0
100
AcDbLine
 62
2
  6
CONTINUOUS
 10
3.3
 20
-0.34375
 11
3.3
 21
-0.93775
  0
LINE
  5
276
100
AcDbEntity
  8
0
100
AcDbLine
 62
2
  6
CONTINUOUS
 10
4.6
 20
0.0
 11
4.6
 21
-0.93775
  0
MTEXT
  5
277
100
AcDbEntity
  8
0
100
AcDbMText
 62
2
  6
CONTINUOUS
  7
STANDARD
 71
2
 72
1
 10
2.3
 20
-0.099375
 30
0.0
 11
1.0
 21
0.0
 31
0.0
 44
0.9
  1
Port Headings
 40
0.145
 41
3.016
  0
MTEXT
  5
278
100
AcDbEntity
  8
0
100
AcDbMText
 62
2
  6
CONTINUOUS
  7
STANDARD
 71
2
 72
1
 10
0.65
 20
-0.44325
 30
0.0
 11
1.0
 21
0.0
 31
0.0
 44
0.9
  1
Product
 40
0.145
 41
1.624
  0
MTEXT
  5
279
100
AcDbEntity
  8
0
100
AcDbMText
 62
2
  6
CONTINUOUS
  7
STANDARD
 71
2
 72
1
 10
2.3
 20
-0.44325
 30
0.0
 11
1.0
 21
0.0
 31
0.0
 44
0.9
  1
Port
 40
0.145
 41
0.928
  0
MTEXT
  5
27A
100
AcDbEntity
  8
0
100
AcDbMText
 62
2
  6
CONTINUOUS
  7
STANDARD
 71
2
 72
1
 10
3.95
 20
-0.44325
 30
0.0
 11
1.0
 21
0.0
 31
0.0
 44
0.9
  1
Size
 40
0.145
 41
0.928
  0
MTEXT
  5
27B
100
AcDbEntity
  8
0
100
AcDbMText
 62
2
  6
CONTINUOUS
  7
STANDARD
 71
2
 72
1
 10
0.65
 20
-0.75025
 30
0.0
 11
1.0
 21
0.0
 31
0.0
 44
0.9
  1
FMV
 40
0.125
 41
0.6
  0
MTEXT
  5
27C
100
AcDbEntity
  8
0
100
AcDbMText
 62
2
  6
CONTINUOUS
  7
STANDARD
 71
2
 72
1
 10
2.3
 20
-0.75025
 30
0.0
 11
1.0
 21
0.0
 31
0.0
 44
0.9
  1
All Ports
 40
0.125
 41
1.8
  0
MTEXT
  5
27D
100
AcDbEntity
  8
0
100
AcDbMText
 62
2
  6
CONTINUOUS
  7
STANDARD
 71
2
 72
1
 10
3.95
 20
-0.75025
 30
0.0
 11
1.0
 21
0.0
 31
0.0
 44
0.9
  1
1/2" BSPP
 40
0.125
 41
1.8
  0
ENDBLK
  5
27E
100
AcDbEntity
  8
0
  6
BYBLOCK
 62
0
100
AcDbBlockEnd
  0
ENDSEC
  0
SECTION
  2
ENTITIES
  0
IMAGE
  5
27F
100
AcDbEntity
  8
0
100
AcDbRasterImage
 62
7
  6
CONTINUOUS
 10
19.2297077316
 20
0.3094318264
 30
0.0
 11
0.0066666667
 21
0.0
 31
0.0
 12
0.0
 22
0.0066666667
 32
0.0
 13
369.0
 23
92.0
340
       397
 70
9
280
0
281
50
282
50
283
0
360
       391
 71
1
 91
2
 14
-0.5
 24
-0.5
 14
368.5
 24
91.5
  0
INSERT
  5
280
100
AcDbEntity
  8
0
100
AcDbBlockReference
 62
2
  6
CONTINUOUS
  2
SUN_FIRST_THIRD_ANGLE_BL0
 10
20.4816717061
 20
1.2289683772
  0
ACAD_TABLE
  5
281
100
AcDbEntity
  8
0
 62
2
  6
CONTINUOUS
100
AcDbBlockReference
  2
*T1
 10
12.42375
 20
0.30125
 30
0.0
100
AcDbTable
342
       399
343
207
 11
1.0
 21
0.0
 31
0.0
 90
6
 91
4
 92
6
 93
20
 94
0
 95
0
 96
0
 70
1
 41
0.0
141
0.525
141
0.1
141
0.525
141
0.1
142
4.1
142
1.1
142
0.7
142
0.5
142
0.4
142
2.475
171
1
172
0
173
0
174
0
175
1
176
1
 91
33
178
0
145
0.0
301
CELL_VALUE
 90
4
  1
T-10A Line mount\PCross port with make up checks
304
ACVALUE_END
170
2
140
0.125
171
1
172
0
173
0
174
0
175
1
176
1
 91
33
178
0
145
0.0
301
CELL_VALUE
 90
4
  1
Jul-29-19
304
ACVALUE_END
170
5
140
0.125
171
1
172
0
173
0
174
0
175
1
176
1
 91
33
178
0
145
0.0
301
CELL_VALUE
 90
4
  1
2.000
304
ACVALUE_END
170
5
140
0.125
171
1
172
0
173
0
174
0
175
1
176
1
 91
33
178
0
145
0.0
301
CELL_VALUE
 90
4
  1
C
304
ACVALUE_END
170
5
140
0.125
171
1
172
0
173
0
174
0
175
1
176
1
 91
33
178
0
145
0.0
301
CELL_VALUE
 90
4
  1
2
304
ACVALUE_END
170
5
140
0.125
171
1
172
0
173
0
174
0
175
1
176
1
 91
33
178
0
145
0.0
301
CELL_VALUE
 90
4
  1
 
304
ACVALUE_END
170
1
140
0.125
171
1
172
0
173
0
174
0
175
1
176
1
 91
33
178
0
145
0.0
301
CELL_VALUE
 90
4
  1
DESCRIPTION
304
ACVALUE_END
170
1
140
0.06
171
1
172
0
173
0
174
0
175
1
176
1
 91
33
178
0
145
0.0
301
CELL_VALUE
 90
4
  1
DATE
304
ACVALUE_END
170
1
140
0.06
171
1
172
0
173
0
174
0
175
1
176
1
 91
33
178
0
145
0.0
301
CELL_VALUE
 90
4
  1
SCALE
304
ACVALUE_END
170
1
140
0.06
171
1
172
0
173
0
174
0
175
1
176
1
 91
33
178
0
145
0.0
301
CELL_VALUE
 90
4
  1
DWG SIZE
304
ACVALUE_END
170
1
140
0.06
171
1
172
0
173
0
174
0
175
1
176
1
 91
33
178
0
145
0.0
301
CELL_VALUE
 90
4
  1
SHEET
304
ACVALUE_END
170
1
140
0.06
171
1
172
0
173
0
174
0
175
1
176
1
 91
33
178
0
145
0.0
301
CELL_VALUE
 90
4
  1
 
304
ACVALUE_END
170
1
140
0.125
171
1
172
0
173
0
174
0
175
1
176
1
 91
33
178
0
145
0.0
301
CELL_VALUE
 90
4
  1
FMV
304
ACVALUE_END
170
5
140
0.125
171
1
172
0
173
0
174
0
175
4
176
1
 91
33
178
0
145
0.0
301
CELL_VALUE
 90
4
  1
ALL DIMENSIONS IN INCH\PVIEWS ARE THIRD ANGLE
304
ACVALUE_END
170
5
140
0.12
171
1
172
0
173
1
174
0
175
1
176
1
 91
1
178
0
145
0.0
170
1
171
1
172
0
173
1
174
0
175
1
176
1
 91
1
178
0
145
0.0
170
1
171
1
172
0
173
1
174
0
175
1
176
1
 91
1
178
0
145
0.0
170
5
171
1
172
0
173
0
174
0
175
1
176
1
 91
33
178
0
145
0.0
301
CELL_VALUE
 90
4
  1
 
304
ACVALUE_END
170
1
140
0.125
171
1
172
0
173
0
174
0
175
1
176
1
 91
33
178
0
145
0.0
301
CELL_VALUE
 90
4
  1
MODEL
304
ACVALUE_END
170
1
140
0.06
171
1
172
0
173
0
174
0
175
1
176
1
 91
33
178
0
145
0.0
301
CELL_VALUE
 90
4
  1
 
304
ACVALUE_END
170
1
140
0.125
171
1
172
0
173
0
174
0
175
1
176
1
 91
33
178
0
145
0.0
301
CELL_VALUE
 90
4
  1
 
304
ACVALUE_END
170
1
140
0.125
171
1
172
0
173
0
174
0
175
1
176
1
 91
33
178
0
145
0.0
301
CELL_VALUE
 90
4
  1
 
304
ACVALUE_END
170
1
140
0.125
171
1
172
0
173
0
174
0
175
1
176
1
 91
33
178
0
145
0.0
301
CELL_VALUE
 90
4
  1
 
304
ACVALUE_END
170
1
140
0.125
171
1
172
0
173
0
174
0
175
1
176
1
 91
33
178
0
145
0.0
301
CELL_VALUE
 90
4
  1
 
304
ACVALUE_END
170
1
140
0.125
  0
ACAD_TABLE
  5
282
100
AcDbEntity
  8
0
 62
2
  6
CONTINUOUS
100
AcDbBlockReference
  2
*T2
 10
12.4237499994
 20
16.47875
 30
0.0
100
AcDbTable
342
       398
343
208
 11
1.0
 21
0.0
 31
0.0
 90
22
 91
10
 92
3
 93
16
 94
0
 95
0
 96
0
 41
0.028
141
0.344
141
0.25
141
0.25
141
0.25
141
0.25
141
0.25
141
0.25
141
0.25
141
0.25
141
0.25
142
3.055
142
3.0
142
3.0
171
1
172
0
173
0
174
0
175
1
176
1
 91
33
178
0
145
0.0
301
CELL_VALUE
 90
4
  1
Technical Data
304
ACVALUE_END
170
5
140
0.145
171
1
172
0
173
0
174
0
175
1
176
1
 91
33
178
0
145
0.0
301
CELL_VALUE
 90
4
  1
U.S. Units
304
ACVALUE_END
170
5
140
0.145
171
1
172
0
173
0
174
0
175
1
176
1
 91
33
178
0
145
0.0
301
CELL_VALUE
 90
4
  1
Metric Units
304
ACVALUE_END
170
5
140
0.145
171
1
172
0
173
0
174
0
175
1
176
1
 91
33
178
0
145
0.0
301
CELL_VALUE
 90
4
  1
Cavity
304
ACVALUE_END
170
5
140
0.125
171
1
172
0
173
0
174
0
175
2
176
1
 91
33
178
0
145
0.0
301
CELL_VALUE
 90
4
  1
T-10A
304
ACVALUE_END
170
5
140
0.125
171
1
172
0
173
1
174
0
175
1
176
1
 91
1
178
0
145
0.0
170
1
171
1
172
0
173
0
174
0
175
1
176
1
 91
33
178
0
145
0.0
301
CELL_VALUE
 90
4
  1
Body Features
304
ACVALUE_END
170
5
140
0.125
171
1
172
0
173
0
174
0
175
2
176
1
 91
33
178
0
145
0.0
301
CELL_VALUE
 90
4
  1
Cross port with make up checks
304
ACVALUE_END
170
5
140
0.125
171
1
172
0
173
1
174
0
175
1
176
1
 91
1
178
0
145
0.0
170
1
171
1
172
0
173
0
174
0
175
1
176
1
 91
33
178
0
145
0.0
301
CELL_VALUE
 90
4
  1
Body Type
304
ACVALUE_END
170
5
140
0.125
171
1
172
0
173
0
174
0
175
2
176
1
 91
33
178
0
145
0.0
301
CELL_VALUE
 90
4
  1
Line mount
304
ACVALUE_END
170
5
140
0.125
171
1
172
0
173
1
174
0
175
1
176
1
 91
1
178
0
145
0.0
170
1
171
1
172
0
173
0
174
0
175
1
176
1
 91
33
178
0
145
0.0
301
CELL_VALUE
 90
4
  1
Interface
304
ACVALUE_END
170
5
140
0.125
171
1
172
0
173
0
174
0
175
2
176
1
 91
33
178
0
145
0.0
301
CELL_VALUE
 90
4
  1
None
304
ACVALUE_END
170
5
140
0.125
171
1
172
0
173
1
174
0
175
1
176
1
 91
1
178
0
145
0.0
170
1
171
1
172
0
173
0
174
0
175
1
176
1
 91
33
178
0
145
0.0
301
CELL_VALUE
 90
4
  1
Open Cavity Quantity
304
ACVALUE_END
170
5
140
0.125
171
1
172
0
173
0
174
0
175
2
176
1
 91
33
178
0
145
0.0
301
CELL_VALUE
 90
4
  1
2
304
ACVALUE_END
170
5
140
0.125
171
1
172
0
173
1
174
0
175
1
176
1
 91
1
178
0
145
0.0
170
1
171
1
172
0
173
0
174
0
175
1
176
1
 91
33
178
0
145
0.0
301
CELL_VALUE
 90
4
  1
Weight
304
ACVALUE_END
170
5
140
0.125
171
1
172
0
173
0
174
0
175
1
176
1
 91
33
178
0
145
0.0
301
CELL_VALUE
 90
4
  1
2.538 lb.
304
ACVALUE_END
170
5
140
0.125
171
1
172
0
173
0
174
0
175
1
176
1
 91
33
178
0
145
0.0
301
CELL_VALUE
 90
4
  1
1,151 kg.
304
ACVALUE_END
170
5
140
0.125
171
1
172
0
173
0
174
0
175
1
176
1
 91
33
178
0
145
0.0
301
CELL_VALUE
 90
4
  1
Mounting Hole Diameter
304
ACVALUE_END
170
5
140
0.125
171
1
172
0
173
0
174
0
175
1
176
1
 91
33
178
0
145
0.0
301
CELL_VALUE
 90
4
  1
.34 in.
304
ACVALUE_END
170
5
140
0.125
171
1
172
0
173
0
174
0
175
1
176
1
 91
33
178
0
145
0.0
301
CELL_VALUE
 90
4
  1
8.6 mm
304
ACVALUE_END
170
5
140
0.125
171
1
172
0
173
0
174
0
175
1
176
1
 91
33
178
0
145
0.0
301
CELL_VALUE
 90
4
  1
Mounting Hole Depth
304
ACVALUE_END
170
5
140
0.125
171
1
172
0
173
0
174
0
175
2
176
1
 91
33
178
0
145
0.0
301
CELL_VALUE
 90
4
  1
Through
304
ACVALUE_END
170
5
140
0.125
171
1
172
0
173
1
174
0
175
1
176
1
 91
1
178
0
145
0.0
170
1
171
1
172
0
173
0
174
0
175
1
176
1
 91
33
178
0
145
0.0
301
CELL_VALUE
 90
4
  1
Mounting Hole Quantity
304
ACVALUE_END
170
5
140
0.125
171
1
172
0
173
0
174
0
175
2
176
1
 91
33
178
0
145
0.0
301
CELL_VALUE
 90
4
  1
2
304
ACVALUE_END
170
5
140
0.125
171
1
172
0
173
1
174
0
175
1
176
1
 91
1
178
0
145
0.0
170
1
  0
ACAD_TABLE
  5
283
100
AcDbEntity
  8
0
 62
2
  6
CONTINUOUS
100
AcDbBlockReference
  2
*T3
 10
0.52125
 20
1.459
 30
0.0
100
AcDbTable
342
       398
343
209
 11
1.0
 21
0.0
 31
0.0
 90
22
 91
3
 92
3
 93
16
 94
0
 95
0
 96
0
 41
0.05
141
0.34375
141
0.344
141
0.25
142
1.3
142
2.0
142
1.3
171
1
172
0
173
0
174
0
175
3
176
1
 91
33
178
0
145
0.0
301
CELL_VALUE
 90
4
  1
Port Headings
304
ACVALUE_END
170
5
140
0.145
171
1
172
0
173
1
174
0
175
1
176
1
 91
1
178
0
145
0.0
170
1
171
1
172
0
173
1
174
0
175
1
176
1
 91
1
178
0
145
0.0
170
1
171
1
172
0
173
0
174
0
175
1
176
1
 91
33
178
0
145
0.0
301
CELL_VALUE
 90
4
  1
Product
304
ACVALUE_END
170
5
140
0.145
171
1
172
0
173
0
174
0
175
1
176
1
 91
33
178
0
145
0.0
301
CELL_VALUE
 90
4
  1
Port
304
ACVALUE_END
170
5
140
0.145
171
1
172
0
173
0
174
0
175
1
176
1
 91
33
178
0
145
0.0
301
CELL_VALUE
 90
4
  1
Size
304
ACVALUE_END
170
5
140
0.145
171
1
172
0
173
0
174
0
175
1
176
1
 91
33
178
0
145
0.0
301
CELL_VALUE
 90
4
  1
FMV
304
ACVALUE_END
170
5
140
0.125
171
1
172
0
173
0
174
0
175
1
176
1
 91
33
178
0
145
0.0
301
CELL_VALUE
 90
4
  1
All Ports
304
ACVALUE_END
170
5
140
0.125
171
1
172
0
173
0
174
0
175
1
176
1
 91
33
178
0
145
0.0
301
CELL_VALUE
 90
4
  1
1/2" BSPP
304
ACVALUE_END
170
5
140
0.125
  0
MTEXT
  5
284
100
AcDbEntity
  8
0
100
AcDbMText
 62
2
  6
CONTINUOUS
  7
STANDARD
 71
1
 72
1
 10
0.52125
 20
5.75995
 30
0.0
 11
1.0
 21
0.0
 31
0.0
 44
0.6
  3
Notes\P \P1. Important: Carefully consider\P   the maximum system pressure. The\P   pressure rating of the manifold is\P   dependent on the manifold material,\P   with the port type/size a secondary\P   consideration. Manifolds\P   constructed of alu
  1
minum are not\P   rated for pressures higher than\P   3000 psi (210 bar), regardless of\P   the port type/size specified.
 40
0.1
 41
3.04
  0
LINE
  5
285
100
AcDbEntity
  8
0
100
AcDbLine
 62
7
  6
CONTINUOUS
 10
0.30125
 20
0.30125
 11
0.30125
 21
16.69875
  0
LINE
  5
286
100
AcDbEntity
  8
0
100
AcDbLine
 62
7
  6
CONTINUOUS
 10
0.30125
 20
0.30125
 11
21.69875
 21
0.30125
  0
LINE
  5
287
100
AcDbEntity
  8
0
100
AcDbLine
 62
7
  6
CONTINUOUS
 10
0.30125
 20
16.69875
 11
21.69875
 21
16.69875
  0
LINE
  5
288
100
AcDbEntity
  8
0
100
AcDbLine
 62
7
  6
CONTINUOUS
 10
21.69875
 20
0.30125
 11
21.69875
 21
16.69875
  0
LINE
  5
289
100
AcDbEntity
  8
0
100
AcDbLine
 62
7
  6
CONTINUOUS
 10
7.1602186008
 20
10.8768333737
 11
8.6810380359
 21
12.3458322303
  0
LINE
  5
28A
100
AcDbEntity
  8
0
100
AcDbLine
 62
7
  6
CONTINUOUS
 10
7.1602186008
 20
5.0812780726
 11
7.1602186008
 21
10.8768333737
  0
LINE
  5
28B
100
AcDbEntity
  8
0
100
AcDbLine
 62
4
  6
CONTINUOUS
 10
7.4161889596
 20
9.9511114372
 11
7.4017000716
 21
9.8941606933
  0
LINE
  5
28C
100
AcDbEntity
  8
0
100
AcDbLine
 62
4
  6
CONTINUOUS
 10
7.4017000716
 20
10.0873458611
 11
7.4161889596
 21
10.1056595798
  0
LINE
  5
28D
100
AcDbEntity
  8
0
100
AcDbLine
 62
4
  6
CONTINUOUS
 10
7.4451667354
 20
9.9877388538
 11
7.4161889596
 21
9.9511114372
  0
LINE
  5
28E
100
AcDbEntity
  8
0
100
AcDbLine
 62
4
  6
CONTINUOUS
 10
7.5176111751
 20
10.0406703735
 11
7.5031222871
 21
10.0223566548
  0
LINE
  5
28F
100
AcDbEntity
  8
0
100
AcDbLine
 62
7
  6
CONTINUOUS
 10
13.3189619641
 20
4.6541677697
 11
7.1602186008
 21
5.0812780726
  0
LINE
  5
290
100
AcDbEntity
  8
0
100
AcDbLine
 62
4
  6
CONTINUOUS
 10
7.5176111751
 20
10.0793073988
 11
7.5176111751
 21
10.0406703735
  0
LINE
  5
291
100
AcDbEntity
  8
0
100
AcDbLine
 62
4
  6
CONTINUOUS
 10
7.5176111751
 20
6.7372038455
 11
7.5176111751
 21
6.5053816387
  0
LINE
  5
292
100
AcDbEntity
  8
0
100
AcDbLine
 62
4
  6
CONTINUOUS
 10
7.7428097832
 20
9.4372179038
 11
7.7428097832
 21
9.47033536
  0
LINE
  5
293
100
AcDbEntity
  8
0
100
AcDbLine
 62
4
  6
CONTINUOUS
 10
7.4161889596
 20
10.1056595798
 11
7.4451667354
 21
10.1229684768
  0
LINE
  5
294
100
AcDbEntity
  8
0
100
AcDbLine
 62
4
  6
CONTINUOUS
 10
7.8587208866
 20
9.2967096066
 11
7.8587208866
 21
9.3298270662
  0
LINE
  5
295
100
AcDbEntity
  8
0
100
AcDbLine
 62
4
  6
CONTINUOUS
 10
7.9249557989
 20
9.4908209471
 11
7.9249557989
 21
9.2921161998
  0
LINE
  5
296
100
AcDbEntity
  8
0
100
AcDbLine
 62
4
  6
CONTINUOUS
 10
7.9967103199
 20
8.0717292923
 11
7.9967103199
 21
8.3035514991
  0
LINE
  5
297
100
AcDbEntity
  8
0
100
AcDbLine
 62
4
  6
CONTINUOUS
 10
8.0408669023
 20
9.2840777375
 11
8.0408669023
 21
9.4827824847
  0
LINE
  5
298
100
AcDbEntity
  8
0
100
AcDbLine
 62
4
  6
CONTINUOUS
 10
8.1071018146
 20
9.2463668711
 11
8.1071018146
 21
9.478189078
  0
LINE
  5
299
100
AcDbEntity
  8
0
100
AcDbLine
 62
4
  6
CONTINUOUS
 10
8.1126214095
 20
8.2623955816
 11
8.1126214095
 21
8.0968082905
  0
LINE
  5
29A
100
AcDbEntity
  8
0
100
AcDbLine
 62
4
  6
CONTINUOUS
 10
7.7428097832
 20
9.47033536
 11
7.7759272428
 21
9.5011561125
  0
LINE
  5
29B
100
AcDbEntity
  8
0
100
AcDbLine
 62
4
  6
CONTINUOUS
 10
7.5031222871
 20
10.0223566548
 11
7.4451667354
 21
9.9877388538
  0
LINE
  5
29C
100
AcDbEntity
  8
0
100
AcDbLine
 62
4
  6
CONTINUOUS
 10
10.2395902833
 20
5.3410265988
 11
10.3844791626
 21
5.3309785209
  0
LINE
  5
29D
100
AcDbEntity
  8
0
100
AcDbLine
 62
4
  6
CONTINUOUS
 10
8.2230129181
 20
9.2383284088
 11
8.2230129181
 21
9.4701506156
  0
LINE
  5
29E
100
AcDbEntity
  8
0
100
AcDbLine
 62
4
  6
CONTINUOUS
 10
8.4713938461
 20
9.2211031329
 11
8.4713938461
 21
9.4529253398
  0
LINE
  5
29F
100
AcDbEntity
  8
0
100
AcDbLine
 62
4
  6
CONTINUOUS
 10
8.4713938857
 20
8.0388098752
 11
8.4713938857
 21
8.270632082
  0
LINE
  5
2A0
100
AcDbEntity
  8
0
100
AcDbLine
 62
4
  6
CONTINUOUS
 10
8.2064542088
 20
8.0571835042
 11
8.2726891211
 21
8.2844123042
  0
LINE
  5
2A1
100
AcDbEntity
  8
0
100
AcDbLine
 62
4
  6
CONTINUOUS
 10
7.8256034305
 20
9.2658888503
 11
7.8587208866
 21
9.2967096066
  0
LINE
  5
2A2
100
AcDbEntity
  8
0
100
AcDbLine
 62
4
  6
CONTINUOUS
 10
8.00774946
 20
9.2532569803
 11
8.0408669023
 21
9.2840777375
  0
LINE
  5
2A3
100
AcDbEntity
  8
0
100
AcDbLine
 62
4
  6
CONTINUOUS
 10
8.2726891211
 20
8.2844123042
 11
8.3389240611
 21
8.0479966887
  0
LINE
  5
2A4
100
AcDbEntity
  8
0
100
AcDbLine
 62
4
  6
CONTINUOUS
 10
8.5707462284
 20
9.3632415814
 11
8.5707462284
 21
9.2142130218
  0
LINE
  5
2A5
100
AcDbEntity
  8
0
100
AcDbLine
 62
4
  6
CONTINUOUS
 10
8.5790256445
 20
8.5413544424
 11
8.5790256445
 21
8.7731766493
  0
LINE
  5
2A6
100
AcDbEntity
  8
0
100
AcDbLine
 62
4
  6
CONTINUOUS
 10
8.6038637103
 20
8.0296230616
 11
8.6038637103
 21
8.2614452685
  0
LINE
  5
2A7
100
AcDbEntity
  8
0
100
AcDbLine
 62
4
  6
CONTINUOUS
 10
8.7446129391
 20
8.5298709245
 11
8.7446129391
 21
8.7616931314
  0
LINE
  5
2A8
100
AcDbEntity
  8
0
100
AcDbLine
 62
4
  6
CONTINUOUS
 10
8.7804901588
 20
9.2162259606
 11
8.7804901588
 21
9.3486957904
  0
LINE
  5
2A9
100
AcDbEntity
  8
0
100
AcDbLine
 62
4
  6
CONTINUOUS
 10
8.6700986106
 20
9.152127147
 11
8.7363334953
 21
9.3683168004
  0
LINE
  5
2AA
100
AcDbEntity
  8
0
100
AcDbLine
 62
4
  6
CONTINUOUS
 10
8.0795039533
 20
8.2978097411
 11
8.1126214095
 21
8.2623955816
  0
LINE
  5
2AB
100
AcDbEntity
  8
0
100
AcDbLine
 62
4
  6
CONTINUOUS
 10
8.1071018146
 20
9.478189078
 11
8.2230129181
 21
9.2383284088
  0
LINE
  5
2AC
100
AcDbEntity
  8
0
100
AcDbLine
 62
4
  6
CONTINUOUS
 10
8.8770827636
 20
8.7525063179
 11
8.8770827636
 21
8.520684111
  0
LINE
  5
2AD
100
AcDbEntity
  8
0
100
AcDbLine
 62
4
  6
CONTINUOUS
 10
8.8798424858
 20
9.4245993304
 11
8.8798424858
 21
9.1927771235
  0
LINE
  5
2AE
100
AcDbEntity
  8
0
100
AcDbLine
 62
4
  6
CONTINUOUS
 10
8.946077481
 20
9.188183711
 11
8.946077481
 21
9.3537710056
  0
LINE
  5
2AF
100
AcDbEntity
  8
0
100
AcDbLine
 62
4
  6
CONTINUOUS
 10
8.9515970758
 20
8.0386251304
 11
8.9515970758
 21
8.2042124215
  0
LINE
  5
2B0
100
AcDbEntity
  8
0
100
AcDbLine
 62
4
  6
CONTINUOUS
 10
9.0233514762
 20
9.3318533008
 11
9.0233514762
 21
9.2987358447
  0
LINE
  5
2B1
100
AcDbEntity
  8
0
100
AcDbLine
 62
4
  6
CONTINUOUS
 10
9.0951060267
 20
9.1944072761
 11
9.0951060267
 21
9.2440834655
  0
LINE
  5
2B2
100
AcDbEntity
  8
0
100
AcDbLine
 62
4
  6
CONTINUOUS
 10
9.1447821745
 20
8.0252276983
 11
9.1447821745
 21
8.1908149894
  0
LINE
  5
2B3
100
AcDbEntity
  8
0
100
AcDbLine
 62
4
  6
CONTINUOUS
 10
9.1944583537
 20
9.170958439
 11
9.1944583537
 21
9.3034282774
  0
LINE
  5
2B4
100
AcDbEntity
  8
0
100
AcDbLine
 62
4
  6
CONTINUOUS
 10
9.0095525882
 20
8.5114972975
 11
9.0757875005
 21
8.7387260976
  0
LINE
  5
2B5
100
AcDbEntity
  8
0
100
AcDbLine
 62
4
  6
CONTINUOUS
 10
8.8108478514
 20
8.6246298931
 11
8.8770827636
 21
8.7525063179
  0
LINE
  5
2B6
100
AcDbEntity
  8
0
100
AcDbLine
 62
4
  6
CONTINUOUS
 10
7.8642404815
 20
8.1802684821
 11
7.9525537048
 21
8.1299873276
  0
LINE
  5
2B7
100
AcDbEntity
  8
0
100
AcDbLine
 62
4
  6
CONTINUOUS
 10
7.7428097832
 20
9.2881893391
 11
7.759368513
 21
9.2704822575
  0
LINE
  5
2B8
100
AcDbEntity
  8
0
100
AcDbLine
 62
4
  6
CONTINUOUS
 10
8.9847145182
 20
8.0032109684
 11
8.9515970758
 21
8.0386251304
  0
LINE
  5
2B9
100
AcDbEntity
  8
0
100
AcDbLine
 62
4
  6
CONTINUOUS
 10
7.5031222871
 20
10.099630733
 11
7.5176111751
 21
10.0793073988
  0
LINE
  5
2BA
100
AcDbEntity
  8
0
100
AcDbLine
 62
4
  6
CONTINUOUS
 10
8.7446129391
 20
8.7616931314
 11
8.8108478514
 21
8.6246298931
  0
LINE
  5
2BB
100
AcDbEntity
  8
0
100
AcDbLine
 62
4
  6
CONTINUOUS
 10
8.6369811683
 20
9.3752069077
 11
8.6866573871
 21
9.2061745556
  0
LINE
  5
2BC
100
AcDbEntity
  8
0
100
AcDbLine
 62
4
  6
CONTINUOUS
 10
8.9433176759
 20
8.7479129111
 11
9.0095525882
 21
8.5114972975
  0
LINE
  5
2BD
100
AcDbEntity
  8
0
100
AcDbLine
 62
4
  6
CONTINUOUS
 10
9.2606932384
 20
9.3319523287
 11
9.2606932384
 21
9.1829237639
  0
LINE
  5
2BE
100
AcDbEntity
  8
0
100
AcDbLine
 62
4
  6
CONTINUOUS
 10
9.2606932779
 20
8.1827765271
 11
9.2606932779
 21
8.017189236
  0
LINE
  5
2BF
100
AcDbEntity
  8
0
100
AcDbLine
 62
4
  6
CONTINUOUS
 10
9.3269281626
 20
7.9794783715
 11
9.3269281626
 21
8.2113005784
  0
LINE
  5
2C0
100
AcDbEntity
  8
0
100
AcDbLine
 62
4
  6
CONTINUOUS
 10
9.3600456759
 20
9.1594749192
 11
9.3600456759
 21
9.3250622138
  0
LINE
  5
2C1
100
AcDbEntity
  8
0
100
AcDbLine
 62
4
  6
CONTINUOUS
 10
9.4262805606
 20
9.1714402441
 11
9.4262805606
 21
9.3867037212
  0
LINE
  5
2C2
100
AcDbEntity
  8
0
100
AcDbLine
 62
4
  6
CONTINUOUS
 10
9.442839266
 20
8.1701446599
 11
9.442839266
 21
8.0045573688
  0
LINE
  5
2C3
100
AcDbEntity
  8
0
100
AcDbLine
 62
4
  6
CONTINUOUS
 10
9.5366721483
 20
7.9649325767
 11
9.5366721483
 21
8.1967547836
  0
LINE
  5
2C4
100
AcDbEntity
  8
0
100
AcDbLine
 62
4
  6
CONTINUOUS
 10
9.5753091064
 20
9.1445463496
 11
9.5753091064
 21
9.3101336442
  0
LINE
  5
2C5
100
AcDbEntity
  8
0
100
AcDbLine
 62
4
  6
CONTINUOUS
 10
9.5753091064
 20
9.3598098215
 11
9.5753091064
 21
9.3763685564
  0
LINE
  5
2C6
100
AcDbEntity
  8
0
100
AcDbLine
 62
4
  6
CONTINUOUS
 10
9.5808286617
 20
9.375985774
 11
9.5753091064
 21
9.3598098215
  0
LINE
  5
2C7
100
AcDbEntity
  8
0
100
AcDbLine
 62
4
  6
CONTINUOUS
 10
8.1126214095
 20
8.0968082905
 11
8.0795039533
 21
8.0659875343
  0
LINE
  5
2C8
100
AcDbEntity
  8
0
100
AcDbLine
 62
4
  6
CONTINUOUS
 10
9.6636223228
 20
9.2874503668
 11
9.6801809886
 21
9.3028607544
  0
LINE
  5
2C9
100
AcDbEntity
  8
0
100
AcDbLine
 62
4
  6
CONTINUOUS
 10
8.7804901588
 20
9.3486957904
 11
8.8136076011
 21
9.362957823
  0
LINE
  5
2CA
100
AcDbEntity
  8
0
100
AcDbLine
 62
4
  6
CONTINUOUS
 10
9.0951060267
 20
9.2440834655
 11
9.1282234691
 21
9.2583454911
  0
LINE
  5
2CB
100
AcDbEntity
  8
0
100
AcDbLine
 62
4
  6
CONTINUOUS
 10
7.8587208866
 20
9.3298270662
 11
7.7428097832
 21
9.4372179038
  0
LINE
  5
2CC
100
AcDbEntity
  8
0
100
AcDbLine
 62
4
  6
CONTINUOUS
 10
7.9249557989
 20
9.2921161998
 11
7.9580732551
 21
9.2567020368
  0
LINE
  5
2CD
100
AcDbEntity
  8
0
100
AcDbLine
 62
4
  6
CONTINUOUS
 10
9.1778996168
 20
7.9898135363
 11
9.1447821745
 21
8.0252276983
  0
LINE
  5
2CE
100
AcDbEntity
  8
0
100
AcDbLine
 62
4
  6
CONTINUOUS
 10
7.8421621585
 20
9.4965627055
 11
7.8587208866
 21
9.4788556188
  0
LINE
  5
2CF
100
AcDbEntity
  8
0
100
AcDbLine
 62
4
  6
CONTINUOUS
 10
9.2275758356
 20
8.2181906857
 11
9.2606932779
 21
8.1827765271
  0
LINE
  5
2D0
100
AcDbEntity
  8
0
100
AcDbLine
 62
4
  6
CONTINUOUS
 10
9.6636223228
 20
9.154980537
 11
9.6636223228
 21
9.2874503668
  0
LINE
  5
2D1
100
AcDbEntity
  8
0
100
AcDbLine
 62
4
  6
CONTINUOUS
 10
9.8126509791
 20
9.2274390102
 11
9.8126509791
 21
9.2771151944
  0
LINE
  5
2D2
100
AcDbEntity
  8
0
100
AcDbLine
 62
4
  6
CONTINUOUS
 10
9.9120031955
 20
9.137755265
 11
9.9120031955
 21
9.1874314544
  0
LINE
  5
2D3
100
AcDbEntity
  8
0
100
AcDbLine
 62
4
  6
CONTINUOUS
 10
9.8126509791
 20
9.2771151944
 11
9.829209645
 21
9.292525582
  0
LINE
  5
2D4
100
AcDbEntity
  8
0
100
AcDbLine
 62
4
  6
CONTINUOUS
 10
9.8954445296
 20
9.1223448826
 11
9.9120031955
 21
9.137755265
  0
LINE
  5
2D5
100
AcDbEntity
  8
0
100
AcDbLine
 62
4
  6
CONTINUOUS
 10
8.9515970758
 20
8.2042124215
 11
8.9847145182
 21
8.2350331752
  0
LINE
  5
2D6
100
AcDbEntity
  8
0
100
AcDbLine
 62
4
  6
CONTINUOUS
 10
9.4097218237
 20
8.2055588185
 11
9.442839266
 21
8.1701446599
  0
LINE
  5
2D7
100
AcDbEntity
  8
0
100
AcDbLine
 62
4
  6
CONTINUOUS
 10
8.5541875072
 20
9.3809486676
 11
8.5707462284
 21
9.3632415814
  0
LINE
  5
2D8
100
AcDbEntity
  8
0
100
AcDbLine
 62
4
  6
CONTINUOUS
 10
9.0123123656
 20
9.3491776007
 11
9.0233514762
 21
9.3318533008
  0
LINE
  5
2D9
100
AcDbEntity
  8
0
100
AcDbLine
 62
4
  6
CONTINUOUS
 10
9.1944583537
 20
9.3034282774
 11
9.1778996878
 21
9.3376940809
  0
LINE
  5
2DA
100
AcDbEntity
  8
0
100
AcDbLine
 62
4
  6
CONTINUOUS
 10
10.312034723
 20
5.3360025599
 11
10.312034723
 21
5.104180353
  0
LINE
  5
2DB
100
AcDbEntity
  8
0
100
AcDbLine
 62
4
  6
CONTINUOUS
 10
9.1447821745
 20
8.1908149894
 11
9.1778996168
 21
8.2216357431
  0
LINE
  5
2DC
100
AcDbEntity
  8
0
100
AcDbLine
 62
4
  6
CONTINUOUS
 10
9.2606932779
 20
8.017189236
 11
9.2275758356
 21
7.9863684788
  0
LINE
  5
2DD
100
AcDbEntity
  8
0
100
AcDbLine
 62
4
  6
CONTINUOUS
 10
9.442839266
 20
8.0045573688
 11
9.4097218237
 21
7.9737366116
  0
LINE
  5
2DE
100
AcDbEntity
  8
0
100
AcDbLine
 62
4
  6
CONTINUOUS
 10
7.9525537048
 20
8.2183005544
 11
7.8642404815
 21
8.1802684821
  0
LINE
  5
2DF
100
AcDbEntity
  8
0
100
AcDbLine
 62
4
  6
CONTINUOUS
 10
9.7022593599
 20
8.0969580551
 11
9.7905725763
 21
8.0466768976
  0
LINE
  5
2E0
100
AcDbEntity
  8
0
100
AcDbLine
 62
4
  6
CONTINUOUS
 10
7.4741445113
 20
10.1209588612
 11
7.5031222871
 21
10.099630733
  0
LINE
  5
2E1
100
AcDbEntity
  8
0
100
AcDbLine
 62
4
  6
CONTINUOUS
 10
9.2606932384
 20
9.1829237639
 11
9.2772520148
 21
9.1652166791
  0
LINE
  5
2E2
100
AcDbEntity
  8
0
100
AcDbLine
 62
4
  6
CONTINUOUS
 10
9.442839337
 20
9.1537331593
 11
9.4262805606
 21
9.1714402441
  0
LINE
  5
2E3
100
AcDbEntity
  8
0
100
AcDbLine
 62
4
  6
CONTINUOUS
 10
9.4097218237
 20
7.9737366116
 11
9.3269281626
 21
7.9794783715
  0
LINE
  5
2E4
100
AcDbEntity
  8
0
100
AcDbLine
 62
4
  6
CONTINUOUS
 10
9.2275758356
 20
7.9863684788
 11
9.1778996168
 21
7.9898135363
  0
LINE
  5
2E5
100
AcDbEntity
  8
0
100
AcDbLine
 62
4
  6
CONTINUOUS
 10
9.0509494028
 20
7.9986175635
 11
8.9847145182
 21
8.0032109684
  0
LINE
  5
2E6
100
AcDbEntity
  8
0
100
AcDbLine
 62
4
  6
CONTINUOUS
 10
8.0795039533
 20
8.0659875343
 11
7.9967103199
 21
8.0717292923
  0
LINE
  5
2E7
100
AcDbEntity
  8
0
100
AcDbLine
 62
4
  6
CONTINUOUS
 10
8.6038637103
 20
8.0296230616
 11
8.7032160925
 21
8.0227329505
  0
LINE
  5
2E8
100
AcDbEntity
  8
0
100
AcDbLine
 62
4
  6
CONTINUOUS
 10
9.5366721483
 20
7.9649325767
 11
9.6360244753
 21
7.9580424694
  0
LINE
  5
2E9
100
AcDbEntity
  8
0
100
AcDbLine
 62
4
  6
CONTINUOUS
 10
8.2285325129
 20
8.1218872878
 11
8.3168457293
 21
8.1157627454
  0
LINE
  5
2EA
100
AcDbEntity
  8
0
100
AcDbLine
 62
4
  6
CONTINUOUS
 10
9.6029070329
 20
8.0928090103
 11
9.5366721483
 21
8.0974024151
  0
LINE
  5
2EB
100
AcDbEntity
  8
0
100
AcDbLine
 62
4
  6
CONTINUOUS
 10
8.6700986502
 20
8.1574994913
 11
8.6038637103
 21
8.1620929
  0
LINE
  5
2EC
100
AcDbEntity
  8
0
100
AcDbLine
 62
4
  6
CONTINUOUS
 10
7.9967103199
 20
8.3035514991
 11
8.0795039533
 21
8.2978097411
  0
LINE
  5
2ED
100
AcDbEntity
  8
0
100
AcDbLine
 62
4
  6
CONTINUOUS
 10
8.4051589457
 20
8.2752254907
 11
8.5376287703
 21
8.2660386772
  0
LINE
  5
2EE
100
AcDbEntity
  8
0
100
AcDbLine
 62
4
  6
CONTINUOUS
 10
8.6038637103
 20
8.2614452685
 11
8.7032160925
 21
8.2545551574
  0
LINE
  5
2EF
100
AcDbEntity
  8
0
100
AcDbLine
 62
4
  6
CONTINUOUS
 10
8.9847145182
 20
8.2350331752
 11
9.0509494028
 21
8.2304397704
  0
LINE
  5
2F0
100
AcDbEntity
  8
0
100
AcDbLine
 62
4
  6
CONTINUOUS
 10
9.1778996168
 20
8.2216357431
 11
9.2275758356
 21
8.2181906857
  0
LINE
  5
2F1
100
AcDbEntity
  8
0
100
AcDbLine
 62
4
  6
CONTINUOUS
 10
9.3269281626
 20
8.2113005784
 11
9.4097218237
 21
8.2055588185
  0
LINE
  5
2F2
100
AcDbEntity
  8
0
100
AcDbLine
 62
4
  6
CONTINUOUS
 10
9.5366721483
 20
8.1967547836
 11
9.6360244753
 21
8.1898646763
  0
LINE
  5
2F3
100
AcDbEntity
  8
0
100
AcDbLine
 62
4
  6
CONTINUOUS
 10
8.8136076011
 20
9.1973705284
 11
8.7804901588
 21
9.2162259606
  0
LINE
  5
2F4
100
AcDbEntity
  8
0
100
AcDbLine
 62
4
  6
CONTINUOUS
 10
9.1282234691
 20
9.1755518438
 11
9.0951060267
 21
9.1944072761
  0
LINE
  5
2F5
100
AcDbEntity
  8
0
100
AcDbLine
 62
4
  6
CONTINUOUS
 10
9.6801809886
 20
9.1372734598
 11
9.6636223228
 21
9.154980537
  0
LINE
  5
2F6
100
AcDbEntity
  8
0
100
AcDbLine
 62
4
  6
CONTINUOUS
 10
9.8126509791
 20
9.1446453646
 11
9.829209645
 21
9.1269382874
  0
LINE
  5
2F7
100
AcDbEntity
  8
0
100
AcDbLine
 62
4
  6
CONTINUOUS
 10
12.7307130883
 20
9.7370960796
 11
12.7596908641
 21
9.7544049767
  0
LINE
  5
2F8
100
AcDbEntity
  8
0
100
AcDbLine
 62
4
  6
CONTINUOUS
 10
12.8176464158
 20
9.6537931547
 11
12.7596908641
 21
9.6191753537
  0
LINE
  5
2F9
100
AcDbEntity
  8
0
100
AcDbLine
 62
4
  6
CONTINUOUS
 10
9.7905725763
 20
8.0466768976
 11
9.7022593599
 21
8.0086448283
  0
LINE
  5
2FA
100
AcDbEntity
  8
0
100
AcDbLine
 62
4
  6
CONTINUOUS
 10
8.6783780198
 20
8.6669341702
 11
8.5790256445
 21
8.6738242808
  0
LINE
  5
2FB
100
AcDbEntity
  8
0
100
AcDbLine
 62
4
  6
CONTINUOUS
 10
9.829209645
 20
9.2152515107
 11
9.8126509791
 21
9.2274390102
  0
LINE
  5
2FC
100
AcDbEntity
  8
0
100
AcDbLine
 62
4
  6
CONTINUOUS
 10
9.9120031955
 20
9.1874314544
 11
9.8954445296
 21
9.1996189538
  0
LINE
  5
2FD
100
AcDbEntity
  8
0
100
AcDbLine
 62
4
  6
CONTINUOUS
 10
9.8954445296
 20
9.2879321771
 11
9.9120031955
 21
9.2702250948
  0
LINE
  5
2FE
100
AcDbEntity
  8
0
100
AcDbLine
 62
7
  6
CONTINUOUS
 10
13.3189619641
 20
10.4497230708
 11
14.8397813992
 21
11.9187219274
  0
LINE
  5
2FF
100
AcDbEntity
  8
0
100
AcDbLine
 62
4
  6
CONTINUOUS
 10
8.5790256445
 20
8.7731766493
 11
8.6783780198
 21
8.7662865387
  0
LINE
  5
300
100
AcDbEntity
  8
0
100
AcDbLine
 62
4
  6
CONTINUOUS
 10
12.7162242003
 20
9.718782361
 11
12.7307130883
 21
9.7370960796
  0
LINE
  5
301
100
AcDbEntity
  8
0
100
AcDbLine
 62
4
  6
CONTINUOUS
 10
12.7596908641
 20
9.6191753537
 11
12.7307130883
 21
9.5825479371
  0
LINE
  5
302
100
AcDbEntity
  8
0
100
AcDbLine
 62
4
  6
CONTINUOUS
 10
12.8321353038
 20
9.6721068734
 11
12.8176464158
 21
9.6537931547
  0
LINE
  5
303
100
AcDbEntity
  8
0
100
AcDbLine
 62
4
  6
CONTINUOUS
 10
8.6369811683
 20
9.1544238494
 11
8.6700986106
 21
9.152127147
  0
LINE
  5
304
100
AcDbEntity
  8
0
100
AcDbLine
 62
4
  6
CONTINUOUS
 10
9.7464160944
 20
9.1326800397
 11
9.6801809886
 21
9.1372734598
  0
LINE
  5
305
100
AcDbEntity
  8
0
100
AcDbLine
 62
4
  6
CONTINUOUS
 10
9.4759567794
 20
9.1514364569
 11
9.442839337
 21
9.1537331593
  0
LINE
  5
306
100
AcDbEntity
  8
0
100
AcDbLine
 62
4
  6
CONTINUOUS
 10
9.1944583537
 20
9.170958439
 11
9.1282234691
 21
9.1755518438
  0
LINE
  5
307
100
AcDbEntity
  8
0
100
AcDbLine
 62
4
  6
CONTINUOUS
 10
8.8798424858
 20
9.1927771235
 11
8.8136076011
 21
9.1973705284
  0
LINE
  5
308
100
AcDbEntity
  8
0
100
AcDbLine
 62
4
  6
CONTINUOUS
 10
7.759368513
 20
9.2704822575
 11
7.8256034305
 21
9.2658888503
  0
LINE
  5
309
100
AcDbEntity
  8
0
100
AcDbLine
 62
4
  6
CONTINUOUS
 10
7.9580732551
 20
9.2567020368
 11
8.00774946
 21
9.2532569803
  0
LINE
  5
30A
100
AcDbEntity
  8
0
100
AcDbLine
 62
4
  6
CONTINUOUS
 10
9.2772520148
 20
9.1652166791
 11
9.3600456759
 21
9.1594749192
  0
LINE
  5
30B
100
AcDbEntity
  8
0
100
AcDbLine
 62
4
  6
CONTINUOUS
 10
9.829209645
 20
9.1269382874
 11
9.8954445296
 21
9.1223448826
  0
LINE
  5
30C
100
AcDbEntity
  8
0
100
AcDbLine
 62
4
  6
CONTINUOUS
 10
9.1282234691
 20
9.2583454911
 11
9.1944583537
 21
9.2537520863
  0
LINE
  5
30D
100
AcDbEntity
  8
0
100
AcDbLine
 62
4
  6
CONTINUOUS
 10
9.1778996878
 20
9.3376940809
 11
9.0951060267
 21
9.3434358408
  0
LINE
  5
30E
100
AcDbEntity
  8
0
100
AcDbLine
 62
4
  6
CONTINUOUS
 10
8.4713938461
 20
9.3866904275
 11
8.5541875072
 21
9.3809486676
  0
LINE
  5
30F
100
AcDbEntity
  8
0
100
AcDbLine
 62
4
  6
CONTINUOUS
 10
8.8136076011
 20
9.362957823
 11
8.8798424858
 21
9.3583644181
  0
LINE
  5
310
100
AcDbEntity
  8
0
100
AcDbLine
 62
4
  6
CONTINUOUS
 10
8.946077481
 20
9.3537710056
 11
9.0123123656
 21
9.3491776007
  0
LINE
  5
311
100
AcDbEntity
  8
0
100
AcDbLine
 62
4
  6
CONTINUOUS
 10
9.6801809886
 20
9.3028607544
 11
9.7464160944
 21
9.2982673342
  0
LINE
  5
312
100
AcDbEntity
  8
0
100
AcDbLine
 62
4
  6
CONTINUOUS
 10
9.829209645
 20
9.292525582
 11
9.8954445296
 21
9.2879321771
  0
LINE
  5
313
100
AcDbEntity
  8
0
100
AcDbLine
 62
4
  6
CONTINUOUS
 10
9.8954445296
 20
9.1996189538
 11
9.829209645
 21
9.2152515107
  0
LINE
  5
314
100
AcDbEntity
  8
0
100
AcDbLine
 62
4
  6
CONTINUOUS
 10
7.7759272428
 20
9.5011561125
 11
7.8421621585
 21
9.4965627055
  0
LINE
  5
315
100
AcDbEntity
  8
0
100
AcDbLine
 62
4
  6
CONTINUOUS
 10
9.5753091064
 20
9.3763685564
 11
9.5808286617
 21
9.375985774
  0
LINE
  5
316
100
AcDbEntity
  8
0
100
AcDbLine
 62
4
  6
CONTINUOUS
 10
12.7307130883
 20
9.5825479371
 11
12.7162242003
 21
9.5255971932
  0
LINE
  5
317
100
AcDbEntity
  8
0
100
AcDbLine
 62
4
  6
CONTINUOUS
 10
7.4017000716
 20
9.8941606933
 11
7.5176111751
 21
9.886122231
  0
LINE
  5
318
100
AcDbEntity
  8
0
100
AcDbLine
 62
4
  6
CONTINUOUS
 10
12.7162242003
 20
9.5255971932
 11
12.8321353038
 21
9.5175587309
  0
LINE
  5
319
100
AcDbEntity
  8
0
100
AcDbLine
 62
4
  6
CONTINUOUS
 10
7.4451667354
 20
10.1229684768
 11
7.4741445113
 21
10.1209588612
  0
LINE
  5
31A
100
AcDbEntity
  8
0
100
AcDbLine
 62
4
  6
CONTINUOUS
 10
12.7596908641
 20
9.7544049767
 11
12.78866864
 21
9.7523953611
  0
LINE
  5
31B
100
AcDbEntity
  8
0
100
AcDbLine
 62
4
  6
CONTINUOUS
 10
12.8321353038
 20
9.7107438986
 11
12.8321353038
 21
9.6721068734
  0
LINE
  5
31C
100
AcDbEntity
  8
0
100
AcDbLine
 62
4
  6
CONTINUOUS
 10
12.8321353038
 20
6.3686403454
 11
12.8321353038
 21
6.1368181385
  0
LINE
  5
31D
100
AcDbEntity
  8
0
100
AcDbLine
 62
7
  6
CONTINUOUS
 10
13.3189619641
 20
10.4497230708
 11
7.1602186008
 21
10.8768333737
  0
LINE
  5
31E
100
AcDbEntity
  8
0
100
AcDbLine
 62
4
  6
CONTINUOUS
 10
12.78866864
 20
9.7523953611
 11
12.8176464158
 21
9.7310672329
  0
LINE
  5
31F
100
AcDbEntity
  8
0
100
AcDbLine
 62
4
  6
CONTINUOUS
 10
12.8176464158
 20
9.7310672329
 11
12.8321353038
 21
9.7107438986
  0
LINE
  5
320
100
AcDbEntity
  8
0
100
AcDbLine
 62
7
  6
CONTINUOUS
 10
13.3189619641
 20
4.6541677697
 11
13.3189619641
 21
10.4497230708
  0
LINE
  5
321
100
AcDbEntity
  8
0
100
AcDbLine
 62
7
  6
CONTINUOUS
 10
14.8397813992
 20
11.9187219274
 11
14.8397813992
 21
6.1231666263
  0
LINE
  5
322
100
AcDbEntity
  8
0
100
AcDbLine
 62
7
  6
CONTINUOUS
 10
14.8397813992
 20
11.9187219274
 11
8.6810380359
 21
12.3458322303
  0
LINE
  5
323
100
AcDbEntity
  8
0
100
AcDbLine
 62
7
  6
CONTINUOUS
 10
14.8397813992
 20
6.1231666263
 11
13.3189619641
 21
4.6541677697
  0
ARC
  5
324
100
AcDbEntity
  8
0
100
AcDbCircle
 62
7
  6
CONTINUOUS
 10
12.3322237371
 20
8.6187732122
 40
1.7141620676
100
AcDbArc
 50
142.168344139
 51
148.5337401155
  0
ARC
  5
325
100
AcDbEntity
  8
0
100
AcDbCircle
 62
7
  6
CONTINUOUS
 10
9.3090725848
 20
6.8520509456
 40
0.792362826
100
AcDbArc
 50
0.00553974
 51
4.1913822612
  0
ARC
  5
326
100
AcDbEntity
  8
0
100
AcDbCircle
 62
7
  6
CONTINUOUS
 10
11.2409245821
 20
8.8914097925
 40
0.792362826
100
AcDbArc
 50
0.00553974
 51
4.1913822612
  0
ARC
  5
327
100
AcDbEntity
  8
0
100
AcDbCircle
 62
7
  6
CONTINUOUS
 10
9.2285267718
 20
6.9775303698
 40
0.7498264853
100
AcDbArc
 50
135.4368323966
 51
137.415064188
  0
ARC
  5
328
100
AcDbEntity
  8
0
100
AcDbCircle
 62
7
  6
CONTINUOUS
 10
11.1603787692
 20
9.0168892167
 40
0.7498264853
100
AcDbArc
 50
135.4368323966
 51
137.415064188
  0
ARC
  5
329
100
AcDbEntity
  8
0
100
AcDbCircle
 62
7
  6
CONTINUOUS
 10
9.3830813271
 20
6.8175155649
 40
0.7497060121
100
AcDbArc
 50
310.6033370368
 51
312.4573513682
  0
ARC
  5
32A
100
AcDbEntity
  8
0
100
AcDbCircle
 62
7
  6
CONTINUOUS
 10
11.3149333245
 20
8.8568744118
 40
0.7497060121
100
AcDbArc
 50
310.6033370368
 51
312.4573513682
  0
ARC
  5
32B
100
AcDbEntity
  8
0
100
AcDbCircle
 62
7
  6
CONTINUOUS
 10
9.9491607331
 20
7.5800793328
 40
0.6970613865
100
AcDbArc
 50
170.5479608062
 51
180.0287155309
  0
ARC
  5
32C
100
AcDbEntity
  8
0
100
AcDbCircle
 62
7
  6
CONTINUOUS
 10
11.8810127305
 20
9.6194381797
 40
0.6970613865
100
AcDbArc
 50
170.5479608062
 51
180.0287155309
  0
ARC
  5
32D
100
AcDbEntity
  8
0
100
AcDbCircle
 62
7
  6
CONTINUOUS
 10
9.9585075509
 20
7.5861437587
 40
0.6656436477
100
AcDbArc
 50
170.7130630571
 51
180.0277454756
  0
ARC
  5
32E
100
AcDbEntity
  8
0
100
AcDbCircle
 62
7
  6
CONTINUOUS
 10
11.8903595482
 20
9.6255026056
 40
0.6656436477
100
AcDbArc
 50
170.7130630571
 51
180.0277454756
  0
ARC
  5
32F
100
AcDbEntity
  8
0
100
AcDbCircle
 62
7
  6
CONTINUOUS
 10
9.9666033234
 20
7.5923914787
 40
0.6551026847
100
AcDbArc
 50
171.2238088465
 51
180.0248213111
  0
ARC
  5
330
100
AcDbEntity
  8
0
100
AcDbCircle
 62
7
  6
CONTINUOUS
 10
11.8984553207
 20
9.6317503255
 40
0.6551026847
100
AcDbArc
 50
171.2238088465
 51
180.0248213111
  0
SPLINE
  5
331
100
AcDbEntity
  8
0
100
AcDbSpline
 62
7
  6
CONTINUOUS
 70
0
 71
3
 72
61
 73
57
 74
0
 42
0.0000001
 43
0.0000001
 44
0.0000000001
 40
0.0
 40
0.0
 40
0.0
 40
0.0
 40
0.0417736088
 40
0.0840360431
 40
0.126657155
 40
0.1695046842
 40
0.2124458378
 40
0.2553473321
 40
0.2980760744
 40
0.3404996436
 40
0.3824868274
 40
0.4239081481
 40
0.4646363976
 40
0.5045471783
 40
0.5435194547
 40
0.5814361204
 40
0.5999634452
 40
0.6181850312
 40
0.6360876424
 40
0.6536583488
 40
0.6708846631
 40
0.6877544565
 40
0.7042560738
 40
0.7203782989
 40
0.7361104104
 40
0.7514422273
 40
0.7663640903
 40
0.7808669935
 40
0.7949425048
 40
0.8085829615
 40
0.8217813757
 40
0.8345316441
 40
0.8468285057
 40
0.8586677174
 40
0.8700461208
 40
0.8809617639
 40
0.8914141105
 40
0.9014041268
 40
0.9109346407
 40
0.9200104579
 40
0.9286388542
 40
0.9368298218
 40
0.9445966692
 40
0.9519564915
 40
0.9589308526
 40
0.9655464796
 40
0.97183593
 40
0.9778382749
 40
0.9807467215
 40
0.9836011958
 40
0.9864085004
 40
0.9891758164
 40
0.9919106777
 40
0.9946209229
 40
0.9973146203
 40
1.0
 40
1.0
 40
1.0
 40
1.0
 10
14.1435587425
 20
6.8995559667
 30
0.0
 10
14.1435587425
 20
6.9217564577
 30
0.0
 10
14.1439050917
 20
6.9664179229
 30
0.0
 10
14.1454362508
 20
7.0337145047
 30
0.0
 10
14.1479775868
 20
7.101551757
 30
0.0
 10
14.151520782
 20
7.1697051747
 30
0.0
 10
14.1560541198
 20
7.2379492331
 30
0.0
 10
14.1615626185
 20
7.3060581767
 30
0.0
 10
14.1680280297
 20
7.3738066688
 30
0.0
 10
14.1754289211
 20
7.440970583
 30
0.0
 10
14.1837407388
 20
7.5073277358
 30
0.0
 10
14.1929358893
 20
7.5726586363
 30
0.0
 10
14.202983831
 20
7.6367471977
 30
0.0
 10
14.2138511641
 20
7.6993815414
 30
0.0
 10
14.2255017674
 20
7.7603544195
 30
0.0
 10
14.2359093402
 20
7.8099868999
 30
0.0
 10
14.2446096221
 20
7.8487027518
 30
0.0
 10
14.2512557824
 20
7.8769770589
 30
0.0
 10
14.2580674103
 20
7.9046887147
 30
0.0
 10
14.2650389619
 20
7.9318148166
 30
0.0
 10
14.2721645766
 20
7.958332931
 30
0.0
 10
14.2794384083
 20
7.9842211278
 30
0.0
 10
14.2868543821
 20
8.0094580079
 30
0.0
 10
14.2944063678
 20
8.0340227101
 30
0.0
 10
14.3020881086
 20
8.0578949349
 30
0.0
 10
14.3098932021
 20
8.0810549656
 30
0.0
 10
14.3178152333
 20
8.1034836694
 30
0.0
 10
14.3258475564
 20
8.1251625453
 30
0.0
 10
14.3339836058
 20
8.1460736937
 30
0.0
 10
14.3422165424
 20
8.1661998946
 30
0.0
 10
14.350539642
 20
8.1855245512
 30
0.0
 10
14.3589459383
 20
8.2040317811
 30
0.0
 10
14.3674285406
 20
8.2217063625
 30
0.0
 10
14.3759804218
 20
8.2385338015
 30
0.0
 10
14.3845945369
 20
8.2545003227
 30
0.0
 10
14.3932638572
 20
8.2695928688
 30
0.0
 10
14.4019812281
 20
8.2837991768
 30
0.0
 10
14.4107396736
 20
8.297107671
 30
0.0
 10
14.4195320231
 20
8.3095076485
 30
0.0
 10
14.4283514103
 20
8.3209890535
 30
0.0
 10
14.437190803
 20
8.3315427412
 30
0.0
 10
14.4460435271
 20
8.3411601804
 30
0.0
 10
14.4549028867
 20
8.3498336746
 30
0.0
 10
14.4637625303
 20
8.3575561043
 30
0.0
 10
14.4726162118
 20
8.3643208943
 30
0.0
 10
14.481458105
 20
8.3701220111
 30
0.0
 10
14.4902816612
 20
8.3749532282
 30
0.0
 10
14.4976923673
 20
8.3782002133
 30
0.0
 10
14.5035889435
 20
8.3802866248
 30
0.0
 10
14.5079551973
 20
8.3815900545
 30
0.0
 10
14.5123102255
 20
8.382647955
 30
0.0
 10
14.5166531811
 20
8.3834600133
 30
0.0
 10
14.5209830611
 20
8.3840259175
 30
0.0
 10
14.525298924
 20
8.3843455393
 30
0.0
 10
14.529599583
 20
8.3844187691
 30
0.0
 10
14.5324578113
 20
8.3843031613
 30
0.0
 10
14.5338815312
 20
8.3842044324
 30
0.0
  0
SPLINE
  5
332
100
AcDbEntity
  8
0
100
AcDbSpline
 62
7
  6
CONTINUOUS
 70
0
 71
3
 72
61
 73
57
 74
0
 42
0.0000001
 43
0.0000001
 44
0.0000000001
 40
0.0
 40
0.0
 40
0.0
 40
0.0
 40
0.0417736088
 40
0.0840360431
 40
0.126657155
 40
0.1695046842
 40
0.2124458378
 40
0.2553473321
 40
0.2980760744
 40
0.3404996436
 40
0.3824868274
 40
0.4239081481
 40
0.4646363976
 40
0.5045471783
 40
0.5435194547
 40
0.5814361204
 40
0.5999634452
 40
0.6181850312
 40
0.6360876424
 40
0.6536583488
 40
0.6708846631
 40
0.6877544565
 40
0.7042560738
 40
0.7203782989
 40
0.7361104104
 40
0.7514422273
 40
0.7663640903
 40
0.7808669935
 40
0.7949425048
 40
0.8085829615
 40
0.8217813757
 40
0.8345316441
 40
0.8468285057
 40
0.8586677174
 40
0.8700461208
 40
0.8809617639
 40
0.8914141105
 40
0.9014041268
 40
0.9109346407
 40
0.9200104579
 40
0.9286388542
 40
0.9368298218
 40
0.9445966692
 40
0.9519564915
 40
0.9589308526
 40
0.9655464796
 40
0.97183593
 40
0.9778382749
 40
0.9807467215
 40
0.9836011958
 40
0.9864085004
 40
0.9891758164
 40
0.9919106777
 40
0.9946209229
 40
0.9973146203
 40
1.0
 40
1.0
 40
1.0
 40
1.0
 10
14.1435587425
 20
10.0388150882
 30
0.0
 10
14.1435587425
 20
10.0610155792
 30
0.0
 10
14.1439050917
 20
10.1056770443
 30
0.0
 10
14.1454362508
 20
10.1729736261
 30
0.0
 10
14.1479775868
 20
10.2408108784
 30
0.0
 10
14.151520782
 20
10.3089642961
 30
0.0
 10
14.1560541198
 20
10.3772083546
 30
0.0
 10
14.1615626185
 20
10.4453172981
 30
0.0
 10
14.1680280297
 20
10.5130657903
 30
0.0
 10
14.1754289211
 20
10.5802297045
 30
0.0
 10
14.1837407388
 20
10.6465868572
 30
0.0
 10
14.1929358893
 20
10.7119177577
 30
0.0
 10
14.202983831
 20
10.7760063192
 30
0.0
 10
14.2138511641
 20
10.8386406628
 30
0.0
 10
14.2255017674
 20
10.8996135409
 30
0.0
 10
14.2359093402
 20
10.9492460213
 30
0.0
 10
14.2446096221
 20
10.9879618732
 30
0.0
 10
14.2512557824
 20
11.0162361804
 30
0.0
 10
14.2580674103
 20
11.0439478362
 30
0.0
 10
14.2650389619
 20
11.0710739381
 30
0.0
 10
14.2721645766
 20
11.0975920525
 30
0.0
 10
14.2794384083
 20
11.1234802492
 30
0.0
 10
14.2868543821
 20
11.1487171294
 30
0.0
 10
14.2944063678
 20
11.1732818315
 30
0.0
 10
14.3020881086
 20
11.1971540563
 30
0.0
 10
14.3098932021
 20
11.220314087
 30
0.0
 10
14.3178152333
 20
11.2427427909
 30
0.0
 10
14.3258475564
 20
11.2644216667
 30
0.0
 10
14.3339836058
 20
11.2853328152
 30
0.0
 10
14.3422165424
 20
11.305459016
 30
0.0
 10
14.350539642
 20
11.3247836727
 30
0.0
 10
14.3589459383
 20
11.3432909026
 30
0.0
 10
14.3674285406
 20
11.360965484
 30
0.0
 10
14.3759804218
 20
11.377792923
 30
0.0
 10
14.3845945369
 20
11.3937594442
 30
0.0
 10
14.3932638572
 20
11.4088519902
 30
0.0
 10
14.4019812281
 20
11.4230582983
 30
0.0
 10
14.4107396736
 20
11.4363667924
 30
0.0
 10
14.4195320231
 20
11.4487667699
 30
0.0
 10
14.4283514103
 20
11.4602481749
 30
0.0
 10
14.437190803
 20
11.4708018626
 30
0.0
 10
14.4460435271
 20
11.4804193018
 30
0.0
 10
14.4549028867
 20
11.489092796
 30
0.0
 10
14.4637625303
 20
11.4968152258
 30
0.0
 10
14.4726162118
 20
11.5035800157
 30
0.0
 10
14.481458105
 20
11.5093811325
 30
0.0
 10
14.4902816612
 20
11.5142123497
 30
0.0
 10
14.4976923673
 20
11.5174593347
 30
0.0
 10
14.5035889435
 20
11.5195457462
 30
0.0
 10
14.5079551973
 20
11.520849176
 30
0.0
 10
14.5123102255
 20
11.5219070765
 30
0.0
 10
14.5166531811
 20
11.5227191348
 30
0.0
 10
14.5209830611
 20
11.523285039
 30
0.0
 10
14.525298924
 20
11.5236046607
 30
0.0
 10
14.529599583
 20
11.5236778905
 30
0.0
 10
14.5324578113
 20
11.5235622828
 30
0.0
 10
14.5338815312
 20
11.5234635538
 30
0.0
  0
SPLINE
  5
333
100
AcDbEntity
  8
0
100
AcDbSpline
 62
7
  6
CONTINUOUS
 70
0
 71
3
 72
28
 73
24
 74
0
 42
0.0000001
 43
0.0000001
 44
0.0000000001
 40
0.0
 40
0.0
 40
0.0
 40
0.0
 40
0.0637758941
 40
0.0955879065
 40
0.1273462157
 40
0.1907019646
 40
0.2538545302
 40
0.2853587825
 40
0.3168148204
 40
0.379582186
 40
0.4421719279
 40
0.504596336
 40
0.566869323
 40
0.6290062994
 40
0.6910240361
 40
0.7219962863
 40
0.7529455528
 40
0.8147797337
 40
0.8765514554
 40
0.9074228165
 40
0.9382862783
 40
0.9691444605
 40
1.0
 40
1.0
 40
1.0
 40
1.0
 10
10.1053263543
 20
6.8088859232
 30
0.0
 10
10.1053263543
 20
6.7956017017
 30
0.0
 10
10.1048490112
 20
6.7756867587
 30
0.0
 10
10.1032520879
 20
6.7492073884
 30
0.0
 10
10.1010211135
 20
6.7228612058
 30
0.0
 10
10.0970424855
 20
6.6901220415
 30
0.0
 10
10.0914750001
 20
6.6576687555
 30
0.0
 10
10.0860785653
 20
6.6319579038
 30
0.0
 10
10.0800669098
 20
6.6064664089
 30
0.0
 10
10.0713898664
 20
6.5749614089
 30
0.0
 10
10.059131773
 20
6.5378010401
 30
0.0
 10
10.0450633607
 20
6.5013973434
 30
0.0
 10
10.0292170353
 20
6.4658347072
 30
0.0
 10
10.0116295794
 20
6.4311955396
 30
0.0
 10
9.9955481053
 20
6.4031518439
 30
0.0
 10
9.9818566968
 20
6.3812627054
 30
0.0
 10
9.9676317213
 20
6.3597622692
 30
0.0
 10
9.9488426225
 20
6.3336025867
 30
0.0
 10
9.9287466708
 20
6.3084534907
 30
0.0
 10
9.9119232099
 20
6.2889878545
 30
0.0
 10
9.8989393661
 20
6.2747231098
 30
0.0
 10
9.8855955192
 20
6.2607994567
 30
0.0
 10
9.8764641532
 20
6.25174936
 30
0.0
 10
9.8718414592
 20
6.2472841762
 30
0.0
  0
SPLINE
  5
334
100
AcDbEntity
  8
0
100
AcDbSpline
 62
7
  6
CONTINUOUS
 70
0
 71
3
 72
28
 73
24
 74
0
 42
0.0000001
 43
0.0000001
 44
0.0000000001
 40
0.0
 40
0.0
 40
0.0
 40
0.0
 40
0.0637758941
 40
0.0955879065
 40
0.1273462157
 40
0.1907019646
 40
0.2538545302
 40
0.2853587825
 40
0.3168148204
 40
0.379582186
 40
0.4421719279
 40
0.504596336
 40
0.566869323
 40
0.6290062994
 40
0.6910240361
 40
0.7219962863
 40
0.7529455528
 40
0.8147797337
 40
0.8765514554
 40
0.9074228165
 40
0.9382862783
 40
0.9691444605
 40
1.0
 40
1.0
 40
1.0
 40
1.0
 10
12.0371783517
 20
8.8482447701
 30
0.0
 10
12.0371783517
 20
8.8349605486
 30
0.0
 10
12.0367010086
 20
8.8150456056
 30
0.0
 10
12.0351040852
 20
8.7885662353
 30
0.0
 10
12.0328731108
 20
8.7622200527
 30
0.0
 10
12.0288944828
 20
8.7294808884
 30
0.0
 10
12.0233269975
 20
8.6970276023
 30
0.0
 10
12.0179305626
 20
8.6713167507
 30
0.0
 10
12.0119189072
 20
8.6458252558
 30
0.0
 10
12.0032418637
 20
8.6143202558
 30
0.0
 10
11.9909837703
 20
8.5771598869
 30
0.0
 10
11.976915358
 20
8.5407561903
 30
0.0
 10
11.9610690326
 20
8.5051935541
 30
0.0
 10
11.9434815768
 20
8.4705543865
 30
0.0
 10
11.9274001026
 20
8.4425106907
 30
0.0
 10
11.9137086942
 20
8.4206215523
 30
0.0
 10
11.8994837186
 20
8.399121116
 30
0.0
 10
11.8806946199
 20
8.3729614336
 30
0.0
 10
11.8605986681
 20
8.3478123376
 30
0.0
 10
11.8437752072
 20
8.3283467014
 30
0.0
 10
11.8307913634
 20
8.3140819567
 30
0.0
 10
11.8174475165
 20
8.3001583035
 30
0.0
 10
11.8083161505
 20
8.2911082068
 30
0.0
 10
11.8036934565
 20
8.2866430231
 30
0.0
  0
SPLINE
  5
335
100
AcDbEntity
  8
0
100
AcDbSpline
 62
7
  6
CONTINUOUS
 70
0
 71
3
 72
39
 73
35
 74
0
 42
0.0000001
 43
0.0000001
 44
0.0000000001
 40
0.0
 40
0.0
 40
0.0
 40
0.0
 40
0.0958313223
 40
0.1890999066
 40
0.2792396479
 40
0.3229663115
 40
0.3657099292
 40
0.4074081191
 40
0.4480006754
 40
0.4874302648
 40
0.5256424385
 40
0.5625857699
 40
0.5982125807
 40
0.6324786396
 40
0.665344311
 40
0.6967743203
 40
0.7267388303
 40
0.7552139511
 40
0.7821824427
 40
0.807635341
 40
0.8315726205
 40
0.8540058864
 40
0.8749600023
 40
0.8944766962
 40
0.9126183481
 40
0.9294727137
 40
0.94515911
 40
0.9598336921
 40
0.9668557838
 40
0.973702854
 40
0.9804062715
 40
0.9869997015
 40
0.9935186515
 40
1.0
 40
1.0
 40
1.0
 40
1.0
 10
8.3429928263
 20
11.2053054829
 30
0.0
 10
8.3340330094
 20
11.2059268483
 30
0.0
 10
8.3163658769
 20
11.2073500153
 30
0.0
 10
8.2903344726
 20
11.210066692
 30
0.0
 10
8.2692216625
 20
11.2128065798
 30
0.0
 10
8.2528540445
 20
11.2152729199
 30
0.0
 10
8.2410022768
 20
11.2172309254
 30
0.0
 10
8.2294699248
 20
11.2193124755
 30
0.0
 10
8.2182762384
 20
11.2215141469
 30
0.0
 10
8.2074399132
 20
11.2238322062
 30
0.0
 10
8.1969790313
 20
11.2262627459
 30
0.0
 10
8.1869110429
 20
11.2288017231
 30
0.0
 10
8.1772527217
 20
11.2314447964
 30
0.0
 10
8.1680201547
 20
11.2341876082
 30
0.0
 10
8.1592286804
 20
11.2370254695
 30
0.0
 10
8.1508928935
 20
11.2399536773
 30
0.0
 10
8.1430265874
 20
11.2429673068
 30
0.0
 10
8.13564273
 20
11.2460613077
 30
0.0
 10
8.128753463
 20
11.2492306113
 30
0.0
 10
8.1223699974
 20
11.2524699069
 30
0.0
 10
8.1165027073
 20
11.2557740538
 30
0.0
 10
8.1111609576
 20
11.2591377064
 30
0.0
 10
8.1063532534
 20
11.2625557715
 30
0.0
 10
8.1020871592
 20
11.2660232642
 30
0.0
 10
8.0983694274
 20
11.2695354106
 30
0.0
 10
8.0952062507
 20
11.2730881901
 30
0.0
 10
8.0926036553
 20
11.2766769762
 30
0.0
 10
8.0908822348
 20
11.2797398394
 30
0.0
 10
8.0898090949
 20
11.282192255
 30
0.0
 10
8.0891593741
 20
11.2840093077
 30
0.0
 10
8.0886535642
 20
11.2858299448
 30
0.0
 10
8.0882919409
 20
11.2876534073
 30
0.0
 10
8.0880748246
 20
11.2894786475
 30
0.0
 10
8.0880265281
 20
11.290697583
 30
0.0
 10
8.0880265228
 20
11.2913050167
 30
0.0
  0
SPLINE
  5
336
100
AcDbEntity
  8
0
100
AcDbSpline
 62
7
  6
CONTINUOUS
 70
0
 71
3
 72
39
 73
35
 74
0
 42
0.0000001
 43
0.0000001
 44
0.0000000001
 40
0.0
 40
0.0
 40
0.0
 40
0.0
 40
0.0958313223
 40
0.1890999066
 40
0.2792396479
 40
0.3229663115
 40
0.3657099292
 40
0.4074081191
 40
0.4480006754
 40
0.4874302648
 40
0.5256424385
 40
0.5625857699
 40
0.5982125807
 40
0.6324786396
 40
0.665344311
 40
0.6967743203
 40
0.7267388303
 40
0.7552139511
 40
0.7821824427
 40
0.807635341
 40
0.8315726205
 40
0.8540058864
 40
0.8749600023
 40
0.8944766962
 40
0.9126183481
 40
0.9294727137
 40
0.94515911
 40
0.9598336921
 40
0.9668557838
 40
0.973702854
 40
0.9804062715
 40
0.9869997015
 40
0.9935186515
 40
1.0
 40
1.0
 40
1.0
 40
1.0
 10
12.9311406003
 20
10.887116354
 30
0.0
 10
12.9221807834
 20
10.8877377194
 30
0.0
 10
12.9045136509
 20
10.8891608865
 30
0.0
 10
12.8784822467
 20
10.8918775631
 30
0.0
 10
12.8573694365
 20
10.894617451
 30
0.0
 10
12.8410018185
 20
10.8970837911
 30
0.0
 10
12.8291500508
 20
10.8990417965
 30
0.0
 10
12.8176176988
 20
10.9011233467
 30
0.0
 10
12.8064240124
 20
10.9033250181
 30
0.0
 10
12.7955876872
 20
10.9056430774
 30
0.0
 10
12.7851268053
 20
10.9080736171
 30
0.0
 10
12.775058817
 20
10.9106125942
 30
0.0
 10
12.7654004957
 20
10.9132556676
 30
0.0
 10
12.7561679287
 20
10.9159984794
 30
0.0
 10
12.7473764544
 20
10.9188363406
 30
0.0
 10
12.7390406675
 20
10.9217645485
 30
0.0
 10
12.7311743614
 20
10.924778178
 30
0.0
 10
12.723790504
 20
10.9278721788
 30
0.0
 10
12.7169012371
 20
10.9310414824
 30
0.0
 10
12.7105177714
 20
10.934280778
 30
0.0
 10
12.7046504813
 20
10.937584925
 30
0.0
 10
12.6993087316
 20
10.9409485776
 30
0.0
 10
12.6945010274
 20
10.9443666426
 30
0.0
 10
12.6902349332
 20
10.9478341353
 30
0.0
 10
12.6865172014
 20
10.9513462818
 30
0.0
 10
12.6833540247
 20
10.9548990612
 30
0.0
 10
12.6807514293
 20
10.9584878474
 30
0.0
 10
12.6790300088
 20
10.9615507105
 30
0.0
 10
12.6779568689
 20
10.9640031261
 30
0.0
 10
12.6773071481
 20
10.9658201788
 30
0.0
 10
12.6768013382
 20
10.9676408159
 30
0.0
 10
12.6764397149
 20
10.9694642785
 30
0.0
 10
12.6762225986
 20
10.9712895186
 30
0.0
 10
12.6761743021
 20
10.9725084542
 30
0.0
 10
12.6761742968
 20
10.9731158879
 30
0.0
  0
SPLINE
  5
337
100
AcDbEntity
  8
0
100
AcDbSpline
 62
7
  6
CONTINUOUS
 70
0
 71
3
 72
21
 73
17
 74
0
 42
0.0000001
 43
0.0000001
 44
0.0000000001
 40
0.0
 40
0.0
 40
0.0
 40
0.0
 40
0.0627710168
 40
0.124779276
 40
0.1861623792
 40
0.2470639024
 40
0.3076394466
 40
0.3680527307
 40
0.4284695989
 40
0.4890590317
 40
0.5499928248
 40
0.6114406604
 40
0.6735698091
 40
0.7365471081
 40
0.8656487814
 40
1.0
 40
1.0
 40
1.0
 40
1.0
 10
11.3742365853
 20
8.7626295945
 30
0.0
 10
11.37518167
 20
8.7635424763
 30
0.0
 10
11.3770168395
 20
8.7654028975
 30
0.0
 10
11.379612448
 20
8.7683117016
 30
0.0
 10
11.3820314336
 20
8.771319091
 30
0.0
 10
11.384272756
 20
8.7744242347
 30
0.0
 10
11.3863356595
 20
8.777626593
 30
0.0
 10
11.3882195742
 20
8.7809257559
 30
0.0
 10
11.3899240218
 20
8.7843214472
 30
0.0
 10
11.3914486123
 20
8.7878134812
 30
0.0
 10
11.3927931162
 20
8.7914017582
 30
0.0
 10
11.3939573658
 20
8.795086261
 30
0.0
 10
11.3949412322
 20
8.7988671971
 30
0.0
 10
11.3960216939
 20
8.8040796269
 30
0.0
 10
11.3969132961
 20
8.8108652173
 30
0.0
 10
11.3971346813
 20
8.8163833377
 30
0.0
 10
11.3971343801
 20
8.8191956953
 30
0.0
  0
SPLINE
  5
338
100
AcDbEntity
  8
0
100
AcDbSpline
 62
7
  6
CONTINUOUS
 70
0
 71
3
 72
54
 73
50
 74
0
 42
0.0000001
 43
0.0000001
 44
0.0000000001
 40
0.0
 40
0.0
 40
0.0
 40
0.0
 40
0.0391026681
 40
0.0781279247
 40
0.1170736615
 40
0.1559345321
 40
0.1946988464
 40
0.2140416365
 40
0.2333534871
 40
0.2718671
 40
0.3102132434
 40
0.3293140404
 40
0.3483581299
 40
0.38624691
 40
0.4238283917
 40
0.4610375578
 40
0.4977996467
 40
0.5340304734
 40
0.5519203803
 40
0.5696421907
 40
0.5871833193
 40
0.6045308636
 40
0.6385884047
 40
0.6717149596
 40
0.6878991436
 40
0.7038124025
 40
0.7347743667
 40
0.764515846
 40
0.7929576141
 40
0.8066716193
 40
0.8200366697
 40
0.8330463115
 40
0.8456954772
 40
0.8579796651
 40
0.8698958842
 40
0.8814418771
 40
0.8926170566
 40
0.9034218165
 40
0.9138584653
 40
0.9239306383
 40
0.9336442713
 40
0.9430071067
 40
0.9520297519
 40
0.9607252111
 40
0.9691099751
 40
0.9772037377
 40
0.9850307738
 40
0.9926189434
 40
1.0
 40
1.0
 40
1.0
 40
1.0
 10
10.8223503064
 20
9.2698109171
 30
0.0
 10
10.8223503064
 20
9.2582474428
 30
0.0
 10
10.8229811188
 20
9.2351383363
 30
0.0
 10
10.8258245462
 20
9.2006175095
 30
0.0
 10
10.8305589661
 20
9.1663756257
 30
0.0
 10
10.8371743865
 20
9.1325261341
 30
0.0
 10
10.8442486178
 20
9.1047198686
 30
0.0
 10
10.8508333633
 20
9.0827900406
 30
0.0
 10
10.8580179474
 20
9.0611274028
 30
0.0
 10
10.8681297459
 20
9.0345278413
 30
0.0
 10
10.8797477324
 20
9.0086185022
 30
0.0
 10
10.8899113347
 20
8.9884071383
 30
0.0
 10
10.9006084437
 20
8.9686267708
 30
0.0
 10
10.915005655
 20
8.9446486065
 30
0.0
 10
10.933881707
 20
8.9171640961
 30
0.0
 10
10.9542210402
 20
8.8911643192
 30
0.0
 10
10.9758907784
 20
8.8667951559
 30
0.0
 10
10.9950097612
 20
8.8478776767
 30
0.0
 10
11.0108232466
 20
8.8336850812
 30
0.0
 10
11.0228583812
 20
8.823570046
 30
0.0
 10
11.0350909616
 20
8.8139520737
 30
0.0
 10
11.0515258065
 20
8.8018804705
 30
0.0
 10
11.0723895651
 20
8.7880763015
 30
0.0
 10
11.0938211802
 20
8.7758516075
 30
0.0
 10
11.1110367371
 20
8.7671465122
 30
0.0
 10
11.1279518345
 20
8.7592894184
 30
0.0
 10
11.1489654214
 20
8.7507680557
 30
0.0
 10
11.1740225783
 20
8.7425158436
 30
0.0
 10
11.194638548
 20
8.7372423124
 30
0.0
 10
11.2107384919
 20
8.7340089212
 30
0.0
 10
11.2224381457
 20
8.7320800655
 30
0.0
 10
11.2338861077
 20
8.7306052305
 30
0.0
 10
11.2450613378
 20
8.7295709698
 30
0.0
 10
11.255944071
 20
8.7289636818
 30
0.0
 10
11.2665157721
 20
8.7287695972
 30
0.0
 10
11.2767593065
 20
8.7289749492
 30
0.0
 10
11.286658662
 20
8.7295662421
 30
0.0
 10
11.2961991511
 20
8.7305301276
 30
0.0
 10
11.3053670905
 20
8.731853889
 30
0.0
 10
11.3141500313
 20
8.7335250774
 30
0.0
 10
11.322536384
 20
8.7355321546
 30
0.0
 10
11.3305157181
 20
8.7378639586
 30
0.0
 10
11.3380782877
 20
8.740510464
 30
0.0
 10
11.3452154012
 20
8.7434620963
 30
0.0
 10
11.3519188921
 20
8.7467104986
 30
0.0
 10
11.3581815983
 20
8.7502479051
 30
0.0
 10
11.3639967956
 20
8.7540680349
 30
0.0
 10
11.3693579126
 20
8.7581644702
 30
0.0
 10
11.3726666451
 20
8.7611131486
 30
0.0
 10
11.3742365853
 20
8.7626295945
 30
0.0
  0
SPLINE
  5
339
100
AcDbEntity
  8
0
100
AcDbSpline
 62
7
  6
CONTINUOUS
 70
0
 71
3
 72
15
 73
11
 74
0
 42
0.0000001
 43
0.0000001
 44
0.0000000001
 40
0.0
 40
0.0
 40
0.0
 40
0.0
 40
0.1262912699
 40
0.2521563204
 40
0.377615826
 40
0.5027033339
 40
0.6274530276
 40
0.7518985778
 40
0.8760737468
 40
1.0
 40
1.0
 40
1.0
 40
1.0
 10
10.8701328219
 20
9.5135597907
 30
0.0
 10
10.8661990459
 20
9.5038031165
 30
0.0
 10
10.858796939
 20
9.4841367196
 30
0.0
 10
10.8491125322
 20
9.4541981279
 30
0.0
 10
10.840887341
 20
9.4239292487
 30
0.0
 10
10.8341383784
 20
9.3933926209
 30
0.0
 10
10.8288779713
 20
9.3626502981
 30
0.0
 10
10.8251145611
 20
9.3317653612
 30
0.0
 10
10.8228539934
 20
9.3008036935
 30
0.0
 10
10.8223503064
 20
9.2801337672
 30
0.0
 10
10.8223503064
 20
9.2698109171
 30
0.0
  0
SPLINE
  5
33A
100
AcDbEntity
  8
0
100
AcDbSpline
 62
7
  6
CONTINUOUS
 70
0
 71
3
 72
26
 73
22
 74
0
 42
0.0000001
 43
0.0000001
 44
0.0000000001
 40
0.0
 40
0.0
 40
0.0
 40
0.0
 40
0.0637763276
 40
0.127342886
 40
0.1906991341
 40
0.2538523424
 40
0.2853569136
 40
0.3168132539
 40
0.3795812247
 40
0.4421715801
 40
0.5045965951
 40
0.5668701916
 40
0.6290077778
 40
0.6910261223
 40
0.7219986725
 40
0.7529482429
 40
0.8147830252
 40
0.8765553491
 40
0.9074270146
 40
0.9382907765
 40
1.0
 40
1.0
 40
1.0
 40
1.0
 10
10.1014354071
 20
6.8521275566
 30
0.0
 10
10.1014354071
 20
6.8395685142
 30
0.0
 10
10.1008342964
 20
6.814487503
 30
0.0
 10
10.0981210835
 20
6.7770184043
 30
0.0
 10
10.0936037133
 20
6.7398468068
 30
0.0
 10
10.0883401594
 20
6.7091648062
 30
0.0
 10
10.0832382504
 20
6.6848574607
 30
0.0
 10
10.0775547932
 20
6.6607574453
 30
0.0
 10
10.0693513521
 20
6.6309722176
 30
0.0
 10
10.0577623728
 20
6.5958403172
 30
0.0
 10
10.0444618979
 20
6.5614237826
 30
0.0
 10
10.0294805725
 20
6.5278023929
 30
0.0
 10
10.0128531564
 20
6.4950540621
 30
0.0
 10
9.9976494941
 20
6.4685411919
 30
0.0
 10
9.9847054288
 20
6.4478469239
 30
0.0
 10
9.9712569213
 20
6.4275201488
 30
0.0
 10
9.9534934081
 20
6.4027884344
 30
0.0
 10
9.9344945158
 20
6.3790122184
 30
0.0
 10
9.918589201
 20
6.3606090096
 30
0.0
 10
9.902224954
 20
6.3426302126
 30
0.0
 10
9.8894358419
 20
6.3296244568
 30
0.0
 10
9.8806954795
 20
6.3211819028
 30
0.0
  0
SPLINE
  5
33B
100
AcDbEntity
  8
0
100
AcDbSpline
 62
7
  6
CONTINUOUS
 70
0
 71
3
 72
21
 73
17
 74
0
 42
0.0000001
 43
0.0000001
 44
0.0000000001
 40
0.0
 40
0.0
 40
0.0
 40
0.0
 40
0.0632451793
 40
0.1263570498
 40
0.1893411014
 40
0.252203513
 40
0.3775708245
 40
0.5025402828
 40
0.5649075243
 40
0.6272018629
 40
0.6894330042
 40
0.7516109596
 40
0.8137460381
 40
0.8758487568
 40
0.9379298075
 40
1.0
 40
1.0
 40
1.0
 40
1.0
 10
10.0992737331
 20
6.7935527275
 30
0.0
 10
10.0975139031
 20
6.7857670064
 30
0.0
 10
10.0937229281
 20
6.7702726306
 30
0.0
 10
10.0872220631
 20
6.7472723376
 30
0.0
 10
10.0799200893
 20
6.7245637665
 30
0.0
 10
10.0691389315
 20
6.6947415685
 30
0.0
 10
10.0537046994
 20
6.6583110493
 30
0.0
 10
10.0357045244
 20
6.6231472249
 30
0.0
 10
10.0198360153
 20
6.5959227494
 30
0.0
 10
10.0072197367
 20
6.5759862775
 30
0.0
 10
9.9938968908
 20
6.5565441652
 30
0.0
 10
9.979882899
 20
6.5376190661
 30
0.0
 10
9.9651945036
 20
6.5192332624
 30
0.0
 10
9.949848714
 20
6.5014084829
 30
0.0
 10
9.9338641156
 20
6.4841658553
 30
0.0
 10
9.9227932017
 20
6.4730714887
 30
0.0
 10
9.9171586864
 20
6.4676289458
 30
0.0
  0
SPLINE
  5
33C
100
AcDbEntity
  8
0
100
AcDbSpline
 62
7
  6
CONTINUOUS
 70
0
 71
3
 72
25
 73
21
 74
0
 42
0.0000001
 43
0.0000001
 44
0.0000000001
 40
0.0
 40
0.0
 40
0.0
 40
0.0
 40
0.0639570184
 40
0.0958511422
 40
0.127687059
 40
0.1911792725
 40
0.2544419986
 40
0.2859917418
 40
0.3174863476
 40
0.3803088408
 40
0.4429256337
 40
0.5053495615
 40
0.5675957264
 40
0.6296813399
 40
0.6916255341
 40
0.7534491453
 40
0.8151744721
 40
0.8768250119
 40
0.9384251773
 40
1.0
 40
1.0
 40
1.0
 40
1.0
 10
9.3466257587
 20
7.6901080424
 30
0.0
 10
9.3328587149
 20
7.6916139964
 30
0.0
 10
9.3121621326
 20
7.693334363
 30
0.0
 10
9.2845368375
 20
7.6945372452
 30
0.0
 10
9.2569894549
 20
7.6950101685
 30
0.0
 10
9.2226400336
 20
7.694238327
 30
0.0
 10
9.1884419098
 20
7.6916425911
 30
0.0
 10
9.1612725918
 20
7.6884756083
 30
0.0
 10
9.1342928339
 20
7.6845918899
 30
0.0
 10
9.1008631048
 20
7.6783889611
 30
0.0
 10
9.0613098168
 20
7.6687984251
 30
0.0
 10
9.0224594772
 20
7.6570932406
 30
0.0
 10
8.9844206859
 20
7.6433058662
 30
0.0
 10
8.947298879
 20
7.6274744475
 30
0.0
 10
8.9111972168
 20
7.6096428557
 30
0.0
 10
8.8762159437
 20
7.5898604971
 30
0.0
 10
8.8424523295
 20
7.568182321
 30
0.0
 10
8.8099998503
 20
7.5446681669
 30
0.0
 10
8.7789498786
 20
7.519384459
 30
0.0
 10
8.7592380473
 20
7.501391643
 30
0.0
 10
8.7496479963
 20
7.4921283517
 30
0.0
  0
SPLINE
  5
33D
100
AcDbEntity
  8
0
100
AcDbSpline
 62
7
  6
CONTINUOUS
 70
0
 71
3
 72
21
 73
17
 74
0
 42
0.0000001
 43
0.0000001
 44
0.0000000001
 40
0.0
 40
0.0
 40
0.0
 40
0.0
 40
0.0632421657
 40
0.1263514621
 40
0.1893334483
 40
0.2521942838
 40
0.3149407654
 40
0.3775802381
 40
0.440120603
 40
0.5025702617
 40
0.6272126849
 40
0.7516036635
 40
0.8137403859
 40
0.8758449023
 40
0.9379278585
 40
1.0
 40
1.0
 40
1.0
 40
1.0
 10
9.2284031617
 20
7.6940328717
 30
0.0
 10
9.2205826521
 20
7.6925369405
 30
0.0
 10
9.2050092885
 20
7.6892727105
 30
0.0
 10
9.1818620916
 20
7.6835581325
 30
0.0
 10
9.1589785743
 20
7.6770371768
 30
0.0
 10
9.1363860128
 20
7.6697173489
 30
0.0
 10
9.1141106952
 20
7.6616074222
 30
0.0
 10
9.0921789404
 20
7.6527167105
 30
0.0
 10
9.070616057
 20
7.6430556309
 30
0.0
 10
9.0424128735
 20
7.6291728375
 30
0.0
 10
9.008190183
 20
7.6099475029
 30
0.0
 10
8.9754928467
 20
7.588299665
 30
0.0
 10
8.9503748664
 20
7.5696089278
 30
0.0
 10
8.9320761849
 20
7.5549214594
 30
0.0
 10
8.9143349668
 20
7.5395786294
 30
0.0
 10
8.9028916415
 20
7.5289240861
 30
0.0
 10
8.8972706839
 20
7.523494639
 30
0.0
  0
SPLINE
  5
33E
100
AcDbEntity
  8
0
100
AcDbSpline
 62
7
  6
CONTINUOUS
 70
0
 71
3
 72
26
 73
22
 74
0
 42
0.0000001
 43
0.0000001
 44
0.0000000001
 40
0.0
 40
0.0
 40
0.0
 40
0.0
 40
0.0637763276
 40
0.127342886
 40
0.1906991341
 40
0.2538523424
 40
0.2853569136
 40
0.3168132539
 40
0.3795812247
 40
0.4421715801
 40
0.5045965951
 40
0.5668701916
 40
0.6290077778
 40
0.6910261223
 40
0.7219986725
 40
0.7529482429
 40
0.8147830252
 40
0.8765553491
 40
0.9074270146
 40
0.9382907765
 40
1.0
 40
1.0
 40
1.0
 40
1.0
 10
12.0332874044
 20
8.8914864034
 30
0.0
 10
12.0332874044
 20
8.8789273611
 30
0.0
 10
12.0326862938
 20
8.8538463498
 30
0.0
 10
12.0299730808
 20
8.8163772512
 30
0.0
 10
12.0254557106
 20
8.7792056537
 30
0.0
 10
12.0201921567
 20
8.7485236531
 30
0.0
 10
12.0150902477
 20
8.7242163076
 30
0.0
 10
12.0094067905
 20
8.7001162922
 30
0.0
 10
12.0012033494
 20
8.6703310645
 30
0.0
 10
11.9896143702
 20
8.6351991641
 30
0.0
 10
11.9763138953
 20
8.6007826295
 30
0.0
 10
11.9613325699
 20
8.5671612397
 30
0.0
 10
11.9447051537
 20
8.534412909
 30
0.0
 10
11.9295014914
 20
8.5079000387
 30
0.0
 10
11.9165574261
 20
8.4872057708
 30
0.0
 10
11.9031089187
 20
8.4668789957
 30
0.0
 10
11.8853454054
 20
8.4421472812
 30
0.0
 10
11.8663465131
 20
8.4183710653
 30
0.0
 10
11.8504411983
 20
8.3999678565
 30
0.0
 10
11.8340769513
 20
8.3819890594
 30
0.0
 10
11.8212878393
 20
8.3689833036
 30
0.0
 10
11.8125474768
 20
8.3605407496
 30
0.0
  0
SPLINE
  5
33F
100
AcDbEntity
  8
0
100
AcDbSpline
 62
7
  6
CONTINUOUS
 70
0
 71
3
 72
21
 73
17
 74
0
 42
0.0000001
 43
0.0000001
 44
0.0000000001
 40
0.0
 40
0.0
 40
0.0
 40
0.0
 40
0.0632451793
 40
0.1263570498
 40
0.1893411014
 40
0.252203513
 40
0.3775708245
 40
0.5025402828
 40
0.5649075243
 40
0.6272018629
 40
0.6894330042
 40
0.7516109596
 40
0.8137460381
 40
0.8758487568
 40
0.9379298075
 40
1.0
 40
1.0
 40
1.0
 40
1.0
 10
12.0311257304
 20
8.8329115744
 30
0.0
 10
12.0293659005
 20
8.8251258533
 30
0.0
 10
12.0255749255
 20
8.8096314774
 30
0.0
 10
12.0190740604
 20
8.7866311845
 30
0.0
 10
12.0117720867
 20
8.7639226133
 30
0.0
 10
12.0009909288
 20
8.7341004154
 30
0.0
 10
11.9855566967
 20
8.6976698962
 30
0.0
 10
11.9675565217
 20
8.6625060718
 30
0.0
 10
11.9516880126
 20
8.6352815963
 30
0.0
 10
11.939071734
 20
8.6153451244
 30
0.0
 10
11.9257488881
 20
8.595903012
 30
0.0
 10
11.9117348963
 20
8.5769779129
 30
0.0
 10
11.8970465009
 20
8.5585921093
 30
0.0
 10
11.8817007113
 20
8.5407673297
 30
0.0
 10
11.8657161129
 20
8.5235247022
 30
0.0
 10
11.8546451991
 20
8.5124303356
 30
0.0
 10
11.8490106838
 20
8.5069877927
 30
0.0
  0
SPLINE
  5
340
100
AcDbEntity
  8
0
100
AcDbSpline
 62
7
  6
CONTINUOUS
 70
0
 71
3
 72
25
 73
21
 74
0
 42
0.0000001
 43
0.0000001
 44
0.0000000001
 40
0.0
 40
0.0
 40
0.0
 40
0.0
 40
0.0639570184
 40
0.0958511422
 40
0.127687059
 40
0.1911792725
 40
0.2544419986
 40
0.2859917418
 40
0.3174863476
 40
0.3803088408
 40
0.4429256337
 40
0.5053495615
 40
0.5675957264
 40
0.6296813399
 40
0.6916255341
 40
0.7534491453
 40
0.8151744721
 40
0.8768250119
 40
0.9384251773
 40
1.0
 40
1.0
 40
1.0
 40
1.0
 10
11.2784777561
 20
9.7294668892
 30
0.0
 10
11.2647107123
 20
9.7309728433
 30
0.0
 10
11.2440141299
 20
9.7326932099
 30
0.0
 10
11.2163888349
 20
9.7338960921
 30
0.0
 10
11.1888414522
 20
9.7343690153
 30
0.0
 10
11.1544920309
 20
9.7335971738
 30
0.0
 10
11.1202939071
 20
9.731001438
 30
0.0
 10
11.0931245892
 20
9.7278344551
 30
0.0
 10
11.0661448312
 20
9.7239507367
 30
0.0
 10
11.0327151022
 20
9.717747808
 30
0.0
 10
10.9931618141
 20
9.7081572719
 30
0.0
 10
10.9543114745
 20
9.6964520875
 30
0.0
 10
10.9162726832
 20
9.682664713
 30
0.0
 10
10.8791508763
 20
9.6668332943
 30
0.0
 10
10.8430492142
 20
9.6490017026
 30
0.0
 10
10.808067941
 20
9.629219344
 30
0.0
 10
10.7743043269
 20
9.6075411679
 30
0.0
 10
10.7418518476
 20
9.5840270138
 30
0.0
 10
10.7108018759
 20
9.5587433059
 30
0.0
 10
10.6910900446
 20
9.5407504899
 30
0.0
 10
10.6814999936
 20
9.5314871985
 30
0.0
  0
SPLINE
  5
341
100
AcDbEntity
  8
0
100
AcDbSpline
 62
7
  6
CONTINUOUS
 70
0
 71
3
 72
21
 73
17
 74
0
 42
0.0000001
 43
0.0000001
 44
0.0000000001
 40
0.0
 40
0.0
 40
0.0
 40
0.0
 40
0.0632421657
 40
0.1263514621
 40
0.1893334483
 40
0.2521942838
 40
0.3149407654
 40
0.3775802381
 40
0.440120603
 40
0.5025702617
 40
0.6272126849
 40
0.7516036635
 40
0.8137403859
 40
0.8758449023
 40
0.9379278585
 40
1.0
 40
1.0
 40
1.0
 40
1.0
 10
11.1602551591
 20
9.7333917186
 30
0.0
 10
11.1524346494
 20
9.7318957874
 30
0.0
 10
11.1368612859
 20
9.7286315573
 30
0.0
 10
11.1137140889
 20
9.7229169793
 30
0.0
 10
11.0908305717
 20
9.7163960237
 30
0.0
 10
11.0682380102
 20
9.7090761958
 30
0.0
 10
11.0459626926
 20
9.7009662691
 30
0.0
 10
11.0240309377
 20
9.6920755574
 30
0.0
 10
11.0024680543
 20
9.6824144777
 30
0.0
 10
10.9742648708
 20
9.6685316843
 30
0.0
 10
10.9400421803
 20
9.6493063498
 30
0.0
 10
10.9073448441
 20
9.6276585119
 30
0.0
 10
10.8822268638
 20
9.6089677747
 30
0.0
 10
10.8639281823
 20
9.5942803063
 30
0.0
 10
10.8461869641
 20
9.5789374763
 30
0.0
 10
10.8347436388
 20
9.568282933
 30
0.0
 10
10.8291226812
 20
9.5628534858
 30
0.0
  0
SPLINE
  5
342
100
AcDbEntity
  8
0
100
AcDbSpline
 62
7
  6
CONTINUOUS
 70
0
 71
3
 72
54
 73
50
 74
0
 42
0.0000001
 43
0.0000001
 44
0.0000000001
 40
0.0
 40
0.0
 40
0.0
 40
0.0
 40
0.0063158507
 40
0.0126706009
 40
0.0191023977
 40
0.0256478986
 40
0.0323417211
 40
0.0392160215
 40
0.0536137219
 40
0.0611943855
 40
0.0690560622
 40
0.0772171197
 40
0.0856934318
 40
0.0944987522
 40
0.1036448027
 40
0.113141486
 40
0.1229971814
 40
0.1332187245
 40
0.1438117391
 40
0.1547806923
 40
0.1661289554
 40
0.1778590781
 40
0.1899726748
 40
0.2024706471
 40
0.2153532452
 40
0.2286199987
 40
0.2422699729
 40
0.2563016345
 40
0.2707129683
 40
0.2855015805
 40
0.3006645508
 40
0.3161986637
 40
0.3321003047
 40
0.364989385
 40
0.3992970598
 40
0.4349833452
 40
0.4720041093
 40
0.5103114544
 40
0.549854083
 40
0.590577587
 40
0.6324246928
 40
0.6753354638
 40
0.7192475599
 40
0.7640963991
 40
0.8098154153
 40
0.8563362597
 40
0.9035882195
 40
0.9515013118
 40
1.0
 40
1.0
 40
1.0
 40
1.0
 10
14.3692247727
 20
6.0099070453
 30
0.0
 10
14.3672134464
 20
6.0100465222
 30
0.0
 10
14.3631879125
 20
6.0104909787
 30
0.0
 10
14.3571947036
 20
6.0116493774
 30
0.0
 10
14.351241571
 20
6.0132996318
 30
0.0
 10
14.3453319805
 20
6.0154403239
 30
0.0
 10
14.3394682288
 20
6.0180702048
 30
0.0
 10
14.3315948331
 20
6.0222907516
 30
0.0
 10
14.323935197
 20
6.0274572677
 30
0.0
 10
14.3165226666
 20
6.0334445306
 30
0.0
 10
14.3109236719
 20
6.0384924717
 30
0.0
 10
14.3053845073
 20
6.0440174972
 30
0.0
 10
14.2999064832
 20
6.0500175695
 30
0.0
 10
14.2944918941
 20
6.0564901461
 30
0.0
 10
14.2891427209
 20
6.0634325841
 30
0.0
 10
14.2838609722
 20
6.0708420165
 30
0.0
 10
14.2786487962
 20
6.0787154989
 30
0.0
 10
14.273508144
 20
6.0870497823
 30
0.0
 10
14.2684411018
 20
6.0958415156
 30
0.0
 10
14.2634497183
 20
6.1050871363
 30
0.0
 10
14.2585359266
 20
6.1147828558
 30
0.0
 10
14.2537018118
 20
6.1249247638
 30
0.0
 10
14.2489492713
 20
6.1355086962
 30
0.0
 10
14.2442802552
 20
6.146530336
 30
0.0
 10
14.2396967256
 20
6.1579851891
 30
0.0
 10
14.2352004796
 20
6.169868542
 30
0.0
 10
14.2307934419
 20
6.1821755432
 30
0.0
 10
14.2264773917
 20
6.1949011323
 30
0.0
 10
14.2222540862
 20
6.2080400811
 30
0.0
 10
14.2181253332
 20
6.2215870039
 30
0.0
 10
14.2140927649
 20
6.2355363122
 30
0.0
 10
14.2101580751
 20
6.2498822923
 30
0.0
 10
14.2049864341
 20
6.2697547502
 30
0.0
 10
14.1987922441
 20
6.2955511244
 30
0.0
 10
14.1918555984
 20
6.3276553126
 30
0.0
 10
14.185345977
 20
6.3611931938
 30
0.0
 10
14.1792742109
 20
6.3961094941
 30
0.0
 10
14.1736504087
 20
6.4323468304
 30
0.0
 10
14.168483941
 20
6.4698455425
 30
0.0
 10
14.1637834218
 20
6.5085438863
 30
0.0
 10
14.1595566971
 20
6.5483781046
 30
0.0
 10
14.1558107993
 20
6.5892825419
 30
0.0
 10
14.1525519702
 20
6.6311897513
 30
0.0
 10
14.1497856411
 20
6.6740306324
 30
0.0
 10
14.1475164332
 20
6.7177345673
 30
0.0
 10
14.1457481595
 20
6.7622293187
 30
0.0
 10
14.1444837016
 20
6.807441878
 30
0.0
 10
14.1437252826
 20
6.8532971175
 30
0.0
 10
14.1435587425
 20
6.8840741325
 30
0.0
 10
14.1435587425
 20
6.8995559667
 30
0.0
  0
SPLINE
  5
343
100
AcDbEntity
  8
0
100
AcDbSpline
 62
7
  6
CONTINUOUS
 70
0
 71
3
 72
35
 73
31
 74
0
 42
0.0000001
 43
0.0000001
 44
0.0000000001
 40
0.0
 40
0.0
 40
0.0
 40
0.0
 40
0.0162143026
 40
0.0334272723
 40
0.0516715624
 40
0.0709706074
 40
0.0913400271
 40
0.1127890733
 40
0.1353212558
 40
0.1589355604
 40
0.1836266397
 40
0.2093857288
 40
0.2362007638
 40
0.264056894
 40
0.2929367518
 40
0.3228205587
 40
0.3536865909
 40
0.3855109973
 40
0.4182683466
 40
0.4519313762
 40
0.4864714288
 40
0.5218583391
 40
0.5580606248
 40
0.595045601
 40
0.6327793332
 40
0.6712269265
 40
0.7501175084
 40
0.8314198815
 40
0.9148213429
 40
1.0
 40
1.0
 40
1.0
 40
1.0
 10
14.280810936
 20
6.4051139861
 30
0.0
 10
14.2787453758
 20
6.4076536855
 30
0.0
 10
14.2746608915
 20
6.4130325647
 30
0.0
 10
14.2688359364
 20
6.4216929108
 30
0.0
 10
14.2631390295
 20
6.431172256
 30
0.0
 10
14.257576057
 20
6.4414605735
 30
0.0
 10
14.2521523238
 20
6.4525475498
 30
0.0
 10
14.2468734514
 20
6.464421863
 30
0.0
 10
14.2417447183
 20
6.477071294
 30
0.0
 10
14.2367715746
 20
6.4904828095
 30
0.0
 10
14.2319591035
 20
6.5046424777
 30
0.0
 10
14.2273124414
 20
6.5195355777
 30
0.0
 10
14.2228364406
 20
6.5351465616
 30
0.0
 10
14.2185358337
 20
6.5514591067
 30
0.0
 10
14.2144152043
 20
6.5684561289
 30
0.0
 10
14.2104788515
 20
6.5861197996
 30
0.0
 10
14.2067310337
 20
6.6044315781
 30
0.0
 10
14.2031756289
 20
6.623372224
 30
0.0
 10
14.1998164987
 20
6.6429218248
 30
0.0
 10
14.1966571306
 20
6.6630598191
 30
0.0
 10
14.1937009259
 20
6.6837650154
 30
0.0
 10
14.190951
 20
6.705015621
 30
0.0
 10
14.1884102582
 20
6.7267892638
 30
0.0
 10
14.1860814394
 20
6.7490630078
 30
0.0
 10
14.1839669302
 20
6.7718134237
 30
0.0
 10
14.1814146602
 20
6.8030183499
 30
0.0
 10
14.1787899648
 20
6.8430405062
 30
0.0
 10
14.1765513758
 20
6.8921735945
 30
0.0
 10
14.1752073098
 20
6.9426090476
 30
0.0
 10
14.1749142638
 20
6.9766457382
 30
0.0
 10
14.1749142638
 20
6.9938430779
 30
0.0
  0
SPLINE
  5
344
100
AcDbEntity
  8
0
100
AcDbSpline
 62
7
  6
CONTINUOUS
 70
0
 71
3
 72
11
 73
7
 74
0
 42
0.0000001
 43
0.0000001
 44
0.0000000001
 40
0.0
 40
0.0
 40
0.0
 40
0.0
 40
0.2475418166
 40
0.4960743909
 40
0.7465761918
 40
1.0
 40
1.0
 40
1.0
 40
1.0
 10
14.2605717754
 20
6.4584989859
 30
0.0
 10
14.2595511036
 20
6.4585697705
 30
0.0
 10
14.257509704
 20
6.4587787354
 30
0.0
 10
14.2544650314
 20
6.4592929406
 30
0.0
 10
14.2514362232
 20
6.4600079653
 30
0.0
 10
14.2494419369
 20
6.4606141468
 30
0.0
 10
14.2484495469
 20
6.4609492301
 30
0.0
  0
SPLINE
  5
345
100
AcDbEntity
  8
0
100
AcDbSpline
 62
7
  6
CONTINUOUS
 70
0
 71
3
 72
48
 73
44
 74
0
 42
0.0000001
 43
0.0000001
 44
0.0000000001
 40
0.0
 40
0.0
 40
0.0
 40
0.0
 40
0.0070629185
 40
0.0144559789
 40
0.0221883814
 40
0.0302674392
 40
0.0386986829
 40
0.0474862835
 40
0.0566329958
 40
0.06614052
 40
0.0760095015
 40
0.086239666
 40
0.0968299998
 40
0.1077786497
 40
0.1190832239
 40
0.1307406169
 40
0.142747242
 40
0.1550989846
 40
0.1677912224
 40
0.1808189781
 40
0.2078582271
 40
0.2361694156
 40
0.2656991603
 40
0.2963892453
 40
0.3281771088
 40
0.3609962815
 40
0.3947767736
 40
0.4294454204
 40
0.464926204
 40
0.5011405547
 40
0.5380076384
 40
0.5754446347
 40
0.6133670178
 40
0.6516888246
 40
0.6903229181
 40
0.7291812472
 40
0.7681751075
 40
0.8072154057
 40
0.8462128721
 40
0.8850785428
 40
0.9237232538
 40
0.9620599668
 40
1.0
 40
1.0
 40
1.0
 40
1.0
 10
14.3917611094
 20
8.0049838362
 30
0.0
 10
14.3899519556
 20
8.0033000569
 30
0.0
 10
14.3863355572
 20
7.9997599502
 30
0.0
 10
14.3810353886
 20
7.9940832068
 30
0.0
 10
14.3757409294
 20
7.9879241654
 30
0.0
 10
14.3704554802
 20
7.9812866345
 30
0.0
 10
14.3651819533
 20
7.9741745818
 30
0.0
 10
14.3599235917
 20
7.9665921947
 30
0.0
 10
14.3546834052
 20
7.9585440629
 30
0.0
 10
14.3494645985
 20
7.9500349755
 30
0.0
 10
14.3442702888
 20
7.9410700577
 30
0.0
 10
14.3391035768
 20
7.9316547186
 30
0.0
 10
14.333967667
 20
7.9217946123
 30
0.0
 10
14.3288655731
 20
7.9114957316
 30
0.0
 10
14.3238004984
 20
7.9007642763
 30
0.0
 10
14.3187754435
 20
7.889606774
 30
0.0
 10
14.3137935103
 20
7.8780299773
 30
0.0
 10
14.3088577446
 20
7.8660409174
 30
0.0
 10
14.3039710821
 20
7.8536468718
 30
0.0
 10
14.2974441308
 20
7.8363769984
 30
0.0
 10
14.2894439977
 20
7.8138239548
 30
0.0
 10
14.2802013493
 20
7.7855945187
 30
0.0
 10
14.2712237392
 20
7.7559424498
 30
0.0
 10
14.2625331767
 20
7.7249398845
 30
0.0
 10
14.2541509601
 20
7.6926620829
 30
0.0
 10
14.2460976278
 20
7.6591875391
 30
0.0
 10
14.2383929072
 20
7.6245976841
 30
0.0
 10
14.231055666
 20
7.5889767027
 30
0.0
 10
14.2241038666
 20
7.5524113153
 30
0.0
 10
14.2175545237
 20
7.5149905651
 30
0.0
 10
14.2114236613
 20
7.4768055994
 30
0.0
 10
14.2057262686
 20
7.4379494436
 30
0.0
 10
14.2004762722
 20
7.3985167689
 30
0.0
 10
14.1956865012
 20
7.3586036572
 30
0.0
 10
14.1913686572
 20
7.3183073669
 30
0.0
 10
14.1875332852
 20
7.2777260948
 30
0.0
 10
14.184189749
 20
7.2369587347
 30
0.0
 10
14.1813462073
 20
7.1961046504
 30
0.0
 10
14.1790095736
 20
7.1552633661
 30
0.0
 10
14.1771855666
 20
7.1145345364
 30
0.0
 10
14.1758785555
 20
7.0740171328
 30
0.0
 10
14.1750917932
 20
7.033810299
 30
0.0
 10
14.1749142638
 20
7.0071191123
 30
0.0
 10
14.1749142638
 20
6.9938430779
 30
0.0
  0
SPLINE
  5
346
100
AcDbEntity
  8
0
100
AcDbSpline
 62
7
  6
CONTINUOUS
 70
0
 71
3
 72
11
 73
7
 74
0
 42
0.0000001
 43
0.0000001
 44
0.0000000001
 40
0.0
 40
0.0
 40
0.0
 40
0.0
 40
0.2474792181
 40
0.4959746736
 40
0.7464895453
 40
1.0
 40
1.0
 40
1.0
 40
1.0
 10
14.3643478712
 20
7.9549048019
 30
0.0
 10
14.3633139966
 20
7.9549765022
 30
0.0
 10
14.3612365821
 20
7.955051421
 30
0.0
 10
14.3581097858
 20
7.9549572849
 30
0.0
 10
14.3549707018
 20
7.9546568228
 30
0.0
 10
14.352885163
 20
7.9543214599
 30
0.0
 10
14.3518427189
 20
7.9541206214
 30
0.0
  0
SPLINE
  5
347
100
AcDbEntity
  8
0
100
AcDbSpline
 62
7
  6
CONTINUOUS
 70
0
 71
3
 72
54
 73
50
 74
0
 42
0.0000001
 43
0.0000001
 44
0.0000000001
 40
0.0
 40
0.0
 40
0.0
 40
0.0
 40
0.0063158507
 40
0.0126706009
 40
0.0191023977
 40
0.0256478986
 40
0.0323417211
 40
0.0392160215
 40
0.0536137219
 40
0.0611943855
 40
0.0690560622
 40
0.0772171197
 40
0.0856934318
 40
0.0944987522
 40
0.1036448027
 40
0.113141486
 40
0.1229971814
 40
0.1332187245
 40
0.1438117391
 40
0.1547806923
 40
0.1661289554
 40
0.1778590781
 40
0.1899726748
 40
0.2024706471
 40
0.2153532452
 40
0.2286199987
 40
0.2422699729
 40
0.2563016345
 40
0.2707129683
 40
0.2855015805
 40
0.3006645508
 40
0.3161986637
 40
0.3321003047
 40
0.364989385
 40
0.3992970598
 40
0.4349833452
 40
0.4720041093
 40
0.5103114544
 40
0.549854083
 40
0.590577587
 40
0.6324246928
 40
0.6753354638
 40
0.7192475599
 40
0.7640963991
 40
0.8098154153
 40
0.8563362597
 40
0.9035882195
 40
0.9515013118
 40
1.0
 40
1.0
 40
1.0
 40
1.0
 10
14.3692247727
 20
9.1491661667
 30
0.0
 10
14.3672134464
 20
9.1493056437
 30
0.0
 10
14.3631879125
 20
9.1497501001
 30
0.0
 10
14.3571947036
 20
9.1509084988
 30
0.0
 10
14.351241571
 20
9.1525587532
 30
0.0
 10
14.3453319805
 20
9.1546994453
 30
0.0
 10
14.3394682288
 20
9.1573293263
 30
0.0
 10
14.3315948331
 20
9.1615498731
 30
0.0
 10
14.323935197
 20
9.1667163892
 30
0.0
 10
14.3165226666
 20
9.172703652
 30
0.0
 10
14.3109236719
 20
9.1777515931
 30
0.0
 10
14.3053845073
 20
9.1832766187
 30
0.0
 10
14.2999064832
 20
9.189276691
 30
0.0
 10
14.2944918941
 20
9.1957492675
 30
0.0
 10
14.2891427209
 20
9.2026917056
 30
0.0
 10
14.2838609722
 20
9.210101138
 30
0.0
 10
14.2786487962
 20
9.2179746204
 30
0.0
 10
14.273508144
 20
9.2263089038
 30
0.0
 10
14.2684411018
 20
9.2351006371
 30
0.0
 10
14.2634497183
 20
9.2443462578
 30
0.0
 10
14.2585359266
 20
9.2540419773
 30
0.0
 10
14.2537018118
 20
9.2641838852
 30
0.0
 10
14.2489492713
 20
9.2747678176
 30
0.0
 10
14.2442802552
 20
9.2857894574
 30
0.0
 10
14.2396967256
 20
9.2972443106
 30
0.0
 10
14.2352004796
 20
9.3091276635
 30
0.0
 10
14.2307934419
 20
9.3214346646
 30
0.0
 10
14.2264773917
 20
9.3341602538
 30
0.0
 10
14.2222540862
 20
9.3472992025
 30
0.0
 10
14.2181253332
 20
9.3608461253
 30
0.0
 10
14.2140927649
 20
9.3747954337
 30
0.0
 10
14.2101580751
 20
9.3891414137
 30
0.0
 10
14.2049864341
 20
9.4090138717
 30
0.0
 10
14.1987922441
 20
9.4348102458
 30
0.0
 10
14.1918555984
 20
9.4669144341
 30
0.0
 10
14.185345977
 20
9.5004523153
 30
0.0
 10
14.1792742109
 20
9.5353686155
 30
0.0
 10
14.1736504087
 20
9.5716059518
 30
0.0
 10
14.168483941
 20
9.609104664
 30
0.0
 10
14.1637834218
 20
9.6478030077
 30
0.0
 10
14.1595566971
 20
9.687637226
 30
0.0
 10
14.1558107993
 20
9.7285416633
 30
0.0
 10
14.1525519702
 20
9.7704488727
 30
0.0
 10
14.1497856411
 20
9.8132897539
 30
0.0
 10
14.1475164332
 20
9.8569936887
 30
0.0
 10
14.1457481595
 20
9.9014884401
 30
0.0
 10
14.1444837016
 20
9.9467009994
 30
0.0
 10
14.1437252826
 20
9.9925562389
 30
0.0
 10
14.1435587425
 20
10.023333254
 30
0.0
 10
14.1435587425
 20
10.0388150882
 30
0.0
  0
SPLINE
  5
348
100
AcDbEntity
  8
0
100
AcDbSpline
 62
7
  6
CONTINUOUS
 70
0
 71
3
 72
35
 73
31
 74
0
 42
0.0000001
 43
0.0000001
 44
0.0000000001
 40
0.0
 40
0.0
 40
0.0
 40
0.0
 40
0.0162143026
 40
0.0334272723
 40
0.0516715624
 40
0.0709706074
 40
0.0913400271
 40
0.1127890733
 40
0.1353212558
 40
0.1589355604
 40
0.1836266397
 40
0.2093857288
 40
0.2362007638
 40
0.264056894
 40
0.2929367518
 40
0.3228205587
 40
0.3536865909
 40
0.3855109973
 40
0.4182683466
 40
0.4519313762
 40
0.4864714288
 40
0.5218583391
 40
0.5580606248
 40
0.595045601
 40
0.6327793332
 40
0.6712269265
 40
0.7501175084
 40
0.8314198815
 40
0.9148213429
 40
1.0
 40
1.0
 40
1.0
 40
1.0
 10
14.280810936
 20
9.5443731075
 30
0.0
 10
14.2787453758
 20
9.546912807
 30
0.0
 10
14.2746608915
 20
9.5522916862
 30
0.0
 10
14.2688359364
 20
9.5609520323
 30
0.0
 10
14.2631390295
 20
9.5704313774
 30
0.0
 10
14.257576057
 20
9.580719695
 30
0.0
 10
14.2521523238
 20
9.5918066712
 30
0.0
 10
14.2468734514
 20
9.6036809844
 30
0.0
 10
14.2417447183
 20
9.6163304155
 30
0.0
 10
14.2367715746
 20
9.629741931
 30
0.0
 10
14.2319591035
 20
9.6439015991
 30
0.0
 10
14.2273124414
 20
9.6587946992
 30
0.0
 10
14.2228364406
 20
9.674405683
 30
0.0
 10
14.2185358337
 20
9.6907182281
 30
0.0
 10
14.2144152043
 20
9.7077152503
 30
0.0
 10
14.2104788515
 20
9.725378921
 30
0.0
 10
14.2067310337
 20
9.7436906996
 30
0.0
 10
14.2031756289
 20
9.7626313455
 30
0.0
 10
14.1998164987
 20
9.7821809463
 30
0.0
 10
14.1966571306
 20
9.8023189405
 30
0.0
 10
14.1937009259
 20
9.8230241368
 30
0.0
 10
14.190951
 20
9.8442747424
 30
0.0
 10
14.1884102582
 20
9.8660483853
 30
0.0
 10
14.1860814394
 20
9.8883221292
 30
0.0
 10
14.1839669302
 20
9.9110725451
 30
0.0
 10
14.1814146602
 20
9.9422774713
 30
0.0
 10
14.1787899648
 20
9.9822996276
 30
0.0
 10
14.1765513758
 20
10.0314327159
 30
0.0
 10
14.1752073098
 20
10.081868169
 30
0.0
 10
14.1749142638
 20
10.1159048597
 30
0.0
 10
14.1749142638
 20
10.1331021993
 30
0.0
  0
SPLINE
  5
349
100
AcDbEntity
  8
0
100
AcDbSpline
 62
7
  6
CONTINUOUS
 70
0
 71
3
 72
11
 73
7
 74
0
 42
0.0000001
 43
0.0000001
 44
0.0000000001
 40
0.0
 40
0.0
 40
0.0
 40
0.0
 40
0.2475418166
 40
0.4960743909
 40
0.7465761918
 40
1.0
 40
1.0
 40
1.0
 40
1.0
 10
14.2605717754
 20
9.5977581074
 30
0.0
 10
14.2595511036
 20
9.597828892
 30
0.0
 10
14.257509704
 20
9.5980378569
 30
0.0
 10
14.2544650314
 20
9.598552062
 30
0.0
 10
14.2514362232
 20
9.5992670868
 30
0.0
 10
14.2494419369
 20
9.5998732682
 30
0.0
 10
14.2484495469
 20
9.6002083515
 30
0.0
  0
SPLINE
  5
34A
100
AcDbEntity
  8
0
100
AcDbSpline
 62
7
  6
CONTINUOUS
 70
0
 71
3
 72
48
 73
44
 74
0
 42
0.0000001
 43
0.0000001
 44
0.0000000001
 40
0.0
 40
0.0
 40
0.0
 40
0.0
 40
0.0070629185
 40
0.0144559789
 40
0.0221883814
 40
0.0302674392
 40
0.0386986829
 40
0.0474862835
 40
0.0566329958
 40
0.06614052
 40
0.0760095015
 40
0.086239666
 40
0.0968299998
 40
0.1077786497
 40
0.1190832239
 40
0.1307406169
 40
0.142747242
 40
0.1550989846
 40
0.1677912224
 40
0.1808189781
 40
0.2078582271
 40
0.2361694156
 40
0.2656991603
 40
0.2963892453
 40
0.3281771088
 40
0.3609962815
 40
0.3947767736
 40
0.4294454204
 40
0.464926204
 40
0.5011405547
 40
0.5380076384
 40
0.5754446347
 40
0.6133670178
 40
0.6516888246
 40
0.6903229181
 40
0.7291812472
 40
0.7681751075
 40
0.8072154057
 40
0.8462128721
 40
0.8850785428
 40
0.9237232538
 40
0.9620599668
 40
1.0
 40
1.0
 40
1.0
 40
1.0
 10
14.3917611094
 20
11.1442429577
 30
0.0
 10
14.3899519556
 20
11.1425591783
 30
0.0
 10
14.3863355572
 20
11.1390190717
 30
0.0
 10
14.3810353886
 20
11.1333423282
 30
0.0
 10
14.3757409294
 20
11.1271832869
 30
0.0
 10
14.3704554802
 20
11.1205457559
 30
0.0
 10
14.3651819533
 20
11.1134337032
 30
0.0
 10
14.3599235917
 20
11.1058513161
 30
0.0
 10
14.3546834052
 20
11.0978031843
 30
0.0
 10
14.3494645985
 20
11.0892940969
 30
0.0
 10
14.3442702888
 20
11.0803291792
 30
0.0
 10
14.3391035768
 20
11.0709138401
 30
0.0
 10
14.333967667
 20
11.0610537337
 30
0.0
 10
14.3288655731
 20
11.050754853
 30
0.0
 10
14.3238004984
 20
11.0400233977
 30
0.0
 10
14.3187754435
 20
11.0288658954
 30
0.0
 10
14.3137935103
 20
11.0172890988
 30
0.0
 10
14.3088577446
 20
11.0053000388
 30
0.0
 10
14.3039710821
 20
10.9929059932
 30
0.0
 10
14.2974441308
 20
10.9756361199
 30
0.0
 10
14.2894439977
 20
10.9530830762
 30
0.0
 10
14.2802013493
 20
10.9248536402
 30
0.0
 10
14.2712237392
 20
10.8952015712
 30
0.0
 10
14.2625331767
 20
10.8641990059
 30
0.0
 10
14.2541509601
 20
10.8319212043
 30
0.0
 10
14.2460976278
 20
10.7984466605
 30
0.0
 10
14.2383929072
 20
10.7638568056
 30
0.0
 10
14.231055666
 20
10.7282358241
 30
0.0
 10
14.2241038666
 20
10.6916704367
 30
0.0
 10
14.2175545237
 20
10.6542496866
 30
0.0
 10
14.2114236613
 20
10.6160647208
 30
0.0
 10
14.2057262686
 20
10.577208565
 30
0.0
 10
14.2004762722
 20
10.5377758903
 30
0.0
 10
14.1956865012
 20
10.4978627787
 30
0.0
 10
14.1913686572
 20
10.4575664884
 30
0.0
 10
14.1875332852
 20
10.4169852163
 30
0.0
 10
14.184189749
 20
10.3762178562
 30
0.0
 10
14.1813462073
 20
10.3353637718
 30
0.0
 10
14.1790095736
 20
10.2945224876
 30
0.0
 10
14.1771855666
 20
10.2537936578
 30
0.0
 10
14.1758785555
 20
10.2132762542
 30
0.0
 10
14.1750917932
 20
10.1730694205
 30
0.0
 10
14.1749142638
 20
10.1463782338
 30
0.0
 10
14.1749142638
 20
10.1331021993
 30
0.0
  0
SPLINE
  5
34B
100
AcDbEntity
  8
0
100
AcDbSpline
 62
7
  6
CONTINUOUS
 70
0
 71
3
 72
11
 73
7
 74
0
 42
0.0000001
 43
0.0000001
 44
0.0000000001
 40
0.0
 40
0.0
 40
0.0
 40
0.0
 40
0.2474792181
 40
0.4959746736
 40
0.7464895453
 40
1.0
 40
1.0
 40
1.0
 40
1.0
 10
14.3643478712
 20
11.0941639234
 30
0.0
 10
14.3633139966
 20
11.0942356236
 30
0.0
 10
14.3612365821
 20
11.0943105424
 30
0.0
 10
14.3581097858
 20
11.0942164063
 30
0.0
 10
14.3549707018
 20
11.0939159443
 30
0.0
 10
14.352885163
 20
11.0935805813
 30
0.0
 10
14.3518427189
 20
11.0933797428
 30
0.0
  0
SPLINE
  5
34C
100
AcDbEntity
  8
0
100
AcDbSpline
 62
7
  6
CONTINUOUS
 70
0
 71
3
 72
28
 73
24
 74
0
 42
0.0000001
 43
0.0000001
 44
0.0000000001
 40
0.0
 40
0.0
 40
0.0
 40
0.0
 40
0.0466020151
 40
0.0689943558
 40
0.0909361269
 40
0.112563918
 40
0.1340220749
 40
0.1554601138
 40
0.1770280127
 40
0.1988731905
 40
0.2211391936
 40
0.2439633713
 40
0.2674748048
 40
0.316987682
 40
0.37053078
 40
0.4287672602
 40
0.4922143296
 40
0.5612841789
 40
0.6362948507
 40
0.7174974669
 40
0.8050885484
 40
0.8992166593
 40
1.0
 40
1.0
 40
1.0
 40
1.0
 10
9.9751344233
 20
6.611434204
 30
0.0
 10
9.9751348102
 20
6.6105775499
 30
0.0
 10
9.975223477
 20
6.6093058364
 30
0.0
 10
9.9755424126
 20
6.6076634396
 30
0.0
 10
9.9758730382
 20
6.6064952257
 30
0.0
 10
9.9762980583
 20
6.6053763319
 30
0.0
 10
9.9768172187
 20
6.6043080957
 30
0.0
 10
9.9774301974
 20
6.6032920633
 30
0.0
 10
9.9781365249
 20
6.6023297414
 30
0.0
 10
9.9789356447
 20
6.6014226398
 30
0.0
 10
9.9798269553
 20
6.6005722495
 30
0.0
 10
9.9808099097
 20
6.5997799832
 30
0.0
 10
9.9822666499
 20
6.5987860647
 30
0.0
 10
9.9843341223
 20
6.5977000503
 30
0.0
 10
9.987125389
 20
6.5966789715
 30
0.0
 10
9.990263918
 20
6.595926961
 30
0.0
 10
9.9937436499
 20
6.5954551397
 30
0.0
 10
9.9975585172
 20
6.5952750799
 30
0.0
 10
10.0017015142
 20
6.5953989071
 30
0.0
 10
10.0061646662
 20
6.5958391507
 30
0.0
 10
10.0109389915
 20
6.5966082737
 30
0.0
 10
10.0160143536
 20
6.5977186683
 30
0.0
 10
10.0194725515
 20
6.5986622127
 30
0.0
 10
10.0212482901
 20
6.5991904214
 30
0.0
  0
SPLINE
  5
34D
100
AcDbEntity
  8
0
100
AcDbSpline
 62
7
  6
CONTINUOUS
 70
0
 71
3
 72
51
 73
47
 74
0
 42
0.0000001
 43
0.0000001
 44
0.0000000001
 40
0.0
 40
0.0
 40
0.0
 40
0.0
 40
0.0055575483
 40
0.0111779716
 40
0.01692191
 40
0.0228457685
 40
0.029000541
 40
0.0354309187
 40
0.0421753321
 40
0.0492661787
 40
0.0567301751
 40
0.0645892818
 40
0.072860934
 40
0.0815589354
 40
0.0906938799
 40
0.1002734384
 40
0.1103031157
 40
0.1207861166
 40
0.1317239771
 40
0.1431166596
 40
0.1549625852
 40
0.1672591636
 40
0.1800024627
 40
0.1931876894
 40
0.2068091423
 40
0.2208601567
 40
0.2502201891
 40
0.2812020358
 40
0.3137291498
 40
0.3477165256
 40
0.3830717054
 40
0.4196956132
 40
0.4574832856
 40
0.4963245986
 40
0.5361048951
 40
0.5767055669
 40
0.6180046028
 40
0.6598771293
 40
0.7021959705
 40
0.7448321944
 40
0.7876555817
 40
0.8305351627
 40
0.8733399838
 40
0.9159382941
 40
0.9582023666
 40
1.0
 40
1.0
 40
1.0
 40
1.0
 10
13.36417426
 20
10.9731166884
 30
0.0
 10
13.3641742673
 20
10.9722656982
 30
0.0
 10
13.3640790266
 20
10.9705526082
 30
0.0
 10
13.3636514699
 20
10.9679921041
 30
0.0
 10
13.3629398493
 20
10.9654373327
 30
0.0
 10
13.3619457069
 20
10.9628912002
 30
0.0
 10
13.3606704978
 20
10.9603558448
 30
0.0
 10
13.3591160792
 20
10.9578331454
 30
0.0
 10
13.3572841608
 20
10.9553248563
 30
0.0
 10
13.3551765144
 20
10.9528327028
 30
0.0
 10
13.3527951058
 20
10.9503582773
 30
0.0
 10
13.3501418327
 20
10.9479034059
 30
0.0
 10
13.3472189301
 20
10.9454697565
 30
0.0
 10
13.3440287044
 20
10.9430591596
 30
0.0
 10
13.3405736835
 20
10.940673473
 30
0.0
 10
13.3368566629
 20
10.9383144571
 30
0.0
 10
13.3328805595
 20
10.9359840701
 30
0.0
 10
13.3286486027
 20
10.9336840798
 30
0.0
 10
13.3241641788
 20
10.9314163675
 30
0.0
 10
13.3194309013
 20
10.92918279
 30
0.0
 10
13.3144526215
 20
10.9269850892
 30
0.0
 10
13.3092333504
 20
10.9248251471
 30
0.0
 10
13.3037773513
 20
10.9227046512
 30
0.0
 10
13.2980890572
 20
10.9206253764
 30
0.0
 10
13.2921730947
 20
10.9185890209
 30
0.0
 10
13.2838660042
 20
10.9158937788
 30
0.0
 10
13.2729429271
 20
10.9126540272
 30
0.0
 10
13.2591934735
 20
10.9090175617
 30
0.0
 10
13.2446616815
 20
10.9055896617
 30
0.0
 10
13.2293950432
 20
10.9023816555
 30
0.0
 10
13.2134433306
 20
10.89940418
 30
0.0
 10
13.1968586743
 20
10.896667097
 30
0.0
 10
13.1796953096
 20
10.8941794564
 30
0.0
 10
13.162009401
 20
10.8919494847
 30
0.0
 10
13.1438588405
 20
10.8899845555
 30
0.0
 10
13.1253030577
 20
10.8882911674
 30
0.0
 10
13.1064028265
 20
10.8868749213
 30
0.0
 10
13.0872200634
 20
10.8857404872
 30
0.0
 10
13.0678176157
 20
10.8848916077
 30
0.0
 10
13.0482590547
 20
10.8843310866
 30
0.0
 10
13.02860847
 20
10.8840607783
 30
0.0
 10
13.0089302227
 20
10.8840815756
 30
0.0
 10
12.9892889047
 20
10.8843934238
 30
0.0
 10
12.969748601
 20
10.8849952439
 30
0.0
 10
12.9503737142
 20
10.8858851229
 30
0.0
 10
12.937525457
 20
10.8866735627
 30
0.0
 10
12.9311406003
 20
10.887116354
 30
0.0
  0
SPLINE
  5
34E
100
AcDbEntity
  8
0
100
AcDbSpline
 62
7
  6
CONTINUOUS
 70
0
 71
3
 72
51
 73
47
 74
0
 42
0.0000001
 43
0.0000001
 44
0.0000000001
 40
0.0
 40
0.0
 40
0.0
 40
0.0
 40
0.0055575483
 40
0.0111779716
 40
0.01692191
 40
0.0228457685
 40
0.029000541
 40
0.0354309187
 40
0.0421753321
 40
0.0492661787
 40
0.0567301751
 40
0.0645892818
 40
0.072860934
 40
0.0815589354
 40
0.0906938799
 40
0.1002734384
 40
0.1103031157
 40
0.1207861166
 40
0.1317239771
 40
0.1431166596
 40
0.1549625852
 40
0.1672591636
 40
0.1800024627
 40
0.1931876894
 40
0.2068091423
 40
0.2208601567
 40
0.2502201891
 40
0.2812020358
 40
0.3137291498
 40
0.3477165256
 40
0.3830717054
 40
0.4196956132
 40
0.4574832856
 40
0.4963245986
 40
0.5361048951
 40
0.5767055669
 40
0.6180046028
 40
0.6598771293
 40
0.7021959705
 40
0.7448321944
 40
0.7876555817
 40
0.8305351627
 40
0.8733399838
 40
0.9159382941
 40
0.9582023666
 40
1.0
 40
1.0
 40
1.0
 40
1.0
 10
8.7760264859
 20
11.2913058173
 30
0.0
 10
8.7760264933
 20
11.290454827
 30
0.0
 10
8.7759312526
 20
11.288741737
 30
0.0
 10
8.7755036959
 20
11.2861812329
 30
0.0
 10
8.7747920753
 20
11.2836264616
 30
0.0
 10
8.7737979329
 20
11.2810803291
 30
0.0
 10
8.7725227238
 20
11.2785449737
 30
0.0
 10
8.7709683052
 20
11.2760222743
 30
0.0
 10
8.7691363868
 20
11.2735139851
 30
0.0
 10
8.7670287404
 20
11.2710218317
 30
0.0
 10
8.7646473318
 20
11.2685474061
 30
0.0
 10
8.7619940587
 20
11.2660925348
 30
0.0
 10
8.7590711561
 20
11.2636588854
 30
0.0
 10
8.7558809304
 20
11.2612482885
 30
0.0
 10
8.7524259095
 20
11.2588626018
 30
0.0
 10
8.7487088889
 20
11.2565035859
 30
0.0
 10
8.7447327855
 20
11.2541731989
 30
0.0
 10
8.7405008287
 20
11.2518732087
 30
0.0
 10
8.7360164048
 20
11.2496054964
 30
0.0
 10
8.7312831273
 20
11.2473719189
 30
0.0
 10
8.7263048475
 20
11.245174218
 30
0.0
 10
8.7210855764
 20
11.243014276
 30
0.0
 10
8.7156295773
 20
11.2408937801
 30
0.0
 10
8.7099412832
 20
11.2388145052
 30
0.0
 10
8.7040253207
 20
11.2367781498
 30
0.0
 10
8.6957182302
 20
11.2340829076
 30
0.0
 10
8.6847951531
 20
11.230843156
 30
0.0
 10
8.6710456995
 20
11.2272066906
 30
0.0
 10
8.6565139075
 20
11.2237787906
 30
0.0
 10
8.6412472692
 20
11.2205707844
 30
0.0
 10
8.6252955566
 20
11.2175933089
 30
0.0
 10
8.6087109003
 20
11.2148562259
 30
0.0
 10
8.5915475356
 20
11.2123685852
 30
0.0
 10
8.573861627
 20
11.2101386135
 30
0.0
 10
8.5557110665
 20
11.2081736843
 30
0.0
 10
8.5371552837
 20
11.2064802962
 30
0.0
 10
8.5182550525
 20
11.2050640501
 30
0.0
 10
8.4990722894
 20
11.2039296161
 30
0.0
 10
8.4796698417
 20
11.2030807365
 30
0.0
 10
8.4601112807
 20
11.2025202154
 30
0.0
 10
8.440460696
 20
11.2022499071
 30
0.0
 10
8.4207824487
 20
11.2022707044
 30
0.0
 10
8.4011411307
 20
11.2025825527
 30
0.0
 10
8.381600827
 20
11.2031843728
 30
0.0
 10
8.3622259401
 20
11.2040742517
 30
0.0
 10
8.349377683
 20
11.2048626916
 30
0.0
 10
8.3429928263
 20
11.2053054829
 30
0.0
  0
SPLINE
  5
34F
100
AcDbEntity
  8
0
100
AcDbSpline
 62
7
  6
CONTINUOUS
 70
0
 71
3
 72
54
 73
50
 74
0
 42
0.0000001
 43
0.0000001
 44
0.0000000001
 40
0.0
 40
0.0
 40
0.0
 40
0.0
 40
0.0149714207
 40
0.0299459009
 40
0.0449264795
 40
0.0599161607
 40
0.0749178924
 40
0.0899345474
 40
0.1049689109
 40
0.1200236599
 40
0.135101347
 40
0.1502043904
 40
0.1653350555
 40
0.1804954423
 40
0.195687479
 40
0.210912906
 40
0.2261732683
 40
0.2414699124
 40
0.2568039734
 40
0.2721763729
 40
0.2875878193
 40
0.3030387972
 40
0.3185295728
 40
0.3340601946
 40
0.3496304877
 40
0.3652400644
 40
0.3808883259
 40
0.3965744612
 40
0.4122974619
 40
0.4280561242
 40
0.4438490534
 40
0.4596746808
 40
0.4914119437
 40
0.5232571513
 40
0.5551923202
 40
0.587197651
 40
0.6192519366
 40
0.651332993
 40
0.6834181045
 40
0.7154844744
 40
0.7475096792
 40
0.7794721147
 40
0.8113514322
 40
0.8431289588
 40
0.8747880885
 40
0.9063146442
 40
0.9376972366
 40
0.9689272309
 40
1.0
 40
1.0
 40
1.0
 40
1.0
 10
8.675486878
 20
7.4858396072
 30
0.0
 10
8.6826294096
 20
7.4927387693
 30
0.0
 10
8.6971918683
 20
7.5062560932
 30
0.0
 10
8.7198264958
 20
7.5256501365
 30
0.0
 10
8.7432232466
 20
7.544137912
 30
0.0
 10
8.7673494476
 20
7.5616935958
 30
0.0
 10
8.7921720929
 20
7.5782930359
 30
0.0
 10
8.817656921
 20
7.5939134564
 30
0.0
 10
8.8437688622
 20
7.6085333971
 30
0.0
 10
8.8704720355
 20
7.6221326373
 30
0.0
 10
8.8977296273
 20
7.6346925989
 30
0.0
 10
8.9255041426
 20
7.6461959923
 30
0.0
 10
8.9537573927
 20
7.6566269164
 30
0.0
 10
8.9824504494
 20
7.6659711725
 30
0.0
 10
9.0115438572
 20
7.6742158619
 30
0.0
 10
9.0409975966
 20
7.6813496094
 30
0.0
 10
9.0707711149
 20
7.6873627541
 30
0.0
 10
9.1008234756
 20
7.6922469495
 30
0.0
 10
9.1311133344
 20
7.6959954922
 30
0.0
 10
9.1615990161
 20
7.6986033625
 30
0.0
 10
9.1922386024
 20
7.7000668738
 30
0.0
 10
9.2229899469
 20
7.7003840767
 30
0.0
 10
9.2538107628
 20
7.6995546406
 30
0.0
 10
9.284658663
 20
7.6975795935
 30
0.0
 10
9.3154912307
 20
7.6944617565
 30
0.0
 10
9.3462660806
 20
7.6902054825
 30
0.0
 10
9.3769408822
 20
7.6848165123
 30
0.0
 10
9.4074734703
 20
7.6783023937
 30
0.0
 10
9.437821908
 20
7.6706720888
 30
0.0
 10
9.4679443204
 20
7.6619360522
 30
0.0
 10
9.4977997944
 20
7.6521062282
 30
0.0
 10
9.5372287703
 20
7.6375476767
 30
0.0
 10
9.5856412721
 20
7.6166784724
 30
0.0
 10
9.6419567751
 20
7.5875402885
 30
0.0
 10
9.6962484028
 20
7.5544400746
 30
0.0
 10
9.7482162258
 20
7.5175604536
 30
0.0
 10
9.7975756309
 20
7.4771038493
 30
0.0
 10
9.844055675
 20
7.4332925484
 30
0.0
 10
9.8874013009
 20
7.3863670318
 30
0.0
 10
9.927374503
 20
7.3365848066
 30
0.0
 10
9.9637558467
 20
7.2842191088
 30
0.0
 10
9.9963454833
 20
7.2295572771
 30
0.0
 10
10.0249642016
 20
7.1728991918
 30
0.0
 10
10.0494545938
 20
7.1145557948
 30
0.0
 10
10.0696818343
 20
7.054847193
 30
0.0
 10
10.0855343244
 20
6.994101402
 30
0.0
 10
10.0969243065
 20
6.9326508326
 30
0.0
 10
10.1037888525
 20
6.8708373033
 30
0.0
 10
10.1053263543
 20
6.8294963346
 30
0.0
 10
10.1053263543
 20
6.8088859232
 30
0.0
  0
SPLINE
  5
350
100
AcDbEntity
  8
0
100
AcDbSpline
 62
7
  6
CONTINUOUS
 70
0
 71
3
 72
54
 73
50
 74
0
 42
0.0000001
 43
0.0000001
 44
0.0000000001
 40
0.0
 40
0.0
 40
0.0
 40
0.0
 40
0.0149714207
 40
0.0299459009
 40
0.0449264795
 40
0.0599161607
 40
0.0749178924
 40
0.0899345474
 40
0.1049689109
 40
0.1200236599
 40
0.135101347
 40
0.1502043904
 40
0.1653350555
 40
0.1804954423
 40
0.195687479
 40
0.210912906
 40
0.2261732683
 40
0.2414699124
 40
0.2568039734
 40
0.2721763729
 40
0.2875878193
 40
0.3030387972
 40
0.3185295728
 40
0.3340601946
 40
0.3496304877
 40
0.3652400644
 40
0.3808883259
 40
0.3965744612
 40
0.4122974619
 40
0.4280561242
 40
0.4438490534
 40
0.4596746808
 40
0.4914119437
 40
0.5232571513
 40
0.5551923202
 40
0.587197651
 40
0.6192519366
 40
0.651332993
 40
0.6834181045
 40
0.7154844744
 40
0.7475096792
 40
0.7794721147
 40
0.8113514322
 40
0.8431289588
 40
0.8747880885
 40
0.9063146442
 40
0.9376972366
 40
0.9689272309
 40
1.0
 40
1.0
 40
1.0
 40
1.0
 10
10.6073388754
 20
9.525198454
 30
0.0
 10
10.6144814069
 20
9.5320976162
 30
0.0
 10
10.6290438656
 20
9.5456149401
 30
0.0
 10
10.6516784932
 20
9.5650089833
 30
0.0
 10
10.6750752439
 20
9.5834967589
 30
0.0
 10
10.699201445
 20
9.6010524427
 30
0.0
 10
10.7240240903
 20
9.6176518828
 30
0.0
 10
10.7495089184
 20
9.6332723032
 30
0.0
 10
10.7756208595
 20
9.6478922439
 30
0.0
 10
10.8023240329
 20
9.6614914842
 30
0.0
 10
10.8295816246
 20
9.6740514458
 30
0.0
 10
10.85735614
 20
9.6855548392
 30
0.0
 10
10.8856093901
 20
9.6959857633
 30
0.0
 10
10.9143024467
 20
9.7053300194
 30
0.0
 10
10.9433958545
 20
9.7135747087
 30
0.0
 10
10.9728495939
 20
9.7207084562
 30
0.0
 10
11.0026231122
 20
9.726721601
 30
0.0
 10
11.032675473
 20
9.7316057964
 30
0.0
 10
11.0629653317
 20
9.7353543391
 30
0.0
 10
11.0934510135
 20
9.7379622093
 30
0.0
 10
11.1240905998
 20
9.7394257207
 30
0.0
 10
11.1548419442
 20
9.7397429236
 30
0.0
 10
11.1856627602
 20
9.7389134874
 30
0.0
 10
11.2165106603
 20
9.7369384404
 30
0.0
 10
11.247343228
 20
9.7338206034
 30
0.0
 10
11.278118078
 20
9.7295643294
 30
0.0
 10
11.3087928795
 20
9.7241753592
 30
0.0
 10
11.3393254677
 20
9.7176612406
 30
0.0
 10
11.3696739054
 20
9.7100309356
 30
0.0
 10
11.3997963177
 20
9.7012948991
 30
0.0
 10
11.4296517918
 20
9.6914650751
 30
0.0
 10
11.4690807676
 20
9.6769065235
 30
0.0
 10
11.5174932694
 20
9.6560373193
 30
0.0
 10
11.5738087724
 20
9.6268991354
 30
0.0
 10
11.6281004001
 20
9.5937989214
 30
0.0
 10
11.6800682231
 20
9.5569193005
 30
0.0
 10
11.7294276282
 20
9.5164626962
 30
0.0
 10
11.7759076724
 20
9.4726513953
 30
0.0
 10
11.8192532983
 20
9.4257258787
 30
0.0
 10
11.8592265003
 20
9.3759436535
 30
0.0
 10
11.895607844
 20
9.3235779557
 30
0.0
 10
11.9281974807
 20
9.268916124
 30
0.0
 10
11.9568161989
 20
9.2122580387
 30
0.0
 10
11.9813065912
 20
9.1539146417
 30
0.0
 10
12.0015338316
 20
9.0942060399
 30
0.0
 10
12.0173863217
 20
9.0334602489
 30
0.0
 10
12.0287763038
 20
8.9720096795
 30
0.0
 10
12.0356408499
 20
8.9101961502
 30
0.0
 10
12.0371783517
 20
8.8688551814
 30
0.0
 10
12.0371783517
 20
8.8482447701
 30
0.0
  0
SPLINE
  5
351
100
AcDbEntity
  8
0
100
AcDbSpline
 62
7
  6
CONTINUOUS
 70
0
 71
3
 72
39
 73
35
 74
0
 42
0.0000001
 43
0.0000001
 44
0.0000000001
 40
0.0
 40
0.0
 40
0.0
 40
0.0
 40
0.0958313223
 40
0.1890999066
 40
0.2792396479
 40
0.3229663115
 40
0.3657099292
 40
0.4074081191
 40
0.4480006754
 40
0.4874302648
 40
0.5256424385
 40
0.5625857699
 40
0.5982125807
 40
0.6324786396
 40
0.665344311
 40
0.6967743203
 40
0.7267388303
 40
0.7552139511
 40
0.7821824427
 40
0.807635341
 40
0.8315726205
 40
0.8540058864
 40
0.8749600023
 40
0.8944766962
 40
0.9126183481
 40
0.9294727137
 40
0.94515911
 40
0.9598336921
 40
0.9668557838
 40
0.973702854
 40
0.9804062715
 40
0.9869997015
 40
0.9935186515
 40
1.0
 40
1.0
 40
1.0
 40
1.0
 10
13.1092079564
 20
11.0591162223
 30
0.0
 10
13.1181677734
 20
11.0584948569
 30
0.0
 10
13.1358349059
 20
11.0570716898
 30
0.0
 10
13.1618663101
 20
11.0543550132
 30
0.0
 10
13.1829791202
 20
11.0516151253
 30
0.0
 10
13.1993467382
 20
11.0491487852
 30
0.0
 10
13.2111985059
 20
11.0471907798
 30
0.0
 10
13.2227308579
 20
11.0451092296
 30
0.0
 10
13.2339245444
 20
11.0429075582
 30
0.0
 10
13.2447608695
 20
11.0405894989
 30
0.0
 10
13.2552217514
 20
11.0381589592
 30
0.0
 10
13.2652897398
 20
11.0356199821
 30
0.0
 10
13.2749480611
 20
11.0329769087
 30
0.0
 10
13.284180628
 20
11.0302340969
 30
0.0
 10
13.2929721023
 20
11.0273962357
 30
0.0
 10
13.3013078893
 20
11.0244680278
 30
0.0
 10
13.3091741954
 20
11.0214543983
 30
0.0
 10
13.3165580527
 20
11.0183603975
 30
0.0
 10
13.3234473197
 20
11.0151910939
 30
0.0
 10
13.3298307853
 20
11.0119517983
 30
0.0
 10
13.3356980754
 20
11.0086476513
 30
0.0
 10
13.3410398251
 20
11.0052839987
 30
0.0
 10
13.3458475294
 20
11.0018659337
 30
0.0
 10
13.3501136236
 20
10.998398441
 30
0.0
 10
13.3538313553
 20
10.9948862945
 30
0.0
 10
13.3569945321
 20
10.9913335151
 30
0.0
 10
13.3595971274
 20
10.9877447289
 30
0.0
 10
13.361318548
 20
10.9846818658
 30
0.0
 10
13.3623916878
 20
10.9822294502
 30
0.0
 10
13.3630414087
 20
10.9804123975
 30
0.0
 10
13.3635472185
 20
10.9785917604
 30
0.0
 10
13.3639088419
 20
10.9767682979
 30
0.0
 10
13.3641259582
 20
10.9749430577
 30
0.0
 10
13.3641742547
 20
10.9737241221
 30
0.0
 10
13.36417426
 20
10.9731166884
 30
0.0
  0
SPLINE
  5
352
100
AcDbEntity
  8
0
100
AcDbSpline
 62
7
  6
CONTINUOUS
 70
0
 71
3
 72
72
 73
68
 74
0
 42
0.0000001
 43
0.0000001
 44
0.0000000001
 40
0.0
 40
0.0
 40
0.0
 40
0.0
 40
0.015356485
 40
0.0230190262
 40
0.0306711275
 40
0.0459442341
 40
0.0611797292
 40
0.0763807909
 40
0.0915509089
 40
0.1066938545
 40
0.1218136464
 40
0.1369145157
 40
0.1520008687
 40
0.1670772467
 40
0.1821482835
 40
0.1972186618
 40
0.2122930704
 40
0.2273761608
 40
0.2424725045
 40
0.2575865501
 40
0.2727225823
 40
0.2878846828
 40
0.3030766951
 40
0.3183021914
 40
0.3335644407
 40
0.3488663811
 40
0.3642105966
 40
0.379599298
 40
0.395034307
 40
0.4105170429
 40
0.4260485127
 40
0.441629308
 40
0.4572596047
 40
0.4729391651
 40
0.4886673426
 40
0.50444309
 40
0.5202649737
 40
0.536131189
 40
0.5520395766
 40
0.5679876417
 40
0.5839725762
 40
0.5999912849
 40
0.6160404106
 40
0.6321163611
 40
0.6482153366
 40
0.6643333617
 40
0.6804663167
 40
0.6966099685
 40
0.7127600021
 40
0.7289120537
 40
0.7450617452
 40
0.7612047167
 40
0.777336659
 40
0.7934533452
 40
0.809550665
 40
0.8256246566
 40
0.8416715367
 40
0.8576877295
 40
0.8736698961
 40
0.8896149617
 40
0.9055201471
 40
0.9213829765
 40
0.9372013178
 40
0.9529734403
 40
0.9686977178
 40
0.9843737587
 40
1.0
 40
1.0
 40
1.0
 40
1.0
 10
10.0941763836
 20
6.6728383362
 30
0.0
 10
10.0915861393
 20
6.6610082761
 30
0.0
 10
10.0872853057
 20
6.6433628651
 30
0.0
 10
10.0807253766
 20
6.6200800871
 30
0.0
 10
10.0736335457
 20
6.5970221394
 30
0.0
 10
10.063761493
 20
6.568580321
 30
0.0
 10
10.0503198094
 20
6.5351184221
 30
0.0
 10
10.0353181493
 20
6.502415045
 30
0.0
 10
10.0187880502
 20
6.4705392125
 30
0.0
 10
10.00076408
 20
6.439557633
 30
0.0
 10
9.9812839682
 20
6.4095353181
 30
0.0
 10
9.9603885026
 20
6.3805352293
 30
0.0
 10
9.9381214998
 20
6.3526181601
 30
0.0
 10
9.9145296307
 20
6.3258426444
 30
0.0
 10
9.8896623418
 20
6.3002648295
 30
0.0
 10
9.8635717393
 20
6.2759383729
 30
0.0
 10
9.836312534
 20
6.2529142734
 30
0.0
 10
9.8079419065
 20
6.2312407684
 30
0.0
 10
9.7785193479
 20
6.2109632778
 30
0.0
 10
9.7481065477
 20
6.192124299
 30
0.0
 10
9.7167672609
 20
6.1747633305
 30
0.0
 10
9.6845672193
 20
6.1589167032
 30
0.0
 10
9.6515739462
 20
6.144617571
 30
0.0
 10
9.6178566109
 20
6.1318958541
 30
0.0
 10
9.5834858869
 20
6.1207781819
 30
0.0
 10
9.5485338139
 20
6.1112878183
 30
0.0
 10
9.5130736591
 20
6.1034445479
 30
0.0
 10
9.4771797327
 20
6.0972647282
 30
0.0
 10
9.4409272397
 20
6.0927612414
 30
0.0
 10
9.4043921251
 20
6.0899434875
 30
0.0
 10
9.3676509243
 20
6.0888172986
 30
0.0
 10
9.3307805929
 20
6.0893849295
 30
0.0
 10
9.2938583431
 20
6.0916451203
 30
0.0
 10
9.2569614871
 20
6.0955930824
 30
0.0
 10
9.2201672829
 20
6.1012205242
 30
0.0
 10
9.18355276
 20
6.1085155767
 30
0.0
 10
9.1471945607
 20
6.1174628873
 30
0.0
 10
9.1111687867
 20
6.1280436717
 30
0.0
 10
9.0755508453
 20
6.1402357508
 30
0.0
 10
9.040415293
 20
6.1540135833
 30
0.0
 10
9.0058356499
 20
6.1693482521
 30
0.0
 10
8.9718842755
 20
6.1862076132
 30
0.0
 10
8.938632217
 20
6.2045563504
 30
0.0
 10
8.9061490732
 20
6.2243560598
 30
0.0
 10
8.8745028229
 20
6.2455652805
 30
0.0
 10
8.8437596696
 20
6.2681395739
 30
0.0
 10
8.8139839418
 20
6.2920316769
 30
0.0
 10
8.7852379526
 20
6.3171915829
 30
0.0
 10
8.7575818848
 20
6.343566656
 30
0.0
 10
8.7310736046
 20
6.3711016763
 30
0.0
 10
8.7057685723
 20
6.3997389997
 30
0.0
 10
8.68171975
 20
6.4294186961
 30
0.0
 10
8.6589774892
 20
6.4600786665
 30
0.0
 10
8.6375894255
 20
6.4916547672
 30
0.0
 10
8.6176003087
 20
6.5240808992
 30
0.0
 10
8.5990519823
 20
6.5572892024
 30
0.0
 10
8.5819832923
 20
6.5912101874
 30
0.0
 10
8.5664300189
 20
6.6257728827
 30
0.0
 10
8.5524247614
 20
6.6609049605
 30
0.0
 10
8.5399968344
 20
6.6965328839
 30
0.0
 10
8.5291722946
 20
6.7325820897
 30
0.0
 10
8.5199738491
 20
6.768977123
 30
0.0
 10
8.5124208196
 20
6.8056418644
 30
0.0
 10
8.5065291611
 20
6.8424993602
 30
0.0
 10
8.502310987
 20
6.8794730478
 30
0.0
 10
8.4997755849
 20
6.9164841045
 30
0.0
 10
8.4992095904
 20
6.9411731225
 30
0.0
 10
8.4992095904
 20
6.953496169
 30
0.0
  0
SPLINE
  5
353
100
AcDbEntity
  8
0
100
AcDbSpline
 62
7
  6
CONTINUOUS
 70
0
 71
3
 72
39
 73
35
 74
0
 42
0.0000001
 43
0.0000001
 44
0.0000000001
 40
0.0
 40
0.0
 40
0.0
 40
0.0
 40
0.0301591263
 40
0.060330288
 40
0.0905566831
 40
0.1208780509
 40
0.1513307272
 40
0.1819453581
 40
0.2127460029
 40
0.2437491901
 40
0.2749634265
 40
0.306389019
 40
0.3380182266
 40
0.3698357044
 40
0.4018192029
 40
0.4339404818
 40
0.4661663969
 40
0.4984601203
 40
0.5307824546
 40
0.5630932072
 40
0.5953525884
 40
0.6275225992
 40
0.6595683758
 40
0.6914594539
 40
0.7231709171
 40
0.7546843892
 40
0.7859888294
 40
0.8170810914
 40
0.8479661965
 40
0.8786573255
 40
0.9091753653
 40
0.9395484802
 40
0.9698102396
 40
1.0
 40
1.0
 40
1.0
 40
1.0
 10
12.7442461965
 20
5.2539771476
 30
0.0
 10
12.7467638487
 20
5.2568029688
 30
0.0
 10
12.7521018055
 20
5.2621951053
 30
0.0
 10
12.7609167773
 20
5.2693986479
 30
0.0
 10
12.7704562479
 20
5.2756503421
 30
0.0
 10
12.7806268249
 20
5.2808886095
 30
0.0
 10
12.7913302696
 20
5.2850634395
 30
0.0
 10
12.802462993
 20
5.2881347481
 30
0.0
 10
12.8139174381
 20
5.2900733446
 30
0.0
 10
12.8255830675
 20
5.2908609796
 30
0.0
 10
12.8373474558
 20
5.2904905342
 30
0.0
 10
12.8490973631
 20
5.2889660251
 30
0.0
 10
12.8607198106
 20
5.2863025352
 30
0.0
 10
12.8721031433
 20
5.2825260384
 30
0.0
 10
12.8831380769
 20
5.2776731323
 30
0.0
 10
12.893718721
 20
5.2717906758
 30
0.0
 10
12.9037435704
 20
5.2649353365
 30
0.0
 10
12.9131164567
 20
5.2571730492
 30
0.0
 10
12.9217474509
 20
5.24857839
 30
0.0
 10
12.9295537114
 20
5.2392338725
 30
0.0
 10
12.9364602634
 20
5.2292291676
 30
0.0
 10
12.9424007073
 20
5.2186602594
 30
0.0
 10
12.9473178477
 20
5.2076285426
 30
0.0
 10
12.9511642389
 20
5.1962398717
 30
0.0
 10
12.9539026418
 20
5.1846035687
 30
0.0
 10
12.9555063886
 20
5.1728313994
 30
0.0
 10
12.9559596572
 20
5.1610365262
 30
0.0
 10
12.9552576418
 20
5.1493324422
 30
0.0
 10
12.9534066521
 20
5.1378319039
 30
0.0
 10
12.9504240363
 20
5.1266458301
 30
0.0
 10
12.9463382402
 20
5.1158823267
 30
0.0
 10
12.9411880052
 20
5.1056452102
 30
0.0
 10
12.9350239616
 20
5.0960347171
 30
0.0
 10
12.9302720576
 20
5.0901001544
 30
0.0
 10
12.9277518481
 20
5.0872714629
 30
0.0
  0
SPLINE
  5
354
100
AcDbEntity
  8
0
100
AcDbSpline
 62
7
  6
CONTINUOUS
 70
0
 71
3
 72
44
 73
40
 74
0
 42
0.0000001
 43
0.0000001
 44
0.0000000001
 40
0.0
 40
0.0
 40
0.0
 40
0.0
 40
0.015166805
 40
0.0303618835
 40
0.0455856256
 40
0.0608383248
 40
0.0914284179
 40
0.1221357166
 40
0.1375345482
 40
0.1529622489
 40
0.1839000514
 40
0.2149483963
 40
0.2461023918
 40
0.2773559157
 40
0.3087016987
 40
0.3401314168
 40
0.3716357946
 40
0.4032047167
 40
0.4348273453
 40
0.466492246
 40
0.4981875162
 40
0.5299009188
 40
0.5616200173
 40
0.5933323123
 40
0.6250253796
 40
0.6566870062
 40
0.688305326
 40
0.7198689521
 40
0.7513671059
 40
0.7827897422
 40
0.8141276632
 40
0.8453726433
 40
0.8609593731
 40
0.8765202576
 40
0.9075590327
 40
0.9384866981
 40
0.9539091558
 40
0.9693032561
 40
1.0
 40
1.0
 40
1.0
 40
1.0
 10
10.1010774334
 20
6.8658046217
 30
0.0
 10
10.0949644074
 20
6.8650190166
 30
0.0
 10
10.0827040584
 20
6.8636189994
 30
0.0
 10
10.0642450684
 20
6.8620352406
 30
0.0
 10
10.0457138558
 20
6.8609669025
 30
0.0
 10
10.0209066546
 20
6.8602300153
 30
0.0
 10
9.9897844154
 20
6.8606043323
 30
0.0
 10
9.9586713051
 20
6.8626978777
 30
0.0
 10
9.9338094705
 20
6.8653984563
 30
0.0
 10
9.9089376973
 20
6.8687882649
 30
0.0
 10
9.8779500356
 20
6.8743067938
 30
0.0
 10
9.8410817724
 20
6.8829459692
 30
0.0
 10
9.8046052649
 20
6.8935822237
 30
0.0
 10
9.7686321992
 20
6.906182983
 30
0.0
 10
9.7332718236
 20
6.9207098337
 30
0.0
 10
9.6986317551
 20
6.9371184829
 30
0.0
 10
9.664817349
 20
6.9553589357
 30
0.0
 10
9.6319314635
 20
6.9753756367
 30
0.0
 10
9.6000741259
 20
6.9971076385
 30
0.0
 10
9.5693422312
 20
7.020488781
 30
0.0
 10
9.5398292533
 20
7.0454479014
 30
0.0
 10
9.5116249624
 20
7.0719090482
 30
0.0
 10
9.4848151539
 20
7.0997917118
 30
0.0
 10
9.4594813891
 20
7.1290110678
 30
0.0
 10
9.4357007489
 20
7.1594782325
 30
0.0
 10
9.4135456006
 20
7.1911005337
 30
0.0
 10
9.3930833794
 20
7.2237817841
 30
0.0
 10
9.3743763815
 20
7.2574225939
 30
0.0
 10
9.3574815837
 20
7.2919205885
 30
0.0
 10
9.3424504092
 20
7.3271710114
 30
0.0
 10
9.3293288134
 20
7.3630659636
 30
0.0
 10
9.3200108142
 20
7.3934511668
 30
0.0
 10
9.313550748
 20
7.4179713952
 30
0.0
 10
9.3077669117
 20
7.4425738414
 30
0.0
 10
9.3017908468
 20
7.4735228628
 30
0.0
 10
9.29750062
 20
7.5046936666
 30
0.0
 10
9.2950961007
 20
7.5296719184
 30
0.0
 10
9.2933802766
 20
7.5546121624
 30
0.0
 10
9.2928621214
 20
7.5733472548
 30
0.0
 10
9.2928621214
 20
7.5858214199
 30
0.0
  0
SPLINE
  5
355
100
AcDbEntity
  8
0
100
AcDbSpline
 62
7
  6
CONTINUOUS
 70
0
 71
3
 72
37
 73
33
 74
0
 42
0.0000001
 43
0.0000001
 44
0.0000000001
 40
0.0
 40
0.0
 40
0.0
 40
0.0
 40
0.030746918
 40
0.0615815023
 40
0.0925011026
 40
0.1235024444
 40
0.1545816684
 40
0.1857343632
 40
0.2169555911
 40
0.2482399297
 40
0.2795815213
 40
0.3109741067
 40
0.3424110691
 40
0.3738854909
 40
0.4053901977
 40
0.436917802
 40
0.4999984781
 40
0.5630792119
 40
0.5946068887
 40
0.6261116954
 40
0.6575862445
 40
0.6890233615
 40
0.7204161266
 40
0.7517579215
 40
0.7830424876
 40
0.8142639635
 40
0.8454169239
 40
0.8764964393
 40
0.9074980723
 40
0.9384179765
 40
0.9692529811
 40
1.0
 40
1.0
 40
1.0
 40
1.0
 10
10.0723732682
 20
7.042343586
 30
0.0
 10
10.0630286032
 20
7.0436747066
 30
0.0
 10
10.044367362
 20
7.0467423559
 30
0.0
 10
10.016559913
 20
7.0525380791
 30
0.0
 10
9.988946364
 20
7.0595242505
 30
0.0
 10
9.9615794552
 20
7.0676875107
 30
0.0
 10
9.9345105876
 20
7.0770124131
 30
0.0
 10
9.9077908604
 20
7.0874813879
 30
0.0
 10
9.8814706548
 20
7.0990747075
 30
0.0
 10
9.8555995628
 20
7.1117704088
 30
0.0
 10
9.8302263536
 20
7.1255445463
 30
0.0
 10
9.8053989111
 20
7.1403711969
 30
0.0
 10
9.7811639782
 20
7.1562223577
 30
0.0
 10
9.7575673287
 20
7.1730679989
 30
0.0
 10
9.7346530847
 20
7.190876807
 30
0.0
 10
9.7050672793
 20
7.215861838
 30
0.0
 10
9.6700088404
 20
7.2493253671
 30
0.0
 10
9.6377748019
 20
7.2855175039
 30
0.0
 10
9.6138253536
 20
7.3159477695
 30
0.0
 10
9.5968176803
 20
7.339462884
 30
0.0
 10
9.5807961073
 20
7.3636267716
 30
0.0
 10
9.5657904244
 20
7.3883942699
 30
0.0
 10
9.5518290861
 20
7.4137186069
 30
0.0
 10
9.5389384354
 20
7.4395520837
 30
0.0
 10
9.5271427296
 20
7.4658459531
 30
0.0
 10
9.5164642381
 20
7.4925506565
 30
0.0
 10
9.5069231975
 20
7.5196158734
 30
0.0
 10
9.4985375624
 20
7.546990559
 30
0.0
 10
9.4913231426
 20
7.5746230433
 30
0.0
 10
9.4852936122
 20
7.6024614559
 30
0.0
 10
9.480460534
 20
7.6304525318
 30
0.0
 10
9.4780383496
 20
7.6492086358
 30
0.0
 10
9.4770303331
 20
7.6585936843
 30
0.0
  0
SPLINE
  5
356
100
AcDbEntity
  8
0
100
AcDbSpline
 62
7
  6
CONTINUOUS
 70
0
 71
3
 72
39
 73
35
 74
0
 42
0.0000001
 43
0.0000001
 44
0.0000000001
 40
0.0
 40
0.0
 40
0.0
 40
0.0
 40
0.0315206499
 40
0.0629611014
 40
0.0943254206
 40
0.1256182265
 40
0.1568446568
 40
0.1880103398
 40
0.2191213576
 40
0.2501841974
 40
0.2812057044
 40
0.3121930389
 40
0.34315362
 40
0.3740950663
 40
0.4050251417
 40
0.4359516997
 40
0.4668826198
 40
0.4978257455
 40
0.5287888287
 40
0.5597794727
 40
0.5908050697
 40
0.6218727455
 40
0.6529893126
 40
0.6841612191
 40
0.7153944967
 40
0.7466947202
 40
0.7780669819
 40
0.8095158436
 40
0.8410452737
 40
0.8726587846
 40
0.9043591251
 40
0.9361481565
 40
0.9680290551
 40
1.0
 40
1.0
 40
1.0
 40
1.0
 10
9.1092787748
 20
7.6934382432
 30
0.0
 10
9.098499352
 20
7.6914782983
 30
0.0
 10
9.0770483489
 20
7.6871048179
 30
0.0
 10
9.0452235934
 20
7.6791831918
 30
0.0
 10
9.0138444125
 20
7.6699219412
 30
0.0
 10
8.9829653729
 20
7.6593370239
 30
0.0
 10
8.9526392467
 20
7.6474464407
 30
0.0
 10
8.922918082
 20
7.6342705965
 30
0.0
 10
8.8938528121
 20
7.6198320948
 30
0.0
 10
8.8654933103
 20
7.6041556218
 30
0.0
 10
8.837888242
 20
7.5872679998
 30
0.0
 10
8.811084913
 20
7.569198243
 30
0.0
 10
8.7851292944
 20
7.5499773186
 30
0.0
 10
8.7600659596
 20
7.5296381102
 30
0.0
 10
8.735937865
 20
7.5082155383
 30
0.0
 10
8.7127863619
 20
7.4857463686
 30
0.0
 10
8.6906511928
 20
7.4622690931
 30
0.0
 10
8.6695703424
 20
7.43782396
 30
0.0
 10
8.6495798945
 20
7.4124529525
 30
0.0
 10
8.6307141243
 20
7.3861995783
 30
0.0
 10
8.6130054409
 20
7.3591088211
 30
0.0
 10
8.5964841404
 20
7.3312271874
 30
0.0
 10
8.581178498
 20
7.3026025144
 30
0.0
 10
8.5671147863
 20
7.2732838649
 30
0.0
 10
8.5543171095
 20
7.2433215169
 30
0.0
 10
8.5428073027
 20
7.2127668839
 30
0.0
 10
8.5326050769
 20
7.1816723473
 30
0.0
 10
8.5237279707
 20
7.150091205
 30
0.0
 10
8.5161910662
 20
7.1180776134
 30
0.0
 10
8.5100072519
 20
7.0856864372
 30
0.0
 10
8.5051871628
 20
7.0529733565
 30
0.0
 10
8.5017388477
 20
7.0199938467
 30
0.0
 10
8.4996684868
 20
6.9868056781
 30
0.0
 10
8.4992095904
 20
6.9646088409
 30
0.0
 10
8.4992095904
 20
6.953496169
 30
0.0
  0
SPLINE
  5
357
100
AcDbEntity
  8
0
100
AcDbSpline
 62
7
  6
CONTINUOUS
 70
0
 71
3
 72
54
 73
50
 74
0
 42
0.0000001
 43
0.0000001
 44
0.0000000001
 40
0.0
 40
0.0
 40
0.0
 40
0.0
 40
0.0063158507
 40
0.0126706009
 40
0.0191023977
 40
0.0256478986
 40
0.0323417211
 40
0.0392160215
 40
0.0536137219
 40
0.0611943855
 40
0.0690560622
 40
0.0772171197
 40
0.0856934318
 40
0.0944987522
 40
0.1036448027
 40
0.113141486
 40
0.1229971814
 40
0.1332187245
 40
0.1438117391
 40
0.1547806923
 40
0.1661289554
 40
0.1778590781
 40
0.1899726748
 40
0.2024706471
 40
0.2153532452
 40
0.2286199987
 40
0.2422699729
 40
0.2563016345
 40
0.2707129683
 40
0.2855015805
 40
0.3006645508
 40
0.3161986637
 40
0.3321003047
 40
0.364989385
 40
0.3992970598
 40
0.4349833452
 40
0.4720041093
 40
0.5103114544
 40
0.549854083
 40
0.590577587
 40
0.6324246928
 40
0.6753354638
 40
0.7192475599
 40
0.7640963991
 40
0.8098154153
 40
0.8563362597
 40
0.9035882195
 40
0.9515013118
 40
1.0
 40
1.0
 40
1.0
 40
1.0
 10
14.5338815312
 20
8.3842044324
 30
0.0
 10
14.5358928576
 20
8.3840649554
 30
0.0
 10
14.5399183915
 20
8.383620499
 30
0.0
 10
14.5459116004
 20
8.3824621002
 30
0.0
 10
14.551864733
 20
8.3808118459
 30
0.0
 10
14.5577743235
 20
8.3786711537
 30
0.0
 10
14.5636380752
 20
8.3760412728
 30
0.0
 10
14.5715114709
 20
8.371820726
 30
0.0
 10
14.579171107
 20
8.3666542099
 30
0.0
 10
14.5865836374
 20
8.3606669471
 30
0.0
 10
14.5921826321
 20
8.3556190059
 30
0.0
 10
14.5977217967
 20
8.3500939804
 30
0.0
 10
14.6031998208
 20
8.3440939081
 30
0.0
 10
14.6086144099
 20
8.3376213316
 30
0.0
 10
14.6139635831
 20
8.3306788935
 30
0.0
 10
14.6192453317
 20
8.3232694611
 30
0.0
 10
14.6244575078
 20
8.3153959787
 30
0.0
 10
14.62959816
 20
8.3070616953
 30
0.0
 10
14.6346652022
 20
8.298269962
 30
0.0
 10
14.6396565856
 20
8.2890243413
 30
0.0
 10
14.6445703774
 20
8.2793286218
 30
0.0
 10
14.6494044922
 20
8.2691867139
 30
0.0
 10
14.6541570327
 20
8.2586027815
 30
0.0
 10
14.6588260488
 20
8.2475811416
 30
0.0
 10
14.6634095784
 20
8.2361262885
 30
0.0
 10
14.6679058244
 20
8.2242429356
 30
0.0
 10
14.6723128621
 20
8.2119359345
 30
0.0
 10
14.6766289123
 20
8.1992103453
 30
0.0
 10
14.6808522178
 20
8.1860713965
 30
0.0
 10
14.6849809708
 20
8.1725244738
 30
0.0
 10
14.6890135391
 20
8.1585751654
 30
0.0
 10
14.6929482289
 20
8.1442291854
 30
0.0
 10
14.6981198699
 20
8.1243567274
 30
0.0
 10
14.7043140599
 20
8.0985603533
 30
0.0
 10
14.7112507056
 20
8.066456165
 30
0.0
 10
14.7177603269
 20
8.0329182838
 30
0.0
 10
14.7238320931
 20
7.9980019835
 30
0.0
 10
14.7294558953
 20
7.9617646473
 30
0.0
 10
14.734622363
 20
7.9242659351
 30
0.0
 10
14.7393228822
 20
7.8855675913
 30
0.0
 10
14.7435496069
 20
7.845733373
 30
0.0
 10
14.7472955047
 20
7.8048289358
 30
0.0
 10
14.7505543338
 20
7.7629217263
 30
0.0
 10
14.7533206629
 20
7.7200808452
 30
0.0
 10
14.7555898708
 20
7.6763769103
 30
0.0
 10
14.7573581444
 20
7.631882159
 30
0.0
 10
14.7586226024
 20
7.5866695997
 30
0.0
 10
14.7593810213
 20
7.5408143601
 30
0.0
 10
14.7595475615
 20
7.5100373451
 30
0.0
 10
14.7595475615
 20
7.4945555109
 30
0.0
  0
SPLINE
  5
358
100
AcDbEntity
  8
0
100
AcDbSpline
 62
7
  6
CONTINUOUS
 70
0
 71
3
 72
52
 73
48
 74
0
 42
0.0000001
 43
0.0000001
 44
0.0000000001
 40
0.0
 40
0.0
 40
0.0
 40
0.0
 40
0.0461798816
 40
0.0918526878
 40
0.136955968
 40
0.1814336867
 40
0.2252285804
 40
0.2682848487
 40
0.310548237
 40
0.3519657752
 40
0.3924861381
 40
0.4320596821
 40
0.4706385642
 40
0.5081769869
 40
0.5446312941
 40
0.5799601099
 40
0.6141246171
 40
0.6470887761
 40
0.6788195024
 40
0.7092870104
 40
0.7384652427
 40
0.7525641516
 40
0.7663328681
 40
0.7797693273
 40
0.7928718916
 40
0.8056391955
 40
0.8180702496
 40
0.8301645558
 40
0.8419219663
 40
0.8533428465
 40
0.8644281421
 40
0.8751792781
 40
0.8855983728
 40
0.8956882609
 40
0.9054524557
 40
0.9148954028
 40
0.9240224745
 40
0.9328400137
 40
0.9413556106
 40
0.9495780916
 40
0.9575176489
 40
0.9651861119
 40
0.9725969448
 40
0.9797654298
 40
0.986708874
 40
0.9934465843
 40
1.0
 40
1.0
 40
1.0
 40
1.0
 10
14.6977283035
 20
10.6381018125
 30
0.0
 10
14.6977283035
 20
10.6523570543
 30
0.0
 10
14.6975870099
 20
10.6807112276
 30
0.0
 10
14.6969442145
 20
10.7229839206
 30
0.0
 10
14.6958724477
 20
10.7647223752
 30
0.0
 10
14.6943733073
 20
10.8058676162
 30
0.0
 10
14.6924488776
 20
10.8463626085
 30
0.0
 10
14.6901018926
 20
10.8861506443
 30
0.0
 10
14.6873356624
 20
10.9251761121
 30
0.0
 10
14.6841540672
 20
10.9633845117
 30
0.0
 10
14.6805616207
 20
11.0007224648
 30
0.0
 10
14.6765633862
 20
11.037137822
 30
0.0
 10
14.6721649714
 20
11.0725797298
 30
0.0
 10
14.6673725994
 20
11.106998717
 30
0.0
 10
14.6621930365
 20
11.1403467582
 30
0.0
 10
14.6566335575
 20
11.17257733
 30
0.0
 10
14.6507020011
 20
11.2036455084
 30
0.0
 10
14.6444067496
 20
11.2335080149
 30
0.0
 10
14.6377566595
 20
11.2621233389
 30
0.0
 10
14.6307610575
 20
11.2894515385
 30
0.0
 10
14.6245832351
 20
11.311364237
 30
0.0
 10
14.6194653822
 20
11.3282140761
 30
0.0
 10
14.6155906752
 20
11.3403616632
 30
0.0
 10
14.6116370803
 20
11.3521598896
 30
0.0
 10
14.6076060195
 20
11.36360468
 30
0.0
 10
14.6034988807
 20
11.3746920426
 30
0.0
 10
14.599317059
 20
11.3854181104
 30
0.0
 10
14.5950620774
 20
11.3957791791
 30
0.0
 10
14.59073537
 20
11.4057716375
 30
0.0
 10
14.586338424
 20
11.4153920131
 30
0.0
 10
14.581872824
 20
11.4246369996
 30
0.0
 10
14.577340048
 20
11.4335033721
 30
0.0
 10
14.5727416659
 20
11.4419880698
 30
0.0
 10
14.5680793041
 20
11.4500881921
 30
0.0
 10
14.5633544732
 20
11.4578009063
 30
0.0
 10
14.5585688111
 20
11.4651235754
 30
0.0
 10
14.5537239589
 20
11.4720537027
 30
0.0
 10
14.5488214474
 20
11.4785888454
 30
0.0
 10
14.5438629571
 20
11.4847267891
 30
0.0
 10
14.5388501143
 20
11.4904654186
 30
0.0
 10
14.5337844603
 20
11.4958026604
 30
0.0
 10
14.5286676939
 20
11.5007366912
 30
0.0
 10
14.5235014066
 20
11.5052657207
 30
0.0
 10
14.5182871967
 20
11.5093879825
 30
0.0
 10
14.5130267001
 20
11.5131020173
 30
0.0
 10
14.5077218662
 20
11.5164061107
 30
0.0
 10
14.504110339
 20
11.5183596963
 30
0.0
 10
14.5023005433
 20
11.5192636034
 30
0.0
  0
SPLINE
  5
359
100
AcDbEntity
  8
0
100
AcDbSpline
 62
7
  6
CONTINUOUS
 70
0
 71
3
 72
55
 73
51
 74
0
 42
0.0000001
 43
0.0000001
 44
0.0000000001
 40
0.0
 40
0.0
 40
0.0
 40
0.0
 40
0.040204627
 40
0.0808601794
 40
0.1218549376
 40
0.1630757952
 40
0.2044089592
 40
0.2457401997
 40
0.2869553087
 40
0.3279404803
 40
0.3685827186
 40
0.4087702383
 40
0.448392871
 40
0.4873424742
 40
0.5255133477
 40
0.5628026575
 40
0.599110874
 40
0.6343422279
 40
0.6515255109
 40
0.6684056175
 40
0.6849718741
 40
0.7012139011
 40
0.717121715
 40
0.7326856566
 40
0.7478965154
 40
0.7627454424
 40
0.7772240977
 40
0.7913245496
 40
0.8050394466
 40
0.8183619063
 40
0.8312857127
 40
0.8438052008
 40
0.8559154813
 40
0.8676123275
 40
0.878892431
 40
0.8897533034
 40
0.9001935674
 40
0.9102128889
 40
0.919812314
 40
0.9289942541
 40
0.9377628825
 40
0.9461242022
 40
0.9540865239
 40
0.9616606489
 40
0.968860447
 40
0.9757031761
 40
0.9822101458
 40
0.9884071311
 40
0.9943249983
 40
1.0
 40
1.0
 40
1.0
 40
1.0
 10
14.6977283035
 20
10.6381018125
 30
0.0
 10
14.6977283035
 20
10.617159482
 30
0.0
 10
14.6974201382
 20
10.5750393478
 30
0.0
 10
14.6960564136
 20
10.5115785792
 30
0.0
 10
14.6937921693
 20
10.4476137842
 30
0.0
 10
14.6906340246
 20
10.3833335688
 30
0.0
 10
14.6865912655
 20
10.3189273098
 30
0.0
 10
14.6816757914
 20
10.2545847779
 30
0.0
 10
14.6759020964
 20
10.1904955547
 30
0.0
 10
14.6692872177
 20
10.1268484699
 30
0.0
 10
14.6618506897
 20
10.0638310432
 30
0.0
 10
14.6536144853
 20
10.0016289272
 30
0.0
 10
14.6446029525
 20
9.9404253576
 30
0.0
 10
14.6348427442
 20
9.8804006027
 30
0.0
 10
14.6243627387
 20
9.8217314469
 30
0.0
 10
14.6131939639
 20
9.7645905854
 30
0.0
 10
14.6013694818
 20
9.7091463826
 30
0.0
 10
14.5909136276
 20
9.6641264843
 30
0.0
 10
14.5822358169
 20
9.6290894476
 30
0.0
 10
14.5756398122
 20
9.6035544809
 30
0.0
 10
14.568907045
 20
9.5785626585
 30
0.0
 10
14.5620424098
 20
9.5541323683
 30
0.0
 10
14.5550510381
 20
9.5302815999
 30
0.0
 10
14.5479380278
 20
9.5070279152
 30
0.0
 10
14.5407086996
 20
9.484388424
 30
0.0
 10
14.5333683166
 20
9.4623797928
 30
0.0
 10
14.5259223786
 20
9.4410182024
 30
0.0
 10
14.5183762958
 20
9.4203193723
 30
0.0
 10
14.5107357304
 20
9.4002985033
 30
0.0
 10
14.5030062216
 20
9.3809703196
 30
0.0
 10
14.4951935754
 20
9.3623489917
 30
0.0
 10
14.4873034403
 20
9.3444482027
 30
0.0
 10
14.4793417445
 20
9.3272810445
 30
0.0
 10
14.4713142238
 20
9.3108601145
 30
0.0
 10
14.4632269025
 20
9.2951973791
 30
0.0
 10
14.4550855766
 20
9.280304308
 30
0.0
 10
14.4468963333
 20
9.2661916974
 30
0.0
 10
14.4386649933
 20
9.2528698508
 30
0.0
 10
14.4303976604
 20
9.2403483541
 30
0.0
 10
14.4221001305
 20
9.2286363146
 30
0.0
 10
14.4137784574
 20
9.217742081
 30
0.0
 10
14.4054383395
 20
9.2076735557
 30
0.0
 10
14.3970856873
 20
9.1984378586
 30
0.0
 10
14.3887260019
 20
9.1900417321
 30
0.0
 10
14.3803649422
 20
9.18249116
 30
0.0
 10
14.3720076997
 20
9.1757918811
 30
0.0
 10
14.3636596942
 20
9.1699490158
 30
0.0
 10
14.355325608
 20
9.1649675688
 30
0.0
 10
14.3470117418
 20
9.1608524916
 30
0.0
 10
14.3413792548
 20
9.1586482978
 30
0.0
 10
14.3385782559
 20
9.1577034352
 30
0.0
  0
SPLINE
  5
35A
100
AcDbEntity
  8
0
100
AcDbSpline
 62
7
  6
CONTINUOUS
 70
0
 71
3
 72
65
 73
61
 74
0
 42
0.0000001
 43
0.0000001
 44
0.0000000001
 40
0.0
 40
0.0
 40
0.0
 40
0.0
 40
0.0452101927
 40
0.0910010513
 40
0.1371886991
 40
0.1835861507
 40
0.2300058742
 40
0.2762600571
 40
0.3221617787
 40
0.3675259239
 40
0.4121701674
 40
0.4559159554
 40
0.4985895022
 40
0.5400228122
 40
0.5602240273
 40
0.5800553529
 40
0.5994979231
 40
0.6185334196
 40
0.637144134
 40
0.6553130526
 40
0.6730237993
 40
0.6902608414
 40
0.707009362
 40
0.7232555034
 40
0.7389862877
 40
0.7541897856
 40
0.7688551946
 40
0.7829728765
 40
0.7965346271
 40
0.809533628
 40
0.8219648495
 40
0.8338250638
 40
0.8451132732
 40
0.855830963
 40
0.8659825122
 40
0.8755758034
 40
0.8846227048
 40
0.8931400696
 40
0.9011504878
 40
0.9086836016
 40
0.9157772462
 40
0.9224787885
 40
0.9288462102
 40
0.9319270747
 40
0.9349512235
 40
0.9379289194
 40
0.94087095
 40
0.9437885423
 40
0.9466932401
 40
0.9495967481
 40
0.9525107896
 40
0.9554469506
 40
0.9584165283
 40
0.9614304164
 40
0.964498997
 40
0.9708362237
 40
0.9775011049
 40
0.9845526874
 40
0.9920394154
 40
1.0
 40
1.0
 40
1.0
 40
1.0
 10
14.6045535241
 20
10.5481018814
 30
0.0
 10
14.6045535241
 20
10.5304056627
 30
0.0
 10
14.6042379233
 20
10.4947852239
 30
0.0
 10
14.6028462832
 20
10.4411023147
 30
0.0
 10
14.6005386861
 20
10.3869857186
 30
0.0
 10
14.597324978
 20
10.3326688632
 30
0.0
 10
14.5932190222
 20
10.2783860332
 30
0.0
 10
14.5882385258
 20
10.224371284
 30
0.0
 10
14.5824050217
 20
10.1708575376
 30
0.0
 10
14.5757437531
 20
10.1180755247
 30
0.0
 10
14.5682835731
 20
10.0662528106
 30
0.0
 10
14.5600568348
 20
10.0156127151
 30
0.0
 10
14.5510992089
 20
9.966373634
 30
0.0
 10
14.542991161
 20
9.9263551815
 30
0.0
 10
14.5361569021
 20
9.8952081705
 30
0.0
 10
14.5309166067
 20
9.872525305
 30
0.0
 10
14.5255243038
 20
9.8503473942
 30
0.0
 10
14.5199857829
 20
9.8286983277
 30
0.0
 10
14.514307025
 20
9.807601447
 30
0.0
 10
14.5084942174
 20
9.7870794826
 30
0.0
 10
14.5025535777
 20
9.7671545513
 30
0.0
 10
14.4964916164
 20
9.7478481037
 30
0.0
 10
14.4903148073
 20
9.7291809349
 30
0.0
 10
14.484029901
 20
9.7111731217
 30
0.0
 10
14.4776436523
 20
9.6938440348
 30
0.0
 10
14.4711629724
 20
9.6772122932
 30
0.0
 10
14.4645948955
 20
9.6612957427
 30
0.0
 10
14.4579464448
 20
9.6461114613
 30
0.0
 10
14.4512248831
 20
9.6316756762
 30
0.0
 10
14.444437335
 20
9.6180038345
 30
0.0
 10
14.4375911854
 20
9.6051104674
 30
0.0
 10
14.4306936679
 20
9.5930092869
 30
0.0
 10
14.4237521457
 20
9.5817130717
 30
0.0
 10
14.4167739251
 20
9.5712336965
 30
0.0
 10
14.409766195
 20
9.5615821502
 30
0.0
 10
14.4027361909
 20
9.5527684098
 30
0.0
 10
14.3956907585
 20
9.5448016852
 30
0.0
 10
14.3886367787
 20
9.5376901488
 30
0.0
 10
14.3815805525
 20
9.5314413956
 30
0.0
 10
14.3745283328
 20
9.5260622748
 30
0.0
 10
14.367485647
 20
9.5215593258
 30
0.0
 10
14.3604590056
 20
9.5179392566
 30
0.0
 10
14.3545561375
 20
9.515638557
 30
0.0
 10
14.3498686122
 20
9.5142657679
 30
0.0
 10
14.3464011942
 20
9.5134707095
 30
0.0
 10
14.3429450058
 20
9.5128994374
 30
0.0
 10
14.3395009827
 20
9.5125522159
 30
0.0
 10
14.3360702197
 20
9.5124292996
 30
0.0
 10
14.3326538059
 20
9.512530696
 30
0.0
 10
14.3292528325
 20
9.5128563887
 30
0.0
 10
14.3258684022
 20
9.5134063363
 30
0.0
 10
14.3225015838
 20
9.5141802898
 30
0.0
 10
14.3191534266
 20
9.5151778643
 30
0.0
 10
14.3158248452
 20
9.516398759
 30
0.0
 10
14.3113670892
 20
9.5183442298
 30
0.0
 10
14.3058311659
 20
9.5213611134
 30
0.0
 10
14.2993610376
 20
9.525827321
 30
0.0
 10
14.2929962349
 20
9.531170863
 30
0.0
 10
14.2867427764
 20
9.5373840186
 30
0.0
 10
14.2827770024
 20
9.5419557402
 30
0.0
 10
14.280810936
 20
9.5443731075
 30
0.0
  0
SPLINE
  5
35B
100
AcDbEntity
  8
0
100
AcDbSpline
 62
7
  6
CONTINUOUS
 70
0
 71
3
 72
57
 73
53
 74
0
 42
0.0000001
 43
0.0000001
 44
0.0000000001
 40
0.0
 40
0.0
 40
0.0
 40
0.0
 40
0.0417736534
 40
0.0840366016
 40
0.1266578211
 40
0.1695056346
 40
0.21244701
 40
0.2553487447
 40
0.2980777184
 40
0.3405015169
 40
0.3824889248
 40
0.4239104649
 40
0.4646389286
 40
0.5045499179
 40
0.5435223959
 40
0.5814392547
 40
0.6181879055
 40
0.6536609025
 40
0.670887291
 40
0.6877571705
 40
0.7042588558
 40
0.7203811606
 40
0.7361133347
 40
0.7514452242
 40
0.7663671439
 40
0.7808701133
 40
0.794945674
 40
0.8085861929
 40
0.8217846464
 40
0.8345349745
 40
0.8468318643
 40
0.858671133
 40
0.8700495541
 40
0.8809652503
 40
0.8914176071
 40
0.9014076696
 40
0.9109381913
 40
0.9200140439
 40
0.9286424511
 40
0.9368334399
 40
0.9446003045
 40
0.9519601344
 40
0.9589345191
 40
0.9655501451
 40
0.9718396237
 40
0.9778419676
 40
0.9836031197
 40
0.9891757627
 40
0.9919106391
 40
0.994620898
 40
0.9973146063
 40
1.0
 40
1.0
 40
1.0
 40
1.0
 10
14.5065739469
 20
10.5334608717
 30
0.0
 10
14.5065739469
 20
10.519469011
 30
0.0
 10
14.5063556531
 20
10.4913209632
 30
0.0
 10
14.5053906501
 20
10.4489071107
 30
0.0
 10
14.5037889494
 20
10.4061524217
 30
0.0
 10
14.5015558468
 20
10.3631985668
 30
0.0
 10
14.4986986892
 20
10.3201875421
 30
0.0
 10
14.4952269389
 20
10.2772616912
 30
0.0
 10
14.4911520881
 20
10.2345630128
 30
0.0
 10
14.4864876485
 20
10.1922327702
 30
0.0
 10
14.4812490945
 20
10.1504109928
 30
0.0
 10
14.4754538176
 20
10.1092360174
 30
0.0
 10
14.4691210679
 20
10.0688440251
 30
0.0
 10
14.462271893
 20
10.029368581
 30
0.0
 10
14.4549290665
 20
9.990940204
 30
0.0
 10
14.4471170243
 20
9.9536858584
 30
0.0
 10
14.4388617514
 20
9.9177287664
 30
0.0
 10
14.431566629
 20
9.8886678239
 30
0.0
 10
14.4255196735
 20
9.8661638205
 30
0.0
 10
14.4209353154
 20
9.8498477165
 30
0.0
 10
14.4162613633
 20
9.8339421217
 30
0.0
 10
14.4115017114
 20
9.8184601642
 30
0.0
 10
14.4066602566
 20
9.8034146475
 30
0.0
 10
14.4017410824
 20
9.788817991
 30
0.0
 10
14.3967481849
 20
9.7746822597
 30
0.0
 10
14.3916857988
 20
9.7610191072
 30
0.0
 10
14.3865580145
 20
9.7478398221
 30
0.0
 10
14.3813691949
 20
9.7351552485
 30
0.0
 10
14.3761235165
 20
9.7229758584
 30
0.0
 10
14.3708254437
 20
9.7113116457
 30
0.0
 10
14.3654792309
 20
9.7001722258
 30
0.0
 10
14.360089411
 20
9.689566705
 30
0.0
 10
14.354660305
 20
9.6795038016
 30
0.0
 10
14.3491964749
 20
9.6699917001
 30
0.0
 10
14.3437022887
 20
9.6610381825
 30
0.0
 10
14.3381822875
 20
9.6526504839
 30
0.0
 10
14.3326408509
 20
9.6448354142
 30
0.0
 10
14.327082432
 20
9.6375992474
 30
0.0
 10
14.3215113615
 20
9.6309478029
 30
0.0
 10
14.3159319137
 20
9.6248864188
 30
0.0
 10
14.3103482801
 20
9.6194199569
 30
0.0
 10
14.3047644538
 20
9.6145529336
 30
0.0
 10
14.2991844031
 20
9.6102894068
 30
0.0
 10
14.2936118096
 20
9.6066333514
 30
0.0
 10
14.2880505375
 20
9.60358836
 30
0.0
 10
14.2825041715
 20
9.6011582821
 30
0.0
 10
14.2769775073
 20
9.5993465608
 30
0.0
 10
14.2723619413
 20
9.5983489334
 30
0.0
 10
14.2687011085
 20
9.5978705432
 30
0.0
 10
14.265980973
 20
9.5976690769
 30
0.0
 10
14.2632704847
 20
9.5976229936
 30
0.0
 10
14.2614690784
 20
9.5976958785
 30
0.0
 10
14.2605717754
 20
9.5977581074
 30
0.0
  0
SPLINE
  5
35C
100
AcDbEntity
  8
0
100
AcDbSpline
 62
7
  6
CONTINUOUS
 70
0
 71
3
 72
22
 73
18
 74
0
 42
0.0000001
 43
0.0000001
 44
0.0000000001
 40
0.0
 40
0.0
 40
0.0
 40
0.0
 40
0.0881108289
 40
0.1725931187
 40
0.2534612769
 40
0.3307362641
 40
0.4044471653
 40
0.4746319313
 40
0.5413385225
 40
0.6046251702
 40
0.6645588871
 40
0.7212224042
 40
0.7747185643
 40
0.8251707574
 40
0.8727289303
 40
0.9175782516
 40
1.0
 40
1.0
 40
1.0
 40
1.0
 10
10.0006899789
 20
6.6522167426
 30
0.0
 10
9.9996507787
 20
6.6512129522
 30
0.0
 10
9.9976356095
 20
6.6492253839
 30
0.0
 10
9.9947443515
 20
6.6462390796
 30
0.0
 10
9.9920491316
 20
6.6433119303
 30
0.0
 10
9.9895509861
 20
6.6404452731
 30
0.0
 10
9.9872506216
 20
6.6376406812
 30
0.0
 10
9.9851484677
 20
6.6348999239
 30
0.0
 10
9.9832450247
 20
6.632224714
 30
0.0
 10
9.9815408075
 20
6.6296169031
 30
0.0
 10
9.9800359728
 20
6.6270787159
 30
0.0
 10
9.9787307525
 20
6.6246124323
 30
0.0
 10
9.9776254967
 20
6.6222202772
 30
0.0
 10
9.9767202891
 20
6.6199050164
 30
0.0
 10
9.9760150073
 20
6.617668607
 30
0.0
 10
9.9753601234
 20
6.6148764388
 30
0.0
 10
9.9751338129
 20
6.6127857446
 30
0.0
 10
9.9751344233
 20
6.611434204
 30
0.0
  0
SPLINE
  5
35D
100
AcDbEntity
  8
0
100
AcDbSpline
 62
7
  6
CONTINUOUS
 70
0
 71
3
 72
61
 73
57
 74
0
 42
0.0000001
 43
0.0000001
 44
0.0000000001
 40
0.0
 40
0.0
 40
0.0
 40
0.0
 40
0.0417736088
 40
0.0840360431
 40
0.126657155
 40
0.1695046842
 40
0.2124458378
 40
0.2553473321
 40
0.2980760744
 40
0.3404996436
 40
0.3824868274
 40
0.4239081481
 40
0.4646363976
 40
0.5045471783
 40
0.5435194547
 40
0.5814361204
 40
0.5999634452
 40
0.6181850312
 40
0.6360876424
 40
0.6536583488
 40
0.6708846631
 40
0.6877544565
 40
0.7042560738
 40
0.7203782989
 40
0.7361104104
 40
0.7514422273
 40
0.7663640903
 40
0.7808669935
 40
0.7949425048
 40
0.8085829615
 40
0.8217813757
 40
0.8345316441
 40
0.8468285057
 40
0.8586677174
 40
0.8700461208
 40
0.8809617639
 40
0.8914141105
 40
0.9014041268
 40
0.9109346407
 40
0.9200104579
 40
0.9286388542
 40
0.9368298218
 40
0.9445966692
 40
0.9519564915
 40
0.9589308526
 40
0.9655464796
 40
0.97183593
 40
0.9778382749
 40
0.9807467215
 40
0.9836011958
 40
0.9864085004
 40
0.9891758164
 40
0.9919106777
 40
0.9946209229
 40
0.9973146203
 40
1.0
 40
1.0
 40
1.0
 40
1.0
 10
14.7595475615
 20
7.4945555109
 30
0.0
 10
14.7595475615
 20
7.4723550199
 30
0.0
 10
14.7592012122
 20
7.4276935547
 30
0.0
 10
14.7576700532
 20
7.3603969729
 30
0.0
 10
14.7551287172
 20
7.2925597207
 30
0.0
 10
14.7515855219
 20
7.224406303
 30
0.0
 10
14.7470521842
 20
7.1561622445
 30
0.0
 10
14.7415436855
 20
7.088053301
 30
0.0
 10
14.7350782743
 20
7.0203048088
 30
0.0
 10
14.7276773828
 20
6.9531408946
 30
0.0
 10
14.7193655652
 20
6.8867837419
 30
0.0
 10
14.7101704147
 20
6.8214528414
 30
0.0
 10
14.700122473
 20
6.7573642799
 30
0.0
 10
14.6892551399
 20
6.6947299362
 30
0.0
 10
14.6776045366
 20
6.6337570581
 30
0.0
 10
14.6671969638
 20
6.5841245777
 30
0.0
 10
14.6584966819
 20
6.5454087259
 30
0.0
 10
14.6518505216
 20
6.5171344187
 30
0.0
 10
14.6450388936
 20
6.4894227629
 30
0.0
 10
14.6380673421
 20
6.462296661
 30
0.0
 10
14.6309417274
 20
6.4357785466
 30
0.0
 10
14.6236678957
 20
6.4098903499
 30
0.0
 10
14.6162519219
 20
6.3846534697
 30
0.0
 10
14.6086999361
 20
6.3600887676
 30
0.0
 10
14.6010181953
 20
6.3362165427
 30
0.0
 10
14.5932131019
 20
6.3130565121
 30
0.0
 10
14.5852910707
 20
6.2906278082
 30
0.0
 10
14.5772587476
 20
6.2689489324
 30
0.0
 10
14.5691226982
 20
6.2480377839
 30
0.0
 10
14.5608897616
 20
6.2279115831
 30
0.0
 10
14.5525666619
 20
6.2085869264
 30
0.0
 10
14.5441603657
 20
6.1900796965
 30
0.0
 10
14.5356777634
 20
6.1724051151
 30
0.0
 10
14.5271258821
 20
6.1555776761
 30
0.0
 10
14.5185117671
 20
6.1396111549
 30
0.0
 10
14.5098424468
 20
6.1245186089
 30
0.0
 10
14.5011250759
 20
6.1103123008
 30
0.0
 10
14.4923666304
 20
6.0970038067
 30
0.0
 10
14.4835742809
 20
6.0846038292
 30
0.0
 10
14.4747548937
 20
6.0731224241
 30
0.0
 10
14.4659155009
 20
6.0625687365
 30
0.0
 10
14.4570627769
 20
6.0529512972
 30
0.0
 10
14.4482034173
 20
6.0442778031
 30
0.0
 10
14.4393437737
 20
6.0365553733
 30
0.0
 10
14.4304900922
 20
6.0297905834
 30
0.0
 10
14.4216481989
 20
6.0239894666
 30
0.0
 10
14.4128246428
 20
6.0191582494
 30
0.0
 10
14.4054139367
 20
6.0159112644
 30
0.0
 10
14.3995173605
 20
6.0138248529
 30
0.0
 10
14.3951511067
 20
6.0125214231
 30
0.0
 10
14.3907960785
 20
6.0114635226
 30
0.0
 10
14.3864531229
 20
6.0106514643
 30
0.0
 10
14.3821232429
 20
6.0100855601
 30
0.0
 10
14.37780738
 20
6.0097659384
 30
0.0
 10
14.3735067209
 20
6.0096927086
 30
0.0
 10
14.3706484926
 20
6.0098083163
 30
0.0
 10
14.3692247727
 20
6.0099070453
 30
0.0
  0
SPLINE
  5
35E
100
AcDbEntity
  8
0
100
AcDbSpline
 62
7
  6
CONTINUOUS
 70
0
 71
3
 72
11
 73
7
 74
0
 42
0.0000001
 43
0.0000001
 44
0.0000000001
 40
0.0
 40
0.0
 40
0.0
 40
0.0
 40
0.2548065624
 40
0.5066680494
 40
0.7552109701
 40
1.0
 40
1.0
 40
1.0
 40
1.0
 10
11.1417910468
 20
9.5783669965
 30
0.0
 10
11.1417910468
 20
9.5915642832
 30
0.0
 10
11.1424393996
 20
9.6178112399
 30
0.0
 10
11.1453831439
 20
9.6568317145
 30
0.0
 10
11.1502632298
 20
9.6951347611
 30
0.0
 10
11.1548129881
 20
9.7202918717
 30
0.0
 10
11.1574013357
 20
9.7327032948
 30
0.0
  0
SPLINE
  5
35F
100
AcDbEntity
  8
0
100
AcDbSpline
 62
7
  6
CONTINUOUS
 70
0
 71
3
 72
72
 73
68
 74
0
 42
0.0000001
 43
0.0000001
 44
0.0000000001
 40
0.0
 40
0.0
 40
0.0
 40
0.0
 40
0.015356485
 40
0.0230190262
 40
0.0306711275
 40
0.0459442341
 40
0.0611797292
 40
0.0763807909
 40
0.0915509089
 40
0.1066938545
 40
0.1218136464
 40
0.1369145157
 40
0.1520008687
 40
0.1670772467
 40
0.1821482835
 40
0.1972186618
 40
0.2122930704
 40
0.2273761608
 40
0.2424725045
 40
0.2575865501
 40
0.2727225823
 40
0.2878846828
 40
0.3030766951
 40
0.3183021914
 40
0.3335644407
 40
0.3488663811
 40
0.3642105966
 40
0.379599298
 40
0.395034307
 40
0.4105170429
 40
0.4260485127
 40
0.441629308
 40
0.4572596047
 40
0.4729391651
 40
0.4886673426
 40
0.50444309
 40
0.5202649737
 40
0.536131189
 40
0.5520395766
 40
0.5679876417
 40
0.5839725762
 40
0.5999912849
 40
0.6160404106
 40
0.6321163611
 40
0.6482153366
 40
0.6643333617
 40
0.6804663167
 40
0.6966099685
 40
0.7127600021
 40
0.7289120537
 40
0.7450617452
 40
0.7612047167
 40
0.777336659
 40
0.7934533452
 40
0.809550665
 40
0.8256246566
 40
0.8416715367
 40
0.8576877295
 40
0.8736698961
 40
0.8896149617
 40
0.9055201471
 40
0.9213829765
 40
0.9372013178
 40
0.9529734403
 40
0.9686977178
 40
0.9843737587
 40
1.0
 40
1.0
 40
1.0
 40
1.0
 10
12.026028381
 20
8.7121971831
 30
0.0
 10
12.0234381366
 20
8.7003671229
 30
0.0
 10
12.019137303
 20
8.682721712
 30
0.0
 10
12.0125773739
 20
8.6594389339
 30
0.0
 10
12.0054855431
 20
8.6363809863
 30
0.0
 10
11.9956134903
 20
8.6079391678
 30
0.0
 10
11.9821718067
 20
8.574477269
 30
0.0
 10
11.9671701466
 20
8.5417738919
 30
0.0
 10
11.9506400476
 20
8.5098980593
 30
0.0
 10
11.9326160773
 20
8.4789164799
 30
0.0
 10
11.9131359655
 20
8.448894165
 30
0.0
 10
11.8922404999
 20
8.4198940762
 30
0.0
 10
11.8699734971
 20
8.3919770069
 30
0.0
 10
11.846381628
 20
8.3652014912
 30
0.0
 10
11.8215143391
 20
8.3396236764
 30
0.0
 10
11.7954237366
 20
8.3152972198
 30
0.0
 10
11.7681645314
 20
8.2922731202
 30
0.0
 10
11.7397939038
 20
8.2705996152
 30
0.0
 10
11.7103713452
 20
8.2503221247
 30
0.0
 10
11.6799585451
 20
8.2314831458
 30
0.0
 10
11.6486192582
 20
8.2141221773
 30
0.0
 10
11.6164192166
 20
8.19827555
 30
0.0
 10
11.5834259435
 20
8.1839764178
 30
0.0
 10
11.5497086083
 20
8.171254701
 30
0.0
 10
11.5153378842
 20
8.1601370288
 30
0.0
 10
11.4803858112
 20
8.1506466651
 30
0.0
 10
11.4449256565
 20
8.1428033948
 30
0.0
 10
11.4090317301
 20
8.1366235751
 30
0.0
 10
11.372779237
 20
8.1321200883
 30
0.0
 10
11.3362441225
 20
8.1293023343
 30
0.0
 10
11.2995029217
 20
8.1281761454
 30
0.0
 10
11.2626325903
 20
8.1287437764
 30
0.0
 10
11.2257103405
 20
8.1310039672
 30
0.0
 10
11.1888134844
 20
8.1349519293
 30
0.0
 10
11.1520192802
 20
8.1405793711
 30
0.0
 10
11.1154047573
 20
8.1478744235
 30
0.0
 10
11.079046558
 20
8.1568217342
 30
0.0
 10
11.0430207841
 20
8.1674025186
 30
0.0
 10
11.0074028426
 20
8.1795945976
 30
0.0
 10
10.9722672904
 20
8.1933724302
 30
0.0
 10
10.9376876473
 20
8.208707099
 30
0.0
 10
10.9037362728
 20
8.2255664601
 30
0.0
 10
10.8704842143
 20
8.2439151973
 30
0.0
 10
10.8380010705
 20
8.2637149067
 30
0.0
 10
10.8063548203
 20
8.2849241274
 30
0.0
 10
10.7756116669
 20
8.3074984208
 30
0.0
 10
10.7458359391
 20
8.3313905238
 30
0.0
 10
10.71708995
 20
8.3565504298
 30
0.0
 10
10.6894338822
 20
8.3829255029
 30
0.0
 10
10.6629256019
 20
8.4104605232
 30
0.0
 10
10.6376205697
 20
8.4390978466
 30
0.0
 10
10.6135717473
 20
8.4687775429
 30
0.0
 10
10.5908294866
 20
8.4994375134
 30
0.0
 10
10.5694414228
 20
8.531013614
 30
0.0
 10
10.549452306
 20
8.5634397461
 30
0.0
 10
10.5309039797
 20
8.5966480493
 30
0.0
 10
10.5138352897
 20
8.6305690342
 30
0.0
 10
10.4982820162
 20
8.6651317296
 30
0.0
 10
10.4842767587
 20
8.7002638074
 30
0.0
 10
10.4718488317
 20
8.7358917308
 30
0.0
 10
10.4610242919
 20
8.7719409366
 30
0.0
 10
10.4518258464
 20
8.8083359699
 30
0.0
 10
10.4442728169
 20
8.8450007113
 30
0.0
 10
10.4383811585
 20
8.881858207
 30
0.0
 10
10.4341629843
 20
8.9188318947
 30
0.0
 10
10.4316275823
 20
8.9558429513
 30
0.0
 10
10.4310615878
 20
8.9805319694
 30
0.0
 10
10.4310615878
 20
8.9928550159
 30
0.0
  0
SPLINE
  5
360
100
AcDbEntity
  8
0
100
AcDbSpline
 62
7
  6
CONTINUOUS
 70
0
 71
3
 72
54
 73
50
 74
0
 42
0.0000001
 43
0.0000001
 44
0.0000000001
 40
0.0
 40
0.0
 40
0.0
 40
0.0
 40
0.0063158507
 40
0.0126706009
 40
0.0191023977
 40
0.0256478986
 40
0.0323417211
 40
0.0392160215
 40
0.0536137219
 40
0.0611943855
 40
0.0690560622
 40
0.0772171197
 40
0.0856934318
 40
0.0944987522
 40
0.1036448027
 40
0.113141486
 40
0.1229971814
 40
0.1332187245
 40
0.1438117391
 40
0.1547806923
 40
0.1661289554
 40
0.1778590781
 40
0.1899726748
 40
0.2024706471
 40
0.2153532452
 40
0.2286199987
 40
0.2422699729
 40
0.2563016345
 40
0.2707129683
 40
0.2855015805
 40
0.3006645508
 40
0.3161986637
 40
0.3321003047
 40
0.364989385
 40
0.3992970598
 40
0.4349833452
 40
0.4720041093
 40
0.5103114544
 40
0.549854083
 40
0.590577587
 40
0.6324246928
 40
0.6753354638
 40
0.7192475599
 40
0.7640963991
 40
0.8098154153
 40
0.8563362597
 40
0.9035882195
 40
0.9515013118
 40
1.0
 40
1.0
 40
1.0
 40
1.0
 10
14.5338815312
 20
11.5234635538
 30
0.0
 10
14.5358928576
 20
11.5233240768
 30
0.0
 10
14.5399183915
 20
11.5228796204
 30
0.0
 10
14.5459116004
 20
11.5217212217
 30
0.0
 10
14.551864733
 20
11.5200709673
 30
0.0
 10
14.5577743235
 20
11.5179302752
 30
0.0
 10
14.5636380752
 20
11.5153003942
 30
0.0
 10
14.5715114709
 20
11.5110798474
 30
0.0
 10
14.579171107
 20
11.5059133314
 30
0.0
 10
14.5865836374
 20
11.4999260685
 30
0.0
 10
14.5921826321
 20
11.4948781274
 30
0.0
 10
14.5977217967
 20
11.4893531019
 30
0.0
 10
14.6031998208
 20
11.4833530296
 30
0.0
 10
14.6086144099
 20
11.476880453
 30
0.0
 10
14.6139635831
 20
11.4699380149
 30
0.0
 10
14.6192453317
 20
11.4625285826
 30
0.0
 10
14.6244575078
 20
11.4546551002
 30
0.0
 10
14.62959816
 20
11.4463208167
 30
0.0
 10
14.6346652022
 20
11.4375290834
 30
0.0
 10
14.6396565856
 20
11.4282834627
 30
0.0
 10
14.6445703774
 20
11.4185877432
 30
0.0
 10
14.6494044922
 20
11.4084458353
 30
0.0
 10
14.6541570327
 20
11.3978619029
 30
0.0
 10
14.6588260488
 20
11.3868402631
 30
0.0
 10
14.6634095784
 20
11.37538541
 30
0.0
 10
14.6679058244
 20
11.363502057
 30
0.0
 10
14.6723128621
 20
11.3511950559
 30
0.0
 10
14.6766289123
 20
11.3384694667
 30
0.0
 10
14.6808522178
 20
11.325330518
 30
0.0
 10
14.6849809708
 20
11.3117835952
 30
0.0
 10
14.6890135391
 20
11.2978342869
 30
0.0
 10
14.6929482289
 20
11.2834883068
 30
0.0
 10
14.6981198699
 20
11.2636158489
 30
0.0
 10
14.7043140599
 20
11.2378194747
 30
0.0
 10
14.7112507056
 20
11.2057152865
 30
0.0
 10
14.7177603269
 20
11.1721774052
 30
0.0
 10
14.7238320931
 20
11.137261105
 30
0.0
 10
14.7294558953
 20
11.1010237687
 30
0.0
 10
14.734622363
 20
11.0635250565
 30
0.0
 10
14.7393228822
 20
11.0248267128
 30
0.0
 10
14.7435496069
 20
10.9849924945
 30
0.0
 10
14.7472955047
 20
10.9440880572
 30
0.0
 10
14.7505543338
 20
10.9021808478
 30
0.0
 10
14.7533206629
 20
10.8593399666
 30
0.0
 10
14.7555898708
 20
10.8156360318
 30
0.0
 10
14.7573581444
 20
10.7711412804
 30
0.0
 10
14.7586226024
 20
10.7259287211
 30
0.0
 10
14.7593810213
 20
10.6800734816
 30
0.0
 10
14.7595475615
 20
10.6492964665
 30
0.0
 10
14.7595475615
 20
10.6338146324
 30
0.0
  0
SPLINE
  5
361
100
AcDbEntity
  8
0
100
AcDbSpline
 62
7
  6
CONTINUOUS
 70
0
 71
3
 72
60
 73
56
 74
0
 42
0.0000001
 43
0.0000001
 44
0.0000000001
 40
0.0
 40
0.0
 40
0.0
 40
0.0
 40
0.0532123647
 40
0.1056322477
 40
0.1571423518
 40
0.2076319745
 40
0.256991221
 40
0.3051145194
 40
0.3518999072
 40
0.3972497901
 40
0.4410713445
 40
0.4832770174
 40
0.5237851024
 40
0.5433791249
 40
0.5625211466
 40
0.5812028492
 40
0.5994165719
 40
0.617155038
 40
0.6344116917
 40
0.6511805273
 40
0.6674562091
 40
0.6832342192
 40
0.6985106852
 40
0.7132827802
 40
0.7275484777
 40
0.7413069015
 40
0.7545583356
 40
0.7673043005
 40
0.7795479311
 40
0.7912938535
 40
0.8025487425
 40
0.8133213167
 40
0.8236227808
 40
0.8334672012
 40
0.8428717376
 40
0.8518573515
 40
0.8604489884
 40
0.8686762863
 40
0.8765738674
 40
0.8841816681
 40
0.8915451332
 40
0.8987148818
 40
0.9057462651
 40
0.9126982326
 40
0.9196319694
 40
0.9266091741
 40
0.933690325
 40
0.9409330208
 40
0.9483908014
 40
0.9561121939
 40
0.9641403832
 40
0.9725131364
 40
0.9812629257
 40
0.9904174844
 40
1.0
 40
1.0
 40
1.0
 40
1.0
 10
14.6045535241
 20
7.40884276
 30
0.0
 10
14.6045535241
 20
7.4217947135
 30
0.0
 10
14.6043866891
 20
7.4475060734
 30
0.0
 10
14.6036251085
 20
7.4857482598
 30
0.0
 10
14.602355671
 20
7.5233139983
 30
0.0
 10
14.6005815553
 20
7.5601135354
 30
0.0
 10
14.5983069873
 20
7.5960596657
 30
0.0
 10
14.5955374962
 20
7.631066803
 30
0.0
 10
14.592279751
 20
7.6650517888
 30
0.0
 10
14.5885416191
 20
7.6979338627
 30
0.0
 10
14.5843321345
 20
7.7296349954
 30
0.0
 10
14.5796614224
 20
7.76007982
 30
0.0
 10
14.5753479091
 20
7.7846076601
 30
0.0
 10
14.571664303
 20
7.803541191
 30
0.0
 10
14.5688240997
 20
7.817225495
 30
0.0
 10
14.5658774421
 20
7.8305433961
 30
0.0
 10
14.5628261551
 20
7.8434870053
 30
0.0
 10
14.5596719816
 20
7.856048632
 30
0.0
 10
14.5564168597
 20
7.8682208285
 30
0.0
 10
14.5530627155
 20
7.8799963784
 30
0.0
 10
14.5496115145
 20
7.8913682989
 30
0.0
 10
14.5460653872
 20
7.9023298696
 30
0.0
 10
14.5424263399
 20
7.9128745908
 30
0.0
 10
14.5386966357
 20
7.9229962526
 30
0.0
 10
14.5348784079
 20
7.9326888721
 30
0.0
 10
14.5309739405
 20
7.9419467467
 30
0.0
 10
14.5269855592
 20
7.9507644479
 30
0.0
 10
14.5229155169
 20
7.959136779
 30
0.0
 10
14.5187662976
 20
7.9670588869
 30
0.0
 10
14.5145401699
 20
7.974526107
 30
0.0
 10
14.5102396429
 20
7.9815341375
 30
0.0
 10
14.5058670883
 20
7.9880788968
 30
0.0
 10
14.5014249033
 20
7.9941565726
 30
0.0
 10
14.4969155737
 20
7.9997636861
 30
0.0
 10
14.492341353
 20
8.0048968562
 30
0.0
 10
14.4877047331
 20
8.0095531174
 30
0.0
 10
14.4830079269
 20
8.0137294905
 30
0.0
 10
14.4782533236
 20
8.0174232852
 30
0.0
 10
14.4734432859
 20
8.0206318794
 30
0.0
 10
14.4685802385
 20
8.0233526137
 30
0.0
 10
14.4636669694
 20
8.0255831717
 30
0.0
 10
14.4587064107
 20
8.0273210213
 30
0.0
 10
14.4537020824
 20
8.0285643036
 30
0.0
 10
14.4486578025
 20
8.0293113288
 30
0.0
 10
14.4435777754
 20
8.0295612047
 30
0.0
 10
14.4384662951
 20
8.0293138876
 30
0.0
 10
14.4333275817
 20
8.0285698215
 30
0.0
 10
14.428165506
 20
8.027330492
 30
0.0
 10
14.4229836529
 20
8.0255974037
 30
0.0
 10
14.4177851679
 20
8.0233726849
 30
0.0
 10
14.4125729752
 20
8.0206584179
 30
0.0
 10
14.4073498769
 20
8.0174568063
 30
0.0
 10
14.402118441
 20
8.0137702485
 30
0.0
 10
14.3968816146
 20
8.0096011945
 30
0.0
 10
14.3934684606
 20
8.0065728679
 30
0.0
 10
14.3917611094
 20
8.0049838362
 30
0.0
  0
SPLINE
  5
362
100
AcDbEntity
  8
0
100
AcDbSpline
 62
7
  6
CONTINUOUS
 70
0
 71
3
 72
44
 73
40
 74
0
 42
0.0000001
 43
0.0000001
 44
0.0000000001
 40
0.0
 40
0.0
 40
0.0
 40
0.0
 40
0.015166805
 40
0.0303618835
 40
0.0455856256
 40
0.0608383248
 40
0.0914284179
 40
0.1221357166
 40
0.1375345482
 40
0.1529622489
 40
0.1839000514
 40
0.2149483963
 40
0.2461023918
 40
0.2773559157
 40
0.3087016987
 40
0.3401314168
 40
0.3716357946
 40
0.4032047167
 40
0.4348273453
 40
0.466492246
 40
0.4981875162
 40
0.5299009188
 40
0.5616200173
 40
0.5933323123
 40
0.6250253796
 40
0.6566870062
 40
0.688305326
 40
0.7198689521
 40
0.7513671059
 40
0.7827897422
 40
0.8141276632
 40
0.8453726433
 40
0.8609593731
 40
0.8765202576
 40
0.9075590327
 40
0.9384866981
 40
0.9539091558
 40
0.9693032561
 40
1.0
 40
1.0
 40
1.0
 40
1.0
 10
12.0329294307
 20
8.9051634686
 30
0.0
 10
12.0268164048
 20
8.9043778634
 30
0.0
 10
12.0145560557
 20
8.9029778463
 30
0.0
 10
11.9960970657
 20
8.9013940875
 30
0.0
 10
11.9775658531
 20
8.9003257494
 30
0.0
 10
11.9527586519
 20
8.8995888622
 30
0.0
 10
11.9216364127
 20
8.8999631792
 30
0.0
 10
11.8905233024
 20
8.9020567245
 30
0.0
 10
11.8656614679
 20
8.9047573031
 30
0.0
 10
11.8407896946
 20
8.9081471117
 30
0.0
 10
11.8098020329
 20
8.9136656407
 30
0.0
 10
11.7729337698
 20
8.9223048161
 30
0.0
 10
11.7364572623
 20
8.9329410705
 30
0.0
 10
11.7004841965
 20
8.9455418299
 30
0.0
 10
11.6651238209
 20
8.9600686806
 30
0.0
 10
11.6304837525
 20
8.9764773297
 30
0.0
 10
11.5966693464
 20
8.9947177826
 30
0.0
 10
11.5637834609
 20
9.0147344836
 30
0.0
 10
11.5319261232
 20
9.0364664854
 30
0.0
 10
11.5011942285
 20
9.0598476279
 30
0.0
 10
11.4716812506
 20
9.0848067482
 30
0.0
 10
11.4434769598
 20
9.111267895
 30
0.0
 10
11.4166671512
 20
9.1391505587
 30
0.0
 10
11.3913333864
 20
9.1683699147
 30
0.0
 10
11.3675527462
 20
9.1988370794
 30
0.0
 10
11.3453975979
 20
9.2304593806
 30
0.0
 10
11.3249353767
 20
9.2631406309
 30
0.0
 10
11.3062283788
 20
9.2967814407
 30
0.0
 10
11.289333581
 20
9.3312794354
 30
0.0
 10
11.2743024065
 20
9.3665298583
 30
0.0
 10
11.2611808107
 20
9.4024248104
 30
0.0
 10
11.2518628116
 20
9.4328100137
 30
0.0
 10
11.2454027453
 20
9.4573302421
 30
0.0
 10
11.239618909
 20
9.4819326882
 30
0.0
 10
11.2336428442
 20
9.5128817097
 30
0.0
 10
11.2293526174
 20
9.5440525135
 30
0.0
 10
11.226948098
 20
9.5690307653
 30
0.0
 10
11.2252322739
 20
9.5939710093
 30
0.0
 10
11.2247141187
 20
9.6127061016
 30
0.0
 10
11.2247141187
 20
9.6251802668
 30
0.0
  0
SPLINE
  5
363
100
AcDbEntity
  8
0
100
AcDbSpline
 62
7
  6
CONTINUOUS
 70
0
 71
3
 72
52
 73
48
 74
0
 42
0.0000001
 43
0.0000001
 44
0.0000000001
 40
0.0
 40
0.0
 40
0.0
 40
0.0
 40
0.0461798816
 40
0.0918526878
 40
0.136955968
 40
0.1814336867
 40
0.2252285804
 40
0.2682848487
 40
0.310548237
 40
0.3519657752
 40
0.3924861381
 40
0.4320596821
 40
0.4706385642
 40
0.5081769869
 40
0.5446312941
 40
0.5799601099
 40
0.6141246171
 40
0.6470887761
 40
0.6788195024
 40
0.7092870104
 40
0.7384652427
 40
0.7525641516
 40
0.7663328681
 40
0.7797693273
 40
0.7928718916
 40
0.8056391955
 40
0.8180702496
 40
0.8301645558
 40
0.8419219663
 40
0.8533428465
 40
0.8644281421
 40
0.8751792781
 40
0.8855983728
 40
0.8956882609
 40
0.9054524557
 40
0.9148954028
 40
0.9240224745
 40
0.9328400137
 40
0.9413556106
 40
0.9495780916
 40
0.9575176489
 40
0.9651861119
 40
0.9725969448
 40
0.9797654298
 40
0.986708874
 40
0.9934465843
 40
1.0
 40
1.0
 40
1.0
 40
1.0
 10
14.6977283035
 20
7.498842691
 30
0.0
 10
14.6977283035
 20
7.5130979328
 30
0.0
 10
14.6975870099
 20
7.5414521062
 30
0.0
 10
14.6969442145
 20
7.5837247992
 30
0.0
 10
14.6958724477
 20
7.6254632537
 30
0.0
 10
14.6943733073
 20
7.6666084947
 30
0.0
 10
14.6924488776
 20
7.707103487
 30
0.0
 10
14.6901018926
 20
7.7468915229
 30
0.0
 10
14.6873356624
 20
7.7859169906
 30
0.0
 10
14.6841540672
 20
7.8241253903
 30
0.0
 10
14.6805616207
 20
7.8614633433
 30
0.0
 10
14.6765633862
 20
7.8978787005
 30
0.0
 10
14.6721649714
 20
7.9333206083
 30
0.0
 10
14.6673725994
 20
7.9677395955
 30
0.0
 10
14.6621930365
 20
8.0010876368
 30
0.0
 10
14.6566335575
 20
8.0333182086
 30
0.0
 10
14.6507020011
 20
8.0643863869
 30
0.0
 10
14.6444067496
 20
8.0942488935
 30
0.0
 10
14.6377566595
 20
8.1228642174
 30
0.0
 10
14.6307610575
 20
8.150192417
 30
0.0
 10
14.6245832351
 20
8.1721051156
 30
0.0
 10
14.6194653822
 20
8.1889549546
 30
0.0
 10
14.6155906752
 20
8.2011025418
 30
0.0
 10
14.6116370803
 20
8.2129007682
 30
0.0
 10
14.6076060195
 20
8.2243455585
 30
0.0
 10
14.6034988807
 20
8.2354329212
 30
0.0
 10
14.599317059
 20
8.246158989
 30
0.0
 10
14.5950620774
 20
8.2565200576
 30
0.0
 10
14.59073537
 20
8.2665125161
 30
0.0
 10
14.586338424
 20
8.2761328917
 30
0.0
 10
14.581872824
 20
8.2853778781
 30
0.0
 10
14.577340048
 20
8.2942442507
 30
0.0
 10
14.5727416659
 20
8.3027289484
 30
0.0
 10
14.5680793041
 20
8.3108290706
 30
0.0
 10
14.5633544732
 20
8.3185417849
 30
0.0
 10
14.5585688111
 20
8.325864454
 30
0.0
 10
14.5537239589
 20
8.3327945812
 30
0.0
 10
14.5488214474
 20
8.3393297239
 30
0.0
 10
14.5438629571
 20
8.3454676677
 30
0.0
 10
14.5388501143
 20
8.3512062971
 30
0.0
 10
14.5337844603
 20
8.356543539
 30
0.0
 10
14.5286676939
 20
8.3614775698
 30
0.0
 10
14.5235014066
 20
8.3660065993
 30
0.0
 10
14.5182871967
 20
8.370128861
 30
0.0
 10
14.5130267001
 20
8.3738428958
 30
0.0
 10
14.5077218662
 20
8.3771469892
 30
0.0
 10
14.504110339
 20
8.3791005748
 30
0.0
 10
14.5023005433
 20
8.380004482
 30
0.0
  0
SPLINE
  5
364
100
AcDbEntity
  8
0
100
AcDbSpline
 62
7
  6
CONTINUOUS
 70
0
 71
3
 72
37
 73
33
 74
0
 42
0.0000001
 43
0.0000001
 44
0.0000000001
 40
0.0
 40
0.0
 40
0.0
 40
0.0
 40
0.030746918
 40
0.0615815023
 40
0.0925011026
 40
0.1235024444
 40
0.1545816684
 40
0.1857343632
 40
0.2169555911
 40
0.2482399297
 40
0.2795815213
 40
0.3109741067
 40
0.3424110691
 40
0.3738854909
 40
0.4053901977
 40
0.436917802
 40
0.4999984781
 40
0.5630792119
 40
0.5946068887
 40
0.6261116954
 40
0.6575862445
 40
0.6890233615
 40
0.7204161266
 40
0.7517579215
 40
0.7830424876
 40
0.8142639635
 40
0.8454169239
 40
0.8764964393
 40
0.9074980723
 40
0.9384179765
 40
0.9692529811
 40
1.0
 40
1.0
 40
1.0
 40
1.0
 10
12.0042252656
 20
9.0817024329
 30
0.0
 10
11.9948806005
 20
9.0830335535
 30
0.0
 10
11.9762193593
 20
9.0861012028
 30
0.0
 10
11.9484119103
 20
9.091896926
 30
0.0
 10
11.9207983613
 20
9.0988830974
 30
0.0
 10
11.8934314525
 20
9.1070463576
 30
0.0
 10
11.8663625849
 20
9.11637126
 30
0.0
 10
11.8396428577
 20
9.1268402348
 30
0.0
 10
11.8133226522
 20
9.1384335543
 30
0.0
 10
11.7874515601
 20
9.1511292557
 30
0.0
 10
11.762078351
 20
9.1649033931
 30
0.0
 10
11.7372509085
 20
9.1797300437
 30
0.0
 10
11.7130159755
 20
9.1955812046
 30
0.0
 10
11.689419326
 20
9.2124268458
 30
0.0
 10
11.666505082
 20
9.2302356538
 30
0.0
 10
11.6369192767
 20
9.2552206849
 30
0.0
 10
11.6018608377
 20
9.288684214
 30
0.0
 10
11.5696267992
 20
9.3248763508
 30
0.0
 10
11.5456773509
 20
9.3553066164
 30
0.0
 10
11.5286696777
 20
9.3788217309
 30
0.0
 10
11.5126481047
 20
9.4029856185
 30
0.0
 10
11.4976424218
 20
9.4277531168
 30
0.0
 10
11.4836810834
 20
9.4530774538
 30
0.0
 10
11.4707904328
 20
9.4789109306
 30
0.0
 10
11.4589947269
 20
9.5052047999
 30
0.0
 10
11.4483162354
 20
9.5319095034
 30
0.0
 10
11.4387751949
 20
9.5589747203
 30
0.0
 10
11.4303895598
 20
9.5863494058
 30
0.0
 10
11.4231751399
 20
9.6139818902
 30
0.0
 10
11.4171456096
 20
9.6418203028
 30
0.0
 10
11.4123125314
 20
9.6698113787
 30
0.0
 10
11.409890347
 20
9.6885674827
 30
0.0
 10
11.4088823304
 20
9.6979525312
 30
0.0
  0
SPLINE
  5
365
100
AcDbEntity
  8
0
100
AcDbSpline
 62
7
  6
CONTINUOUS
 70
0
 71
3
 72
39
 73
35
 74
0
 42
0.0000001
 43
0.0000001
 44
0.0000000001
 40
0.0
 40
0.0
 40
0.0
 40
0.0
 40
0.0315206499
 40
0.0629611014
 40
0.0943254206
 40
0.1256182265
 40
0.1568446568
 40
0.1880103398
 40
0.2191213576
 40
0.2501841974
 40
0.2812057044
 40
0.3121930389
 40
0.34315362
 40
0.3740950663
 40
0.4050251417
 40
0.4359516997
 40
0.4668826198
 40
0.4978257455
 40
0.5287888287
 40
0.5597794727
 40
0.5908050697
 40
0.6218727455
 40
0.6529893126
 40
0.6841612191
 40
0.7153944967
 40
0.7466947202
 40
0.7780669819
 40
0.8095158436
 40
0.8410452737
 40
0.8726587846
 40
0.9043591251
 40
0.9361481565
 40
0.9680290551
 40
1.0
 40
1.0
 40
1.0
 40
1.0
 10
11.0411307721
 20
9.73279709
 30
0.0
 10
11.0303513493
 20
9.7308371452
 30
0.0
 10
11.0089003462
 20
9.7264636648
 30
0.0
 10
10.9770755907
 20
9.7185420386
 30
0.0
 10
10.9456964098
 20
9.709280788
 30
0.0
 10
10.9148173702
 20
9.6986958708
 30
0.0
 10
10.884491244
 20
9.6868052875
 30
0.0
 10
10.8547700793
 20
9.6736294433
 30
0.0
 10
10.8257048095
 20
9.6591909417
 30
0.0
 10
10.7973453076
 20
9.6435144686
 30
0.0
 10
10.7697402393
 20
9.6266268467
 30
0.0
 10
10.7429369103
 20
9.6085570899
 30
0.0
 10
10.7169812918
 20
9.5893361654
 30
0.0
 10
10.6919179569
 20
9.5689969571
 30
0.0
 10
10.6677898624
 20
9.5475743852
 30
0.0
 10
10.6446383592
 20
9.5251052155
 30
0.0
 10
10.6225031901
 20
9.50162794
 30
0.0
 10
10.6014223397
 20
9.4771828068
 30
0.0
 10
10.5814318918
 20
9.4518117994
 30
0.0
 10
10.5625661217
 20
9.4255584252
 30
0.0
 10
10.5448574382
 20
9.398467668
 30
0.0
 10
10.5283361378
 20
9.3705860343
 30
0.0
 10
10.5130304953
 20
9.3419613613
 30
0.0
 10
10.4989667836
 20
9.3126427117
 30
0.0
 10
10.4861691068
 20
9.2826803638
 30
0.0
 10
10.4746593001
 20
9.2521257308
 30
0.0
 10
10.4644570742
 20
9.2210311942
 30
0.0
 10
10.4555799681
 20
9.1894500519
 30
0.0
 10
10.4480430635
 20
9.1574364603
 30
0.0
 10
10.4418592493
 20
9.1250452841
 30
0.0
 10
10.4370391601
 20
9.0923322033
 30
0.0
 10
10.433590845
 20
9.0593526936
 30
0.0
 10
10.4315204842
 20
9.026164525
 30
0.0
 10
10.4310615878
 20
9.0039676878
 30
0.0
 10
10.4310615878
 20
8.9928550159
 30
0.0
  0
SPLINE
  5
366
100
AcDbEntity
  8
0
100
AcDbSpline
 62
7
  6
CONTINUOUS
 70
0
 71
3
 72
60
 73
56
 74
0
 42
0.0000001
 43
0.0000001
 44
0.0000000001
 40
0.0
 40
0.0
 40
0.0
 40
0.0
 40
0.0532123647
 40
0.1056322477
 40
0.1571423518
 40
0.2076319745
 40
0.256991221
 40
0.3051145194
 40
0.3518999072
 40
0.3972497901
 40
0.4410713445
 40
0.4832770174
 40
0.5237851024
 40
0.5433791249
 40
0.5625211466
 40
0.5812028492
 40
0.5994165719
 40
0.617155038
 40
0.6344116917
 40
0.6511805273
 40
0.6674562091
 40
0.6832342192
 40
0.6985106852
 40
0.7132827802
 40
0.7275484777
 40
0.7413069015
 40
0.7545583356
 40
0.7673043005
 40
0.7795479311
 40
0.7912938535
 40
0.8025487425
 40
0.8133213167
 40
0.8236227808
 40
0.8334672012
 40
0.8428717376
 40
0.8518573515
 40
0.8604489884
 40
0.8686762863
 40
0.8765738674
 40
0.8841816681
 40
0.8915451332
 40
0.8987148818
 40
0.9057462651
 40
0.9126982326
 40
0.9196319694
 40
0.9266091741
 40
0.933690325
 40
0.9409330208
 40
0.9483908014
 40
0.9561121939
 40
0.9641403832
 40
0.9725131364
 40
0.9812629257
 40
0.9904174844
 40
1.0
 40
1.0
 40
1.0
 40
1.0
 10
14.6045535241
 20
10.5481018814
 30
0.0
 10
14.6045535241
 20
10.5610538349
 30
0.0
 10
14.6043866891
 20
10.5867651949
 30
0.0
 10
14.6036251085
 20
10.6250073813
 30
0.0
 10
14.602355671
 20
10.6625731198
 30
0.0
 10
14.6005815553
 20
10.6993726569
 30
0.0
 10
14.5983069873
 20
10.7353187872
 30
0.0
 10
14.5955374962
 20
10.7703259245
 30
0.0
 10
14.592279751
 20
10.8043109102
 30
0.0
 10
14.5885416191
 20
10.8371929842
 30
0.0
 10
14.5843321345
 20
10.8688941168
 30
0.0
 10
14.5796614224
 20
10.8993389415
 30
0.0
 10
14.5753479091
 20
10.9238667816
 30
0.0
 10
14.571664303
 20
10.9428003125
 30
0.0
 10
14.5688240997
 20
10.9564846165
 30
0.0
 10
14.5658774421
 20
10.9698025175
 30
0.0
 10
14.5628261551
 20
10.9827461268
 30
0.0
 10
14.5596719816
 20
10.9953077534
 30
0.0
 10
14.5564168597
 20
11.00747995
 30
0.0
 10
14.5530627155
 20
11.0192554998
 30
0.0
 10
14.5496115145
 20
11.0306274204
 30
0.0
 10
14.5460653872
 20
11.0415889911
 30
0.0
 10
14.5424263399
 20
11.0521337122
 30
0.0
 10
14.5386966357
 20
11.0622553741
 30
0.0
 10
14.5348784079
 20
11.0719479936
 30
0.0
 10
14.5309739405
 20
11.0812058682
 30
0.0
 10
14.5269855592
 20
11.0900235693
 30
0.0
 10
14.5229155169
 20
11.0983959005
 30
0.0
 10
14.5187662976
 20
11.1063180084
 30
0.0
 10
14.5145401699
 20
11.1137852285
 30
0.0
 10
14.5102396429
 20
11.120793259
 30
0.0
 10
14.5058670883
 20
11.1273380183
 30
0.0
 10
14.5014249033
 20
11.133415694
 30
0.0
 10
14.4969155737
 20
11.1390228075
 30
0.0
 10
14.492341353
 20
11.1441559776
 30
0.0
 10
14.4877047331
 20
11.1488122389
 30
0.0
 10
14.4830079269
 20
11.152988612
 30
0.0
 10
14.4782533236
 20
11.1566824066
 30
0.0
 10
14.4734432859
 20
11.1598910008
 30
0.0
 10
14.4685802385
 20
11.1626117352
 30
0.0
 10
14.4636669694
 20
11.1648422931
 30
0.0
 10
14.4587064107
 20
11.1665801427
 30
0.0
 10
14.4537020824
 20
11.167823425
 30
0.0
 10
14.4486578025
 20
11.1685704503
 30
0.0
 10
14.4435777754
 20
11.1688203261
 30
0.0
 10
14.4384662951
 20
11.1685730091
 30
0.0
 10
14.4333275817
 20
11.1678289429
 30
0.0
 10
14.428165506
 20
11.1665896134
 30
0.0
 10
14.4229836529
 20
11.1648565252
 30
0.0
 10
14.4177851679
 20
11.1626318064
 30
0.0
 10
14.4125729752
 20
11.1599175393
 30
0.0
 10
14.4073498769
 20
11.1567159277
 30
0.0
 10
14.402118441
 20
11.15302937
 30
0.0
 10
14.3968816146
 20
11.1488603159
 30
0.0
 10
14.3934684606
 20
11.1458319894
 30
0.0
 10
14.3917611094
 20
11.1442429577
 30
0.0
  0
SPLINE
  5
367
100
AcDbEntity
  8
0
100
AcDbSpline
 62
7
  6
CONTINUOUS
 70
0
 71
3
 72
50
 73
46
 74
0
 42
0.0000001
 43
0.0000001
 44
0.0000000001
 40
0.0
 40
0.0
 40
0.0
 40
0.0
 40
0.0484981071
 40
0.0964122279
 40
0.1436641743
 40
0.1901849511
 40
0.2359042066
 40
0.2807531579
 40
0.3246653514
 40
0.3675762377
 40
0.4094234714
 40
0.450147086
 40
0.4896898312
 40
0.5279973132
 40
0.5650181719
 40
0.6007045649
 40
0.6350123927
 40
0.6679015811
 40
0.6993367542
 40
0.7292876931
 40
0.7577298951
 40
0.7846456554
 40
0.7975283127
 40
0.8100263614
 40
0.8221399902
 40
0.8338701763
 40
0.8452185186
 40
0.85618749
 40
0.8667805838
 40
0.8770021922
 40
0.8868579035
 40
0.8963546744
 40
0.9055007717
 40
0.9143061207
 40
0.9227825097
 40
0.9309436026
 40
0.9388053189
 40
0.9463860399
 40
0.9607838117
 40
0.9676581522
 40
0.9743520108
 40
0.9808975346
 40
0.9873293599
 40
0.9936841335
 40
1.0
 40
1.0
 40
1.0
 40
1.0
 10
14.5065739469
 20
7.3942017503
 30
0.0
 10
14.5065739469
 20
7.4039590515
 30
0.0
 10
14.5064689717
 20
7.4233563395
 30
0.0
 10
14.5059909971
 20
7.4522566685
 30
0.0
 10
14.5051940744
 20
7.4807520519
 30
0.0
 10
14.5040796008
 20
7.5087948774
 30
0.0
 10
14.5026494399
 20
7.5363393175
 30
0.0
 10
14.5009059721
 20
7.5633398522
 30
0.0
 10
14.4988520868
 20
7.5897519145
 30
0.0
 10
14.4964912297
 20
7.6155319834
 30
0.0
 10
14.4938273459
 20
7.6406375517
 30
0.0
 10
14.4908648383
 20
7.6650272341
 30
0.0
 10
14.4876086693
 20
7.6886608519
 30
0.0
 10
14.4840642808
 20
7.7114994857
 30
0.0
 10
14.480237538
 20
7.7335055381
 30
0.0
 10
14.4761348407
 20
7.7546428227
 30
0.0
 10
14.4717630444
 20
7.7748766159
 30
0.0
 10
14.4671293816
 20
7.7941737163
 30
0.0
 10
14.4622415781
 20
7.8125025091
 30
0.0
 10
14.4571077701
 20
7.8298331291
 30
0.0
 10
14.4517364072
 20
7.8461371286
 30
0.0
 10
14.4470031058
 20
7.8590281556
 30
0.0
 10
14.4430942141
 20
7.8687972272
 30
0.0
 10
14.4401515641
 20
7.8757436602
 30
0.0
 10
14.4371562604
 20
7.8824142044
 30
0.0
 10
14.4341095587
 20
7.8888061747
 30
0.0
 10
14.431012664
 20
7.8949169435
 30
0.0
 10
14.4278668082
 20
7.9007440108
 30
0.0
 10
14.4246733233
 20
7.9062850424
 30
0.0
 10
14.4214334392
 20
7.911537765
 30
0.0
 10
14.4181484243
 20
7.9165000347
 30
0.0
 10
14.4148196361
 20
7.9211698844
 30
0.0
 10
14.411448312
 20
7.9255453871
 30
0.0
 10
14.4080357407
 20
7.9296247397
 30
0.0
 10
14.4045832467
 20
7.9334063459
 30
0.0
 10
14.401092169
 20
7.9368885128
 30
0.0
 10
14.3975633951
 20
7.9400700021
 30
0.0
 10
14.3928916643
 20
7.9438435417
 30
0.0
 10
14.3880641576
 20
7.9470997608
 30
0.0
 10
14.3831019516
 20
7.9497598142
 30
0.0
 10
14.3794063243
 20
7.9514173442
 30
0.0
 10
14.3756817919
 20
7.9527665225
 30
0.0
 10
14.371929832
 20
7.9538066409
 30
0.0
 10
14.3681526116
 20
7.9545367825
 30
0.0
 10
14.3656155114
 20
7.9548168898
 30
0.0
 10
14.3643478712
 20
7.9549048019
 30
0.0
  0
SPLINE
  5
368
100
AcDbEntity
  8
0
100
AcDbSpline
 62
7
  6
CONTINUOUS
 70
0
 71
3
 72
50
 73
46
 74
0
 42
0.0000001
 43
0.0000001
 44
0.0000000001
 40
0.0
 40
0.0
 40
0.0
 40
0.0
 40
0.0484981071
 40
0.0964122279
 40
0.1436641743
 40
0.1901849511
 40
0.2359042066
 40
0.2807531579
 40
0.3246653514
 40
0.3675762377
 40
0.4094234714
 40
0.450147086
 40
0.4896898312
 40
0.5279973132
 40
0.5650181719
 40
0.6007045649
 40
0.6350123927
 40
0.6679015811
 40
0.6993367542
 40
0.7292876931
 40
0.7577298951
 40
0.7846456554
 40
0.7975283127
 40
0.8100263614
 40
0.8221399902
 40
0.8338701763
 40
0.8452185186
 40
0.85618749
 40
0.8667805838
 40
0.8770021922
 40
0.8868579035
 40
0.8963546744
 40
0.9055007717
 40
0.9143061207
 40
0.9227825097
 40
0.9309436026
 40
0.9388053189
 40
0.9463860399
 40
0.9607838117
 40
0.9676581522
 40
0.9743520108
 40
0.9808975346
 40
0.9873293599
 40
0.9936841335
 40
1.0
 40
1.0
 40
1.0
 40
1.0
 10
14.5065739469
 20
10.5334608717
 30
0.0
 10
14.5065739469
 20
10.5432181729
 30
0.0
 10
14.5064689717
 20
10.5626154609
 30
0.0
 10
14.5059909971
 20
10.5915157899
 30
0.0
 10
14.5051940744
 20
10.6200111733
 30
0.0
 10
14.5040796008
 20
10.6480539988
 30
0.0
 10
14.5026494399
 20
10.6755984389
 30
0.0
 10
14.5009059721
 20
10.7025989737
 30
0.0
 10
14.4988520868
 20
10.729011036
 30
0.0
 10
14.4964912297
 20
10.7547911049
 30
0.0
 10
14.4938273459
 20
10.7798966731
 30
0.0
 10
14.4908648383
 20
10.8042863556
 30
0.0
 10
14.4876086693
 20
10.8279199734
 30
0.0
 10
14.4840642808
 20
10.8507586071
 30
0.0
 10
14.480237538
 20
10.8727646596
 30
0.0
 10
14.4761348407
 20
10.8939019441
 30
0.0
 10
14.4717630444
 20
10.9141357374
 30
0.0
 10
14.4671293816
 20
10.9334328377
 30
0.0
 10
14.4622415781
 20
10.9517616306
 30
0.0
 10
14.4571077701
 20
10.9690922505
 30
0.0
 10
14.4517364072
 20
10.9853962501
 30
0.0
 10
14.4470031058
 20
10.998287277
 30
0.0
 10
14.4430942141
 20
11.0080563487
 30
0.0
 10
14.4401515641
 20
11.0150027817
 30
0.0
 10
14.4371562604
 20
11.0216733258
 30
0.0
 10
14.4341095587
 20
11.0280652962
 30
0.0
 10
14.431012664
 20
11.034176065
 30
0.0
 10
14.4278668082
 20
11.0400031323
 30
0.0
 10
14.4246733233
 20
11.0455441639
 30
0.0
 10
14.4214334392
 20
11.0507968864
 30
0.0
 10
14.4181484243
 20
11.0557591561
 30
0.0
 10
14.4148196361
 20
11.0604290058
 30
0.0
 10
14.411448312
 20
11.0648045086
 30
0.0
 10
14.4080357407
 20
11.0688838611
 30
0.0
 10
14.4045832467
 20
11.0726654673
 30
0.0
 10
14.401092169
 20
11.0761476342
 30
0.0
 10
14.3975633951
 20
11.0793291236
 30
0.0
 10
14.3928916643
 20
11.0831026631
 30
0.0
 10
14.3880641576
 20
11.0863588822
 30
0.0
 10
14.3831019516
 20
11.0890189357
 30
0.0
 10
14.3794063243
 20
11.0906764657
 30
0.0
 10
14.3756817919
 20
11.0920256439
 30
0.0
 10
14.371929832
 20
11.0930657623
 30
0.0
 10
14.3681526116
 20
11.0937959039
 30
0.0
 10
14.3656155114
 20
11.0940760113
 30
0.0
 10
14.3643478712
 20
11.0941639234
 30
0.0
  0
SPLINE
  5
369
100
AcDbEntity
  8
0
100
AcDbSpline
 62
7
  6
CONTINUOUS
 70
0
 71
3
 72
39
 73
35
 74
0
 42
0.0000001
 43
0.0000001
 44
0.0000000001
 40
0.0
 40
0.0
 40
0.0
 40
0.0
 40
0.0958313223
 40
0.1890999066
 40
0.2792396479
 40
0.3229663115
 40
0.3657099292
 40
0.4074081191
 40
0.4480006754
 40
0.4874302648
 40
0.5256424385
 40
0.5625857699
 40
0.5982125807
 40
0.6324786396
 40
0.665344311
 40
0.6967743203
 40
0.7267388303
 40
0.7552139511
 40
0.7821824427
 40
0.807635341
 40
0.8315726205
 40
0.8540058864
 40
0.8749600023
 40
0.8944766962
 40
0.9126183481
 40
0.9294727137
 40
0.94515911
 40
0.9598336921
 40
0.9668557838
 40
0.973702854
 40
0.9804062715
 40
0.9869997015
 40
0.9935186515
 40
1.0
 40
1.0
 40
1.0
 40
1.0
 10
8.5210601824
 20
11.3773053511
 30
0.0
 10
8.5300199993
 20
11.3766839857
 30
0.0
 10
8.5476871319
 20
11.3752608187
 30
0.0
 10
8.5737185361
 20
11.372544142
 30
0.0
 10
8.5948313462
 20
11.3698042542
 30
0.0
 10
8.6111989642
 20
11.3673379141
 30
0.0
 10
8.6230507319
 20
11.3653799086
 30
0.0
 10
8.6345830839
 20
11.3632983585
 30
0.0
 10
8.6457767704
 20
11.3610966871
 30
0.0
 10
8.6566130955
 20
11.3587786278
 30
0.0
 10
8.6670739774
 20
11.3563480881
 30
0.0
 10
8.6771419658
 20
11.3538091109
 30
0.0
 10
8.6868002871
 20
11.3511660376
 30
0.0
 10
8.696032854
 20
11.3484232258
 30
0.0
 10
8.7048243283
 20
11.3455853645
 30
0.0
 10
8.7131601153
 20
11.3426571566
 30
0.0
 10
8.7210264213
 20
11.3396435272
 30
0.0
 10
8.7284102787
 20
11.3365495263
 30
0.0
 10
8.7352995457
 20
11.3333802227
 30
0.0
 10
8.7416830113
 20
11.3301409271
 30
0.0
 10
8.7475503014
 20
11.3268367802
 30
0.0
 10
8.7528920511
 20
11.3234731276
 30
0.0
 10
8.7576997554
 20
11.3200550625
 30
0.0
 10
8.7619658496
 20
11.3165875698
 30
0.0
 10
8.7656835813
 20
11.3130754233
 30
0.0
 10
8.768846758
 20
11.3095226439
 30
0.0
 10
8.7714493534
 20
11.3059338578
 30
0.0
 10
8.773170774
 20
11.3028709946
 30
0.0
 10
8.7742439138
 20
11.300418579
 30
0.0
 10
8.7748936347
 20
11.2986015263
 30
0.0
 10
8.7753994445
 20
11.2967808892
 30
0.0
 10
8.7757610679
 20
11.2949574267
 30
0.0
 10
8.7759781842
 20
11.2931321865
 30
0.0
 10
8.7760264807
 20
11.291913251
 30
0.0
 10
8.7760264859
 20
11.2913058173
 30
0.0
  0
SPLINE
  5
36A
100
AcDbEntity
  8
0
100
AcDbSpline
 62
7
  6
CONTINUOUS
 70
0
 71
3
 72
55
 73
51
 74
0
 42
0.0000001
 43
0.0000001
 44
0.0000000001
 40
0.0
 40
0.0
 40
0.0
 40
0.0
 40
0.040204627
 40
0.0808601794
 40
0.1218549376
 40
0.1630757952
 40
0.2044089592
 40
0.2457401997
 40
0.2869553087
 40
0.3279404803
 40
0.3685827186
 40
0.4087702383
 40
0.448392871
 40
0.4873424742
 40
0.5255133477
 40
0.5628026575
 40
0.599110874
 40
0.6343422279
 40
0.6515255109
 40
0.6684056175
 40
0.6849718741
 40
0.7012139011
 40
0.717121715
 40
0.7326856566
 40
0.7478965154
 40
0.7627454424
 40
0.7772240977
 40
0.7913245496
 40
0.8050394466
 40
0.8183619063
 40
0.8312857127
 40
0.8438052008
 40
0.8559154813
 40
0.8676123275
 40
0.878892431
 40
0.8897533034
 40
0.9001935674
 40
0.9102128889
 40
0.919812314
 40
0.9289942541
 40
0.9377628825
 40
0.9461242022
 40
0.9540865239
 40
0.9616606489
 40
0.968860447
 40
0.9757031761
 40
0.9822101458
 40
0.9884071311
 40
0.9943249983
 40
1.0
 40
1.0
 40
1.0
 40
1.0
 10
14.6977283035
 20
7.498842691
 30
0.0
 10
14.6977283035
 20
7.4779003606
 30
0.0
 10
14.6974201382
 20
7.4357802264
 30
0.0
 10
14.6960564136
 20
7.3723194578
 30
0.0
 10
14.6937921693
 20
7.3083546628
 30
0.0
 10
14.6906340246
 20
7.2440744473
 30
0.0
 10
14.6865912655
 20
7.1796681884
 30
0.0
 10
14.6816757914
 20
7.1153256564
 30
0.0
 10
14.6759020964
 20
7.0512364333
 30
0.0
 10
14.6692872177
 20
6.9875893484
 30
0.0
 10
14.6618506897
 20
6.9245719218
 30
0.0
 10
14.6536144853
 20
6.8623698058
 30
0.0
 10
14.6446029525
 20
6.8011662362
 30
0.0
 10
14.6348427442
 20
6.7411414812
 30
0.0
 10
14.6243627387
 20
6.6824723255
 30
0.0
 10
14.6131939639
 20
6.6253314639
 30
0.0
 10
14.6013694818
 20
6.5698872611
 30
0.0
 10
14.5909136276
 20
6.5248673629
 30
0.0
 10
14.5822358169
 20
6.4898303261
 30
0.0
 10
14.5756398122
 20
6.4642953594
 30
0.0
 10
14.568907045
 20
6.4393035371
 30
0.0
 10
14.5620424098
 20
6.4148732468
 30
0.0
 10
14.5550510381
 20
6.3910224784
 30
0.0
 10
14.5479380278
 20
6.3677687938
 30
0.0
 10
14.5407086996
 20
6.3451293026
 30
0.0
 10
14.5333683166
 20
6.3231206714
 30
0.0
 10
14.5259223786
 20
6.3017590809
 30
0.0
 10
14.5183762958
 20
6.2810602509
 30
0.0
 10
14.5107357304
 20
6.2610393818
 30
0.0
 10
14.5030062216
 20
6.2417111981
 30
0.0
 10
14.4951935754
 20
6.2230898703
 30
0.0
 10
14.4873034403
 20
6.2051890813
 30
0.0
 10
14.4793417445
 20
6.1880219231
 30
0.0
 10
14.4713142238
 20
6.1716009931
 30
0.0
 10
14.4632269025
 20
6.1559382577
 30
0.0
 10
14.4550855766
 20
6.1410451866
 30
0.0
 10
14.4468963333
 20
6.126932576
 30
0.0
 10
14.4386649933
 20
6.1136107294
 30
0.0
 10
14.4303976604
 20
6.1010892327
 30
0.0
 10
14.4221001305
 20
6.0893771931
 30
0.0
 10
14.4137784574
 20
6.0784829595
 30
0.0
 10
14.4054383395
 20
6.0684144342
 30
0.0
 10
14.3970856873
 20
6.0591787372
 30
0.0
 10
14.3887260019
 20
6.0507826107
 30
0.0
 10
14.3803649422
 20
6.0432320385
 30
0.0
 10
14.3720076997
 20
6.0365327597
 30
0.0
 10
14.3636596942
 20
6.0306898944
 30
0.0
 10
14.355325608
 20
6.0257084473
 30
0.0
 10
14.3470117418
 20
6.0215933701
 30
0.0
 10
14.3413792548
 20
6.0193891764
 30
0.0
 10
14.3385782559
 20
6.0184443138
 30
0.0
  0
SPLINE
  5
36B
100
AcDbEntity
  8
0
100
AcDbSpline
 62
7
  6
CONTINUOUS
 70
0
 71
3
 72
65
 73
61
 74
0
 42
0.0000001
 43
0.0000001
 44
0.0000000001
 40
0.0
 40
0.0
 40
0.0
 40
0.0
 40
0.0452101927
 40
0.0910010513
 40
0.1371886991
 40
0.1835861507
 40
0.2300058742
 40
0.2762600571
 40
0.3221617787
 40
0.3675259239
 40
0.4121701674
 40
0.4559159554
 40
0.4985895022
 40
0.5400228122
 40
0.5602240273
 40
0.5800553529
 40
0.5994979231
 40
0.6185334196
 40
0.637144134
 40
0.6553130526
 40
0.6730237993
 40
0.6902608414
 40
0.707009362
 40
0.7232555034
 40
0.7389862877
 40
0.7541897856
 40
0.7688551946
 40
0.7829728765
 40
0.7965346271
 40
0.809533628
 40
0.8219648495
 40
0.8338250638
 40
0.8451132732
 40
0.855830963
 40
0.8659825122
 40
0.8755758034
 40
0.8846227048
 40
0.8931400696
 40
0.9011504878
 40
0.9086836016
 40
0.9157772462
 40
0.9224787885
 40
0.9288462102
 40
0.9319270747
 40
0.9349512235
 40
0.9379289194
 40
0.94087095
 40
0.9437885423
 40
0.9466932401
 40
0.9495967481
 40
0.9525107896
 40
0.9554469506
 40
0.9584165283
 40
0.9614304164
 40
0.964498997
 40
0.9708362237
 40
0.9775011049
 40
0.9845526874
 40
0.9920394154
 40
1.0
 40
1.0
 40
1.0
 40
1.0
 10
14.6045535241
 20
7.40884276
 30
0.0
 10
14.6045535241
 20
7.3911465412
 30
0.0
 10
14.6042379233
 20
7.3555261025
 30
0.0
 10
14.6028462832
 20
7.3018431933
 30
0.0
 10
14.6005386861
 20
7.2477265972
 30
0.0
 10
14.597324978
 20
7.1934097417
 30
0.0
 10
14.5932190222
 20
7.1391269118
 30
0.0
 10
14.5882385258
 20
7.0851121626
 30
0.0
 10
14.5824050217
 20
7.0315984161
 30
0.0
 10
14.5757437531
 20
6.9788164033
 30
0.0
 10
14.5682835731
 20
6.9269936892
 30
0.0
 10
14.5600568348
 20
6.8763535936
 30
0.0
 10
14.5510992089
 20
6.8271145125
 30
0.0
 10
14.542991161
 20
6.78709606
 30
0.0
 10
14.5361569021
 20
6.755949049
 30
0.0
 10
14.5309166067
 20
6.7332661836
 30
0.0
 10
14.5255243038
 20
6.7110882728
 30
0.0
 10
14.5199857829
 20
6.6894392063
 30
0.0
 10
14.514307025
 20
6.6683423255
 30
0.0
 10
14.5084942174
 20
6.6478203611
 30
0.0
 10
14.5025535777
 20
6.6278954299
 30
0.0
 10
14.4964916164
 20
6.6085889823
 30
0.0
 10
14.4903148073
 20
6.5899218134
 30
0.0
 10
14.484029901
 20
6.5719140003
 30
0.0
 10
14.4776436523
 20
6.5545849134
 30
0.0
 10
14.4711629724
 20
6.5379531718
 30
0.0
 10
14.4645948955
 20
6.5220366212
 30
0.0
 10
14.4579464448
 20
6.5068523398
 30
0.0
 10
14.4512248831
 20
6.4924165547
 30
0.0
 10
14.444437335
 20
6.4787447131
 30
0.0
 10
14.4375911854
 20
6.465851346
 30
0.0
 10
14.4306936679
 20
6.4537501655
 30
0.0
 10
14.4237521457
 20
6.4424539503
 30
0.0
 10
14.4167739251
 20
6.431974575
 30
0.0
 10
14.409766195
 20
6.4223230287
 30
0.0
 10
14.4027361909
 20
6.4135092884
 30
0.0
 10
14.3956907585
 20
6.4055425638
 30
0.0
 10
14.3886367787
 20
6.3984310274
 30
0.0
 10
14.3815805525
 20
6.3921822742
 30
0.0
 10
14.3745283328
 20
6.3868031533
 30
0.0
 10
14.367485647
 20
6.3823002043
 30
0.0
 10
14.3604590056
 20
6.3786801352
 30
0.0
 10
14.3545561375
 20
6.3763794356
 30
0.0
 10
14.3498686122
 20
6.3750066464
 30
0.0
 10
14.3464011942
 20
6.374211588
 30
0.0
 10
14.3429450058
 20
6.373640316
 30
0.0
 10
14.3395009827
 20
6.3732930945
 30
0.0
 10
14.3360702197
 20
6.3731701782
 30
0.0
 10
14.3326538059
 20
6.3732715745
 30
0.0
 10
14.3292528325
 20
6.3735972673
 30
0.0
 10
14.3258684022
 20
6.3741472148
 30
0.0
 10
14.3225015838
 20
6.3749211683
 30
0.0
 10
14.3191534266
 20
6.3759187428
 30
0.0
 10
14.3158248452
 20
6.3771396376
 30
0.0
 10
14.3113670892
 20
6.3790851084
 30
0.0
 10
14.3058311659
 20
6.382101992
 30
0.0
 10
14.2993610376
 20
6.3865681995
 30
0.0
 10
14.2929962349
 20
6.3919117416
 30
0.0
 10
14.2867427764
 20
6.3981248972
 30
0.0
 10
14.2827770024
 20
6.4026966188
 30
0.0
 10
14.280810936
 20
6.4051139861
 30
0.0
  0
SPLINE
  5
36C
100
AcDbEntity
  8
0
100
AcDbSpline
 62
7
  6
CONTINUOUS
 70
0
 71
3
 72
57
 73
53
 74
0
 42
0.0000001
 43
0.0000001
 44
0.0000000001
 40
0.0
 40
0.0
 40
0.0
 40
0.0
 40
0.0417736534
 40
0.0840366016
 40
0.1266578211
 40
0.1695056346
 40
0.21244701
 40
0.2553487447
 40
0.2980777184
 40
0.3405015169
 40
0.3824889248
 40
0.4239104649
 40
0.4646389286
 40
0.5045499179
 40
0.5435223959
 40
0.5814392547
 40
0.6181879055
 40
0.6536609025
 40
0.670887291
 40
0.6877571705
 40
0.7042588558
 40
0.7203811606
 40
0.7361133347
 40
0.7514452242
 40
0.7663671439
 40
0.7808701133
 40
0.794945674
 40
0.8085861929
 40
0.8217846464
 40
0.8345349745
 40
0.8468318643
 40
0.858671133
 40
0.8700495541
 40
0.8809652503
 40
0.8914176071
 40
0.9014076696
 40
0.9109381913
 40
0.9200140439
 40
0.9286424511
 40
0.9368334399
 40
0.9446003045
 40
0.9519601344
 40
0.9589345191
 40
0.9655501451
 40
0.9718396237
 40
0.9778419676
 40
0.9836031197
 40
0.9891757627
 40
0.9919106391
 40
0.994620898
 40
0.9973146063
 40
1.0
 40
1.0
 40
1.0
 40
1.0
 10
14.5065739469
 20
7.3942017503
 30
0.0
 10
14.5065739469
 20
7.3802098896
 30
0.0
 10
14.5063556531
 20
7.3520618418
 30
0.0
 10
14.5053906501
 20
7.3096479892
 30
0.0
 10
14.5037889494
 20
7.2668933002
 30
0.0
 10
14.5015558468
 20
7.2239394453
 30
0.0
 10
14.4986986892
 20
7.1809284206
 30
0.0
 10
14.4952269389
 20
7.1380025698
 30
0.0
 10
14.4911520881
 20
7.0953038913
 30
0.0
 10
14.4864876485
 20
7.0529736488
 30
0.0
 10
14.4812490945
 20
7.0111518713
 30
0.0
 10
14.4754538176
 20
6.9699768959
 30
0.0
 10
14.4691210679
 20
6.9295849037
 30
0.0
 10
14.462271893
 20
6.8901094595
 30
0.0
 10
14.4549290665
 20
6.8516810825
 30
0.0
 10
14.4471170243
 20
6.814426737
 30
0.0
 10
14.4388617514
 20
6.7784696449
 30
0.0
 10
14.431566629
 20
6.7494087025
 30
0.0
 10
14.4255196735
 20
6.7269046991
 30
0.0
 10
14.4209353154
 20
6.7105885951
 30
0.0
 10
14.4162613633
 20
6.6946830003
 30
0.0
 10
14.4115017114
 20
6.6792010427
 30
0.0
 10
14.4066602566
 20
6.6641555261
 30
0.0
 10
14.4017410824
 20
6.6495588695
 30
0.0
 10
14.3967481849
 20
6.6354231382
 30
0.0
 10
14.3916857988
 20
6.6217599857
 30
0.0
 10
14.3865580145
 20
6.6085807007
 30
0.0
 10
14.3813691949
 20
6.595896127
 30
0.0
 10
14.3761235165
 20
6.5837167369
 30
0.0
 10
14.3708254437
 20
6.5720525242
 30
0.0
 10
14.3654792309
 20
6.5609131044
 30
0.0
 10
14.360089411
 20
6.5503075835
 30
0.0
 10
14.354660305
 20
6.5402446801
 30
0.0
 10
14.3491964749
 20
6.5307325787
 30
0.0
 10
14.3437022887
 20
6.521779061
 30
0.0
 10
14.3381822875
 20
6.5133913624
 30
0.0
 10
14.3326408509
 20
6.5055762928
 30
0.0
 10
14.327082432
 20
6.498340126
 30
0.0
 10
14.3215113615
 20
6.4916886815
 30
0.0
 10
14.3159319137
 20
6.4856272973
 30
0.0
 10
14.3103482801
 20
6.4801608354
 30
0.0
 10
14.3047644538
 20
6.4752938122
 30
0.0
 10
14.2991844031
 20
6.4710302854
 30
0.0
 10
14.2936118096
 20
6.46737423
 30
0.0
 10
14.2880505375
 20
6.4643292385
 30
0.0
 10
14.2825041715
 20
6.4618991606
 30
0.0
 10
14.2769775073
 20
6.4600874394
 30
0.0
 10
14.2723619413
 20
6.4590898119
 30
0.0
 10
14.2687011085
 20
6.4586114218
 30
0.0
 10
14.265980973
 20
6.4584099555
 30
0.0
 10
14.2632704847
 20
6.4583638721
 30
0.0
 10
14.2614690784
 20
6.458436757
 30
0.0
 10
14.2605717754
 20
6.4584989859
 30
0.0
  0
SPLINE
  5
36D
100
AcDbEntity
  8
0
100
AcDbSpline
 62
7
  6
CONTINUOUS
 70
0
 71
3
 72
61
 73
57
 74
0
 42
0.0000001
 43
0.0000001
 44
0.0000000001
 40
0.0
 40
0.0
 40
0.0
 40
0.0
 40
0.0417736088
 40
0.0840360431
 40
0.126657155
 40
0.1695046842
 40
0.2124458378
 40
0.2553473321
 40
0.2980760744
 40
0.3404996436
 40
0.3824868274
 40
0.4239081481
 40
0.4646363976
 40
0.5045471783
 40
0.5435194547
 40
0.5814361204
 40
0.5999634452
 40
0.6181850312
 40
0.6360876424
 40
0.6536583488
 40
0.6708846631
 40
0.6877544565
 40
0.7042560738
 40
0.7203782989
 40
0.7361104104
 40
0.7514422273
 40
0.7663640903
 40
0.7808669935
 40
0.7949425048
 40
0.8085829615
 40
0.8217813757
 40
0.8345316441
 40
0.8468285057
 40
0.8586677174
 40
0.8700461208
 40
0.8809617639
 40
0.8914141105
 40
0.9014041268
 40
0.9109346407
 40
0.9200104579
 40
0.9286388542
 40
0.9368298218
 40
0.9445966692
 40
0.9519564915
 40
0.9589308526
 40
0.9655464796
 40
0.97183593
 40
0.9778382749
 40
0.9807467215
 40
0.9836011958
 40
0.9864085004
 40
0.9891758164
 40
0.9919106777
 40
0.9946209229
 40
0.9973146203
 40
1.0
 40
1.0
 40
1.0
 40
1.0
 10
14.7595475615
 20
10.6338146324
 30
0.0
 10
14.7595475615
 20
10.6116141413
 30
0.0
 10
14.7592012122
 20
10.5669526762
 30
0.0
 10
14.7576700532
 20
10.4996560944
 30
0.0
 10
14.7551287172
 20
10.4318188421
 30
0.0
 10
14.7515855219
 20
10.3636654244
 30
0.0
 10
14.7470521842
 20
10.2954213659
 30
0.0
 10
14.7415436855
 20
10.2273124224
 30
0.0
 10
14.7350782743
 20
10.1595639303
 30
0.0
 10
14.7276773828
 20
10.0924000161
 30
0.0
 10
14.7193655652
 20
10.0260428633
 30
0.0
 10
14.7101704147
 20
9.9607119628
 30
0.0
 10
14.700122473
 20
9.8966234014
 30
0.0
 10
14.6892551399
 20
9.8339890577
 30
0.0
 10
14.6776045366
 20
9.7730161796
 30
0.0
 10
14.6671969638
 20
9.7233836992
 30
0.0
 10
14.6584966819
 20
9.6846678473
 30
0.0
 10
14.6518505216
 20
9.6563935402
 30
0.0
 10
14.6450388936
 20
9.6286818843
 30
0.0
 10
14.6380673421
 20
9.6015557824
 30
0.0
 10
14.6309417274
 20
9.575037668
 30
0.0
 10
14.6236678957
 20
9.5491494713
 30
0.0
 10
14.6162519219
 20
9.5239125911
 30
0.0
 10
14.6086999361
 20
9.499347889
 30
0.0
 10
14.6010181953
 20
9.4754756642
 30
0.0
 10
14.5932131019
 20
9.4523156335
 30
0.0
 10
14.5852910707
 20
9.4298869297
 30
0.0
 10
14.5772587476
 20
9.4082080538
 30
0.0
 10
14.5691226982
 20
9.3872969053
 30
0.0
 10
14.5608897616
 20
9.3671707045
 30
0.0
 10
14.5525666619
 20
9.3478460479
 30
0.0
 10
14.5441603657
 20
9.329338818
 30
0.0
 10
14.5356777634
 20
9.3116642366
 30
0.0
 10
14.5271258821
 20
9.2948367976
 30
0.0
 10
14.5185117671
 20
9.2788702763
 30
0.0
 10
14.5098424468
 20
9.2637777303
 30
0.0
 10
14.5011250759
 20
9.2495714222
 30
0.0
 10
14.4923666304
 20
9.2362629281
 30
0.0
 10
14.4835742809
 20
9.2238629506
 30
0.0
 10
14.4747548937
 20
9.2123815456
 30
0.0
 10
14.4659155009
 20
9.2018278579
 30
0.0
 10
14.4570627769
 20
9.1922104187
 30
0.0
 10
14.4482034173
 20
9.1835369245
 30
0.0
 10
14.4393437737
 20
9.1758144947
 30
0.0
 10
14.4304900922
 20
9.1690497048
 30
0.0
 10
14.4216481989
 20
9.163248588
 30
0.0
 10
14.4128246428
 20
9.1584173709
 30
0.0
 10
14.4054139367
 20
9.1551703858
 30
0.0
 10
14.3995173605
 20
9.1530839743
 30
0.0
 10
14.3951511067
 20
9.1517805446
 30
0.0
 10
14.3907960785
 20
9.150722644
 30
0.0
 10
14.3864531229
 20
9.1499105858
 30
0.0
 10
14.3821232429
 20
9.1493446815
 30
0.0
 10
14.37780738
 20
9.1490250598
 30
0.0
 10
14.3735067209
 20
9.14895183
 30
0.0
 10
14.3706484926
 20
9.1490674377
 30
0.0
 10
14.3692247727
 20
9.1491661667
 30
0.0
  0
SPLINE
  5
36E
100
AcDbEntity
  8
0
100
AcDbSpline
 62
7
  6
CONTINUOUS
 70
0
 71
3
 72
49
 73
45
 74
0
 42
0.0000001
 43
0.0000001
 44
0.0000000001
 40
0.0
 40
0.0
 40
0.0
 40
0.0
 40
0.0151888453
 40
0.0231979019
 40
0.0315095484
 40
0.0401418088
 40
0.0491103936
 40
0.0584287456
 40
0.0681082746
 40
0.0781582455
 40
0.0885860322
 40
0.0993971491
 40
0.1105951758
 40
0.1221821886
 40
0.1341582438
 40
0.1465221548
 40
0.1592707688
 40
0.1723997581
 40
0.1859030987
 40
0.199773516
 40
0.2140024247
 40
0.2285798901
 40
0.2434950797
 40
0.274289353
 40
0.3062789429
 40
0.3393467733
 40
0.3733690174
 40
0.4082192058
 40
0.4437720483
 40
0.4799066616
 40
0.5165091425
 40
0.5534744625
 40
0.5907075255
 40
0.6281236026
 40
0.6656482212
 40
0.7032166156
 40
0.7407729557
 40
0.7782692974
 40
0.8156643736
 40
0.852922502
 40
0.8900123997
 40
0.9269054121
 40
0.963577154
 40
1.0
 40
1.0
 40
1.0
 40
1.0
 10
11.3971343801
 20
8.8191956953
 30
0.0
 10
11.3971339409
 20
8.8232973292
 30
0.0
 10
11.3967654938
 20
8.8295661554
 30
0.0
 10
11.3956581082
 20
8.8380041622
 30
0.0
 10
11.3944827103
 20
8.8446416642
 30
0.0
 10
11.392981618
 20
8.8514779489
 30
0.0
 10
11.3911588742
 20
8.8585166442
 30
0.0
 10
11.3890201001
 20
8.8657609326
 30
0.0
 10
11.386570749
 20
8.8732140212
 30
0.0
 10
11.3838174758
 20
8.8808791931
 30
0.0
 10
11.3807674565
 20
8.8887596215
 30
0.0
 10
11.3774284463
 20
8.8968582584
 30
0.0
 10
11.3738094042
 20
8.9051780987
 30
0.0
 10
11.3699194333
 20
8.9137215605
 30
0.0
 10
11.3657691465
 20
8.922491177
 30
0.0
 10
11.3613692585
 20
8.9314887182
 30
0.0
 10
11.3567318621
 20
8.940715939
 30
0.0
 10
11.3518694018
 20
8.950173861
 30
0.0
 10
11.3467953209
 20
8.9598632166
 30
0.0
 10
11.3415237005
 20
8.9697841497
 30
0.0
 10
11.3360692454
 20
8.9799362325
 30
0.0
 10
11.3304474325
 20
8.9903185846
 30
0.0
 10
11.3226666732
 20
9.0046189147
 30
0.0
 10
11.3126159282
 20
9.0230370772
 30
0.0
 10
11.3002778023
 20
9.0457913715
 30
0.0
 10
11.2876763732
 20
9.06939409
 30
0.0
 10
11.2749510221
 20
9.0938051557
 30
0.0
 10
11.2622389329
 20
9.1189776658
 30
0.0
 10
11.2496725839
 20
9.1448593341
 30
0.0
 10
11.2373775732
 20
9.1713939263
 30
0.0
 10
11.2254709443
 20
9.1985226142
 30
0.0
 10
11.214060109
 20
9.2261851788
 30
0.0
 10
11.2032422621
 20
9.2543209681
 30
0.0
 10
11.193104256
 20
9.2828695873
 30
0.0
 10
11.1837227825
 20
9.3117713293
 30
0.0
 10
11.1751648227
 20
9.3409674082
 30
0.0
 10
11.1674880235
 20
9.37039994
 30
0.0
 10
11.160741457
 20
9.4000118704
 30
0.0
 10
11.1549662597
 20
9.429746753
 30
0.0
 10
11.1501962445
 20
9.4595484892
 30
0.0
 10
11.146458413
 20
9.4893607852
 30
0.0
 10
11.1437729597
 20
9.5191275874
 30
0.0
 10
11.1421545081
 20
9.548790812
 30
0.0
 10
11.1417910468
 20
9.5685312799
 30
0.0
 10
11.1417910468
 20
9.5783669965
 30
0.0
  0
SPLINE
  5
36F
100
AcDbEntity
  8
0
100
AcDbSpline
 62
7
  6
CONTINUOUS
 70
0
 71
3
 72
28
 73
24
 74
0
 42
0.0000001
 43
0.0000001
 44
0.0000000001
 40
0.0
 40
0.0
 40
0.0
 40
0.0
 40
0.0637758941
 40
0.0955879065
 40
0.1273462157
 40
0.1907019646
 40
0.2538545302
 40
0.2853587825
 40
0.3168148204
 40
0.379582186
 40
0.4421719279
 40
0.504596336
 40
0.566869323
 40
0.6290062994
 40
0.6910240361
 40
0.7219962863
 40
0.7529455528
 40
0.8147797337
 40
0.8765514554
 40
0.9074228165
 40
0.9382862783
 40
0.9691444605
 40
1.0
 40
1.0
 40
1.0
 40
1.0
 10
8.4420019829
 20
6.9242378602
 30
0.0
 10
8.4420019829
 20
6.9375220817
 30
0.0
 10
8.442479326
 20
6.9574370247
 30
0.0
 10
8.4440762493
 20
6.983916395
 30
0.0
 10
8.4463072237
 20
7.0102625776
 30
0.0
 10
8.4502858517
 20
7.0430017419
 30
0.0
 10
8.4558533371
 20
7.0754550279
 30
0.0
 10
8.4612497719
 20
7.1011658796
 30
0.0
 10
8.4672614274
 20
7.1266573745
 30
0.0
 10
8.4759384708
 20
7.1581623744
 30
0.0
 10
8.4881965642
 20
7.1953227433
 30
0.0
 10
8.5022649765
 20
7.23172644
 30
0.0
 10
8.5181113019
 20
7.2672890762
 30
0.0
 10
8.5356987578
 20
7.3019282438
 30
0.0
 10
8.5517802319
 20
7.3299719395
 30
0.0
 10
8.5654716404
 20
7.351861078
 30
0.0
 10
8.5796966159
 20
7.3733615142
 30
0.0
 10
8.5984857147
 20
7.3995211967
 30
0.0
 10
8.6185816665
 20
7.4246702927
 30
0.0
 10
8.6354051274
 20
7.4441359289
 30
0.0
 10
8.6483889711
 20
7.4584006736
 30
0.0
 10
8.661732818
 20
7.4723243267
 30
0.0
 10
8.670864184
 20
7.4813744234
 30
0.0
 10
8.675486878
 20
7.4858396072
 30
0.0
  0
SPLINE
  5
370
100
AcDbEntity
  8
0
100
AcDbSpline
 62
7
  6
CONTINUOUS
 70
0
 71
3
 72
51
 73
47
 74
0
 42
0.0000001
 43
0.0000001
 44
0.0000000001
 40
0.0
 40
0.0
 40
0.0
 40
0.0
 40
0.0055575483
 40
0.0111779716
 40
0.01692191
 40
0.0228457685
 40
0.029000541
 40
0.0354309187
 40
0.0421753321
 40
0.0492661787
 40
0.0567301751
 40
0.0645892818
 40
0.072860934
 40
0.0815589354
 40
0.0906938799
 40
0.1002734384
 40
0.1103031157
 40
0.1207861166
 40
0.1317239771
 40
0.1431166596
 40
0.1549625852
 40
0.1672591636
 40
0.1800024627
 40
0.1931876894
 40
0.2068091423
 40
0.2208601567
 40
0.2502201891
 40
0.2812020358
 40
0.3137291498
 40
0.3477165256
 40
0.3830717054
 40
0.4196956132
 40
0.4574832856
 40
0.4963245986
 40
0.5361048951
 40
0.5767055669
 40
0.6180046028
 40
0.6598771293
 40
0.7021959705
 40
0.7448321944
 40
0.7876555817
 40
0.8305351627
 40
0.8733399838
 40
0.9159382941
 40
0.9582023666
 40
1.0
 40
1.0
 40
1.0
 40
1.0
 10
12.6761742968
 20
10.9731158879
 30
0.0
 10
12.6761742894
 20
10.9739668781
 30
0.0
 10
12.6762695301
 20
10.9756799681
 30
0.0
 10
12.6766970869
 20
10.9782404722
 30
0.0
 10
12.6774087074
 20
10.9807952436
 30
0.0
 10
12.6784028499
 20
10.9833413761
 30
0.0
 10
12.679678059
 20
10.9858767315
 30
0.0
 10
12.6812324775
 20
10.9883994309
 30
0.0
 10
12.6830643959
 20
10.99090772
 30
0.0
 10
12.6851720423
 20
10.9933998735
 30
0.0
 10
12.687553451
 20
10.995874299
 30
0.0
 10
12.6902067241
 20
10.9983291704
 30
0.0
 10
12.6931296266
 20
11.0007628198
 30
0.0
 10
12.6963198524
 20
11.0031734167
 30
0.0
 10
12.6997748732
 20
11.0055591033
 30
0.0
 10
12.7034918938
 20
11.0079181192
 30
0.0
 10
12.7074679973
 20
11.0102485062
 30
0.0
 10
12.7116999541
 20
11.0125484965
 30
0.0
 10
12.7161843779
 20
11.0148162088
 30
0.0
 10
12.7209176554
 20
11.0170497863
 30
0.0
 10
12.7258959353
 20
11.0192474871
 30
0.0
 10
12.7311152064
 20
11.0214074292
 30
0.0
 10
12.7365712054
 20
11.0235279251
 30
0.0
 10
12.7422594995
 20
11.0256071999
 30
0.0
 10
12.748175462
 20
11.0276435554
 30
0.0
 10
12.7564825526
 20
11.0303387975
 30
0.0
 10
12.7674056296
 20
11.0335785491
 30
0.0
 10
12.7811550832
 20
11.0372150146
 30
0.0
 10
12.7956868752
 20
11.0406429146
 30
0.0
 10
12.8109535135
 20
11.0438509208
 30
0.0
 10
12.8269052262
 20
11.0468283963
 30
0.0
 10
12.8434898825
 20
11.0495654793
 30
0.0
 10
12.8606532472
 20
11.0520531199
 30
0.0
 10
12.8783391558
 20
11.0542830916
 30
0.0
 10
12.8964897163
 20
11.0562480208
 30
0.0
 10
12.915045499
 20
11.0579414089
 30
0.0
 10
12.9339457303
 20
11.059357655
 30
0.0
 10
12.9531284933
 20
11.0604920891
 30
0.0
 10
12.9725309411
 20
11.0613409686
 30
0.0
 10
12.9920895021
 20
11.0619014897
 30
0.0
 10
13.0117400868
 20
11.062171798
 30
0.0
 10
13.031418334
 20
11.0621510007
 30
0.0
 10
13.051059652
 20
11.0618391525
 30
0.0
 10
13.0705999558
 20
11.0612373324
 30
0.0
 10
13.0899748426
 20
11.0603474534
 30
0.0
 10
13.1028230997
 20
11.0595590136
 30
0.0
 10
13.1092079564
 20
11.0591162223
 30
0.0
  0
SPLINE
  5
371
100
AcDbEntity
  8
0
100
AcDbSpline
 62
7
  6
CONTINUOUS
 70
0
 71
3
 72
51
 73
47
 74
0
 42
0.0000001
 43
0.0000001
 44
0.0000000001
 40
0.0
 40
0.0
 40
0.0
 40
0.0
 40
0.0055575483
 40
0.0111779716
 40
0.01692191
 40
0.0228457685
 40
0.029000541
 40
0.0354309187
 40
0.0421753321
 40
0.0492661787
 40
0.0567301751
 40
0.0645892818
 40
0.072860934
 40
0.0815589354
 40
0.0906938799
 40
0.1002734384
 40
0.1103031157
 40
0.1207861166
 40
0.1317239771
 40
0.1431166596
 40
0.1549625852
 40
0.1672591636
 40
0.1800024627
 40
0.1931876894
 40
0.2068091423
 40
0.2208601567
 40
0.2502201891
 40
0.2812020358
 40
0.3137291498
 40
0.3477165256
 40
0.3830717054
 40
0.4196956132
 40
0.4574832856
 40
0.4963245986
 40
0.5361048951
 40
0.5767055669
 40
0.6180046028
 40
0.6598771293
 40
0.7021959705
 40
0.7448321944
 40
0.7876555817
 40
0.8305351627
 40
0.8733399838
 40
0.9159382941
 40
0.9582023666
 40
1.0
 40
1.0
 40
1.0
 40
1.0
 10
8.0880265228
 20
11.2913050167
 30
0.0
 10
8.0880265154
 20
11.2921560069
 30
0.0
 10
8.0881217561
 20
11.293869097
 30
0.0
 10
8.0885493129
 20
11.2964296011
 30
0.0
 10
8.0892609334
 20
11.2989843724
 30
0.0
 10
8.0902550759
 20
11.3015305049
 30
0.0
 10
8.091530285
 20
11.3040658603
 30
0.0
 10
8.0930847035
 20
11.3065885597
 30
0.0
 10
8.0949166219
 20
11.3090968489
 30
0.0
 10
8.0970242683
 20
11.3115890023
 30
0.0
 10
8.099405677
 20
11.3140634279
 30
0.0
 10
8.1020589501
 20
11.3165182992
 30
0.0
 10
8.1049818526
 20
11.3189519486
 30
0.0
 10
8.1081720784
 20
11.3213625455
 30
0.0
 10
8.1116270992
 20
11.3237482322
 30
0.0
 10
8.1153441198
 20
11.3261072481
 30
0.0
 10
8.1193202233
 20
11.3284376351
 30
0.0
 10
8.12355218
 20
11.3307376253
 30
0.0
 10
8.1280366039
 20
11.3330053376
 30
0.0
 10
8.1327698814
 20
11.3352389151
 30
0.0
 10
8.1377481613
 20
11.3374366159
 30
0.0
 10
8.1429674324
 20
11.339596558
 30
0.0
 10
8.1484234314
 20
11.3417170539
 30
0.0
 10
8.1541117255
 20
11.3437963287
 30
0.0
 10
8.160027688
 20
11.3458326842
 30
0.0
 10
8.1683347786
 20
11.3485279263
 30
0.0
 10
8.1792578556
 20
11.351767678
 30
0.0
 10
8.1930073092
 20
11.3554041434
 30
0.0
 10
8.2075391012
 20
11.3588320434
 30
0.0
 10
8.2228057395
 20
11.3620400496
 30
0.0
 10
8.2387574522
 20
11.3650175251
 30
0.0
 10
8.2553421085
 20
11.3677546081
 30
0.0
 10
8.2725054732
 20
11.3702422488
 30
0.0
 10
8.2901913817
 20
11.3724722204
 30
0.0
 10
8.3083419423
 20
11.3744371497
 30
0.0
 10
8.326897725
 20
11.3761305378
 30
0.0
 10
8.3457979563
 20
11.3775467839
 30
0.0
 10
8.3649807193
 20
11.3786812179
 30
0.0
 10
8.3843831671
 20
11.3795300974
 30
0.0
 10
8.403941728
 20
11.3800906186
 30
0.0
 10
8.4235923128
 20
11.3803609268
 30
0.0
 10
8.44327056
 20
11.3803401295
 30
0.0
 10
8.462911878
 20
11.3800282813
 30
0.0
 10
8.4824521817
 20
11.3794264612
 30
0.0
 10
8.5018270686
 20
11.3785365822
 30
0.0
 10
8.5146753257
 20
11.3777481424
 30
0.0
 10
8.5210601824
 20
11.3773053511
 30
0.0
  0
SPLINE
  5
372
100
AcDbEntity
  8
0
100
AcDbSpline
 62
7
  6
CONTINUOUS
 70
0
 71
3
 72
54
 73
50
 74
0
 42
0.0000001
 43
0.0000001
 44
0.0000000001
 40
0.0
 40
0.0
 40
0.0
 40
0.0
 40
0.0149714207
 40
0.0299459009
 40
0.0449264795
 40
0.0599161607
 40
0.0749178924
 40
0.0899345474
 40
0.1049689109
 40
0.1200236599
 40
0.135101347
 40
0.1502043904
 40
0.1653350555
 40
0.1804954423
 40
0.195687479
 40
0.210912906
 40
0.2261732683
 40
0.2414699124
 40
0.2568039734
 40
0.2721763729
 40
0.2875878193
 40
0.3030387972
 40
0.3185295728
 40
0.3340601946
 40
0.3496304877
 40
0.3652400644
 40
0.3808883259
 40
0.3965744612
 40
0.4122974619
 40
0.4280561242
 40
0.4438490534
 40
0.4596746808
 40
0.4914119437
 40
0.5232571513
 40
0.5551923202
 40
0.587197651
 40
0.6192519366
 40
0.651332993
 40
0.6834181045
 40
0.7154844744
 40
0.7475096792
 40
0.7794721147
 40
0.8113514322
 40
0.8431289588
 40
0.8747880885
 40
0.9063146442
 40
0.9376972366
 40
0.9689272309
 40
1.0
 40
1.0
 40
1.0
 40
1.0
 10
9.8718414592
 20
6.2472841762
 30
0.0
 10
9.8646989276
 20
6.2403850141
 30
0.0
 10
9.8501364689
 20
6.2268676902
 30
0.0
 10
9.8275018414
 20
6.2074736469
 30
0.0
 10
9.8041050906
 20
6.1889858714
 30
0.0
 10
9.7799788896
 20
6.1714301876
 30
0.0
 10
9.7551562443
 20
6.1548307475
 30
0.0
 10
9.7296714162
 20
6.139210327
 30
0.0
 10
9.703559475
 20
6.1245903863
 30
0.0
 10
9.6768563017
 20
6.1109911461
 30
0.0
 10
9.6495987099
 20
6.0984311845
 30
0.0
 10
9.6218241946
 20
6.0869277911
 30
0.0
 10
9.5935709445
 20
6.0764968669
 30
0.0
 10
9.5648778878
 20
6.0671526109
 30
0.0
 10
9.53578448
 20
6.0589079215
 30
0.0
 10
9.5063307406
 20
6.051774174
 30
0.0
 10
9.4765572223
 20
6.0457610293
 30
0.0
 10
9.4465048616
 20
6.0408768339
 30
0.0
 10
9.4162150028
 20
6.0371282911
 30
0.0
 10
9.3857293211
 20
6.0345204209
 30
0.0
 10
9.3550897348
 20
6.0330569096
 30
0.0
 10
9.3243383903
 20
6.0327397067
 30
0.0
 10
9.2935175744
 20
6.0335691428
 30
0.0
 10
9.2626696742
 20
6.0355441899
 30
0.0
 10
9.2318371065
 20
6.0386620269
 30
0.0
 10
9.2010622566
 20
6.0429183009
 30
0.0
 10
9.170387455
 20
6.0483072711
 30
0.0
 10
9.1398548669
 20
6.0548213897
 30
0.0
 10
9.1095064292
 20
6.0624516946
 30
0.0
 10
9.0793840168
 20
6.0711877312
 30
0.0
 10
9.0495285428
 20
6.0810175552
 30
0.0
 10
9.0100995669
 20
6.0955761067
 30
0.0
 10
8.9616870651
 20
6.116445311
 30
0.0
 10
8.9053715621
 20
6.1455834949
 30
0.0
 10
8.8510799344
 20
6.1786837088
 30
0.0
 10
8.7991121114
 20
6.2155633298
 30
0.0
 10
8.7497527063
 20
6.2560199341
 30
0.0
 10
8.7032726622
 20
6.299831235
 30
0.0
 10
8.6599270363
 20
6.3467567516
 30
0.0
 10
8.6199538342
 20
6.3965389768
 30
0.0
 10
8.5835724905
 20
6.4489046746
 30
0.0
 10
8.5509828539
 20
6.5035665063
 30
0.0
 10
8.5223641356
 20
6.5602245916
 30
0.0
 10
8.4978737434
 20
6.6185679886
 30
0.0
 10
8.4776465029
 20
6.6782765903
 30
0.0
 10
8.4617940128
 20
6.7390223813
 30
0.0
 10
8.4504040307
 20
6.8004729508
 30
0.0
 10
8.4435394847
 20
6.8622864801
 30
0.0
 10
8.4420019829
 20
6.9036274488
 30
0.0
 10
8.4420019829
 20
6.9242378602
 30
0.0
  0
SPLINE
  5
373
100
AcDbEntity
  8
0
100
AcDbSpline
 62
7
  6
CONTINUOUS
 70
0
 71
3
 72
55
 73
51
 74
0
 42
0.0000001
 43
0.0000001
 44
0.0000000001
 40
0.0
 40
0.0
 40
0.0
 40
0.0
 40
0.0149619368
 40
0.0299312102
 40
0.0449106607
 40
0.0599030693
 40
0.0749111394
 40
0.0899374877
 40
0.1049846232
 40
0.1200549352
 40
0.1351506842
 40
0.1502739817
 40
0.1654267865
 40
0.1806108923
 40
0.195827914
 40
0.2110792891
 40
0.2263662629
 40
0.2416898848
 40
0.2570510099
 40
0.2724502853
 40
0.2878881575
 40
0.3033648687
 40
0.3188804517
 40
0.3344347417
 40
0.3500273692
 40
0.3656577666
 40
0.3813251774
 40
0.397028651
 40
0.412767059
 40
0.4285390978
 40
0.4443432922
 40
0.4601780138
 40
0.4919270556
 40
0.5237750956
 40
0.5557043255
 40
0.5876953777
 40
0.6197277047
 40
0.6517799743
 40
0.683830476
 40
0.7158575332
 40
0.7478399137
 40
0.7797572342
 40
0.8115903556
 40
0.8433217594
 40
0.8749358986
 40
0.9064195193
 40
0.9221113913
 40
0.9377669155
 40
0.9689601911
 40
1.0
 40
1.0
 40
1.0
 40
1.0
 10
9.8710038228
 20
6.2483137177
 30
0.0
 10
9.8636375833
 20
6.2419993273
 30
0.0
 10
9.8486547491
 20
6.2296520612
 30
0.0
 10
9.8254735547
 20
6.2120120068
 30
0.0
 10
9.8016102533
 20
6.1952710603
 30
0.0
 10
9.7770964919
 20
6.1794517314
 30
0.0
 10
9.7519644311
 20
6.1645745325
 30
0.0
 10
9.7262470625
 20
6.150659048
 30
0.0
 10
9.6999780999
 20
6.1377236047
 30
0.0
 10
9.6731921042
 20
6.1257850089
 30
0.0
 10
9.6459241663
 20
6.1148590615
 30
0.0
 10
9.6182101061
 20
6.1049600286
 30
0.0
 10
9.5900863184
 20
6.0961008079
 30
0.0
 10
9.5615896633
 20
6.0882931755
 30
0.0
 10
9.5327575864
 20
6.0815471882
 30
0.0
 10
9.5036279016
 20
6.0758717444
 30
0.0
 10
9.4742388247
 20
6.0712743371
 30
0.0
 10
9.4446289394
 20
6.067760813
 30
0.0
 10
9.4148370726
 20
6.0653359288
 30
0.0
 10
9.3849023206
 20
6.064002761
 30
0.0
 10
9.3548639491
 20
6.0637629812
 30
0.0
 10
9.3247613633
 20
6.0646170468
 30
0.0
 10
9.2946340439
 20
6.066563638
 30
0.0
 10
9.264521507
 20
6.0696002693
 30
0.0
 10
9.2344632561
 20
6.0737229821
 30
0.0
 10
9.2044986878
 20
6.0789262004
 30
0.0
 10
9.1746671252
 20
6.085203254
 30
0.0
 10
9.1450076789
 20
6.0925457892
 30
0.0
 10
9.1155591978
 20
6.1009441436
 30
0.0
 10
9.0863604536
 20
6.1103873758
 30
0.0
 10
9.0574492547
 20
6.1208631246
 30
0.0
 10
9.0193061193
 20
6.1362006913
 30
0.0
 10
8.972537159
 20
6.1578885687
 30
0.0
 10
8.91821944
 20
6.1877652122
 30
0.0
 10
8.8659330038
 20
6.2213625946
 30
0.0
 10
8.8159533638
 20
6.2585038656
 30
0.0
 10
8.7685416472
 20
6.2989946155
 30
0.0
 10
8.7239461989
 20
6.3426227217
 30
0.0
 10
8.682400428
 20
6.3891596954
 30
0.0
 10
8.6441219023
 20
6.4383618918
 30
0.0
 10
8.6093111637
 20
6.4899717594
 30
0.0
 10
8.5781506793
 20
6.5437192089
 30
0.0
 10
8.5508038288
 20
6.5993227389
 30
0.0
 10
8.527414026
 20
6.6564918045
 30
0.0
 10
8.5081045105
 20
6.7149251966
 30
0.0
 10
8.4954828044
 20
6.7644805502
 30
0.0
 10
8.487523987
 20
6.804446479
 30
0.0
 10
8.4810124501
 20
6.844483081
 30
0.0
 10
8.4755615683
 20
6.8947402342
 30
0.0
 10
8.4740955175
 20
6.935109763
 30
0.0
 10
8.4740955175
 20
6.9552378359
 30
0.0
  0
SPLINE
  5
374
100
AcDbEntity
  8
0
100
AcDbSpline
 62
7
  6
CONTINUOUS
 70
0
 71
3
 72
28
 73
24
 74
0
 42
0.0000001
 43
0.0000001
 44
0.0000000001
 40
0.0
 40
0.0
 40
0.0
 40
0.0
 40
0.0637758941
 40
0.0955879065
 40
0.1273462157
 40
0.1907019646
 40
0.2538545302
 40
0.2853587825
 40
0.3168148204
 40
0.379582186
 40
0.4421719279
 40
0.504596336
 40
0.566869323
 40
0.6290062994
 40
0.6910240361
 40
0.7219962863
 40
0.7529455528
 40
0.8147797337
 40
0.8765514554
 40
0.9074228165
 40
0.9382862783
 40
0.9691444605
 40
1.0
 40
1.0
 40
1.0
 40
1.0
 10
10.3738539802
 20
8.963596707
 30
0.0
 10
10.3738539802
 20
8.9768809286
 30
0.0
 10
10.3743313233
 20
8.9967958715
 30
0.0
 10
10.3759282466
 20
9.0232752418
 30
0.0
 10
10.3781592211
 20
9.0496214244
 30
0.0
 10
10.3821378491
 20
9.0823605888
 30
0.0
 10
10.3877053344
 20
9.1148138748
 30
0.0
 10
10.3931017693
 20
9.1405247265
 30
0.0
 10
10.3991134247
 20
9.1660162213
 30
0.0
 10
10.4077904682
 20
9.1975212213
 30
0.0
 10
10.4200485615
 20
9.2346815902
 30
0.0
 10
10.4341169739
 20
9.2710852869
 30
0.0
 10
10.4499632992
 20
9.3066479231
 30
0.0
 10
10.4675507551
 20
9.3412870906
 30
0.0
 10
10.4836322293
 20
9.3693307864
 30
0.0
 10
10.4973236377
 20
9.3912199248
 30
0.0
 10
10.5115486133
 20
9.4127203611
 30
0.0
 10
10.530337712
 20
9.4388800436
 30
0.0
 10
10.5504336638
 20
9.4640291395
 30
0.0
 10
10.5672571247
 20
9.4834947757
 30
0.0
 10
10.5802409685
 20
9.4977595204
 30
0.0
 10
10.5935848154
 20
9.5116831736
 30
0.0
 10
10.6027161814
 20
9.5207332703
 30
0.0
 10
10.6073388754
 20
9.525198454
 30
0.0
  0
SPLINE
  5
375
100
AcDbEntity
  8
0
100
AcDbSpline
 62
7
  6
CONTINUOUS
 70
0
 71
3
 72
56
 73
52
 74
0
 42
0.0000001
 43
0.0000001
 44
0.0000000001
 40
0.0
 40
0.0
 40
0.0
 40
0.0
 40
0.0149712696
 40
0.0299455975
 40
0.0449260257
 40
0.0599155555
 40
0.0749171349
 40
0.0899336395
 40
0.1049678509
 40
0.1200224476
 40
0.1350999838
 40
0.1502028742
 40
0.1653333868
 40
0.1804936216
 40
0.1956855044
 40
0.2109107785
 40
0.2261709873
 40
0.2414674767
 40
0.2568013838
 40
0.2721736284
 40
0.2875849194
 40
0.303035742
 40
0.3185263613
 40
0.3340568268
 40
0.3496269629
 40
0.3652363825
 40
0.3808844863
 40
0.3965704631
 40
0.412293306
 40
0.4280518089
 40
0.4438445787
 40
0.4596700473
 40
0.4755264713
 40
0.4914119521
 40
0.5232568382
 40
0.5551916851
 40
0.5871966925
 40
0.619250654
 40
0.6513313861
 40
0.6834161731
 40
0.7154822189
 40
0.7475070999
 40
0.7794692115
 40
0.8113482064
 40
0.8431254121
 40
0.874784222
 40
0.9063104541
 40
0.9220227305
 40
0.937697876
 40
0.9689275382
 40
1.0
 40
1.0
 40
1.0
 40
1.0
 10
9.8806954795
 20
6.3211819028
 30
0.0
 10
9.8739428461
 20
6.3146593504
 30
0.0
 10
9.8601752537
 20
6.3018799854
 30
0.0
 10
9.8387762318
 20
6.2835445969
 30
0.0
 10
9.8166566602
 20
6.2660660323
 30
0.0
 10
9.793847398
 20
6.2494687656
 30
0.0
 10
9.7703798074
 20
6.2337754031
 30
0.0
 10
9.746286116
 20
6.2190077137
 30
0.0
 10
9.7215995414
 20
6.2051859068
 30
0.0
 10
9.6963540696
 20
6.192328964
 30
0.0
 10
9.6705843786
 20
6.180454702
 30
0.0
 10
9.6443260119
 20
6.1695792747
 30
0.0
 10
9.6176150596
 20
6.1597177242
 30
0.0
 10
9.5904882734
 20
6.1508836311
 30
0.0
 10
9.5629830212
 20
6.1430889873
 30
0.0
 10
9.5351370981
 20
6.1363446681
 30
0.0
 10
9.5069888451
 20
6.1306598258
 30
0.0
 10
9.4785769862
 20
6.1260422239
 30
0.0
 10
9.4499405843
 20
6.122498345
 30
0.0
 10
9.4211190526
 20
6.1200328592
 30
0.0
 10
9.3921520195
 20
6.1186492325
 30
0.0
 10
9.3630793284
 20
6.118349381
 30
0.0
 10
9.3339409588
 20
6.1191335455
 30
0.0
 10
9.3047769846
 20
6.1210008001
 30
0.0
 10
9.2756275062
 20
6.1239484542
 30
0.0
 10
9.2465325938
 20
6.1279723956
 30
0.0
 10
9.2175322753
 20
6.1330672246
 30
0.0
 10
9.188666392
 20
6.1392257403
 30
0.0
 10
9.159974641
 20
6.146439549
 30
0.0
 10
9.1314964887
 20
6.1546987496
 30
0.0
 10
9.1032710088
 20
6.1639918445
 30
0.0
 10
9.0753371651
 20
6.1743061434
 30
0.0
 10
9.0477329088
 20
6.18562759
 30
0.0
 10
9.0113921279
 20
6.2020560603
 30
0.0
 10
8.9669819522
 20
6.2250338935
 30
0.0
 10
8.9156554781
 20
6.256326677
 30
0.0
 10
8.8665240947
 20
6.2911932868
 30
0.0
 10
8.8198592037
 20
6.3294413748
 30
0.0
 10
8.7759164162
 20
6.3708611512
 30
0.0
 10
8.7349369917
 20
6.4152251303
 30
0.0
 10
8.697145825
 20
6.4622898273
 30
0.0
 10
8.6627504532
 20
6.5117969698
 30
0.0
 10
8.6319398696
 20
6.5634749771
 30
0.0
 10
8.6048834176
 20
6.6170401216
 30
0.0
 10
8.5817298251
 20
6.6721989991
 30
0.0
 10
8.5626069723
 20
6.7286469632
 30
0.0
 10
8.5501025952
 20
6.7765644416
 30
0.0
 10
8.5422164214
 20
6.8152285019
 30
0.0
 10
8.5357639039
 20
6.8539692269
 30
0.0
 10
8.5303614475
 20
6.902614053
 30
0.0
 10
8.5289080687
 20
6.9416973637
 30
0.0
 10
8.5289080687
 20
6.9611826979
 30
0.0
  0
SPLINE
  5
376
100
AcDbEntity
  8
0
100
AcDbSpline
 62
7
  6
CONTINUOUS
 70
0
 71
3
 72
54
 73
50
 74
0
 42
0.0000001
 43
0.0000001
 44
0.0000000001
 40
0.0
 40
0.0
 40
0.0
 40
0.0
 40
0.0149609029
 40
0.0299299255
 40
0.0449098678
 40
0.0599034639
 40
0.07491337
 40
0.089942152
 40
0.1049922632
 40
0.1200660404
 40
0.135165685
 40
0.1502932511
 40
0.1654506415
 40
0.1806395878
 40
0.1958616507
 40
0.21111821
 40
0.2264104527
 40
0.2417393791
 40
0.2571057873
 40
0.272510277
 40
0.2879532492
 40
0.3034348963
 40
0.3189552159
 40
0.3345140011
 40
0.3501108471
 40
0.3657451596
 40
0.3814161475
 40
0.3971228414
 40
0.4286338034
 40
0.4602716597
 40
0.4920227052
 40
0.5238710432
 40
0.5557989108
 40
0.5877870312
 40
0.6198149876
 40
0.6518616134
 40
0.6839053919
 40
0.7159248594
 40
0.7478990088
 40
0.7798076874
 40
0.8116319828
 40
0.8433545917
 40
0.8749601653
 40
0.8907172686
 40
0.9064404048
 40
0.9221283752
 40
0.9377801437
 40
0.9689664454
 40
1.0
 40
1.0
 40
1.0
 40
1.0
 10
9.9147640924
 20
6.3565550724
 30
0.0
 10
9.9077639626
 20
6.3506909064
 30
0.0
 10
9.8935317798
 20
6.3392286527
 30
0.0
 10
9.8715300471
 20
6.3228671454
 30
0.0
 10
9.8488975112
 20
6.3073539052
 30
0.0
 10
9.8256639557
 20
6.2927095551
 30
0.0
 10
9.8018595988
 20
6.2789528682
 30
0.0
 10
9.7775153347
 20
6.2661019192
 30
0.0
 10
9.7526628759
 20
6.2541733106
 30
0.0
 10
9.7273345584
 20
6.2431825117
 30
0.0
 10
9.7015632662
 20
6.2331439471
 30
0.0
 10
9.6753825925
 20
6.2240704595
 30
0.0
 10
9.6488265282
 20
6.2159739874
 30
0.0
 10
9.6219296294
 20
6.2088649892
 30
0.0
 10
9.5947268873
 20
6.2027526073
 30
0.0
 10
9.5672536355
 20
6.1976449533
 30
0.0
 10
9.5395456328
 20
6.1935484455
 30
0.0
 10
9.5116388796
 20
6.1904685172
 30
0.0
 10
9.4835696614
 20
6.1884091505
 30
0.0
 10
9.4553744708
 20
6.1873728751
 30
0.0
 10
9.4270899522
 20
6.1873612204
 30
0.0
 10
9.398752872
 20
6.1883739946
 30
0.0
 10
9.3704000561
 20
6.1904099465
 30
0.0
 10
9.34206837
 20
6.1934664587
 30
0.0
 10
9.3137945811
 20
6.1975393902
 30
0.0
 10
9.2856155741
 20
6.2026235929
 30
0.0
 10
9.2575675183
 20
6.2087124315
 30
0.0
 10
9.2203579087
 20
6.2181686961
 30
0.0
 10
9.1743543387
 20
6.2324666464
 30
0.0
 10
9.1203209217
 20
6.2534638782
 30
0.0
 10
9.0676706169
 20
6.2782120293
 30
0.0
 10
9.0166783701
 20
6.3065819007
 30
0.0
 10
8.9676081696
 20
6.3384261444
 30
0.0
 10
8.9207146782
 20
6.373579334
 30
0.0
 10
8.8762410674
 20
6.4118589259
 30
0.0
 10
8.8344180241
 20
6.4530662182
 30
0.0
 10
8.795462522
 20
6.4969873979
 30
0.0
 10
8.7595767326
 20
6.543394619
 30
0.0
 10
8.7269469491
 20
6.5920472078
 30
0.0
 10
8.6977426257
 20
6.6426926583
 30
0.0
 10
8.6721153827
 20
6.6950687704
 30
0.0
 10
8.6501989538
 20
6.7489020631
 30
0.0
 10
8.6351055965
 20
6.7947980774
 30
0.0
 10
8.6249971235
 20
6.8319605148
 30
0.0
 10
8.6184121432
 20
6.8599940773
 30
0.0
 10
8.6128254605
 20
6.8881779938
 30
0.0
 10
8.6067253081
 20
6.9258587294
 30
0.0
 10
8.6016188345
 20
6.9731565274
 30
0.0
 10
8.6002455094
 20
7.0111471363
 30
0.0
 10
8.6002455094
 20
7.0300893784
 30
0.0
  0
SPLINE
  5
377
100
AcDbEntity
  8
0
100
AcDbSpline
 62
7
  6
CONTINUOUS
 70
0
 71
3
 72
55
 73
51
 74
0
 42
0.0000001
 43
0.0000001
 44
0.0000000001
 40
0.0
 40
0.0
 40
0.0
 40
0.0
 40
0.0149713426
 40
0.029945745
 40
0.0449262466
 40
0.0599158497
 40
0.0749175039
 40
0.0899340815
 40
0.1049683671
 40
0.1200230387
 40
0.1351006478
 40
0.1502036136
 40
0.1653342004
 40
0.1804945089
 40
0.1956864682
 40
0.2109118157
 40
0.2261721
 40
0.2414686657
 40
0.2568026464
 40
0.2721749684
 40
0.2875863346
 40
0.3030372323
 40
0.3185279299
 40
0.3340584699
 40
0.3496286834
 40
0.3652381805
 40
0.3808863595
 40
0.3965724155
 40
0.4122953346
 40
0.4280539148
 40
0.4596672873
 40
0.4914043865
 40
0.5232494291
 40
0.5551844326
 40
0.5871895976
 40
0.619243717
 40
0.651324607
 40
0.6834095519
 40
0.7154757557
 40
0.747500794
 40
0.7794630628
 40
0.8113422149
 40
0.8431195771
 40
0.8747785431
 40
0.8905616191
 40
0.9063099906
 40
0.9220223492
 40
0.9376975737
 40
0.9689273837
 40
1.0
 40
1.0
 40
1.0
 40
1.0
 10
9.9171586864
 20
6.4676289458
 30
0.0
 10
9.9110697089
 20
6.4617474245
 30
0.0
 10
9.8986552028
 20
6.4502240106
 30
0.0
 10
9.8793592931
 20
6.4336906078
 30
0.0
 10
9.8594135949
 20
6.4179298904
 30
0.0
 10
9.8388460766
 20
6.4029637399
 30
0.0
 10
9.8176848501
 20
6.3888127699
 30
0.0
 10
9.7959590917
 20
6.3754964497
 30
0.0
 10
9.7736987452
 20
6.3630329963
 30
0.0
 10
9.7509343584
 20
6.3514397195
 30
0.0
 10
9.7276973463
 20
6.3407323958
 30
0.0
 10
9.7040196485
 20
6.3309258165
 30
0.0
 10
9.6799338341
 20
6.3220335114
 30
0.0
 10
9.6554730994
 20
6.3140675447
 30
0.0
 10
9.6306710422
 20
6.3070390413
 30
0.0
 10
9.6055618277
 20
6.3009575266
 30
0.0
 10
9.5801799951
 20
6.2958313457
 30
0.0
 10
9.5545604421
 20
6.2916676573
 30
0.0
 10
9.5287384404
 20
6.2884719785
 30
0.0
 10
9.5027494867
 20
6.286248842
 30
0.0
 10
9.4766293368
 20
6.2850012303
 30
0.0
 10
9.4504139124
 20
6.284730758
 30
0.0
 10
9.4241392673
 20
6.2854379547
 30
0.0
 10
9.3978415293
 20
6.2871216402
 30
0.0
 10
9.3715568597
 20
6.2897795811
 30
0.0
 10
9.3453214156
 20
6.2934081282
 30
0.0
 10
9.3191712154
 20
6.2980021435
 30
0.0
 10
9.2931423543
 20
6.3035554387
 30
0.0
 10
9.2672701811
 20
6.3100603723
 30
0.0
 10
9.2329984293
 20
6.3199996236
 30
0.0
 10
9.190727943
 20
6.3347629104
 30
0.0
 10
9.1412559223
 20
6.3560893679
 30
0.0
 10
9.093245774
 20
6.3809300377
 30
0.0
 10
9.0469627134
 20
6.4091477611
 30
0.0
 10
9.0026602177
 20
6.4405875612
 30
0.0
 10
8.9605815166
 20
6.4750766881
 30
0.0
 10
8.9209574441
 20
6.5124257093
 30
0.0
 10
8.8840054586
 20
6.5524295802
 30
0.0
 10
8.8499284056
 20
6.59486874
 30
0.0
 10
8.818913435
 20
6.6395103622
 30
0.0
 10
8.791130943
 20
6.6861093474
 30
0.0
 10
8.7667334955
 20
6.7344104727
 30
0.0
 10
8.7458557752
 20
6.7841469335
 30
0.0
 10
8.7314699585
 20
6.8266130525
 30
0.0
 10
8.7218326153
 20
6.8610270195
 30
0.0
 10
8.7155534559
 20
6.886999178
 30
0.0
 10
8.7102254309
 20
6.9131207787
 30
0.0
 10
8.7044071694
 20
6.9480537609
 30
0.0
 10
8.699535611
 20
6.9919179165
 30
0.0
 10
8.6982250866
 20
7.0271600736
 30
0.0
 10
8.6982250866
 20
7.044730388
 30
0.0
  0
SPLINE
  5
378
100
AcDbEntity
  8
0
100
AcDbSpline
 62
7
  6
CONTINUOUS
 70
0
 71
3
 72
15
 73
11
 74
0
 42
0.0000001
 43
0.0000001
 44
0.0000000001
 40
0.0
 40
0.0
 40
0.0
 40
0.0
 40
0.1511716073
 40
0.2949523827
 40
0.4312812409
 40
0.5601103048
 40
0.6814053825
 40
0.79515026
 40
0.901346982
 40
1.0
 40
1.0
 40
1.0
 40
1.0
 10
10.0729607957
 20
6.7067678991
 30
0.0
 10
10.0691373835
 20
6.7042665926
 30
0.0
 10
10.0617030912
 20
6.6993469045
 30
0.0
 10
10.0509294785
 20
6.6920088865
 30
0.0
 10
10.0408263985
 20
6.684888436
 30
0.0
 10
10.0314081434
 20
6.6779792938
 30
0.0
 10
10.0226871427
 20
6.6712778834
 30
0.0
 10
10.0146742992
 20
6.6647826705
 30
0.0
 10
10.0073800347
 20
6.6584944687
 30
0.0
 10
10.0028345289
 20
6.6542882189
 30
0.0
 10
10.0006899789
 20
6.6522167426
 30
0.0
  0
SPLINE
  5
379
100
AcDbEntity
  8
0
100
AcDbSpline
 62
7
  6
CONTINUOUS
 70
0
 71
3
 72
43
 73
39
 74
0
 42
0.0000001
 43
0.0000001
 44
0.0000000001
 40
0.0
 40
0.0
 40
0.0
 40
0.0
 40
0.0303546589
 40
0.0455763053
 40
0.0608269374
 40
0.0914129854
 40
0.1221164404
 40
0.1375134516
 40
0.1529394062
 40
0.1838739518
 40
0.2149194073
 40
0.2460709173
 40
0.2773223873
 40
0.3086665654
 40
0.3400951368
 40
0.3715988265
 40
0.403167512
 40
0.4347903413
 40
0.4664558587
 40
0.4981521342
 40
0.5298668974
 40
0.5615876735
 40
0.5933019214
 40
0.6249971718
 40
0.6566611651
 40
0.6882819878
 40
0.7198482062
 40
0.7513489958
 40
0.7827742672
 40
0.8141147812
 40
0.8453622728
 40
0.8609502244
 40
0.8765122974
 40
0.9075533139
 40
0.9384831009
 40
0.9539065263
 40
0.9693015043
 40
1.0
 40
1.0
 40
1.0
 40
1.0
 10
10.1007117043
 20
6.8257732282
 30
0.0
 10
10.0878806759
 20
6.824085692
 30
0.0
 10
10.0685379098
 20
6.8220971706
 30
0.0
 10
10.0426496338
 20
6.8205316522
 30
0.0
 10
10.0166283747
 20
6.8196869972
 30
0.0
 10
9.983979617
 20
6.8199924162
 30
0.0
 10
9.9513355531
 20
6.8221050431
 30
0.0
 10
9.9252477405
 20
6.8248732685
 30
0.0
 10
9.8991476475
 20
6.8283660765
 30
0.0
 10
9.8666264421
 20
6.8340789822
 30
0.0
 10
9.8279291047
 20
6.8430553106
 30
0.0
 10
9.7896386765
 20
6.8541316789
 30
0.0
 10
9.7518727861
 20
6.8672740752
 30
0.0
 10
9.7147465027
 20
6.8824422955
 30
0.0
 10
9.6783731871
 20
6.8995899354
 30
0.0
 10
9.6428638263
 20
6.9186645718
 30
0.0
 10
9.6083267841
 20
6.9396079124
 30
0.0
 10
9.5748674499
 20
6.9623559767
 30
0.0
 10
9.5425879259
 20
6.9868392893
 30
0.0
 10
9.5115867153
 20
7.0129830921
 30
0.0
 10
9.4819584253
 20
7.0407075706
 30
0.0
 10
9.4537934792
 20
7.0699280968
 30
0.0
 10
9.4271778427
 20
7.1005554858
 30
0.0
 10
9.4021927629
 20
7.1324962659
 30
0.0
 10
9.3789145217
 20
7.1656529644
 30
0.0
 10
9.3574142009
 20
7.1999243936
 30
0.0
 10
9.3377574635
 20
7.2352059833
 30
0.0
 10
9.3200043742
 20
7.2713900158
 30
0.0
 10
9.3042091465
 20
7.3083662575
 30
0.0
 10
9.290420238
 20
7.3460211593
 30
0.0
 10
9.280628138
 20
7.3778979946
 30
0.0
 10
9.2738393324
 20
7.403622822
 30
0.0
 10
9.2677610964
 20
7.4294343518
 30
0.0
 10
9.2614807985
 20
7.4619052124
 30
0.0
 10
9.2569721095
 20
7.4946096213
 30
0.0
 10
9.254445144
 20
7.5208170553
 30
0.0
 10
9.2526419266
 20
7.546984648
 30
0.0
 10
9.252097386
 20
7.5666418606
 30
0.0
 10
9.252097386
 20
7.5797299782
 30
0.0
  0
SPLINE
  5
37A
100
AcDbEntity
  8
0
100
AcDbSpline
 62
7
  6
CONTINUOUS
 70
0
 71
3
 72
44
 73
40
 74
0
 42
0.0000001
 43
0.0000001
 44
0.0000000001
 40
0.0
 40
0.0
 40
0.0
 40
0.0
 40
0.0151732875
 40
0.0303748369
 40
0.0456050022
 40
0.060864052
 40
0.0914665415
 40
0.122185615
 40
0.1375900262
 40
0.1530230813
 40
0.1839708813
 40
0.2150281194
 40
0.2461897957
 40
0.277449708
 40
0.3088005338
 40
0.3402339229
 40
0.371740599
 40
0.4033104699
 40
0.4349327437
 40
0.4665960515
 40
0.4982885749
 40
0.5299981766
 40
0.5617125336
 40
0.593419271
 40
0.625106097
 40
0.656760937
 40
0.6883720656
 40
0.7199282364
 40
0.7514188085
 40
0.7828338683
 40
0.8141643422
 40
0.8454021182
 40
0.8609853547
 40
0.8765428438
 40
0.9075751893
 40
0.9384969135
 40
0.953916598
 40
0.9693080715
 40
1.0
 40
1.0
 40
1.0
 40
1.0
 10
10.1005584269
 20
6.8834294182
 30
0.0
 10
10.0945670027
 20
6.882713111
 30
0.0
 10
10.0825521963
 20
6.8814473633
 30
0.0
 10
10.0644676263
 20
6.8800517655
 30
0.0
 10
10.0463169011
 20
6.8791582083
 30
0.0
 10
10.022025045
 20
6.8786367815
 30
0.0
 10
9.9915602257
 20
6.8792463688
 30
0.0
 10
9.9611173411
 20
6.881528919
 30
0.0
 10
9.9367984225
 20
6.8843529985
 30
0.0
 10
9.9124749388
 20
6.8878478179
 30
0.0
 10
9.882179169
 20
6.8934625017
 30
0.0
 10
9.8461465815
 20
6.9021608127
 30
0.0
 10
9.8105087185
 20
6.9128001153
 30
0.0
 10
9.7753736314
 20
6.9253481383
 30
0.0
 10
9.7408469831
 20
6.939767007
 30
0.0
 10
9.7070328278
 20
6.9560131883
 30
0.0
 10
9.6740330059
 20
6.9740376676
 30
0.0
 10
9.6419469185
 20
6.9937860836
 30
0.0
 10
9.6108712103
 20
7.0151988966
 30
0.0
 10
9.5808994822
 20
7.0382115597
 30
0.0
 10
9.5521220068
 20
7.062754713
 30
0.0
 10
9.5246254644
 20
7.0887543987
 30
0.0
 10
9.4984926825
 20
7.1161322819
 30
0.0
 10
9.4738023881
 20
7.1448058851
 30
0.0
 10
9.4506289725
 20
7.1746888351
 30
0.0
 10
9.4290422678
 20
7.205691122
 30
0.0
 10
9.4091073395
 20
7.2377193636
 30
0.0
 10
9.3908842869
 20
7.2706771049
 30
0.0
 10
9.3744280763
 20
7.3044650291
 30
0.0
 10
9.3597883074
 20
7.3389815342
 30
0.0
 10
9.3470093015
 20
7.3741219964
 30
0.0
 10
9.3379351661
 20
7.4038634342
 30
0.0
 10
9.3316443877
 20
7.4278617288
 30
0.0
 10
9.326012217
 20
7.4519392147
 30
0.0
 10
9.3201930531
 20
7.4822255395
 30
0.0
 10
9.3160156247
 20
7.512726492
 30
0.0
 10
9.3136743495
 20
7.5371672265
 30
0.0
 10
9.3120036585
 20
7.5615706749
 30
0.0
 10
9.311499149
 20
7.579902156
 30
0.0
 10
9.311499149
 20
7.5921076786
 30
0.0
  0
SPLINE
  5
37B
100
AcDbEntity
  8
0
100
AcDbSpline
 62
7
  6
CONTINUOUS
 70
0
 71
3
 72
39
 73
35
 74
0
 42
0.0000001
 43
0.0000001
 44
0.0000000001
 40
0.0
 40
0.0
 40
0.0
 40
0.0
 40
0.0307220853
 40
0.0615353935
 40
0.0924373903
 40
0.123424861
 40
0.1544939419
 40
0.1856401473
 40
0.216858407
 40
0.2481431177
 40
0.279488184
 40
0.3108870598
 40
0.3423328045
 40
0.3738181397
 40
0.4053354964
 40
0.4368770697
 40
0.4684348836
 40
0.5000008462
 40
0.5315668019
 40
0.5631245966
 40
0.5946661387
 40
0.6261834514
 40
0.6576687301
 40
0.6891144075
 40
0.7205132048
 40
0.7518581812
 40
0.7831427931
 40
0.8143609439
 40
0.8455070329
 40
0.876575995
 40
0.9075633128
 40
0.9384652097
 40
0.9692784105
 40
1.0
 40
1.0
 40
1.0
 40
1.0
 10
10.0790632915
 20
7.0164164512
 30
0.0
 10
10.0691478908
 20
7.017629932
 30
0.0
 10
10.0493386564
 20
7.0205000258
 30
0.0
 10
10.019801779
 20
7.0261127106
 30
0.0
 10
9.9904533526
 20
7.03302841
 30
0.0
 10
9.9613527206
 20
7.0412331537
 30
0.0
 10
9.9325577675
 20
7.0507105703
 30
0.0
 10
9.9041260474
 20
7.0614417609
 30
0.0
 10
9.8761142704
 20
7.0734052053
 30
0.0
 10
9.8485783366
 20
7.0865769789
 30
0.0
 10
9.8215732225
 20
7.1009308141
 30
0.0
 10
9.7951528348
 20
7.1164380507
 30
0.0
 10
9.7693698664
 20
7.1330676577
 30
0.0
 10
9.7442757709
 20
7.1507864337
 30
0.0
 10
9.7199206719
 20
7.1695590591
 30
0.0
 10
9.6963531529
 20
7.1893480195
 30
0.0
 10
9.6736202212
 20
7.2101137804
 30
0.0
 10
9.6517672654
 20
7.2318149148
 30
0.0
 10
9.6308379455
 20
7.2544081458
 30
0.0
 10
9.6108739848
 20
7.2778483278
 30
0.0
 10
9.5919152216
 20
7.3020886727
 30
0.0
 10
9.5739995499
 20
7.3270808393
 30
0.0
 10
9.5571627454
 20
7.3527749495
 30
0.0
 10
9.5414383733
 20
7.3791196906
 30
0.0
 10
9.5268578406
 20
7.4060624942
 30
0.0
 10
9.5134503359
 20
7.4335496235
 30
0.0
 10
9.5012426005
 20
7.4615261949
 30
0.0
 10
9.4902589925
 20
7.4899363621
 30
0.0
 10
9.480521498
 20
7.5187234352
 30
0.0
 10
9.4720496453
 20
7.5478299775
 30
0.0
 10
9.4648602873
 20
7.5771978241
 30
0.0
 10
9.4589678242
 20
7.6067685685
 30
0.0
 10
9.4543841992
 20
7.6364823013
 30
0.0
 10
9.4522036282
 20
7.6563790463
 30
0.0
 10
9.4513351907
 20
7.6663304433
 30
0.0
  0
SPLINE
  5
37C
100
AcDbEntity
  8
0
100
AcDbSpline
 62
7
  6
CONTINUOUS
 70
0
 71
3
 72
25
 73
21
 74
0
 42
0.0000001
 43
0.0000001
 44
0.0000000001
 40
0.0
 40
0.0
 40
0.0
 40
0.0
 40
0.0616739827
 40
0.1233885017
 40
0.1851611334
 40
0.2470089423
 40
0.2779683585
 40
0.3089526602
 40
0.3709992415
 40
0.4331676999
 40
0.49547167
 40
0.5579236192
 40
0.6205347777
 40
0.6833149774
 40
0.7147732343
 40
0.7462768529
 40
0.8094192768
 40
0.8727509238
 40
0.9362784945
 40
1.0
 40
1.0
 40
1.0
 40
1.0
 10
8.6764482571
 20
7.4849247644
 30
0.0
 10
8.6683755762
 20
7.4761411999
 30
0.0
 10
8.6526417932
 20
7.4581798705
 30
0.0
 10
8.6303441996
 20
7.4301344329
 30
0.0
 10
8.6093860845
 20
7.4010324242
 30
0.0
 10
8.5930773595
 20
7.3759563711
 30
0.0
 10
8.5807419967
 20
7.3554305469
 30
0.0
 10
8.5688762403
 20
7.3345854608
 30
0.0
 10
8.5549525862
 20
7.3079754071
 30
0.0
 10
8.5397419215
 20
7.2752453894
 30
0.0
 10
8.5260505881
 20
7.2417662547
 30
0.0
 10
8.5139059315
 20
7.2076047684
 30
0.0
 10
8.5033320026
 20
7.1728290914
 30
0.0
 10
8.4958515805
 20
7.1434138793
 30
0.0
 10
8.4906709565
 20
7.1196475228
 30
0.0
 10
8.4860219533
 20
7.0957000795
 30
0.0
 10
8.4812273351
 20
7.0655089469
 30
0.0
 10
8.477113393
 20
7.0289749379
 30
0.0
 10
8.4746429605
 20
6.9921813486
 30
0.0
 10
8.4740955175
 20
6.967563654
 30
0.0
 10
8.4740955175
 20
6.9552378359
 30
0.0
  0
SPLINE
  5
37D
100
AcDbEntity
  8
0
100
AcDbSpline
 62
7
  6
CONTINUOUS
 70
0
 71
3
 72
26
 73
22
 74
0
 42
0.0000001
 43
0.0000001
 44
0.0000000001
 40
0.0
 40
0.0
 40
0.0
 40
0.0
 40
0.0617092235
 40
0.0925729854
 40
0.1234446509
 40
0.1852169748
 40
0.2470517571
 40
0.2780013275
 40
0.3089738777
 40
0.3709922222
 40
0.4331298084
 40
0.4954034049
 40
0.5578284199
 40
0.6204187753
 40
0.6831867461
 40
0.7146430864
 40
0.7461476576
 40
0.8093008659
 40
0.872657114
 40
0.9362236724
 40
1.0
 40
1.0
 40
1.0
 40
1.0
 10
8.7496479963
 20
7.4921283517
 30
0.0
 10
8.7409076338
 20
7.4836857977
 30
0.0
 10
8.7281185217
 20
7.4706800419
 30
0.0
 10
8.7117542748
 20
7.4527012448
 30
0.0
 10
8.6958489599
 20
7.434298036
 30
0.0
 10
8.6768500677
 20
7.4105218201
 30
0.0
 10
8.6590865544
 20
7.3857901056
 30
0.0
 10
8.6456380469
 20
7.3654633305
 30
0.0
 10
8.6326939817
 20
7.3447690626
 30
0.0
 10
8.6174903194
 20
7.3182561923
 30
0.0
 10
8.6008629032
 20
7.2855078616
 30
0.0
 10
8.5858815778
 20
7.2518864718
 30
0.0
 10
8.5725811029
 20
7.2174699372
 30
0.0
 10
8.5609921237
 20
7.1823380368
 30
0.0
 10
8.5527886826
 20
7.1525528091
 30
0.0
 10
8.5471052253
 20
7.1284527937
 30
0.0
 10
8.5420033164
 20
7.1041454482
 30
0.0
 10
8.5367397624
 20
7.0734634476
 30
0.0
 10
8.5322223923
 20
7.0362918501
 30
0.0
 10
8.5295091793
 20
6.9988227515
 30
0.0
 10
8.5289080687
 20
6.9737417402
 30
0.0
 10
8.5289080687
 20
6.9611826979
 30
0.0
  0
SPLINE
  5
37E
100
AcDbEntity
  8
0
100
AcDbSpline
 62
7
  6
CONTINUOUS
 70
0
 71
3
 72
25
 73
21
 74
0
 42
0.0000001
 43
0.0000001
 44
0.0000000001
 40
0.0
 40
0.0
 40
0.0
 40
0.0
 40
0.0616698585
 40
0.0925221144
 40
0.1233873692
 40
0.1851610503
 40
0.2470116891
 40
0.2779729665
 40
0.308959368
 40
0.3710107408
 40
0.4331841913
 40
0.4954928703
 40
0.5579488032
 40
0.6205628041
 40
0.6833443175
 40
0.7463016016
 40
0.8094414048
 40
0.872768098
 40
0.9362885602
 40
1.0
 40
1.0
 40
1.0
 40
1.0
 10
8.7868563267
 20
7.5257017122
 30
0.0
 10
8.7794028986
 20
7.5174299964
 30
0.0
 10
8.7685106808
 20
7.5047540712
 30
0.0
 10
8.7545959651
 20
7.4873549872
 30
0.0
 10
8.7410822332
 20
7.4696185498
 30
0.0
 10
8.7249634047
 20
7.4468413728
 30
0.0
 10
8.7099198666
 20
7.423319565
 30
0.0
 10
8.6985431366
 20
7.4040778519
 30
0.0
 10
8.6876004284
 20
7.3845445243
 30
0.0
 10
8.6747620075
 20
7.3596228873
 30
0.0
 10
8.660739279
 20
7.3289898056
 30
0.0
 10
8.6481191476
 20
7.2976736575
 30
0.0
 10
8.6369262487
 20
7.2657353884
 30
0.0
 10
8.6271820935
 20
7.2332366704
 30
0.0
 10
8.6189054232
 20
7.2002403795
 30
0.0
 10
8.6121122075
 20
7.1668102565
 30
0.0
 10
8.6068156471
 20
7.1330111098
 30
0.0
 10
8.6030256411
 20
7.0989076642
 30
0.0
 10
8.600749856
 20
7.0645671756
 30
0.0
 10
8.6002455094
 20
7.0415923833
 30
0.0
 10
8.6002455094
 20
7.0300893784
 30
0.0
  0
SPLINE
  5
37F
100
AcDbEntity
  8
0
100
AcDbSpline
 62
7
  6
CONTINUOUS
 70
0
 71
3
 72
23
 73
19
 74
0
 42
0.0000001
 43
0.0000001
 44
0.0000000001
 40
0.0
 40
0.0
 40
0.0
 40
0.0
 40
0.0618603907
 40
0.1239640988
 40
0.1862853195
 40
0.2487942118
 40
0.3114574842
 40
0.3742390306
 40
0.4371006016
 40
0.5000025046
 40
0.5629043217
 40
0.6257656364
 40
0.6885467608
 40
0.7512094533
 40
0.8137176182
 40
0.8760379774
 40
0.9381407091
 40
1.0
 40
1.0
 40
1.0
 40
1.0
 10
11.9478060816
 20
9.2287369863
 30
0.0
 10
11.9359895143
 20
9.2319965347
 30
0.0
 10
11.9125260451
 20
9.2393423293
 30
0.0
 10
11.8781023257
 20
9.2527424166
 30
0.0
 10
11.8445399431
 20
9.2684822332
 30
0.0
 10
11.8120078582
 20
9.2864827251
 30
0.0
 10
11.7806671176
 20
9.306654426
 30
0.0
 10
11.7506735906
 20
9.3288969095
 30
0.0
 10
11.7221762558
 20
9.353099556
 30
0.0
 10
11.6953167231
 20
9.3791420265
 30
0.0
 10
11.6702284702
 20
9.4068948738
 30
0.0
 10
11.6470362019
 20
9.43622018
 30
0.0
 10
11.6258552364
 20
9.4669722181
 30
0.0
 10
11.6067909204
 20
9.4989982373
 30
0.0
 10
11.5899381725
 20
9.5321389564
 30
0.0
 10
11.5753807772
 20
9.5662303043
 30
0.0
 10
11.5631918434
 20
9.6011006609
 30
0.0
 10
11.5566705157
 20
9.6248060864
 30
0.0
 10
11.553825925
 20
9.6367291263
 30
0.0
  0
SPLINE
  5
380
100
AcDbEntity
  8
0
100
AcDbSpline
 62
7
  6
CONTINUOUS
 70
0
 71
3
 72
26
 73
22
 74
0
 42
0.0000001
 43
0.0000001
 44
0.0000000001
 40
0.0
 40
0.0
 40
0.0
 40
0.0
 40
0.0617092224
 40
0.0925729861
 40
0.1234446505
 40
0.1852169763
 40
0.2470517586
 40
0.2780013275
 40
0.3089738786
 40
0.3709922214
 40
0.4331298083
 40
0.4954034066
 40
0.5578284213
 40
0.6204187786
 40
0.6831867415
 40
0.7146430811
 40
0.7461476607
 40
0.8093008765
 40
0.8726570625
 40
0.9362237834
 40
1.0
 40
1.0
 40
1.0
 40
1.0
 10
8.8972706839
 20
7.523494639
 30
0.0
 10
8.8893893331
 20
7.515881812
 30
0.0
 10
8.877857096
 20
7.5041543019
 30
0.0
 10
8.8631011692
 20
7.4879424261
 30
0.0
 10
8.8487589817
 20
7.4713479285
 30
0.0
 10
8.8316273273
 20
7.4499084182
 30
0.0
 10
8.8156096442
 20
7.4276073202
 30
0.0
 10
8.8034828082
 20
7.4092782947
 30
0.0
 10
8.7918109414
 20
7.3906178276
 30
0.0
 10
8.7781014547
 20
7.3667106706
 30
0.0
 10
8.7631081836
 20
7.3371808469
 30
0.0
 10
8.7495992318
 20
7.3068637673
 30
0.0
 10
8.7376059364
 20
7.2758296894
 30
0.0
 10
8.72715593
 20
7.2441505551
 30
0.0
 10
8.7197587043
 20
7.2172926289
 30
0.0
 10
8.7146338329
 20
7.1955611619
 30
0.0
 10
8.7100333213
 20
7.173642746
 30
0.0
 10
8.7052870876
 20
7.1459761804
 30
0.0
 10
8.7012136731
 20
7.1124577936
 30
0.0
 10
8.6987671283
 20
7.0786711625
 30
0.0
 10
8.6982250866
 20
7.0560551067
 30
0.0
 10
8.6982250866
 20
7.044730388
 30
0.0
  0
SPLINE
  5
381
100
AcDbEntity
  8
0
100
AcDbSpline
 62
7
  6
CONTINUOUS
 70
0
 71
3
 72
23
 73
19
 74
0
 42
0.0000001
 43
0.0000001
 44
0.0000000001
 40
0.0
 40
0.0
 40
0.0
 40
0.0
 40
0.0618603907
 40
0.1239640988
 40
0.1862853195
 40
0.2487942118
 40
0.3114574842
 40
0.3742390306
 40
0.4371006016
 40
0.5000025046
 40
0.5629043217
 40
0.6257656364
 40
0.6885467608
 40
0.7512094533
 40
0.8137176182
 40
0.8760379774
 40
0.9381407091
 40
1.0
 40
1.0
 40
1.0
 40
1.0
 10
10.0159540843
 20
7.1893781394
 30
0.0
 10
10.004137517
 20
7.1926376878
 30
0.0
 10
9.9806740478
 20
7.1999834825
 30
0.0
 10
9.9462503284
 20
7.2133835697
 30
0.0
 10
9.9126879458
 20
7.2291233863
 30
0.0
 10
9.8801558608
 20
7.2471238782
 30
0.0
 10
9.8488151202
 20
7.2672955791
 30
0.0
 10
9.8188215933
 20
7.2895380626
 30
0.0
 10
9.7903242584
 20
7.3137407092
 30
0.0
 10
9.7634647258
 20
7.3397831796
 30
0.0
 10
9.7383764728
 20
7.3675360269
 30
0.0
 10
9.7151842046
 20
7.3968613331
 30
0.0
 10
9.694003239
 20
7.4276133712
 30
0.0
 10
9.674938923
 20
7.4596393905
 30
0.0
 10
9.6580861751
 20
7.4927801095
 30
0.0
 10
9.6435287798
 20
7.5268714574
 30
0.0
 10
9.6313398461
 20
7.561741814
 30
0.0
 10
9.6248185183
 20
7.5854472395
 30
0.0
 10
9.6219739276
 20
7.5973702794
 30
0.0
  0
SPLINE
  5
382
100
AcDbEntity
  8
0
100
AcDbSpline
 62
7
  6
CONTINUOUS
 70
0
 71
3
 72
26
 73
22
 74
0
 42
0.0000001
 43
0.0000001
 44
0.0000000001
 40
0.0
 40
0.0
 40
0.0
 40
0.0
 40
0.0617092224
 40
0.0925729861
 40
0.1234446505
 40
0.1852169763
 40
0.2470517586
 40
0.2780013275
 40
0.3089738786
 40
0.3709922214
 40
0.4331298083
 40
0.4954034066
 40
0.5578284213
 40
0.6204187786
 40
0.6831867415
 40
0.7146430811
 40
0.7461476607
 40
0.8093008765
 40
0.8726570625
 40
0.9362237834
 40
1.0
 40
1.0
 40
1.0
 40
1.0
 10
10.8291226812
 20
9.5628534858
 30
0.0
 10
10.8212413304
 20
9.5552406589
 30
0.0
 10
10.8097090934
 20
9.5435131488
 30
0.0
 10
10.7949531665
 20
9.527301273
 30
0.0
 10
10.7806109791
 20
9.5107067754
 30
0.0
 10
10.7634793247
 20
9.489267265
 30
0.0
 10
10.7474616415
 20
9.4669661671
 30
0.0
 10
10.7353348055
 20
9.4486371416
 30
0.0
 10
10.7236629388
 20
9.4299766745
 30
0.0
 10
10.709953452
 20
9.4060695175
 30
0.0
 10
10.694960181
 20
9.3765396938
 30
0.0
 10
10.6814512291
 20
9.3462226141
 30
0.0
 10
10.6694579337
 20
9.3151885362
 30
0.0
 10
10.6590079273
 20
9.283509402
 30
0.0
 10
10.6516107016
 20
9.2566514757
 30
0.0
 10
10.6464858303
 20
9.2349200088
 30
0.0
 10
10.6418853187
 20
9.2130015928
 30
0.0
 10
10.6371390849
 20
9.1853350273
 30
0.0
 10
10.6330656704
 20
9.1518166405
 30
0.0
 10
10.6306191257
 20
9.1180300093
 30
0.0
 10
10.630077084
 20
9.0954139536
 30
0.0
 10
10.630077084
 20
9.0840892349
 30
0.0
  0
SPLINE
  5
383
100
AcDbEntity
  8
0
100
AcDbSpline
 62
7
  6
CONTINUOUS
 70
0
 71
3
 72
25
 73
21
 74
0
 42
0.0000001
 43
0.0000001
 44
0.0000000001
 40
0.0
 40
0.0
 40
0.0
 40
0.0
 40
0.0616698585
 40
0.0925221144
 40
0.1233873692
 40
0.1851610503
 40
0.2470116891
 40
0.2779729665
 40
0.308959368
 40
0.3710107408
 40
0.4331841913
 40
0.4954928703
 40
0.5579488032
 40
0.6205628041
 40
0.6833443175
 40
0.7463016016
 40
0.8094414048
 40
0.872768098
 40
0.9362885602
 40
1.0
 40
1.0
 40
1.0
 40
1.0
 10
10.718708324
 20
9.5650605591
 30
0.0
 10
10.7112548959
 20
9.5567888432
 30
0.0
 10
10.7003626781
 20
9.5441129181
 30
0.0
 10
10.6864479624
 20
9.5267138341
 30
0.0
 10
10.6729342305
 20
9.5089773967
 30
0.0
 10
10.656815402
 20
9.4862002196
 30
0.0
 10
10.6417718639
 20
9.4626784119
 30
0.0
 10
10.6303951339
 20
9.4434366988
 30
0.0
 10
10.6194524258
 20
9.4239033712
 30
0.0
 10
10.6066140048
 20
9.3989817342
 30
0.0
 10
10.5925912763
 20
9.3683486524
 30
0.0
 10
10.5799711449
 20
9.3370325043
 30
0.0
 10
10.568778246
 20
9.3050942353
 30
0.0
 10
10.5590340909
 20
9.2725955172
 30
0.0
 10
10.5507574206
 20
9.2395992264
 30
0.0
 10
10.5439642048
 20
9.2061691034
 30
0.0
 10
10.5386676445
 20
9.1723699567
 30
0.0
 10
10.5348776384
 20
9.138266511
 30
0.0
 10
10.5326018534
 20
9.1039260225
 30
0.0
 10
10.5320975068
 20
9.0809512301
 30
0.0
 10
10.5320975068
 20
9.0694482252
 30
0.0
  0
SPLINE
  5
384
100
AcDbEntity
  8
0
100
AcDbSpline
 62
7
  6
CONTINUOUS
 70
0
 71
3
 72
26
 73
22
 74
0
 42
0.0000001
 43
0.0000001
 44
0.0000000001
 40
0.0
 40
0.0
 40
0.0
 40
0.0
 40
0.0617092235
 40
0.0925729854
 40
0.1234446509
 40
0.1852169748
 40
0.2470517571
 40
0.2780013275
 40
0.3089738777
 40
0.3709922222
 40
0.4331298084
 40
0.4954034049
 40
0.5578284199
 40
0.6204187753
 40
0.6831867461
 40
0.7146430864
 40
0.7461476576
 40
0.8093008659
 40
0.872657114
 40
0.9362236724
 40
1.0
 40
1.0
 40
1.0
 40
1.0
 10
10.6814999936
 20
9.5314871985
 30
0.0
 10
10.6727596312
 20
9.5230446445
 30
0.0
 10
10.6599705191
 20
9.5100388887
 30
0.0
 10
10.6436062721
 20
9.4920600917
 30
0.0
 10
10.6277009573
 20
9.4736568829
 30
0.0
 10
10.608702065
 20
9.4498806669
 30
0.0
 10
10.5909385517
 20
9.4251489525
 30
0.0
 10
10.5774900443
 20
9.4048221774
 30
0.0
 10
10.564545979
 20
9.3841279094
 30
0.0
 10
10.5493423167
 20
9.3576150392
 30
0.0
 10
10.5327149006
 20
9.3248667084
 30
0.0
 10
10.5177335752
 20
9.2912453187
 30
0.0
 10
10.5044331003
 20
9.2568287841
 30
0.0
 10
10.492844121
 20
9.2216968837
 30
0.0
 10
10.4846406799
 20
9.191911656
 30
0.0
 10
10.4789572227
 20
9.1678116406
 30
0.0
 10
10.4738553137
 20
9.1435042951
 30
0.0
 10
10.4685917598
 20
9.1128222945
 30
0.0
 10
10.4640743896
 20
9.075650697
 30
0.0
 10
10.4613611767
 20
9.0381815983
 30
0.0
 10
10.460760066
 20
9.0131005871
 30
0.0
 10
10.460760066
 20
9.0005415447
 30
0.0
  0
SPLINE
  5
385
100
AcDbEntity
  8
0
100
AcDbSpline
 62
7
  6
CONTINUOUS
 70
0
 71
3
 72
54
 73
50
 74
0
 42
0.0000001
 43
0.0000001
 44
0.0000000001
 40
0.0
 40
0.0
 40
0.0
 40
0.0
 40
0.0149714207
 40
0.0299459009
 40
0.0449264795
 40
0.0599161607
 40
0.0749178924
 40
0.0899345474
 40
0.1049689109
 40
0.1200236599
 40
0.135101347
 40
0.1502043904
 40
0.1653350555
 40
0.1804954423
 40
0.195687479
 40
0.210912906
 40
0.2261732683
 40
0.2414699124
 40
0.2568039734
 40
0.2721763729
 40
0.2875878193
 40
0.3030387972
 40
0.3185295728
 40
0.3340601946
 40
0.3496304877
 40
0.3652400644
 40
0.3808883259
 40
0.3965744612
 40
0.4122974619
 40
0.4280561242
 40
0.4438490534
 40
0.4596746808
 40
0.4914119437
 40
0.5232571513
 40
0.5551923202
 40
0.587197651
 40
0.6192519366
 40
0.651332993
 40
0.6834181045
 40
0.7154844744
 40
0.7475096792
 40
0.7794721147
 40
0.8113514322
 40
0.8431289588
 40
0.8747880885
 40
0.9063146442
 40
0.9376972366
 40
0.9689272309
 40
1.0
 40
1.0
 40
1.0
 40
1.0
 10
11.8036934565
 20
8.2866430231
 30
0.0
 10
11.796550925
 20
8.279743861
 30
0.0
 10
11.7819884662
 20
8.266226537
 30
0.0
 10
11.7593538387
 20
8.2468324938
 30
0.0
 10
11.7359570879
 20
8.2283447182
 30
0.0
 10
11.7118308869
 20
8.2107890345
 30
0.0
 10
11.6870082416
 20
8.1941895944
 30
0.0
 10
11.6615234135
 20
8.1785691739
 30
0.0
 10
11.6354114723
 20
8.1639492332
 30
0.0
 10
11.608708299
 20
8.150349993
 30
0.0
 10
11.5814507072
 20
8.1377900314
 30
0.0
 10
11.5536761919
 20
8.126286638
 30
0.0
 10
11.5254229418
 20
8.1158557138
 30
0.0
 10
11.4967298852
 20
8.1065114578
 30
0.0
 10
11.4676364774
 20
8.0982667684
 30
0.0
 10
11.4381827379
 20
8.0911330209
 30
0.0
 10
11.4084092196
 20
8.0851198761
 30
0.0
 10
11.3783568589
 20
8.0802356808
 30
0.0
 10
11.3480670002
 20
8.076487138
 30
0.0
 10
11.3175813184
 20
8.0738792678
 30
0.0
 10
11.2869417321
 20
8.0724157565
 30
0.0
 10
11.2561903876
 20
8.0720985535
 30
0.0
 10
11.2253695717
 20
8.0729279897
 30
0.0
 10
11.1945216716
 20
8.0749030368
 30
0.0
 10
11.1636891038
 20
8.0780208738
 30
0.0
 10
11.1329142539
 20
8.0822771478
 30
0.0
 10
11.1022394524
 20
8.087666118
 30
0.0
 10
11.0717068642
 20
8.0941802366
 30
0.0
 10
11.0413584265
 20
8.1018105415
 30
0.0
 10
11.0112360142
 20
8.110546578
 30
0.0
 10
10.9813805401
 20
8.120376402
 30
0.0
 10
10.9419515643
 20
8.1349349536
 30
0.0
 10
10.8935390625
 20
8.1558041579
 30
0.0
 10
10.8372235595
 20
8.1849423417
 30
0.0
 10
10.7829319317
 20
8.2180425557
 30
0.0
 10
10.7309641087
 20
8.2549221766
 30
0.0
 10
10.6816047037
 20
8.295378781
 30
0.0
 10
10.6351246595
 20
8.3391900818
 30
0.0
 10
10.5917790336
 20
8.3861155984
 30
0.0
 10
10.5518058316
 20
8.4358978236
 30
0.0
 10
10.5154244878
 20
8.4882635215
 30
0.0
 10
10.4828348512
 20
8.5429253532
 30
0.0
 10
10.454216133
 20
8.5995834385
 30
0.0
 10
10.4297257407
 20
8.6579268355
 30
0.0
 10
10.4094985002
 20
8.7176354372
 30
0.0
 10
10.3936460101
 20
8.7783812282
 30
0.0
 10
10.382256028
 20
8.8398317976
 30
0.0
 10
10.375391482
 20
8.9016453269
 30
0.0
 10
10.3738539802
 20
8.9429862957
 30
0.0
 10
10.3738539802
 20
8.963596707
 30
0.0
  0
SPLINE
  5
386
100
AcDbEntity
  8
0
100
AcDbSpline
 62
7
  6
CONTINUOUS
 70
0
 71
3
 72
55
 73
51
 74
0
 42
0.0000001
 43
0.0000001
 44
0.0000000001
 40
0.0
 40
0.0
 40
0.0
 40
0.0
 40
0.0149619368
 40
0.0299312102
 40
0.0449106607
 40
0.0599030693
 40
0.0749111394
 40
0.0899374877
 40
0.1049846232
 40
0.1200549352
 40
0.1351506842
 40
0.1502739817
 40
0.1654267865
 40
0.1806108923
 40
0.195827914
 40
0.2110792891
 40
0.2263662629
 40
0.2416898848
 40
0.2570510099
 40
0.2724502853
 40
0.2878881575
 40
0.3033648687
 40
0.3188804517
 40
0.3344347417
 40
0.3500273692
 40
0.3656577666
 40
0.3813251774
 40
0.397028651
 40
0.412767059
 40
0.4285390978
 40
0.4443432922
 40
0.4601780138
 40
0.4919270556
 40
0.5237750956
 40
0.5557043255
 40
0.5876953777
 40
0.6197277047
 40
0.6517799743
 40
0.683830476
 40
0.7158575332
 40
0.7478399137
 40
0.7797572342
 40
0.8115903556
 40
0.8433217594
 40
0.8749358986
 40
0.9064195193
 40
0.9221113913
 40
0.9377669155
 40
0.9689601911
 40
1.0
 40
1.0
 40
1.0
 40
1.0
 10
11.8028558201
 20
8.2876725646
 30
0.0
 10
11.7954895806
 20
8.2813581742
 30
0.0
 10
11.7805067465
 20
8.2690109081
 30
0.0
 10
11.757325552
 20
8.2513708537
 30
0.0
 10
11.7334622506
 20
8.2346299072
 30
0.0
 10
11.7089484893
 20
8.2188105783
 30
0.0
 10
11.6838164284
 20
8.2039333793
 30
0.0
 10
11.6580990598
 20
8.1900178949
 30
0.0
 10
11.6318300972
 20
8.1770824516
 30
0.0
 10
11.6050441016
 20
8.1651438557
 30
0.0
 10
11.5777761636
 20
8.1542179084
 30
0.0
 10
11.5500621034
 20
8.1443188755
 30
0.0
 10
11.5219383157
 20
8.1354596548
 30
0.0
 10
11.4934416606
 20
8.1276520223
 30
0.0
 10
11.4646095838
 20
8.120906035
 30
0.0
 10
11.4354798989
 20
8.1152305913
 30
0.0
 10
11.406090822
 20
8.110633184
 30
0.0
 10
11.3764809367
 20
8.1071196599
 30
0.0
 10
11.34668907
 20
8.1046947756
 30
0.0
 10
11.3167543179
 20
8.1033616079
 30
0.0
 10
11.2867159464
 20
8.1031218281
 30
0.0
 10
11.2566133606
 20
8.1039758937
 30
0.0
 10
11.2264860412
 20
8.1059224848
 30
0.0
 10
11.1963735044
 20
8.1089591162
 30
0.0
 10
11.1663152534
 20
8.1130818289
 30
0.0
 10
11.1363506851
 20
8.1182850473
 30
0.0
 10
11.1065191225
 20
8.1245621008
 30
0.0
 10
11.0768596763
 20
8.131904636
 30
0.0
 10
11.0474111951
 20
8.1403029905
 30
0.0
 10
11.0182124509
 20
8.1497462227
 30
0.0
 10
10.989301252
 20
8.1602219715
 30
0.0
 10
10.9511581166
 20
8.1755595382
 30
0.0
 10
10.9043891564
 20
8.1972474156
 30
0.0
 10
10.8500714374
 20
8.2271240591
 30
0.0
 10
10.7977850012
 20
8.2607214415
 30
0.0
 10
10.7478053611
 20
8.2978627125
 30
0.0
 10
10.7003936445
 20
8.3383534624
 30
0.0
 10
10.6557981962
 20
8.3819815685
 30
0.0
 10
10.6142524254
 20
8.4285185423
 30
0.0
 10
10.5759738997
 20
8.4777207387
 30
0.0
 10
10.5411631611
 20
8.5293306063
 30
0.0
 10
10.5100026766
 20
8.5830780558
 30
0.0
 10
10.4826558261
 20
8.6386815857
 30
0.0
 10
10.4592660233
 20
8.6958506513
 30
0.0
 10
10.4399565078
 20
8.7542840435
 30
0.0
 10
10.4273348017
 20
8.8038393971
 30
0.0
 10
10.4193759844
 20
8.8438053259
 30
0.0
 10
10.4128644475
 20
8.8838419279
 30
0.0
 10
10.4074135656
 20
8.934099081
 30
0.0
 10
10.4059475148
 20
8.9744686098
 30
0.0
 10
10.4059475148
 20
8.9945966828
 30
0.0
  0
SPLINE
  5
387
100
AcDbEntity
  8
0
100
AcDbSpline
 62
7
  6
CONTINUOUS
 70
0
 71
3
 72
25
 73
21
 74
0
 42
0.0000001
 43
0.0000001
 44
0.0000000001
 40
0.0
 40
0.0
 40
0.0
 40
0.0
 40
0.0616739827
 40
0.1233885017
 40
0.1851611334
 40
0.2470089423
 40
0.2779683585
 40
0.3089526602
 40
0.3709992415
 40
0.4331676999
 40
0.49547167
 40
0.5579236192
 40
0.6205347777
 40
0.6833149774
 40
0.7147732343
 40
0.7462768529
 40
0.8094192768
 40
0.8727509238
 40
0.9362784945
 40
1.0
 40
1.0
 40
1.0
 40
1.0
 10
10.6083002544
 20
9.5242836113
 30
0.0
 10
10.6002275736
 20
9.5155000468
 30
0.0
 10
10.5844937906
 20
9.4975387174
 30
0.0
 10
10.5621961969
 20
9.4694932797
 30
0.0
 10
10.5412380819
 20
9.4403912711
 30
0.0
 10
10.5249293568
 20
9.415315218
 30
0.0
 10
10.512593994
 20
9.3947893937
 30
0.0
 10
10.5007282376
 20
9.3739443077
 30
0.0
 10
10.4868045835
 20
9.347334254
 30
0.0
 10
10.4715939188
 20
9.3146042363
 30
0.0
 10
10.4579025855
 20
9.2811251016
 30
0.0
 10
10.4457579289
 20
9.2469636153
 30
0.0
 10
10.4351839999
 20
9.2121879382
 30
0.0
 10
10.4277035779
 20
9.1827727261
 30
0.0
 10
10.4225229539
 20
9.1590063697
 30
0.0
 10
10.4178739507
 20
9.1350589263
 30
0.0
 10
10.4130793325
 20
9.1048677938
 30
0.0
 10
10.4089653904
 20
9.0683337848
 30
0.0
 10
10.4064949579
 20
9.0315401955
 30
0.0
 10
10.4059475148
 20
9.0069225008
 30
0.0
 10
10.4059475148
 20
8.9945966828
 30
0.0
  0
SPLINE
  5
388
100
AcDbEntity
  8
0
100
AcDbSpline
 62
7
  6
CONTINUOUS
 70
0
 71
3
 72
56
 73
52
 74
0
 42
0.0000001
 43
0.0000001
 44
0.0000000001
 40
0.0
 40
0.0
 40
0.0
 40
0.0
 40
0.0149712696
 40
0.0299455975
 40
0.0449260257
 40
0.0599155555
 40
0.0749171349
 40
0.0899336395
 40
0.1049678509
 40
0.1200224476
 40
0.1350999838
 40
0.1502028742
 40
0.1653333868
 40
0.1804936216
 40
0.1956855044
 40
0.2109107785
 40
0.2261709873
 40
0.2414674767
 40
0.2568013838
 40
0.2721736284
 40
0.2875849194
 40
0.303035742
 40
0.3185263613
 40
0.3340568268
 40
0.3496269629
 40
0.3652363825
 40
0.3808844863
 40
0.3965704631
 40
0.412293306
 40
0.4280518089
 40
0.4438445787
 40
0.4596700473
 40
0.4755264713
 40
0.4914119521
 40
0.5232568382
 40
0.5551916851
 40
0.5871966925
 40
0.619250654
 40
0.6513313861
 40
0.6834161731
 40
0.7154822189
 40
0.7475070999
 40
0.7794692115
 40
0.8113482064
 40
0.8431254121
 40
0.874784222
 40
0.9063104541
 40
0.9220227305
 40
0.937697876
 40
0.9689275382
 40
1.0
 40
1.0
 40
1.0
 40
1.0
 10
11.8125474768
 20
8.3605407496
 30
0.0
 10
11.8057948435
 20
8.3540181973
 30
0.0
 10
11.7920272511
 20
8.3412388323
 30
0.0
 10
11.7706282291
 20
8.3229034438
 30
0.0
 10
11.7485086575
 20
8.3054248792
 30
0.0
 10
11.7256993954
 20
8.2888276125
 30
0.0
 10
11.7022318047
 20
8.2731342499
 30
0.0
 10
11.6781381134
 20
8.2583665606
 30
0.0
 10
11.6534515387
 20
8.2445447537
 30
0.0
 10
11.628206067
 20
8.2316878109
 30
0.0
 10
11.602436376
 20
8.2198135489
 30
0.0
 10
11.5761780092
 20
8.2089381216
 30
0.0
 10
11.549467057
 20
8.1990765711
 30
0.0
 10
11.5223402707
 20
8.190242478
 30
0.0
 10
11.4948350185
 20
8.1824478342
 30
0.0
 10
11.4669890955
 20
8.175703515
 30
0.0
 10
11.4388408425
 20
8.1700186727
 30
0.0
 10
11.4104289836
 20
8.1654010707
 30
0.0
 10
11.3817925817
 20
8.1618571919
 30
0.0
 10
11.3529710499
 20
8.1593917061
 30
0.0
 10
11.3240040168
 20
8.1580080794
 30
0.0
 10
11.2949313258
 20
8.1577082279
 30
0.0
 10
11.2657929562
 20
8.1584923924
 30
0.0
 10
11.2366289819
 20
8.160359647
 30
0.0
 10
11.2074795035
 20
8.1633073011
 30
0.0
 10
11.1783845911
 20
8.1673312425
 30
0.0
 10
11.1493842726
 20
8.1724260714
 30
0.0
 10
11.1205183894
 20
8.1785845871
 30
0.0
 10
11.0918266383
 20
8.1857983959
 30
0.0
 10
11.0633484861
 20
8.1940575964
 30
0.0
 10
11.0351230062
 20
8.2033506914
 30
0.0
 10
11.0071891624
 20
8.2136649903
 30
0.0
 10
10.9795849062
 20
8.2249864369
 30
0.0
 10
10.9432441253
 20
8.2414149072
 30
0.0
 10
10.8988339496
 20
8.2643927403
 30
0.0
 10
10.8475074755
 20
8.2956855238
 30
0.0
 10
10.798376092
 20
8.3305521337
 30
0.0
 10
10.751711201
 20
8.3688002216
 30
0.0
 10
10.7077684136
 20
8.4102199981
 30
0.0
 10
10.6667889891
 20
8.4545839772
 30
0.0
 10
10.6289978223
 20
8.5016486741
 30
0.0
 10
10.5946024505
 20
8.5511558166
 30
0.0
 10
10.5637918669
 20
8.602833824
 30
0.0
 10
10.5367354149
 20
8.6563989685
 30
0.0
 10
10.5135818224
 20
8.711557846
 30
0.0
 10
10.4944589696
 20
8.7680058101
 30
0.0
 10
10.4819545925
 20
8.8159232885
 30
0.0
 10
10.4740684188
 20
8.8545873487
 30
0.0
 10
10.4676159012
 20
8.8933280737
 30
0.0
 10
10.4622134448
 20
8.9419728999
 30
0.0
 10
10.460760066
 20
8.9810562106
 30
0.0
 10
10.460760066
 20
9.0005415447
 30
0.0
  0
SPLINE
  5
389
100
AcDbEntity
  8
0
100
AcDbSpline
 62
7
  6
CONTINUOUS
 70
0
 71
3
 72
54
 73
50
 74
0
 42
0.0000001
 43
0.0000001
 44
0.0000000001
 40
0.0
 40
0.0
 40
0.0
 40
0.0
 40
0.0149609029
 40
0.0299299255
 40
0.0449098678
 40
0.0599034639
 40
0.07491337
 40
0.089942152
 40
0.1049922632
 40
0.1200660404
 40
0.135165685
 40
0.1502932511
 40
0.1654506415
 40
0.1806395878
 40
0.1958616507
 40
0.21111821
 40
0.2264104527
 40
0.2417393791
 40
0.2571057873
 40
0.272510277
 40
0.2879532492
 40
0.3034348963
 40
0.3189552159
 40
0.3345140011
 40
0.3501108471
 40
0.3657451596
 40
0.3814161475
 40
0.3971228414
 40
0.4286338034
 40
0.4602716597
 40
0.4920227052
 40
0.5238710432
 40
0.5557989108
 40
0.5877870312
 40
0.6198149876
 40
0.6518616134
 40
0.6839053919
 40
0.7159248594
 40
0.7478990088
 40
0.7798076874
 40
0.8116319828
 40
0.8433545917
 40
0.8749601653
 40
0.8907172686
 40
0.9064404048
 40
0.9221283752
 40
0.9377801437
 40
0.9689664454
 40
1.0
 40
1.0
 40
1.0
 40
1.0
 10
11.8466160897
 20
8.3959139193
 30
0.0
 10
11.8396159599
 20
8.3900497533
 30
0.0
 10
11.8253837771
 20
8.3785874996
 30
0.0
 10
11.8033820444
 20
8.3622259922
 30
0.0
 10
11.7807495085
 20
8.346712752
 30
0.0
 10
11.757515953
 20
8.3320684019
 30
0.0
 10
11.7337115961
 20
8.3183117151
 30
0.0
 10
11.709367332
 20
8.3054607661
 30
0.0
 10
11.6845148733
 20
8.2935321574
 30
0.0
 10
11.6591865557
 20
8.2825413585
 30
0.0
 10
11.6334152635
 20
8.272502794
 30
0.0
 10
11.6072345899
 20
8.2634293063
 30
0.0
 10
11.5806785255
 20
8.2553328342
 30
0.0
 10
11.5537816268
 20
8.248223836
 30
0.0
 10
11.5265788847
 20
8.2421114541
 30
0.0
 10
11.4991056329
 20
8.2370038001
 30
0.0
 10
11.4713976301
 20
8.2329072924
 30
0.0
 10
11.4434908769
 20
8.2298273641
 30
0.0
 10
11.4154216588
 20
8.2277679974
 30
0.0
 10
11.3872264681
 20
8.226731722
 30
0.0
 10
11.3589419496
 20
8.2267200673
 30
0.0
 10
11.3306048694
 20
8.2277328414
 30
0.0
 10
11.3022520534
 20
8.2297687934
 30
0.0
 10
11.2739203674
 20
8.2328253055
 30
0.0
 10
11.2456465785
 20
8.2368982371
 30
0.0
 10
11.2174675715
 20
8.2419824397
 30
0.0
 10
11.1894195157
 20
8.2480712783
 30
0.0
 10
11.152209906
 20
8.257527543
 30
0.0
 10
11.106206336
 20
8.2718254933
 30
0.0
 10
11.052172919
 20
8.292822725
 30
0.0
 10
10.9995226142
 20
8.3175708761
 30
0.0
 10
10.9485303674
 20
8.3459407476
 30
0.0
 10
10.8994601669
 20
8.3777849913
 30
0.0
 10
10.8525666755
 20
8.4129381809
 30
0.0
 10
10.8080930647
 20
8.4512177728
 30
0.0
 10
10.7662700215
 20
8.4924250651
 30
0.0
 10
10.7273145193
 20
8.5363462447
 30
0.0
 10
10.69142873
 20
8.5827534659
 30
0.0
 10
10.6587989465
 20
8.6314060546
 30
0.0
 10
10.629594623
 20
8.6820515051
 30
0.0
 10
10.6039673801
 20
8.7344276173
 30
0.0
 10
10.5820509511
 20
8.78826091
 30
0.0
 10
10.5669575938
 20
8.8341569243
 30
0.0
 10
10.5568491209
 20
8.8713193617
 30
0.0
 10
10.5502641405
 20
8.8993529242
 30
0.0
 10
10.5446774578
 20
8.9275368407
 30
0.0
 10
10.5385773054
 20
8.9652175763
 30
0.0
 10
10.5334708318
 20
9.0125153742
 30
0.0
 10
10.5320975068
 20
9.0505059832
 30
0.0
 10
10.5320975068
 20
9.0694482252
 30
0.0
  0
SPLINE
  5
38A
100
AcDbEntity
  8
0
100
AcDbSpline
 62
7
  6
CONTINUOUS
 70
0
 71
3
 72
39
 73
35
 74
0
 42
0.0000001
 43
0.0000001
 44
0.0000000001
 40
0.0
 40
0.0
 40
0.0
 40
0.0
 40
0.0301591263
 40
0.060330288
 40
0.0905566831
 40
0.1208780509
 40
0.1513307272
 40
0.1819453581
 40
0.2127460029
 40
0.2437491901
 40
0.2749634265
 40
0.306389019
 40
0.3380182266
 40
0.3698357044
 40
0.4018192029
 40
0.4339404818
 40
0.4661663969
 40
0.4984601203
 40
0.5307824546
 40
0.5630932072
 40
0.5953525884
 40
0.6275225992
 40
0.6595683758
 40
0.6914594539
 40
0.7231709171
 40
0.7546843892
 40
0.7859888294
 40
0.8170810914
 40
0.8479661965
 40
0.8786573255
 40
0.9091753653
 40
0.9395484802
 40
0.9698102396
 40
1.0
 40
1.0
 40
1.0
 40
1.0
 10
12.9277518481
 20
5.0872714629
 30
0.0
 10
12.925234196
 20
5.0844456416
 30
0.0
 10
12.9198962391
 20
5.0790535051
 30
0.0
 10
12.9110812673
 20
5.0718499625
 30
0.0
 10
12.9015417967
 20
5.0655982683
 30
0.0
 10
12.8913712198
 20
5.0603600009
 30
0.0
 10
12.8806677751
 20
5.056185171
 30
0.0
 10
12.8695350516
 20
5.0531138624
 30
0.0
 10
12.8580806065
 20
5.0511752658
 30
0.0
 10
12.8464149771
 20
5.0503876308
 30
0.0
 10
12.8346505889
 20
5.0507580762
 30
0.0
 10
12.8229006815
 20
5.0522825853
 30
0.0
 10
12.811278234
 20
5.0549460753
 30
0.0
 10
12.7998949014
 20
5.058722572
 30
0.0
 10
12.7888599678
 20
5.0635754781
 30
0.0
 10
12.7782793237
 20
5.0694579346
 30
0.0
 10
12.7682544742
 20
5.0763132739
 30
0.0
 10
12.7588815879
 20
5.0840755612
 30
0.0
 10
12.7502505937
 20
5.0926702205
 30
0.0
 10
12.7424443332
 20
5.102014738
 30
0.0
 10
12.7355377812
 20
5.1120194428
 30
0.0
 10
12.7295973373
 20
5.122588351
 30
0.0
 10
12.7246801969
 20
5.1336200678
 30
0.0
 10
12.7208338057
 20
5.1450087388
 30
0.0
 10
12.7180954028
 20
5.1566450417
 30
0.0
 10
12.716491656
 20
5.168417211
 30
0.0
 10
12.7160383874
 20
5.1802120842
 30
0.0
 10
12.7167404029
 20
5.1919161683
 30
0.0
 10
12.7185913925
 20
5.2034167066
 30
0.0
 10
12.7215740084
 20
5.2146027803
 30
0.0
 10
12.7256598044
 20
5.2253662837
 30
0.0
 10
12.7308100395
 20
5.2356034002
 30
0.0
 10
12.736974083
 20
5.2452138933
 30
0.0
 10
12.7417259871
 20
5.251148456
 30
0.0
 10
12.7442461965
 20
5.2539771476
 30
0.0
  0
SPLINE
  5
38B
100
AcDbEntity
  8
0
100
AcDbSpline
 62
7
  6
CONTINUOUS
 70
0
 71
3
 72
55
 73
51
 74
0
 42
0.0000001
 43
0.0000001
 44
0.0000000001
 40
0.0
 40
0.0
 40
0.0
 40
0.0
 40
0.0149713426
 40
0.029945745
 40
0.0449262466
 40
0.0599158497
 40
0.0749175039
 40
0.0899340815
 40
0.1049683671
 40
0.1200230387
 40
0.1351006478
 40
0.1502036136
 40
0.1653342004
 40
0.1804945089
 40
0.1956864682
 40
0.2109118157
 40
0.2261721
 40
0.2414686657
 40
0.2568026464
 40
0.2721749684
 40
0.2875863346
 40
0.3030372323
 40
0.3185279299
 40
0.3340584699
 40
0.3496286834
 40
0.3652381805
 40
0.3808863595
 40
0.3965724155
 40
0.4122953346
 40
0.4280539148
 40
0.4596672873
 40
0.4914043865
 40
0.5232494291
 40
0.5551844326
 40
0.5871895976
 40
0.619243717
 40
0.651324607
 40
0.6834095519
 40
0.7154757557
 40
0.747500794
 40
0.7794630628
 40
0.8113422149
 40
0.8431195771
 40
0.8747785431
 40
0.8905616191
 40
0.9063099906
 40
0.9220223492
 40
0.9376975737
 40
0.9689273837
 40
1.0
 40
1.0
 40
1.0
 40
1.0
 10
11.8490106838
 20
8.5069877927
 30
0.0
 10
11.8429217062
 20
8.5011062714
 30
0.0
 10
11.8305072002
 20
8.4895828574
 30
0.0
 10
11.8112112904
 20
8.4730494547
 30
0.0
 10
11.7912655923
 20
8.4572887373
 30
0.0
 10
11.770698074
 20
8.4423225867
 30
0.0
 10
11.7495368475
 20
8.4281716167
 30
0.0
 10
11.7278110891
 20
8.4148552966
 30
0.0
 10
11.7055507426
 20
8.4023918432
 30
0.0
 10
11.6827863557
 20
8.3907985663
 30
0.0
 10
11.6595493436
 20
8.3800912427
 30
0.0
 10
11.6358716458
 20
8.3702846634
 30
0.0
 10
11.6117858315
 20
8.3613923583
 30
0.0
 10
11.5873250967
 20
8.3534263915
 30
0.0
 10
11.5625230396
 20
8.3463978881
 30
0.0
 10
11.5374138251
 20
8.3403163735
 30
0.0
 10
11.5120319925
 20
8.3351901926
 30
0.0
 10
11.4864124394
 20
8.3310265042
 30
0.0
 10
11.4605904378
 20
8.3278308253
 30
0.0
 10
11.4346014841
 20
8.3256076888
 30
0.0
 10
11.4084813342
 20
8.3243600772
 30
0.0
 10
11.3822659098
 20
8.3240896049
 30
0.0
 10
11.3559912646
 20
8.3247968015
 30
0.0
 10
11.3296935267
 20
8.3264804871
 30
0.0
 10
11.303408857
 20
8.3291384279
 30
0.0
 10
11.2771734129
 20
8.3327669751
 30
0.0
 10
11.2510232127
 20
8.3373609904
 30
0.0
 10
11.2249943516
 20
8.3429142856
 30
0.0
 10
11.1991221784
 20
8.3494192192
 30
0.0
 10
11.1648504266
 20
8.3593584704
 30
0.0
 10
11.1225799403
 20
8.3741217573
 30
0.0
 10
11.0731079197
 20
8.3954482148
 30
0.0
 10
11.0250977713
 20
8.4202888845
 30
0.0
 10
10.9788147108
 20
8.448506608
 30
0.0
 10
10.934512215
 20
8.479946408
 30
0.0
 10
10.892433514
 20
8.514435535
 30
0.0
 10
10.8528094414
 20
8.5517845562
 30
0.0
 10
10.815857456
 20
8.5917884271
 30
0.0
 10
10.7817804029
 20
8.6342275869
 30
0.0
 10
10.7507654323
 20
8.678869209
 30
0.0
 10
10.7229829404
 20
8.7254681942
 30
0.0
 10
10.6985854928
 20
8.7737693196
 30
0.0
 10
10.6777077726
 20
8.8235057803
 30
0.0
 10
10.6633219558
 20
8.8659718993
 30
0.0
 10
10.6536846127
 20
8.9003858664
 30
0.0
 10
10.6474054532
 20
8.9263580249
 30
0.0
 10
10.6420774282
 20
8.9524796255
 30
0.0
 10
10.6362591667
 20
8.9874126078
 30
0.0
 10
10.6313876083
 20
9.0312767634
 30
0.0
 10
10.630077084
 20
9.0665189204
 30
0.0
 10
10.630077084
 20
9.0840892349
 30
0.0
  0
SPLINE
  5
38C
100
AcDbEntity
  8
0
100
AcDbSpline
 62
7
  6
CONTINUOUS
 70
0
 71
3
 72
43
 73
39
 74
0
 42
0.0000001
 43
0.0000001
 44
0.0000000001
 40
0.0
 40
0.0
 40
0.0
 40
0.0
 40
0.0303546589
 40
0.0455763053
 40
0.0608269374
 40
0.0914129854
 40
0.1221164404
 40
0.1375134516
 40
0.1529394062
 40
0.1838739518
 40
0.2149194073
 40
0.2460709173
 40
0.2773223873
 40
0.3086665654
 40
0.3400951368
 40
0.3715988265
 40
0.403167512
 40
0.4347903413
 40
0.4664558587
 40
0.4981521342
 40
0.5298668974
 40
0.5615876735
 40
0.5933019214
 40
0.6249971718
 40
0.6566611651
 40
0.6882819878
 40
0.7198482062
 40
0.7513489958
 40
0.7827742672
 40
0.8141147812
 40
0.8453622728
 40
0.8609502244
 40
0.8765122974
 40
0.9075533139
 40
0.9384831009
 40
0.9539065263
 40
0.9693015043
 40
1.0
 40
1.0
 40
1.0
 40
1.0
 10
12.0325637016
 20
8.8651320751
 30
0.0
 10
12.0197326733
 20
8.8634445389
 30
0.0
 10
12.0003899071
 20
8.8614560174
 30
0.0
 10
11.9745016311
 20
8.859890499
 30
0.0
 10
11.9484803721
 20
8.859045844
 30
0.0
 10
11.9158316143
 20
8.8593512631
 30
0.0
 10
11.8831875504
 20
8.86146389
 30
0.0
 10
11.8570997379
 20
8.8642321154
 30
0.0
 10
11.8309996449
 20
8.8677249233
 30
0.0
 10
11.7984784394
 20
8.873437829
 30
0.0
 10
11.759781102
 20
8.8824141575
 30
0.0
 10
11.7214906738
 20
8.8934905257
 30
0.0
 10
11.6837247834
 20
8.9066329221
 30
0.0
 10
11.6465985001
 20
8.9218011424
 30
0.0
 10
11.6102251845
 20
8.9389487823
 30
0.0
 10
11.5747158236
 20
8.9580234186
 30
0.0
 10
11.5401787814
 20
8.9789667593
 30
0.0
 10
11.5067194473
 20
9.0017148235
 30
0.0
 10
11.4744399232
 20
9.0261981362
 30
0.0
 10
11.4434387127
 20
9.052341939
 30
0.0
 10
11.4138104227
 20
9.0800664175
 30
0.0
 10
11.3856454766
 20
9.1092869437
 30
0.0
 10
11.3590298401
 20
9.1399143327
 30
0.0
 10
11.3340447602
 20
9.1718551128
 30
0.0
 10
11.310766519
 20
9.2050118112
 30
0.0
 10
11.2892661982
 20
9.2392832405
 30
0.0
 10
11.2696094609
 20
9.2745648302
 30
0.0
 10
11.2518563715
 20
9.3107488626
 30
0.0
 10
11.2360611439
 20
9.3477251044
 30
0.0
 10
11.2222722354
 20
9.3853800062
 30
0.0
 10
11.2124801354
 20
9.4172568415
 30
0.0
 10
11.2056913297
 20
9.4429816689
 30
0.0
 10
11.1996130938
 20
9.4687931987
 30
0.0
 10
11.1933327959
 20
9.5012640593
 30
0.0
 10
11.1888241069
 20
9.5339684681
 30
0.0
 10
11.1862971413
 20
9.5601759021
 30
0.0
 10
11.1844939239
 20
9.5863434948
 30
0.0
 10
11.1839493834
 20
9.6060007075
 30
0.0
 10
11.1839493834
 20
9.6190888251
 30
0.0
  0
SPLINE
  5
38D
100
AcDbEntity
  8
0
100
AcDbSpline
 62
7
  6
CONTINUOUS
 70
0
 71
3
 72
44
 73
40
 74
0
 42
0.0000001
 43
0.0000001
 44
0.0000000001
 40
0.0
 40
0.0
 40
0.0
 40
0.0
 40
0.0151732875
 40
0.0303748369
 40
0.0456050022
 40
0.060864052
 40
0.0914665415
 40
0.122185615
 40
0.1375900262
 40
0.1530230813
 40
0.1839708813
 40
0.2150281194
 40
0.2461897957
 40
0.277449708
 40
0.3088005338
 40
0.3402339229
 40
0.371740599
 40
0.4033104699
 40
0.4349327437
 40
0.4665960515
 40
0.4982885749
 40
0.5299981766
 40
0.5617125336
 40
0.593419271
 40
0.625106097
 40
0.656760937
 40
0.6883720656
 40
0.7199282364
 40
0.7514188085
 40
0.7828338683
 40
0.8141643422
 40
0.8454021182
 40
0.8609853547
 40
0.8765428438
 40
0.9075751893
 40
0.9384969135
 40
0.953916598
 40
0.9693080715
 40
1.0
 40
1.0
 40
1.0
 40
1.0
 10
12.0324104243
 20
8.9227882651
 30
0.0
 10
12.0264190001
 20
8.9220719579
 30
0.0
 10
12.0144041937
 20
8.9208062102
 30
0.0
 10
11.9963196237
 20
8.9194106124
 30
0.0
 10
11.9781688984
 20
8.9185170552
 30
0.0
 10
11.9538770423
 20
8.9179956283
 30
0.0
 10
11.923412223
 20
8.9186052156
 30
0.0
 10
11.8929693385
 20
8.9208877658
 30
0.0
 10
11.8686504198
 20
8.9237118454
 30
0.0
 10
11.8443269361
 20
8.9272066647
 30
0.0
 10
11.8140311663
 20
8.9328213486
 30
0.0
 10
11.7779985789
 20
8.9415196595
 30
0.0
 10
11.7423607158
 20
8.9521589622
 30
0.0
 10
11.7072256287
 20
8.9647069852
 30
0.0
 10
11.6726989804
 20
8.9791258539
 30
0.0
 10
11.6388848252
 20
8.9953720352
 30
0.0
 10
11.6058850032
 20
9.0133965144
 30
0.0
 10
11.5737989158
 20
9.0331449304
 30
0.0
 10
11.5427232077
 20
9.0545577434
 30
0.0
 10
11.5127514795
 20
9.0775704066
 30
0.0
 10
11.4839740041
 20
9.1021135598
 30
0.0
 10
11.4564774618
 20
9.1281132455
 30
0.0
 10
11.4303446798
 20
9.1554911287
 30
0.0
 10
11.4056543855
 20
9.184164732
 30
0.0
 10
11.3824809698
 20
9.2140476819
 30
0.0
 10
11.3608942652
 20
9.2450499689
 30
0.0
 10
11.3409593369
 20
9.2770782105
 30
0.0
 10
11.3227362842
 20
9.3100359517
 30
0.0
 10
11.3062800737
 20
9.343823876
 30
0.0
 10
11.2916403048
 20
9.378340381
 30
0.0
 10
11.2788612988
 20
9.4134808433
 30
0.0
 10
11.2697871634
 20
9.4432222811
 30
0.0
 10
11.263496385
 20
9.4672205757
 30
0.0
 10
11.2578642143
 20
9.4912980616
 30
0.0
 10
11.2520450504
 20
9.5215843863
 30
0.0
 10
11.247867622
 20
9.5520853389
 30
0.0
 10
11.2455263468
 20
9.5765260733
 30
0.0
 10
11.2438556558
 20
9.6009295218
 30
0.0
 10
11.2433511464
 20
9.6192610029
 30
0.0
 10
11.2433511464
 20
9.6314665255
 30
0.0
  0
SPLINE
  5
38E
100
AcDbEntity
  8
0
100
AcDbSpline
 62
7
  6
CONTINUOUS
 70
0
 71
3
 72
39
 73
35
 74
0
 42
0.0000001
 43
0.0000001
 44
0.0000000001
 40
0.0
 40
0.0
 40
0.0
 40
0.0
 40
0.0307220853
 40
0.0615353935
 40
0.0924373903
 40
0.123424861
 40
0.1544939419
 40
0.1856401473
 40
0.216858407
 40
0.2481431177
 40
0.279488184
 40
0.3108870598
 40
0.3423328045
 40
0.3738181397
 40
0.4053354964
 40
0.4368770697
 40
0.4684348836
 40
0.5000008462
 40
0.5315668019
 40
0.5631245966
 40
0.5946661387
 40
0.6261834514
 40
0.6576687301
 40
0.6891144075
 40
0.7205132048
 40
0.7518581812
 40
0.7831427931
 40
0.8143609439
 40
0.8455070329
 40
0.876575995
 40
0.9075633128
 40
0.9384652097
 40
0.9692784105
 40
1.0
 40
1.0
 40
1.0
 40
1.0
 10
12.0109152888
 20
9.0557752981
 30
0.0
 10
12.0009998881
 20
9.0569887789
 30
0.0
 10
11.9811906537
 20
9.0598588726
 30
0.0
 10
11.9516537764
 20
9.0654715575
 30
0.0
 10
11.92230535
 20
9.0723872569
 30
0.0
 10
11.8932047179
 20
9.0805920006
 30
0.0
 10
11.8644097648
 20
9.0900694171
 30
0.0
 10
11.8359780447
 20
9.1008006078
 30
0.0
 10
11.8079662677
 20
9.1127640522
 30
0.0
 10
11.7804303339
 20
9.1259358257
 30
0.0
 10
11.7534252199
 20
9.140289661
 30
0.0
 10
11.7270048321
 20
9.1557968975
 30
0.0
 10
11.7012218637
 20
9.1724265046
 30
0.0
 10
11.6761277682
 20
9.1901452806
 30
0.0
 10
11.6517726692
 20
9.2089179059
 30
0.0
 10
11.6282051503
 20
9.2287068663
 30
0.0
 10
11.6054722186
 20
9.2494726273
 30
0.0
 10
11.5836192627
 20
9.2711737617
 30
0.0
 10
11.5626899428
 20
9.2937669927
 30
0.0
 10
11.5427259821
 20
9.3172071746
 30
0.0
 10
11.5237672189
 20
9.3414475196
 30
0.0
 10
11.5058515472
 20
9.3664396862
 30
0.0
 10
11.4890147428
 20
9.3921337964
 30
0.0
 10
11.4732903707
 20
9.4184785375
 30
0.0
 10
11.4587098379
 20
9.4454213411
 30
0.0
 10
11.4453023332
 20
9.4729084704
 30
0.0
 10
11.4330945978
 20
9.5008850417
 30
0.0
 10
11.4221109898
 20
9.529295209
 30
0.0
 10
11.4123734953
 20
9.5580822821
 30
0.0
 10
11.4039016427
 20
9.5871888244
 30
0.0
 10
11.3967122846
 20
9.616556671
 30
0.0
 10
11.3908198216
 20
9.6461274153
 30
0.0
 10
11.3862361965
 20
9.6758411482
 30
0.0
 10
11.3840556256
 20
9.6957378932
 30
0.0
 10
11.383187188
 20
9.7056892902
 30
0.0
  0
SPLINE
  5
38F
100
AcDbEntity
  8
0
100
AcDbSpline
 62
4
  6
CONTINUOUS
 70
0
 71
3
 72
403
 73
399
 74
0
 42
0.0000001
 43
0.0000001
 44
0.0000000001
 40
0.0
 40
0.0
 40
0.0
 40
0.0
 40
0.015625
 40
0.0234375
 40
0.03125
 40
0.0390625
 40
0.04296875
 40
0.046875
 40
0.05078125
 40
0.0546875
 40
0.056640625
 40
0.05859375
 40
0.0595703125
 40
0.060546875
 40
0.0615234375
 40
0.0620117188
 40
0.0622558594
 40
0.0625
 40
0.0627441406
 40
0.0629882812
 40
0.0634765625
 40
0.064453125
 40
0.0654296875
 40
0.06640625
 40
0.068359375
 40
0.0703125
 40
0.07421875
 40
0.078125
 40
0.08203125
 40
0.0859375
 40
0.09375
 40
0.1015625
 40
0.10546875
 40
0.109375
 40
0.11328125
 40
0.1171875
 40
0.119140625
 40
0.12109375
 40
0.1220703125
 40
0.123046875
 40
0.1240234375
 40
0.1245117188
 40
0.1247558594
 40
0.125
 40
0.1252441406
 40
0.1254882812
 40
0.1259765625
 40
0.126953125
 40
0.1279296875
 40
0.12890625
 40
0.130859375
 40
0.1328125
 40
0.13671875
 40
0.140625
 40
0.14453125
 40
0.1484375
 40
0.15625
 40
0.1640625
 40
0.16796875
 40
0.171875
 40
0.17578125
 40
0.1796875
 40
0.181640625
 40
0.18359375
 40
0.1845703125
 40
0.185546875
 40
0.1865234375
 40
0.1870117188
 40
0.1872558594
 40
0.1875
 40
0.1877441406
 40
0.1879882812
 40
0.1884765625
 40
0.189453125
 40
0.1904296875
 40
0.19140625
 40
0.193359375
 40
0.1953125
 40
0.19921875
 40
0.203125
 40
0.20703125
 40
0.2109375
 40
0.21875
 40
0.2265625
 40
0.23046875
 40
0.234375
 40
0.23828125
 40
0.2421875
 40
0.244140625
 40
0.24609375
 40
0.2470703125
 40
0.248046875
 40
0.2490234375
 40
0.2495117188
 40
0.2497558594
 40
0.25
 40
0.2502441406
 40
0.2504882812
 40
0.2509765625
 40
0.251953125
 40
0.2529296875
 40
0.25390625
 40
0.255859375
 40
0.2578125
 40
0.26171875
 40
0.265625
 40
0.26953125
 40
0.2734375
 40
0.28125
 40
0.2890625
 40
0.29296875
 40
0.296875
 40
0.30078125
 40
0.3046875
 40
0.306640625
 40
0.30859375
 40
0.3095703125
 40
0.310546875
 40
0.3115234375
 40
0.3120117188
 40
0.3122558594
 40
0.3125
 40
0.3127441406
 40
0.3129882812
 40
0.3134765625
 40
0.314453125
 40
0.3154296875
 40
0.31640625
 40
0.318359375
 40
0.3203125
 40
0.32421875
 40
0.328125
 40
0.33203125
 40
0.3359375
 40
0.34375
 40
0.3515625
 40
0.35546875
 40
0.359375
 40
0.36328125
 40
0.3671875
 40
0.369140625
 40
0.37109375
 40
0.3720703125
 40
0.373046875
 40
0.3740234375
 40
0.3745117188
 40
0.3747558594
 40
0.375
 40
0.3752441406
 40
0.3754882812
 40
0.3759765625
 40
0.376953125
 40
0.3779296875
 40
0.37890625
 40
0.380859375
 40
0.3828125
 40
0.38671875
 40
0.390625
 40
0.39453125
 40
0.3984375
 40
0.40625
 40
0.4140625
 40
0.41796875
 40
0.421875
 40
0.42578125
 40
0.4296875
 40
0.431640625
 40
0.43359375
 40
0.4345703125
 40
0.435546875
 40
0.4365234375
 40
0.4370117188
 40
0.4372558594
 40
0.4375
 40
0.4377441406
 40
0.4379882812
 40
0.4384765625
 40
0.439453125
 40
0.4404296875
 40
0.44140625
 40
0.443359375
 40
0.4453125
 40
0.44921875
 40
0.453125
 40
0.45703125
 40
0.4609375
 40
0.46875
 40
0.4765625
 40
0.48046875
 40
0.484375
 40
0.48828125
 40
0.4921875
 40
0.494140625
 40
0.49609375
 40
0.4970703125
 40
0.498046875
 40
0.4990234375
 40
0.4995117188
 40
0.4997558594
 40
0.5
 40
0.5002441406
 40
0.5004882812
 40
0.5009765625
 40
0.501953125
 40
0.5029296875
 40
0.50390625
 40
0.505859375
 40
0.5078125
 40
0.51171875
 40
0.515625
 40
0.51953125
 40
0.5234375
 40
0.53125
 40
0.5390625
 40
0.54296875
 40
0.546875
 40
0.55078125
 40
0.5546875
 40
0.556640625
 40
0.55859375
 40
0.5595703125
 40
0.560546875
 40
0.5615234375
 40
0.5620117188
 40
0.5622558594
 40
0.5625
 40
0.5627441406
 40
0.5629882812
 40
0.5634765625
 40
0.564453125
 40
0.5654296875
 40
0.56640625
 40
0.568359375
 40
0.5703125
 40
0.57421875
 40
0.578125
 40
0.58203125
 40
0.5859375
 40
0.59375
 40
0.6015625
 40
0.60546875
 40
0.609375
 40
0.61328125
 40
0.6171875
 40
0.619140625
 40
0.62109375
 40
0.6220703125
 40
0.623046875
 40
0.6240234375
 40
0.6245117188
 40
0.6247558594
 40
0.625
 40
0.6252441406
 40
0.6254882812
 40
0.6259765625
 40
0.626953125
 40
0.6279296875
 40
0.62890625
 40
0.630859375
 40
0.6328125
 40
0.63671875
 40
0.640625
 40
0.64453125
 40
0.6484375
 40
0.65625
 40
0.6640625
 40
0.66796875
 40
0.671875
 40
0.67578125
 40
0.6796875
 40
0.681640625
 40
0.68359375
 40
0.6845703125
 40
0.685546875
 40
0.6865234375
 40
0.6870117188
 40
0.6872558594
 40
0.6875
 40
0.6877441406
 40
0.6879882812
 40
0.6884765625
 40
0.689453125
 40
0.6904296875
 40
0.69140625
 40
0.693359375
 40
0.6953125
 40
0.69921875
 40
0.703125
 40
0.70703125
 40
0.7109375
 40
0.71875
 40
0.7265625
 40
0.73046875
 40
0.734375
 40
0.73828125
 40
0.7421875
 40
0.744140625
 40
0.74609375
 40
0.7470703125
 40
0.748046875
 40
0.7490234375
 40
0.7495117188
 40
0.7497558594
 40
0.75
 40
0.7502441406
 40
0.7504882812
 40
0.7509765625
 40
0.751953125
 40
0.7529296875
 40
0.75390625
 40
0.755859375
 40
0.7578125
 40
0.76171875
 40
0.765625
 40
0.76953125
 40
0.7734375
 40
0.78125
 40
0.7890625
 40
0.79296875
 40
0.796875
 40
0.80078125
 40
0.8046875
 40
0.806640625
 40
0.80859375
 40
0.8095703125
 40
0.810546875
 40
0.8115234375
 40
0.8120117188
 40
0.8122558594
 40
0.8125
 40
0.8127441406
 40
0.8129882812
 40
0.8134765625
 40
0.814453125
 40
0.8154296875
 40
0.81640625
 40
0.818359375
 40
0.8203125
 40
0.82421875
 40
0.828125
 40
0.83203125
 40
0.8359375
 40
0.84375
 40
0.8515625
 40
0.85546875
 40
0.859375
 40
0.86328125
 40
0.8671875
 40
0.869140625
 40
0.87109375
 40
0.8720703125
 40
0.873046875
 40
0.8740234375
 40
0.8745117188
 40
0.8747558594
 40
0.875
 40
0.8752441406
 40
0.8754882812
 40
0.8759765625
 40
0.876953125
 40
0.8779296875
 40
0.87890625
 40
0.880859375
 40
0.8828125
 40
0.88671875
 40
0.890625
 40
0.89453125
 40
0.8984375
 40
0.90625
 40
0.9140625
 40
0.91796875
 40
0.921875
 40
0.92578125
 40
0.9296875
 40
0.931640625
 40
0.93359375
 40
0.9345703125
 40
0.935546875
 40
0.9365234375
 40
0.9370117188
 40
0.9372558594
 40
0.9375
 40
0.9377441406
 40
0.9379882812
 40
0.9384765625
 40
0.939453125
 40
0.9404296875
 40
0.94140625
 40
0.943359375
 40
0.9453125
 40
0.94921875
 40
0.953125
 40
0.95703125
 40
0.9609375
 40
0.96875
 40
0.9765625
 40
0.984375
 40
1.0
 40
1.0
 40
1.0
 40
1.0
 10
7.9766190144
 20
8.984183902
 30
0.0
 10
7.9828853882
 20
8.9843637508
 30
0.0
 10
7.992284949
 20
8.9846335241
 30
0.0
 10
8.0048176967
 20
8.9849932217
 30
0.0
 10
8.0142172574
 20
8.985262995
 30
0.0
 10
8.0220502248
 20
8.9854878057
 30
0.0
 10
8.0283165985
 20
8.9856676552
 30
0.0
 10
8.0330163792
 20
8.9858025398
 30
0.0
 10
8.0377161581
 20
8.9859374339
 30
0.0
 10
8.0416326463
 20
8.9860498162
 30
0.0
 10
8.044765824
 20
8.986139788
 30
0.0
 10
8.0467240894
 20
8.9861958702
 30
0.0
 10
8.0482906345
 20
8.9862410799
 30
0.0
 10
8.0494657273
 20
8.9862740454
 30
0.0
 10
8.0504443861
 20
8.9863045126
 30
0.0
 10
8.0511305956
 20
8.9863199602
 30
0.0
 10
8.0515209223
 20
8.9863379676
 30
0.0
 10
8.0518187184
 20
8.9863256126
 30
0.0
 10
8.0520972065
 20
8.9864121095
 30
0.0
 10
8.0524752588
 20
8.986492958
 30
0.0
 10
8.0531337125
 20
8.9866505081
 30
0.0
 10
8.0540760011
 20
8.9868671806
 30
0.0
 10
8.0552060452
 20
8.9871307827
 30
0.0
 10
8.0567130159
 20
8.9874809965
 30
0.0
 10
8.0585966454
 20
8.9879191937
 30
0.0
 10
8.0616104994
 20
8.9886200688
 30
0.0
 10
8.0653778009
 20
8.9894962452
 30
0.0
 10
8.0698985695
 20
8.9905476216
 30
0.0
 10
8.0744193364
 20
8.9915990074
 30
0.0
 10
8.0804470261
 20
8.9930008518
 30
0.0
 10
8.087981638
 20
8.9947531586
 30
0.0
 10
8.0955162502
 20
8.9965054646
 30
0.0
 10
8.1015439395
 20
8.9979073103
 30
0.0
 10
8.1060647075
 20
8.9989586922
 30
0.0
 10
8.1105854718
 20
9.0000100832
 30
0.0
 10
8.1143527867
 20
9.0008862141
 30
0.0
 10
8.1173666134
 20
9.001587182
 30
0.0
 10
8.1192503126
 20
9.0020251433
 30
0.0
 10
8.1207571401
 20
9.0023758412
 30
0.0
 10
8.1218876217
 20
9.0026379641
 30
0.0
 10
8.1228285416
 20
9.0028592648
 30
0.0
 10
8.1234894385
 20
9.0030085528
 30
0.0
 10
8.1238635761
 20
9.0031026393
 30
0.0
 10
8.1241540891
 20
9.0031484736
 30
0.0
 10
8.1244067215
 20
9.0032888404
 30
0.0
 10
8.1247567778
 20
9.0034430221
 30
0.0
 10
8.1253632202
 20
9.0037282034
 30
0.0
 10
8.126232785
 20
9.0041275731
 30
0.0
 10
8.1272748851
 20
9.0046102547
 30
0.0
 10
8.1286648331
 20
9.0052526294
 30
0.0
 10
8.1304021033
 20
9.0060560089
 30
0.0
 10
8.1331818277
 20
9.0073411864
 30
0.0
 10
8.1366564516
 20
9.0089477371
 30
0.0
 10
8.1408260139
 20
9.0108755641
 30
0.0
 10
8.1449955726
 20
9.0128034001
 30
0.0
 10
8.1505549854
 20
9.015373845
 30
0.0
 10
8.1575042509
 20
9.0185869023
 30
0.0
 10
8.1644535168
 20
9.0217999588
 30
0.0
 10
8.170012929
 20
9.0243704049
 30
0.0
 10
8.1741824894
 20
9.0262982372
 30
0.0
 10
8.1783520451
 20
9.0282260783
 30
0.0
 10
8.1818266894
 20
9.029832585
 30
0.0
 10
8.1846063724
 20
9.0311178521
 30
0.0
 10
8.186343748
 20
9.0319210034
 30
0.0
 10
8.1877334796
 20
9.0325638466
 30
0.0
 10
8.1887762409
 20
9.0330450969
 30
0.0
 10
8.189643737
 20
9.033448945
 30
0.0
 10
8.1902538723
 20
9.0337261315
 30
0.0
 10
8.1905980116
 20
9.0338931229
 30
0.0
 10
8.1908688192
 20
9.0339941427
 30
0.0
 10
8.1910910692
 20
9.0341877577
 30
0.0
 10
8.1914043399
 20
9.0344136129
 30
0.0
 10
8.1919446723
 20
9.0348239077
 30
0.0
 10
8.1927207015
 20
9.0354021758
 30
0.0
 10
8.1936501705
 20
9.036099465
 30
0.0
 10
8.1948900794
 20
9.0370280078
 30
0.0
 10
8.1964397542
 20
9.038189089
 30
0.0
 10
8.198919352
 20
9.0400465938
 30
0.0
 10
8.2020188088
 20
9.042368552
 30
0.0
 10
8.2057381743
 20
9.0451548688
 30
0.0
 10
8.2094575352
 20
9.0479411944
 30
0.0
 10
8.2144166846
 20
9.0516562921
 30
0.0
 10
8.2206156207
 20
9.0563001654
 30
0.0
 10
8.2268145574
 20
9.060944038
 30
0.0
 10
8.231773706
 20
9.0646591369
 30
0.0
 10
8.2354930694
 20
9.0674454592
 30
0.0
 10
8.2392124253
 20
9.0702317883
 30
0.0
 10
8.2423119118
 20
9.0725537082
 30
0.0
 10
8.244791449
 20
9.0744112912
 30
0.0
 10
8.2463412781
 20
9.0755721733
 30
0.0
 10
8.2475808704
 20
9.0765011247
 30
0.0
 10
8.2485113065
 20
9.0771971653
 30
0.0
 10
8.2492843099
 20
9.0777793399
 30
0.0
 10
8.2498300437
 20
9.078182661
 30
0.0
 10
8.2501346601
 20
9.07841969
 30
0.0
 10
8.2503834937
 20
9.0785789826
 30
0.0
 10
8.2505544577
 20
9.0788089117
 30
0.0
 10
8.2508095714
 20
9.079090845
 30
0.0
 10
8.2512433653
 20
9.0795957079
 30
0.0
 10
8.2518696871
 20
9.0803109389
 30
0.0
 10
8.2526184413
 20
9.0811717851
 30
0.0
 10
8.2536177694
 20
9.0823186827
 30
0.0
 10
8.2548665909
 20
9.0837526119
 30
0.0
 10
8.2568648944
 20
9.086046727
 30
0.0
 10
8.259362709
 20
9.0889144298
 30
0.0
 10
8.2623601143
 20
9.0923556478
 30
0.0
 10
8.2653575121
 20
9.0957968726
 30
0.0
 10
8.2693540451
 20
9.10038517
 30
0.0
 10
8.2743497105
 20
9.1061205426
 30
0.0
 10
8.2793453765
 20
9.1118559147
 30
0.0
 10
8.2833419085
 20
9.116444213
 30
0.0
 10
8.2863393095
 20
9.1198854351
 30
0.0
 10
8.2893367027
 20
9.1233266631
 30
0.0
 10
8.2918345549
 20
9.126194335
 30
0.0
 10
8.2938327816
 20
9.1284885131
 30
0.0
 10
8.2950817988
 20
9.1299222818
 30
0.0
 10
8.2960807251
 20
9.1310695091
 30
0.0
 10
8.2968307068
 20
9.1319293481
 30
0.0
 10
8.2974531881
 20
9.1326477302
 30
0.0
 10
8.297893838
 20
9.1331469679
 30
0.0
 10
8.2981379667
 20
9.1334379141
 30
0.0
 10
8.2983426733
 20
9.1336401584
 30
0.0
 10
8.2984647751
 20
9.1339034305
 30
0.0
 10
8.2986563909
 20
9.1342331727
 30
0.0
 10
8.2989782939
 20
9.1348201397
 30
0.0
 10
8.299445174
 20
9.1356534787
 30
0.0
 10
8.3000024259
 20
9.1366557049
 30
0.0
 10
8.3007464777
 20
9.1379912314
 30
0.0
 10
8.3016761833
 20
9.1396609049
 30
0.0
 10
8.3031639129
 20
9.1423322342
 30
0.0
 10
8.305023506
 20
9.1456714467
 30
0.0
 10
8.3072550473
 20
9.1496784798
 30
0.0
 10
8.3094865806
 20
9.1536855188
 30
0.0
 10
8.3124619612
 20
9.1590282354
 30
0.0
 10
8.3161811859
 20
9.165706632
 30
0.0
 10
8.3199004114
 20
9.1723850281
 30
0.0
 10
8.3228757908
 20
9.1777277454
 30
0.0
 10
8.3251073277
 20
9.1817347823
 30
0.0
 10
8.3273388558
 20
9.1857418234
 30
0.0
 10
8.3291984899
 20
9.1890810111
 30
0.0
 10
8.3306861359
 20
9.191752391
 30
0.0
 10
8.3316160541
 20
9.1934219357
 30
0.0
 10
8.3323596694
 20
9.1947577265
 30
0.0
 10
8.3329182551
 20
9.1957591451
 30
0.0
 10
8.3333809619
 20
9.1965950112
 30
0.0
 10
8.333710315
 20
9.1971774668
 30
0.0
 10
8.333889994
 20
9.1975144373
 30
0.0
 10
8.3340487618
 20
9.1977555065
 30
0.0
 10
8.334115757
 20
9.1980411413
 30
0.0
 10
8.3342370952
 20
9.1984064427
 30
0.0
 10
8.3344345224
 20
9.1990529629
 30
0.0
 10
8.3347243587
 20
9.1999727766
 30
0.0
 10
8.3350688248
 20
9.2010781738
 30
0.0
 10
8.3355292786
 20
9.2025514707
 30
0.0
 10
8.3361044468
 20
9.2043932856
 30
0.0
 10
8.3370249389
 20
9.2073400811
 30
0.0
 10
8.3381754775
 20
9.2110236127
 30
0.0
 10
8.3395561566
 20
9.2154438347
 30
0.0
 10
8.340936827
 20
9.2198640609
 30
0.0
 10
8.3427777239
 20
9.2257576944
 30
0.0
 10
8.3450788438
 20
9.2331247368
 30
0.0
 10
8.3473799645
 20
9.2404917788
 30
0.0
 10
8.3492208601
 20
9.2463854128
 30
0.0
 10
8.3506015343
 20
9.2508056375
 30
0.0
 10
8.3519821991
 20
9.2552258655
 30
0.0
 10
8.3531327822
 20
9.2589093782
 30
0.0
 10
8.3540531836
 20
9.2618562121
 30
0.0
 10
8.3546285825
 20
9.2636979294
 30
0.0
 10
8.3550885627
 20
9.2651714267
 30
0.0
 10
8.355434476
 20
9.2662762114
 30
0.0
 10
8.3557197843
 20
9.2671979416
 30
0.0
 10
8.3559252948
 20
9.2678410405
 30
0.0
 10
8.3560336815
 20
9.2682118238
 30
0.0
 10
8.3561404597
 20
9.2684806202
 30
0.0
 10
8.356149809
 20
9.2687849315
 30
0.0
 10
8.3561962589
 20
9.269178292
 30
0.0
 10
8.3562617125
 20
9.2698724446
 30
0.0
 10
8.3563634958
 20
9.2708610736
 30
0.0
 10
8.3564820924
 20
9.27204872
 30
0.0
 10
8.3566414588
 20
9.2736317974
 30
0.0
 10
8.356840243
 20
9.2756107986
 30
0.0
 10
8.3571585346
 20
9.2787771143
 30
0.0
 10
8.3575563179
 20
9.2827350384
 30
0.0
 10
8.3580336927
 20
9.2874845348
 30
0.0
 10
8.3585110581
 20
9.2922340345
 30
0.0
 10
8.3591475486
 20
9.2985666996
 30
0.0
 10
8.3599431605
 20
9.3064825313
 30
0.0
 10
8.3607387733
 20
9.314398363
 30
0.0
 10
8.3613752625
 20
9.3207310283
 30
0.0
 10
8.3618526319
 20
9.3254805273
 30
0.0
 10
8.3623299916
 20
9.3302300262
 30
0.0
 10
8.3627278216
 20
9.3341879425
 30
0.0
 10
8.363046018
 20
9.3373542742
 30
0.0
 10
8.3632450445
 20
9.3393332345
 30
0.0
 10
8.3634039136
 20
9.340916396
 30
0.0
 10
8.3635240295
 20
9.3421037854
 30
0.0
 10
8.3636210593
 20
9.3430932185
 30
0.0
 10
8.3636949986
 20
9.3437859356
 30
0.0
 10
8.3637278523
 20
9.3441815961
 30
0.0
 10
8.363778965
 20
9.3444788426
 30
0.0
 10
8.3637288867
 20
9.3447741734
 30
0.0
 10
8.3636974121
 20
9.3451686161
 30
0.0
 10
8.3636258864
 20
9.3458585794
 30
0.0
 10
8.3635323045
 20
9.346844404
 30
0.0
 10
8.3634163261
 20
9.3480273239
 30
0.0
 10
8.3632629736
 20
9.3496045747
 30
0.0
 10
8.3630708429
 20
9.35157613
 30
0.0
 10
8.3627636797
 20
9.354730623
 30
0.0
 10
8.3623796413
 20
9.3586737377
 30
0.0
 10
8.3619188315
 20
9.363405476
 30
0.0
 10
8.361458012
 20
9.3681372142
 30
0.0
 10
8.3608435893
 20
9.3744461984
 30
0.0
 10
8.3600755597
 20
9.3823324287
 30
0.0
 10
8.359307531
 20
9.3902186591
 30
0.0
 10
8.358693107
 20
9.3965276432
 30
0.0
 10
8.3582322915
 20
9.4012593816
 30
0.0
 10
8.3577714666
 20
9.4059911189
 30
0.0
 10
8.357387475
 20
9.409934237
 30
0.0
 10
8.3570802165
 20
9.4130887231
 30
0.0
 10
8.3568883282
 20
9.415060296
 30
0.0
 10
8.3567344782
 20
9.4166375106
 30
0.0
 10
8.3566200197
 20
9.4178205411
 30
0.0
 10
8.3565216824
 20
9.4188060197
 30
0.0
 10
8.3564586459
 20
9.4194966008
 30
0.0
 10
8.3564135693
 20
9.4198900535
 30
0.0
 10
8.3564052721
 20
9.4201884251
 30
0.0
 10
8.356299462
 20
9.4204742511
 30
0.0
 10
8.3561923954
 20
9.4208597285
 30
0.0
 10
8.3559891814
 20
9.4215322751
 30
0.0
 10
8.355707161
 20
9.4224941219
 30
0.0
 10
8.35536519
 20
9.4236478817
 30
0.0
 10
8.3549104675
 20
9.4251863876
 30
0.0
 10
8.3543416402
 20
9.4271094654
 30
0.0
 10
8.3534317535
 20
9.4301864203
 30
0.0
 10
8.3522943139
 20
9.4340326034
 30
0.0
 10
8.3509294211
 20
9.4386480277
 30
0.0
 10
8.3495645191
 20
9.4432634508
 30
0.0
 10
8.3477446529
 20
9.4494173487
 30
0.0
 10
8.3454698191
 20
9.4571097209
 30
0.0
 10
8.343194986
 20
9.4648020932
 30
0.0
 10
8.3413751186
 20
9.4709559908
 30
0.0
 10
8.3400102203
 20
9.4755714148
 30
0.0
 10
8.3386453133
 20
9.4801868358
 30
0.0
 10
8.3375079182
 20
9.4840330293
 30
0.0
 10
8.3365979407
 20
9.4871099631
 30
0.0
 10
8.3360293444
 20
9.4890330946
 30
0.0
 10
8.3355741476
 20
9.4905714901
 30
0.0
 10
8.3352336256
 20
9.491725587
 30
0.0
 10
8.3349470719
 20
9.4926863795
 30
0.0
 10
8.3347519505
 20
9.4933608081
 30
0.0
 10
8.3346319176
 20
9.49374327
 30
0.0
 10
8.3345659361
 20
9.4940383589
 30
0.0
 10
8.3344080492
 20
9.4943019407
 30
0.0
 10
8.3342295909
 20
9.4946643732
 30
0.0
 10
8.3339023528
 20
9.4952935096
 30
0.0
 10
8.3334426785
 20
9.4961949529
 30
0.0
 10
8.332887727
 20
9.497275539
 30
0.0
 10
8.3321489591
 20
9.4987167207
 30
0.0
 10
8.3312250995
 20
9.5005180608
 30
0.0
 10
8.3297471475
 20
9.5034002816
 30
0.0
 10
8.3278996308
 20
9.5070030312
 30
0.0
 10
8.3256826437
 20
9.5113263421
 30
0.0
 10
8.3234656478
 20
9.5156496499
 30
0.0
 10
8.3205096563
 20
9.5214140614
 30
0.0
 10
8.3168146658
 20
9.5286195754
 30
0.0
 10
8.3131196761
 20
9.5358250897
 30
0.0
 10
8.3101636834
 20
9.5415895007
 30
0.0
 10
8.3079466912
 20
9.54591281
 30
0.0
 10
8.3057296903
 20
9.5502361153
 30
0.0
 10
8.3038822163
 20
9.5538388823
 30
0.0
 10
8.3024041775
 20
9.5567210676
 30
0.0
 10
8.3014805388
 20
9.5585224978
 30
0.0
 10
8.3007413173
 20
9.5599634946
 30
0.0
 10
8.3001877513
 20
9.5610446458
 30
0.0
 10
8.2997237421
 20
9.5619443211
 30
0.0
 10
8.2994042426
 20
9.5625766137
 30
0.0
 10
8.2992133851
 20
9.5629339891
 30
0.0
 10
8.2990935848
 20
9.5632131048
 30
0.0
 10
8.2988845566
 20
9.563449851
 30
0.0
 10
8.2986369761
 20
9.5637802915
 30
0.0
 10
8.298189209
 20
9.5643516766
 30
0.0
 10
8.2975571231
 20
9.5651715411
 30
0.0
 10
8.296795375
 20
9.5661538375
 30
0.0
 10
8.2957808443
 20
9.5674641043
 30
0.0
 10
8.2945122928
 20
9.5691017535
 30
0.0
 10
8.2924828273
 20
9.5717220953
 30
0.0
 10
8.289945921
 20
9.5749974871
 30
0.0
 10
8.2869016654
 20
9.5789279724
 30
0.0
 10
8.2838574012
 20
9.5828584537
 30
0.0
 10
8.2797983853
 20
9.5880990969
 30
0.0
 10
8.2747246143
 20
9.5946499002
 30
0.0
 10
8.269650844
 20
9.6012007041
 30
0.0
 10
8.265591827
 20
9.6064413464
 30
0.0
 10
8.262547566
 20
9.61037183
 30
0.0
 10
8.2595032987
 20
9.6143023066
 30
0.0
 10
8.2569664287
 20
9.6175777256
 30
0.0
 10
8.2549368892
 20
9.6201980119
 30
0.0
 10
8.2536685261
 20
9.6218358023
 30
0.0
 10
8.2526536086
 20
9.6231457793
 30
0.0
 10
8.251893042
 20
9.6241289609
 30
0.0
 10
8.2512572594
 20
9.624946056
 30
0.0
 10
8.2508160916
 20
9.6255223849
 30
0.0
 10
8.2505579374
 20
9.6258449043
 30
0.0
 10
8.2503813881
 20
9.6261059817
 30
0.0
 10
8.2501396027
 20
9.6262937135
 30
0.0
 10
8.2498399772
 20
9.6265696063
 30
0.0
 10
8.2493050306
 20
9.6270404989
 30
0.0
 10
8.248546364
 20
9.6277194344
 30
0.0
 10
8.2476335915
 20
9.6285314896
 30
0.0
 10
8.2464173903
 20
9.6296151616
 30
0.0
 10
8.244896855
 20
9.6309694325
 30
0.0
 10
8.2424641571
 20
9.6331364442
 30
0.0
 10
8.2394232303
 20
9.6358451478
 30
0.0
 10
8.2357741415
 20
9.6390956182
 30
0.0
 10
8.2321250464
 20
9.6423460816
 30
0.0
 10
8.2272595885
 20
9.6466800354
 30
0.0
 10
8.2211777653
 20
9.6520974766
 30
0.0
 10
8.2150959426
 20
9.6575149184
 30
0.0
 10
8.2102304839
 20
9.6618488711
 30
0.0
 10
8.2065813913
 20
9.6650993376
 30
0.0
 10
8.2029322934
 20
9.6683497965
 30
0.0
 10
8.1998913949
 20
9.6710585358
 30
0.0
 10
8.1974586392
 20
9.6732254747
 30
0.0
 10
8.195938251
 20
9.6745799311
 30
0.0
 10
8.1947217479
 20
9.6756632222
 30
0.0
 10
8.1938098975
 20
9.676476441
 30
0.0
 10
8.1930483462
 20
9.677151736
 30
0.0
 10
8.1925185492
 20
9.6776291275
 30
0.0
 10
8.1922106726
 20
9.6778946074
 30
0.0
 10
8.1919942319
 20
9.6781143243
 30
0.0
 10
8.1917224921
 20
9.6782552713
 30
0.0
 10
8.1913794612
 20
9.6784706764
 30
0.0
 10
8.1907701702
 20
9.6788348339
 30
0.0
 10
8.189904453
 20
9.6793617517
 30
0.0
 10
8.1888635812
 20
9.6799911883
 30
0.0
 10
8.1874764545
 20
9.6808314377
 30
0.0
 10
8.1857423057
 20
9.6818814068
 30
0.0
 10
8.1829678021
 20
9.6835615489
 30
0.0
 10
8.1794996264
 20
9.6856616608
 30
0.0
 10
8.1753378353
 20
9.6881818233
 30
0.0
 10
8.1711760389
 20
9.6907019782
 30
0.0
 10
8.1656269789
 20
9.6940621874
 30
0.0
 10
8.1586906533
 20
9.698262448
 30
0.0
 10
8.151754328
 20
9.7024627092
 30
0.0
 10
8.1462052675
 20
9.7058229173
 30
0.0
 10
8.142043473
 20
9.7083430756
 30
0.0
 10
8.1378816748
 20
9.7108632254
 30
0.0
 10
8.1344135211
 20
9.7129633768
 30
0.0
 10
8.1316389726
 20
9.7146434384
 30
0.0
 10
8.1299049379
 20
9.7156936123
 30
0.0
 10
8.1285175771
 20
9.7165334413
 30
0.0
 10
8.1274774205
 20
9.7171641622
 30
0.0
 10
8.1266094656
 20
9.7176870619
 30
0.0
 10
8.1260041692
 20
9.7180583923
 30
0.0
 10
8.1256547379
 20
9.7182623046
 30
0.0
 10
8.1254026582
 20
9.7184385541
 30
0.0
 10
8.1251123773
 20
9.7185256803
 30
0.0
 10
8.124738661
 20
9.7186729359
 30
0.0
 10
8.1240784492
 20
9.7189161489
 30
0.0
 10
8.1231385353
 20
9.7192711685
 30
0.0
 10
8.1220092492
 20
9.7196939508
 30
0.0
 10
8.1205040198
 20
9.7202587927
 30
0.0
 10
8.1186223168
 20
9.7209644574
 30
0.0
 10
8.115611685
 20
9.7220937375
 30
0.0
 10
8.1118483633
 20
9.7235052634
 30
0.0
 10
8.1073323909
 20
9.7251991262
 30
0.0
 10
8.1028164148
 20
9.7268929806
 30
0.0
 10
8.0967951147
 20
9.7291514561
 30
0.0
 10
8.0892684891
 20
9.7319745493
 30
0.0
 10
8.0817418638
 20
9.7347976432
 30
0.0
 10
8.0757205632
 20
9.7370561174
 30
0.0
 10
8.0712045886
 20
9.7387499755
 30
0.0
 10
8.0666886111
 20
9.7404438244
 30
0.0
 10
8.0629253051
 20
9.7418553937
 30
0.0
 10
8.0599146412
 20
9.7429845854
 30
0.0
 10
8.0580330199
 20
9.7436904752
 30
0.0
 10
8.0565276228
 20
9.7442548549
 30
0.0
 10
8.055398849
 20
9.744679049
 30
0.0
 10
8.0544573325
 20
9.7450296517
 30
0.0
 10
8.0537999815
 20
9.7452807497
 30
0.0
 10
8.0534216816
 20
9.7454153715
 30
0.0
 10
8.0531454801
 20
9.7455413043
 30
0.0
 10
8.0528405202
 20
9.7455718026
 30
0.0
 10
8.0524439383
 20
9.7456457557
 30
0.0
 10
8.0517452461
 20
9.7457596637
 30
0.0
 10
8.050749558
 20
9.7459304982
 30
0.0
 10
8.0495536864
 20
9.7461320288
 30
0.0
 10
8.0479595561
 20
9.7464019485
 30
0.0
 10
8.0459667683
 20
9.746738933
 30
0.0
 10
8.0427783776
 20
9.7472783403
 30
0.0
 10
8.0387928653
 20
9.7479525198
 30
0.0
 10
8.0340102609
 20
9.7487615693
 30
0.0
 10
8.0292276536
 20
9.7495706096
 30
0.0
 10
8.0228508449
 20
9.7506493333
 30
0.0
 10
8.0148798338
 20
9.7519977368
 30
0.0
 10
8.0053146205
 20
9.7536158215
 30
0.0
 10
7.9925610027
 20
9.7557732676
 30
0.0
 10
7.9829957894
 20
9.7573913522
 30
0.0
 10
7.9766189806
 20
9.7584700753
 30
0.0
  0
SPLINE
  5
390
100
AcDbEntity
  8
0
100
AcDbSpline
 62
4
  6
CONTINUOUS
 70
0
 71
3
 72
403
 73
399
 74
0
 42
0.0000001
 43
0.0000001
 44
0.0000000001
 40
0.0
 40
0.0
 40
0.0
 40
0.0
 40
0.015625
 40
0.0234375
 40
0.03125
 40
0.0390625
 40
0.04296875
 40
0.046875
 40
0.05078125
 40
0.0546875
 40
0.056640625
 40
0.05859375
 40
0.0595703125
 40
0.060546875
 40
0.0615234375
 40
0.0620117188
 40
0.0622558594
 40
0.0625
 40
0.0627441406
 40
0.0629882812
 40
0.0634765625
 40
0.064453125
 40
0.0654296875
 40
0.06640625
 40
0.068359375
 40
0.0703125
 40
0.07421875
 40
0.078125
 40
0.08203125
 40
0.0859375
 40
0.09375
 40
0.1015625
 40
0.10546875
 40
0.109375
 40
0.11328125
 40
0.1171875
 40
0.119140625
 40
0.12109375
 40
0.1220703125
 40
0.123046875
 40
0.1240234375
 40
0.1245117188
 40
0.1247558594
 40
0.125
 40
0.1252441406
 40
0.1254882812
 40
0.1259765625
 40
0.126953125
 40
0.1279296875
 40
0.12890625
 40
0.130859375
 40
0.1328125
 40
0.13671875
 40
0.140625
 40
0.14453125
 40
0.1484375
 40
0.15625
 40
0.1640625
 40
0.16796875
 40
0.171875
 40
0.17578125
 40
0.1796875
 40
0.181640625
 40
0.18359375
 40
0.1845703125
 40
0.185546875
 40
0.1865234375
 40
0.1870117188
 40
0.1872558594
 40
0.1875
 40
0.1877441406
 40
0.1879882812
 40
0.1884765625
 40
0.189453125
 40
0.1904296875
 40
0.19140625
 40
0.193359375
 40
0.1953125
 40
0.19921875
 40
0.203125
 40
0.20703125
 40
0.2109375
 40
0.21875
 40
0.2265625
 40
0.23046875
 40
0.234375
 40
0.23828125
 40
0.2421875
 40
0.244140625
 40
0.24609375
 40
0.2470703125
 40
0.248046875
 40
0.2490234375
 40
0.2495117188
 40
0.2497558594
 40
0.25
 40
0.2502441406
 40
0.2504882812
 40
0.2509765625
 40
0.251953125
 40
0.2529296875
 40
0.25390625
 40
0.255859375
 40
0.2578125
 40
0.26171875
 40
0.265625
 40
0.26953125
 40
0.2734375
 40
0.28125
 40
0.2890625
 40
0.29296875
 40
0.296875
 40
0.30078125
 40
0.3046875
 40
0.306640625
 40
0.30859375
 40
0.3095703125
 40
0.310546875
 40
0.3115234375
 40
0.3120117188
 40
0.3122558594
 40
0.3125
 40
0.3127441406
 40
0.3129882812
 40
0.3134765625
 40
0.314453125
 40
0.3154296875
 40
0.31640625
 40
0.318359375
 40
0.3203125
 40
0.32421875
 40
0.328125
 40
0.33203125
 40
0.3359375
 40
0.34375
 40
0.3515625
 40
0.35546875
 40
0.359375
 40
0.36328125
 40
0.3671875
 40
0.369140625
 40
0.37109375
 40
0.3720703125
 40
0.373046875
 40
0.3740234375
 40
0.3745117188
 40
0.3747558594
 40
0.375
 40
0.3752441406
 40
0.3754882812
 40
0.3759765625
 40
0.376953125
 40
0.3779296875
 40
0.37890625
 40
0.380859375
 40
0.3828125
 40
0.38671875
 40
0.390625
 40
0.39453125
 40
0.3984375
 40
0.40625
 40
0.4140625
 40
0.41796875
 40
0.421875
 40
0.42578125
 40
0.4296875
 40
0.431640625
 40
0.43359375
 40
0.4345703125
 40
0.435546875
 40
0.4365234375
 40
0.4370117188
 40
0.4372558594
 40
0.4375
 40
0.4377441406
 40
0.4379882812
 40
0.4384765625
 40
0.439453125
 40
0.4404296875
 40
0.44140625
 40
0.443359375
 40
0.4453125
 40
0.44921875
 40
0.453125
 40
0.45703125
 40
0.4609375
 40
0.46875
 40
0.4765625
 40
0.48046875
 40
0.484375
 40
0.48828125
 40
0.4921875
 40
0.494140625
 40
0.49609375
 40
0.4970703125
 40
0.498046875
 40
0.4990234375
 40
0.4995117188
 40
0.4997558594
 40
0.5
 40
0.5002441406
 40
0.5004882812
 40
0.5009765625
 40
0.501953125
 40
0.5029296875
 40
0.50390625
 40
0.505859375
 40
0.5078125
 40
0.51171875
 40
0.515625
 40
0.51953125
 40
0.5234375
 40
0.53125
 40
0.5390625
 40
0.54296875
 40
0.546875
 40
0.55078125
 40
0.5546875
 40
0.556640625
 40
0.55859375
 40
0.5595703125
 40
0.560546875
 40
0.5615234375
 40
0.5620117188
 40
0.5622558594
 40
0.5625
 40
0.5627441406
 40
0.5629882812
 40
0.5634765625
 40
0.564453125
 40
0.5654296875
 40
0.56640625
 40
0.568359375
 40
0.5703125
 40
0.57421875
 40
0.578125
 40
0.58203125
 40
0.5859375
 40
0.59375
 40
0.6015625
 40
0.60546875
 40
0.609375
 40
0.61328125
 40
0.6171875
 40
0.619140625
 40
0.62109375
 40
0.6220703125
 40
0.623046875
 40
0.6240234375
 40
0.6245117188
 40
0.6247558594
 40
0.625
 40
0.6252441406
 40
0.6254882812
 40
0.6259765625
 40
0.626953125
 40
0.6279296875
 40
0.62890625
 40
0.630859375
 40
0.6328125
 40
0.63671875
 40
0.640625
 40
0.64453125
 40
0.6484375
 40
0.65625
 40
0.6640625
 40
0.66796875
 40
0.671875
 40
0.67578125
 40
0.6796875
 40
0.681640625
 40
0.68359375
 40
0.6845703125
 40
0.685546875
 40
0.6865234375
 40
0.6870117188
 40
0.6872558594
 40
0.6875
 40
0.6877441406
 40
0.6879882812
 40
0.6884765625
 40
0.689453125
 40
0.6904296875
 40
0.69140625
 40
0.693359375
 40
0.6953125
 40
0.69921875
 40
0.703125
 40
0.70703125
 40
0.7109375
 40
0.71875
 40
0.7265625
 40
0.73046875
 40
0.734375
 40
0.73828125
 40
0.7421875
 40
0.744140625
 40
0.74609375
 40
0.7470703125
 40
0.748046875
 40
0.7490234375
 40
0.7495117188
 40
0.7497558594
 40
0.75
 40
0.7502441406
 40
0.7504882812
 40
0.7509765625
 40
0.751953125
 40
0.7529296875
 40
0.75390625
 40
0.755859375
 40
0.7578125
 40
0.76171875
 40
0.765625
 40
0.76953125
 40
0.7734375
 40
0.78125
 40
0.7890625
 40
0.79296875
 40
0.796875
 40
0.80078125
 40
0.8046875
 40
0.806640625
 40
0.80859375
 40
0.8095703125
 40
0.810546875
 40
0.8115234375
 40
0.8120117188
 40
0.8122558594
 40
0.8125
 40
0.8127441406
 40
0.8129882812
 40
0.8134765625
 40
0.814453125
 40
0.8154296875
 40
0.81640625
 40
0.818359375
 40
0.8203125
 40
0.82421875
 40
0.828125
 40
0.83203125
 40
0.8359375
 40
0.84375
 40
0.8515625
 40
0.85546875
 40
0.859375
 40
0.86328125
 40
0.8671875
 40
0.869140625
 40
0.87109375
 40
0.8720703125
 40
0.873046875
 40
0.8740234375
 40
0.8745117188
 40
0.8747558594
 40
0.875
 40
0.8752441406
 40
0.8754882812
 40
0.8759765625
 40
0.876953125
 40
0.8779296875
 40
0.87890625
 40
0.880859375
 40
0.8828125
 40
0.88671875
 40
0.890625
 40
0.89453125
 40
0.8984375
 40
0.90625
 40
0.9140625
 40
0.91796875
 40
0.921875
 40
0.92578125
 40
0.9296875
 40
0.931640625
 40
0.93359375
 40
0.9345703125
 40
0.935546875
 40
0.9365234375
 40
0.9370117188
 40
0.9372558594
 40
0.9375
 40
0.9377441406
 40
0.9379882812
 40
0.9384765625
 40
0.939453125
 40
0.9404296875
 40
0.94140625
 40
0.943359375
 40
0.9453125
 40
0.94921875
 40
0.953125
 40
0.95703125
 40
0.9609375
 40
0.96875
 40
0.9765625
 40
0.984375
 40
1.0
 40
1.0
 40
1.0
 40
1.0
 10
7.9766190144
 20
9.7584700729
 30
0.0
 10
7.9703526406
 20
9.7582902241
 30
0.0
 10
7.9609530798
 20
9.7580204508
 30
0.0
 10
7.9484203321
 20
9.7576607532
 30
0.0
 10
7.9390207714
 20
9.7573909799
 30
0.0
 10
7.931187804
 20
9.7571661692
 30
0.0
 10
7.9249214303
 20
9.7569863197
 30
0.0
 10
7.9202216496
 20
9.7568514351
 30
0.0
 10
7.9155218706
 20
9.756716541
 30
0.0
 10
7.9116053825
 20
9.7566041587
 30
0.0
 10
7.9084722048
 20
9.7565141869
 30
0.0
 10
7.9065139394
 20
9.7564581047
 30
0.0
 10
7.9049473943
 20
9.756412895
 30
0.0
 10
7.9037723015
 20
9.7563799295
 30
0.0
 10
7.9027936427
 20
9.7563494624
 30
0.0
 10
7.9021074331
 20
9.7563340147
 30
0.0
 10
7.9017171065
 20
9.7563160074
 30
0.0
 10
7.9014193104
 20
9.7563283623
 30
0.0
 10
7.9011408223
 20
9.7562418655
 30
0.0
 10
7.90076277
 20
9.7561610169
 30
0.0
 10
7.9001043163
 20
9.7560034668
 30
0.0
 10
7.8991620277
 20
9.7557867943
 30
0.0
 10
7.8980319836
 20
9.7555231922
 30
0.0
 10
7.8965250129
 20
9.7551729784
 30
0.0
 10
7.8946413834
 20
9.7547347813
 30
0.0
 10
7.8916275294
 20
9.7540339061
 30
0.0
 10
7.8878602279
 20
9.7531577297
 30
0.0
 10
7.8833394592
 20
9.7521063533
 30
0.0
 10
7.8788186924
 20
9.7510549675
 30
0.0
 10
7.8727910027
 20
9.7496531231
 30
0.0
 10
7.8652563908
 20
9.7479008163
 30
0.0
 10
7.8577217786
 20
9.7461485103
 30
0.0
 10
7.8516940893
 20
9.7447466646
 30
0.0
 10
7.8471733213
 20
9.7436952827
 30
0.0
 10
7.842652557
 20
9.7426438917
 30
0.0
 10
7.8388852421
 20
9.7417677608
 30
0.0
 10
7.8358714154
 20
9.7410667929
 30
0.0
 10
7.8339877162
 20
9.7406288316
 30
0.0
 10
7.8324808887
 20
9.7402781337
 30
0.0
 10
7.8313504071
 20
9.7400160108
 30
0.0
 10
7.8304094872
 20
9.7397947101
 30
0.0
 10
7.8297485902
 20
9.7396454221
 30
0.0
 10
7.8293744527
 20
9.7395513356
 30
0.0
 10
7.8290839397
 20
9.7395055013
 30
0.0
 10
7.8288313073
 20
9.7393651345
 30
0.0
 10
7.8284812509
 20
9.7392109528
 30
0.0
 10
7.8278748086
 20
9.7389257716
 30
0.0
 10
7.8270052438
 20
9.7385264018
 30
0.0
 10
7.8259631437
 20
9.7380437202
 30
0.0
 10
7.8245731957
 20
9.7374013455
 30
0.0
 10
7.8228359255
 20
9.736597966
 30
0.0
 10
7.8200562011
 20
9.7353127885
 30
0.0
 10
7.8165815771
 20
9.7337062379
 30
0.0
 10
7.8124120149
 20
9.7317784109
 30
0.0
 10
7.8082424562
 20
9.7298505748
 30
0.0
 10
7.8026830434
 20
9.7272801299
 30
0.0
 10
7.7957337779
 20
9.7240670727
 30
0.0
 10
7.788784512
 20
9.7208540161
 30
0.0
 10
7.7832250998
 20
9.71828357
 30
0.0
 10
7.7790555394
 20
9.7163557377
 30
0.0
 10
7.7748859837
 20
9.7144278966
 30
0.0
 10
7.7714113394
 20
9.7128213899
 30
0.0
 10
7.7686316564
 20
9.7115361228
 30
0.0
 10
7.7668942808
 20
9.7107329715
 30
0.0
 10
7.7655045492
 20
9.7100901283
 30
0.0
 10
7.7644617879
 20
9.709608878
 30
0.0
 10
7.7635942918
 20
9.7092050299
 30
0.0
 10
7.7629841565
 20
9.7089278434
 30
0.0
 10
7.7626400172
 20
9.7087608521
 30
0.0
 10
7.7623692096
 20
9.7086598323
 30
0.0
 10
7.7621469596
 20
9.7084662172
 30
0.0
 10
7.7618336888
 20
9.708240362
 30
0.0
 10
7.7612933565
 20
9.7078300672
 30
0.0
 10
7.7605173273
 20
9.7072517991
 30
0.0
 10
7.7595878583
 20
9.7065545099
 30
0.0
 10
7.7583479494
 20
9.7056259671
 30
0.0
 10
7.7567982746
 20
9.7044648859
 30
0.0
 10
7.7543186767
 20
9.7026073811
 30
0.0
 10
7.75121922
 20
9.7002854229
 30
0.0
 10
7.7474998545
 20
9.6974991062
 30
0.0
 10
7.7437804936
 20
9.6947127805
 30
0.0
 10
7.7388213442
 20
9.6909976828
 30
0.0
 10
7.7326224081
 20
9.6863538095
 30
0.0
 10
7.7264234714
 20
9.6817099369
 30
0.0
 10
7.7214643228
 20
9.6779948381
 30
0.0
 10
7.7177449594
 20
9.6752085157
 30
0.0
 10
7.7140256035
 20
9.6724221866
 30
0.0
 10
7.710926117
 20
9.6701002668
 30
0.0
 10
7.7084465798
 20
9.6682426837
 30
0.0
 10
7.7068967507
 20
9.6670818017
 30
0.0
 10
7.7056571584
 20
9.6661528502
 30
0.0
 10
7.7047267223
 20
9.6654568096
 30
0.0
 10
7.7039537189
 20
9.664874635
 30
0.0
 10
7.7034079851
 20
9.6644713139
 30
0.0
 10
7.7031033687
 20
9.6642342849
 30
0.0
 10
7.7028545351
 20
9.6640749923
 30
0.0
 10
7.7026835711
 20
9.6638450632
 30
0.0
 10
7.7024284574
 20
9.66356313
 30
0.0
 10
7.7019946635
 20
9.663058267
 30
0.0
 10
7.7013683417
 20
9.662343036
 30
0.0
 10
7.7006195875
 20
9.6614821898
 30
0.0
 10
7.6996202594
 20
9.6603352922
 30
0.0
 10
7.6983714379
 20
9.658901363
 30
0.0
 10
7.6963731343
 20
9.6566072479
 30
0.0
 10
7.6938753198
 20
9.6537395452
 30
0.0
 10
7.6908779145
 20
9.6502983271
 30
0.0
 10
7.6878805167
 20
9.6468571023
 30
0.0
 10
7.6838839837
 20
9.6422688049
 30
0.0
 10
7.6788883183
 20
9.6365334323
 30
0.0
 10
7.6738926523
 20
9.6307980602
 30
0.0
 10
7.6698961203
 20
9.6262097619
 30
0.0
 10
7.6668987193
 20
9.6227685398
 30
0.0
 10
7.6639013261
 20
9.6193273118
 30
0.0
 10
7.6614034739
 20
9.61645964
 30
0.0
 10
7.6594052472
 20
9.6141654618
 30
0.0
 10
7.65815623
 20
9.6127316931
 30
0.0
 10
7.6571573037
 20
9.6115844659
 30
0.0
 10
7.656407322
 20
9.6107246268
 30
0.0
 10
7.6557848407
 20
9.6100062447
 30
0.0
 10
7.6553441908
 20
9.609507007
 30
0.0
 10
7.6551000621
 20
9.6092160608
 30
0.0
 10
7.6548953555
 20
9.6090138165
 30
0.0
 10
7.6547732537
 20
9.6087505445
 30
0.0
 10
7.6545816379
 20
9.6084208022
 30
0.0
 10
7.6542597348
 20
9.6078338352
 30
0.0
 10
7.6537928548
 20
9.6070004962
 30
0.0
 10
7.6532356029
 20
9.60599827
 30
0.0
 10
7.652491551
 20
9.6046627435
 30
0.0
 10
7.6515618455
 20
9.60299307
 30
0.0
 10
7.6500741159
 20
9.6003217407
 30
0.0
 10
7.6482145228
 20
9.5969825283
 30
0.0
 10
7.6459829815
 20
9.5929754951
 30
0.0
 10
7.6437514482
 20
9.5889684561
 30
0.0
 10
7.6407760676
 20
9.5836257395
 30
0.0
 10
7.6370568428
 20
9.5769473429
 30
0.0
 10
7.6333376174
 20
9.5702689469
 30
0.0
 10
7.630362238
 20
9.5649262295
 30
0.0
 10
7.6281307011
 20
9.5609191926
 30
0.0
 10
7.625899173
 20
9.5569121515
 30
0.0
 10
7.6240395389
 20
9.5535729638
 30
0.0
 10
7.6225518929
 20
9.550901584
 30
0.0
 10
7.6216219746
 20
9.5492320392
 30
0.0
 10
7.6208783594
 20
9.5478962484
 30
0.0
 10
7.6203197737
 20
9.5468948299
 30
0.0
 10
7.6198570669
 20
9.5460589637
 30
0.0
 10
7.6195277138
 20
9.5454765081
 30
0.0
 10
7.6193480348
 20
9.5451395376
 30
0.0
 10
7.619189267
 20
9.5448984685
 30
0.0
 10
7.6191222718
 20
9.5446128336
 30
0.0
 10
7.6190009336
 20
9.5442475322
 30
0.0
 10
7.6188035064
 20
9.543601012
 30
0.0
 10
7.61851367
 20
9.5426811983
 30
0.0
 10
7.618169204
 20
9.5415758011
 30
0.0
 10
7.6177087501
 20
9.5401025042
 30
0.0
 10
7.617133582
 20
9.5382606893
 30
0.0
 10
7.6162130899
 20
9.5353138938
 30
0.0
 10
7.6150625513
 20
9.5316303622
 30
0.0
 10
7.6136818722
 20
9.5272101402
 30
0.0
 10
7.6123012018
 20
9.522789914
 30
0.0
 10
7.6104603049
 20
9.5168962805
 30
0.0
 10
7.608159185
 20
9.5095292381
 30
0.0
 10
7.6058580643
 20
9.5021621961
 30
0.0
 10
7.6040171687
 20
9.4962685621
 30
0.0
 10
7.6026364945
 20
9.4918483375
 30
0.0
 10
7.6012558297
 20
9.4874281095
 30
0.0
 10
7.6001052466
 20
9.4837445967
 30
0.0
 10
7.5991848452
 20
9.4807977628
 30
0.0
 10
7.5986094462
 20
9.4789560455
 30
0.0
 10
7.5981494661
 20
9.4774825482
 30
0.0
 10
7.5978035528
 20
9.4763777635
 30
0.0
 10
7.5975182445
 20
9.4754560333
 30
0.0
 10
7.597312734
 20
9.4748129344
 30
0.0
 10
7.5972043473
 20
9.4744421512
 30
0.0
 10
7.5970975691
 20
9.4741733547
 30
0.0
 10
7.5970882198
 20
9.4738690434
 30
0.0
 10
7.5970417698
 20
9.4734756829
 30
0.0
 10
7.5969763163
 20
9.4727815304
 30
0.0
 10
7.596874533
 20
9.4717929014
 30
0.0
 10
7.5967559364
 20
9.4706052549
 30
0.0
 10
7.59659657
 20
9.4690221775
 30
0.0
 10
7.5963977858
 20
9.4670431763
 30
0.0
 10
7.5960794941
 20
9.4638768607
 30
0.0
 10
7.5956817109
 20
9.4599189365
 30
0.0
 10
7.5952043361
 20
9.4551694402
 30
0.0
 10
7.5947269707
 20
9.4504199404
 30
0.0
 10
7.5940904802
 20
9.4440872754
 30
0.0
 10
7.5932948683
 20
9.4361714436
 30
0.0
 10
7.5924992555
 20
9.4282556119
 30
0.0
 10
7.5918627663
 20
9.4219229466
 30
0.0
 10
7.5913853969
 20
9.4171734476
 30
0.0
 10
7.5909080372
 20
9.4124239487
 30
0.0
 10
7.5905102072
 20
9.4084660325
 30
0.0
 10
7.5901920108
 20
9.4052997007
 30
0.0
 10
7.5899929843
 20
9.4033207405
 30
0.0
 10
7.5898341152
 20
9.4017375789
 30
0.0
 10
7.5897139993
 20
9.4005501895
 30
0.0
 10
7.5896169695
 20
9.3995607564
 30
0.0
 10
7.5895430302
 20
9.3988680393
 30
0.0
 10
7.5895101765
 20
9.3984723788
 30
0.0
 10
7.5894590638
 20
9.3981751323
 30
0.0
 10
7.5895091421
 20
9.3978798015
 30
0.0
 10
7.5895406166
 20
9.3974853589
 30
0.0
 10
7.5896121424
 20
9.3967953956
 30
0.0
 10
7.5897057243
 20
9.3958095709
 30
0.0
 10
7.5898217027
 20
9.394626651
 30
0.0
 10
7.5899750552
 20
9.3930494002
 30
0.0
 10
7.5901671859
 20
9.3910778449
 30
0.0
 10
7.5904743491
 20
9.3879233519
 30
0.0
 10
7.5908583874
 20
9.3839802372
 30
0.0
 10
7.5913191973
 20
9.3792484989
 30
0.0
 10
7.5917800168
 20
9.3745167607
 30
0.0
 10
7.5923944395
 20
9.3682077765
 30
0.0
 10
7.5931624691
 20
9.3603215462
 30
0.0
 10
7.5939304978
 20
9.3524353159
 30
0.0
 10
7.5945449218
 20
9.3461263317
 30
0.0
 10
7.5950057373
 20
9.3413945933
 30
0.0
 10
7.5954665622
 20
9.336662856
 30
0.0
 10
7.5958505538
 20
9.3327197379
 30
0.0
 10
7.5961578122
 20
9.3295652518
 30
0.0
 10
7.5963497006
 20
9.327593679
 30
0.0
 10
7.5965035506
 20
9.3260164643
 30
0.0
 10
7.596618009
 20
9.3248334338
 30
0.0
 10
7.5967163464
 20
9.3238479553
 30
0.0
 10
7.5967793829
 20
9.3231573741
 30
0.0
 10
7.5968244595
 20
9.3227639214
 30
0.0
 10
7.5968327567
 20
9.3224655498
 30
0.0
 10
7.5969385668
 20
9.3221797238
 30
0.0
 10
7.5970456334
 20
9.3217942464
 30
0.0
 10
7.5972488474
 20
9.3211216998
 30
0.0
 10
7.5975308678
 20
9.320159853
 30
0.0
 10
7.5978728388
 20
9.3190060932
 30
0.0
 10
7.5983275613
 20
9.3174675873
 30
0.0
 10
7.5988963886
 20
9.3155445096
 30
0.0
 10
7.5998062753
 20
9.3124675546
 30
0.0
 10
7.6009437149
 20
9.3086213715
 30
0.0
 10
7.6023086077
 20
9.3040059472
 30
0.0
 10
7.6036735097
 20
9.2993905241
 30
0.0
 10
7.6054933758
 20
9.2932366262
 30
0.0
 10
7.6077682097
 20
9.285544254
 30
0.0
 10
7.6100430428
 20
9.2778518817
 30
0.0
 10
7.6118629102
 20
9.2716979841
 30
0.0
 10
7.6132278085
 20
9.2670825601
 30
0.0
 10
7.6145927155
 20
9.2624671391
 30
0.0
 10
7.6157301106
 20
9.2586209456
 30
0.0
 10
7.6166400881
 20
9.2555440118
 30
0.0
 10
7.6172086844
 20
9.2536208803
 30
0.0
 10
7.6176638812
 20
9.2520824848
 30
0.0
 10
7.6180044032
 20
9.2509283879
 30
0.0
 10
7.6182909569
 20
9.2499675954
 30
0.0
 10
7.6184860783
 20
9.2492931668
 30
0.0
 10
7.6186061112
 20
9.2489107049
 30
0.0
 10
7.6186720927
 20
9.2486156161
 30
0.0
 10
7.6188299796
 20
9.2483520342
 30
0.0
 10
7.6190084379
 20
9.2479896017
 30
0.0
 10
7.619335676
 20
9.2473604653
 30
0.0
 10
7.6197953503
 20
9.246459022
 30
0.0
 10
7.6203503018
 20
9.2453784359
 30
0.0
 10
7.6210890697
 20
9.2439372542
 30
0.0
 10
7.6220129293
 20
9.2421359141
 30
0.0
 10
7.6234908813
 20
9.2392536934
 30
0.0
 10
7.625338398
 20
9.2356509437
 30
0.0
 10
7.6275553851
 20
9.2313276328
 30
0.0
 10
7.629772381
 20
9.227004325
 30
0.0
 10
7.6327283725
 20
9.2212399135
 30
0.0
 10
7.636423363
 20
9.2140343995
 30
0.0
 10
7.6401183527
 20
9.2068288852
 30
0.0
 10
7.6430743454
 20
9.2010644742
 30
0.0
 10
7.6452913376
 20
9.1967411649
 30
0.0
 10
7.6475083384
 20
9.1924178596
 30
0.0
 10
7.6493558125
 20
9.1888150926
 30
0.0
 10
7.6508338513
 20
9.1859329073
 30
0.0
 10
7.65175749
 20
9.1841314771
 30
0.0
 10
7.6524967115
 20
9.1826904803
 30
0.0
 10
7.6530502774
 20
9.1816093291
 30
0.0
 10
7.6535142867
 20
9.1807096539
 30
0.0
 10
7.6538337862
 20
9.1800773612
 30
0.0
 10
7.6540246436
 20
9.1797199859
 30
0.0
 10
7.654144444
 20
9.1794408701
 30
0.0
 10
7.6543534722
 20
9.1792041239
 30
0.0
 10
7.6546010527
 20
9.1788736834
 30
0.0
 10
7.6550488198
 20
9.1783022983
 30
0.0
 10
7.6556809057
 20
9.1774824338
 30
0.0
 10
7.6564426538
 20
9.1765001374
 30
0.0
 10
7.6574571845
 20
9.1751898706
 30
0.0
 10
7.658725736
 20
9.1735522214
 30
0.0
 10
7.6607552015
 20
9.1709318796
 30
0.0
 10
7.6632921078
 20
9.1676564878
 30
0.0
 10
7.6663363634
 20
9.1637260025
 30
0.0
 10
7.6693806276
 20
9.1597955212
 30
0.0
 10
7.6734396435
 20
9.1545548781
 30
0.0
 10
7.6785134145
 20
9.1480040747
 30
0.0
 10
7.6835871848
 20
9.1414532709
 30
0.0
 10
7.6876462018
 20
9.1362126285
 30
0.0
 10
7.6906904628
 20
9.1322821449
 30
0.0
 10
7.6937347301
 20
9.1283516683
 30
0.0
 10
7.6962716001
 20
9.1250762493
 30
0.0
 10
7.6983011396
 20
9.122455963
 30
0.0
 10
7.6995695027
 20
9.1208181727
 30
0.0
 10
7.7005844202
 20
9.1195081956
 30
0.0
 10
7.7013449868
 20
9.118525014
 30
0.0
 10
7.7019807694
 20
9.1177079189
 30
0.0
 10
7.7024219372
 20
9.11713159
 30
0.0
 10
7.7026800914
 20
9.1168090706
 30
0.0
 10
7.7028566407
 20
9.1165479933
 30
0.0
 10
7.7030984261
 20
9.1163602614
 30
0.0
 10
7.7033980516
 20
9.1160843686
 30
0.0
 10
7.7039329982
 20
9.115613476
 30
0.0
 10
7.7046916648
 20
9.1149345405
 30
0.0
 10
7.7056044373
 20
9.1141224853
 30
0.0
 10
7.7068206385
 20
9.1130388134
 30
0.0
 10
7.7083411738
 20
9.1116845424
 30
0.0
 10
7.7107738717
 20
9.1095175307
 30
0.0
 10
7.7138147985
 20
9.1068088272
 30
0.0
 10
7.7174638873
 20
9.1035583567
 30
0.0
 10
7.7211129824
 20
9.1003078933
 30
0.0
 10
7.7259784403
 20
9.0959739396
 30
0.0
 10
7.7320602635
 20
9.0905564984
 30
0.0
 10
7.7381420862
 20
9.0851390565
 30
0.0
 10
7.7430075449
 20
9.0808051038
 30
0.0
 10
7.7466566375
 20
9.0775546373
 30
0.0
 10
7.7503057354
 20
9.0743041784
 30
0.0
 10
7.7533466339
 20
9.0715954391
 30
0.0
 10
7.7557793896
 20
9.0694285003
 30
0.0
 10
7.7572997778
 20
9.0680740438
 30
0.0
 10
7.7585162809
 20
9.0669907527
 30
0.0
 10
7.7594281313
 20
9.066177534
 30
0.0
 10
7.7601896826
 20
9.0655022389
 30
0.0
 10
7.7607194796
 20
9.0650248475
 30
0.0
 10
7.7610273561
 20
9.0647593675
 30
0.0
 10
7.7612437969
 20
9.0645396506
 30
0.0
 10
7.7615155367
 20
9.0643987036
 30
0.0
 10
7.7618585675
 20
9.0641832985
 30
0.0
 10
7.7624678586
 20
9.063819141
 30
0.0
 10
7.7633335758
 20
9.0632922232
 30
0.0
 10
7.7643744476
 20
9.0626627866
 30
0.0
 10
7.7657615743
 20
9.0618225372
 30
0.0
 10
7.7674957231
 20
9.0607725681
 30
0.0
 10
7.7702702267
 20
9.059092426
 30
0.0
 10
7.7737384024
 20
9.0569923141
 30
0.0
 10
7.7779001935
 20
9.0544721516
 30
0.0
 10
7.7820619899
 20
9.0519519967
 30
0.0
 10
7.7876110499
 20
9.0485917875
 30
0.0
 10
7.7945473755
 20
9.044391527
 30
0.0
 10
7.8014837007
 20
9.0401912657
 30
0.0
 10
7.8070327613
 20
9.0368310576
 30
0.0
 10
7.8111945558
 20
9.0343108993
 30
0.0
 10
7.815356354
 20
9.0317907495
 30
0.0
 10
7.8188245077
 20
9.0296905982
 30
0.0
 10
7.8215990562
 20
9.0280105365
 30
0.0
 10
7.8233330909
 20
9.0269603626
 30
0.0
 10
7.8247204517
 20
9.0261205336
 30
0.0
 10
7.8257606083
 20
9.0254898127
 30
0.0
 10
7.8266285632
 20
9.0249669131
 30
0.0
 10
7.8272338596
 20
9.0245955826
 30
0.0
 10
7.8275832909
 20
9.0243916704
 30
0.0
 10
7.8278353706
 20
9.0242154208
 30
0.0
 10
7.8281256515
 20
9.0241282946
 30
0.0
 10
7.8284993678
 20
9.0239810391
 30
0.0
 10
7.8291595796
 20
9.023737826
 30
0.0
 10
7.8300994935
 20
9.0233828064
 30
0.0
 10
7.8312287796
 20
9.0229600241
 30
0.0
 10
7.832734009
 20
9.0223951822
 30
0.0
 10
7.834615712
 20
9.0216895175
 30
0.0
 10
7.8376263438
 20
9.0205602374
 30
0.0
 10
7.8413896655
 20
9.0191487115
 30
0.0
 10
7.8459056379
 20
9.0174548487
 30
0.0
 10
7.850421614
 20
9.0157609943
 30
0.0
 10
7.8564429141
 20
9.0135025189
 30
0.0
 10
7.8639695397
 20
9.0106794257
 30
0.0
 10
7.871496165
 20
9.0078563317
 30
0.0
 10
7.8775174655
 20
9.0055978575
 30
0.0
 10
7.8820334402
 20
9.0039039994
 30
0.0
 10
7.8865494177
 20
9.0022101505
 30
0.0
 10
7.8903127236
 20
9.0007985813
 30
0.0
 10
7.8933233876
 20
8.9996693896
 30
0.0
 10
7.8952050089
 20
8.9989634998
 30
0.0
 10
7.896710406
 20
8.99839912
 30
0.0
 10
7.8978391798
 20
8.997974926
 30
0.0
 10
7.8987806963
 20
8.9976243232
 30
0.0
 10
7.8994380473
 20
8.9973732253
 30
0.0
 10
7.8998163472
 20
8.9972386034
 30
0.0
 10
7.9000925487
 20
8.9971126706
 30
0.0
 10
7.9003975086
 20
8.9970821723
 30
0.0
 10
7.9007940905
 20
8.9970082192
 30
0.0
 10
7.9014927827
 20
8.9968943112
 30
0.0
 10
7.9024884708
 20
8.9967234767
 30
0.0
 10
7.9036843424
 20
8.9965219462
 30
0.0
 10
7.9052784726
 20
8.9962520265
 30
0.0
 10
7.9072712605
 20
8.9959150419
 30
0.0
 10
7.9104596511
 20
8.9953756346
 30
0.0
 10
7.9144451635
 20
8.9947014552
 30
0.0
 10
7.9192277679
 20
8.9938924057
 30
0.0
 10
7.9240103752
 20
8.9930833653
 30
0.0
 10
7.9303871838
 20
8.9920046416
 30
0.0
 10
7.938358195
 20
8.9906562381
 30
0.0
 10
7.9479234083
 20
8.9890381534
 30
0.0
 10
7.9606770261
 20
8.9868807073
 30
0.0
 10
7.9702422394
 20
8.9852626227
 30
0.0
 10
7.9766190482
 20
8.9841838996
 30
0.0
  0
ENDSEC
  0
SECTION
  2
OBJECTS
  0
DICTIONARY
  5
C
100
AcDbDictionary
280
0
281
1
  3
ACAD_GROUP
350
D
  3
ACAD_MLINESTYLE
350
17
  3
ACAD_LAYOUT
350
1A
  3
ACAD_PLOTSETTINGS
350
19
  3
ACAD_PLOTSTYLENAME
350
E
  3
ACAD_IMAGE_DICT
350
       392
  3
ACAD_IMAGE_VARS
350
       393
  3
ACAD_TABLESTYLE
350
       394
  0
IMAGEDEF_REACTOR
  5
391
100
AcDbRasterImageDefReactor
 90
2
330
27F
  0
DICTIONARY
  5
D
102
{ACAD_REACTORS
330
C
102
}
100
AcDbDictionary
280
0
281
1
  0
ACDBDICTIONARYWDFLT
  5
E
102
{ACAD_REACTORS
330
C
102
}
100
AcDbDictionary
281
1
  3
Normal
350
F
100
AcDbDictionaryWithDefault
340
F
  0
DICTIONARY
  5
392
330
C
100
AcDbDictionary
281
1
  3
FMV_assy_2_img_1
350
       397
  0
RASTERVARIABLES
  5
393
330
C
100
AcDbRasterVariables
 90
0
 70
0
 71
1
 72
5
  0
DICTIONARY
  5
17
102
{ACAD_REACTORS
330
C
102
}
100
AcDbDictionary
280
0
281
1
  3
Standard
350
18
  0
DICTIONARY
  5
394
330
C
100
AcDbDictionary
281
1
  3
Standard
350
       398
  3
Standard1
350
       399
  0
DICTIONARY
  5
19
102
{ACAD_REACTORS
330
C
102
}
100
AcDbDictionary
281
1
  0
DICTIONARY
  5
1A
102
{ACAD_REACTORS
330
C
102
}
100
AcDbDictionary
281
1
  3
Model
350
395
  3
Layout1
350
396
  0
ACDBPLACEHOLDER
  5
F
102
{ACAD_REACTORS
330
E
102
}
  0
MLINESTYLE
  5
18
102
{ACAD_REACTORS
330
17
102
}
100
AcDbMlineStyle
  2
STANDARD
 70
0
  3

 62
256
 51
90.0
 52
90.0
 71
2
 49
0.5
 62
256
  6
BYLAYER
 49
-0.5
 62
256
  6
BYLAYER
  0
LAYOUT
  5
395
102
{ACAD_REACTORS
330
1A
102
}
100
AcDbPlotSettings
  1

  2
none_device
  4
ANSI_C_(22.00_x_17.00_Inches)
  6

 40
0.0
 41
0.0
 42
0.0
 43
0.0
 44
558.8
 45
431.8
 46
0.0
 47
0.0
 48
0.0
 49
0.0
140
0.0
141
0.0
142
1.0
143
1.0
 70
1024
 72
0
 73
0
 74
0
  7

 75
0
147
1.0
148
0.0
149
0.0
100
AcDbLayout
  1
Model
 70
0
 71
0
 10
0.0
 20
0.0
 11
22.0
 21
17.0
 12
0.0
 22
0.0
 32
0.0
 14
0.0
 24
0.0
 34
0.0
 15
0.0
 25
0.0
 35
0.0
146
0.0
 13
0.0
 23
0.0
 33
0.0
 16
1.0
 26
0.0
 36
0.0
 17
0.0
 27
1.0
 37
0.0
 76
0
330
204
345
0
346
0
  0
LAYOUT
  5
396
102
{ACAD_REACTORS
330
1A
102
}
100
AcDbPlotSettings
  1

  2
none_device
  4
ANSI_C_(22.00_x_17.00_Inches)
  6

 40
0.0
 41
0.0
 42
0.0
 43
0.0
 44
558.8
 45
431.8
 46
0.0
 47
0.0
 48
0.0
 49
0.0
140
0.0
141
0.0
142
1.0
143
1.0
 70
0
 72
0
 73
0
 74
0
  7

 75
0
147
1.0
148
0.0
149
0.0
100
AcDbLayout
  1
Layout1
 70
0
 71
1
 10
0.0
 20
0.0
 11
22.0
 21
17.0
 12
0.0
 22
0.0
 32
0.0
 14
0.0
 24
0.0
 34
0.0
 15
0.0
 25
0.0
 35
0.0
146
0.0
 13
0.0
 23
0.0
 33
0.0
 16
1.0
 26
0.0
 36
0.0
 17
0.0
 27
1.0
 37
0.0
 76
0
330
205
345
0
346
0
  0
IMAGEDEF
  5
397
102
{ACAD_REACTORS
330
392
330
391
102
}
100
AcDbRasterImageDef
 90
0
  1
FMV_assy_2_img_1.png
 10
369.0
 20
92.0
 11
0.0066666667
 21
0.0066666667
280
1
281
0
  0
TABLESTYLE
  5
398
102
{ACAD_REACTORS
330
394
330
282
330
283
102
}
330
394
100
AcDbTableStyle
  3
Standard
 70
0
 71
0
 40
0.06
 41
0.06
280
1
281
1
  7
Standard
140
0.18
170
1
 62
0
 63
7
283
0
  7
Standard
140
0.18
170
1
 62
0
 63
7
283
0
  7
Standard
140
0.18
170
1
 62
0
 63
7
283
0
  0
TABLESTYLE
  5
399
102
{ACAD_REACTORS
330
394
330
281
102
}
330
394
100
AcDbTableStyle
  3
Standard1
 70
1
 71
0
 40
0.06
 41
0.06
280
1
281
1
  7
Standard
140
0.18
170
1
 62
0
 63
7
283
0
  7
Standard
140
0.18
170
1
 62
0
 63
7
283
0
  7
Standard
140
0.18
170
1
 62
0
 63
7
283
0
  0
ENDSEC
  0
EOF
