999
DXF file: FMU_assy_2.dxf
999
Pro/ENGINEER 2014200 by Parametric Technology Corporation
  0
SECTION
  2
HEADER
  9
$ACADVER
  1
AC1021
  9
$DWGCODEPAGE
  3
ANSI_1252
  9
$EXTMAX
 10
22.0
 20
17.0
 30
0.0
  9
$EXTMIN
 10
0.0
 20
0.0
 30
0.0
  9
$LIMMIN
 10
0.0
 20
0.0
  9
$LIMMAX
 10
22.0
 20
17.0
  9
$VIEWCTR
 10
11.0
 20
8.5
  9
$VIEWSIZE
 40
17.0
  9
$CLAYER
  8
0
  9
$LTSCALE
 40
1.21
  9
$CELTYPE
  6
BYLAYER
  9
$DIMSCALE
 40
1.0
  9
$DIMASZ
 40
0.1875
  9
$DIMEXO
 40
0.0625
  9
$DIMDLI
 40
0.836
  9
$DIMEXE
 40
0.125
  9
$DIMCEN
 40
0.198
  9
$DIMLFAC
 40
1.0
  9
$DIMBLK
  1
_FILLED
  9
$DIMTXT
 40
0.1
  9
$DIMTOL
 70
0
  9
$DIMLIM
 70
0
  9
$DIMTFAC
 40
1.0
  9
$DIMGAP
 40
0.09
  9
$DIMDSEP
 70
46
  9
$AUNITS
 70
0
  9
$PDMODE
 70
3
  9
$PDSIZE
 40
0.3125
  9
$HANDSEED
  5
39A
  9
$TILEMODE
 70
1
  9
$MEASUREMENT
 70
0
  9
$INSUNITS
 70
1
  0
ENDSEC
  0
SECTION
  2
CLASSES
  0
CLASS
  1
ACDBDICTIONARYWDFLT
  2
AcDbDictionaryWithDefault
  3
AutoCAD 2000
 90
0
 91
1
280
0
281
0
  0
CLASS
  1
ACDBPLACEHOLDER
  2
AcDbPlaceHolder
  3
AutoCAD 2000
 90
0
 91
1
280
0
281
0
  0
CLASS
  1
LAYOUT
  2
AcDbLayout
  3
AutoCAD 2000
 90
0
 91
0
280
0
281
0
  0
CLASS
  1
RASTERVARIABLES
  2
AcDbRasterVariables
  3
ISM
 90
0
 91
1
280
0
281
0
  0
CLASS
  1
IMAGEDEF
  2
AcDbRasterImageDef
  3
ISM
 90
0
 91
1
280
0
281
0
  0
CLASS
  1
IMAGEDEF_REACTOR
  2
AcDbRasterImageDefReactor
  3
ISM
 90
0
 91
1
280
0
281
0
  0
CLASS
  1
IMAGE
  2
AcDbRasterImage
  3
ISM
 90
127
 91
1
280
0
281
1
  0
CLASS
  1
TABLESTYLE
  2
AcDbTableStyle
  3
ObjectDBX Classes
 90
2047
 91
1
280
0
281
0
  0
CLASS
  1
ACAD_TABLE
  2
AcDbTable
  3
ObjectDBX Classes
 90
1025
 91
3
280
0
281
1
  0
ENDSEC
  0
SECTION
  2
TABLES
  0
TABLE
  2
VPORT
  5
8
100
AcDbSymbolTable
 70
2
  0
VPORT
  5
1F4
100
AcDbSymbolTableRecord
100
AcDbViewportTableRecord
  2
*ACTIVE
 70
0
 10
0.0
 20
0.0
 11
1.0
 21
1.0
 12
11.0
 22
8.5
 13
0.0
 23
0.0
 14
1.0
 24
1.0
 15
0.0
 25
0.0
 16
0.0
 26
0.0
 36
1.0
 17
0.0
 27
0.0
 37
0.0
 40
17.0
 41
1.2941176471
 42
50.0
 43
0.0
 44
0.0
 50
0.0
 51
0.0
 71
0
 72
100
 73
1
 74
1
 75
0
 76
0
 77
0
 78
0
  0
ENDTAB
  0
TABLE
  2
LTYPE
  5
5
100
AcDbSymbolTable
 70
6
  0
LTYPE
  5
14
100
AcDbSymbolTableRecord
100
AcDbLinetypeTableRecord
  2
BYBLOCK
 70
0
  3

 72
65
 73
0
 40
0.0
  0
LTYPE
  5
15
100
AcDbSymbolTableRecord
100
AcDbLinetypeTableRecord
  2
BYLAYER
 70
0
  3

 72
65
 73
0
 40
0.0
  0
LTYPE
  5
16
100
AcDbSymbolTableRecord
100
AcDbLinetypeTableRecord
  2
CONTINUOUS
 70
64
  3
Solid line
 72
65
 73
0
 40
0.0
  0
LTYPE
  5
1F5
100
AcDbSymbolTableRecord
100
AcDbLinetypeTableRecord
  2
CENTER
 70
64
  3
____ _ ____ _ ____ _ ____ _ ____ _ ____ _ ____
 72
65
 73
4
 40
0.6
 49
0.375
 74
0
 49
-0.075
 74
0
 49
0.075
 74
0
 49
-0.075
 74
0
  0
LTYPE
  5
1F6
100
AcDbSymbolTableRecord
100
AcDbLinetypeTableRecord
  2
HIDDEN
 70
64
  3
- - - - - - - - - - - - - - - - - - - -
 72
65
 73
2
 40
0.2
 49
0.1
 74
0
 49
-0.1
 74
0
  0
LTYPE
  5
1F7
100
AcDbSymbolTableRecord
100
AcDbLinetypeTableRecord
  2
PHANTOM
 70
64
  3
_____ _ _ _____ _ _ _____ _ _ _____
 72
65
 73
6
 40
0.8
 49
0.45
 74
0
 49
-0.05
 74
0
 49
0.1
 74
0
 49
-0.05
 74
0
 49
0.1
 74
0
 49
-0.05
 74
0
  0
LTYPE
  5
1F8
100
AcDbSymbolTableRecord
100
AcDbLinetypeTableRecord
  2
DOT
 70
64
  3
. . . . . . . . . . . . . . . . . . . .
 72
65
 73
2
 40
0.2
 49
0.1
 74
0
 49
-0.1
 74
0
  0
LTYPE
  5
1F9
100
AcDbSymbolTableRecord
100
AcDbLinetypeTableRecord
  2
DASHED
 70
64
  3
- - - - - - - - - - - - - - - - - - - -
 72
65
 73
2
 40
0.2
 49
0.1
 74
0
 49
-0.1
 74
0
  0
ENDTAB
  0
TABLE
  2
LAYER
  5
2
100
AcDbSymbolTable
 70
36
  0
LAYER
  5
10
100
AcDbSymbolTableRecord
100
AcDbLayerTableRecord
  2
0
 70
0
 62
7
  6
CONTINUOUS
370
-3
390
F
  0
LAYER
  5
1FA
100
AcDbSymbolTableRecord
100
AcDbLayerTableRecord
  2
DEFAULT_1
 70
0
 62
7
  6
CENTER
370
-3
390
F
  0
LAYER
  5
1FB
100
AcDbSymbolTableRecord
100
AcDbLayerTableRecord
  2
DEFAULT_2
 70
0
 62
8
  6
HIDDEN
370
-3
390
F
  0
LAYER
  5
1FC
100
AcDbSymbolTableRecord
100
AcDbLayerTableRecord
  2
DEFAULT_3
 70
0
 62
7
  6
PHANTOM
370
-3
390
F
  0
LAYER
  5
1FD
100
AcDbSymbolTableRecord
100
AcDbLayerTableRecord
  2
DATUM_PLANES
 70
0
 62
7
  6
CONTINUOUS
370
-3
390
F
  0
LAYER
  5
1FE
100
AcDbSymbolTableRecord
100
AcDbLayerTableRecord
  2
PORT_AREAS
 70
0
 62
7
  6
CONTINUOUS
370
-3
390
F
  0
LAYER
  5
1FF
100
AcDbSymbolTableRecord
100
AcDbLayerTableRecord
  2
SUNNBOMCOSMETIC
 70
0
 62
7
  6
CONTINUOUS
370
-3
390
F
  0
LAYER
  5
200
100
AcDbSymbolTableRecord
100
AcDbLayerTableRecord
  2
SUNNBOMSTAMPING
 70
0
 62
7
  6
CONTINUOUS
370
-3
390
F
  0
LAYER
  5
201
100
AcDbSymbolTableRecord
100
AcDbLayerTableRecord
  2
THREADS
 70
0
 62
7
  6
CONTINUOUS
370
-3
390
F
  0
ENDTAB
  0
TABLE
  2
STYLE
  5
3
100
AcDbSymbolTable
 70
1
  0
STYLE
  5
11
100
AcDbSymbolTableRecord
100
AcDbTextStyleTableRecord
  2
STANDARD
 70
0
 40
0.0
 41
0.8
 50
0.0
 71
0
 42
0.2
  3
txt
  4

  0
STYLE
  5
202
100
AcDbSymbolTableRecord
100
AcDbTextStyleTableRecord
  2
TEXTSTYLE_1
 70
0
 40
0.0
 41
0.8
 50
0.0
 71
0
 42
0.2
  3
gdt
  4

  0
ENDTAB
  0
TABLE
  2
VIEW
  5
6
100
AcDbSymbolTable
 70
0
  0
ENDTAB
  0
TABLE
  2
UCS
  5
7
100
AcDbSymbolTable
 70
0
  0
ENDTAB
  0
TABLE
  2
APPID
  5
9
100
AcDbSymbolTable
 70
1
  0
APPID
  5
203
100
AcDbSymbolTableRecord
100
AcDbRegAppTableRecord
  2
ACAD
 70
0
  0
ENDTAB
  0
TABLE
  2
BLOCK_RECORD
  5
1
100
AcDbSymbolTable
 70
0
  0
BLOCK_RECORD
  5
204
100
AcDbSymbolTableRecord
100
AcDbBlockTableRecord
  2
*Model_Space
  0
BLOCK_RECORD
  5
205
100
AcDbSymbolTableRecord
100
AcDbBlockTableRecord
  2
*Paper_Space
  0
BLOCK_RECORD
  5
206
100
AcDbSymbolTableRecord
100
AcDbBlockTableRecord
  2
SUN_FIRST_THIRD_ANGLE_BL0
  0
BLOCK_RECORD
  5
207
100
AcDbSymbolTableRecord
100
AcDbBlockTableRecord
  2
*T1
  0
BLOCK_RECORD
  5
208
100
AcDbSymbolTableRecord
100
AcDbBlockTableRecord
  2
*T2
  0
BLOCK_RECORD
  5
209
100
AcDbSymbolTableRecord
100
AcDbBlockTableRecord
  2
*T3
  0
ENDTAB
  0
TABLE
  2
DIMSTYLE
  5
A
100
AcDbSymbolTable
 70
1
100
AcDbDimStyleTable
 71
0
  0
DIMSTYLE
105
20A
100
AcDbSymbolTableRecord
100
AcDbDimStyleTableRecord
  2
STANDARD
 70
0
  3

  4

 40
1.0
 41
0.1875
 42
0.0625
 43
0.38
 44
0.125
 45
0.0
 46
0.0
 47
0.001
 48
0.001
140
0.1
141
0.09
142
0.0
143
25.4
144
1.0
145
0.0
146
1.0
147
0.09
 71
0.0
 72
0.0
 73
1
 74
1
 75
0
 76
0
 77
0
 78
4
170
0
171
2
172
0
173
0
174
0
175
0
176
0
177
0
178
0
270
2
271
3
272
3
273
2
274
2
275
0
280
0
281
0
282
0
283
1
284
4
285
0
286
0
287
3
288
0
340
11
278
46
  0
ENDTAB
  0
ENDSEC
  0
SECTION
  2
BLOCKS
  0
BLOCK
  5
20
100
AcDbEntity
  8
0
100
AcDbBlockBegin
  2
*Model_Space
 70
0
 10
0.0
 20
0.0
 30
0.0
  3
*Model_Space
  1

  0
ENDBLK
  5
21
100
AcDbEntity
  8
0
100
AcDbBlockEnd
  0
BLOCK
  5
1C
100
AcDbEntity
  8
0
100
AcDbBlockBegin
  2
*Paper_Space
 70
0
 10
0.0
 20
0.0
 30
0.0
  3
*Paper_Space
  1

  0
ENDBLK
  5
1D
100
AcDbEntity
  8
0
100
AcDbBlockEnd
  0
BLOCK
  5
20B
100
AcDbEntity
  8
0
100
AcDbBlockBegin
 62
2
  6
CONTINUOUS
  2
SUN_FIRST_THIRD_ANGLE_BL0
 70
64
 10
20.4816717061
 20
1.2289683772
  3
SUN_FIRST_THIRD_ANGLE_BL0
  1

  0
TEXT
  5
20C
100
AcDbEntity
  8
0
100
AcDbText
 62
2
  6
CONTINUOUS
 10
19.4750896608
 20
1.4136269581
  7
STANDARD
 40
0.08
  1
FIRST ANGLE
 41
0.8
 72
0
100
AcDbText
  0
TEXT
  5
20D
100
AcDbEntity
  8
0
100
AcDbText
 62
2
  6
CONTINUOUS
 10
20.7842537513
 20
1.4047600029
  7
STANDARD
 40
0.08
  1
THIRD ANGLE
 41
0.8
 72
0
100
AcDbText
  0
LINE
  5
20E
100
AcDbEntity
  8
0
100
AcDbLine
 62
7
  6
CONTINUOUS
 10
19.4767170086
 20
1.1727031207
 11
19.6334271527
 21
1.1717972817
  0
LINE
  5
20F
100
AcDbEntity
  8
0
100
AcDbLine
 62
7
  6
CONTINUOUS
 10
19.6596964832
 20
1.1717972817
 11
19.6950230232
 21
1.171593082
  0
LINE
  5
210
100
AcDbEntity
  8
0
100
AcDbLine
 62
7
  6
CONTINUOUS
 10
19.7194818561
 20
1.1708914427
 11
19.8852396156
 21
1.1699333054
  0
LINE
  5
211
100
AcDbEntity
  8
0
100
AcDbLine
 62
7
  6
CONTINUOUS
 10
19.4758111696
 20
1.2723454088
 11
19.88525039
 21
1.3511534004
  0
LINE
  5
212
100
AcDbEntity
  8
0
100
AcDbLine
 62
7
  6
CONTINUOUS
 10
19.88525039
 20
1.3511534004
 11
19.8831348489
 21
0.9851647912
  0
LINE
  5
213
100
AcDbEntity
  8
0
100
AcDbLine
 62
7
  6
CONTINUOUS
 10
19.8831348489
 20
0.9851647912
 11
19.4767170086
 21
1.0658141206
  0
LINE
  5
214
100
AcDbEntity
  8
0
100
AcDbLine
 62
7
  6
CONTINUOUS
 10
19.4767170086
 20
1.0658141206
 11
19.4779056764
 21
1.2714536432
  0
CIRCLE
  5
215
100
AcDbEntity
  8
0
100
AcDbCircle
 62
7
  6
CONTINUOUS
 10
20.2068232291
 20
1.1717972817
 40
0.175742101
  0
CIRCLE
  5
216
100
AcDbEntity
  8
0
100
AcDbCircle
 62
7
  6
CONTINUOUS
 10
20.2068232291
 20
1.1717972817
 40
0.1005522074
  0
LINE
  5
217
100
AcDbEntity
  8
0
100
AcDbLine
 62
7
  6
CONTINUOUS
 10
20.2077290681
 20
1.3756110529
 11
20.2071171714
 21
1.2379342989
  0
LINE
  5
218
100
AcDbEntity
  8
0
100
AcDbLine
 62
7
  6
CONTINUOUS
 10
20.2077290681
 20
1.2016899681
 11
20.2074674401
 21
1.1428236749
  0
LINE
  5
219
100
AcDbEntity
  8
0
100
AcDbLine
 62
7
  6
CONTINUOUS
 10
20.208634907
 20
1.101141841
 11
20.2080230104
 21
0.963465087
  0
LINE
  5
21A
100
AcDbEntity
  8
0
100
AcDbLine
 62
7
  6
CONTINUOUS
 10
20.0066328138
 20
1.1745147986
 11
20.1443095678
 21
1.1739029019
  0
LINE
  5
21B
100
AcDbEntity
  8
0
100
AcDbLine
 62
7
  6
CONTINUOUS
 10
20.1832714155
 20
1.1727031207
 11
20.238153505
 21
1.172335442
  0
LINE
  5
21C
100
AcDbEntity
  8
0
100
AcDbLine
 62
7
  6
CONTINUOUS
 10
20.2756669918
 20
1.1717972817
 11
20.407916871
 21
1.1712095044
  0
CIRCLE
  5
21D
100
AcDbEntity
  8
0
100
AcDbCircle
 62
7
  6
CONTINUOUS
 10
20.7509457401
 20
1.1693297793
 40
0.1722024983
  0
CIRCLE
  5
21E
100
AcDbEntity
  8
0
100
AcDbCircle
 62
7
  6
CONTINUOUS
 10
20.7509457401
 20
1.1693297793
 40
0.0985164967
  0
LINE
  5
21F
100
AcDbEntity
  8
0
100
AcDbLine
 62
7
  6
CONTINUOUS
 10
20.7169767782
 20
1.170462078
 11
20.7825395137
 21
1.1682766535
  0
LINE
  5
220
100
AcDbEntity
  8
0
100
AcDbLine
 62
7
  6
CONTINUOUS
 10
20.8177513651
 20
1.1693297793
 11
20.947965719
 21
1.1693297793
  0
LINE
  5
221
100
AcDbEntity
  8
0
100
AcDbLine
 62
7
  6
CONTINUOUS
 10
20.6875370113
 20
1.170462078
 11
20.5573226574
 21
1.170462078
  0
LINE
  5
222
100
AcDbEntity
  8
0
100
AcDbLine
 62
7
  6
CONTINUOUS
 10
20.7486811426
 20
1.1987695462
 11
20.7486811426
 21
1.1432869085
  0
LINE
  5
223
100
AcDbEntity
  8
0
100
AcDbLine
 62
7
  6
CONTINUOUS
 10
20.7498134414
 20
1.1059210505
 11
20.7498134414
 21
0.9757066966
  0
LINE
  5
224
100
AcDbEntity
  8
0
100
AcDbLine
 62
7
  6
CONTINUOUS
 10
20.7486811426
 20
1.2338708068
 11
20.7486811426
 21
1.3640851607
  0
LINE
  5
225
100
AcDbEntity
  8
0
100
AcDbLine
 62
7
  6
CONTINUOUS
 10
21.0702539817
 20
1.2701043662
 11
21.4790138229
 21
1.3448360823
  0
LINE
  5
226
100
AcDbEntity
  8
0
100
AcDbLine
 62
7
  6
CONTINUOUS
 10
21.4790138229
 20
1.3448360823
 11
21.4790138229
 21
0.9779712941
  0
LINE
  5
227
100
AcDbEntity
  8
0
100
AcDbLine
 62
7
  6
CONTINUOUS
 10
21.4790138229
 20
0.9779712941
 11
21.069121683
 21
1.0617614
  0
LINE
  5
228
100
AcDbEntity
  8
0
100
AcDbLine
 62
7
  6
CONTINUOUS
 10
21.0702539817
 20
1.2701043662
 11
21.069121683
 21
1.0617614
  0
LINE
  5
229
100
AcDbEntity
  8
0
100
AcDbLine
 62
7
  6
CONTINUOUS
 10
21.4790138229
 20
1.1693297793
 11
21.3159628059
 21
1.1693297793
  0
LINE
  5
22A
100
AcDbEntity
  8
0
100
AcDbLine
 62
7
  6
CONTINUOUS
 10
21.2876553377
 20
1.1693297793
 11
21.2502894796
 21
1.1693297793
  0
LINE
  5
22B
100
AcDbEntity
  8
0
100
AcDbLine
 62
7
  6
CONTINUOUS
 10
21.2208497126
 20
1.1659328831
 11
21.0713862804
 21
1.1659328831
  0
LINE
  5
22C
100
AcDbEntity
  8
0
100
AcDbLine
 62
7
  6
CONTINUOUS
 10
20.4796138713
 20
1.5284908897
 11
20.4766766948
 21
0.9294458646
  0
ENDBLK
  5
22D
100
AcDbEntity
  8
0
  6
BYBLOCK
 62
0
100
AcDbBlockEnd
  0
BLOCK
  5
22E
100
AcDbEntity
  8
0
100
AcDbBlockBegin
  2
*T1
 70
1
 10
0.0
 20
0.0
  3
*T1
  1

  0
LINE
  5
22F
100
AcDbEntity
  8
0
100
AcDbLine
 62
2
  6
CONTINUOUS
 10
9.275
 20
0.0
 11
-0.0
 21
0.0
  0
LINE
  5
230
100
AcDbEntity
  8
0
100
AcDbLine
 62
2
  6
CONTINUOUS
 10
9.275
 20
0.0
 11
9.275
 21
1.25
  0
LINE
  5
231
100
AcDbEntity
  8
0
100
AcDbLine
 62
2
  6
CONTINUOUS
 10
9.275
 20
0.625
 11
-0.0
 21
0.625
  0
LINE
  5
232
100
AcDbEntity
  8
0
100
AcDbLine
 62
2
  6
CONTINUOUS
 10
9.275
 20
1.25
 11
-0.0
 21
1.25
  0
LINE
  5
233
100
AcDbEntity
  8
0
100
AcDbLine
 62
2
  6
CONTINUOUS
 10
6.8
 20
0.0
 11
6.8
 21
1.25
  0
LINE
  5
234
100
AcDbEntity
  8
0
100
AcDbLine
 62
2
  6
CONTINUOUS
 10
6.4
 20
0.0
 11
6.4
 21
0.625
  0
LINE
  5
235
100
AcDbEntity
  8
0
100
AcDbLine
 62
2
  6
CONTINUOUS
 10
5.9
 20
0.0
 11
5.9
 21
0.625
  0
LINE
  5
236
100
AcDbEntity
  8
0
100
AcDbLine
 62
2
  6
CONTINUOUS
 10
5.2
 20
0.0
 11
5.2
 21
0.625
  0
LINE
  5
237
100
AcDbEntity
  8
0
100
AcDbLine
 62
2
  6
CONTINUOUS
 10
4.1
 20
0.0
 11
4.1
 21
1.25
  0
LINE
  5
238
100
AcDbEntity
  8
0
100
AcDbLine
 62
2
  6
CONTINUOUS
 10
-0.0
 20
0.0
 11
-0.0
 21
1.25
  0
MTEXT
  5
239
100
AcDbEntity
  8
0
100
AcDbMText
 62
2
  6
CONTINUOUS
  7
STANDARD
 71
2
 72
1
 10
6.6
 20
0.325
 30
0.0
 11
1.0
 21
0.0
 31
0.0
 44
0.9
  1
2
 40
0.125
 41
0.2
  0
MTEXT
  5
23A
100
AcDbEntity
  8
0
100
AcDbMText
 62
2
  6
CONTINUOUS
  7
STANDARD
 71
2
 72
1
 10
6.15
 20
0.325
 30
0.0
 11
1.0
 21
0.0
 31
0.0
 44
0.9
  1
C
 40
0.125
 41
0.2
  0
MTEXT
  5
23B
100
AcDbEntity
  8
0
100
AcDbMText
 62
2
  6
CONTINUOUS
  7
STANDARD
 71
2
 72
1
 10
5.55
 20
0.325
 30
0.0
 11
1.0
 21
0.0
 31
0.0
 44
0.9
  1
2.000
 40
0.125
 41
1.0
  0
MTEXT
  5
23C
100
AcDbEntity
  8
0
100
AcDbMText
 62
2
  6
CONTINUOUS
  7
STANDARD
 71
2
 72
1
 10
4.65
 20
0.325
 30
0.0
 11
1.0
 21
0.0
 31
0.0
 44
0.9
  1
Dec-10-20
 40
0.125
 41
1.8
  0
MTEXT
  5
23D
100
AcDbEntity
  8
0
100
AcDbMText
 62
2
  6
CONTINUOUS
  7
STANDARD
 71
2
 72
1
 10
2.05
 20
0.4625
 30
0.0
 11
1.0
 21
0.0
 31
0.0
 44
0.9
  1
T-10A Line mount\PCross port with make up checks
 40
0.125
 41
6.0
  0
MTEXT
  5
23E
100
AcDbEntity
  8
0
100
AcDbMText
 62
2
  6
CONTINUOUS
  7
STANDARD
 71
1
 72
1
 10
6.45
 20
0.5625
 30
0.0
 11
1.0
 21
0.0
 31
0.0
 44
0.9
  1
SHEET
 40
0.06
 41
0.48
  0
MTEXT
  5
23F
100
AcDbEntity
  8
0
100
AcDbMText
 62
2
  6
CONTINUOUS
  7
STANDARD
 71
1
 72
1
 10
5.95
 20
0.5625
 30
0.0
 11
1.0
 21
0.0
 31
0.0
 44
0.9
  1
DWG SIZE
 40
0.06
 41
0.768
  0
MTEXT
  5
240
100
AcDbEntity
  8
0
100
AcDbMText
 62
2
  6
CONTINUOUS
  7
STANDARD
 71
1
 72
1
 10
5.25
 20
0.5625
 30
0.0
 11
1.0
 21
0.0
 31
0.0
 44
0.9
  1
SCALE
 40
0.06
 41
0.48
  0
MTEXT
  5
241
100
AcDbEntity
  8
0
100
AcDbMText
 62
2
  6
CONTINUOUS
  7
STANDARD
 71
1
 72
1
 10
4.15
 20
0.5625
 30
0.0
 11
1.0
 21
0.0
 31
0.0
 44
0.9
  1
DATE
 40
0.06
 41
0.384
  0
MTEXT
  5
242
100
AcDbEntity
  8
0
100
AcDbMText
 62
2
  6
CONTINUOUS
  7
STANDARD
 71
1
 72
1
 10
0.05
 20
0.5625
 30
0.0
 11
1.0
 21
0.0
 31
0.0
 44
0.9
  1
DESCRIPTION
 40
0.06
 41
1.056
  0
MTEXT
  5
243
100
AcDbEntity
  8
0
100
AcDbMText
 62
2
  6
CONTINUOUS
  7
STANDARD
 71
2
 72
1
 10
5.45
 20
1.0375
 30
0.0
 11
1.0
 21
0.0
 31
0.0
 44
0.9
  1
ALL DIMENSIONS IN INCH\PVIEWS ARE THIRD ANGLE
 40
0.12
 41
4.224
  0
MTEXT
  5
244
100
AcDbEntity
  8
0
100
AcDbMText
 62
2
  6
CONTINUOUS
  7
STANDARD
 71
2
 72
1
 10
2.05
 20
0.95
 30
0.0
 11
1.0
 21
0.0
 31
0.0
 44
0.9
  1
FMU
 40
0.125
 41
0.6
  0
MTEXT
  5
245
100
AcDbEntity
  8
0
100
AcDbMText
 62
2
  6
CONTINUOUS
  7
STANDARD
 71
1
 72
1
 10
0.05
 20
1.1875
 30
0.0
 11
1.0
 21
0.0
 31
0.0
 44
0.9
  1
MODEL
 40
0.06
 41
0.48
  0
ENDBLK
  5
246
100
AcDbEntity
  8
0
  6
BYBLOCK
 62
0
100
AcDbBlockEnd
  0
BLOCK
  5
247
100
AcDbEntity
  8
0
100
AcDbBlockBegin
  2
*T2
 70
1
 10
0.0
 20
0.0
  3
*T2
  1

  0
LINE
  5
248
100
AcDbEntity
  8
0
100
AcDbLine
 62
2
  6
CONTINUOUS
 10
0.0
 20
0.0
 11
9.055
 21
0.0
  0
LINE
  5
249
100
AcDbEntity
  8
0
100
AcDbLine
 62
2
  6
CONTINUOUS
 10
0.0
 20
0.0
 11
0.0
 21
-2.594
  0
LINE
  5
24A
100
AcDbEntity
  8
0
100
AcDbLine
 62
2
  6
CONTINUOUS
 10
0.0
 20
-0.344
 11
9.055
 21
-0.344
  0
LINE
  5
24B
100
AcDbEntity
  8
0
100
AcDbLine
 62
2
  6
CONTINUOUS
 10
0.0
 20
-0.594
 11
9.055
 21
-0.594
  0
LINE
  5
24C
100
AcDbEntity
  8
0
100
AcDbLine
 62
2
  6
CONTINUOUS
 10
0.0
 20
-0.844
 11
9.055
 21
-0.844
  0
LINE
  5
24D
100
AcDbEntity
  8
0
100
AcDbLine
 62
2
  6
CONTINUOUS
 10
0.0
 20
-1.094
 11
9.055
 21
-1.094
  0
LINE
  5
24E
100
AcDbEntity
  8
0
100
AcDbLine
 62
2
  6
CONTINUOUS
 10
0.0
 20
-1.344
 11
9.055
 21
-1.344
  0
LINE
  5
24F
100
AcDbEntity
  8
0
100
AcDbLine
 62
2
  6
CONTINUOUS
 10
0.0
 20
-1.594
 11
9.055
 21
-1.594
  0
LINE
  5
250
100
AcDbEntity
  8
0
100
AcDbLine
 62
2
  6
CONTINUOUS
 10
0.0
 20
-1.844
 11
9.055
 21
-1.844
  0
LINE
  5
251
100
AcDbEntity
  8
0
100
AcDbLine
 62
2
  6
CONTINUOUS
 10
0.0
 20
-2.094
 11
9.055
 21
-2.094
  0
LINE
  5
252
100
AcDbEntity
  8
0
100
AcDbLine
 62
2
  6
CONTINUOUS
 10
0.0
 20
-2.344
 11
9.055
 21
-2.344
  0
LINE
  5
253
100
AcDbEntity
  8
0
100
AcDbLine
 62
2
  6
CONTINUOUS
 10
0.0
 20
-2.594
 11
9.055
 21
-2.594
  0
LINE
  5
254
100
AcDbEntity
  8
0
100
AcDbLine
 62
2
  6
CONTINUOUS
 10
3.055
 20
0.0
 11
3.055
 21
-2.594
  0
LINE
  5
255
100
AcDbEntity
  8
0
100
AcDbLine
 62
2
  6
CONTINUOUS
 10
9.055
 20
0.0
 11
9.055
 21
-2.594
  0
MTEXT
  5
256
100
AcDbEntity
  8
0
100
AcDbMText
 62
2
  6
CONTINUOUS
  7
STANDARD
 71
2
 72
1
 10
1.5275
 20
-0.0995
 30
0.0
 11
1.0
 21
0.0
 31
0.0
 44
0.9
  1
Technical Data
 40
0.145
 41
3.248
  0
MTEXT
  5
257
100
AcDbEntity
  8
0
100
AcDbMText
 62
2
  6
CONTINUOUS
  7
STANDARD
 71
2
 72
1
 10
4.555
 20
-0.0995
 30
0.0
 11
1.0
 21
0.0
 31
0.0
 44
0.9
  1
U.S. Units
 40
0.145
 41
2.32
  0
MTEXT
  5
258
100
AcDbEntity
  8
0
100
AcDbMText
 62
2
  6
CONTINUOUS
  7
STANDARD
 71
2
 72
1
 10
7.555
 20
-0.0995
 30
0.0
 11
1.0
 21
0.0
 31
0.0
 44
0.9
  1
Metric Units
 40
0.145
 41
2.784
  0
MTEXT
  5
259
100
AcDbEntity
  8
0
100
AcDbMText
 62
2
  6
CONTINUOUS
  7
STANDARD
 71
2
 72
1
 10
1.5275
 20
-0.4065
 30
0.0
 11
1.0
 21
0.0
 31
0.0
 44
0.9
  1
Cavity
 40
0.125
 41
1.2
  0
MTEXT
  5
25A
100
AcDbEntity
  8
0
100
AcDbMText
 62
2
  6
CONTINUOUS
  7
STANDARD
 71
2
 72
1
 10
6.055
 20
-0.4065
 30
0.0
 11
1.0
 21
0.0
 31
0.0
 44
0.9
  1
T-10A
 40
0.125
 41
1.0
  0
MTEXT
  5
25B
100
AcDbEntity
  8
0
100
AcDbMText
 62
2
  6
CONTINUOUS
  7
STANDARD
 71
2
 72
1
 10
1.5275
 20
-0.6565
 30
0.0
 11
1.0
 21
0.0
 31
0.0
 44
0.9
  1
Body Features
 40
0.125
 41
2.6
  0
MTEXT
  5
25C
100
AcDbEntity
  8
0
100
AcDbMText
 62
2
  6
CONTINUOUS
  7
STANDARD
 71
2
 72
1
 10
6.055
 20
-0.6565
 30
0.0
 11
1.0
 21
0.0
 31
0.0
 44
0.9
  1
Cross port with make up checks
 40
0.125
 41
6.0
  0
MTEXT
  5
25D
100
AcDbEntity
  8
0
100
AcDbMText
 62
2
  6
CONTINUOUS
  7
STANDARD
 71
2
 72
1
 10
1.5275
 20
-0.9065
 30
0.0
 11
1.0
 21
0.0
 31
0.0
 44
0.9
  1
Body Type
 40
0.125
 41
1.8
  0
MTEXT
  5
25E
100
AcDbEntity
  8
0
100
AcDbMText
 62
2
  6
CONTINUOUS
  7
STANDARD
 71
2
 72
1
 10
6.055
 20
-0.9065
 30
0.0
 11
1.0
 21
0.0
 31
0.0
 44
0.9
  1
Line mount
 40
0.125
 41
2.0
  0
MTEXT
  5
25F
100
AcDbEntity
  8
0
100
AcDbMText
 62
2
  6
CONTINUOUS
  7
STANDARD
 71
2
 72
1
 10
1.5275
 20
-1.1565
 30
0.0
 11
1.0
 21
0.0
 31
0.0
 44
0.9
  1
Interface
 40
0.125
 41
1.8
  0
MTEXT
  5
260
100
AcDbEntity
  8
0
100
AcDbMText
 62
2
  6
CONTINUOUS
  7
STANDARD
 71
2
 72
1
 10
6.055
 20
-1.1565
 30
0.0
 11
1.0
 21
0.0
 31
0.0
 44
0.9
  1
None
 40
0.125
 41
0.8
  0
MTEXT
  5
261
100
AcDbEntity
  8
0
100
AcDbMText
 62
2
  6
CONTINUOUS
  7
STANDARD
 71
2
 72
1
 10
1.5275
 20
-1.4065
 30
0.0
 11
1.0
 21
0.0
 31
0.0
 44
0.9
  1
Open Cavity Quantity
 40
0.125
 41
4.0
  0
MTEXT
  5
262
100
AcDbEntity
  8
0
100
AcDbMText
 62
2
  6
CONTINUOUS
  7
STANDARD
 71
2
 72
1
 10
6.055
 20
-1.4065
 30
0.0
 11
1.0
 21
0.0
 31
0.0
 44
0.9
  1
2
 40
0.125
 41
0.2
  0
MTEXT
  5
263
100
AcDbEntity
  8
0
100
AcDbMText
 62
2
  6
CONTINUOUS
  7
STANDARD
 71
2
 72
1
 10
1.5275
 20
-1.6565
 30
0.0
 11
1.0
 21
0.0
 31
0.0
 44
0.9
  1
Weight
 40
0.125
 41
1.2
  0
MTEXT
  5
264
100
AcDbEntity
  8
0
100
AcDbMText
 62
2
  6
CONTINUOUS
  7
STANDARD
 71
2
 72
1
 10
4.555
 20
-1.6565
 30
0.0
 11
1.0
 21
0.0
 31
0.0
 44
0.9
  1
2.636 lb.
 40
0.125
 41
1.8
  0
MTEXT
  5
265
100
AcDbEntity
  8
0
100
AcDbMText
 62
2
  6
CONTINUOUS
  7
STANDARD
 71
2
 72
1
 10
7.555
 20
-1.6565
 30
0.0
 11
1.0
 21
0.0
 31
0.0
 44
0.9
  1
1,196 kg.
 40
0.125
 41
1.8
  0
MTEXT
  5
266
100
AcDbEntity
  8
0
100
AcDbMText
 62
2
  6
CONTINUOUS
  7
STANDARD
 71
2
 72
1
 10
1.5275
 20
-1.9065
 30
0.0
 11
1.0
 21
0.0
 31
0.0
 44
0.9
  1
Mounting Hole Diameter
 40
0.125
 41
4.4
  0
MTEXT
  5
267
100
AcDbEntity
  8
0
100
AcDbMText
 62
2
  6
CONTINUOUS
  7
STANDARD
 71
2
 72
1
 10
4.555
 20
-1.9065
 30
0.0
 11
1.0
 21
0.0
 31
0.0
 44
0.9
  1
.34 in.
 40
0.125
 41
1.4
  0
MTEXT
  5
268
100
AcDbEntity
  8
0
100
AcDbMText
 62
2
  6
CONTINUOUS
  7
STANDARD
 71
2
 72
1
 10
7.555
 20
-1.9065
 30
0.0
 11
1.0
 21
0.0
 31
0.0
 44
0.9
  1
8.6 mm
 40
0.125
 41
1.2
  0
MTEXT
  5
269
100
AcDbEntity
  8
0
100
AcDbMText
 62
2
  6
CONTINUOUS
  7
STANDARD
 71
2
 72
1
 10
1.5275
 20
-2.1565
 30
0.0
 11
1.0
 21
0.0
 31
0.0
 44
0.9
  1
Mounting Hole Depth
 40
0.125
 41
3.8
  0
MTEXT
  5
26A
100
AcDbEntity
  8
0
100
AcDbMText
 62
2
  6
CONTINUOUS
  7
STANDARD
 71
2
 72
1
 10
6.055
 20
-2.1565
 30
0.0
 11
1.0
 21
0.0
 31
0.0
 44
0.9
  1
Through
 40
0.125
 41
1.4
  0
MTEXT
  5
26B
100
AcDbEntity
  8
0
100
AcDbMText
 62
2
  6
CONTINUOUS
  7
STANDARD
 71
2
 72
1
 10
1.5275
 20
-2.4065
 30
0.0
 11
1.0
 21
0.0
 31
0.0
 44
0.9
  1
Mounting Hole Quantity
 40
0.125
 41
4.4
  0
MTEXT
  5
26C
100
AcDbEntity
  8
0
100
AcDbMText
 62
2
  6
CONTINUOUS
  7
STANDARD
 71
2
 72
1
 10
6.055
 20
-2.4065
 30
0.0
 11
1.0
 21
0.0
 31
0.0
 44
0.9
  1
2
 40
0.125
 41
0.2
  0
ENDBLK
  5
26D
100
AcDbEntity
  8
0
  6
BYBLOCK
 62
0
100
AcDbBlockEnd
  0
BLOCK
  5
26E
100
AcDbEntity
  8
0
100
AcDbBlockBegin
  2
*T3
 70
1
 10
0.0
 20
0.0
  3
*T3
  1

  0
LINE
  5
26F
100
AcDbEntity
  8
0
100
AcDbLine
 62
2
  6
CONTINUOUS
 10
0.0
 20
0.0
 11
4.6
 21
0.0
  0
LINE
  5
270
100
AcDbEntity
  8
0
100
AcDbLine
 62
2
  6
CONTINUOUS
 10
0.0
 20
0.0
 11
0.0
 21
-0.93775
  0
LINE
  5
271
100
AcDbEntity
  8
0
100
AcDbLine
 62
2
  6
CONTINUOUS
 10
0.0
 20
-0.34375
 11
4.6
 21
-0.34375
  0
LINE
  5
272
100
AcDbEntity
  8
0
100
AcDbLine
 62
2
  6
CONTINUOUS
 10
0.0
 20
-0.68775
 11
4.6
 21
-0.68775
  0
LINE
  5
273
100
AcDbEntity
  8
0
100
AcDbLine
 62
2
  6
CONTINUOUS
 10
0.0
 20
-0.93775
 11
4.6
 21
-0.93775
  0
LINE
  5
274
100
AcDbEntity
  8
0
100
AcDbLine
 62
2
  6
CONTINUOUS
 10
1.3
 20
-0.34375
 11
1.3
 21
-0.93775
  0
LINE
  5
275
100
AcDbEntity
  8
0
100
AcDbLine
 62
2
  6
CONTINUOUS
 10
3.3
 20
-0.34375
 11
3.3
 21
-0.93775
  0
LINE
  5
276
100
AcDbEntity
  8
0
100
AcDbLine
 62
2
  6
CONTINUOUS
 10
4.6
 20
0.0
 11
4.6
 21
-0.93775
  0
MTEXT
  5
277
100
AcDbEntity
  8
0
100
AcDbMText
 62
2
  6
CONTINUOUS
  7
STANDARD
 71
2
 72
1
 10
2.3
 20
-0.099375
 30
0.0
 11
1.0
 21
0.0
 31
0.0
 44
0.9
  1
Port Headings
 40
0.145
 41
3.016
  0
MTEXT
  5
278
100
AcDbEntity
  8
0
100
AcDbMText
 62
2
  6
CONTINUOUS
  7
STANDARD
 71
2
 72
1
 10
0.65
 20
-0.44325
 30
0.0
 11
1.0
 21
0.0
 31
0.0
 44
0.9
  1
Product
 40
0.145
 41
1.624
  0
MTEXT
  5
279
100
AcDbEntity
  8
0
100
AcDbMText
 62
2
  6
CONTINUOUS
  7
STANDARD
 71
2
 72
1
 10
2.3
 20
-0.44325
 30
0.0
 11
1.0
 21
0.0
 31
0.0
 44
0.9
  1
Port
 40
0.145
 41
0.928
  0
MTEXT
  5
27A
100
AcDbEntity
  8
0
100
AcDbMText
 62
2
  6
CONTINUOUS
  7
STANDARD
 71
2
 72
1
 10
3.95
 20
-0.44325
 30
0.0
 11
1.0
 21
0.0
 31
0.0
 44
0.9
  1
Size
 40
0.145
 41
0.928
  0
MTEXT
  5
27B
100
AcDbEntity
  8
0
100
AcDbMText
 62
2
  6
CONTINUOUS
  7
STANDARD
 71
2
 72
1
 10
0.65
 20
-0.75025
 30
0.0
 11
1.0
 21
0.0
 31
0.0
 44
0.9
  1
FMU
 40
0.125
 41
0.6
  0
MTEXT
  5
27C
100
AcDbEntity
  8
0
100
AcDbMText
 62
2
  6
CONTINUOUS
  7
STANDARD
 71
2
 72
1
 10
2.3
 20
-0.75025
 30
0.0
 11
1.0
 21
0.0
 31
0.0
 44
0.9
  1
All Ports
 40
0.125
 41
1.8
  0
MTEXT
  5
27D
100
AcDbEntity
  8
0
100
AcDbMText
 62
2
  6
CONTINUOUS
  7
STANDARD
 71
2
 72
1
 10
3.95
 20
-0.75025
 30
0.0
 11
1.0
 21
0.0
 31
0.0
 44
0.9
  1
3/8" BSPP
 40
0.125
 41
1.8
  0
ENDBLK
  5
27E
100
AcDbEntity
  8
0
  6
BYBLOCK
 62
0
100
AcDbBlockEnd
  0
ENDSEC
  0
SECTION
  2
ENTITIES
  0
IMAGE
  5
27F
100
AcDbEntity
  8
0
100
AcDbRasterImage
 62
7
  6
CONTINUOUS
 10
19.2297077316
 20
0.3094318264
 30
0.0
 11
0.0066666667
 21
0.0
 31
0.0
 12
0.0
 22
0.0066666667
 32
0.0
 13
369.0
 23
92.0
340
       397
 70
9
280
0
281
50
282
50
283
0
360
       391
 71
1
 91
2
 14
-0.5
 24
-0.5
 14
368.5
 24
91.5
  0
INSERT
  5
280
100
AcDbEntity
  8
0
100
AcDbBlockReference
 62
2
  6
CONTINUOUS
  2
SUN_FIRST_THIRD_ANGLE_BL0
 10
20.4816717061
 20
1.2289683772
  0
ACAD_TABLE
  5
281
100
AcDbEntity
  8
0
 62
2
  6
CONTINUOUS
100
AcDbBlockReference
  2
*T1
 10
12.42375
 20
0.30125
 30
0.0
100
AcDbTable
342
       399
343
207
 11
1.0
 21
0.0
 31
0.0
 90
6
 91
4
 92
6
 93
20
 94
0
 95
0
 96
0
 70
1
 41
0.0
141
0.525
141
0.1
141
0.525
141
0.1
142
4.1
142
1.1
142
0.7
142
0.5
142
0.4
142
2.475
171
1
172
0
173
0
174
0
175
1
176
1
 91
33
178
0
145
0.0
301
CELL_VALUE
 90
4
  1
T-10A Line mount\PCross port with make up checks
304
ACVALUE_END
170
2
140
0.125
171
1
172
0
173
0
174
0
175
1
176
1
 91
33
178
0
145
0.0
301
CELL_VALUE
 90
4
  1
Dec-10-20
304
ACVALUE_END
170
5
140
0.125
171
1
172
0
173
0
174
0
175
1
176
1
 91
33
178
0
145
0.0
301
CELL_VALUE
 90
4
  1
2.000
304
ACVALUE_END
170
5
140
0.125
171
1
172
0
173
0
174
0
175
1
176
1
 91
33
178
0
145
0.0
301
CELL_VALUE
 90
4
  1
C
304
ACVALUE_END
170
5
140
0.125
171
1
172
0
173
0
174
0
175
1
176
1
 91
33
178
0
145
0.0
301
CELL_VALUE
 90
4
  1
2
304
ACVALUE_END
170
5
140
0.125
171
1
172
0
173
0
174
0
175
1
176
1
 91
33
178
0
145
0.0
301
CELL_VALUE
 90
4
  1
 
304
ACVALUE_END
170
1
140
0.125
171
1
172
0
173
0
174
0
175
1
176
1
 91
33
178
0
145
0.0
301
CELL_VALUE
 90
4
  1
DESCRIPTION
304
ACVALUE_END
170
1
140
0.06
171
1
172
0
173
0
174
0
175
1
176
1
 91
33
178
0
145
0.0
301
CELL_VALUE
 90
4
  1
DATE
304
ACVALUE_END
170
1
140
0.06
171
1
172
0
173
0
174
0
175
1
176
1
 91
33
178
0
145
0.0
301
CELL_VALUE
 90
4
  1
SCALE
304
ACVALUE_END
170
1
140
0.06
171
1
172
0
173
0
174
0
175
1
176
1
 91
33
178
0
145
0.0
301
CELL_VALUE
 90
4
  1
DWG SIZE
304
ACVALUE_END
170
1
140
0.06
171
1
172
0
173
0
174
0
175
1
176
1
 91
33
178
0
145
0.0
301
CELL_VALUE
 90
4
  1
SHEET
304
ACVALUE_END
170
1
140
0.06
171
1
172
0
173
0
174
0
175
1
176
1
 91
33
178
0
145
0.0
301
CELL_VALUE
 90
4
  1
 
304
ACVALUE_END
170
1
140
0.125
171
1
172
0
173
0
174
0
175
1
176
1
 91
33
178
0
145
0.0
301
CELL_VALUE
 90
4
  1
FMU
304
ACVALUE_END
170
5
140
0.125
171
1
172
0
173
0
174
0
175
4
176
1
 91
33
178
0
145
0.0
301
CELL_VALUE
 90
4
  1
ALL DIMENSIONS IN INCH\PVIEWS ARE THIRD ANGLE
304
ACVALUE_END
170
5
140
0.12
171
1
172
0
173
1
174
0
175
1
176
1
 91
1
178
0
145
0.0
170
1
171
1
172
0
173
1
174
0
175
1
176
1
 91
1
178
0
145
0.0
170
1
171
1
172
0
173
1
174
0
175
1
176
1
 91
1
178
0
145
0.0
170
5
171
1
172
0
173
0
174
0
175
1
176
1
 91
33
178
0
145
0.0
301
CELL_VALUE
 90
4
  1
 
304
ACVALUE_END
170
1
140
0.125
171
1
172
0
173
0
174
0
175
1
176
1
 91
33
178
0
145
0.0
301
CELL_VALUE
 90
4
  1
MODEL
304
ACVALUE_END
170
1
140
0.06
171
1
172
0
173
0
174
0
175
1
176
1
 91
33
178
0
145
0.0
301
CELL_VALUE
 90
4
  1
 
304
ACVALUE_END
170
1
140
0.125
171
1
172
0
173
0
174
0
175
1
176
1
 91
33
178
0
145
0.0
301
CELL_VALUE
 90
4
  1
 
304
ACVALUE_END
170
1
140
0.125
171
1
172
0
173
0
174
0
175
1
176
1
 91
33
178
0
145
0.0
301
CELL_VALUE
 90
4
  1
 
304
ACVALUE_END
170
1
140
0.125
171
1
172
0
173
0
174
0
175
1
176
1
 91
33
178
0
145
0.0
301
CELL_VALUE
 90
4
  1
 
304
ACVALUE_END
170
1
140
0.125
171
1
172
0
173
0
174
0
175
1
176
1
 91
33
178
0
145
0.0
301
CELL_VALUE
 90
4
  1
 
304
ACVALUE_END
170
1
140
0.125
  0
ACAD_TABLE
  5
282
100
AcDbEntity
  8
0
 62
2
  6
CONTINUOUS
100
AcDbBlockReference
  2
*T2
 10
12.4237499994
 20
16.47875
 30
0.0
100
AcDbTable
342
       398
343
208
 11
1.0
 21
0.0
 31
0.0
 90
22
 91
10
 92
3
 93
16
 94
0
 95
0
 96
0
 41
0.028
141
0.344
141
0.25
141
0.25
141
0.25
141
0.25
141
0.25
141
0.25
141
0.25
141
0.25
141
0.25
142
3.055
142
3.0
142
3.0
171
1
172
0
173
0
174
0
175
1
176
1
 91
33
178
0
145
0.0
301
CELL_VALUE
 90
4
  1
Technical Data
304
ACVALUE_END
170
5
140
0.145
171
1
172
0
173
0
174
0
175
1
176
1
 91
33
178
0
145
0.0
301
CELL_VALUE
 90
4
  1
U.S. Units
304
ACVALUE_END
170
5
140
0.145
171
1
172
0
173
0
174
0
175
1
176
1
 91
33
178
0
145
0.0
301
CELL_VALUE
 90
4
  1
Metric Units
304
ACVALUE_END
170
5
140
0.145
171
1
172
0
173
0
174
0
175
1
176
1
 91
33
178
0
145
0.0
301
CELL_VALUE
 90
4
  1
Cavity
304
ACVALUE_END
170
5
140
0.125
171
1
172
0
173
0
174
0
175
2
176
1
 91
33
178
0
145
0.0
301
CELL_VALUE
 90
4
  1
T-10A
304
ACVALUE_END
170
5
140
0.125
171
1
172
0
173
1
174
0
175
1
176
1
 91
1
178
0
145
0.0
170
1
171
1
172
0
173
0
174
0
175
1
176
1
 91
33
178
0
145
0.0
301
CELL_VALUE
 90
4
  1
Body Features
304
ACVALUE_END
170
5
140
0.125
171
1
172
0
173
0
174
0
175
2
176
1
 91
33
178
0
145
0.0
301
CELL_VALUE
 90
4
  1
Cross port with make up checks
304
ACVALUE_END
170
5
140
0.125
171
1
172
0
173
1
174
0
175
1
176
1
 91
1
178
0
145
0.0
170
1
171
1
172
0
173
0
174
0
175
1
176
1
 91
33
178
0
145
0.0
301
CELL_VALUE
 90
4
  1
Body Type
304
ACVALUE_END
170
5
140
0.125
171
1
172
0
173
0
174
0
175
2
176
1
 91
33
178
0
145
0.0
301
CELL_VALUE
 90
4
  1
Line mount
304
ACVALUE_END
170
5
140
0.125
171
1
172
0
173
1
174
0
175
1
176
1
 91
1
178
0
145
0.0
170
1
171
1
172
0
173
0
174
0
175
1
176
1
 91
33
178
0
145
0.0
301
CELL_VALUE
 90
4
  1
Interface
304
ACVALUE_END
170
5
140
0.125
171
1
172
0
173
0
174
0
175
2
176
1
 91
33
178
0
145
0.0
301
CELL_VALUE
 90
4
  1
None
304
ACVALUE_END
170
5
140
0.125
171
1
172
0
173
1
174
0
175
1
176
1
 91
1
178
0
145
0.0
170
1
171
1
172
0
173
0
174
0
175
1
176
1
 91
33
178
0
145
0.0
301
CELL_VALUE
 90
4
  1
Open Cavity Quantity
304
ACVALUE_END
170
5
140
0.125
171
1
172
0
173
0
174
0
175
2
176
1
 91
33
178
0
145
0.0
301
CELL_VALUE
 90
4
  1
2
304
ACVALUE_END
170
5
140
0.125
171
1
172
0
173
1
174
0
175
1
176
1
 91
1
178
0
145
0.0
170
1
171
1
172
0
173
0
174
0
175
1
176
1
 91
33
178
0
145
0.0
301
CELL_VALUE
 90
4
  1
Weight
304
ACVALUE_END
170
5
140
0.125
171
1
172
0
173
0
174
0
175
1
176
1
 91
33
178
0
145
0.0
301
CELL_VALUE
 90
4
  1
2.636 lb.
304
ACVALUE_END
170
5
140
0.125
171
1
172
0
173
0
174
0
175
1
176
1
 91
33
178
0
145
0.0
301
CELL_VALUE
 90
4
  1
1,196 kg.
304
ACVALUE_END
170
5
140
0.125
171
1
172
0
173
0
174
0
175
1
176
1
 91
33
178
0
145
0.0
301
CELL_VALUE
 90
4
  1
Mounting Hole Diameter
304
ACVALUE_END
170
5
140
0.125
171
1
172
0
173
0
174
0
175
1
176
1
 91
33
178
0
145
0.0
301
CELL_VALUE
 90
4
  1
.34 in.
304
ACVALUE_END
170
5
140
0.125
171
1
172
0
173
0
174
0
175
1
176
1
 91
33
178
0
145
0.0
301
CELL_VALUE
 90
4
  1
8.6 mm
304
ACVALUE_END
170
5
140
0.125
171
1
172
0
173
0
174
0
175
1
176
1
 91
33
178
0
145
0.0
301
CELL_VALUE
 90
4
  1
Mounting Hole Depth
304
ACVALUE_END
170
5
140
0.125
171
1
172
0
173
0
174
0
175
2
176
1
 91
33
178
0
145
0.0
301
CELL_VALUE
 90
4
  1
Through
304
ACVALUE_END
170
5
140
0.125
171
1
172
0
173
1
174
0
175
1
176
1
 91
1
178
0
145
0.0
170
1
171
1
172
0
173
0
174
0
175
1
176
1
 91
33
178
0
145
0.0
301
CELL_VALUE
 90
4
  1
Mounting Hole Quantity
304
ACVALUE_END
170
5
140
0.125
171
1
172
0
173
0
174
0
175
2
176
1
 91
33
178
0
145
0.0
301
CELL_VALUE
 90
4
  1
2
304
ACVALUE_END
170
5
140
0.125
171
1
172
0
173
1
174
0
175
1
176
1
 91
1
178
0
145
0.0
170
1
  0
ACAD_TABLE
  5
283
100
AcDbEntity
  8
0
 62
2
  6
CONTINUOUS
100
AcDbBlockReference
  2
*T3
 10
0.52125
 20
1.459
 30
0.0
100
AcDbTable
342
       398
343
209
 11
1.0
 21
0.0
 31
0.0
 90
22
 91
3
 92
3
 93
16
 94
0
 95
0
 96
0
 41
0.05
141
0.34375
141
0.344
141
0.25
142
1.3
142
2.0
142
1.3
171
1
172
0
173
0
174
0
175
3
176
1
 91
33
178
0
145
0.0
301
CELL_VALUE
 90
4
  1
Port Headings
304
ACVALUE_END
170
5
140
0.145
171
1
172
0
173
1
174
0
175
1
176
1
 91
1
178
0
145
0.0
170
1
171
1
172
0
173
1
174
0
175
1
176
1
 91
1
178
0
145
0.0
170
1
171
1
172
0
173
0
174
0
175
1
176
1
 91
33
178
0
145
0.0
301
CELL_VALUE
 90
4
  1
Product
304
ACVALUE_END
170
5
140
0.145
171
1
172
0
173
0
174
0
175
1
176
1
 91
33
178
0
145
0.0
301
CELL_VALUE
 90
4
  1
Port
304
ACVALUE_END
170
5
140
0.145
171
1
172
0
173
0
174
0
175
1
176
1
 91
33
178
0
145
0.0
301
CELL_VALUE
 90
4
  1
Size
304
ACVALUE_END
170
5
140
0.145
171
1
172
0
173
0
174
0
175
1
176
1
 91
33
178
0
145
0.0
301
CELL_VALUE
 90
4
  1
FMU
304
ACVALUE_END
170
5
140
0.125
171
1
172
0
173
0
174
0
175
1
176
1
 91
33
178
0
145
0.0
301
CELL_VALUE
 90
4
  1
All Ports
304
ACVALUE_END
170
5
140
0.125
171
1
172
0
173
0
174
0
175
1
176
1
 91
33
178
0
145
0.0
301
CELL_VALUE
 90
4
  1
3/8" BSPP
304
ACVALUE_END
170
5
140
0.125
  0
MTEXT
  5
284
100
AcDbEntity
  8
0
100
AcDbMText
 62
2
  6
CONTINUOUS
  7
STANDARD
 71
1
 72
1
 10
0.52125
 20
5.75995
 30
0.0
 11
1.0
 21
0.0
 31
0.0
 44
0.6
  3
Notes\P \P1. Important: Carefully consider\P   the maximum system pressure. The\P   pressure rating of the manifold is\P   dependent on the manifold material,\P   with the port type/size a secondary\P   consideration. Manifolds\P   constructed of alu
  1
minum are not\P   rated for pressures higher than\P   3000 psi (210 bar), regardless of\P   the port type/size specified.
 40
0.1
 41
3.04
  0
LINE
  5
285
100
AcDbEntity
  8
0
100
AcDbLine
 62
7
  6
CONTINUOUS
 10
0.30125
 20
0.30125
 11
0.30125
 21
16.69875
  0
LINE
  5
286
100
AcDbEntity
  8
0
100
AcDbLine
 62
7
  6
CONTINUOUS
 10
0.30125
 20
0.30125
 11
21.69875
 21
0.30125
  0
LINE
  5
287
100
AcDbEntity
  8
0
100
AcDbLine
 62
7
  6
CONTINUOUS
 10
0.30125
 20
16.69875
 11
21.69875
 21
16.69875
  0
LINE
  5
288
100
AcDbEntity
  8
0
100
AcDbLine
 62
7
  6
CONTINUOUS
 10
21.69875
 20
0.30125
 11
21.69875
 21
16.69875
  0
LINE
  5
289
100
AcDbEntity
  8
0
100
AcDbLine
 62
7
  6
CONTINUOUS
 10
8.6810380359
 20
12.3458322303
 11
7.1602186008
 21
10.8768333737
  0
LINE
  5
28A
100
AcDbEntity
  8
0
100
AcDbLine
 62
7
  6
CONTINUOUS
 10
7.1602186008
 20
5.0812780726
 11
7.1602186008
 21
10.8768333737
  0
LINE
  5
28B
100
AcDbEntity
  8
0
100
AcDbLine
 62
4
  6
CONTINUOUS
 10
7.4161889596
 20
9.9511114372
 11
7.4017000716
 21
9.8941606933
  0
LINE
  5
28C
100
AcDbEntity
  8
0
100
AcDbLine
 62
4
  6
CONTINUOUS
 10
7.4017000716
 20
10.0873458611
 11
7.4161889596
 21
10.1056595798
  0
LINE
  5
28D
100
AcDbEntity
  8
0
100
AcDbLine
 62
4
  6
CONTINUOUS
 10
7.4451667354
 20
9.9877388538
 11
7.4161889596
 21
9.9511114372
  0
LINE
  5
28E
100
AcDbEntity
  8
0
100
AcDbLine
 62
4
  6
CONTINUOUS
 10
7.5176111751
 20
10.0406703735
 11
7.5031222871
 21
10.0223566548
  0
LINE
  5
28F
100
AcDbEntity
  8
0
100
AcDbLine
 62
7
  6
CONTINUOUS
 10
7.1602186008
 20
5.0812780726
 11
13.3189619641
 21
4.6541677697
  0
LINE
  5
290
100
AcDbEntity
  8
0
100
AcDbLine
 62
4
  6
CONTINUOUS
 10
7.5176111751
 20
10.0793073988
 11
7.5176111751
 21
10.0406703735
  0
LINE
  5
291
100
AcDbEntity
  8
0
100
AcDbLine
 62
4
  6
CONTINUOUS
 10
7.5176111751
 20
6.7372038455
 11
7.5176111751
 21
6.5053816387
  0
LINE
  5
292
100
AcDbEntity
  8
0
100
AcDbLine
 62
4
  6
CONTINUOUS
 10
7.4161889596
 20
10.1056595798
 11
7.4451667354
 21
10.1229684768
  0
LINE
  5
293
100
AcDbEntity
  8
0
100
AcDbLine
 62
4
  6
CONTINUOUS
 10
7.8200837802
 20
9.431858934
 11
7.8200837802
 21
9.4649763901
  0
LINE
  5
294
100
AcDbEntity
  8
0
100
AcDbLine
 62
4
  6
CONTINUOUS
 10
7.9359948836
 20
9.2913506367
 11
7.9359948836
 21
9.3244680963
  0
LINE
  5
295
100
AcDbEntity
  8
0
100
AcDbLine
 62
4
  6
CONTINUOUS
 10
8.0022297959
 20
9.4854619772
 11
8.0022297959
 21
9.2867572299
  0
LINE
  5
296
100
AcDbEntity
  8
0
100
AcDbLine
 62
4
  6
CONTINUOUS
 10
8.0739843169
 20
8.0663703224
 11
8.0739843169
 21
8.2981925292
  0
LINE
  5
297
100
AcDbEntity
  8
0
100
AcDbLine
 62
4
  6
CONTINUOUS
 10
8.1181408993
 20
9.2787187676
 11
8.1181408993
 21
9.4774235148
  0
LINE
  5
298
100
AcDbEntity
  8
0
100
AcDbLine
 62
4
  6
CONTINUOUS
 10
7.8200837802
 20
9.4649763901
 11
7.8532012398
 21
9.4957971426
  0
LINE
  5
299
100
AcDbEntity
  8
0
100
AcDbLine
 62
4
  6
CONTINUOUS
 10
7.5031222871
 20
10.0223566548
 11
7.4451667354
 21
9.9877388538
  0
LINE
  5
29A
100
AcDbEntity
  8
0
100
AcDbLine
 62
4
  6
CONTINUOUS
 10
10.2395902833
 20
5.3410265988
 11
10.3844791626
 21
5.3309785209
  0
LINE
  5
29B
100
AcDbEntity
  8
0
100
AcDbLine
 62
4
  6
CONTINUOUS
 10
8.1843758116
 20
9.2410079012
 11
8.1843758116
 21
9.4728301081
  0
LINE
  5
29C
100
AcDbEntity
  8
0
100
AcDbLine
 62
4
  6
CONTINUOUS
 10
8.1898954065
 20
8.2570366117
 11
8.1898954065
 21
8.0914493206
  0
LINE
  5
29D
100
AcDbEntity
  8
0
100
AcDbLine
 62
4
  6
CONTINUOUS
 10
8.3002869151
 20
9.2329694389
 11
8.3002869151
 21
9.4647916457
  0
LINE
  5
29E
100
AcDbEntity
  8
0
100
AcDbLine
 62
4
  6
CONTINUOUS
 10
7.9028774274
 20
9.2605298805
 11
7.9359948836
 21
9.2913506367
  0
LINE
  5
29F
100
AcDbEntity
  8
0
100
AcDbLine
 62
4
  6
CONTINUOUS
 10
8.085023457
 20
9.2478980104
 11
8.1181408993
 21
9.2787187676
  0
LINE
  5
2A0
100
AcDbEntity
  8
0
100
AcDbLine
 62
4
  6
CONTINUOUS
 10
8.3499631181
 20
8.2790533344
 11
8.4161980581
 21
8.0426377188
  0
LINE
  5
2A1
100
AcDbEntity
  8
0
100
AcDbLine
 62
4
  6
CONTINUOUS
 10
8.5486678826
 20
8.0334509053
 11
8.5486678826
 21
8.2652731121
  0
LINE
  5
2A2
100
AcDbEntity
  8
0
100
AcDbLine
 62
4
  6
CONTINUOUS
 10
8.5486678431
 20
9.215744163
 11
8.5486678431
 21
9.4475663699
  0
LINE
  5
2A3
100
AcDbEntity
  8
0
100
AcDbLine
 62
4
  6
CONTINUOUS
 10
8.6480202254
 20
9.3578826115
 11
8.6480202254
 21
9.2088540519
  0
LINE
  5
2A4
100
AcDbEntity
  8
0
100
AcDbLine
 62
4
  6
CONTINUOUS
 10
8.6645789654
 20
8.5354212995
 11
8.6645789654
 21
8.7672435063
  0
LINE
  5
2A5
100
AcDbEntity
  8
0
100
AcDbLine
 62
4
  6
CONTINUOUS
 10
8.6811377072
 20
8.0242640917
 11
8.6811377072
 21
8.2560862986
  0
LINE
  5
2A6
100
AcDbEntity
  8
0
100
AcDbLine
 62
4
  6
CONTINUOUS
 10
8.83016626
 20
8.5239377816
 11
8.83016626
 21
8.7557599885
  0
LINE
  5
2A7
100
AcDbEntity
  8
0
100
AcDbLine
 62
4
  6
CONTINUOUS
 10
8.8577641558
 20
9.2108669907
 11
8.8577641558
 21
9.3433368205
  0
LINE
  5
2A8
100
AcDbEntity
  8
0
100
AcDbLine
 62
4
  6
CONTINUOUS
 10
8.2837282058
 20
8.0518245343
 11
8.3499631181
 21
8.2790533344
  0
LINE
  5
2A9
100
AcDbEntity
  8
0
100
AcDbLine
 62
4
  6
CONTINUOUS
 10
8.7473726076
 20
9.1467681771
 11
8.8136074923
 21
9.3629578305
  0
LINE
  5
2AA
100
AcDbEntity
  8
0
100
AcDbLine
 62
4
  6
CONTINUOUS
 10
8.1567779503
 20
8.2924507712
 11
8.1898954065
 21
8.2570366117
  0
LINE
  5
2AB
100
AcDbEntity
  8
0
100
AcDbLine
 62
4
  6
CONTINUOUS
 10
8.9571164827
 20
9.4192403605
 11
8.9571164827
 21
9.1874181536
  0
LINE
  5
2AC
100
AcDbEntity
  8
0
100
AcDbLine
 62
4
  6
CONTINUOUS
 10
8.9626360846
 20
8.7465731749
 11
8.9626360846
 21
8.5147509681
  0
LINE
  5
2AD
100
AcDbEntity
  8
0
100
AcDbLine
 62
4
  6
CONTINUOUS
 10
9.023351478
 20
9.1828247411
 11
9.023351478
 21
9.3484120357
  0
LINE
  5
2AE
100
AcDbEntity
  8
0
100
AcDbLine
 62
4
  6
CONTINUOUS
 10
9.0288709969
 20
8.7419797681
 11
9.0288709969
 21
8.5432750209
  0
LINE
  5
2AF
100
AcDbEntity
  8
0
100
AcDbLine
 62
4
  6
CONTINUOUS
 10
9.0288710728
 20
8.0332661605
 11
9.0288710728
 21
8.1988534516
  0
LINE
  5
2B0
100
AcDbEntity
  8
0
100
AcDbLine
 62
4
  6
CONTINUOUS
 10
9.1006254732
 20
9.3264943309
 11
9.1006254732
 21
9.2933768748
  0
LINE
  5
2B1
100
AcDbEntity
  8
0
100
AcDbLine
 62
4
  6
CONTINUOUS
 10
9.1447821003
 20
8.5352365586
 11
9.1447821003
 21
8.7339413058
  0
LINE
  5
2B2
100
AcDbEntity
  8
0
100
AcDbLine
 62
4
  6
CONTINUOUS
 10
9.1723800237
 20
9.1890483062
 11
9.1723800237
 21
9.2387244956
  0
LINE
  5
2B3
100
AcDbEntity
  8
0
100
AcDbLine
 62
4
  6
CONTINUOUS
 10
9.2220561715
 20
8.0198687284
 11
9.2220561715
 21
8.1854560195
  0
LINE
  5
2B4
100
AcDbEntity
  8
0
100
AcDbLine
 62
4
  6
CONTINUOUS
 10
8.8964011723
 20
8.6186967502
 11
8.9626360846
 21
8.7465731749
  0
LINE
  5
2B5
100
AcDbEntity
  8
0
100
AcDbLine
 62
4
  6
CONTINUOUS
 10
7.9415144785
 20
8.1749095122
 11
8.0298277018
 21
8.1246283577
  0
LINE
  5
2B6
100
AcDbEntity
  8
0
100
AcDbLine
 62
4
  6
CONTINUOUS
 10
7.8200837802
 20
9.2828303692
 11
7.83664251
 21
9.2651232876
  0
LINE
  5
2B7
100
AcDbEntity
  8
0
100
AcDbLine
 62
4
  6
CONTINUOUS
 10
7.5031222871
 20
10.099630733
 11
7.5176111751
 21
10.0793073988
  0
LINE
  5
2B8
100
AcDbEntity
  8
0
100
AcDbLine
 62
4
  6
CONTINUOUS
 10
8.1843758116
 20
9.4728301081
 11
8.3002869151
 21
9.2329694389
  0
LINE
  5
2B9
100
AcDbEntity
  8
0
100
AcDbLine
 62
4
  6
CONTINUOUS
 10
8.83016626
 20
8.7557599885
 11
8.8964011723
 21
8.6186967502
  0
LINE
  5
2BA
100
AcDbEntity
  8
0
100
AcDbLine
 62
4
  6
CONTINUOUS
 10
8.7142551653
 20
9.3698479378
 11
8.7639313841
 21
9.2008155857
  0
LINE
  5
2BB
100
AcDbEntity
  8
0
100
AcDbLine
 62
4
  6
CONTINUOUS
 10
9.2717323507
 20
9.1655994691
 11
9.2717323507
 21
9.2980693075
  0
LINE
  5
2BC
100
AcDbEntity
  8
0
100
AcDbLine
 62
4
  6
CONTINUOUS
 10
9.3379672354
 20
9.3265933588
 11
9.3379672354
 21
9.177564794
  0
LINE
  5
2BD
100
AcDbEntity
  8
0
100
AcDbLine
 62
4
  6
CONTINUOUS
 10
9.3379672749
 20
8.1774175572
 11
9.3379672749
 21
8.0118302661
  0
LINE
  5
2BE
100
AcDbEntity
  8
0
100
AcDbLine
 62
4
  6
CONTINUOUS
 10
9.4042021596
 20
7.9741194016
 11
9.4042021596
 21
8.2059416085
  0
LINE
  5
2BF
100
AcDbEntity
  8
0
100
AcDbLine
 62
4
  6
CONTINUOUS
 10
9.4373196729
 20
9.1541159493
 11
9.4373196729
 21
9.3197032439
  0
LINE
  5
2C0
100
AcDbEntity
  8
0
100
AcDbLine
 62
4
  6
CONTINUOUS
 10
9.5035545576
 20
9.1660812742
 11
9.5035545576
 21
9.3813447513
  0
LINE
  5
2C1
100
AcDbEntity
  8
0
100
AcDbLine
 62
4
  6
CONTINUOUS
 10
9.520113263
 20
8.16478569
 11
9.520113263
 21
7.9991983989
  0
LINE
  5
2C2
100
AcDbEntity
  8
0
100
AcDbLine
 62
4
  6
CONTINUOUS
 10
9.6581026586
 20
9.3706268041
 11
9.6525831033
 21
9.3544508516
  0
LINE
  5
2C3
100
AcDbEntity
  8
0
100
AcDbLine
 62
4
  6
CONTINUOUS
 10
8.1898954065
 20
8.0914493206
 11
8.1567779503
 21
8.0606285644
  0
LINE
  5
2C4
100
AcDbEntity
  8
0
100
AcDbLine
 62
4
  6
CONTINUOUS
 10
9.7408963197
 20
9.2820913969
 11
9.7574549856
 21
9.2975017845
  0
LINE
  5
2C5
100
AcDbEntity
  8
0
100
AcDbLine
 62
4
  6
CONTINUOUS
 10
8.8577641558
 20
9.3433368205
 11
8.8908815981
 21
9.3575988531
  0
LINE
  5
2C6
100
AcDbEntity
  8
0
100
AcDbLine
 62
4
  6
CONTINUOUS
 10
9.1723800237
 20
9.2387244956
 11
9.205497466
 21
9.2529865212
  0
LINE
  5
2C7
100
AcDbEntity
  8
0
100
AcDbLine
 62
4
  6
CONTINUOUS
 10
7.9359948836
 20
9.3244680963
 11
7.8200837802
 21
9.431858934
  0
LINE
  5
2C8
100
AcDbEntity
  8
0
100
AcDbLine
 62
4
  6
CONTINUOUS
 10
9.0619885151
 20
7.9978519985
 11
9.0288710728
 21
8.0332661605
  0
LINE
  5
2C9
100
AcDbEntity
  8
0
100
AcDbLine
 62
4
  6
CONTINUOUS
 10
8.0022297959
 20
9.2867572299
 11
8.035347252
 21
9.2513430669
  0
LINE
  5
2CA
100
AcDbEntity
  8
0
100
AcDbLine
 62
4
  6
CONTINUOUS
 10
9.2551736138
 20
7.9844545664
 11
9.2220561715
 21
8.0198687284
  0
LINE
  5
2CB
100
AcDbEntity
  8
0
100
AcDbLine
 62
4
  6
CONTINUOUS
 10
7.9194361555
 20
9.4912037356
 11
7.9359948836
 21
9.4734966489
  0
LINE
  5
2CC
100
AcDbEntity
  8
0
100
AcDbLine
 62
4
  6
CONTINUOUS
 10
9.3048498326
 20
8.2128317158
 11
9.3379672749
 21
8.1774175572
  0
LINE
  5
2CD
100
AcDbEntity
  8
0
100
AcDbLine
 62
4
  6
CONTINUOUS
 10
9.0288709969
 20
8.5432750209
 11
9.0619884668
 21
8.5078608569
  0
LINE
  5
2CE
100
AcDbEntity
  8
0
100
AcDbLine
 62
4
  6
CONTINUOUS
 10
9.6139461453
 20
7.9595736068
 11
9.6139461453
 21
8.1913958137
  0
LINE
  5
2CF
100
AcDbEntity
  8
0
100
AcDbLine
 62
4
  6
CONTINUOUS
 10
9.6525831033
 20
9.1391873797
 11
9.6525831033
 21
9.3047746743
  0
LINE
  5
2D0
100
AcDbEntity
  8
0
100
AcDbLine
 62
4
  6
CONTINUOUS
 10
9.6525831033
 20
9.3544508516
 11
9.6525831033
 21
9.3710095866
  0
LINE
  5
2D1
100
AcDbEntity
  8
0
100
AcDbLine
 62
4
  6
CONTINUOUS
 10
9.7408963197
 20
9.1496215671
 11
9.7408963197
 21
9.2820913969
  0
LINE
  5
2D2
100
AcDbEntity
  8
0
100
AcDbLine
 62
4
  6
CONTINUOUS
 10
9.889924976
 20
9.2220800403
 11
9.889924976
 21
9.2717562245
  0
LINE
  5
2D3
100
AcDbEntity
  8
0
100
AcDbLine
 62
4
  6
CONTINUOUS
 10
9.889924976
 20
9.2717562245
 11
9.9064836419
 21
9.2871666121
  0
LINE
  5
2D4
100
AcDbEntity
  8
0
100
AcDbLine
 62
4
  6
CONTINUOUS
 10
9.111664658
 20
8.5044158014
 11
9.1447821003
 21
8.5352365586
  0
LINE
  5
2D5
100
AcDbEntity
  8
0
100
AcDbLine
 62
4
  6
CONTINUOUS
 10
9.9727185266
 20
9.1169859127
 11
9.9892771925
 21
9.1323962951
  0
LINE
  5
2D6
100
AcDbEntity
  8
0
100
AcDbLine
 62
4
  6
CONTINUOUS
 10
9.0288710728
 20
8.1988534516
 11
9.0619885151
 21
8.2296742054
  0
LINE
  5
2D7
100
AcDbEntity
  8
0
100
AcDbLine
 62
4
  6
CONTINUOUS
 10
9.4869958207
 20
8.2001998486
 11
9.520113263
 21
8.16478569
  0
LINE
  5
2D8
100
AcDbEntity
  8
0
100
AcDbLine
 62
4
  6
CONTINUOUS
 10
8.6314615042
 20
9.3755896977
 11
8.6480202254
 21
9.3578826115
  0
LINE
  5
2D9
100
AcDbEntity
  8
0
100
AcDbLine
 62
4
  6
CONTINUOUS
 10
9.0895863626
 20
9.3438186308
 11
9.1006254732
 21
9.3264943309
  0
LINE
  5
2DA
100
AcDbEntity
  8
0
100
AcDbLine
 62
4
  6
CONTINUOUS
 10
9.2717323507
 20
9.2980693075
 11
9.2551736848
 21
9.332335111
  0
LINE
  5
2DB
100
AcDbEntity
  8
0
100
AcDbLine
 62
4
  6
CONTINUOUS
 10
9.9892771925
 20
9.1323962951
 11
9.9892771925
 21
9.1820724845
  0
LINE
  5
2DC
100
AcDbEntity
  8
0
100
AcDbLine
 62
4
  6
CONTINUOUS
 10
10.312034723
 20
5.3360025599
 11
10.312034723
 21
5.104180353
  0
LINE
  5
2DD
100
AcDbEntity
  8
0
100
AcDbLine
 62
4
  6
CONTINUOUS
 10
9.2220561715
 20
8.1854560195
 11
9.2551736138
 21
8.2162767733
  0
LINE
  5
2DE
100
AcDbEntity
  8
0
100
AcDbLine
 62
4
  6
CONTINUOUS
 10
9.3379672749
 20
8.0118302661
 11
9.3048498326
 21
7.9810095089
  0
LINE
  5
2DF
100
AcDbEntity
  8
0
100
AcDbLine
 62
4
  6
CONTINUOUS
 10
8.0298277018
 20
8.2129415845
 11
7.9415144785
 21
8.1749095122
  0
LINE
  5
2E0
100
AcDbEntity
  8
0
100
AcDbLine
 62
4
  6
CONTINUOUS
 10
9.7795333569
 20
8.0915990852
 11
9.8678465733
 21
8.0413179277
  0
LINE
  5
2E1
100
AcDbEntity
  8
0
100
AcDbLine
 62
4
  6
CONTINUOUS
 10
7.4741445113
 20
10.1209588612
 11
7.5031222871
 21
10.099630733
  0
LINE
  5
2E2
100
AcDbEntity
  8
0
100
AcDbLine
 62
4
  6
CONTINUOUS
 10
9.3379672354
 20
9.177564794
 11
9.3545260118
 21
9.1598577092
  0
LINE
  5
2E3
100
AcDbEntity
  8
0
100
AcDbLine
 62
4
  6
CONTINUOUS
 10
9.520113263
 20
7.9991983989
 11
9.4869958207
 21
7.9683776417
  0
LINE
  5
2E4
100
AcDbEntity
  8
0
100
AcDbLine
 62
4
  6
CONTINUOUS
 10
9.4869958207
 20
7.9683776417
 11
9.4042021596
 21
7.9741194016
  0
LINE
  5
2E5
100
AcDbEntity
  8
0
100
AcDbLine
 62
4
  6
CONTINUOUS
 10
9.3048498326
 20
7.9810095089
 11
9.2551736138
 21
7.9844545664
  0
LINE
  5
2E6
100
AcDbEntity
  8
0
100
AcDbLine
 62
4
  6
CONTINUOUS
 10
9.1282233998
 20
7.9932585936
 11
9.0619885151
 21
7.9978519985
  0
LINE
  5
2E7
100
AcDbEntity
  8
0
100
AcDbLine
 62
4
  6
CONTINUOUS
 10
8.1567779503
 20
8.0606285644
 11
8.0739843169
 21
8.0663703224
  0
LINE
  5
2E8
100
AcDbEntity
  8
0
100
AcDbLine
 62
4
  6
CONTINUOUS
 10
8.6811377072
 20
8.0242640917
 11
8.7804900895
 21
8.0173739806
  0
LINE
  5
2E9
100
AcDbEntity
  8
0
100
AcDbLine
 62
4
  6
CONTINUOUS
 10
9.6139461453
 20
7.9595736068
 11
9.7132984723
 21
7.9526834996
  0
LINE
  5
2EA
100
AcDbEntity
  8
0
100
AcDbLine
 62
4
  6
CONTINUOUS
 10
8.3058065099
 20
8.1165283179
 11
8.3941197263
 21
8.1104037755
  0
LINE
  5
2EB
100
AcDbEntity
  8
0
100
AcDbLine
 62
4
  6
CONTINUOUS
 10
9.6801810299
 20
8.0874500404
 11
9.6139461453
 21
8.0920434452
  0
LINE
  5
2EC
100
AcDbEntity
  8
0
100
AcDbLine
 62
4
  6
CONTINUOUS
 10
8.7473726472
 20
8.1521405215
 11
8.6811377072
 21
8.1567339301
  0
LINE
  5
2ED
100
AcDbEntity
  8
0
100
AcDbLine
 62
4
  6
CONTINUOUS
 10
8.0739843169
 20
8.2981925292
 11
8.1567779503
 21
8.2924507712
  0
LINE
  5
2EE
100
AcDbEntity
  8
0
100
AcDbLine
 62
4
  6
CONTINUOUS
 10
8.4824329427
 20
8.2698665208
 11
8.6149027673
 21
8.2606797073
  0
LINE
  5
2EF
100
AcDbEntity
  8
0
100
AcDbLine
 62
4
  6
CONTINUOUS
 10
8.6811377072
 20
8.2560862986
 11
8.7804900895
 21
8.2491961875
  0
LINE
  5
2F0
100
AcDbEntity
  8
0
100
AcDbLine
 62
4
  6
CONTINUOUS
 10
9.0619885151
 20
8.2296742054
 11
9.1282233998
 21
8.2250808005
  0
LINE
  5
2F1
100
AcDbEntity
  8
0
100
AcDbLine
 62
4
  6
CONTINUOUS
 10
9.2551736138
 20
8.2162767733
 11
9.3048498326
 21
8.2128317158
  0
LINE
  5
2F2
100
AcDbEntity
  8
0
100
AcDbLine
 62
4
  6
CONTINUOUS
 10
9.4042021596
 20
8.2059416085
 11
9.4869958207
 21
8.2001998486
  0
LINE
  5
2F3
100
AcDbEntity
  8
0
100
AcDbLine
 62
4
  6
CONTINUOUS
 10
9.6139461453
 20
8.1913958137
 11
9.7132984723
 21
8.1845057064
  0
LINE
  5
2F4
100
AcDbEntity
  8
0
100
AcDbLine
 62
4
  6
CONTINUOUS
 10
8.8908815981
 20
9.1920115585
 11
8.8577641558
 21
9.2108669907
  0
LINE
  5
2F5
100
AcDbEntity
  8
0
100
AcDbLine
 62
4
  6
CONTINUOUS
 10
9.520113334
 20
9.1483741894
 11
9.5035545576
 21
9.1660812742
  0
LINE
  5
2F6
100
AcDbEntity
  8
0
100
AcDbLine
 62
4
  6
CONTINUOUS
 10
9.7574549856
 20
9.13191449
 11
9.7408963197
 21
9.1496215671
  0
LINE
  5
2F7
100
AcDbEntity
  8
0
100
AcDbLine
 62
4
  6
CONTINUOUS
 10
9.889924976
 20
9.1392863947
 11
9.9064836419
 21
9.1215793175
  0
LINE
  5
2F8
100
AcDbEntity
  8
0
100
AcDbLine
 62
4
  6
CONTINUOUS
 10
12.8504879103
 20
9.7287896675
 11
12.8794656861
 21
9.7460985646
  0
LINE
  5
2F9
100
AcDbEntity
  8
0
100
AcDbLine
 62
4
  6
CONTINUOUS
 10
12.9374212378
 20
9.6454867426
 11
12.8794656861
 21
9.6108689416
  0
LINE
  5
2FA
100
AcDbEntity
  8
0
100
AcDbLine
 62
4
  6
CONTINUOUS
 10
9.8678465733
 20
8.0413179277
 11
9.7795333569
 21
8.0032858584
  0
LINE
  5
2FB
100
AcDbEntity
  8
0
100
AcDbLine
 62
4
  6
CONTINUOUS
 10
9.0619884668
 20
8.5078608569
 11
9.111664658
 21
8.5044158014
  0
LINE
  5
2FC
100
AcDbEntity
  8
0
100
AcDbLine
 62
4
  6
CONTINUOUS
 10
8.7639313408
 20
8.6610010273
 11
8.6645789654
 21
8.6678911379
  0
LINE
  5
2FD
100
AcDbEntity
  8
0
100
AcDbLine
 62
4
  6
CONTINUOUS
 10
9.205497466
 20
9.1701928739
 11
9.1723800237
 21
9.1890483062
  0
LINE
  5
2FE
100
AcDbEntity
  8
0
100
AcDbLine
 62
4
  6
CONTINUOUS
 10
9.9064836419
 20
9.2098925408
 11
9.889924976
 21
9.2220800403
  0
LINE
  5
2FF
100
AcDbEntity
  8
0
100
AcDbLine
 62
4
  6
CONTINUOUS
 10
9.9892771925
 20
9.1820724845
 11
9.9727185266
 21
9.1942599839
  0
LINE
  5
300
100
AcDbEntity
  8
0
100
AcDbLine
 62
4
  6
CONTINUOUS
 10
9.9727185266
 20
9.2825732072
 11
9.9892771925
 21
9.2648661249
  0
LINE
  5
301
100
AcDbEntity
  8
0
100
AcDbLine
 62
7
  6
CONTINUOUS
 10
13.3189619641
 20
10.4497230708
 11
14.8397813992
 21
11.9187219274
  0
LINE
  5
302
100
AcDbEntity
  8
0
100
AcDbLine
 62
4
  6
CONTINUOUS
 10
8.6645789654
 20
8.7672435063
 11
8.7639313408
 21
8.7603533957
  0
LINE
  5
303
100
AcDbEntity
  8
0
100
AcDbLine
 62
4
  6
CONTINUOUS
 10
12.8359990223
 20
9.7104759488
 11
12.8504879103
 21
9.7287896675
  0
LINE
  5
304
100
AcDbEntity
  8
0
100
AcDbLine
 62
4
  6
CONTINUOUS
 10
8.7142551653
 20
9.1490648795
 11
8.7473726076
 21
9.1467681771
  0
LINE
  5
305
100
AcDbEntity
  8
0
100
AcDbLine
 62
4
  6
CONTINUOUS
 10
9.8236900914
 20
9.1273210698
 11
9.7574549856
 21
9.13191449
  0
LINE
  5
306
100
AcDbEntity
  8
0
100
AcDbLine
 62
4
  6
CONTINUOUS
 10
9.5532307763
 20
9.146077487
 11
9.520113334
 21
9.1483741894
  0
LINE
  5
307
100
AcDbEntity
  8
0
100
AcDbLine
 62
4
  6
CONTINUOUS
 10
9.2717323507
 20
9.1655994691
 11
9.205497466
 21
9.1701928739
  0
LINE
  5
308
100
AcDbEntity
  8
0
100
AcDbLine
 62
4
  6
CONTINUOUS
 10
8.9571164827
 20
9.1874181536
 11
8.8908815981
 21
9.1920115585
  0
LINE
  5
309
100
AcDbEntity
  8
0
100
AcDbLine
 62
4
  6
CONTINUOUS
 10
7.83664251
 20
9.2651232876
 11
7.9028774274
 21
9.2605298805
  0
LINE
  5
30A
100
AcDbEntity
  8
0
100
AcDbLine
 62
4
  6
CONTINUOUS
 10
8.035347252
 20
9.2513430669
 11
8.085023457
 21
9.2478980104
  0
LINE
  5
30B
100
AcDbEntity
  8
0
100
AcDbLine
 62
4
  6
CONTINUOUS
 10
9.3545260118
 20
9.1598577092
 11
9.4373196729
 21
9.1541159493
  0
LINE
  5
30C
100
AcDbEntity
  8
0
100
AcDbLine
 62
4
  6
CONTINUOUS
 10
9.9064836419
 20
9.1215793175
 11
9.9727185266
 21
9.1169859127
  0
LINE
  5
30D
100
AcDbEntity
  8
0
100
AcDbLine
 62
4
  6
CONTINUOUS
 10
9.205497466
 20
9.2529865212
 11
9.2717323507
 21
9.2483931164
  0
LINE
  5
30E
100
AcDbEntity
  8
0
100
AcDbLine
 62
4
  6
CONTINUOUS
 10
9.2551736848
 20
9.332335111
 11
9.1723800237
 21
9.3380768709
  0
LINE
  5
30F
100
AcDbEntity
  8
0
100
AcDbLine
 62
4
  6
CONTINUOUS
 10
8.5486678431
 20
9.3813314576
 11
8.6314615042
 21
9.3755896977
  0
LINE
  5
310
100
AcDbEntity
  8
0
100
AcDbLine
 62
4
  6
CONTINUOUS
 10
8.8908815981
 20
9.3575988531
 11
8.9571164827
 21
9.3530054482
  0
LINE
  5
311
100
AcDbEntity
  8
0
100
AcDbLine
 62
4
  6
CONTINUOUS
 10
9.023351478
 20
9.3484120357
 11
9.0895863626
 21
9.3438186308
  0
LINE
  5
312
100
AcDbEntity
  8
0
100
AcDbLine
 62
4
  6
CONTINUOUS
 10
9.7574549856
 20
9.2975017845
 11
9.8236900914
 21
9.2929083643
  0
LINE
  5
313
100
AcDbEntity
  8
0
100
AcDbLine
 62
4
  6
CONTINUOUS
 10
9.9064836419
 20
9.2871666121
 11
9.9727185266
 21
9.2825732072
  0
LINE
  5
314
100
AcDbEntity
  8
0
100
AcDbLine
 62
4
  6
CONTINUOUS
 10
9.9727185266
 20
9.1942599839
 11
9.9064836419
 21
9.2098925408
  0
LINE
  5
315
100
AcDbEntity
  8
0
100
AcDbLine
 62
4
  6
CONTINUOUS
 10
12.8794656861
 20
9.6108689416
 11
12.8504879103
 21
9.574241525
  0
LINE
  5
316
100
AcDbEntity
  8
0
100
AcDbLine
 62
4
  6
CONTINUOUS
 10
12.9519101258
 20
9.6638004613
 11
12.9374212378
 21
9.6454867426
  0
LINE
  5
317
100
AcDbEntity
  8
0
100
AcDbLine
 62
4
  6
CONTINUOUS
 10
7.8532012398
 20
9.4957971426
 11
7.9194361555
 21
9.4912037356
  0
LINE
  5
318
100
AcDbEntity
  8
0
100
AcDbLine
 62
4
  6
CONTINUOUS
 10
9.6525831033
 20
9.3710095866
 11
9.6581026586
 21
9.3706268041
  0
LINE
  5
319
100
AcDbEntity
  8
0
100
AcDbLine
 62
4
  6
CONTINUOUS
 10
7.4017000716
 20
9.8941606933
 11
7.5176111751
 21
9.886122231
  0
LINE
  5
31A
100
AcDbEntity
  8
0
100
AcDbLine
 62
4
  6
CONTINUOUS
 10
12.8359990223
 20
9.5172907811
 11
12.9519101258
 21
9.5092523187
  0
LINE
  5
31B
100
AcDbEntity
  8
0
100
AcDbLine
 62
4
  6
CONTINUOUS
 10
7.4451667354
 20
10.1229684768
 11
7.4741445113
 21
10.1209588612
  0
LINE
  5
31C
100
AcDbEntity
  8
0
100
AcDbLine
 62
4
  6
CONTINUOUS
 10
12.8794656861
 20
9.7460985646
 11
12.908443462
 21
9.744088949
  0
LINE
  5
31D
100
AcDbEntity
  8
0
100
AcDbLine
 62
4
  6
CONTINUOUS
 10
12.8504879103
 20
9.574241525
 11
12.8359990223
 21
9.5172907811
  0
LINE
  5
31E
100
AcDbEntity
  8
0
100
AcDbLine
 62
4
  6
CONTINUOUS
 10
12.9519101258
 20
9.7024374865
 11
12.9519101258
 21
9.6638004613
  0
LINE
  5
31F
100
AcDbEntity
  8
0
100
AcDbLine
 62
4
  6
CONTINUOUS
 10
12.9519101258
 20
6.3603339333
 11
12.9519101258
 21
6.1285117264
  0
LINE
  5
320
100
AcDbEntity
  8
0
100
AcDbLine
 62
7
  6
CONTINUOUS
 10
7.1602186008
 20
10.8768333737
 11
13.3189619641
 21
10.4497230708
  0
LINE
  5
321
100
AcDbEntity
  8
0
100
AcDbLine
 62
4
  6
CONTINUOUS
 10
12.908443462
 20
9.744088949
 11
12.9374212378
 21
9.7227608208
  0
LINE
  5
322
100
AcDbEntity
  8
0
100
AcDbLine
 62
7
  6
CONTINUOUS
 10
13.3189619641
 20
4.6541677697
 11
13.3189619641
 21
10.4497230708
  0
LINE
  5
323
100
AcDbEntity
  8
0
100
AcDbLine
 62
4
  6
CONTINUOUS
 10
12.9374212378
 20
9.7227608208
 11
12.9519101258
 21
9.7024374865
  0
LINE
  5
324
100
AcDbEntity
  8
0
100
AcDbLine
 62
7
  6
CONTINUOUS
 10
14.8397813992
 20
6.1231666263
 11
14.8397813992
 21
11.9187219274
  0
LINE
  5
325
100
AcDbEntity
  8
0
100
AcDbLine
 62
7
  6
CONTINUOUS
 10
14.8397813992
 20
11.9187219274
 11
8.6810380359
 21
12.3458322303
  0
LINE
  5
326
100
AcDbEntity
  8
0
100
AcDbLine
 62
7
  6
CONTINUOUS
 10
13.3189619641
 20
4.6541677697
 11
14.8397813992
 21
6.1231666263
  0
ARC
  5
327
100
AcDbEntity
  8
0
100
AcDbCircle
 62
7
  6
CONTINUOUS
 10
9.3090725848
 20
6.8520509456
 40
0.792362826
100
AcDbArc
 50
0.00553974
 51
4.1913822612
  0
ARC
  5
328
100
AcDbEntity
  8
0
100
AcDbCircle
 62
7
  6
CONTINUOUS
 10
11.2409245821
 20
8.8914097925
 40
0.792362826
100
AcDbArc
 50
0.00553974
 51
4.1913822612
  0
ARC
  5
329
100
AcDbEntity
  8
0
100
AcDbCircle
 62
7
  6
CONTINUOUS
 10
9.2285267718
 20
6.9775303699
 40
0.7498264853
100
AcDbArc
 50
135.4368323966
 51
137.415064188
  0
ARC
  5
32A
100
AcDbEntity
  8
0
100
AcDbCircle
 62
7
  6
CONTINUOUS
 10
11.1603787692
 20
9.0168892167
 40
0.7498264853
100
AcDbArc
 50
135.4368323966
 51
137.415064188
  0
ARC
  5
32B
100
AcDbEntity
  8
0
100
AcDbCircle
 62
7
  6
CONTINUOUS
 10
9.3830813271
 20
6.8175155649
 40
0.7497060121
100
AcDbArc
 50
310.6033370368
 51
312.4573513682
  0
ARC
  5
32C
100
AcDbEntity
  8
0
100
AcDbCircle
 62
7
  6
CONTINUOUS
 10
11.3149333244
 20
8.8568744118
 40
0.7497060121
100
AcDbArc
 50
310.6033370368
 51
312.4573513682
  0
ARC
  5
32D
100
AcDbEntity
  8
0
100
AcDbCircle
 62
7
  6
CONTINUOUS
 10
9.9491607331
 20
7.5800793328
 40
0.6970613865
100
AcDbArc
 50
170.5479608062
 51
180.0287155309
  0
ARC
  5
32E
100
AcDbEntity
  8
0
100
AcDbCircle
 62
7
  6
CONTINUOUS
 10
11.8810127305
 20
9.6194381797
 40
0.6970613865
100
AcDbArc
 50
170.5479608062
 51
180.0287155309
  0
ARC
  5
32F
100
AcDbEntity
  8
0
100
AcDbCircle
 62
7
  6
CONTINUOUS
 10
11.8903595482
 20
9.6255026056
 40
0.6656436477
100
AcDbArc
 50
170.7130630571
 51
180.0277454756
  0
ARC
  5
330
100
AcDbEntity
  8
0
100
AcDbCircle
 62
7
  6
CONTINUOUS
 10
9.9585075509
 20
7.5861437587
 40
0.6656436477
100
AcDbArc
 50
170.7130630571
 51
180.0277454756
  0
ARC
  5
331
100
AcDbEntity
  8
0
100
AcDbCircle
 62
7
  6
CONTINUOUS
 10
9.9666033234
 20
7.5923914787
 40
0.6551026847
100
AcDbArc
 50
171.2238088465
 51
180.0248213111
  0
ARC
  5
332
100
AcDbEntity
  8
0
100
AcDbCircle
 62
7
  6
CONTINUOUS
 10
11.8984553207
 20
9.6317503255
 40
0.6551026847
100
AcDbArc
 50
171.2238088465
 51
180.0248213111
  0
ARC
  5
333
100
AcDbEntity
  8
0
100
AcDbCircle
 62
7
  6
CONTINUOUS
 10
14.3141721615
 20
6.6432779725
 40
0.0380445476
100
AcDbArc
 50
255.2706607849
 51
265.9999453019
  0
ARC
  5
334
100
AcDbEntity
  8
0
100
AcDbCircle
 62
7
  6
CONTINUOUS
 10
14.3141721615
 20
9.7825370939
 40
0.0380445476
100
AcDbArc
 50
255.270660785
 51
265.9999453018
  0
ARC
  5
335
100
AcDbEntity
  8
0
100
AcDbCircle
 62
7
  6
CONTINUOUS
 10
14.3919291672
 20
7.7645139991
 40
0.0380264381
100
AcDbArc
 50
86.0643539814
 51
96.5422415513
  0
ARC
  5
336
100
AcDbEntity
  8
0
100
AcDbCircle
 62
7
  6
CONTINUOUS
 10
14.3919291672
 20
10.9037731205
 40
0.0380264381
100
AcDbArc
 50
86.0643539814
 51
96.5422415513
  0
SPLINE
  5
337
100
AcDbEntity
  8
0
100
AcDbSpline
 62
7
  6
CONTINUOUS
 70
0
 71
3
 72
39
 73
35
 74
0
 42
0.0000001
 43
0.0000001
 44
0.0000000001
 40
0.0
 40
0.0
 40
0.0
 40
0.0
 40
0.0958313223
 40
0.1890999066
 40
0.2792396479
 40
0.3229663115
 40
0.3657099292
 40
0.4074081191
 40
0.4480006754
 40
0.4874302648
 40
0.5256424385
 40
0.5625857699
 40
0.5982125807
 40
0.6324786396
 40
0.665344311
 40
0.6967743203
 40
0.7267388303
 40
0.7552139511
 40
0.7821824427
 40
0.807635341
 40
0.8315726205
 40
0.8540058864
 40
0.8749600023
 40
0.8944766962
 40
0.9126183481
 40
0.9294727137
 40
0.94515911
 40
0.9598336921
 40
0.9668557838
 40
0.973702854
 40
0.9804062715
 40
0.9869997015
 40
0.9935186515
 40
1.0
 40
1.0
 40
1.0
 40
1.0
 10
12.9311406003
 20
10.887116354
 30
0.0
 10
12.9221807834
 20
10.8877377194
 30
0.0
 10
12.9045136509
 20
10.8891608865
 30
0.0
 10
12.8784822467
 20
10.8918775631
 30
0.0
 10
12.8573694365
 20
10.894617451
 30
0.0
 10
12.8410018185
 20
10.8970837911
 30
0.0
 10
12.8291500508
 20
10.8990417965
 30
0.0
 10
12.8176176988
 20
10.9011233467
 30
0.0
 10
12.8064240124
 20
10.9033250181
 30
0.0
 10
12.7955876872
 20
10.9056430774
 30
0.0
 10
12.7851268053
 20
10.9080736171
 30
0.0
 10
12.775058817
 20
10.9106125942
 30
0.0
 10
12.7654004957
 20
10.9132556676
 30
0.0
 10
12.7561679287
 20
10.9159984794
 30
0.0
 10
12.7473764544
 20
10.9188363406
 30
0.0
 10
12.7390406675
 20
10.9217645485
 30
0.0
 10
12.7311743614
 20
10.924778178
 30
0.0
 10
12.723790504
 20
10.9278721788
 30
0.0
 10
12.7169012371
 20
10.9310414824
 30
0.0
 10
12.7105177714
 20
10.934280778
 30
0.0
 10
12.7046504813
 20
10.937584925
 30
0.0
 10
12.6993087316
 20
10.9409485776
 30
0.0
 10
12.6945010274
 20
10.9443666426
 30
0.0
 10
12.6902349332
 20
10.9478341353
 30
0.0
 10
12.6865172014
 20
10.9513462818
 30
0.0
 10
12.6833540247
 20
10.9548990612
 30
0.0
 10
12.6807514293
 20
10.9584878474
 30
0.0
 10
12.6790300088
 20
10.9615507105
 30
0.0
 10
12.6779568689
 20
10.9640031261
 30
0.0
 10
12.6773071481
 20
10.9658201788
 30
0.0
 10
12.6768013382
 20
10.9676408159
 30
0.0
 10
12.6764397149
 20
10.9694642785
 30
0.0
 10
12.6762225986
 20
10.9712895186
 30
0.0
 10
12.6761743021
 20
10.9725084542
 30
0.0
 10
12.6761742968
 20
10.9731158879
 30
0.0
  0
SPLINE
  5
338
100
AcDbEntity
  8
0
100
AcDbSpline
 62
7
  6
CONTINUOUS
 70
0
 71
3
 72
39
 73
35
 74
0
 42
0.0000001
 43
0.0000001
 44
0.0000000001
 40
0.0
 40
0.0
 40
0.0
 40
0.0
 40
0.0958313223
 40
0.1890999066
 40
0.2792396479
 40
0.3229663115
 40
0.3657099292
 40
0.4074081191
 40
0.4480006754
 40
0.4874302648
 40
0.5256424385
 40
0.5625857699
 40
0.5982125807
 40
0.6324786396
 40
0.665344311
 40
0.6967743203
 40
0.7267388303
 40
0.7552139511
 40
0.7821824427
 40
0.807635341
 40
0.8315726205
 40
0.8540058864
 40
0.8749600023
 40
0.8944766962
 40
0.9126183481
 40
0.9294727137
 40
0.94515911
 40
0.9598336921
 40
0.9668557838
 40
0.973702854
 40
0.9804062715
 40
0.9869997015
 40
0.9935186515
 40
1.0
 40
1.0
 40
1.0
 40
1.0
 10
8.3429928263
 20
11.2053054829
 30
0.0
 10
8.3340330094
 20
11.2059268483
 30
0.0
 10
8.3163658769
 20
11.2073500153
 30
0.0
 10
8.2903344726
 20
11.210066692
 30
0.0
 10
8.2692216625
 20
11.2128065798
 30
0.0
 10
8.2528540445
 20
11.2152729199
 30
0.0
 10
8.2410022768
 20
11.2172309254
 30
0.0
 10
8.2294699248
 20
11.2193124755
 30
0.0
 10
8.2182762384
 20
11.2215141469
 30
0.0
 10
8.2074399132
 20
11.2238322062
 30
0.0
 10
8.1969790313
 20
11.2262627459
 30
0.0
 10
8.1869110429
 20
11.2288017231
 30
0.0
 10
8.1772527217
 20
11.2314447964
 30
0.0
 10
8.1680201547
 20
11.2341876082
 30
0.0
 10
8.1592286804
 20
11.2370254695
 30
0.0
 10
8.1508928935
 20
11.2399536773
 30
0.0
 10
8.1430265874
 20
11.2429673068
 30
0.0
 10
8.13564273
 20
11.2460613077
 30
0.0
 10
8.128753463
 20
11.2492306113
 30
0.0
 10
8.1223699974
 20
11.2524699069
 30
0.0
 10
8.1165027073
 20
11.2557740538
 30
0.0
 10
8.1111609576
 20
11.2591377064
 30
0.0
 10
8.1063532534
 20
11.2625557715
 30
0.0
 10
8.1020871592
 20
11.2660232642
 30
0.0
 10
8.0983694274
 20
11.2695354106
 30
0.0
 10
8.0952062507
 20
11.2730881901
 30
0.0
 10
8.0926036553
 20
11.2766769762
 30
0.0
 10
8.0908822348
 20
11.2797398394
 30
0.0
 10
8.0898090949
 20
11.282192255
 30
0.0
 10
8.0891593741
 20
11.2840093077
 30
0.0
 10
8.0886535642
 20
11.2858299448
 30
0.0
 10
8.0882919409
 20
11.2876534073
 30
0.0
 10
8.0880748246
 20
11.2894786475
 30
0.0
 10
8.0880265281
 20
11.290697583
 30
0.0
 10
8.0880265228
 20
11.2913050167
 30
0.0
  0
SPLINE
  5
339
100
AcDbEntity
  8
0
100
AcDbSpline
 62
7
  6
CONTINUOUS
 70
0
 71
3
 72
28
 73
24
 74
0
 42
0.0000001
 43
0.0000001
 44
0.0000000001
 40
0.0
 40
0.0
 40
0.0
 40
0.0
 40
0.0637758941
 40
0.0955879065
 40
0.1273462157
 40
0.1907019646
 40
0.2538545302
 40
0.2853587825
 40
0.3168148204
 40
0.379582186
 40
0.4421719279
 40
0.504596336
 40
0.566869323
 40
0.6290062994
 40
0.6910240361
 40
0.7219962863
 40
0.7529455528
 40
0.8147797337
 40
0.8765514554
 40
0.9074228165
 40
0.9382862783
 40
0.9691444605
 40
1.0
 40
1.0
 40
1.0
 40
1.0
 10
10.1053263543
 20
6.8088859232
 30
0.0
 10
10.1053263543
 20
6.7956017017
 30
0.0
 10
10.1048490112
 20
6.7756867587
 30
0.0
 10
10.1032520879
 20
6.7492073884
 30
0.0
 10
10.1010211135
 20
6.7228612058
 30
0.0
 10
10.0970424855
 20
6.6901220415
 30
0.0
 10
10.0914750001
 20
6.6576687555
 30
0.0
 10
10.0860785653
 20
6.6319579038
 30
0.0
 10
10.0800669098
 20
6.6064664089
 30
0.0
 10
10.0713898664
 20
6.5749614089
 30
0.0
 10
10.059131773
 20
6.5378010401
 30
0.0
 10
10.0450633607
 20
6.5013973434
 30
0.0
 10
10.0292170353
 20
6.4658347072
 30
0.0
 10
10.0116295794
 20
6.4311955396
 30
0.0
 10
9.9955481053
 20
6.4031518439
 30
0.0
 10
9.9818566968
 20
6.3812627054
 30
0.0
 10
9.9676317213
 20
6.3597622692
 30
0.0
 10
9.9488426225
 20
6.3336025867
 30
0.0
 10
9.9287466708
 20
6.3084534907
 30
0.0
 10
9.9119232099
 20
6.2889878545
 30
0.0
 10
9.8989393661
 20
6.2747231098
 30
0.0
 10
9.8855955192
 20
6.2607994567
 30
0.0
 10
9.8764641532
 20
6.25174936
 30
0.0
 10
9.8718414592
 20
6.2472841762
 30
0.0
  0
SPLINE
  5
33A
100
AcDbEntity
  8
0
100
AcDbSpline
 62
7
  6
CONTINUOUS
 70
0
 71
3
 72
28
 73
24
 74
0
 42
0.0000001
 43
0.0000001
 44
0.0000000001
 40
0.0
 40
0.0
 40
0.0
 40
0.0
 40
0.0637758941
 40
0.0955879065
 40
0.1273462157
 40
0.1907019646
 40
0.2538545302
 40
0.2853587825
 40
0.3168148204
 40
0.379582186
 40
0.4421719279
 40
0.504596336
 40
0.566869323
 40
0.6290062994
 40
0.6910240361
 40
0.7219962863
 40
0.7529455528
 40
0.8147797337
 40
0.8765514554
 40
0.9074228165
 40
0.9382862783
 40
0.9691444605
 40
1.0
 40
1.0
 40
1.0
 40
1.0
 10
12.0371783517
 20
8.8482447701
 30
0.0
 10
12.0371783517
 20
8.8349605486
 30
0.0
 10
12.0367010086
 20
8.8150456056
 30
0.0
 10
12.0351040852
 20
8.7885662353
 30
0.0
 10
12.0328731108
 20
8.7622200527
 30
0.0
 10
12.0288944828
 20
8.7294808884
 30
0.0
 10
12.0233269975
 20
8.6970276023
 30
0.0
 10
12.0179305626
 20
8.6713167507
 30
0.0
 10
12.0119189072
 20
8.6458252558
 30
0.0
 10
12.0032418637
 20
8.6143202558
 30
0.0
 10
11.9909837703
 20
8.5771598869
 30
0.0
 10
11.976915358
 20
8.5407561903
 30
0.0
 10
11.9610690326
 20
8.5051935541
 30
0.0
 10
11.9434815768
 20
8.4705543865
 30
0.0
 10
11.9274001026
 20
8.4425106907
 30
0.0
 10
11.9137086942
 20
8.4206215523
 30
0.0
 10
11.8994837186
 20
8.399121116
 30
0.0
 10
11.8806946199
 20
8.3729614336
 30
0.0
 10
11.8605986681
 20
8.3478123376
 30
0.0
 10
11.8437752072
 20
8.3283467014
 30
0.0
 10
11.8307913634
 20
8.3140819567
 30
0.0
 10
11.8174475165
 20
8.3001583035
 30
0.0
 10
11.8083161505
 20
8.2911082068
 30
0.0
 10
11.8036934565
 20
8.2866430231
 30
0.0
  0
SPLINE
  5
33B
100
AcDbEntity
  8
0
100
AcDbSpline
 62
7
  6
CONTINUOUS
 70
0
 71
3
 72
59
 73
55
 74
0
 42
0.0000001
 43
0.0000001
 44
0.0000000001
 40
0.0
 40
0.0
 40
0.0
 40
0.0
 40
0.0417736767
 40
0.0840362765
 40
0.1266574811
 40
0.1695051262
 40
0.2124463914
 40
0.2553479967
 40
0.2980768488
 40
0.3405005256
 40
0.3824878146
 40
0.4239092383
 40
0.464637589
 40
0.5045484688
 40
0.5435208413
 40
0.5814375992
 40
0.6181861539
 40
0.6360888024
 40
0.6536595531
 40
0.6708859017
 40
0.6877557363
 40
0.7042573867
 40
0.720379648
 40
0.7361117919
 40
0.7514436399
 40
0.7663655339
 40
0.7808684645
 40
0.7949440033
 40
0.8085844873
 40
0.8217829218
 40
0.83453322
 40
0.8468300923
 40
0.8586693371
 40
0.8700477415
 40
0.8809634199
 40
0.8914157604
 40
0.9014058112
 40
0.9109363168
 40
0.9200121632
 40
0.9286405545
 40
0.9368315416
 40
0.9445983908
 40
0.9519582219
 40
0.9589325919
 40
0.9655482195
 40
0.9718376843
 40
0.9778400275
 40
0.9836011664
 40
0.9864084736
 40
0.9891757902
 40
0.9919106587
 40
0.9946209114
 40
0.9973146138
 40
1.0
 40
1.0
 40
1.0
 40
1.0
 10
14.2056752621
 20
6.9595559207
 30
0.0
 10
14.2056752621
 20
6.9772789942
 30
0.0
 10
14.2059517608
 20
7.0129331307
 30
0.0
 10
14.2071741115
 20
7.0666573205
 30
0.0
 10
14.2092029135
 20
7.1208131573
 30
0.0
 10
14.2120315162
 20
7.1752213717
 30
0.0
 10
14.215650572
 20
7.2297019537
 30
0.0
 10
14.2200481187
 20
7.2840746681
 30
0.0
 10
14.2252095884
 20
7.3381596259
 30
0.0
 10
14.2311178712
 20
7.3917779017
 30
0.0
 10
14.2377533644
 20
7.4447521232
 30
0.0
 10
14.2450940396
 20
7.4969070633
 30
0.0
 10
14.2531155124
 20
7.5480702306
 30
0.0
 10
14.261791125
 20
7.5980724264
 30
0.0
 10
14.2710920234
 20
7.6467483867
 30
0.0
 10
14.2809872812
 20
7.6939370755
 30
0.0
 10
14.2897757588
 20
7.732217247
 30
0.0
 10
14.2970898303
 20
7.7619731786
 30
0.0
 10
14.3026553662
 20
7.7836284847
 30
0.0
 10
14.3083438917
 20
7.8047984075
 30
0.0
 10
14.314150731
 20
7.8254654586
 30
0.0
 10
14.3200710568
 20
7.8456125482
 30
0.0
 10
14.3260999549
 20
7.8652230252
 30
0.0
 10
14.3322324436
 20
7.8842806827
 30
0.0
 10
14.3384634066
 20
7.9027697807
 30
0.0
 10
14.3447877208
 20
7.9206750462
 30
0.0
 10
14.3512000866
 20
7.9379817076
 30
0.0
 10
14.3576952573
 20
7.9546754774
 30
0.0
 10
14.3642677713
 20
7.9707426078
 30
0.0
 10
14.3709122767
 20
7.9861698466
 30
0.0
 10
14.3776231749
 20
8.0009445226
 30
0.0
 10
14.3843950284
 20
8.0150544677
 30
0.0
 10
14.3912221346
 20
8.0284881375
 30
0.0
 10
14.3980989925
 20
8.0412344959
 30
0.0
 10
14.4050198384
 20
8.0532831724
 30
0.0
 10
14.4119791386
 20
8.0646243084
 30
0.0
 10
14.4189711273
 20
8.0752487472
 30
0.0
 10
14.425990286
 20
8.0851478469
 30
0.0
 10
14.4330309297
 20
8.0943136866
 30
0.0
 10
14.4400876327
 20
8.1027388569
 30
0.0
 10
14.4471549061
 20
8.1104166485
 30
0.0
 10
14.4542275296
 20
8.1173408346
 30
0.0
 10
14.4613003416
 20
8.1235057807
 30
0.0
 10
14.4683684408
 20
8.1289062421
 30
0.0
 10
14.4754269872
 20
8.1335373047
 30
0.0
 10
14.482471427
 20
8.1373942938
 30
0.0
 10
14.4894963092
 20
8.1404724151
 30
0.0
 10
14.495381547
 20
8.142401344
 30
0.0
 10
14.5000568889
 20
8.1435369595
 30
0.0
 10
14.5035240104
 20
8.1441852162
 30
0.0
 10
14.5069806213
 20
8.1446369907
 30
0.0
 10
14.5104260625
 20
8.144892167
 30
0.0
 10
14.5138593632
 20
8.1449505882
 30
0.0
 10
14.516141141
 20
8.1448582734
 30
0.0
 10
14.5172777244
 20
8.1447794538
 30
0.0
  0
SPLINE
  5
33C
100
AcDbEntity
  8
0
100
AcDbSpline
 62
7
  6
CONTINUOUS
 70
0
 71
3
 72
59
 73
55
 74
0
 42
0.0000001
 43
0.0000001
 44
0.0000000001
 40
0.0
 40
0.0
 40
0.0
 40
0.0
 40
0.0417736767
 40
0.0840362765
 40
0.1266574811
 40
0.1695051262
 40
0.2124463914
 40
0.2553479967
 40
0.2980768488
 40
0.3405005256
 40
0.3824878146
 40
0.4239092383
 40
0.464637589
 40
0.5045484688
 40
0.5435208413
 40
0.5814375992
 40
0.6181861539
 40
0.6360888024
 40
0.6536595531
 40
0.6708859017
 40
0.6877557363
 40
0.7042573867
 40
0.720379648
 40
0.7361117919
 40
0.7514436399
 40
0.7663655339
 40
0.7808684645
 40
0.7949440033
 40
0.8085844873
 40
0.8217829218
 40
0.83453322
 40
0.8468300923
 40
0.8586693371
 40
0.8700477415
 40
0.8809634199
 40
0.8914157604
 40
0.9014058112
 40
0.9109363168
 40
0.9200121632
 40
0.9286405545
 40
0.9368315416
 40
0.9445983908
 40
0.9519582219
 40
0.9589325919
 40
0.9655482195
 40
0.9718376843
 40
0.9778400275
 40
0.9836011664
 40
0.9864084736
 40
0.9891757902
 40
0.9919106587
 40
0.9946209114
 40
0.9973146138
 40
1.0
 40
1.0
 40
1.0
 40
1.0
 10
14.2056752621
 20
10.0988150422
 30
0.0
 10
14.2056752621
 20
10.1165381156
 30
0.0
 10
14.2059517608
 20
10.1521922521
 30
0.0
 10
14.2071741115
 20
10.205916442
 30
0.0
 10
14.2092029135
 20
10.2600722788
 30
0.0
 10
14.2120315162
 20
10.3144804931
 30
0.0
 10
14.215650572
 20
10.3689610751
 30
0.0
 10
14.2200481187
 20
10.4233337896
 30
0.0
 10
14.2252095884
 20
10.4774187474
 30
0.0
 10
14.2311178712
 20
10.5310370232
 30
0.0
 10
14.2377533644
 20
10.5840112447
 30
0.0
 10
14.2450940396
 20
10.6361661848
 30
0.0
 10
14.2531155124
 20
10.6873293521
 30
0.0
 10
14.261791125
 20
10.7373315478
 30
0.0
 10
14.2710920234
 20
10.7860075082
 30
0.0
 10
14.2809872812
 20
10.8331961969
 30
0.0
 10
14.2897757588
 20
10.8714763684
 30
0.0
 10
14.2970898303
 20
10.9012323001
 30
0.0
 10
14.3026553662
 20
10.9228876061
 30
0.0
 10
14.3083438917
 20
10.944057529
 30
0.0
 10
14.314150731
 20
10.96472458
 30
0.0
 10
14.3200710568
 20
10.9848716697
 30
0.0
 10
14.3260999549
 20
11.0044821466
 30
0.0
 10
14.3322324436
 20
11.0235398042
 30
0.0
 10
14.3384634066
 20
11.0420289022
 30
0.0
 10
14.3447877208
 20
11.0599341676
 30
0.0
 10
14.3512000866
 20
11.077240829
 30
0.0
 10
14.3576952573
 20
11.0939345988
 30
0.0
 10
14.3642677713
 20
11.1100017292
 30
0.0
 10
14.3709122767
 20
11.1254289681
 30
0.0
 10
14.3776231749
 20
11.140203644
 30
0.0
 10
14.3843950284
 20
11.1543135891
 30
0.0
 10
14.3912221346
 20
11.167747259
 30
0.0
 10
14.3980989925
 20
11.1804936174
 30
0.0
 10
14.4050198384
 20
11.1925422938
 30
0.0
 10
14.4119791386
 20
11.2038834299
 30
0.0
 10
14.4189711273
 20
11.2145078686
 30
0.0
 10
14.425990286
 20
11.2244069684
 30
0.0
 10
14.4330309297
 20
11.233572808
 30
0.0
 10
14.4400876327
 20
11.2419979784
 30
0.0
 10
14.4471549061
 20
11.2496757699
 30
0.0
 10
14.4542275296
 20
11.256599956
 30
0.0
 10
14.4613003416
 20
11.2627649021
 30
0.0
 10
14.4683684408
 20
11.2681653635
 30
0.0
 10
14.4754269872
 20
11.2727964262
 30
0.0
 10
14.482471427
 20
11.2766534153
 30
0.0
 10
14.4894963092
 20
11.2797315365
 30
0.0
 10
14.495381547
 20
11.2816604655
 30
0.0
 10
14.5000568889
 20
11.2827960809
 30
0.0
 10
14.5035240104
 20
11.2834443377
 30
0.0
 10
14.5069806213
 20
11.2838961122
 30
0.0
 10
14.5104260625
 20
11.2841512884
 30
0.0
 10
14.5138593632
 20
11.2842097096
 30
0.0
 10
14.516141141
 20
11.2841173948
 30
0.0
 10
14.5172777244
 20
11.2840385753
 30
0.0
  0
SPLINE
  5
33D
100
AcDbEntity
  8
0
100
AcDbSpline
 62
7
  6
CONTINUOUS
 70
0
 71
3
 72
26
 73
22
 74
0
 42
0.0000001
 43
0.0000001
 44
0.0000000001
 40
0.0
 40
0.0
 40
0.0
 40
0.0
 40
0.0637763276
 40
0.127342886
 40
0.1906991341
 40
0.2538523424
 40
0.2853569136
 40
0.3168132539
 40
0.3795812247
 40
0.4421715801
 40
0.5045965951
 40
0.5668701916
 40
0.6290077778
 40
0.6910261223
 40
0.7219986725
 40
0.7529482429
 40
0.8147830252
 40
0.8765553491
 40
0.9074270146
 40
0.9382907765
 40
1.0
 40
1.0
 40
1.0
 40
1.0
 10
10.1014354071
 20
6.8521275566
 30
0.0
 10
10.1014354071
 20
6.8395685142
 30
0.0
 10
10.1008342964
 20
6.814487503
 30
0.0
 10
10.0981210835
 20
6.7770184043
 30
0.0
 10
10.0936037133
 20
6.7398468068
 30
0.0
 10
10.0883401594
 20
6.7091648062
 30
0.0
 10
10.0832382504
 20
6.6848574607
 30
0.0
 10
10.0775547932
 20
6.6607574453
 30
0.0
 10
10.0693513521
 20
6.6309722176
 30
0.0
 10
10.0577623728
 20
6.5958403172
 30
0.0
 10
10.0444618979
 20
6.5614237826
 30
0.0
 10
10.0294805725
 20
6.5278023929
 30
0.0
 10
10.0128531564
 20
6.4950540621
 30
0.0
 10
9.9976494941
 20
6.4685411919
 30
0.0
 10
9.9847054288
 20
6.4478469239
 30
0.0
 10
9.9712569213
 20
6.4275201488
 30
0.0
 10
9.9534934081
 20
6.4027884344
 30
0.0
 10
9.9344945158
 20
6.3790122184
 30
0.0
 10
9.918589201
 20
6.3606090096
 30
0.0
 10
9.902224954
 20
6.3426302126
 30
0.0
 10
9.8894358419
 20
6.3296244568
 30
0.0
 10
9.8806954795
 20
6.3211819028
 30
0.0
  0
SPLINE
  5
33E
100
AcDbEntity
  8
0
100
AcDbSpline
 62
7
  6
CONTINUOUS
 70
0
 71
3
 72
21
 73
17
 74
0
 42
0.0000001
 43
0.0000001
 44
0.0000000001
 40
0.0
 40
0.0
 40
0.0
 40
0.0
 40
0.0632451793
 40
0.1263570498
 40
0.1893411014
 40
0.252203513
 40
0.3775708245
 40
0.5025402828
 40
0.5649075243
 40
0.6272018629
 40
0.6894330042
 40
0.7516109596
 40
0.8137460381
 40
0.8758487568
 40
0.9379298075
 40
1.0
 40
1.0
 40
1.0
 40
1.0
 10
10.0992737331
 20
6.7935527275
 30
0.0
 10
10.0975139031
 20
6.7857670064
 30
0.0
 10
10.0937229281
 20
6.7702726306
 30
0.0
 10
10.0872220631
 20
6.7472723376
 30
0.0
 10
10.0799200893
 20
6.7245637665
 30
0.0
 10
10.0691389315
 20
6.6947415685
 30
0.0
 10
10.0537046994
 20
6.6583110493
 30
0.0
 10
10.0357045244
 20
6.6231472249
 30
0.0
 10
10.0198360153
 20
6.5959227494
 30
0.0
 10
10.0072197367
 20
6.5759862775
 30
0.0
 10
9.9938968908
 20
6.5565441652
 30
0.0
 10
9.979882899
 20
6.5376190661
 30
0.0
 10
9.9651945036
 20
6.5192332624
 30
0.0
 10
9.949848714
 20
6.5014084829
 30
0.0
 10
9.9338641156
 20
6.4841658553
 30
0.0
 10
9.9227932017
 20
6.4730714887
 30
0.0
 10
9.9171586864
 20
6.4676289458
 30
0.0
  0
SPLINE
  5
33F
100
AcDbEntity
  8
0
100
AcDbSpline
 62
7
  6
CONTINUOUS
 70
0
 71
3
 72
25
 73
21
 74
0
 42
0.0000001
 43
0.0000001
 44
0.0000000001
 40
0.0
 40
0.0
 40
0.0
 40
0.0
 40
0.0639570184
 40
0.0958511422
 40
0.127687059
 40
0.1911792725
 40
0.2544419986
 40
0.2859917418
 40
0.3174863476
 40
0.3803088408
 40
0.4429256337
 40
0.5053495615
 40
0.5675957264
 40
0.6296813399
 40
0.6916255341
 40
0.7534491453
 40
0.8151744721
 40
0.8768250119
 40
0.9384251773
 40
1.0
 40
1.0
 40
1.0
 40
1.0
 10
9.3466257587
 20
7.6901080424
 30
0.0
 10
9.3328587149
 20
7.6916139964
 30
0.0
 10
9.3121621326
 20
7.693334363
 30
0.0
 10
9.2845368375
 20
7.6945372452
 30
0.0
 10
9.2569894549
 20
7.6950101685
 30
0.0
 10
9.2226400336
 20
7.694238327
 30
0.0
 10
9.1884419098
 20
7.6916425911
 30
0.0
 10
9.1612725918
 20
7.6884756083
 30
0.0
 10
9.1342928339
 20
7.6845918899
 30
0.0
 10
9.1008631048
 20
7.6783889611
 30
0.0
 10
9.0613098168
 20
7.6687984251
 30
0.0
 10
9.0224594772
 20
7.6570932406
 30
0.0
 10
8.9844206859
 20
7.6433058662
 30
0.0
 10
8.947298879
 20
7.6274744475
 30
0.0
 10
8.9111972168
 20
7.6096428557
 30
0.0
 10
8.8762159437
 20
7.5898604971
 30
0.0
 10
8.8424523295
 20
7.568182321
 30
0.0
 10
8.8099998503
 20
7.5446681669
 30
0.0
 10
8.7789498786
 20
7.519384459
 30
0.0
 10
8.7592380473
 20
7.501391643
 30
0.0
 10
8.7496479963
 20
7.4921283517
 30
0.0
  0
SPLINE
  5
340
100
AcDbEntity
  8
0
100
AcDbSpline
 62
7
  6
CONTINUOUS
 70
0
 71
3
 72
21
 73
17
 74
0
 42
0.0000001
 43
0.0000001
 44
0.0000000001
 40
0.0
 40
0.0
 40
0.0
 40
0.0
 40
0.0632421657
 40
0.1263514621
 40
0.1893334483
 40
0.2521942838
 40
0.3149407654
 40
0.3775802381
 40
0.440120603
 40
0.5025702617
 40
0.6272126849
 40
0.7516036635
 40
0.8137403859
 40
0.8758449023
 40
0.9379278585
 40
1.0
 40
1.0
 40
1.0
 40
1.0
 10
9.2284031617
 20
7.6940328717
 30
0.0
 10
9.2205826521
 20
7.6925369405
 30
0.0
 10
9.2050092885
 20
7.6892727105
 30
0.0
 10
9.1818620916
 20
7.6835581325
 30
0.0
 10
9.1589785743
 20
7.6770371768
 30
0.0
 10
9.1363860128
 20
7.6697173489
 30
0.0
 10
9.1141106952
 20
7.6616074222
 30
0.0
 10
9.0921789404
 20
7.6527167105
 30
0.0
 10
9.070616057
 20
7.6430556309
 30
0.0
 10
9.0424128735
 20
7.6291728375
 30
0.0
 10
9.008190183
 20
7.6099475029
 30
0.0
 10
8.9754928467
 20
7.588299665
 30
0.0
 10
8.9503748664
 20
7.5696089278
 30
0.0
 10
8.9320761849
 20
7.5549214594
 30
0.0
 10
8.9143349668
 20
7.5395786294
 30
0.0
 10
8.9028916415
 20
7.5289240861
 30
0.0
 10
8.8972706839
 20
7.523494639
 30
0.0
  0
SPLINE
  5
341
100
AcDbEntity
  8
0
100
AcDbSpline
 62
7
  6
CONTINUOUS
 70
0
 71
3
 72
26
 73
22
 74
0
 42
0.0000001
 43
0.0000001
 44
0.0000000001
 40
0.0
 40
0.0
 40
0.0
 40
0.0
 40
0.0637763276
 40
0.127342886
 40
0.1906991341
 40
0.2538523424
 40
0.2853569136
 40
0.3168132539
 40
0.3795812247
 40
0.4421715801
 40
0.5045965951
 40
0.5668701916
 40
0.6290077778
 40
0.6910261223
 40
0.7219986725
 40
0.7529482429
 40
0.8147830252
 40
0.8765553491
 40
0.9074270146
 40
0.9382907765
 40
1.0
 40
1.0
 40
1.0
 40
1.0
 10
12.0332874044
 20
8.8914864034
 30
0.0
 10
12.0332874044
 20
8.8789273611
 30
0.0
 10
12.0326862938
 20
8.8538463498
 30
0.0
 10
12.0299730808
 20
8.8163772512
 30
0.0
 10
12.0254557106
 20
8.7792056537
 30
0.0
 10
12.0201921567
 20
8.7485236531
 30
0.0
 10
12.0150902477
 20
8.7242163076
 30
0.0
 10
12.0094067905
 20
8.7001162922
 30
0.0
 10
12.0012033494
 20
8.6703310645
 30
0.0
 10
11.9896143702
 20
8.6351991641
 30
0.0
 10
11.9763138953
 20
8.6007826295
 30
0.0
 10
11.9613325699
 20
8.5671612397
 30
0.0
 10
11.9447051537
 20
8.534412909
 30
0.0
 10
11.9295014914
 20
8.5079000387
 30
0.0
 10
11.9165574261
 20
8.4872057708
 30
0.0
 10
11.9031089187
 20
8.4668789957
 30
0.0
 10
11.8853454054
 20
8.4421472812
 30
0.0
 10
11.8663465131
 20
8.4183710653
 30
0.0
 10
11.8504411983
 20
8.3999678565
 30
0.0
 10
11.8340769513
 20
8.3819890594
 30
0.0
 10
11.8212878393
 20
8.3689833036
 30
0.0
 10
11.8125474768
 20
8.3605407496
 30
0.0
  0
SPLINE
  5
342
100
AcDbEntity
  8
0
100
AcDbSpline
 62
7
  6
CONTINUOUS
 70
0
 71
3
 72
21
 73
17
 74
0
 42
0.0000001
 43
0.0000001
 44
0.0000000001
 40
0.0
 40
0.0
 40
0.0
 40
0.0
 40
0.0632451793
 40
0.1263570498
 40
0.1893411014
 40
0.252203513
 40
0.3775708245
 40
0.5025402828
 40
0.5649075243
 40
0.6272018629
 40
0.6894330042
 40
0.7516109596
 40
0.8137460381
 40
0.8758487568
 40
0.9379298075
 40
1.0
 40
1.0
 40
1.0
 40
1.0
 10
12.0311257304
 20
8.8329115744
 30
0.0
 10
12.0293659005
 20
8.8251258533
 30
0.0
 10
12.0255749255
 20
8.8096314774
 30
0.0
 10
12.0190740604
 20
8.7866311845
 30
0.0
 10
12.0117720867
 20
8.7639226133
 30
0.0
 10
12.0009909288
 20
8.7341004154
 30
0.0
 10
11.9855566967
 20
8.6976698962
 30
0.0
 10
11.9675565217
 20
8.6625060718
 30
0.0
 10
11.9516880126
 20
8.6352815963
 30
0.0
 10
11.939071734
 20
8.6153451244
 30
0.0
 10
11.9257488881
 20
8.595903012
 30
0.0
 10
11.9117348963
 20
8.5769779129
 30
0.0
 10
11.8970465009
 20
8.5585921093
 30
0.0
 10
11.8817007113
 20
8.5407673297
 30
0.0
 10
11.8657161129
 20
8.5235247022
 30
0.0
 10
11.8546451991
 20
8.5124303356
 30
0.0
 10
11.8490106838
 20
8.5069877927
 30
0.0
  0
SPLINE
  5
343
100
AcDbEntity
  8
0
100
AcDbSpline
 62
7
  6
CONTINUOUS
 70
0
 71
3
 72
54
 73
50
 74
0
 42
0.0000001
 43
0.0000001
 44
0.0000000001
 40
0.0
 40
0.0
 40
0.0
 40
0.0
 40
0.0074115572
 40
0.0149545849
 40
0.0226744605
 40
0.0306125284
 40
0.0388057685
 40
0.0472853032
 40
0.0560777562
 40
0.0652048115
 40
0.0746844346
 40
0.0845303434
 40
0.0947533019
 40
0.1053606185
 40
0.1163573347
 40
0.1277456317
 40
0.1395259564
 40
0.1516963746
 40
0.1642536201
 40
0.1771924102
 40
0.1905064341
 40
0.2041876628
 40
0.2182272854
 40
0.2326150839
 40
0.2473402657
 40
0.2623909241
 40
0.277754763
 40
0.293418679
 40
0.3093693502
 40
0.325592997
 40
0.3420757657
 40
0.3588037061
 40
0.392935883
 40
0.4278846575
 40
0.4635465066
 40
0.4998253143
 40
0.5366337988
 40
0.5738941857
 40
0.6115383527
 40
0.6495075979
 40
0.6877520828
 40
0.7262301754
 40
0.7649077048
 40
0.8037570839
 40
0.8427566912
 40
0.8818902653
 40
0.9211457694
 40
0.9605178924
 40
1.0
 40
1.0
 40
1.0
 40
1.0
 10
11.2679847381
 20
8.8353377837
 30
0.0
 10
11.2666997388
 20
8.8340965697
 30
0.0
 10
11.2639911946
 20
8.8317091534
 30
0.0
 10
11.2595835262
 20
8.8284661355
 30
0.0
 10
11.2548091835
 20
8.8255411266
 30
0.0
 10
11.249675618
 20
8.8229393579
 30
0.0
 10
11.2441902694
 20
8.8206656963
 30
0.0
 10
11.2383612833
 20
8.8187256232
 30
0.0
 10
11.2321976726
 20
8.8171250722
 30
0.0
 10
11.2257091626
 20
8.8158703385
 30
0.0
 10
11.2189064333
 20
8.8149680433
 30
0.0
 10
11.2118009706
 20
8.8144250917
 30
0.0
 10
11.2044053255
 20
8.814248603
 30
0.0
 10
11.1967329224
 20
8.8144457247
 30
0.0
 10
11.1887982888
 20
8.8150236792
 30
0.0
 10
11.1806168355
 20
8.8159894156
 30
0.0
 10
11.1722050899
 20
8.8173498333
 30
0.0
 10
11.1635803978
 20
8.8191112033
 30
0.0
 10
11.1547611985
 20
8.8212796337
 30
0.0
 10
11.1457666098
 20
8.8238602316
 30
0.0
 10
11.1366167907
 20
8.8268578474
 30
0.0
 10
11.1273323566
 20
8.830275957
 30
0.0
 10
11.1179348665
 20
8.8341177188
 30
0.0
 10
11.1084460296
 20
8.8383845876
 30
0.0
 10
11.0988883587
 20
8.8430776738
 30
0.0
 10
11.0892841541
 20
8.8481961211
 30
0.0
 10
11.0796563605
 20
8.8537387591
 30
0.0
 10
11.0700273029
 20
8.8597022625
 30
0.0
 10
11.060419768
 20
8.8660830913
 30
0.0
 10
11.0508555438
 20
8.8728754641
 30
0.0
 10
11.0413565559
 20
8.8800735773
 30
0.0
 10
11.0287219531
 20
8.8902691364
 30
0.0
 10
11.0132230493
 20
8.9039872487
 30
0.0
 10
10.9953254532
 20
8.9218159864
 30
0.0
 10
10.9781403952
 20
8.9410327332
 30
0.0
 10
10.961788052
 20
8.9615388148
 30
0.0
 10
10.9463708846
 20
8.9832310548
 30
0.0
 10
10.9319749742
 20
9.0060039648
 30
0.0
 10
10.9186710652
 20
9.0297524076
 30
0.0
 10
10.9065162501
 20
9.0543734166
 30
0.0
 10
10.8955557906
 20
9.0797675612
 30
0.0
 10
10.8858248776
 20
9.1058397601
 30
0.0
 10
10.8773505108
 20
9.1324997712
 30
0.0
 10
10.8701530573
 20
9.1596622936
 30
0.0
 10
10.8642476247
 20
9.1872468976
 30
0.0
 10
10.8596451996
 20
9.21517756
 30
0.0
 10
10.8563531576
 20
9.2433832192
 30
0.0
 10
10.8543769075
 20
9.2717949595
 30
0.0
 10
10.8539388858
 20
9.2908059018
 30
0.0
 10
10.8539388858
 20
9.3003231436
 30
0.0
  0
SPLINE
  5
344
100
AcDbEntity
  8
0
100
AcDbSpline
 62
7
  6
CONTINUOUS
 70
0
 71
3
 72
25
 73
21
 74
0
 42
0.0000001
 43
0.0000001
 44
0.0000000001
 40
0.0
 40
0.0
 40
0.0
 40
0.0
 40
0.0639570184
 40
0.0958511422
 40
0.127687059
 40
0.1911792725
 40
0.2544419986
 40
0.2859917418
 40
0.3174863476
 40
0.3803088408
 40
0.4429256337
 40
0.5053495615
 40
0.5675957264
 40
0.6296813399
 40
0.6916255341
 40
0.7534491453
 40
0.8151744721
 40
0.8768250119
 40
0.9384251773
 40
1.0
 40
1.0
 40
1.0
 40
1.0
 10
11.2784777561
 20
9.7294668892
 30
0.0
 10
11.2647107123
 20
9.7309728433
 30
0.0
 10
11.2440141299
 20
9.7326932099
 30
0.0
 10
11.2163888349
 20
9.7338960921
 30
0.0
 10
11.1888414522
 20
9.7343690153
 30
0.0
 10
11.1544920309
 20
9.7335971738
 30
0.0
 10
11.1202939071
 20
9.731001438
 30
0.0
 10
11.0931245892
 20
9.7278344551
 30
0.0
 10
11.0661448312
 20
9.7239507367
 30
0.0
 10
11.0327151022
 20
9.717747808
 30
0.0
 10
10.9931618141
 20
9.7081572719
 30
0.0
 10
10.9543114745
 20
9.6964520875
 30
0.0
 10
10.9162726832
 20
9.682664713
 30
0.0
 10
10.8791508763
 20
9.6668332943
 30
0.0
 10
10.8430492142
 20
9.6490017026
 30
0.0
 10
10.808067941
 20
9.629219344
 30
0.0
 10
10.7743043269
 20
9.6075411679
 30
0.0
 10
10.7418518476
 20
9.5840270138
 30
0.0
 10
10.7108018759
 20
9.5587433059
 30
0.0
 10
10.6910900446
 20
9.5407504899
 30
0.0
 10
10.6814999936
 20
9.5314871985
 30
0.0
  0
SPLINE
  5
345
100
AcDbEntity
  8
0
100
AcDbSpline
 62
7
  6
CONTINUOUS
 70
0
 71
3
 72
13
 73
9
 74
0
 42
0.0000001
 43
0.0000001
 44
0.0000000001
 40
0.0
 40
0.0
 40
0.0
 40
0.0
 40
0.2622366722
 40
0.5180276716
 40
0.642778273
 40
0.7649643731
 40
0.88418535
 40
1.0
 40
1.0
 40
1.0
 40
1.0
 10
10.9031167498
 20
9.5454198205
 30
0.0
 10
10.9106653295
 20
9.5575116512
 30
0.0
 10
10.9258889747
 20
9.5812048963
 30
0.0
 10
10.9455419452
 20
9.6100987321
 30
0.0
 10
10.9613549542
 20
9.6323867999
 30
0.0
 10
10.9730836185
 20
9.6484682083
 30
0.0
 10
10.984730535
 20
9.6640058824
 30
0.0
 10
10.9925276894
 20
9.6741272481
 30
0.0
 10
10.9964033117
 20
9.6790882862
 30
0.0
  0
SPLINE
  5
346
100
AcDbEntity
  8
0
100
AcDbSpline
 62
7
  6
CONTINUOUS
 70
0
 71
3
 72
15
 73
11
 74
0
 42
0.0000001
 43
0.0000001
 44
0.0000000001
 40
0.0
 40
0.0
 40
0.0
 40
0.0
 40
0.1235107902
 40
0.2474108744
 40
0.3717133335
 40
0.4964439388
 40
0.62162514
 40
0.7472752617
 40
0.8734045992
 40
1.0
 40
1.0
 40
1.0
 40
1.0
 10
10.8539388858
 20
9.3003231436
 30
0.0
 10
10.8539388858
 20
9.3106796949
 30
0.0
 10
10.8544591075
 20
9.331429118
 30
0.0
 10
10.8567904781
 20
9.3625226848
 30
0.0
 10
10.8606706568
 20
9.3935649612
 30
0.0
 10
10.8660925784
 20
9.4244841338
 30
0.0
 10
10.8730457386
 20
9.4552110967
 30
0.0
 10
10.8815143246
 20
9.4856771485
 30
0.0
 10
10.891475869
 20
9.5158121746
 30
0.0
 10
10.89907923
 20
9.5356024426
 30
0.0
 10
10.9031167498
 20
9.5454198205
 30
0.0
  0
SPLINE
  5
347
100
AcDbEntity
  8
0
100
AcDbSpline
 62
7
  6
CONTINUOUS
 70
0
 71
3
 72
21
 73
17
 74
0
 42
0.0000001
 43
0.0000001
 44
0.0000000001
 40
0.0
 40
0.0
 40
0.0
 40
0.0
 40
0.0632421657
 40
0.1263514621
 40
0.1893334483
 40
0.2521942838
 40
0.3149407654
 40
0.3775802381
 40
0.440120603
 40
0.5025702617
 40
0.6272126849
 40
0.7516036635
 40
0.8137403859
 40
0.8758449023
 40
0.9379278585
 40
1.0
 40
1.0
 40
1.0
 40
1.0
 10
11.1602551591
 20
9.7333917186
 30
0.0
 10
11.1524346494
 20
9.7318957874
 30
0.0
 10
11.1368612859
 20
9.7286315573
 30
0.0
 10
11.1137140889
 20
9.7229169793
 30
0.0
 10
11.0908305717
 20
9.7163960237
 30
0.0
 10
11.0682380102
 20
9.7090761958
 30
0.0
 10
11.0459626926
 20
9.7009662691
 30
0.0
 10
11.0240309377
 20
9.6920755574
 30
0.0
 10
11.0024680543
 20
9.6824144777
 30
0.0
 10
10.9742648708
 20
9.6685316843
 30
0.0
 10
10.9400421803
 20
9.6493063498
 30
0.0
 10
10.9073448441
 20
9.6276585119
 30
0.0
 10
10.8822268638
 20
9.6089677747
 30
0.0
 10
10.8639281823
 20
9.5942803063
 30
0.0
 10
10.8461869641
 20
9.5789374763
 30
0.0
 10
10.8347436388
 20
9.568282933
 30
0.0
 10
10.8291226812
 20
9.5628534858
 30
0.0
  0
SPLINE
  5
348
100
AcDbEntity
  8
0
100
AcDbSpline
 62
7
  6
CONTINUOUS
 70
0
 71
3
 72
51
 73
47
 74
0
 42
0.0000001
 43
0.0000001
 44
0.0000000001
 40
0.0
 40
0.0
 40
0.0
 40
0.0
 40
0.0055575483
 40
0.0111779716
 40
0.01692191
 40
0.0228457685
 40
0.029000541
 40
0.0354309187
 40
0.0421753321
 40
0.0492661787
 40
0.0567301751
 40
0.0645892818
 40
0.072860934
 40
0.0815589354
 40
0.0906938799
 40
0.1002734384
 40
0.1103031157
 40
0.1207861166
 40
0.1317239771
 40
0.1431166596
 40
0.1549625852
 40
0.1672591636
 40
0.1800024627
 40
0.1931876894
 40
0.2068091423
 40
0.2208601567
 40
0.2502201891
 40
0.2812020358
 40
0.3137291498
 40
0.3477165256
 40
0.3830717054
 40
0.4196956132
 40
0.4574832856
 40
0.4963245986
 40
0.5361048951
 40
0.5767055669
 40
0.6180046028
 40
0.6598771293
 40
0.7021959705
 40
0.7448321944
 40
0.7876555817
 40
0.8305351627
 40
0.8733399838
 40
0.9159382941
 40
0.9582023666
 40
1.0
 40
1.0
 40
1.0
 40
1.0
 10
13.36417426
 20
10.9731166884
 30
0.0
 10
13.3641742673
 20
10.9722656982
 30
0.0
 10
13.3640790266
 20
10.9705526082
 30
0.0
 10
13.3636514699
 20
10.9679921041
 30
0.0
 10
13.3629398493
 20
10.9654373327
 30
0.0
 10
13.3619457069
 20
10.9628912002
 30
0.0
 10
13.3606704978
 20
10.9603558448
 30
0.0
 10
13.3591160792
 20
10.9578331454
 30
0.0
 10
13.3572841608
 20
10.9553248563
 30
0.0
 10
13.3551765144
 20
10.9528327028
 30
0.0
 10
13.3527951058
 20
10.9503582773
 30
0.0
 10
13.3501418327
 20
10.9479034059
 30
0.0
 10
13.3472189301
 20
10.9454697565
 30
0.0
 10
13.3440287044
 20
10.9430591596
 30
0.0
 10
13.3405736835
 20
10.940673473
 30
0.0
 10
13.3368566629
 20
10.9383144571
 30
0.0
 10
13.3328805595
 20
10.9359840701
 30
0.0
 10
13.3286486027
 20
10.9336840798
 30
0.0
 10
13.3241641788
 20
10.9314163675
 30
0.0
 10
13.3194309013
 20
10.92918279
 30
0.0
 10
13.3144526215
 20
10.9269850892
 30
0.0
 10
13.3092333504
 20
10.9248251471
 30
0.0
 10
13.3037773513
 20
10.9227046512
 30
0.0
 10
13.2980890572
 20
10.9206253764
 30
0.0
 10
13.2921730947
 20
10.9185890209
 30
0.0
 10
13.2838660042
 20
10.9158937788
 30
0.0
 10
13.2729429271
 20
10.9126540272
 30
0.0
 10
13.2591934735
 20
10.9090175617
 30
0.0
 10
13.2446616815
 20
10.9055896617
 30
0.0
 10
13.2293950432
 20
10.9023816555
 30
0.0
 10
13.2134433306
 20
10.89940418
 30
0.0
 10
13.1968586743
 20
10.896667097
 30
0.0
 10
13.1796953096
 20
10.8941794564
 30
0.0
 10
13.162009401
 20
10.8919494847
 30
0.0
 10
13.1438588405
 20
10.8899845555
 30
0.0
 10
13.1253030577
 20
10.8882911674
 30
0.0
 10
13.1064028265
 20
10.8868749213
 30
0.0
 10
13.0872200634
 20
10.8857404872
 30
0.0
 10
13.0678176157
 20
10.8848916077
 30
0.0
 10
13.0482590547
 20
10.8843310866
 30
0.0
 10
13.02860847
 20
10.8840607783
 30
0.0
 10
13.0089302227
 20
10.8840815756
 30
0.0
 10
12.9892889047
 20
10.8843934238
 30
0.0
 10
12.969748601
 20
10.8849952439
 30
0.0
 10
12.9503737142
 20
10.8858851229
 30
0.0
 10
12.937525457
 20
10.8866735627
 30
0.0
 10
12.9311406003
 20
10.887116354
 30
0.0
  0
SPLINE
  5
349
100
AcDbEntity
  8
0
100
AcDbSpline
 62
7
  6
CONTINUOUS
 70
0
 71
3
 72
51
 73
47
 74
0
 42
0.0000001
 43
0.0000001
 44
0.0000000001
 40
0.0
 40
0.0
 40
0.0
 40
0.0
 40
0.0055575483
 40
0.0111779716
 40
0.01692191
 40
0.0228457685
 40
0.029000541
 40
0.0354309187
 40
0.0421753321
 40
0.0492661787
 40
0.0567301751
 40
0.0645892818
 40
0.072860934
 40
0.0815589354
 40
0.0906938799
 40
0.1002734384
 40
0.1103031157
 40
0.1207861166
 40
0.1317239771
 40
0.1431166596
 40
0.1549625852
 40
0.1672591636
 40
0.1800024627
 40
0.1931876894
 40
0.2068091423
 40
0.2208601567
 40
0.2502201891
 40
0.2812020358
 40
0.3137291498
 40
0.3477165256
 40
0.3830717054
 40
0.4196956132
 40
0.4574832856
 40
0.4963245986
 40
0.5361048951
 40
0.5767055669
 40
0.6180046028
 40
0.6598771293
 40
0.7021959705
 40
0.7448321944
 40
0.7876555817
 40
0.8305351627
 40
0.8733399838
 40
0.9159382941
 40
0.9582023666
 40
1.0
 40
1.0
 40
1.0
 40
1.0
 10
8.7760264859
 20
11.2913058173
 30
0.0
 10
8.7760264933
 20
11.290454827
 30
0.0
 10
8.7759312526
 20
11.288741737
 30
0.0
 10
8.7755036959
 20
11.2861812329
 30
0.0
 10
8.7747920753
 20
11.2836264616
 30
0.0
 10
8.7737979329
 20
11.2810803291
 30
0.0
 10
8.7725227238
 20
11.2785449737
 30
0.0
 10
8.7709683052
 20
11.2760222743
 30
0.0
 10
8.7691363868
 20
11.2735139851
 30
0.0
 10
8.7670287404
 20
11.2710218317
 30
0.0
 10
8.7646473318
 20
11.2685474061
 30
0.0
 10
8.7619940587
 20
11.2660925348
 30
0.0
 10
8.7590711561
 20
11.2636588854
 30
0.0
 10
8.7558809304
 20
11.2612482885
 30
0.0
 10
8.7524259095
 20
11.2588626018
 30
0.0
 10
8.7487088889
 20
11.2565035859
 30
0.0
 10
8.7447327855
 20
11.2541731989
 30
0.0
 10
8.7405008287
 20
11.2518732087
 30
0.0
 10
8.7360164048
 20
11.2496054964
 30
0.0
 10
8.7312831273
 20
11.2473719189
 30
0.0
 10
8.7263048475
 20
11.245174218
 30
0.0
 10
8.7210855764
 20
11.243014276
 30
0.0
 10
8.7156295773
 20
11.2408937801
 30
0.0
 10
8.7099412832
 20
11.2388145052
 30
0.0
 10
8.7040253207
 20
11.2367781498
 30
0.0
 10
8.6957182302
 20
11.2340829076
 30
0.0
 10
8.6847951531
 20
11.230843156
 30
0.0
 10
8.6710456995
 20
11.2272066906
 30
0.0
 10
8.6565139075
 20
11.2237787906
 30
0.0
 10
8.6412472692
 20
11.2205707844
 30
0.0
 10
8.6252955566
 20
11.2175933089
 30
0.0
 10
8.6087109003
 20
11.2148562259
 30
0.0
 10
8.5915475356
 20
11.2123685852
 30
0.0
 10
8.573861627
 20
11.2101386135
 30
0.0
 10
8.5557110665
 20
11.2081736843
 30
0.0
 10
8.5371552837
 20
11.2064802962
 30
0.0
 10
8.5182550525
 20
11.2050640501
 30
0.0
 10
8.4990722894
 20
11.2039296161
 30
0.0
 10
8.4796698417
 20
11.2030807365
 30
0.0
 10
8.4601112807
 20
11.2025202154
 30
0.0
 10
8.440460696
 20
11.2022499071
 30
0.0
 10
8.4207824487
 20
11.2022707044
 30
0.0
 10
8.4011411307
 20
11.2025825527
 30
0.0
 10
8.381600827
 20
11.2031843728
 30
0.0
 10
8.3622259401
 20
11.2040742517
 30
0.0
 10
8.349377683
 20
11.2048626916
 30
0.0
 10
8.3429928263
 20
11.2053054829
 30
0.0
  0
SPLINE
  5
34A
100
AcDbEntity
  8
0
100
AcDbSpline
 62
7
  6
CONTINUOUS
 70
0
 71
3
 72
54
 73
50
 74
0
 42
0.0000001
 43
0.0000001
 44
0.0000000001
 40
0.0
 40
0.0
 40
0.0
 40
0.0
 40
0.0149714207
 40
0.0299459009
 40
0.0449264795
 40
0.0599161607
 40
0.0749178924
 40
0.0899345474
 40
0.1049689109
 40
0.1200236599
 40
0.135101347
 40
0.1502043904
 40
0.1653350555
 40
0.1804954423
 40
0.195687479
 40
0.210912906
 40
0.2261732683
 40
0.2414699124
 40
0.2568039734
 40
0.2721763729
 40
0.2875878193
 40
0.3030387972
 40
0.3185295728
 40
0.3340601946
 40
0.3496304877
 40
0.3652400644
 40
0.3808883259
 40
0.3965744612
 40
0.4122974619
 40
0.4280561242
 40
0.4438490534
 40
0.4596746808
 40
0.4914119437
 40
0.5232571513
 40
0.5551923202
 40
0.587197651
 40
0.6192519366
 40
0.651332993
 40
0.6834181045
 40
0.7154844744
 40
0.7475096792
 40
0.7794721147
 40
0.8113514322
 40
0.8431289588
 40
0.8747880885
 40
0.9063146442
 40
0.9376972366
 40
0.9689272309
 40
1.0
 40
1.0
 40
1.0
 40
1.0
 10
8.675486878
 20
7.4858396072
 30
0.0
 10
8.6826294096
 20
7.4927387693
 30
0.0
 10
8.6971918683
 20
7.5062560932
 30
0.0
 10
8.7198264958
 20
7.5256501365
 30
0.0
 10
8.7432232466
 20
7.544137912
 30
0.0
 10
8.7673494476
 20
7.5616935958
 30
0.0
 10
8.7921720929
 20
7.5782930359
 30
0.0
 10
8.817656921
 20
7.5939134564
 30
0.0
 10
8.8437688622
 20
7.6085333971
 30
0.0
 10
8.8704720355
 20
7.6221326373
 30
0.0
 10
8.8977296273
 20
7.6346925989
 30
0.0
 10
8.9255041426
 20
7.6461959923
 30
0.0
 10
8.9537573927
 20
7.6566269164
 30
0.0
 10
8.9824504494
 20
7.6659711725
 30
0.0
 10
9.0115438572
 20
7.6742158619
 30
0.0
 10
9.0409975966
 20
7.6813496094
 30
0.0
 10
9.0707711149
 20
7.6873627541
 30
0.0
 10
9.1008234756
 20
7.6922469495
 30
0.0
 10
9.1311133344
 20
7.6959954922
 30
0.0
 10
9.1615990161
 20
7.6986033625
 30
0.0
 10
9.1922386024
 20
7.7000668738
 30
0.0
 10
9.2229899469
 20
7.7003840767
 30
0.0
 10
9.2538107628
 20
7.6995546406
 30
0.0
 10
9.284658663
 20
7.6975795935
 30
0.0
 10
9.3154912307
 20
7.6944617565
 30
0.0
 10
9.3462660806
 20
7.6902054825
 30
0.0
 10
9.3769408822
 20
7.6848165123
 30
0.0
 10
9.4074734703
 20
7.6783023937
 30
0.0
 10
9.437821908
 20
7.6706720888
 30
0.0
 10
9.4679443204
 20
7.6619360522
 30
0.0
 10
9.4977997944
 20
7.6521062282
 30
0.0
 10
9.5372287703
 20
7.6375476767
 30
0.0
 10
9.5856412721
 20
7.6166784724
 30
0.0
 10
9.6419567751
 20
7.5875402885
 30
0.0
 10
9.6962484028
 20
7.5544400746
 30
0.0
 10
9.7482162258
 20
7.5175604536
 30
0.0
 10
9.7975756309
 20
7.4771038493
 30
0.0
 10
9.844055675
 20
7.4332925484
 30
0.0
 10
9.8874013009
 20
7.3863670318
 30
0.0
 10
9.927374503
 20
7.3365848066
 30
0.0
 10
9.9637558467
 20
7.2842191088
 30
0.0
 10
9.9963454833
 20
7.2295572771
 30
0.0
 10
10.0249642016
 20
7.1728991918
 30
0.0
 10
10.0494545938
 20
7.1145557948
 30
0.0
 10
10.0696818343
 20
7.054847193
 30
0.0
 10
10.0855343244
 20
6.994101402
 30
0.0
 10
10.0969243065
 20
6.9326508326
 30
0.0
 10
10.1037888525
 20
6.8708373033
 30
0.0
 10
10.1053263543
 20
6.8294963346
 30
0.0
 10
10.1053263543
 20
6.8088859232
 30
0.0
  0
SPLINE
  5
34B
100
AcDbEntity
  8
0
100
AcDbSpline
 62
7
  6
CONTINUOUS
 70
0
 71
3
 72
54
 73
50
 74
0
 42
0.0000001
 43
0.0000001
 44
0.0000000001
 40
0.0
 40
0.0
 40
0.0
 40
0.0
 40
0.0149714207
 40
0.0299459009
 40
0.0449264795
 40
0.0599161607
 40
0.0749178924
 40
0.0899345474
 40
0.1049689109
 40
0.1200236599
 40
0.135101347
 40
0.1502043904
 40
0.1653350555
 40
0.1804954423
 40
0.195687479
 40
0.210912906
 40
0.2261732683
 40
0.2414699124
 40
0.2568039734
 40
0.2721763729
 40
0.2875878193
 40
0.3030387972
 40
0.3185295728
 40
0.3340601946
 40
0.3496304877
 40
0.3652400644
 40
0.3808883259
 40
0.3965744612
 40
0.4122974619
 40
0.4280561242
 40
0.4438490534
 40
0.4596746808
 40
0.4914119437
 40
0.5232571513
 40
0.5551923202
 40
0.587197651
 40
0.6192519366
 40
0.651332993
 40
0.6834181045
 40
0.7154844744
 40
0.7475096792
 40
0.7794721147
 40
0.8113514322
 40
0.8431289588
 40
0.8747880885
 40
0.9063146442
 40
0.9376972366
 40
0.9689272309
 40
1.0
 40
1.0
 40
1.0
 40
1.0
 10
10.6073388754
 20
9.525198454
 30
0.0
 10
10.6144814069
 20
9.5320976162
 30
0.0
 10
10.6290438656
 20
9.5456149401
 30
0.0
 10
10.6516784932
 20
9.5650089833
 30
0.0
 10
10.6750752439
 20
9.5834967589
 30
0.0
 10
10.699201445
 20
9.6010524427
 30
0.0
 10
10.7240240903
 20
9.6176518828
 30
0.0
 10
10.7495089184
 20
9.6332723032
 30
0.0
 10
10.7756208595
 20
9.6478922439
 30
0.0
 10
10.8023240329
 20
9.6614914842
 30
0.0
 10
10.8295816246
 20
9.6740514458
 30
0.0
 10
10.85735614
 20
9.6855548392
 30
0.0
 10
10.8856093901
 20
9.6959857633
 30
0.0
 10
10.9143024467
 20
9.7053300194
 30
0.0
 10
10.9433958545
 20
9.7135747087
 30
0.0
 10
10.9728495939
 20
9.7207084562
 30
0.0
 10
11.0026231122
 20
9.726721601
 30
0.0
 10
11.032675473
 20
9.7316057964
 30
0.0
 10
11.0629653317
 20
9.7353543391
 30
0.0
 10
11.0934510135
 20
9.7379622093
 30
0.0
 10
11.1240905998
 20
9.7394257207
 30
0.0
 10
11.1548419442
 20
9.7397429236
 30
0.0
 10
11.1856627602
 20
9.7389134874
 30
0.0
 10
11.2165106603
 20
9.7369384404
 30
0.0
 10
11.247343228
 20
9.7338206034
 30
0.0
 10
11.278118078
 20
9.7295643294
 30
0.0
 10
11.3087928795
 20
9.7241753592
 30
0.0
 10
11.3393254677
 20
9.7176612406
 30
0.0
 10
11.3696739054
 20
9.7100309356
 30
0.0
 10
11.3997963177
 20
9.7012948991
 30
0.0
 10
11.4296517918
 20
9.6914650751
 30
0.0
 10
11.4690807676
 20
9.6769065235
 30
0.0
 10
11.5174932694
 20
9.6560373193
 30
0.0
 10
11.5738087724
 20
9.6268991354
 30
0.0
 10
11.6281004001
 20
9.5937989214
 30
0.0
 10
11.6800682231
 20
9.5569193005
 30
0.0
 10
11.7294276282
 20
9.5164626962
 30
0.0
 10
11.7759076724
 20
9.4726513953
 30
0.0
 10
11.8192532983
 20
9.4257258787
 30
0.0
 10
11.8592265003
 20
9.3759436535
 30
0.0
 10
11.895607844
 20
9.3235779557
 30
0.0
 10
11.9281974807
 20
9.268916124
 30
0.0
 10
11.9568161989
 20
9.2122580387
 30
0.0
 10
11.9813065912
 20
9.1539146417
 30
0.0
 10
12.0015338316
 20
9.0942060399
 30
0.0
 10
12.0173863217
 20
9.0334602489
 30
0.0
 10
12.0287763038
 20
8.9720096795
 30
0.0
 10
12.0356408499
 20
8.9101961502
 30
0.0
 10
12.0371783517
 20
8.8688551814
 30
0.0
 10
12.0371783517
 20
8.8482447701
 30
0.0
  0
SPLINE
  5
34C
100
AcDbEntity
  8
0
100
AcDbSpline
 62
7
  6
CONTINUOUS
 70
0
 71
3
 72
52
 73
48
 74
0
 42
0.0000001
 43
0.0000001
 44
0.0000000001
 40
0.0
 40
0.0
 40
0.0
 40
0.0
 40
0.0063158568
 40
0.0126706178
 40
0.0191024266
 40
0.0256479345
 40
0.0323417789
 40
0.0392160908
 40
0.0536138298
 40
0.0611945069
 40
0.0690562056
 40
0.0772172859
 40
0.0856936163
 40
0.094498959
 40
0.1036450353
 40
0.1131417384
 40
0.1229974561
 40
0.1332190303
 40
0.1438120572
 40
0.1547810415
 40
0.1661293353
 40
0.1778594655
 40
0.1899731041
 40
0.2024710934
 40
0.2153537091
 40
0.2286205088
 40
0.2422704818
 40
0.2563021821
 40
0.2707135511
 40
0.3006644045
 40
0.3320995118
 40
0.364988637
 40
0.399296387
 40
0.4349827261
 40
0.4720035166
 40
0.5103109065
 40
0.549853604
 40
0.5905771631
 40
0.632424299
 40
0.6753351168
 40
0.7192472758
 40
0.7640961515
 40
0.8098152405
 40
0.8563361104
 40
0.9035880427
 40
0.9515014724
 40
1.0
 40
1.0
 40
1.0
 40
1.0
 10
14.3858285796
 20
6.2493320238
 30
0.0
 10
14.3842229004
 20
6.2494433741
 30
0.0
 10
14.3810092378
 20
6.2497981726
 30
0.0
 10
14.3762247522
 20
6.2507229917
 30
0.0
 10
14.3714722608
 20
6.2520404442
 30
0.0
 10
14.366754512
 20
6.2537493845
 30
0.0
 10
14.3620733882
 20
6.2558489228
 30
0.0
 10
14.3557878952
 20
6.2592182604
 30
0.0
 10
14.3496730822
 20
6.2633428314
 30
0.0
 10
14.3437555119
 20
6.2681225817
 30
0.0
 10
14.339285736
 20
6.2721524684
 30
0.0
 10
14.334863721
 20
6.2765632169
 30
0.0
 10
14.3304905103
 20
6.2813531986
 30
0.0
 10
14.3261679448
 20
6.286520393
 30
0.0
 10
14.3218976055
 20
6.2920626886
 30
0.0
 10
14.3176810855
 20
6.2979777885
 30
0.0
 10
14.3135201073
 20
6.30426335
 30
0.0
 10
14.3094162412
 20
6.3109167826
 30
0.0
 10
14.3053711146
 20
6.3179353934
 30
0.0
 10
14.3013864093
 20
6.3253163628
 30
0.0
 10
14.2974636471
 20
6.3330566518
 30
0.0
 10
14.293604465
 20
6.341153131
 30
0.0
 10
14.289810446
 20
6.3496025011
 30
0.0
 10
14.2860830757
 20
6.3584012899
 30
0.0
 10
14.2824239524
 20
6.3675459228
 30
0.0
 10
14.2788345399
 20
6.3770326423
 30
0.0
 10
14.275316298
 20
6.3868575516
 30
0.0
 10
14.271870714
 20
6.3970166506
 30
0.0
 10
14.2673168041
 20
6.4111844212
 30
0.0
 10
14.2618296966
 20
6.4297080106
 30
0.0
 10
14.2556384647
 20
6.4529243781
 30
0.0
 10
14.2497691551
 20
6.4773674074
 30
0.0
 10
14.2442315257
 20
6.5029968788
 30
0.0
 10
14.2390347769
 20
6.5297707892
 30
0.0
 10
14.2341875636
 20
6.5576451332
 30
0.0
 10
14.2296979778
 20
6.5865740819
 30
0.0
 10
14.2255735037
 20
6.6165100209
 30
0.0
 10
14.221820998
 20
6.6474036417
 30
0.0
 10
14.2184467155
 20
6.6792040444
 30
0.0
 10
14.2154562961
 20
6.7118588251
 30
0.0
 10
14.2128547219
 20
6.7453141392
 30
0.0
 10
14.2106463117
 20
6.779514826
 30
0.0
 10
14.2088347577
 20
6.8144044944
 30
0.0
 10
14.2074231126
 20
6.8499254696
 30
0.0
 10
14.2064136713
 20
6.8860195512
 30
0.0
 10
14.2058082191
 20
6.9226266486
 30
0.0
 10
14.2056752621
 20
6.9471965361
 30
0.0
 10
14.2056752621
 20
6.9595559207
 30
0.0
  0
SPLINE
  5
34D
100
AcDbEntity
  8
0
100
AcDbSpline
 62
7
  6
CONTINUOUS
 70
0
 71
3
 72
35
 73
31
 74
0
 42
0.0000001
 43
0.0000001
 44
0.0000000001
 40
0.0
 40
0.0
 40
0.0
 40
0.0
 40
0.0162143005
 40
0.0334272483
 40
0.0516715468
 40
0.0709705622
 40
0.0913399977
 40
0.1127890138
 40
0.1353212065
 40
0.1589354951
 40
0.1836265646
 40
0.2093856648
 40
0.2362006653
 40
0.264056835
 40
0.2929366383
 40
0.3228205032
 40
0.3536864742
 40
0.3855109381
 40
0.4182682379
 40
0.4519313083
 40
0.4864713366
 40
0.5218582648
 40
0.5580605503
 40
0.5950455243
 40
0.6327792844
 40
0.6712268569
 40
0.7501174568
 40
0.8314198091
 40
0.9148214267
 40
1.0
 40
1.0
 40
1.0
 40
1.0
 10
14.3327178273
 20
6.55646023
 30
0.0
 10
14.3310504464
 20
6.5585103482
 30
0.0
 10
14.3277533361
 20
6.562852334
 30
0.0
 10
14.3230512465
 20
6.5698432034
 30
0.0
 10
14.3184525539
 20
6.5774952082
 30
0.0
 10
14.3139619369
 20
6.5858002234
 30
0.0
 10
14.309583762
 20
6.5947499552
 30
0.0
 10
14.3053224802
 20
6.6043352353
 30
0.0
 10
14.3011824302
 20
6.6145462231
 30
0.0
 10
14.2971679551
 20
6.6253723822
 30
0.0
 10
14.2932831823
 20
6.6368024738
 30
0.0
 10
14.2895322743
 20
6.6488246155
 30
0.0
 10
14.2859190885
 20
6.6614262507
 30
0.0
 10
14.2824475466
 20
6.6745942119
 30
0.0
 10
14.2791212107
 20
6.6883146991
 30
0.0
 10
14.2759437168
 20
6.7025733282
 30
0.0
 10
14.2729183205
 20
6.7173551275
 30
0.0
 10
14.2700483367
 20
6.7326445671
 30
0.0
 10
14.2673367093
 20
6.7484255745
 30
0.0
 10
14.2647864037
 20
6.7646815484
 30
0.0
 10
14.2624000476
 20
6.7813953875
 30
0.0
 10
14.2601802366
 20
6.7985494947
 30
0.0
 10
14.2581292738
 20
6.8161258147
 30
0.0
 10
14.2562493751
 20
6.8341058321
 30
0.0
 10
14.2545424941
 20
6.8524706315
 30
0.0
 10
14.2524822083
 20
6.877660158
 30
0.0
 10
14.2503634864
 20
6.9099672036
 30
0.0
 10
14.2485564259
 20
6.9496288863
 30
0.0
 10
14.247471462
 20
6.9903418596
 30
0.0
 10
14.2472349051
 20
7.0178172781
 30
0.0
 10
14.2472349051
 20
7.0316994572
 30
0.0
  0
SPLINE
  5
34E
100
AcDbEntity
  8
0
100
AcDbSpline
 62
7
  6
CONTINUOUS
 70
0
 71
3
 72
48
 73
44
 74
0
 42
0.0000001
 43
0.0000001
 44
0.0000000001
 40
0.0
 40
0.0
 40
0.0
 40
0.0
 40
0.007062849
 40
0.0144558391
 40
0.0221882065
 40
0.0302671694
 40
0.0386983877
 40
0.0474859097
 40
0.0566325674
 40
0.0661400513
 40
0.0760089535
 40
0.0862390982
 40
0.0968293618
 40
0.107777976
 40
0.1190825094
 40
0.1307398472
 40
0.1427464531
 40
0.1550981465
 40
0.1677903603
 40
0.1808180851
 40
0.2078572843
 40
0.2361684294
 40
0.2656981455
 40
0.2963882189
 40
0.3281760764
 40
0.3609952468
 40
0.3947757451
 40
0.4294444153
 40
0.4649252406
 40
0.5011396359
 40
0.5380067617
 40
0.5754438046
 40
0.6133662462
 40
0.6516881232
 40
0.6903222903
 40
0.7291806907
 40
0.7681746301
 40
0.8072150005
 40
0.8462125538
 40
0.8850783277
 40
0.9237230016
 40
0.9620600716
 40
1.0
 40
1.0
 40
1.0
 40
1.0
 10
14.4222809408
 20
7.8479224239
 30
0.0
 10
14.4208205438
 20
7.8465632481
 30
0.0
 10
14.4179012585
 20
7.8437056444
 30
0.0
 10
14.4136227821
 20
7.8391232901
 30
0.0
 10
14.4093489638
 20
7.8341515766
 30
0.0
 10
14.4050823254
 20
7.8287936683
 30
0.0
 10
14.4008254158
 20
7.8230526438
 30
0.0
 10
14.3965806627
 20
7.8169319985
 30
0.0
 10
14.3923506213
 20
7.8104353641
 30
0.0
 10
14.388137848
 20
7.803566627
 30
0.0
 10
14.383944797
 20
7.7963299473
 30
0.0
 10
14.3797740977
 20
7.7887296411
 30
0.0
 10
14.3756281913
 20
7.7807703292
 30
0.0
 10
14.3715096292
 20
7.7724568066
 30
0.0
 10
14.3674209349
 20
7.7637940994
 30
0.0
 10
14.3633645294
 20
7.7547874754
 30
0.0
 10
14.3593429691
 20
7.7454423707
 30
0.0
 10
14.3553586365
 20
7.7357644816
 30
0.0
 10
14.3514139719
 20
7.7257596665
 30
0.0
 10
14.3461451922
 20
7.7118189453
 30
0.0
 10
14.3396872212
 20
7.6936134923
 30
0.0
 10
14.3322262419
 20
7.6708258867
 30
0.0
 10
14.3249792124
 20
7.6468898754
 30
0.0
 10
14.3179639001
 20
7.6218636899
 30
0.0
 10
14.3111974916
 20
7.5958080874
 30
0.0
 10
14.3046965662
 20
7.5687864332
 30
0.0
 10
14.2984770494
 20
7.5408644574
 30
0.0
 10
14.2925541763
 20
7.5121101113
 30
0.0
 10
14.2869424526
 20
7.4825933989
 30
0.0
 10
14.2816556026
 20
7.4523862066
 30
0.0
 10
14.2767065572
 20
7.4215621156
 30
0.0
 10
14.2721074195
 20
7.3901962158
 30
0.0
 10
14.2678694372
 20
7.3583649237
 30
0.0
 10
14.2640029735
 20
7.3261457991
 30
0.0
 10
14.2605174664
 20
7.293617357
 30
0.0
 10
14.2574214231
 20
7.2608588667
 30
0.0
 10
14.2547224013
 20
7.2279501611
 30
0.0
 10
14.2524269888
 20
7.1949714445
 30
0.0
 10
14.2505407785
 20
7.1620030529
 30
0.0
 10
14.2490683843
 20
7.1291254685
 30
0.0
 10
14.2480133116
 20
7.0964184777
 30
0.0
 10
14.2473782188
 20
7.0639622465
 30
0.0
 10
14.2472349051
 20
7.0424162435
 30
0.0
 10
14.2472349051
 20
7.0316994572
 30
0.0
  0
SPLINE
  5
34F
100
AcDbEntity
  8
0
100
AcDbSpline
 62
7
  6
CONTINUOUS
 70
0
 71
3
 72
52
 73
48
 74
0
 42
0.0000001
 43
0.0000001
 44
0.0000000001
 40
0.0
 40
0.0
 40
0.0
 40
0.0
 40
0.0063158568
 40
0.0126706178
 40
0.0191024266
 40
0.0256479345
 40
0.0323417789
 40
0.0392160908
 40
0.0536138298
 40
0.0611945069
 40
0.0690562056
 40
0.0772172859
 40
0.0856936163
 40
0.094498959
 40
0.1036450353
 40
0.1131417384
 40
0.1229974561
 40
0.1332190303
 40
0.1438120572
 40
0.1547810415
 40
0.1661293353
 40
0.1778594655
 40
0.1899731041
 40
0.2024710934
 40
0.2153537091
 40
0.2286205088
 40
0.2422704818
 40
0.2563021821
 40
0.2707135511
 40
0.3006644045
 40
0.3320995118
 40
0.364988637
 40
0.399296387
 40
0.4349827261
 40
0.4720035166
 40
0.5103109065
 40
0.549853604
 40
0.5905771631
 40
0.632424299
 40
0.6753351168
 40
0.7192472758
 40
0.7640961515
 40
0.8098152405
 40
0.8563361104
 40
0.9035880427
 40
0.9515014724
 40
1.0
 40
1.0
 40
1.0
 40
1.0
 10
14.3858285796
 20
9.3885911453
 30
0.0
 10
14.3842229004
 20
9.3887024956
 30
0.0
 10
14.3810092378
 20
9.3890572941
 30
0.0
 10
14.3762247522
 20
9.3899821131
 30
0.0
 10
14.3714722608
 20
9.3912995657
 30
0.0
 10
14.366754512
 20
9.393008506
 30
0.0
 10
14.3620733882
 20
9.3951080443
 30
0.0
 10
14.3557878952
 20
9.3984773818
 30
0.0
 10
14.3496730822
 20
9.4026019528
 30
0.0
 10
14.3437555119
 20
9.4073817031
 30
0.0
 10
14.339285736
 20
9.4114115898
 30
0.0
 10
14.334863721
 20
9.4158223383
 30
0.0
 10
14.3304905103
 20
9.4206123201
 30
0.0
 10
14.3261679448
 20
9.4257795145
 30
0.0
 10
14.3218976055
 20
9.43132181
 30
0.0
 10
14.3176810855
 20
9.4372369099
 30
0.0
 10
14.3135201073
 20
9.4435224714
 30
0.0
 10
14.3094162412
 20
9.450175904
 30
0.0
 10
14.3053711146
 20
9.4571945148
 30
0.0
 10
14.3013864093
 20
9.4645754842
 30
0.0
 10
14.2974636471
 20
9.4723157732
 30
0.0
 10
14.293604465
 20
9.4804122524
 30
0.0
 10
14.289810446
 20
9.4888616225
 30
0.0
 10
14.2860830757
 20
9.4976604114
 30
0.0
 10
14.2824239524
 20
9.5068050442
 30
0.0
 10
14.2788345399
 20
9.5162917637
 30
0.0
 10
14.275316298
 20
9.5261166731
 30
0.0
 10
14.271870714
 20
9.536275772
 30
0.0
 10
14.2673168041
 20
9.5504435426
 30
0.0
 10
14.2618296966
 20
9.5689671321
 30
0.0
 10
14.2556384647
 20
9.5921834996
 30
0.0
 10
14.2497691551
 20
9.6166265288
 30
0.0
 10
14.2442315257
 20
9.6422560003
 30
0.0
 10
14.2390347769
 20
9.6690299107
 30
0.0
 10
14.2341875636
 20
9.6969042546
 30
0.0
 10
14.2296979778
 20
9.7258332034
 30
0.0
 10
14.2255735037
 20
9.7557691423
 30
0.0
 10
14.221820998
 20
9.7866627631
 30
0.0
 10
14.2184467155
 20
9.8184631658
 30
0.0
 10
14.2154562961
 20
9.8511179466
 30
0.0
 10
14.2128547219
 20
9.8845732606
 30
0.0
 10
14.2106463117
 20
9.9187739475
 30
0.0
 10
14.2088347577
 20
9.9536636158
 30
0.0
 10
14.2074231126
 20
9.9891845911
 30
0.0
 10
14.2064136713
 20
10.0252786727
 30
0.0
 10
14.2058082191
 20
10.06188577
 30
0.0
 10
14.2056752621
 20
10.0864556575
 30
0.0
 10
14.2056752621
 20
10.0988150422
 30
0.0
  0
SPLINE
  5
350
100
AcDbEntity
  8
0
100
AcDbSpline
 62
7
  6
CONTINUOUS
 70
0
 71
3
 72
35
 73
31
 74
0
 42
0.0000001
 43
0.0000001
 44
0.0000000001
 40
0.0
 40
0.0
 40
0.0
 40
0.0
 40
0.0162143005
 40
0.0334272483
 40
0.0516715468
 40
0.0709705622
 40
0.0913399977
 40
0.1127890138
 40
0.1353212065
 40
0.1589354951
 40
0.1836265646
 40
0.2093856648
 40
0.2362006653
 40
0.264056835
 40
0.2929366383
 40
0.3228205032
 40
0.3536864742
 40
0.3855109381
 40
0.4182682379
 40
0.4519313083
 40
0.4864713366
 40
0.5218582648
 40
0.5580605503
 40
0.5950455243
 40
0.6327792844
 40
0.6712268569
 40
0.7501174568
 40
0.8314198091
 40
0.9148214267
 40
1.0
 40
1.0
 40
1.0
 40
1.0
 10
14.3327178273
 20
9.6957193514
 30
0.0
 10
14.3310504464
 20
9.6977694697
 30
0.0
 10
14.3277533361
 20
9.7021114554
 30
0.0
 10
14.3230512465
 20
9.7091023248
 30
0.0
 10
14.3184525539
 20
9.7167543296
 30
0.0
 10
14.3139619369
 20
9.7250593448
 30
0.0
 10
14.309583762
 20
9.7340090767
 30
0.0
 10
14.3053224802
 20
9.7435943567
 30
0.0
 10
14.3011824302
 20
9.7538053445
 30
0.0
 10
14.2971679551
 20
9.7646315036
 30
0.0
 10
14.2932831823
 20
9.7760615953
 30
0.0
 10
14.2895322743
 20
9.7880837369
 30
0.0
 10
14.2859190885
 20
9.8006853721
 30
0.0
 10
14.2824475466
 20
9.8138533333
 30
0.0
 10
14.2791212107
 20
9.8275738206
 30
0.0
 10
14.2759437168
 20
9.8418324497
 30
0.0
 10
14.2729183205
 20
9.8566142489
 30
0.0
 10
14.2700483367
 20
9.8719036885
 30
0.0
 10
14.2673367093
 20
9.887684696
 30
0.0
 10
14.2647864037
 20
9.9039406698
 30
0.0
 10
14.2624000476
 20
9.920654509
 30
0.0
 10
14.2601802366
 20
9.9378086161
 30
0.0
 10
14.2581292738
 20
9.9553849362
 30
0.0
 10
14.2562493751
 20
9.9733649536
 30
0.0
 10
14.2545424941
 20
9.9917297529
 30
0.0
 10
14.2524822083
 20
10.0169192795
 30
0.0
 10
14.2503634864
 20
10.0492263251
 30
0.0
 10
14.2485564259
 20
10.0888880077
 30
0.0
 10
14.247471462
 20
10.1296009811
 30
0.0
 10
14.2472349051
 20
10.1570763995
 30
0.0
 10
14.2472349051
 20
10.1709585787
 30
0.0
  0
SPLINE
  5
351
100
AcDbEntity
  8
0
100
AcDbSpline
 62
7
  6
CONTINUOUS
 70
0
 71
3
 72
48
 73
44
 74
0
 42
0.0000001
 43
0.0000001
 44
0.0000000001
 40
0.0
 40
0.0
 40
0.0
 40
0.0
 40
0.007062849
 40
0.0144558391
 40
0.0221882065
 40
0.0302671694
 40
0.0386983877
 40
0.0474859097
 40
0.0566325674
 40
0.0661400513
 40
0.0760089535
 40
0.0862390982
 40
0.0968293618
 40
0.107777976
 40
0.1190825094
 40
0.1307398472
 40
0.1427464531
 40
0.1550981465
 40
0.1677903603
 40
0.1808180851
 40
0.2078572843
 40
0.2361684294
 40
0.2656981455
 40
0.2963882189
 40
0.3281760764
 40
0.3609952468
 40
0.3947757451
 40
0.4294444153
 40
0.4649252406
 40
0.5011396359
 40
0.5380067617
 40
0.5754438046
 40
0.6133662462
 40
0.6516881232
 40
0.6903222903
 40
0.7291806907
 40
0.7681746301
 40
0.8072150005
 40
0.8462125538
 40
0.8850783277
 40
0.9237230016
 40
0.9620600716
 40
1.0
 40
1.0
 40
1.0
 40
1.0
 10
14.4222809408
 20
10.9871815453
 30
0.0
 10
14.4208205438
 20
10.9858223695
 30
0.0
 10
14.4179012585
 20
10.9829647658
 30
0.0
 10
14.4136227821
 20
10.9783824116
 30
0.0
 10
14.4093489638
 20
10.9734106981
 30
0.0
 10
14.4050823254
 20
10.9680527897
 30
0.0
 10
14.4008254158
 20
10.9623117653
 30
0.0
 10
14.3965806627
 20
10.95619112
 30
0.0
 10
14.3923506213
 20
10.9496944855
 30
0.0
 10
14.388137848
 20
10.9428257484
 30
0.0
 10
14.383944797
 20
10.9355890687
 30
0.0
 10
14.3797740977
 20
10.9279887626
 30
0.0
 10
14.3756281913
 20
10.9200294507
 30
0.0
 10
14.3715096292
 20
10.911715928
 30
0.0
 10
14.3674209349
 20
10.9030532208
 30
0.0
 10
14.3633645294
 20
10.8940465968
 30
0.0
 10
14.3593429691
 20
10.8847014922
 30
0.0
 10
14.3553586365
 20
10.875023603
 30
0.0
 10
14.3514139719
 20
10.8650187879
 30
0.0
 10
14.3461451922
 20
10.8510780667
 30
0.0
 10
14.3396872212
 20
10.8328726138
 30
0.0
 10
14.3322262419
 20
10.8100850082
 30
0.0
 10
14.3249792124
 20
10.7861489969
 30
0.0
 10
14.3179639001
 20
10.7611228113
 30
0.0
 10
14.3111974916
 20
10.7350672088
 30
0.0
 10
14.3046965662
 20
10.7080455547
 30
0.0
 10
14.2984770494
 20
10.6801235789
 30
0.0
 10
14.2925541763
 20
10.6513692327
 30
0.0
 10
14.2869424526
 20
10.6218525203
 30
0.0
 10
14.2816556026
 20
10.5916453281
 30
0.0
 10
14.2767065572
 20
10.5608212371
 30
0.0
 10
14.2721074195
 20
10.5294553373
 30
0.0
 10
14.2678694372
 20
10.4976240451
 30
0.0
 10
14.2640029735
 20
10.4654049205
 30
0.0
 10
14.2605174664
 20
10.4328764785
 30
0.0
 10
14.2574214231
 20
10.4001179882
 30
0.0
 10
14.2547224013
 20
10.3672092825
 30
0.0
 10
14.2524269888
 20
10.334230566
 30
0.0
 10
14.2505407785
 20
10.3012621743
 30
0.0
 10
14.2490683843
 20
10.2683845899
 30
0.0
 10
14.2480133116
 20
10.2356775991
 30
0.0
 10
14.2473782188
 20
10.203221368
 30
0.0
 10
14.2472349051
 20
10.181675365
 30
0.0
 10
14.2472349051
 20
10.1709585787
 30
0.0
  0
SPLINE
  5
352
100
AcDbEntity
  8
0
100
AcDbSpline
 62
7
  6
CONTINUOUS
 70
0
 71
3
 72
20
 73
16
 74
0
 42
0.0000001
 43
0.0000001
 44
0.0000000001
 40
0.0
 40
0.0
 40
0.0
 40
0.0
 40
0.1421148422
 40
0.2771284766
 40
0.4059771113
 40
0.4684433053
 40
0.5297879893
 40
0.5901668743
 40
0.6497440003
 40
0.7086885161
 40
0.7671729213
 40
0.825373928
 40
0.8834669959
 40
0.9416202636
 40
1.0
 40
1.0
 40
1.0
 40
1.0
 10
11.2871343903
 20
8.8872226224
 30
0.0
 10
11.2871344713
 20
8.8845279695
 30
0.0
 10
11.2869545938
 20
8.8792706001
 30
0.0
 10
11.2860812291
 20
8.8716141125
 30
0.0
 10
11.2848367602
 20
8.8655428043
 30
0.0
 10
11.2835312032
 20
8.8609316459
 30
0.0
 10
11.282410459
 20
8.8576222338
 30
0.0
 10
11.2811380544
 20
8.8544269896
 30
0.0
 10
11.2797138858
 20
8.8513464115
 30
0.0
 10
11.2781380913
 20
8.8483811295
 30
0.0
 10
11.2764110072
 20
8.8455317526
 30
0.0
 10
11.2745330149
 20
8.8427990396
 30
0.0
 10
11.2725047212
 20
8.8401838447
 30
0.0
 10
11.2703271917
 20
8.8376871967
 30
0.0
 10
11.2687809124
 20
8.8361068291
 30
0.0
 10
11.2679847381
 20
8.8353377837
 30
0.0
  0
SPLINE
  5
353
100
AcDbEntity
  8
0
100
AcDbSpline
 62
7
  6
CONTINUOUS
 70
0
 71
3
 72
57
 73
53
 74
0
 42
0.0000001
 43
0.0000001
 44
0.0000000001
 40
0.0
 40
0.0
 40
0.0
 40
0.0
 40
0.0532127087
 40
0.1056336001
 40
0.1571441482
 40
0.2076344014
 40
0.2569942499
 40
0.3051180993
 40
0.3519040583
 40
0.3972545148
 40
0.4410766457
 40
0.4832828669
 40
0.5237914618
 40
0.5625272517
 40
0.5994223212
 40
0.6171610544
 40
0.6344179693
 40
0.6511870155
 40
0.6674629807
 40
0.6832411894
 40
0.6985179104
 40
0.713290241
 40
0.7275561438
 40
0.7413148193
 40
0.7545664441
 40
0.7673126385
 40
0.7795564798
 40
0.7913025977
 40
0.8025576998
 40
0.8133304593
 40
0.823632115
 40
0.8334767229
 40
0.8428814315
 40
0.8518672155
 40
0.8604590208
 40
0.8686864633
 40
0.8765841999
 40
0.8841921305
 40
0.8915557174
 40
0.8987255866
 40
0.9057570652
 40
0.9127091257
 40
0.9196429401
 40
0.9266202119
 40
0.9337014097
 40
0.9409441657
 40
0.9484019599
 40
0.9641403262
 40
0.9725130778
 40
0.9812629159
 40
0.9904174403
 40
1.0
 40
1.0
 40
1.0
 40
1.0
 10
14.5940521394
 20
7.3666992006
 30
0.0
 10
14.5940521394
 20
7.3771543006
 30
0.0
 10
14.5939174602
 20
7.397909204
 30
0.0
 10
14.5933027043
 20
7.4287792864
 30
0.0
 10
14.5922779774
 20
7.4591033847
 30
0.0
 10
14.590845878
 20
7.4888089132
 30
0.0
 10
14.589009795
 20
7.517825578
 30
0.0
 10
14.5867741884
 20
7.54608426
 30
0.0
 10
14.5841444599
 20
7.5735178372
 30
0.0
 10
14.5811269582
 20
7.6000611378
 30
0.0
 10
14.577728968
 20
7.6256511352
 30
0.0
 10
14.573958677
 20
7.6502270899
 30
0.0
 10
14.5698251885
 20
7.6737307912
 30
0.0
 10
14.5653384545
 20
7.6961064348
 30
0.0
 10
14.5612626604
 20
7.7139956106
 30
0.0
 10
14.5578227274
 20
7.7276957162
 30
0.0
 10
14.5551951134
 20
7.7375214718
 30
0.0
 10
14.5524875429
 20
7.7470270284
 30
0.0
 10
14.5497016891
 20
7.756206779
 30
0.0
 10
14.5468391382
 20
7.7650552747
 30
0.0
 10
14.5439016306
 20
7.7735672893
 30
0.0
 10
14.5408909294
 20
7.7817378013
 30
0.0
 10
14.5378087444
 20
7.7895619721
 30
0.0
 10
14.5346569947
 20
7.7970352214
 30
0.0
 10
14.5314374512
 20
7.8041531363
 30
0.0
 10
14.5281520318
 20
7.8109115522
 30
0.0
 10
14.5248026822
 20
7.8173065349
 30
0.0
 10
14.5213912407
 20
7.8233343156
 30
0.0
 10
14.5179197662
 20
7.8289914406
 30
0.0
 10
14.5143901241
 20
7.8342745899
 30
0.0
 10
14.5108042889
 20
7.8391807063
 30
0.0
 10
14.5071642524
 20
7.8437069762
 30
0.0
 10
14.5034718271
 20
7.8478506621
 30
0.0
 10
14.4997290333
 20
7.8516093776
 30
0.0
 10
14.4959376674
 20
7.8549807301
 30
0.0
 10
14.4920996203
 20
7.8579625051
 30
0.0
 10
14.4882168563
 20
7.8605526546
 30
0.0
 10
14.4842912782
 20
7.8627489624
 30
0.0
 10
14.480325162
 20
7.8645495815
 30
0.0
 10
14.4763208909
 20
7.8659525359
 30
0.0
 10
14.472281259
 20
7.8669561617
 30
0.0
 10
14.4682094013
 20
7.8675593174
 30
0.0
 10
14.4641086742
 20
7.8677610681
 30
0.0
 10
14.4599825543
 20
7.8675614913
 30
0.0
 10
14.4558344835
 20
7.8669610162
 30
0.0
 10
14.4516673936
 20
7.8659605258
 30
0.0
 10
14.4459896573
 20
7.8640619485
 30
0.0
 10
14.4403717017
 20
7.8613664737
 30
0.0
 10
14.4348649136
 20
7.8579908571
 30
0.0
 10
14.4306415776
 20
7.8550148008
 30
0.0
 10
14.4264143488
 20
7.851649641
 30
0.0
 10
14.4236591568
 20
7.8492051148
 30
0.0
 10
14.4222809408
 20
7.8479224239
 30
0.0
  0
SPLINE
  5
354
100
AcDbEntity
  8
0
100
AcDbSpline
 62
7
  6
CONTINUOUS
 70
0
 71
3
 72
49
 73
45
 74
0
 42
0.0000001
 43
0.0000001
 44
0.0000000001
 40
0.0
 40
0.0
 40
0.0
 40
0.0
 40
0.0484977591
 40
0.0964124095
 40
0.1436644782
 40
0.1901851275
 40
0.2359045137
 40
0.2807535295
 40
0.3246657516
 40
0.3675767279
 40
0.4094239822
 40
0.4501476548
 40
0.489690486
 40
0.527997965
 40
0.565018896
 40
0.6007053598
 40
0.6350131765
 40
0.6679024476
 40
0.6993376667
 40
0.7292885995
 40
0.7577308847
 40
0.7846466668
 40
0.8100260987
 40
0.8221397633
 40
0.8338699797
 40
0.8452183077
 40
0.8561873037
 40
0.8667804243
 40
0.8770020292
 40
0.8868577551
 40
0.8963545465
 40
0.9055006518
 40
0.9143060078
 40
0.9227824095
 40
0.9309435203
 40
0.9388052391
 40
0.9463859654
 40
0.9607837612
 40
0.9676581026
 40
0.974351983
 40
0.9808975113
 40
0.9873293386
 40
0.9936841261
 40
1.0
 40
1.0
 40
1.0
 40
1.0
 10
14.5083200093
 20
7.3538883171
 30
0.0
 10
14.5083200093
 20
7.361694092
 30
0.0
 10
14.5082360225
 20
7.3772119316
 30
0.0
 10
14.5078536529
 20
7.400332214
 30
0.0
 10
14.507216114
 20
7.4231285759
 30
0.0
 10
14.5063245228
 20
7.445562827
 30
0.0
 10
14.505180411
 20
7.4675983624
 30
0.0
 10
14.5037856264
 20
7.4891987978
 30
0.0
 10
14.5021425135
 20
7.5103284493
 30
0.0
 10
14.5002538473
 20
7.530952502
 30
0.0
 10
14.4981227194
 20
7.5510369555
 30
0.0
 10
14.4957527174
 20
7.5705487029
 30
0.0
 10
14.4931478016
 20
7.5894555981
 30
0.0
 10
14.4903122622
 20
7.6077265019
 30
0.0
 10
14.4872508817
 20
7.6253313456
 30
0.0
 10
14.4839687373
 20
7.6422411749
 30
0.0
 10
14.4804712699
 20
7.6584282055
 30
0.0
 10
14.4767643627
 20
7.6738658859
 30
0.0
 10
14.4728541223
 20
7.6885289338
 30
0.0
 10
14.4687470518
 20
7.7023933809
 30
0.0
 10
14.4644499831
 20
7.7154367331
 30
0.0
 10
14.4599699161
 20
7.7276376205
 30
0.0
 10
14.4560313635
 20
7.7372303615
 30
0.0
 10
14.4527858729
 20
7.7444582728
 30
0.0
 10
14.4503485044
 20
7.7495718608
 30
0.0
 10
14.4478709749
 20
7.7544604647
 30
0.0
 10
14.4453542968
 20
7.7591221218
 30
0.0
 10
14.4427995167
 20
7.7635549529
 30
0.0
 10
14.4402075983
 20
7.7677571238
 30
0.0
 10
14.4375795892
 20
7.77172694
 30
0.0
 10
14.434916563
 20
7.7754628242
 30
0.0
 10
14.432219501
 20
7.7789632244
 30
0.0
 10
14.4294894426
 20
7.782226704
 30
0.0
 10
14.4267274467
 20
7.7852519891
 30
0.0
 10
14.4239345908
 20
7.7880377294
 30
0.0
 10
14.4211115666
 20
7.7905829145
 30
0.0
 10
14.4173741784
 20
7.7936017388
 30
0.0
 10
14.4135121856
 20
7.7962067338
 30
0.0
 10
14.4095424041
 20
7.7983347478
 30
0.0
 10
14.4065859176
 20
7.7996608051
 30
0.0
 10
14.4036062862
 20
7.8007401392
 30
0.0
 10
14.4006047111
 20
7.8015722007
 30
0.0
 10
14.3975829443
 20
7.8021563576
 30
0.0
 10
14.3955532616
 20
7.8023804411
 30
0.0
 10
14.394539149
 20
7.8024507621
 30
0.0
  0
SPLINE
  5
355
100
AcDbEntity
  8
0
100
AcDbSpline
 62
7
  6
CONTINUOUS
 70
0
 71
3
 72
50
 73
46
 74
0
 42
0.0000001
 43
0.0000001
 44
0.0000000001
 40
0.0
 40
0.0
 40
0.0
 40
0.0
 40
0.0469954502
 40
0.0934575531
 40
0.1393184892
 40
0.1845179103
 40
0.2289941694
 40
0.2726870813
 40
0.3155382816
 40
0.3574908881
 40
0.3984898423
 40
0.4384819786
 40
0.4774162276
 40
0.515243841
 40
0.5519184678
 40
0.587396414
 40
0.6216369698
 40
0.6546025459
 40
0.6862590052
 40
0.7165761706
 40
0.7455281381
 40
0.7730938012
 40
0.7992576871
 40
0.8118113755
 40
0.8240118
 40
0.8358589782
 40
0.8473535694
 40
0.8584967304
 40
0.8692903138
 40
0.8797369741
 40
0.8898400668
 40
0.899603895
 40
0.9090338053
 40
0.9181361457
 40
0.9269185623
 40
0.9353900923
 40
0.943561194
 40
0.9514440772
 40
0.9590527905
 40
0.9664033051
 40
0.9735138196
 40
0.9804047896
 40
0.9870989713
 40
0.9936215546
 40
1.0
 40
1.0
 40
1.0
 40
1.0
 10
14.6665214122
 20
10.5759582684
 30
0.0
 10
14.6665214122
 20
10.5876817152
 30
0.0
 10
14.6664017301
 20
10.6109957513
 30
0.0
 10
14.6658570943
 20
10.6457463889
 30
0.0
 10
14.6649490038
 20
10.6800413022
 30
0.0
 10
14.6636788924
 20
10.7138290053
 30
0.0
 10
14.6620486512
 20
10.7470598126
 30
0.0
 10
14.660060731
 20
10.7796843299
 30
0.0
 10
14.6577180988
 20
10.8116541409
 30
0.0
 10
14.6550242635
 20
10.8429218613
 30
0.0
 10
14.6519832814
 20
10.8734411234
 30
0.0
 10
14.648599685
 20
10.9031666783
 30
0.0
 10
14.6448785321
 20
10.9320544705
 30
0.0
 10
14.6408254235
 20
10.9600617061
 30
0.0
 10
14.6364464131
 20
10.9871469039
 30
0.0
 10
14.6317480344
 20
11.0132699697
 30
0.0
 10
14.6267373548
 20
11.0383922753
 30
0.0
 10
14.621421868
 20
11.0624766961
 30
0.0
 10
14.6158094877
 20
11.0854876841
 30
0.0
 10
14.6099086334
 20
11.1073913285
 30
0.0
 10
14.603728108
 20
11.1281555007
 30
0.0
 10
14.5972770661
 20
11.1477495227
 30
0.0
 10
14.591608358
 20
11.1632861159
 30
0.0
 10
14.5869344483
 20
11.1750975627
 30
0.0
 10
14.5834157343
 20
11.1835234669
 30
0.0
 10
14.5798366623
 20
11.1916359832
 30
0.0
 10
14.5761985822
 20
11.1994321682
 30
0.0
 10
14.572502794
 20
11.2069091379
 30
0.0
 10
14.5687506288
 20
11.2140641394
 30
0.0
 10
14.5649435156
 20
11.2208945832
 30
0.0
 10
14.5610827788
 20
11.2273979442
 30
0.0
 10
14.5571698032
 20
11.2335718399
 30
0.0
 10
14.5532060458
 20
11.2394140542
 30
0.0
 10
14.549192845
 20
11.2449224134
 30
0.0
 10
14.5451316178
 20
11.250094906
 30
0.0
 10
14.541023824
 20
11.2549296768
 30
0.0
 10
14.5368707965
 20
11.2594248795
 30
0.0
 10
14.532673967
 20
11.2635788482
 30
0.0
 10
14.5284347803
 20
11.2673900445
 30
0.0
 10
14.5241545719
 20
11.270856888
 30
0.0
 10
14.5198347989
 20
11.2739780012
 30
0.0
 10
14.5154769603
 20
11.2767520746
 30
0.0
 10
14.511082396
 20
11.2791777523
 30
0.0
 10
14.5066530461
 20
11.281253792
 30
0.0
 10
14.5036483077
 20
11.282415466
 30
0.0
 10
14.5021442665
 20
11.2829347503
 30
0.0
  0
SPLINE
  5
356
100
AcDbEntity
  8
0
100
AcDbSpline
 62
7
  6
CONTINUOUS
 70
0
 71
3
 72
55
 73
51
 74
0
 42
0.0000001
 43
0.0000001
 44
0.0000000001
 40
0.0
 40
0.0
 40
0.0
 40
0.0
 40
0.0407838311
 40
0.0820326686
 40
0.1236279012
 40
0.1654497689
 40
0.2073776037
 40
0.2492903816
 40
0.2910671217
 40
0.3325873457
 40
0.3737315165
 40
0.4143814862
 40
0.454420945
 40
0.4937358761
 40
0.5322150176
 40
0.5697503358
 40
0.6062375145
 40
0.6415764671
 40
0.6587855943
 40
0.6756723513
 40
0.6922256484
 40
0.7084348119
 40
0.7242895286
 40
0.7397799445
 40
0.7548966208
 40
0.7696306291
 40
0.783973522
 40
0.7979174246
 40
0.8114550253
 40
0.824579664
 40
0.8372853483
 40
0.8495668431
 40
0.8614197179
 40
0.8728404444
 40
0.8838264855
 40
0.8943764098
 40
0.904490037
 40
0.9141685866
 40
0.9234148985
 40
0.9322336404
 40
0.9406316313
 40
0.9486181395
 40
0.9562053386
 40
0.9634087253
 40
0.9702477183
 40
0.9767461817
 40
0.9829330879
 40
0.9888429891
 40
0.9945164439
 40
1.0
 40
1.0
 40
1.0
 40
1.0
 10
14.6665214122
 20
10.5759582684
 30
0.0
 10
14.6665214122
 20
10.5588684895
 30
0.0
 10
14.6662643391
 20
10.5244935774
 30
0.0
 10
14.6651271527
 20
10.4727001893
 30
0.0
 10
14.6632392676
 20
10.4204933935
 30
0.0
 10
14.6606064639
 20
10.3680340377
 30
0.0
 10
14.6572368178
 20
10.3154835218
 30
0.0
 10
14.6531406972
 20
10.2630036039
 30
0.0
 10
14.6483307175
 20
10.2107557989
 30
0.0
 10
14.6428217089
 20
10.1589009105
 30
0.0
 10
14.6366306682
 20
10.1075985232
 30
0.0
 10
14.6297767082
 20
10.0570065105
 30
0.0
 10
14.6222809991
 20
10.0072805452
 30
0.0
 10
14.6141667052
 20
9.9585736103
 30
0.0
 10
14.6054589124
 20
9.9110355414
 30
0.0
 10
14.5961845617
 20
9.8648124879
 30
0.0
 10
14.5863723349
 20
9.820046705
 30
0.0
 10
14.57769787
 20
9.7837577156
 30
0.0
 10
14.5705017957
 20
9.7555656868
 30
0.0
 10
14.5650371772
 20
9.7350571369
 30
0.0
 10
14.5594615807
 20
9.7150130675
 30
0.0
 10
14.553779318
 20
9.6954488777
 30
0.0
 10
14.5479947441
 20
9.6763796187
 30
0.0
 10
14.5421123513
 20
9.6578199486
 30
0.0
 10
14.5361366477
 20
9.6397841358
 30
0.0
 10
14.5300722692
 20
9.6222860366
 30
0.0
 10
14.5239238682
 20
9.6053390941
 30
0.0
 10
14.5176962073
 20
9.5889563169
 30
0.0
 10
14.5113940685
 20
9.5731502784
 30
0.0
 10
14.5050223232
 20
9.5579330967
 30
0.0
 10
14.4985858662
 20
9.5433164322
 30
0.0
 10
14.4920896582
 20
9.5293114708
 30
0.0
 10
14.4855386869
 20
9.5159289184
 30
0.0
 10
14.4789379791
 20
9.5031789892
 30
0.0
 10
14.4722925905
 20
9.4910713939
 30
0.0
 10
14.4656075839
 20
9.4796153381
 30
0.0
 10
14.4588880501
 20
9.4688194993
 30
0.0
 10
14.4521390459
 20
9.4586920431
 30
0.0
 10
14.4453656492
 20
9.449240583
 30
0.0
 10
14.4385728507
 20
9.4404722267
 30
0.0
 10
14.4317656442
 20
9.4323935142
 30
0.0
 10
14.4249488691
 20
9.4250105135
 30
0.0
 10
14.4181273388
 20
9.4183287354
 30
0.0
 10
14.4113056407
 20
9.4123533116
 30
0.0
 10
14.4044883285
 20
9.407088888
 30
0.0
 10
14.3976796889
 20
9.4025399187
 30
0.0
 10
14.3908841682
 20
9.3987105358
 30
0.0
 10
14.3841057986
 20
9.3956048809
 30
0.0
 10
14.3773503626
 20
9.3932270432
 30
0.0
 10
14.3727998115
 20
9.3921138236
 30
0.0
 10
14.3705420611
 20
9.3916867273
 30
0.0
  0
SPLINE
  5
357
100
AcDbEntity
  8
0
100
AcDbSpline
 62
7
  6
CONTINUOUS
 70
0
 71
3
 72
65
 73
61
 74
0
 42
0.0000001
 43
0.0000001
 44
0.0000000001
 40
0.0
 40
0.0
 40
0.0
 40
0.0
 40
0.0452101403
 40
0.0910010543
 40
0.1371886841
 40
0.1835861315
 40
0.2300058518
 40
0.2762600284
 40
0.3221617443
 40
0.3675258847
 40
0.4121701265
 40
0.4559159154
 40
0.4985894645
 40
0.5400227765
 40
0.5602239782
 40
0.5800553177
 40
0.5994978763
 40
0.6185333836
 40
0.637144091
 40
0.6553130155
 40
0.6730237599
 40
0.6902608066
 40
0.707009325
 40
0.7232554745
 40
0.7389862522
 40
0.7541897634
 40
0.768855162
 40
0.7829728594
 40
0.7965346024
 40
0.8095336132
 40
0.8219648399
 40
0.8338250494
 40
0.8451132806
 40
0.8558309496
 40
0.8659825331
 40
0.8755757953
 40
0.884622733
 40
0.8931400749
 40
0.9011505178
 40
0.9086836234
 40
0.9157772757
 40
0.9224788236
 40
0.9288462411
 40
0.9319271063
 40
0.9349512632
 40
0.9379289592
 40
0.9408709858
 40
0.9437885797
 40
0.946693278
 40
0.9495967858
 40
0.9525108279
 40
0.9554469857
 40
0.9584165599
 40
0.9614304518
 40
0.9644990307
 40
0.9708362475
 40
0.977501128
 40
0.9845527022
 40
0.9920394252
 40
1.0
 40
1.0
 40
1.0
 40
1.0
 10
14.5940521394
 20
10.5059583221
 30
0.0
 10
14.5940521394
 20
10.4916734408
 30
0.0
 10
14.5937973765
 20
10.4629195951
 30
0.0
 10
14.5926740091
 20
10.4195852081
 30
0.0
 10
14.590811249
 20
10.3759007216
 30
0.0
 10
14.5882170517
 20
10.3320545984
 30
0.0
 10
14.5849026051
 20
10.2882359379
 30
0.0
 10
14.5808822032
 20
10.2446336805
 30
0.0
 10
14.5761732296
 20
10.2014358475
 30
0.0
 10
14.5707960626
 20
10.1588286892
 30
0.0
 10
14.5647739938
 20
10.1169959021
 30
0.0
 10
14.5581331391
 20
10.076117756
 30
0.0
 10
14.5509022858
 20
10.0363705489
 30
0.0
 10
14.5443572502
 20
10.0040665005
 30
0.0
 10
14.5388404196
 20
9.9789237391
 30
0.0
 10
14.5346103237
 20
9.960613475
 30
0.0
 10
14.5302574833
 20
9.9427108263
 30
0.0
 10
14.5257866469
 20
9.925235074
 30
0.0
 10
14.5212025786
 20
9.9082050636
 30
0.0
 10
14.5165103227
 20
9.8916391408
 30
0.0
 10
14.5117148616
 20
9.875555161
 30
0.0
 10
14.5068214788
 20
9.8599704378
 30
0.0
 10
14.5018353743
 20
9.8449017596
 30
0.0
 10
14.496762028
 20
9.8303653301
 30
0.0
 10
14.4916068514
 20
9.8163767914
 30
0.0
 10
14.486375478
 20
9.8029511643
 30
0.0
 10
14.4810735185
 20
9.7901028674
 30
0.0
 10
14.4757067178
 20
9.7778456698
 30
0.0
 10
14.4702808645
 20
9.7661926886
 30
0.0
 10
14.4648017696
 20
9.7551563769
 30
0.0
 10
14.459275364
 20
9.7447484732
 30
0.0
 10
14.4537074735
 20
9.7349800531
 30
0.0
 10
14.4481041092
 20
9.7258614032
 30
0.0
 10
14.4424710432
 20
9.7174021672
 30
0.0
 10
14.4368142598
 20
9.7096111234
 30
0.0
 10
14.431139374
 20
9.7024964534
 30
0.0
 10
14.4254521634
 20
9.6960654315
 30
0.0
 10
14.41975793
 20
9.6903248349
 30
0.0
 10
14.4140619871
 20
9.6852806126
 30
0.0
 10
14.4083692034
 20
9.6809384546
 30
0.0
 10
14.4026841569
 20
9.6773035244
 30
0.0
 10
14.3970120518
 20
9.6743812876
 30
0.0
 10
14.3922470824
 20
9.6725241031
 30
0.0
 10
14.3884631736
 20
9.6714159574
 30
0.0
 10
14.3856641812
 20
9.6707741201
 30
0.0
 10
14.3828742441
 20
9.6703129686
 30
0.0
 10
14.3800941264
 20
9.6700327226
 30
0.0
 10
14.3773247186
 20
9.6699334757
 30
0.0
 10
14.3745668883
 20
9.6700152914
 30
0.0
 10
14.3718215255
 20
9.6702782214
 30
0.0
 10
14.3690895198
 20
9.6707221687
 30
0.0
 10
14.3663717231
 20
9.6713468981
 30
0.0
 10
14.3636689881
 20
9.6721521493
 30
0.0
 10
14.3609820718
 20
9.6731377184
 30
0.0
 10
14.35738364
 20
9.6747081438
 30
0.0
 10
14.352914874
 20
9.6771434368
 30
0.0
 10
14.3476920115
 20
9.6807486946
 30
0.0
 10
14.3425541503
 20
9.6850621373
 30
0.0
 10
14.3375061843
 20
9.6900775717
 30
0.0
 10
14.3343048917
 20
9.693767986
 30
0.0
 10
14.3327178273
 20
9.6957193514
 30
0.0
  0
SPLINE
  5
358
100
AcDbEntity
  8
0
100
AcDbSpline
 62
7
  6
CONTINUOUS
 70
0
 71
3
 72
44
 73
40
 74
0
 42
0.0000001
 43
0.0000001
 44
0.0000000001
 40
0.0
 40
0.0
 40
0.0
 40
0.0
 40
0.015166805
 40
0.0303618835
 40
0.0455856256
 40
0.0608383248
 40
0.0914284179
 40
0.1221357166
 40
0.1375345482
 40
0.1529622489
 40
0.1839000514
 40
0.2149483963
 40
0.2461023918
 40
0.2773559157
 40
0.3087016987
 40
0.3401314168
 40
0.3716357946
 40
0.4032047167
 40
0.4348273453
 40
0.466492246
 40
0.4981875162
 40
0.5299009188
 40
0.5616200173
 40
0.5933323123
 40
0.6250253796
 40
0.6566870062
 40
0.688305326
 40
0.7198689521
 40
0.7513671059
 40
0.7827897422
 40
0.8141276632
 40
0.8453726433
 40
0.8609593731
 40
0.8765202576
 40
0.9075590327
 40
0.9384866981
 40
0.9539091558
 40
0.9693032561
 40
1.0
 40
1.0
 40
1.0
 40
1.0
 10
10.1010774334
 20
6.8658046217
 30
0.0
 10
10.0949644074
 20
6.8650190166
 30
0.0
 10
10.0827040584
 20
6.8636189994
 30
0.0
 10
10.0642450684
 20
6.8620352406
 30
0.0
 10
10.0457138558
 20
6.8609669025
 30
0.0
 10
10.0209066546
 20
6.8602300153
 30
0.0
 10
9.9897844154
 20
6.8606043323
 30
0.0
 10
9.9586713051
 20
6.8626978777
 30
0.0
 10
9.9338094705
 20
6.8653984563
 30
0.0
 10
9.9089376973
 20
6.8687882649
 30
0.0
 10
9.8779500356
 20
6.8743067938
 30
0.0
 10
9.8410817724
 20
6.8829459692
 30
0.0
 10
9.8046052649
 20
6.8935822237
 30
0.0
 10
9.7686321992
 20
6.906182983
 30
0.0
 10
9.7332718236
 20
6.9207098337
 30
0.0
 10
9.6986317551
 20
6.9371184829
 30
0.0
 10
9.664817349
 20
6.9553589357
 30
0.0
 10
9.6319314635
 20
6.9753756367
 30
0.0
 10
9.6000741259
 20
6.9971076385
 30
0.0
 10
9.5693422312
 20
7.020488781
 30
0.0
 10
9.5398292533
 20
7.0454479014
 30
0.0
 10
9.5116249624
 20
7.0719090482
 30
0.0
 10
9.4848151539
 20
7.0997917118
 30
0.0
 10
9.4594813891
 20
7.1290110678
 30
0.0
 10
9.4357007489
 20
7.1594782325
 30
0.0
 10
9.4135456006
 20
7.1911005337
 30
0.0
 10
9.3930833794
 20
7.2237817841
 30
0.0
 10
9.3743763815
 20
7.2574225939
 30
0.0
 10
9.3574815837
 20
7.2919205885
 30
0.0
 10
9.3424504092
 20
7.3271710114
 30
0.0
 10
9.3293288134
 20
7.3630659636
 30
0.0
 10
9.3200108142
 20
7.3934511668
 30
0.0
 10
9.313550748
 20
7.4179713952
 30
0.0
 10
9.3077669117
 20
7.4425738414
 30
0.0
 10
9.3017908468
 20
7.4735228628
 30
0.0
 10
9.29750062
 20
7.5046936666
 30
0.0
 10
9.2950961007
 20
7.5296719184
 30
0.0
 10
9.2933802766
 20
7.5546121624
 30
0.0
 10
9.2928621214
 20
7.5733472548
 30
0.0
 10
9.2928621214
 20
7.5858214199
 30
0.0
  0
SPLINE
  5
359
100
AcDbEntity
  8
0
100
AcDbSpline
 62
7
  6
CONTINUOUS
 70
0
 71
3
 72
54
 73
50
 74
0
 42
0.0000001
 43
0.0000001
 44
0.0000000001
 40
0.0
 40
0.0
 40
0.0
 40
0.0
 40
0.0417737003
 40
0.0840371083
 40
0.1266584058
 40
0.169506479
 40
0.2124480466
 40
0.2553499954
 40
0.2980791779
 40
0.340503187
 40
0.3824908042
 40
0.42391255
 40
0.4646412133
 40
0.5045523954
 40
0.5435250601
 40
0.5814421004
 40
0.6181909284
 40
0.6536640988
 40
0.6877599811
 40
0.7042617518
 40
0.720384135
 40
0.7361163834
 40
0.7514483539
 40
0.7663703399
 40
0.7808733861
 40
0.7949490122
 40
0.8085895955
 40
0.8217881215
 40
0.8345384972
 40
0.8468354689
 40
0.8586747685
 40
0.8700532784
 40
0.8809689935
 40
0.8914214371
 40
0.9014115161
 40
0.9109421106
 40
0.9200179887
 40
0.9286464472
 40
0.9368374764
 40
0.9446043697
 40
0.9519642532
 40
0.9589386494
 40
0.9655543338
 40
0.9718438174
 40
0.977846213
 40
0.9836073757
 40
0.9891800572
 40
0.9946230814
 40
1.0
 40
1.0
 40
1.0
 40
1.0
 10
14.5083200093
 20
10.4931474386
 30
0.0
 10
14.5083200093
 20
10.4819539923
 30
0.0
 10
14.5081453692
 20
10.4594355288
 30
0.0
 10
14.5073733762
 20
10.4255044562
 30
0.0
 10
14.5060920025
 20
10.3913006596
 30
0.0
 10
14.5043055275
 20
10.3569376021
 30
0.0
 10
14.5020197979
 20
10.3225287731
 30
0.0
 10
14.4992424009
 20
10.2881880963
 30
0.0
 10
14.4959825219
 20
10.2540291518
 30
0.0
 10
14.4922509729
 20
10.2201649561
 30
0.0
 10
14.4880601317
 20
10.1867075315
 30
0.0
 10
14.4834239108
 20
10.1537675496
 30
0.0
 10
14.4783577097
 20
10.1214539555
 30
0.0
 10
14.4728783673
 20
10.0898736047
 30
0.0
 10
14.4670041052
 20
10.0591308991
 30
0.0
 10
14.4607544664
 20
10.0293274533
 30
0.0
 10
14.4541502609
 20
10.0005616851
 30
0.0
 10
14.4472134657
 20
9.9729287084
 30
0.0
 10
14.4411104163
 20
9.9506855143
 30
0.0
 10
14.4360699542
 20
9.9335324462
 30
0.0
 10
14.4322622185
 20
9.9211468734
 30
0.0
 10
14.4283890548
 20
9.9091104622
 30
0.0
 10
14.4244537211
 20
9.8974331354
 30
0.0
 10
14.4204593959
 20
9.8861245518
 30
0.0
 10
14.4164094929
 20
9.875194029
 30
0.0
 10
14.4123072635
 20
9.8646506017
 30
0.0
 10
14.4081562032
 20
9.8545029444
 30
0.0
 10
14.4039596732
 20
9.8447594295
 30
0.0
 10
14.3997211932
 20
9.8354280652
 30
0.0
 10
14.3954442541
 20
9.8265165201
 30
0.0
 10
14.3911323586
 20
9.8180321156
 30
0.0
 10
14.3867891205
 20
9.8099817761
 30
0.0
 10
14.3824180056
 20
9.802372114
 30
0.0
 10
14.3780227084
 20
9.7952092777
 30
0.0
 10
14.3736066593
 20
9.7884991413
 30
0.0
 10
14.36917355
 20
9.7822470657
 30
0.0
 10
14.3647267868
 20
9.7764581478
 30
0.0
 10
14.3602699436
 20
9.7711369856
 30
0.0
 10
14.3558063887
 20
9.7662878738
 30
0.0
 10
14.3513394618
 20
9.7619147235
 30
0.0
 10
14.3468724362
 20
9.758021068
 30
0.0
 10
14.3424083477
 20
9.7546103016
 30
0.0
 10
14.337950331
 20
9.7516853835
 30
0.0
 10
14.3335012426
 20
9.7492494786
 30
0.0
 10
14.3290642579
 20
9.7473053207
 30
0.0
 10
14.3246426765
 20
9.7458560379
 30
0.0
 10
14.3202402335
 20
9.7449042354
 30
0.0
 10
14.3158622168
 20
9.7444523547
 30
0.0
 10
14.3129555893
 20
9.7444855564
 30
0.0
 10
14.3115182718
 20
9.7445852235
 30
0.0
  0
SPLINE
  5
35A
100
AcDbEntity
  8
0
100
AcDbSpline
 62
7
  6
CONTINUOUS
 70
0
 71
3
 72
51
 73
47
 74
0
 42
0.0000001
 43
0.0000001
 44
0.0000000001
 40
0.0
 40
0.0
 40
0.0
 40
0.0
 40
0.0055575483
 40
0.0111779716
 40
0.01692191
 40
0.0228457685
 40
0.029000541
 40
0.0354309187
 40
0.0421753321
 40
0.0492661787
 40
0.0567301751
 40
0.0645892818
 40
0.072860934
 40
0.0815589354
 40
0.0906938799
 40
0.1002734384
 40
0.1103031157
 40
0.1207861166
 40
0.1317239771
 40
0.1431166596
 40
0.1549625852
 40
0.1672591636
 40
0.1800024627
 40
0.1931876894
 40
0.2068091423
 40
0.2208601567
 40
0.2502201891
 40
0.2812020358
 40
0.3137291498
 40
0.3477165256
 40
0.3830717054
 40
0.4196956132
 40
0.4574832856
 40
0.4963245986
 40
0.5361048951
 40
0.5767055669
 40
0.6180046028
 40
0.6598771293
 40
0.7021959705
 40
0.7448321944
 40
0.7876555817
 40
0.8305351627
 40
0.8733399838
 40
0.9159382941
 40
0.9582023666
 40
1.0
 40
1.0
 40
1.0
 40
1.0
 10
12.6761742968
 20
10.9731158879
 30
0.0
 10
12.6761742894
 20
10.9739668781
 30
0.0
 10
12.6762695301
 20
10.9756799681
 30
0.0
 10
12.6766970869
 20
10.9782404722
 30
0.0
 10
12.6774087074
 20
10.9807952436
 30
0.0
 10
12.6784028499
 20
10.9833413761
 30
0.0
 10
12.679678059
 20
10.9858767315
 30
0.0
 10
12.6812324775
 20
10.9883994309
 30
0.0
 10
12.6830643959
 20
10.99090772
 30
0.0
 10
12.6851720423
 20
10.9933998735
 30
0.0
 10
12.687553451
 20
10.995874299
 30
0.0
 10
12.6902067241
 20
10.9983291704
 30
0.0
 10
12.6931296266
 20
11.0007628198
 30
0.0
 10
12.6963198524
 20
11.0031734167
 30
0.0
 10
12.6997748732
 20
11.0055591033
 30
0.0
 10
12.7034918938
 20
11.0079181192
 30
0.0
 10
12.7074679973
 20
11.0102485062
 30
0.0
 10
12.7116999541
 20
11.0125484965
 30
0.0
 10
12.7161843779
 20
11.0148162088
 30
0.0
 10
12.7209176554
 20
11.0170497863
 30
0.0
 10
12.7258959353
 20
11.0192474871
 30
0.0
 10
12.7311152064
 20
11.0214074292
 30
0.0
 10
12.7365712054
 20
11.0235279251
 30
0.0
 10
12.7422594995
 20
11.0256071999
 30
0.0
 10
12.748175462
 20
11.0276435554
 30
0.0
 10
12.7564825526
 20
11.0303387975
 30
0.0
 10
12.7674056296
 20
11.0335785491
 30
0.0
 10
12.7811550832
 20
11.0372150146
 30
0.0
 10
12.7956868752
 20
11.0406429146
 30
0.0
 10
12.8109535135
 20
11.0438509208
 30
0.0
 10
12.8269052262
 20
11.0468283963
 30
0.0
 10
12.8434898825
 20
11.0495654793
 30
0.0
 10
12.8606532472
 20
11.0520531199
 30
0.0
 10
12.8783391558
 20
11.0542830916
 30
0.0
 10
12.8964897163
 20
11.0562480208
 30
0.0
 10
12.915045499
 20
11.0579414089
 30
0.0
 10
12.9339457303
 20
11.059357655
 30
0.0
 10
12.9531284933
 20
11.0604920891
 30
0.0
 10
12.9725309411
 20
11.0613409686
 30
0.0
 10
12.9920895021
 20
11.0619014897
 30
0.0
 10
13.0117400868
 20
11.062171798
 30
0.0
 10
13.031418334
 20
11.0621510007
 30
0.0
 10
13.051059652
 20
11.0618391525
 30
0.0
 10
13.0705999558
 20
11.0612373324
 30
0.0
 10
13.0899748426
 20
11.0603474534
 30
0.0
 10
13.1028230997
 20
11.0595590136
 30
0.0
 10
13.1092079564
 20
11.0591162223
 30
0.0
  0
SPLINE
  5
35B
100
AcDbEntity
  8
0
100
AcDbSpline
 62
7
  6
CONTINUOUS
 70
0
 71
3
 72
51
 73
47
 74
0
 42
0.0000001
 43
0.0000001
 44
0.0000000001
 40
0.0
 40
0.0
 40
0.0
 40
0.0
 40
0.0055575483
 40
0.0111779716
 40
0.01692191
 40
0.0228457685
 40
0.029000541
 40
0.0354309187
 40
0.0421753321
 40
0.0492661787
 40
0.0567301751
 40
0.0645892818
 40
0.072860934
 40
0.0815589354
 40
0.0906938799
 40
0.1002734384
 40
0.1103031157
 40
0.1207861166
 40
0.1317239771
 40
0.1431166596
 40
0.1549625852
 40
0.1672591636
 40
0.1800024627
 40
0.1931876894
 40
0.2068091423
 40
0.2208601567
 40
0.2502201891
 40
0.2812020358
 40
0.3137291498
 40
0.3477165256
 40
0.3830717054
 40
0.4196956132
 40
0.4574832856
 40
0.4963245986
 40
0.5361048951
 40
0.5767055669
 40
0.6180046028
 40
0.6598771293
 40
0.7021959705
 40
0.7448321944
 40
0.7876555817
 40
0.8305351627
 40
0.8733399838
 40
0.9159382941
 40
0.9582023666
 40
1.0
 40
1.0
 40
1.0
 40
1.0
 10
8.0880265228
 20
11.2913050167
 30
0.0
 10
8.0880265154
 20
11.2921560069
 30
0.0
 10
8.0881217561
 20
11.293869097
 30
0.0
 10
8.0885493129
 20
11.2964296011
 30
0.0
 10
8.0892609334
 20
11.2989843724
 30
0.0
 10
8.0902550759
 20
11.3015305049
 30
0.0
 10
8.091530285
 20
11.3040658603
 30
0.0
 10
8.0930847035
 20
11.3065885597
 30
0.0
 10
8.0949166219
 20
11.3090968489
 30
0.0
 10
8.0970242683
 20
11.3115890023
 30
0.0
 10
8.099405677
 20
11.3140634279
 30
0.0
 10
8.1020589501
 20
11.3165182992
 30
0.0
 10
8.1049818526
 20
11.3189519486
 30
0.0
 10
8.1081720784
 20
11.3213625455
 30
0.0
 10
8.1116270992
 20
11.3237482322
 30
0.0
 10
8.1153441198
 20
11.3261072481
 30
0.0
 10
8.1193202233
 20
11.3284376351
 30
0.0
 10
8.12355218
 20
11.3307376253
 30
0.0
 10
8.1280366039
 20
11.3330053376
 30
0.0
 10
8.1327698814
 20
11.3352389151
 30
0.0
 10
8.1377481613
 20
11.3374366159
 30
0.0
 10
8.1429674324
 20
11.339596558
 30
0.0
 10
8.1484234314
 20
11.3417170539
 30
0.0
 10
8.1541117255
 20
11.3437963287
 30
0.0
 10
8.160027688
 20
11.3458326842
 30
0.0
 10
8.1683347786
 20
11.3485279263
 30
0.0
 10
8.1792578556
 20
11.351767678
 30
0.0
 10
8.1930073092
 20
11.3554041434
 30
0.0
 10
8.2075391012
 20
11.3588320434
 30
0.0
 10
8.2228057395
 20
11.3620400496
 30
0.0
 10
8.2387574522
 20
11.3650175251
 30
0.0
 10
8.2553421085
 20
11.3677546081
 30
0.0
 10
8.2725054732
 20
11.3702422488
 30
0.0
 10
8.2901913817
 20
11.3724722204
 30
0.0
 10
8.3083419423
 20
11.3744371497
 30
0.0
 10
8.326897725
 20
11.3761305378
 30
0.0
 10
8.3457979563
 20
11.3775467839
 30
0.0
 10
8.3649807193
 20
11.3786812179
 30
0.0
 10
8.3843831671
 20
11.3795300974
 30
0.0
 10
8.403941728
 20
11.3800906186
 30
0.0
 10
8.4235923128
 20
11.3803609268
 30
0.0
 10
8.44327056
 20
11.3803401295
 30
0.0
 10
8.462911878
 20
11.3800282813
 30
0.0
 10
8.4824521817
 20
11.3794264612
 30
0.0
 10
8.5018270686
 20
11.3785365822
 30
0.0
 10
8.5146753257
 20
11.3777481424
 30
0.0
 10
8.5210601824
 20
11.3773053511
 30
0.0
  0
SPLINE
  5
35C
100
AcDbEntity
  8
0
100
AcDbSpline
 62
7
  6
CONTINUOUS
 70
0
 71
3
 72
57
 73
53
 74
0
 42
0.0000001
 43
0.0000001
 44
0.0000000001
 40
0.0
 40
0.0
 40
0.0
 40
0.0
 40
0.0532127087
 40
0.1056336001
 40
0.1571441482
 40
0.2076344014
 40
0.2569942499
 40
0.3051180993
 40
0.3519040583
 40
0.3972545148
 40
0.4410766457
 40
0.4832828669
 40
0.5237914618
 40
0.5625272517
 40
0.5994223212
 40
0.6171610544
 40
0.6344179693
 40
0.6511870155
 40
0.6674629807
 40
0.6832411894
 40
0.6985179104
 40
0.713290241
 40
0.7275561438
 40
0.7413148193
 40
0.7545664441
 40
0.7673126385
 40
0.7795564798
 40
0.7913025977
 40
0.8025576998
 40
0.8133304593
 40
0.823632115
 40
0.8334767229
 40
0.8428814315
 40
0.8518672155
 40
0.8604590208
 40
0.8686864633
 40
0.8765841999
 40
0.8841921305
 40
0.8915557174
 40
0.8987255866
 40
0.9057570652
 40
0.9127091257
 40
0.9196429401
 40
0.9266202119
 40
0.9337014097
 40
0.9409441657
 40
0.9484019599
 40
0.9641403262
 40
0.9725130778
 40
0.9812629159
 40
0.9904174403
 40
1.0
 40
1.0
 40
1.0
 40
1.0
 10
14.5940521394
 20
10.5059583221
 30
0.0
 10
14.5940521394
 20
10.5164134221
 30
0.0
 10
14.5939174602
 20
10.5371683254
 30
0.0
 10
14.5933027043
 20
10.5680384079
 30
0.0
 10
14.5922779774
 20
10.5983625062
 30
0.0
 10
14.590845878
 20
10.6280680346
 30
0.0
 10
14.589009795
 20
10.6570846995
 30
0.0
 10
14.5867741884
 20
10.6853433814
 30
0.0
 10
14.5841444599
 20
10.7127769586
 30
0.0
 10
14.5811269582
 20
10.7393202592
 30
0.0
 10
14.577728968
 20
10.7649102567
 30
0.0
 10
14.573958677
 20
10.7894862114
 30
0.0
 10
14.5698251885
 20
10.8129899127
 30
0.0
 10
14.5653384545
 20
10.8353655562
 30
0.0
 10
14.5612626604
 20
10.853254732
 30
0.0
 10
14.5578227274
 20
10.8669548376
 30
0.0
 10
14.5551951134
 20
10.8767805933
 30
0.0
 10
14.5524875429
 20
10.8862861498
 30
0.0
 10
14.5497016891
 20
10.8954659005
 30
0.0
 10
14.5468391382
 20
10.9043143962
 30
0.0
 10
14.5439016306
 20
10.9128264108
 30
0.0
 10
14.5408909294
 20
10.9209969227
 30
0.0
 10
14.5378087444
 20
10.9288210935
 30
0.0
 10
14.5346569947
 20
10.9362943428
 30
0.0
 10
14.5314374512
 20
10.9434122577
 30
0.0
 10
14.5281520318
 20
10.9501706737
 30
0.0
 10
14.5248026822
 20
10.9565656564
 30
0.0
 10
14.5213912407
 20
10.962593437
 30
0.0
 10
14.5179197662
 20
10.9682505621
 30
0.0
 10
14.5143901241
 20
10.9735337114
 30
0.0
 10
14.5108042889
 20
10.9784398278
 30
0.0
 10
14.5071642524
 20
10.9829660977
 30
0.0
 10
14.5034718271
 20
10.9871097835
 30
0.0
 10
14.4997290333
 20
10.990868499
 30
0.0
 10
14.4959376674
 20
10.9942398516
 30
0.0
 10
14.4920996203
 20
10.9972216265
 30
0.0
 10
14.4882168563
 20
10.999811776
 30
0.0
 10
14.4842912782
 20
11.0020080838
 30
0.0
 10
14.480325162
 20
11.003808703
 30
0.0
 10
14.4763208909
 20
11.0052116574
 30
0.0
 10
14.472281259
 20
11.0062152831
 30
0.0
 10
14.4682094013
 20
11.0068184389
 30
0.0
 10
14.4641086742
 20
11.0070201895
 30
0.0
 10
14.4599825543
 20
11.0068206127
 30
0.0
 10
14.4558344835
 20
11.0062201376
 30
0.0
 10
14.4516673936
 20
11.0052196473
 30
0.0
 10
14.4459896573
 20
11.00332107
 30
0.0
 10
14.4403717017
 20
11.0006255952
 30
0.0
 10
14.4348649136
 20
10.9972499785
 30
0.0
 10
14.4306415776
 20
10.9942739223
 30
0.0
 10
14.4264143488
 20
10.9909087625
 30
0.0
 10
14.4236591568
 20
10.9884642362
 30
0.0
 10
14.4222809408
 20
10.9871815453
 30
0.0
  0
SPLINE
  5
35D
100
AcDbEntity
  8
0
100
AcDbSpline
 62
7
  6
CONTINUOUS
 70
0
 71
3
 72
54
 73
50
 74
0
 42
0.0000001
 43
0.0000001
 44
0.0000000001
 40
0.0
 40
0.0
 40
0.0
 40
0.0
 40
0.0149714207
 40
0.0299459009
 40
0.0449264795
 40
0.0599161607
 40
0.0749178924
 40
0.0899345474
 40
0.1049689109
 40
0.1200236599
 40
0.135101347
 40
0.1502043904
 40
0.1653350555
 40
0.1804954423
 40
0.195687479
 40
0.210912906
 40
0.2261732683
 40
0.2414699124
 40
0.2568039734
 40
0.2721763729
 40
0.2875878193
 40
0.3030387972
 40
0.3185295728
 40
0.3340601946
 40
0.3496304877
 40
0.3652400644
 40
0.3808883259
 40
0.3965744612
 40
0.4122974619
 40
0.4280561242
 40
0.4438490534
 40
0.4596746808
 40
0.4914119437
 40
0.5232571513
 40
0.5551923202
 40
0.587197651
 40
0.6192519366
 40
0.651332993
 40
0.6834181045
 40
0.7154844744
 40
0.7475096792
 40
0.7794721147
 40
0.8113514322
 40
0.8431289588
 40
0.8747880885
 40
0.9063146442
 40
0.9376972366
 40
0.9689272309
 40
1.0
 40
1.0
 40
1.0
 40
1.0
 10
9.8718414592
 20
6.2472841762
 30
0.0
 10
9.8646989276
 20
6.2403850141
 30
0.0
 10
9.8501364689
 20
6.2268676902
 30
0.0
 10
9.8275018414
 20
6.2074736469
 30
0.0
 10
9.8041050906
 20
6.1889858714
 30
0.0
 10
9.7799788896
 20
6.1714301876
 30
0.0
 10
9.7551562443
 20
6.1548307475
 30
0.0
 10
9.7296714162
 20
6.139210327
 30
0.0
 10
9.703559475
 20
6.1245903863
 30
0.0
 10
9.6768563017
 20
6.1109911461
 30
0.0
 10
9.6495987099
 20
6.0984311845
 30
0.0
 10
9.6218241946
 20
6.0869277911
 30
0.0
 10
9.5935709445
 20
6.0764968669
 30
0.0
 10
9.5648778878
 20
6.0671526109
 30
0.0
 10
9.53578448
 20
6.0589079215
 30
0.0
 10
9.5063307406
 20
6.051774174
 30
0.0
 10
9.4765572223
 20
6.0457610293
 30
0.0
 10
9.4465048616
 20
6.0408768339
 30
0.0
 10
9.4162150028
 20
6.0371282911
 30
0.0
 10
9.3857293211
 20
6.0345204209
 30
0.0
 10
9.3550897348
 20
6.0330569096
 30
0.0
 10
9.3243383903
 20
6.0327397067
 30
0.0
 10
9.2935175744
 20
6.0335691428
 30
0.0
 10
9.2626696742
 20
6.0355441899
 30
0.0
 10
9.2318371065
 20
6.0386620269
 30
0.0
 10
9.2010622566
 20
6.0429183009
 30
0.0
 10
9.170387455
 20
6.0483072711
 30
0.0
 10
9.1398548669
 20
6.0548213897
 30
0.0
 10
9.1095064292
 20
6.0624516946
 30
0.0
 10
9.0793840168
 20
6.0711877312
 30
0.0
 10
9.0495285428
 20
6.0810175552
 30
0.0
 10
9.0100995669
 20
6.0955761067
 30
0.0
 10
8.9616870651
 20
6.116445311
 30
0.0
 10
8.9053715621
 20
6.1455834949
 30
0.0
 10
8.8510799344
 20
6.1786837088
 30
0.0
 10
8.7991121114
 20
6.2155633298
 30
0.0
 10
8.7497527063
 20
6.2560199341
 30
0.0
 10
8.7032726622
 20
6.299831235
 30
0.0
 10
8.6599270363
 20
6.3467567516
 30
0.0
 10
8.6199538342
 20
6.3965389768
 30
0.0
 10
8.5835724905
 20
6.4489046746
 30
0.0
 10
8.5509828539
 20
6.5035665063
 30
0.0
 10
8.5223641356
 20
6.5602245916
 30
0.0
 10
8.4978737434
 20
6.6185679886
 30
0.0
 10
8.4776465029
 20
6.6782765903
 30
0.0
 10
8.4617940128
 20
6.7390223813
 30
0.0
 10
8.4504040307
 20
6.8004729508
 30
0.0
 10
8.4435394847
 20
6.8622864801
 30
0.0
 10
8.4420019829
 20
6.9036274488
 30
0.0
 10
8.4420019829
 20
6.9242378602
 30
0.0
  0
SPLINE
  5
35E
100
AcDbEntity
  8
0
100
AcDbSpline
 62
7
  6
CONTINUOUS
 70
0
 71
3
 72
55
 73
51
 74
0
 42
0.0000001
 43
0.0000001
 44
0.0000000001
 40
0.0
 40
0.0
 40
0.0
 40
0.0
 40
0.0149619368
 40
0.0299312102
 40
0.0449106607
 40
0.0599030693
 40
0.0749111394
 40
0.0899374877
 40
0.1049846232
 40
0.1200549352
 40
0.1351506842
 40
0.1502739817
 40
0.1654267865
 40
0.1806108923
 40
0.195827914
 40
0.2110792891
 40
0.2263662629
 40
0.2416898848
 40
0.2570510099
 40
0.2724502853
 40
0.2878881575
 40
0.3033648687
 40
0.3188804517
 40
0.3344347417
 40
0.3500273692
 40
0.3656577666
 40
0.3813251774
 40
0.397028651
 40
0.412767059
 40
0.4285390978
 40
0.4443432922
 40
0.4601780138
 40
0.4919270556
 40
0.5237750956
 40
0.5557043255
 40
0.5876953777
 40
0.6197277047
 40
0.6517799743
 40
0.683830476
 40
0.7158575332
 40
0.7478399137
 40
0.7797572342
 40
0.8115903556
 40
0.8433217594
 40
0.8749358986
 40
0.9064195193
 40
0.9221113913
 40
0.9377669155
 40
0.9689601911
 40
1.0
 40
1.0
 40
1.0
 40
1.0
 10
9.8710038228
 20
6.2483137177
 30
0.0
 10
9.8636375833
 20
6.2419993273
 30
0.0
 10
9.8486547491
 20
6.2296520612
 30
0.0
 10
9.8254735547
 20
6.2120120068
 30
0.0
 10
9.8016102533
 20
6.1952710603
 30
0.0
 10
9.7770964919
 20
6.1794517314
 30
0.0
 10
9.7519644311
 20
6.1645745325
 30
0.0
 10
9.7262470625
 20
6.150659048
 30
0.0
 10
9.6999780999
 20
6.1377236047
 30
0.0
 10
9.6731921042
 20
6.1257850089
 30
0.0
 10
9.6459241663
 20
6.1148590615
 30
0.0
 10
9.6182101061
 20
6.1049600286
 30
0.0
 10
9.5900863184
 20
6.0961008079
 30
0.0
 10
9.5615896633
 20
6.0882931755
 30
0.0
 10
9.5327575864
 20
6.0815471882
 30
0.0
 10
9.5036279016
 20
6.0758717444
 30
0.0
 10
9.4742388247
 20
6.0712743371
 30
0.0
 10
9.4446289394
 20
6.067760813
 30
0.0
 10
9.4148370726
 20
6.0653359288
 30
0.0
 10
9.3849023206
 20
6.064002761
 30
0.0
 10
9.3548639491
 20
6.0637629812
 30
0.0
 10
9.3247613633
 20
6.0646170468
 30
0.0
 10
9.2946340439
 20
6.066563638
 30
0.0
 10
9.264521507
 20
6.0696002693
 30
0.0
 10
9.2344632561
 20
6.0737229821
 30
0.0
 10
9.2044986878
 20
6.0789262004
 30
0.0
 10
9.1746671252
 20
6.085203254
 30
0.0
 10
9.1450076789
 20
6.0925457892
 30
0.0
 10
9.1155591978
 20
6.1009441436
 30
0.0
 10
9.0863604536
 20
6.1103873758
 30
0.0
 10
9.0574492547
 20
6.1208631246
 30
0.0
 10
9.0193061193
 20
6.1362006913
 30
0.0
 10
8.972537159
 20
6.1578885687
 30
0.0
 10
8.91821944
 20
6.1877652122
 30
0.0
 10
8.8659330038
 20
6.2213625946
 30
0.0
 10
8.8159533638
 20
6.2585038656
 30
0.0
 10
8.7685416472
 20
6.2989946155
 30
0.0
 10
8.7239461989
 20
6.3426227217
 30
0.0
 10
8.682400428
 20
6.3891596954
 30
0.0
 10
8.6441219023
 20
6.4383618918
 30
0.0
 10
8.6093111637
 20
6.4899717594
 30
0.0
 10
8.5781506793
 20
6.5437192089
 30
0.0
 10
8.5508038288
 20
6.5993227389
 30
0.0
 10
8.527414026
 20
6.6564918045
 30
0.0
 10
8.5081045105
 20
6.7149251966
 30
0.0
 10
8.4954828044
 20
6.7644805502
 30
0.0
 10
8.487523987
 20
6.804446479
 30
0.0
 10
8.4810124501
 20
6.844483081
 30
0.0
 10
8.4755615683
 20
6.8947402342
 30
0.0
 10
8.4740955175
 20
6.935109763
 30
0.0
 10
8.4740955175
 20
6.9552378359
 30
0.0
  0
SPLINE
  5
35F
100
AcDbEntity
  8
0
100
AcDbSpline
 62
7
  6
CONTINUOUS
 70
0
 71
3
 72
56
 73
52
 74
0
 42
0.0000001
 43
0.0000001
 44
0.0000000001
 40
0.0
 40
0.0
 40
0.0
 40
0.0
 40
0.0149712696
 40
0.0299455975
 40
0.0449260257
 40
0.0599155555
 40
0.0749171349
 40
0.0899336395
 40
0.1049678509
 40
0.1200224476
 40
0.1350999838
 40
0.1502028742
 40
0.1653333868
 40
0.1804936216
 40
0.1956855044
 40
0.2109107785
 40
0.2261709873
 40
0.2414674767
 40
0.2568013838
 40
0.2721736284
 40
0.2875849194
 40
0.303035742
 40
0.3185263613
 40
0.3340568268
 40
0.3496269629
 40
0.3652363825
 40
0.3808844863
 40
0.3965704631
 40
0.412293306
 40
0.4280518089
 40
0.4438445787
 40
0.4596700473
 40
0.4755264713
 40
0.4914119521
 40
0.5232568382
 40
0.5551916851
 40
0.5871966925
 40
0.619250654
 40
0.6513313861
 40
0.6834161731
 40
0.7154822189
 40
0.7475070999
 40
0.7794692115
 40
0.8113482064
 40
0.8431254121
 40
0.874784222
 40
0.9063104541
 40
0.9220227305
 40
0.937697876
 40
0.9689275382
 40
1.0
 40
1.0
 40
1.0
 40
1.0
 10
9.8806954795
 20
6.3211819028
 30
0.0
 10
9.8739428461
 20
6.3146593504
 30
0.0
 10
9.8601752537
 20
6.3018799854
 30
0.0
 10
9.8387762318
 20
6.2835445969
 30
0.0
 10
9.8166566602
 20
6.2660660323
 30
0.0
 10
9.793847398
 20
6.2494687656
 30
0.0
 10
9.7703798074
 20
6.2337754031
 30
0.0
 10
9.746286116
 20
6.2190077137
 30
0.0
 10
9.7215995414
 20
6.2051859068
 30
0.0
 10
9.6963540696
 20
6.192328964
 30
0.0
 10
9.6705843786
 20
6.180454702
 30
0.0
 10
9.6443260119
 20
6.1695792747
 30
0.0
 10
9.6176150596
 20
6.1597177242
 30
0.0
 10
9.5904882734
 20
6.1508836311
 30
0.0
 10
9.5629830212
 20
6.1430889873
 30
0.0
 10
9.5351370981
 20
6.1363446681
 30
0.0
 10
9.5069888451
 20
6.1306598258
 30
0.0
 10
9.4785769862
 20
6.1260422239
 30
0.0
 10
9.4499405843
 20
6.122498345
 30
0.0
 10
9.4211190526
 20
6.1200328592
 30
0.0
 10
9.3921520195
 20
6.1186492325
 30
0.0
 10
9.3630793284
 20
6.118349381
 30
0.0
 10
9.3339409588
 20
6.1191335455
 30
0.0
 10
9.3047769846
 20
6.1210008001
 30
0.0
 10
9.2756275062
 20
6.1239484542
 30
0.0
 10
9.2465325938
 20
6.1279723956
 30
0.0
 10
9.2175322753
 20
6.1330672246
 30
0.0
 10
9.188666392
 20
6.1392257403
 30
0.0
 10
9.159974641
 20
6.146439549
 30
0.0
 10
9.1314964887
 20
6.1546987496
 30
0.0
 10
9.1032710088
 20
6.1639918445
 30
0.0
 10
9.0753371651
 20
6.1743061434
 30
0.0
 10
9.0477329088
 20
6.18562759
 30
0.0
 10
9.0113921279
 20
6.2020560603
 30
0.0
 10
8.9669819522
 20
6.2250338935
 30
0.0
 10
8.9156554781
 20
6.256326677
 30
0.0
 10
8.8665240947
 20
6.2911932868
 30
0.0
 10
8.8198592037
 20
6.3294413748
 30
0.0
 10
8.7759164162
 20
6.3708611512
 30
0.0
 10
8.7349369917
 20
6.4152251303
 30
0.0
 10
8.697145825
 20
6.4622898273
 30
0.0
 10
8.6627504532
 20
6.5117969698
 30
0.0
 10
8.6319398696
 20
6.5634749771
 30
0.0
 10
8.6048834176
 20
6.6170401216
 30
0.0
 10
8.5817298251
 20
6.6721989991
 30
0.0
 10
8.5626069723
 20
6.7286469632
 30
0.0
 10
8.5501025952
 20
6.7765644416
 30
0.0
 10
8.5422164214
 20
6.8152285019
 30
0.0
 10
8.5357639039
 20
6.8539692269
 30
0.0
 10
8.5303614475
 20
6.902614053
 30
0.0
 10
8.5289080687
 20
6.9416973637
 30
0.0
 10
8.5289080687
 20
6.9611826979
 30
0.0
  0
SPLINE
  5
360
100
AcDbEntity
  8
0
100
AcDbSpline
 62
7
  6
CONTINUOUS
 70
0
 71
3
 72
54
 73
50
 74
0
 42
0.0000001
 43
0.0000001
 44
0.0000000001
 40
0.0
 40
0.0
 40
0.0
 40
0.0
 40
0.0149609029
 40
0.0299299255
 40
0.0449098678
 40
0.0599034639
 40
0.07491337
 40
0.089942152
 40
0.1049922632
 40
0.1200660404
 40
0.135165685
 40
0.1502932511
 40
0.1654506415
 40
0.1806395878
 40
0.1958616507
 40
0.21111821
 40
0.2264104527
 40
0.2417393791
 40
0.2571057873
 40
0.272510277
 40
0.2879532492
 40
0.3034348963
 40
0.3189552159
 40
0.3345140011
 40
0.3501108471
 40
0.3657451596
 40
0.3814161475
 40
0.3971228414
 40
0.4286338034
 40
0.4602716597
 40
0.4920227052
 40
0.5238710432
 40
0.5557989108
 40
0.5877870312
 40
0.6198149876
 40
0.6518616134
 40
0.6839053919
 40
0.7159248594
 40
0.7478990088
 40
0.7798076874
 40
0.8116319828
 40
0.8433545917
 40
0.8749601653
 40
0.8907172686
 40
0.9064404048
 40
0.9221283752
 40
0.9377801437
 40
0.9689664454
 40
1.0
 40
1.0
 40
1.0
 40
1.0
 10
9.9147640924
 20
6.3565550724
 30
0.0
 10
9.9077639626
 20
6.3506909064
 30
0.0
 10
9.8935317798
 20
6.3392286527
 30
0.0
 10
9.8715300471
 20
6.3228671454
 30
0.0
 10
9.8488975112
 20
6.3073539052
 30
0.0
 10
9.8256639557
 20
6.2927095551
 30
0.0
 10
9.8018595988
 20
6.2789528682
 30
0.0
 10
9.7775153347
 20
6.2661019192
 30
0.0
 10
9.7526628759
 20
6.2541733106
 30
0.0
 10
9.7273345584
 20
6.2431825117
 30
0.0
 10
9.7015632662
 20
6.2331439471
 30
0.0
 10
9.6753825925
 20
6.2240704595
 30
0.0
 10
9.6488265282
 20
6.2159739874
 30
0.0
 10
9.6219296294
 20
6.2088649892
 30
0.0
 10
9.5947268873
 20
6.2027526073
 30
0.0
 10
9.5672536355
 20
6.1976449533
 30
0.0
 10
9.5395456328
 20
6.1935484455
 30
0.0
 10
9.5116388796
 20
6.1904685172
 30
0.0
 10
9.4835696614
 20
6.1884091505
 30
0.0
 10
9.4553744708
 20
6.1873728751
 30
0.0
 10
9.4270899522
 20
6.1873612204
 30
0.0
 10
9.398752872
 20
6.1883739946
 30
0.0
 10
9.3704000561
 20
6.1904099465
 30
0.0
 10
9.34206837
 20
6.1934664587
 30
0.0
 10
9.3137945811
 20
6.1975393902
 30
0.0
 10
9.2856155741
 20
6.2026235929
 30
0.0
 10
9.2575675183
 20
6.2087124315
 30
0.0
 10
9.2203579087
 20
6.2181686961
 30
0.0
 10
9.1743543387
 20
6.2324666464
 30
0.0
 10
9.1203209217
 20
6.2534638782
 30
0.0
 10
9.0676706169
 20
6.2782120293
 30
0.0
 10
9.0166783701
 20
6.3065819007
 30
0.0
 10
8.9676081696
 20
6.3384261444
 30
0.0
 10
8.9207146782
 20
6.373579334
 30
0.0
 10
8.8762410674
 20
6.4118589259
 30
0.0
 10
8.8344180241
 20
6.4530662182
 30
0.0
 10
8.795462522
 20
6.4969873979
 30
0.0
 10
8.7595767326
 20
6.543394619
 30
0.0
 10
8.7269469491
 20
6.5920472078
 30
0.0
 10
8.6977426257
 20
6.6426926583
 30
0.0
 10
8.6721153827
 20
6.6950687704
 30
0.0
 10
8.6501989538
 20
6.7489020631
 30
0.0
 10
8.6351055965
 20
6.7947980774
 30
0.0
 10
8.6249971235
 20
6.8319605148
 30
0.0
 10
8.6184121432
 20
6.8599940773
 30
0.0
 10
8.6128254605
 20
6.8881779938
 30
0.0
 10
8.6067253081
 20
6.9258587294
 30
0.0
 10
8.6016188345
 20
6.9731565274
 30
0.0
 10
8.6002455094
 20
7.0111471363
 30
0.0
 10
8.6002455094
 20
7.0300893784
 30
0.0
  0
SPLINE
  5
361
100
AcDbEntity
  8
0
100
AcDbSpline
 62
7
  6
CONTINUOUS
 70
0
 71
3
 72
55
 73
51
 74
0
 42
0.0000001
 43
0.0000001
 44
0.0000000001
 40
0.0
 40
0.0
 40
0.0
 40
0.0
 40
0.0149713426
 40
0.029945745
 40
0.0449262466
 40
0.0599158497
 40
0.0749175039
 40
0.0899340815
 40
0.1049683671
 40
0.1200230387
 40
0.1351006478
 40
0.1502036136
 40
0.1653342004
 40
0.1804945089
 40
0.1956864682
 40
0.2109118157
 40
0.2261721
 40
0.2414686657
 40
0.2568026464
 40
0.2721749684
 40
0.2875863346
 40
0.3030372323
 40
0.3185279299
 40
0.3340584699
 40
0.3496286834
 40
0.3652381805
 40
0.3808863595
 40
0.3965724155
 40
0.4122953346
 40
0.4280539148
 40
0.4596672873
 40
0.4914043865
 40
0.5232494291
 40
0.5551844326
 40
0.5871895976
 40
0.619243717
 40
0.651324607
 40
0.6834095519
 40
0.7154757557
 40
0.747500794
 40
0.7794630628
 40
0.8113422149
 40
0.8431195771
 40
0.8747785431
 40
0.8905616191
 40
0.9063099906
 40
0.9220223492
 40
0.9376975737
 40
0.9689273837
 40
1.0
 40
1.0
 40
1.0
 40
1.0
 10
9.9171586864
 20
6.4676289458
 30
0.0
 10
9.9110697089
 20
6.4617474245
 30
0.0
 10
9.8986552028
 20
6.4502240106
 30
0.0
 10
9.8793592931
 20
6.4336906078
 30
0.0
 10
9.8594135949
 20
6.4179298904
 30
0.0
 10
9.8388460766
 20
6.4029637399
 30
0.0
 10
9.8176848501
 20
6.3888127699
 30
0.0
 10
9.7959590917
 20
6.3754964497
 30
0.0
 10
9.7736987452
 20
6.3630329963
 30
0.0
 10
9.7509343584
 20
6.3514397195
 30
0.0
 10
9.7276973463
 20
6.3407323958
 30
0.0
 10
9.7040196485
 20
6.3309258165
 30
0.0
 10
9.6799338341
 20
6.3220335114
 30
0.0
 10
9.6554730994
 20
6.3140675447
 30
0.0
 10
9.6306710422
 20
6.3070390413
 30
0.0
 10
9.6055618277
 20
6.3009575266
 30
0.0
 10
9.5801799951
 20
6.2958313457
 30
0.0
 10
9.5545604421
 20
6.2916676573
 30
0.0
 10
9.5287384404
 20
6.2884719785
 30
0.0
 10
9.5027494867
 20
6.286248842
 30
0.0
 10
9.4766293368
 20
6.2850012303
 30
0.0
 10
9.4504139124
 20
6.284730758
 30
0.0
 10
9.4241392673
 20
6.2854379547
 30
0.0
 10
9.3978415293
 20
6.2871216402
 30
0.0
 10
9.3715568597
 20
6.2897795811
 30
0.0
 10
9.3453214156
 20
6.2934081282
 30
0.0
 10
9.3191712154
 20
6.2980021435
 30
0.0
 10
9.2931423543
 20
6.3035554387
 30
0.0
 10
9.2672701811
 20
6.3100603723
 30
0.0
 10
9.2329984293
 20
6.3199996236
 30
0.0
 10
9.190727943
 20
6.3347629104
 30
0.0
 10
9.1412559223
 20
6.3560893679
 30
0.0
 10
9.093245774
 20
6.3809300377
 30
0.0
 10
9.0469627134
 20
6.4091477611
 30
0.0
 10
9.0026602177
 20
6.4405875612
 30
0.0
 10
8.9605815166
 20
6.4750766881
 30
0.0
 10
8.9209574441
 20
6.5124257093
 30
0.0
 10
8.8840054586
 20
6.5524295802
 30
0.0
 10
8.8499284056
 20
6.59486874
 30
0.0
 10
8.818913435
 20
6.6395103622
 30
0.0
 10
8.791130943
 20
6.6861093474
 30
0.0
 10
8.7667334955
 20
6.7344104727
 30
0.0
 10
8.7458557752
 20
6.7841469335
 30
0.0
 10
8.7314699585
 20
6.8266130525
 30
0.0
 10
8.7218326153
 20
6.8610270195
 30
0.0
 10
8.7155534559
 20
6.886999178
 30
0.0
 10
8.7102254309
 20
6.9131207787
 30
0.0
 10
8.7044071694
 20
6.9480537609
 30
0.0
 10
8.699535611
 20
6.9919179165
 30
0.0
 10
8.6982250866
 20
7.0271600736
 30
0.0
 10
8.6982250866
 20
7.044730388
 30
0.0
  0
SPLINE
  5
362
100
AcDbEntity
  8
0
100
AcDbSpline
 62
7
  6
CONTINUOUS
 70
0
 71
3
 72
49
 73
45
 74
0
 42
0.0000001
 43
0.0000001
 44
0.0000000001
 40
0.0
 40
0.0
 40
0.0
 40
0.0
 40
0.0484977591
 40
0.0964124095
 40
0.1436644782
 40
0.1901851275
 40
0.2359045137
 40
0.2807535295
 40
0.3246657516
 40
0.3675767279
 40
0.4094239822
 40
0.4501476548
 40
0.489690486
 40
0.527997965
 40
0.565018896
 40
0.6007053598
 40
0.6350131765
 40
0.6679024476
 40
0.6993376667
 40
0.7292885995
 40
0.7577308847
 40
0.7846466668
 40
0.8100260987
 40
0.8221397633
 40
0.8338699797
 40
0.8452183077
 40
0.8561873037
 40
0.8667804243
 40
0.8770020292
 40
0.8868577551
 40
0.8963545465
 40
0.9055006518
 40
0.9143060078
 40
0.9227824095
 40
0.9309435203
 40
0.9388052391
 40
0.9463859654
 40
0.9607837612
 40
0.9676581026
 40
0.974351983
 40
0.9808975113
 40
0.9873293386
 40
0.9936841261
 40
1.0
 40
1.0
 40
1.0
 40
1.0
 10
14.5083200093
 20
10.4931474386
 30
0.0
 10
14.5083200093
 20
10.5009532135
 30
0.0
 10
14.5082360225
 20
10.5164710531
 30
0.0
 10
14.5078536529
 20
10.5395913355
 30
0.0
 10
14.507216114
 20
10.5623876973
 30
0.0
 10
14.5063245228
 20
10.5848219484
 30
0.0
 10
14.505180411
 20
10.6068574838
 30
0.0
 10
14.5037856264
 20
10.6284579192
 30
0.0
 10
14.5021425135
 20
10.6495875707
 30
0.0
 10
14.5002538473
 20
10.6702116234
 30
0.0
 10
14.4981227194
 20
10.690296077
 30
0.0
 10
14.4957527174
 20
10.7098078244
 30
0.0
 10
14.4931478016
 20
10.7287147196
 30
0.0
 10
14.4903122622
 20
10.7469856233
 30
0.0
 10
14.4872508817
 20
10.764590467
 30
0.0
 10
14.4839687373
 20
10.7815002963
 30
0.0
 10
14.4804712699
 20
10.7976873269
 30
0.0
 10
14.4767643627
 20
10.8131250073
 30
0.0
 10
14.4728541223
 20
10.8277880552
 30
0.0
 10
14.4687470518
 20
10.8416525023
 30
0.0
 10
14.4644499831
 20
10.8546958545
 30
0.0
 10
14.4599699161
 20
10.8668967419
 30
0.0
 10
14.4560313635
 20
10.876489483
 30
0.0
 10
14.4527858729
 20
10.8837173943
 30
0.0
 10
14.4503485044
 20
10.8888309823
 30
0.0
 10
14.4478709749
 20
10.8937195862
 30
0.0
 10
14.4453542968
 20
10.8983812432
 30
0.0
 10
14.4427995167
 20
10.9028140744
 30
0.0
 10
14.4402075983
 20
10.9070162453
 30
0.0
 10
14.4375795892
 20
10.9109860614
 30
0.0
 10
14.434916563
 20
10.9147219457
 30
0.0
 10
14.432219501
 20
10.9182223459
 30
0.0
 10
14.4294894426
 20
10.9214858254
 30
0.0
 10
14.4267274467
 20
10.9245111106
 30
0.0
 10
14.4239345908
 20
10.9272968509
 30
0.0
 10
14.4211115666
 20
10.929842036
 30
0.0
 10
14.4173741784
 20
10.9328608603
 30
0.0
 10
14.4135121856
 20
10.9354658553
 30
0.0
 10
14.4095424041
 20
10.9375938693
 30
0.0
 10
14.4065859176
 20
10.9389199265
 30
0.0
 10
14.4036062862
 20
10.9399992606
 30
0.0
 10
14.4006047111
 20
10.9408313222
 30
0.0
 10
14.3975829443
 20
10.9414154791
 30
0.0
 10
14.3955532616
 20
10.9416395625
 30
0.0
 10
14.394539149
 20
10.9417098835
 30
0.0
  0
SPLINE
  5
363
100
AcDbEntity
  8
0
100
AcDbSpline
 62
7
  6
CONTINUOUS
 70
0
 71
3
 72
37
 73
33
 74
0
 42
0.0000001
 43
0.0000001
 44
0.0000000001
 40
0.0
 40
0.0
 40
0.0
 40
0.0
 40
0.030746918
 40
0.0615815023
 40
0.0925011026
 40
0.1235024444
 40
0.1545816684
 40
0.1857343632
 40
0.2169555911
 40
0.2482399297
 40
0.2795815213
 40
0.3109741067
 40
0.3424110691
 40
0.3738854909
 40
0.4053901977
 40
0.436917802
 40
0.4999984781
 40
0.5630792119
 40
0.5946068887
 40
0.6261116954
 40
0.6575862445
 40
0.6890233615
 40
0.7204161266
 40
0.7517579215
 40
0.7830424876
 40
0.8142639635
 40
0.8454169239
 40
0.8764964393
 40
0.9074980723
 40
0.9384179765
 40
0.9692529811
 40
1.0
 40
1.0
 40
1.0
 40
1.0
 10
10.0723732682
 20
7.042343586
 30
0.0
 10
10.0630286032
 20
7.0436747066
 30
0.0
 10
10.044367362
 20
7.0467423559
 30
0.0
 10
10.016559913
 20
7.0525380791
 30
0.0
 10
9.988946364
 20
7.0595242505
 30
0.0
 10
9.9615794552
 20
7.0676875107
 30
0.0
 10
9.9345105876
 20
7.0770124131
 30
0.0
 10
9.9077908604
 20
7.0874813879
 30
0.0
 10
9.8814706548
 20
7.0990747075
 30
0.0
 10
9.8555995628
 20
7.1117704088
 30
0.0
 10
9.8302263536
 20
7.1255445463
 30
0.0
 10
9.8053989111
 20
7.1403711969
 30
0.0
 10
9.7811639782
 20
7.1562223577
 30
0.0
 10
9.7575673287
 20
7.1730679989
 30
0.0
 10
9.7346530847
 20
7.190876807
 30
0.0
 10
9.7050672793
 20
7.215861838
 30
0.0
 10
9.6700088404
 20
7.2493253671
 30
0.0
 10
9.6377748019
 20
7.2855175039
 30
0.0
 10
9.6138253536
 20
7.3159477695
 30
0.0
 10
9.5968176803
 20
7.339462884
 30
0.0
 10
9.5807961073
 20
7.3636267716
 30
0.0
 10
9.5657904244
 20
7.3883942699
 30
0.0
 10
9.5518290861
 20
7.4137186069
 30
0.0
 10
9.5389384354
 20
7.4395520837
 30
0.0
 10
9.5271427296
 20
7.4658459531
 30
0.0
 10
9.5164642381
 20
7.4925506565
 30
0.0
 10
9.5069231975
 20
7.5196158734
 30
0.0
 10
9.4985375624
 20
7.546990559
 30
0.0
 10
9.4913231426
 20
7.5746230433
 30
0.0
 10
9.4852936122
 20
7.6024614559
 30
0.0
 10
9.480460534
 20
7.6304525318
 30
0.0
 10
9.4780383496
 20
7.6492086358
 30
0.0
 10
9.4770303331
 20
7.6585936843
 30
0.0
  0
SPLINE
  5
364
100
AcDbEntity
  8
0
100
AcDbSpline
 62
7
  6
CONTINUOUS
 70
0
 71
3
 72
43
 73
39
 74
0
 42
0.0000001
 43
0.0000001
 44
0.0000000001
 40
0.0
 40
0.0
 40
0.0
 40
0.0
 40
0.0303546589
 40
0.0455763053
 40
0.0608269374
 40
0.0914129854
 40
0.1221164404
 40
0.1375134516
 40
0.1529394062
 40
0.1838739518
 40
0.2149194073
 40
0.2460709173
 40
0.2773223873
 40
0.3086665654
 40
0.3400951368
 40
0.3715988265
 40
0.403167512
 40
0.4347903413
 40
0.4664558587
 40
0.4981521342
 40
0.5298668974
 40
0.5615876735
 40
0.5933019214
 40
0.6249971718
 40
0.6566611651
 40
0.6882819878
 40
0.7198482062
 40
0.7513489958
 40
0.7827742672
 40
0.8141147812
 40
0.8453622728
 40
0.8609502244
 40
0.8765122974
 40
0.9075533139
 40
0.9384831009
 40
0.9539065263
 40
0.9693015043
 40
1.0
 40
1.0
 40
1.0
 40
1.0
 10
10.1007117043
 20
6.8257732282
 30
0.0
 10
10.0878806759
 20
6.824085692
 30
0.0
 10
10.0685379098
 20
6.8220971706
 30
0.0
 10
10.0426496338
 20
6.8205316522
 30
0.0
 10
10.0166283747
 20
6.8196869972
 30
0.0
 10
9.983979617
 20
6.8199924162
 30
0.0
 10
9.9513355531
 20
6.8221050431
 30
0.0
 10
9.9252477405
 20
6.8248732685
 30
0.0
 10
9.8991476475
 20
6.8283660765
 30
0.0
 10
9.8666264421
 20
6.8340789822
 30
0.0
 10
9.8279291047
 20
6.8430553106
 30
0.0
 10
9.7896386765
 20
6.8541316789
 30
0.0
 10
9.7518727861
 20
6.8672740752
 30
0.0
 10
9.7147465027
 20
6.8824422955
 30
0.0
 10
9.6783731871
 20
6.8995899354
 30
0.0
 10
9.6428638263
 20
6.9186645718
 30
0.0
 10
9.6083267841
 20
6.9396079124
 30
0.0
 10
9.5748674499
 20
6.9623559767
 30
0.0
 10
9.5425879259
 20
6.9868392893
 30
0.0
 10
9.5115867153
 20
7.0129830921
 30
0.0
 10
9.4819584253
 20
7.0407075706
 30
0.0
 10
9.4537934792
 20
7.0699280968
 30
0.0
 10
9.4271778427
 20
7.1005554858
 30
0.0
 10
9.4021927629
 20
7.1324962659
 30
0.0
 10
9.3789145217
 20
7.1656529644
 30
0.0
 10
9.3574142009
 20
7.1999243936
 30
0.0
 10
9.3377574635
 20
7.2352059833
 30
0.0
 10
9.3200043742
 20
7.2713900158
 30
0.0
 10
9.3042091465
 20
7.3083662575
 30
0.0
 10
9.290420238
 20
7.3460211593
 30
0.0
 10
9.280628138
 20
7.3778979946
 30
0.0
 10
9.2738393324
 20
7.403622822
 30
0.0
 10
9.2677610964
 20
7.4294343518
 30
0.0
 10
9.2614807985
 20
7.4619052124
 30
0.0
 10
9.2569721095
 20
7.4946096213
 30
0.0
 10
9.254445144
 20
7.5208170553
 30
0.0
 10
9.2526419266
 20
7.546984648
 30
0.0
 10
9.252097386
 20
7.5666418606
 30
0.0
 10
9.252097386
 20
7.5797299782
 30
0.0
  0
SPLINE
  5
365
100
AcDbEntity
  8
0
100
AcDbSpline
 62
7
  6
CONTINUOUS
 70
0
 71
3
 72
44
 73
40
 74
0
 42
0.0000001
 43
0.0000001
 44
0.0000000001
 40
0.0
 40
0.0
 40
0.0
 40
0.0
 40
0.0151732875
 40
0.0303748369
 40
0.0456050022
 40
0.060864052
 40
0.0914665415
 40
0.122185615
 40
0.1375900262
 40
0.1530230813
 40
0.1839708813
 40
0.2150281194
 40
0.2461897957
 40
0.277449708
 40
0.3088005338
 40
0.3402339229
 40
0.371740599
 40
0.4033104699
 40
0.4349327437
 40
0.4665960515
 40
0.4982885749
 40
0.5299981766
 40
0.5617125336
 40
0.593419271
 40
0.625106097
 40
0.656760937
 40
0.6883720656
 40
0.7199282364
 40
0.7514188085
 40
0.7828338683
 40
0.8141643422
 40
0.8454021182
 40
0.8609853547
 40
0.8765428438
 40
0.9075751893
 40
0.9384969135
 40
0.953916598
 40
0.9693080715
 40
1.0
 40
1.0
 40
1.0
 40
1.0
 10
10.1005584269
 20
6.8834294182
 30
0.0
 10
10.0945670027
 20
6.882713111
 30
0.0
 10
10.0825521963
 20
6.8814473633
 30
0.0
 10
10.0644676263
 20
6.8800517655
 30
0.0
 10
10.0463169011
 20
6.8791582083
 30
0.0
 10
10.022025045
 20
6.8786367815
 30
0.0
 10
9.9915602257
 20
6.8792463688
 30
0.0
 10
9.9611173411
 20
6.881528919
 30
0.0
 10
9.9367984225
 20
6.8843529985
 30
0.0
 10
9.9124749388
 20
6.8878478179
 30
0.0
 10
9.882179169
 20
6.8934625017
 30
0.0
 10
9.8461465815
 20
6.9021608127
 30
0.0
 10
9.8105087185
 20
6.9128001153
 30
0.0
 10
9.7753736314
 20
6.9253481383
 30
0.0
 10
9.7408469831
 20
6.939767007
 30
0.0
 10
9.7070328278
 20
6.9560131883
 30
0.0
 10
9.6740330059
 20
6.9740376676
 30
0.0
 10
9.6419469185
 20
6.9937860836
 30
0.0
 10
9.6108712103
 20
7.0151988966
 30
0.0
 10
9.5808994822
 20
7.0382115597
 30
0.0
 10
9.5521220068
 20
7.062754713
 30
0.0
 10
9.5246254644
 20
7.0887543987
 30
0.0
 10
9.4984926825
 20
7.1161322819
 30
0.0
 10
9.4738023881
 20
7.1448058851
 30
0.0
 10
9.4506289725
 20
7.1746888351
 30
0.0
 10
9.4290422678
 20
7.205691122
 30
0.0
 10
9.4091073395
 20
7.2377193636
 30
0.0
 10
9.3908842869
 20
7.2706771049
 30
0.0
 10
9.3744280763
 20
7.3044650291
 30
0.0
 10
9.3597883074
 20
7.3389815342
 30
0.0
 10
9.3470093015
 20
7.3741219964
 30
0.0
 10
9.3379351661
 20
7.4038634342
 30
0.0
 10
9.3316443877
 20
7.4278617288
 30
0.0
 10
9.326012217
 20
7.4519392147
 30
0.0
 10
9.3201930531
 20
7.4822255395
 30
0.0
 10
9.3160156247
 20
7.512726492
 30
0.0
 10
9.3136743495
 20
7.5371672265
 30
0.0
 10
9.3120036585
 20
7.5615706749
 30
0.0
 10
9.311499149
 20
7.579902156
 30
0.0
 10
9.311499149
 20
7.5921076786
 30
0.0
  0
SPLINE
  5
366
100
AcDbEntity
  8
0
100
AcDbSpline
 62
7
  6
CONTINUOUS
 70
0
 71
3
 72
39
 73
35
 74
0
 42
0.0000001
 43
0.0000001
 44
0.0000000001
 40
0.0
 40
0.0
 40
0.0
 40
0.0
 40
0.0307220853
 40
0.0615353935
 40
0.0924373903
 40
0.123424861
 40
0.1544939419
 40
0.1856401473
 40
0.216858407
 40
0.2481431177
 40
0.279488184
 40
0.3108870598
 40
0.3423328045
 40
0.3738181397
 40
0.4053354964
 40
0.4368770697
 40
0.4684348836
 40
0.5000008462
 40
0.5315668019
 40
0.5631245966
 40
0.5946661387
 40
0.6261834514
 40
0.6576687301
 40
0.6891144075
 40
0.7205132048
 40
0.7518581812
 40
0.7831427931
 40
0.8143609439
 40
0.8455070329
 40
0.876575995
 40
0.9075633128
 40
0.9384652097
 40
0.9692784105
 40
1.0
 40
1.0
 40
1.0
 40
1.0
 10
10.0790632915
 20
7.0164164512
 30
0.0
 10
10.0691478908
 20
7.017629932
 30
0.0
 10
10.0493386564
 20
7.0205000258
 30
0.0
 10
10.019801779
 20
7.0261127106
 30
0.0
 10
9.9904533526
 20
7.03302841
 30
0.0
 10
9.9613527206
 20
7.0412331537
 30
0.0
 10
9.9325577675
 20
7.0507105703
 30
0.0
 10
9.9041260474
 20
7.0614417609
 30
0.0
 10
9.8761142704
 20
7.0734052053
 30
0.0
 10
9.8485783366
 20
7.0865769789
 30
0.0
 10
9.8215732225
 20
7.1009308141
 30
0.0
 10
9.7951528348
 20
7.1164380507
 30
0.0
 10
9.7693698664
 20
7.1330676577
 30
0.0
 10
9.7442757709
 20
7.1507864337
 30
0.0
 10
9.7199206719
 20
7.1695590591
 30
0.0
 10
9.6963531529
 20
7.1893480195
 30
0.0
 10
9.6736202212
 20
7.2101137804
 30
0.0
 10
9.6517672654
 20
7.2318149148
 30
0.0
 10
9.6308379455
 20
7.2544081458
 30
0.0
 10
9.6108739848
 20
7.2778483278
 30
0.0
 10
9.5919152216
 20
7.3020886727
 30
0.0
 10
9.5739995499
 20
7.3270808393
 30
0.0
 10
9.5571627454
 20
7.3527749495
 30
0.0
 10
9.5414383733
 20
7.3791196906
 30
0.0
 10
9.5268578406
 20
7.4060624942
 30
0.0
 10
9.5134503359
 20
7.4335496235
 30
0.0
 10
9.5012426005
 20
7.4615261949
 30
0.0
 10
9.4902589925
 20
7.4899363621
 30
0.0
 10
9.480521498
 20
7.5187234352
 30
0.0
 10
9.4720496453
 20
7.5478299775
 30
0.0
 10
9.4648602873
 20
7.5771978241
 30
0.0
 10
9.4589678242
 20
7.6067685685
 30
0.0
 10
9.4543841992
 20
7.6364823013
 30
0.0
 10
9.4522036282
 20
7.6563790463
 30
0.0
 10
9.4513351907
 20
7.6663304433
 30
0.0
  0
SPLINE
  5
367
100
AcDbEntity
  8
0
100
AcDbSpline
 62
7
  6
CONTINUOUS
 70
0
 71
3
 72
25
 73
21
 74
0
 42
0.0000001
 43
0.0000001
 44
0.0000000001
 40
0.0
 40
0.0
 40
0.0
 40
0.0
 40
0.0616739827
 40
0.1233885017
 40
0.1851611334
 40
0.2470089423
 40
0.2779683585
 40
0.3089526602
 40
0.3709992415
 40
0.4331676999
 40
0.49547167
 40
0.5579236192
 40
0.6205347777
 40
0.6833149774
 40
0.7147732343
 40
0.7462768529
 40
0.8094192768
 40
0.8727509238
 40
0.9362784945
 40
1.0
 40
1.0
 40
1.0
 40
1.0
 10
8.6764482571
 20
7.4849247644
 30
0.0
 10
8.6683755762
 20
7.4761411999
 30
0.0
 10
8.6526417932
 20
7.4581798705
 30
0.0
 10
8.6303441996
 20
7.4301344329
 30
0.0
 10
8.6093860845
 20
7.4010324242
 30
0.0
 10
8.5930773595
 20
7.3759563711
 30
0.0
 10
8.5807419967
 20
7.3554305469
 30
0.0
 10
8.5688762403
 20
7.3345854608
 30
0.0
 10
8.5549525862
 20
7.3079754071
 30
0.0
 10
8.5397419215
 20
7.2752453894
 30
0.0
 10
8.5260505881
 20
7.2417662547
 30
0.0
 10
8.5139059315
 20
7.2076047684
 30
0.0
 10
8.5033320026
 20
7.1728290914
 30
0.0
 10
8.4958515805
 20
7.1434138793
 30
0.0
 10
8.4906709565
 20
7.1196475228
 30
0.0
 10
8.4860219533
 20
7.0957000795
 30
0.0
 10
8.4812273351
 20
7.0655089469
 30
0.0
 10
8.477113393
 20
7.0289749379
 30
0.0
 10
8.4746429605
 20
6.9921813486
 30
0.0
 10
8.4740955175
 20
6.967563654
 30
0.0
 10
8.4740955175
 20
6.9552378359
 30
0.0
  0
SPLINE
  5
368
100
AcDbEntity
  8
0
100
AcDbSpline
 62
7
  6
CONTINUOUS
 70
0
 71
3
 72
26
 73
22
 74
0
 42
0.0000001
 43
0.0000001
 44
0.0000000001
 40
0.0
 40
0.0
 40
0.0
 40
0.0
 40
0.0617092235
 40
0.0925729854
 40
0.1234446509
 40
0.1852169748
 40
0.2470517571
 40
0.2780013275
 40
0.3089738777
 40
0.3709922222
 40
0.4331298084
 40
0.4954034049
 40
0.5578284199
 40
0.6204187753
 40
0.6831867461
 40
0.7146430864
 40
0.7461476576
 40
0.8093008659
 40
0.872657114
 40
0.9362236724
 40
1.0
 40
1.0
 40
1.0
 40
1.0
 10
8.7496479963
 20
7.4921283517
 30
0.0
 10
8.7409076338
 20
7.4836857977
 30
0.0
 10
8.7281185217
 20
7.4706800419
 30
0.0
 10
8.7117542748
 20
7.4527012448
 30
0.0
 10
8.6958489599
 20
7.434298036
 30
0.0
 10
8.6768500677
 20
7.4105218201
 30
0.0
 10
8.6590865544
 20
7.3857901056
 30
0.0
 10
8.6456380469
 20
7.3654633305
 30
0.0
 10
8.6326939817
 20
7.3447690626
 30
0.0
 10
8.6174903194
 20
7.3182561923
 30
0.0
 10
8.6008629032
 20
7.2855078616
 30
0.0
 10
8.5858815778
 20
7.2518864718
 30
0.0
 10
8.5725811029
 20
7.2174699372
 30
0.0
 10
8.5609921237
 20
7.1823380368
 30
0.0
 10
8.5527886826
 20
7.1525528091
 30
0.0
 10
8.5471052253
 20
7.1284527937
 30
0.0
 10
8.5420033164
 20
7.1041454482
 30
0.0
 10
8.5367397624
 20
7.0734634476
 30
0.0
 10
8.5322223923
 20
7.0362918501
 30
0.0
 10
8.5295091793
 20
6.9988227515
 30
0.0
 10
8.5289080687
 20
6.9737417402
 30
0.0
 10
8.5289080687
 20
6.9611826979
 30
0.0
  0
SPLINE
  5
369
100
AcDbEntity
  8
0
100
AcDbSpline
 62
7
  6
CONTINUOUS
 70
0
 71
3
 72
25
 73
21
 74
0
 42
0.0000001
 43
0.0000001
 44
0.0000000001
 40
0.0
 40
0.0
 40
0.0
 40
0.0
 40
0.0616698585
 40
0.0925221144
 40
0.1233873692
 40
0.1851610503
 40
0.2470116891
 40
0.2779729665
 40
0.308959368
 40
0.3710107408
 40
0.4331841913
 40
0.4954928703
 40
0.5579488032
 40
0.6205628041
 40
0.6833443175
 40
0.7463016016
 40
0.8094414048
 40
0.872768098
 40
0.9362885602
 40
1.0
 40
1.0
 40
1.0
 40
1.0
 10
8.7868563267
 20
7.5257017122
 30
0.0
 10
8.7794028986
 20
7.5174299964
 30
0.0
 10
8.7685106808
 20
7.5047540712
 30
0.0
 10
8.7545959651
 20
7.4873549872
 30
0.0
 10
8.7410822332
 20
7.4696185498
 30
0.0
 10
8.7249634047
 20
7.4468413728
 30
0.0
 10
8.7099198666
 20
7.423319565
 30
0.0
 10
8.6985431366
 20
7.4040778519
 30
0.0
 10
8.6876004284
 20
7.3845445243
 30
0.0
 10
8.6747620075
 20
7.3596228873
 30
0.0
 10
8.660739279
 20
7.3289898056
 30
0.0
 10
8.6481191476
 20
7.2976736575
 30
0.0
 10
8.6369262487
 20
7.2657353884
 30
0.0
 10
8.6271820935
 20
7.2332366704
 30
0.0
 10
8.6189054232
 20
7.2002403795
 30
0.0
 10
8.6121122075
 20
7.1668102565
 30
0.0
 10
8.6068156471
 20
7.1330111098
 30
0.0
 10
8.6030256411
 20
7.0989076642
 30
0.0
 10
8.600749856
 20
7.0645671756
 30
0.0
 10
8.6002455094
 20
7.0415923833
 30
0.0
 10
8.6002455094
 20
7.0300893784
 30
0.0
  0
SPLINE
  5
36A
100
AcDbEntity
  8
0
100
AcDbSpline
 62
7
  6
CONTINUOUS
 70
0
 71
3
 72
12
 73
8
 74
0
 42
0.0000001
 43
0.0000001
 44
0.0000000001
 40
0.0
 40
0.0
 40
0.0
 40
0.0
 40
0.2419580925
 40
0.4898734838
 40
0.6157763748
 40
0.7428286062
 40
1.0
 40
1.0
 40
1.0
 40
1.0
 10
11.1309102007
 20
9.7271295828
 30
0.0
 10
11.1274988242
 20
9.7129468547
 30
0.0
 10
11.1214771993
 20
9.6840122666
 30
0.0
 10
11.1161046574
 20
9.6472562168
 30
0.0
 10
11.113058383
 20
9.617209667
 30
0.0
 10
11.110853503
 20
9.586530962
 30
0.0
 10
11.1102024674
 20
9.563359183
 30
0.0
 10
11.1102024674
 20
9.5478547701
 30
0.0
  0
SPLINE
  5
36B
100
AcDbEntity
  8
0
100
AcDbSpline
 62
7
  6
CONTINUOUS
 70
0
 71
3
 72
26
 73
22
 74
0
 42
0.0000001
 43
0.0000001
 44
0.0000000001
 40
0.0
 40
0.0
 40
0.0
 40
0.0
 40
0.0617092224
 40
0.0925729861
 40
0.1234446505
 40
0.1852169763
 40
0.2470517586
 40
0.2780013275
 40
0.3089738786
 40
0.3709922214
 40
0.4331298083
 40
0.4954034066
 40
0.5578284213
 40
0.6204187786
 40
0.6831867415
 40
0.7146430811
 40
0.7461476607
 40
0.8093008765
 40
0.8726570625
 40
0.9362237834
 40
1.0
 40
1.0
 40
1.0
 40
1.0
 10
8.8972706839
 20
7.523494639
 30
0.0
 10
8.8893893331
 20
7.515881812
 30
0.0
 10
8.877857096
 20
7.5041543019
 30
0.0
 10
8.8631011692
 20
7.4879424261
 30
0.0
 10
8.8487589817
 20
7.4713479285
 30
0.0
 10
8.8316273273
 20
7.4499084182
 30
0.0
 10
8.8156096442
 20
7.4276073202
 30
0.0
 10
8.8034828082
 20
7.4092782947
 30
0.0
 10
8.7918109414
 20
7.3906178276
 30
0.0
 10
8.7781014547
 20
7.3667106706
 30
0.0
 10
8.7631081836
 20
7.3371808469
 30
0.0
 10
8.7495992318
 20
7.3068637673
 30
0.0
 10
8.7376059364
 20
7.2758296894
 30
0.0
 10
8.72715593
 20
7.2441505551
 30
0.0
 10
8.7197587043
 20
7.2172926289
 30
0.0
 10
8.7146338329
 20
7.1955611619
 30
0.0
 10
8.7100333213
 20
7.173642746
 30
0.0
 10
8.7052870876
 20
7.1459761804
 30
0.0
 10
8.7012136731
 20
7.1124577936
 30
0.0
 10
8.6987671283
 20
7.0786711625
 30
0.0
 10
8.6982250866
 20
7.0560551067
 30
0.0
 10
8.6982250866
 20
7.044730388
 30
0.0
  0
SPLINE
  5
36C
100
AcDbEntity
  8
0
100
AcDbSpline
 62
7
  6
CONTINUOUS
 70
0
 71
3
 72
23
 73
19
 74
0
 42
0.0000001
 43
0.0000001
 44
0.0000000001
 40
0.0
 40
0.0
 40
0.0
 40
0.0
 40
0.0618603907
 40
0.1239640988
 40
0.1862853195
 40
0.2487942118
 40
0.3114574842
 40
0.3742390306
 40
0.4371006016
 40
0.5000025046
 40
0.5629043217
 40
0.6257656364
 40
0.6885467608
 40
0.7512094533
 40
0.8137176182
 40
0.8760379774
 40
0.9381407091
 40
1.0
 40
1.0
 40
1.0
 40
1.0
 10
10.0159540843
 20
7.1893781394
 30
0.0
 10
10.004137517
 20
7.1926376878
 30
0.0
 10
9.9806740478
 20
7.1999834825
 30
0.0
 10
9.9462503284
 20
7.2133835697
 30
0.0
 10
9.9126879458
 20
7.2291233863
 30
0.0
 10
9.8801558608
 20
7.2471238782
 30
0.0
 10
9.8488151202
 20
7.2672955791
 30
0.0
 10
9.8188215933
 20
7.2895380626
 30
0.0
 10
9.7903242584
 20
7.3137407092
 30
0.0
 10
9.7634647258
 20
7.3397831796
 30
0.0
 10
9.7383764728
 20
7.3675360269
 30
0.0
 10
9.7151842046
 20
7.3968613331
 30
0.0
 10
9.694003239
 20
7.4276133712
 30
0.0
 10
9.674938923
 20
7.4596393905
 30
0.0
 10
9.6580861751
 20
7.4927801095
 30
0.0
 10
9.6435287798
 20
7.5268714574
 30
0.0
 10
9.6313398461
 20
7.561741814
 30
0.0
 10
9.6248185183
 20
7.5854472395
 30
0.0
 10
9.6219739276
 20
7.5973702794
 30
0.0
  0
SPLINE
  5
36D
100
AcDbEntity
  8
0
100
AcDbSpline
 62
7
  6
CONTINUOUS
 70
0
 71
3
 72
54
 73
50
 74
0
 42
0.0000001
 43
0.0000001
 44
0.0000000001
 40
0.0
 40
0.0
 40
0.0
 40
0.0
 40
0.0149714207
 40
0.0299459009
 40
0.0449264795
 40
0.0599161607
 40
0.0749178924
 40
0.0899345474
 40
0.1049689109
 40
0.1200236599
 40
0.135101347
 40
0.1502043904
 40
0.1653350555
 40
0.1804954423
 40
0.195687479
 40
0.210912906
 40
0.2261732683
 40
0.2414699124
 40
0.2568039734
 40
0.2721763729
 40
0.2875878193
 40
0.3030387972
 40
0.3185295728
 40
0.3340601946
 40
0.3496304877
 40
0.3652400644
 40
0.3808883259
 40
0.3965744612
 40
0.4122974619
 40
0.4280561242
 40
0.4438490534
 40
0.4596746808
 40
0.4914119437
 40
0.5232571513
 40
0.5551923202
 40
0.587197651
 40
0.6192519366
 40
0.651332993
 40
0.6834181045
 40
0.7154844744
 40
0.7475096792
 40
0.7794721147
 40
0.8113514322
 40
0.8431289588
 40
0.8747880885
 40
0.9063146442
 40
0.9376972366
 40
0.9689272309
 40
1.0
 40
1.0
 40
1.0
 40
1.0
 10
11.8036934565
 20
8.2866430231
 30
0.0
 10
11.796550925
 20
8.279743861
 30
0.0
 10
11.7819884662
 20
8.266226537
 30
0.0
 10
11.7593538387
 20
8.2468324938
 30
0.0
 10
11.7359570879
 20
8.2283447182
 30
0.0
 10
11.7118308869
 20
8.2107890345
 30
0.0
 10
11.6870082416
 20
8.1941895944
 30
0.0
 10
11.6615234135
 20
8.1785691739
 30
0.0
 10
11.6354114723
 20
8.1639492332
 30
0.0
 10
11.608708299
 20
8.150349993
 30
0.0
 10
11.5814507072
 20
8.1377900314
 30
0.0
 10
11.5536761919
 20
8.126286638
 30
0.0
 10
11.5254229418
 20
8.1158557138
 30
0.0
 10
11.4967298852
 20
8.1065114578
 30
0.0
 10
11.4676364774
 20
8.0982667684
 30
0.0
 10
11.4381827379
 20
8.0911330209
 30
0.0
 10
11.4084092196
 20
8.0851198761
 30
0.0
 10
11.3783568589
 20
8.0802356808
 30
0.0
 10
11.3480670002
 20
8.076487138
 30
0.0
 10
11.3175813184
 20
8.0738792678
 30
0.0
 10
11.2869417321
 20
8.0724157565
 30
0.0
 10
11.2561903876
 20
8.0720985535
 30
0.0
 10
11.2253695717
 20
8.0729279897
 30
0.0
 10
11.1945216716
 20
8.0749030368
 30
0.0
 10
11.1636891038
 20
8.0780208738
 30
0.0
 10
11.1329142539
 20
8.0822771478
 30
0.0
 10
11.1022394524
 20
8.087666118
 30
0.0
 10
11.0717068642
 20
8.0941802366
 30
0.0
 10
11.0413584265
 20
8.1018105415
 30
0.0
 10
11.0112360142
 20
8.110546578
 30
0.0
 10
10.9813805401
 20
8.120376402
 30
0.0
 10
10.9419515643
 20
8.1349349536
 30
0.0
 10
10.8935390625
 20
8.1558041579
 30
0.0
 10
10.8372235595
 20
8.1849423417
 30
0.0
 10
10.7829319317
 20
8.2180425557
 30
0.0
 10
10.7309641087
 20
8.2549221766
 30
0.0
 10
10.6816047037
 20
8.295378781
 30
0.0
 10
10.6351246595
 20
8.3391900818
 30
0.0
 10
10.5917790336
 20
8.3861155984
 30
0.0
 10
10.5518058316
 20
8.4358978236
 30
0.0
 10
10.5154244878
 20
8.4882635215
 30
0.0
 10
10.4828348512
 20
8.5429253532
 30
0.0
 10
10.454216133
 20
8.5995834385
 30
0.0
 10
10.4297257407
 20
8.6579268355
 30
0.0
 10
10.4094985002
 20
8.7176354372
 30
0.0
 10
10.3936460101
 20
8.7783812282
 30
0.0
 10
10.382256028
 20
8.8398317976
 30
0.0
 10
10.375391482
 20
8.9016453269
 30
0.0
 10
10.3738539802
 20
8.9429862957
 30
0.0
 10
10.3738539802
 20
8.963596707
 30
0.0
  0
SPLINE
  5
36E
100
AcDbEntity
  8
0
100
AcDbSpline
 62
7
  6
CONTINUOUS
 70
0
 71
3
 72
55
 73
51
 74
0
 42
0.0000001
 43
0.0000001
 44
0.0000000001
 40
0.0
 40
0.0
 40
0.0
 40
0.0
 40
0.0149619368
 40
0.0299312102
 40
0.0449106607
 40
0.0599030693
 40
0.0749111394
 40
0.0899374877
 40
0.1049846232
 40
0.1200549352
 40
0.1351506842
 40
0.1502739817
 40
0.1654267865
 40
0.1806108923
 40
0.195827914
 40
0.2110792891
 40
0.2263662629
 40
0.2416898848
 40
0.2570510099
 40
0.2724502853
 40
0.2878881575
 40
0.3033648687
 40
0.3188804517
 40
0.3344347417
 40
0.3500273692
 40
0.3656577666
 40
0.3813251774
 40
0.397028651
 40
0.412767059
 40
0.4285390978
 40
0.4443432922
 40
0.4601780138
 40
0.4919270556
 40
0.5237750956
 40
0.5557043255
 40
0.5876953777
 40
0.6197277047
 40
0.6517799743
 40
0.683830476
 40
0.7158575332
 40
0.7478399137
 40
0.7797572342
 40
0.8115903556
 40
0.8433217594
 40
0.8749358986
 40
0.9064195193
 40
0.9221113913
 40
0.9377669155
 40
0.9689601911
 40
1.0
 40
1.0
 40
1.0
 40
1.0
 10
11.8028558201
 20
8.2876725646
 30
0.0
 10
11.7954895806
 20
8.2813581742
 30
0.0
 10
11.7805067465
 20
8.2690109081
 30
0.0
 10
11.757325552
 20
8.2513708537
 30
0.0
 10
11.7334622506
 20
8.2346299072
 30
0.0
 10
11.7089484893
 20
8.2188105783
 30
0.0
 10
11.6838164284
 20
8.2039333793
 30
0.0
 10
11.6580990598
 20
8.1900178949
 30
0.0
 10
11.6318300972
 20
8.1770824516
 30
0.0
 10
11.6050441016
 20
8.1651438557
 30
0.0
 10
11.5777761636
 20
8.1542179084
 30
0.0
 10
11.5500621034
 20
8.1443188755
 30
0.0
 10
11.5219383157
 20
8.1354596548
 30
0.0
 10
11.4934416606
 20
8.1276520223
 30
0.0
 10
11.4646095838
 20
8.120906035
 30
0.0
 10
11.4354798989
 20
8.1152305913
 30
0.0
 10
11.406090822
 20
8.110633184
 30
0.0
 10
11.3764809367
 20
8.1071196599
 30
0.0
 10
11.34668907
 20
8.1046947756
 30
0.0
 10
11.3167543179
 20
8.1033616079
 30
0.0
 10
11.2867159464
 20
8.1031218281
 30
0.0
 10
11.2566133606
 20
8.1039758937
 30
0.0
 10
11.2264860412
 20
8.1059224848
 30
0.0
 10
11.1963735044
 20
8.1089591162
 30
0.0
 10
11.1663152534
 20
8.1130818289
 30
0.0
 10
11.1363506851
 20
8.1182850473
 30
0.0
 10
11.1065191225
 20
8.1245621008
 30
0.0
 10
11.0768596763
 20
8.131904636
 30
0.0
 10
11.0474111951
 20
8.1403029905
 30
0.0
 10
11.0182124509
 20
8.1497462227
 30
0.0
 10
10.989301252
 20
8.1602219715
 30
0.0
 10
10.9511581166
 20
8.1755595382
 30
0.0
 10
10.9043891564
 20
8.1972474156
 30
0.0
 10
10.8500714374
 20
8.2271240591
 30
0.0
 10
10.7977850012
 20
8.2607214415
 30
0.0
 10
10.7478053611
 20
8.2978627125
 30
0.0
 10
10.7003936445
 20
8.3383534624
 30
0.0
 10
10.6557981962
 20
8.3819815685
 30
0.0
 10
10.6142524254
 20
8.4285185423
 30
0.0
 10
10.5759738997
 20
8.4777207387
 30
0.0
 10
10.5411631611
 20
8.5293306063
 30
0.0
 10
10.5100026766
 20
8.5830780558
 30
0.0
 10
10.4826558261
 20
8.6386815857
 30
0.0
 10
10.4592660233
 20
8.6958506513
 30
0.0
 10
10.4399565078
 20
8.7542840435
 30
0.0
 10
10.4273348017
 20
8.8038393971
 30
0.0
 10
10.4193759844
 20
8.8438053259
 30
0.0
 10
10.4128644475
 20
8.8838419279
 30
0.0
 10
10.4074135656
 20
8.934099081
 30
0.0
 10
10.4059475148
 20
8.9744686098
 30
0.0
 10
10.4059475148
 20
8.9945966828
 30
0.0
  0
SPLINE
  5
36F
100
AcDbEntity
  8
0
100
AcDbSpline
 62
7
  6
CONTINUOUS
 70
0
 71
3
 72
56
 73
52
 74
0
 42
0.0000001
 43
0.0000001
 44
0.0000000001
 40
0.0
 40
0.0
 40
0.0
 40
0.0
 40
0.0149712696
 40
0.0299455975
 40
0.0449260257
 40
0.0599155555
 40
0.0749171349
 40
0.0899336395
 40
0.1049678509
 40
0.1200224476
 40
0.1350999838
 40
0.1502028742
 40
0.1653333868
 40
0.1804936216
 40
0.1956855044
 40
0.2109107785
 40
0.2261709873
 40
0.2414674767
 40
0.2568013838
 40
0.2721736284
 40
0.2875849194
 40
0.303035742
 40
0.3185263613
 40
0.3340568268
 40
0.3496269629
 40
0.3652363825
 40
0.3808844863
 40
0.3965704631
 40
0.412293306
 40
0.4280518089
 40
0.4438445787
 40
0.4596700473
 40
0.4755264713
 40
0.4914119521
 40
0.5232568382
 40
0.5551916851
 40
0.5871966925
 40
0.619250654
 40
0.6513313861
 40
0.6834161731
 40
0.7154822189
 40
0.7475070999
 40
0.7794692115
 40
0.8113482064
 40
0.8431254121
 40
0.874784222
 40
0.9063104541
 40
0.9220227305
 40
0.937697876
 40
0.9689275382
 40
1.0
 40
1.0
 40
1.0
 40
1.0
 10
11.8125474768
 20
8.3605407496
 30
0.0
 10
11.8057948435
 20
8.3540181973
 30
0.0
 10
11.7920272511
 20
8.3412388323
 30
0.0
 10
11.7706282291
 20
8.3229034438
 30
0.0
 10
11.7485086575
 20
8.3054248792
 30
0.0
 10
11.7256993954
 20
8.2888276125
 30
0.0
 10
11.7022318047
 20
8.2731342499
 30
0.0
 10
11.6781381134
 20
8.2583665606
 30
0.0
 10
11.6534515387
 20
8.2445447537
 30
0.0
 10
11.628206067
 20
8.2316878109
 30
0.0
 10
11.602436376
 20
8.2198135489
 30
0.0
 10
11.5761780092
 20
8.2089381216
 30
0.0
 10
11.549467057
 20
8.1990765711
 30
0.0
 10
11.5223402707
 20
8.190242478
 30
0.0
 10
11.4948350185
 20
8.1824478342
 30
0.0
 10
11.4669890955
 20
8.175703515
 30
0.0
 10
11.4388408425
 20
8.1700186727
 30
0.0
 10
11.4104289836
 20
8.1654010707
 30
0.0
 10
11.3817925817
 20
8.1618571919
 30
0.0
 10
11.3529710499
 20
8.1593917061
 30
0.0
 10
11.3240040168
 20
8.1580080794
 30
0.0
 10
11.2949313258
 20
8.1577082279
 30
0.0
 10
11.2657929562
 20
8.1584923924
 30
0.0
 10
11.2366289819
 20
8.160359647
 30
0.0
 10
11.2074795035
 20
8.1633073011
 30
0.0
 10
11.1783845911
 20
8.1673312425
 30
0.0
 10
11.1493842726
 20
8.1724260714
 30
0.0
 10
11.1205183894
 20
8.1785845871
 30
0.0
 10
11.0918266383
 20
8.1857983959
 30
0.0
 10
11.0633484861
 20
8.1940575964
 30
0.0
 10
11.0351230062
 20
8.2033506914
 30
0.0
 10
11.0071891624
 20
8.2136649903
 30
0.0
 10
10.9795849062
 20
8.2249864369
 30
0.0
 10
10.9432441253
 20
8.2414149072
 30
0.0
 10
10.8988339496
 20
8.2643927403
 30
0.0
 10
10.8475074755
 20
8.2956855238
 30
0.0
 10
10.798376092
 20
8.3305521337
 30
0.0
 10
10.751711201
 20
8.3688002216
 30
0.0
 10
10.7077684136
 20
8.4102199981
 30
0.0
 10
10.6667889891
 20
8.4545839772
 30
0.0
 10
10.6289978223
 20
8.5016486741
 30
0.0
 10
10.5946024505
 20
8.5511558166
 30
0.0
 10
10.5637918669
 20
8.602833824
 30
0.0
 10
10.5367354149
 20
8.6563989685
 30
0.0
 10
10.5135818224
 20
8.711557846
 30
0.0
 10
10.4944589696
 20
8.7680058101
 30
0.0
 10
10.4819545925
 20
8.8159232885
 30
0.0
 10
10.4740684188
 20
8.8545873487
 30
0.0
 10
10.4676159012
 20
8.8933280737
 30
0.0
 10
10.4622134448
 20
8.9419728999
 30
0.0
 10
10.460760066
 20
8.9810562106
 30
0.0
 10
10.460760066
 20
9.0005415447
 30
0.0
  0
SPLINE
  5
370
100
AcDbEntity
  8
0
100
AcDbSpline
 62
7
  6
CONTINUOUS
 70
0
 71
3
 72
54
 73
50
 74
0
 42
0.0000001
 43
0.0000001
 44
0.0000000001
 40
0.0
 40
0.0
 40
0.0
 40
0.0
 40
0.0149609029
 40
0.0299299255
 40
0.0449098678
 40
0.0599034639
 40
0.07491337
 40
0.089942152
 40
0.1049922632
 40
0.1200660404
 40
0.135165685
 40
0.1502932511
 40
0.1654506415
 40
0.1806395878
 40
0.1958616507
 40
0.21111821
 40
0.2264104527
 40
0.2417393791
 40
0.2571057873
 40
0.272510277
 40
0.2879532492
 40
0.3034348963
 40
0.3189552159
 40
0.3345140011
 40
0.3501108471
 40
0.3657451596
 40
0.3814161475
 40
0.3971228414
 40
0.4286338034
 40
0.4602716597
 40
0.4920227052
 40
0.5238710432
 40
0.5557989108
 40
0.5877870312
 40
0.6198149876
 40
0.6518616134
 40
0.6839053919
 40
0.7159248594
 40
0.7478990088
 40
0.7798076874
 40
0.8116319828
 40
0.8433545917
 40
0.8749601653
 40
0.8907172686
 40
0.9064404048
 40
0.9221283752
 40
0.9377801437
 40
0.9689664454
 40
1.0
 40
1.0
 40
1.0
 40
1.0
 10
11.8466160897
 20
8.3959139193
 30
0.0
 10
11.8396159599
 20
8.3900497533
 30
0.0
 10
11.8253837771
 20
8.3785874996
 30
0.0
 10
11.8033820444
 20
8.3622259922
 30
0.0
 10
11.7807495085
 20
8.346712752
 30
0.0
 10
11.757515953
 20
8.3320684019
 30
0.0
 10
11.7337115961
 20
8.3183117151
 30
0.0
 10
11.709367332
 20
8.3054607661
 30
0.0
 10
11.6845148733
 20
8.2935321574
 30
0.0
 10
11.6591865557
 20
8.2825413585
 30
0.0
 10
11.6334152635
 20
8.272502794
 30
0.0
 10
11.6072345899
 20
8.2634293063
 30
0.0
 10
11.5806785255
 20
8.2553328342
 30
0.0
 10
11.5537816268
 20
8.248223836
 30
0.0
 10
11.5265788847
 20
8.2421114541
 30
0.0
 10
11.4991056329
 20
8.2370038001
 30
0.0
 10
11.4713976301
 20
8.2329072924
 30
0.0
 10
11.4434908769
 20
8.2298273641
 30
0.0
 10
11.4154216588
 20
8.2277679974
 30
0.0
 10
11.3872264681
 20
8.226731722
 30
0.0
 10
11.3589419496
 20
8.2267200673
 30
0.0
 10
11.3306048694
 20
8.2277328414
 30
0.0
 10
11.3022520534
 20
8.2297687934
 30
0.0
 10
11.2739203674
 20
8.2328253055
 30
0.0
 10
11.2456465785
 20
8.2368982371
 30
0.0
 10
11.2174675715
 20
8.2419824397
 30
0.0
 10
11.1894195157
 20
8.2480712783
 30
0.0
 10
11.152209906
 20
8.257527543
 30
0.0
 10
11.106206336
 20
8.2718254933
 30
0.0
 10
11.052172919
 20
8.292822725
 30
0.0
 10
10.9995226142
 20
8.3175708761
 30
0.0
 10
10.9485303674
 20
8.3459407476
 30
0.0
 10
10.8994601669
 20
8.3777849913
 30
0.0
 10
10.8525666755
 20
8.4129381809
 30
0.0
 10
10.8080930647
 20
8.4512177728
 30
0.0
 10
10.7662700215
 20
8.4924250651
 30
0.0
 10
10.7273145193
 20
8.5363462447
 30
0.0
 10
10.69142873
 20
8.5827534659
 30
0.0
 10
10.6587989465
 20
8.6314060546
 30
0.0
 10
10.629594623
 20
8.6820515051
 30
0.0
 10
10.6039673801
 20
8.7344276173
 30
0.0
 10
10.5820509511
 20
8.78826091
 30
0.0
 10
10.5669575938
 20
8.8341569243
 30
0.0
 10
10.5568491209
 20
8.8713193617
 30
0.0
 10
10.5502641405
 20
8.8993529242
 30
0.0
 10
10.5446774578
 20
8.9275368407
 30
0.0
 10
10.5385773054
 20
8.9652175763
 30
0.0
 10
10.5334708318
 20
9.0125153742
 30
0.0
 10
10.5320975068
 20
9.0505059832
 30
0.0
 10
10.5320975068
 20
9.0694482252
 30
0.0
  0
SPLINE
  5
371
100
AcDbEntity
  8
0
100
AcDbSpline
 62
7
  6
CONTINUOUS
 70
0
 71
3
 72
28
 73
24
 74
0
 42
0.0000001
 43
0.0000001
 44
0.0000000001
 40
0.0
 40
0.0
 40
0.0
 40
0.0
 40
0.0637758941
 40
0.0955879065
 40
0.1273462157
 40
0.1907019646
 40
0.2538545302
 40
0.2853587825
 40
0.3168148204
 40
0.379582186
 40
0.4421719279
 40
0.504596336
 40
0.566869323
 40
0.6290062994
 40
0.6910240361
 40
0.7219962863
 40
0.7529455528
 40
0.8147797337
 40
0.8765514554
 40
0.9074228165
 40
0.9382862783
 40
0.9691444605
 40
1.0
 40
1.0
 40
1.0
 40
1.0
 10
10.3738539802
 20
8.963596707
 30
0.0
 10
10.3738539802
 20
8.9768809286
 30
0.0
 10
10.3743313233
 20
8.9967958715
 30
0.0
 10
10.3759282466
 20
9.0232752418
 30
0.0
 10
10.3781592211
 20
9.0496214244
 30
0.0
 10
10.3821378491
 20
9.0823605888
 30
0.0
 10
10.3877053344
 20
9.1148138748
 30
0.0
 10
10.3931017693
 20
9.1405247265
 30
0.0
 10
10.3991134247
 20
9.1660162213
 30
0.0
 10
10.4077904682
 20
9.1975212213
 30
0.0
 10
10.4200485615
 20
9.2346815902
 30
0.0
 10
10.4341169739
 20
9.2710852869
 30
0.0
 10
10.4499632992
 20
9.3066479231
 30
0.0
 10
10.4675507551
 20
9.3412870906
 30
0.0
 10
10.4836322293
 20
9.3693307864
 30
0.0
 10
10.4973236377
 20
9.3912199248
 30
0.0
 10
10.5115486133
 20
9.4127203611
 30
0.0
 10
10.530337712
 20
9.4388800436
 30
0.0
 10
10.5504336638
 20
9.4640291395
 30
0.0
 10
10.5672571247
 20
9.4834947757
 30
0.0
 10
10.5802409685
 20
9.4977595204
 30
0.0
 10
10.5935848154
 20
9.5116831736
 30
0.0
 10
10.6027161814
 20
9.5207332703
 30
0.0
 10
10.6073388754
 20
9.525198454
 30
0.0
  0
SPLINE
  5
372
100
AcDbEntity
  8
0
100
AcDbSpline
 62
7
  6
CONTINUOUS
 70
0
 71
3
 72
55
 73
51
 74
0
 42
0.0000001
 43
0.0000001
 44
0.0000000001
 40
0.0
 40
0.0
 40
0.0
 40
0.0
 40
0.0149713426
 40
0.029945745
 40
0.0449262466
 40
0.0599158497
 40
0.0749175039
 40
0.0899340815
 40
0.1049683671
 40
0.1200230387
 40
0.1351006478
 40
0.1502036136
 40
0.1653342004
 40
0.1804945089
 40
0.1956864682
 40
0.2109118157
 40
0.2261721
 40
0.2414686657
 40
0.2568026464
 40
0.2721749684
 40
0.2875863346
 40
0.3030372323
 40
0.3185279299
 40
0.3340584699
 40
0.3496286834
 40
0.3652381805
 40
0.3808863595
 40
0.3965724155
 40
0.4122953346
 40
0.4280539148
 40
0.4596672873
 40
0.4914043865
 40
0.5232494291
 40
0.5551844326
 40
0.5871895976
 40
0.619243717
 40
0.651324607
 40
0.6834095519
 40
0.7154757557
 40
0.747500794
 40
0.7794630628
 40
0.8113422149
 40
0.8431195771
 40
0.8747785431
 40
0.8905616191
 40
0.9063099906
 40
0.9220223492
 40
0.9376975737
 40
0.9689273837
 40
1.0
 40
1.0
 40
1.0
 40
1.0
 10
11.8490106838
 20
8.5069877927
 30
0.0
 10
11.8429217062
 20
8.5011062714
 30
0.0
 10
11.8305072002
 20
8.4895828574
 30
0.0
 10
11.8112112904
 20
8.4730494547
 30
0.0
 10
11.7912655923
 20
8.4572887373
 30
0.0
 10
11.770698074
 20
8.4423225867
 30
0.0
 10
11.7495368475
 20
8.4281716167
 30
0.0
 10
11.7278110891
 20
8.4148552966
 30
0.0
 10
11.7055507426
 20
8.4023918432
 30
0.0
 10
11.6827863557
 20
8.3907985663
 30
0.0
 10
11.6595493436
 20
8.3800912427
 30
0.0
 10
11.6358716458
 20
8.3702846634
 30
0.0
 10
11.6117858315
 20
8.3613923583
 30
0.0
 10
11.5873250967
 20
8.3534263915
 30
0.0
 10
11.5625230396
 20
8.3463978881
 30
0.0
 10
11.5374138251
 20
8.3403163735
 30
0.0
 10
11.5120319925
 20
8.3351901926
 30
0.0
 10
11.4864124394
 20
8.3310265042
 30
0.0
 10
11.4605904378
 20
8.3278308253
 30
0.0
 10
11.4346014841
 20
8.3256076888
 30
0.0
 10
11.4084813342
 20
8.3243600772
 30
0.0
 10
11.3822659098
 20
8.3240896049
 30
0.0
 10
11.3559912646
 20
8.3247968015
 30
0.0
 10
11.3296935267
 20
8.3264804871
 30
0.0
 10
11.303408857
 20
8.3291384279
 30
0.0
 10
11.2771734129
 20
8.3327669751
 30
0.0
 10
11.2510232127
 20
8.3373609904
 30
0.0
 10
11.2249943516
 20
8.3429142856
 30
0.0
 10
11.1991221784
 20
8.3494192192
 30
0.0
 10
11.1648504266
 20
8.3593584704
 30
0.0
 10
11.1225799403
 20
8.3741217573
 30
0.0
 10
11.0731079197
 20
8.3954482148
 30
0.0
 10
11.0250977713
 20
8.4202888845
 30
0.0
 10
10.9788147108
 20
8.448506608
 30
0.0
 10
10.934512215
 20
8.479946408
 30
0.0
 10
10.892433514
 20
8.514435535
 30
0.0
 10
10.8528094414
 20
8.5517845562
 30
0.0
 10
10.815857456
 20
8.5917884271
 30
0.0
 10
10.7817804029
 20
8.6342275869
 30
0.0
 10
10.7507654323
 20
8.678869209
 30
0.0
 10
10.7229829404
 20
8.7254681942
 30
0.0
 10
10.6985854928
 20
8.7737693196
 30
0.0
 10
10.6777077726
 20
8.8235057803
 30
0.0
 10
10.6633219558
 20
8.8659718993
 30
0.0
 10
10.6536846127
 20
8.9003858664
 30
0.0
 10
10.6474054532
 20
8.9263580249
 30
0.0
 10
10.6420774282
 20
8.9524796255
 30
0.0
 10
10.6362591667
 20
8.9874126078
 30
0.0
 10
10.6313876083
 20
9.0312767634
 30
0.0
 10
10.630077084
 20
9.0665189204
 30
0.0
 10
10.630077084
 20
9.0840892349
 30
0.0
  0
SPLINE
  5
373
100
AcDbEntity
  8
0
100
AcDbSpline
 62
7
  6
CONTINUOUS
 70
0
 71
3
 72
43
 73
39
 74
0
 42
0.0000001
 43
0.0000001
 44
0.0000000001
 40
0.0
 40
0.0
 40
0.0
 40
0.0
 40
0.0303546589
 40
0.0455763053
 40
0.0608269374
 40
0.0914129854
 40
0.1221164404
 40
0.1375134516
 40
0.1529394062
 40
0.1838739518
 40
0.2149194073
 40
0.2460709173
 40
0.2773223873
 40
0.3086665654
 40
0.3400951368
 40
0.3715988265
 40
0.403167512
 40
0.4347903413
 40
0.4664558587
 40
0.4981521342
 40
0.5298668974
 40
0.5615876735
 40
0.5933019214
 40
0.6249971718
 40
0.6566611651
 40
0.6882819878
 40
0.7198482062
 40
0.7513489958
 40
0.7827742672
 40
0.8141147812
 40
0.8453622728
 40
0.8609502244
 40
0.8765122974
 40
0.9075533139
 40
0.9384831009
 40
0.9539065263
 40
0.9693015043
 40
1.0
 40
1.0
 40
1.0
 40
1.0
 10
12.0325637016
 20
8.8651320751
 30
0.0
 10
12.0197326733
 20
8.8634445389
 30
0.0
 10
12.0003899071
 20
8.8614560174
 30
0.0
 10
11.9745016311
 20
8.859890499
 30
0.0
 10
11.9484803721
 20
8.859045844
 30
0.0
 10
11.9158316143
 20
8.8593512631
 30
0.0
 10
11.8831875504
 20
8.86146389
 30
0.0
 10
11.8570997379
 20
8.8642321154
 30
0.0
 10
11.8309996449
 20
8.8677249233
 30
0.0
 10
11.7984784394
 20
8.873437829
 30
0.0
 10
11.759781102
 20
8.8824141575
 30
0.0
 10
11.7214906738
 20
8.8934905257
 30
0.0
 10
11.6837247834
 20
8.9066329221
 30
0.0
 10
11.6465985001
 20
8.9218011424
 30
0.0
 10
11.6102251845
 20
8.9389487823
 30
0.0
 10
11.5747158236
 20
8.9580234186
 30
0.0
 10
11.5401787814
 20
8.9789667593
 30
0.0
 10
11.5067194473
 20
9.0017148235
 30
0.0
 10
11.4744399232
 20
9.0261981362
 30
0.0
 10
11.4434387127
 20
9.052341939
 30
0.0
 10
11.4138104227
 20
9.0800664175
 30
0.0
 10
11.3856454766
 20
9.1092869437
 30
0.0
 10
11.3590298401
 20
9.1399143327
 30
0.0
 10
11.3340447602
 20
9.1718551128
 30
0.0
 10
11.310766519
 20
9.2050118112
 30
0.0
 10
11.2892661982
 20
9.2392832405
 30
0.0
 10
11.2696094609
 20
9.2745648302
 30
0.0
 10
11.2518563715
 20
9.3107488626
 30
0.0
 10
11.2360611439
 20
9.3477251044
 30
0.0
 10
11.2222722354
 20
9.3853800062
 30
0.0
 10
11.2124801354
 20
9.4172568415
 30
0.0
 10
11.2056913297
 20
9.4429816689
 30
0.0
 10
11.1996130938
 20
9.4687931987
 30
0.0
 10
11.1933327959
 20
9.5012640593
 30
0.0
 10
11.1888241069
 20
9.5339684681
 30
0.0
 10
11.1862971413
 20
9.5601759021
 30
0.0
 10
11.1844939239
 20
9.5863434948
 30
0.0
 10
11.1839493834
 20
9.6060007075
 30
0.0
 10
11.1839493834
 20
9.6190888251
 30
0.0
  0
SPLINE
  5
374
100
AcDbEntity
  8
0
100
AcDbSpline
 62
7
  6
CONTINUOUS
 70
0
 71
3
 72
44
 73
40
 74
0
 42
0.0000001
 43
0.0000001
 44
0.0000000001
 40
0.0
 40
0.0
 40
0.0
 40
0.0
 40
0.0151732875
 40
0.0303748369
 40
0.0456050022
 40
0.060864052
 40
0.0914665415
 40
0.122185615
 40
0.1375900262
 40
0.1530230813
 40
0.1839708813
 40
0.2150281194
 40
0.2461897957
 40
0.277449708
 40
0.3088005338
 40
0.3402339229
 40
0.371740599
 40
0.4033104699
 40
0.4349327437
 40
0.4665960515
 40
0.4982885749
 40
0.5299981766
 40
0.5617125336
 40
0.593419271
 40
0.625106097
 40
0.656760937
 40
0.6883720656
 40
0.7199282364
 40
0.7514188085
 40
0.7828338683
 40
0.8141643422
 40
0.8454021182
 40
0.8609853547
 40
0.8765428438
 40
0.9075751893
 40
0.9384969135
 40
0.953916598
 40
0.9693080715
 40
1.0
 40
1.0
 40
1.0
 40
1.0
 10
12.0324104243
 20
8.9227882651
 30
0.0
 10
12.0264190001
 20
8.9220719579
 30
0.0
 10
12.0144041937
 20
8.9208062102
 30
0.0
 10
11.9963196237
 20
8.9194106124
 30
0.0
 10
11.9781688984
 20
8.9185170552
 30
0.0
 10
11.9538770423
 20
8.9179956283
 30
0.0
 10
11.923412223
 20
8.9186052156
 30
0.0
 10
11.8929693385
 20
8.9208877658
 30
0.0
 10
11.8686504198
 20
8.9237118454
 30
0.0
 10
11.8443269361
 20
8.9272066647
 30
0.0
 10
11.8140311663
 20
8.9328213486
 30
0.0
 10
11.7779985789
 20
8.9415196595
 30
0.0
 10
11.7423607158
 20
8.9521589622
 30
0.0
 10
11.7072256287
 20
8.9647069852
 30
0.0
 10
11.6726989804
 20
8.9791258539
 30
0.0
 10
11.6388848252
 20
8.9953720352
 30
0.0
 10
11.6058850032
 20
9.0133965144
 30
0.0
 10
11.5737989158
 20
9.0331449304
 30
0.0
 10
11.5427232077
 20
9.0545577434
 30
0.0
 10
11.5127514795
 20
9.0775704066
 30
0.0
 10
11.4839740041
 20
9.1021135598
 30
0.0
 10
11.4564774618
 20
9.1281132455
 30
0.0
 10
11.4303446798
 20
9.1554911287
 30
0.0
 10
11.4056543855
 20
9.184164732
 30
0.0
 10
11.3824809698
 20
9.2140476819
 30
0.0
 10
11.3608942652
 20
9.2450499689
 30
0.0
 10
11.3409593369
 20
9.2770782105
 30
0.0
 10
11.3227362842
 20
9.3100359517
 30
0.0
 10
11.3062800737
 20
9.343823876
 30
0.0
 10
11.2916403048
 20
9.378340381
 30
0.0
 10
11.2788612988
 20
9.4134808433
 30
0.0
 10
11.2697871634
 20
9.4432222811
 30
0.0
 10
11.263496385
 20
9.4672205757
 30
0.0
 10
11.2578642143
 20
9.4912980616
 30
0.0
 10
11.2520450504
 20
9.5215843863
 30
0.0
 10
11.247867622
 20
9.5520853389
 30
0.0
 10
11.2455263468
 20
9.5765260733
 30
0.0
 10
11.2438556558
 20
9.6009295218
 30
0.0
 10
11.2433511464
 20
9.6192610029
 30
0.0
 10
11.2433511464
 20
9.6314665255
 30
0.0
  0
SPLINE
  5
375
100
AcDbEntity
  8
0
100
AcDbSpline
 62
7
  6
CONTINUOUS
 70
0
 71
3
 72
39
 73
35
 74
0
 42
0.0000001
 43
0.0000001
 44
0.0000000001
 40
0.0
 40
0.0
 40
0.0
 40
0.0
 40
0.0301591263
 40
0.060330288
 40
0.0905566831
 40
0.1208780509
 40
0.1513307272
 40
0.1819453581
 40
0.2127460029
 40
0.2437491901
 40
0.2749634265
 40
0.306389019
 40
0.3380182266
 40
0.3698357044
 40
0.4018192029
 40
0.4339404818
 40
0.4661663969
 40
0.4984601203
 40
0.5307824546
 40
0.5630932072
 40
0.5953525884
 40
0.6275225992
 40
0.6595683758
 40
0.6914594539
 40
0.7231709171
 40
0.7546843892
 40
0.7859888294
 40
0.8170810914
 40
0.8479661965
 40
0.8786573255
 40
0.9091753653
 40
0.9395484802
 40
0.9698102396
 40
1.0
 40
1.0
 40
1.0
 40
1.0
 10
12.9277518481
 20
5.0872714629
 30
0.0
 10
12.925234196
 20
5.0844456416
 30
0.0
 10
12.9198962391
 20
5.0790535051
 30
0.0
 10
12.9110812673
 20
5.0718499625
 30
0.0
 10
12.9015417967
 20
5.0655982683
 30
0.0
 10
12.8913712198
 20
5.0603600009
 30
0.0
 10
12.8806677751
 20
5.056185171
 30
0.0
 10
12.8695350516
 20
5.0531138624
 30
0.0
 10
12.8580806065
 20
5.0511752658
 30
0.0
 10
12.8464149771
 20
5.0503876308
 30
0.0
 10
12.8346505889
 20
5.0507580762
 30
0.0
 10
12.8229006815
 20
5.0522825853
 30
0.0
 10
12.811278234
 20
5.0549460753
 30
0.0
 10
12.7998949014
 20
5.058722572
 30
0.0
 10
12.7888599678
 20
5.0635754781
 30
0.0
 10
12.7782793237
 20
5.0694579346
 30
0.0
 10
12.7682544742
 20
5.0763132739
 30
0.0
 10
12.7588815879
 20
5.0840755612
 30
0.0
 10
12.7502505937
 20
5.0926702205
 30
0.0
 10
12.7424443332
 20
5.102014738
 30
0.0
 10
12.7355377812
 20
5.1120194428
 30
0.0
 10
12.7295973373
 20
5.122588351
 30
0.0
 10
12.7246801969
 20
5.1336200678
 30
0.0
 10
12.7208338057
 20
5.1450087388
 30
0.0
 10
12.7180954028
 20
5.1566450417
 30
0.0
 10
12.716491656
 20
5.168417211
 30
0.0
 10
12.7160383874
 20
5.1802120842
 30
0.0
 10
12.7167404029
 20
5.1919161683
 30
0.0
 10
12.7185913925
 20
5.2034167066
 30
0.0
 10
12.7215740084
 20
5.2146027803
 30
0.0
 10
12.7256598044
 20
5.2253662837
 30
0.0
 10
12.7308100395
 20
5.2356034002
 30
0.0
 10
12.736974083
 20
5.2452138933
 30
0.0
 10
12.7417259871
 20
5.251148456
 30
0.0
 10
12.7442461965
 20
5.2539771476
 30
0.0
  0
SPLINE
  5
376
100
AcDbEntity
  8
0
100
AcDbSpline
 62
7
  6
CONTINUOUS
 70
0
 71
3
 72
39
 73
35
 74
0
 42
0.0000001
 43
0.0000001
 44
0.0000000001
 40
0.0
 40
0.0
 40
0.0
 40
0.0
 40
0.0301591263
 40
0.060330288
 40
0.0905566831
 40
0.1208780509
 40
0.1513307272
 40
0.1819453581
 40
0.2127460029
 40
0.2437491901
 40
0.2749634265
 40
0.306389019
 40
0.3380182266
 40
0.3698357044
 40
0.4018192029
 40
0.4339404818
 40
0.4661663969
 40
0.4984601203
 40
0.5307824546
 40
0.5630932072
 40
0.5953525884
 40
0.6275225992
 40
0.6595683758
 40
0.6914594539
 40
0.7231709171
 40
0.7546843892
 40
0.7859888294
 40
0.8170810914
 40
0.8479661965
 40
0.8786573255
 40
0.9091753653
 40
0.9395484802
 40
0.9698102396
 40
1.0
 40
1.0
 40
1.0
 40
1.0
 10
12.7442461965
 20
5.2539771476
 30
0.0
 10
12.7467638487
 20
5.2568029688
 30
0.0
 10
12.7521018055
 20
5.2621951053
 30
0.0
 10
12.7609167773
 20
5.2693986479
 30
0.0
 10
12.7704562479
 20
5.2756503421
 30
0.0
 10
12.7806268249
 20
5.2808886095
 30
0.0
 10
12.7913302696
 20
5.2850634395
 30
0.0
 10
12.802462993
 20
5.2881347481
 30
0.0
 10
12.8139174381
 20
5.2900733446
 30
0.0
 10
12.8255830675
 20
5.2908609796
 30
0.0
 10
12.8373474558
 20
5.2904905342
 30
0.0
 10
12.8490973631
 20
5.2889660251
 30
0.0
 10
12.8607198106
 20
5.2863025352
 30
0.0
 10
12.8721031433
 20
5.2825260384
 30
0.0
 10
12.8831380769
 20
5.2776731323
 30
0.0
 10
12.893718721
 20
5.2717906758
 30
0.0
 10
12.9037435704
 20
5.2649353365
 30
0.0
 10
12.9131164567
 20
5.2571730492
 30
0.0
 10
12.9217474509
 20
5.24857839
 30
0.0
 10
12.9295537114
 20
5.2392338725
 30
0.0
 10
12.9364602634
 20
5.2292291676
 30
0.0
 10
12.9424007073
 20
5.2186602594
 30
0.0
 10
12.9473178477
 20
5.2076285426
 30
0.0
 10
12.9511642389
 20
5.1962398717
 30
0.0
 10
12.9539026418
 20
5.1846035687
 30
0.0
 10
12.9555063886
 20
5.1728313994
 30
0.0
 10
12.9559596572
 20
5.1610365262
 30
0.0
 10
12.9552576418
 20
5.1493324422
 30
0.0
 10
12.9534066521
 20
5.1378319039
 30
0.0
 10
12.9504240363
 20
5.1266458301
 30
0.0
 10
12.9463382402
 20
5.1158823267
 30
0.0
 10
12.9411880052
 20
5.1056452102
 30
0.0
 10
12.9350239616
 20
5.0960347171
 30
0.0
 10
12.9302720576
 20
5.0901001544
 30
0.0
 10
12.9277518481
 20
5.0872714629
 30
0.0
  0
SPLINE
  5
377
100
AcDbEntity
  8
0
100
AcDbSpline
 62
7
  6
CONTINUOUS
 70
0
 71
3
 72
39
 73
35
 74
0
 42
0.0000001
 43
0.0000001
 44
0.0000000001
 40
0.0
 40
0.0
 40
0.0
 40
0.0
 40
0.0307220853
 40
0.0615353935
 40
0.0924373903
 40
0.123424861
 40
0.1544939419
 40
0.1856401473
 40
0.216858407
 40
0.2481431177
 40
0.279488184
 40
0.3108870598
 40
0.3423328045
 40
0.3738181397
 40
0.4053354964
 40
0.4368770697
 40
0.4684348836
 40
0.5000008462
 40
0.5315668019
 40
0.5631245966
 40
0.5946661387
 40
0.6261834514
 40
0.6576687301
 40
0.6891144075
 40
0.7205132048
 40
0.7518581812
 40
0.7831427931
 40
0.8143609439
 40
0.8455070329
 40
0.876575995
 40
0.9075633128
 40
0.9384652097
 40
0.9692784105
 40
1.0
 40
1.0
 40
1.0
 40
1.0
 10
12.0109152888
 20
9.0557752981
 30
0.0
 10
12.0009998881
 20
9.0569887789
 30
0.0
 10
11.9811906537
 20
9.0598588726
 30
0.0
 10
11.9516537764
 20
9.0654715575
 30
0.0
 10
11.92230535
 20
9.0723872569
 30
0.0
 10
11.8932047179
 20
9.0805920006
 30
0.0
 10
11.8644097648
 20
9.0900694171
 30
0.0
 10
11.8359780447
 20
9.1008006078
 30
0.0
 10
11.8079662677
 20
9.1127640522
 30
0.0
 10
11.7804303339
 20
9.1259358257
 30
0.0
 10
11.7534252199
 20
9.140289661
 30
0.0
 10
11.7270048321
 20
9.1557968975
 30
0.0
 10
11.7012218637
 20
9.1724265046
 30
0.0
 10
11.6761277682
 20
9.1901452806
 30
0.0
 10
11.6517726692
 20
9.2089179059
 30
0.0
 10
11.6282051503
 20
9.2287068663
 30
0.0
 10
11.6054722186
 20
9.2494726273
 30
0.0
 10
11.5836192627
 20
9.2711737617
 30
0.0
 10
11.5626899428
 20
9.2937669927
 30
0.0
 10
11.5427259821
 20
9.3172071746
 30
0.0
 10
11.5237672189
 20
9.3414475196
 30
0.0
 10
11.5058515472
 20
9.3664396862
 30
0.0
 10
11.4890147428
 20
9.3921337964
 30
0.0
 10
11.4732903707
 20
9.4184785375
 30
0.0
 10
11.4587098379
 20
9.4454213411
 30
0.0
 10
11.4453023332
 20
9.4729084704
 30
0.0
 10
11.4330945978
 20
9.5008850417
 30
0.0
 10
11.4221109898
 20
9.529295209
 30
0.0
 10
11.4123734953
 20
9.5580822821
 30
0.0
 10
11.4039016427
 20
9.5871888244
 30
0.0
 10
11.3967122846
 20
9.616556671
 30
0.0
 10
11.3908198216
 20
9.6461274153
 30
0.0
 10
11.3862361965
 20
9.6758411482
 30
0.0
 10
11.3840556256
 20
9.6957378932
 30
0.0
 10
11.383187188
 20
9.7056892902
 30
0.0
  0
SPLINE
  5
378
100
AcDbEntity
  8
0
100
AcDbSpline
 62
7
  6
CONTINUOUS
 70
0
 71
3
 72
39
 73
35
 74
0
 42
0.0000001
 43
0.0000001
 44
0.0000000001
 40
0.0
 40
0.0
 40
0.0
 40
0.0
 40
0.0315206499
 40
0.0629611014
 40
0.0943254206
 40
0.1256182265
 40
0.1568446568
 40
0.1880103398
 40
0.2191213576
 40
0.2501841974
 40
0.2812057044
 40
0.3121930389
 40
0.34315362
 40
0.3740950663
 40
0.4050251417
 40
0.4359516997
 40
0.4668826198
 40
0.4978257455
 40
0.5287888287
 40
0.5597794727
 40
0.5908050697
 40
0.6218727455
 40
0.6529893126
 40
0.6841612191
 40
0.7153944967
 40
0.7466947202
 40
0.7780669819
 40
0.8095158436
 40
0.8410452737
 40
0.8726587846
 40
0.9043591251
 40
0.9361481565
 40
0.9680290551
 40
1.0
 40
1.0
 40
1.0
 40
1.0
 10
9.1092787748
 20
7.6934382432
 30
0.0
 10
9.098499352
 20
7.6914782983
 30
0.0
 10
9.0770483489
 20
7.6871048179
 30
0.0
 10
9.0452235934
 20
7.6791831918
 30
0.0
 10
9.0138444125
 20
7.6699219412
 30
0.0
 10
8.9829653729
 20
7.6593370239
 30
0.0
 10
8.9526392467
 20
7.6474464407
 30
0.0
 10
8.922918082
 20
7.6342705965
 30
0.0
 10
8.8938528121
 20
7.6198320948
 30
0.0
 10
8.8654933103
 20
7.6041556218
 30
0.0
 10
8.837888242
 20
7.5872679998
 30
0.0
 10
8.811084913
 20
7.569198243
 30
0.0
 10
8.7851292944
 20
7.5499773186
 30
0.0
 10
8.7600659596
 20
7.5296381102
 30
0.0
 10
8.735937865
 20
7.5082155383
 30
0.0
 10
8.7127863619
 20
7.4857463686
 30
0.0
 10
8.6906511928
 20
7.4622690931
 30
0.0
 10
8.6695703424
 20
7.43782396
 30
0.0
 10
8.6495798945
 20
7.4124529525
 30
0.0
 10
8.6307141243
 20
7.3861995783
 30
0.0
 10
8.6130054409
 20
7.3591088211
 30
0.0
 10
8.5964841404
 20
7.3312271874
 30
0.0
 10
8.581178498
 20
7.3026025144
 30
0.0
 10
8.5671147863
 20
7.2732838649
 30
0.0
 10
8.5543171095
 20
7.2433215169
 30
0.0
 10
8.5428073027
 20
7.2127668839
 30
0.0
 10
8.5326050769
 20
7.1816723473
 30
0.0
 10
8.5237279707
 20
7.150091205
 30
0.0
 10
8.5161910662
 20
7.1180776134
 30
0.0
 10
8.5100072519
 20
7.0856864372
 30
0.0
 10
8.5051871628
 20
7.0529733565
 30
0.0
 10
8.5017388477
 20
7.0199938467
 30
0.0
 10
8.4996684868
 20
6.9868056781
 30
0.0
 10
8.4992095904
 20
6.9646088409
 30
0.0
 10
8.4992095904
 20
6.953496169
 30
0.0
  0
SPLINE
  5
379
100
AcDbEntity
  8
0
100
AcDbSpline
 62
7
  6
CONTINUOUS
 70
0
 71
3
 72
25
 73
21
 74
0
 42
0.0000001
 43
0.0000001
 44
0.0000000001
 40
0.0
 40
0.0
 40
0.0
 40
0.0
 40
0.0616739827
 40
0.1233885017
 40
0.1851611334
 40
0.2470089423
 40
0.2779683585
 40
0.3089526602
 40
0.3709992415
 40
0.4331676999
 40
0.49547167
 40
0.5579236192
 40
0.6205347777
 40
0.6833149774
 40
0.7147732343
 40
0.7462768529
 40
0.8094192768
 40
0.8727509238
 40
0.9362784945
 40
1.0
 40
1.0
 40
1.0
 40
1.0
 10
10.6083002544
 20
9.5242836113
 30
0.0
 10
10.6002275736
 20
9.5155000468
 30
0.0
 10
10.5844937906
 20
9.4975387174
 30
0.0
 10
10.5621961969
 20
9.4694932797
 30
0.0
 10
10.5412380819
 20
9.4403912711
 30
0.0
 10
10.5249293568
 20
9.415315218
 30
0.0
 10
10.512593994
 20
9.3947893937
 30
0.0
 10
10.5007282376
 20
9.3739443077
 30
0.0
 10
10.4868045835
 20
9.347334254
 30
0.0
 10
10.4715939188
 20
9.3146042363
 30
0.0
 10
10.4579025855
 20
9.2811251016
 30
0.0
 10
10.4457579289
 20
9.2469636153
 30
0.0
 10
10.4351839999
 20
9.2121879382
 30
0.0
 10
10.4277035779
 20
9.1827727261
 30
0.0
 10
10.4225229539
 20
9.1590063697
 30
0.0
 10
10.4178739507
 20
9.1350589263
 30
0.0
 10
10.4130793325
 20
9.1048677938
 30
0.0
 10
10.4089653904
 20
9.0683337848
 30
0.0
 10
10.4064949579
 20
9.0315401955
 30
0.0
 10
10.4059475148
 20
9.0069225008
 30
0.0
 10
10.4059475148
 20
8.9945966828
 30
0.0
  0
SPLINE
  5
37A
100
AcDbEntity
  8
0
100
AcDbSpline
 62
7
  6
CONTINUOUS
 70
0
 71
3
 72
26
 73
22
 74
0
 42
0.0000001
 43
0.0000001
 44
0.0000000001
 40
0.0
 40
0.0
 40
0.0
 40
0.0
 40
0.0617092235
 40
0.0925729854
 40
0.1234446509
 40
0.1852169748
 40
0.2470517571
 40
0.2780013275
 40
0.3089738777
 40
0.3709922222
 40
0.4331298084
 40
0.4954034049
 40
0.5578284199
 40
0.6204187753
 40
0.6831867461
 40
0.7146430864
 40
0.7461476576
 40
0.8093008659
 40
0.872657114
 40
0.9362236724
 40
1.0
 40
1.0
 40
1.0
 40
1.0
 10
10.6814999936
 20
9.5314871985
 30
0.0
 10
10.6727596312
 20
9.5230446445
 30
0.0
 10
10.6599705191
 20
9.5100388887
 30
0.0
 10
10.6436062721
 20
9.4920600917
 30
0.0
 10
10.6277009573
 20
9.4736568829
 30
0.0
 10
10.608702065
 20
9.4498806669
 30
0.0
 10
10.5909385517
 20
9.4251489525
 30
0.0
 10
10.5774900443
 20
9.4048221774
 30
0.0
 10
10.564545979
 20
9.3841279094
 30
0.0
 10
10.5493423167
 20
9.3576150392
 30
0.0
 10
10.5327149006
 20
9.3248667084
 30
0.0
 10
10.5177335752
 20
9.2912453187
 30
0.0
 10
10.5044331003
 20
9.2568287841
 30
0.0
 10
10.492844121
 20
9.2216968837
 30
0.0
 10
10.4846406799
 20
9.191911656
 30
0.0
 10
10.4789572227
 20
9.1678116406
 30
0.0
 10
10.4738553137
 20
9.1435042951
 30
0.0
 10
10.4685917598
 20
9.1128222945
 30
0.0
 10
10.4640743896
 20
9.075650697
 30
0.0
 10
10.4613611767
 20
9.0381815983
 30
0.0
 10
10.460760066
 20
9.0131005871
 30
0.0
 10
10.460760066
 20
9.0005415447
 30
0.0
  0
SPLINE
  5
37B
100
AcDbEntity
  8
0
100
AcDbSpline
 62
7
  6
CONTINUOUS
 70
0
 71
3
 72
25
 73
21
 74
0
 42
0.0000001
 43
0.0000001
 44
0.0000000001
 40
0.0
 40
0.0
 40
0.0
 40
0.0
 40
0.0616698585
 40
0.0925221144
 40
0.1233873692
 40
0.1851610503
 40
0.2470116891
 40
0.2779729665
 40
0.308959368
 40
0.3710107408
 40
0.4331841913
 40
0.4954928703
 40
0.5579488032
 40
0.6205628041
 40
0.6833443175
 40
0.7463016016
 40
0.8094414048
 40
0.872768098
 40
0.9362885602
 40
1.0
 40
1.0
 40
1.0
 40
1.0
 10
10.718708324
 20
9.5650605591
 30
0.0
 10
10.7112548959
 20
9.5567888432
 30
0.0
 10
10.7003626781
 20
9.5441129181
 30
0.0
 10
10.6864479624
 20
9.5267138341
 30
0.0
 10
10.6729342305
 20
9.5089773967
 30
0.0
 10
10.656815402
 20
9.4862002196
 30
0.0
 10
10.6417718639
 20
9.4626784119
 30
0.0
 10
10.6303951339
 20
9.4434366988
 30
0.0
 10
10.6194524258
 20
9.4239033712
 30
0.0
 10
10.6066140048
 20
9.3989817342
 30
0.0
 10
10.5925912763
 20
9.3683486524
 30
0.0
 10
10.5799711449
 20
9.3370325043
 30
0.0
 10
10.568778246
 20
9.3050942353
 30
0.0
 10
10.5590340909
 20
9.2725955172
 30
0.0
 10
10.5507574206
 20
9.2395992264
 30
0.0
 10
10.5439642048
 20
9.2061691034
 30
0.0
 10
10.5386676445
 20
9.1723699567
 30
0.0
 10
10.5348776384
 20
9.138266511
 30
0.0
 10
10.5326018534
 20
9.1039260225
 30
0.0
 10
10.5320975068
 20
9.0809512301
 30
0.0
 10
10.5320975068
 20
9.0694482252
 30
0.0
  0
SPLINE
  5
37C
100
AcDbEntity
  8
0
100
AcDbSpline
 62
7
  6
CONTINUOUS
 70
0
 71
3
 72
26
 73
22
 74
0
 42
0.0000001
 43
0.0000001
 44
0.0000000001
 40
0.0
 40
0.0
 40
0.0
 40
0.0
 40
0.0617092224
 40
0.0925729861
 40
0.1234446505
 40
0.1852169763
 40
0.2470517586
 40
0.2780013275
 40
0.3089738786
 40
0.3709922214
 40
0.4331298083
 40
0.4954034066
 40
0.5578284213
 40
0.6204187786
 40
0.6831867415
 40
0.7146430811
 40
0.7461476607
 40
0.8093008765
 40
0.8726570625
 40
0.9362237834
 40
1.0
 40
1.0
 40
1.0
 40
1.0
 10
10.8291226812
 20
9.5628534858
 30
0.0
 10
10.8212413304
 20
9.5552406589
 30
0.0
 10
10.8097090934
 20
9.5435131488
 30
0.0
 10
10.7949531665
 20
9.527301273
 30
0.0
 10
10.7806109791
 20
9.5107067754
 30
0.0
 10
10.7634793247
 20
9.489267265
 30
0.0
 10
10.7474616415
 20
9.4669661671
 30
0.0
 10
10.7353348055
 20
9.4486371416
 30
0.0
 10
10.7236629388
 20
9.4299766745
 30
0.0
 10
10.709953452
 20
9.4060695175
 30
0.0
 10
10.694960181
 20
9.3765396938
 30
0.0
 10
10.6814512291
 20
9.3462226141
 30
0.0
 10
10.6694579337
 20
9.3151885362
 30
0.0
 10
10.6590079273
 20
9.283509402
 30
0.0
 10
10.6516107016
 20
9.2566514757
 30
0.0
 10
10.6464858303
 20
9.2349200088
 30
0.0
 10
10.6418853187
 20
9.2130015928
 30
0.0
 10
10.6371390849
 20
9.1853350273
 30
0.0
 10
10.6330656704
 20
9.1518166405
 30
0.0
 10
10.6306191257
 20
9.1180300093
 30
0.0
 10
10.630077084
 20
9.0954139536
 30
0.0
 10
10.630077084
 20
9.0840892349
 30
0.0
  0
SPLINE
  5
37D
100
AcDbEntity
  8
0
100
AcDbSpline
 62
7
  6
CONTINUOUS
 70
0
 71
3
 72
23
 73
19
 74
0
 42
0.0000001
 43
0.0000001
 44
0.0000000001
 40
0.0
 40
0.0
 40
0.0
 40
0.0
 40
0.0618603907
 40
0.1239640988
 40
0.1862853195
 40
0.2487942118
 40
0.3114574842
 40
0.3742390306
 40
0.4371006016
 40
0.5000025046
 40
0.5629043217
 40
0.6257656364
 40
0.6885467608
 40
0.7512094533
 40
0.8137176182
 40
0.8760379774
 40
0.9381407091
 40
1.0
 40
1.0
 40
1.0
 40
1.0
 10
11.9478060816
 20
9.2287369863
 30
0.0
 10
11.9359895143
 20
9.2319965347
 30
0.0
 10
11.9125260451
 20
9.2393423293
 30
0.0
 10
11.8781023257
 20
9.2527424166
 30
0.0
 10
11.8445399431
 20
9.2684822332
 30
0.0
 10
11.8120078582
 20
9.2864827251
 30
0.0
 10
11.7806671176
 20
9.306654426
 30
0.0
 10
11.7506735906
 20
9.3288969095
 30
0.0
 10
11.7221762558
 20
9.353099556
 30
0.0
 10
11.6953167231
 20
9.3791420265
 30
0.0
 10
11.6702284702
 20
9.4068948738
 30
0.0
 10
11.6470362019
 20
9.43622018
 30
0.0
 10
11.6258552364
 20
9.4669722181
 30
0.0
 10
11.6067909204
 20
9.4989982373
 30
0.0
 10
11.5899381725
 20
9.5321389564
 30
0.0
 10
11.5753807772
 20
9.5662303043
 30
0.0
 10
11.5631918434
 20
9.6011006609
 30
0.0
 10
11.5566705157
 20
9.6248060864
 30
0.0
 10
11.553825925
 20
9.6367291263
 30
0.0
  0
SPLINE
  5
37E
100
AcDbEntity
  8
0
100
AcDbSpline
 62
7
  6
CONTINUOUS
 70
0
 71
3
 72
52
 73
48
 74
0
 42
0.0000001
 43
0.0000001
 44
0.0000000001
 40
0.0
 40
0.0
 40
0.0
 40
0.0
 40
0.0063158568
 40
0.0126706178
 40
0.0191024266
 40
0.0256479345
 40
0.0323417789
 40
0.0392160908
 40
0.0536138298
 40
0.0611945069
 40
0.0690562056
 40
0.0772172859
 40
0.0856936163
 40
0.094498959
 40
0.1036450353
 40
0.1131417384
 40
0.1229974561
 40
0.1332190303
 40
0.1438120572
 40
0.1547810415
 40
0.1661293353
 40
0.1778594655
 40
0.1899731041
 40
0.2024710934
 40
0.2153537091
 40
0.2286205088
 40
0.2422704818
 40
0.2563021821
 40
0.2707135511
 40
0.3006644045
 40
0.3320995118
 40
0.364988637
 40
0.399296387
 40
0.4349827261
 40
0.4720035166
 40
0.5103109065
 40
0.549853604
 40
0.5905771631
 40
0.632424299
 40
0.6753351168
 40
0.7192472758
 40
0.7640961515
 40
0.8098152405
 40
0.8563361104
 40
0.9035880427
 40
0.9515014724
 40
1.0
 40
1.0
 40
1.0
 40
1.0
 10
14.5172777244
 20
8.1447794538
 30
0.0
 10
14.5188834036
 20
8.1446681035
 30
0.0
 10
14.5220970662
 20
8.144313305
 30
0.0
 10
14.5268815518
 20
8.1433884859
 30
0.0
 10
14.5316340432
 20
8.1420710334
 30
0.0
 10
14.5363517919
 20
8.1403620931
 30
0.0
 10
14.5410329158
 20
8.1382625548
 30
0.0
 10
14.5473184088
 20
8.1348932172
 30
0.0
 10
14.5534332217
 20
8.1307686462
 30
0.0
 10
14.559350792
 20
8.125988896
 30
0.0
 10
14.563820568
 20
8.1219590093
 30
0.0
 10
14.568242583
 20
8.1175482608
 30
0.0
 10
14.5726157937
 20
8.112758279
 30
0.0
 10
14.5769383591
 20
8.1075910846
 30
0.0
 10
14.5812086985
 20
8.102048789
 30
0.0
 10
14.5854252184
 20
8.0961336891
 30
0.0
 10
14.5895861967
 20
8.0898481277
 30
0.0
 10
14.5936900628
 20
8.083194695
 30
0.0
 10
14.5977351894
 20
8.0761760843
 30
0.0
 10
14.6017198947
 20
8.0687951149
 30
0.0
 10
14.6056426568
 20
8.0610548259
 30
0.0
 10
14.6095018389
 20
8.0529583466
 30
0.0
 10
14.613295858
 20
8.0445089766
 30
0.0
 10
14.6170232283
 20
8.0357101877
 30
0.0
 10
14.6206823516
 20
8.0265655549
 30
0.0
 10
14.6242717641
 20
8.0170788353
 30
0.0
 10
14.627790006
 20
8.007253926
 30
0.0
 10
14.63123559
 20
7.9970948271
 30
0.0
 10
14.6357894999
 20
7.9829270565
 30
0.0
 10
14.6412766074
 20
7.964403467
 30
0.0
 10
14.6474678393
 20
7.9411870995
 30
0.0
 10
14.6533371489
 20
7.9167440702
 30
0.0
 10
14.6588747783
 20
7.8911145988
 30
0.0
 10
14.6640715271
 20
7.8643406884
 30
0.0
 10
14.6689187404
 20
7.8364663444
 30
0.0
 10
14.6734083262
 20
7.8075373957
 30
0.0
 10
14.6775328003
 20
7.7776014567
 30
0.0
 10
14.6812853059
 20
7.7467078359
 30
0.0
 10
14.6846595884
 20
7.7149074333
 30
0.0
 10
14.6876500079
 20
7.6822526525
 30
0.0
 10
14.6902515821
 20
7.6487973385
 30
0.0
 10
14.6924599923
 20
7.6145966516
 30
0.0
 10
14.6942715462
 20
7.5797069832
 30
0.0
 10
14.6956831914
 20
7.544186008
 30
0.0
 10
14.6966926326
 20
7.5080919264
 30
0.0
 10
14.6972980849
 20
7.471484829
 30
0.0
 10
14.6974310419
 20
7.4469149415
 30
0.0
 10
14.6974310419
 20
7.4345555569
 30
0.0
  0
SPLINE
  5
37F
100
AcDbEntity
  8
0
100
AcDbSpline
 62
7
  6
CONTINUOUS
 70
0
 71
3
 72
59
 73
55
 74
0
 42
0.0000001
 43
0.0000001
 44
0.0000000001
 40
0.0
 40
0.0
 40
0.0
 40
0.0
 40
0.0417736767
 40
0.0840362765
 40
0.1266574811
 40
0.1695051262
 40
0.2124463914
 40
0.2553479967
 40
0.2980768488
 40
0.3405005256
 40
0.3824878146
 40
0.4239092383
 40
0.464637589
 40
0.5045484688
 40
0.5435208413
 40
0.5814375992
 40
0.6181861539
 40
0.6360888024
 40
0.6536595531
 40
0.6708859017
 40
0.6877557363
 40
0.7042573867
 40
0.720379648
 40
0.7361117919
 40
0.7514436399
 40
0.7663655339
 40
0.7808684645
 40
0.7949440033
 40
0.8085844873
 40
0.8217829218
 40
0.83453322
 40
0.8468300923
 40
0.8586693371
 40
0.8700477415
 40
0.8809634199
 40
0.8914157604
 40
0.9014058112
 40
0.9109363168
 40
0.9200121632
 40
0.9286405545
 40
0.9368315416
 40
0.9445983908
 40
0.9519582219
 40
0.9589325919
 40
0.9655482195
 40
0.9718376843
 40
0.9778400275
 40
0.9836011664
 40
0.9864084736
 40
0.9891757902
 40
0.9919106587
 40
0.9946209114
 40
0.9973146138
 40
1.0
 40
1.0
 40
1.0
 40
1.0
 10
14.6974310419
 20
7.4345555569
 30
0.0
 10
14.6974310419
 20
7.4168324835
 30
0.0
 10
14.6971545432
 20
7.381178347
 30
0.0
 10
14.6959321925
 20
7.3274541571
 30
0.0
 10
14.6939033905
 20
7.2732983203
 30
0.0
 10
14.6910747878
 20
7.218890106
 30
0.0
 10
14.687455732
 20
7.164409524
 30
0.0
 10
14.6830581853
 20
7.1100368095
 30
0.0
 10
14.6778967155
 20
7.0559518517
 30
0.0
 10
14.6719884327
 20
7.0023335759
 30
0.0
 10
14.6653529395
 20
6.9493593544
 30
0.0
 10
14.6580122644
 20
6.8972044143
 30
0.0
 10
14.6499907916
 20
6.846041247
 30
0.0
 10
14.641315179
 20
6.7960390512
 30
0.0
 10
14.6320142806
 20
6.7473630909
 30
0.0
 10
14.6221190228
 20
6.7001744021
 30
0.0
 10
14.6133305452
 20
6.6618942307
 30
0.0
 10
14.6060164737
 20
6.632138299
 30
0.0
 10
14.6004509378
 20
6.610482993
 30
0.0
 10
14.5947624123
 20
6.5893130701
 30
0.0
 10
14.588955573
 20
6.5686460191
 30
0.0
 10
14.5830352471
 20
6.5484989294
 30
0.0
 10
14.5770063491
 20
6.5288884525
 30
0.0
 10
14.5708738604
 20
6.5098307949
 30
0.0
 10
14.5646428974
 20
6.4913416969
 30
0.0
 10
14.5583185832
 20
6.4734364315
 30
0.0
 10
14.5519062174
 20
6.45612977
 30
0.0
 10
14.5454110467
 20
6.4394360002
 30
0.0
 10
14.5388385326
 20
6.4233688699
 30
0.0
 10
14.5321940273
 20
6.407941631
 30
0.0
 10
14.525483129
 20
6.393166955
 30
0.0
 10
14.5187112755
 20
6.37905701
 30
0.0
 10
14.5118841694
 20
6.3656233401
 30
0.0
 10
14.5050073115
 20
6.3528769817
 30
0.0
 10
14.4980864656
 20
6.3408283053
 30
0.0
 10
14.4911271654
 20
6.3294871692
 30
0.0
 10
14.4841351767
 20
6.3188627305
 30
0.0
 10
14.477116018
 20
6.3089636307
 30
0.0
 10
14.4700753742
 20
6.2997977911
 30
0.0
 10
14.4630186712
 20
6.2913726207
 30
0.0
 10
14.4559513979
 20
6.2836948291
 30
0.0
 10
14.4488787743
 20
6.276770643
 30
0.0
 10
14.4418059624
 20
6.2706056969
 30
0.0
 10
14.4347378631
 20
6.2652052356
 30
0.0
 10
14.4276793168
 20
6.2605741729
 30
0.0
 10
14.420634877
 20
6.2567171838
 30
0.0
 10
14.4136099948
 20
6.2536390626
 30
0.0
 10
14.407724757
 20
6.2517101336
 30
0.0
 10
14.4030494151
 20
6.2505745181
 30
0.0
 10
14.3995822935
 20
6.2499262614
 30
0.0
 10
14.3961256826
 20
6.2494744869
 30
0.0
 10
14.3926802414
 20
6.2492193107
 30
0.0
 10
14.3892469408
 20
6.2491608894
 30
0.0
 10
14.386965163
 20
6.2492532043
 30
0.0
 10
14.3858285796
 20
6.2493320238
 30
0.0
  0
SPLINE
  5
380
100
AcDbEntity
  8
0
100
AcDbSpline
 62
7
  6
CONTINUOUS
 70
0
 71
3
 72
52
 73
48
 74
0
 42
0.0000001
 43
0.0000001
 44
0.0000000001
 40
0.0
 40
0.0
 40
0.0
 40
0.0
 40
0.0063158568
 40
0.0126706178
 40
0.0191024266
 40
0.0256479345
 40
0.0323417789
 40
0.0392160908
 40
0.0536138298
 40
0.0611945069
 40
0.0690562056
 40
0.0772172859
 40
0.0856936163
 40
0.094498959
 40
0.1036450353
 40
0.1131417384
 40
0.1229974561
 40
0.1332190303
 40
0.1438120572
 40
0.1547810415
 40
0.1661293353
 40
0.1778594655
 40
0.1899731041
 40
0.2024710934
 40
0.2153537091
 40
0.2286205088
 40
0.2422704818
 40
0.2563021821
 40
0.2707135511
 40
0.3006644045
 40
0.3320995118
 40
0.364988637
 40
0.399296387
 40
0.4349827261
 40
0.4720035166
 40
0.5103109065
 40
0.549853604
 40
0.5905771631
 40
0.632424299
 40
0.6753351168
 40
0.7192472758
 40
0.7640961515
 40
0.8098152405
 40
0.8563361104
 40
0.9035880427
 40
0.9515014724
 40
1.0
 40
1.0
 40
1.0
 40
1.0
 10
14.5172777244
 20
11.2840385753
 30
0.0
 10
14.5188834036
 20
11.283927225
 30
0.0
 10
14.5220970662
 20
11.2835724265
 30
0.0
 10
14.5268815518
 20
11.2826476074
 30
0.0
 10
14.5316340432
 20
11.2813301549
 30
0.0
 10
14.5363517919
 20
11.2796212145
 30
0.0
 10
14.5410329158
 20
11.2775216763
 30
0.0
 10
14.5473184088
 20
11.2741523387
 30
0.0
 10
14.5534332217
 20
11.2700277677
 30
0.0
 10
14.559350792
 20
11.2652480174
 30
0.0
 10
14.563820568
 20
11.2612181307
 30
0.0
 10
14.568242583
 20
11.2568073822
 30
0.0
 10
14.5726157937
 20
11.2520174005
 30
0.0
 10
14.5769383591
 20
11.2468502061
 30
0.0
 10
14.5812086985
 20
11.2413079105
 30
0.0
 10
14.5854252184
 20
11.2353928106
 30
0.0
 10
14.5895861967
 20
11.2291072491
 30
0.0
 10
14.5936900628
 20
11.2224538165
 30
0.0
 10
14.5977351894
 20
11.2154352057
 30
0.0
 10
14.6017198947
 20
11.2080542363
 30
0.0
 10
14.6056426568
 20
11.2003139473
 30
0.0
 10
14.6095018389
 20
11.1922174681
 30
0.0
 10
14.613295858
 20
11.183768098
 30
0.0
 10
14.6170232283
 20
11.1749693092
 30
0.0
 10
14.6206823516
 20
11.1658246763
 30
0.0
 10
14.6242717641
 20
11.1563379568
 30
0.0
 10
14.627790006
 20
11.1465130474
 30
0.0
 10
14.63123559
 20
11.1363539485
 30
0.0
 10
14.6357894999
 20
11.1221861779
 30
0.0
 10
14.6412766074
 20
11.1036625884
 30
0.0
 10
14.6474678393
 20
11.080446221
 30
0.0
 10
14.6533371489
 20
11.0560031917
 30
0.0
 10
14.6588747783
 20
11.0303737202
 30
0.0
 10
14.6640715271
 20
11.0035998098
 30
0.0
 10
14.6689187404
 20
10.9757254659
 30
0.0
 10
14.6734083262
 20
10.9467965172
 30
0.0
 10
14.6775328003
 20
10.9168605782
 30
0.0
 10
14.6812853059
 20
10.8859669574
 30
0.0
 10
14.6846595884
 20
10.8541665547
 30
0.0
 10
14.6876500079
 20
10.8215117739
 30
0.0
 10
14.6902515821
 20
10.7880564599
 30
0.0
 10
14.6924599923
 20
10.7538557731
 30
0.0
 10
14.6942715462
 20
10.7189661047
 30
0.0
 10
14.6956831914
 20
10.6834451295
 30
0.0
 10
14.6966926326
 20
10.6473510479
 30
0.0
 10
14.6972980849
 20
10.6107439505
 30
0.0
 10
14.6974310419
 20
10.586174063
 30
0.0
 10
14.6974310419
 20
10.5738146783
 30
0.0
  0
SPLINE
  5
381
100
AcDbEntity
  8
0
100
AcDbSpline
 62
7
  6
CONTINUOUS
 70
0
 71
3
 72
39
 73
35
 74
0
 42
0.0000001
 43
0.0000001
 44
0.0000000001
 40
0.0
 40
0.0
 40
0.0
 40
0.0
 40
0.0315206499
 40
0.0629611014
 40
0.0943254206
 40
0.1256182265
 40
0.1568446568
 40
0.1880103398
 40
0.2191213576
 40
0.2501841974
 40
0.2812057044
 40
0.3121930389
 40
0.34315362
 40
0.3740950663
 40
0.4050251417
 40
0.4359516997
 40
0.4668826198
 40
0.4978257455
 40
0.5287888287
 40
0.5597794727
 40
0.5908050697
 40
0.6218727455
 40
0.6529893126
 40
0.6841612191
 40
0.7153944967
 40
0.7466947202
 40
0.7780669819
 40
0.8095158436
 40
0.8410452737
 40
0.8726587846
 40
0.9043591251
 40
0.9361481565
 40
0.9680290551
 40
1.0
 40
1.0
 40
1.0
 40
1.0
 10
11.0411307721
 20
9.73279709
 30
0.0
 10
11.0303513493
 20
9.7308371452
 30
0.0
 10
11.0089003462
 20
9.7264636648
 30
0.0
 10
10.9770755907
 20
9.7185420386
 30
0.0
 10
10.9456964098
 20
9.709280788
 30
0.0
 10
10.9148173702
 20
9.6986958708
 30
0.0
 10
10.884491244
 20
9.6868052875
 30
0.0
 10
10.8547700793
 20
9.6736294433
 30
0.0
 10
10.8257048095
 20
9.6591909417
 30
0.0
 10
10.7973453076
 20
9.6435144686
 30
0.0
 10
10.7697402393
 20
9.6266268467
 30
0.0
 10
10.7429369103
 20
9.6085570899
 30
0.0
 10
10.7169812918
 20
9.5893361654
 30
0.0
 10
10.6919179569
 20
9.5689969571
 30
0.0
 10
10.6677898624
 20
9.5475743852
 30
0.0
 10
10.6446383592
 20
9.5251052155
 30
0.0
 10
10.6225031901
 20
9.50162794
 30
0.0
 10
10.6014223397
 20
9.4771828068
 30
0.0
 10
10.5814318918
 20
9.4518117994
 30
0.0
 10
10.5625661217
 20
9.4255584252
 30
0.0
 10
10.5448574382
 20
9.398467668
 30
0.0
 10
10.5283361378
 20
9.3705860343
 30
0.0
 10
10.5130304953
 20
9.3419613613
 30
0.0
 10
10.4989667836
 20
9.3126427117
 30
0.0
 10
10.4861691068
 20
9.2826803638
 30
0.0
 10
10.4746593001
 20
9.2521257308
 30
0.0
 10
10.4644570742
 20
9.2210311942
 30
0.0
 10
10.4555799681
 20
9.1894500519
 30
0.0
 10
10.4480430635
 20
9.1574364603
 30
0.0
 10
10.4418592493
 20
9.1250452841
 30
0.0
 10
10.4370391601
 20
9.0923322033
 30
0.0
 10
10.433590845
 20
9.0593526936
 30
0.0
 10
10.4315204842
 20
9.026164525
 30
0.0
 10
10.4310615878
 20
9.0039676878
 30
0.0
 10
10.4310615878
 20
8.9928550159
 30
0.0
  0
SPLINE
  5
382
100
AcDbEntity
  8
0
100
AcDbSpline
 62
7
  6
CONTINUOUS
 70
0
 71
3
 72
59
 73
55
 74
0
 42
0.0000001
 43
0.0000001
 44
0.0000000001
 40
0.0
 40
0.0
 40
0.0
 40
0.0
 40
0.0417736767
 40
0.0840362765
 40
0.1266574811
 40
0.1695051262
 40
0.2124463914
 40
0.2553479967
 40
0.2980768488
 40
0.3405005256
 40
0.3824878146
 40
0.4239092383
 40
0.464637589
 40
0.5045484688
 40
0.5435208413
 40
0.5814375992
 40
0.6181861539
 40
0.6360888024
 40
0.6536595531
 40
0.6708859017
 40
0.6877557363
 40
0.7042573867
 40
0.720379648
 40
0.7361117919
 40
0.7514436399
 40
0.7663655339
 40
0.7808684645
 40
0.7949440033
 40
0.8085844873
 40
0.8217829218
 40
0.83453322
 40
0.8468300923
 40
0.8586693371
 40
0.8700477415
 40
0.8809634199
 40
0.8914157604
 40
0.9014058112
 40
0.9109363168
 40
0.9200121632
 40
0.9286405545
 40
0.9368315416
 40
0.9445983908
 40
0.9519582219
 40
0.9589325919
 40
0.9655482195
 40
0.9718376843
 40
0.9778400275
 40
0.9836011664
 40
0.9864084736
 40
0.9891757902
 40
0.9919106587
 40
0.9946209114
 40
0.9973146138
 40
1.0
 40
1.0
 40
1.0
 40
1.0
 10
14.6974310419
 20
10.5738146783
 30
0.0
 10
14.6974310419
 20
10.5560916049
 30
0.0
 10
14.6971545432
 20
10.5204374684
 30
0.0
 10
14.6959321925
 20
10.4667132786
 30
0.0
 10
14.6939033905
 20
10.4125574418
 30
0.0
 10
14.6910747878
 20
10.3581492274
 30
0.0
 10
14.687455732
 20
10.3036686454
 30
0.0
 10
14.6830581853
 20
10.249295931
 30
0.0
 10
14.6778967155
 20
10.1952109732
 30
0.0
 10
14.6719884327
 20
10.1415926973
 30
0.0
 10
14.6653529395
 20
10.0886184759
 30
0.0
 10
14.6580122644
 20
10.0364635357
 30
0.0
 10
14.6499907916
 20
9.9853003685
 30
0.0
 10
14.641315179
 20
9.9352981727
 30
0.0
 10
14.6320142806
 20
9.8866222123
 30
0.0
 10
14.6221190228
 20
9.8394335236
 30
0.0
 10
14.6133305452
 20
9.8011533521
 30
0.0
 10
14.6060164737
 20
9.7713974205
 30
0.0
 10
14.6004509378
 20
9.7497421144
 30
0.0
 10
14.5947624123
 20
9.7285721916
 30
0.0
 10
14.588955573
 20
9.7079051405
 30
0.0
 10
14.5830352471
 20
9.6877580508
 30
0.0
 10
14.5770063491
 20
9.6681475739
 30
0.0
 10
14.5708738604
 20
9.6490899163
 30
0.0
 10
14.5646428974
 20
9.6306008183
 30
0.0
 10
14.5583185832
 20
9.6126955529
 30
0.0
 10
14.5519062174
 20
9.5953888915
 30
0.0
 10
14.5454110467
 20
9.5786951217
 30
0.0
 10
14.5388385326
 20
9.5626279913
 30
0.0
 10
14.5321940273
 20
9.5472007525
 30
0.0
 10
14.525483129
 20
9.5324260765
 30
0.0
 10
14.5187112755
 20
9.5183161314
 30
0.0
 10
14.5118841694
 20
9.5048824616
 30
0.0
 10
14.5050073115
 20
9.4921361032
 30
0.0
 10
14.4980864656
 20
9.4800874267
 30
0.0
 10
14.4911271654
 20
9.4687462907
 30
0.0
 10
14.4841351767
 20
9.4581218519
 30
0.0
 10
14.477116018
 20
9.4482227522
 30
0.0
 10
14.4700753742
 20
9.4390569125
 30
0.0
 10
14.4630186712
 20
9.4306317421
 30
0.0
 10
14.4559513979
 20
9.4229539506
 30
0.0
 10
14.4488787743
 20
9.4160297645
 30
0.0
 10
14.4418059624
 20
9.4098648184
 30
0.0
 10
14.4347378631
 20
9.404464357
 30
0.0
 10
14.4276793168
 20
9.3998332943
 30
0.0
 10
14.420634877
 20
9.3959763052
 30
0.0
 10
14.4136099948
 20
9.392898184
 30
0.0
 10
14.407724757
 20
9.390969255
 30
0.0
 10
14.4030494151
 20
9.3898336396
 30
0.0
 10
14.3995822935
 20
9.3891853829
 30
0.0
 10
14.3961256826
 20
9.3887336083
 30
0.0
 10
14.3926802414
 20
9.3884784321
 30
0.0
 10
14.3892469408
 20
9.3884200109
 30
0.0
 10
14.386965163
 20
9.3885123257
 30
0.0
 10
14.3858285796
 20
9.3885911453
 30
0.0
  0
SPLINE
  5
383
100
AcDbEntity
  8
0
100
AcDbSpline
 62
7
  6
CONTINUOUS
 70
0
 71
3
 72
39
 73
35
 74
0
 42
0.0000001
 43
0.0000001
 44
0.0000000001
 40
0.0
 40
0.0
 40
0.0
 40
0.0
 40
0.0958313223
 40
0.1890999066
 40
0.2792396479
 40
0.3229663115
 40
0.3657099292
 40
0.4074081191
 40
0.4480006754
 40
0.4874302648
 40
0.5256424385
 40
0.5625857699
 40
0.5982125807
 40
0.6324786396
 40
0.665344311
 40
0.6967743203
 40
0.7267388303
 40
0.7552139511
 40
0.7821824427
 40
0.807635341
 40
0.8315726205
 40
0.8540058864
 40
0.8749600023
 40
0.8944766962
 40
0.9126183481
 40
0.9294727137
 40
0.94515911
 40
0.9598336921
 40
0.9668557838
 40
0.973702854
 40
0.9804062715
 40
0.9869997015
 40
0.9935186515
 40
1.0
 40
1.0
 40
1.0
 40
1.0
 10
8.5210601824
 20
11.3773053511
 30
0.0
 10
8.5300199993
 20
11.3766839857
 30
0.0
 10
8.5476871319
 20
11.3752608187
 30
0.0
 10
8.5737185361
 20
11.372544142
 30
0.0
 10
8.5948313462
 20
11.3698042542
 30
0.0
 10
8.6111989642
 20
11.3673379141
 30
0.0
 10
8.6230507319
 20
11.3653799086
 30
0.0
 10
8.6345830839
 20
11.3632983585
 30
0.0
 10
8.6457767704
 20
11.3610966871
 30
0.0
 10
8.6566130955
 20
11.3587786278
 30
0.0
 10
8.6670739774
 20
11.3563480881
 30
0.0
 10
8.6771419658
 20
11.3538091109
 30
0.0
 10
8.6868002871
 20
11.3511660376
 30
0.0
 10
8.696032854
 20
11.3484232258
 30
0.0
 10
8.7048243283
 20
11.3455853645
 30
0.0
 10
8.7131601153
 20
11.3426571566
 30
0.0
 10
8.7210264213
 20
11.3396435272
 30
0.0
 10
8.7284102787
 20
11.3365495263
 30
0.0
 10
8.7352995457
 20
11.3333802227
 30
0.0
 10
8.7416830113
 20
11.3301409271
 30
0.0
 10
8.7475503014
 20
11.3268367802
 30
0.0
 10
8.7528920511
 20
11.3234731276
 30
0.0
 10
8.7576997554
 20
11.3200550625
 30
0.0
 10
8.7619658496
 20
11.3165875698
 30
0.0
 10
8.7656835813
 20
11.3130754233
 30
0.0
 10
8.768846758
 20
11.3095226439
 30
0.0
 10
8.7714493534
 20
11.3059338578
 30
0.0
 10
8.773170774
 20
11.3028709946
 30
0.0
 10
8.7742439138
 20
11.300418579
 30
0.0
 10
8.7748936347
 20
11.2986015263
 30
0.0
 10
8.7753994445
 20
11.2967808892
 30
0.0
 10
8.7757610679
 20
11.2949574267
 30
0.0
 10
8.7759781842
 20
11.2931321865
 30
0.0
 10
8.7760264807
 20
11.291913251
 30
0.0
 10
8.7760264859
 20
11.2913058173
 30
0.0
  0
SPLINE
  5
384
100
AcDbEntity
  8
0
100
AcDbSpline
 62
7
  6
CONTINUOUS
 70
0
 71
3
 72
50
 73
46
 74
0
 42
0.0000001
 43
0.0000001
 44
0.0000000001
 40
0.0
 40
0.0
 40
0.0
 40
0.0
 40
0.0469954502
 40
0.0934575531
 40
0.1393184892
 40
0.1845179103
 40
0.2289941694
 40
0.2726870813
 40
0.3155382816
 40
0.3574908881
 40
0.3984898423
 40
0.4384819786
 40
0.4774162276
 40
0.515243841
 40
0.5519184678
 40
0.587396414
 40
0.6216369698
 40
0.6546025459
 40
0.6862590052
 40
0.7165761706
 40
0.7455281381
 40
0.7730938012
 40
0.7992576871
 40
0.8118113755
 40
0.8240118
 40
0.8358589782
 40
0.8473535694
 40
0.8584967304
 40
0.8692903138
 40
0.8797369741
 40
0.8898400668
 40
0.899603895
 40
0.9090338053
 40
0.9181361457
 40
0.9269185623
 40
0.9353900923
 40
0.943561194
 40
0.9514440772
 40
0.9590527905
 40
0.9664033051
 40
0.9735138196
 40
0.9804047896
 40
0.9870989713
 40
0.9936215546
 40
1.0
 40
1.0
 40
1.0
 40
1.0
 10
14.6665214122
 20
7.436699147
 30
0.0
 10
14.6665214122
 20
7.4484225937
 30
0.0
 10
14.6664017301
 20
7.4717366298
 30
0.0
 10
14.6658570943
 20
7.5064872675
 30
0.0
 10
14.6649490038
 20
7.5407821807
 30
0.0
 10
14.6636788924
 20
7.5745698839
 30
0.0
 10
14.6620486512
 20
7.6078006911
 30
0.0
 10
14.660060731
 20
7.6404252085
 30
0.0
 10
14.6577180988
 20
7.6723950194
 30
0.0
 10
14.6550242635
 20
7.7036627398
 30
0.0
 10
14.6519832814
 20
7.734182002
 30
0.0
 10
14.648599685
 20
7.7639075568
 30
0.0
 10
14.6448785321
 20
7.7927953491
 30
0.0
 10
14.6408254235
 20
7.8208025847
 30
0.0
 10
14.6364464131
 20
7.8478877824
 30
0.0
 10
14.6317480344
 20
7.8740108482
 30
0.0
 10
14.6267373548
 20
7.8991331539
 30
0.0
 10
14.621421868
 20
7.9232175746
 30
0.0
 10
14.6158094877
 20
7.9462285627
 30
0.0
 10
14.6099086334
 20
7.968132207
 30
0.0
 10
14.603728108
 20
7.9888963793
 30
0.0
 10
14.5972770661
 20
8.0084904012
 30
0.0
 10
14.591608358
 20
8.0240269945
 30
0.0
 10
14.5869344483
 20
8.0358384412
 30
0.0
 10
14.5834157343
 20
8.0442643454
 30
0.0
 10
14.5798366623
 20
8.0523768617
 30
0.0
 10
14.5761985822
 20
8.0601730467
 30
0.0
 10
14.572502794
 20
8.0676500164
 30
0.0
 10
14.5687506288
 20
8.0748050179
 30
0.0
 10
14.5649435156
 20
8.0816354618
 30
0.0
 10
14.5610827788
 20
8.0881388227
 30
0.0
 10
14.5571698032
 20
8.0943127185
 30
0.0
 10
14.5532060458
 20
8.1001549327
 30
0.0
 10
14.549192845
 20
8.105663292
 30
0.0
 10
14.5451316178
 20
8.1108357845
 30
0.0
 10
14.541023824
 20
8.1156705553
 30
0.0
 10
14.5368707965
 20
8.1201657581
 30
0.0
 10
14.532673967
 20
8.1243197267
 30
0.0
 10
14.5284347803
 20
8.128130923
 30
0.0
 10
14.5241545719
 20
8.1315977665
 30
0.0
 10
14.5198347989
 20
8.1347188798
 30
0.0
 10
14.5154769603
 20
8.1374929531
 30
0.0
 10
14.511082396
 20
8.1399186309
 30
0.0
 10
14.5066530461
 20
8.1419946705
 30
0.0
 10
14.5036483077
 20
8.1431563445
 30
0.0
 10
14.5021442665
 20
8.1436756288
 30
0.0
  0
SPLINE
  5
385
100
AcDbEntity
  8
0
100
AcDbSpline
 62
7
  6
CONTINUOUS
 70
0
 71
3
 72
55
 73
51
 74
0
 42
0.0000001
 43
0.0000001
 44
0.0000000001
 40
0.0
 40
0.0
 40
0.0
 40
0.0
 40
0.0407838311
 40
0.0820326686
 40
0.1236279012
 40
0.1654497689
 40
0.2073776037
 40
0.2492903816
 40
0.2910671217
 40
0.3325873457
 40
0.3737315165
 40
0.4143814862
 40
0.454420945
 40
0.4937358761
 40
0.5322150176
 40
0.5697503358
 40
0.6062375145
 40
0.6415764671
 40
0.6587855943
 40
0.6756723513
 40
0.6922256484
 40
0.7084348119
 40
0.7242895286
 40
0.7397799445
 40
0.7548966208
 40
0.7696306291
 40
0.783973522
 40
0.7979174246
 40
0.8114550253
 40
0.824579664
 40
0.8372853483
 40
0.8495668431
 40
0.8614197179
 40
0.8728404444
 40
0.8838264855
 40
0.8943764098
 40
0.904490037
 40
0.9141685866
 40
0.9234148985
 40
0.9322336404
 40
0.9406316313
 40
0.9486181395
 40
0.9562053386
 40
0.9634087253
 40
0.9702477183
 40
0.9767461817
 40
0.9829330879
 40
0.9888429891
 40
0.9945164439
 40
1.0
 40
1.0
 40
1.0
 40
1.0
 10
14.6665214122
 20
7.436699147
 30
0.0
 10
14.6665214122
 20
7.4196093681
 30
0.0
 10
14.6662643391
 20
7.385234456
 30
0.0
 10
14.6651271527
 20
7.3334410679
 30
0.0
 10
14.6632392676
 20
7.2812342721
 30
0.0
 10
14.6606064639
 20
7.2287749162
 30
0.0
 10
14.6572368178
 20
7.1762244004
 30
0.0
 10
14.6531406972
 20
7.1237444824
 30
0.0
 10
14.6483307175
 20
7.0714966774
 30
0.0
 10
14.6428217089
 20
7.019641789
 30
0.0
 10
14.6366306682
 20
6.9683394018
 30
0.0
 10
14.6297767082
 20
6.9177473891
 30
0.0
 10
14.6222809991
 20
6.8680214238
 30
0.0
 10
14.6141667052
 20
6.8193144888
 30
0.0
 10
14.6054589124
 20
6.7717764199
 30
0.0
 10
14.5961845617
 20
6.7255533664
 30
0.0
 10
14.5863723349
 20
6.6807875836
 30
0.0
 10
14.57769787
 20
6.6444985941
 30
0.0
 10
14.5705017957
 20
6.6163065654
 30
0.0
 10
14.5650371772
 20
6.5957980155
 30
0.0
 10
14.5594615807
 20
6.575753946
 30
0.0
 10
14.553779318
 20
6.5561897562
 30
0.0
 10
14.5479947441
 20
6.5371204972
 30
0.0
 10
14.5421123513
 20
6.5185608272
 30
0.0
 10
14.5361366477
 20
6.5005250144
 30
0.0
 10
14.5300722692
 20
6.4830269152
 30
0.0
 10
14.5239238682
 20
6.4660799726
 30
0.0
 10
14.5176962073
 20
6.4496971955
 30
0.0
 10
14.5113940685
 20
6.433891157
 30
0.0
 10
14.5050223232
 20
6.4186739752
 30
0.0
 10
14.4985858662
 20
6.4040573107
 30
0.0
 10
14.4920896582
 20
6.3900523493
 30
0.0
 10
14.4855386869
 20
6.3766697969
 30
0.0
 10
14.4789379791
 20
6.3639198677
 30
0.0
 10
14.4722925905
 20
6.3518122724
 30
0.0
 10
14.4656075839
 20
6.3403562166
 30
0.0
 10
14.4588880501
 20
6.3295603779
 30
0.0
 10
14.4521390459
 20
6.3194329216
 30
0.0
 10
14.4453656492
 20
6.3099814616
 30
0.0
 10
14.4385728507
 20
6.3012131053
 30
0.0
 10
14.4317656442
 20
6.2931343928
 30
0.0
 10
14.4249488691
 20
6.285751392
 30
0.0
 10
14.4181273388
 20
6.279069614
 30
0.0
 10
14.4113056407
 20
6.2730941902
 30
0.0
 10
14.4044883285
 20
6.2678297666
 30
0.0
 10
14.3976796889
 20
6.2632807972
 30
0.0
 10
14.3908841682
 20
6.2594514144
 30
0.0
 10
14.3841057986
 20
6.2563457594
 30
0.0
 10
14.3773503626
 20
6.2539679218
 30
0.0
 10
14.3727998115
 20
6.2528547021
 30
0.0
 10
14.3705420611
 20
6.2524276059
 30
0.0
  0
SPLINE
  5
386
100
AcDbEntity
  8
0
100
AcDbSpline
 62
7
  6
CONTINUOUS
 70
0
 71
3
 72
65
 73
61
 74
0
 42
0.0000001
 43
0.0000001
 44
0.0000000001
 40
0.0
 40
0.0
 40
0.0
 40
0.0
 40
0.0452101403
 40
0.0910010543
 40
0.1371886841
 40
0.1835861315
 40
0.2300058518
 40
0.2762600284
 40
0.3221617443
 40
0.3675258847
 40
0.4121701265
 40
0.4559159154
 40
0.4985894645
 40
0.5400227765
 40
0.5602239782
 40
0.5800553177
 40
0.5994978763
 40
0.6185333836
 40
0.637144091
 40
0.6553130155
 40
0.6730237599
 40
0.6902608066
 40
0.707009325
 40
0.7232554745
 40
0.7389862522
 40
0.7541897634
 40
0.768855162
 40
0.7829728594
 40
0.7965346024
 40
0.8095336132
 40
0.8219648399
 40
0.8338250494
 40
0.8451132806
 40
0.8558309496
 40
0.8659825331
 40
0.8755757953
 40
0.884622733
 40
0.8931400749
 40
0.9011505178
 40
0.9086836234
 40
0.9157772757
 40
0.9224788236
 40
0.9288462411
 40
0.9319271063
 40
0.9349512632
 40
0.9379289592
 40
0.9408709858
 40
0.9437885797
 40
0.946693278
 40
0.9495967858
 40
0.9525108279
 40
0.9554469857
 40
0.9584165599
 40
0.9614304518
 40
0.9644990307
 40
0.9708362475
 40
0.977501128
 40
0.9845527022
 40
0.9920394252
 40
1.0
 40
1.0
 40
1.0
 40
1.0
 10
14.5940521394
 20
7.3666992006
 30
0.0
 10
14.5940521394
 20
7.3524143194
 30
0.0
 10
14.5937973765
 20
7.3236604736
 30
0.0
 10
14.5926740091
 20
7.2803260867
 30
0.0
 10
14.590811249
 20
7.2366416001
 30
0.0
 10
14.5882170517
 20
7.1927954769
 30
0.0
 10
14.5849026051
 20
7.1489768165
 30
0.0
 10
14.5808822032
 20
7.1053745591
 30
0.0
 10
14.5761732296
 20
7.0621767261
 30
0.0
 10
14.5707960626
 20
7.0195695678
 30
0.0
 10
14.5647739938
 20
6.9777367807
 30
0.0
 10
14.5581331391
 20
6.9368586345
 30
0.0
 10
14.5509022858
 20
6.8971114275
 30
0.0
 10
14.5443572502
 20
6.8648073791
 30
0.0
 10
14.5388404196
 20
6.8396646177
 30
0.0
 10
14.5346103237
 20
6.8213543535
 30
0.0
 10
14.5302574833
 20
6.8034517049
 30
0.0
 10
14.5257866469
 20
6.7859759525
 30
0.0
 10
14.5212025786
 20
6.7689459422
 30
0.0
 10
14.5165103227
 20
6.7523800193
 30
0.0
 10
14.5117148616
 20
6.7362960395
 30
0.0
 10
14.5068214788
 20
6.7207113164
 30
0.0
 10
14.5018353743
 20
6.7056426382
 30
0.0
 10
14.496762028
 20
6.6911062086
 30
0.0
 10
14.4916068514
 20
6.6771176699
 30
0.0
 10
14.486375478
 20
6.6636920429
 30
0.0
 10
14.4810735185
 20
6.6508437459
 30
0.0
 10
14.4757067178
 20
6.6385865483
 30
0.0
 10
14.4702808645
 20
6.6269335672
 30
0.0
 10
14.4648017696
 20
6.6158972555
 30
0.0
 10
14.459275364
 20
6.6054893518
 30
0.0
 10
14.4537074735
 20
6.5957209317
 30
0.0
 10
14.4481041092
 20
6.5866022818
 30
0.0
 10
14.4424710432
 20
6.5781430458
 30
0.0
 10
14.4368142598
 20
6.5703520019
 30
0.0
 10
14.431139374
 20
6.563237332
 30
0.0
 10
14.4254521634
 20
6.5568063101
 30
0.0
 10
14.41975793
 20
6.5510657135
 30
0.0
 10
14.4140619871
 20
6.5460214912
 30
0.0
 10
14.4083692034
 20
6.5416793331
 30
0.0
 10
14.4026841569
 20
6.5380444029
 30
0.0
 10
14.3970120518
 20
6.5351221662
 30
0.0
 10
14.3922470824
 20
6.5332649816
 30
0.0
 10
14.3884631736
 20
6.5321568359
 30
0.0
 10
14.3856641812
 20
6.5315149987
 30
0.0
 10
14.3828742441
 20
6.5310538472
 30
0.0
 10
14.3800941264
 20
6.5307736011
 30
0.0
 10
14.3773247186
 20
6.5306743543
 30
0.0
 10
14.3745668883
 20
6.5307561699
 30
0.0
 10
14.3718215255
 20
6.5310190999
 30
0.0
 10
14.3690895198
 20
6.5314630472
 30
0.0
 10
14.3663717231
 20
6.5320877766
 30
0.0
 10
14.3636689881
 20
6.5328930279
 30
0.0
 10
14.3609820718
 20
6.5338785969
 30
0.0
 10
14.35738364
 20
6.5354490223
 30
0.0
 10
14.352914874
 20
6.5378843153
 30
0.0
 10
14.3476920115
 20
6.5414895732
 30
0.0
 10
14.3425541503
 20
6.5458030159
 30
0.0
 10
14.3375061843
 20
6.5508184502
 30
0.0
 10
14.3343048917
 20
6.5545088645
 30
0.0
 10
14.3327178273
 20
6.55646023
 30
0.0
  0
SPLINE
  5
387
100
AcDbEntity
  8
0
100
AcDbSpline
 62
7
  6
CONTINUOUS
 70
0
 71
3
 72
54
 73
50
 74
0
 42
0.0000001
 43
0.0000001
 44
0.0000000001
 40
0.0
 40
0.0
 40
0.0
 40
0.0
 40
0.0417737003
 40
0.0840371083
 40
0.1266584058
 40
0.169506479
 40
0.2124480466
 40
0.2553499954
 40
0.2980791779
 40
0.340503187
 40
0.3824908042
 40
0.42391255
 40
0.4646412133
 40
0.5045523954
 40
0.5435250601
 40
0.5814421004
 40
0.6181909284
 40
0.6536640988
 40
0.6877599811
 40
0.7042617518
 40
0.720384135
 40
0.7361163834
 40
0.7514483539
 40
0.7663703399
 40
0.7808733861
 40
0.7949490122
 40
0.8085895955
 40
0.8217881215
 40
0.8345384972
 40
0.8468354689
 40
0.8586747685
 40
0.8700532784
 40
0.8809689935
 40
0.8914214371
 40
0.9014115161
 40
0.9109421106
 40
0.9200179887
 40
0.9286464472
 40
0.9368374764
 40
0.9446043697
 40
0.9519642532
 40
0.9589386494
 40
0.9655543338
 40
0.9718438174
 40
0.977846213
 40
0.9836073757
 40
0.9891800572
 40
0.9946230814
 40
1.0
 40
1.0
 40
1.0
 40
1.0
 10
14.5083200093
 20
7.3538883171
 30
0.0
 10
14.5083200093
 20
7.3426948709
 30
0.0
 10
14.5081453692
 20
7.3201764074
 30
0.0
 10
14.5073733762
 20
7.2862453348
 30
0.0
 10
14.5060920025
 20
7.2520415382
 30
0.0
 10
14.5043055275
 20
7.2176784807
 30
0.0
 10
14.5020197979
 20
7.1832696517
 30
0.0
 10
14.4992424009
 20
7.1489289749
 30
0.0
 10
14.4959825219
 20
7.1147700304
 30
0.0
 10
14.4922509729
 20
7.0809058346
 30
0.0
 10
14.4880601317
 20
7.04744841
 30
0.0
 10
14.4834239108
 20
7.0145084281
 30
0.0
 10
14.4783577097
 20
6.9821948341
 30
0.0
 10
14.4728783673
 20
6.9506144833
 30
0.0
 10
14.4670041052
 20
6.9198717776
 30
0.0
 10
14.4607544664
 20
6.8900683318
 30
0.0
 10
14.4541502609
 20
6.8613025637
 30
0.0
 10
14.4472134657
 20
6.8336695869
 30
0.0
 10
14.4411104163
 20
6.8114263928
 30
0.0
 10
14.4360699542
 20
6.7942733248
 30
0.0
 10
14.4322622185
 20
6.781887752
 30
0.0
 10
14.4283890548
 20
6.7698513408
 30
0.0
 10
14.4244537211
 20
6.758174014
 30
0.0
 10
14.4204593959
 20
6.7468654304
 30
0.0
 10
14.4164094929
 20
6.7359349075
 30
0.0
 10
14.4123072635
 20
6.7253914803
 30
0.0
 10
14.4081562032
 20
6.7152438229
 30
0.0
 10
14.4039596732
 20
6.705500308
 30
0.0
 10
14.3997211932
 20
6.6961689437
 30
0.0
 10
14.3954442541
 20
6.6872573987
 30
0.0
 10
14.3911323586
 20
6.6787729941
 30
0.0
 10
14.3867891205
 20
6.6707226546
 30
0.0
 10
14.3824180056
 20
6.6631129925
 30
0.0
 10
14.3780227084
 20
6.6559501563
 30
0.0
 10
14.3736066593
 20
6.6492400198
 30
0.0
 10
14.36917355
 20
6.6429879443
 30
0.0
 10
14.3647267868
 20
6.6371990264
 30
0.0
 10
14.3602699436
 20
6.6318778641
 30
0.0
 10
14.3558063887
 20
6.6270287523
 30
0.0
 10
14.3513394618
 20
6.622655602
 30
0.0
 10
14.3468724362
 20
6.6187619465
 30
0.0
 10
14.3424083477
 20
6.6153511801
 30
0.0
 10
14.337950331
 20
6.612426262
 30
0.0
 10
14.3335012426
 20
6.6099903572
 30
0.0
 10
14.3290642579
 20
6.6080461993
 30
0.0
 10
14.3246426765
 20
6.6065969165
 30
0.0
 10
14.3202402335
 20
6.6056451139
 30
0.0
 10
14.3158622168
 20
6.6051932333
 30
0.0
 10
14.3129555893
 20
6.605226435
 30
0.0
 10
14.3115182718
 20
6.605326102
 30
0.0
  0
SPLINE
  5
388
100
AcDbEntity
  8
0
100
AcDbSpline
 62
7
  6
CONTINUOUS
 70
0
 71
3
 72
72
 73
68
 74
0
 42
0.0000001
 43
0.0000001
 44
0.0000000001
 40
0.0
 40
0.0
 40
0.0
 40
0.0
 40
0.015356485
 40
0.0230190262
 40
0.0306711275
 40
0.0459442341
 40
0.0611797292
 40
0.0763807909
 40
0.0915509089
 40
0.1066938545
 40
0.1218136464
 40
0.1369145157
 40
0.1520008687
 40
0.1670772467
 40
0.1821482835
 40
0.1972186618
 40
0.2122930704
 40
0.2273761608
 40
0.2424725045
 40
0.2575865501
 40
0.2727225823
 40
0.2878846828
 40
0.3030766951
 40
0.3183021914
 40
0.3335644407
 40
0.3488663811
 40
0.3642105966
 40
0.379599298
 40
0.395034307
 40
0.4105170429
 40
0.4260485127
 40
0.441629308
 40
0.4572596047
 40
0.4729391651
 40
0.4886673426
 40
0.50444309
 40
0.5202649737
 40
0.536131189
 40
0.5520395766
 40
0.5679876417
 40
0.5839725762
 40
0.5999912849
 40
0.6160404106
 40
0.6321163611
 40
0.6482153366
 40
0.6643333617
 40
0.6804663167
 40
0.6966099685
 40
0.7127600021
 40
0.7289120537
 40
0.7450617452
 40
0.7612047167
 40
0.777336659
 40
0.7934533452
 40
0.809550665
 40
0.8256246566
 40
0.8416715367
 40
0.8576877295
 40
0.8736698961
 40
0.8896149617
 40
0.9055201471
 40
0.9213829765
 40
0.9372013178
 40
0.9529734403
 40
0.9686977178
 40
0.9843737587
 40
1.0
 40
1.0
 40
1.0
 40
1.0
 10
10.0941763836
 20
6.6728383362
 30
0.0
 10
10.0915861393
 20
6.6610082761
 30
0.0
 10
10.0872853057
 20
6.6433628651
 30
0.0
 10
10.0807253766
 20
6.6200800871
 30
0.0
 10
10.0736335457
 20
6.5970221394
 30
0.0
 10
10.063761493
 20
6.568580321
 30
0.0
 10
10.0503198094
 20
6.5351184221
 30
0.0
 10
10.0353181493
 20
6.502415045
 30
0.0
 10
10.0187880502
 20
6.4705392125
 30
0.0
 10
10.00076408
 20
6.439557633
 30
0.0
 10
9.9812839682
 20
6.4095353181
 30
0.0
 10
9.9603885026
 20
6.3805352293
 30
0.0
 10
9.9381214998
 20
6.3526181601
 30
0.0
 10
9.9145296307
 20
6.3258426444
 30
0.0
 10
9.8896623418
 20
6.3002648295
 30
0.0
 10
9.8635717393
 20
6.2759383729
 30
0.0
 10
9.836312534
 20
6.2529142734
 30
0.0
 10
9.8079419065
 20
6.2312407684
 30
0.0
 10
9.7785193479
 20
6.2109632778
 30
0.0
 10
9.7481065477
 20
6.192124299
 30
0.0
 10
9.7167672609
 20
6.1747633305
 30
0.0
 10
9.6845672193
 20
6.1589167032
 30
0.0
 10
9.6515739462
 20
6.144617571
 30
0.0
 10
9.6178566109
 20
6.1318958541
 30
0.0
 10
9.5834858869
 20
6.1207781819
 30
0.0
 10
9.5485338139
 20
6.1112878183
 30
0.0
 10
9.5130736591
 20
6.1034445479
 30
0.0
 10
9.4771797327
 20
6.0972647282
 30
0.0
 10
9.4409272397
 20
6.0927612414
 30
0.0
 10
9.4043921251
 20
6.0899434875
 30
0.0
 10
9.3676509243
 20
6.0888172986
 30
0.0
 10
9.3307805929
 20
6.0893849295
 30
0.0
 10
9.2938583431
 20
6.0916451203
 30
0.0
 10
9.2569614871
 20
6.0955930824
 30
0.0
 10
9.2201672829
 20
6.1012205242
 30
0.0
 10
9.18355276
 20
6.1085155767
 30
0.0
 10
9.1471945607
 20
6.1174628873
 30
0.0
 10
9.1111687867
 20
6.1280436717
 30
0.0
 10
9.0755508453
 20
6.1402357508
 30
0.0
 10
9.040415293
 20
6.1540135833
 30
0.0
 10
9.0058356499
 20
6.1693482521
 30
0.0
 10
8.9718842755
 20
6.1862076132
 30
0.0
 10
8.938632217
 20
6.2045563504
 30
0.0
 10
8.9061490732
 20
6.2243560598
 30
0.0
 10
8.8745028229
 20
6.2455652805
 30
0.0
 10
8.8437596696
 20
6.2681395739
 30
0.0
 10
8.8139839418
 20
6.2920316769
 30
0.0
 10
8.7852379526
 20
6.3171915829
 30
0.0
 10
8.7575818848
 20
6.343566656
 30
0.0
 10
8.7310736046
 20
6.3711016763
 30
0.0
 10
8.7057685723
 20
6.3997389997
 30
0.0
 10
8.68171975
 20
6.4294186961
 30
0.0
 10
8.6589774892
 20
6.4600786665
 30
0.0
 10
8.6375894255
 20
6.4916547672
 30
0.0
 10
8.6176003087
 20
6.5240808992
 30
0.0
 10
8.5990519823
 20
6.5572892024
 30
0.0
 10
8.5819832923
 20
6.5912101874
 30
0.0
 10
8.5664300189
 20
6.6257728827
 30
0.0
 10
8.5524247614
 20
6.6609049605
 30
0.0
 10
8.5399968344
 20
6.6965328839
 30
0.0
 10
8.5291722946
 20
6.7325820897
 30
0.0
 10
8.5199738491
 20
6.768977123
 30
0.0
 10
8.5124208196
 20
6.8056418644
 30
0.0
 10
8.5065291611
 20
6.8424993602
 30
0.0
 10
8.502310987
 20
6.8794730478
 30
0.0
 10
8.4997755849
 20
6.9164841045
 30
0.0
 10
8.4992095904
 20
6.9411731225
 30
0.0
 10
8.4992095904
 20
6.953496169
 30
0.0
  0
SPLINE
  5
389
100
AcDbEntity
  8
0
100
AcDbSpline
 62
7
  6
CONTINUOUS
 70
0
 71
3
 72
72
 73
68
 74
0
 42
0.0000001
 43
0.0000001
 44
0.0000000001
 40
0.0
 40
0.0
 40
0.0
 40
0.0
 40
0.015356485
 40
0.0230190262
 40
0.0306711275
 40
0.0459442341
 40
0.0611797292
 40
0.0763807909
 40
0.0915509089
 40
0.1066938545
 40
0.1218136464
 40
0.1369145157
 40
0.1520008687
 40
0.1670772467
 40
0.1821482835
 40
0.1972186618
 40
0.2122930704
 40
0.2273761608
 40
0.2424725045
 40
0.2575865501
 40
0.2727225823
 40
0.2878846828
 40
0.3030766951
 40
0.3183021914
 40
0.3335644407
 40
0.3488663811
 40
0.3642105966
 40
0.379599298
 40
0.395034307
 40
0.4105170429
 40
0.4260485127
 40
0.441629308
 40
0.4572596047
 40
0.4729391651
 40
0.4886673426
 40
0.50444309
 40
0.5202649737
 40
0.536131189
 40
0.5520395766
 40
0.5679876417
 40
0.5839725762
 40
0.5999912849
 40
0.6160404106
 40
0.6321163611
 40
0.6482153366
 40
0.6643333617
 40
0.6804663167
 40
0.6966099685
 40
0.7127600021
 40
0.7289120537
 40
0.7450617452
 40
0.7612047167
 40
0.777336659
 40
0.7934533452
 40
0.809550665
 40
0.8256246566
 40
0.8416715367
 40
0.8576877295
 40
0.8736698961
 40
0.8896149617
 40
0.9055201471
 40
0.9213829765
 40
0.9372013178
 40
0.9529734403
 40
0.9686977178
 40
0.9843737587
 40
1.0
 40
1.0
 40
1.0
 40
1.0
 10
12.026028381
 20
8.7121971831
 30
0.0
 10
12.0234381366
 20
8.7003671229
 30
0.0
 10
12.019137303
 20
8.682721712
 30
0.0
 10
12.0125773739
 20
8.6594389339
 30
0.0
 10
12.0054855431
 20
8.6363809863
 30
0.0
 10
11.9956134903
 20
8.6079391678
 30
0.0
 10
11.9821718067
 20
8.574477269
 30
0.0
 10
11.9671701466
 20
8.5417738919
 30
0.0
 10
11.9506400476
 20
8.5098980593
 30
0.0
 10
11.9326160773
 20
8.4789164799
 30
0.0
 10
11.9131359655
 20
8.448894165
 30
0.0
 10
11.8922404999
 20
8.4198940762
 30
0.0
 10
11.8699734971
 20
8.3919770069
 30
0.0
 10
11.846381628
 20
8.3652014912
 30
0.0
 10
11.8215143391
 20
8.3396236764
 30
0.0
 10
11.7954237366
 20
8.3152972198
 30
0.0
 10
11.7681645314
 20
8.2922731202
 30
0.0
 10
11.7397939038
 20
8.2705996152
 30
0.0
 10
11.7103713452
 20
8.2503221247
 30
0.0
 10
11.6799585451
 20
8.2314831458
 30
0.0
 10
11.6486192582
 20
8.2141221773
 30
0.0
 10
11.6164192166
 20
8.19827555
 30
0.0
 10
11.5834259435
 20
8.1839764178
 30
0.0
 10
11.5497086083
 20
8.171254701
 30
0.0
 10
11.5153378842
 20
8.1601370288
 30
0.0
 10
11.4803858112
 20
8.1506466651
 30
0.0
 10
11.4449256565
 20
8.1428033948
 30
0.0
 10
11.4090317301
 20
8.1366235751
 30
0.0
 10
11.372779237
 20
8.1321200883
 30
0.0
 10
11.3362441225
 20
8.1293023343
 30
0.0
 10
11.2995029217
 20
8.1281761454
 30
0.0
 10
11.2626325903
 20
8.1287437764
 30
0.0
 10
11.2257103405
 20
8.1310039672
 30
0.0
 10
11.1888134844
 20
8.1349519293
 30
0.0
 10
11.1520192802
 20
8.1405793711
 30
0.0
 10
11.1154047573
 20
8.1478744235
 30
0.0
 10
11.079046558
 20
8.1568217342
 30
0.0
 10
11.0430207841
 20
8.1674025186
 30
0.0
 10
11.0074028426
 20
8.1795945976
 30
0.0
 10
10.9722672904
 20
8.1933724302
 30
0.0
 10
10.9376876473
 20
8.208707099
 30
0.0
 10
10.9037362728
 20
8.2255664601
 30
0.0
 10
10.8704842143
 20
8.2439151973
 30
0.0
 10
10.8380010705
 20
8.2637149067
 30
0.0
 10
10.8063548203
 20
8.2849241274
 30
0.0
 10
10.7756116669
 20
8.3074984208
 30
0.0
 10
10.7458359391
 20
8.3313905238
 30
0.0
 10
10.71708995
 20
8.3565504298
 30
0.0
 10
10.6894338822
 20
8.3829255029
 30
0.0
 10
10.6629256019
 20
8.4104605232
 30
0.0
 10
10.6376205697
 20
8.4390978466
 30
0.0
 10
10.6135717473
 20
8.4687775429
 30
0.0
 10
10.5908294866
 20
8.4994375134
 30
0.0
 10
10.5694414228
 20
8.531013614
 30
0.0
 10
10.549452306
 20
8.5634397461
 30
0.0
 10
10.5309039797
 20
8.5966480493
 30
0.0
 10
10.5138352897
 20
8.6305690342
 30
0.0
 10
10.4982820162
 20
8.6651317296
 30
0.0
 10
10.4842767587
 20
8.7002638074
 30
0.0
 10
10.4718488317
 20
8.7358917308
 30
0.0
 10
10.4610242919
 20
8.7719409366
 30
0.0
 10
10.4518258464
 20
8.8083359699
 30
0.0
 10
10.4442728169
 20
8.8450007113
 30
0.0
 10
10.4383811585
 20
8.881858207
 30
0.0
 10
10.4341629843
 20
8.9188318947
 30
0.0
 10
10.4316275823
 20
8.9558429513
 30
0.0
 10
10.4310615878
 20
8.9805319694
 30
0.0
 10
10.4310615878
 20
8.9928550159
 30
0.0
  0
SPLINE
  5
38A
100
AcDbEntity
  8
0
100
AcDbSpline
 62
7
  6
CONTINUOUS
 70
0
 71
3
 72
44
 73
40
 74
0
 42
0.0000001
 43
0.0000001
 44
0.0000000001
 40
0.0
 40
0.0
 40
0.0
 40
0.0
 40
0.0704908701
 40
0.1417968237
 40
0.2137319937
 40
0.286077585
 40
0.3223241521
 40
0.3585647553
 40
0.3947521033
 40
0.4308324091
 40
0.4667445385
 40
0.5024193238
 40
0.537779543
 40
0.5727398539
 40
0.6072070447
 40
0.6410809794
 40
0.674255989
 40
0.7066227164
 40
0.7380705519
 40
0.7684905933
 40
0.7977788138
 40
0.8119682282
 40
0.8258395741
 40
0.839382828
 40
0.8525888498
 40
0.865449433
 40
0.877957773
 40
0.8901079505
 40
0.9018957205
 40
0.9133179887
 40
0.9243732897
 40
0.9350617952
 40
0.9453852057
 40
0.9553472352
 40
0.9649532697
 40
0.9742108489
 40
0.9831295564
 40
0.991721206
 40
1.0
 40
1.0
 40
1.0
 40
1.0
 10
11.1102024674
 20
9.5478547701
 30
0.0
 10
11.1102024674
 20
9.5316672068
 30
0.0
 10
11.1111577862
 20
9.4990976889
 30
0.0
 10
11.1153628282
 20
9.4501726975
 30
0.0
 10
11.1222687313
 20
9.4011260147
 30
0.0
 10
11.1301541671
 20
9.3604077398
 30
0.0
 10
11.137649595
 20
9.3280013996
 30
0.0
 10
11.1438327575
 20
9.3038211085
 30
0.0
 10
11.1505353293
 20
9.279819647
 30
0.0
 10
11.1577138155
 20
9.2560351628
 30
0.0
 10
11.1653185234
 20
9.2325074312
 30
0.0
 10
11.1732930926
 20
9.2092774831
 30
0.0
 10
11.1815747686
 20
9.1863877974
 30
0.0
 10
11.190094157
 20
9.1638820396
 30
0.0
 10
11.1987750244
 20
9.1418046547
 30
0.0
 10
11.2075348902
 20
9.12020048
 30
0.0
 10
11.216285729
 20
9.0991141384
 30
0.0
 10
11.2249348372
 20
9.0785892704
 30
0.0
 10
11.2333860754
 20
9.0586676758
 30
0.0
 10
11.2415413444
 20
9.0393884614
 30
0.0
 10
11.2480760889
 20
9.0237270258
 30
0.0
 10
11.2530614151
 20
9.0115373632
 30
0.0
 10
11.2566256673
 20
9.0026730679
 30
0.0
 10
11.2600432748
 20
8.993993437
 30
0.0
 10
11.2633029975
 20
8.9855014189
 30
0.0
 10
11.2663939083
 20
8.9771996057
 30
0.0
 10
11.2693057718
 20
8.9690904263
 30
0.0
 10
11.2720283764
 20
8.9611757881
 30
0.0
 10
11.2745525157
 20
8.9534575522
 30
0.0
 10
11.2768690576
 20
8.9459371021
 30
0.0
 10
11.2789696547
 20
8.9386156763
 30
0.0
 10
11.2808465765
 20
8.9314942865
 30
0.0
 10
11.2824922689
 20
8.9245736184
 30
0.0
 10
11.2839004096
 20
8.9178543729
 30
0.0
 10
11.285064452
 20
8.9113368861
 30
0.0
 10
11.2859791505
 20
8.9050215788
 30
0.0
 10
11.2866393199
 20
8.8989086088
 30
0.0
 10
11.2870404287
 20
8.892998372
 30
0.0
 10
11.2871343331
 20
8.8891237693
 30
0.0
 10
11.2871343903
 20
8.8872226224
 30
0.0
  0
SPLINE
  5
38B
100
AcDbEntity
  8
0
100
AcDbSpline
 62
7
  6
CONTINUOUS
 70
0
 71
3
 72
39
 73
35
 74
0
 42
0.0000001
 43
0.0000001
 44
0.0000000001
 40
0.0
 40
0.0
 40
0.0
 40
0.0
 40
0.0958313223
 40
0.1890999066
 40
0.2792396479
 40
0.3229663115
 40
0.3657099292
 40
0.4074081191
 40
0.4480006754
 40
0.4874302648
 40
0.5256424385
 40
0.5625857699
 40
0.5982125807
 40
0.6324786396
 40
0.665344311
 40
0.6967743203
 40
0.7267388303
 40
0.7552139511
 40
0.7821824427
 40
0.807635341
 40
0.8315726205
 40
0.8540058864
 40
0.8749600023
 40
0.8944766962
 40
0.9126183481
 40
0.9294727137
 40
0.94515911
 40
0.9598336921
 40
0.9668557838
 40
0.973702854
 40
0.9804062715
 40
0.9869997015
 40
0.9935186515
 40
1.0
 40
1.0
 40
1.0
 40
1.0
 10
13.1092079564
 20
11.0591162223
 30
0.0
 10
13.1181677734
 20
11.0584948569
 30
0.0
 10
13.1358349059
 20
11.0570716898
 30
0.0
 10
13.1618663101
 20
11.0543550132
 30
0.0
 10
13.1829791202
 20
11.0516151253
 30
0.0
 10
13.1993467382
 20
11.0491487852
 30
0.0
 10
13.2111985059
 20
11.0471907798
 30
0.0
 10
13.2227308579
 20
11.0451092296
 30
0.0
 10
13.2339245444
 20
11.0429075582
 30
0.0
 10
13.2447608695
 20
11.0405894989
 30
0.0
 10
13.2552217514
 20
11.0381589592
 30
0.0
 10
13.2652897398
 20
11.0356199821
 30
0.0
 10
13.2749480611
 20
11.0329769087
 30
0.0
 10
13.284180628
 20
11.0302340969
 30
0.0
 10
13.2929721023
 20
11.0273962357
 30
0.0
 10
13.3013078893
 20
11.0244680278
 30
0.0
 10
13.3091741954
 20
11.0214543983
 30
0.0
 10
13.3165580527
 20
11.0183603975
 30
0.0
 10
13.3234473197
 20
11.0151910939
 30
0.0
 10
13.3298307853
 20
11.0119517983
 30
0.0
 10
13.3356980754
 20
11.0086476513
 30
0.0
 10
13.3410398251
 20
11.0052839987
 30
0.0
 10
13.3458475294
 20
11.0018659337
 30
0.0
 10
13.3501136236
 20
10.998398441
 30
0.0
 10
13.3538313553
 20
10.9948862945
 30
0.0
 10
13.3569945321
 20
10.9913335151
 30
0.0
 10
13.3595971274
 20
10.9877447289
 30
0.0
 10
13.361318548
 20
10.9846818658
 30
0.0
 10
13.3623916878
 20
10.9822294502
 30
0.0
 10
13.3630414087
 20
10.9804123975
 30
0.0
 10
13.3635472185
 20
10.9785917604
 30
0.0
 10
13.3639088419
 20
10.9767682979
 30
0.0
 10
13.3641259582
 20
10.9749430577
 30
0.0
 10
13.3641742547
 20
10.9737241221
 30
0.0
 10
13.36417426
 20
10.9731166884
 30
0.0
  0
SPLINE
  5
38C
100
AcDbEntity
  8
0
100
AcDbSpline
 62
7
  6
CONTINUOUS
 70
0
 71
3
 72
44
 73
40
 74
0
 42
0.0000001
 43
0.0000001
 44
0.0000000001
 40
0.0
 40
0.0
 40
0.0
 40
0.0
 40
0.015166805
 40
0.0303618835
 40
0.0455856256
 40
0.0608383248
 40
0.0914284179
 40
0.1221357166
 40
0.1375345482
 40
0.1529622489
 40
0.1839000514
 40
0.2149483963
 40
0.2461023918
 40
0.2773559157
 40
0.3087016987
 40
0.3401314168
 40
0.3716357946
 40
0.4032047167
 40
0.4348273453
 40
0.466492246
 40
0.4981875162
 40
0.5299009188
 40
0.5616200173
 40
0.5933323123
 40
0.6250253796
 40
0.6566870062
 40
0.688305326
 40
0.7198689521
 40
0.7513671059
 40
0.7827897422
 40
0.8141276632
 40
0.8453726433
 40
0.8609593731
 40
0.8765202576
 40
0.9075590327
 40
0.9384866981
 40
0.9539091558
 40
0.9693032561
 40
1.0
 40
1.0
 40
1.0
 40
1.0
 10
12.0329294307
 20
8.9051634686
 30
0.0
 10
12.0268164048
 20
8.9043778634
 30
0.0
 10
12.0145560557
 20
8.9029778463
 30
0.0
 10
11.9960970657
 20
8.9013940875
 30
0.0
 10
11.9775658531
 20
8.9003257494
 30
0.0
 10
11.9527586519
 20
8.8995888622
 30
0.0
 10
11.9216364127
 20
8.8999631792
 30
0.0
 10
11.8905233024
 20
8.9020567245
 30
0.0
 10
11.8656614679
 20
8.9047573031
 30
0.0
 10
11.8407896946
 20
8.9081471117
 30
0.0
 10
11.8098020329
 20
8.9136656407
 30
0.0
 10
11.7729337698
 20
8.9223048161
 30
0.0
 10
11.7364572623
 20
8.9329410705
 30
0.0
 10
11.7004841965
 20
8.9455418299
 30
0.0
 10
11.6651238209
 20
8.9600686806
 30
0.0
 10
11.6304837525
 20
8.9764773297
 30
0.0
 10
11.5966693464
 20
8.9947177826
 30
0.0
 10
11.5637834609
 20
9.0147344836
 30
0.0
 10
11.5319261232
 20
9.0364664854
 30
0.0
 10
11.5011942285
 20
9.0598476279
 30
0.0
 10
11.4716812506
 20
9.0848067482
 30
0.0
 10
11.4434769598
 20
9.111267895
 30
0.0
 10
11.4166671512
 20
9.1391505587
 30
0.0
 10
11.3913333864
 20
9.1683699147
 30
0.0
 10
11.3675527462
 20
9.1988370794
 30
0.0
 10
11.3453975979
 20
9.2304593806
 30
0.0
 10
11.3249353767
 20
9.2631406309
 30
0.0
 10
11.3062283788
 20
9.2967814407
 30
0.0
 10
11.289333581
 20
9.3312794354
 30
0.0
 10
11.2743024065
 20
9.3665298583
 30
0.0
 10
11.2611808107
 20
9.4024248104
 30
0.0
 10
11.2518628116
 20
9.4328100137
 30
0.0
 10
11.2454027453
 20
9.4573302421
 30
0.0
 10
11.239618909
 20
9.4819326882
 30
0.0
 10
11.2336428442
 20
9.5128817097
 30
0.0
 10
11.2293526174
 20
9.5440525135
 30
0.0
 10
11.226948098
 20
9.5690307653
 30
0.0
 10
11.2252322739
 20
9.5939710093
 30
0.0
 10
11.2247141187
 20
9.6127061016
 30
0.0
 10
11.2247141187
 20
9.6251802668
 30
0.0
  0
SPLINE
  5
38D
100
AcDbEntity
  8
0
100
AcDbSpline
 62
7
  6
CONTINUOUS
 70
0
 71
3
 72
37
 73
33
 74
0
 42
0.0000001
 43
0.0000001
 44
0.0000000001
 40
0.0
 40
0.0
 40
0.0
 40
0.0
 40
0.030746918
 40
0.0615815023
 40
0.0925011026
 40
0.1235024444
 40
0.1545816684
 40
0.1857343632
 40
0.2169555911
 40
0.2482399297
 40
0.2795815213
 40
0.3109741067
 40
0.3424110691
 40
0.3738854909
 40
0.4053901977
 40
0.436917802
 40
0.4999984781
 40
0.5630792119
 40
0.5946068887
 40
0.6261116954
 40
0.6575862445
 40
0.6890233615
 40
0.7204161266
 40
0.7517579215
 40
0.7830424876
 40
0.8142639635
 40
0.8454169239
 40
0.8764964393
 40
0.9074980723
 40
0.9384179765
 40
0.9692529811
 40
1.0
 40
1.0
 40
1.0
 40
1.0
 10
12.0042252656
 20
9.0817024329
 30
0.0
 10
11.9948806005
 20
9.0830335535
 30
0.0
 10
11.9762193593
 20
9.0861012028
 30
0.0
 10
11.9484119103
 20
9.091896926
 30
0.0
 10
11.9207983613
 20
9.0988830974
 30
0.0
 10
11.8934314525
 20
9.1070463576
 30
0.0
 10
11.8663625849
 20
9.11637126
 30
0.0
 10
11.8396428577
 20
9.1268402348
 30
0.0
 10
11.8133226522
 20
9.1384335543
 30
0.0
 10
11.7874515601
 20
9.1511292557
 30
0.0
 10
11.762078351
 20
9.1649033931
 30
0.0
 10
11.7372509085
 20
9.1797300437
 30
0.0
 10
11.7130159755
 20
9.1955812046
 30
0.0
 10
11.689419326
 20
9.2124268458
 30
0.0
 10
11.666505082
 20
9.2302356538
 30
0.0
 10
11.6369192767
 20
9.2552206849
 30
0.0
 10
11.6018608377
 20
9.288684214
 30
0.0
 10
11.5696267992
 20
9.3248763508
 30
0.0
 10
11.5456773509
 20
9.3553066164
 30
0.0
 10
11.5286696777
 20
9.3788217309
 30
0.0
 10
11.5126481047
 20
9.4029856185
 30
0.0
 10
11.4976424218
 20
9.4277531168
 30
0.0
 10
11.4836810834
 20
9.4530774538
 30
0.0
 10
11.4707904328
 20
9.4789109306
 30
0.0
 10
11.4589947269
 20
9.5052047999
 30
0.0
 10
11.4483162354
 20
9.5319095034
 30
0.0
 10
11.4387751949
 20
9.5589747203
 30
0.0
 10
11.4303895598
 20
9.5863494058
 30
0.0
 10
11.4231751399
 20
9.6139818902
 30
0.0
 10
11.4171456096
 20
9.6418203028
 30
0.0
 10
11.4123125314
 20
9.6698113787
 30
0.0
 10
11.409890347
 20
9.6885674827
 30
0.0
 10
11.4088823304
 20
9.6979525312
 30
0.0
  0
SPLINE
  5
38E
100
AcDbEntity
  8
0
100
AcDbSpline
 62
7
  6
CONTINUOUS
 70
0
 71
3
 72
28
 73
24
 74
0
 42
0.0000001
 43
0.0000001
 44
0.0000000001
 40
0.0
 40
0.0
 40
0.0
 40
0.0
 40
0.0637758941
 40
0.0955879065
 40
0.1273462157
 40
0.1907019646
 40
0.2538545302
 40
0.2853587825
 40
0.3168148204
 40
0.379582186
 40
0.4421719279
 40
0.504596336
 40
0.566869323
 40
0.6290062994
 40
0.6910240361
 40
0.7219962863
 40
0.7529455528
 40
0.8147797337
 40
0.8765514554
 40
0.9074228165
 40
0.9382862783
 40
0.9691444605
 40
1.0
 40
1.0
 40
1.0
 40
1.0
 10
8.4420019829
 20
6.9242378602
 30
0.0
 10
8.4420019829
 20
6.9375220817
 30
0.0
 10
8.442479326
 20
6.9574370247
 30
0.0
 10
8.4440762493
 20
6.983916395
 30
0.0
 10
8.4463072237
 20
7.0102625776
 30
0.0
 10
8.4502858517
 20
7.0430017419
 30
0.0
 10
8.4558533371
 20
7.0754550279
 30
0.0
 10
8.4612497719
 20
7.1011658796
 30
0.0
 10
8.4672614274
 20
7.1266573745
 30
0.0
 10
8.4759384708
 20
7.1581623744
 30
0.0
 10
8.4881965642
 20
7.1953227433
 30
0.0
 10
8.5022649765
 20
7.23172644
 30
0.0
 10
8.5181113019
 20
7.2672890762
 30
0.0
 10
8.5356987578
 20
7.3019282438
 30
0.0
 10
8.5517802319
 20
7.3299719395
 30
0.0
 10
8.5654716404
 20
7.351861078
 30
0.0
 10
8.5796966159
 20
7.3733615142
 30
0.0
 10
8.5984857147
 20
7.3995211967
 30
0.0
 10
8.6185816665
 20
7.4246702927
 30
0.0
 10
8.6354051274
 20
7.4441359289
 30
0.0
 10
8.6483889711
 20
7.4584006736
 30
0.0
 10
8.661732818
 20
7.4723243267
 30
0.0
 10
8.670864184
 20
7.4813744234
 30
0.0
 10
8.675486878
 20
7.4858396072
 30
0.0
  0
SPLINE
  5
38F
100
AcDbEntity
  8
0
100
AcDbSpline
 62
4
  6
CONTINUOUS
 70
0
 71
3
 72
403
 73
399
 74
0
 42
0.0000001
 43
0.0000001
 44
0.0000000001
 40
0.0
 40
0.0
 40
0.0
 40
0.0
 40
0.015625
 40
0.0234375
 40
0.03125
 40
0.0390625
 40
0.04296875
 40
0.046875
 40
0.05078125
 40
0.0546875
 40
0.056640625
 40
0.05859375
 40
0.0595703125
 40
0.060546875
 40
0.0615234375
 40
0.0620117188
 40
0.0622558594
 40
0.0625
 40
0.0627441406
 40
0.0629882812
 40
0.0634765625
 40
0.064453125
 40
0.0654296875
 40
0.06640625
 40
0.068359375
 40
0.0703125
 40
0.07421875
 40
0.078125
 40
0.08203125
 40
0.0859375
 40
0.09375
 40
0.1015625
 40
0.10546875
 40
0.109375
 40
0.11328125
 40
0.1171875
 40
0.119140625
 40
0.12109375
 40
0.1220703125
 40
0.123046875
 40
0.1240234375
 40
0.1245117188
 40
0.1247558594
 40
0.125
 40
0.1252441406
 40
0.1254882812
 40
0.1259765625
 40
0.126953125
 40
0.1279296875
 40
0.12890625
 40
0.130859375
 40
0.1328125
 40
0.13671875
 40
0.140625
 40
0.14453125
 40
0.1484375
 40
0.15625
 40
0.1640625
 40
0.16796875
 40
0.171875
 40
0.17578125
 40
0.1796875
 40
0.181640625
 40
0.18359375
 40
0.1845703125
 40
0.185546875
 40
0.1865234375
 40
0.1870117188
 40
0.1872558594
 40
0.1875
 40
0.1877441406
 40
0.1879882812
 40
0.1884765625
 40
0.189453125
 40
0.1904296875
 40
0.19140625
 40
0.193359375
 40
0.1953125
 40
0.19921875
 40
0.203125
 40
0.20703125
 40
0.2109375
 40
0.21875
 40
0.2265625
 40
0.23046875
 40
0.234375
 40
0.23828125
 40
0.2421875
 40
0.244140625
 40
0.24609375
 40
0.2470703125
 40
0.248046875
 40
0.2490234375
 40
0.2495117188
 40
0.2497558594
 40
0.25
 40
0.2502441406
 40
0.2504882812
 40
0.2509765625
 40
0.251953125
 40
0.2529296875
 40
0.25390625
 40
0.255859375
 40
0.2578125
 40
0.26171875
 40
0.265625
 40
0.26953125
 40
0.2734375
 40
0.28125
 40
0.2890625
 40
0.29296875
 40
0.296875
 40
0.30078125
 40
0.3046875
 40
0.306640625
 40
0.30859375
 40
0.3095703125
 40
0.310546875
 40
0.3115234375
 40
0.3120117188
 40
0.3122558594
 40
0.3125
 40
0.3127441406
 40
0.3129882812
 40
0.3134765625
 40
0.314453125
 40
0.3154296875
 40
0.31640625
 40
0.318359375
 40
0.3203125
 40
0.32421875
 40
0.328125
 40
0.33203125
 40
0.3359375
 40
0.34375
 40
0.3515625
 40
0.35546875
 40
0.359375
 40
0.36328125
 40
0.3671875
 40
0.369140625
 40
0.37109375
 40
0.3720703125
 40
0.373046875
 40
0.3740234375
 40
0.3745117188
 40
0.3747558594
 40
0.375
 40
0.3752441406
 40
0.3754882812
 40
0.3759765625
 40
0.376953125
 40
0.3779296875
 40
0.37890625
 40
0.380859375
 40
0.3828125
 40
0.38671875
 40
0.390625
 40
0.39453125
 40
0.3984375
 40
0.40625
 40
0.4140625
 40
0.41796875
 40
0.421875
 40
0.42578125
 40
0.4296875
 40
0.431640625
 40
0.43359375
 40
0.4345703125
 40
0.435546875
 40
0.4365234375
 40
0.4370117188
 40
0.4372558594
 40
0.4375
 40
0.4377441406
 40
0.4379882812
 40
0.4384765625
 40
0.439453125
 40
0.4404296875
 40
0.44140625
 40
0.443359375
 40
0.4453125
 40
0.44921875
 40
0.453125
 40
0.45703125
 40
0.4609375
 40
0.46875
 40
0.4765625
 40
0.48046875
 40
0.484375
 40
0.48828125
 40
0.4921875
 40
0.494140625
 40
0.49609375
 40
0.4970703125
 40
0.498046875
 40
0.4990234375
 40
0.4995117188
 40
0.4997558594
 40
0.5
 40
0.5002441406
 40
0.5004882812
 40
0.5009765625
 40
0.501953125
 40
0.5029296875
 40
0.50390625
 40
0.505859375
 40
0.5078125
 40
0.51171875
 40
0.515625
 40
0.51953125
 40
0.5234375
 40
0.53125
 40
0.5390625
 40
0.54296875
 40
0.546875
 40
0.55078125
 40
0.5546875
 40
0.556640625
 40
0.55859375
 40
0.5595703125
 40
0.560546875
 40
0.5615234375
 40
0.5620117188
 40
0.5622558594
 40
0.5625
 40
0.5627441406
 40
0.5629882812
 40
0.5634765625
 40
0.564453125
 40
0.5654296875
 40
0.56640625
 40
0.568359375
 40
0.5703125
 40
0.57421875
 40
0.578125
 40
0.58203125
 40
0.5859375
 40
0.59375
 40
0.6015625
 40
0.60546875
 40
0.609375
 40
0.61328125
 40
0.6171875
 40
0.619140625
 40
0.62109375
 40
0.6220703125
 40
0.623046875
 40
0.6240234375
 40
0.6245117188
 40
0.6247558594
 40
0.625
 40
0.6252441406
 40
0.6254882812
 40
0.6259765625
 40
0.626953125
 40
0.6279296875
 40
0.62890625
 40
0.630859375
 40
0.6328125
 40
0.63671875
 40
0.640625
 40
0.64453125
 40
0.6484375
 40
0.65625
 40
0.6640625
 40
0.66796875
 40
0.671875
 40
0.67578125
 40
0.6796875
 40
0.681640625
 40
0.68359375
 40
0.6845703125
 40
0.685546875
 40
0.6865234375
 40
0.6870117188
 40
0.6872558594
 40
0.6875
 40
0.6877441406
 40
0.6879882812
 40
0.6884765625
 40
0.689453125
 40
0.6904296875
 40
0.69140625
 40
0.693359375
 40
0.6953125
 40
0.69921875
 40
0.703125
 40
0.70703125
 40
0.7109375
 40
0.71875
 40
0.7265625
 40
0.73046875
 40
0.734375
 40
0.73828125
 40
0.7421875
 40
0.744140625
 40
0.74609375
 40
0.7470703125
 40
0.748046875
 40
0.7490234375
 40
0.7495117188
 40
0.7497558594
 40
0.75
 40
0.7502441406
 40
0.7504882812
 40
0.7509765625
 40
0.751953125
 40
0.7529296875
 40
0.75390625
 40
0.755859375
 40
0.7578125
 40
0.76171875
 40
0.765625
 40
0.76953125
 40
0.7734375
 40
0.78125
 40
0.7890625
 40
0.79296875
 40
0.796875
 40
0.80078125
 40
0.8046875
 40
0.806640625
 40
0.80859375
 40
0.8095703125
 40
0.810546875
 40
0.8115234375
 40
0.8120117188
 40
0.8122558594
 40
0.8125
 40
0.8127441406
 40
0.8129882812
 40
0.8134765625
 40
0.814453125
 40
0.8154296875
 40
0.81640625
 40
0.818359375
 40
0.8203125
 40
0.82421875
 40
0.828125
 40
0.83203125
 40
0.8359375
 40
0.84375
 40
0.8515625
 40
0.85546875
 40
0.859375
 40
0.86328125
 40
0.8671875
 40
0.869140625
 40
0.87109375
 40
0.8720703125
 40
0.873046875
 40
0.8740234375
 40
0.8745117188
 40
0.8747558594
 40
0.875
 40
0.8752441406
 40
0.8754882812
 40
0.8759765625
 40
0.876953125
 40
0.8779296875
 40
0.87890625
 40
0.880859375
 40
0.8828125
 40
0.88671875
 40
0.890625
 40
0.89453125
 40
0.8984375
 40
0.90625
 40
0.9140625
 40
0.91796875
 40
0.921875
 40
0.92578125
 40
0.9296875
 40
0.931640625
 40
0.93359375
 40
0.9345703125
 40
0.935546875
 40
0.9365234375
 40
0.9370117188
 40
0.9372558594
 40
0.9375
 40
0.9377441406
 40
0.9379882812
 40
0.9384765625
 40
0.939453125
 40
0.9404296875
 40
0.94140625
 40
0.943359375
 40
0.9453125
 40
0.94921875
 40
0.953125
 40
0.95703125
 40
0.9609375
 40
0.96875
 40
0.9765625
 40
0.984375
 40
1.0
 40
1.0
 40
1.0
 40
1.0
 10
8.0538930114
 20
8.9788249321
 30
0.0
 10
8.0601593852
 20
8.9790047809
 30
0.0
 10
8.069558946
 20
8.9792745542
 30
0.0
 10
8.0820916937
 20
8.9796342518
 30
0.0
 10
8.0914912544
 20
8.9799040251
 30
0.0
 10
8.0993242217
 20
8.9801288358
 30
0.0
 10
8.1055905955
 20
8.9803086853
 30
0.0
 10
8.1102903762
 20
8.98044357
 30
0.0
 10
8.1149901551
 20
8.980578464
 30
0.0
 10
8.1189066433
 20
8.9806908463
 30
0.0
 10
8.122039821
 20
8.9807808181
 30
0.0
 10
8.1239980864
 20
8.9808369003
 30
0.0
 10
8.1255646315
 20
8.98088211
 30
0.0
 10
8.1267397243
 20
8.9809150755
 30
0.0
 10
8.1277183831
 20
8.9809455427
 30
0.0
 10
8.1284045926
 20
8.9809609903
 30
0.0
 10
8.1287949193
 20
8.9809789977
 30
0.0
 10
8.1290927154
 20
8.9809666427
 30
0.0
 10
8.1293712035
 20
8.9810531396
 30
0.0
 10
8.1297492558
 20
8.9811339881
 30
0.0
 10
8.1304077095
 20
8.9812915382
 30
0.0
 10
8.1313499981
 20
8.9815082107
 30
0.0
 10
8.1324800422
 20
8.9817718128
 30
0.0
 10
8.1339870129
 20
8.9821220266
 30
0.0
 10
8.1358706424
 20
8.9825602238
 30
0.0
 10
8.1388844964
 20
8.9832610989
 30
0.0
 10
8.1426517979
 20
8.9841372754
 30
0.0
 10
8.1471725665
 20
8.9851886517
 30
0.0
 10
8.1516933333
 20
8.9862400375
 30
0.0
 10
8.1577210231
 20
8.9876418819
 30
0.0
 10
8.165255635
 20
8.9893941887
 30
0.0
 10
8.1727902471
 20
8.9911464947
 30
0.0
 10
8.1788179365
 20
8.9925483404
 30
0.0
 10
8.1833387045
 20
8.9935997223
 30
0.0
 10
8.1878594688
 20
8.9946511133
 30
0.0
 10
8.1916267837
 20
8.9955272443
 30
0.0
 10
8.1946406103
 20
8.9962282121
 30
0.0
 10
8.1965243096
 20
8.9966661734
 30
0.0
 10
8.1980311371
 20
8.9970168714
 30
0.0
 10
8.1991616187
 20
8.9972789942
 30
0.0
 10
8.2001025386
 20
8.9975002949
 30
0.0
 10
8.2007634355
 20
8.997649583
 30
0.0
 10
8.2011375731
 20
8.9977436694
 30
0.0
 10
8.2014280861
 20
8.9977895037
 30
0.0
 10
8.2016807185
 20
8.9979298705
 30
0.0
 10
8.2020307748
 20
8.9980840522
 30
0.0
 10
8.2026372172
 20
8.9983692335
 30
0.0
 10
8.203506782
 20
8.9987686032
 30
0.0
 10
8.2045488821
 20
8.9992512848
 30
0.0
 10
8.2059388301
 20
8.9998936595
 30
0.0
 10
8.2076761003
 20
9.000697039
 30
0.0
 10
8.2104558247
 20
9.0019822165
 30
0.0
 10
8.2139304486
 20
9.0035887672
 30
0.0
 10
8.2181000109
 20
9.0055165942
 30
0.0
 10
8.2222695696
 20
9.0074444302
 30
0.0
 10
8.2278289824
 20
9.0100148751
 30
0.0
 10
8.2347782479
 20
9.0132279324
 30
0.0
 10
8.2417275137
 20
9.0164409889
 30
0.0
 10
8.247286926
 20
9.019011435
 30
0.0
 10
8.2514564864
 20
9.0209392673
 30
0.0
 10
8.2556260421
 20
9.0228671084
 30
0.0
 10
8.2591006864
 20
9.0244736151
 30
0.0
 10
8.2618803694
 20
9.0257588822
 30
0.0
 10
8.263617745
 20
9.0265620335
 30
0.0
 10
8.2650074766
 20
9.0272048767
 30
0.0
 10
8.2660502378
 20
9.027686127
 30
0.0
 10
8.266917734
 20
9.0280899751
 30
0.0
 10
8.2675278692
 20
9.0283671616
 30
0.0
 10
8.2678720086
 20
9.028534153
 30
0.0
 10
8.2681428162
 20
9.0286351728
 30
0.0
 10
8.2683650662
 20
9.0288287878
 30
0.0
 10
8.2686783369
 20
9.029054643
 30
0.0
 10
8.2692186693
 20
9.0294649379
 30
0.0
 10
8.2699946985
 20
9.0300432059
 30
0.0
 10
8.2709241675
 20
9.0307404952
 30
0.0
 10
8.2721640763
 20
9.0316690379
 30
0.0
 10
8.2737137512
 20
9.0328301191
 30
0.0
 10
8.276193349
 20
9.0346876239
 30
0.0
 10
8.2792928058
 20
9.0370095821
 30
0.0
 10
8.2830121713
 20
9.0397958989
 30
0.0
 10
8.2867315321
 20
9.0425822245
 30
0.0
 10
8.2916906816
 20
9.0462973222
 30
0.0
 10
8.2978896177
 20
9.0509411955
 30
0.0
 10
8.3040885544
 20
9.0555850681
 30
0.0
 10
8.309047703
 20
9.059300167
 30
0.0
 10
8.3127670664
 20
9.0620864893
 30
0.0
 10
8.3164864223
 20
9.0648728184
 30
0.0
 10
8.3195859088
 20
9.0671947383
 30
0.0
 10
8.322065446
 20
9.0690523213
 30
0.0
 10
8.3236152751
 20
9.0702132034
 30
0.0
 10
8.3248548674
 20
9.0711421548
 30
0.0
 10
8.3257853035
 20
9.0718381954
 30
0.0
 10
8.3265583069
 20
9.0724203701
 30
0.0
 10
8.3271040407
 20
9.0728236911
 30
0.0
 10
8.3274086571
 20
9.0730607201
 30
0.0
 10
8.3276574907
 20
9.0732200127
 30
0.0
 10
8.3278284546
 20
9.0734499418
 30
0.0
 10
8.3280835684
 20
9.0737318751
 30
0.0
 10
8.3285173623
 20
9.074236738
 30
0.0
 10
8.3291436841
 20
9.074951969
 30
0.0
 10
8.3298924383
 20
9.0758128152
 30
0.0
 10
8.3308917664
 20
9.0769597128
 30
0.0
 10
8.3321405878
 20
9.078393642
 30
0.0
 10
8.3341388914
 20
9.0806877571
 30
0.0
 10
8.336636706
 20
9.0835554599
 30
0.0
 10
8.3396341112
 20
9.0869966779
 30
0.0
 10
8.3426315091
 20
9.0904379027
 30
0.0
 10
8.3466280421
 20
9.0950262001
 30
0.0
 10
8.3516237075
 20
9.1007615727
 30
0.0
 10
8.3566193735
 20
9.1064969448
 30
0.0
 10
8.3606159054
 20
9.1110852431
 30
0.0
 10
8.3636133065
 20
9.1145264652
 30
0.0
 10
8.3666106997
 20
9.1179676933
 30
0.0
 10
8.3691085519
 20
9.1208353651
 30
0.0
 10
8.3711067786
 20
9.1231295433
 30
0.0
 10
8.3723557958
 20
9.1245633119
 30
0.0
 10
8.3733547221
 20
9.1257105392
 30
0.0
 10
8.3741047038
 20
9.1265703782
 30
0.0
 10
8.3747271851
 20
9.1272887603
 30
0.0
 10
8.375167835
 20
9.127787998
 30
0.0
 10
8.3754119636
 20
9.1280789442
 30
0.0
 10
8.3756166703
 20
9.1282811885
 30
0.0
 10
8.375738772
 20
9.1285444606
 30
0.0
 10
8.3759303879
 20
9.1288742028
 30
0.0
 10
8.3762522909
 20
9.1294611698
 30
0.0
 10
8.376719171
 20
9.1302945088
 30
0.0
 10
8.3772764229
 20
9.131296735
 30
0.0
 10
8.3780204747
 20
9.1326322615
 30
0.0
 10
8.3789501802
 20
9.134301935
 30
0.0
 10
8.3804379099
 20
9.1369732643
 30
0.0
 10
8.382297503
 20
9.1403124768
 30
0.0
 10
8.3845290443
 20
9.1443195099
 30
0.0
 10
8.3867605776
 20
9.1483265489
 30
0.0
 10
8.3897359582
 20
9.1536692656
 30
0.0
 10
8.3934551829
 20
9.1603476621
 30
0.0
 10
8.3971744084
 20
9.1670260582
 30
0.0
 10
8.4001497878
 20
9.1723687755
 30
0.0
 10
8.4023813247
 20
9.1763758124
 30
0.0
 10
8.4046128528
 20
9.1803828535
 30
0.0
 10
8.4064724869
 20
9.1837220412
 30
0.0
 10
8.4079601329
 20
9.1863934211
 30
0.0
 10
8.4088900511
 20
9.1880629658
 30
0.0
 10
8.4096336664
 20
9.1893987566
 30
0.0
 10
8.4101922521
 20
9.1904001752
 30
0.0
 10
8.4106549589
 20
9.1912360413
 30
0.0
 10
8.4109843119
 20
9.191818497
 30
0.0
 10
8.411163991
 20
9.1921554675
 30
0.0
 10
8.4113227588
 20
9.1923965366
 30
0.0
 10
8.411389754
 20
9.1926821714
 30
0.0
 10
8.4115110922
 20
9.1930474728
 30
0.0
 10
8.4117085193
 20
9.193693993
 30
0.0
 10
8.4119983557
 20
9.1946138067
 30
0.0
 10
8.4123428218
 20
9.1957192039
 30
0.0
 10
8.4128032756
 20
9.1971925008
 30
0.0
 10
8.4133784438
 20
9.1990343157
 30
0.0
 10
8.4142989359
 20
9.2019811112
 30
0.0
 10
8.4154494745
 20
9.2056646428
 30
0.0
 10
8.4168301536
 20
9.2100848648
 30
0.0
 10
8.418210824
 20
9.214505091
 30
0.0
 10
8.4200517208
 20
9.2203987245
 30
0.0
 10
8.4223528408
 20
9.2277657669
 30
0.0
 10
8.4246539615
 20
9.2351328089
 30
0.0
 10
8.4264948571
 20
9.241026443
 30
0.0
 10
8.4278755313
 20
9.2454466676
 30
0.0
 10
8.4292561961
 20
9.2498668956
 30
0.0
 10
8.4304067792
 20
9.2535504083
 30
0.0
 10
8.4313271806
 20
9.2564972422
 30
0.0
 10
8.4319025795
 20
9.2583389595
 30
0.0
 10
8.4323625597
 20
9.2598124568
 30
0.0
 10
8.432708473
 20
9.2609172415
 30
0.0
 10
8.4329937813
 20
9.2618389717
 30
0.0
 10
8.4331992918
 20
9.2624820706
 30
0.0
 10
8.4333076785
 20
9.2628528539
 30
0.0
 10
8.4334144567
 20
9.2631216503
 30
0.0
 10
8.4334238059
 20
9.2634259616
 30
0.0
 10
8.4334702559
 20
9.2638193221
 30
0.0
 10
8.4335357095
 20
9.2645134747
 30
0.0
 10
8.4336374928
 20
9.2655021037
 30
0.0
 10
8.4337560894
 20
9.2666897501
 30
0.0
 10
8.4339154558
 20
9.2682728275
 30
0.0
 10
8.43411424
 20
9.2702518287
 30
0.0
 10
8.4344325316
 20
9.2734181444
 30
0.0
 10
8.4348303149
 20
9.2773760686
 30
0.0
 10
8.4353076897
 20
9.2821255649
 30
0.0
 10
8.4357850551
 20
9.2868750646
 30
0.0
 10
8.4364215456
 20
9.2932077297
 30
0.0
 10
8.4372171575
 20
9.3011235614
 30
0.0
 10
8.4380127703
 20
9.3090393931
 30
0.0
 10
8.4386492594
 20
9.3153720584
 30
0.0
 10
8.4391266289
 20
9.3201215574
 30
0.0
 10
8.4396039886
 20
9.3248710563
 30
0.0
 10
8.4400018186
 20
9.3288289726
 30
0.0
 10
8.440320015
 20
9.3319953043
 30
0.0
 10
8.4405190415
 20
9.3339742646
 30
0.0
 10
8.4406779106
 20
9.3355574261
 30
0.0
 10
8.4407980265
 20
9.3367448155
 30
0.0
 10
8.4408950563
 20
9.3377342486
 30
0.0
 10
8.4409689956
 20
9.3384269657
 30
0.0
 10
8.4410018493
 20
9.3388226262
 30
0.0
 10
8.441052962
 20
9.3391198727
 30
0.0
 10
8.4410028837
 20
9.3394152035
 30
0.0
 10
8.4409714091
 20
9.3398096462
 30
0.0
 10
8.4408998833
 20
9.3404996095
 30
0.0
 10
8.4408063015
 20
9.3414854341
 30
0.0
 10
8.4406903231
 20
9.342668354
 30
0.0
 10
8.4405369706
 20
9.3442456048
 30
0.0
 10
8.4403448399
 20
9.3462171601
 30
0.0
 10
8.4400376767
 20
9.3493716531
 30
0.0
 10
8.4396536383
 20
9.3533147678
 30
0.0
 10
8.4391928285
 20
9.3580465061
 30
0.0
 10
8.4387320089
 20
9.3627782443
 30
0.0
 10
8.4381175863
 20
9.3690872285
 30
0.0
 10
8.4373495567
 20
9.3769734588
 30
0.0
 10
8.436581528
 20
9.3848596892
 30
0.0
 10
8.435967104
 20
9.3911686733
 30
0.0
 10
8.4355062885
 20
9.3959004117
 30
0.0
 10
8.4350454636
 20
9.400632149
 30
0.0
 10
8.4346614719
 20
9.4045752671
 30
0.0
 10
8.4343542135
 20
9.4077297532
 30
0.0
 10
8.4341623252
 20
9.4097013261
 30
0.0
 10
8.4340084752
 20
9.4112785407
 30
0.0
 10
8.4338940167
 20
9.4124615712
 30
0.0
 10
8.4337956794
 20
9.4134470498
 30
0.0
 10
8.4337326429
 20
9.4141376309
 30
0.0
 10
8.4336875663
 20
9.4145310836
 30
0.0
 10
8.4336792691
 20
9.4148294552
 30
0.0
 10
8.433573459
 20
9.4151152812
 30
0.0
 10
8.4334663924
 20
9.4155007586
 30
0.0
 10
8.4332631784
 20
9.4161733052
 30
0.0
 10
8.4329811579
 20
9.417135152
 30
0.0
 10
8.432639187
 20
9.4182889119
 30
0.0
 10
8.4321844645
 20
9.4198274177
 30
0.0
 10
8.4316156372
 20
9.4217504955
 30
0.0
 10
8.4307057505
 20
9.4248274504
 30
0.0
 10
8.4295683108
 20
9.4286736336
 30
0.0
 10
8.4282034181
 20
9.4332890578
 30
0.0
 10
8.4268385161
 20
9.4379044809
 30
0.0
 10
8.4250186499
 20
9.4440583788
 30
0.0
 10
8.422743816
 20
9.451750751
 30
0.0
 10
8.420468983
 20
9.4594431233
 30
0.0
 10
8.4186491156
 20
9.4655970209
 30
0.0
 10
8.4172842173
 20
9.4702124449
 30
0.0
 10
8.4159193103
 20
9.4748278659
 30
0.0
 10
8.4147819151
 20
9.4786740594
 30
0.0
 10
8.4138719377
 20
9.4817509932
 30
0.0
 10
8.4133033414
 20
9.4836741247
 30
0.0
 10
8.4128481446
 20
9.4852125203
 30
0.0
 10
8.4125076226
 20
9.4863666171
 30
0.0
 10
8.4122210689
 20
9.4873274096
 30
0.0
 10
8.4120259475
 20
9.4880018382
 30
0.0
 10
8.4119059145
 20
9.4883843001
 30
0.0
 10
8.4118399331
 20
9.488679389
 30
0.0
 10
8.4116820462
 20
9.4889429708
 30
0.0
 10
8.4115035879
 20
9.4893054033
 30
0.0
 10
8.4111763498
 20
9.4899345397
 30
0.0
 10
8.4107166755
 20
9.490835983
 30
0.0
 10
8.410161724
 20
9.4919165691
 30
0.0
 10
8.4094229561
 20
9.4933577508
 30
0.0
 10
8.4084990965
 20
9.4951590909
 30
0.0
 10
8.4070211445
 20
9.4980413117
 30
0.0
 10
8.4051736278
 20
9.5016440613
 30
0.0
 10
8.4029566407
 20
9.5059673722
 30
0.0
 10
8.4007396448
 20
9.51029068
 30
0.0
 10
8.3977836533
 20
9.5160550915
 30
0.0
 10
8.3940886628
 20
9.5232606055
 30
0.0
 10
8.3903936731
 20
9.5304661198
 30
0.0
 10
8.3874376804
 20
9.5362305308
 30
0.0
 10
8.3852206881
 20
9.5405538401
 30
0.0
 10
8.3830036873
 20
9.5448771454
 30
0.0
 10
8.3811562133
 20
9.5484799124
 30
0.0
 10
8.3796781744
 20
9.5513620977
 30
0.0
 10
8.3787545358
 20
9.553163528
 30
0.0
 10
8.3780153143
 20
9.5546045247
 30
0.0
 10
8.3774617483
 20
9.5556856759
 30
0.0
 10
8.3769977391
 20
9.5565853512
 30
0.0
 10
8.3766782396
 20
9.5572176438
 30
0.0
 10
8.3764873821
 20
9.5575750192
 30
0.0
 10
8.3763675818
 20
9.5578541349
 30
0.0
 10
8.3761585536
 20
9.5580908811
 30
0.0
 10
8.3759109731
 20
9.5584213216
 30
0.0
 10
8.375463206
 20
9.5589927068
 30
0.0
 10
8.3748311201
 20
9.5598125712
 30
0.0
 10
8.374069372
 20
9.5607948677
 30
0.0
 10
8.3730548413
 20
9.5621051344
 30
0.0
 10
8.3717862898
 20
9.5637427837
 30
0.0
 10
8.3697568243
 20
9.5663631254
 30
0.0
 10
8.367219918
 20
9.5696385172
 30
0.0
 10
8.3641756624
 20
9.5735690025
 30
0.0
 10
8.3611313982
 20
9.5774994838
 30
0.0
 10
8.3570723823
 20
9.582740127
 30
0.0
 10
8.3519986113
 20
9.5892909303
 30
0.0
 10
8.346924841
 20
9.5958417342
 30
0.0
 10
8.342865824
 20
9.6010823765
 30
0.0
 10
8.339821563
 20
9.6050128601
 30
0.0
 10
8.3367772957
 20
9.6089433367
 30
0.0
 10
8.3342404257
 20
9.6122187557
 30
0.0
 10
8.3322108861
 20
9.614839042
 30
0.0
 10
8.3309425231
 20
9.6164768324
 30
0.0
 10
8.3299276056
 20
9.6177868094
 30
0.0
 10
8.329167039
 20
9.618769991
 30
0.0
 10
8.3285312564
 20
9.6195870861
 30
0.0
 10
8.3280900886
 20
9.620163415
 30
0.0
 10
8.3278319344
 20
9.6204859344
 30
0.0
 10
8.3276553851
 20
9.6207470118
 30
0.0
 10
8.3274135997
 20
9.6209347436
 30
0.0
 10
8.3271139742
 20
9.6212106365
 30
0.0
 10
8.3265790276
 20
9.621681529
 30
0.0
 10
8.3258203609
 20
9.6223604645
 30
0.0
 10
8.3249075885
 20
9.6231725197
 30
0.0
 10
8.3236913873
 20
9.6242561917
 30
0.0
 10
8.322170852
 20
9.6256104626
 30
0.0
 10
8.3197381541
 20
9.6277774743
 30
0.0
 10
8.3166972273
 20
9.6304861779
 30
0.0
 10
8.3130481384
 20
9.6337366483
 30
0.0
 10
8.3093990434
 20
9.6369871118
 30
0.0
 10
8.3045335855
 20
9.6413210655
 30
0.0
 10
8.2984517623
 20
9.6467385067
 30
0.0
 10
8.2923699396
 20
9.6521559485
 30
0.0
 10
8.2875044809
 20
9.6564899012
 30
0.0
 10
8.2838553883
 20
9.6597403677
 30
0.0
 10
8.2802062904
 20
9.6629908266
 30
0.0
 10
8.2771653919
 20
9.6656995659
 30
0.0
 10
8.2747326362
 20
9.6678665048
 30
0.0
 10
8.2732122479
 20
9.6692209612
 30
0.0
 10
8.2719957449
 20
9.6703042523
 30
0.0
 10
8.2710838945
 20
9.6711174711
 30
0.0
 10
8.2703223432
 20
9.6717927661
 30
0.0
 10
8.2697925462
 20
9.6722701576
 30
0.0
 10
8.2694846696
 20
9.6725356375
 30
0.0
 10
8.2692682289
 20
9.6727553544
 30
0.0
 10
8.2689964891
 20
9.6728963014
 30
0.0
 10
8.2686534582
 20
9.6731117065
 30
0.0
 10
8.2680441672
 20
9.673475864
 30
0.0
 10
8.26717845
 20
9.6740027818
 30
0.0
 10
8.2661375782
 20
9.6746322184
 30
0.0
 10
8.2647504515
 20
9.6754724678
 30
0.0
 10
8.2630163027
 20
9.6765224369
 30
0.0
 10
8.260241799
 20
9.678202579
 30
0.0
 10
8.2567736233
 20
9.6803026909
 30
0.0
 10
8.2526118323
 20
9.6828228534
 30
0.0
 10
8.2484500359
 20
9.6853430083
 30
0.0
 10
8.2429009759
 20
9.6887032175
 30
0.0
 10
8.2359646503
 20
9.6929034781
 30
0.0
 10
8.229028325
 20
9.6971037393
 30
0.0
 10
8.2234792644
 20
9.7004639474
 30
0.0
 10
8.21931747
 20
9.7029841057
 30
0.0
 10
8.2151556718
 20
9.7055042555
 30
0.0
 10
8.2116875181
 20
9.7076044069
 30
0.0
 10
8.2089129696
 20
9.7092844685
 30
0.0
 10
8.2071789348
 20
9.7103346424
 30
0.0
 10
8.2057915741
 20
9.7111744714
 30
0.0
 10
8.2047514175
 20
9.7118051923
 30
0.0
 10
8.2038834626
 20
9.712328092
 30
0.0
 10
8.2032781662
 20
9.7126994225
 30
0.0
 10
8.2029287349
 20
9.7129033347
 30
0.0
 10
8.2026766552
 20
9.7130795842
 30
0.0
 10
8.2023863742
 20
9.7131667105
 30
0.0
 10
8.202012658
 20
9.713313966
 30
0.0
 10
8.2013524462
 20
9.713557179
 30
0.0
 10
8.2004125322
 20
9.7139121986
 30
0.0
 10
8.1992832462
 20
9.7143349809
 30
0.0
 10
8.1977780168
 20
9.7148998228
 30
0.0
 10
8.1958963138
 20
9.7156054875
 30
0.0
 10
8.1928856819
 20
9.7167347676
 30
0.0
 10
8.1891223602
 20
9.7181462935
 30
0.0
 10
8.1846063879
 20
9.7198401564
 30
0.0
 10
8.1800904118
 20
9.7215340107
 30
0.0
 10
8.1740691117
 20
9.7237924862
 30
0.0
 10
8.1665424861
 20
9.7266155794
 30
0.0
 10
8.1590158608
 20
9.7294386733
 30
0.0
 10
8.1529945602
 20
9.7316971476
 30
0.0
 10
8.1484785855
 20
9.7333910056
 30
0.0
 10
8.1439626081
 20
9.7350848546
 30
0.0
 10
8.1401993021
 20
9.7364964238
 30
0.0
 10
8.1371886382
 20
9.7376256155
 30
0.0
 10
8.1353070169
 20
9.7383315053
 30
0.0
 10
8.1338016198
 20
9.738895885
 30
0.0
 10
8.132672846
 20
9.7393200791
 30
0.0
 10
8.1317313295
 20
9.7396706818
 30
0.0
 10
8.1310739784
 20
9.7399217798
 30
0.0
 10
8.1306956785
 20
9.7400564016
 30
0.0
 10
8.1304194771
 20
9.7401823344
 30
0.0
 10
8.1301145172
 20
9.7402128327
 30
0.0
 10
8.1297179352
 20
9.7402867858
 30
0.0
 10
8.1290192431
 20
9.7404006938
 30
0.0
 10
8.128023555
 20
9.7405715283
 30
0.0
 10
8.1268276833
 20
9.7407730589
 30
0.0
 10
8.1252335531
 20
9.7410429786
 30
0.0
 10
8.1232407653
 20
9.7413799631
 30
0.0
 10
8.1200523746
 20
9.7419193704
 30
0.0
 10
8.1160668623
 20
9.7425935499
 30
0.0
 10
8.1112842578
 20
9.7434025994
 30
0.0
 10
8.1065016506
 20
9.7442116397
 30
0.0
 10
8.1001248419
 20
9.7452903634
 30
0.0
 10
8.0921538307
 20
9.7466387669
 30
0.0
 10
8.0825886175
 20
9.7482568516
 30
0.0
 10
8.0698349997
 20
9.7504142977
 30
0.0
 10
8.0602697864
 20
9.7520323823
 30
0.0
 10
8.0538929775
 20
9.7531111054
 30
0.0
  0
SPLINE
  5
390
100
AcDbEntity
  8
0
100
AcDbSpline
 62
4
  6
CONTINUOUS
 70
0
 71
3
 72
403
 73
399
 74
0
 42
0.0000001
 43
0.0000001
 44
0.0000000001
 40
0.0
 40
0.0
 40
0.0
 40
0.0
 40
0.015625
 40
0.0234375
 40
0.03125
 40
0.0390625
 40
0.04296875
 40
0.046875
 40
0.05078125
 40
0.0546875
 40
0.056640625
 40
0.05859375
 40
0.0595703125
 40
0.060546875
 40
0.0615234375
 40
0.0620117188
 40
0.0622558594
 40
0.0625
 40
0.0627441406
 40
0.0629882812
 40
0.0634765625
 40
0.064453125
 40
0.0654296875
 40
0.06640625
 40
0.068359375
 40
0.0703125
 40
0.07421875
 40
0.078125
 40
0.08203125
 40
0.0859375
 40
0.09375
 40
0.1015625
 40
0.10546875
 40
0.109375
 40
0.11328125
 40
0.1171875
 40
0.119140625
 40
0.12109375
 40
0.1220703125
 40
0.123046875
 40
0.1240234375
 40
0.1245117188
 40
0.1247558594
 40
0.125
 40
0.1252441406
 40
0.1254882812
 40
0.1259765625
 40
0.126953125
 40
0.1279296875
 40
0.12890625
 40
0.130859375
 40
0.1328125
 40
0.13671875
 40
0.140625
 40
0.14453125
 40
0.1484375
 40
0.15625
 40
0.1640625
 40
0.16796875
 40
0.171875
 40
0.17578125
 40
0.1796875
 40
0.181640625
 40
0.18359375
 40
0.1845703125
 40
0.185546875
 40
0.1865234375
 40
0.1870117188
 40
0.1872558594
 40
0.1875
 40
0.1877441406
 40
0.1879882812
 40
0.1884765625
 40
0.189453125
 40
0.1904296875
 40
0.19140625
 40
0.193359375
 40
0.1953125
 40
0.19921875
 40
0.203125
 40
0.20703125
 40
0.2109375
 40
0.21875
 40
0.2265625
 40
0.23046875
 40
0.234375
 40
0.23828125
 40
0.2421875
 40
0.244140625
 40
0.24609375
 40
0.2470703125
 40
0.248046875
 40
0.2490234375
 40
0.2495117188
 40
0.2497558594
 40
0.25
 40
0.2502441406
 40
0.2504882812
 40
0.2509765625
 40
0.251953125
 40
0.2529296875
 40
0.25390625
 40
0.255859375
 40
0.2578125
 40
0.26171875
 40
0.265625
 40
0.26953125
 40
0.2734375
 40
0.28125
 40
0.2890625
 40
0.29296875
 40
0.296875
 40
0.30078125
 40
0.3046875
 40
0.306640625
 40
0.30859375
 40
0.3095703125
 40
0.310546875
 40
0.3115234375
 40
0.3120117188
 40
0.3122558594
 40
0.3125
 40
0.3127441406
 40
0.3129882812
 40
0.3134765625
 40
0.314453125
 40
0.3154296875
 40
0.31640625
 40
0.318359375
 40
0.3203125
 40
0.32421875
 40
0.328125
 40
0.33203125
 40
0.3359375
 40
0.34375
 40
0.3515625
 40
0.35546875
 40
0.359375
 40
0.36328125
 40
0.3671875
 40
0.369140625
 40
0.37109375
 40
0.3720703125
 40
0.373046875
 40
0.3740234375
 40
0.3745117188
 40
0.3747558594
 40
0.375
 40
0.3752441406
 40
0.3754882812
 40
0.3759765625
 40
0.376953125
 40
0.3779296875
 40
0.37890625
 40
0.380859375
 40
0.3828125
 40
0.38671875
 40
0.390625
 40
0.39453125
 40
0.3984375
 40
0.40625
 40
0.4140625
 40
0.41796875
 40
0.421875
 40
0.42578125
 40
0.4296875
 40
0.431640625
 40
0.43359375
 40
0.4345703125
 40
0.435546875
 40
0.4365234375
 40
0.4370117188
 40
0.4372558594
 40
0.4375
 40
0.4377441406
 40
0.4379882812
 40
0.4384765625
 40
0.439453125
 40
0.4404296875
 40
0.44140625
 40
0.443359375
 40
0.4453125
 40
0.44921875
 40
0.453125
 40
0.45703125
 40
0.4609375
 40
0.46875
 40
0.4765625
 40
0.48046875
 40
0.484375
 40
0.48828125
 40
0.4921875
 40
0.494140625
 40
0.49609375
 40
0.4970703125
 40
0.498046875
 40
0.4990234375
 40
0.4995117188
 40
0.4997558594
 40
0.5
 40
0.5002441406
 40
0.5004882812
 40
0.5009765625
 40
0.501953125
 40
0.5029296875
 40
0.50390625
 40
0.505859375
 40
0.5078125
 40
0.51171875
 40
0.515625
 40
0.51953125
 40
0.5234375
 40
0.53125
 40
0.5390625
 40
0.54296875
 40
0.546875
 40
0.55078125
 40
0.5546875
 40
0.556640625
 40
0.55859375
 40
0.5595703125
 40
0.560546875
 40
0.5615234375
 40
0.5620117188
 40
0.5622558594
 40
0.5625
 40
0.5627441406
 40
0.5629882812
 40
0.5634765625
 40
0.564453125
 40
0.5654296875
 40
0.56640625
 40
0.568359375
 40
0.5703125
 40
0.57421875
 40
0.578125
 40
0.58203125
 40
0.5859375
 40
0.59375
 40
0.6015625
 40
0.60546875
 40
0.609375
 40
0.61328125
 40
0.6171875
 40
0.619140625
 40
0.62109375
 40
0.6220703125
 40
0.623046875
 40
0.6240234375
 40
0.6245117188
 40
0.6247558594
 40
0.625
 40
0.6252441406
 40
0.6254882812
 40
0.6259765625
 40
0.626953125
 40
0.6279296875
 40
0.62890625
 40
0.630859375
 40
0.6328125
 40
0.63671875
 40
0.640625
 40
0.64453125
 40
0.6484375
 40
0.65625
 40
0.6640625
 40
0.66796875
 40
0.671875
 40
0.67578125
 40
0.6796875
 40
0.681640625
 40
0.68359375
 40
0.6845703125
 40
0.685546875
 40
0.6865234375
 40
0.6870117188
 40
0.6872558594
 40
0.6875
 40
0.6877441406
 40
0.6879882812
 40
0.6884765625
 40
0.689453125
 40
0.6904296875
 40
0.69140625
 40
0.693359375
 40
0.6953125
 40
0.69921875
 40
0.703125
 40
0.70703125
 40
0.7109375
 40
0.71875
 40
0.7265625
 40
0.73046875
 40
0.734375
 40
0.73828125
 40
0.7421875
 40
0.744140625
 40
0.74609375
 40
0.7470703125
 40
0.748046875
 40
0.7490234375
 40
0.7495117188
 40
0.7497558594
 40
0.75
 40
0.7502441406
 40
0.7504882812
 40
0.7509765625
 40
0.751953125
 40
0.7529296875
 40
0.75390625
 40
0.755859375
 40
0.7578125
 40
0.76171875
 40
0.765625
 40
0.76953125
 40
0.7734375
 40
0.78125
 40
0.7890625
 40
0.79296875
 40
0.796875
 40
0.80078125
 40
0.8046875
 40
0.806640625
 40
0.80859375
 40
0.8095703125
 40
0.810546875
 40
0.8115234375
 40
0.8120117188
 40
0.8122558594
 40
0.8125
 40
0.8127441406
 40
0.8129882812
 40
0.8134765625
 40
0.814453125
 40
0.8154296875
 40
0.81640625
 40
0.818359375
 40
0.8203125
 40
0.82421875
 40
0.828125
 40
0.83203125
 40
0.8359375
 40
0.84375
 40
0.8515625
 40
0.85546875
 40
0.859375
 40
0.86328125
 40
0.8671875
 40
0.869140625
 40
0.87109375
 40
0.8720703125
 40
0.873046875
 40
0.8740234375
 40
0.8745117188
 40
0.8747558594
 40
0.875
 40
0.8752441406
 40
0.8754882812
 40
0.8759765625
 40
0.876953125
 40
0.8779296875
 40
0.87890625
 40
0.880859375
 40
0.8828125
 40
0.88671875
 40
0.890625
 40
0.89453125
 40
0.8984375
 40
0.90625
 40
0.9140625
 40
0.91796875
 40
0.921875
 40
0.92578125
 40
0.9296875
 40
0.931640625
 40
0.93359375
 40
0.9345703125
 40
0.935546875
 40
0.9365234375
 40
0.9370117188
 40
0.9372558594
 40
0.9375
 40
0.9377441406
 40
0.9379882812
 40
0.9384765625
 40
0.939453125
 40
0.9404296875
 40
0.94140625
 40
0.943359375
 40
0.9453125
 40
0.94921875
 40
0.953125
 40
0.95703125
 40
0.9609375
 40
0.96875
 40
0.9765625
 40
0.984375
 40
1.0
 40
1.0
 40
1.0
 40
1.0
 10
8.0538930114
 20
9.753111103
 30
0.0
 10
8.0476266375
 20
9.7529312542
 30
0.0
 10
8.0382270768
 20
9.752661481
 30
0.0
 10
8.0256943291
 20
9.7523017833
 30
0.0
 10
8.0162947684
 20
9.75203201
 30
0.0
 10
8.008461801
 20
9.7518071993
 30
0.0
 10
8.0021954273
 20
9.7516273498
 30
0.0
 10
7.9974956465
 20
9.7514924652
 30
0.0
 10
7.9927958676
 20
9.7513575711
 30
0.0
 10
7.9888793794
 20
9.7512451888
 30
0.0
 10
7.9857462018
 20
9.751155217
 30
0.0
 10
7.9837879364
 20
9.7510991348
 30
0.0
 10
7.9822213913
 20
9.7510539251
 30
0.0
 10
7.9810462985
 20
9.7510209596
 30
0.0
 10
7.9800676397
 20
9.7509904925
 30
0.0
 10
7.9793814301
 20
9.7509750448
 30
0.0
 10
7.9789911035
 20
9.7509570375
 30
0.0
 10
7.9786933073
 20
9.7509693924
 30
0.0
 10
7.9784148193
 20
9.7508828956
 30
0.0
 10
7.9780367669
 20
9.750802047
 30
0.0
 10
7.9773783133
 20
9.7506444969
 30
0.0
 10
7.9764360247
 20
9.7504278244
 30
0.0
 10
7.9753059806
 20
9.7501642223
 30
0.0
 10
7.9737990099
 20
9.7498140085
 30
0.0
 10
7.9719153804
 20
9.7493758114
 30
0.0
 10
7.9689015264
 20
9.7486749362
 30
0.0
 10
7.9651342249
 20
9.7477987598
 30
0.0
 10
7.9606134562
 20
9.7467473834
 30
0.0
 10
7.9560926894
 20
9.7456959976
 30
0.0
 10
7.9500649997
 20
9.7442941532
 30
0.0
 10
7.9425303878
 20
9.7425418464
 30
0.0
 10
7.9349957756
 20
9.7407895404
 30
0.0
 10
7.9289680863
 20
9.7393876947
 30
0.0
 10
7.9244473183
 20
9.7383363128
 30
0.0
 10
7.919926554
 20
9.7372849218
 30
0.0
 10
7.9161592391
 20
9.7364087909
 30
0.0
 10
7.9131454124
 20
9.735707823
 30
0.0
 10
7.9112617132
 20
9.7352698617
 30
0.0
 10
7.9097548857
 20
9.7349191638
 30
0.0
 10
7.9086244041
 20
9.7346570409
 30
0.0
 10
7.9076834842
 20
9.7344357402
 30
0.0
 10
7.9070225872
 20
9.7342864522
 30
0.0
 10
7.9066484497
 20
9.7341923658
 30
0.0
 10
7.9063579367
 20
9.7341465314
 30
0.0
 10
7.9061053043
 20
9.7340061646
 30
0.0
 10
7.9057552479
 20
9.7338519829
 30
0.0
 10
7.9051488056
 20
9.7335668017
 30
0.0
 10
7.9042792408
 20
9.7331674319
 30
0.0
 10
7.9032371407
 20
9.7326847503
 30
0.0
 10
7.9018471927
 20
9.7320423756
 30
0.0
 10
7.9001099225
 20
9.7312389961
 30
0.0
 10
7.8973301981
 20
9.7299538186
 30
0.0
 10
7.8938555741
 20
9.728347268
 30
0.0
 10
7.8896860119
 20
9.726419441
 30
0.0
 10
7.8855164532
 20
9.7244916049
 30
0.0
 10
7.8799570404
 20
9.7219211601
 30
0.0
 10
7.8730077749
 20
9.7187081028
 30
0.0
 10
7.866058509
 20
9.7154950463
 30
0.0
 10
7.8604990968
 20
9.7129246001
 30
0.0
 10
7.8563295364
 20
9.7109967678
 30
0.0
 10
7.8521599807
 20
9.7090689267
 30
0.0
 10
7.8486853364
 20
9.70746242
 30
0.0
 10
7.8459056534
 20
9.7061771529
 30
0.0
 10
7.8441682778
 20
9.7053740016
 30
0.0
 10
7.8427785462
 20
9.7047311584
 30
0.0
 10
7.8417357849
 20
9.7042499081
 30
0.0
 10
7.8408682888
 20
9.70384606
 30
0.0
 10
7.8402581535
 20
9.7035688735
 30
0.0
 10
7.8399140142
 20
9.7034018822
 30
0.0
 10
7.8396432066
 20
9.7033008624
 30
0.0
 10
7.8394209566
 20
9.7031072473
 30
0.0
 10
7.8391076858
 20
9.7028813922
 30
0.0
 10
7.8385673535
 20
9.7024710973
 30
0.0
 10
7.8377913243
 20
9.7018928292
 30
0.0
 10
7.8368618553
 20
9.70119554
 30
0.0
 10
7.8356219464
 20
9.7002669972
 30
0.0
 10
7.8340722716
 20
9.699105916
 30
0.0
 10
7.8315926737
 20
9.6972484113
 30
0.0
 10
7.828493217
 20
9.694926453
 30
0.0
 10
7.8247738515
 20
9.6921401363
 30
0.0
 10
7.8210544906
 20
9.6893538106
 30
0.0
 10
7.8160953412
 20
9.6856387129
 30
0.0
 10
7.8098964051
 20
9.6809948396
 30
0.0
 10
7.8036974684
 20
9.676350967
 30
0.0
 10
7.7987383198
 20
9.6726358682
 30
0.0
 10
7.7950189564
 20
9.6698495458
 30
0.0
 10
7.7912996005
 20
9.6670632167
 30
0.0
 10
7.788200114
 20
9.6647412969
 30
0.0
 10
7.7857205768
 20
9.6628837138
 30
0.0
 10
7.7841707477
 20
9.6617228318
 30
0.0
 10
7.7829311554
 20
9.6607938803
 30
0.0
 10
7.7820007193
 20
9.6600978397
 30
0.0
 10
7.7812277158
 20
9.6595156651
 30
0.0
 10
7.780681982
 20
9.659112344
 30
0.0
 10
7.7803773657
 20
9.6588753151
 30
0.0
 10
7.7801285321
 20
9.6587160224
 30
0.0
 10
7.7799575681
 20
9.6584860934
 30
0.0
 10
7.7797024544
 20
9.6582041601
 30
0.0
 10
7.7792686605
 20
9.6576992972
 30
0.0
 10
7.7786423387
 20
9.6569840661
 30
0.0
 10
7.7778935845
 20
9.65612322
 30
0.0
 10
7.7768942564
 20
9.6549763223
 30
0.0
 10
7.7756454349
 20
9.6535423931
 30
0.0
 10
7.7736471313
 20
9.651248278
 30
0.0
 10
7.7711493168
 20
9.6483805753
 30
0.0
 10
7.7681519115
 20
9.6449393572
 30
0.0
 10
7.7651545137
 20
9.6414981324
 30
0.0
 10
7.7611579806
 20
9.636909835
 30
0.0
 10
7.7561623153
 20
9.6311744624
 30
0.0
 10
7.7511666493
 20
9.6254390903
 30
0.0
 10
7.7471701173
 20
9.6208507921
 30
0.0
 10
7.7441727163
 20
9.6174095699
 30
0.0
 10
7.7411753231
 20
9.6139683419
 30
0.0
 10
7.7386774709
 20
9.6111006701
 30
0.0
 10
7.7366792442
 20
9.6088064919
 30
0.0
 10
7.735430227
 20
9.6073727232
 30
0.0
 10
7.7344313007
 20
9.606225496
 30
0.0
 10
7.733681319
 20
9.6053656569
 30
0.0
 10
7.7330588377
 20
9.6046472748
 30
0.0
 10
7.7326181878
 20
9.6041480371
 30
0.0
 10
7.7323740591
 20
9.6038570909
 30
0.0
 10
7.7321693525
 20
9.6036548466
 30
0.0
 10
7.7320472507
 20
9.6033915746
 30
0.0
 10
7.7318556349
 20
9.6030618323
 30
0.0
 10
7.7315337318
 20
9.6024748653
 30
0.0
 10
7.7310668518
 20
9.6016415264
 30
0.0
 10
7.7305095999
 20
9.6006393001
 30
0.0
 10
7.729765548
 20
9.5993037736
 30
0.0
 10
7.7288358425
 20
9.5976341001
 30
0.0
 10
7.7273481129
 20
9.5949627709
 30
0.0
 10
7.7254885198
 20
9.5916235584
 30
0.0
 10
7.7232569785
 20
9.5876165252
 30
0.0
 10
7.7210254451
 20
9.5836094862
 30
0.0
 10
7.7180500645
 20
9.5782667696
 30
0.0
 10
7.7143308398
 20
9.571588373
 30
0.0
 10
7.7106116144
 20
9.564909977
 30
0.0
 10
7.707636235
 20
9.5595672596
 30
0.0
 10
7.7054046981
 20
9.5555602227
 30
0.0
 10
7.70317317
 20
9.5515531816
 30
0.0
 10
7.7013135359
 20
9.5482139939
 30
0.0
 10
7.6998258898
 20
9.5455426141
 30
0.0
 10
7.6988959716
 20
9.5438730693
 30
0.0
 10
7.6981523564
 20
9.5425372785
 30
0.0
 10
7.6975937707
 20
9.54153586
 30
0.0
 10
7.6971310639
 20
9.5406999939
 30
0.0
 10
7.6968017108
 20
9.5401175382
 30
0.0
 10
7.6966220318
 20
9.5397805677
 30
0.0
 10
7.696463264
 20
9.5395394986
 30
0.0
 10
7.6963962688
 20
9.5392538637
 30
0.0
 10
7.6962749306
 20
9.5388885623
 30
0.0
 10
7.6960775034
 20
9.5382420421
 30
0.0
 10
7.695787667
 20
9.5373222284
 30
0.0
 10
7.695443201
 20
9.5362168312
 30
0.0
 10
7.6949827471
 20
9.5347435343
 30
0.0
 10
7.694407579
 20
9.5329017194
 30
0.0
 10
7.6934870869
 20
9.5299549239
 30
0.0
 10
7.6923365483
 20
9.5262713923
 30
0.0
 10
7.6909558691
 20
9.5218511703
 30
0.0
 10
7.6895751988
 20
9.5174309441
 30
0.0
 10
7.6877343019
 20
9.5115373106
 30
0.0
 10
7.685433182
 20
9.5041702682
 30
0.0
 10
7.6831320613
 20
9.4968032262
 30
0.0
 10
7.6812911656
 20
9.4909095922
 30
0.0
 10
7.6799104915
 20
9.4864893676
 30
0.0
 10
7.6785298266
 20
9.4820691396
 30
0.0
 10
7.6773792436
 20
9.4783856268
 30
0.0
 10
7.6764588422
 20
9.4754387929
 30
0.0
 10
7.6758834432
 20
9.4735970757
 30
0.0
 10
7.6754234631
 20
9.4721235783
 30
0.0
 10
7.6750775498
 20
9.4710187936
 30
0.0
 10
7.6747922415
 20
9.4700970634
 30
0.0
 10
7.6745867309
 20
9.4694539645
 30
0.0
 10
7.6744783443
 20
9.4690831813
 30
0.0
 10
7.6743715661
 20
9.4688143848
 30
0.0
 10
7.6743622168
 20
9.4685100735
 30
0.0
 10
7.6743157668
 20
9.468116713
 30
0.0
 10
7.6742503133
 20
9.4674225605
 30
0.0
 10
7.67414853
 20
9.4664339315
 30
0.0
 10
7.6740299334
 20
9.4652462851
 30
0.0
 10
7.673870567
 20
9.4636632076
 30
0.0
 10
7.6736717828
 20
9.4616842064
 30
0.0
 10
7.6733534911
 20
9.4585178908
 30
0.0
 10
7.6729557079
 20
9.4545599666
 30
0.0
 10
7.6724783331
 20
9.4498104703
 30
0.0
 10
7.6720009677
 20
9.4450609706
 30
0.0
 10
7.6713644772
 20
9.4387283055
 30
0.0
 10
7.6705688653
 20
9.4308124737
 30
0.0
 10
7.6697732525
 20
9.422896642
 30
0.0
 10
7.6691367633
 20
9.4165639767
 30
0.0
 10
7.6686593939
 20
9.4118144777
 30
0.0
 10
7.6681820341
 20
9.4070649788
 30
0.0
 10
7.6677842042
 20
9.4031070626
 30
0.0
 10
7.6674660078
 20
9.3999407308
 30
0.0
 10
7.6672669813
 20
9.3979617706
 30
0.0
 10
7.6671081121
 20
9.396378609
 30
0.0
 10
7.6669879963
 20
9.3951912196
 30
0.0
 10
7.6668909665
 20
9.3942017865
 30
0.0
 10
7.6668170272
 20
9.3935090694
 30
0.0
 10
7.6667841735
 20
9.3931134089
 30
0.0
 10
7.6667330607
 20
9.3928161625
 30
0.0
 10
7.6667831391
 20
9.3925208316
 30
0.0
 10
7.6668146136
 20
9.392126389
 30
0.0
 10
7.6668861394
 20
9.3914364257
 30
0.0
 10
7.6669797213
 20
9.390450601
 30
0.0
 10
7.6670956997
 20
9.3892676811
 30
0.0
 10
7.6672490522
 20
9.3876904303
 30
0.0
 10
7.6674411829
 20
9.385718875
 30
0.0
 10
7.6677483461
 20
9.382564382
 30
0.0
 10
7.6681323844
 20
9.3786212673
 30
0.0
 10
7.6685931943
 20
9.373889529
 30
0.0
 10
7.6690540138
 20
9.3691577908
 30
0.0
 10
7.6696684365
 20
9.3628488066
 30
0.0
 10
7.670436466
 20
9.3549625763
 30
0.0
 10
7.6712044948
 20
9.347076346
 30
0.0
 10
7.6718189188
 20
9.3407673618
 30
0.0
 10
7.6722797343
 20
9.3360356234
 30
0.0
 10
7.6727405592
 20
9.3313038862
 30
0.0
 10
7.6731245508
 20
9.3273607681
 30
0.0
 10
7.6734318092
 20
9.3242062819
 30
0.0
 10
7.6736236976
 20
9.3222347091
 30
0.0
 10
7.6737775476
 20
9.3206574944
 30
0.0
 10
7.673892006
 20
9.3194744639
 30
0.0
 10
7.6739903434
 20
9.3184889854
 30
0.0
 10
7.6740533799
 20
9.3177984042
 30
0.0
 10
7.6740984564
 20
9.3174049515
 30
0.0
 10
7.6741067537
 20
9.3171065799
 30
0.0
 10
7.6742125638
 20
9.3168207539
 30
0.0
 10
7.6743196303
 20
9.3164352765
 30
0.0
 10
7.6745228444
 20
9.3157627299
 30
0.0
 10
7.6748048648
 20
9.3148008832
 30
0.0
 10
7.6751468357
 20
9.3136471233
 30
0.0
 10
7.6756015583
 20
9.3121086174
 30
0.0
 10
7.6761703856
 20
9.3101855397
 30
0.0
 10
7.6770802723
 20
9.3071085848
 30
0.0
 10
7.6782177119
 20
9.3032624016
 30
0.0
 10
7.6795826046
 20
9.2986469773
 30
0.0
 10
7.6809475067
 20
9.2940315542
 30
0.0
 10
7.6827673728
 20
9.2878776563
 30
0.0
 10
7.6850422067
 20
9.2801852841
 30
0.0
 10
7.6873170398
 20
9.2724929118
 30
0.0
 10
7.6891369072
 20
9.2663390142
 30
0.0
 10
7.6905018055
 20
9.2617235902
 30
0.0
 10
7.6918667125
 20
9.2571081693
 30
0.0
 10
7.6930041076
 20
9.2532619757
 30
0.0
 10
7.6939140851
 20
9.2501850419
 30
0.0
 10
7.6944826813
 20
9.2482619104
 30
0.0
 10
7.6949378781
 20
9.2467235149
 30
0.0
 10
7.6952784002
 20
9.245569418
 30
0.0
 10
7.6955649539
 20
9.2446086255
 30
0.0
 10
7.6957600753
 20
9.2439341969
 30
0.0
 10
7.6958801082
 20
9.2435517351
 30
0.0
 10
7.6959460897
 20
9.2432566462
 30
0.0
 10
7.6961039766
 20
9.2429930643
 30
0.0
 10
7.6962824348
 20
9.2426306318
 30
0.0
 10
7.696609673
 20
9.2420014954
 30
0.0
 10
7.6970693472
 20
9.2411000521
 30
0.0
 10
7.6976242988
 20
9.240019466
 30
0.0
 10
7.6983630667
 20
9.2385782843
 30
0.0
 10
7.6992869263
 20
9.2367769442
 30
0.0
 10
7.7007648783
 20
9.2338947235
 30
0.0
 10
7.7026123949
 20
9.2302919738
 30
0.0
 10
7.7048293821
 20
9.225968663
 30
0.0
 10
7.707046378
 20
9.2216453551
 30
0.0
 10
7.7100023695
 20
9.2158809436
 30
0.0
 10
7.7136973599
 20
9.2086754296
 30
0.0
 10
7.7173923497
 20
9.2014699154
 30
0.0
 10
7.7203483424
 20
9.1957055043
 30
0.0
 10
7.7225653346
 20
9.191382195
 30
0.0
 10
7.7247823354
 20
9.1870588897
 30
0.0
 10
7.7266298095
 20
9.1834561227
 30
0.0
 10
7.7281078483
 20
9.1805739374
 30
0.0
 10
7.729031487
 20
9.1787725072
 30
0.0
 10
7.7297707084
 20
9.1773315104
 30
0.0
 10
7.7303242744
 20
9.1762503592
 30
0.0
 10
7.7307882836
 20
9.175350684
 30
0.0
 10
7.7311077832
 20
9.1747183913
 30
0.0
 10
7.7312986406
 20
9.174361016
 30
0.0
 10
7.731418441
 20
9.1740819002
 30
0.0
 10
7.7316274692
 20
9.173845154
 30
0.0
 10
7.7318750497
 20
9.1735147135
 30
0.0
 10
7.7323228168
 20
9.1729433284
 30
0.0
 10
7.7329549027
 20
9.1721234639
 30
0.0
 10
7.7337166508
 20
9.1711411675
 30
0.0
 10
7.7347311815
 20
9.1698309007
 30
0.0
 10
7.735999733
 20
9.1681932515
 30
0.0
 10
7.7380291985
 20
9.1655729097
 30
0.0
 10
7.7405661048
 20
9.1622975179
 30
0.0
 10
7.7436103604
 20
9.1583670326
 30
0.0
 10
7.7466546246
 20
9.1544365513
 30
0.0
 10
7.7507136405
 20
9.1491959082
 30
0.0
 10
7.7557874115
 20
9.1426451048
 30
0.0
 10
7.7608611818
 20
9.136094301
 30
0.0
 10
7.7649201987
 20
9.1308536586
 30
0.0
 10
7.7679644598
 20
9.126923175
 30
0.0
 10
7.7710087271
 20
9.1229926984
 30
0.0
 10
7.7735455971
 20
9.1197172794
 30
0.0
 10
7.7755751366
 20
9.1170969931
 30
0.0
 10
7.7768434997
 20
9.1154592028
 30
0.0
 10
7.7778584172
 20
9.1141492257
 30
0.0
 10
7.7786189838
 20
9.1131660441
 30
0.0
 10
7.7792547663
 20
9.112348949
 30
0.0
 10
7.7796959342
 20
9.1117726201
 30
0.0
 10
7.7799540883
 20
9.1114501007
 30
0.0
 10
7.7801306377
 20
9.1111890234
 30
0.0
 10
7.7803724231
 20
9.1110012915
 30
0.0
 10
7.7806720486
 20
9.1107253987
 30
0.0
 10
7.7812069952
 20
9.1102545061
 30
0.0
 10
7.7819656618
 20
9.1095755706
 30
0.0
 10
7.7828784343
 20
9.1087635154
 30
0.0
 10
7.7840946355
 20
9.1076798435
 30
0.0
 10
7.7856151708
 20
9.1063255725
 30
0.0
 10
7.7880478687
 20
9.1041585608
 30
0.0
 10
7.7910887955
 20
9.1014498573
 30
0.0
 10
7.7947378843
 20
9.0981993868
 30
0.0
 10
7.7983869794
 20
9.0949489234
 30
0.0
 10
7.8032524373
 20
9.0906149697
 30
0.0
 10
7.8093342605
 20
9.0851975285
 30
0.0
 10
7.8154160831
 20
9.0797800866
 30
0.0
 10
7.8202815418
 20
9.0754461339
 30
0.0
 10
7.8239306345
 20
9.0721956674
 30
0.0
 10
7.8275797324
 20
9.0689452085
 30
0.0
 10
7.8306206309
 20
9.0662364692
 30
0.0
 10
7.8330533865
 20
9.0640695304
 30
0.0
 10
7.8345737748
 20
9.0627150739
 30
0.0
 10
7.8357902779
 20
9.0616317828
 30
0.0
 10
7.8367021283
 20
9.0608185641
 30
0.0
 10
7.8374636796
 20
9.060143269
 30
0.0
 10
7.8379934765
 20
9.0596658776
 30
0.0
 10
7.8383013531
 20
9.0594003976
 30
0.0
 10
7.8385177938
 20
9.0591806808
 30
0.0
 10
7.8387895337
 20
9.0590397338
 30
0.0
 10
7.8391325645
 20
9.0588243286
 30
0.0
 10
7.8397418556
 20
9.0584601711
 30
0.0
 10
7.8406075728
 20
9.0579332533
 30
0.0
 10
7.8416484446
 20
9.0573038167
 30
0.0
 10
7.8430355712
 20
9.0564635674
 30
0.0
 10
7.8447697201
 20
9.0554135982
 30
0.0
 10
7.8475442237
 20
9.0537334561
 30
0.0
 10
7.8510123994
 20
9.0516333442
 30
0.0
 10
7.8551741905
 20
9.0491131817
 30
0.0
 10
7.8593359869
 20
9.0465930268
 30
0.0
 10
7.8648850468
 20
9.0432328176
 30
0.0
 10
7.8718213725
 20
9.0390325571
 30
0.0
 10
7.8787576977
 20
9.0348322958
 30
0.0
 10
7.8843067583
 20
9.0314720877
 30
0.0
 10
7.8884685528
 20
9.0289519294
 30
0.0
 10
7.892630351
 20
9.0264317796
 30
0.0
 10
7.8960985047
 20
9.0243316283
 30
0.0
 10
7.8988730532
 20
9.0226515666
 30
0.0
 10
7.9006070879
 20
9.0216013927
 30
0.0
 10
7.9019944487
 20
9.0207615637
 30
0.0
 10
7.9030346053
 20
9.0201308428
 30
0.0
 10
7.9039025602
 20
9.0196079432
 30
0.0
 10
7.9045078566
 20
9.0192366127
 30
0.0
 10
7.9048572879
 20
9.0190327005
 30
0.0
 10
7.9051093676
 20
9.0188564509
 30
0.0
 10
7.9053996485
 20
9.0187693247
 30
0.0
 10
7.9057733648
 20
9.0186220692
 30
0.0
 10
7.9064335766
 20
9.0183788561
 30
0.0
 10
7.9073734905
 20
9.0180238365
 30
0.0
 10
7.9085027765
 20
9.0176010542
 30
0.0
 10
7.910008006
 20
9.0170362123
 30
0.0
 10
7.911889709
 20
9.0163305476
 30
0.0
 10
7.9149003408
 20
9.0152012675
 30
0.0
 10
7.9186636625
 20
9.0137897417
 30
0.0
 10
7.9231796349
 20
9.0120958788
 30
0.0
 10
7.927695611
 20
9.0104020244
 30
0.0
 10
7.9337169111
 20
9.008143549
 30
0.0
 10
7.9412435367
 20
9.0053204558
 30
0.0
 10
7.948770162
 20
9.0024973618
 30
0.0
 10
7.9547914625
 20
9.0002388876
 30
0.0
 10
7.9593074372
 20
8.9985450295
 30
0.0
 10
7.9638234147
 20
8.9968511806
 30
0.0
 10
7.9675867206
 20
8.9954396114
 30
0.0
 10
7.9705973846
 20
8.9943104197
 30
0.0
 10
7.9724790059
 20
8.9936045299
 30
0.0
 10
7.973984403
 20
8.9930401501
 30
0.0
 10
7.9751131768
 20
8.9926159561
 30
0.0
 10
7.9760546933
 20
8.9922653534
 30
0.0
 10
7.9767120443
 20
8.9920142554
 30
0.0
 10
7.9770903442
 20
8.9918796335
 30
0.0
 10
7.9773665457
 20
8.9917537007
 30
0.0
 10
7.9776715056
 20
8.9917232024
 30
0.0
 10
7.9780680875
 20
8.9916492493
 30
0.0
 10
7.9787667797
 20
8.9915353413
 30
0.0
 10
7.9797624678
 20
8.9913645068
 30
0.0
 10
7.9809583394
 20
8.9911629763
 30
0.0
 10
7.9825524696
 20
8.9908930566
 30
0.0
 10
7.9845452575
 20
8.990556072
 30
0.0
 10
7.9877336481
 20
8.9900166647
 30
0.0
 10
7.9917191604
 20
8.9893424853
 30
0.0
 10
7.9965017649
 20
8.9885334358
 30
0.0
 10
8.0012843722
 20
8.9877243954
 30
0.0
 10
8.0076611808
 20
8.9866456717
 30
0.0
 10
8.015632192
 20
8.9852972682
 30
0.0
 10
8.0251974053
 20
8.9836791835
 30
0.0
 10
8.0379510231
 20
8.9815217374
 30
0.0
 10
8.0475162364
 20
8.9799036528
 30
0.0
 10
8.0538930452
 20
8.9788249298
 30
0.0
  0
ENDSEC
  0
SECTION
  2
OBJECTS
  0
DICTIONARY
  5
C
100
AcDbDictionary
280
0
281
1
  3
ACAD_GROUP
350
D
  3
ACAD_MLINESTYLE
350
17
  3
ACAD_LAYOUT
350
1A
  3
ACAD_PLOTSETTINGS
350
19
  3
ACAD_PLOTSTYLENAME
350
E
  3
ACAD_IMAGE_DICT
350
       392
  3
ACAD_IMAGE_VARS
350
       393
  3
ACAD_TABLESTYLE
350
       394
  0
IMAGEDEF_REACTOR
  5
391
100
AcDbRasterImageDefReactor
 90
2
330
27F
  0
DICTIONARY
  5
D
102
{ACAD_REACTORS
330
C
102
}
100
AcDbDictionary
280
0
281
1
  0
ACDBDICTIONARYWDFLT
  5
E
102
{ACAD_REACTORS
330
C
102
}
100
AcDbDictionary
281
1
  3
Normal
350
F
100
AcDbDictionaryWithDefault
340
F
  0
DICTIONARY
  5
392
330
C
100
AcDbDictionary
281
1
  3
FMU_assy_2_img_1
350
       397
  0
RASTERVARIABLES
  5
393
330
C
100
AcDbRasterVariables
 90
0
 70
0
 71
1
 72
5
  0
DICTIONARY
  5
17
102
{ACAD_REACTORS
330
C
102
}
100
AcDbDictionary
280
0
281
1
  3
Standard
350
18
  0
DICTIONARY
  5
394
330
C
100
AcDbDictionary
281
1
  3
Standard
350
       398
  3
Standard1
350
       399
  0
DICTIONARY
  5
19
102
{ACAD_REACTORS
330
C
102
}
100
AcDbDictionary
281
1
  0
DICTIONARY
  5
1A
102
{ACAD_REACTORS
330
C
102
}
100
AcDbDictionary
281
1
  3
Model
350
395
  3
Layout1
350
396
  0
ACDBPLACEHOLDER
  5
F
102
{ACAD_REACTORS
330
E
102
}
  0
MLINESTYLE
  5
18
102
{ACAD_REACTORS
330
17
102
}
100
AcDbMlineStyle
  2
STANDARD
 70
0
  3

 62
256
 51
90.0
 52
90.0
 71
2
 49
0.5
 62
256
  6
BYLAYER
 49
-0.5
 62
256
  6
BYLAYER
  0
LAYOUT
  5
395
102
{ACAD_REACTORS
330
1A
102
}
100
AcDbPlotSettings
  1

  2
none_device
  4
ANSI_C_(22.00_x_17.00_Inches)
  6

 40
0.0
 41
0.0
 42
0.0
 43
0.0
 44
558.8
 45
431.8
 46
0.0
 47
0.0
 48
0.0
 49
0.0
140
0.0
141
0.0
142
1.0
143
1.0
 70
1024
 72
0
 73
0
 74
0
  7

 75
0
147
1.0
148
0.0
149
0.0
100
AcDbLayout
  1
Model
 70
0
 71
0
 10
0.0
 20
0.0
 11
22.0
 21
17.0
 12
0.0
 22
0.0
 32
0.0
 14
0.0
 24
0.0
 34
0.0
 15
0.0
 25
0.0
 35
0.0
146
0.0
 13
0.0
 23
0.0
 33
0.0
 16
1.0
 26
0.0
 36
0.0
 17
0.0
 27
1.0
 37
0.0
 76
0
330
204
345
0
346
0
  0
LAYOUT
  5
396
102
{ACAD_REACTORS
330
1A
102
}
100
AcDbPlotSettings
  1

  2
none_device
  4
ANSI_C_(22.00_x_17.00_Inches)
  6

 40
0.0
 41
0.0
 42
0.0
 43
0.0
 44
558.8
 45
431.8
 46
0.0
 47
0.0
 48
0.0
 49
0.0
140
0.0
141
0.0
142
1.0
143
1.0
 70
0
 72
0
 73
0
 74
0
  7

 75
0
147
1.0
148
0.0
149
0.0
100
AcDbLayout
  1
Layout1
 70
0
 71
1
 10
0.0
 20
0.0
 11
22.0
 21
17.0
 12
0.0
 22
0.0
 32
0.0
 14
0.0
 24
0.0
 34
0.0
 15
0.0
 25
0.0
 35
0.0
146
0.0
 13
0.0
 23
0.0
 33
0.0
 16
1.0
 26
0.0
 36
0.0
 17
0.0
 27
1.0
 37
0.0
 76
0
330
205
345
0
346
0
  0
IMAGEDEF
  5
397
102
{ACAD_REACTORS
330
392
330
391
102
}
100
AcDbRasterImageDef
 90
0
  1
FMU_assy_2_img_1.png
 10
369.0
 20
92.0
 11
0.0066666667
 21
0.0066666667
280
1
281
0
  0
TABLESTYLE
  5
398
102
{ACAD_REACTORS
330
394
330
282
330
283
102
}
330
394
100
AcDbTableStyle
  3
Standard
 70
0
 71
0
 40
0.06
 41
0.06
280
1
281
1
  7
Standard
140
0.18
170
1
 62
0
 63
7
283
0
  7
Standard
140
0.18
170
1
 62
0
 63
7
283
0
  7
Standard
140
0.18
170
1
 62
0
 63
7
283
0
  0
TABLESTYLE
  5
399
102
{ACAD_REACTORS
330
394
330
281
102
}
330
394
100
AcDbTableStyle
  3
Standard1
 70
1
 71
0
 40
0.06
 41
0.06
280
1
281
1
  7
Standard
140
0.18
170
1
 62
0
 63
7
283
0
  7
Standard
140
0.18
170
1
 62
0
 63
7
283
0
  7
Standard
140
0.18
170
1
 62
0
 63
7
283
0
  0
ENDSEC
  0
EOF
