999
DXF file: FMK_8.dxf
999
Pro/ENGINEER 2006240 by Parametric Technology Corporation
  0
SECTION
  2
HEADER
  9
$ACADVER
  1
AC1015
  9
$DWGCODEPAGE
  3
ANSI_1252
  9
$EXTMAX
 10
22.0
 20
17.0
 30
0.0
  9
$EXTMIN
 10
0.0
 20
0.0
 30
0.0
  9
$LIMMIN
 10
0.0
 20
0.0
  9
$LIMMAX
 10
22.0
 20
17.0
  9
$VIEWCTR
 10
11.0
 20
8.5
  9
$VIEWSIZE
 40
17.0
  9
$CLAYER
  8
0
  9
$LTSCALE
 40
1.21
  9
$CELTYPE
  6
BYLAYER
  9
$DIMSCALE
 40
1.0
  9
$DIMASZ
 40
0.1875
  9
$DIMEXO
 40
0.1375
  9
$DIMDLI
 40
0.836
  9
$DIMEXE
 40
0.396
  9
$DIMCEN
 40
0.198
  9
$DIMLFAC
 40
1.0
  9
$DIMBLK
  1
_CLOSED
  9
$DIMTXT
 40
0.15625
  9
$DIMTOL
 70
0
  9
$DIMLIM
 70
0
  9
$DIMTFAC
 40
1.0
  9
$PDMODE
 70
3
  9
$PDSIZE
 40
0.3125
  9
$HANDSEED
  5
52A
  9
$MEASUREMENT
 70
0
  9
$INSUNITS
 70
1
  0
ENDSEC
  0
SECTION
  2
CLASSES
  0
CLASS
  1
ACDBDICTIONARYWDFLT
  2
AcDbDictionaryWithDefault
  3
AutoCAD 2000
 90
0
280
0
281
0
  0
CLASS
  1
ACDBPLACEHOLDER
  2
AcDbPlaceHolder
  3
AutoCAD 2000
 90
0
280
0
281
0
  0
CLASS
  1
LAYOUT
  2
AcDbLayout
  3
AutoCAD 2000
 90
0
280
0
281
0
  0
ENDSEC
  0
SECTION
  2
TABLES
  0
TABLE
  2
VPORT
  5
8
100
AcDbSymbolTable
 70
2
  0
VPORT
  5
1F4
100
AcDbSymbolTableRecord
100
AcDbViewportTableRecord
  2
*ACTIVE
 70
0
 10
0.0
 20
0.0
 11
1.0
 21
1.0
 12
11.0
 22
8.5
 13
0.0
 23
0.0
 14
1.0
 24
1.0
 15
0.0
 25
0.0
 16
0.0
 26
0.0
 36
1.0
 17
0.0
 27
0.0
 37
0.0
 40
17.0
 41
1.2941176471
 42
50.0
 43
0.0
 44
0.0
 50
0.0
 51
0.0
 71
0
 72
100
 73
1
 74
1
 75
0
 76
0
 77
0
 78
0
  0
ENDTAB
  0
TABLE
  2
LTYPE
  5
5
100
AcDbSymbolTable
 70
6
  0
LTYPE
  5
14
100
AcDbSymbolTableRecord
100
AcDbLinetypeTableRecord
  2
BYBLOCK
 70
0
  3

 72
65
 73
0
 40
0.0
  0
LTYPE
  5
15
100
AcDbSymbolTableRecord
100
AcDbLinetypeTableRecord
  2
BYLAYER
 70
0
  3

 72
65
 73
0
 40
0.0
  0
LTYPE
  5
16
100
AcDbSymbolTableRecord
100
AcDbLinetypeTableRecord
  2
CONTINUOUS
 70
64
  3
Solid line
 72
65
 73
0
 40
0.0
  0
LTYPE
  5
1F5
100
AcDbSymbolTableRecord
100
AcDbLinetypeTableRecord
  2
CENTER
 70
64
  3
____ _ ____ _ ____ _ ____ _ ____ _ ____ _ ____
 72
65
 73
4
 40
0.6
 49
0.375
 74
0
 49
-0.075
 74
0
 49
0.075
 74
0
 49
-0.075
 74
0
  0
LTYPE
  5
1F6
100
AcDbSymbolTableRecord
100
AcDbLinetypeTableRecord
  2
HIDDEN
 70
64
  3
- - - - - - - - - - - - - - - - - - - -
 72
65
 73
2
 40
0.2
 49
0.1
 74
0
 49
-0.1
 74
0
  0
LTYPE
  5
1F7
100
AcDbSymbolTableRecord
100
AcDbLinetypeTableRecord
  2
PHANTOM
 70
64
  3
_____ _ _ _____ _ _ _____ _ _ _____
 72
65
 73
6
 40
0.8
 49
0.45
 74
0
 49
-0.05
 74
0
 49
0.1
 74
0
 49
-0.05
 74
0
 49
0.1
 74
0
 49
-0.05
 74
0
  0
LTYPE
  5
1F8
100
AcDbSymbolTableRecord
100
AcDbLinetypeTableRecord
  2
DOT
 70
64
  3
. . . . . . . . . . . . . . . . . . . .
 72
65
 73
2
 40
0.2
 49
0.1
 74
0
 49
-0.1
 74
0
  0
LTYPE
  5
1F9
100
AcDbSymbolTableRecord
100
AcDbLinetypeTableRecord
  2
DASHED
 70
64
  3
- - - - - - - - - - - - - - - - - - - -
 72
65
 73
2
 40
0.2
 49
0.1
 74
0
 49
-0.1
 74
0
  0
ENDTAB
  0
TABLE
  2
LAYER
  5
2
100
AcDbSymbolTable
 70
36
  0
LAYER
  5
10
100
AcDbSymbolTableRecord
100
AcDbLayerTableRecord
  2
0
 70
0
 62
7
  6
CONTINUOUS
370
-3
390
F
  0
LAYER
  5
1FA
100
AcDbSymbolTableRecord
100
AcDbLayerTableRecord
  2
DEFAULT_1
 70
0
 62
7
  6
CENTER
370
-3
390
F
  0
LAYER
  5
1FB
100
AcDbSymbolTableRecord
100
AcDbLayerTableRecord
  2
DEFAULT_2
 70
0
 62
8
  6
HIDDEN
370
-3
390
F
  0
LAYER
  5
1FC
100
AcDbSymbolTableRecord
100
AcDbLayerTableRecord
  2
DEFAULT_3
 70
0
 62
7
  6
PHANTOM
370
-3
390
F
  0
LAYER
  5
1FD
100
AcDbSymbolTableRecord
100
AcDbLayerTableRecord
  2
01_ALL_DTM_PLN
 70
0
 62
7
  6
CONTINUOUS
370
-3
390
F
  0
LAYER
  5
1FE
100
AcDbSymbolTableRecord
100
AcDbLayerTableRecord
  2
01__ASM_ALL_DTM_PLN
 70
0
 62
7
  6
CONTINUOUS
370
-3
390
F
  0
LAYER
  5
1FF
100
AcDbSymbolTableRecord
100
AcDbLayerTableRecord
  2
01__ASM_DEF_DTM_PLN
 70
0
 62
7
  6
CONTINUOUS
370
-3
390
F
  0
LAYER
  5
200
100
AcDbSymbolTableRecord
100
AcDbLayerTableRecord
  2
01___PRT_ALL_DTM_PLN
 70
0
 62
7
  6
CONTINUOUS
370
-3
390
F
  0
LAYER
  5
201
100
AcDbSymbolTableRecord
100
AcDbLayerTableRecord
  2
01___PRT_DEF_DTM_PLN
 70
0
 62
7
  6
CONTINUOUS
370
-3
390
F
  0
LAYER
  5
202
100
AcDbSymbolTableRecord
100
AcDbLayerTableRecord
  2
02_ALL_AXES
 70
0
 62
7
  6
CONTINUOUS
370
-3
390
F
  0
LAYER
  5
203
100
AcDbSymbolTableRecord
100
AcDbLayerTableRecord
  2
02__ASM_ALL_AXES
 70
0
 62
7
  6
CONTINUOUS
370
-3
390
F
  0
LAYER
  5
204
100
AcDbSymbolTableRecord
100
AcDbLayerTableRecord
  2
02___PRT_ALL_AXES
 70
0
 62
7
  6
CONTINUOUS
370
-3
390
F
  0
LAYER
  5
205
100
AcDbSymbolTableRecord
100
AcDbLayerTableRecord
  2
03_ALL_CURVES
 70
0
 62
7
  6
CONTINUOUS
370
-3
390
F
  0
LAYER
  5
206
100
AcDbSymbolTableRecord
100
AcDbLayerTableRecord
  2
03__ASM_ALL_CURVES
 70
0
 62
7
  6
CONTINUOUS
370
-3
390
F
  0
LAYER
  5
207
100
AcDbSymbolTableRecord
100
AcDbLayerTableRecord
  2
03___PRT_ALL_CURVES
 70
0
 62
7
  6
CONTINUOUS
370
-3
390
F
  0
LAYER
  5
208
100
AcDbSymbolTableRecord
100
AcDbLayerTableRecord
  2
04_ALL_DTM_PNT
 70
0
 62
7
  6
CONTINUOUS
370
-3
390
F
  0
LAYER
  5
209
100
AcDbSymbolTableRecord
100
AcDbLayerTableRecord
  2
04__ASM_ALL_DTM_PNT
 70
0
 62
7
  6
CONTINUOUS
370
-3
390
F
  0
LAYER
  5
20A
100
AcDbSymbolTableRecord
100
AcDbLayerTableRecord
  2
04___PRT_ALL_DTM_PNT
 70
0
 62
7
  6
CONTINUOUS
370
-3
390
F
  0
LAYER
  5
20B
100
AcDbSymbolTableRecord
100
AcDbLayerTableRecord
  2
05_ALL_DTM_CSYS
 70
0
 62
7
  6
CONTINUOUS
370
-3
390
F
  0
LAYER
  5
20C
100
AcDbSymbolTableRecord
100
AcDbLayerTableRecord
  2
05__ASM_ALL_DTM_CSYS
 70
0
 62
7
  6
CONTINUOUS
370
-3
390
F
  0
LAYER
  5
20D
100
AcDbSymbolTableRecord
100
AcDbLayerTableRecord
  2
05__ASM_DEF_DTM_CSYS
 70
0
 62
7
  6
CONTINUOUS
370
-3
390
F
  0
LAYER
  5
20E
100
AcDbSymbolTableRecord
100
AcDbLayerTableRecord
  2
05___PRT_ALL_DTM_CSYS
 70
0
 62
7
  6
CONTINUOUS
370
-3
390
F
  0
LAYER
  5
20F
100
AcDbSymbolTableRecord
100
AcDbLayerTableRecord
  2
05___PRT_DEF_DTM_CSYS
 70
0
 62
7
  6
CONTINUOUS
370
-3
390
F
  0
LAYER
  5
210
100
AcDbSymbolTableRecord
100
AcDbLayerTableRecord
  2
06_ALL_SURFS
 70
0
 62
7
  6
CONTINUOUS
370
-3
390
F
  0
LAYER
  5
211
100
AcDbSymbolTableRecord
100
AcDbLayerTableRecord
  2
06__ASM_ALL_SURFS
 70
0
 62
7
  6
CONTINUOUS
370
-3
390
F
  0
LAYER
  5
212
100
AcDbSymbolTableRecord
100
AcDbLayerTableRecord
  2
06___PRT_ALL_SURFS
 70
0
 62
7
  6
CONTINUOUS
370
-3
390
F
  0
LAYER
  5
213
100
AcDbSymbolTableRecord
100
AcDbLayerTableRecord
  2
07__ASM_ALL_SKELETONS
 70
0
 62
7
  6
CONTINUOUS
370
-3
390
F
  0
LAYER
  5
214
100
AcDbSymbolTableRecord
100
AcDbLayerTableRecord
  2
COPY_GEO_FET
 70
0
 62
7
  6
CONTINUOUS
370
-3
390
F
  0
LAYER
  5
215
100
AcDbSymbolTableRecord
100
AcDbLayerTableRecord
  2
COSMETIC
 70
0
 62
7
  6
CONTINUOUS
370
-3
390
F
  0
LAYER
  5
216
100
AcDbSymbolTableRecord
100
AcDbLayerTableRecord
  2
CUT_REF_SURF
 70
0
 62
7
  6
CONTINUOUS
370
-3
390
F
  0
LAYER
  5
217
100
AcDbSymbolTableRecord
100
AcDbLayerTableRecord
  2
DATESTAMP
 70
0
 62
7
  6
CONTINUOUS
370
-3
390
F
  0
LAYER
  5
218
100
AcDbSymbolTableRecord
100
AcDbLayerTableRecord
  2
DATUM
 70
0
 62
7
  6
CONTINUOUS
370
-3
390
F
  0
LAYER
  5
219
100
AcDbSymbolTableRecord
100
AcDbLayerTableRecord
  2
DATUM_B
 70
0
 62
7
  6
CONTINUOUS
370
-3
390
F
  0
LAYER
  5
21A
100
AcDbSymbolTableRecord
100
AcDbLayerTableRecord
  2
DATUM_PLANES
 70
0
 62
7
  6
CONTINUOUS
370
-3
390
F
  0
LAYER
  5
21B
100
AcDbSymbolTableRecord
100
AcDbLayerTableRecord
  2
DIM
 70
0
 62
7
  6
CONTINUOUS
370
-3
390
F
  0
LAYER
  5
21C
100
AcDbSymbolTableRecord
100
AcDbLayerTableRecord
  2
DIM_1
 70
0
 62
7
  6
CONTINUOUS
370
-3
390
F
  0
LAYER
  5
21D
100
AcDbSymbolTableRecord
100
AcDbLayerTableRecord
  2
DIM_2
 70
0
 62
7
  6
CONTINUOUS
370
-3
390
F
  0
LAYER
  5
21E
100
AcDbSymbolTableRecord
100
AcDbLayerTableRecord
  2
DIM_3
 70
0
 62
7
  6
CONTINUOUS
370
-3
390
F
  0
LAYER
  5
21F
100
AcDbSymbolTableRecord
100
AcDbLayerTableRecord
  2
DIM_4
 70
0
 62
7
  6
CONTINUOUS
370
-3
390
F
  0
LAYER
  5
220
100
AcDbSymbolTableRecord
100
AcDbLayerTableRecord
  2
DIM_5
 70
0
 62
7
  6
CONTINUOUS
370
-3
390
F
  0
LAYER
  5
221
100
AcDbSymbolTableRecord
100
AcDbLayerTableRecord
  2
DIM_6
 70
0
 62
7
  6
CONTINUOUS
370
-3
390
F
  0
LAYER
  5
222
100
AcDbSymbolTableRecord
100
AcDbLayerTableRecord
  2
DTM
 70
0
 62
7
  6
CONTINUOUS
370
-3
390
F
  0
LAYER
  5
223
100
AcDbSymbolTableRecord
100
AcDbLayerTableRecord
  2
EXT_COPY_GEO
 70
0
 62
7
  6
CONTINUOUS
370
-3
390
F
  0
LAYER
  5
224
100
AcDbSymbolTableRecord
100
AcDbLayerTableRecord
  2
FMK_10
 70
0
 62
7
  6
CONTINUOUS
370
-3
390
F
  0
LAYER
  5
225
100
AcDbSymbolTableRecord
100
AcDbLayerTableRecord
  2
FMK_2
 70
0
 62
7
  6
CONTINUOUS
370
-3
390
F
  0
LAYER
  5
226
100
AcDbSymbolTableRecord
100
AcDbLayerTableRecord
  2
FMK_5
 70
0
 62
7
  6
CONTINUOUS
370
-3
390
F
  0
LAYER
  5
227
100
AcDbSymbolTableRecord
100
AcDbLayerTableRecord
  2
FMK_6
 70
0
 62
7
  6
CONTINUOUS
370
-3
390
F
  0
LAYER
  5
228
100
AcDbSymbolTableRecord
100
AcDbLayerTableRecord
  2
FMK_7
 70
0
 62
7
  6
CONTINUOUS
370
-3
390
F
  0
LAYER
  5
229
100
AcDbSymbolTableRecord
100
AcDbLayerTableRecord
  2
FMK_8
 70
0
 62
7
  6
CONTINUOUS
370
-3
390
F
  0
LAYER
  5
22A
100
AcDbSymbolTableRecord
100
AcDbLayerTableRecord
  2
LS
 70
0
 62
7
  6
CONTINUOUS
370
-3
390
F
  0
LAYER
  5
22B
100
AcDbSymbolTableRecord
100
AcDbLayerTableRecord
  2
ORIGIN
 70
0
 62
7
  6
CONTINUOUS
370
-3
390
F
  0
LAYER
  5
22C
100
AcDbSymbolTableRecord
100
AcDbLayerTableRecord
  2
PARTNUMBER
 70
0
 62
7
  6
CONTINUOUS
370
-3
390
F
  0
LAYER
  5
22D
100
AcDbSymbolTableRecord
100
AcDbLayerTableRecord
  2
PORT_AREAS
 70
0
 62
7
  6
CONTINUOUS
370
-3
390
F
  0
LAYER
  5
22E
100
AcDbSymbolTableRecord
100
AcDbLayerTableRecord
  2
TEXT
 70
0
 62
7
  6
CONTINUOUS
370
-3
390
F
  0
LAYER
  5
22F
100
AcDbSymbolTableRecord
100
AcDbLayerTableRecord
  2
THREAD
 70
0
 62
7
  6
CONTINUOUS
370
-3
390
F
  0
LAYER
  5
230
100
AcDbSymbolTableRecord
100
AcDbLayerTableRecord
  2
THREADS
 70
0
 62
7
  6
CONTINUOUS
370
-3
390
F
  0
ENDTAB
  0
TABLE
  2
STYLE
  5
3
100
AcDbSymbolTable
 70
1
  0
STYLE
  5
11
100
AcDbSymbolTableRecord
100
AcDbTextStyleTableRecord
  2
STANDARD
 70
0
 40
0.0
 41
0.8
 50
0.0
 71
0
 42
0.2
  3
txt
  4

  0
ENDTAB
  0
TABLE
  2
VIEW
  5
6
100
AcDbSymbolTable
 70
0
  0
ENDTAB
  0
TABLE
  2
UCS
  5
7
100
AcDbSymbolTable
 70
0
  0
ENDTAB
  0
TABLE
  2
APPID
  5
9
100
AcDbSymbolTable
 70
1
  0
APPID
  5
231
100
AcDbSymbolTableRecord
100
AcDbRegAppTableRecord
  2
ACAD
 70
0
  0
ENDTAB
  0
TABLE
  2
BLOCK_RECORD
  5
1
100
AcDbSymbolTable
 70
0
  0
BLOCK_RECORD
  5
1F
100
AcDbSymbolTableRecord
100
AcDbBlockTableRecord
  2
*MODEL_SPACE
  0
BLOCK_RECORD
  5
1B
100
AcDbSymbolTableRecord
100
AcDbBlockTableRecord
  2
*PAPER_SPACE
  0
ENDTAB
  0
TABLE
  2
DIMSTYLE
  5
A
100
AcDbSymbolTable
 70
1
100
AcDbDimStyleTable
 71
0
  0
DIMSTYLE
105
232
100
AcDbSymbolTableRecord
100
AcDbDimStyleTableRecord
  2
STANDARD
 70
0
  3

  4

 40
1.0
 41
0.1875
 42
0.0625
 43
0.38
 44
0.18
 45
0.0
 46
0.0
 47
0.01
 48
0.01
140
0.15625
141
0.09
142
0.0
143
25.4
144
1.0
145
0.0
146
1.0
147
0.09
 71
0.0
 72
0.0
 73
1
 74
1
 75
0
 76
0
 77
0
 78
4
170
0
171
2
172
0
173
0
174
0
175
0
176
0
177
0
178
0
270
2
271
2
272
2
273
2
274
2
275
0
280
0
281
0
282
0
283
1
284
4
285
0
286
0
287
3
288
0
340
11
  0
ENDTAB
  0
ENDSEC
  0
SECTION
  2
BLOCKS
  0
BLOCK
  5
20
100
AcDbEntity
  8
0
100
AcDbBlockBegin
  2
*MODEL_SPACE
 70
0
 10
0.0
 20
0.0
 30
0.0
  3
*MODEL_SPACE
  1

  0
ENDBLK
  5
21
100
AcDbEntity
  8
0
100
AcDbBlockEnd
  0
BLOCK
  5
1C
100
AcDbEntity
  8
0
100
AcDbBlockBegin
  2
*PAPER_SPACE
 70
0
 10
0.0
 20
0.0
 30
0.0
  3
*PAPER_SPACE
  1

  0
ENDBLK
  5
1D
100
AcDbEntity
  8
0
100
AcDbBlockEnd
  0
ENDSEC
  0
SECTION
  2
ENTITIES
  0
LINE
  5
233
100
AcDbEntity
  8
03__ASM_ALL_CURVES
100
AcDbLine
 62
4
  6
CONTINUOUS
 10
8.7711682038
 20
12.0064525667
 11
8.7653162038
 21
11.9986499019
  0
LINE
  5
234
100
AcDbEntity
  8
03__ASM_ALL_CURVES
100
AcDbLine
 62
4
  6
CONTINUOUS
 10
8.7770202038
 20
11.9596365667
 11
8.7653162038
 21
11.9440312336
  0
LINE
  5
235
100
AcDbEntity
  8
03__ASM_ALL_CURVES
100
AcDbLine
 62
4
  6
CONTINUOUS
 10
8.7302042038
 20
12.0220579019
 11
8.7419082038
 21
12.0298605667
  0
LINE
  5
236
100
AcDbEntity
  8
03__ASM_ALL_CURVES
100
AcDbLine
 62
4
  6
CONTINUOUS
 10
8.9174682038
 20
12.0142552315
 11
8.9233202038
 21
12.0220579019
  0
LINE
  5
237
100
AcDbEntity
  8
03__ASM_ALL_CURVES
100
AcDbLine
 62
4
  6
CONTINUOUS
 10
8.9525802038
 20
11.9518339005
 11
8.9467282038
 21
11.9440312336
  0
LINE
  5
238
100
AcDbEntity
  8
03__ASM_ALL_CURVES
100
AcDbLine
 62
4
  6
CONTINUOUS
 10
8.6307202038
 20
11.3892552315
 11
8.6365722038
 21
11.3970579019
  0
LINE
  5
239
100
AcDbEntity
  8
03__ASM_ALL_CURVES
100
AcDbLine
 62
4
  6
CONTINUOUS
 10
9.1281402038
 20
12.0298605667
 11
9.1164362038
 21
12.0142552315
  0
LINE
  5
23A
100
AcDbEntity
  8
03__ASM_ALL_CURVES
100
AcDbLine
 62
4
  6
CONTINUOUS
 10
8.7653162038
 20
11.9986499019
 11
8.7536122038
 21
11.9908472315
  0
LINE
  5
23B
100
AcDbEntity
  8
03__ASM_ALL_CURVES
100
AcDbLine
 62
4
  6
CONTINUOUS
 10
8.7653162038
 20
11.9440312336
 11
8.7536122038
 21
11.9362285667
  0
LINE
  5
23C
100
AcDbEntity
  8
03__ASM_ALL_CURVES
100
AcDbLine
 62
4
  6
CONTINUOUS
 10
8.9233202038
 20
12.0220579019
 11
8.9350242038
 21
12.0298605667
  0
LINE
  5
23D
100
AcDbEntity
  8
03__ASM_ALL_CURVES
100
AcDbLine
 62
4
  6
CONTINUOUS
 10
8.9467282038
 20
11.9440312336
 11
8.9350242038
 21
11.9362285667
  0
LINE
  5
23E
100
AcDbEntity
  8
03__ASM_ALL_CURVES
100
AcDbLine
 62
4
  6
CONTINUOUS
 10
8.6365722038
 20
11.3346365667
 11
8.6307202038
 21
11.3112285667
  0
LINE
  5
23F
100
AcDbEntity
  8
03__ASM_ALL_CURVES
100
AcDbLine
 62
4
  6
CONTINUOUS
 10
8.9116162038
 20
11.9986499019
 11
8.9174682038
 21
12.0142552315
  0
LINE
  5
240
100
AcDbEntity
  8
03__ASM_ALL_CURVES
100
AcDbLine
 62
4
  6
CONTINUOUS
 10
8.9584322038
 20
11.9674392343
 11
8.9525802038
 21
11.9518339005
  0
LINE
  5
241
100
AcDbEntity
  8
03__ASM_ALL_CURVES
100
AcDbLine
 62
4
  6
CONTINUOUS
 10
8.6482762038
 20
11.3502418991
 11
8.6365722038
 21
11.3346365667
  0
LINE
  5
242
100
AcDbEntity
  8
03__ASM_ALL_CURVES
100
AcDbLine
 62
4
  6
CONTINUOUS
 10
8.6775362038
 20
11.3736499019
 11
8.6716842038
 21
11.3658472315
  0
LINE
  5
243
100
AcDbEntity
  8
03__ASM_ALL_CURVES
100
AcDbLine
 62
4
  6
CONTINUOUS
 10
9.2919962038
 20
12.0142552315
 11
9.2978482038
 21
12.0220579019
  0
LINE
  5
244
100
AcDbEntity
  8
03__ASM_ALL_CURVES
100
AcDbLine
 62
4
  6
CONTINUOUS
 10
8.8648002038
 20
11.3814525667
 11
8.8589482038
 21
11.3736499019
  0
LINE
  5
245
100
AcDbEntity
  8
03__ASM_ALL_CURVES
100
AcDbLine
 62
4
  6
CONTINUOUS
 10
9.3271082038
 20
11.9518339005
 11
9.3212562038
 21
11.9440312336
  0
LINE
  5
246
100
AcDbEntity
  8
03__ASM_ALL_CURVES
100
AcDbLine
 62
4
  6
CONTINUOUS
 10
8.8706522038
 20
11.3346365667
 11
8.8589482038
 21
11.3190312336
  0
LINE
  5
247
100
AcDbEntity
  8
03__ASM_ALL_CURVES
100
AcDbLine
 62
4
  6
CONTINUOUS
 10
9.2978482038
 20
12.0220579019
 11
9.3095522038
 21
12.0298605667
  0
LINE
  5
248
100
AcDbEntity
  8
03__ASM_ALL_CURVES
100
AcDbLine
 62
4
  6
CONTINUOUS
 10
9.3212562038
 20
11.9440312336
 11
9.3095522038
 21
11.9362285667
  0
LINE
  5
249
100
AcDbEntity
  8
03__ASM_ALL_CURVES
100
AcDbLine
 62
4
  6
CONTINUOUS
 10
8.6365722038
 20
11.3970579019
 11
8.6482762038
 21
11.4048605667
  0
LINE
  5
24A
100
AcDbEntity
  8
03__ASM_ALL_CURVES
100
AcDbLine
 62
4
  6
CONTINUOUS
 10
9.5787442038
 20
12.0220579019
 11
9.5904482038
 21
12.0298605667
  0
LINE
  5
24B
100
AcDbEntity
  8
03__ASM_ALL_CURVES
100
AcDbLine
 62
4
  6
CONTINUOUS
 10
8.6716842038
 20
11.3658472315
 11
8.6482762038
 21
11.3502418991
  0
LINE
  5
24C
100
AcDbEntity
  8
03__ASM_ALL_CURVES
100
AcDbLine
 62
4
  6
CONTINUOUS
 10
9.2919962038
 20
11.9830445667
 11
9.3095522038
 21
11.9908472315
  0
LINE
  5
24D
100
AcDbEntity
  8
03__ASM_ALL_CURVES
100
AcDbLine
 62
4
  6
CONTINUOUS
 10
8.9467282038
 20
11.3736499019
 11
8.9584322038
 21
11.4048605667
  0
LINE
  5
24E
100
AcDbEntity
  8
03__ASM_ALL_CURVES
100
AcDbLine
 62
4
  6
CONTINUOUS
 10
9.2276242038
 20
11.9986499019
 11
9.2393282038
 21
12.0298605667
  0
LINE
  5
24F
100
AcDbEntity
  8
03__ASM_ALL_CURVES
100
AcDbLine
 62
4
  6
CONTINUOUS
 10
9.2861442038
 20
11.9986499019
 11
9.2919962038
 21
12.0142552315
  0
LINE
  5
250
100
AcDbEntity
  8
03__ASM_ALL_CURVES
100
AcDbLine
 62
4
  6
CONTINUOUS
 10
9.5728922038
 20
12.0142552315
 11
9.5787442038
 21
12.0220579019
  0
LINE
  5
251
100
AcDbEntity
  8
03__ASM_ALL_CURVES
100
AcDbLine
 62
4
  6
CONTINUOUS
 10
9.1281402038
 20
11.4048605667
 11
9.1164362038
 21
11.3892552315
  0
LINE
  5
252
100
AcDbEntity
  8
03__ASM_ALL_CURVES
100
AcDbLine
 62
4
  6
CONTINUOUS
 10
9.6080042038
 20
11.9518339005
 11
9.6021522038
 21
11.9440312336
  0
LINE
  5
253
100
AcDbEntity
  8
03__ASM_ALL_CURVES
100
AcDbLine
 62
4
  6
CONTINUOUS
 10
9.1983642038
 20
11.3892552315
 11
9.2042162038
 21
11.3970579019
  0
LINE
  5
254
100
AcDbEntity
  8
03__ASM_ALL_CURVES
100
AcDbLine
 62
4
  6
CONTINUOUS
 10
9.6899322038
 20
11.9518339005
 11
9.6782282038
 21
11.9362285667
  0
LINE
  5
255
100
AcDbEntity
  8
03__ASM_ALL_CURVES
100
AcDbLine
 62
4
  6
CONTINUOUS
 10
9.6021522038
 20
11.9440312336
 11
9.5904482038
 21
11.9362285667
  0
LINE
  5
256
100
AcDbEntity
  8
03__ASM_ALL_CURVES
100
AcDbLine
 62
4
  6
CONTINUOUS
 10
8.8238362038
 20
11.3970579019
 11
8.8355402038
 21
11.4048605667
  0
LINE
  5
257
100
AcDbEntity
  8
03__ASM_ALL_CURVES
100
AcDbLine
 62
4
  6
CONTINUOUS
 10
8.8589482038
 20
11.3736499019
 11
8.8472442038
 21
11.3658472315
  0
LINE
  5
258
100
AcDbEntity
  8
03__ASM_ALL_CURVES
100
AcDbLine
 62
4
  6
CONTINUOUS
 10
8.8589482038
 20
11.3190312336
 11
8.8472442038
 21
11.3112285667
  0
LINE
  5
259
100
AcDbEntity
  8
03__ASM_ALL_CURVES
100
AcDbLine
 62
4
  6
CONTINUOUS
 10
9.6080042038
 20
11.9830445667
 11
9.5904482038
 21
11.9752418991
  0
LINE
  5
25A
100
AcDbEntity
  8
03__ASM_ALL_CURVES
100
AcDbLine
 62
4
  6
CONTINUOUS
 10
8.6307202038
 20
9.7174392343
 11
8.6307202038
 21
9.7486499019
  0
LINE
  5
25B
100
AcDbEntity
  8
03__ASM_ALL_CURVES
100
AcDbLine
 62
4
  6
CONTINUOUS
 10
8.6775362038
 20
11.3892552315
 11
8.6775362038
 21
11.3736499019
  0
LINE
  5
25C
100
AcDbEntity
  8
03__ASM_ALL_CURVES
100
AcDbLine
 62
4
  6
CONTINUOUS
 10
8.6775362038
 20
9.7486499019
 11
8.6775362038
 21
9.7174392343
  0
LINE
  5
25D
100
AcDbEntity
  8
03__ASM_ALL_CURVES
100
AcDbLine
 62
4
  6
CONTINUOUS
 10
8.7623902038
 20
9.6862285667
 11
8.7623902038
 21
9.6979325671
  0
LINE
  5
25E
100
AcDbEntity
  8
03__ASM_ALL_CURVES
100
AcDbLine
 62
4
  6
CONTINUOUS
 10
8.7623902038
 20
11.3112285667
 11
8.7623902038
 21
11.3229325671
  0
LINE
  5
25F
100
AcDbEntity
  8
03__ASM_ALL_CURVES
100
AcDbLine
 62
4
  6
CONTINUOUS
 10
8.7711682038
 20
12.0142552315
 11
8.7711682038
 21
12.0064525667
  0
LINE
  5
260
100
AcDbEntity
  8
03__ASM_ALL_CURVES
100
AcDbLine
 62
4
  6
CONTINUOUS
 10
8.7770202038
 20
11.9674392343
 11
8.7770202038
 21
11.9596365667
  0
LINE
  5
261
100
AcDbEntity
  8
03__ASM_ALL_CURVES
100
AcDbLine
 62
4
  6
CONTINUOUS
 10
8.9350242038
 20
11.3112285667
 11
8.9408762038
 21
11.3502418991
  0
LINE
  5
262
100
AcDbEntity
  8
03__ASM_ALL_CURVES
100
AcDbLine
 62
4
  6
CONTINUOUS
 10
8.9408762038
 20
11.3502418991
 11
8.9467282038
 21
11.3736499019
  0
LINE
  5
263
100
AcDbEntity
  8
03__ASM_ALL_CURVES
100
AcDbLine
 62
4
  6
CONTINUOUS
 10
9.1164362038
 20
12.0142552315
 11
9.1105842038
 21
11.9908472315
  0
LINE
  5
264
100
AcDbEntity
  8
03__ASM_ALL_CURVES
100
AcDbLine
 62
4
  6
CONTINUOUS
 10
9.2217722038
 20
11.9752418991
 11
9.2276242038
 21
11.9986499019
  0
LINE
  5
265
100
AcDbEntity
  8
03__ASM_ALL_CURVES
100
AcDbLine
 62
4
  6
CONTINUOUS
 10
9.1164362038
 20
11.3892552315
 11
9.1105842038
 21
11.3658472315
  0
LINE
  5
266
100
AcDbEntity
  8
03__ASM_ALL_CURVES
100
AcDbLine
 62
4
  6
CONTINUOUS
 10
9.2861442038
 20
11.9674392343
 11
9.2919962038
 21
11.9830445667
  0
LINE
  5
267
100
AcDbEntity
  8
03__ASM_ALL_CURVES
100
AcDbLine
 62
4
  6
CONTINUOUS
 10
9.3329602038
 20
11.9674392343
 11
9.3271082038
 21
11.9518339005
  0
LINE
  5
268
100
AcDbEntity
  8
03__ASM_ALL_CURVES
100
AcDbLine
 62
4
  6
CONTINUOUS
 10
9.1925122038
 20
11.3736499019
 11
9.1983642038
 21
11.3892552315
  0
LINE
  5
269
100
AcDbEntity
  8
03__ASM_ALL_CURVES
100
AcDbLine
 62
4
  6
CONTINUOUS
 10
9.1925122038
 20
11.3424392343
 11
9.1983642038
 21
11.3580445667
  0
LINE
  5
26A
100
AcDbEntity
  8
03__ASM_ALL_CURVES
100
AcDbLine
 62
4
  6
CONTINUOUS
 10
8.6307202038
 20
9.7486499019
 11
8.6365722038
 21
9.7642552315
  0
LINE
  5
26B
100
AcDbEntity
  8
03__ASM_ALL_CURVES
100
AcDbLine
 62
4
  6
CONTINUOUS
 10
9.2393282038
 20
11.3424392343
 11
9.2334762038
 21
11.3268339005
  0
LINE
  5
26C
100
AcDbEntity
  8
03__ASM_ALL_CURVES
100
AcDbLine
 62
4
  6
CONTINUOUS
 10
9.2861442038
 20
11.3736499019
 11
9.2919962038
 21
11.3892552315
  0
LINE
  5
26D
100
AcDbEntity
  8
03__ASM_ALL_CURVES
100
AcDbLine
 62
4
  6
CONTINUOUS
 10
8.6775362038
 20
9.7174392343
 11
8.6716842038
 21
9.7018339005
  0
LINE
  5
26E
100
AcDbEntity
  8
03__ASM_ALL_CURVES
100
AcDbLine
 62
4
  6
CONTINUOUS
 10
9.2334762038
 20
11.3268339005
 11
9.2276242038
 21
11.3190312336
  0
LINE
  5
26F
100
AcDbEntity
  8
03__ASM_ALL_CURVES
100
AcDbLine
 62
4
  6
CONTINUOUS
 10
9.2919962038
 20
11.3892552315
 11
9.2978482038
 21
11.3970579019
  0
LINE
  5
270
100
AcDbEntity
  8
03__ASM_ALL_CURVES
100
AcDbLine
 62
4
  6
CONTINUOUS
 10
9.3271082038
 20
11.3268339005
 11
9.3212562038
 21
11.3190312336
  0
LINE
  5
271
100
AcDbEntity
  8
03__ASM_ALL_CURVES
100
AcDbLine
 62
4
  6
CONTINUOUS
 10
9.5728922038
 20
11.3892552315
 11
9.5787442038
 21
11.3970579019
  0
LINE
  5
272
100
AcDbEntity
  8
03__ASM_ALL_CURVES
100
AcDbLine
 62
4
  6
CONTINUOUS
 10
9.2042162038
 20
11.3970579019
 11
9.2159202038
 21
11.4048605667
  0
LINE
  5
273
100
AcDbEntity
  8
03__ASM_ALL_CURVES
100
AcDbLine
 62
4
  6
CONTINUOUS
 10
9.2978482038
 20
11.3970579019
 11
9.3095522038
 21
11.4048605667
  0
LINE
  5
274
100
AcDbEntity
  8
03__ASM_ALL_CURVES
100
AcDbLine
 62
4
  6
CONTINUOUS
 10
9.2276242038
 20
11.3190312336
 11
9.2159202038
 21
11.3112285667
  0
LINE
  5
275
100
AcDbEntity
  8
03__ASM_ALL_CURVES
100
AcDbLine
 62
4
  6
CONTINUOUS
 10
9.3212562038
 20
11.3190312336
 11
9.3095522038
 21
11.3112285667
  0
LINE
  5
276
100
AcDbEntity
  8
03__ASM_ALL_CURVES
100
AcDbLine
 62
4
  6
CONTINUOUS
 10
9.5787442038
 20
11.3970579019
 11
9.5904482038
 21
11.4048605667
  0
LINE
  5
277
100
AcDbEntity
  8
03__ASM_ALL_CURVES
100
AcDbLine
 62
4
  6
CONTINUOUS
 10
9.1983642038
 20
11.3580445667
 11
9.2159202038
 21
11.3658472315
  0
LINE
  5
278
100
AcDbEntity
  8
03__ASM_ALL_CURVES
100
AcDbLine
 62
4
  6
CONTINUOUS
 10
13.7872268714
 20
7.5200445667
 11
13.81063487
 21
7.5258965667
  0
LINE
  5
279
100
AcDbEntity
  8
03__ASM_ALL_CURVES
100
AcDbLine
 62
4
  6
CONTINUOUS
 10
13.748213539
 20
7.0869965667
 11
13.7638188686
 21
7.0869965667
  0
LINE
  5
27A
100
AcDbEntity
  8
03__ASM_ALL_CURVES
100
AcDbLine
 62
4
  6
CONTINUOUS
 10
8.8560222038
 20
11.9362285667
 11
8.8560222038
 21
11.9479325671
  0
LINE
  5
27B
100
AcDbEntity
  8
03__ASM_ALL_CURVES
100
AcDbLine
 62
4
  6
CONTINUOUS
 10
8.8648002038
 20
11.3892552315
 11
8.8648002038
 21
11.3814525667
  0
LINE
  5
27C
100
AcDbEntity
  8
03__ASM_ALL_CURVES
100
AcDbLine
 62
4
  6
CONTINUOUS
 10
8.8706522038
 20
11.3424392343
 11
8.8706522038
 21
11.3346365667
  0
LINE
  5
27D
100
AcDbEntity
  8
03__ASM_ALL_CURVES
100
AcDbLine
 62
4
  6
CONTINUOUS
 10
8.9116162038
 20
11.9674392343
 11
8.9116162038
 21
11.9986499019
  0
LINE
  5
27E
100
AcDbEntity
  8
03__ASM_ALL_CURVES
100
AcDbLine
 62
4
  6
CONTINUOUS
 10
8.9584322038
 20
11.9986499019
 11
8.9584322038
 21
11.9674392343
  0
LINE
  5
27F
100
AcDbEntity
  8
03__ASM_ALL_CURVES
100
AcDbLine
 62
4
  6
CONTINUOUS
 10
8.8413922038
 20
9.6862285667
 11
8.8472442038
 21
9.7252418991
  0
LINE
  5
280
100
AcDbEntity
  8
03__ASM_ALL_CURVES
100
AcDbLine
 62
4
  6
CONTINUOUS
 10
9.2159202038
 20
11.9362285667
 11
9.2217722038
 21
11.9752418991
  0
LINE
  5
281
100
AcDbEntity
  8
03__ASM_ALL_CURVES
100
AcDbLine
 62
4
  6
CONTINUOUS
 10
8.9233202038
 20
9.7798605667
 11
8.9174682038
 21
9.7408472315
  0
LINE
  5
282
100
AcDbEntity
  8
03__ASM_ALL_CURVES
100
AcDbLine
 62
4
  6
CONTINUOUS
 10
8.8472442038
 20
9.7252418991
 11
8.8530962038
 21
9.7486499019
  0
LINE
  5
283
100
AcDbEntity
  8
03__ASM_ALL_CURVES
100
AcDbLine
 62
4
  6
CONTINUOUS
 10
9.5670402038
 20
11.9986499019
 11
9.5728922038
 21
12.0142552315
  0
LINE
  5
284
100
AcDbEntity
  8
03__ASM_ALL_CURVES
100
AcDbLine
 62
4
  6
CONTINUOUS
 10
9.3329602038
 20
11.3424392343
 11
9.3271082038
 21
11.3268339005
  0
LINE
  5
285
100
AcDbEntity
  8
03__ASM_ALL_CURVES
100
AcDbLine
 62
4
  6
CONTINUOUS
 10
9.6138562038
 20
11.9986499019
 11
9.6080042038
 21
11.9830445667
  0
LINE
  5
286
100
AcDbEntity
  8
03__ASM_ALL_CURVES
100
AcDbLine
 62
4
  6
CONTINUOUS
 10
9.6138562038
 20
11.9674392343
 11
9.6080042038
 21
11.9518339005
  0
LINE
  5
287
100
AcDbEntity
  8
03__ASM_ALL_CURVES
100
AcDbLine
 62
4
  6
CONTINUOUS
 10
8.8530962038
 20
9.7486499019
 11
8.8648002038
 21
9.7798605667
  0
LINE
  5
288
100
AcDbEntity
  8
03__ASM_ALL_CURVES
100
AcDbLine
 62
4
  6
CONTINUOUS
 10
9.5670402038
 20
11.3736499019
 11
9.5728922038
 21
11.3892552315
  0
LINE
  5
289
100
AcDbEntity
  8
03__ASM_ALL_CURVES
100
AcDbLine
 62
4
  6
CONTINUOUS
 10
8.9642842038
 20
9.7174392343
 11
8.9584322038
 21
9.7018339005
  0
LINE
  5
28A
100
AcDbEntity
  8
03__ASM_ALL_CURVES
100
AcDbLine
 62
4
  6
CONTINUOUS
 10
9.6080042038
 20
11.3268339005
 11
9.6021522038
 21
11.3190312336
  0
LINE
  5
28B
100
AcDbEntity
  8
03__ASM_ALL_CURVES
100
AcDbLine
 62
4
  6
CONTINUOUS
 10
9.6899322038
 20
11.3268339005
 11
9.6782282038
 21
11.3112285667
  0
LINE
  5
28C
100
AcDbEntity
  8
03__ASM_ALL_CURVES
100
AcDbLine
 62
4
  6
CONTINUOUS
 10
8.6365722038
 20
9.7642552315
 11
8.6424242038
 21
9.7720579019
  0
LINE
  5
28D
100
AcDbEntity
  8
03__ASM_ALL_CURVES
100
AcDbLine
 62
4
  6
CONTINUOUS
 10
9.6021522038
 20
11.3190312336
 11
9.5904482038
 21
11.3112285667
  0
LINE
  5
28E
100
AcDbEntity
  8
03__ASM_ALL_CURVES
100
AcDbLine
 62
4
  6
CONTINUOUS
 10
9.6080042038
 20
11.3580445667
 11
9.5904482038
 21
11.3502418991
  0
LINE
  5
28F
100
AcDbEntity
  8
03__ASM_ALL_CURVES
100
AcDbLine
 62
4
  6
CONTINUOUS
 10
13.9323588714
 20
7.8945725667
 11
13.95576687
 21
7.9004245667
  0
LINE
  5
290
100
AcDbEntity
  8
03__ASM_ALL_CURVES
100
AcDbLine
 62
4
  6
CONTINUOUS
 10
13.8262402038
 20
7.1718505667
 11
13.8145362035
 21
7.1718505667
  0
LINE
  5
291
100
AcDbEntity
  8
03__ASM_ALL_CURVES
100
AcDbLine
 62
4
  6
CONTINUOUS
 10
13.8028322038
 20
7.2215925667
 11
13.7950295362
 21
7.2215925667
  0
LINE
  5
292
100
AcDbEntity
  8
03__ASM_ALL_CURVES
100
AcDbLine
 62
4
  6
CONTINUOUS
 10
13.7560162038
 20
7.2274445667
 11
13.748213539
 21
7.2274445667
  0
LINE
  5
293
100
AcDbEntity
  8
03__ASM_ALL_CURVES
100
AcDbLine
 62
4
  6
CONTINUOUS
 10
13.748213539
 20
7.2742605667
 11
13.7560162038
 21
7.2742605667
  0
LINE
  5
294
100
AcDbEntity
  8
03__ASM_ALL_CURVES
100
AcDbLine
 62
4
  6
CONTINUOUS
 10
13.7950295362
 20
7.2801125667
 11
13.8028322038
 21
7.2801125667
  0
LINE
  5
295
100
AcDbEntity
  8
03__ASM_ALL_CURVES
100
AcDbLine
 62
4
  6
CONTINUOUS
 10
10.2519508686
 20
7.4147085667
 11
10.236345539
 21
7.4205605667
  0
LINE
  5
296
100
AcDbEntity
  8
03__ASM_ALL_CURVES
100
AcDbLine
 62
4
  6
CONTINUOUS
 10
10.2831615362
 20
7.4615245667
 11
10.29876687
 21
7.4556725667
  0
LINE
  5
297
100
AcDbEntity
  8
03__ASM_ALL_CURVES
100
AcDbLine
 62
4
  6
CONTINUOUS
 10
10.236345539
 20
7.4205605667
 11
10.2285428686
 21
7.4264125667
  0
LINE
  5
298
100
AcDbEntity
  8
03__ASM_ALL_CURVES
100
AcDbLine
 62
4
  6
CONTINUOUS
 10
10.29876687
 20
7.4556725667
 11
10.3065695369
 21
7.4498205667
  0
LINE
  5
299
100
AcDbEntity
  8
03__ASM_ALL_CURVES
100
AcDbLine
 62
4
  6
CONTINUOUS
 10
8.6365722038
 20
9.7018339005
 11
8.6307202038
 21
9.7174392343
  0
LINE
  5
29A
100
AcDbEntity
  8
03__ASM_ALL_CURVES
100
AcDbLine
 62
4
  6
CONTINUOUS
 10
8.6716842038
 20
9.7642552315
 11
8.6775362038
 21
9.7486499019
  0
LINE
  5
29B
100
AcDbEntity
  8
03__ASM_ALL_CURVES
100
AcDbLine
 62
4
  6
CONTINUOUS
 10
9.1105842038
 20
11.9908472315
 11
9.1105842038
 21
11.9752418991
  0
LINE
  5
29C
100
AcDbEntity
  8
03__ASM_ALL_CURVES
100
AcDbLine
 62
4
  6
CONTINUOUS
 10
9.1105842038
 20
11.3658472315
 11
9.1105842038
 21
11.3502418991
  0
LINE
  5
29D
100
AcDbEntity
  8
03__ASM_ALL_CURVES
100
AcDbLine
 62
4
  6
CONTINUOUS
 10
9.1105842038
 20
9.7408472315
 11
9.1105842038
 21
9.7252418991
  0
LINE
  5
29E
100
AcDbEntity
  8
03__ASM_ALL_CURVES
100
AcDbLine
 62
4
  6
CONTINUOUS
 10
9.1925122038
 20
11.3424392343
 11
9.1925122038
 21
11.3736499019
  0
LINE
  5
29F
100
AcDbEntity
  8
03__ASM_ALL_CURVES
100
AcDbLine
 62
4
  6
CONTINUOUS
 10
9.2159202038
 20
9.7798605667
 11
9.2159202038
 21
9.6862285667
  0
LINE
  5
2A0
100
AcDbEntity
  8
03__ASM_ALL_CURVES
100
AcDbLine
 62
4
  6
CONTINUOUS
 10
9.2861442038
 20
11.3424392343
 11
9.2861442038
 21
11.3736499019
  0
LINE
  5
2A1
100
AcDbEntity
  8
03__ASM_ALL_CURVES
100
AcDbLine
 62
4
  6
CONTINUOUS
 10
9.2861442038
 20
11.9674392343
 11
9.2861442038
 21
11.9986499019
  0
LINE
  5
2A2
100
AcDbEntity
  8
03__ASM_ALL_CURVES
100
AcDbLine
 62
4
  6
CONTINUOUS
 10
9.1164362038
 20
9.7642552315
 11
9.1105842038
 21
9.7408472315
  0
LINE
  5
2A3
100
AcDbEntity
  8
03__ASM_ALL_CURVES
100
AcDbLine
 62
4
  6
CONTINUOUS
 10
9.6957842038
 20
11.9752418991
 11
9.6899322038
 21
11.9518339005
  0
LINE
  5
2A4
100
AcDbEntity
  8
03__ASM_ALL_CURVES
100
AcDbLine
 62
4
  6
CONTINUOUS
 10
9.6138562038
 20
11.3736499019
 11
9.6080042038
 21
11.3580445667
  0
LINE
  5
2A5
100
AcDbEntity
  8
03__ASM_ALL_CURVES
100
AcDbLine
 62
4
  6
CONTINUOUS
 10
9.6138562038
 20
11.3424392343
 11
9.6080042038
 21
11.3268339005
  0
LINE
  5
2A6
100
AcDbEntity
  8
03__ASM_ALL_CURVES
100
AcDbLine
 62
4
  6
CONTINUOUS
 10
8.6716842038
 20
9.7018339005
 11
8.6658322038
 21
9.6940312336
  0
LINE
  5
2A7
100
AcDbEntity
  8
03__ASM_ALL_CURVES
100
AcDbLine
 62
4
  6
CONTINUOUS
 10
13.748213539
 20
8.0993925667
 11
13.771621539
 21
8.1052445667
  0
LINE
  5
2A8
100
AcDbEntity
  8
03__ASM_ALL_CURVES
100
AcDbLine
 62
4
  6
CONTINUOUS
 10
11.7521615362
 20
7.4147085667
 11
11.7209508686
 21
7.4147085667
  0
LINE
  5
2A9
100
AcDbEntity
  8
03__ASM_ALL_CURVES
100
AcDbLine
 62
4
  6
CONTINUOUS
 10
10.2831615362
 20
7.4147085667
 11
10.2519508686
 21
7.4147085667
  0
LINE
  5
2AA
100
AcDbEntity
  8
03__ASM_ALL_CURVES
100
AcDbLine
 62
4
  6
CONTINUOUS
 10
10.2519508686
 20
7.4615245667
 11
10.2831615362
 21
7.4615245667
  0
LINE
  5
2AB
100
AcDbEntity
  8
03__ASM_ALL_CURVES
100
AcDbLine
 62
4
  6
CONTINUOUS
 10
11.7209508686
 20
7.4615245667
 11
11.7521615362
 21
7.4615245667
  0
LINE
  5
2AC
100
AcDbEntity
  8
03__ASM_ALL_CURVES
100
AcDbLine
 62
4
  6
CONTINUOUS
 10
13.893345539
 20
7.4615245667
 11
13.9089508686
 21
7.4615245667
  0
LINE
  5
2AD
100
AcDbEntity
  8
03__ASM_ALL_CURVES
100
AcDbLine
 62
4
  6
CONTINUOUS
 10
13.771621539
 20
7.5200445667
 11
13.7872268714
 21
7.5200445667
  0
LINE
  5
2AE
100
AcDbEntity
  8
03__ASM_ALL_CURVES
100
AcDbLine
 62
4
  6
CONTINUOUS
 10
13.9713722038
 20
7.5463785667
 11
13.9596682035
 21
7.5463785667
  0
LINE
  5
2AF
100
AcDbEntity
  8
03__ASM_ALL_CURVES
100
AcDbLine
 62
4
  6
CONTINUOUS
 10
11.7833722038
 20
7.5463785667
 11
11.7716682035
 21
7.5463785667
  0
LINE
  5
2B0
100
AcDbEntity
  8
03__ASM_ALL_CURVES
100
AcDbLine
 62
4
  6
CONTINUOUS
 10
10.3143722038
 20
7.5463785667
 11
10.3026682035
 21
7.5463785667
  0
LINE
  5
2B1
100
AcDbEntity
  8
03__ASM_ALL_CURVES
100
AcDbLine
 62
4
  6
CONTINUOUS
 10
10.3143722038
 20
7.6253805667
 11
10.2753588714
 21
7.6312325667
  0
LINE
  5
2B2
100
AcDbEntity
  8
03__ASM_ALL_CURVES
100
AcDbLine
 62
4
  6
CONTINUOUS
 10
10.2753588714
 20
7.6312325667
 11
10.2519508686
 21
7.6370845667
  0
LINE
  5
2B3
100
AcDbEntity
  8
03__ASM_ALL_CURVES
100
AcDbLine
 62
4
  6
CONTINUOUS
 10
10.2519508686
 20
7.6370845667
 11
10.2207402038
 21
7.6487885667
  0
LINE
  5
2B4
100
AcDbEntity
  8
03__ASM_ALL_CURVES
100
AcDbLine
 62
4
  6
CONTINUOUS
 10
8.6424242038
 20
9.6940312336
 11
8.6365722038
 21
9.7018339005
  0
LINE
  5
2B5
100
AcDbEntity
  8
03__ASM_ALL_CURVES
100
AcDbLine
 62
4
  6
CONTINUOUS
 10
10.2285428686
 20
7.4264125667
 11
10.2207402038
 21
7.4381165667
  0
LINE
  5
2B6
100
AcDbEntity
  8
03__ASM_ALL_CURVES
100
AcDbLine
 62
4
  6
CONTINUOUS
 10
8.9584322038
 20
9.7330445667
 11
8.9642842038
 21
9.7174392343
  0
LINE
  5
2B7
100
AcDbEntity
  8
03__ASM_ALL_CURVES
100
AcDbLine
 62
4
  6
CONTINUOUS
 10
9.1105842038
 20
9.7252418991
 11
9.1164362038
 21
9.7018339005
  0
LINE
  5
2B8
100
AcDbEntity
  8
03__ASM_ALL_CURVES
100
AcDbLine
 62
4
  6
CONTINUOUS
 10
9.3329602038
 20
11.3736499019
 11
9.3329602038
 21
11.3424392343
  0
LINE
  5
2B9
100
AcDbEntity
  8
03__ASM_ALL_CURVES
100
AcDbLine
 62
4
  6
CONTINUOUS
 10
9.3329602038
 20
9.7486499019
 11
9.3329602038
 21
9.7174392343
  0
LINE
  5
2BA
100
AcDbEntity
  8
03__ASM_ALL_CURVES
100
AcDbLine
 62
4
  6
CONTINUOUS
 10
9.4178142038
 20
9.6862285667
 11
9.4178142038
 21
9.6979325671
  0
LINE
  5
2BB
100
AcDbEntity
  8
03__ASM_ALL_CURVES
100
AcDbLine
 62
4
  6
CONTINUOUS
 10
9.4178142038
 20
11.3112285667
 11
9.4178142038
 21
11.3229325671
  0
LINE
  5
2BC
100
AcDbEntity
  8
03__ASM_ALL_CURVES
100
AcDbLine
 62
4
  6
CONTINUOUS
 10
9.4178142038
 20
11.9362285667
 11
9.4178142038
 21
11.9479325671
  0
LINE
  5
2BD
100
AcDbEntity
  8
03__ASM_ALL_CURVES
100
AcDbLine
 62
4
  6
CONTINUOUS
 10
9.4734082038
 20
9.7174392343
 11
9.4734082038
 21
9.7486499019
  0
LINE
  5
2BE
100
AcDbEntity
  8
03__ASM_ALL_CURVES
100
AcDbLine
 62
4
  6
CONTINUOUS
 10
9.4968162038
 20
12.0298605667
 11
9.4968162038
 21
11.9362285667
  0
LINE
  5
2BF
100
AcDbEntity
  8
03__ASM_ALL_CURVES
100
AcDbLine
 62
4
  6
CONTINUOUS
 10
9.4968162038
 20
11.4048605667
 11
9.4968162038
 21
11.3112285667
  0
LINE
  5
2C0
100
AcDbEntity
  8
03__ASM_ALL_CURVES
100
AcDbLine
 62
4
  6
CONTINUOUS
 10
9.5202242038
 20
9.7486499019
 11
9.5202242038
 21
9.7174392343
  0
LINE
  5
2C1
100
AcDbEntity
  8
03__ASM_ALL_CURVES
100
AcDbLine
 62
4
  6
CONTINUOUS
 10
9.6957842038
 20
11.3502418991
 11
9.6899322038
 21
11.3268339005
  0
LINE
  5
2C2
100
AcDbEntity
  8
03__ASM_ALL_CURVES
100
AcDbLine
 62
4
  6
CONTINUOUS
 10
9.2861442038
 20
9.7486499019
 11
9.2919962038
 21
9.7642552315
  0
LINE
  5
2C3
100
AcDbEntity
  8
03__ASM_ALL_CURVES
100
AcDbLine
 62
4
  6
CONTINUOUS
 10
9.3329602038
 20
9.7486499019
 11
9.3271082038
 21
9.7330445667
  0
LINE
  5
2C4
100
AcDbEntity
  8
03__ASM_ALL_CURVES
100
AcDbLine
 62
4
  6
CONTINUOUS
 10
9.3329602038
 20
9.7174392343
 11
9.3271082038
 21
9.7018339005
  0
LINE
  5
2C5
100
AcDbEntity
  8
03__ASM_ALL_CURVES
100
AcDbLine
 62
4
  6
CONTINUOUS
 10
9.4734082038
 20
9.7486499019
 11
9.4792602038
 21
9.7642552315
  0
LINE
  5
2C6
100
AcDbEntity
  8
0
100
AcDbLine
 62
7
  6
CONTINUOUS
 10
10.2718955882
 20
11.4205606009
 11
10.2675562038
 21
11.4130445667
  0
LINE
  5
2C7
100
AcDbEntity
  8
03__ASM_ALL_CURVES
100
AcDbLine
 62
4
  6
CONTINUOUS
 10
8.9584322038
 20
9.7018339005
 11
8.9525802038
 21
9.6940312336
  0
LINE
  5
2C8
100
AcDbEntity
  8
03__ASM_ALL_CURVES
100
AcDbLine
 62
4
  6
CONTINUOUS
 10
9.1281402038
 20
9.7798605667
 11
9.1164362038
 21
9.7642552315
  0
LINE
  5
2C9
100
AcDbEntity
  8
03__ASM_ALL_CURVES
100
AcDbLine
 62
4
  6
CONTINUOUS
 10
13.7872268714
 20
8.2691005667
 11
13.81063487
 21
8.2749525667
  0
LINE
  5
2CA
100
AcDbEntity
  8
03__ASM_ALL_CURVES
100
AcDbLine
 62
4
  6
CONTINUOUS
 10
11.7443588714
 20
7.8945725667
 11
11.76776687
 21
7.9004245667
  0
LINE
  5
2CB
100
AcDbEntity
  8
03__ASM_ALL_CURVES
100
AcDbLine
 62
4
  6
CONTINUOUS
 10
13.9089508686
 20
7.6487885667
 11
13.9401615362
 21
7.6487885667
  0
LINE
  5
2CC
100
AcDbEntity
  8
03__ASM_ALL_CURVES
100
AcDbLine
 62
4
  6
CONTINUOUS
 10
10.2207402038
 20
7.7190125667
 11
10.3143722038
 21
7.7190125667
  0
LINE
  5
2CD
100
AcDbEntity
  8
03__ASM_ALL_CURVES
100
AcDbLine
 62
4
  6
CONTINUOUS
 10
13.748213539
 20
7.7424205667
 11
13.7638188686
 21
7.7424205667
  0
LINE
  5
2CE
100
AcDbEntity
  8
03__ASM_ALL_CURVES
100
AcDbLine
 62
4
  6
CONTINUOUS
 10
13.893345539
 20
7.7424205667
 11
13.9011482038
 21
7.7424205667
  0
LINE
  5
2CF
100
AcDbEntity
  8
03__ASM_ALL_CURVES
100
AcDbLine
 62
4
  6
CONTINUOUS
 10
13.9401615362
 20
7.7482725667
 11
13.9479642038
 21
7.7482725667
  0
LINE
  5
2D0
100
AcDbEntity
  8
03__ASM_ALL_CURVES
100
AcDbLine
 62
4
  6
CONTINUOUS
 10
13.8262402038
 20
7.8272745667
 11
13.8145362035
 21
7.8272745667
  0
LINE
  5
2D1
100
AcDbEntity
  8
03__ASM_ALL_CURVES
100
AcDbLine
 62
4
  6
CONTINUOUS
 10
11.7833722038
 20
7.6253805667
 11
11.7443588714
 21
7.6312325667
  0
LINE
  5
2D2
100
AcDbEntity
  8
03__ASM_ALL_CURVES
100
AcDbLine
 62
4
  6
CONTINUOUS
 10
13.8262402038
 20
7.3444845667
 11
13.7872268714
 21
7.3503365667
  0
LINE
  5
2D3
100
AcDbEntity
  8
03__ASM_ALL_CURVES
100
AcDbLine
 62
4
  6
CONTINUOUS
 10
11.6897402038
 20
7.7073085667
 11
11.728753539
 21
7.7014565667
  0
LINE
  5
2D4
100
AcDbEntity
  8
03__ASM_ALL_CURVES
100
AcDbLine
 62
4
  6
CONTINUOUS
 10
10.236345539
 20
7.9004245667
 11
10.259753539
 21
7.8945725667
  0
LINE
  5
2D5
100
AcDbEntity
  8
03__ASM_ALL_CURVES
100
AcDbLine
 62
4
  6
CONTINUOUS
 10
13.8028322038
 20
7.0460325667
 11
13.8262402038
 21
7.0401805667
  0
LINE
  5
2D6
100
AcDbEntity
  8
03__ASM_ALL_CURVES
100
AcDbLine
 62
4
  6
CONTINUOUS
 10
11.7443588714
 20
7.6312325667
 11
11.7209508686
 21
7.6370845667
  0
LINE
  5
2D7
100
AcDbEntity
  8
03__ASM_ALL_CURVES
100
AcDbLine
 62
4
  6
CONTINUOUS
 10
11.7209508686
 20
7.4147085667
 11
11.705345539
 21
7.4205605667
  0
LINE
  5
2D8
100
AcDbEntity
  8
03__ASM_ALL_CURVES
100
AcDbLine
 62
4
  6
CONTINUOUS
 10
11.7521615362
 20
7.4615245667
 11
11.76776687
 21
7.4556725667
  0
LINE
  5
2D9
100
AcDbEntity
  8
03__ASM_ALL_CURVES
100
AcDbLine
 62
4
  6
CONTINUOUS
 10
10.2207402038
 20
7.9121285667
 11
10.236345539
 21
7.9004245667
  0
LINE
  5
2DA
100
AcDbEntity
  8
03__ASM_ALL_CURVES
100
AcDbLine
 62
4
  6
CONTINUOUS
 10
10.236345539
 20
8.0701325667
 11
10.2285428686
 21
8.0759845667
  0
LINE
  5
2DB
100
AcDbEntity
  8
03__ASM_ALL_CURVES
100
AcDbLine
 62
4
  6
CONTINUOUS
 10
10.2831615362
 20
8.0642805667
 11
10.2675562038
 21
8.0759845667
  0
LINE
  5
2DC
100
AcDbEntity
  8
03__ASM_ALL_CURVES
100
AcDbLine
 62
4
  6
CONTINUOUS
 10
10.2441482038
 20
8.1169485667
 11
10.2519508686
 21
8.1110965667
  0
LINE
  5
2DD
100
AcDbEntity
  8
03__ASM_ALL_CURVES
100
AcDbLine
 62
4
  6
CONTINUOUS
 10
10.2909642038
 20
8.1228005667
 11
10.3065695369
 21
8.1110965667
  0
LINE
  5
2DE
100
AcDbEntity
  8
03__ASM_ALL_CURVES
100
AcDbLine
 62
4
  6
CONTINUOUS
 10
8.6658322038
 20
9.7720579019
 11
8.6716842038
 21
9.7642552315
  0
LINE
  5
2DF
100
AcDbEntity
  8
03__ASM_ALL_CURVES
100
AcDbLine
 62
4
  6
CONTINUOUS
 10
8.7623902038
 20
9.6979325671
 11
8.7711682038
 21
9.6862285667
  0
LINE
  5
2E0
100
AcDbEntity
  8
03__ASM_ALL_CURVES
100
AcDbLine
 62
4
  6
CONTINUOUS
 10
8.9174682038
 20
9.6940312336
 11
8.9116162038
 21
9.7018339005
  0
LINE
  5
2E1
100
AcDbEntity
  8
03__ASM_ALL_CURVES
100
AcDbLine
 62
4
  6
CONTINUOUS
 10
8.9525802038
 20
9.7408472315
 11
8.9584322038
 21
9.7330445667
  0
LINE
  5
2E2
100
AcDbEntity
  8
03__ASM_ALL_CURVES
100
AcDbLine
 62
4
  6
CONTINUOUS
 10
10.3065695369
 20
7.4498205667
 11
10.3143722038
 21
7.4381165667
  0
LINE
  5
2E3
100
AcDbEntity
  8
03__ASM_ALL_CURVES
100
AcDbLine
 62
4
  6
CONTINUOUS
 10
9.2919962038
 20
9.7330445667
 11
9.2861442038
 21
9.7486499019
  0
LINE
  5
2E4
100
AcDbEntity
  8
03__ASM_ALL_CURVES
100
AcDbLine
 62
4
  6
CONTINUOUS
 10
9.3271082038
 20
9.7642552315
 11
9.3329602038
 21
9.7486499019
  0
LINE
  5
2E5
100
AcDbEntity
  8
03__ASM_ALL_CURVES
100
AcDbLine
 62
4
  6
CONTINUOUS
 10
9.6080042038
 20
9.6862285667
 11
9.6080042038
 21
9.7798605667
  0
LINE
  5
2E6
100
AcDbEntity
  8
03__ASM_ALL_CURVES
100
AcDbLine
 62
4
  6
CONTINUOUS
 10
9.6138562038
 20
11.9986499019
 11
9.6138562038
 21
11.9674392343
  0
LINE
  5
2E7
100
AcDbEntity
  8
03__ASM_ALL_CURVES
100
AcDbLine
 62
4
  6
CONTINUOUS
 10
9.6138562038
 20
11.3736499019
 11
9.6138562038
 21
11.3424392343
  0
LINE
  5
2E8
100
AcDbEntity
  8
03__ASM_ALL_CURVES
100
AcDbLine
 62
4
  6
CONTINUOUS
 10
9.6957842038
 20
11.9908472315
 11
9.6957842038
 21
11.9752418991
  0
LINE
  5
2E9
100
AcDbEntity
  8
03__ASM_ALL_CURVES
100
AcDbLine
 62
4
  6
CONTINUOUS
 10
9.6957842038
 20
11.3658472315
 11
9.6957842038
 21
11.3502418991
  0
LINE
  5
2EA
100
AcDbEntity
  8
03__ASM_ALL_CURVES
100
AcDbLine
 62
4
  6
CONTINUOUS
 10
9.6957842038
 20
9.7408472315
 11
9.6957842038
 21
9.7252418991
  0
LINE
  5
2EB
100
AcDbEntity
  8
03__ASM_ALL_CURVES
100
AcDbLine
 62
4
  6
CONTINUOUS
 10
9.6957842038
 20
9.7252418991
 11
9.6899322038
 21
9.7018339005
  0
LINE
  5
2EC
100
AcDbEntity
  8
03__ASM_ALL_CURVES
100
AcDbLine
 62
4
  6
CONTINUOUS
 10
9.5202242038
 20
9.7174392343
 11
9.5143722038
 21
9.7018339005
  0
LINE
  5
2ED
100
AcDbEntity
  8
03__ASM_ALL_CURVES
100
AcDbLine
 62
4
  6
CONTINUOUS
 10
9.6080042038
 20
9.7798605667
 11
9.5670402038
 21
9.7096365667
  0
LINE
  5
2EE
100
AcDbEntity
  8
03__ASM_ALL_CURVES
100
AcDbLine
 62
4
  6
CONTINUOUS
 10
9.2919962038
 20
9.7642552315
 11
9.2978482038
 21
9.7720579019
  0
LINE
  5
2EF
100
AcDbEntity
  8
03__ASM_ALL_CURVES
100
AcDbLine
 62
4
  6
CONTINUOUS
 10
9.3271082038
 20
9.7018339005
 11
9.3212562038
 21
9.6940312336
  0
LINE
  5
2F0
100
AcDbEntity
  8
03__ASM_ALL_CURVES
100
AcDbLine
 62
4
  6
CONTINUOUS
 10
9.4792602038
 20
9.7642552315
 11
9.4851122038
 21
9.7720579019
  0
LINE
  5
2F1
100
AcDbEntity
  8
03__ASM_ALL_CURVES
100
AcDbLine
 62
4
  6
CONTINUOUS
 10
9.5143722038
 20
9.7018339005
 11
9.5085202038
 21
9.6940312336
  0
LINE
  5
2F2
100
AcDbEntity
  8
03__ASM_ALL_CURVES
100
AcDbLine
 62
4
  6
CONTINUOUS
 10
8.6424242038
 20
9.7720579019
 11
8.6541282038
 21
9.7798605667
  0
LINE
  5
2F3
100
AcDbEntity
  8
03__ASM_ALL_CURVES
100
AcDbLine
 62
4
  6
CONTINUOUS
 10
8.6658322038
 20
9.6940312336
 11
8.6541282038
 21
9.6862285667
  0
LINE
  5
2F4
100
AcDbEntity
  8
03__ASM_ALL_CURVES
100
AcDbLine
 62
4
  6
CONTINUOUS
 10
8.9174682038
 20
9.7408472315
 11
8.9291722038
 21
9.7486499019
  0
LINE
  5
2F5
100
AcDbEntity
  8
03__ASM_ALL_CURVES
100
AcDbLine
 62
4
  6
CONTINUOUS
 10
13.893345539
 20
8.4739205667
 11
13.916753539
 21
8.4797725667
  0
LINE
  5
2F6
100
AcDbEntity
  8
03__ASM_ALL_CURVES
100
AcDbLine
 62
4
  6
CONTINUOUS
 10
13.748213539
 20
8.5675525667
 11
13.771621539
 21
8.5734045667
  0
LINE
  5
2F7
100
AcDbEntity
  8
03__ASM_ALL_CURVES
100
AcDbLine
 62
4
  6
CONTINUOUS
 10
13.8028322038
 20
7.8770165667
 11
13.7950295362
 21
7.8770165667
  0
LINE
  5
2F8
100
AcDbEntity
  8
03__ASM_ALL_CURVES
100
AcDbLine
 62
4
  6
CONTINUOUS
 10
13.7560162038
 20
7.8828685667
 11
13.748213539
 21
7.8828685667
  0
LINE
  5
2F9
100
AcDbEntity
  8
03__ASM_ALL_CURVES
100
AcDbLine
 62
4
  6
CONTINUOUS
 10
10.259753539
 20
7.8945725667
 11
10.2753588714
 21
7.8945725667
  0
LINE
  5
2FA
100
AcDbEntity
  8
03__ASM_ALL_CURVES
100
AcDbLine
 62
4
  6
CONTINUOUS
 10
11.728753539
 20
7.8945725667
 11
11.7443588714
 21
7.8945725667
  0
LINE
  5
2FB
100
AcDbEntity
  8
03__ASM_ALL_CURVES
100
AcDbLine
 62
4
  6
CONTINUOUS
 10
13.916753539
 20
7.8945725667
 11
13.9323588714
 21
7.8945725667
  0
LINE
  5
2FC
100
AcDbEntity
  8
03__ASM_ALL_CURVES
100
AcDbLine
 62
4
  6
CONTINUOUS
 10
13.748213539
 20
7.9296845667
 11
13.7560162038
 21
7.9296845667
  0
LINE
  5
2FD
100
AcDbEntity
  8
03__ASM_ALL_CURVES
100
AcDbLine
 62
4
  6
CONTINUOUS
 10
13.7950295362
 20
7.9355365667
 11
13.8028322038
 21
7.9355365667
  0
LINE
  5
2FE
100
AcDbEntity
  8
03__ASM_ALL_CURVES
100
AcDbLine
 62
4
  6
CONTINUOUS
 10
10.2207402038
 20
7.9999085667
 11
10.3143722038
 21
7.9999085667
  0
LINE
  5
2FF
100
AcDbEntity
  8
03__ASM_ALL_CURVES
100
AcDbLine
 62
4
  6
CONTINUOUS
 10
11.6897402038
 20
7.9999085667
 11
11.7833722038
 21
7.9999085667
  0
LINE
  5
300
100
AcDbEntity
  8
03__ASM_ALL_CURVES
100
AcDbLine
 62
4
  6
CONTINUOUS
 10
13.7638188686
 20
8.0233165667
 11
13.7950295362
 21
8.0233165667
  0
LINE
  5
301
100
AcDbEntity
  8
03__ASM_ALL_CURVES
100
AcDbLine
 62
4
  6
CONTINUOUS
 10
10.2909642038
 20
8.0642805667
 11
10.2831615362
 21
8.0642805667
  0
LINE
  5
302
100
AcDbEntity
  8
03__ASM_ALL_CURVES
100
AcDbLine
 62
4
  6
CONTINUOUS
 10
10.2441482038
 20
8.0701325667
 11
10.236345539
 21
8.0701325667
  0
LINE
  5
303
100
AcDbEntity
  8
03__ASM_ALL_CURVES
100
AcDbLine
 62
4
  6
CONTINUOUS
 10
13.8262402038
 20
7.6253805667
 11
13.7872268714
 21
7.6312325667
  0
LINE
  5
304
100
AcDbEntity
  8
03__ASM_ALL_CURVES
100
AcDbLine
 62
4
  6
CONTINUOUS
 10
13.7872268714
 20
7.3503365667
 11
13.7638188686
 21
7.3561885667
  0
LINE
  5
305
100
AcDbEntity
  8
03__ASM_ALL_CURVES
100
AcDbLine
 62
4
  6
CONTINUOUS
 10
11.705345539
 20
7.9004245667
 11
11.728753539
 21
7.8945725667
  0
LINE
  5
306
100
AcDbEntity
  8
03__ASM_ALL_CURVES
100
AcDbLine
 62
4
  6
CONTINUOUS
 10
11.7209508686
 20
7.6370845667
 11
11.6897402038
 21
7.6487885667
  0
LINE
  5
307
100
AcDbEntity
  8
03__ASM_ALL_CURVES
100
AcDbLine
 62
4
  6
CONTINUOUS
 10
10.2519508686
 20
8.2573965667
 11
10.236345539
 21
8.2632485667
  0
LINE
  5
308
100
AcDbEntity
  8
03__ASM_ALL_CURVES
100
AcDbLine
 62
4
  6
CONTINUOUS
 10
11.7521615362
 20
7.7482725667
 11
11.76776687
 21
7.7424205667
  0
LINE
  5
309
100
AcDbEntity
  8
03__ASM_ALL_CURVES
100
AcDbLine
 62
4
  6
CONTINUOUS
 10
10.2831615362
 20
8.3042125667
 11
10.29876687
 21
8.2983605667
  0
LINE
  5
30A
100
AcDbEntity
  8
03__ASM_ALL_CURVES
100
AcDbLine
 62
4
  6
CONTINUOUS
 10
10.236345539
 20
8.2632485667
 11
10.2285428686
 21
8.2691005667
  0
LINE
  5
30B
100
AcDbEntity
  8
03__ASM_ALL_CURVES
100
AcDbLine
 62
4
  6
CONTINUOUS
 10
10.29876687
 20
8.2983605667
 11
10.3065695369
 21
8.2925085667
  0
LINE
  5
30C
100
AcDbEntity
  8
03__ASM_ALL_CURVES
100
AcDbLine
 62
4
  6
CONTINUOUS
 10
10.2441482038
 20
8.3978445667
 11
10.2519508686
 21
8.3919925667
  0
LINE
  5
30D
100
AcDbEntity
  8
03__ASM_ALL_CURVES
100
AcDbLine
 62
4
  6
CONTINUOUS
 10
10.2909642038
 20
8.4036965667
 11
10.3065695369
 21
8.3919925667
  0
LINE
  5
30E
100
AcDbEntity
  8
03__ASM_ALL_CURVES
100
AcDbLine
 62
4
  6
CONTINUOUS
 10
9.1164362038
 20
9.7018339005
 11
9.1281402038
 21
9.6862285667
  0
LINE
  5
30F
100
AcDbEntity
  8
03__ASM_ALL_CURVES
100
AcDbLine
 62
4
  6
CONTINUOUS
 10
9.2978482038
 20
9.6940312336
 11
9.2919962038
 21
9.7018339005
  0
LINE
  5
310
100
AcDbEntity
  8
03__ASM_ALL_CURVES
100
AcDbLine
 62
4
  6
CONTINUOUS
 10
10.2285428686
 20
8.0759845667
 11
10.2207402038
 21
8.0876885667
  0
LINE
  5
311
100
AcDbEntity
  8
03__ASM_ALL_CURVES
100
AcDbLine
 62
4
  6
CONTINUOUS
 10
10.2675562038
 20
8.0759845667
 11
10.259753539
 21
8.0876885667
  0
LINE
  5
312
100
AcDbEntity
  8
03__ASM_ALL_CURVES
100
AcDbLine
 62
4
  6
CONTINUOUS
 10
10.2519508686
 20
8.1110965667
 11
10.259753539
 21
8.0993925667
  0
LINE
  5
313
100
AcDbEntity
  8
03__ASM_ALL_CURVES
100
AcDbLine
 62
4
  6
CONTINUOUS
 10
10.3065695369
 20
8.1110965667
 11
10.3143722038
 21
8.0993925667
  0
LINE
  5
314
100
AcDbEntity
  8
03__ASM_ALL_CURVES
100
AcDbLine
 62
4
  6
CONTINUOUS
 10
10.2285428686
 20
8.2691005667
 11
10.2207402038
 21
8.2808045667
  0
LINE
  5
315
100
AcDbEntity
  8
03__ASM_ALL_CURVES
100
AcDbLine
 62
4
  6
CONTINUOUS
 10
10.2285428686
 20
8.3568805667
 11
10.2207402038
 21
8.3685845667
  0
LINE
  5
316
100
AcDbEntity
  8
03__ASM_ALL_CURVES
100
AcDbLine
 62
4
  6
CONTINUOUS
 10
10.3065695369
 20
8.2925085667
 11
10.3143722038
 21
8.2808045667
  0
LINE
  5
317
100
AcDbEntity
  8
03__ASM_ALL_CURVES
100
AcDbLine
 62
4
  6
CONTINUOUS
 10
10.2519508686
 20
8.3919925667
 11
10.259753539
 21
8.3802885667
  0
LINE
  5
318
100
AcDbEntity
  8
03__ASM_ALL_CURVES
100
AcDbLine
 62
4
  6
CONTINUOUS
 10
9.4792602038
 20
9.7018339005
 11
9.4734082038
 21
9.7174392343
  0
LINE
  5
319
100
AcDbEntity
  8
03__ASM_ALL_CURVES
100
AcDbLine
 62
4
  6
CONTINUOUS
 10
9.5143722038
 20
9.7642552315
 11
9.5202242038
 21
9.7486499019
  0
LINE
  5
31A
100
AcDbEntity
  8
03__ASM_ALL_CURVES
100
AcDbLine
 62
4
  6
CONTINUOUS
 10
9.1105842038
 20
11.3502418991
 11
9.1164362038
 21
11.3268339005
  0
LINE
  5
31B
100
AcDbEntity
  8
03__ASM_ALL_CURVES
100
AcDbLine
 62
4
  6
CONTINUOUS
 10
9.1105842038
 20
11.9752418991
 11
9.1164362038
 21
11.9518339005
  0
LINE
  5
31C
100
AcDbEntity
  8
0
100
AcDbLine
 62
7
  6
CONTINUOUS
 10
10.2718863309
 20
10.5455445667
 11
10.2675562038
 21
10.5380445667
  0
LINE
  5
31D
100
AcDbEntity
  8
03__ASM_ALL_CURVES
100
AcDbLine
 62
4
  6
CONTINUOUS
 10
9.6899322038
 20
9.7018339005
 11
9.6782282038
 21
9.6862285667
  0
LINE
  5
31E
100
AcDbEntity
  8
03__ASM_ALL_CURVES
100
AcDbLine
 62
4
  6
CONTINUOUS
 10
8.9525802038
 20
9.6940312336
 11
8.9408762038
 21
9.6862285667
  0
LINE
  5
31F
100
AcDbEntity
  8
03__ASM_ALL_CURVES
100
AcDbLine
 62
4
  6
CONTINUOUS
 10
9.2978482038
 20
9.7720579019
 11
9.3095522038
 21
9.7798605667
  0
LINE
  5
320
100
AcDbEntity
  8
03__ASM_ALL_CURVES
100
AcDbLine
 62
4
  6
CONTINUOUS
 10
10.2753588714
 20
7.8945725667
 11
10.29876687
 21
7.9004245667
  0
LINE
  5
321
100
AcDbEntity
  8
03__ASM_ALL_CURVES
100
AcDbLine
 62
4
  6
CONTINUOUS
 10
13.771621539
 20
8.1052445667
 11
13.7872268714
 21
8.1052445667
  0
LINE
  5
322
100
AcDbEntity
  8
03__ASM_ALL_CURVES
100
AcDbLine
 62
4
  6
CONTINUOUS
 10
13.9713722038
 20
8.1110965667
 11
13.8777402038
 21
8.1110965667
  0
LINE
  5
323
100
AcDbEntity
  8
03__ASM_ALL_CURVES
100
AcDbLine
 62
4
  6
CONTINUOUS
 10
10.236345539
 20
8.1169485667
 11
10.2441482038
 21
8.1169485667
  0
LINE
  5
324
100
AcDbEntity
  8
03__ASM_ALL_CURVES
100
AcDbLine
 62
4
  6
CONTINUOUS
 10
11.7209508686
 20
8.1169485667
 11
11.7521615362
 21
8.1169485667
  0
LINE
  5
325
100
AcDbEntity
  8
03__ASM_ALL_CURVES
100
AcDbLine
 62
4
  6
CONTINUOUS
 10
10.2831615362
 20
8.1228005667
 11
10.2909642038
 21
8.1228005667
  0
LINE
  5
326
100
AcDbEntity
  8
03__ASM_ALL_CURVES
100
AcDbLine
 62
4
  6
CONTINUOUS
 10
13.9713722038
 20
8.2018025667
 11
13.9596682035
 21
8.2018025667
  0
LINE
  5
327
100
AcDbEntity
  8
03__ASM_ALL_CURVES
100
AcDbLine
 62
4
  6
CONTINUOUS
 10
11.7833722038
 20
8.2018025667
 11
11.7716682035
 21
8.2018025667
  0
LINE
  5
328
100
AcDbEntity
  8
03__ASM_ALL_CURVES
100
AcDbLine
 62
4
  6
CONTINUOUS
 10
10.3143722038
 20
8.2018025667
 11
10.3026682035
 21
8.2018025667
  0
LINE
  5
329
100
AcDbEntity
  8
03__ASM_ALL_CURVES
100
AcDbLine
 62
4
  6
CONTINUOUS
 10
11.7521615362
 20
8.2573965667
 11
11.7209508686
 21
8.2573965667
  0
LINE
  5
32A
100
AcDbEntity
  8
03__ASM_ALL_CURVES
100
AcDbLine
 62
4
  6
CONTINUOUS
 10
10.2831615362
 20
8.2573965667
 11
10.2519508686
 21
8.2573965667
  0
LINE
  5
32B
100
AcDbEntity
  8
03__ASM_ALL_CURVES
100
AcDbLine
 62
4
  6
CONTINUOUS
 10
13.771621539
 20
8.2691005667
 11
13.7872268714
 21
8.2691005667
  0
LINE
  5
32C
100
AcDbEntity
  8
03__ASM_ALL_CURVES
100
AcDbLine
 62
4
  6
CONTINUOUS
 10
13.9713722038
 20
8.2983605667
 11
13.8777402038
 21
8.2983605667
  0
LINE
  5
32D
100
AcDbEntity
  8
03__ASM_ALL_CURVES
100
AcDbLine
 62
4
  6
CONTINUOUS
 10
10.2519508686
 20
8.3042125667
 11
10.2831615362
 21
8.3042125667
  0
LINE
  5
32E
100
AcDbEntity
  8
03__ASM_ALL_CURVES
100
AcDbLine
 62
4
  6
CONTINUOUS
 10
11.7209508686
 20
8.3042125667
 11
11.7521615362
 21
8.3042125667
  0
LINE
  5
32F
100
AcDbEntity
  8
03__ASM_ALL_CURVES
100
AcDbLine
 62
4
  6
CONTINUOUS
 10
13.9479642038
 20
7.4205605667
 11
13.9713722038
 21
7.4147085667
  0
LINE
  5
330
100
AcDbEntity
  8
03__ASM_ALL_CURVES
100
AcDbLine
 62
4
  6
CONTINUOUS
 10
13.748213539
 20
7.5258965667
 11
13.771621539
 21
7.5200445667
  0
LINE
  5
331
100
AcDbEntity
  8
03__ASM_ALL_CURVES
100
AcDbLine
 62
4
  6
CONTINUOUS
 10
10.2753588714
 20
8.4797725667
 11
10.29876687
 21
8.4739205667
  0
LINE
  5
332
100
AcDbEntity
  8
03__ASM_ALL_CURVES
100
AcDbLine
 62
4
  6
CONTINUOUS
 10
13.7872268714
 20
7.6312325667
 11
13.7638188686
 21
7.6370845667
  0
LINE
  5
333
100
AcDbEntity
  8
03__ASM_ALL_CURVES
100
AcDbLine
 62
4
  6
CONTINUOUS
 10
10.9709508686
 20
8.3510285667
 11
10.955345539
 21
8.3568805667
  0
LINE
  5
334
100
AcDbEntity
  8
03__ASM_ALL_CURVES
100
AcDbLine
 62
4
  6
CONTINUOUS
 10
11.7209508686
 20
8.0701325667
 11
11.705345539
 21
8.0759845667
  0
LINE
  5
335
100
AcDbEntity
  8
03__ASM_ALL_CURVES
100
AcDbLine
 62
4
  6
CONTINUOUS
 10
8.6541282038
 20
9.6862285667
 11
8.6424242038
 21
9.6940312336
  0
LINE
  5
336
100
AcDbEntity
  8
03__ASM_ALL_CURVES
100
AcDbLine
 62
4
  6
CONTINUOUS
 10
8.6541282038
 20
9.7798605667
 11
8.6658322038
 21
9.7720579019
  0
LINE
  5
337
100
AcDbEntity
  8
03__ASM_ALL_CURVES
100
AcDbLine
 62
4
  6
CONTINUOUS
 10
10.29876687
 20
8.4739205667
 11
10.3143722038
 21
8.4622165667
  0
LINE
  5
338
100
AcDbEntity
  8
03__ASM_ALL_CURVES
100
AcDbLine
 62
4
  6
CONTINUOUS
 10
11.705345539
 20
7.4205605667
 11
11.6975428686
 21
7.4264125667
  0
LINE
  5
339
100
AcDbEntity
  8
03__ASM_ALL_CURVES
100
AcDbLine
 62
4
  6
CONTINUOUS
 10
11.76776687
 20
7.4556725667
 11
11.7755695369
 21
7.4498205667
  0
LINE
  5
33A
100
AcDbEntity
  8
03__ASM_ALL_CURVES
100
AcDbLine
 62
4
  6
CONTINUOUS
 10
9.3212562038
 20
9.7720579019
 11
9.3271082038
 21
9.7642552315
  0
LINE
  5
33B
100
AcDbEntity
  8
03__ASM_ALL_CURVES
100
AcDbLine
 62
4
  6
CONTINUOUS
 10
9.4178142038
 20
9.6979325671
 11
9.4265922038
 21
9.6862285667
  0
LINE
  5
33C
100
AcDbEntity
  8
03__ASM_ALL_CURVES
100
AcDbLine
 62
4
  6
CONTINUOUS
 10
9.4851122038
 20
9.6940312336
 11
9.4792602038
 21
9.7018339005
  0
LINE
  5
33D
100
AcDbEntity
  8
03__ASM_ALL_CURVES
100
AcDbLine
 62
4
  6
CONTINUOUS
 10
9.5085202038
 20
9.7720579019
 11
9.5143722038
 21
9.7642552315
  0
LINE
  5
33E
100
AcDbEntity
  8
03__ASM_ALL_CURVES
100
AcDbLine
 62
4
  6
CONTINUOUS
 10
10.3065695369
 20
8.3919925667
 11
10.3143722038
 21
8.3802885667
  0
LINE
  5
33F
100
AcDbEntity
  8
03__ASM_ALL_CURVES
100
AcDbLine
 62
4
  6
CONTINUOUS
 10
8.9174682038
 20
11.9518339005
 11
8.9116162038
 21
11.9674392343
  0
LINE
  5
340
100
AcDbEntity
  8
03__ASM_ALL_CURVES
100
AcDbLine
 62
4
  6
CONTINUOUS
 10
9.1983642038
 20
11.3268339005
 11
9.1925122038
 21
11.3424392343
  0
LINE
  5
341
100
AcDbEntity
  8
03__ASM_ALL_CURVES
100
AcDbLine
 62
4
  6
CONTINUOUS
 10
8.9525802038
 20
12.0142552315
 11
8.9584322038
 21
11.9986499019
  0
LINE
  5
342
100
AcDbEntity
  8
03__ASM_ALL_CURVES
100
AcDbLine
 62
4
  6
CONTINUOUS
 10
9.2334762038
 20
11.3580445667
 11
9.2393282038
 21
11.3424392343
  0
LINE
  5
343
100
AcDbEntity
  8
03__ASM_ALL_CURVES
100
AcDbLine
 62
4
  6
CONTINUOUS
 10
9.6899322038
 20
9.7642552315
 11
9.6957842038
 21
9.7408472315
  0
LINE
  5
344
100
AcDbEntity
  8
03__ASM_ALL_CURVES
100
AcDbLine
 62
4
  6
CONTINUOUS
 10
10.2207402038
 20
7.6487885667
 11
10.2207402038
 21
7.6019725667
  0
LINE
  5
345
100
AcDbEntity
  8
03__ASM_ALL_CURVES
100
AcDbLine
 62
4
  6
CONTINUOUS
 10
10.2207402038
 20
8.0876885667
 11
10.2207402038
 21
8.0993925667
  0
LINE
  5
346
100
AcDbEntity
  8
03__ASM_ALL_CURVES
100
AcDbLine
 62
4
  6
CONTINUOUS
 10
10.2207402038
 20
8.3685845667
 11
10.2207402038
 21
8.3802885667
  0
LINE
  5
347
100
AcDbEntity
  8
03__ASM_ALL_CURVES
100
AcDbLine
 62
4
  6
CONTINUOUS
 10
10.259753539
 20
8.0876885667
 11
10.259753539
 21
8.0993925667
  0
LINE
  5
348
100
AcDbEntity
  8
03__ASM_ALL_CURVES
100
AcDbLine
 62
4
  6
CONTINUOUS
 10
10.259753539
 20
8.3685845667
 11
10.259753539
 21
8.3802885667
  0
LINE
  5
349
100
AcDbEntity
  8
03__ASM_ALL_CURVES
100
AcDbLine
 62
4
  6
CONTINUOUS
 10
10.2675562038
 20
8.8894125667
 11
10.2675562038
 21
8.6085165667
  0
LINE
  5
34A
100
AcDbEntity
  8
0
100
AcDbLine
 62
7
  6
CONTINUOUS
 10
10.2675562038
 20
9.6780445667
 11
10.2675562038
 21
10.5380445667
  0
LINE
  5
34B
100
AcDbEntity
  8
0
100
AcDbLine
 62
7
  6
CONTINUOUS
 10
10.2675562038
 20
10.5530445667
 11
10.2675562038
 21
11.4130445667
  0
LINE
  5
34C
100
AcDbEntity
  8
0
100
AcDbLine
 62
7
  6
CONTINUOUS
 10
10.7985562038
 20
10.5555445667
 11
10.7885102724
 21
10.5454986353
  0
LINE
  5
34D
100
AcDbEntity
  8
03__ASM_ALL_CURVES
100
AcDbLine
 62
4
  6
CONTINUOUS
 10
9.3212562038
 20
9.6940312336
 11
9.3095522038
 21
9.6862285667
  0
LINE
  5
34E
100
AcDbEntity
  8
03__ASM_ALL_CURVES
100
AcDbLine
 62
4
  6
CONTINUOUS
 10
9.4851122038
 20
9.7720579019
 11
9.4968162038
 21
9.7798605667
  0
LINE
  5
34F
100
AcDbEntity
  8
03__ASM_ALL_CURVES
100
AcDbLine
 62
4
  6
CONTINUOUS
 10
9.5085202038
 20
9.6940312336
 11
9.4968162038
 21
9.6862285667
  0
LINE
  5
350
100
AcDbEntity
  8
03__ASM_ALL_CURVES
100
AcDbLine
 62
4
  6
CONTINUOUS
 10
9.3271082038
 20
9.7330445667
 11
9.3095522038
 21
9.7252418991
  0
LINE
  5
351
100
AcDbEntity
  8
03__ASM_ALL_CURVES
100
AcDbLine
 62
4
  6
CONTINUOUS
 10
11.705345539
 20
8.4739205667
 11
11.728753539
 21
8.4797725667
  0
LINE
  5
352
100
AcDbEntity
  8
03__ASM_ALL_CURVES
100
AcDbLine
 62
4
  6
CONTINUOUS
 10
11.0021615362
 20
8.3510285667
 11
10.9709508686
 21
8.3510285667
  0
LINE
  5
353
100
AcDbEntity
  8
03__ASM_ALL_CURVES
100
AcDbLine
 62
4
  6
CONTINUOUS
 10
13.7326082038
 20
8.3510285667
 11
13.8262402038
 21
8.3510285667
  0
LINE
  5
354
100
AcDbEntity
  8
03__ASM_ALL_CURVES
100
AcDbLine
 62
4
  6
CONTINUOUS
 10
11.7833722038
 20
8.3919925667
 11
11.6897402038
 21
8.3919925667
  0
LINE
  5
355
100
AcDbEntity
  8
03__ASM_ALL_CURVES
100
AcDbLine
 62
4
  6
CONTINUOUS
 10
10.236345539
 20
8.3978445667
 11
10.2441482038
 21
8.3978445667
  0
LINE
  5
356
100
AcDbEntity
  8
03__ASM_ALL_CURVES
100
AcDbLine
 62
4
  6
CONTINUOUS
 10
10.9709508686
 20
8.3978445667
 11
11.0021615362
 21
8.3978445667
  0
LINE
  5
357
100
AcDbEntity
  8
03__ASM_ALL_CURVES
100
AcDbLine
 62
4
  6
CONTINUOUS
 10
13.893345539
 20
8.3978445667
 11
13.9089508686
 21
8.3978445667
  0
LINE
  5
358
100
AcDbEntity
  8
03__ASM_ALL_CURVES
100
AcDbLine
 62
4
  6
CONTINUOUS
 10
10.2831615362
 20
8.4036965667
 11
10.2909642038
 21
8.4036965667
  0
LINE
  5
359
100
AcDbEntity
  8
03__ASM_ALL_CURVES
100
AcDbLine
 62
4
  6
CONTINUOUS
 10
13.748213539
 20
8.4446605667
 11
13.7560162038
 21
8.4446605667
  0
LINE
  5
35A
100
AcDbEntity
  8
03__ASM_ALL_CURVES
100
AcDbLine
 62
4
  6
CONTINUOUS
 10
10.259753539
 20
8.4797725667
 11
10.2753588714
 21
8.4797725667
  0
LINE
  5
35B
100
AcDbEntity
  8
03__ASM_ALL_CURVES
100
AcDbLine
 62
4
  6
CONTINUOUS
 10
11.728753539
 20
8.4797725667
 11
11.7443588714
 21
8.4797725667
  0
LINE
  5
35C
100
AcDbEntity
  8
03__ASM_ALL_CURVES
100
AcDbLine
 62
4
  6
CONTINUOUS
 10
13.916753539
 20
8.4797725667
 11
13.9323588714
 21
8.4797725667
  0
LINE
  5
35D
100
AcDbEntity
  8
03__ASM_ALL_CURVES
100
AcDbLine
 62
4
  6
CONTINUOUS
 10
13.7950295362
 20
8.4914765667
 11
13.81063487
 21
8.4914765667
  0
LINE
  5
35E
100
AcDbEntity
  8
03__ASM_ALL_CURVES
100
AcDbLine
 62
4
  6
CONTINUOUS
 10
13.771621539
 20
8.5734045667
 11
13.7872268714
 21
8.5734045667
  0
LINE
  5
35F
100
AcDbEntity
  8
03__ASM_ALL_CURVES
100
AcDbLine
 62
4
  6
CONTINUOUS
 10
13.9713722038
 20
7.9999085667
 11
13.9323588714
 21
8.0057605667
  0
LINE
  5
360
100
AcDbEntity
  8
03__ASM_ALL_CURVES
100
AcDbLine
 62
4
  6
CONTINUOUS
 10
13.8028322038
 20
7.7014565667
 11
13.8262402038
 21
7.6956045667
  0
LINE
  5
361
100
AcDbEntity
  8
03__ASM_ALL_CURVES
100
AcDbLine
 62
4
  6
CONTINUOUS
 10
11.7209508686
 20
8.1169485667
 11
11.7365562038
 21
8.1110965667
  0
LINE
  5
362
100
AcDbEntity
  8
03__ASM_ALL_CURVES
100
AcDbLine
 62
4
  6
CONTINUOUS
 10
13.7638188686
 20
7.3561885667
 11
13.7326082038
 21
7.3678925667
  0
LINE
  5
363
100
AcDbEntity
  8
03__ASM_ALL_CURVES
100
AcDbLine
 62
4
  6
CONTINUOUS
 10
11.0021615362
 20
8.3978445667
 11
11.01776687
 21
8.3919925667
  0
LINE
  5
364
100
AcDbEntity
  8
03__ASM_ALL_CURVES
100
AcDbLine
 62
4
  6
CONTINUOUS
 10
11.7521615362
 20
8.1169485667
 11
11.76776687
 21
8.1110965667
  0
LINE
  5
365
100
AcDbEntity
  8
03__ASM_ALL_CURVES
100
AcDbLine
 62
4
  6
CONTINUOUS
 10
11.7209508686
 20
8.2573965667
 11
11.705345539
 21
8.2632485667
  0
LINE
  5
366
100
AcDbEntity
  8
03__ASM_ALL_CURVES
100
AcDbLine
 62
4
  6
CONTINUOUS
 10
11.7521615362
 20
8.3042125667
 11
11.76776687
 21
8.2983605667
  0
LINE
  5
367
100
AcDbEntity
  8
03__ASM_ALL_CURVES
100
AcDbLine
 62
4
  6
CONTINUOUS
 10
8.9291722038
 20
9.6862285667
 11
8.9174682038
 21
9.6940312336
  0
LINE
  5
368
100
AcDbEntity
  8
03__ASM_ALL_CURVES
100
AcDbLine
 62
4
  6
CONTINUOUS
 10
8.9408762038
 20
9.7486499019
 11
8.9525802038
 21
9.7408472315
  0
LINE
  5
369
100
AcDbEntity
  8
03__ASM_ALL_CURVES
100
AcDbLine
 62
4
  6
CONTINUOUS
 10
10.3779482038
 20
8.9362285667
 11
10.3662442038
 21
8.9440312336
  0
LINE
  5
36A
100
AcDbEntity
  8
03__ASM_ALL_CURVES
100
AcDbLine
 62
4
  6
CONTINUOUS
 10
11.76776687
 20
7.7424205667
 11
11.7755695369
 21
7.7365685667
  0
LINE
  5
36B
100
AcDbEntity
  8
03__ASM_ALL_CURVES
100
AcDbLine
 62
4
  6
CONTINUOUS
 10
10.955345539
 20
8.3568805667
 11
10.9475428686
 21
8.3627325667
  0
LINE
  5
36C
100
AcDbEntity
  8
03__ASM_ALL_CURVES
100
AcDbLine
 62
4
  6
CONTINUOUS
 10
11.01776687
 20
8.3919925667
 11
11.0255695369
 21
8.3861405667
  0
LINE
  5
36D
100
AcDbEntity
  8
03__ASM_ALL_CURVES
100
AcDbLine
 62
4
  6
CONTINUOUS
 10
11.6897402038
 20
7.9121285667
 11
11.705345539
 21
7.9004245667
  0
LINE
  5
36E
100
AcDbEntity
  8
03__ASM_ALL_CURVES
100
AcDbLine
 62
4
  6
CONTINUOUS
 10
9.6782282038
 20
9.7798605667
 11
9.6899322038
 21
9.7642552315
  0
LINE
  5
36F
100
AcDbEntity
  8
03__ASM_ALL_CURVES
100
AcDbLine
 62
4
  6
CONTINUOUS
 10
10.3662442038
 20
8.9440312336
 11
10.3603922038
 21
8.9518339005
  0
LINE
  5
370
100
AcDbEntity
  8
03__ASM_ALL_CURVES
100
AcDbLine
 62
4
  6
CONTINUOUS
 10
10.3896522038
 20
9.0220579019
 11
10.3955042038
 21
9.0142552315
  0
LINE
  5
371
100
AcDbEntity
  8
03__ASM_ALL_CURVES
100
AcDbLine
 62
4
  6
CONTINUOUS
 10
9.2919962038
 20
11.3268339005
 11
9.2861442038
 21
11.3424392343
  0
LINE
  5
372
100
AcDbEntity
  8
03__ASM_ALL_CURVES
100
AcDbLine
 62
4
  6
CONTINUOUS
 10
9.3271082038
 20
11.3892552315
 11
9.3329602038
 21
11.3736499019
  0
LINE
  5
373
100
AcDbEntity
  8
03__ASM_ALL_CURVES
100
AcDbLine
 62
4
  6
CONTINUOUS
 10
10.3603922038
 20
8.9518339005
 11
10.3545402038
 21
8.9674392343
  0
LINE
  5
374
100
AcDbEntity
  8
03__ASM_ALL_CURVES
100
AcDbLine
 62
4
  6
CONTINUOUS
 10
9.2919962038
 20
11.9518339005
 11
9.2861442038
 21
11.9674392343
  0
LINE
  5
375
100
AcDbEntity
  8
03__ASM_ALL_CURVES
100
AcDbLine
 62
4
  6
CONTINUOUS
 10
10.3955042038
 20
9.0142552315
 11
10.4013562038
 21
8.9986499019
  0
LINE
  5
376
100
AcDbEntity
  8
03__ASM_ALL_CURVES
100
AcDbLine
 62
4
  6
CONTINUOUS
 10
9.6899322038
 20
11.3892552315
 11
9.6957842038
 21
11.3658472315
  0
LINE
  5
377
100
AcDbEntity
  8
0
100
AcDbLine
 62
7
  6
CONTINUOUS
 10
10.3016198697
 20
9.6705285327
 11
10.3016198697
 21
9.7001423191
  0
LINE
  5
378
100
AcDbEntity
  8
0
100
AcDbLine
 62
7
  6
CONTINUOUS
 10
10.3016198697
 20
10.0784307804
 11
10.3016198697
 21
10.137658353
  0
LINE
  5
379
100
AcDbEntity
  8
0
100
AcDbLine
 62
7
  6
CONTINUOUS
 10
10.3016198697
 20
10.5159468144
 11
10.3016198697
 21
10.5751423191
  0
LINE
  5
37A
100
AcDbEntity
  8
0
100
AcDbLine
 62
7
  6
CONTINUOUS
 10
10.3016198697
 20
10.9534307804
 11
10.3016198697
 21
11.012658353
  0
LINE
  5
37B
100
AcDbEntity
  8
0
100
AcDbLine
 62
7
  6
CONTINUOUS
 10
10.3016198697
 20
11.3909468144
 11
10.3016198697
 21
11.4205606007
  0
LINE
  5
37C
100
AcDbEntity
  8
03__ASM_ALL_CURVES
100
AcDbLine
 62
4
  6
CONTINUOUS
 10
10.3143722038
 20
8.3802885667
 11
10.3143722038
 21
8.3685845667
  0
LINE
  5
37D
100
AcDbEntity
  8
03__ASM_ALL_CURVES
100
AcDbLine
 62
4
  6
CONTINUOUS
 10
10.3143722038
 20
8.2105805667
 11
10.3143722038
 21
8.2018025667
  0
LINE
  5
37E
100
AcDbEntity
  8
03__ASM_ALL_CURVES
100
AcDbLine
 62
4
  6
CONTINUOUS
 10
10.3143722038
 20
8.0993925667
 11
10.3143722038
 21
8.0876885667
  0
LINE
  5
37F
100
AcDbEntity
  8
03__ASM_ALL_CURVES
100
AcDbLine
 62
4
  6
CONTINUOUS
 10
10.3143722038
 20
7.5551565667
 11
10.3143722038
 21
7.5463785667
  0
LINE
  5
380
100
AcDbEntity
  8
03__ASM_ALL_CURVES
100
AcDbLine
 62
4
  6
CONTINUOUS
 10
10.3545402038
 20
8.9674392343
 11
10.3545402038
 21
8.9986499019
  0
LINE
  5
381
100
AcDbEntity
  8
03__ASM_ALL_CURVES
100
AcDbLine
 62
4
  6
CONTINUOUS
 10
10.4013562038
 20
8.9986499019
 11
10.4013562038
 21
8.9674392343
  0
LINE
  5
382
100
AcDbEntity
  8
03__ASM_ALL_CURVES
100
AcDbLine
 62
4
  6
CONTINUOUS
 10
10.236345539
 20
8.4739205667
 11
10.259753539
 21
8.4797725667
  0
LINE
  5
383
100
AcDbEntity
  8
03__ASM_ALL_CURVES
100
AcDbLine
 62
4
  6
CONTINUOUS
 10
13.893345539
 20
7.9004245667
 11
13.916753539
 21
7.8945725667
  0
LINE
  5
384
100
AcDbEntity
  8
03__ASM_ALL_CURVES
100
AcDbLine
 62
4
  6
CONTINUOUS
 10
11.7443588714
 20
8.4797725667
 11
11.76776687
 21
8.4739205667
  0
LINE
  5
385
100
AcDbEntity
  8
03__ASM_ALL_CURVES
100
AcDbLine
 62
4
  6
CONTINUOUS
 10
13.9323588714
 20
8.0057605667
 11
13.9089508686
 21
8.0116125667
  0
LINE
  5
386
100
AcDbEntity
  8
03__ASM_ALL_CURVES
100
AcDbLine
 62
4
  6
CONTINUOUS
 10
13.7872268714
 20
8.1052445667
 11
13.81063487
 21
8.0993925667
  0
LINE
  5
387
100
AcDbEntity
  8
03__ASM_ALL_CURVES
100
AcDbLine
 62
4
  6
CONTINUOUS
 10
13.7638188686
 20
7.6370845667
 11
13.7326082038
 21
7.6487885667
  0
LINE
  5
388
100
AcDbEntity
  8
03__ASM_ALL_CURVES
100
AcDbLine
 62
4
  6
CONTINUOUS
 10
13.9089508686
 20
7.6019725667
 11
13.893345539
 21
7.6078245667
  0
LINE
  5
389
100
AcDbEntity
  8
03__ASM_ALL_CURVES
100
AcDbLine
 62
4
  6
CONTINUOUS
 10
13.9089508686
 20
7.6487885667
 11
13.9245562038
 21
7.6429365667
  0
LINE
  5
38A
100
AcDbEntity
  8
03__ASM_ALL_CURVES
100
AcDbLine
 62
4
  6
CONTINUOUS
 10
13.9401615362
 20
7.6487885667
 11
13.95576687
 21
7.6429365667
  0
LINE
  5
38B
100
AcDbEntity
  8
03__ASM_ALL_CURVES
100
AcDbLine
 62
4
  6
CONTINUOUS
 10
11.6897402038
 20
8.3919925667
 11
11.7599642038
 21
8.3510285667
  0
LINE
  5
38C
100
AcDbEntity
  8
03__ASM_ALL_CURVES
100
AcDbLine
 62
4
  6
CONTINUOUS
 10
9.3095522038
 20
9.6862285667
 11
9.2978482038
 21
9.6940312336
  0
LINE
  5
38D
100
AcDbEntity
  8
03__ASM_ALL_CURVES
100
AcDbLine
 62
4
  6
CONTINUOUS
 10
10.3779482038
 20
9.0298605667
 11
10.3896522038
 21
9.0220579019
  0
LINE
  5
38E
100
AcDbEntity
  8
03__ASM_ALL_CURVES
100
AcDbLine
 62
4
  6
CONTINUOUS
 10
9.3095522038
 20
9.7798605667
 11
9.3212562038
 21
9.7720579019
  0
LINE
  5
38F
100
AcDbEntity
  8
03__ASM_ALL_CURVES
100
AcDbLine
 62
4
  6
CONTINUOUS
 10
9.4968162038
 20
9.6862285667
 11
9.4851122038
 21
9.6940312336
  0
LINE
  5
390
100
AcDbEntity
  8
03__ASM_ALL_CURVES
100
AcDbLine
 62
4
  6
CONTINUOUS
 10
9.4968162038
 20
9.7798605667
 11
9.5085202038
 21
9.7720579019
  0
LINE
  5
391
100
AcDbEntity
  8
03__ASM_ALL_CURVES
100
AcDbLine
 62
4
  6
CONTINUOUS
 10
11.705345539
 20
8.0759845667
 11
11.6975428686
 21
8.0818365667
  0
LINE
  5
392
100
AcDbEntity
  8
03__ASM_ALL_CURVES
100
AcDbLine
 62
4
  6
CONTINUOUS
 10
11.76776687
 20
8.1110965667
 11
11.7755695369
 21
8.1052445667
  0
LINE
  5
393
100
AcDbEntity
  8
03__ASM_ALL_CURVES
100
AcDbLine
 62
4
  6
CONTINUOUS
 10
11.705345539
 20
8.2632485667
 11
11.6975428686
 21
8.2691005667
  0
LINE
  5
394
100
AcDbEntity
  8
03__ASM_ALL_CURVES
100
AcDbLine
 62
4
  6
CONTINUOUS
 10
8.6716842038
 20
11.3970579019
 11
8.6775362038
 21
11.3892552315
  0
LINE
  5
395
100
AcDbEntity
  8
03__ASM_ALL_CURVES
100
AcDbLine
 62
4
  6
CONTINUOUS
 10
8.7623902038
 20
11.3229325671
 11
8.7711682038
 21
11.3112285667
  0
LINE
  5
396
100
AcDbEntity
  8
03__ASM_ALL_CURVES
100
AcDbLine
 62
4
  6
CONTINUOUS
 10
8.8238362038
 20
11.3190312336
 11
8.8179842038
 21
11.3268339005
  0
LINE
  5
397
100
AcDbEntity
  8
03__ASM_ALL_CURVES
100
AcDbLine
 62
4
  6
CONTINUOUS
 10
8.8589482038
 20
11.3580445667
 11
8.8706522038
 21
11.3424392343
  0
LINE
  5
398
100
AcDbEntity
  8
03__ASM_ALL_CURVES
100
AcDbLine
 62
4
  6
CONTINUOUS
 10
8.8589482038
 20
11.3970579019
 11
8.8648002038
 21
11.3892552315
  0
LINE
  5
399
100
AcDbEntity
  8
03__ASM_ALL_CURVES
100
AcDbLine
 62
4
  6
CONTINUOUS
 10
10.9475428686
 20
8.3627325667
 11
10.9397402038
 21
8.3744365667
  0
LINE
  5
39A
100
AcDbEntity
  8
03__ASM_ALL_CURVES
100
AcDbLine
 62
4
  6
CONTINUOUS
 10
11.0255695369
 20
8.3861405667
 11
11.0333722038
 21
8.3744365667
  0
LINE
  5
39B
100
AcDbEntity
  8
03__ASM_ALL_CURVES
100
AcDbLine
 62
4
  6
CONTINUOUS
 10
11.6975428686
 20
7.4264125667
 11
11.6897402038
 21
7.4381165667
  0
LINE
  5
39C
100
AcDbEntity
  8
03__ASM_ALL_CURVES
100
AcDbLine
 62
4
  6
CONTINUOUS
 10
11.7755695369
 20
7.4498205667
 11
11.7833722038
 21
7.4381165667
  0
LINE
  5
39D
100
AcDbEntity
  8
0
100
AcDbLine
 62
7
  6
CONTINUOUS
 10
10.2718955882
 20
9.6705285325
 11
10.2675562038
 21
9.6780445667
  0
LINE
  5
39E
100
AcDbEntity
  8
03__ASM_ALL_CURVES
100
AcDbLine
 62
4
  6
CONTINUOUS
 10
9.3271082038
 20
11.9830445667
 11
9.3329602038
 21
11.9674392343
  0
LINE
  5
39F
100
AcDbEntity
  8
03__ASM_ALL_CURVES
100
AcDbLine
 62
4
  6
CONTINUOUS
 10
9.5728922038
 20
11.3580445667
 11
9.5670402038
 21
11.3736499019
  0
LINE
  5
3A0
100
AcDbEntity
  8
03__ASM_ALL_CURVES
100
AcDbLine
 62
4
  6
CONTINUOUS
 10
9.6080042038
 20
11.3892552315
 11
9.6138562038
 21
11.3736499019
  0
LINE
  5
3A1
100
AcDbEntity
  8
03__ASM_ALL_CURVES
100
AcDbLine
 62
4
  6
CONTINUOUS
 10
9.6899322038
 20
12.0142552315
 11
9.6957842038
 21
11.9908472315
  0
LINE
  5
3A2
100
AcDbEntity
  8
0
100
AcDbLine
 62
7
  6
CONTINUOUS
 10
10.7370562038
 20
11.4205606007
 11
10.7370562038
 21
11.3909468144
  0
LINE
  5
3A3
100
AcDbEntity
  8
0
100
AcDbLine
 62
7
  6
CONTINUOUS
 10
10.7370562038
 20
9.6705285327
 11
10.7370562038
 21
9.7001423191
  0
LINE
  5
3A4
100
AcDbEntity
  8
0
100
AcDbLine
 62
7
  6
CONTINUOUS
 10
10.7370562038
 20
10.0784307804
 11
10.7370562038
 21
10.137658353
  0
LINE
  5
3A5
100
AcDbEntity
  8
0
100
AcDbLine
 62
7
  6
CONTINUOUS
 10
10.7370562038
 20
10.5159468144
 11
10.7370562038
 21
10.5751423191
  0
LINE
  5
3A6
100
AcDbEntity
  8
0
100
AcDbLine
 62
7
  6
CONTINUOUS
 10
10.7370562038
 20
10.9534307804
 11
10.7370562038
 21
11.012658353
  0
LINE
  5
3A7
100
AcDbEntity
  8
03__ASM_ALL_CURVES
100
AcDbLine
 62
4
  6
CONTINUOUS
 10
10.3545402038
 20
8.9986499019
 11
10.3603922038
 21
9.0142552315
  0
LINE
  5
3A8
100
AcDbEntity
  8
03__ASM_ALL_CURVES
100
AcDbLine
 62
4
  6
CONTINUOUS
 10
10.4013562038
 20
8.9674392343
 11
10.3955042038
 21
8.9518339005
  0
LINE
  5
3A9
100
AcDbEntity
  8
03__ASM_ALL_CURVES
100
AcDbLine
 62
4
  6
CONTINUOUS
 10
10.8929242038
 20
8.9830445667
 11
10.6120282038
 21
8.9830445667
  0
LINE
  5
3AA
100
AcDbEntity
  8
0
100
AcDbLine
 62
7
  6
CONTINUOUS
 10
10.9865562038
 20
8.9830445667
 11
13.9245561676
 21
8.9830445667
  0
LINE
  5
3AB
100
AcDbEntity
  8
03__ASM_ALL_CURVES
100
AcDbLine
 62
4
  6
CONTINUOUS
 10
13.748213539
 20
8.2749525667
 11
13.771621539
 21
8.2691005667
  0
LINE
  5
3AC
100
AcDbEntity
  8
03__ASM_ALL_CURVES
100
AcDbLine
 62
4
  6
CONTINUOUS
 10
13.9479642038
 20
8.3568805667
 11
13.9713722038
 21
8.3510285667
  0
LINE
  5
3AD
100
AcDbEntity
  8
03__ASM_ALL_CURVES
100
AcDbLine
 62
4
  6
CONTINUOUS
 10
13.7638188686
 20
7.9765005667
 11
13.748213539
 21
7.9823525667
  0
LINE
  5
3AE
100
AcDbEntity
  8
03__ASM_ALL_CURVES
100
AcDbLine
 62
4
  6
CONTINUOUS
 10
13.7638188686
 20
8.0233165667
 11
13.7794242038
 21
8.0174645667
  0
LINE
  5
3AF
100
AcDbEntity
  8
03__ASM_ALL_CURVES
100
AcDbLine
 62
4
  6
CONTINUOUS
 10
13.7950295362
 20
8.0233165667
 11
13.81063487
 21
8.0174645667
  0
LINE
  5
3B0
100
AcDbEntity
  8
03__ASM_ALL_CURVES
100
AcDbLine
 62
4
  6
CONTINUOUS
 10
13.9089508686
 20
8.0116125667
 11
13.8777402038
 21
8.0233165667
  0
LINE
  5
3B1
100
AcDbEntity
  8
03__ASM_ALL_CURVES
100
AcDbLine
 62
4
  6
CONTINUOUS
 10
9.3095522038
 20
9.7252418991
 11
9.2919962038
 21
9.7330445667
  0
LINE
  5
3B2
100
AcDbEntity
  8
03__ASM_ALL_CURVES
100
AcDbLine
 62
4
  6
CONTINUOUS
 10
11.76776687
 20
8.2983605667
 11
11.7755695369
 21
8.2925085667
  0
LINE
  5
3B3
100
AcDbEntity
  8
03__ASM_ALL_CURVES
100
AcDbLine
 62
4
  6
CONTINUOUS
 10
11.76776687
 20
8.4739205667
 11
11.7833722038
 21
8.4622165667
  0
LINE
  5
3B4
100
AcDbEntity
  8
03__ASM_ALL_CURVES
100
AcDbLine
 62
4
  6
CONTINUOUS
 10
13.748213539
 20
7.0401805667
 11
13.7404108686
 21
7.0460325667
  0
LINE
  5
3B5
100
AcDbEntity
  8
03__ASM_ALL_CURVES
100
AcDbLine
 62
4
  6
CONTINUOUS
 10
9.1164362038
 20
11.3268339005
 11
9.1281402038
 21
11.3112285667
  0
LINE
  5
3B6
100
AcDbEntity
  8
03__ASM_ALL_CURVES
100
AcDbLine
 62
4
  6
CONTINUOUS
 10
8.7302042038
 20
11.9440312336
 11
8.7243522038
 21
11.9518339005
  0
LINE
  5
3B7
100
AcDbEntity
  8
03__ASM_ALL_CURVES
100
AcDbLine
 62
4
  6
CONTINUOUS
 10
9.2042162038
 20
11.3190312336
 11
9.1983642038
 21
11.3268339005
  0
LINE
  5
3B8
100
AcDbEntity
  8
03__ASM_ALL_CURVES
100
AcDbLine
 62
4
  6
CONTINUOUS
 10
8.7653162038
 20
11.9830445667
 11
8.7770202038
 21
11.9674392343
  0
LINE
  5
3B9
100
AcDbEntity
  8
03__ASM_ALL_CURVES
100
AcDbLine
 62
4
  6
CONTINUOUS
 10
9.2276242038
 20
11.3970579019
 11
9.2334762038
 21
11.3892552315
  0
LINE
  5
3BA
100
AcDbEntity
  8
03__ASM_ALL_CURVES
100
AcDbLine
 62
4
  6
CONTINUOUS
 10
8.7653162038
 20
12.0220579019
 11
8.7711682038
 21
12.0142552315
  0
LINE
  5
3BB
100
AcDbEntity
  8
03__ASM_ALL_CURVES
100
AcDbLine
 62
4
  6
CONTINUOUS
 10
9.2978482038
 20
11.3190312336
 11
9.2919962038
 21
11.3268339005
  0
LINE
  5
3BC
100
AcDbEntity
  8
03__ASM_ALL_CURVES
100
AcDbLine
 62
4
  6
CONTINUOUS
 10
11.728753539
 20
7.7014565667
 11
11.7209508686
 21
7.7131605667
  0
LINE
  5
3BD
100
AcDbEntity
  8
03__ASM_ALL_CURVES
100
AcDbLine
 62
4
  6
CONTINUOUS
 10
11.7755695369
 20
7.7365685667
 11
11.7833722038
 21
7.7248645667
  0
LINE
  5
3BE
100
AcDbEntity
  8
03__ASM_ALL_CURVES
100
AcDbLine
 62
4
  6
CONTINUOUS
 10
9.5728922038
 20
11.9830445667
 11
9.5670402038
 21
11.9986499019
  0
LINE
  5
3BF
100
AcDbEntity
  8
03__ASM_ALL_CURVES
100
AcDbLine
 62
4
  6
CONTINUOUS
 10
9.6080042038
 20
12.0142552315
 11
9.6138562038
 21
11.9986499019
  0
LINE
  5
3C0
100
AcDbEntity
  8
0
100
AcDbLine
 62
7
  6
CONTINUOUS
 10
10.7985562038
 20
9.6805445667
 11
10.7985562038
 21
10.5355445667
  0
LINE
  5
3C1
100
AcDbEntity
  8
0
100
AcDbLine
 62
7
  6
CONTINUOUS
 10
10.7985562038
 20
10.5555445667
 11
10.7985562038
 21
11.4105445667
  0
LINE
  5
3C2
100
AcDbEntity
  8
0
100
AcDbLine
 62
7
  6
CONTINUOUS
 10
10.9865562038
 20
11.9830445667
 11
10.9865562038
 21
8.9830445667
  0
LINE
  5
3C3
100
AcDbEntity
  8
03__ASM_ALL_CURVES
100
AcDbLine
 62
4
  6
CONTINUOUS
 10
10.9865562038
 20
8.8894125667
 11
10.9865562038
 21
8.6085165667
  0
LINE
  5
3C4
100
AcDbEntity
  8
03__ASM_ALL_CURVES
100
AcDbLine
 62
4
  6
CONTINUOUS
 10
10.3603922038
 20
9.0142552315
 11
10.3662442038
 21
9.0220579019
  0
LINE
  5
3C5
100
AcDbEntity
  8
03__ASM_ALL_CURVES
100
AcDbLine
 62
4
  6
CONTINUOUS
 10
10.3955042038
 20
8.9518339005
 11
10.3896522038
 21
8.9440312336
  0
LINE
  5
3C6
100
AcDbEntity
  8
0
100
AcDbLine
 62
7
  6
CONTINUOUS
 10
10.7985562038
 20
9.6805445667
 11
10.7885102724
 21
9.6704986353
  0
LINE
  5
3C7
100
AcDbEntity
  8
03__ASM_ALL_CURVES
100
AcDbLine
 62
4
  6
CONTINUOUS
 10
13.9323588714
 20
8.4797725667
 11
13.95576687
 21
8.4739205667
  0
LINE
  5
3C8
100
AcDbEntity
  8
03__ASM_ALL_CURVES
100
AcDbLine
 62
4
  6
CONTINUOUS
 10
13.7872268714
 20
8.5734045667
 11
13.81063487
 21
8.5675525667
  0
LINE
  5
3C9
100
AcDbEntity
  8
03__ASM_ALL_CURVES
100
AcDbLine
 62
4
  6
CONTINUOUS
 10
13.7872268714
 20
7.0577365667
 11
13.8028322038
 21
7.0460325667
  0
LINE
  5
3CA
100
AcDbEntity
  8
03__ASM_ALL_CURVES
100
AcDbLine
 62
4
  6
CONTINUOUS
 10
13.7638188686
 20
7.0869965667
 11
13.771621539
 21
7.0811445667
  0
LINE
  5
3CB
100
AcDbEntity
  8
03__ASM_ALL_CURVES
100
AcDbLine
 62
4
  6
CONTINUOUS
 10
13.748213539
 20
7.2274445667
 11
13.7404108686
 21
7.2332965667
  0
LINE
  5
3CC
100
AcDbEntity
  8
03__ASM_ALL_CURVES
100
AcDbLine
 62
4
  6
CONTINUOUS
 10
13.7950295362
 20
7.2215925667
 11
13.7794242038
 21
7.2332965667
  0
LINE
  5
3CD
100
AcDbEntity
  8
03__ASM_ALL_CURVES
100
AcDbLine
 62
4
  6
CONTINUOUS
 10
13.7560162038
 20
7.2742605667
 11
13.7638188686
 21
7.2684085667
  0
LINE
  5
3CE
100
AcDbEntity
  8
03__ASM_ALL_CURVES
100
AcDbLine
 62
4
  6
CONTINUOUS
 10
13.8028322038
 20
7.2801125667
 11
13.8184375369
 21
7.2684085667
  0
LINE
  5
3CF
100
AcDbEntity
  8
03__ASM_ALL_CURVES
100
AcDbLine
 62
4
  6
CONTINUOUS
 10
8.8560222038
 20
11.9479325671
 11
8.8648002038
 21
11.9362285667
  0
LINE
  5
3D0
100
AcDbEntity
  8
03__ASM_ALL_CURVES
100
AcDbLine
 62
4
  6
CONTINUOUS
 10
9.3212562038
 20
11.3970579019
 11
9.3271082038
 21
11.3892552315
  0
LINE
  5
3D1
100
AcDbEntity
  8
03__ASM_ALL_CURVES
100
AcDbLine
 62
4
  6
CONTINUOUS
 10
8.9233202038
 20
11.9440312336
 11
8.9174682038
 21
11.9518339005
  0
LINE
  5
3D2
100
AcDbEntity
  8
03__ASM_ALL_CURVES
100
AcDbLine
 62
4
  6
CONTINUOUS
 10
9.4178142038
 20
11.3229325671
 11
9.4265922038
 21
11.3112285667
  0
LINE
  5
3D3
100
AcDbEntity
  8
03__ASM_ALL_CURVES
100
AcDbLine
 62
4
  6
CONTINUOUS
 10
8.9467282038
 20
12.0220579019
 11
8.9525802038
 21
12.0142552315
  0
LINE
  5
3D4
100
AcDbEntity
  8
03__ASM_ALL_CURVES
100
AcDbLine
 62
4
  6
CONTINUOUS
 10
9.5787442038
 20
11.3190312336
 11
9.5728922038
 21
11.3268339005
  0
LINE
  5
3D5
100
AcDbEntity
  8
03__ASM_ALL_CURVES
100
AcDbLine
 62
4
  6
CONTINUOUS
 10
9.1164362038
 20
11.9518339005
 11
9.1281402038
 21
11.9362285667
  0
LINE
  5
3D6
100
AcDbEntity
  8
03__ASM_ALL_CURVES
100
AcDbLine
 62
4
  6
CONTINUOUS
 10
11.6975428686
 20
8.0818365667
 11
11.6897402038
 21
8.0935405667
  0
LINE
  5
3D7
100
AcDbEntity
  8
03__ASM_ALL_CURVES
100
AcDbLine
 62
4
  6
CONTINUOUS
 10
11.7755695369
 20
8.1052445667
 11
11.7833722038
 21
8.0935405667
  0
LINE
  5
3D8
100
AcDbEntity
  8
03__ASM_ALL_CURVES
100
AcDbLine
 62
4
  6
CONTINUOUS
 10
11.6975428686
 20
8.2691005667
 11
11.6897402038
 21
8.2808045667
  0
LINE
  5
3D9
100
AcDbEntity
  8
03__ASM_ALL_CURVES
100
AcDbLine
 62
4
  6
CONTINUOUS
 10
11.7755695369
 20
8.2925085667
 11
11.7833722038
 21
8.2808045667
  0
LINE
  5
3DA
100
AcDbEntity
  8
0
100
AcDbLine
 62
7
  6
CONTINUOUS
 10
10.2718955882
 20
10.5455285325
 11
10.2675562038
 21
10.5530445667
  0
LINE
  5
3DB
100
AcDbEntity
  8
03__ASM_ALL_CURVES
100
AcDbLine
 62
4
  6
CONTINUOUS
 10
10.2207402038
 20
8.3802885667
 11
10.2285428686
 21
8.3919925667
  0
LINE
  5
3DC
100
AcDbEntity
  8
03__ASM_ALL_CURVES
100
AcDbLine
 62
4
  6
CONTINUOUS
 10
10.259753539
 20
8.3802885667
 11
10.2675562038
 21
8.3919925667
  0
LINE
  5
3DD
100
AcDbEntity
  8
03__ASM_ALL_CURVES
100
AcDbLine
 62
4
  6
CONTINUOUS
 10
10.2207402038
 20
8.2808045667
 11
10.2285428686
 21
8.2925085667
  0
LINE
  5
3DE
100
AcDbEntity
  8
03__ASM_ALL_CURVES
100
AcDbLine
 62
4
  6
CONTINUOUS
 10
10.3143722038
 20
8.3685845667
 11
10.3065695369
 21
8.3568805667
  0
LINE
  5
3DF
100
AcDbEntity
  8
03__ASM_ALL_CURVES
100
AcDbLine
 62
4
  6
CONTINUOUS
 10
10.3143722038
 20
8.2808045667
 11
10.3065695369
 21
8.2691005667
  0
LINE
  5
3E0
100
AcDbEntity
  8
03__ASM_ALL_CURVES
100
AcDbLine
 62
4
  6
CONTINUOUS
 10
10.2207402038
 20
8.0993925667
 11
10.2285428686
 21
8.1110965667
  0
LINE
  5
3E1
100
AcDbEntity
  8
03__ASM_ALL_CURVES
100
AcDbLine
 62
4
  6
CONTINUOUS
 10
10.259753539
 20
8.0993925667
 11
10.2675562038
 21
8.1110965667
  0
LINE
  5
3E2
100
AcDbEntity
  8
03__ASM_ALL_CURVES
100
AcDbLine
 62
4
  6
CONTINUOUS
 10
10.259753539
 20
8.0876885667
 11
10.2519508686
 21
8.0759845667
  0
LINE
  5
3E3
100
AcDbEntity
  8
03__ASM_ALL_CURVES
100
AcDbLine
 62
4
  6
CONTINUOUS
 10
10.3662442038
 20
9.0220579019
 11
10.3779482038
 21
9.0298605667
  0
LINE
  5
3E4
100
AcDbEntity
  8
03__ASM_ALL_CURVES
100
AcDbLine
 62
4
  6
CONTINUOUS
 10
10.3896522038
 20
8.9440312336
 11
10.3779482038
 21
8.9362285667
  0
LINE
  5
3E5
100
AcDbEntity
  8
03__ASM_ALL_CURVES
100
AcDbLine
 62
4
  6
CONTINUOUS
 10
13.893345539
 20
7.4147085667
 11
13.8855428686
 21
7.4205605667
  0
LINE
  5
3E6
100
AcDbEntity
  8
03__ASM_ALL_CURVES
100
AcDbLine
 62
4
  6
CONTINUOUS
 10
13.7326082038
 20
7.5376005667
 11
13.748213539
 21
7.5258965667
  0
LINE
  5
3E7
100
AcDbEntity
  8
03__ASM_ALL_CURVES
100
AcDbLine
 62
4
  6
CONTINUOUS
 10
13.9323588714
 20
7.4322645667
 11
13.9479642038
 21
7.4205605667
  0
LINE
  5
3E8
100
AcDbEntity
  8
03__ASM_ALL_CURVES
100
AcDbLine
 62
4
  6
CONTINUOUS
 10
13.9089508686
 20
7.4615245667
 11
13.916753539
 21
7.4556725667
  0
LINE
  5
3E9
100
AcDbEntity
  8
03__ASM_ALL_CURVES
100
AcDbLine
 62
4
  6
CONTINUOUS
 10
9.6021522038
 20
11.3970579019
 11
9.6080042038
 21
11.3892552315
  0
LINE
  5
3EA
100
AcDbEntity
  8
03__ASM_ALL_CURVES
100
AcDbLine
 62
4
  6
CONTINUOUS
 10
9.6782282038
 20
11.4048605667
 11
9.6899322038
 21
11.3892552315
  0
LINE
  5
3EB
100
AcDbEntity
  8
03__ASM_ALL_CURVES
100
AcDbLine
 62
4
  6
CONTINUOUS
 10
9.2978482038
 20
11.9440312336
 11
9.2919962038
 21
11.9518339005
  0
LINE
  5
3EC
100
AcDbEntity
  8
03__ASM_ALL_CURVES
100
AcDbLine
 62
4
  6
CONTINUOUS
 10
9.3212562038
 20
12.0220579019
 11
9.3271082038
 21
12.0142552315
  0
LINE
  5
3ED
100
AcDbEntity
  8
03__ASM_ALL_CURVES
100
AcDbLine
 62
4
  6
CONTINUOUS
 10
9.4178142038
 20
11.9479325671
 11
9.4265922038
 21
11.9362285667
  0
LINE
  5
3EE
100
AcDbEntity
  8
03__ASM_ALL_CURVES
100
AcDbLine
 62
4
  6
CONTINUOUS
 10
11.7365562038
 20
8.1110965667
 11
11.7443588714
 21
8.0935405667
  0
LINE
  5
3EF
100
AcDbEntity
  8
0
100
AcDbLine
 62
7
  6
CONTINUOUS
 10
11.4730562038
 20
11.3705445667
 11
11.4730562038
 21
11.1495653504
  0
LINE
  5
3F0
100
AcDbEntity
  8
0
100
AcDbLine
 62
7
  6
CONTINUOUS
 10
11.4730562038
 20
9.7205445667
 11
11.4730562038
 21
9.9404972919
  0
LINE
  5
3F1
100
AcDbEntity
  8
03__ASM_ALL_CURVES
100
AcDbLine
 62
4
  6
CONTINUOUS
 10
10.3143722038
 20
8.0876885667
 11
10.3065695369
 21
8.0759845667
  0
LINE
  5
3F2
100
AcDbEntity
  8
0
100
AcDbLine
 62
7
  6
CONTINUOUS
 10
11.5175562038
 20
9.7650445667
 11
11.4730562038
 21
9.7205445667
  0
LINE
  5
3F3
100
AcDbEntity
  8
0
100
AcDbLine
 62
7
  6
CONTINUOUS
 10
11.7055562038
 20
9.7750445667
 11
11.6955562038
 21
9.7650445667
  0
LINE
  5
3F4
100
AcDbEntity
  8
03__ASM_ALL_CURVES
100
AcDbLine
 62
4
  6
CONTINUOUS
 10
10.2207402038
 20
8.4622165667
 11
10.236345539
 21
8.4739205667
  0
LINE
  5
3F5
100
AcDbEntity
  8
0
100
AcDbLine
 62
7
  6
CONTINUOUS
 10
10.2718955881
 20
9.6705285327
 11
10.7885401756
 21
9.6705285327
  0
LINE
  5
3F6
100
AcDbEntity
  8
0
100
AcDbLine
 62
7
  6
CONTINUOUS
 10
10.9865562038
 20
9.6805445667
 11
10.7985562038
 21
9.6805445667
  0
LINE
  5
3F7
100
AcDbEntity
  8
03__ASM_ALL_CURVES
100
AcDbLine
 62
4
  6
CONTINUOUS
 10
9.4265922038
 20
9.6862285667
 11
9.4178142038
 21
9.6862285667
  0
LINE
  5
3F8
100
AcDbEntity
  8
03__ASM_ALL_CURVES
100
AcDbLine
 62
4
  6
CONTINUOUS
 10
8.9408762038
 20
9.6862285667
 11
8.9291722038
 21
9.6862285667
  0
LINE
  5
3F9
100
AcDbEntity
  8
03__ASM_ALL_CURVES
100
AcDbLine
 62
4
  6
CONTINUOUS
 10
8.7711682038
 20
9.6862285667
 11
8.7623902038
 21
9.6862285667
  0
LINE
  5
3FA
100
AcDbEntity
  8
0
100
AcDbLine
 62
7
  6
CONTINUOUS
 10
10.7370562038
 20
9.7001423191
 11
10.3016198697
 21
9.7001423191
  0
LINE
  5
3FB
100
AcDbEntity
  8
03__ASM_ALL_CURVES
100
AcDbLine
 62
4
  6
CONTINUOUS
 10
9.5670402038
 20
9.7096365667
 11
9.6197082038
 21
9.7096365667
  0
LINE
  5
3FC
100
AcDbEntity
  8
0
100
AcDbLine
 62
7
  6
CONTINUOUS
 10
11.4730562038
 20
9.7205445667
 11
11.4008036994
 21
9.7205445667
  0
LINE
  5
3FD
100
AcDbEntity
  8
03__ASM_ALL_CURVES
100
AcDbLine
 62
4
  6
CONTINUOUS
 10
10.8929242038
 20
9.7330445667
 11
10.1054242038
 21
9.7330445667
  0
LINE
  5
3FE
100
AcDbEntity
  8
03__ASM_ALL_CURVES
100
AcDbLine
 62
4
  6
CONTINUOUS
 10
8.9291722038
 20
9.7486499019
 11
8.9408762038
 21
9.7486499019
  0
LINE
  5
3FF
100
AcDbEntity
  8
0
100
AcDbLine
 62
7
  6
CONTINUOUS
 10
11.6955562038
 20
9.7650445667
 11
11.5175562038
 21
9.7650445667
  0
LINE
  5
400
100
AcDbEntity
  8
03__ASM_ALL_CURVES
100
AcDbLine
 62
4
  6
CONTINUOUS
 10
8.9584322038
 20
9.7798605667
 11
8.9233202038
 21
9.7798605667
  0
LINE
  5
401
100
AcDbEntity
  8
03__ASM_ALL_CURVES
100
AcDbLine
 62
4
  6
CONTINUOUS
 10
8.8648002038
 20
9.7798605667
 11
8.8179842038
 21
9.7798605667
  0
LINE
  5
402
100
AcDbEntity
  8
03__ASM_ALL_CURVES
100
AcDbLine
 62
4
  6
CONTINUOUS
 10
13.8777402038
 20
8.1110965667
 11
13.9479642038
 21
8.0701325667
  0
LINE
  5
403
100
AcDbEntity
  8
03__ASM_ALL_CURVES
100
AcDbLine
 62
4
  6
CONTINUOUS
 10
13.8777402038
 20
8.2983605667
 11
13.9479642038
 21
8.2573965667
  0
LINE
  5
404
100
AcDbEntity
  8
03__ASM_ALL_CURVES
100
AcDbLine
 62
4
  6
CONTINUOUS
 10
8.6599802038
 20
11.4048605667
 11
8.6716842038
 21
11.3970579019
  0
LINE
  5
405
100
AcDbEntity
  8
03__ASM_ALL_CURVES
100
AcDbLine
 62
4
  6
CONTINUOUS
 10
8.8355402038
 20
11.3112285667
 11
8.8238362038
 21
11.3190312336
  0
LINE
  5
406
100
AcDbEntity
  8
03__ASM_ALL_CURVES
100
AcDbLine
 62
4
  6
CONTINUOUS
 10
8.8472442038
 20
11.3658472315
 11
8.8589482038
 21
11.3580445667
  0
LINE
  5
407
100
AcDbEntity
  8
03__ASM_ALL_CURVES
100
AcDbLine
 62
4
  6
CONTINUOUS
 10
8.8472442038
 20
11.4048605667
 11
8.8589482038
 21
11.3970579019
  0
LINE
  5
408
100
AcDbEntity
  8
03__ASM_ALL_CURVES
100
AcDbLine
 62
4
  6
CONTINUOUS
 10
13.748213539
 20
7.6956045667
 11
13.7404108686
 21
7.7014565667
  0
LINE
  5
409
100
AcDbEntity
  8
03__ASM_ALL_CURVES
100
AcDbLine
 62
4
  6
CONTINUOUS
 10
13.893345539
 20
7.6078245667
 11
13.8855428686
 21
7.6136765667
  0
LINE
  5
40A
100
AcDbEntity
  8
03__ASM_ALL_CURVES
100
AcDbLine
 62
4
  6
CONTINUOUS
 10
13.7872268714
 20
7.7131605667
 11
13.8028322038
 21
7.7014565667
  0
LINE
  5
40B
100
AcDbEntity
  8
03__ASM_ALL_CURVES
100
AcDbLine
 62
4
  6
CONTINUOUS
 10
13.7638188686
 20
7.7424205667
 11
13.771621539
 21
7.7365685667
  0
LINE
  5
40C
100
AcDbEntity
  8
03__ASM_ALL_CURVES
100
AcDbLine
 62
4
  6
CONTINUOUS
 10
13.95576687
 20
7.6429365667
 11
13.9635695369
 21
7.6370845667
  0
LINE
  5
40D
100
AcDbEntity
  8
03__ASM_ALL_CURVES
100
AcDbLine
 62
4
  6
CONTINUOUS
 10
13.9011482038
 20
7.7424205667
 11
13.9089508686
 21
7.7365685667
  0
LINE
  5
40E
100
AcDbEntity
  8
03__ASM_ALL_CURVES
100
AcDbLine
 62
4
  6
CONTINUOUS
 10
13.748213539
 20
7.8828685667
 11
13.7404108686
 21
7.8887205667
  0
LINE
  5
40F
100
AcDbEntity
  8
03__ASM_ALL_CURVES
100
AcDbLine
 62
4
  6
CONTINUOUS
 10
13.9479642038
 20
7.7482725667
 11
13.9635695369
 21
7.7365685667
  0
LINE
  5
410
100
AcDbEntity
  8
03__ASM_ALL_CURVES
100
AcDbLine
 62
4
  6
CONTINUOUS
 10
13.7950295362
 20
7.8770165667
 11
13.7794242038
 21
7.8887205667
  0
LINE
  5
411
100
AcDbEntity
  8
03__ASM_ALL_CURVES
100
AcDbLine
 62
4
  6
CONTINUOUS
 10
13.7560162038
 20
7.9296845667
 11
13.7638188686
 21
7.9238325667
  0
LINE
  5
412
100
AcDbEntity
  8
03__ASM_ALL_CURVES
100
AcDbLine
 62
4
  6
CONTINUOUS
 10
13.8028322038
 20
7.9355365667
 11
13.8184375369
 21
7.9238325667
  0
LINE
  5
413
100
AcDbEntity
  8
03__ASM_ALL_CURVES
100
AcDbLine
 62
4
  6
CONTINUOUS
 10
13.748213539
 20
7.9823525667
 11
13.7404108686
 21
7.9882045667
  0
LINE
  5
414
100
AcDbEntity
  8
03__ASM_ALL_CURVES
100
AcDbLine
 62
4
  6
CONTINUOUS
 10
9.5787442038
 20
11.9440312336
 11
9.5728922038
 21
11.9518339005
  0
LINE
  5
415
100
AcDbEntity
  8
03__ASM_ALL_CURVES
100
AcDbLine
 62
4
  6
CONTINUOUS
 10
9.6021522038
 20
12.0220579019
 11
9.6080042038
 21
12.0142552315
  0
LINE
  5
416
100
AcDbEntity
  8
03__ASM_ALL_CURVES
100
AcDbLine
 62
4
  6
CONTINUOUS
 10
9.6782282038
 20
12.0298605667
 11
9.6899322038
 21
12.0142552315
  0
LINE
  5
417
100
AcDbEntity
  8
0
100
AcDbLine
 62
7
  6
CONTINUOUS
 10
11.5175562038
 20
11.3260445667
 11
11.5175562038
 21
11.1032231141
  0
LINE
  5
418
100
AcDbEntity
  8
0
100
AcDbLine
 62
7
  6
CONTINUOUS
 10
11.5175562038
 20
9.7650445667
 11
11.5175562038
 21
9.987105362
  0
LINE
  5
419
100
AcDbEntity
  8
03__ASM_ALL_CURVES
100
AcDbLine
 62
4
  6
CONTINUOUS
 10
11.6897402038
 20
7.7424205667
 11
11.6897402038
 21
7.7073085667
  0
LINE
  5
41A
100
AcDbEntity
  8
03__ASM_ALL_CURVES
100
AcDbLine
 62
4
  6
CONTINUOUS
 10
11.6897402038
 20
7.6487885667
 11
11.6897402038
 21
7.6019725667
  0
LINE
  5
41B
100
AcDbEntity
  8
0
100
AcDbLine
 62
7
  6
CONTINUOUS
 10
11.6955562038
 20
9.7650445667
 11
11.6955562038
 21
10.0655650128
  0
LINE
  5
41C
100
AcDbEntity
  8
0
100
AcDbLine
 62
7
  6
CONTINUOUS
 10
11.6955562038
 20
11.0245869523
 11
11.6955562038
 21
11.3260445667
  0
LINE
  5
41D
100
AcDbEntity
  8
0
100
AcDbLine
 62
7
  6
CONTINUOUS
 10
11.7055562038
 20
9.7750445667
 11
11.7055562038
 21
10.0664136845
  0
LINE
  5
41E
100
AcDbEntity
  8
0
100
AcDbLine
 62
7
  6
CONTINUOUS
 10
11.7055562038
 20
11.0235074032
 11
11.7055562038
 21
11.3160445667
  0
LINE
  5
41F
100
AcDbEntity
  8
03__ASM_ALL_CURVES
100
AcDbLine
 62
4
  6
CONTINUOUS
 10
11.7209508686
 20
7.7131605667
 11
11.7209508686
 21
7.7248645667
  0
LINE
  5
420
100
AcDbEntity
  8
03__ASM_ALL_CURVES
100
AcDbLine
 62
4
  6
CONTINUOUS
 10
11.7365562038
 20
8.8894125667
 11
11.7365562038
 21
8.6085165667
  0
LINE
  5
421
100
AcDbEntity
  8
03__ASM_ALL_CURVES
100
AcDbLine
 62
4
  6
CONTINUOUS
 10
11.7599642038
 20
8.3510285667
 11
11.7599642038
 21
8.4036965667
  0
LINE
  5
422
100
AcDbEntity
  8
03__ASM_ALL_CURVES
100
AcDbLine
 62
4
  6
CONTINUOUS
 10
10.2207402038
 20
7.4381165667
 11
10.2285428686
 21
7.4498205667
  0
LINE
  5
423
100
AcDbEntity
  8
03__ASM_ALL_CURVES
100
AcDbLine
 62
4
  6
CONTINUOUS
 10
10.3143722038
 20
7.4381165667
 11
10.3065695369
 21
7.4264125667
  0
LINE
  5
424
100
AcDbEntity
  8
03__ASM_ALL_CURVES
100
AcDbLine
 62
4
  6
CONTINUOUS
 10
10.9397402038
 20
8.3744365667
 11
10.9475428686
 21
8.3861405667
  0
LINE
  5
425
100
AcDbEntity
  8
03__ASM_ALL_CURVES
100
AcDbLine
 62
4
  6
CONTINUOUS
 10
11.0333722038
 20
8.3744365667
 11
11.0255695369
 21
8.3627325667
  0
LINE
  5
426
100
AcDbEntity
  8
03__ASM_ALL_CURVES
100
AcDbLine
 62
4
  6
CONTINUOUS
 10
10.2285428686
 20
8.3919925667
 11
10.236345539
 21
8.3978445667
  0
LINE
  5
427
100
AcDbEntity
  8
03__ASM_ALL_CURVES
100
AcDbLine
 62
4
  6
CONTINUOUS
 10
10.2675562038
 20
8.3919925667
 11
10.2831615362
 21
8.4036965667
  0
LINE
  5
428
100
AcDbEntity
  8
03__ASM_ALL_CURVES
100
AcDbLine
 62
4
  6
CONTINUOUS
 10
10.3065695369
 20
8.3568805667
 11
10.29876687
 21
8.3510285667
  0
LINE
  5
429
100
AcDbEntity
  8
03__ASM_ALL_CURVES
100
AcDbLine
 62
4
  6
CONTINUOUS
 10
10.2285428686
 20
8.2925085667
 11
10.236345539
 21
8.2983605667
  0
LINE
  5
42A
100
AcDbEntity
  8
03__ASM_ALL_CURVES
100
AcDbLine
 62
4
  6
CONTINUOUS
 10
10.3065695369
 20
8.2691005667
 11
10.29876687
 21
8.2632485667
  0
LINE
  5
42B
100
AcDbEntity
  8
03__ASM_ALL_CURVES
100
AcDbLine
 62
4
  6
CONTINUOUS
 10
10.3026682035
 20
8.2018025667
 11
10.3143722038
 21
8.2105805667
  0
LINE
  5
42C
100
AcDbEntity
  8
0
100
AcDbLine
 62
7
  6
CONTINUOUS
 10
12.0582689792
 20
9.8275445667
 11
11.7055562038
 21
9.8275445667
  0
LINE
  5
42D
100
AcDbEntity
  8
03__ASM_ALL_CURVES
100
AcDbLine
 62
4
  6
CONTINUOUS
 10
9.2159202038
 20
11.3112285667
 11
9.2042162038
 21
11.3190312336
  0
LINE
  5
42E
100
AcDbEntity
  8
03__ASM_ALL_CURVES
100
AcDbLine
 62
4
  6
CONTINUOUS
 10
9.3095522038
 20
11.3112285667
 11
9.2978482038
 21
11.3190312336
  0
LINE
  5
42F
100
AcDbEntity
  8
03__ASM_ALL_CURVES
100
AcDbLine
 62
4
  6
CONTINUOUS
 10
9.2159202038
 20
11.4048605667
 11
9.2276242038
 21
11.3970579019
  0
LINE
  5
430
100
AcDbEntity
  8
03__ASM_ALL_CURVES
100
AcDbLine
 62
4
  6
CONTINUOUS
 10
9.3095522038
 20
11.4048605667
 11
9.3212562038
 21
11.3970579019
  0
LINE
  5
431
100
AcDbEntity
  8
03__ASM_ALL_CURVES
100
AcDbLine
 62
4
  6
CONTINUOUS
 10
13.8777402038
 20
7.9121285667
 11
13.893345539
 21
7.9004245667
  0
LINE
  5
432
100
AcDbEntity
  8
03__ASM_ALL_CURVES
100
AcDbLine
 62
4
  6
CONTINUOUS
 10
13.81063487
 20
8.0174645667
 11
13.8184375369
 21
8.0116125667
  0
LINE
  5
433
100
AcDbEntity
  8
03__ASM_ALL_CURVES
100
AcDbLine
 62
4
  6
CONTINUOUS
 10
13.81063487
 20
8.0993925667
 11
13.8262402038
 21
8.0876885667
  0
LINE
  5
434
100
AcDbEntity
  8
03__ASM_ALL_CURVES
100
AcDbLine
 62
4
  6
CONTINUOUS
 10
13.7326082038
 20
8.2866565667
 11
13.748213539
 21
8.2749525667
  0
LINE
  5
435
100
AcDbEntity
  8
0
100
AcDbLine
 62
7
  6
CONTINUOUS
 10
10.7985562038
 20
10.5355445667
 11
10.7885562038
 21
10.5455445667
  0
LINE
  5
436
100
AcDbEntity
  8
03__ASM_ALL_CURVES
100
AcDbLine
 62
4
  6
CONTINUOUS
 10
11.7833722038
 20
8.2105805667
 11
11.7833722038
 21
8.2018025667
  0
LINE
  5
437
100
AcDbEntity
  8
03__ASM_ALL_CURVES
100
AcDbLine
 62
4
  6
CONTINUOUS
 10
11.7833722038
 20
7.7248645667
 11
11.7833722038
 21
7.7131605667
  0
LINE
  5
438
100
AcDbEntity
  8
03__ASM_ALL_CURVES
100
AcDbLine
 62
4
  6
CONTINUOUS
 10
11.7833722038
 20
7.5551565667
 11
11.7833722038
 21
7.5463785667
  0
LINE
  5
439
100
AcDbEntity
  8
03__ASM_ALL_CURVES
100
AcDbLine
 62
4
  6
CONTINUOUS
 10
10.2285428686
 20
8.1110965667
 11
10.236345539
 21
8.1169485667
  0
LINE
  5
43A
100
AcDbEntity
  8
03__ASM_ALL_CURVES
100
AcDbLine
 62
4
  6
CONTINUOUS
 10
10.2675562038
 20
8.1110965667
 11
10.2831615362
 21
8.1228005667
  0
LINE
  5
43B
100
AcDbEntity
  8
03__ASM_ALL_CURVES
100
AcDbLine
 62
4
  6
CONTINUOUS
 10
10.2519508686
 20
8.0759845667
 11
10.2441482038
 21
8.0701325667
  0
LINE
  5
43C
100
AcDbEntity
  8
03__ASM_ALL_CURVES
100
AcDbLine
 62
4
  6
CONTINUOUS
 10
10.3065695369
 20
8.0759845667
 11
10.2909642038
 21
8.0642805667
  0
LINE
  5
43D
100
AcDbEntity
  8
03__ASM_ALL_CURVES
100
AcDbLine
 62
4
  6
CONTINUOUS
 10
10.29876687
 20
7.9004245667
 11
10.3143722038
 21
7.9121285667
  0
LINE
  5
43E
100
AcDbEntity
  8
03__ASM_ALL_CURVES
100
AcDbLine
 62
4
  6
CONTINUOUS
 10
10.9475428686
 20
8.3861405667
 11
10.955345539
 21
8.3919925667
  0
LINE
  5
43F
100
AcDbEntity
  8
0
100
AcDbLine
 62
7
  6
CONTINUOUS
 10
10.7370562038
 20
10.0784307804
 11
10.3016198697
 21
10.0784307804
  0
LINE
  5
440
100
AcDbEntity
  8
0
100
AcDbLine
 62
7
  6
CONTINUOUS
 10
10.7370562038
 20
10.137658353
 11
10.3016198697
 21
10.137658353
  0
LINE
  5
441
100
AcDbEntity
  8
03__ASM_ALL_CURVES
100
AcDbLine
 62
4
  6
CONTINUOUS
 10
9.5904482038
 20
11.3112285667
 11
9.5787442038
 21
11.3190312336
  0
LINE
  5
442
100
AcDbEntity
  8
03__ASM_ALL_CURVES
100
AcDbLine
 62
4
  6
CONTINUOUS
 10
8.7419082038
 20
11.9362285667
 11
8.7302042038
 21
11.9440312336
  0
LINE
  5
443
100
AcDbEntity
  8
03__ASM_ALL_CURVES
100
AcDbLine
 62
4
  6
CONTINUOUS
 10
9.5904482038
 20
11.4048605667
 11
9.6021522038
 21
11.3970579019
  0
LINE
  5
444
100
AcDbEntity
  8
03__ASM_ALL_CURVES
100
AcDbLine
 62
4
  6
CONTINUOUS
 10
8.7536122038
 20
11.9908472315
 11
8.7653162038
 21
11.9830445667
  0
LINE
  5
445
100
AcDbEntity
  8
03__ASM_ALL_CURVES
100
AcDbLine
 62
4
  6
CONTINUOUS
 10
8.7536122038
 20
12.0298605667
 11
8.7653162038
 21
12.0220579019
  0
LINE
  5
446
100
AcDbEntity
  8
03__ASM_ALL_CURVES
100
AcDbLine
 62
4
  6
CONTINUOUS
 10
8.9350242038
 20
11.9362285667
 11
8.9233202038
 21
11.9440312336
  0
LINE
  5
447
100
AcDbEntity
  8
03__ASM_ALL_CURVES
100
AcDbLine
 62
4
  6
CONTINUOUS
 10
13.7404108686
 20
8.4505125667
 11
13.748213539
 21
8.4446605667
  0
LINE
  5
448
100
AcDbEntity
  8
03__ASM_ALL_CURVES
100
AcDbLine
 62
4
  6
CONTINUOUS
 10
13.893345539
 20
8.3510285667
 11
13.8855428686
 21
8.3568805667
  0
LINE
  5
449
100
AcDbEntity
  8
03__ASM_ALL_CURVES
100
AcDbLine
 62
4
  6
CONTINUOUS
 10
13.9323588714
 20
8.3685845667
 11
13.9479642038
 21
8.3568805667
  0
LINE
  5
44A
100
AcDbEntity
  8
03__ASM_ALL_CURVES
100
AcDbLine
 62
4
  6
CONTINUOUS
 10
13.9089508686
 20
8.3978445667
 11
13.916753539
 21
8.3919925667
  0
LINE
  5
44B
100
AcDbEntity
  8
03__ASM_ALL_CURVES
100
AcDbLine
 62
4
  6
CONTINUOUS
 10
13.81063487
 20
8.4914765667
 11
13.8184375369
 21
8.4856245667
  0
LINE
  5
44C
100
AcDbEntity
  8
03__ASM_ALL_CURVES
100
AcDbLine
 62
4
  6
CONTINUOUS
 10
13.81063487
 20
8.5675525667
 11
13.8262402038
 21
8.5558485667
  0
LINE
  5
44D
100
AcDbEntity
  8
03__ASM_ALL_CURVES
100
AcDbLine
 62
4
  6
CONTINUOUS
 10
13.7404108686
 20
7.0460325667
 11
13.7326082038
 21
7.0577365667
  0
LINE
  5
44E
100
AcDbEntity
  8
03__ASM_ALL_CURVES
100
AcDbLine
 62
4
  6
CONTINUOUS
 10
13.771621539
 20
7.0811445667
 11
13.7872268714
 21
7.0577365667
  0
LINE
  5
44F
100
AcDbEntity
  8
03__ASM_ALL_CURVES
100
AcDbLine
 62
4
  6
CONTINUOUS
 10
11.0255695369
 20
8.3627325667
 11
11.01776687
 21
8.3568805667
  0
LINE
  5
450
100
AcDbEntity
  8
03__ASM_ALL_CURVES
100
AcDbLine
 62
4
  6
CONTINUOUS
 10
10.236345539
 20
8.2983605667
 11
10.2519508686
 21
8.3042125667
  0
LINE
  5
451
100
AcDbEntity
  8
03__ASM_ALL_CURVES
100
AcDbLine
 62
4
  6
CONTINUOUS
 10
10.29876687
 20
8.2632485667
 11
10.2831615362
 21
8.2573965667
  0
LINE
  5
452
100
AcDbEntity
  8
03__ASM_ALL_CURVES
100
AcDbLine
 62
4
  6
CONTINUOUS
 10
10.955345539
 20
8.3919925667
 11
10.9709508686
 21
8.3978445667
  0
LINE
  5
453
100
AcDbEntity
  8
0
100
AcDbLine
 62
7
  6
CONTINUOUS
 10
10.7370562038
 20
10.5159468144
 11
10.3016198697
 21
10.5159468144
  0
LINE
  5
454
100
AcDbEntity
  8
0
100
AcDbLine
 62
7
  6
CONTINUOUS
 10
10.9865562038
 20
10.5355445667
 11
10.7985562038
 21
10.5355445667
  0
LINE
  5
455
100
AcDbEntity
  8
0
100
AcDbLine
 62
7
  6
CONTINUOUS
 10
10.2718955881
 20
10.5455285327
 11
10.7885401756
 21
10.5455285327
  0
LINE
  5
456
100
AcDbEntity
  8
03__ASM_ALL_CURVES
100
AcDbLine
 62
4
  6
CONTINUOUS
 10
9.2159202038
 20
11.3658472315
 11
9.2334762038
 21
11.3580445667
  0
LINE
  5
457
100
AcDbEntity
  8
03__ASM_ALL_CURVES
100
AcDbLine
 62
4
  6
CONTINUOUS
 10
9.5904482038
 20
11.3502418991
 11
9.5728922038
 21
11.3580445667
  0
LINE
  5
458
100
AcDbEntity
  8
03__ASM_ALL_CURVES
100
AcDbLine
 62
4
  6
CONTINUOUS
 10
8.9350242038
 20
12.0298605667
 11
8.9467282038
 21
12.0220579019
  0
LINE
  5
459
100
AcDbEntity
  8
03__ASM_ALL_CURVES
100
AcDbLine
 62
4
  6
CONTINUOUS
 10
9.3095522038
 20
11.9362285667
 11
9.2978482038
 21
11.9440312336
  0
LINE
  5
45A
100
AcDbEntity
  8
03__ASM_ALL_CURVES
100
AcDbLine
 62
4
  6
CONTINUOUS
 10
9.3095522038
 20
12.0298605667
 11
9.3212562038
 21
12.0220579019
  0
LINE
  5
45B
100
AcDbEntity
  8
03__ASM_ALL_CURVES
100
AcDbLine
 62
4
  6
CONTINUOUS
 10
13.95576687
 20
8.4739205667
 11
13.9713722038
 21
8.4622165667
  0
LINE
  5
45C
100
AcDbEntity
  8
0
100
AcDbLine
 62
7
  6
CONTINUOUS
 10
10.7985562038
 20
11.4105445667
 11
10.7885102724
 21
11.4205904981
  0
LINE
  5
45D
100
AcDbEntity
  8
03__ASM_ALL_CURVES
100
AcDbLine
 62
4
  6
CONTINUOUS
 10
13.7404108686
 20
7.2332965667
 11
13.7326082038
 21
7.2450005667
  0
LINE
  5
45E
100
AcDbEntity
  8
03__ASM_ALL_CURVES
100
AcDbLine
 62
4
  6
CONTINUOUS
 10
13.7794242038
 20
7.2332965667
 11
13.771621539
 21
7.2450005667
  0
LINE
  5
45F
100
AcDbEntity
  8
03__ASM_ALL_CURVES
100
AcDbLine
 62
4
  6
CONTINUOUS
 10
13.7638188686
 20
7.2684085667
 11
13.771621539
 21
7.2567045667
  0
LINE
  5
460
100
AcDbEntity
  8
03__ASM_ALL_CURVES
100
AcDbLine
 62
4
  6
CONTINUOUS
 10
13.8184375369
 20
7.2684085667
 11
13.8262402038
 21
7.2567045667
  0
LINE
  5
461
100
AcDbEntity
  8
03__ASM_ALL_CURVES
100
AcDbLine
 62
4
  6
CONTINUOUS
 10
11.7443588714
 20
8.0935405667
 11
11.7365562038
 21
8.0759845667
  0
LINE
  5
462
100
AcDbEntity
  8
03__ASM_ALL_CURVES
100
AcDbLine
 62
4
  6
CONTINUOUS
 10
11.6897402038
 20
8.2808045667
 11
11.6975428686
 21
8.2925085667
  0
LINE
  5
463
100
AcDbEntity
  8
03__ASM_ALL_CURVES
100
AcDbLine
 62
4
  6
CONTINUOUS
 10
11.7833722038
 20
8.2808045667
 11
11.7755695369
 21
8.2691005667
  0
LINE
  5
464
100
AcDbEntity
  8
03__ASM_ALL_CURVES
100
AcDbLine
 62
4
  6
CONTINUOUS
 10
11.6897402038
 20
8.0935405667
 11
11.6975428686
 21
8.1052445667
  0
LINE
  5
465
100
AcDbEntity
  8
03__ASM_ALL_CURVES
100
AcDbLine
 62
4
  6
CONTINUOUS
 10
11.7833722038
 20
8.0935405667
 11
11.7755695369
 21
8.0818365667
  0
LINE
  5
466
100
AcDbEntity
  8
03__ASM_ALL_CURVES
100
AcDbLine
 62
4
  6
CONTINUOUS
 10
10.3026682035
 20
7.5463785667
 11
10.3143722038
 21
7.5551565667
  0
LINE
  5
467
100
AcDbEntity
  8
03__ASM_ALL_CURVES
100
AcDbLine
 62
4
  6
CONTINUOUS
 10
10.2285428686
 20
7.4498205667
 11
10.236345539
 21
7.4556725667
  0
LINE
  5
468
100
AcDbEntity
  8
03__ASM_ALL_CURVES
100
AcDbLine
 62
4
  6
CONTINUOUS
 10
10.3065695369
 20
7.4264125667
 11
10.29876687
 21
7.4205605667
  0
LINE
  5
469
100
AcDbEntity
  8
03__ASM_ALL_CURVES
100
AcDbLine
 62
4
  6
CONTINUOUS
 10
11.6897402038
 20
8.4622165667
 11
11.705345539
 21
8.4739205667
  0
LINE
  5
46A
100
AcDbEntity
  8
03__ASM_ALL_CURVES
100
AcDbLine
 62
4
  6
CONTINUOUS
 10
11.01776687
 20
8.3568805667
 11
11.0021615362
 21
8.3510285667
  0
LINE
  5
46B
100
AcDbEntity
  8
0
100
AcDbLine
 62
7
  6
CONTINUOUS
 10
10.9865562038
 20
10.5555445667
 11
10.7985562038
 21
10.5555445667
  0
LINE
  5
46C
100
AcDbEntity
  8
0
100
AcDbLine
 62
7
  6
CONTINUOUS
 10
10.7370562038
 20
10.5751423191
 11
10.3016198697
 21
10.5751423191
  0
LINE
  5
46D
100
AcDbEntity
  8
03__ASM_ALL_CURVES
100
AcDbLine
 62
4
  6
CONTINUOUS
 10
9.5904482038
 20
11.9362285667
 11
9.5787442038
 21
11.9440312336
  0
LINE
  5
46E
100
AcDbEntity
  8
03__ASM_ALL_CURVES
100
AcDbLine
 62
4
  6
CONTINUOUS
 10
9.5904482038
 20
12.0298605667
 11
9.6021522038
 21
12.0220579019
  0
LINE
  5
46F
100
AcDbEntity
  8
03__ASM_ALL_CURVES
100
AcDbLine
 62
4
  6
CONTINUOUS
 10
13.8855428686
 20
7.4205605667
 11
13.8777402038
 21
7.4322645667
  0
LINE
  5
470
100
AcDbEntity
  8
03__ASM_ALL_CURVES
100
AcDbLine
 62
4
  6
CONTINUOUS
 10
13.7404108686
 20
7.7014565667
 11
13.7326082038
 21
7.7131605667
  0
LINE
  5
471
100
AcDbEntity
  8
03__ASM_ALL_CURVES
100
AcDbLine
 62
4
  6
CONTINUOUS
 10
13.916753539
 20
7.4556725667
 11
13.9323588714
 21
7.4322645667
  0
LINE
  5
472
100
AcDbEntity
  8
03__ASM_ALL_CURVES
100
AcDbLine
 62
4
  6
CONTINUOUS
 10
13.771621539
 20
7.7365685667
 11
13.7872268714
 21
7.7131605667
  0
LINE
  5
473
100
AcDbEntity
  8
03__ASM_ALL_CURVES
100
AcDbLine
 62
4
  6
CONTINUOUS
 10
13.8855428686
 20
7.6136765667
 11
13.8777402038
 21
7.6253805667
  0
LINE
  5
474
100
AcDbEntity
  8
03__ASM_ALL_CURVES
100
AcDbLine
 62
4
  6
CONTINUOUS
 10
13.7404108686
 20
7.8887205667
 11
13.7326082038
 21
7.9004245667
  0
LINE
  5
475
100
AcDbEntity
  8
03__ASM_ALL_CURVES
100
AcDbLine
 62
4
  6
CONTINUOUS
 10
13.8855428686
 20
7.7014565667
 11
13.8777402038
 21
7.7131605667
  0
LINE
  5
476
100
AcDbEntity
  8
03__ASM_ALL_CURVES
100
AcDbLine
 62
4
  6
CONTINUOUS
 10
13.7794242038
 20
7.8887205667
 11
13.771621539
 21
7.9004245667
  0
LINE
  5
477
100
AcDbEntity
  8
03__ASM_ALL_CURVES
100
AcDbLine
 62
4
  6
CONTINUOUS
 10
13.7638188686
 20
7.9238325667
 11
13.771621539
 21
7.9121285667
  0
LINE
  5
478
100
AcDbEntity
  8
03__ASM_ALL_CURVES
100
AcDbLine
 62
4
  6
CONTINUOUS
 10
13.9635695369
 20
7.6370845667
 11
13.9713722038
 21
7.6253805667
  0
LINE
  5
479
100
AcDbEntity
  8
03__ASM_ALL_CURVES
100
AcDbLine
 62
4
  6
CONTINUOUS
 10
13.7404108686
 20
7.9882045667
 11
13.7326082038
 21
7.9999085667
  0
LINE
  5
47A
100
AcDbEntity
  8
03__ASM_ALL_CURVES
100
AcDbLine
 62
4
  6
CONTINUOUS
 10
13.9089508686
 20
7.7365685667
 11
13.916753539
 21
7.7248645667
  0
LINE
  5
47B
100
AcDbEntity
  8
03__ASM_ALL_CURVES
100
AcDbLine
 62
4
  6
CONTINUOUS
 10
13.8184375369
 20
7.9238325667
 11
13.8262402038
 21
7.9121285667
  0
LINE
  5
47C
100
AcDbEntity
  8
03__ASM_ALL_CURVES
100
AcDbLine
 62
4
  6
CONTINUOUS
 10
11.7209508686
 20
7.7248645667
 11
11.728753539
 21
7.7365685667
  0
LINE
  5
47D
100
AcDbEntity
  8
03__ASM_ALL_CURVES
100
AcDbLine
 62
4
  6
CONTINUOUS
 10
11.7833722038
 20
7.7131605667
 11
11.7755695369
 21
7.7014565667
  0
LINE
  5
47E
100
AcDbEntity
  8
03__ASM_ALL_CURVES
100
AcDbLine
 62
4
  6
CONTINUOUS
 10
11.6975428686
 20
8.2925085667
 11
11.705345539
 21
8.2983605667
  0
LINE
  5
47F
100
AcDbEntity
  8
03__ASM_ALL_CURVES
100
AcDbLine
 62
4
  6
CONTINUOUS
 10
11.7755695369
 20
8.2691005667
 11
11.76776687
 21
8.2632485667
  0
LINE
  5
480
100
AcDbEntity
  8
03__ASM_ALL_CURVES
100
AcDbLine
 62
4
  6
CONTINUOUS
 10
11.7716682035
 20
8.2018025667
 11
11.7833722038
 21
8.2105805667
  0
LINE
  5
481
100
AcDbEntity
  8
03__ASM_ALL_CURVES
100
AcDbLine
 62
4
  6
CONTINUOUS
 10
11.6975428686
 20
8.1052445667
 11
11.705345539
 21
8.1110965667
  0
LINE
  5
482
100
AcDbEntity
  8
03__ASM_ALL_CURVES
100
AcDbLine
 62
4
  6
CONTINUOUS
 10
11.7755695369
 20
8.0818365667
 11
11.76776687
 21
8.0759845667
  0
LINE
  5
483
100
AcDbEntity
  8
03__ASM_ALL_CURVES
100
AcDbLine
 62
4
  6
CONTINUOUS
 10
11.705345539
 20
8.2983605667
 11
11.7209508686
 21
8.3042125667
  0
LINE
  5
484
100
AcDbEntity
  8
03__ASM_ALL_CURVES
100
AcDbLine
 62
4
  6
CONTINUOUS
 10
11.76776687
 20
8.2632485667
 11
11.7521615362
 21
8.2573965667
  0
LINE
  5
485
100
AcDbEntity
  8
03__ASM_ALL_CURVES
100
AcDbLine
 62
4
  6
CONTINUOUS
 10
11.705345539
 20
8.1110965667
 11
11.7209508686
 21
8.1169485667
  0
LINE
  5
486
100
AcDbEntity
  8
0
100
AcDbLine
 62
7
  6
CONTINUOUS
 10
10.7370562038
 20
10.9534307804
 11
10.3016198697
 21
10.9534307804
  0
LINE
  5
487
100
AcDbEntity
  8
0
100
AcDbLine
 62
7
  6
CONTINUOUS
 10
10.7370562038
 20
11.012658353
 11
10.3016198697
 21
11.012658353
  0
LINE
  5
488
100
AcDbEntity
  8
03__ASM_ALL_CURVES
100
AcDbLine
 62
4
  6
CONTINUOUS
 10
9.3095522038
 20
11.9908472315
 11
9.3271082038
 21
11.9830445667
  0
LINE
  5
489
100
AcDbEntity
  8
0
100
AcDbLine
 62
7
  6
CONTINUOUS
 10
11.5175562038
 20
11.3260445667
 11
11.4730562038
 21
11.3705445667
  0
LINE
  5
48A
100
AcDbEntity
  8
03__ASM_ALL_CURVES
100
AcDbLine
 62
4
  6
CONTINUOUS
 10
13.9635695369
 20
7.7365685667
 11
13.9713722038
 21
7.7248645667
  0
LINE
  5
48B
100
AcDbEntity
  8
03__ASM_ALL_CURVES
100
AcDbLine
 62
4
  6
CONTINUOUS
 10
13.8184375369
 20
8.0116125667
 11
13.8262402038
 21
7.9999085667
  0
LINE
  5
48C
100
AcDbEntity
  8
03__ASM_ALL_CURVES
100
AcDbLine
 62
4
  6
CONTINUOUS
 10
13.7326082038
 20
8.4622165667
 11
13.7404108686
 21
8.4505125667
  0
LINE
  5
48D
100
AcDbEntity
  8
03__ASM_ALL_CURVES
100
AcDbLine
 62
4
  6
CONTINUOUS
 10
11.6897402038
 20
7.4381165667
 11
11.6975428686
 21
7.4498205667
  0
LINE
  5
48E
100
AcDbEntity
  8
03__ASM_ALL_CURVES
100
AcDbLine
 62
4
  6
CONTINUOUS
 10
11.7833722038
 20
7.4381165667
 11
11.7755695369
 21
7.4264125667
  0
LINE
  5
48F
100
AcDbEntity
  8
03__ASM_ALL_CURVES
100
AcDbLine
 62
4
  6
CONTINUOUS
 10
11.76776687
 20
7.9004245667
 11
11.7833722038
 21
7.9121285667
  0
LINE
  5
490
100
AcDbEntity
  8
03__ASM_ALL_CURVES
100
AcDbLine
 62
4
  6
CONTINUOUS
 10
11.728753539
 20
7.7365685667
 11
11.7365562038
 21
7.7424205667
  0
LINE
  5
491
100
AcDbEntity
  8
03__ASM_ALL_CURVES
100
AcDbLine
 62
4
  6
CONTINUOUS
 10
11.7365562038
 20
8.0759845667
 11
11.7209508686
 21
8.0701325667
  0
LINE
  5
492
100
AcDbEntity
  8
03__ASM_ALL_CURVES
100
AcDbLine
 62
4
  6
CONTINUOUS
 10
10.236345539
 20
7.4556725667
 11
10.2519508686
 21
7.4615245667
  0
LINE
  5
493
100
AcDbEntity
  8
03__ASM_ALL_CURVES
100
AcDbLine
 62
4
  6
CONTINUOUS
 10
10.29876687
 20
7.4205605667
 11
10.2831615362
 21
7.4147085667
  0
LINE
  5
494
100
AcDbEntity
  8
0
100
AcDbLine
 62
7
  6
CONTINUOUS
 10
12.0589856032
 20
11.2635445667
 11
11.7055562038
 21
11.2635445667
  0
LINE
  5
495
100
AcDbEntity
  8
03__ASM_ALL_CURVES
100
AcDbLine
 62
4
  6
CONTINUOUS
 10
9.5904482038
 20
11.9752418991
 11
9.5728922038
 21
11.9830445667
  0
LINE
  5
496
100
AcDbEntity
  8
0
100
AcDbLine
 62
7
  6
CONTINUOUS
 10
11.7055562038
 20
11.3160445667
 11
11.6955562038
 21
11.3260445667
  0
LINE
  5
497
100
AcDbEntity
  8
03__ASM_ALL_CURVES
100
AcDbLine
 62
4
  6
CONTINUOUS
 10
13.8855428686
 20
8.3568805667
 11
13.8777402038
 21
8.3685845667
  0
LINE
  5
498
100
AcDbEntity
  8
03__ASM_ALL_CURVES
100
AcDbLine
 62
4
  6
CONTINUOUS
 10
13.8184375369
 20
8.4856245667
 11
13.8262402038
 21
8.4739205667
  0
LINE
  5
499
100
AcDbEntity
  8
03__ASM_ALL_CURVES
100
AcDbLine
 62
4
  6
CONTINUOUS
 10
13.916753539
 20
8.3919925667
 11
13.9323588714
 21
8.3685845667
  0
LINE
  5
49A
100
AcDbEntity
  8
03__ASM_ALL_CURVES
100
AcDbLine
 62
4
  6
CONTINUOUS
 10
13.9245562038
 20
7.6429365667
 11
13.9323588714
 21
7.6253805667
  0
LINE
  5
49B
100
AcDbEntity
  8
03__ASM_ALL_CURVES
100
AcDbLine
 62
4
  6
CONTINUOUS
 10
13.7794242038
 20
8.0174645667
 11
13.7872268714
 21
7.9999085667
  0
LINE
  5
49C
100
AcDbEntity
  8
03__ASM_ALL_CURVES
100
AcDbLine
 62
4
  6
CONTINUOUS
 10
11.7755695369
 20
7.7014565667
 11
11.76776687
 21
7.6956045667
  0
LINE
  5
49D
100
AcDbEntity
  8
03__ASM_ALL_CURVES
100
AcDbLine
 62
4
  6
CONTINUOUS
 10
11.7716682035
 20
7.5463785667
 11
11.7833722038
 21
7.5551565667
  0
LINE
  5
49E
100
AcDbEntity
  8
03__ASM_ALL_CURVES
100
AcDbLine
 62
4
  6
CONTINUOUS
 10
11.6975428686
 20
7.4498205667
 11
11.705345539
 21
7.4556725667
  0
LINE
  5
49F
100
AcDbEntity
  8
03__ASM_ALL_CURVES
100
AcDbLine
 62
4
  6
CONTINUOUS
 10
11.7365562038
 20
7.7424205667
 11
11.7521615362
 21
7.7482725667
  0
LINE
  5
4A0
100
AcDbEntity
  8
03__ASM_ALL_CURVES
100
AcDbLine
 62
4
  6
CONTINUOUS
 10
9.4265922038
 20
11.3112285667
 11
9.4178142038
 21
11.3112285667
  0
LINE
  5
4A1
100
AcDbEntity
  8
03__ASM_ALL_CURVES
100
AcDbLine
 62
4
  6
CONTINUOUS
 10
8.8472442038
 20
11.3112285667
 11
8.8355402038
 21
11.3112285667
  0
LINE
  5
4A2
100
AcDbEntity
  8
03__ASM_ALL_CURVES
100
AcDbLine
 62
4
  6
CONTINUOUS
 10
8.7711682038
 20
11.3112285667
 11
8.7623902038
 21
11.3112285667
  0
LINE
  5
4A3
100
AcDbEntity
  8
03__ASM_ALL_CURVES
100
AcDbLine
 62
4
  6
CONTINUOUS
 10
8.6307202038
 20
11.3112285667
 11
8.6775362038
 21
11.3112285667
  0
LINE
  5
4A4
100
AcDbEntity
  8
0
100
AcDbLine
 62
7
  6
CONTINUOUS
 10
11.6955562038
 20
11.3260445667
 11
11.5175562038
 21
11.3260445667
  0
LINE
  5
4A5
100
AcDbEntity
  8
03__ASM_ALL_CURVES
100
AcDbLine
 62
4
  6
CONTINUOUS
 10
10.8929242038
 20
11.3580445667
 11
10.1054242038
 21
11.3580445667
  0
LINE
  5
4A6
100
AcDbEntity
  8
03__ASM_ALL_CURVES
100
AcDbLine
 62
4
  6
CONTINUOUS
 10
8.8355402038
 20
11.3658472315
 11
8.8472442038
 21
11.3658472315
  0
LINE
  5
4A7
100
AcDbEntity
  8
0
100
AcDbLine
 62
7
  6
CONTINUOUS
 10
11.4730562038
 20
11.3705445667
 11
11.4008036994
 21
11.3705445667
  0
LINE
  5
4A8
100
AcDbEntity
  8
0
100
AcDbLine
 62
7
  6
CONTINUOUS
 10
10.7370562038
 20
11.3909468144
 11
10.3016198697
 21
11.3909468144
  0
LINE
  5
4A9
100
AcDbEntity
  8
03__ASM_ALL_CURVES
100
AcDbLine
 62
4
  6
CONTINUOUS
 10
8.9584322038
 20
11.4048605667
 11
8.9116162038
 21
11.4048605667
  0
LINE
  5
4AA
100
AcDbEntity
  8
03__ASM_ALL_CURVES
100
AcDbLine
 62
4
  6
CONTINUOUS
 10
8.6482762038
 20
11.4048605667
 11
8.6599802038
 21
11.4048605667
  0
LINE
  5
4AB
100
AcDbEntity
  8
03__ASM_ALL_CURVES
100
AcDbLine
 62
4
  6
CONTINUOUS
 10
8.8355402038
 20
11.4048605667
 11
8.8472442038
 21
11.4048605667
  0
LINE
  5
4AC
100
AcDbEntity
  8
0
100
AcDbLine
 62
7
  6
CONTINUOUS
 10
10.9865562038
 20
11.4105445667
 11
10.7985562038
 21
11.4105445667
  0
LINE
  5
4AD
100
AcDbEntity
  8
0
100
AcDbLine
 62
7
  6
CONTINUOUS
 10
10.2718955881
 20
11.4205606007
 11
10.7885401756
 21
11.4205606007
  0
LINE
  5
4AE
100
AcDbEntity
  8
03__ASM_ALL_CURVES
100
AcDbLine
 62
4
  6
CONTINUOUS
 10
11.7755695369
 20
7.4264125667
 11
11.76776687
 21
7.4205605667
  0
LINE
  5
4AF
100
AcDbEntity
  8
03__ASM_ALL_CURVES
100
AcDbLine
 62
4
  6
CONTINUOUS
 10
11.705345539
 20
7.4556725667
 11
11.7209508686
 21
7.4615245667
  0
LINE
  5
4B0
100
AcDbEntity
  8
03__ASM_ALL_CURVES
100
AcDbLine
 62
4
  6
CONTINUOUS
 10
11.76776687
 20
7.4205605667
 11
11.7521615362
 21
7.4147085667
  0
LINE
  5
4B1
100
AcDbEntity
  8
03__ASM_ALL_CURVES
100
AcDbLine
 62
4
  6
CONTINUOUS
 10
13.7326082038
 20
8.4739205667
 11
13.7326082038
 21
8.4622165667
  0
LINE
  5
4B2
100
AcDbEntity
  8
03__ASM_ALL_CURVES
100
AcDbLine
 62
4
  6
CONTINUOUS
 10
13.7326082038
 20
7.6487885667
 11
13.7326082038
 21
7.6019725667
  0
LINE
  5
4B3
100
AcDbEntity
  8
03__ASM_ALL_CURVES
100
AcDbLine
 62
4
  6
CONTINUOUS
 10
13.7326082038
 20
7.3678925667
 11
13.7326082038
 21
7.3210765667
  0
LINE
  5
4B4
100
AcDbEntity
  8
03__ASM_ALL_CURVES
100
AcDbLine
 62
4
  6
CONTINUOUS
 10
13.7326082038
 20
7.0577365667
 11
13.7326082038
 21
7.0694405667
  0
LINE
  5
4B5
100
AcDbEntity
  8
03__ASM_ALL_CURVES
100
AcDbLine
 62
4
  6
CONTINUOUS
 10
13.7326082038
 20
7.2450005667
 11
13.7326082038
 21
7.2567045667
  0
LINE
  5
4B6
100
AcDbEntity
  8
03__ASM_ALL_CURVES
100
AcDbLine
 62
4
  6
CONTINUOUS
 10
13.7326082038
 20
7.7131605667
 11
13.7326082038
 21
7.7248645667
  0
LINE
  5
4B7
100
AcDbEntity
  8
03__ASM_ALL_CURVES
100
AcDbLine
 62
4
  6
CONTINUOUS
 10
13.7326082038
 20
7.9004245667
 11
13.7326082038
 21
7.9121285667
  0
LINE
  5
4B8
100
AcDbEntity
  8
03__ASM_ALL_CURVES
100
AcDbLine
 62
4
  6
CONTINUOUS
 10
13.8625562038
 20
8.7957805667
 11
13.7794242038
 21
8.7021485667
  0
LINE
  5
4B9
100
AcDbEntity
  8
03__ASM_ALL_CURVES
100
AcDbLine
 62
4
  6
CONTINUOUS
 10
13.7326082038
 20
8.5558485667
 11
13.748213539
 21
8.5675525667
  0
LINE
  5
4BA
100
AcDbEntity
  8
03__ASM_ALL_CURVES
100
AcDbLine
 62
4
  6
CONTINUOUS
 10
13.748213539
 20
8.4914765667
 11
13.7404108686
 21
8.4856245667
  0
LINE
  5
4BB
100
AcDbEntity
  8
03__ASM_ALL_CURVES
100
AcDbLine
 62
4
  6
CONTINUOUS
 10
13.7872268714
 20
8.4856245667
 11
13.7950295362
 21
8.4914765667
  0
LINE
  5
4BC
100
AcDbEntity
  8
03__ASM_ALL_CURVES
100
AcDbLine
 62
4
  6
CONTINUOUS
 10
13.7560162038
 20
8.4446605667
 11
13.7638188686
 21
8.4505125667
  0
LINE
  5
4BD
100
AcDbEntity
  8
03__ASM_ALL_CURVES
100
AcDbLine
 62
4
  6
CONTINUOUS
 10
13.8184375369
 20
8.4505125667
 11
13.8028322038
 21
8.4388085667
  0
LINE
  5
4BE
100
AcDbEntity
  8
03__ASM_ALL_CURVES
100
AcDbLine
 62
4
  6
CONTINUOUS
 10
13.8777402038
 20
8.4622165667
 11
13.893345539
 21
8.4739205667
  0
LINE
  5
4BF
100
AcDbEntity
  8
03__ASM_ALL_CURVES
100
AcDbLine
 62
4
  6
CONTINUOUS
 10
13.748213539
 20
8.0174645667
 11
13.7638188686
 21
8.0233165667
  0
LINE
  5
4C0
100
AcDbEntity
  8
03__ASM_ALL_CURVES
100
AcDbLine
 62
4
  6
CONTINUOUS
 10
13.7794242038
 20
7.9823525667
 11
13.7638188686
 21
7.9765005667
  0
LINE
  5
4C1
100
AcDbEntity
  8
03__ASM_ALL_CURVES
100
AcDbLine
 62
4
  6
CONTINUOUS
 10
9.4265922038
 20
11.9362285667
 11
9.4178142038
 21
11.9362285667
  0
LINE
  5
4C2
100
AcDbEntity
  8
03__ASM_ALL_CURVES
100
AcDbLine
 62
4
  6
CONTINUOUS
 10
8.8648002038
 20
11.9362285667
 11
8.8560222038
 21
11.9362285667
  0
LINE
  5
4C3
100
AcDbEntity
  8
03__ASM_ALL_CURVES
100
AcDbLine
 62
4
  6
CONTINUOUS
 10
8.7536122038
 20
11.9362285667
 11
8.7419082038
 21
11.9362285667
  0
LINE
  5
4C4
100
AcDbEntity
  8
0
100
AcDbLine
 62
7
  6
CONTINUOUS
 10
13.9245561676
 20
11.9830445667
 11
10.9865562038
 21
11.9830445667
  0
LINE
  5
4C5
100
AcDbEntity
  8
03__ASM_ALL_CURVES
100
AcDbLine
 62
4
  6
CONTINUOUS
 10
10.8929242038
 20
11.9830445667
 11
10.1054242038
 21
11.9830445667
  0
LINE
  5
4C6
100
AcDbEntity
  8
03__ASM_ALL_CURVES
100
AcDbLine
 62
4
  6
CONTINUOUS
 10
8.7419082038
 20
11.9908472315
 11
8.7536122038
 21
11.9908472315
  0
LINE
  5
4C7
100
AcDbEntity
  8
03__ASM_ALL_CURVES
100
AcDbLine
 62
4
  6
CONTINUOUS
 10
9.2393282038
 20
12.0298605667
 11
9.1925122038
 21
12.0298605667
  0
LINE
  5
4C8
100
AcDbEntity
  8
03__ASM_ALL_CURVES
100
AcDbLine
 62
4
  6
CONTINUOUS
 10
8.7419082038
 20
12.0298605667
 11
8.7536122038
 21
12.0298605667
  0
LINE
  5
4C9
100
AcDbEntity
  8
03__ASM_ALL_CURVES
100
AcDbLine
 62
4
  6
CONTINUOUS
 10
13.771621539
 20
7.2450005667
 11
13.771621539
 21
7.2567045667
  0
LINE
  5
4CA
100
AcDbEntity
  8
03__ASM_ALL_CURVES
100
AcDbLine
 62
4
  6
CONTINUOUS
 10
13.771621539
 20
7.9004245667
 11
13.771621539
 21
7.9121285667
  0
LINE
  5
4CB
100
AcDbEntity
  8
03__ASM_ALL_CURVES
100
AcDbLine
 62
4
  6
CONTINUOUS
 10
13.7794242038
 20
8.7021485667
 11
13.7794242038
 21
8.6085165667
  0
LINE
  5
4CC
100
AcDbEntity
  8
03__ASM_ALL_CURVES
100
AcDbLine
 62
4
  6
CONTINUOUS
 10
13.8262402038
 20
8.4739205667
 11
13.8262402038
 21
8.4622165667
  0
LINE
  5
4CD
100
AcDbEntity
  8
03__ASM_ALL_CURVES
100
AcDbLine
 62
4
  6
CONTINUOUS
 10
13.8262402038
 20
7.9121285667
 11
13.8262402038
 21
7.9004245667
  0
LINE
  5
4CE
100
AcDbEntity
  8
03__ASM_ALL_CURVES
100
AcDbLine
 62
4
  6
CONTINUOUS
 10
13.8262402038
 20
7.8360525667
 11
13.8262402038
 21
7.8272745667
  0
LINE
  5
4CF
100
AcDbEntity
  8
03__ASM_ALL_CURVES
100
AcDbLine
 62
4
  6
CONTINUOUS
 10
13.8262402038
 20
7.2567045667
 11
13.8262402038
 21
7.2450005667
  0
LINE
  5
4D0
100
AcDbEntity
  8
03__ASM_ALL_CURVES
100
AcDbLine
 62
4
  6
CONTINUOUS
 10
13.8262402038
 20
7.1806285667
 11
13.8262402038
 21
7.1718505667
  0
LINE
  5
4D1
100
AcDbEntity
  8
03__ASM_ALL_CURVES
100
AcDbLine
 62
4
  6
CONTINUOUS
 10
13.8262402038
 20
7.0401805667
 11
13.8262402038
 21
7.0869965667
  0
LINE
  5
4D2
100
AcDbEntity
  8
03__ASM_ALL_CURVES
100
AcDbLine
 62
4
  6
CONTINUOUS
 10
13.8262402038
 20
7.6956045667
 11
13.8262402038
 21
7.7424205667
  0
LINE
  5
4D3
100
AcDbEntity
  8
03__ASM_ALL_CURVES
100
AcDbLine
 62
4
  6
CONTINUOUS
 10
13.8262402038
 20
8.3510285667
 11
13.8262402038
 21
8.3978445667
  0
LINE
  5
4D4
100
AcDbEntity
  8
03__ASM_ALL_CURVES
100
AcDbLine
 62
4
  6
CONTINUOUS
 10
13.8625562038
 20
8.8894125667
 11
13.8625562038
 21
8.7957805667
  0
LINE
  5
4D5
100
AcDbEntity
  8
03__ASM_ALL_CURVES
100
AcDbLine
 62
4
  6
CONTINUOUS
 10
13.8777402038
 20
8.0233165667
 11
13.8777402038
 21
7.9765005667
  0
LINE
  5
4D6
100
AcDbEntity
  8
03__ASM_ALL_CURVES
100
AcDbLine
 62
4
  6
CONTINUOUS
 10
13.8777402038
 20
7.4322645667
 11
13.8777402038
 21
7.4439685667
  0
LINE
  5
4D7
100
AcDbEntity
  8
03__ASM_ALL_CURVES
100
AcDbLine
 62
4
  6
CONTINUOUS
 10
13.8777402038
 20
7.7131605667
 11
13.8777402038
 21
7.7248645667
  0
LINE
  5
4D8
100
AcDbEntity
  8
03__ASM_ALL_CURVES
100
AcDbLine
 62
4
  6
CONTINUOUS
 10
13.8777402038
 20
8.3685845667
 11
13.8777402038
 21
8.3802885667
  0
LINE
  5
4D9
100
AcDbEntity
  8
03__ASM_ALL_CURVES
100
AcDbLine
 62
4
  6
CONTINUOUS
 10
13.916753539
 20
7.7131605667
 11
13.916753539
 21
7.7248645667
  0
LINE
  5
4DA
100
AcDbEntity
  8
03__ASM_ALL_CURVES
100
AcDbLine
 62
4
  6
CONTINUOUS
 10
13.9245562038
 20
8.8894125667
 11
13.9245562038
 21
8.6085165667
  0
LINE
  5
4DB
100
AcDbEntity
  8
0
100
AcDbLine
 62
7
  6
CONTINUOUS
 10
13.9245561676
 20
8.9830445667
 11
13.9245561676
 21
11.9830445667
  0
LINE
  5
4DC
100
AcDbEntity
  8
03__ASM_ALL_CURVES
100
AcDbLine
 62
4
  6
CONTINUOUS
 10
13.9479642038
 20
8.0701325667
 11
13.9479642038
 21
8.1228005667
  0
LINE
  5
4DD
100
AcDbEntity
  8
03__ASM_ALL_CURVES
100
AcDbLine
 62
4
  6
CONTINUOUS
 10
13.9479642038
 20
8.2573965667
 11
13.9479642038
 21
8.3100645667
  0
LINE
  5
4DE
100
AcDbEntity
  8
03__ASM_ALL_CURVES
100
AcDbLine
 62
4
  6
CONTINUOUS
 10
13.9713722038
 20
8.2105805667
 11
13.9713722038
 21
8.2018025667
  0
LINE
  5
4DF
100
AcDbEntity
  8
03__ASM_ALL_CURVES
100
AcDbLine
 62
4
  6
CONTINUOUS
 10
13.9713722038
 20
7.7248645667
 11
13.9713722038
 21
7.7131605667
  0
LINE
  5
4E0
100
AcDbEntity
  8
03__ASM_ALL_CURVES
100
AcDbLine
 62
4
  6
CONTINUOUS
 10
13.9713722038
 20
7.5551565667
 11
13.9713722038
 21
7.5463785667
  0
LINE
  5
4E1
100
AcDbEntity
  8
03__ASM_ALL_CURVES
100
AcDbLine
 62
4
  6
CONTINUOUS
 10
13.9713722038
 20
7.4147085667
 11
13.9713722038
 21
7.4615245667
  0
LINE
  5
4E2
100
AcDbEntity
  8
03__ASM_ALL_CURVES
100
AcDbLine
 62
4
  6
CONTINUOUS
 10
13.9713722038
 20
8.3510285667
 11
13.9713722038
 21
8.3978445667
  0
LINE
  5
4E3
100
AcDbEntity
  8
03__ASM_ALL_CURVES
100
AcDbLine
 62
4
  6
CONTINUOUS
 10
13.7404108686
 20
8.4856245667
 11
13.7326082038
 21
8.4739205667
  0
LINE
  5
4E4
100
AcDbEntity
  8
03__ASM_ALL_CURVES
100
AcDbLine
 62
4
  6
CONTINUOUS
 10
13.7638188686
 20
8.4505125667
 11
13.7872268714
 21
8.4856245667
  0
LINE
  5
4E5
100
AcDbEntity
  8
03__ASM_ALL_CURVES
100
AcDbLine
 62
4
  6
CONTINUOUS
 10
13.8855428686
 20
8.3919925667
 11
13.893345539
 21
8.3978445667
  0
LINE
  5
4E6
100
AcDbEntity
  8
03__ASM_ALL_CURVES
100
AcDbLine
 62
4
  6
CONTINUOUS
 10
13.81063487
 20
8.2749525667
 11
13.8262402038
 21
8.2866565667
  0
LINE
  5
4E7
100
AcDbEntity
  8
03__ASM_ALL_CURVES
100
AcDbLine
 62
4
  6
CONTINUOUS
 10
13.7326082038
 20
8.0876885667
 11
13.748213539
 21
8.0993925667
  0
LINE
  5
4E8
100
AcDbEntity
  8
03__ASM_ALL_CURVES
100
AcDbLine
 62
4
  6
CONTINUOUS
 10
13.9596682035
 20
8.2018025667
 11
13.9713722038
 21
8.2105805667
  0
LINE
  5
4E9
100
AcDbEntity
  8
03__ASM_ALL_CURVES
100
AcDbLine
 62
4
  6
CONTINUOUS
 10
13.7404108686
 20
8.0116125667
 11
13.748213539
 21
8.0174645667
  0
LINE
  5
4EA
100
AcDbEntity
  8
03__ASM_ALL_CURVES
100
AcDbLine
 62
4
  6
CONTINUOUS
 10
13.893345539
 20
7.6429365667
 11
13.9089508686
 21
7.6487885667
  0
LINE
  5
4EB
100
AcDbEntity
  8
03__ASM_ALL_CURVES
100
AcDbLine
 62
4
  6
CONTINUOUS
 10
13.7872268714
 20
7.9999085667
 11
13.7794242038
 21
7.9823525667
  0
LINE
  5
4EC
100
AcDbEntity
  8
03__ASM_ALL_CURVES
100
AcDbLine
 62
4
  6
CONTINUOUS
 10
13.8262402038
 20
8.4622165667
 11
13.8184375369
 21
8.4505125667
  0
LINE
  5
4ED
100
AcDbEntity
  8
03__ASM_ALL_CURVES
100
AcDbLine
 62
4
  6
CONTINUOUS
 10
13.8777402038
 20
8.3802885667
 11
13.8855428686
 21
8.3919925667
  0
LINE
  5
4EE
100
AcDbEntity
  8
03__ASM_ALL_CURVES
100
AcDbLine
 62
4
  6
CONTINUOUS
 10
13.7326082038
 20
7.9999085667
 11
13.7404108686
 21
8.0116125667
  0
LINE
  5
4EF
100
AcDbEntity
  8
03__ASM_ALL_CURVES
100
AcDbLine
 62
4
  6
CONTINUOUS
 10
13.7326082038
 20
7.9121285667
 11
13.7404108686
 21
7.9238325667
  0
LINE
  5
4F0
100
AcDbEntity
  8
03__ASM_ALL_CURVES
100
AcDbLine
 62
4
  6
CONTINUOUS
 10
13.8184375369
 20
7.9882045667
 11
13.81063487
 21
7.9823525667
  0
LINE
  5
4F1
100
AcDbEntity
  8
03__ASM_ALL_CURVES
100
AcDbLine
 62
4
  6
CONTINUOUS
 10
13.7404108686
 20
7.9238325667
 11
13.748213539
 21
7.9296845667
  0
LINE
  5
4F2
100
AcDbEntity
  8
03__ASM_ALL_CURVES
100
AcDbLine
 62
4
  6
CONTINUOUS
 10
13.7794242038
 20
7.9238325667
 11
13.7950295362
 21
7.9355365667
  0
LINE
  5
4F3
100
AcDbEntity
  8
03__ASM_ALL_CURVES
100
AcDbLine
 62
4
  6
CONTINUOUS
 10
13.7638188686
 20
7.8887205667
 11
13.7560162038
 21
7.8828685667
  0
LINE
  5
4F4
100
AcDbEntity
  8
03__ASM_ALL_CURVES
100
AcDbLine
 62
4
  6
CONTINUOUS
 10
13.8184375369
 20
7.8887205667
 11
13.8028322038
 21
7.8770165667
  0
LINE
  5
4F5
100
AcDbEntity
  8
03__ASM_ALL_CURVES
100
AcDbLine
 62
4
  6
CONTINUOUS
 10
13.8145362035
 20
7.8272745667
 11
13.8262402038
 21
7.8360525667
  0
LINE
  5
4F6
100
AcDbEntity
  8
03__ASM_ALL_CURVES
100
AcDbLine
 62
4
  6
CONTINUOUS
 10
13.95576687
 20
7.9004245667
 11
13.9713722038
 21
7.9121285667
  0
LINE
  5
4F7
100
AcDbEntity
  8
03__ASM_ALL_CURVES
100
AcDbLine
 62
4
  6
CONTINUOUS
 10
13.7404108686
 20
7.7365685667
 11
13.748213539
 21
7.7424205667
  0
LINE
  5
4F8
100
AcDbEntity
  8
03__ASM_ALL_CURVES
100
AcDbLine
 62
4
  6
CONTINUOUS
 10
13.9245562038
 20
7.6078245667
 11
13.9089508686
 21
7.6019725667
  0
LINE
  5
4F9
100
AcDbEntity
  8
03__ASM_ALL_CURVES
100
AcDbLine
 62
4
  6
CONTINUOUS
 10
13.9323588714
 20
7.6253805667
 11
13.9245562038
 21
7.6078245667
  0
LINE
  5
4FA
100
AcDbEntity
  8
03__ASM_ALL_CURVES
100
AcDbLine
 62
4
  6
CONTINUOUS
 10
13.8262402038
 20
7.9999085667
 11
13.8184375369
 21
7.9882045667
  0
LINE
  5
4FB
100
AcDbEntity
  8
03__ASM_ALL_CURVES
100
AcDbLine
 62
4
  6
CONTINUOUS
 10
13.771621539
 20
7.9121285667
 11
13.7794242038
 21
7.9238325667
  0
LINE
  5
4FC
100
AcDbEntity
  8
03__ASM_ALL_CURVES
100
AcDbLine
 62
4
  6
CONTINUOUS
 10
13.771621539
 20
7.9004245667
 11
13.7638188686
 21
7.8887205667
  0
LINE
  5
4FD
100
AcDbEntity
  8
03__ASM_ALL_CURVES
100
AcDbLine
 62
4
  6
CONTINUOUS
 10
13.8262402038
 20
7.9004245667
 11
13.8184375369
 21
7.8887205667
  0
LINE
  5
4FE
100
AcDbEntity
  8
03__ASM_ALL_CURVES
100
AcDbLine
 62
4
  6
CONTINUOUS
 10
13.7326082038
 20
7.7248645667
 11
13.7404108686
 21
7.7365685667
  0
LINE
  5
4FF
100
AcDbEntity
  8
03__ASM_ALL_CURVES
100
AcDbLine
 62
4
  6
CONTINUOUS
 10
13.8777402038
 20
7.7248645667
 11
13.8855428686
 21
7.7365685667
  0
LINE
  5
500
100
AcDbEntity
  8
03__ASM_ALL_CURVES
100
AcDbLine
 62
4
  6
CONTINUOUS
 10
13.916753539
 20
7.7248645667
 11
13.9245562038
 21
7.7365685667
  0
LINE
  5
501
100
AcDbEntity
  8
03__ASM_ALL_CURVES
100
AcDbLine
 62
4
  6
CONTINUOUS
 10
13.8855428686
 20
7.7365685667
 11
13.893345539
 21
7.7424205667
  0
LINE
  5
502
100
AcDbEntity
  8
03__ASM_ALL_CURVES
100
AcDbLine
 62
4
  6
CONTINUOUS
 10
13.9245562038
 20
7.7365685667
 11
13.9401615362
 21
7.7482725667
  0
LINE
  5
503
100
AcDbEntity
  8
03__ASM_ALL_CURVES
100
AcDbLine
 62
4
  6
CONTINUOUS
 10
13.9635695369
 20
7.7014565667
 11
13.95576687
 21
7.6956045667
  0
LINE
  5
504
100
AcDbEntity
  8
03__ASM_ALL_CURVES
100
AcDbLine
 62
4
  6
CONTINUOUS
 10
13.8855428686
 20
7.6370845667
 11
13.893345539
 21
7.6429365667
  0
LINE
  5
505
100
AcDbEntity
  8
03__ASM_ALL_CURVES
100
AcDbLine
 62
4
  6
CONTINUOUS
 10
13.81063487
 20
7.5258965667
 11
13.8262402038
 21
7.5376005667
  0
LINE
  5
506
100
AcDbEntity
  8
03__ASM_ALL_CURVES
100
AcDbLine
 62
4
  6
CONTINUOUS
 10
13.9635695369
 20
7.6136765667
 11
13.95576687
 21
7.6078245667
  0
LINE
  5
507
100
AcDbEntity
  8
03__ASM_ALL_CURVES
100
AcDbLine
 62
4
  6
CONTINUOUS
 10
13.9596682035
 20
7.5463785667
 11
13.9713722038
 21
7.5551565667
  0
LINE
  5
508
100
AcDbEntity
  8
03__ASM_ALL_CURVES
100
AcDbLine
 62
4
  6
CONTINUOUS
 10
13.8777402038
 20
7.6253805667
 11
13.8855428686
 21
7.6370845667
  0
LINE
  5
509
100
AcDbEntity
  8
03__ASM_ALL_CURVES
100
AcDbLine
 62
4
  6
CONTINUOUS
 10
13.9713722038
 20
7.7131605667
 11
13.9635695369
 21
7.7014565667
  0
LINE
  5
50A
100
AcDbEntity
  8
03__ASM_ALL_CURVES
100
AcDbLine
 62
4
  6
CONTINUOUS
 10
13.9713722038
 20
7.6253805667
 11
13.9635695369
 21
7.6136765667
  0
LINE
  5
50B
100
AcDbEntity
  8
03__ASM_ALL_CURVES
100
AcDbLine
 62
4
  6
CONTINUOUS
 10
13.7326082038
 20
7.2567045667
 11
13.7404108686
 21
7.2684085667
  0
LINE
  5
50C
100
AcDbEntity
  8
03__ASM_ALL_CURVES
100
AcDbLine
 62
4
  6
CONTINUOUS
 10
13.8777402038
 20
7.4439685667
 11
13.8855428686
 21
7.4556725667
  0
LINE
  5
50D
100
AcDbEntity
  8
03__ASM_ALL_CURVES
100
AcDbLine
 62
4
  6
CONTINUOUS
 10
13.771621539
 20
7.2567045667
 11
13.7794242038
 21
7.2684085667
  0
LINE
  5
50E
100
AcDbEntity
  8
03__ASM_ALL_CURVES
100
AcDbLine
 62
4
  6
CONTINUOUS
 10
13.771621539
 20
7.2450005667
 11
13.7638188686
 21
7.2332965667
  0
LINE
  5
50F
100
AcDbEntity
  8
03__ASM_ALL_CURVES
100
AcDbLine
 62
4
  6
CONTINUOUS
 10
13.8262402038
 20
7.2450005667
 11
13.8184375369
 21
7.2332965667
  0
LINE
  5
510
100
AcDbEntity
  8
03__ASM_ALL_CURVES
100
AcDbLine
 62
4
  6
CONTINUOUS
 10
13.7326082038
 20
7.0694405667
 11
13.7404108686
 21
7.0811445667
  0
LINE
  5
511
100
AcDbEntity
  8
03__ASM_ALL_CURVES
100
AcDbLine
 62
4
  6
CONTINUOUS
 10
13.8855428686
 20
7.4556725667
 11
13.893345539
 21
7.4615245667
  0
LINE
  5
512
100
AcDbEntity
  8
03__ASM_ALL_CURVES
100
AcDbLine
 62
4
  6
CONTINUOUS
 10
13.7404108686
 20
7.2684085667
 11
13.748213539
 21
7.2742605667
  0
LINE
  5
513
100
AcDbEntity
  8
03__ASM_ALL_CURVES
100
AcDbLine
 62
4
  6
CONTINUOUS
 10
13.7794242038
 20
7.2684085667
 11
13.7950295362
 21
7.2801125667
  0
LINE
  5
514
100
AcDbEntity
  8
03__ASM_ALL_CURVES
100
AcDbLine
 62
4
  6
CONTINUOUS
 10
13.7638188686
 20
7.2332965667
 11
13.7560162038
 21
7.2274445667
  0
LINE
  5
515
100
AcDbEntity
  8
03__ASM_ALL_CURVES
100
AcDbLine
 62
4
  6
CONTINUOUS
 10
13.8184375369
 20
7.2332965667
 11
13.8028322038
 21
7.2215925667
  0
LINE
  5
516
100
AcDbEntity
  8
03__ASM_ALL_CURVES
100
AcDbLine
 62
4
  6
CONTINUOUS
 10
13.8145362035
 20
7.1718505667
 11
13.8262402038
 21
7.1806285667
  0
LINE
  5
517
100
AcDbEntity
  8
03__ASM_ALL_CURVES
100
AcDbLine
 62
4
  6
CONTINUOUS
 10
13.7404108686
 20
7.0811445667
 11
13.748213539
 21
7.0869965667
  0
CIRCLE
  5
518
100
AcDbEntity
  8
0
100
AcDbCircle
 62
7
  6
CONTINUOUS
 10
11.7365562038
 20
9.7330445667
 40
0.6695
  0
ARC
  5
519
100
AcDbEntity
  8
0
100
AcDbCircle
 62
7
  6
CONTINUOUS
 10
11.7365562038
 20
11.3580445667
 40
0.6695
100
AcDbArc
 50
111.0076632311
 51
68.9923367688
  0
CIRCLE
  5
51A
100
AcDbEntity
  8
0
100
AcDbCircle
 62
7
  6
CONTINUOUS
 10
11.7365562038
 20
9.7330445667
 40
0.4725
  0
CIRCLE
  5
51B
100
AcDbEntity
  8
0
100
AcDbCircle
 62
7
  6
CONTINUOUS
 10
11.7365562038
 20
11.3580445667
 40
0.4725
  0
CIRCLE
  5
51C
100
AcDbEntity
  8
0
100
AcDbCircle
 62
7
  6
CONTINUOUS
 10
11.7365562038
 20
9.7330445667
 40
0.4440973856
  0
CIRCLE
  5
51D
100
AcDbEntity
  8
0
100
AcDbCircle
 62
7
  6
CONTINUOUS
 10
11.7365562038
 20
11.3580445667
 40
0.4440973856
  0
CIRCLE
  5
51E
100
AcDbEntity
  8
0
100
AcDbCircle
 62
7
  6
CONTINUOUS
 10
11.7365562038
 20
11.3580445667
 40
0.403
  0
CIRCLE
  5
51F
100
AcDbEntity
  8
0
100
AcDbCircle
 62
7
  6
CONTINUOUS
 10
11.7365562038
 20
9.7330445667
 40
0.403
  0
CIRCLE
  5
520
100
AcDbEntity
  8
0
100
AcDbCircle
 62
7
  6
CONTINUOUS
 10
11.7365562038
 20
9.7330445667
 40
0.336
  0
CIRCLE
  5
521
100
AcDbEntity
  8
0
100
AcDbCircle
 62
7
  6
CONTINUOUS
 10
11.7365562038
 20
11.3580445667
 40
0.336
  0
SPLINE
  5
522
100
AcDbEntity
  8
0
100
AcDbSpline
 62
7
  6
CONTINUOUS
 70
0
 71
3
 72
51
 73
47
 74
45
 42
0.0000001
 43
0.0000001
 44
0.0000000001
 12
-0.1096693594
 22
0.3683180118
 32
0.0
 13
0.1096693594
 23
0.3683180118
 33
0.0
 40
0.0
 40
0.0
 40
0.0
 40
0.0
 40
0.0242101197
 40
0.0481529977
 40
0.0718544083
 40
0.0953387786
 40
0.11862873
 40
0.1417453972
 40
0.1647083387
 40
0.1875357009
 40
0.2102442435
 40
0.2328493687
 40
0.2553651619
 40
0.2778043797
 40
0.3001785247
 40
0.3224979661
 40
0.3447719642
 40
0.3670087422
 40
0.3892155569
 40
0.4113987349
 40
0.4335639256
 40
0.4557161894
 40
0.4778601221
 40
0.5
 40
0.5221398779
 40
0.5442838106
 40
0.5664360744
 40
0.5886012651
 40
0.6107844431
 40
0.6329912578
 40
0.6552280358
 40
0.6775020339
 40
0.6998214753
 40
0.7221956203
 40
0.7446348381
 40
0.7671506314
 40
0.7897557565
 40
0.8124642991
 40
0.8352916613
 40
0.8582546028
 40
0.88137127
 40
0.9046612214
 40
0.9281455917
 40
0.9518470023
 40
0.9757898803
 40
1.0
 40
1.0
 40
1.0
 40
1.0
 10
10.3016198697
 20
9.7001423191
 30
0.0
 10
10.3007348336
 20
9.7031146601
 30
0.0
 10
10.2990050263
 20
9.7090356666
 30
0.0
 10
10.2965180594
 20
9.7178980204
 30
0.0
 10
10.2941521915
 20
9.7266972512
 30
0.0
 10
10.2919058374
 20
9.7354414246
 30
0.0
 10
10.2897778107
 20
9.7441380582
 30
0.0
 10
10.2877673125
 20
9.7527940608
 30
0.0
 10
10.2858738931
 20
9.7614157738
 30
0.0
 10
10.2840974217
 20
9.7700089705
 30
0.0
 10
10.2824380514
 20
9.778578872
 30
0.0
 10
10.2808961848
 20
9.7871301485
 30
0.0
 10
10.2794724393
 20
9.795666917
 30
0.0
 10
10.2781676073
 20
9.8041927454
 30
0.0
 10
10.2769826147
 20
9.8127106691
 30
0.0
 10
10.2759184768
 20
9.8212232128
 30
0.0
 10
10.2749762556
 20
9.8297324158
 30
0.0
 10
10.2741570174
 20
9.8382398515
 30
0.0
 10
10.2734617908
 20
9.8467466518
 30
0.0
 10
10.2728915257
 20
9.8552535565
 30
0.0
 10
10.2724470553
 20
9.8637609676
 30
0.0
 10
10.2721290633
 20
9.8722690173
 30
0.0
 10
10.2719380585
 20
9.8807776236
 30
0.0
 10
10.2718743548
 20
9.8892865497
 30
0.0
 10
10.2719380585
 20
9.8977954758
 30
0.0
 10
10.2721290633
 20
9.9063040822
 30
0.0
 10
10.2724470553
 20
9.9148121319
 30
0.0
 10
10.2728915257
 20
9.923319543
 30
0.0
 10
10.2734617908
 20
9.9318264477
 30
0.0
 10
10.2741570174
 20
9.940333248
 30
0.0
 10
10.2749762556
 20
9.9488406837
 30
0.0
 10
10.2759184768
 20
9.9573498867
 30
0.0
 10
10.2769826147
 20
9.9658624304
 30
0.0
 10
10.2781676073
 20
9.974380354
 30
0.0
 10
10.2794724393
 20
9.9829061825
 30
0.0
 10
10.2808961848
 20
9.991442951
 30
0.0
 10
10.2824380514
 20
9.9999942275
 30
0.0
 10
10.2840974217
 20
10.008564129
 30
0.0
 10
10.2858738931
 20
10.0171573256
 30
0.0
 10
10.2877673125
 20
10.0257790387
 30
0.0
 10
10.2897778107
 20
10.0344350413
 30
0.0
 10
10.2919058374
 20
10.0431316749
 30
0.0
 10
10.2941521915
 20
10.0518758482
 30
0.0
 10
10.2965180594
 20
10.0606750791
 30
0.0
 10
10.2990050263
 20
10.0695374329
 30
0.0
 10
10.3007348336
 20
10.0754584394
 30
0.0
 10
10.3016198697
 20
10.0784307804
 30
0.0
 11
10.3016198697
 21
9.7001423191
 31
0.0
 11
10.2990113956
 21
9.7090730953
 31
0.0
 11
10.2965259379
 21
9.7179322664
 31
0.0
 11
10.2941614927
 21
9.726728445
 31
0.0
 11
10.2919164586
 21
9.7354697664
 31
0.0
 11
10.2897896625
 21
9.7441637064
 31
0.0
 11
10.2877803049
 21
9.7528171865
 31
0.0
 11
10.2858879427
 21
9.7614365283
 31
0.0
 11
10.2841124475
 21
9.7700275027
 31
0.0
 11
10.2824539743
 21
9.778595328
 31
0.0
 11
10.2809129283
 21
9.7871446702
 31
0.0
 11
10.2794899273
 21
9.795679649
 31
0.0
 11
10.2781857666
 21
9.804203824
 31
0.0
 11
10.277001375
 21
9.8127202164
 31
0.0
 11
10.275937769
 21
9.8212313497
 31
0.0
 11
10.274996012
 21
9.8297392554
 31
0.0
 11
10.2741771717
 21
9.8382455
 31
0.0
 11
10.2734822779
 21
9.8467512128
 31
0.0
 11
10.2729122833
 21
9.8552571035
 31
0.0
 11
10.2724680218
 21
9.8637635653
 31
0.0
 11
10.2721501783
 21
9.872270717
 31
0.0
 11
10.2719592623
 21
9.8807784607
 31
0.0
 11
10.2718955881
 21
9.8892865497
 31
0.0
 11
10.2719592623
 21
9.8977946388
 31
0.0
 11
10.2721501783
 21
9.9063023825
 31
0.0
 11
10.2724680218
 21
9.9148095342
 31
0.0
 11
10.2729122833
 21
9.923315996
 31
0.0
 11
10.2734822779
 21
9.9318218867
 31
0.0
 11
10.2741771717
 21
9.9403275995
 31
0.0
 11
10.274996012
 21
9.9488338441
 31
0.0
 11
10.275937769
 21
9.9573417498
 31
0.0
 11
10.277001375
 21
9.9658528831
 31
0.0
 11
10.2781857666
 21
9.9743692755
 31
0.0
 11
10.2794899273
 21
9.9828934505
 31
0.0
 11
10.2809129283
 21
9.9914284292
 31
0.0
 11
10.2824539743
 21
9.9999777715
 31
0.0
 11
10.2841124475
 21
10.0085455967
 31
0.0
 11
10.2858879427
 21
10.0171365711
 31
0.0
 11
10.2877803049
 21
10.0257559129
 31
0.0
 11
10.2897896625
 21
10.0344093931
 31
0.0
 11
10.2919164586
 21
10.0431033331
 31
0.0
 11
10.2941614927
 21
10.0518446545
 31
0.0
 11
10.2965259379
 21
10.060640833
 31
0.0
 11
10.2990113956
 21
10.0695000042
 31
0.0
 11
10.3016198697
 21
10.0784307804
 31
0.0
  0
SPLINE
  5
523
100
AcDbEntity
  8
0
100
AcDbSpline
 62
7
  6
CONTINUOUS
 70
0
 71
3
 72
57
 73
53
 74
51
 42
0.0000001
 43
0.0000001
 44
0.0000000001
 12
0.1814542154
 22
0.3518390874
 32
0.0
 13
-0.1814542154
 23
0.3518390874
 33
0.0
 40
0.0
 40
0.0
 40
0.0
 40
0.0
 40
0.0234547239
 40
0.0464285952
 40
0.0689545578
 40
0.091063946
 40
0.1127860278
 40
0.1341484601
 40
0.1551772316
 40
0.1758969924
 40
0.1963311366
 40
0.2165018925
 40
0.2364304267
 40
0.2561368679
 40
0.2756404078
 40
0.2949595351
 40
0.3141120267
 40
0.3331150197
 40
0.3519850705
 40
0.3707380955
 40
0.389389647
 40
0.4079549419
 40
0.4264488773
 40
0.4448860843
 40
0.4632809221
 40
0.4816475123
 40
0.5
 40
0.5183524878
 40
0.5367190779
 40
0.5551139157
 40
0.5735511227
 40
0.5920450581
 40
0.610610353
 40
0.6292619045
 40
0.6480149295
 40
0.6668849803
 40
0.6858879733
 40
0.7050404649
 40
0.7243595922
 40
0.7438631321
 40
0.7635695733
 40
0.7834981075
 40
0.8036688634
 40
0.8241030076
 40
0.8448227684
 40
0.86585154
 40
0.8872139722
 40
0.908936054
 40
0.9310454422
 40
0.9535714048
 40
0.9765452761
 40
1.0
 40
1.0
 40
1.0
 40
1.0
 10
10.7370562038
 20
9.7001423191
 30
0.0
 10
10.7384748567
 20
9.7028930819
 30
0.0
 10
10.7412443927
 20
9.708358278
 30
0.0
 10
10.7452372619
 20
9.7165348728
 30
0.0
 10
10.7490301827
 20
9.7246104356
 30
0.0
 10
10.7526290061
 20
9.7325935003
 30
0.0
 10
10.7560389492
 20
9.7404921061
 30
0.0
 10
10.7592645984
 20
9.7483137327
 30
0.0
 10
10.7623099784
 20
9.7560653743
 30
0.0
 10
10.765178593
 20
9.7637535594
 30
0.0
 10
10.7678734738
 20
9.7713843928
 30
0.0
 10
10.770397217
 20
9.7789635713
 30
0.0
 10
10.7727520187
 20
9.7864963932
 30
0.0
 10
10.7749397109
 20
9.7939877699
 30
0.0
 10
10.7769618028
 20
9.8014422566
 30
0.0
 10
10.7788195195
 20
9.8088640804
 30
0.0
 10
10.7805138375
 20
9.8162571682
 30
0.0
 10
10.7820455147
 20
9.8236251529
 30
0.0
 10
10.7834151191
 20
9.8309713762
 30
0.0
 10
10.7846230636
 20
9.8382989195
 30
0.0
 10
10.7856696369
 20
9.8456106339
 30
0.0
 10
10.7865550321
 20
9.8529091822
 30
0.0
 10
10.7872793683
 20
9.8601970548
 30
0.0
 10
10.7878427107
 20
9.8674765826
 30
0.0
 10
10.7882450886
 20
9.8747499546
 30
0.0
 10
10.7884865132
 20
9.8820192644
 30
0.0
 10
10.7885669879
 20
9.8892865497
 30
0.0
 10
10.7884865132
 20
9.8965538351
 30
0.0
 10
10.7882450886
 20
9.9038231449
 30
0.0
 10
10.7878427107
 20
9.9110965169
 30
0.0
 10
10.7872793683
 20
9.9183760447
 30
0.0
 10
10.7865550321
 20
9.9256639173
 30
0.0
 10
10.7856696369
 20
9.9329624656
 30
0.0
 10
10.7846230636
 20
9.94027418
 30
0.0
 10
10.7834151191
 20
9.9476017233
 30
0.0
 10
10.7820455147
 20
9.9549479466
 30
0.0
 10
10.7805138375
 20
9.9623159312
 30
0.0
 10
10.7788195195
 20
9.969709019
 30
0.0
 10
10.7769618028
 20
9.9771308429
 30
0.0
 10
10.7749397109
 20
9.9845853296
 30
0.0
 10
10.7727520187
 20
9.9920767063
 30
0.0
 10
10.770397217
 20
9.9996095281
 30
0.0
 10
10.7678734738
 20
10.0071887067
 30
0.0
 10
10.765178593
 20
10.0148195401
 30
0.0
 10
10.7623099784
 20
10.0225077251
 30
0.0
 10
10.7592645984
 20
10.0302593667
 30
0.0
 10
10.7560389492
 20
10.0380809933
 30
0.0
 10
10.7526290061
 20
10.0459795992
 30
0.0
 10
10.7490301827
 20
10.0539626639
 30
0.0
 10
10.7452372619
 20
10.0620382267
 30
0.0
 10
10.7412443927
 20
10.0702148215
 30
0.0
 10
10.7384748567
 20
10.0756800175
 30
0.0
 10
10.7370562038
 20
10.0784307804
 30
0.0
 11
10.7370562038
 21
9.7001423191
 31
0.0
 11
10.7412523917
 21
9.7084251602
 31
0.0
 11
10.7452422585
 21
9.7165980222
 31
0.0
 11
10.7490323316
 21
9.7246699619
 31
0.0
 11
10.7526284952
 21
9.7326495921
 31
0.0
 11
10.7560359346
 21
9.7405448942
 31
0.0
 11
10.7592592376
 21
9.7483633587
 31
0.0
 11
10.7623024095
 21
9.7561119413
 31
0.0
 11
10.7651689489
 21
9.7637971623
 31
0.0
 11
10.7678618823
 21
9.7714251174
 31
0.0
 11
10.7703838012
 21
9.7790014922
 31
0.0
 11
10.7727369006
 21
9.7865315838
 31
0.0
 11
10.7749230089
 21
9.7940202931
 31
0.0
 11
10.7769436282
 21
9.8014721477
 31
0.0
 11
10.7787999856
 21
9.8088913783
 31
0.0
 11
10.7804930573
 21
9.816281905
 31
0.0
 11
10.7820236018
 21
9.8236473562
 31
0.0
 11
10.7833921909
 21
9.8309910845
 31
0.0
 11
10.7845992331
 21
9.8383161394
 31
0.0
 11
10.7856450195
 21
9.845625372
 31
0.0
 11
10.7865297456
 21
9.8529214477
 31
0.0
 11
10.7872535319
 21
9.8602068546
 31
0.0
 11
10.7878164456
 21
9.8674839296
 31
0.0
 11
10.7882185171
 21
9.8747548626
 31
0.0
 11
10.7884597569
 21
9.8820217185
 31
0.0
 11
10.7885401698
 21
9.8892865497
 31
0.0
 11
10.7884597569
 21
9.896551381
 31
0.0
 11
10.7882185171
 21
9.9038182368
 31
0.0
 11
10.7878164456
 21
9.9110891699
 31
0.0
 11
10.7872535319
 21
9.9183662449
 31
0.0
 11
10.7865297456
 21
9.9256516517
 31
0.0
 11
10.7856450195
 21
9.9329477274
 31
0.0
 11
10.7845992331
 21
9.9402569601
 31
0.0
 11
10.7833921909
 21
9.9475820149
 31
0.0
 11
10.7820236018
 21
9.9549257433
 31
0.0
 11
10.7804930573
 21
9.9622911944
 31
0.0
 11
10.7787999856
 21
9.9696817211
 31
0.0
 11
10.7769436282
 21
9.9771009518
 31
0.0
 11
10.7749230089
 21
9.9845528064
 31
0.0
 11
10.7727369006
 21
9.9920415157
 31
0.0
 11
10.7703838012
 21
9.9995716073
 31
0.0
 11
10.7678618823
 21
10.0071479821
 31
0.0
 11
10.7651689489
 21
10.0147759371
 31
0.0
 11
10.7623024095
 21
10.0224611581
 31
0.0
 11
10.7592592376
 21
10.0302097408
 31
0.0
 11
10.7560359346
 21
10.0380282053
 31
0.0
 11
10.7526284952
 21
10.0459235074
 31
0.0
 11
10.7490323316
 21
10.0539031375
 31
0.0
 11
10.7452422585
 21
10.0619750773
 31
0.0
 11
10.7412523917
 21
10.0701479392
 31
0.0
 11
10.7370562038
 21
10.0784307804
 31
0.0
  0
SPLINE
  5
524
100
AcDbEntity
  8
0
100
AcDbSpline
 62
7
  6
CONTINUOUS
 70
0
 71
3
 72
51
 73
47
 74
45
 42
0.0000001
 43
0.0000001
 44
0.0000000001
 12
-0.1096693594
 22
0.3683180118
 32
0.0
 13
0.1096693594
 23
0.3683180118
 33
0.0
 40
0.0
 40
0.0
 40
0.0
 40
0.0
 40
0.0242101197
 40
0.0481529977
 40
0.0718544083
 40
0.0953387786
 40
0.11862873
 40
0.1417453972
 40
0.1647083387
 40
0.1875357009
 40
0.2102442435
 40
0.2328493687
 40
0.2553651619
 40
0.2778043797
 40
0.3001785247
 40
0.3224979661
 40
0.3447719642
 40
0.3670087422
 40
0.3892155569
 40
0.4113987349
 40
0.4335639256
 40
0.4557161894
 40
0.4778601221
 40
0.5
 40
0.5221398779
 40
0.5442838106
 40
0.5664360744
 40
0.5886012651
 40
0.6107844431
 40
0.6329912578
 40
0.6552280358
 40
0.6775020339
 40
0.6998214753
 40
0.7221956203
 40
0.7446348381
 40
0.7671506314
 40
0.7897557565
 40
0.8124642991
 40
0.8352916613
 40
0.8582546028
 40
0.88137127
 40
0.9046612214
 40
0.9281455917
 40
0.9518470023
 40
0.9757898803
 40
1.0
 40
1.0
 40
1.0
 40
1.0
 10
10.3016198697
 20
10.137658353
 30
0.0
 10
10.3007348336
 20
10.1406306941
 30
0.0
 10
10.2990050263
 20
10.1465517006
 30
0.0
 10
10.2965180594
 20
10.1554140544
 30
0.0
 10
10.2941521915
 20
10.1642132852
 30
0.0
 10
10.2919058374
 20
10.1729574586
 30
0.0
 10
10.2897778107
 20
10.1816540922
 30
0.0
 10
10.2877673125
 20
10.1903100948
 30
0.0
 10
10.2858738931
 20
10.1989318078
 30
0.0
 10
10.2840974217
 20
10.2075250045
 30
0.0
 10
10.2824380514
 20
10.216094906
 30
0.0
 10
10.2808961848
 20
10.2246461825
 30
0.0
 10
10.2794724393
 20
10.233182951
 30
0.0
 10
10.2781676073
 20
10.2417087794
 30
0.0
 10
10.2769826147
 20
10.2502267031
 30
0.0
 10
10.2759184768
 20
10.2587392468
 30
0.0
 10
10.2749762556
 20
10.2672484498
 30
0.0
 10
10.2741570174
 20
10.2757558855
 30
0.0
 10
10.2734617908
 20
10.2842626858
 30
0.0
 10
10.2728915257
 20
10.2927695905
 30
0.0
 10
10.2724470553
 20
10.3012770016
 30
0.0
 10
10.2721290633
 20
10.3097850513
 30
0.0
 10
10.2719380585
 20
10.3182936576
 30
0.0
 10
10.2718743548
 20
10.3268025837
 30
0.0
 10
10.2719380585
 20
10.3353115098
 30
0.0
 10
10.2721290633
 20
10.3438201162
 30
0.0
 10
10.2724470553
 20
10.3523281658
 30
0.0
 10
10.2728915257
 20
10.360835577
 30
0.0
 10
10.2734617908
 20
10.3693424817
 30
0.0
 10
10.2741570174
 20
10.377849282
 30
0.0
 10
10.2749762556
 20
10.3863567177
 30
0.0
 10
10.2759184768
 20
10.3948659206
 30
0.0
 10
10.2769826147
 20
10.4033784644
 30
0.0
 10
10.2781676073
 20
10.411896388
 30
0.0
 10
10.2794724393
 20
10.4204222165
 30
0.0
 10
10.2808961848
 20
10.428958985
 30
0.0
 10
10.2824380514
 20
10.4375102615
 30
0.0
 10
10.2840974217
 20
10.446080163
 30
0.0
 10
10.2858738931
 20
10.4546733596
 30
0.0
 10
10.2877673125
 20
10.4632950727
 30
0.0
 10
10.2897778107
 20
10.4719510753
 30
0.0
 10
10.2919058374
 20
10.4806477089
 30
0.0
 10
10.2941521915
 20
10.4893918822
 30
0.0
 10
10.2965180594
 20
10.4981911131
 30
0.0
 10
10.2990050263
 20
10.5070534669
 30
0.0
 10
10.3007348336
 20
10.5129744734
 30
0.0
 10
10.3016198697
 20
10.5159468144
 30
0.0
 11
10.3016198697
 21
10.137658353
 31
0.0
 11
10.2990113956
 21
10.1465891293
 31
0.0
 11
10.2965259379
 21
10.1554483004
 31
0.0
 11
10.2941614927
 21
10.164244479
 31
0.0
 11
10.2919164586
 21
10.1729858004
 31
0.0
 11
10.2897896625
 21
10.1816797404
 31
0.0
 11
10.2877803049
 21
10.1903332205
 31
0.0
 11
10.2858879427
 21
10.1989525623
 31
0.0
 11
10.2841124475
 21
10.2075435367
 31
0.0
 11
10.2824539743
 21
10.216111362
 31
0.0
 11
10.2809129283
 21
10.2246607042
 31
0.0
 11
10.2794899273
 21
10.233195683
 31
0.0
 11
10.2781857666
 21
10.2417198579
 31
0.0
 11
10.277001375
 21
10.2502362504
 31
0.0
 11
10.275937769
 21
10.2587473837
 31
0.0
 11
10.274996012
 21
10.2672552894
 31
0.0
 11
10.2741771717
 21
10.275761534
 31
0.0
 11
10.2734822779
 21
10.2842672468
 31
0.0
 11
10.2729122833
 21
10.2927731375
 31
0.0
 11
10.2724680218
 21
10.3012795993
 31
0.0
 11
10.2721501783
 21
10.3097867509
 31
0.0
 11
10.2719592623
 21
10.3182944947
 31
0.0
 11
10.2718955881
 21
10.3268025837
 31
0.0
 11
10.2719592623
 21
10.3353106728
 31
0.0
 11
10.2721501783
 21
10.3438184165
 31
0.0
 11
10.2724680218
 21
10.3523255682
 31
0.0
 11
10.2729122833
 21
10.36083203
 31
0.0
 11
10.2734822779
 21
10.3693379207
 31
0.0
 11
10.2741771717
 21
10.3778436335
 31
0.0
 11
10.274996012
 21
10.3863498781
 31
0.0
 11
10.275937769
 21
10.3948577838
 31
0.0
 11
10.277001375
 21
10.4033689171
 31
0.0
 11
10.2781857666
 21
10.4118853095
 31
0.0
 11
10.2794899273
 21
10.4204094845
 31
0.0
 11
10.2809129283
 21
10.4289444632
 31
0.0
 11
10.2824539743
 21
10.4374938055
 31
0.0
 11
10.2841124475
 21
10.4460616307
 31
0.0
 11
10.2858879427
 21
10.4546526051
 31
0.0
 11
10.2877803049
 21
10.4632719469
 31
0.0
 11
10.2897896625
 21
10.4719254271
 31
0.0
 11
10.2919164586
 21
10.4806193671
 31
0.0
 11
10.2941614927
 21
10.4893606885
 31
0.0
 11
10.2965259379
 21
10.498156867
 31
0.0
 11
10.2990113956
 21
10.5070160382
 31
0.0
 11
10.3016198697
 21
10.5159468144
 31
0.0
  0
SPLINE
  5
525
100
AcDbEntity
  8
0
100
AcDbSpline
 62
7
  6
CONTINUOUS
 70
0
 71
3
 72
57
 73
53
 74
51
 42
0.0000001
 43
0.0000001
 44
0.0000000001
 12
0.1814542154
 22
0.3518390874
 32
0.0
 13
-0.1814542154
 23
0.3518390874
 33
0.0
 40
0.0
 40
0.0
 40
0.0
 40
0.0
 40
0.0234547239
 40
0.0464285952
 40
0.0689545578
 40
0.091063946
 40
0.1127860278
 40
0.1341484601
 40
0.1551772316
 40
0.1758969924
 40
0.1963311366
 40
0.2165018925
 40
0.2364304267
 40
0.2561368679
 40
0.2756404078
 40
0.2949595351
 40
0.3141120267
 40
0.3331150197
 40
0.3519850705
 40
0.3707380955
 40
0.389389647
 40
0.4079549419
 40
0.4264488773
 40
0.4448860843
 40
0.4632809221
 40
0.4816475123
 40
0.5
 40
0.5183524878
 40
0.5367190779
 40
0.5551139157
 40
0.5735511227
 40
0.5920450581
 40
0.610610353
 40
0.6292619045
 40
0.6480149295
 40
0.6668849803
 40
0.6858879733
 40
0.7050404649
 40
0.7243595922
 40
0.7438631321
 40
0.7635695733
 40
0.7834981075
 40
0.8036688634
 40
0.8241030076
 40
0.8448227684
 40
0.86585154
 40
0.8872139722
 40
0.908936054
 40
0.9310454422
 40
0.9535714048
 40
0.9765452761
 40
1.0
 40
1.0
 40
1.0
 40
1.0
 10
10.7370562038
 20
10.137658353
 30
0.0
 10
10.7384748567
 20
10.1404091159
 30
0.0
 10
10.7412443927
 20
10.145874312
 30
0.0
 10
10.7452372619
 20
10.1540509068
 30
0.0
 10
10.7490301827
 20
10.1621264696
 30
0.0
 10
10.7526290061
 20
10.1701095343
 30
0.0
 10
10.7560389492
 20
10.1780081401
 30
0.0
 10
10.7592645984
 20
10.1858297667
 30
0.0
 10
10.7623099784
 20
10.1935814083
 30
0.0
 10
10.765178593
 20
10.2012695933
 30
0.0
 10
10.7678734738
 20
10.2089004267
 30
0.0
 10
10.770397217
 20
10.2164796053
 30
0.0
 10
10.7727520187
 20
10.2240124272
 30
0.0
 10
10.7749397109
 20
10.2315038039
 30
0.0
 10
10.7769618028
 20
10.2389582905
 30
0.0
 10
10.7788195195
 20
10.2463801144
 30
0.0
 10
10.7805138375
 20
10.2537732022
 30
0.0
 10
10.7820455147
 20
10.2611411869
 30
0.0
 10
10.7834151191
 20
10.2684874102
 30
0.0
 10
10.7846230636
 20
10.2758149535
 30
0.0
 10
10.7856696369
 20
10.2831266679
 30
0.0
 10
10.7865550321
 20
10.2904252162
 30
0.0
 10
10.7872793683
 20
10.2977130887
 30
0.0
 10
10.7878427107
 20
10.3049926165
 30
0.0
 10
10.7882450886
 20
10.3122659886
 30
0.0
 10
10.7884865132
 20
10.3195352983
 30
0.0
 10
10.7885669879
 20
10.3268025837
 30
0.0
 10
10.7884865132
 20
10.3340698691
 30
0.0
 10
10.7882450886
 20
10.3413391789
 30
0.0
 10
10.7878427107
 20
10.3486125509
 30
0.0
 10
10.7872793683
 20
10.3558920787
 30
0.0
 10
10.7865550321
 20
10.3631799513
 30
0.0
 10
10.7856696369
 20
10.3704784995
 30
0.0
 10
10.7846230636
 20
10.3777902139
 30
0.0
 10
10.7834151191
 20
10.3851177573
 30
0.0
 10
10.7820455147
 20
10.3924639806
 30
0.0
 10
10.7805138375
 20
10.3998319652
 30
0.0
 10
10.7788195195
 20
10.407225053
 30
0.0
 10
10.7769618028
 20
10.4146468769
 30
0.0
 10
10.7749397109
 20
10.4221013636
 30
0.0
 10
10.7727520187
 20
10.4295927403
 30
0.0
 10
10.770397217
 20
10.4371255621
 30
0.0
 10
10.7678734738
 20
10.4447047407
 30
0.0
 10
10.765178593
 20
10.4523355741
 30
0.0
 10
10.7623099784
 20
10.4600237591
 30
0.0
 10
10.7592645984
 20
10.4677754007
 30
0.0
 10
10.7560389492
 20
10.4755970273
 30
0.0
 10
10.7526290061
 20
10.4834956331
 30
0.0
 10
10.7490301827
 20
10.4914786979
 30
0.0
 10
10.7452372619
 20
10.4995542607
 30
0.0
 10
10.7412443927
 20
10.5077308554
 30
0.0
 10
10.7384748567
 20
10.5131960515
 30
0.0
 10
10.7370562038
 20
10.5159468144
 30
0.0
 11
10.7370562038
 21
10.137658353
 31
0.0
 11
10.7412523917
 21
10.1459411942
 31
0.0
 11
10.7452422585
 21
10.1541140562
 31
0.0
 11
10.7490323316
 21
10.1621859959
 31
0.0
 11
10.7526284952
 21
10.1701656261
 31
0.0
 11
10.7560359346
 21
10.1780609282
 31
0.0
 11
10.7592592376
 21
10.1858793927
 31
0.0
 11
10.7623024095
 21
10.1936279753
 31
0.0
 11
10.7651689489
 21
10.2013131963
 31
0.0
 11
10.7678618823
 21
10.2089411514
 31
0.0
 11
10.7703838012
 21
10.2165175262
 31
0.0
 11
10.7727369006
 21
10.2240476177
 31
0.0
 11
10.7749230089
 21
10.2315363271
 31
0.0
 11
10.7769436282
 21
10.2389881817
 31
0.0
 11
10.7787999856
 21
10.2464074123
 31
0.0
 11
10.7804930573
 21
10.253797939
 31
0.0
 11
10.7820236018
 21
10.2611633902
 31
0.0
 11
10.7833921909
 21
10.2685071185
 31
0.0
 11
10.7845992331
 21
10.2758321734
 31
0.0
 11
10.7856450195
 21
10.283141406
 31
0.0
 11
10.7865297456
 21
10.2904374817
 31
0.0
 11
10.7872535319
 21
10.2977228886
 31
0.0
 11
10.7878164456
 21
10.3049999636
 31
0.0
 11
10.7882185171
 21
10.3122708966
 31
0.0
 11
10.7884597569
 21
10.3195377525
 31
0.0
 11
10.7885401698
 21
10.3268025837
 31
0.0
 11
10.7884597569
 21
10.334067415
 31
0.0
 11
10.7882185171
 21
10.3413342708
 31
0.0
 11
10.7878164456
 21
10.3486052039
 31
0.0
 11
10.7872535319
 21
10.3558822789
 31
0.0
 11
10.7865297456
 21
10.3631676857
 31
0.0
 11
10.7856450195
 21
10.3704637614
 31
0.0
 11
10.7845992331
 21
10.3777729941
 31
0.0
 11
10.7833921909
 21
10.3850980489
 31
0.0
 11
10.7820236018
 21
10.3924417773
 31
0.0
 11
10.7804930573
 21
10.3998072284
 31
0.0
 11
10.7787999856
 21
10.4071977551
 31
0.0
 11
10.7769436282
 21
10.4146169858
 31
0.0
 11
10.7749230089
 21
10.4220688404
 31
0.0
 11
10.7727369006
 21
10.4295575497
 31
0.0
 11
10.7703838012
 21
10.4370876413
 31
0.0
 11
10.7678618823
 21
10.4446640161
 31
0.0
 11
10.7651689489
 21
10.4522919711
 31
0.0
 11
10.7623024095
 21
10.4599771921
 31
0.0
 11
10.7592592376
 21
10.4677257748
 31
0.0
 11
10.7560359346
 21
10.4755442393
 31
0.0
 11
10.7526284952
 21
10.4834395414
 31
0.0
 11
10.7490323316
 21
10.4914191715
 31
0.0
 11
10.7452422585
 21
10.4994911113
 31
0.0
 11
10.7412523917
 21
10.5076639732
 31
0.0
 11
10.7370562038
 21
10.5159468144
 31
0.0
  0
SPLINE
  5
526
100
AcDbEntity
  8
0
100
AcDbSpline
 62
7
  6
CONTINUOUS
 70
0
 71
3
 72
57
 73
53
 74
51
 42
0.0000001
 43
0.0000001
 44
0.0000000001
 12
0.1814542154
 22
0.3518390874
 32
0.0
 13
-0.1814542154
 23
0.3518390874
 33
0.0
 40
0.0
 40
0.0
 40
0.0
 40
0.0
 40
0.0234547239
 40
0.0464285952
 40
0.0689545578
 40
0.091063946
 40
0.1127860278
 40
0.1341484601
 40
0.1551772316
 40
0.1758969924
 40
0.1963311366
 40
0.2165018925
 40
0.2364304267
 40
0.2561368679
 40
0.2756404078
 40
0.2949595351
 40
0.3141120267
 40
0.3331150197
 40
0.3519850705
 40
0.3707380955
 40
0.389389647
 40
0.4079549419
 40
0.4264488773
 40
0.4448860843
 40
0.4632809221
 40
0.4816475123
 40
0.5
 40
0.5183524878
 40
0.5367190779
 40
0.5551139157
 40
0.5735511227
 40
0.5920450581
 40
0.610610353
 40
0.6292619045
 40
0.6480149295
 40
0.6668849803
 40
0.6858879733
 40
0.7050404649
 40
0.7243595922
 40
0.7438631321
 40
0.7635695733
 40
0.7834981075
 40
0.8036688634
 40
0.8241030076
 40
0.8448227684
 40
0.86585154
 40
0.8872139722
 40
0.908936054
 40
0.9310454422
 40
0.9535714048
 40
0.9765452761
 40
1.0
 40
1.0
 40
1.0
 40
1.0
 10
10.7370562038
 20
11.012658353
 30
0.0
 10
10.7384748567
 20
11.0154091159
 30
0.0
 10
10.7412443927
 20
11.020874312
 30
0.0
 10
10.7452372619
 20
11.0290509068
 30
0.0
 10
10.7490301827
 20
11.0371264696
 30
0.0
 10
10.7526290061
 20
11.0451095343
 30
0.0
 10
10.7560389492
 20
11.0530081401
 30
0.0
 10
10.7592645984
 20
11.0608297667
 30
0.0
 10
10.7623099784
 20
11.0685814083
 30
0.0
 10
10.765178593
 20
11.0762695933
 30
0.0
 10
10.7678734738
 20
11.0839004267
 30
0.0
 10
10.770397217
 20
11.0914796053
 30
0.0
 10
10.7727520187
 20
11.0990124272
 30
0.0
 10
10.7749397109
 20
11.1065038039
 30
0.0
 10
10.7769618028
 20
11.1139582905
 30
0.0
 10
10.7788195195
 20
11.1213801144
 30
0.0
 10
10.7805138375
 20
11.1287732022
 30
0.0
 10
10.7820455147
 20
11.1361411869
 30
0.0
 10
10.7834151191
 20
11.1434874102
 30
0.0
 10
10.7846230636
 20
11.1508149535
 30
0.0
 10
10.7856696369
 20
11.1581266679
 30
0.0
 10
10.7865550321
 20
11.1654252162
 30
0.0
 10
10.7872793683
 20
11.1727130887
 30
0.0
 10
10.7878427107
 20
11.1799926165
 30
0.0
 10
10.7882450886
 20
11.1872659886
 30
0.0
 10
10.7884865132
 20
11.1945352983
 30
0.0
 10
10.7885669879
 20
11.2018025837
 30
0.0
 10
10.7884865132
 20
11.2090698691
 30
0.0
 10
10.7882450886
 20
11.2163391789
 30
0.0
 10
10.7878427107
 20
11.2236125509
 30
0.0
 10
10.7872793683
 20
11.2308920787
 30
0.0
 10
10.7865550321
 20
11.2381799513
 30
0.0
 10
10.7856696369
 20
11.2454784995
 30
0.0
 10
10.7846230636
 20
11.2527902139
 30
0.0
 10
10.7834151191
 20
11.2601177573
 30
0.0
 10
10.7820455147
 20
11.2674639806
 30
0.0
 10
10.7805138375
 20
11.2748319652
 30
0.0
 10
10.7788195195
 20
11.282225053
 30
0.0
 10
10.7769618028
 20
11.2896468769
 30
0.0
 10
10.7749397109
 20
11.2971013636
 30
0.0
 10
10.7727520187
 20
11.3045927403
 30
0.0
 10
10.770397217
 20
11.3121255621
 30
0.0
 10
10.7678734738
 20
11.3197047407
 30
0.0
 10
10.765178593
 20
11.3273355741
 30
0.0
 10
10.7623099784
 20
11.3350237591
 30
0.0
 10
10.7592645984
 20
11.3427754007
 30
0.0
 10
10.7560389492
 20
11.3505970273
 30
0.0
 10
10.7526290061
 20
11.3584956331
 30
0.0
 10
10.7490301827
 20
11.3664786979
 30
0.0
 10
10.7452372619
 20
11.3745542607
 30
0.0
 10
10.7412443927
 20
11.3827308554
 30
0.0
 10
10.7384748567
 20
11.3881960515
 30
0.0
 10
10.7370562038
 20
11.3909468144
 30
0.0
 11
10.7370562038
 21
11.012658353
 31
0.0
 11
10.7412523917
 21
11.0209411942
 31
0.0
 11
10.7452422585
 21
11.0291140562
 31
0.0
 11
10.7490323316
 21
11.0371859959
 31
0.0
 11
10.7526284952
 21
11.0451656261
 31
0.0
 11
10.7560359346
 21
11.0530609282
 31
0.0
 11
10.7592592376
 21
11.0608793927
 31
0.0
 11
10.7623024095
 21
11.0686279753
 31
0.0
 11
10.7651689489
 21
11.0763131963
 31
0.0
 11
10.7678618823
 21
11.0839411514
 31
0.0
 11
10.7703838012
 21
11.0915175262
 31
0.0
 11
10.7727369006
 21
11.0990476177
 31
0.0
 11
10.7749230089
 21
11.1065363271
 31
0.0
 11
10.7769436282
 21
11.1139881817
 31
0.0
 11
10.7787999856
 21
11.1214074123
 31
0.0
 11
10.7804930573
 21
11.128797939
 31
0.0
 11
10.7820236018
 21
11.1361633902
 31
0.0
 11
10.7833921909
 21
11.1435071185
 31
0.0
 11
10.7845992331
 21
11.1508321734
 31
0.0
 11
10.7856450195
 21
11.158141406
 31
0.0
 11
10.7865297456
 21
11.1654374817
 31
0.0
 11
10.7872535319
 21
11.1727228886
 31
0.0
 11
10.7878164456
 21
11.1799999636
 31
0.0
 11
10.7882185171
 21
11.1872708966
 31
0.0
 11
10.7884597569
 21
11.1945377525
 31
0.0
 11
10.7885401698
 21
11.2018025837
 31
0.0
 11
10.7884597569
 21
11.209067415
 31
0.0
 11
10.7882185171
 21
11.2163342708
 31
0.0
 11
10.7878164456
 21
11.2236052039
 31
0.0
 11
10.7872535319
 21
11.2308822789
 31
0.0
 11
10.7865297456
 21
11.2381676857
 31
0.0
 11
10.7856450195
 21
11.2454637614
 31
0.0
 11
10.7845992331
 21
11.2527729941
 31
0.0
 11
10.7833921909
 21
11.2600980489
 31
0.0
 11
10.7820236018
 21
11.2674417773
 31
0.0
 11
10.7804930573
 21
11.2748072284
 31
0.0
 11
10.7787999856
 21
11.2821977551
 31
0.0
 11
10.7769436282
 21
11.2896169858
 31
0.0
 11
10.7749230089
 21
11.2970688404
 31
0.0
 11
10.7727369006
 21
11.3045575497
 31
0.0
 11
10.7703838012
 21
11.3120876413
 31
0.0
 11
10.7678618823
 21
11.3196640161
 31
0.0
 11
10.7651689489
 21
11.3272919711
 31
0.0
 11
10.7623024095
 21
11.3349771921
 31
0.0
 11
10.7592592376
 21
11.3427257748
 31
0.0
 11
10.7560359346
 21
11.3505442393
 31
0.0
 11
10.7526284952
 21
11.3584395414
 31
0.0
 11
10.7490323316
 21
11.3664191715
 31
0.0
 11
10.7452422585
 21
11.3744911113
 31
0.0
 11
10.7412523917
 21
11.3826639732
 31
0.0
 11
10.7370562038
 21
11.3909468144
 31
0.0
  0
SPLINE
  5
527
100
AcDbEntity
  8
0
100
AcDbSpline
 62
7
  6
CONTINUOUS
 70
0
 71
3
 72
51
 73
47
 74
45
 42
0.0000001
 43
0.0000001
 44
0.0000000001
 12
-0.1096693594
 22
0.3683180118
 32
0.0
 13
0.1096693594
 23
0.3683180118
 33
0.0
 40
0.0
 40
0.0
 40
0.0
 40
0.0
 40
0.0242101197
 40
0.0481529977
 40
0.0718544083
 40
0.0953387786
 40
0.11862873
 40
0.1417453972
 40
0.1647083387
 40
0.1875357009
 40
0.2102442435
 40
0.2328493687
 40
0.2553651619
 40
0.2778043797
 40
0.3001785247
 40
0.3224979661
 40
0.3447719642
 40
0.3670087422
 40
0.3892155569
 40
0.4113987349
 40
0.4335639256
 40
0.4557161894
 40
0.4778601221
 40
0.5
 40
0.5221398779
 40
0.5442838106
 40
0.5664360744
 40
0.5886012651
 40
0.6107844431
 40
0.6329912578
 40
0.6552280358
 40
0.6775020339
 40
0.6998214753
 40
0.7221956203
 40
0.7446348381
 40
0.7671506314
 40
0.7897557565
 40
0.8124642991
 40
0.8352916613
 40
0.8582546028
 40
0.88137127
 40
0.9046612214
 40
0.9281455917
 40
0.9518470023
 40
0.9757898803
 40
1.0
 40
1.0
 40
1.0
 40
1.0
 10
10.3016198697
 20
11.012658353
 30
0.0
 10
10.3007348336
 20
11.0156306941
 30
0.0
 10
10.2990050263
 20
11.0215517006
 30
0.0
 10
10.2965180594
 20
11.0304140544
 30
0.0
 10
10.2941521915
 20
11.0392132852
 30
0.0
 10
10.2919058374
 20
11.0479574586
 30
0.0
 10
10.2897778107
 20
11.0566540922
 30
0.0
 10
10.2877673125
 20
11.0653100948
 30
0.0
 10
10.2858738931
 20
11.0739318078
 30
0.0
 10
10.2840974217
 20
11.0825250045
 30
0.0
 10
10.2824380514
 20
11.091094906
 30
0.0
 10
10.2808961848
 20
11.0996461825
 30
0.0
 10
10.2794724393
 20
11.108182951
 30
0.0
 10
10.2781676073
 20
11.1167087794
 30
0.0
 10
10.2769826147
 20
11.1252267031
 30
0.0
 10
10.2759184768
 20
11.1337392468
 30
0.0
 10
10.2749762556
 20
11.1422484498
 30
0.0
 10
10.2741570174
 20
11.1507558855
 30
0.0
 10
10.2734617908
 20
11.1592626858
 30
0.0
 10
10.2728915257
 20
11.1677695905
 30
0.0
 10
10.2724470553
 20
11.1762770016
 30
0.0
 10
10.2721290633
 20
11.1847850513
 30
0.0
 10
10.2719380585
 20
11.1932936576
 30
0.0
 10
10.2718743548
 20
11.2018025837
 30
0.0
 10
10.2719380585
 20
11.2103115098
 30
0.0
 10
10.2721290633
 20
11.2188201162
 30
0.0
 10
10.2724470553
 20
11.2273281658
 30
0.0
 10
10.2728915257
 20
11.235835577
 30
0.0
 10
10.2734617908
 20
11.2443424817
 30
0.0
 10
10.2741570174
 20
11.252849282
 30
0.0
 10
10.2749762556
 20
11.2613567177
 30
0.0
 10
10.2759184768
 20
11.2698659206
 30
0.0
 10
10.2769826147
 20
11.2783784644
 30
0.0
 10
10.2781676073
 20
11.286896388
 30
0.0
 10
10.2794724393
 20
11.2954222165
 30
0.0
 10
10.2808961848
 20
11.303958985
 30
0.0
 10
10.2824380514
 20
11.3125102615
 30
0.0
 10
10.2840974217
 20
11.321080163
 30
0.0
 10
10.2858738931
 20
11.3296733596
 30
0.0
 10
10.2877673125
 20
11.3382950727
 30
0.0
 10
10.2897778107
 20
11.3469510753
 30
0.0
 10
10.2919058374
 20
11.3556477089
 30
0.0
 10
10.2941521915
 20
11.3643918822
 30
0.0
 10
10.2965180594
 20
11.3731911131
 30
0.0
 10
10.2990050263
 20
11.3820534669
 30
0.0
 10
10.3007348336
 20
11.3879744734
 30
0.0
 10
10.3016198697
 20
11.3909468144
 30
0.0
 11
10.3016198697
 21
11.012658353
 31
0.0
 11
10.2990113956
 21
11.0215891293
 31
0.0
 11
10.2965259379
 21
11.0304483004
 31
0.0
 11
10.2941614927
 21
11.039244479
 31
0.0
 11
10.2919164586
 21
11.0479858004
 31
0.0
 11
10.2897896625
 21
11.0566797404
 31
0.0
 11
10.2877803049
 21
11.0653332205
 31
0.0
 11
10.2858879427
 21
11.0739525623
 31
0.0
 11
10.2841124475
 21
11.0825435367
 31
0.0
 11
10.2824539743
 21
11.091111362
 31
0.0
 11
10.2809129283
 21
11.0996607042
 31
0.0
 11
10.2794899273
 21
11.108195683
 31
0.0
 11
10.2781857666
 21
11.1167198579
 31
0.0
 11
10.277001375
 21
11.1252362504
 31
0.0
 11
10.275937769
 21
11.1337473837
 31
0.0
 11
10.274996012
 21
11.1422552894
 31
0.0
 11
10.2741771717
 21
11.150761534
 31
0.0
 11
10.2734822779
 21
11.1592672468
 31
0.0
 11
10.2729122833
 21
11.1677731375
 31
0.0
 11
10.2724680218
 21
11.1762795993
 31
0.0
 11
10.2721501783
 21
11.1847867509
 31
0.0
 11
10.2719592623
 21
11.1932944947
 31
0.0
 11
10.2718955881
 21
11.2018025837
 31
0.0
 11
10.2719592623
 21
11.2103106728
 31
0.0
 11
10.2721501783
 21
11.2188184165
 31
0.0
 11
10.2724680218
 21
11.2273255682
 31
0.0
 11
10.2729122833
 21
11.23583203
 31
0.0
 11
10.2734822779
 21
11.2443379207
 31
0.0
 11
10.2741771717
 21
11.2528436335
 31
0.0
 11
10.274996012
 21
11.2613498781
 31
0.0
 11
10.275937769
 21
11.2698577838
 31
0.0
 11
10.277001375
 21
11.2783689171
 31
0.0
 11
10.2781857666
 21
11.2868853095
 31
0.0
 11
10.2794899273
 21
11.2954094845
 31
0.0
 11
10.2809129283
 21
11.3039444632
 31
0.0
 11
10.2824539743
 21
11.3124938055
 31
0.0
 11
10.2841124475
 21
11.3210616307
 31
0.0
 11
10.2858879427
 21
11.3296526051
 31
0.0
 11
10.2877803049
 21
11.3382719469
 31
0.0
 11
10.2897896625
 21
11.3469254271
 31
0.0
 11
10.2919164586
 21
11.3556193671
 31
0.0
 11
10.2941614927
 21
11.3643606885
 31
0.0
 11
10.2965259379
 21
11.373156867
 31
0.0
 11
10.2990113956
 21
11.3820160382
 31
0.0
 11
10.3016198697
 21
11.3909468144
 31
0.0
  0
SPLINE
  5
528
100
AcDbEntity
  8
0
100
AcDbSpline
 62
7
  6
CONTINUOUS
 70
0
 71
3
 72
57
 73
53
 74
51
 42
0.0000001
 43
0.0000001
 44
0.0000000001
 12
0.1814542154
 22
0.3518390874
 32
0.0
 13
-0.1814542154
 23
0.3518390874
 33
0.0
 40
0.0
 40
0.0
 40
0.0
 40
0.0
 40
0.0234547239
 40
0.0464285952
 40
0.0689545578
 40
0.091063946
 40
0.1127860278
 40
0.1341484601
 40
0.1551772316
 40
0.1758969924
 40
0.1963311366
 40
0.2165018925
 40
0.2364304267
 40
0.2561368679
 40
0.2756404078
 40
0.2949595351
 40
0.3141120267
 40
0.3331150197
 40
0.3519850705
 40
0.3707380955
 40
0.389389647
 40
0.4079549419
 40
0.4264488773
 40
0.4448860843
 40
0.4632809221
 40
0.4816475123
 40
0.5
 40
0.5183524878
 40
0.5367190779
 40
0.5551139157
 40
0.5735511227
 40
0.5920450581
 40
0.610610353
 40
0.6292619045
 40
0.6480149295
 40
0.6668849803
 40
0.6858879733
 40
0.7050404649
 40
0.7243595922
 40
0.7438631321
 40
0.7635695733
 40
0.7834981075
 40
0.8036688634
 40
0.8241030076
 40
0.8448227684
 40
0.86585154
 40
0.8872139722
 40
0.908936054
 40
0.9310454422
 40
0.9535714048
 40
0.9765452761
 40
1.0
 40
1.0
 40
1.0
 40
1.0
 10
10.7370562038
 20
10.5751423191
 30
0.0
 10
10.7384748567
 20
10.5778930819
 30
0.0
 10
10.7412443927
 20
10.583358278
 30
0.0
 10
10.7452372619
 20
10.5915348728
 30
0.0
 10
10.7490301827
 20
10.5996104356
 30
0.0
 10
10.7526290061
 20
10.6075935003
 30
0.0
 10
10.7560389492
 20
10.6154921061
 30
0.0
 10
10.7592645984
 20
10.6233137327
 30
0.0
 10
10.7623099784
 20
10.6310653743
 30
0.0
 10
10.765178593
 20
10.6387535594
 30
0.0
 10
10.7678734738
 20
10.6463843928
 30
0.0
 10
10.770397217
 20
10.6539635713
 30
0.0
 10
10.7727520187
 20
10.6614963932
 30
0.0
 10
10.7749397109
 20
10.6689877699
 30
0.0
 10
10.7769618028
 20
10.6764422566
 30
0.0
 10
10.7788195195
 20
10.6838640804
 30
0.0
 10
10.7805138375
 20
10.6912571682
 30
0.0
 10
10.7820455147
 20
10.6986251529
 30
0.0
 10
10.7834151191
 20
10.7059713762
 30
0.0
 10
10.7846230636
 20
10.7132989195
 30
0.0
 10
10.7856696369
 20
10.7206106339
 30
0.0
 10
10.7865550321
 20
10.7279091822
 30
0.0
 10
10.7872793683
 20
10.7351970548
 30
0.0
 10
10.7878427107
 20
10.7424765826
 30
0.0
 10
10.7882450886
 20
10.7497499546
 30
0.0
 10
10.7884865132
 20
10.7570192644
 30
0.0
 10
10.7885669879
 20
10.7642865497
 30
0.0
 10
10.7884865132
 20
10.7715538351
 30
0.0
 10
10.7882450886
 20
10.7788231449
 30
0.0
 10
10.7878427107
 20
10.7860965169
 30
0.0
 10
10.7872793683
 20
10.7933760447
 30
0.0
 10
10.7865550321
 20
10.8006639173
 30
0.0
 10
10.7856696369
 20
10.8079624656
 30
0.0
 10
10.7846230636
 20
10.81527418
 30
0.0
 10
10.7834151191
 20
10.8226017233
 30
0.0
 10
10.7820455147
 20
10.8299479466
 30
0.0
 10
10.7805138375
 20
10.8373159312
 30
0.0
 10
10.7788195195
 20
10.844709019
 30
0.0
 10
10.7769618028
 20
10.8521308429
 30
0.0
 10
10.7749397109
 20
10.8595853296
 30
0.0
 10
10.7727520187
 20
10.8670767063
 30
0.0
 10
10.770397217
 20
10.8746095281
 30
0.0
 10
10.7678734738
 20
10.8821887067
 30
0.0
 10
10.765178593
 20
10.8898195401
 30
0.0
 10
10.7623099784
 20
10.8975077251
 30
0.0
 10
10.7592645984
 20
10.9052593667
 30
0.0
 10
10.7560389492
 20
10.9130809933
 30
0.0
 10
10.7526290061
 20
10.9209795992
 30
0.0
 10
10.7490301827
 20
10.9289626639
 30
0.0
 10
10.7452372619
 20
10.9370382267
 30
0.0
 10
10.7412443927
 20
10.9452148215
 30
0.0
 10
10.7384748567
 20
10.9506800175
 30
0.0
 10
10.7370562038
 20
10.9534307804
 30
0.0
 11
10.7370562038
 21
10.5751423191
 31
0.0
 11
10.7412523917
 21
10.5834251602
 31
0.0
 11
10.7452422585
 21
10.5915980222
 31
0.0
 11
10.7490323316
 21
10.5996699619
 31
0.0
 11
10.7526284952
 21
10.6076495921
 31
0.0
 11
10.7560359346
 21
10.6155448942
 31
0.0
 11
10.7592592376
 21
10.6233633587
 31
0.0
 11
10.7623024095
 21
10.6311119413
 31
0.0
 11
10.7651689489
 21
10.6387971623
 31
0.0
 11
10.7678618823
 21
10.6464251174
 31
0.0
 11
10.7703838012
 21
10.6540014922
 31
0.0
 11
10.7727369006
 21
10.6615315838
 31
0.0
 11
10.7749230089
 21
10.6690202931
 31
0.0
 11
10.7769436282
 21
10.6764721477
 31
0.0
 11
10.7787999856
 21
10.6838913783
 31
0.0
 11
10.7804930573
 21
10.691281905
 31
0.0
 11
10.7820236018
 21
10.6986473562
 31
0.0
 11
10.7833921909
 21
10.7059910845
 31
0.0
 11
10.7845992331
 21
10.7133161394
 31
0.0
 11
10.7856450195
 21
10.720625372
 31
0.0
 11
10.7865297456
 21
10.7279214477
 31
0.0
 11
10.7872535319
 21
10.7352068546
 31
0.0
 11
10.7878164456
 21
10.7424839296
 31
0.0
 11
10.7882185171
 21
10.7497548626
 31
0.0
 11
10.7884597569
 21
10.7570217185
 31
0.0
 11
10.7885401698
 21
10.7642865497
 31
0.0
 11
10.7884597569
 21
10.771551381
 31
0.0
 11
10.7882185171
 21
10.7788182368
 31
0.0
 11
10.7878164456
 21
10.7860891699
 31
0.0
 11
10.7872535319
 21
10.7933662449
 31
0.0
 11
10.7865297456
 21
10.8006516517
 31
0.0
 11
10.7856450195
 21
10.8079477274
 31
0.0
 11
10.7845992331
 21
10.8152569601
 31
0.0
 11
10.7833921909
 21
10.8225820149
 31
0.0
 11
10.7820236018
 21
10.8299257433
 31
0.0
 11
10.7804930573
 21
10.8372911944
 31
0.0
 11
10.7787999856
 21
10.8446817211
 31
0.0
 11
10.7769436282
 21
10.8521009518
 31
0.0
 11
10.7749230089
 21
10.8595528064
 31
0.0
 11
10.7727369006
 21
10.8670415157
 31
0.0
 11
10.7703838012
 21
10.8745716073
 31
0.0
 11
10.7678618823
 21
10.8821479821
 31
0.0
 11
10.7651689489
 21
10.8897759371
 31
0.0
 11
10.7623024095
 21
10.8974611581
 31
0.0
 11
10.7592592376
 21
10.9052097408
 31
0.0
 11
10.7560359346
 21
10.9130282053
 31
0.0
 11
10.7526284952
 21
10.9209235074
 31
0.0
 11
10.7490323316
 21
10.9289031375
 31
0.0
 11
10.7452422585
 21
10.9369750773
 31
0.0
 11
10.7412523917
 21
10.9451479392
 31
0.0
 11
10.7370562038
 21
10.9534307804
 31
0.0
  0
SPLINE
  5
529
100
AcDbEntity
  8
0
100
AcDbSpline
 62
7
  6
CONTINUOUS
 70
0
 71
3
 72
51
 73
47
 74
45
 42
0.0000001
 43
0.0000001
 44
0.0000000001
 12
-0.1096693594
 22
0.3683180118
 32
0.0
 13
0.1096693594
 23
0.3683180118
 33
0.0
 40
0.0
 40
0.0
 40
0.0
 40
0.0
 40
0.0242101197
 40
0.0481529977
 40
0.0718544083
 40
0.0953387786
 40
0.11862873
 40
0.1417453972
 40
0.1647083387
 40
0.1875357009
 40
0.2102442435
 40
0.2328493687
 40
0.2553651619
 40
0.2778043797
 40
0.3001785247
 40
0.3224979661
 40
0.3447719642
 40
0.3670087422
 40
0.3892155569
 40
0.4113987349
 40
0.4335639256
 40
0.4557161894
 40
0.4778601221
 40
0.5
 40
0.5221398779
 40
0.5442838106
 40
0.5664360744
 40
0.5886012651
 40
0.6107844431
 40
0.6329912578
 40
0.6552280358
 40
0.6775020339
 40
0.6998214753
 40
0.7221956203
 40
0.7446348381
 40
0.7671506314
 40
0.7897557565
 40
0.8124642991
 40
0.8352916613
 40
0.8582546028
 40
0.88137127
 40
0.9046612214
 40
0.9281455917
 40
0.9518470023
 40
0.9757898803
 40
1.0
 40
1.0
 40
1.0
 40
1.0
 10
10.3016198697
 20
10.5751423191
 30
0.0
 10
10.3007348336
 20
10.5781146601
 30
0.0
 10
10.2990050263
 20
10.5840356666
 30
0.0
 10
10.2965180594
 20
10.5928980204
 30
0.0
 10
10.2941521915
 20
10.6016972512
 30
0.0
 10
10.2919058374
 20
10.6104414246
 30
0.0
 10
10.2897778107
 20
10.6191380582
 30
0.0
 10
10.2877673125
 20
10.6277940608
 30
0.0
 10
10.2858738931
 20
10.6364157738
 30
0.0
 10
10.2840974217
 20
10.6450089705
 30
0.0
 10
10.2824380514
 20
10.653578872
 30
0.0
 10
10.2808961848
 20
10.6621301485
 30
0.0
 10
10.2794724393
 20
10.670666917
 30
0.0
 10
10.2781676073
 20
10.6791927454
 30
0.0
 10
10.2769826147
 20
10.6877106691
 30
0.0
 10
10.2759184768
 20
10.6962232128
 30
0.0
 10
10.2749762556
 20
10.7047324158
 30
0.0
 10
10.2741570174
 20
10.7132398515
 30
0.0
 10
10.2734617908
 20
10.7217466518
 30
0.0
 10
10.2728915257
 20
10.7302535565
 30
0.0
 10
10.2724470553
 20
10.7387609676
 30
0.0
 10
10.2721290633
 20
10.7472690173
 30
0.0
 10
10.2719380585
 20
10.7557776236
 30
0.0
 10
10.2718743548
 20
10.7642865497
 30
0.0
 10
10.2719380585
 20
10.7727954758
 30
0.0
 10
10.2721290633
 20
10.7813040822
 30
0.0
 10
10.2724470553
 20
10.7898121319
 30
0.0
 10
10.2728915257
 20
10.798319543
 30
0.0
 10
10.2734617908
 20
10.8068264477
 30
0.0
 10
10.2741570174
 20
10.815333248
 30
0.0
 10
10.2749762556
 20
10.8238406837
 30
0.0
 10
10.2759184768
 20
10.8323498867
 30
0.0
 10
10.2769826147
 20
10.8408624304
 30
0.0
 10
10.2781676073
 20
10.849380354
 30
0.0
 10
10.2794724393
 20
10.8579061825
 30
0.0
 10
10.2808961848
 20
10.866442951
 30
0.0
 10
10.2824380514
 20
10.8749942275
 30
0.0
 10
10.2840974217
 20
10.883564129
 30
0.0
 10
10.2858738931
 20
10.8921573256
 30
0.0
 10
10.2877673125
 20
10.9007790387
 30
0.0
 10
10.2897778107
 20
10.9094350413
 30
0.0
 10
10.2919058374
 20
10.9181316749
 30
0.0
 10
10.2941521915
 20
10.9268758482
 30
0.0
 10
10.2965180594
 20
10.9356750791
 30
0.0
 10
10.2990050263
 20
10.9445374329
 30
0.0
 10
10.3007348336
 20
10.9504584394
 30
0.0
 10
10.3016198697
 20
10.9534307804
 30
0.0
 11
10.3016198697
 21
10.5751423191
 31
0.0
 11
10.2990113956
 21
10.5840730953
 31
0.0
 11
10.2965259379
 21
10.5929322664
 31
0.0
 11
10.2941614927
 21
10.601728445
 31
0.0
 11
10.2919164586
 21
10.6104697664
 31
0.0
 11
10.2897896625
 21
10.6191637064
 31
0.0
 11
10.2877803049
 21
10.6278171865
 31
0.0
 11
10.2858879427
 21
10.6364365283
 31
0.0
 11
10.2841124475
 21
10.6450275027
 31
0.0
 11
10.2824539743
 21
10.653595328
 31
0.0
 11
10.2809129283
 21
10.6621446702
 31
0.0
 11
10.2794899273
 21
10.670679649
 31
0.0
 11
10.2781857666
 21
10.679203824
 31
0.0
 11
10.277001375
 21
10.6877202164
 31
0.0
 11
10.275937769
 21
10.6962313497
 31
0.0
 11
10.274996012
 21
10.7047392554
 31
0.0
 11
10.2741771717
 21
10.7132455
 31
0.0
 11
10.2734822779
 21
10.7217512128
 31
0.0
 11
10.2729122833
 21
10.7302571035
 31
0.0
 11
10.2724680218
 21
10.7387635653
 31
0.0
 11
10.2721501783
 21
10.747270717
 31
0.0
 11
10.2719592623
 21
10.7557784607
 31
0.0
 11
10.2718955881
 21
10.7642865497
 31
0.0
 11
10.2719592623
 21
10.7727946388
 31
0.0
 11
10.2721501783
 21
10.7813023825
 31
0.0
 11
10.2724680218
 21
10.7898095342
 31
0.0
 11
10.2729122833
 21
10.798315996
 31
0.0
 11
10.2734822779
 21
10.8068218867
 31
0.0
 11
10.2741771717
 21
10.8153275995
 31
0.0
 11
10.274996012
 21
10.8238338441
 31
0.0
 11
10.275937769
 21
10.8323417498
 31
0.0
 11
10.277001375
 21
10.8408528831
 31
0.0
 11
10.2781857666
 21
10.8493692755
 31
0.0
 11
10.2794899273
 21
10.8578934505
 31
0.0
 11
10.2809129283
 21
10.8664284292
 31
0.0
 11
10.2824539743
 21
10.8749777715
 31
0.0
 11
10.2841124475
 21
10.8835455967
 31
0.0
 11
10.2858879427
 21
10.8921365711
 31
0.0
 11
10.2877803049
 21
10.9007559129
 31
0.0
 11
10.2897896625
 21
10.9094093931
 31
0.0
 11
10.2919164586
 21
10.9181033331
 31
0.0
 11
10.2941614927
 21
10.9268446545
 31
0.0
 11
10.2965259379
 21
10.935640833
 31
0.0
 11
10.2990113956
 21
10.9445000042
 31
0.0
 11
10.3016198697
 21
10.9534307804
 31
0.0
  0
ENDSEC
  0
SECTION
  2
OBJECTS
  0
DICTIONARY
  5
C
100
AcDbDictionary
280
0
281
1
  3
ACAD_GROUP
350
D
  3
ACAD_MLINESTYLE
350
17
  3
ACAD_LAYOUT
350
1A
  3
ACAD_PLOTSETTINGS
350
19
  3
ACAD_PLOTSTYLENAME
350
E
  0
DICTIONARY
  5
D
102
{ACAD_REACTORS
330
C
102
}
100
AcDbDictionary
280
0
281
1
  0
ACDBDICTIONARYWDFLT
  5
E
102
{ACAD_REACTORS
330
C
102
}
100
AcDbDictionary
281
1
  3
Normal
350
F
100
AcDbDictionaryWithDefault
340
F
  0
DICTIONARY
  5
17
102
{ACAD_REACTORS
330
C
102
}
100
AcDbDictionary
280
0
281
1
  3
Standard
350
18
  0
DICTIONARY
  5
19
102
{ACAD_REACTORS
330
C
102
}
100
AcDbDictionary
281
1
  0
DICTIONARY
  5
1A
102
{ACAD_REACTORS
330
C
102
}
100
AcDbDictionary
281
1
  3
Layout1
350
1E
  3
Model
350
22
  0
ACDBPLACEHOLDER
  5
F
102
{ACAD_REACTORS
330
E
102
}
  0
MLINESTYLE
  5
18
102
{ACAD_REACTORS
330
17
102
}
100
AcDbMlineStyle
  2
STANDARD
 70
0
  3

 62
256
 51
90.0
 52
90.0
 71
2
 49
0.5
 62
256
  6
BYLAYER
 49
-0.5
 62
256
  6
BYLAYER
  0
LAYOUT
  5
1E
102
{ACAD_REACTORS
330
1A
102
}
100
AcDbPlotSettings
  1

  2

  4

  6

 40
0.0
 41
0.0
 42
0.0
 43
0.0
 44
0.0
 45
0.0
 46
0.0
 47
0.0
 48
0.0
 49
0.0
140
0.0
141
0.0
142
1.0
143
1.0
 70
0
 72
0
 73
0
 74
0
  7

 75
0
147
1.0
148
0.0
149
0.0
100
AcDbLayout
  1
Layout1
 70
0
 71
0
 10
0.0
 20
0.0
 11
0.0
 21
0.0
 12
0.0
 22
0.0
 32
0.0
 14
0.0
 24
0.0
 34
0.0
 15
0.0
 25
0.0
 35
0.0
146
0.0
 13
0.0
 23
0.0
 33
0.0
 16
0.0
 26
0.0
 36
0.0
 17
0.0
 27
0.0
 37
0.0
 76
0
330
1B
331
0
345
0
346
0
  0
LAYOUT
  5
22
102
{ACAD_REACTORS
330
1A
102
}
100
AcDbPlotSettings
  1

  2

  4

  6

 40
0.0
 41
0.0
 42
0.0
 43
0.0
 44
0.0
 45
0.0
 46
0.0
 47
0.0
 48
0.0
 49
0.0
140
0.0
141
0.0
142
1.0
143
1.0
 70
0
 72
0
 73
0
 74
0
  7

 75
0
147
1.0
148
0.0
149
0.0
100
AcDbLayout
  1
Model
 70
0
 71
0
 10
0.0
 20
0.0
 11
0.0
 21
0.0
 12
0.0
 22
0.0
 32
0.0
 14
0.0
 24
0.0
 34
0.0
 15
0.0
 25
0.0
 35
0.0
146
0.0
 13
0.0
 23
0.0
 33
0.0
 16
0.0
 26
0.0
 36
0.0
 17
0.0
 27
0.0
 37
0.0
 76
0
330
1F
331
0
345
0
346
0
  0
ENDSEC
  0
EOF
