999
DXF file: FMK_6.dxf
999
Pro/ENGINEER 2006240 by Parametric Technology Corporation
  0
SECTION
  2
HEADER
  9
$ACADVER
  1
AC1015
  9
$DWGCODEPAGE
  3
ANSI_1252
  9
$EXTMAX
 10
22.0
 20
17.0
 30
0.0
  9
$EXTMIN
 10
0.0
 20
0.0
 30
0.0
  9
$LIMMIN
 10
0.0
 20
0.0
  9
$LIMMAX
 10
22.0
 20
17.0
  9
$VIEWCTR
 10
11.0
 20
8.5
  9
$VIEWSIZE
 40
17.0
  9
$CLAYER
  8
0
  9
$LTSCALE
 40
1.21
  9
$CELTYPE
  6
BYLAYER
  9
$DIMSCALE
 40
1.0
  9
$DIMASZ
 40
0.1875
  9
$DIMEXO
 40
0.1375
  9
$DIMDLI
 40
0.836
  9
$DIMEXE
 40
0.396
  9
$DIMCEN
 40
0.198
  9
$DIMLFAC
 40
1.0
  9
$DIMBLK
  1
_CLOSED
  9
$DIMTXT
 40
0.15625
  9
$DIMTOL
 70
0
  9
$DIMLIM
 70
0
  9
$DIMTFAC
 40
1.0
  9
$PDMODE
 70
3
  9
$PDSIZE
 40
0.3125
  9
$HANDSEED
  5
538
  9
$MEASUREMENT
 70
0
  9
$INSUNITS
 70
1
  0
ENDSEC
  0
SECTION
  2
CLASSES
  0
CLASS
  1
ACDBDICTIONARYWDFLT
  2
AcDbDictionaryWithDefault
  3
AutoCAD 2000
 90
0
280
0
281
0
  0
CLASS
  1
ACDBPLACEHOLDER
  2
AcDbPlaceHolder
  3
AutoCAD 2000
 90
0
280
0
281
0
  0
CLASS
  1
LAYOUT
  2
AcDbLayout
  3
AutoCAD 2000
 90
0
280
0
281
0
  0
ENDSEC
  0
SECTION
  2
TABLES
  0
TABLE
  2
VPORT
  5
8
100
AcDbSymbolTable
 70
2
  0
VPORT
  5
1F4
100
AcDbSymbolTableRecord
100
AcDbViewportTableRecord
  2
*ACTIVE
 70
0
 10
0.0
 20
0.0
 11
1.0
 21
1.0
 12
11.0
 22
8.5
 13
0.0
 23
0.0
 14
1.0
 24
1.0
 15
0.0
 25
0.0
 16
0.0
 26
0.0
 36
1.0
 17
0.0
 27
0.0
 37
0.0
 40
17.0
 41
1.2941176471
 42
50.0
 43
0.0
 44
0.0
 50
0.0
 51
0.0
 71
0
 72
100
 73
1
 74
1
 75
0
 76
0
 77
0
 78
0
  0
ENDTAB
  0
TABLE
  2
LTYPE
  5
5
100
AcDbSymbolTable
 70
6
  0
LTYPE
  5
14
100
AcDbSymbolTableRecord
100
AcDbLinetypeTableRecord
  2
BYBLOCK
 70
0
  3

 72
65
 73
0
 40
0.0
  0
LTYPE
  5
15
100
AcDbSymbolTableRecord
100
AcDbLinetypeTableRecord
  2
BYLAYER
 70
0
  3

 72
65
 73
0
 40
0.0
  0
LTYPE
  5
16
100
AcDbSymbolTableRecord
100
AcDbLinetypeTableRecord
  2
CONTINUOUS
 70
64
  3
Solid line
 72
65
 73
0
 40
0.0
  0
LTYPE
  5
1F5
100
AcDbSymbolTableRecord
100
AcDbLinetypeTableRecord
  2
CENTER
 70
64
  3
____ _ ____ _ ____ _ ____ _ ____ _ ____ _ ____
 72
65
 73
4
 40
0.6
 49
0.375
 74
0
 49
-0.075
 74
0
 49
0.075
 74
0
 49
-0.075
 74
0
  0
LTYPE
  5
1F6
100
AcDbSymbolTableRecord
100
AcDbLinetypeTableRecord
  2
HIDDEN
 70
64
  3
- - - - - - - - - - - - - - - - - - - -
 72
65
 73
2
 40
0.2
 49
0.1
 74
0
 49
-0.1
 74
0
  0
LTYPE
  5
1F7
100
AcDbSymbolTableRecord
100
AcDbLinetypeTableRecord
  2
PHANTOM
 70
64
  3
_____ _ _ _____ _ _ _____ _ _ _____
 72
65
 73
6
 40
0.8
 49
0.45
 74
0
 49
-0.05
 74
0
 49
0.1
 74
0
 49
-0.05
 74
0
 49
0.1
 74
0
 49
-0.05
 74
0
  0
LTYPE
  5
1F8
100
AcDbSymbolTableRecord
100
AcDbLinetypeTableRecord
  2
DOT
 70
64
  3
. . . . . . . . . . . . . . . . . . . .
 72
65
 73
2
 40
0.2
 49
0.1
 74
0
 49
-0.1
 74
0
  0
LTYPE
  5
1F9
100
AcDbSymbolTableRecord
100
AcDbLinetypeTableRecord
  2
DASHED
 70
64
  3
- - - - - - - - - - - - - - - - - - - -
 72
65
 73
2
 40
0.2
 49
0.1
 74
0
 49
-0.1
 74
0
  0
ENDTAB
  0
TABLE
  2
LAYER
  5
2
100
AcDbSymbolTable
 70
36
  0
LAYER
  5
10
100
AcDbSymbolTableRecord
100
AcDbLayerTableRecord
  2
0
 70
0
 62
7
  6
CONTINUOUS
370
-3
390
F
  0
LAYER
  5
1FA
100
AcDbSymbolTableRecord
100
AcDbLayerTableRecord
  2
DEFAULT_1
 70
0
 62
7
  6
CENTER
370
-3
390
F
  0
LAYER
  5
1FB
100
AcDbSymbolTableRecord
100
AcDbLayerTableRecord
  2
DEFAULT_2
 70
0
 62
8
  6
HIDDEN
370
-3
390
F
  0
LAYER
  5
1FC
100
AcDbSymbolTableRecord
100
AcDbLayerTableRecord
  2
DEFAULT_3
 70
0
 62
7
  6
PHANTOM
370
-3
390
F
  0
LAYER
  5
1FD
100
AcDbSymbolTableRecord
100
AcDbLayerTableRecord
  2
01_ALL_DTM_PLN
 70
0
 62
7
  6
CONTINUOUS
370
-3
390
F
  0
LAYER
  5
1FE
100
AcDbSymbolTableRecord
100
AcDbLayerTableRecord
  2
01__ASM_ALL_DTM_PLN
 70
0
 62
7
  6
CONTINUOUS
370
-3
390
F
  0
LAYER
  5
1FF
100
AcDbSymbolTableRecord
100
AcDbLayerTableRecord
  2
01__ASM_DEF_DTM_PLN
 70
0
 62
7
  6
CONTINUOUS
370
-3
390
F
  0
LAYER
  5
200
100
AcDbSymbolTableRecord
100
AcDbLayerTableRecord
  2
01___PRT_ALL_DTM_PLN
 70
0
 62
7
  6
CONTINUOUS
370
-3
390
F
  0
LAYER
  5
201
100
AcDbSymbolTableRecord
100
AcDbLayerTableRecord
  2
01___PRT_DEF_DTM_PLN
 70
0
 62
7
  6
CONTINUOUS
370
-3
390
F
  0
LAYER
  5
202
100
AcDbSymbolTableRecord
100
AcDbLayerTableRecord
  2
02_ALL_AXES
 70
0
 62
7
  6
CONTINUOUS
370
-3
390
F
  0
LAYER
  5
203
100
AcDbSymbolTableRecord
100
AcDbLayerTableRecord
  2
02__ASM_ALL_AXES
 70
0
 62
7
  6
CONTINUOUS
370
-3
390
F
  0
LAYER
  5
204
100
AcDbSymbolTableRecord
100
AcDbLayerTableRecord
  2
02___PRT_ALL_AXES
 70
0
 62
7
  6
CONTINUOUS
370
-3
390
F
  0
LAYER
  5
205
100
AcDbSymbolTableRecord
100
AcDbLayerTableRecord
  2
03_ALL_CURVES
 70
0
 62
7
  6
CONTINUOUS
370
-3
390
F
  0
LAYER
  5
206
100
AcDbSymbolTableRecord
100
AcDbLayerTableRecord
  2
03__ASM_ALL_CURVES
 70
0
 62
7
  6
CONTINUOUS
370
-3
390
F
  0
LAYER
  5
207
100
AcDbSymbolTableRecord
100
AcDbLayerTableRecord
  2
03___PRT_ALL_CURVES
 70
0
 62
7
  6
CONTINUOUS
370
-3
390
F
  0
LAYER
  5
208
100
AcDbSymbolTableRecord
100
AcDbLayerTableRecord
  2
04_ALL_DTM_PNT
 70
0
 62
7
  6
CONTINUOUS
370
-3
390
F
  0
LAYER
  5
209
100
AcDbSymbolTableRecord
100
AcDbLayerTableRecord
  2
04__ASM_ALL_DTM_PNT
 70
0
 62
7
  6
CONTINUOUS
370
-3
390
F
  0
LAYER
  5
20A
100
AcDbSymbolTableRecord
100
AcDbLayerTableRecord
  2
04___PRT_ALL_DTM_PNT
 70
0
 62
7
  6
CONTINUOUS
370
-3
390
F
  0
LAYER
  5
20B
100
AcDbSymbolTableRecord
100
AcDbLayerTableRecord
  2
05_ALL_DTM_CSYS
 70
0
 62
7
  6
CONTINUOUS
370
-3
390
F
  0
LAYER
  5
20C
100
AcDbSymbolTableRecord
100
AcDbLayerTableRecord
  2
05__ASM_ALL_DTM_CSYS
 70
0
 62
7
  6
CONTINUOUS
370
-3
390
F
  0
LAYER
  5
20D
100
AcDbSymbolTableRecord
100
AcDbLayerTableRecord
  2
05__ASM_DEF_DTM_CSYS
 70
0
 62
7
  6
CONTINUOUS
370
-3
390
F
  0
LAYER
  5
20E
100
AcDbSymbolTableRecord
100
AcDbLayerTableRecord
  2
05___PRT_ALL_DTM_CSYS
 70
0
 62
7
  6
CONTINUOUS
370
-3
390
F
  0
LAYER
  5
20F
100
AcDbSymbolTableRecord
100
AcDbLayerTableRecord
  2
05___PRT_DEF_DTM_CSYS
 70
0
 62
7
  6
CONTINUOUS
370
-3
390
F
  0
LAYER
  5
210
100
AcDbSymbolTableRecord
100
AcDbLayerTableRecord
  2
06_ALL_SURFS
 70
0
 62
7
  6
CONTINUOUS
370
-3
390
F
  0
LAYER
  5
211
100
AcDbSymbolTableRecord
100
AcDbLayerTableRecord
  2
06__ASM_ALL_SURFS
 70
0
 62
7
  6
CONTINUOUS
370
-3
390
F
  0
LAYER
  5
212
100
AcDbSymbolTableRecord
100
AcDbLayerTableRecord
  2
06___PRT_ALL_SURFS
 70
0
 62
7
  6
CONTINUOUS
370
-3
390
F
  0
LAYER
  5
213
100
AcDbSymbolTableRecord
100
AcDbLayerTableRecord
  2
07__ASM_ALL_SKELETONS
 70
0
 62
7
  6
CONTINUOUS
370
-3
390
F
  0
LAYER
  5
214
100
AcDbSymbolTableRecord
100
AcDbLayerTableRecord
  2
COPY_GEO_FET
 70
0
 62
7
  6
CONTINUOUS
370
-3
390
F
  0
LAYER
  5
215
100
AcDbSymbolTableRecord
100
AcDbLayerTableRecord
  2
COSMETIC
 70
0
 62
7
  6
CONTINUOUS
370
-3
390
F
  0
LAYER
  5
216
100
AcDbSymbolTableRecord
100
AcDbLayerTableRecord
  2
CUT_REF_SURF
 70
0
 62
7
  6
CONTINUOUS
370
-3
390
F
  0
LAYER
  5
217
100
AcDbSymbolTableRecord
100
AcDbLayerTableRecord
  2
DATESTAMP
 70
0
 62
7
  6
CONTINUOUS
370
-3
390
F
  0
LAYER
  5
218
100
AcDbSymbolTableRecord
100
AcDbLayerTableRecord
  2
DATUM
 70
0
 62
7
  6
CONTINUOUS
370
-3
390
F
  0
LAYER
  5
219
100
AcDbSymbolTableRecord
100
AcDbLayerTableRecord
  2
DATUM_B
 70
0
 62
7
  6
CONTINUOUS
370
-3
390
F
  0
LAYER
  5
21A
100
AcDbSymbolTableRecord
100
AcDbLayerTableRecord
  2
DATUM_PLANES
 70
0
 62
7
  6
CONTINUOUS
370
-3
390
F
  0
LAYER
  5
21B
100
AcDbSymbolTableRecord
100
AcDbLayerTableRecord
  2
DIM
 70
0
 62
7
  6
CONTINUOUS
370
-3
390
F
  0
LAYER
  5
21C
100
AcDbSymbolTableRecord
100
AcDbLayerTableRecord
  2
DIM_1
 70
0
 62
7
  6
CONTINUOUS
370
-3
390
F
  0
LAYER
  5
21D
100
AcDbSymbolTableRecord
100
AcDbLayerTableRecord
  2
DIM_2
 70
0
 62
7
  6
CONTINUOUS
370
-3
390
F
  0
LAYER
  5
21E
100
AcDbSymbolTableRecord
100
AcDbLayerTableRecord
  2
DIM_3
 70
0
 62
7
  6
CONTINUOUS
370
-3
390
F
  0
LAYER
  5
21F
100
AcDbSymbolTableRecord
100
AcDbLayerTableRecord
  2
DIM_4
 70
0
 62
7
  6
CONTINUOUS
370
-3
390
F
  0
LAYER
  5
220
100
AcDbSymbolTableRecord
100
AcDbLayerTableRecord
  2
DIM_5
 70
0
 62
7
  6
CONTINUOUS
370
-3
390
F
  0
LAYER
  5
221
100
AcDbSymbolTableRecord
100
AcDbLayerTableRecord
  2
DIM_6
 70
0
 62
7
  6
CONTINUOUS
370
-3
390
F
  0
LAYER
  5
222
100
AcDbSymbolTableRecord
100
AcDbLayerTableRecord
  2
DTM
 70
0
 62
7
  6
CONTINUOUS
370
-3
390
F
  0
LAYER
  5
223
100
AcDbSymbolTableRecord
100
AcDbLayerTableRecord
  2
EXT_COPY_GEO
 70
0
 62
7
  6
CONTINUOUS
370
-3
390
F
  0
LAYER
  5
224
100
AcDbSymbolTableRecord
100
AcDbLayerTableRecord
  2
FMK_10
 70
0
 62
7
  6
CONTINUOUS
370
-3
390
F
  0
LAYER
  5
225
100
AcDbSymbolTableRecord
100
AcDbLayerTableRecord
  2
FMK_2
 70
0
 62
7
  6
CONTINUOUS
370
-3
390
F
  0
LAYER
  5
226
100
AcDbSymbolTableRecord
100
AcDbLayerTableRecord
  2
FMK_5
 70
0
 62
7
  6
CONTINUOUS
370
-3
390
F
  0
LAYER
  5
227
100
AcDbSymbolTableRecord
100
AcDbLayerTableRecord
  2
FMK_6
 70
0
 62
7
  6
CONTINUOUS
370
-3
390
F
  0
LAYER
  5
228
100
AcDbSymbolTableRecord
100
AcDbLayerTableRecord
  2
FMK_7
 70
0
 62
7
  6
CONTINUOUS
370
-3
390
F
  0
LAYER
  5
229
100
AcDbSymbolTableRecord
100
AcDbLayerTableRecord
  2
FMK_8
 70
0
 62
7
  6
CONTINUOUS
370
-3
390
F
  0
LAYER
  5
22A
100
AcDbSymbolTableRecord
100
AcDbLayerTableRecord
  2
LS
 70
0
 62
7
  6
CONTINUOUS
370
-3
390
F
  0
LAYER
  5
22B
100
AcDbSymbolTableRecord
100
AcDbLayerTableRecord
  2
ORIGIN
 70
0
 62
7
  6
CONTINUOUS
370
-3
390
F
  0
LAYER
  5
22C
100
AcDbSymbolTableRecord
100
AcDbLayerTableRecord
  2
PARTNUMBER
 70
0
 62
7
  6
CONTINUOUS
370
-3
390
F
  0
LAYER
  5
22D
100
AcDbSymbolTableRecord
100
AcDbLayerTableRecord
  2
PORT_AREAS
 70
0
 62
7
  6
CONTINUOUS
370
-3
390
F
  0
LAYER
  5
22E
100
AcDbSymbolTableRecord
100
AcDbLayerTableRecord
  2
TEXT
 70
0
 62
7
  6
CONTINUOUS
370
-3
390
F
  0
LAYER
  5
22F
100
AcDbSymbolTableRecord
100
AcDbLayerTableRecord
  2
THREAD
 70
0
 62
7
  6
CONTINUOUS
370
-3
390
F
  0
LAYER
  5
230
100
AcDbSymbolTableRecord
100
AcDbLayerTableRecord
  2
THREADS
 70
0
 62
7
  6
CONTINUOUS
370
-3
390
F
  0
ENDTAB
  0
TABLE
  2
STYLE
  5
3
100
AcDbSymbolTable
 70
1
  0
STYLE
  5
11
100
AcDbSymbolTableRecord
100
AcDbTextStyleTableRecord
  2
STANDARD
 70
0
 40
0.0
 41
0.8
 50
0.0
 71
0
 42
0.2
  3
txt
  4

  0
ENDTAB
  0
TABLE
  2
VIEW
  5
6
100
AcDbSymbolTable
 70
0
  0
ENDTAB
  0
TABLE
  2
UCS
  5
7
100
AcDbSymbolTable
 70
0
  0
ENDTAB
  0
TABLE
  2
APPID
  5
9
100
AcDbSymbolTable
 70
1
  0
APPID
  5
231
100
AcDbSymbolTableRecord
100
AcDbRegAppTableRecord
  2
ACAD
 70
0
  0
ENDTAB
  0
TABLE
  2
BLOCK_RECORD
  5
1
100
AcDbSymbolTable
 70
0
  0
BLOCK_RECORD
  5
1F
100
AcDbSymbolTableRecord
100
AcDbBlockTableRecord
  2
*MODEL_SPACE
  0
BLOCK_RECORD
  5
1B
100
AcDbSymbolTableRecord
100
AcDbBlockTableRecord
  2
*PAPER_SPACE
  0
ENDTAB
  0
TABLE
  2
DIMSTYLE
  5
A
100
AcDbSymbolTable
 70
1
100
AcDbDimStyleTable
 71
0
  0
DIMSTYLE
105
232
100
AcDbSymbolTableRecord
100
AcDbDimStyleTableRecord
  2
STANDARD
 70
0
  3

  4

 40
1.0
 41
0.1875
 42
0.0625
 43
0.38
 44
0.18
 45
0.0
 46
0.0
 47
0.01
 48
0.01
140
0.15625
141
0.09
142
0.0
143
25.4
144
1.0
145
0.0
146
1.0
147
0.09
 71
0.0
 72
0.0
 73
1
 74
1
 75
0
 76
0
 77
0
 78
4
170
0
171
2
172
0
173
0
174
0
175
0
176
0
177
0
178
0
270
2
271
2
272
2
273
2
274
2
275
0
280
0
281
0
282
0
283
1
284
4
285
0
286
0
287
3
288
0
340
11
  0
ENDTAB
  0
ENDSEC
  0
SECTION
  2
BLOCKS
  0
BLOCK
  5
20
100
AcDbEntity
  8
0
100
AcDbBlockBegin
  2
*MODEL_SPACE
 70
0
 10
0.0
 20
0.0
 30
0.0
  3
*MODEL_SPACE
  1

  0
ENDBLK
  5
21
100
AcDbEntity
  8
0
100
AcDbBlockEnd
  0
BLOCK
  5
1C
100
AcDbEntity
  8
0
100
AcDbBlockBegin
  2
*PAPER_SPACE
 70
0
 10
0.0
 20
0.0
 30
0.0
  3
*PAPER_SPACE
  1

  0
ENDBLK
  5
1D
100
AcDbEntity
  8
0
100
AcDbBlockEnd
  0
ENDSEC
  0
SECTION
  2
ENTITIES
  0
LINE
  5
233
100
AcDbEntity
  8
03__ASM_ALL_CURVES
100
AcDbLine
 62
4
  6
CONTINUOUS
 10
7.7142737237
 20
6.7008295612
 11
7.7064710533
 21
6.7066815612
  0
LINE
  5
234
100
AcDbEntity
  8
03__ASM_ALL_CURVES
100
AcDbLine
 62
4
  6
CONTINUOUS
 10
7.7532870561
 20
6.7183855612
 11
7.7688923885
 21
6.7066815612
  0
LINE
  5
235
100
AcDbEntity
  8
03__ASM_ALL_CURVES
100
AcDbLine
 62
4
  6
CONTINUOUS
 10
7.7298790533
 20
6.7476455612
 11
7.7376817237
 21
6.7417935612
  0
LINE
  5
236
100
AcDbEntity
  8
03__ASM_ALL_CURVES
100
AcDbLine
 62
4
  6
CONTINUOUS
 10
7.7064710533
 20
6.7066815612
 11
7.6986683885
 21
6.7183855612
  0
LINE
  5
237
100
AcDbEntity
  8
03__ASM_ALL_CURVES
100
AcDbLine
 62
4
  6
CONTINUOUS
 10
7.7376817237
 20
6.7417935612
 11
7.7532870561
 21
6.7183855612
  0
LINE
  5
238
100
AcDbEntity
  8
03__ASM_ALL_CURVES
100
AcDbLine
 62
4
  6
CONTINUOUS
 10
7.5613390533
 20
7.0812095612
 11
7.5535363885
 21
7.0929135612
  0
LINE
  5
239
100
AcDbEntity
  8
03__ASM_ALL_CURVES
100
AcDbLine
 62
4
  6
CONTINUOUS
 10
7.7064710533
 20
6.8939455612
 11
7.6986683885
 21
6.9056495612
  0
LINE
  5
23A
100
AcDbEntity
  8
03__ASM_ALL_CURVES
100
AcDbLine
 62
4
  6
CONTINUOUS
 10
7.7142737237
 20
6.8880935612
 11
7.7064710533
 21
6.8939455612
  0
LINE
  5
23B
100
AcDbEntity
  8
03__ASM_ALL_CURVES
100
AcDbLine
 62
4
  6
CONTINUOUS
 10
7.7610897209
 20
6.8822415612
 11
7.7454843885
 21
6.8939455612
  0
LINE
  5
23C
100
AcDbEntity
  8
03__ASM_ALL_CURVES
100
AcDbLine
 62
4
  6
CONTINUOUS
 10
7.7220763885
 20
6.9349095612
 11
7.7298790533
 21
6.9290575612
  0
LINE
  5
23D
100
AcDbEntity
  8
03__ASM_ALL_CURVES
100
AcDbLine
 62
4
  6
CONTINUOUS
 10
7.5691417237
 20
7.0753575612
 11
7.5613390533
 21
7.0812095612
  0
LINE
  5
23E
100
AcDbEntity
  8
03__ASM_ALL_CURVES
100
AcDbLine
 62
4
  6
CONTINUOUS
 10
7.7688923885
 20
6.9407615612
 11
7.7844977216
 21
6.9290575612
  0
LINE
  5
23F
100
AcDbEntity
  8
03__ASM_ALL_CURVES
100
AcDbLine
 62
4
  6
CONTINUOUS
 10
7.6081550561
 20
7.0929135612
 11
7.6237603885
 21
7.0812095612
  0
LINE
  5
240
100
AcDbEntity
  8
03__ASM_ALL_CURVES
100
AcDbLine
 62
4
  6
CONTINUOUS
 10
7.5847470533
 20
7.1221735612
 11
7.5925497237
 21
7.1163215612
  0
LINE
  5
241
100
AcDbEntity
  8
03__ASM_ALL_CURVES
100
AcDbLine
 62
4
  6
CONTINUOUS
 10
7.5925497237
 20
7.1163215612
 11
7.6081550561
 21
7.0929135612
  0
LINE
  5
242
100
AcDbEntity
  8
03__ASM_ALL_CURVES
100
AcDbLine
 62
4
  6
CONTINUOUS
 10
7.7454843885
 20
6.8939455612
 11
7.7376817237
 21
6.9056495612
  0
LINE
  5
243
100
AcDbEntity
  8
03__ASM_ALL_CURVES
100
AcDbLine
 62
4
  6
CONTINUOUS
 10
7.7298790533
 20
6.9290575612
 11
7.7376817237
 21
6.9173535612
  0
LINE
  5
244
100
AcDbEntity
  8
03__ASM_ALL_CURVES
100
AcDbLine
 62
4
  6
CONTINUOUS
 10
7.7844977216
 20
6.9290575612
 11
7.7923003885
 21
6.9173535612
  0
LINE
  5
245
100
AcDbEntity
  8
03__ASM_ALL_CURVES
100
AcDbLine
 62
4
  6
CONTINUOUS
 10
7.5613390533
 20
7.2743255612
 11
7.5535363885
 21
7.2860295612
  0
LINE
  5
246
100
AcDbEntity
  8
03__ASM_ALL_CURVES
100
AcDbLine
 62
4
  6
CONTINUOUS
 10
7.5613390533
 20
7.3621055612
 11
7.5535363885
 21
7.3738095612
  0
LINE
  5
247
100
AcDbEntity
  8
03__ASM_ALL_CURVES
100
AcDbLine
 62
4
  6
CONTINUOUS
 10
7.6393657216
 20
7.2977335612
 11
7.6471683885
 21
7.2860295612
  0
LINE
  5
248
100
AcDbEntity
  8
03__ASM_ALL_CURVES
100
AcDbLine
 62
4
  6
CONTINUOUS
 10
7.5847470533
 20
7.3972175612
 11
7.5925497237
 21
7.3855135612
  0
LINE
  5
249
100
AcDbEntity
  8
03__ASM_ALL_CURVES
100
AcDbLine
 62
4
  6
CONTINUOUS
 10
7.6393657216
 20
7.3972175612
 11
7.6471683885
 21
7.3855135612
  0
LINE
  5
24A
100
AcDbEntity
  8
03__ASM_ALL_CURVES
100
AcDbLine
 62
4
  6
CONTINUOUS
 10
7.6003523885
 20
7.3035855612
 11
7.6081550561
 21
7.2860295612
  0
LINE
  5
24B
100
AcDbEntity
  8
03__ASM_ALL_CURVES
100
AcDbLine
 62
4
  6
CONTINUOUS
 10
7.7688923885
 20
6.7066815612
 11
7.7923003885
 21
6.7008295612
  0
LINE
  5
24C
100
AcDbEntity
  8
03__ASM_ALL_CURVES
100
AcDbLine
 62
4
  6
CONTINUOUS
 10
7.7298790533
 20
7.0168375612
 11
7.6986683885
 21
7.0285415612
  0
LINE
  5
24D
100
AcDbEntity
  8
03__ASM_ALL_CURVES
100
AcDbLine
 62
4
  6
CONTINUOUS
 10
7.5691417237
 20
7.2684735612
 11
7.5613390533
 21
7.2743255612
  0
LINE
  5
24E
100
AcDbEntity
  8
03__ASM_ALL_CURVES
100
AcDbLine
 62
4
  6
CONTINUOUS
 10
7.6986683885
 20
7.1982495612
 11
7.7142737237
 21
7.1865455612
  0
LINE
  5
24F
100
AcDbEntity
  8
03__ASM_ALL_CURVES
100
AcDbLine
 62
4
  6
CONTINUOUS
 10
7.6315630547
 20
7.3035855612
 11
7.6393657216
 21
7.2977335612
  0
LINE
  5
250
100
AcDbEntity
  8
03__ASM_ALL_CURVES
100
AcDbLine
 62
4
  6
CONTINUOUS
 10
7.5769443885
 20
7.4030695612
 11
7.5847470533
 21
7.3972175612
  0
LINE
  5
251
100
AcDbEntity
  8
03__ASM_ALL_CURVES
100
AcDbLine
 62
4
  6
CONTINUOUS
 10
7.6237603885
 20
7.4089215612
 11
7.6393657216
 21
7.3972175612
  0
LINE
  5
252
100
AcDbEntity
  8
03__ASM_ALL_CURVES
100
AcDbLine
 62
4
  6
CONTINUOUS
 10
7.7142737237
 20
7.3562535612
 11
7.7064710533
 21
7.3621055612
  0
LINE
  5
253
100
AcDbEntity
  8
03__ASM_ALL_CURVES
100
AcDbLine
 62
4
  6
CONTINUOUS
 10
7.7532870561
 20
7.3738095612
 11
7.7688923885
 21
7.3621055612
  0
LINE
  5
254
100
AcDbEntity
  8
03__ASM_ALL_CURVES
100
AcDbLine
 62
4
  6
CONTINUOUS
 10
7.7298790533
 20
7.4030695612
 11
7.7376817237
 21
7.3972175612
  0
LINE
  5
255
100
AcDbEntity
  8
03__ASM_ALL_CURVES
100
AcDbLine
 62
4
  6
CONTINUOUS
 10
7.5535363885
 20
7.5727775612
 11
7.5691417237
 21
7.5610735612
  0
LINE
  5
256
100
AcDbEntity
  8
03__ASM_ALL_CURVES
100
AcDbLine
 62
4
  6
CONTINUOUS
 10
7.7064710533
 20
7.3621055612
 11
7.6986683885
 21
7.3738095612
  0
LINE
  5
257
100
AcDbEntity
  8
03__ASM_ALL_CURVES
100
AcDbLine
 62
4
  6
CONTINUOUS
 10
7.7376817237
 20
7.3972175612
 11
7.7532870561
 21
7.3738095612
  0
LINE
  5
258
100
AcDbEntity
  8
03__ASM_ALL_CURVES
100
AcDbLine
 62
4
  6
CONTINUOUS
 10
7.7064710533
 20
7.5493695612
 11
7.6986683885
 21
7.5610735612
  0
LINE
  5
259
100
AcDbEntity
  8
03__ASM_ALL_CURVES
100
AcDbLine
 62
4
  6
CONTINUOUS
 10
7.7454843885
 20
7.5493695612
 11
7.7376817237
 21
7.5610735612
  0
LINE
  5
25A
100
AcDbEntity
  8
03__ASM_ALL_CURVES
100
AcDbLine
 62
4
  6
CONTINUOUS
 10
7.7298790533
 20
7.5844815612
 11
7.7376817237
 21
7.5727775612
  0
LINE
  5
25B
100
AcDbEntity
  8
03__ASM_ALL_CURVES
100
AcDbLine
 62
4
  6
CONTINUOUS
 10
7.7064710533
 20
7.6488535612
 11
7.6986683885
 21
7.6605575612
  0
LINE
  5
25C
100
AcDbEntity
  8
03__ASM_ALL_CURVES
100
AcDbLine
 62
4
  6
CONTINUOUS
 10
7.7844977216
 20
7.5844815612
 11
7.7923003885
 21
7.5727775612
  0
LINE
  5
25D
100
AcDbEntity
  8
03__ASM_ALL_CURVES
100
AcDbLine
 62
4
  6
CONTINUOUS
 10
7.7454843885
 20
7.6781135612
 11
7.7532870561
 21
7.6605575612
  0
LINE
  5
25E
100
AcDbEntity
  8
03__ASM_ALL_CURVES
100
AcDbLine
 62
4
  6
CONTINUOUS
 10
7.5535363885
 20
7.6839655612
 11
7.5535363885
 21
7.6371495612
  0
LINE
  5
25F
100
AcDbEntity
  8
03__ASM_ALL_CURVES
100
AcDbLine
 62
4
  6
CONTINUOUS
 10
7.5535363885
 20
7.0929135612
 11
7.5535363885
 21
7.1046175612
  0
LINE
  5
260
100
AcDbEntity
  8
03__ASM_ALL_CURVES
100
AcDbLine
 62
4
  6
CONTINUOUS
 10
7.5535363885
 20
7.3738095612
 11
7.5535363885
 21
7.3855135612
  0
LINE
  5
261
100
AcDbEntity
  8
03__ASM_ALL_CURVES
100
AcDbLine
 62
4
  6
CONTINUOUS
 10
7.5535363885
 20
8.0292335612
 11
7.5535363885
 21
8.0409375612
  0
LINE
  5
262
100
AcDbEntity
  8
03__ASM_ALL_CURVES
100
AcDbLine
 62
4
  6
CONTINUOUS
 10
7.5925497237
 20
7.3738095612
 11
7.5925497237
 21
7.3855135612
  0
LINE
  5
263
100
AcDbEntity
  8
03__ASM_ALL_CURVES
100
AcDbLine
 62
4
  6
CONTINUOUS
 10
7.6003523885
 20
8.5500615612
 11
7.6003523885
 21
8.2691655612
  0
LINE
  5
264
100
AcDbEntity
  8
0
100
AcDbLine
 62
7
  6
CONTINUOUS
 10
7.6003524247
 20
8.6436935612
 11
7.6003524247
 21
11.6436935612
  0
LINE
  5
265
100
AcDbEntity
  8
03__ASM_ALL_CURVES
100
AcDbLine
 62
4
  6
CONTINUOUS
 10
7.7532870561
 20
7.0109855612
 11
7.7298790533
 21
7.0168375612
  0
LINE
  5
266
100
AcDbEntity
  8
03__ASM_ALL_CURVES
100
AcDbLine
 62
4
  6
CONTINUOUS
 10
7.6237603885
 20
7.0812095612
 11
7.6471683885
 21
7.0753575612
  0
LINE
  5
267
100
AcDbEntity
  8
03__ASM_ALL_CURVES
100
AcDbLine
 62
4
  6
CONTINUOUS
 10
7.5847470533
 20
7.2626215612
 11
7.5691417237
 21
7.2684735612
  0
LINE
  5
268
100
AcDbEntity
  8
03__ASM_ALL_CURVES
100
AcDbLine
 62
4
  6
CONTINUOUS
 10
7.5847470533
 20
7.3094375612
 11
7.6003523885
 21
7.3035855612
  0
LINE
  5
269
100
AcDbEntity
  8
03__ASM_ALL_CURVES
100
AcDbLine
 62
4
  6
CONTINUOUS
 10
7.6159577209
 20
7.3094375612
 11
7.6315630547
 21
7.3035855612
  0
LINE
  5
26A
100
AcDbEntity
  8
03__ASM_ALL_CURVES
100
AcDbLine
 62
4
  6
CONTINUOUS
 10
7.7142737237
 20
7.5435175612
 11
7.7064710533
 21
7.5493695612
  0
LINE
  5
26B
100
AcDbEntity
  8
03__ASM_ALL_CURVES
100
AcDbLine
 62
4
  6
CONTINUOUS
 10
7.7610897209
 20
7.5376655612
 11
7.7454843885
 21
7.5493695612
  0
LINE
  5
26C
100
AcDbEntity
  8
03__ASM_ALL_CURVES
100
AcDbLine
 62
4
  6
CONTINUOUS
 10
7.7220763885
 20
7.5903335612
 11
7.7298790533
 21
7.5844815612
  0
LINE
  5
26D
100
AcDbEntity
  8
03__ASM_ALL_CURVES
100
AcDbLine
 62
4
  6
CONTINUOUS
 10
7.7688923885
 20
7.5961855612
 11
7.7844977216
 21
7.5844815612
  0
LINE
  5
26E
100
AcDbEntity
  8
03__ASM_ALL_CURVES
100
AcDbLine
 62
4
  6
CONTINUOUS
 10
7.7142737237
 20
7.6430015612
 11
7.7064710533
 21
7.6488535612
  0
LINE
  5
26F
100
AcDbEntity
  8
03__ASM_ALL_CURVES
100
AcDbLine
 62
4
  6
CONTINUOUS
 10
7.7766950547
 20
7.6781135612
 11
7.7844977216
 21
7.6722615612
  0
LINE
  5
270
100
AcDbEntity
  8
03__ASM_ALL_CURVES
100
AcDbLine
 62
4
  6
CONTINUOUS
 10
7.7844977216
 20
7.6722615612
 11
7.7923003885
 21
7.6605575612
  0
LINE
  5
271
100
AcDbEntity
  8
03__ASM_ALL_CURVES
100
AcDbLine
 62
4
  6
CONTINUOUS
 10
7.5613390533
 20
8.0175295612
 11
7.5535363885
 21
8.0292335612
  0
LINE
  5
272
100
AcDbEntity
  8
03__ASM_ALL_CURVES
100
AcDbLine
 62
4
  6
CONTINUOUS
 10
7.5925497237
 20
8.0526415612
 11
7.6081550561
 21
8.0292335612
  0
LINE
  5
273
100
AcDbEntity
  8
03__ASM_ALL_CURVES
100
AcDbLine
 62
4
  6
CONTINUOUS
 10
7.6986683885
 20
8.1228655612
 11
7.7064710533
 21
8.1111615612
  0
LINE
  5
274
100
AcDbEntity
  8
03__ASM_ALL_CURVES
100
AcDbLine
 62
4
  6
CONTINUOUS
 10
7.6237603885
 20
7.7307815612
 11
7.6237603885
 21
7.7834495612
  0
LINE
  5
275
100
AcDbEntity
  8
03__ASM_ALL_CURVES
100
AcDbLine
 62
4
  6
CONTINUOUS
 10
7.6237603885
 20
7.9180455612
 11
7.6237603885
 21
7.9707135612
  0
LINE
  5
276
100
AcDbEntity
  8
03__ASM_ALL_CURVES
100
AcDbLine
 62
4
  6
CONTINUOUS
 10
7.6471683885
 20
7.8712295612
 11
7.6471683885
 21
7.8624515612
  0
LINE
  5
277
100
AcDbEntity
  8
03__ASM_ALL_CURVES
100
AcDbLine
 62
4
  6
CONTINUOUS
 10
7.6471683885
 20
7.3855135612
 11
7.6471683885
 21
7.3738095612
  0
LINE
  5
278
100
AcDbEntity
  8
03__ASM_ALL_CURVES
100
AcDbLine
 62
4
  6
CONTINUOUS
 10
7.6471683885
 20
7.2158055612
 11
7.6471683885
 21
7.2070275612
  0
LINE
  5
279
100
AcDbEntity
  8
03__ASM_ALL_CURVES
100
AcDbLine
 62
4
  6
CONTINUOUS
 10
7.6471683885
 20
7.0753575612
 11
7.6471683885
 21
7.1221735612
  0
LINE
  5
27A
100
AcDbEntity
  8
03__ASM_ALL_CURVES
100
AcDbLine
 62
4
  6
CONTINUOUS
 10
7.6471683885
 20
8.0116775612
 11
7.6471683885
 21
8.0584935612
  0
LINE
  5
27B
100
AcDbEntity
  8
03__ASM_ALL_CURVES
100
AcDbLine
 62
4
  6
CONTINUOUS
 10
7.6623523885
 20
8.5500615612
 11
7.6623523885
 21
8.4564295612
  0
LINE
  5
27C
100
AcDbEntity
  8
03__ASM_ALL_CURVES
100
AcDbLine
 62
4
  6
CONTINUOUS
 10
7.6986683885
 20
8.1345695612
 11
7.6986683885
 21
8.1228655612
  0
LINE
  5
27D
100
AcDbEntity
  8
03__ASM_ALL_CURVES
100
AcDbLine
 62
4
  6
CONTINUOUS
 10
7.6986683885
 20
7.3094375612
 11
7.6986683885
 21
7.2626215612
  0
LINE
  5
27E
100
AcDbEntity
  8
03__ASM_ALL_CURVES
100
AcDbLine
 62
4
  6
CONTINUOUS
 10
7.6986683885
 20
7.0285415612
 11
7.6986683885
 21
6.9817255612
  0
LINE
  5
27F
100
AcDbEntity
  8
03__ASM_ALL_CURVES
100
AcDbLine
 62
4
  6
CONTINUOUS
 10
7.6986683885
 20
6.7183855612
 11
7.6986683885
 21
6.7300895612
  0
LINE
  5
280
100
AcDbEntity
  8
03__ASM_ALL_CURVES
100
AcDbLine
 62
4
  6
CONTINUOUS
 10
7.6986683885
 20
6.9056495612
 11
7.6986683885
 21
6.9173535612
  0
LINE
  5
281
100
AcDbEntity
  8
03__ASM_ALL_CURVES
100
AcDbLine
 62
4
  6
CONTINUOUS
 10
7.6986683885
 20
7.3738095612
 11
7.6986683885
 21
7.3855135612
  0
LINE
  5
282
100
AcDbEntity
  8
03__ASM_ALL_CURVES
100
AcDbLine
 62
4
  6
CONTINUOUS
 10
7.6986683885
 20
7.5610735612
 11
7.6986683885
 21
7.5727775612
  0
LINE
  5
283
100
AcDbEntity
  8
03__ASM_ALL_CURVES
100
AcDbLine
 62
4
  6
CONTINUOUS
 10
7.7376817237
 20
6.9056495612
 11
7.7376817237
 21
6.9173535612
  0
LINE
  5
284
100
AcDbEntity
  8
03__ASM_ALL_CURVES
100
AcDbLine
 62
4
  6
CONTINUOUS
 10
7.7376817237
 20
7.5610735612
 11
7.7376817237
 21
7.5727775612
  0
LINE
  5
285
100
AcDbEntity
  8
03__ASM_ALL_CURVES
100
AcDbLine
 62
4
  6
CONTINUOUS
 10
7.7454843885
 20
8.3627975612
 11
7.7454843885
 21
8.2691655612
  0
LINE
  5
286
100
AcDbEntity
  8
03__ASM_ALL_CURVES
100
AcDbLine
 62
4
  6
CONTINUOUS
 10
7.7923003885
 20
8.1345695612
 11
7.7923003885
 21
8.1228655612
  0
LINE
  5
287
100
AcDbEntity
  8
03__ASM_ALL_CURVES
100
AcDbLine
 62
4
  6
CONTINUOUS
 10
7.7923003885
 20
7.5727775612
 11
7.7923003885
 21
7.5610735612
  0
LINE
  5
288
100
AcDbEntity
  8
03__ASM_ALL_CURVES
100
AcDbLine
 62
4
  6
CONTINUOUS
 10
7.7923003885
 20
7.4967015612
 11
7.7923003885
 21
7.4879235612
  0
LINE
  5
289
100
AcDbEntity
  8
03__ASM_ALL_CURVES
100
AcDbLine
 62
4
  6
CONTINUOUS
 10
7.7923003885
 20
6.9173535612
 11
7.7923003885
 21
6.9056495612
  0
LINE
  5
28A
100
AcDbEntity
  8
03__ASM_ALL_CURVES
100
AcDbLine
 62
4
  6
CONTINUOUS
 10
7.7923003885
 20
6.8412775612
 11
7.7923003885
 21
6.8324995612
  0
LINE
  5
28B
100
AcDbEntity
  8
03__ASM_ALL_CURVES
100
AcDbLine
 62
4
  6
CONTINUOUS
 10
7.7923003885
 20
6.7008295612
 11
7.7923003885
 21
6.7476455612
  0
LINE
  5
28C
100
AcDbEntity
  8
03__ASM_ALL_CURVES
100
AcDbLine
 62
4
  6
CONTINUOUS
 10
7.7923003885
 20
7.3562535612
 11
7.7923003885
 21
7.4030695612
  0
LINE
  5
28D
100
AcDbEntity
  8
03__ASM_ALL_CURVES
100
AcDbLine
 62
4
  6
CONTINUOUS
 10
7.7923003885
 20
8.0116775612
 11
7.7923003885
 21
8.0584935612
  0
LINE
  5
28E
100
AcDbEntity
  8
03__ASM_ALL_CURVES
100
AcDbLine
 62
4
  6
CONTINUOUS
 10
7.7142737237
 20
6.7476455612
 11
7.7298790533
 21
6.7476455612
  0
LINE
  5
28F
100
AcDbEntity
  8
03__ASM_ALL_CURVES
100
AcDbLine
 62
4
  6
CONTINUOUS
 10
7.7923003885
 20
7.0051335612
 11
7.7532870561
 21
7.0109855612
  0
LINE
  5
290
100
AcDbEntity
  8
03__ASM_ALL_CURVES
100
AcDbLine
 62
4
  6
CONTINUOUS
 10
7.7142737237
 20
7.1865455612
 11
7.7376817237
 21
7.1806935612
  0
LINE
  5
291
100
AcDbEntity
  8
03__ASM_ALL_CURVES
100
AcDbLine
 62
4
  6
CONTINUOUS
 10
7.7532870561
 20
7.2918815612
 11
7.7298790533
 21
7.2977335612
  0
LINE
  5
292
100
AcDbEntity
  8
03__ASM_ALL_CURVES
100
AcDbLine
 62
4
  6
CONTINUOUS
 10
7.7298790533
 20
7.2977335612
 11
7.6986683885
 21
7.3094375612
  0
LINE
  5
293
100
AcDbEntity
  8
03__ASM_ALL_CURVES
100
AcDbLine
 62
4
  6
CONTINUOUS
 10
7.5535363885
 20
7.7717455612
 11
7.6237603885
 21
7.7307815612
  0
LINE
  5
294
100
AcDbEntity
  8
03__ASM_ALL_CURVES
100
AcDbLine
 62
4
  6
CONTINUOUS
 10
7.5535363885
 20
7.9590095612
 11
7.6237603885
 21
7.9180455612
  0
LINE
  5
295
100
AcDbEntity
  8
03__ASM_ALL_CURVES
100
AcDbLine
 62
4
  6
CONTINUOUS
 10
7.7766950547
 20
7.7600415612
 11
7.7923003885
 21
7.7483375612
  0
LINE
  5
296
100
AcDbEntity
  8
03__ASM_ALL_CURVES
100
AcDbLine
 62
4
  6
CONTINUOUS
 10
7.5691417237
 20
8.0116775612
 11
7.5613390533
 21
8.0175295612
  0
LINE
  5
297
100
AcDbEntity
  8
03__ASM_ALL_CURVES
100
AcDbLine
 62
4
  6
CONTINUOUS
 10
7.6986683885
 20
7.9473055612
 11
7.7142737237
 21
7.9356015612
  0
LINE
  5
298
100
AcDbEntity
  8
03__ASM_ALL_CURVES
100
AcDbLine
 62
4
  6
CONTINUOUS
 10
7.6081550561
 20
8.0292335612
 11
7.6237603885
 21
8.0175295612
  0
LINE
  5
299
100
AcDbEntity
  8
03__ASM_ALL_CURVES
100
AcDbLine
 62
4
  6
CONTINUOUS
 10
7.5847470533
 20
8.0584935612
 11
7.5925497237
 21
8.0526415612
  0
LINE
  5
29A
100
AcDbEntity
  8
03__ASM_ALL_CURVES
100
AcDbLine
 62
4
  6
CONTINUOUS
 10
7.6315630547
 20
8.1345695612
 11
7.6471683885
 21
8.1228655612
  0
LINE
  5
29B
100
AcDbEntity
  8
03__ASM_ALL_CURVES
100
AcDbLine
 62
4
  6
CONTINUOUS
 10
7.6623523885
 20
8.4564295612
 11
7.7454843885
 21
8.3627975612
  0
LINE
  5
29C
100
AcDbEntity
  8
03__ASM_ALL_CURVES
100
AcDbLine
 62
4
  6
CONTINUOUS
 10
7.7844977216
 20
8.1462735612
 11
7.7923003885
 21
8.1345695612
  0
LINE
  5
29D
100
AcDbEntity
  8
03__ASM_ALL_CURVES
100
AcDbLine
 62
4
  6
CONTINUOUS
 10
7.7923003885
 20
6.8324995612
 11
7.7805963881
 21
6.8324995612
  0
LINE
  5
29E
100
AcDbEntity
  8
03__ASM_ALL_CURVES
100
AcDbLine
 62
4
  6
CONTINUOUS
 10
7.7688923885
 20
6.8822415612
 11
7.7610897209
 21
6.8822415612
  0
LINE
  5
29F
100
AcDbEntity
  8
03__ASM_ALL_CURVES
100
AcDbLine
 62
4
  6
CONTINUOUS
 10
7.7220763885
 20
6.8880935612
 11
7.7142737237
 21
6.8880935612
  0
LINE
  5
2A0
100
AcDbEntity
  8
03__ASM_ALL_CURVES
100
AcDbLine
 62
4
  6
CONTINUOUS
 10
7.7142737237
 20
6.9349095612
 11
7.7220763885
 21
6.9349095612
  0
LINE
  5
2A1
100
AcDbEntity
  8
03__ASM_ALL_CURVES
100
AcDbLine
 62
4
  6
CONTINUOUS
 10
7.7610897209
 20
6.9407615612
 11
7.7688923885
 21
6.9407615612
  0
LINE
  5
2A2
100
AcDbEntity
  8
03__ASM_ALL_CURVES
100
AcDbLine
 62
4
  6
CONTINUOUS
 10
7.7923003885
 20
7.2860295612
 11
7.7532870561
 21
7.2918815612
  0
LINE
  5
2A3
100
AcDbEntity
  8
03__ASM_ALL_CURVES
100
AcDbLine
 62
4
  6
CONTINUOUS
 10
7.7688923885
 20
7.3621055612
 11
7.7923003885
 21
7.3562535612
  0
LINE
  5
2A4
100
AcDbEntity
  8
03__ASM_ALL_CURVES
100
AcDbLine
 62
4
  6
CONTINUOUS
 10
7.5691417237
 20
7.5610735612
 11
7.5925497237
 21
7.5552215612
  0
LINE
  5
2A5
100
AcDbEntity
  8
03__ASM_ALL_CURVES
100
AcDbLine
 62
4
  6
CONTINUOUS
 10
7.5847470533
 20
7.6722615612
 11
7.5535363885
 21
7.6839655612
  0
LINE
  5
2A6
100
AcDbEntity
  8
03__ASM_ALL_CURVES
100
AcDbLine
 62
4
  6
CONTINUOUS
 10
7.7298790533
 20
7.6371495612
 11
7.7142737237
 21
7.6430015612
  0
LINE
  5
2A7
100
AcDbEntity
  8
03__ASM_ALL_CURVES
100
AcDbLine
 62
4
  6
CONTINUOUS
 10
7.7298790533
 20
7.6839655612
 11
7.7454843885
 21
7.6781135612
  0
LINE
  5
2A8
100
AcDbEntity
  8
03__ASM_ALL_CURVES
100
AcDbLine
 62
4
  6
CONTINUOUS
 10
7.7610897209
 20
7.6839655612
 11
7.7766950547
 21
7.6781135612
  0
LINE
  5
2A9
100
AcDbEntity
  8
03__ASM_ALL_CURVES
100
AcDbLine
 62
4
  6
CONTINUOUS
 10
7.7064710533
 20
8.1111615612
 11
7.7142737237
 21
8.1053095612
  0
LINE
  5
2AA
100
AcDbEntity
  8
03__ASM_ALL_CURVES
100
AcDbLine
 62
4
  6
CONTINUOUS
 10
7.7766950547
 20
8.1521255612
 11
7.7844977216
 21
8.1462735612
  0
LINE
  5
2AB
100
AcDbEntity
  8
03__ASM_ALL_CURVES
100
AcDbLine
 62
4
  6
CONTINUOUS
 10
7.7766950547
 20
8.2282015612
 11
7.7923003885
 21
8.2164975612
  0
LINE
  5
2AC
100
AcDbEntity
  8
03__ASM_ALL_CURVES
100
AcDbLine
 62
4
  6
CONTINUOUS
 10
11.2729577209
 20
7.0753575612
 11
11.2417470533
 21
7.0753575612
  0
LINE
  5
2AD
100
AcDbEntity
  8
03__ASM_ALL_CURVES
100
AcDbLine
 62
4
  6
CONTINUOUS
 10
9.8039577209
 20
7.0753575612
 11
9.7727470533
 21
7.0753575612
  0
LINE
  5
2AE
100
AcDbEntity
  8
03__ASM_ALL_CURVES
100
AcDbLine
 62
4
  6
CONTINUOUS
 10
7.5691417237
 20
7.1221735612
 11
7.5847470533
 21
7.1221735612
  0
LINE
  5
2AF
100
AcDbEntity
  8
03__ASM_ALL_CURVES
100
AcDbLine
 62
4
  6
CONTINUOUS
 10
9.7727470533
 20
7.1221735612
 11
9.8039577209
 21
7.1221735612
  0
LINE
  5
2B0
100
AcDbEntity
  8
03__ASM_ALL_CURVES
100
AcDbLine
 62
4
  6
CONTINUOUS
 10
11.2417470533
 20
7.1221735612
 11
11.2729577209
 21
7.1221735612
  0
LINE
  5
2B1
100
AcDbEntity
  8
03__ASM_ALL_CURVES
100
AcDbLine
 62
4
  6
CONTINUOUS
 10
7.7376817237
 20
7.1806935612
 11
7.7532870561
 21
7.1806935612
  0
LINE
  5
2B2
100
AcDbEntity
  8
03__ASM_ALL_CURVES
100
AcDbLine
 62
4
  6
CONTINUOUS
 10
11.3041683885
 20
7.2070275612
 11
11.2924643881
 21
7.2070275612
  0
LINE
  5
2B3
100
AcDbEntity
  8
03__ASM_ALL_CURVES
100
AcDbLine
 62
4
  6
CONTINUOUS
 10
9.8351683885
 20
7.2070275612
 11
9.8234643881
 21
7.2070275612
  0
LINE
  5
2B4
100
AcDbEntity
  8
03__ASM_ALL_CURVES
100
AcDbLine
 62
4
  6
CONTINUOUS
 10
7.6471683885
 20
7.2070275612
 11
7.6354643881
 21
7.2070275612
  0
LINE
  5
2B5
100
AcDbEntity
  8
03__ASM_ALL_CURVES
100
AcDbLine
 62
4
  6
CONTINUOUS
 10
9.8351683885
 20
7.2860295612
 11
9.7961550561
 21
7.2918815612
  0
LINE
  5
2B6
100
AcDbEntity
  8
03__ASM_ALL_CURVES
100
AcDbLine
 62
4
  6
CONTINUOUS
 10
7.6081550561
 20
7.6664095612
 11
7.5847470533
 21
7.6722615612
  0
LINE
  5
2B7
100
AcDbEntity
  8
03__ASM_ALL_CURVES
100
AcDbLine
 62
4
  6
CONTINUOUS
 10
7.7532870561
 20
7.7658935612
 11
7.7766950547
 21
7.7600415612
  0
LINE
  5
2B8
100
AcDbEntity
  8
03__ASM_ALL_CURVES
100
AcDbLine
 62
4
  6
CONTINUOUS
 10
9.7961550561
 20
7.2918815612
 11
9.7727470533
 21
7.2977335612
  0
LINE
  5
2B9
100
AcDbEntity
  8
03__ASM_ALL_CURVES
100
AcDbLine
 62
4
  6
CONTINUOUS
 10
9.7727470533
 20
7.0753575612
 11
9.7571417237
 21
7.0812095612
  0
LINE
  5
2BA
100
AcDbEntity
  8
03__ASM_ALL_CURVES
100
AcDbLine
 62
4
  6
CONTINUOUS
 10
9.8039577209
 20
7.1221735612
 11
9.8195630547
 21
7.1163215612
  0
LINE
  5
2BB
100
AcDbEntity
  8
03__ASM_ALL_CURVES
100
AcDbLine
 62
4
  6
CONTINUOUS
 10
9.7727470533
 20
7.2977335612
 11
9.7415363885
 21
7.3094375612
  0
LINE
  5
2BC
100
AcDbEntity
  8
03__ASM_ALL_CURVES
100
AcDbLine
 62
4
  6
CONTINUOUS
 10
9.7571417237
 20
7.0812095612
 11
9.7493390533
 21
7.0870615612
  0
LINE
  5
2BD
100
AcDbEntity
  8
03__ASM_ALL_CURVES
100
AcDbLine
 62
4
  6
CONTINUOUS
 10
9.8195630547
 20
7.1163215612
 11
9.8273657216
 21
7.1104695612
  0
LINE
  5
2BE
100
AcDbEntity
  8
03__ASM_ALL_CURVES
100
AcDbLine
 62
4
  6
CONTINUOUS
 10
11.2651550561
 20
7.5552215612
 11
11.2885630547
 21
7.5610735612
  0
LINE
  5
2BF
100
AcDbEntity
  8
03__ASM_ALL_CURVES
100
AcDbLine
 62
4
  6
CONTINUOUS
 10
7.5847470533
 20
7.3094375612
 11
7.6159577209
 21
7.3094375612
  0
LINE
  5
2C0
100
AcDbEntity
  8
03__ASM_ALL_CURVES
100
AcDbLine
 62
4
  6
CONTINUOUS
 10
11.2105363885
 20
7.3796615612
 11
11.3041683885
 21
7.3796615612
  0
LINE
  5
2C1
100
AcDbEntity
  8
03__ASM_ALL_CURVES
100
AcDbLine
 62
4
  6
CONTINUOUS
 10
7.5691417237
 20
7.4030695612
 11
7.5769443885
 21
7.4030695612
  0
LINE
  5
2C2
100
AcDbEntity
  8
03__ASM_ALL_CURVES
100
AcDbLine
 62
4
  6
CONTINUOUS
 10
7.7142737237
 20
7.4030695612
 11
7.7298790533
 21
7.4030695612
  0
LINE
  5
2C3
100
AcDbEntity
  8
03__ASM_ALL_CURVES
100
AcDbLine
 62
4
  6
CONTINUOUS
 10
7.6159577209
 20
7.4089215612
 11
7.6237603885
 21
7.4089215612
  0
LINE
  5
2C4
100
AcDbEntity
  8
03__ASM_ALL_CURVES
100
AcDbLine
 62
4
  6
CONTINUOUS
 10
7.7923003885
 20
7.4879235612
 11
7.7805963881
 21
7.4879235612
  0
LINE
  5
2C5
100
AcDbEntity
  8
03__ASM_ALL_CURVES
100
AcDbLine
 62
4
  6
CONTINUOUS
 10
7.6471683885
 20
7.6605575612
 11
7.6081550561
 21
7.6664095612
  0
LINE
  5
2C6
100
AcDbEntity
  8
03__ASM_ALL_CURVES
100
AcDbLine
 62
4
  6
CONTINUOUS
 10
9.7415363885
 20
7.3679575612
 11
9.7805497237
 21
7.3621055612
  0
LINE
  5
2C7
100
AcDbEntity
  8
03__ASM_ALL_CURVES
100
AcDbLine
 62
4
  6
CONTINUOUS
 10
11.3041683885
 20
7.2860295612
 11
11.2651550561
 21
7.2918815612
  0
LINE
  5
2C8
100
AcDbEntity
  8
03__ASM_ALL_CURVES
100
AcDbLine
 62
4
  6
CONTINUOUS
 10
7.7142737237
 20
7.9356015612
 11
7.7376817237
 21
7.9297495612
  0
LINE
  5
2C9
100
AcDbEntity
  8
03__ASM_ALL_CURVES
100
AcDbLine
 62
4
  6
CONTINUOUS
 10
7.6237603885
 20
8.0175295612
 11
7.6471683885
 21
8.0116775612
  0
LINE
  5
2CA
100
AcDbEntity
  8
03__ASM_ALL_CURVES
100
AcDbLine
 62
4
  6
CONTINUOUS
 10
9.7571417237
 20
7.5610735612
 11
9.7805497237
 21
7.5552215612
  0
LINE
  5
2CB
100
AcDbEntity
  8
03__ASM_ALL_CURVES
100
AcDbLine
 62
4
  6
CONTINUOUS
 10
9.8039577209
 20
7.4089215612
 11
9.8195630547
 21
7.4030695612
  0
LINE
  5
2CC
100
AcDbEntity
  8
03__ASM_ALL_CURVES
100
AcDbLine
 62
4
  6
CONTINUOUS
 10
9.8195630547
 20
7.4030695612
 11
9.8273657216
 21
7.3972175612
  0
LINE
  5
2CD
100
AcDbEntity
  8
03__ASM_ALL_CURVES
100
AcDbLine
 62
4
  6
CONTINUOUS
 10
7.7532870561
 20
7.6605575612
 11
7.7454843885
 21
7.6430015612
  0
LINE
  5
2CE
100
AcDbEntity
  8
03__ASM_ALL_CURVES
100
AcDbLine
 62
4
  6
CONTINUOUS
 10
7.6081550561
 20
7.2860295612
 11
7.6003523885
 21
7.2684735612
  0
LINE
  5
2CF
100
AcDbEntity
  8
03__ASM_ALL_CURVES
100
AcDbLine
 62
4
  6
CONTINUOUS
 10
7.5535363885
 20
8.0409375612
 11
7.5613390533
 21
8.0526415612
  0
LINE
  5
2D0
100
AcDbEntity
  8
03__ASM_ALL_CURVES
100
AcDbLine
 62
4
  6
CONTINUOUS
 10
7.7064710533
 20
8.1462735612
 11
7.6986683885
 21
8.1345695612
  0
LINE
  5
2D1
100
AcDbEntity
  8
03__ASM_ALL_CURVES
100
AcDbLine
 62
4
  6
CONTINUOUS
 10
7.7298790533
 20
8.1111615612
 11
7.7532870561
 21
8.1462735612
  0
LINE
  5
2D2
100
AcDbEntity
  8
03__ASM_ALL_CURVES
100
AcDbLine
 62
4
  6
CONTINUOUS
 10
7.7923003885
 20
8.1228655612
 11
7.7844977216
 21
8.1111615612
  0
LINE
  5
2D3
100
AcDbEntity
  8
0
100
AcDbLine
 62
7
  6
CONTINUOUS
 10
9.8193523885
 20
10.9766935612
 11
9.8293523885
 21
10.9866935612
  0
LINE
  5
2D4
100
AcDbEntity
  8
0
100
AcDbLine
 62
7
  6
CONTINUOUS
 10
10.0073523885
 20
10.9866935612
 11
10.0518523885
 21
11.0311935612
  0
LINE
  5
2D5
100
AcDbEntity
  8
03__ASM_ALL_CURVES
100
AcDbLine
 62
4
  6
CONTINUOUS
 10
9.7961550561
 20
7.5552215612
 11
9.8195630547
 21
7.5610735612
  0
LINE
  5
2D6
100
AcDbEntity
  8
03__ASM_ALL_CURVES
100
AcDbLine
 62
4
  6
CONTINUOUS
 10
7.7688923885
 20
7.5376655612
 11
7.7610897209
 21
7.5376655612
  0
LINE
  5
2D7
100
AcDbEntity
  8
03__ASM_ALL_CURVES
100
AcDbLine
 62
4
  6
CONTINUOUS
 10
7.7220763885
 20
7.5435175612
 11
7.7142737237
 21
7.5435175612
  0
LINE
  5
2D8
100
AcDbEntity
  8
03__ASM_ALL_CURVES
100
AcDbLine
 62
4
  6
CONTINUOUS
 10
7.5925497237
 20
7.5552215612
 11
7.6081550561
 21
7.5552215612
  0
LINE
  5
2D9
100
AcDbEntity
  8
03__ASM_ALL_CURVES
100
AcDbLine
 62
4
  6
CONTINUOUS
 10
9.7805497237
 20
7.5552215612
 11
9.7961550561
 21
7.5552215612
  0
LINE
  5
2DA
100
AcDbEntity
  8
03__ASM_ALL_CURVES
100
AcDbLine
 62
4
  6
CONTINUOUS
 10
11.2495497237
 20
7.5552215612
 11
11.2651550561
 21
7.5552215612
  0
LINE
  5
2DB
100
AcDbEntity
  8
03__ASM_ALL_CURVES
100
AcDbLine
 62
4
  6
CONTINUOUS
 10
7.7142737237
 20
7.5903335612
 11
7.7220763885
 21
7.5903335612
  0
LINE
  5
2DC
100
AcDbEntity
  8
03__ASM_ALL_CURVES
100
AcDbLine
 62
4
  6
CONTINUOUS
 10
7.7610897209
 20
7.5961855612
 11
7.7688923885
 21
7.5961855612
  0
LINE
  5
2DD
100
AcDbEntity
  8
03__ASM_ALL_CURVES
100
AcDbLine
 62
4
  6
CONTINUOUS
 10
9.7415363885
 20
7.6605575612
 11
9.8351683885
 21
7.6605575612
  0
LINE
  5
2DE
100
AcDbEntity
  8
03__ASM_ALL_CURVES
100
AcDbLine
 62
4
  6
CONTINUOUS
 10
11.2105363885
 20
7.6605575612
 11
11.3041683885
 21
7.6605575612
  0
LINE
  5
2DF
100
AcDbEntity
  8
03__ASM_ALL_CURVES
100
AcDbLine
 62
4
  6
CONTINUOUS
 10
7.7298790533
 20
7.6839655612
 11
7.7610897209
 21
7.6839655612
  0
LINE
  5
2E0
100
AcDbEntity
  8
03__ASM_ALL_CURVES
100
AcDbLine
 62
4
  6
CONTINUOUS
 10
11.2807603885
 20
7.7249295612
 11
11.2729577209
 21
7.7249295612
  0
LINE
  5
2E1
100
AcDbEntity
  8
03__ASM_ALL_CURVES
100
AcDbLine
 62
4
  6
CONTINUOUS
 10
11.2339443885
 20
7.7307815612
 11
11.2261417237
 21
7.7307815612
  0
LINE
  5
2E2
100
AcDbEntity
  8
03__ASM_ALL_CURVES
100
AcDbLine
 62
4
  6
CONTINUOUS
 10
7.6081550561
 20
8.1404215612
 11
7.6315630547
 21
8.1345695612
  0
LINE
  5
2E3
100
AcDbEntity
  8
03__ASM_ALL_CURVES
100
AcDbLine
 62
4
  6
CONTINUOUS
 10
11.2651550561
 20
7.2918815612
 11
11.2417470533
 21
7.2977335612
  0
LINE
  5
2E4
100
AcDbEntity
  8
03__ASM_ALL_CURVES
100
AcDbLine
 62
4
  6
CONTINUOUS
 10
7.7532870561
 20
8.2340535612
 11
7.7766950547
 21
8.2282015612
  0
LINE
  5
2E5
100
AcDbEntity
  8
03__ASM_ALL_CURVES
100
AcDbLine
 62
4
  6
CONTINUOUS
 10
11.2417470533
 20
7.0753575612
 11
11.2261417237
 21
7.0812095612
  0
LINE
  5
2E6
100
AcDbEntity
  8
03__ASM_ALL_CURVES
100
AcDbLine
 62
4
  6
CONTINUOUS
 10
11.2729577209
 20
7.1221735612
 11
11.2885630547
 21
7.1163215612
  0
LINE
  5
2E7
100
AcDbEntity
  8
03__ASM_ALL_CURVES
100
AcDbLine
 62
4
  6
CONTINUOUS
 10
9.7727470533
 20
7.7307815612
 11
9.7571417237
 21
7.7366335612
  0
LINE
  5
2E8
100
AcDbEntity
  8
03__ASM_ALL_CURVES
100
AcDbLine
 62
4
  6
CONTINUOUS
 10
9.7727470533
 20
7.7775975612
 11
9.7883523885
 21
7.7717455612
  0
LINE
  5
2E9
100
AcDbEntity
  8
03__ASM_ALL_CURVES
100
AcDbLine
 62
4
  6
CONTINUOUS
 10
9.8039577209
 20
7.7775975612
 11
9.8195630547
 21
7.7717455612
  0
LINE
  5
2EA
100
AcDbEntity
  8
03__ASM_ALL_CURVES
100
AcDbLine
 62
4
  6
CONTINUOUS
 10
9.7415363885
 20
7.5727775612
 11
9.7571417237
 21
7.5610735612
  0
LINE
  5
2EB
100
AcDbEntity
  8
03__ASM_ALL_CURVES
100
AcDbLine
 62
4
  6
CONTINUOUS
 10
9.7571417237
 20
7.7366335612
 11
9.7493390533
 21
7.7424855612
  0
LINE
  5
2EC
100
AcDbEntity
  8
03__ASM_ALL_CURVES
100
AcDbLine
 62
4
  6
CONTINUOUS
 10
9.7493390533
 20
7.0870615612
 11
9.7415363885
 21
7.0987655612
  0
LINE
  5
2ED
100
AcDbEntity
  8
03__ASM_ALL_CURVES
100
AcDbLine
 62
4
  6
CONTINUOUS
 10
9.8273657216
 20
7.1104695612
 11
9.8351683885
 21
7.0987655612
  0
LINE
  5
2EE
100
AcDbEntity
  8
03__ASM_ALL_CURVES
100
AcDbLine
 62
4
  6
CONTINUOUS
 10
7.6986683885
 20
7.6605575612
 11
7.7064710533
 21
7.6722615612
  0
LINE
  5
2EF
100
AcDbEntity
  8
03__ASM_ALL_CURVES
100
AcDbLine
 62
4
  6
CONTINUOUS
 10
7.5535363885
 20
7.3855135612
 11
7.5613390533
 21
7.3972175612
  0
LINE
  5
2F0
100
AcDbEntity
  8
03__ASM_ALL_CURVES
100
AcDbLine
 62
4
  6
CONTINUOUS
 10
7.6986683885
 20
7.5727775612
 11
7.7064710533
 21
7.5844815612
  0
LINE
  5
2F1
100
AcDbEntity
  8
03__ASM_ALL_CURVES
100
AcDbLine
 62
4
  6
CONTINUOUS
 10
7.5925497237
 20
7.3855135612
 11
7.6003523885
 21
7.3972175612
  0
LINE
  5
2F2
100
AcDbEntity
  8
03__ASM_ALL_CURVES
100
AcDbLine
 62
4
  6
CONTINUOUS
 10
7.7923003885
 20
7.6605575612
 11
7.7844977216
 21
7.6488535612
  0
LINE
  5
2F3
100
AcDbEntity
  8
03__ASM_ALL_CURVES
100
AcDbLine
 62
4
  6
CONTINUOUS
 10
7.7376817237
 20
7.5727775612
 11
7.7454843885
 21
7.5844815612
  0
LINE
  5
2F4
100
AcDbEntity
  8
03__ASM_ALL_CURVES
100
AcDbLine
 62
4
  6
CONTINUOUS
 10
7.5535363885
 20
7.2860295612
 11
7.5613390533
 21
7.2977335612
  0
LINE
  5
2F5
100
AcDbEntity
  8
03__ASM_ALL_CURVES
100
AcDbLine
 62
4
  6
CONTINUOUS
 10
7.7376817237
 20
7.5610735612
 11
7.7298790533
 21
7.5493695612
  0
LINE
  5
2F6
100
AcDbEntity
  8
03__ASM_ALL_CURVES
100
AcDbLine
 62
4
  6
CONTINUOUS
 10
12.4786963885
 20
11.6436935612
 11
12.4962523885
 21
11.651496226
  0
LINE
  5
2F7
100
AcDbEntity
  8
03__ASM_ALL_CURVES
100
AcDbLine
 62
4
  6
CONTINUOUS
 10
12.7947043885
 20
11.6436935612
 11
12.7771483885
 21
11.6358908936
  0
LINE
  5
2F8
100
AcDbEntity
  8
03__ASM_ALL_CURVES
100
AcDbLine
 62
4
  6
CONTINUOUS
 10
7.7532870561
 20
7.1806935612
 11
7.7766950547
 21
7.1865455612
  0
LINE
  5
2F9
100
AcDbEntity
  8
03__ASM_ALL_CURVES
100
AcDbLine
 62
4
  6
CONTINUOUS
 10
11.2261417237
 20
8.1345695612
 11
11.2495497237
 21
8.1404215612
  0
LINE
  5
2FA
100
AcDbEntity
  8
03__ASM_ALL_CURVES
100
AcDbLine
 62
4
  6
CONTINUOUS
 10
7.7376817237
 20
7.7658935612
 11
7.7532870561
 21
7.7658935612
  0
LINE
  5
2FB
100
AcDbEntity
  8
03__ASM_ALL_CURVES
100
AcDbLine
 62
4
  6
CONTINUOUS
 10
7.6471683885
 20
7.7717455612
 11
7.5535363885
 21
7.7717455612
  0
LINE
  5
2FC
100
AcDbEntity
  8
03__ASM_ALL_CURVES
100
AcDbLine
 62
4
  6
CONTINUOUS
 10
9.7727470533
 20
7.7775975612
 11
9.8039577209
 21
7.7775975612
  0
LINE
  5
2FD
100
AcDbEntity
  8
03__ASM_ALL_CURVES
100
AcDbLine
 62
4
  6
CONTINUOUS
 10
11.2261417237
 20
7.7775975612
 11
11.2339443885
 21
7.7775975612
  0
LINE
  5
2FE
100
AcDbEntity
  8
03__ASM_ALL_CURVES
100
AcDbLine
 62
4
  6
CONTINUOUS
 10
11.2729577209
 20
7.7834495612
 11
11.2807603885
 21
7.7834495612
  0
LINE
  5
2FF
100
AcDbEntity
  8
03__ASM_ALL_CURVES
100
AcDbLine
 62
4
  6
CONTINUOUS
 10
11.3041683885
 20
7.8624515612
 11
11.2924643881
 21
7.8624515612
  0
LINE
  5
300
100
AcDbEntity
  8
03__ASM_ALL_CURVES
100
AcDbLine
 62
4
  6
CONTINUOUS
 10
9.8351683885
 20
7.8624515612
 11
9.8234643881
 21
7.8624515612
  0
LINE
  5
301
100
AcDbEntity
  8
03__ASM_ALL_CURVES
100
AcDbLine
 62
4
  6
CONTINUOUS
 10
7.6471683885
 20
7.8624515612
 11
7.6354643881
 21
7.8624515612
  0
LINE
  5
302
100
AcDbEntity
  8
03__ASM_ALL_CURVES
100
AcDbLine
 62
4
  6
CONTINUOUS
 10
11.2729577209
 20
7.9180455612
 11
11.2417470533
 21
7.9180455612
  0
LINE
  5
303
100
AcDbEntity
  8
03__ASM_ALL_CURVES
100
AcDbLine
 62
4
  6
CONTINUOUS
 10
9.8039577209
 20
7.9180455612
 11
9.7727470533
 21
7.9180455612
  0
LINE
  5
304
100
AcDbEntity
  8
03__ASM_ALL_CURVES
100
AcDbLine
 62
4
  6
CONTINUOUS
 10
7.7376817237
 20
7.9297495612
 11
7.7532870561
 21
7.9297495612
  0
LINE
  5
305
100
AcDbEntity
  8
03__ASM_ALL_CURVES
100
AcDbLine
 62
4
  6
CONTINUOUS
 10
7.6471683885
 20
7.9590095612
 11
7.5535363885
 21
7.9590095612
  0
LINE
  5
306
100
AcDbEntity
  8
03__ASM_ALL_CURVES
100
AcDbLine
 62
4
  6
CONTINUOUS
 10
9.7727470533
 20
7.9648615612
 11
9.8039577209
 21
7.9648615612
  0
LINE
  5
307
100
AcDbEntity
  8
03__ASM_ALL_CURVES
100
AcDbLine
 62
4
  6
CONTINUOUS
 10
11.2417470533
 20
7.9648615612
 11
11.2729577209
 21
7.9648615612
  0
LINE
  5
308
100
AcDbEntity
  8
03__ASM_ALL_CURVES
100
AcDbLine
 62
4
  6
CONTINUOUS
 10
11.2261417237
 20
7.5610735612
 11
11.2495497237
 21
7.5552215612
  0
LINE
  5
309
100
AcDbEntity
  8
03__ASM_ALL_CURVES
100
AcDbLine
 62
4
  6
CONTINUOUS
 10
11.2417470533
 20
7.2977335612
 11
11.2105363885
 21
7.3094375612
  0
LINE
  5
30A
100
AcDbEntity
  8
03__ASM_ALL_CURVES
100
AcDbLine
 62
4
  6
CONTINUOUS
 10
9.7727470533
 20
7.9180455612
 11
9.7571417237
 21
7.9238975612
  0
LINE
  5
30B
100
AcDbEntity
  8
03__ASM_ALL_CURVES
100
AcDbLine
 62
4
  6
CONTINUOUS
 10
9.8039577209
 20
7.9648615612
 11
9.8195630547
 21
7.9590095612
  0
LINE
  5
30C
100
AcDbEntity
  8
03__ASM_ALL_CURVES
100
AcDbLine
 62
4
  6
CONTINUOUS
 10
9.7415363885
 20
8.0526415612
 11
9.8117603885
 21
8.0116775612
  0
LINE
  5
30D
100
AcDbEntity
  8
03__ASM_ALL_CURVES
100
AcDbLine
 62
4
  6
CONTINUOUS
 10
9.8195630547
 20
7.7717455612
 11
9.8273657216
 21
7.7658935612
  0
LINE
  5
30E
100
AcDbEntity
  8
03__ASM_ALL_CURVES
100
AcDbLine
 62
4
  6
CONTINUOUS
 10
9.7571417237
 20
7.9238975612
 11
9.7493390533
 21
7.9297495612
  0
LINE
  5
30F
100
AcDbEntity
  8
03__ASM_ALL_CURVES
100
AcDbLine
 62
4
  6
CONTINUOUS
 10
9.8195630547
 20
7.9590095612
 11
9.8273657216
 21
7.9531575612
  0
LINE
  5
310
100
AcDbEntity
  8
03__ASM_ALL_CURVES
100
AcDbLine
 62
4
  6
CONTINUOUS
 10
9.7805497237
 20
7.3621055612
 11
9.7727470533
 21
7.3738095612
  0
LINE
  5
311
100
AcDbEntity
  8
03__ASM_ALL_CURVES
100
AcDbLine
 62
4
  6
CONTINUOUS
 10
9.8273657216
 20
7.3972175612
 11
9.8351683885
 21
7.3855135612
  0
LINE
  5
312
100
AcDbEntity
  8
03__ASM_ALL_CURVES
100
AcDbLine
 62
4
  6
CONTINUOUS
 10
9.7493390533
 20
7.7424855612
 11
9.7415363885
 21
7.7541895612
  0
LINE
  5
313
100
AcDbEntity
  8
03__ASM_ALL_CURVES
100
AcDbLine
 62
4
  6
CONTINUOUS
 10
7.6471683885
 20
7.3738095612
 11
7.6393657216
 21
7.3621055612
  0
LINE
  5
314
100
AcDbEntity
  8
03__ASM_ALL_CURVES
100
AcDbLine
 62
4
  6
CONTINUOUS
 10
7.7923003885
 20
7.5610735612
 11
7.7844977216
 21
7.5493695612
  0
LINE
  5
315
100
AcDbEntity
  8
03__ASM_ALL_CURVES
100
AcDbLine
 62
4
  6
CONTINUOUS
 10
7.6986683885
 20
7.3855135612
 11
7.7064710533
 21
7.3972175612
  0
LINE
  5
316
100
AcDbEntity
  8
03__ASM_ALL_CURVES
100
AcDbLine
 62
4
  6
CONTINUOUS
 10
7.6471683885
 20
7.2860295612
 11
7.6393657216
 21
7.2743255612
  0
LINE
  5
317
100
AcDbEntity
  8
03__ASM_ALL_CURVES
100
AcDbLine
 62
4
  6
CONTINUOUS
 10
7.5535363885
 20
7.1046175612
 11
7.5613390533
 21
7.1163215612
  0
LINE
  5
318
100
AcDbEntity
  8
0
100
AcDbLine
 62
7
  6
CONTINUOUS
 10
10.7263523885
 20
11.0711935612
 11
10.7363983199
 21
11.0812394926
  0
LINE
  5
319
100
AcDbEntity
  8
03__ASM_ALL_CURVES
100
AcDbLine
 62
4
  6
CONTINUOUS
 10
11.9169043885
 20
11.6827068964
 11
11.9286083885
 21
11.6905095612
  0
LINE
  5
31A
100
AcDbEntity
  8
03__ASM_ALL_CURVES
100
AcDbLine
 62
4
  6
CONTINUOUS
 10
11.9520163885
 20
11.6592988964
 11
11.9403123885
 21
11.651496226
  0
LINE
  5
31B
100
AcDbEntity
  8
03__ASM_ALL_CURVES
100
AcDbLine
 62
4
  6
CONTINUOUS
 10
11.9520163885
 20
11.6046802281
 11
11.9403123885
 21
11.5968775612
  0
LINE
  5
31C
100
AcDbEntity
  8
03__ASM_ALL_CURVES
100
AcDbLine
 62
4
  6
CONTINUOUS
 10
12.1100203885
 20
11.6827068964
 11
12.1217243885
 21
11.6905095612
  0
LINE
  5
31D
100
AcDbEntity
  8
03__ASM_ALL_CURVES
100
AcDbLine
 62
4
  6
CONTINUOUS
 10
12.1334283885
 20
11.6046802281
 11
12.1217243885
 21
11.5968775612
  0
LINE
  5
31E
100
AcDbEntity
  8
03__ASM_ALL_CURVES
100
AcDbLine
 62
4
  6
CONTINUOUS
 10
10.5539577209
 20
8.0116775612
 11
10.5227470533
 21
8.0116775612
  0
LINE
  5
31F
100
AcDbEntity
  8
03__ASM_ALL_CURVES
100
AcDbLine
 62
4
  6
CONTINUOUS
 10
7.6986683885
 20
8.0116775612
 11
7.7923003885
 21
8.0116775612
  0
LINE
  5
320
100
AcDbEntity
  8
03__ASM_ALL_CURVES
100
AcDbLine
 62
4
  6
CONTINUOUS
 10
9.8351683885
 20
8.0526415612
 11
9.7415363885
 21
8.0526415612
  0
LINE
  5
321
100
AcDbEntity
  8
03__ASM_ALL_CURVES
100
AcDbLine
 62
4
  6
CONTINUOUS
 10
7.5691417237
 20
8.0584935612
 11
7.5847470533
 21
8.0584935612
  0
LINE
  5
322
100
AcDbEntity
  8
03__ASM_ALL_CURVES
100
AcDbLine
 62
4
  6
CONTINUOUS
 10
10.5227470533
 20
8.0584935612
 11
10.5539577209
 21
8.0584935612
  0
LINE
  5
323
100
AcDbEntity
  8
03__ASM_ALL_CURVES
100
AcDbLine
 62
4
  6
CONTINUOUS
 10
11.2261417237
 20
8.0584935612
 11
11.2339443885
 21
8.0584935612
  0
LINE
  5
324
100
AcDbEntity
  8
03__ASM_ALL_CURVES
100
AcDbLine
 62
4
  6
CONTINUOUS
 10
11.2729577209
 20
8.0643455612
 11
11.2807603885
 21
8.0643455612
  0
LINE
  5
325
100
AcDbEntity
  8
03__ASM_ALL_CURVES
100
AcDbLine
 62
4
  6
CONTINUOUS
 10
7.7142737237
 20
8.1053095612
 11
7.7220763885
 21
8.1053095612
  0
LINE
  5
326
100
AcDbEntity
  8
03__ASM_ALL_CURVES
100
AcDbLine
 62
4
  6
CONTINUOUS
 10
7.5925497237
 20
8.1404215612
 11
7.6081550561
 21
8.1404215612
  0
LINE
  5
327
100
AcDbEntity
  8
03__ASM_ALL_CURVES
100
AcDbLine
 62
4
  6
CONTINUOUS
 10
9.7805497237
 20
8.1404215612
 11
9.7961550561
 21
8.1404215612
  0
LINE
  5
328
100
AcDbEntity
  8
03__ASM_ALL_CURVES
100
AcDbLine
 62
4
  6
CONTINUOUS
 10
11.2495497237
 20
8.1404215612
 11
11.2651550561
 21
8.1404215612
  0
LINE
  5
329
100
AcDbEntity
  8
03__ASM_ALL_CURVES
100
AcDbLine
 62
4
  6
CONTINUOUS
 10
7.7610897209
 20
8.1521255612
 11
7.7766950547
 21
8.1521255612
  0
LINE
  5
32A
100
AcDbEntity
  8
03__ASM_ALL_CURVES
100
AcDbLine
 62
4
  6
CONTINUOUS
 10
7.7376817237
 20
8.2340535612
 11
7.7532870561
 21
8.2340535612
  0
LINE
  5
32B
100
AcDbEntity
  8
03__ASM_ALL_CURVES
100
AcDbLine
 62
4
  6
CONTINUOUS
 10
9.7961550561
 20
8.1404215612
 11
9.8195630547
 21
8.1345695612
  0
LINE
  5
32C
100
AcDbEntity
  8
03__ASM_ALL_CURVES
100
AcDbLine
 62
4
  6
CONTINUOUS
 10
10.5227470533
 20
8.0116775612
 11
10.5071417237
 21
8.0175295612
  0
LINE
  5
32D
100
AcDbEntity
  8
03__ASM_ALL_CURVES
100
AcDbLine
 62
4
  6
CONTINUOUS
 10
10.5539577209
 20
8.0584935612
 11
10.5695630547
 21
8.0526415612
  0
LINE
  5
32E
100
AcDbEntity
  8
03__ASM_ALL_CURVES
100
AcDbLine
 62
4
  6
CONTINUOUS
 10
9.8195630547
 20
8.1345695612
 11
9.8351683885
 21
8.1228655612
  0
LINE
  5
32F
100
AcDbEntity
  8
03__ASM_ALL_CURVES
100
AcDbLine
 62
4
  6
CONTINUOUS
 10
11.2261417237
 20
7.0812095612
 11
11.2183390533
 21
7.0870615612
  0
LINE
  5
330
100
AcDbEntity
  8
03__ASM_ALL_CURVES
100
AcDbLine
 62
4
  6
CONTINUOUS
 10
11.2885630547
 20
7.1163215612
 11
11.2963657216
 21
7.1104695612
  0
LINE
  5
331
100
AcDbEntity
  8
03__ASM_ALL_CURVES
100
AcDbLine
 62
4
  6
CONTINUOUS
 10
9.8273657216
 20
7.7658935612
 11
9.8351683885
 21
7.7541895612
  0
LINE
  5
332
100
AcDbEntity
  8
03__ASM_ALL_CURVES
100
AcDbLine
 62
4
  6
CONTINUOUS
 10
9.7493390533
 20
7.9297495612
 11
9.7415363885
 21
7.9414535612
  0
LINE
  5
333
100
AcDbEntity
  8
03__ASM_ALL_CURVES
100
AcDbLine
 62
4
  6
CONTINUOUS
 10
9.8273657216
 20
7.9531575612
 11
9.8351683885
 21
7.9414535612
  0
LINE
  5
334
100
AcDbEntity
  8
03__ASM_ALL_CURVES
100
AcDbLine
 62
4
  6
CONTINUOUS
 10
9.7883523885
 20
7.7717455612
 11
9.7961550561
 21
7.7541895612
  0
LINE
  5
335
100
AcDbEntity
  8
03__ASM_ALL_CURVES
100
AcDbLine
 62
4
  6
CONTINUOUS
 10
7.6986683885
 20
6.9173535612
 11
7.7064710533
 21
6.9290575612
  0
LINE
  5
336
100
AcDbEntity
  8
03__ASM_ALL_CURVES
100
AcDbLine
 62
4
  6
CONTINUOUS
 10
7.7376817237
 20
6.9173535612
 11
7.7454843885
 21
6.9290575612
  0
LINE
  5
337
100
AcDbEntity
  8
03__ASM_ALL_CURVES
100
AcDbLine
 62
4
  6
CONTINUOUS
 10
7.7376817237
 20
6.9056495612
 11
7.7298790533
 21
6.8939455612
  0
LINE
  5
338
100
AcDbEntity
  8
03__ASM_ALL_CURVES
100
AcDbLine
 62
4
  6
CONTINUOUS
 10
7.7923003885
 20
6.9056495612
 11
7.7844977216
 21
6.8939455612
  0
LINE
  5
339
100
AcDbEntity
  8
03__ASM_ALL_CURVES
100
AcDbLine
 62
4
  6
CONTINUOUS
 10
7.6986683885
 20
6.7300895612
 11
7.7064710533
 21
6.7417935612
  0
LINE
  5
33A
100
AcDbEntity
  8
03__ASM_ALL_CURVES
100
AcDbLine
 62
4
  6
CONTINUOUS
 10
7.5535363885
 20
8.1228655612
 11
7.5691417237
 21
8.1345695612
  0
LINE
  5
33B
100
AcDbEntity
  8
03__ASM_ALL_CURVES
100
AcDbLine
 62
4
  6
CONTINUOUS
 10
7.6986683885
 20
8.2164975612
 11
7.7142737237
 21
8.2282015612
  0
LINE
  5
33C
100
AcDbEntity
  8
03__ASM_ALL_CURVES
100
AcDbLine
 62
4
  6
CONTINUOUS
 10
7.5613390533
 20
8.0526415612
 11
7.5691417237
 21
8.0584935612
  0
LINE
  5
33D
100
AcDbEntity
  8
03__ASM_ALL_CURVES
100
AcDbLine
 62
4
  6
CONTINUOUS
 10
7.7142737237
 20
8.1521255612
 11
7.7064710533
 21
8.1462735612
  0
LINE
  5
33E
100
AcDbEntity
  8
03__ASM_ALL_CURVES
100
AcDbLine
 62
4
  6
CONTINUOUS
 10
12.4845483885
 20
11.6827068964
 11
12.4962523885
 21
11.6905095612
  0
LINE
  5
33F
100
AcDbEntity
  8
03__ASM_ALL_CURVES
100
AcDbLine
 62
4
  6
CONTINUOUS
 10
12.5079563885
 20
11.6046802281
 11
12.4962523885
 21
11.5968775612
  0
LINE
  5
340
100
AcDbEntity
  8
03__ASM_ALL_CURVES
100
AcDbLine
 62
4
  6
CONTINUOUS
 10
12.4786963885
 20
11.0186935612
 11
12.4962523885
 21
11.026496226
  0
LINE
  5
341
100
AcDbEntity
  8
03__ASM_ALL_CURVES
100
AcDbLine
 62
4
  6
CONTINUOUS
 10
7.6081550561
 20
7.5552215612
 11
7.6315630547
 21
7.5610735612
  0
LINE
  5
342
100
AcDbEntity
  8
03__ASM_ALL_CURVES
100
AcDbLine
 62
4
  6
CONTINUOUS
 10
9.7571417237
 20
8.1345695612
 11
9.7805497237
 21
8.1404215612
  0
LINE
  5
343
100
AcDbEntity
  8
03__ASM_ALL_CURVES
100
AcDbLine
 62
4
  6
CONTINUOUS
 10
7.7142737237
 20
7.7600415612
 11
7.7376817237
 21
7.7658935612
  0
LINE
  5
344
100
AcDbEntity
  8
03__ASM_ALL_CURVES
100
AcDbLine
 62
4
  6
CONTINUOUS
 10
11.2651550561
 20
8.1404215612
 11
11.2885630547
 21
8.1345695612
  0
LINE
  5
345
100
AcDbEntity
  8
03__ASM_ALL_CURVES
100
AcDbLine
 62
4
  6
CONTINUOUS
 10
11.2417470533
 20
7.9180455612
 11
11.2261417237
 21
7.9238975612
  0
LINE
  5
346
100
AcDbEntity
  8
03__ASM_ALL_CURVES
100
AcDbLine
 62
4
  6
CONTINUOUS
 10
11.2729577209
 20
7.9648615612
 11
11.2885630547
 21
7.9590095612
  0
LINE
  5
347
100
AcDbEntity
  8
03__ASM_ALL_CURVES
100
AcDbLine
 62
4
  6
CONTINUOUS
 10
10.5071417237
 20
8.0175295612
 11
10.4993390533
 21
8.0233815612
  0
LINE
  5
348
100
AcDbEntity
  8
03__ASM_ALL_CURVES
100
AcDbLine
 62
4
  6
CONTINUOUS
 10
10.5695630547
 20
8.0526415612
 11
10.5773657216
 21
8.0467895612
  0
LINE
  5
349
100
AcDbEntity
  8
03__ASM_ALL_CURVES
100
AcDbLine
 62
4
  6
CONTINUOUS
 10
11.2105363885
 20
7.5727775612
 11
11.2261417237
 21
7.5610735612
  0
LINE
  5
34A
100
AcDbEntity
  8
03__ASM_ALL_CURVES
100
AcDbLine
 62
4
  6
CONTINUOUS
 10
9.7415363885
 20
7.4030695612
 11
9.7415363885
 21
7.3679575612
  0
LINE
  5
34B
100
AcDbEntity
  8
03__ASM_ALL_CURVES
100
AcDbLine
 62
4
  6
CONTINUOUS
 10
9.7415363885
 20
7.3094375612
 11
9.7415363885
 21
7.2626215612
  0
LINE
  5
34C
100
AcDbEntity
  8
03__ASM_ALL_CURVES
100
AcDbLine
 62
4
  6
CONTINUOUS
 10
9.7727470533
 20
7.3738095612
 11
9.7727470533
 21
7.3855135612
  0
LINE
  5
34D
100
AcDbEntity
  8
03__ASM_ALL_CURVES
100
AcDbLine
 62
4
  6
CONTINUOUS
 10
9.7883523885
 20
8.5500615612
 11
9.7883523885
 21
8.2691655612
  0
LINE
  5
34E
100
AcDbEntity
  8
03__ASM_ALL_CURVES
100
AcDbLine
 62
4
  6
CONTINUOUS
 10
9.8117603885
 20
8.0116775612
 11
9.8117603885
 21
8.0643455612
  0
LINE
  5
34F
100
AcDbEntity
  8
0
100
AcDbLine
 62
7
  6
CONTINUOUS
 10
9.8193523885
 20
10.9766935612
 11
9.8193523885
 21
10.6845342044
  0
LINE
  5
350
100
AcDbEntity
  8
0
100
AcDbLine
 62
7
  6
CONTINUOUS
 10
9.8193523885
 20
9.7278529181
 11
9.8193523885
 21
9.4356935612
  0
LINE
  5
351
100
AcDbEntity
  8
03__ASM_ALL_CURVES
100
AcDbLine
 62
4
  6
CONTINUOUS
 10
7.7532870561
 20
8.1462735612
 11
7.7610897209
 21
8.1521255612
  0
LINE
  5
352
100
AcDbEntity
  8
03__ASM_ALL_CURVES
100
AcDbLine
 62
4
  6
CONTINUOUS
 10
7.7220763885
 20
8.1053095612
 11
7.7298790533
 21
8.1111615612
  0
LINE
  5
353
100
AcDbEntity
  8
03__ASM_ALL_CURVES
100
AcDbLine
 62
4
  6
CONTINUOUS
 10
7.7844977216
 20
8.1111615612
 11
7.7688923885
 21
8.0994575612
  0
LINE
  5
354
100
AcDbEntity
  8
03__ASM_ALL_CURVES
100
AcDbLine
 62
4
  6
CONTINUOUS
 10
7.6354643881
 20
7.8624515612
 11
7.6471683885
 21
7.8712295612
  0
LINE
  5
355
100
AcDbEntity
  8
03__ASM_ALL_CURVES
100
AcDbLine
 62
4
  6
CONTINUOUS
 10
7.7766950547
 20
7.9356015612
 11
7.7923003885
 21
7.9473055612
  0
LINE
  5
356
100
AcDbEntity
  8
03__ASM_ALL_CURVES
100
AcDbLine
 62
4
  6
CONTINUOUS
 10
12.7654443885
 20
11.6827068964
 11
12.7771483885
 21
11.6905095612
  0
LINE
  5
357
100
AcDbEntity
  8
03__ASM_ALL_CURVES
100
AcDbLine
 62
4
  6
CONTINUOUS
 10
11.9169043885
 20
11.0577068964
 11
11.9286083885
 21
11.0655095612
  0
LINE
  5
358
100
AcDbEntity
  8
03__ASM_ALL_CURVES
100
AcDbLine
 62
4
  6
CONTINUOUS
 10
12.7888523885
 20
11.6046802281
 11
12.7771483885
 21
11.5968775612
  0
LINE
  5
359
100
AcDbEntity
  8
03__ASM_ALL_CURVES
100
AcDbLine
 62
4
  6
CONTINUOUS
 10
11.9520163885
 20
11.026496226
 11
11.9286083885
 21
11.0108908936
  0
LINE
  5
35A
100
AcDbEntity
  8
03__ASM_ALL_CURVES
100
AcDbLine
 62
4
  6
CONTINUOUS
 10
12.1041683885
 20
11.0577068964
 11
12.1158723885
 21
11.0655095612
  0
LINE
  5
35B
100
AcDbEntity
  8
03__ASM_ALL_CURVES
100
AcDbLine
 62
4
  6
CONTINUOUS
 10
12.1392803885
 20
11.0342988964
 11
12.1275763885
 21
11.026496226
  0
LINE
  5
35C
100
AcDbEntity
  8
03__ASM_ALL_CURVES
100
AcDbLine
 62
4
  6
CONTINUOUS
 10
12.8883363885
 20
11.0186935612
 11
12.8707803885
 21
11.0108908936
  0
LINE
  5
35D
100
AcDbEntity
  8
03__ASM_ALL_CURVES
100
AcDbLine
 62
4
  6
CONTINUOUS
 10
7.7532870561
 20
7.9297495612
 11
7.7766950547
 21
7.9356015612
  0
LINE
  5
35E
100
AcDbEntity
  8
0
100
AcDbLine
 62
7
  6
CONTINUOUS
 10
10.5383523885
 20
8.6436935612
 11
7.6003524247
 21
8.6436935612
  0
LINE
  5
35F
100
AcDbEntity
  8
03__ASM_ALL_CURVES
100
AcDbLine
 62
4
  6
CONTINUOUS
 10
10.6319843885
 20
8.6436935612
 11
10.9128803885
 21
8.6436935612
  0
LINE
  5
360
100
AcDbEntity
  8
03__ASM_ALL_CURVES
100
AcDbLine
 62
4
  6
CONTINUOUS
 10
11.2261417237
 20
7.7307815612
 11
11.2183390533
 21
7.7366335612
  0
LINE
  5
361
100
AcDbEntity
  8
03__ASM_ALL_CURVES
100
AcDbLine
 62
4
  6
CONTINUOUS
 10
11.2729577209
 20
7.7249295612
 11
11.2573523885
 21
7.7366335612
  0
LINE
  5
362
100
AcDbEntity
  8
03__ASM_ALL_CURVES
100
AcDbLine
 62
4
  6
CONTINUOUS
 10
11.2339443885
 20
7.7775975612
 11
11.2417470533
 21
7.7717455612
  0
LINE
  5
363
100
AcDbEntity
  8
03__ASM_ALL_CURVES
100
AcDbLine
 62
4
  6
CONTINUOUS
 10
11.2807603885
 20
7.7834495612
 11
11.2963657216
 21
7.7717455612
  0
LINE
  5
364
100
AcDbEntity
  8
03__ASM_ALL_CURVES
100
AcDbLine
 62
4
  6
CONTINUOUS
 10
10.4993390533
 20
8.0233815612
 11
10.4915363885
 21
8.0350855612
  0
LINE
  5
365
100
AcDbEntity
  8
0
100
AcDbLine
 62
7
  6
CONTINUOUS
 10
9.8293523885
 20
10.9866935612
 11
9.8293523885
 21
10.6857837046
  0
LINE
  5
366
100
AcDbEntity
  8
0
100
AcDbLine
 62
7
  6
CONTINUOUS
 10
9.8293523885
 20
9.7266034179
 11
9.8293523885
 21
9.4256935612
  0
LINE
  5
367
100
AcDbEntity
  8
03__ASM_ALL_CURVES
100
AcDbLine
 62
4
  6
CONTINUOUS
 10
9.8351683885
 20
7.8712295612
 11
9.8351683885
 21
7.8624515612
  0
LINE
  5
368
100
AcDbEntity
  8
03__ASM_ALL_CURVES
100
AcDbLine
 62
4
  6
CONTINUOUS
 10
9.8351683885
 20
7.3855135612
 11
9.8351683885
 21
7.3738095612
  0
LINE
  5
369
100
AcDbEntity
  8
03__ASM_ALL_CURVES
100
AcDbLine
 62
4
  6
CONTINUOUS
 10
9.8351683885
 20
7.2158055612
 11
9.8351683885
 21
7.2070275612
  0
LINE
  5
36A
100
AcDbEntity
  8
0
100
AcDbLine
 62
7
  6
CONTINUOUS
 10
10.0073523885
 20
9.647624428
 11
10.0073523885
 21
9.4256935612
  0
LINE
  5
36B
100
AcDbEntity
  8
0
100
AcDbLine
 62
7
  6
CONTINUOUS
 10
10.0073523885
 20
10.7647626945
 11
10.0073523885
 21
10.9866935612
  0
LINE
  5
36C
100
AcDbEntity
  8
0
100
AcDbLine
 62
7
  6
CONTINUOUS
 10
10.0518523885
 20
9.6021226404
 11
10.0518523885
 21
9.3811935612
  0
LINE
  5
36D
100
AcDbEntity
  8
0
100
AcDbLine
 62
7
  6
CONTINUOUS
 10
10.0518523885
 20
10.8112408361
 11
10.0518523885
 21
11.0311935612
  0
LINE
  5
36E
100
AcDbEntity
  8
0
100
AcDbLine
 62
7
  6
CONTINUOUS
 10
10.7263523885
 20
10.1961935612
 11
10.7363983199
 21
10.2062394926
  0
LINE
  5
36F
100
AcDbEntity
  8
03__ASM_ALL_CURVES
100
AcDbLine
 62
4
  6
CONTINUOUS
 10
7.6986683885
 20
7.7483375612
 11
7.7142737237
 21
7.7600415612
  0
LINE
  5
370
100
AcDbEntity
  8
03__ASM_ALL_CURVES
100
AcDbLine
 62
4
  6
CONTINUOUS
 10
7.7064710533
 20
7.6722615612
 11
7.7142737237
 21
7.6781135612
  0
LINE
  5
371
100
AcDbEntity
  8
03__ASM_ALL_CURVES
100
AcDbLine
 62
4
  6
CONTINUOUS
 10
7.6315630547
 20
7.5610735612
 11
7.6471683885
 21
7.5727775612
  0
LINE
  5
372
100
AcDbEntity
  8
03__ASM_ALL_CURVES
100
AcDbLine
 62
4
  6
CONTINUOUS
 10
7.7844977216
 20
7.6488535612
 11
7.7766950547
 21
7.6430015612
  0
LINE
  5
373
100
AcDbEntity
  8
03__ASM_ALL_CURVES
100
AcDbLine
 62
4
  6
CONTINUOUS
 10
7.7064710533
 20
7.5844815612
 11
7.7142737237
 21
7.5903335612
  0
LINE
  5
374
100
AcDbEntity
  8
03__ASM_ALL_CURVES
100
AcDbLine
 62
4
  6
CONTINUOUS
 10
7.7454843885
 20
7.5844815612
 11
7.7610897209
 21
7.5961855612
  0
LINE
  5
375
100
AcDbEntity
  8
03__ASM_ALL_CURVES
100
AcDbLine
 62
4
  6
CONTINUOUS
 10
7.7298790533
 20
7.5493695612
 11
7.7220763885
 21
7.5435175612
  0
LINE
  5
376
100
AcDbEntity
  8
03__ASM_ALL_CURVES
100
AcDbLine
 62
4
  6
CONTINUOUS
 10
12.1392803885
 20
10.9796802281
 11
12.1275763885
 21
10.9718775612
  0
LINE
  5
377
100
AcDbEntity
  8
03__ASM_ALL_CURVES
100
AcDbLine
 62
4
  6
CONTINUOUS
 10
12.4845483885
 20
11.0577068964
 11
12.4962523885
 21
11.0655095612
  0
LINE
  5
378
100
AcDbEntity
  8
03__ASM_ALL_CURVES
100
AcDbLine
 62
4
  6
CONTINUOUS
 10
12.5781803885
 20
11.0577068964
 11
12.5898843885
 21
11.0655095612
  0
LINE
  5
379
100
AcDbEntity
  8
03__ASM_ALL_CURVES
100
AcDbLine
 62
4
  6
CONTINUOUS
 10
12.5079563885
 20
10.9796802281
 11
12.4962523885
 21
10.9718775612
  0
LINE
  5
37A
100
AcDbEntity
  8
03__ASM_ALL_CURVES
100
AcDbLine
 62
4
  6
CONTINUOUS
 10
7.5691417237
 20
8.1345695612
 11
7.5925497237
 21
8.1404215612
  0
LINE
  5
37B
100
AcDbEntity
  8
03__ASM_ALL_CURVES
100
AcDbLine
 62
4
  6
CONTINUOUS
 10
7.7142737237
 20
8.2282015612
 11
7.7376817237
 21
8.2340535612
  0
LINE
  5
37C
100
AcDbEntity
  8
03__ASM_ALL_CURVES
100
AcDbLine
 62
4
  6
CONTINUOUS
 10
11.2261417237
 20
7.9238975612
 11
11.2183390533
 21
7.9297495612
  0
LINE
  5
37D
100
AcDbEntity
  8
03__ASM_ALL_CURVES
100
AcDbLine
 62
4
  6
CONTINUOUS
 10
11.2885630547
 20
7.9590095612
 11
11.2963657216
 21
7.9531575612
  0
LINE
  5
37E
100
AcDbEntity
  8
03__ASM_ALL_CURVES
100
AcDbLine
 62
4
  6
CONTINUOUS
 10
11.2339443885
 20
8.0584935612
 11
11.2417470533
 21
8.0526415612
  0
LINE
  5
37F
100
AcDbEntity
  8
03__ASM_ALL_CURVES
100
AcDbLine
 62
4
  6
CONTINUOUS
 10
11.2807603885
 20
8.0643455612
 11
11.2963657216
 21
8.0526415612
  0
LINE
  5
380
100
AcDbEntity
  8
03__ASM_ALL_CURVES
100
AcDbLine
 62
4
  6
CONTINUOUS
 10
11.2885630547
 20
8.1345695612
 11
11.3041683885
 21
8.1228655612
  0
LINE
  5
381
100
AcDbEntity
  8
03__ASM_ALL_CURVES
100
AcDbLine
 62
4
  6
CONTINUOUS
 10
10.5773657216
 20
8.0467895612
 11
10.5851683885
 21
8.0350855612
  0
LINE
  5
382
100
AcDbEntity
  8
03__ASM_ALL_CURVES
100
AcDbLine
 62
4
  6
CONTINUOUS
 10
11.2183390533
 20
7.0870615612
 11
11.2105363885
 21
7.0987655612
  0
LINE
  5
383
100
AcDbEntity
  8
03__ASM_ALL_CURVES
100
AcDbLine
 62
4
  6
CONTINUOUS
 10
11.2963657216
 20
7.1104695612
 11
11.3041683885
 21
7.0987655612
  0
LINE
  5
384
100
AcDbEntity
  8
03__ASM_ALL_CURVES
100
AcDbLine
 62
4
  6
CONTINUOUS
 10
11.9578683885
 20
11.6671015612
 11
11.9520163885
 21
11.6592988964
  0
LINE
  5
385
100
AcDbEntity
  8
03__ASM_ALL_CURVES
100
AcDbLine
 62
4
  6
CONTINUOUS
 10
11.9637203885
 20
11.6202855612
 11
11.9520163885
 21
11.6046802281
  0
LINE
  5
386
100
AcDbEntity
  8
03__ASM_ALL_CURVES
100
AcDbLine
 62
4
  6
CONTINUOUS
 10
12.1041683885
 20
11.674904226
 11
12.1100203885
 21
11.6827068964
  0
LINE
  5
387
100
AcDbEntity
  8
03__ASM_ALL_CURVES
100
AcDbLine
 62
4
  6
CONTINUOUS
 10
12.1392803885
 20
11.612482895
 11
12.1334283885
 21
11.6046802281
  0
LINE
  5
388
100
AcDbEntity
  8
03__ASM_ALL_CURVES
100
AcDbLine
 62
4
  6
CONTINUOUS
 10
7.5613390533
 20
7.3972175612
 11
7.5691417237
 21
7.4030695612
  0
LINE
  5
389
100
AcDbEntity
  8
03__ASM_ALL_CURVES
100
AcDbLine
 62
4
  6
CONTINUOUS
 10
7.7844977216
 20
7.5493695612
 11
7.7688923885
 21
7.5376655612
  0
LINE
  5
38A
100
AcDbEntity
  8
03__ASM_ALL_CURVES
100
AcDbLine
 62
4
  6
CONTINUOUS
 10
7.6003523885
 20
7.3972175612
 11
7.6159577209
 21
7.4089215612
  0
LINE
  5
38B
100
AcDbEntity
  8
03__ASM_ALL_CURVES
100
AcDbLine
 62
4
  6
CONTINUOUS
 10
7.7805963881
 20
7.4879235612
 11
7.7923003885
 21
7.4967015612
  0
LINE
  5
38C
100
AcDbEntity
  8
03__ASM_ALL_CURVES
100
AcDbLine
 62
4
  6
CONTINUOUS
 10
7.6393657216
 20
7.3621055612
 11
7.6315630547
 21
7.3562535612
  0
LINE
  5
38D
100
AcDbEntity
  8
03__ASM_ALL_CURVES
100
AcDbLine
 62
4
  6
CONTINUOUS
 10
7.5613390533
 20
7.2977335612
 11
7.5691417237
 21
7.3035855612
  0
LINE
  5
38E
100
AcDbEntity
  8
03__ASM_ALL_CURVES
100
AcDbLine
 62
4
  6
CONTINUOUS
 10
7.7064710533
 20
7.3972175612
 11
7.7142737237
 21
7.4030695612
  0
LINE
  5
38F
100
AcDbEntity
  8
03__ASM_ALL_CURVES
100
AcDbLine
 62
4
  6
CONTINUOUS
 10
7.6393657216
 20
7.2743255612
 11
7.6315630547
 21
7.2684735612
  0
LINE
  5
390
100
AcDbEntity
  8
03__ASM_ALL_CURVES
100
AcDbLine
 62
4
  6
CONTINUOUS
 10
7.6354643881
 20
7.2070275612
 11
7.6471683885
 21
7.2158055612
  0
LINE
  5
391
100
AcDbEntity
  8
03__ASM_ALL_CURVES
100
AcDbLine
 62
4
  6
CONTINUOUS
 10
7.5613390533
 20
7.1163215612
 11
7.5691417237
 21
7.1221735612
  0
LINE
  5
392
100
AcDbEntity
  8
03__ASM_ALL_CURVES
100
AcDbLine
 62
4
  6
CONTINUOUS
 10
12.6015883885
 20
10.9796802281
 11
12.5898843885
 21
10.9718775612
  0
LINE
  5
393
100
AcDbEntity
  8
03__ASM_ALL_CURVES
100
AcDbLine
 62
4
  6
CONTINUOUS
 10
12.8590763885
 20
11.0577068964
 11
12.8707803885
 21
11.0655095612
  0
LINE
  5
394
100
AcDbEntity
  8
03__ASM_ALL_CURVES
100
AcDbLine
 62
4
  6
CONTINUOUS
 10
12.8824843885
 20
10.9796802281
 11
12.8707803885
 21
10.9718775612
  0
LINE
  5
395
100
AcDbEntity
  8
03__ASM_ALL_CURVES
100
AcDbLine
 62
4
  6
CONTINUOUS
 10
11.1469603885
 20
8.5968775612
 11
11.1352563885
 21
8.6046802281
  0
LINE
  5
396
100
AcDbEntity
  8
0
100
AcDbLine
 62
7
  6
CONTINUOUS
 10
9.8193523885
 20
9.4356935612
 11
9.8293523885
 21
9.4256935612
  0
LINE
  5
397
100
AcDbEntity
  8
0
100
AcDbLine
 62
7
  6
CONTINUOUS
 10
10.0073523885
 20
9.4256935612
 11
10.0518523885
 21
9.3811935612
  0
LINE
  5
398
100
AcDbEntity
  8
03__ASM_ALL_CURVES
100
AcDbLine
 62
4
  6
CONTINUOUS
 10
11.2183390533
 20
7.7366335612
 11
11.2105363885
 21
7.7483375612
  0
LINE
  5
399
100
AcDbEntity
  8
03__ASM_ALL_CURVES
100
AcDbLine
 62
4
  6
CONTINUOUS
 10
11.2573523885
 20
7.7366335612
 11
11.2495497237
 21
7.7483375612
  0
LINE
  5
39A
100
AcDbEntity
  8
03__ASM_ALL_CURVES
100
AcDbLine
 62
4
  6
CONTINUOUS
 10
11.2417470533
 20
7.7717455612
 11
11.2495497237
 21
7.7600415612
  0
LINE
  5
39B
100
AcDbEntity
  8
0
100
AcDbLine
 62
7
  6
CONTINUOUS
 10
10.5383523885
 20
11.6436935612
 11
10.5383523885
 21
8.6436935612
  0
LINE
  5
39C
100
AcDbEntity
  8
03__ASM_ALL_CURVES
100
AcDbLine
 62
4
  6
CONTINUOUS
 10
10.5383523885
 20
8.5500615612
 11
10.5383523885
 21
8.2691655612
  0
LINE
  5
39D
100
AcDbEntity
  8
03__ASM_ALL_CURVES
100
AcDbLine
 62
4
  6
CONTINUOUS
 10
9.7961550561
 20
7.7541895612
 11
9.7883523885
 21
7.7366335612
  0
LINE
  5
39E
100
AcDbEntity
  8
03__ASM_ALL_CURVES
100
AcDbLine
 62
4
  6
CONTINUOUS
 10
9.7415363885
 20
7.9414535612
 11
9.7493390533
 21
7.9531575612
  0
LINE
  5
39F
100
AcDbEntity
  8
03__ASM_ALL_CURVES
100
AcDbLine
 62
4
  6
CONTINUOUS
 10
12.3148403885
 20
11.6905095612
 11
12.3031363885
 21
11.674904226
  0
LINE
  5
3A0
100
AcDbEntity
  8
03__ASM_ALL_CURVES
100
AcDbLine
 62
4
  6
CONTINUOUS
 10
11.9110523885
 20
11.049904226
 11
11.9169043885
 21
11.0577068964
  0
LINE
  5
3A1
100
AcDbEntity
  8
03__ASM_ALL_CURVES
100
AcDbLine
 62
4
  6
CONTINUOUS
 10
11.9286083885
 20
11.0108908936
 11
11.9169043885
 21
10.9952855612
  0
LINE
  5
3A2
100
AcDbEntity
  8
03__ASM_ALL_CURVES
100
AcDbLine
 62
4
  6
CONTINUOUS
 10
11.9578683885
 20
11.0342988964
 11
11.9520163885
 21
11.026496226
  0
LINE
  5
3A3
100
AcDbEntity
  8
03__ASM_ALL_CURVES
100
AcDbLine
 62
4
  6
CONTINUOUS
 10
12.4786963885
 20
11.674904226
 11
12.4845483885
 21
11.6827068964
  0
LINE
  5
3A4
100
AcDbEntity
  8
03__ASM_ALL_CURVES
100
AcDbLine
 62
4
  6
CONTINUOUS
 10
7.7766950547
 20
7.1865455612
 11
7.7923003885
 21
7.1982495612
  0
LINE
  5
3A5
100
AcDbEntity
  8
03__ASM_ALL_CURVES
100
AcDbLine
 62
4
  6
CONTINUOUS
 10
7.7064710533
 20
6.9290575612
 11
7.7142737237
 21
6.9349095612
  0
LINE
  5
3A6
100
AcDbEntity
  8
0
100
AcDbLine
 62
7
  6
CONTINUOUS
 10
10.7363684167
 20
9.3311775273
 11
11.2530130042
 21
9.3311775273
  0
LINE
  5
3A7
100
AcDbEntity
  8
0
100
AcDbLine
 62
7
  6
CONTINUOUS
 10
10.5383523885
 20
9.3411935612
 11
10.7263523885
 21
9.3411935612
  0
LINE
  5
3A8
100
AcDbEntity
  8
03__ASM_ALL_CURVES
100
AcDbLine
 62
4
  6
CONTINUOUS
 10
12.7069243885
 20
9.3468775612
 11
12.6981463885
 21
9.3468775612
  0
LINE
  5
3A9
100
AcDbEntity
  8
03__ASM_ALL_CURVES
100
AcDbLine
 62
4
  6
CONTINUOUS
 10
12.2212083885
 20
9.3468775612
 11
12.2095043885
 21
9.3468775612
  0
LINE
  5
3AA
100
AcDbEntity
  8
03__ASM_ALL_CURVES
100
AcDbLine
 62
4
  6
CONTINUOUS
 10
12.0515003885
 20
9.3468775612
 11
12.0427223885
 21
9.3468775612
  0
LINE
  5
3AB
100
AcDbEntity
  8
0
100
AcDbLine
 62
7
  6
CONTINUOUS
 10
10.7878523885
 20
9.3607913136
 11
11.2232887226
 21
9.3607913136
  0
LINE
  5
3AC
100
AcDbEntity
  8
03__ASM_ALL_CURVES
100
AcDbLine
 62
4
  6
CONTINUOUS
 10
12.8473723885
 20
9.3702855612
 11
12.9000403885
 21
9.3702855612
  0
LINE
  5
3AD
100
AcDbEntity
  8
0
100
AcDbLine
 62
7
  6
CONTINUOUS
 10
10.0518523885
 20
9.3811935612
 11
10.1230385855
 21
9.3811935612
  0
LINE
  5
3AE
100
AcDbEntity
  8
03__ASM_ALL_CURVES
100
AcDbLine
 62
4
  6
CONTINUOUS
 10
10.6319843885
 20
9.3936935612
 11
11.4194843885
 21
9.3936935612
  0
LINE
  5
3AF
100
AcDbEntity
  8
03__ASM_ALL_CURVES
100
AcDbLine
 62
4
  6
CONTINUOUS
 10
12.2095043885
 20
9.4092988964
 11
12.2212083885
 21
9.4092988964
  0
LINE
  5
3B0
100
AcDbEntity
  8
0
100
AcDbLine
 62
7
  6
CONTINUOUS
 10
9.8293523885
 20
9.4256935612
 11
10.0073523885
 21
9.4256935612
  0
LINE
  5
3B1
100
AcDbEntity
  8
03__ASM_ALL_CURVES
100
AcDbLine
 62
4
  6
CONTINUOUS
 10
12.2387643885
 20
9.4405095612
 11
12.2036523885
 21
9.4405095612
  0
LINE
  5
3B2
100
AcDbEntity
  8
03__ASM_ALL_CURVES
100
AcDbLine
 62
4
  6
CONTINUOUS
 10
12.1451323885
 20
9.4405095612
 11
12.0983163885
 21
9.4405095612
  0
LINE
  5
3B3
100
AcDbEntity
  8
03__ASM_ALL_CURVES
100
AcDbLine
 62
4
  6
CONTINUOUS
 10
11.1469603885
 20
8.6905095612
 11
11.1586643885
 21
8.6827068964
  0
LINE
  5
3B4
100
AcDbEntity
  8
03__ASM_ALL_CURVES
100
AcDbLine
 62
4
  6
CONTINUOUS
 10
11.2963657216
 20
7.7717455612
 11
11.3041683885
 21
7.7600415612
  0
LINE
  5
3B5
100
AcDbEntity
  8
03__ASM_ALL_CURVES
100
AcDbLine
 62
4
  6
CONTINUOUS
 10
11.2183390533
 20
7.9297495612
 11
11.2105363885
 21
7.9414535612
  0
LINE
  5
3B6
100
AcDbEntity
  8
03__ASM_ALL_CURVES
100
AcDbLine
 62
4
  6
CONTINUOUS
 10
11.2183390533
 20
8.0175295612
 11
11.2105363885
 21
8.0292335612
  0
LINE
  5
3B7
100
AcDbEntity
  8
03__ASM_ALL_CURVES
100
AcDbLine
 62
4
  6
CONTINUOUS
 10
11.2963657216
 20
7.9531575612
 11
11.3041683885
 21
7.9414535612
  0
LINE
  5
3B8
100
AcDbEntity
  8
03__ASM_ALL_CURVES
100
AcDbLine
 62
4
  6
CONTINUOUS
 10
11.2417470533
 20
8.0526415612
 11
11.2495497237
 21
8.0409375612
  0
LINE
  5
3B9
100
AcDbEntity
  8
03__ASM_ALL_CURVES
100
AcDbLine
 62
4
  6
CONTINUOUS
 10
11.2963657216
 20
8.0526415612
 11
11.3041683885
 21
8.0409375612
  0
LINE
  5
3BA
100
AcDbEntity
  8
0
100
AcDbLine
 62
7
  6
CONTINUOUS
 10
10.7263523885
 20
9.3411935612
 11
10.7263523885
 21
10.1961935612
  0
LINE
  5
3BB
100
AcDbEntity
  8
0
100
AcDbLine
 62
7
  6
CONTINUOUS
 10
10.7263523885
 20
10.2161935612
 11
10.7263523885
 21
11.0711935612
  0
LINE
  5
3BC
100
AcDbEntity
  8
0
100
AcDbLine
 62
7
  6
CONTINUOUS
 10
10.7878523885
 20
9.3607913136
 11
10.7878523885
 21
9.3311775273
  0
LINE
  5
3BD
100
AcDbEntity
  8
0
100
AcDbLine
 62
7
  6
CONTINUOUS
 10
10.7878523885
 20
9.7390797749
 11
10.7878523885
 21
9.7983073476
  0
LINE
  5
3BE
100
AcDbEntity
  8
0
100
AcDbLine
 62
7
  6
CONTINUOUS
 10
10.7878523885
 20
10.1765958089
 11
10.7878523885
 21
10.2357913136
  0
LINE
  5
3BF
100
AcDbEntity
  8
0
100
AcDbLine
 62
7
  6
CONTINUOUS
 10
10.7878523885
 20
10.6140797749
 11
10.7878523885
 21
10.6733073476
  0
LINE
  5
3C0
100
AcDbEntity
  8
0
100
AcDbLine
 62
7
  6
CONTINUOUS
 10
10.7878523885
 20
11.0515958089
 11
10.7878523885
 21
11.0812095952
  0
LINE
  5
3C1
100
AcDbEntity
  8
0
100
AcDbLine
 62
7
  6
CONTINUOUS
 10
11.2530222615
 20
10.2061935612
 11
11.2573523885
 21
10.2136935612
  0
LINE
  5
3C2
100
AcDbEntity
  8
03__ASM_ALL_CURVES
100
AcDbLine
 62
4
  6
CONTINUOUS
 10
9.8351683885
 20
7.9414535612
 11
9.8273657216
 21
7.9297495612
  0
LINE
  5
3C3
100
AcDbEntity
  8
03__ASM_ALL_CURVES
100
AcDbLine
 62
4
  6
CONTINUOUS
 10
9.7415363885
 20
7.7541895612
 11
9.7493390533
 21
7.7658935612
  0
LINE
  5
3C4
100
AcDbEntity
  8
03__ASM_ALL_CURVES
100
AcDbLine
 62
4
  6
CONTINUOUS
 10
9.8351683885
 20
7.7541895612
 11
9.8273657216
 21
7.7424855612
  0
LINE
  5
3C5
100
AcDbEntity
  8
03__ASM_ALL_CURVES
100
AcDbLine
 62
4
  6
CONTINUOUS
 10
12.5138083885
 20
11.612482895
 11
12.5079563885
 21
11.6046802281
  0
LINE
  5
3C6
100
AcDbEntity
  8
03__ASM_ALL_CURVES
100
AcDbLine
 62
4
  6
CONTINUOUS
 10
12.1451323885
 20
11.0421015612
 11
12.1392803885
 21
11.0342988964
  0
LINE
  5
3C7
100
AcDbEntity
  8
03__ASM_ALL_CURVES
100
AcDbLine
 62
4
  6
CONTINUOUS
 10
12.1509843885
 20
10.9952855612
 11
12.1392803885
 21
10.9796802281
  0
LINE
  5
3C8
100
AcDbEntity
  8
03__ASM_ALL_CURVES
100
AcDbLine
 62
4
  6
CONTINUOUS
 10
12.7595923885
 20
11.674904226
 11
12.7654443885
 21
11.6827068964
  0
LINE
  5
3C9
100
AcDbEntity
  8
03__ASM_ALL_CURVES
100
AcDbLine
 62
4
  6
CONTINUOUS
 10
7.7454843885
 20
6.9290575612
 11
7.7610897209
 21
6.9407615612
  0
LINE
  5
3CA
100
AcDbEntity
  8
03__ASM_ALL_CURVES
100
AcDbLine
 62
4
  6
CONTINUOUS
 10
7.7298790533
 20
6.8939455612
 11
7.7220763885
 21
6.8880935612
  0
LINE
  5
3CB
100
AcDbEntity
  8
03__ASM_ALL_CURVES
100
AcDbLine
 62
4
  6
CONTINUOUS
 10
7.7844977216
 20
6.8939455612
 11
7.7688923885
 21
6.8822415612
  0
LINE
  5
3CC
100
AcDbEntity
  8
03__ASM_ALL_CURVES
100
AcDbLine
 62
4
  6
CONTINUOUS
 10
7.7805963881
 20
6.8324995612
 11
7.7923003885
 21
6.8412775612
  0
LINE
  5
3CD
100
AcDbEntity
  8
03__ASM_ALL_CURVES
100
AcDbLine
 62
4
  6
CONTINUOUS
 10
7.7064710533
 20
6.7417935612
 11
7.7142737237
 21
6.7476455612
  0
LINE
  5
3CE
100
AcDbEntity
  8
03__ASM_ALL_CURVES
100
AcDbLine
 62
4
  6
CONTINUOUS
 10
7.7142737237
 20
7.6781135612
 11
7.7298790533
 21
7.6839655612
  0
LINE
  5
3CF
100
AcDbEntity
  8
0
100
AcDbLine
 62
7
  6
CONTINUOUS
 10
9.4659473325
 20
9.4881935612
 11
9.8193523885
 21
9.4881935612
  0
LINE
  5
3D0
100
AcDbEntity
  8
0
100
AcDbLine
 62
7
  6
CONTINUOUS
 10
10.7263523885
 20
9.3411935612
 11
10.7363983199
 21
9.3311476298
  0
LINE
  5
3D1
100
AcDbEntity
  8
03__ASM_ALL_CURVES
100
AcDbLine
 62
4
  6
CONTINUOUS
 10
11.1352563885
 20
8.6046802281
 11
11.1294043885
 21
8.612482895
  0
LINE
  5
3D2
100
AcDbEntity
  8
03__ASM_ALL_CURVES
100
AcDbLine
 62
4
  6
CONTINUOUS
 10
11.1586643885
 20
8.6827068964
 11
11.1645163885
 21
8.674904226
  0
LINE
  5
3D3
100
AcDbEntity
  8
0
100
AcDbLine
 62
7
  6
CONTINUOUS
 10
11.2530130041
 20
9.3311775271
 11
11.2573523885
 21
9.3386935612
  0
LINE
  5
3D4
100
AcDbEntity
  8
03__ASM_ALL_CURVES
100
AcDbLine
 62
4
  6
CONTINUOUS
 10
9.7727470533
 20
7.3855135612
 11
9.7805497237
 21
7.3972175612
  0
LINE
  5
3D5
100
AcDbEntity
  8
03__ASM_ALL_CURVES
100
AcDbLine
 62
4
  6
CONTINUOUS
 10
9.8351683885
 20
7.3738095612
 11
9.8273657216
 21
7.3621055612
  0
LINE
  5
3D6
100
AcDbEntity
  8
03__ASM_ALL_CURVES
100
AcDbLine
 62
4
  6
CONTINUOUS
 10
9.7415363885
 20
7.0987655612
 11
9.7493390533
 21
7.1104695612
  0
LINE
  5
3D7
100
AcDbEntity
  8
03__ASM_ALL_CURVES
100
AcDbLine
 62
4
  6
CONTINUOUS
 10
12.7947043885
 20
11.612482895
 11
12.7888523885
 21
11.6046802281
  0
LINE
  5
3D8
100
AcDbEntity
  8
03__ASM_ALL_CURVES
100
AcDbLine
 62
4
  6
CONTINUOUS
 10
12.4084723885
 20
11.0655095612
 11
12.3967683885
 21
11.049904226
  0
LINE
  5
3D9
100
AcDbEntity
  8
03__ASM_ALL_CURVES
100
AcDbLine
 62
4
  6
CONTINUOUS
 10
12.8766323885
 20
11.612482895
 11
12.8649283885
 21
11.5968775612
  0
LINE
  5
3DA
100
AcDbEntity
  8
03__ASM_ALL_CURVES
100
AcDbLine
 62
4
  6
CONTINUOUS
 10
12.4786963885
 20
11.049904226
 11
12.4845483885
 21
11.0577068964
  0
LINE
  5
3DB
100
AcDbEntity
  8
03__ASM_ALL_CURVES
100
AcDbLine
 62
4
  6
CONTINUOUS
 10
12.5138083885
 20
10.987482895
 11
12.5079563885
 21
10.9796802281
  0
LINE
  5
3DC
100
AcDbEntity
  8
03__ASM_ALL_CURVES
100
AcDbLine
 62
4
  6
CONTINUOUS
 10
12.5723283885
 20
11.049904226
 11
12.5781803885
 21
11.0577068964
  0
LINE
  5
3DD
100
AcDbEntity
  8
03__ASM_ALL_CURVES
100
AcDbLine
 62
4
  6
CONTINUOUS
 10
9.7415363885
 20
8.1228655612
 11
9.7571417237
 21
8.1345695612
  0
LINE
  5
3DE
100
AcDbEntity
  8
03__ASM_ALL_CURVES
100
AcDbLine
 62
4
  6
CONTINUOUS
 10
9.7493390533
 20
7.9531575612
 11
9.7571417237
 21
7.9590095612
  0
LINE
  5
3DF
100
AcDbEntity
  8
03__ASM_ALL_CURVES
100
AcDbLine
 62
4
  6
CONTINUOUS
 10
9.8273657216
 20
7.9297495612
 11
9.8195630547
 21
7.9238975612
  0
LINE
  5
3E0
100
AcDbEntity
  8
03__ASM_ALL_CURVES
100
AcDbLine
 62
4
  6
CONTINUOUS
 10
11.9227563885
 20
9.4327068964
 11
11.9344603885
 21
9.4405095612
  0
LINE
  5
3E1
100
AcDbEntity
  8
03__ASM_ALL_CURVES
100
AcDbLine
 62
4
  6
CONTINUOUS
 10
12.6074403885
 20
9.3936935612
 11
12.5898843885
 21
9.3858908936
  0
LINE
  5
3E2
100
AcDbEntity
  8
03__ASM_ALL_CURVES
100
AcDbLine
 62
4
  6
CONTINUOUS
 10
7.7454843885
 20
7.6430015612
 11
7.7298790533
 21
7.6371495612
  0
LINE
  5
3E3
100
AcDbEntity
  8
0
100
AcDbLine
 62
7
  6
CONTINUOUS
 10
10.7878523885
 20
9.7390797749
 11
11.2232887226
 21
9.7390797749
  0
LINE
  5
3E4
100
AcDbEntity
  8
0
100
AcDbLine
 62
7
  6
CONTINUOUS
 10
10.7878523885
 20
9.7983073476
 11
11.2232887226
 21
9.7983073476
  0
LINE
  5
3E5
100
AcDbEntity
  8
03__ASM_ALL_CURVES
100
AcDbLine
 62
4
  6
CONTINUOUS
 10
11.1294043885
 20
8.612482895
 11
11.1235523885
 21
8.6280882288
  0
LINE
  5
3E6
100
AcDbEntity
  8
03__ASM_ALL_CURVES
100
AcDbLine
 62
4
  6
CONTINUOUS
 10
11.1645163885
 20
8.674904226
 11
11.1703683885
 21
8.6592988964
  0
LINE
  5
3E7
100
AcDbEntity
  8
03__ASM_ALL_CURVES
100
AcDbLine
 62
4
  6
CONTINUOUS
 10
11.1235523885
 20
8.6280882288
 11
11.1235523885
 21
8.6592988964
  0
LINE
  5
3E8
100
AcDbEntity
  8
03__ASM_ALL_CURVES
100
AcDbLine
 62
4
  6
CONTINUOUS
 10
11.1703683885
 20
8.6592988964
 11
11.1703683885
 21
8.6280882288
  0
LINE
  5
3E9
100
AcDbEntity
  8
03__ASM_ALL_CURVES
100
AcDbLine
 62
4
  6
CONTINUOUS
 10
11.2105363885
 20
7.3094375612
 11
11.2105363885
 21
7.2626215612
  0
LINE
  5
3EA
100
AcDbEntity
  8
03__ASM_ALL_CURVES
100
AcDbLine
 62
4
  6
CONTINUOUS
 10
11.2105363885
 20
7.7483375612
 11
11.2105363885
 21
7.7600415612
  0
LINE
  5
3EB
100
AcDbEntity
  8
03__ASM_ALL_CURVES
100
AcDbLine
 62
4
  6
CONTINUOUS
 10
11.2105363885
 20
8.0292335612
 11
11.2105363885
 21
8.0409375612
  0
LINE
  5
3EC
100
AcDbEntity
  8
0
100
AcDbLine
 62
7
  6
CONTINUOUS
 10
11.2232887226
 20
11.0812095952
 11
11.2232887226
 21
11.0515958089
  0
LINE
  5
3ED
100
AcDbEntity
  8
0
100
AcDbLine
 62
7
  6
CONTINUOUS
 10
11.2232887226
 20
10.6733073476
 11
11.2232887226
 21
10.6140797749
  0
LINE
  5
3EE
100
AcDbEntity
  8
0
100
AcDbLine
 62
7
  6
CONTINUOUS
 10
11.2232887226
 20
10.2357913136
 11
11.2232887226
 21
10.1765958089
  0
LINE
  5
3EF
100
AcDbEntity
  8
0
100
AcDbLine
 62
7
  6
CONTINUOUS
 10
11.2232887226
 20
9.7983073476
 11
11.2232887226
 21
9.7390797749
  0
LINE
  5
3F0
100
AcDbEntity
  8
0
100
AcDbLine
 62
7
  6
CONTINUOUS
 10
11.2232887226
 20
9.3607913136
 11
11.2232887226
 21
9.3311775273
  0
LINE
  5
3F1
100
AcDbEntity
  8
03__ASM_ALL_CURVES
100
AcDbLine
 62
4
  6
CONTINUOUS
 10
11.2495497237
 20
7.7483375612
 11
11.2495497237
 21
7.7600415612
  0
LINE
  5
3F2
100
AcDbEntity
  8
03__ASM_ALL_CURVES
100
AcDbLine
 62
4
  6
CONTINUOUS
 10
11.2495497237
 20
8.0292335612
 11
11.2495497237
 21
8.0409375612
  0
LINE
  5
3F3
100
AcDbEntity
  8
0
100
AcDbLine
 62
7
  6
CONTINUOUS
 10
11.2573523885
 20
11.0736935612
 11
11.2573523885
 21
10.2136935612
  0
LINE
  5
3F4
100
AcDbEntity
  8
0
100
AcDbLine
 62
7
  6
CONTINUOUS
 10
11.2573523885
 20
10.1986935612
 11
11.2573523885
 21
9.3386935612
  0
LINE
  5
3F5
100
AcDbEntity
  8
03__ASM_ALL_CURVES
100
AcDbLine
 62
4
  6
CONTINUOUS
 10
11.2573523885
 20
8.5500615612
 11
11.2573523885
 21
8.2691655612
  0
LINE
  5
3F6
100
AcDbEntity
  8
03__ASM_ALL_CURVES
100
AcDbLine
 62
4
  6
CONTINUOUS
 10
11.3041683885
 20
8.0409375612
 11
11.3041683885
 21
8.0292335612
  0
LINE
  5
3F7
100
AcDbEntity
  8
03__ASM_ALL_CURVES
100
AcDbLine
 62
4
  6
CONTINUOUS
 10
11.3041683885
 20
7.8712295612
 11
11.3041683885
 21
7.8624515612
  0
LINE
  5
3F8
100
AcDbEntity
  8
03__ASM_ALL_CURVES
100
AcDbLine
 62
4
  6
CONTINUOUS
 10
11.3041683885
 20
7.7600415612
 11
11.3041683885
 21
7.7483375612
  0
LINE
  5
3F9
100
AcDbEntity
  8
03__ASM_ALL_CURVES
100
AcDbLine
 62
4
  6
CONTINUOUS
 10
11.3041683885
 20
7.2158055612
 11
11.3041683885
 21
7.2070275612
  0
LINE
  5
3FA
100
AcDbEntity
  8
03__ASM_ALL_CURVES
100
AcDbLine
 62
4
  6
CONTINUOUS
 10
12.0983163885
 20
11.6592988964
 11
12.1041683885
 21
11.674904226
  0
LINE
  5
3FB
100
AcDbEntity
  8
03__ASM_ALL_CURVES
100
AcDbLine
 62
4
  6
CONTINUOUS
 10
12.1451323885
 20
11.6280882288
 11
12.1392803885
 21
11.612482895
  0
LINE
  5
3FC
100
AcDbEntity
  8
03__ASM_ALL_CURVES
100
AcDbLine
 62
4
  6
CONTINUOUS
 10
11.1235523885
 20
8.6592988964
 11
11.1294043885
 21
8.674904226
  0
LINE
  5
3FD
100
AcDbEntity
  8
03__ASM_ALL_CURVES
100
AcDbLine
 62
4
  6
CONTINUOUS
 10
9.8351683885
 20
7.0987655612
 11
9.8273657216
 21
7.0870615612
  0
LINE
  5
3FE
100
AcDbEntity
  8
03__ASM_ALL_CURVES
100
AcDbLine
 62
4
  6
CONTINUOUS
 10
10.4915363885
 20
8.0350855612
 11
10.4993390533
 21
8.0467895612
  0
LINE
  5
3FF
100
AcDbEntity
  8
03__ASM_ALL_CURVES
100
AcDbLine
 62
4
  6
CONTINUOUS
 10
10.5851683885
 20
8.0350855612
 11
10.5773657216
 21
8.0233815612
  0
LINE
  5
400
100
AcDbEntity
  8
03__ASM_ALL_CURVES
100
AcDbLine
 62
4
  6
CONTINUOUS
 10
12.6074403885
 20
10.987482895
 11
12.6015883885
 21
10.9796802281
  0
LINE
  5
401
100
AcDbEntity
  8
03__ASM_ALL_CURVES
100
AcDbLine
 62
4
  6
CONTINUOUS
 10
12.8532243885
 20
11.049904226
 11
12.8590763885
 21
11.0577068964
  0
LINE
  5
402
100
AcDbEntity
  8
03__ASM_ALL_CURVES
100
AcDbLine
 62
4
  6
CONTINUOUS
 10
11.1294043885
 20
8.674904226
 11
11.1352563885
 21
8.6827068964
  0
LINE
  5
403
100
AcDbEntity
  8
03__ASM_ALL_CURVES
100
AcDbLine
 62
4
  6
CONTINUOUS
 10
12.8883363885
 20
10.987482895
 11
12.8824843885
 21
10.9796802281
  0
LINE
  5
404
100
AcDbEntity
  8
03__ASM_ALL_CURVES
100
AcDbLine
 62
4
  6
CONTINUOUS
 10
9.8234643881
 20
7.8624515612
 11
9.8351683885
 21
7.8712295612
  0
LINE
  5
405
100
AcDbEntity
  8
03__ASM_ALL_CURVES
100
AcDbLine
 62
4
  6
CONTINUOUS
 10
9.7493390533
 20
7.7658935612
 11
9.7571417237
 21
7.7717455612
  0
LINE
  5
406
100
AcDbEntity
  8
03__ASM_ALL_CURVES
100
AcDbLine
 62
4
  6
CONTINUOUS
 10
9.8273657216
 20
7.7424855612
 11
9.8195630547
 21
7.7366335612
  0
LINE
  5
407
100
AcDbEntity
  8
03__ASM_ALL_CURVES
100
AcDbLine
 62
4
  6
CONTINUOUS
 10
11.9461643885
 20
9.3546802281
 11
11.9344603885
 21
9.3468775612
  0
LINE
  5
408
100
AcDbEntity
  8
03__ASM_ALL_CURVES
100
AcDbLine
 62
4
  6
CONTINUOUS
 10
12.1978003885
 20
9.401496226
 11
12.2095043885
 21
9.4092988964
  0
LINE
  5
409
100
AcDbEntity
  8
03__ASM_ALL_CURVES
100
AcDbLine
 62
4
  6
CONTINUOUS
 10
11.1352563885
 20
8.6827068964
 11
11.1469603885
 21
8.6905095612
  0
LINE
  5
40A
100
AcDbEntity
  8
03__ASM_ALL_CURVES
100
AcDbLine
 62
4
  6
CONTINUOUS
 10
12.2329123885
 20
9.3546802281
 11
12.2212083885
 21
9.3468775612
  0
LINE
  5
40B
100
AcDbEntity
  8
03__ASM_ALL_CURVES
100
AcDbLine
 62
4
  6
CONTINUOUS
 10
11.1586643885
 20
8.6046802281
 11
11.1469603885
 21
8.5968775612
  0
LINE
  5
40C
100
AcDbEntity
  8
03__ASM_ALL_CURVES
100
AcDbLine
 62
4
  6
CONTINUOUS
 10
7.5691417237
 20
7.3035855612
 11
7.5847470533
 21
7.3094375612
  0
LINE
  5
40D
100
AcDbEntity
  8
03__ASM_ALL_CURVES
100
AcDbLine
 62
4
  6
CONTINUOUS
 10
7.6003523885
 20
7.2684735612
 11
7.5847470533
 21
7.2626215612
  0
LINE
  5
40E
100
AcDbEntity
  8
03__ASM_ALL_CURVES
100
AcDbLine
 62
4
  6
CONTINUOUS
 10
9.7571417237
 20
7.9590095612
 11
9.7727470533
 21
7.9648615612
  0
LINE
  5
40F
100
AcDbEntity
  8
0
100
AcDbLine
 62
7
  6
CONTINUOUS
 10
10.7878523885
 20
10.1765958089
 11
11.2232887226
 21
10.1765958089
  0
LINE
  5
410
100
AcDbEntity
  8
0
100
AcDbLine
 62
7
  6
CONTINUOUS
 10
10.5383523885
 20
10.1961935612
 11
10.7263523885
 21
10.1961935612
  0
LINE
  5
411
100
AcDbEntity
  8
0
100
AcDbLine
 62
7
  6
CONTINUOUS
 10
10.7363684167
 20
10.2062095952
 11
11.2530130042
 21
10.2062095952
  0
LINE
  5
412
100
AcDbEntity
  8
03__ASM_ALL_CURVES
100
AcDbLine
 62
4
  6
CONTINUOUS
 10
11.9169043885
 20
10.9952855612
 11
11.9110523885
 21
10.9718775612
  0
LINE
  5
413
100
AcDbEntity
  8
03__ASM_ALL_CURVES
100
AcDbLine
 62
4
  6
CONTINUOUS
 10
11.1703683885
 20
8.6280882288
 11
11.1645163885
 21
8.612482895
  0
LINE
  5
414
100
AcDbEntity
  8
03__ASM_ALL_CURVES
100
AcDbLine
 62
4
  6
CONTINUOUS
 10
12.4143243885
 20
11.6592988964
 11
12.4260283885
 21
11.6905095612
  0
LINE
  5
415
100
AcDbEntity
  8
03__ASM_ALL_CURVES
100
AcDbLine
 62
4
  6
CONTINUOUS
 10
12.2270603885
 20
11.0342988964
 11
12.2387643885
 21
11.0655095612
  0
LINE
  5
416
100
AcDbEntity
  8
03__ASM_ALL_CURVES
100
AcDbLine
 62
4
  6
CONTINUOUS
 10
12.4728443885
 20
11.6592988964
 11
12.4786963885
 21
11.674904226
  0
LINE
  5
417
100
AcDbEntity
  8
03__ASM_ALL_CURVES
100
AcDbLine
 62
4
  6
CONTINUOUS
 10
12.4728443885
 20
11.6280882288
 11
12.4786963885
 21
11.6436935612
  0
LINE
  5
418
100
AcDbEntity
  8
03__ASM_ALL_CURVES
100
AcDbLine
 62
4
  6
CONTINUOUS
 10
12.5196603885
 20
11.6280882288
 11
12.5138083885
 21
11.612482895
  0
LINE
  5
419
100
AcDbEntity
  8
03__ASM_ALL_CURVES
100
AcDbLine
 62
4
  6
CONTINUOUS
 10
11.1645163885
 20
8.612482895
 11
11.1586643885
 21
8.6046802281
  0
LINE
  5
41A
100
AcDbEntity
  8
03__ASM_ALL_CURVES
100
AcDbLine
 62
4
  6
CONTINUOUS
 10
12.9702643885
 20
10.987482895
 11
12.9585603885
 21
10.9718775612
  0
LINE
  5
41B
100
AcDbEntity
  8
03__ASM_ALL_CURVES
100
AcDbLine
 62
4
  6
CONTINUOUS
 10
11.9169043885
 20
9.424904226
 11
11.9227563885
 21
9.4327068964
  0
LINE
  5
41C
100
AcDbEntity
  8
03__ASM_ALL_CURVES
100
AcDbLine
 62
4
  6
CONTINUOUS
 10
11.9520163885
 20
9.362482895
 11
11.9461643885
 21
9.3546802281
  0
LINE
  5
41D
100
AcDbEntity
  8
03__ASM_ALL_CURVES
100
AcDbLine
 62
4
  6
CONTINUOUS
 10
9.8195630547
 20
7.5610735612
 11
9.8351683885
 21
7.5727775612
  0
LINE
  5
41E
100
AcDbEntity
  8
03__ASM_ALL_CURVES
100
AcDbLine
 62
4
  6
CONTINUOUS
 10
10.4993390533
 20
8.0467895612
 11
10.5071417237
 21
8.0526415612
  0
LINE
  5
41F
100
AcDbEntity
  8
03__ASM_ALL_CURVES
100
AcDbLine
 62
4
  6
CONTINUOUS
 10
10.5773657216
 20
8.0233815612
 11
10.5695630547
 21
8.0175295612
  0
LINE
  5
420
100
AcDbEntity
  8
03__ASM_ALL_CURVES
100
AcDbLine
 62
4
  6
CONTINUOUS
 10
9.7805497237
 20
7.3972175612
 11
9.7883523885
 21
7.4030695612
  0
LINE
  5
421
100
AcDbEntity
  8
03__ASM_ALL_CURVES
100
AcDbLine
 62
4
  6
CONTINUOUS
 10
9.8273657216
 20
7.3621055612
 11
9.8195630547
 21
7.3562535612
  0
LINE
  5
422
100
AcDbEntity
  8
03__ASM_ALL_CURVES
100
AcDbLine
 62
4
  6
CONTINUOUS
 10
12.5781803885
 20
9.4327068964
 11
12.5898843885
 21
9.4405095612
  0
LINE
  5
423
100
AcDbEntity
  8
03__ASM_ALL_CURVES
100
AcDbLine
 62
4
  6
CONTINUOUS
 10
12.6015883885
 20
9.3546802281
 11
12.5898843885
 21
9.3468775612
  0
LINE
  5
424
100
AcDbEntity
  8
03__ASM_ALL_CURVES
100
AcDbLine
 62
4
  6
CONTINUOUS
 10
12.7654443885
 20
9.4327068964
 11
12.7771483885
 21
9.4405095612
  0
LINE
  5
425
100
AcDbEntity
  8
03__ASM_ALL_CURVES
100
AcDbLine
 62
4
  6
CONTINUOUS
 10
12.7888523885
 20
9.3546802281
 11
12.7771483885
 21
9.3468775612
  0
LINE
  5
426
100
AcDbEntity
  8
03__ASM_ALL_CURVES
100
AcDbLine
 62
4
  6
CONTINUOUS
 10
9.8195630547
 20
7.9238975612
 11
9.8039577209
 21
7.9180455612
  0
LINE
  5
427
100
AcDbEntity
  8
03__ASM_ALL_CURVES
100
AcDbLine
 62
4
  6
CONTINUOUS
 10
9.7571417237
 20
7.7717455612
 11
9.7727470533
 21
7.7775975612
  0
LINE
  5
428
100
AcDbEntity
  8
03__ASM_ALL_CURVES
100
AcDbLine
 62
4
  6
CONTINUOUS
 10
10.5071417237
 20
8.0526415612
 11
10.5227470533
 21
8.0584935612
  0
LINE
  5
429
100
AcDbEntity
  8
03__ASM_ALL_CURVES
100
AcDbLine
 62
4
  6
CONTINUOUS
 10
9.7883523885
 20
7.7366335612
 11
9.7727470533
 21
7.7307815612
  0
LINE
  5
42A
100
AcDbEntity
  8
03__ASM_ALL_CURVES
100
AcDbLine
 62
4
  6
CONTINUOUS
 10
10.5695630547
 20
8.0175295612
 11
10.5539577209
 21
8.0116775612
  0
LINE
  5
42B
100
AcDbEntity
  8
0
100
AcDbLine
 62
7
  6
CONTINUOUS
 10
10.5383523885
 20
10.2161935612
 11
10.7263523885
 21
10.2161935612
  0
LINE
  5
42C
100
AcDbEntity
  8
0
100
AcDbLine
 62
7
  6
CONTINUOUS
 10
10.7878523885
 20
10.2357913136
 11
11.2232887226
 21
10.2357913136
  0
LINE
  5
42D
100
AcDbEntity
  8
03__ASM_ALL_CURVES
100
AcDbLine
 62
4
  6
CONTINUOUS
 10
12.5898843885
 20
9.3858908936
 11
12.5723283885
 21
9.3936935612
  0
LINE
  5
42E
100
AcDbEntity
  8
03__ASM_ALL_CURVES
100
AcDbLine
 62
4
  6
CONTINUOUS
 10
11.9344603885
 20
9.3468775612
 11
11.9227563885
 21
9.3546802281
  0
LINE
  5
42F
100
AcDbEntity
  8
03__ASM_ALL_CURVES
100
AcDbLine
 62
4
  6
CONTINUOUS
 10
11.9344603885
 20
9.4405095612
 11
11.9461643885
 21
9.4327068964
  0
LINE
  5
430
100
AcDbEntity
  8
03__ASM_ALL_CURVES
100
AcDbLine
 62
4
  6
CONTINUOUS
 10
12.2095043885
 20
9.3468775612
 11
12.1978003885
 21
9.3546802281
  0
LINE
  5
431
100
AcDbEntity
  8
03__ASM_ALL_CURVES
100
AcDbLine
 62
4
  6
CONTINUOUS
 10
12.2212083885
 20
9.4092988964
 11
12.2329123885
 21
9.401496226
  0
LINE
  5
432
100
AcDbEntity
  8
0
100
AcDbLine
 62
7
  6
CONTINUOUS
 10
10.7263523885
 20
10.2161935612
 11
10.7363523885
 21
10.2061935612
  0
LINE
  5
433
100
AcDbEntity
  8
03__ASM_ALL_CURVES
100
AcDbLine
 62
4
  6
CONTINUOUS
 10
12.3031363885
 20
11.674904226
 11
12.2972843885
 21
11.651496226
  0
LINE
  5
434
100
AcDbEntity
  8
03__ASM_ALL_CURVES
100
AcDbLine
 62
4
  6
CONTINUOUS
 10
12.2212083885
 20
11.0108908936
 11
12.2270603885
 21
11.0342988964
  0
LINE
  5
435
100
AcDbEntity
  8
03__ASM_ALL_CURVES
100
AcDbLine
 62
4
  6
CONTINUOUS
 10
12.4084723885
 20
11.6358908936
 11
12.4143243885
 21
11.6592988964
  0
LINE
  5
436
100
AcDbEntity
  8
03__ASM_ALL_CURVES
100
AcDbLine
 62
4
  6
CONTINUOUS
 10
12.4728443885
 20
11.0342988964
 11
12.4786963885
 21
11.049904226
  0
LINE
  5
437
100
AcDbEntity
  8
03__ASM_ALL_CURVES
100
AcDbLine
 62
4
  6
CONTINUOUS
 10
12.4728443885
 20
11.0030882288
 11
12.4786963885
 21
11.0186935612
  0
LINE
  5
438
100
AcDbEntity
  8
03__ASM_ALL_CURVES
100
AcDbLine
 62
4
  6
CONTINUOUS
 10
12.7537403885
 20
11.6592988964
 11
12.7595923885
 21
11.674904226
  0
LINE
  5
439
100
AcDbEntity
  8
03__ASM_ALL_CURVES
100
AcDbLine
 62
4
  6
CONTINUOUS
 10
11.9110523885
 20
9.4092988964
 11
11.9169043885
 21
9.424904226
  0
LINE
  5
43A
100
AcDbEntity
  8
03__ASM_ALL_CURVES
100
AcDbLine
 62
4
  6
CONTINUOUS
 10
12.5196603885
 20
11.0030882288
 11
12.5138083885
 21
10.987482895
  0
LINE
  5
43B
100
AcDbEntity
  8
03__ASM_ALL_CURVES
100
AcDbLine
 62
4
  6
CONTINUOUS
 10
12.8005563885
 20
11.6592988964
 11
12.7947043885
 21
11.6436935612
  0
LINE
  5
43C
100
AcDbEntity
  8
03__ASM_ALL_CURVES
100
AcDbLine
 62
4
  6
CONTINUOUS
 10
12.5664763885
 20
11.0342988964
 11
12.5723283885
 21
11.049904226
  0
LINE
  5
43D
100
AcDbEntity
  8
03__ASM_ALL_CURVES
100
AcDbLine
 62
4
  6
CONTINUOUS
 10
12.8005563885
 20
11.6280882288
 11
12.7947043885
 21
11.612482895
  0
LINE
  5
43E
100
AcDbEntity
  8
03__ASM_ALL_CURVES
100
AcDbLine
 62
4
  6
CONTINUOUS
 10
11.9578683885
 20
9.3780882288
 11
11.9520163885
 21
9.362482895
  0
LINE
  5
43F
100
AcDbEntity
  8
03__ASM_ALL_CURVES
100
AcDbLine
 62
4
  6
CONTINUOUS
 10
11.2105363885
 20
8.0409375612
 11
11.2183390533
 21
8.0526415612
  0
LINE
  5
440
100
AcDbEntity
  8
03__ASM_ALL_CURVES
100
AcDbLine
 62
4
  6
CONTINUOUS
 10
11.2495497237
 20
8.0409375612
 11
11.2573523885
 21
8.0526415612
  0
LINE
  5
441
100
AcDbEntity
  8
03__ASM_ALL_CURVES
100
AcDbLine
 62
4
  6
CONTINUOUS
 10
11.2105363885
 20
7.9414535612
 11
11.2183390533
 21
7.9531575612
  0
LINE
  5
442
100
AcDbEntity
  8
03__ASM_ALL_CURVES
100
AcDbLine
 62
4
  6
CONTINUOUS
 10
11.3041683885
 20
8.0292335612
 11
11.2963657216
 21
8.0175295612
  0
LINE
  5
443
100
AcDbEntity
  8
03__ASM_ALL_CURVES
100
AcDbLine
 62
4
  6
CONTINUOUS
 10
12.2387643885
 20
9.362482895
 11
12.2329123885
 21
9.3546802281
  0
LINE
  5
444
100
AcDbEntity
  8
03__ASM_ALL_CURVES
100
AcDbLine
 62
4
  6
CONTINUOUS
 10
9.8234643881
 20
7.2070275612
 11
9.8351683885
 21
7.2158055612
  0
LINE
  5
445
100
AcDbEntity
  8
03__ASM_ALL_CURVES
100
AcDbLine
 62
4
  6
CONTINUOUS
 10
9.7493390533
 20
7.1104695612
 11
9.7571417237
 21
7.1163215612
  0
LINE
  5
446
100
AcDbEntity
  8
03__ASM_ALL_CURVES
100
AcDbLine
 62
4
  6
CONTINUOUS
 10
9.8273657216
 20
7.0870615612
 11
9.8195630547
 21
7.0812095612
  0
LINE
  5
447
100
AcDbEntity
  8
03__ASM_ALL_CURVES
100
AcDbLine
 62
4
  6
CONTINUOUS
 10
11.2105363885
 20
8.1228655612
 11
11.2261417237
 21
8.1345695612
  0
LINE
  5
448
100
AcDbEntity
  8
03__ASM_ALL_CURVES
100
AcDbLine
 62
4
  6
CONTINUOUS
 10
11.2183390533
 20
8.0526415612
 11
11.2261417237
 21
8.0584935612
  0
LINE
  5
449
100
AcDbEntity
  8
03__ASM_ALL_CURVES
100
AcDbLine
 62
4
  6
CONTINUOUS
 10
11.2573523885
 20
8.0526415612
 11
11.2729577209
 21
8.0643455612
  0
LINE
  5
44A
100
AcDbEntity
  8
03__ASM_ALL_CURVES
100
AcDbLine
 62
4
  6
CONTINUOUS
 10
11.2261417237
 20
7.9590095612
 11
11.2417470533
 21
7.9648615612
  0
LINE
  5
44B
100
AcDbEntity
  8
03__ASM_ALL_CURVES
100
AcDbLine
 62
4
  6
CONTINUOUS
 10
9.7883523885
 20
7.4030695612
 11
9.8039577209
 21
7.4089215612
  0
LINE
  5
44C
100
AcDbEntity
  8
0
100
AcDbLine
 62
7
  6
CONTINUOUS
 10
10.7878523885
 20
10.6140797749
 11
11.2232887226
 21
10.6140797749
  0
LINE
  5
44D
100
AcDbEntity
  8
0
100
AcDbLine
 62
7
  6
CONTINUOUS
 10
10.7878523885
 20
10.6733073476
 11
11.2232887226
 21
10.6733073476
  0
LINE
  5
44E
100
AcDbEntity
  8
03__ASM_ALL_CURVES
100
AcDbLine
 62
4
  6
CONTINUOUS
 10
12.5898843885
 20
9.3468775612
 11
12.5781803885
 21
9.3546802281
  0
LINE
  5
44F
100
AcDbEntity
  8
03__ASM_ALL_CURVES
100
AcDbLine
 62
4
  6
CONTINUOUS
 10
12.5898843885
 20
9.4405095612
 11
12.6015883885
 21
9.4327068964
  0
LINE
  5
450
100
AcDbEntity
  8
03__ASM_ALL_CURVES
100
AcDbLine
 62
4
  6
CONTINUOUS
 10
12.7771483885
 20
9.3468775612
 11
12.7654443885
 21
9.3546802281
  0
LINE
  5
451
100
AcDbEntity
  8
03__ASM_ALL_CURVES
100
AcDbLine
 62
4
  6
CONTINUOUS
 10
11.9227563885
 20
9.3546802281
 11
11.9169043885
 21
9.362482895
  0
LINE
  5
452
100
AcDbEntity
  8
03__ASM_ALL_CURVES
100
AcDbLine
 62
4
  6
CONTINUOUS
 10
11.9461643885
 20
9.4327068964
 11
11.9520163885
 21
9.424904226
  0
LINE
  5
453
100
AcDbEntity
  8
03__ASM_ALL_CURVES
100
AcDbLine
 62
4
  6
CONTINUOUS
 10
12.0427223885
 20
9.3585815616
 11
12.0515003885
 21
9.3468775612
  0
LINE
  5
454
100
AcDbEntity
  8
0
100
AcDbLine
 62
7
  6
CONTINUOUS
 10
11.2530130041
 20
10.2062095954
 11
11.2573523885
 21
10.1986935612
  0
LINE
  5
455
100
AcDbEntity
  8
03__ASM_ALL_CURVES
100
AcDbLine
 62
4
  6
CONTINUOUS
 10
11.9110523885
 20
9.3780882288
 11
11.9110523885
 21
9.4092988964
  0
LINE
  5
456
100
AcDbEntity
  8
03__ASM_ALL_CURVES
100
AcDbLine
 62
4
  6
CONTINUOUS
 10
11.9578683885
 20
11.674904226
 11
11.9578683885
 21
11.6671015612
  0
LINE
  5
457
100
AcDbEntity
  8
03__ASM_ALL_CURVES
100
AcDbLine
 62
4
  6
CONTINUOUS
 10
11.9578683885
 20
11.049904226
 11
11.9578683885
 21
11.0342988964
  0
LINE
  5
458
100
AcDbEntity
  8
03__ASM_ALL_CURVES
100
AcDbLine
 62
4
  6
CONTINUOUS
 10
11.9578683885
 20
9.4092988964
 11
11.9578683885
 21
9.3780882288
  0
LINE
  5
459
100
AcDbEntity
  8
03__ASM_ALL_CURVES
100
AcDbLine
 62
4
  6
CONTINUOUS
 10
11.9637203885
 20
11.6280882288
 11
11.9637203885
 21
11.6202855612
  0
LINE
  5
45A
100
AcDbEntity
  8
03__ASM_ALL_CURVES
100
AcDbLine
 62
4
  6
CONTINUOUS
 10
12.0427223885
 20
9.3468775612
 11
12.0427223885
 21
9.3585815616
  0
LINE
  5
45B
100
AcDbEntity
  8
03__ASM_ALL_CURVES
100
AcDbLine
 62
4
  6
CONTINUOUS
 10
12.0427223885
 20
10.9718775612
 11
12.0427223885
 21
10.9835815616
  0
LINE
  5
45C
100
AcDbEntity
  8
03__ASM_ALL_CURVES
100
AcDbLine
 62
4
  6
CONTINUOUS
 10
12.0427223885
 20
11.5968775612
 11
12.0427223885
 21
11.6085815616
  0
LINE
  5
45D
100
AcDbEntity
  8
03__ASM_ALL_CURVES
100
AcDbLine
 62
4
  6
CONTINUOUS
 10
12.2153563885
 20
10.9718775612
 11
12.2212083885
 21
11.0108908936
  0
LINE
  5
45E
100
AcDbEntity
  8
03__ASM_ALL_CURVES
100
AcDbLine
 62
4
  6
CONTINUOUS
 10
12.4026203885
 20
11.5968775612
 11
12.4084723885
 21
11.6358908936
  0
LINE
  5
45F
100
AcDbEntity
  8
03__ASM_ALL_CURVES
100
AcDbLine
 62
4
  6
CONTINUOUS
 10
12.3967683885
 20
11.049904226
 11
12.3909163885
 21
11.026496226
  0
LINE
  5
460
100
AcDbEntity
  8
03__ASM_ALL_CURVES
100
AcDbLine
 62
4
  6
CONTINUOUS
 10
12.1275763885
 20
9.3858908936
 11
12.1334283885
 21
9.4092988964
  0
LINE
  5
461
100
AcDbEntity
  8
03__ASM_ALL_CURVES
100
AcDbLine
 62
4
  6
CONTINUOUS
 10
12.6132923885
 20
11.0030882288
 11
12.6074403885
 21
10.987482895
  0
LINE
  5
462
100
AcDbEntity
  8
03__ASM_ALL_CURVES
100
AcDbLine
 62
4
  6
CONTINUOUS
 10
12.1334283885
 20
9.4092988964
 11
12.1451323885
 21
9.4405095612
  0
LINE
  5
463
100
AcDbEntity
  8
03__ASM_ALL_CURVES
100
AcDbLine
 62
4
  6
CONTINUOUS
 10
12.8473723885
 20
11.0342988964
 11
12.8532243885
 21
11.049904226
  0
LINE
  5
464
100
AcDbEntity
  8
03__ASM_ALL_CURVES
100
AcDbLine
 62
4
  6
CONTINUOUS
 10
11.3041683885
 20
7.9414535612
 11
11.2963657216
 21
7.9297495612
  0
LINE
  5
465
100
AcDbEntity
  8
03__ASM_ALL_CURVES
100
AcDbLine
 62
4
  6
CONTINUOUS
 10
11.2105363885
 20
7.7600415612
 11
11.2183390533
 21
7.7717455612
  0
LINE
  5
466
100
AcDbEntity
  8
03__ASM_ALL_CURVES
100
AcDbLine
 62
4
  6
CONTINUOUS
 10
11.2495497237
 20
7.7600415612
 11
11.2573523885
 21
7.7717455612
  0
LINE
  5
467
100
AcDbEntity
  8
03__ASM_ALL_CURVES
100
AcDbLine
 62
4
  6
CONTINUOUS
 10
11.2495497237
 20
7.7483375612
 11
11.2417470533
 21
7.7366335612
  0
LINE
  5
468
100
AcDbEntity
  8
03__ASM_ALL_CURVES
100
AcDbLine
 62
4
  6
CONTINUOUS
 10
11.3041683885
 20
7.7483375612
 11
11.2963657216
 21
7.7366335612
  0
LINE
  5
469
100
AcDbEntity
  8
03__ASM_ALL_CURVES
100
AcDbLine
 62
4
  6
CONTINUOUS
 10
12.4084723885
 20
9.4405095612
 11
12.3967683885
 21
9.424904226
  0
LINE
  5
46A
100
AcDbEntity
  8
03__ASM_ALL_CURVES
100
AcDbLine
 62
4
  6
CONTINUOUS
 10
12.5723283885
 20
9.424904226
 11
12.5781803885
 21
9.4327068964
  0
LINE
  5
46B
100
AcDbEntity
  8
03__ASM_ALL_CURVES
100
AcDbLine
 62
4
  6
CONTINUOUS
 10
12.6074403885
 20
9.362482895
 11
12.6015883885
 21
9.3546802281
  0
LINE
  5
46C
100
AcDbEntity
  8
03__ASM_ALL_CURVES
100
AcDbLine
 62
4
  6
CONTINUOUS
 10
11.2963657216
 20
8.0175295612
 11
11.2885630547
 21
8.0116775612
  0
LINE
  5
46D
100
AcDbEntity
  8
03__ASM_ALL_CURVES
100
AcDbLine
 62
4
  6
CONTINUOUS
 10
11.2183390533
 20
7.9531575612
 11
11.2261417237
 21
7.9590095612
  0
LINE
  5
46E
100
AcDbEntity
  8
03__ASM_ALL_CURVES
100
AcDbLine
 62
4
  6
CONTINUOUS
 10
11.2963657216
 20
7.9297495612
 11
11.2885630547
 21
7.9238975612
  0
LINE
  5
46F
100
AcDbEntity
  8
03__ASM_ALL_CURVES
100
AcDbLine
 62
4
  6
CONTINUOUS
 10
11.2924643881
 20
7.8624515612
 11
11.3041683885
 21
7.8712295612
  0
LINE
  5
470
100
AcDbEntity
  8
03__ASM_ALL_CURVES
100
AcDbLine
 62
4
  6
CONTINUOUS
 10
11.2183390533
 20
7.7717455612
 11
11.2261417237
 21
7.7775975612
  0
LINE
  5
471
100
AcDbEntity
  8
03__ASM_ALL_CURVES
100
AcDbLine
 62
4
  6
CONTINUOUS
 10
11.2573523885
 20
7.7717455612
 11
11.2729577209
 21
7.7834495612
  0
LINE
  5
472
100
AcDbEntity
  8
03__ASM_ALL_CURVES
100
AcDbLine
 62
4
  6
CONTINUOUS
 10
11.2417470533
 20
7.7366335612
 11
11.2339443885
 21
7.7307815612
  0
LINE
  5
473
100
AcDbEntity
  8
03__ASM_ALL_CURVES
100
AcDbLine
 62
4
  6
CONTINUOUS
 10
11.2885630547
 20
7.9238975612
 11
11.2729577209
 21
7.9180455612
  0
LINE
  5
474
100
AcDbEntity
  8
0
100
AcDbLine
 62
7
  6
CONTINUOUS
 10
9.4664389797
 20
10.9241935612
 11
9.8193523885
 21
10.9241935612
  0
LINE
  5
475
100
AcDbEntity
  8
03__ASM_ALL_CURVES
100
AcDbLine
 62
4
  6
CONTINUOUS
 10
12.7771483885
 20
9.4405095612
 11
12.7888523885
 21
9.4327068964
  0
LINE
  5
476
100
AcDbEntity
  8
03__ASM_ALL_CURVES
100
AcDbLine
 62
4
  6
CONTINUOUS
 10
12.1978003885
 20
9.3546802281
 11
12.1919483885
 21
9.362482895
  0
LINE
  5
477
100
AcDbEntity
  8
03__ASM_ALL_CURVES
100
AcDbLine
 62
4
  6
CONTINUOUS
 10
12.2329123885
 20
9.401496226
 11
12.2387643885
 21
9.3936935612
  0
LINE
  5
478
100
AcDbEntity
  8
03__ASM_ALL_CURVES
100
AcDbLine
 62
4
  6
CONTINUOUS
 10
11.9169043885
 20
9.362482895
 11
11.9110523885
 21
9.3780882288
  0
LINE
  5
479
100
AcDbEntity
  8
03__ASM_ALL_CURVES
100
AcDbLine
 62
4
  6
CONTINUOUS
 10
11.9520163885
 20
9.424904226
 11
11.9578683885
 21
9.4092988964
  0
LINE
  5
47A
100
AcDbEntity
  8
03__ASM_ALL_CURVES
100
AcDbLine
 62
4
  6
CONTINUOUS
 10
12.0983163885
 20
11.6280882288
 11
12.0983163885
 21
11.6592988964
  0
LINE
  5
47B
100
AcDbEntity
  8
03__ASM_ALL_CURVES
100
AcDbLine
 62
4
  6
CONTINUOUS
 10
12.1451323885
 20
11.6592988964
 11
12.1451323885
 21
11.6280882288
  0
LINE
  5
47C
100
AcDbEntity
  8
03__ASM_ALL_CURVES
100
AcDbLine
 62
4
  6
CONTINUOUS
 10
12.1451323885
 20
11.049904226
 11
12.1451323885
 21
11.0421015612
  0
LINE
  5
47D
100
AcDbEntity
  8
03__ASM_ALL_CURVES
100
AcDbLine
 62
4
  6
CONTINUOUS
 10
12.1509843885
 20
11.0030882288
 11
12.1509843885
 21
10.9952855612
  0
LINE
  5
47E
100
AcDbEntity
  8
03__ASM_ALL_CURVES
100
AcDbLine
 62
4
  6
CONTINUOUS
 10
12.1217243885
 20
9.3468775612
 11
12.1275763885
 21
9.3858908936
  0
LINE
  5
47F
100
AcDbEntity
  8
03__ASM_ALL_CURVES
100
AcDbLine
 62
4
  6
CONTINUOUS
 10
12.2036523885
 20
9.4405095612
 11
12.1978003885
 21
9.401496226
  0
LINE
  5
480
100
AcDbEntity
  8
03__ASM_ALL_CURVES
100
AcDbLine
 62
4
  6
CONTINUOUS
 10
12.8824843885
 20
11.6358908936
 11
12.8766323885
 21
11.612482895
  0
LINE
  5
481
100
AcDbEntity
  8
03__ASM_ALL_CURVES
100
AcDbLine
 62
4
  6
CONTINUOUS
 10
12.3967683885
 20
9.424904226
 11
12.3909163885
 21
9.401496226
  0
LINE
  5
482
100
AcDbEntity
  8
03__ASM_ALL_CURVES
100
AcDbLine
 62
4
  6
CONTINUOUS
 10
12.2446163885
 20
9.3780882288
 11
12.2387643885
 21
9.362482895
  0
LINE
  5
483
100
AcDbEntity
  8
03__ASM_ALL_CURVES
100
AcDbLine
 62
4
  6
CONTINUOUS
 10
12.8941883885
 20
11.0342988964
 11
12.8883363885
 21
11.0186935612
  0
LINE
  5
484
100
AcDbEntity
  8
03__ASM_ALL_CURVES
100
AcDbLine
 62
4
  6
CONTINUOUS
 10
12.8941883885
 20
11.0030882288
 11
12.8883363885
 21
10.987482895
  0
LINE
  5
485
100
AcDbEntity
  8
03__ASM_ALL_CURVES
100
AcDbLine
 62
4
  6
CONTINUOUS
 10
11.2105363885
 20
7.0987655612
 11
11.2183390533
 21
7.1104695612
  0
LINE
  5
486
100
AcDbEntity
  8
03__ASM_ALL_CURVES
100
AcDbLine
 62
4
  6
CONTINUOUS
 10
12.7595923885
 20
9.424904226
 11
12.7654443885
 21
9.4327068964
  0
LINE
  5
487
100
AcDbEntity
  8
03__ASM_ALL_CURVES
100
AcDbLine
 62
4
  6
CONTINUOUS
 10
12.7947043885
 20
9.362482895
 11
12.7888523885
 21
9.3546802281
  0
LINE
  5
488
100
AcDbEntity
  8
03__ASM_ALL_CURVES
100
AcDbLine
 62
4
  6
CONTINUOUS
 10
11.2963657216
 20
7.7366335612
 11
11.2807603885
 21
7.7249295612
  0
LINE
  5
489
100
AcDbEntity
  8
03__ASM_ALL_CURVES
100
AcDbLine
 62
4
  6
CONTINUOUS
 10
11.2885630547
 20
7.5610735612
 11
11.3041683885
 21
7.5727775612
  0
LINE
  5
48A
100
AcDbEntity
  8
03__ASM_ALL_CURVES
100
AcDbLine
 62
4
  6
CONTINUOUS
 10
9.7571417237
 20
7.1163215612
 11
9.7727470533
 21
7.1221735612
  0
LINE
  5
48B
100
AcDbEntity
  8
03__ASM_ALL_CURVES
100
AcDbLine
 62
4
  6
CONTINUOUS
 10
9.8195630547
 20
7.0812095612
 11
9.8039577209
 21
7.0753575612
  0
LINE
  5
48C
100
AcDbEntity
  8
03__ASM_ALL_CURVES
100
AcDbLine
 62
4
  6
CONTINUOUS
 10
12.7069243885
 20
10.9718775612
 11
12.6981463885
 21
10.9718775612
  0
LINE
  5
48D
100
AcDbEntity
  8
03__ASM_ALL_CURVES
100
AcDbLine
 62
4
  6
CONTINUOUS
 10
12.1275763885
 20
10.9718775612
 11
12.1158723885
 21
10.9718775612
  0
LINE
  5
48E
100
AcDbEntity
  8
03__ASM_ALL_CURVES
100
AcDbLine
 62
4
  6
CONTINUOUS
 10
12.0515003885
 20
10.9718775612
 11
12.0427223885
 21
10.9718775612
  0
LINE
  5
48F
100
AcDbEntity
  8
03__ASM_ALL_CURVES
100
AcDbLine
 62
4
  6
CONTINUOUS
 10
11.9110523885
 20
10.9718775612
 11
11.9578683885
 21
10.9718775612
  0
LINE
  5
490
100
AcDbEntity
  8
0
100
AcDbLine
 62
7
  6
CONTINUOUS
 10
9.8293523885
 20
10.9866935612
 11
10.0073523885
 21
10.9866935612
  0
LINE
  5
491
100
AcDbEntity
  8
03__ASM_ALL_CURVES
100
AcDbLine
 62
4
  6
CONTINUOUS
 10
10.6319843885
 20
11.0186935612
 11
11.4194843885
 21
11.0186935612
  0
LINE
  5
492
100
AcDbEntity
  8
03__ASM_ALL_CURVES
100
AcDbLine
 62
4
  6
CONTINUOUS
 10
12.1158723885
 20
11.026496226
 11
12.1275763885
 21
11.026496226
  0
LINE
  5
493
100
AcDbEntity
  8
0
100
AcDbLine
 62
7
  6
CONTINUOUS
 10
10.0518523885
 20
11.0311935612
 11
10.1230385855
 21
11.0311935612
  0
LINE
  5
494
100
AcDbEntity
  8
0
100
AcDbLine
 62
7
  6
CONTINUOUS
 10
10.7878523885
 20
11.0515958089
 11
11.2232887226
 21
11.0515958089
  0
LINE
  5
495
100
AcDbEntity
  8
03__ASM_ALL_CURVES
100
AcDbLine
 62
4
  6
CONTINUOUS
 10
12.2387643885
 20
11.0655095612
 11
12.1919483885
 21
11.0655095612
  0
LINE
  5
496
100
AcDbEntity
  8
03__ASM_ALL_CURVES
100
AcDbLine
 62
4
  6
CONTINUOUS
 10
11.9286083885
 20
11.0655095612
 11
11.9403123885
 21
11.0655095612
  0
LINE
  5
497
100
AcDbEntity
  8
03__ASM_ALL_CURVES
100
AcDbLine
 62
4
  6
CONTINUOUS
 10
12.1158723885
 20
11.0655095612
 11
12.1275763885
 21
11.0655095612
  0
LINE
  5
498
100
AcDbEntity
  8
0
100
AcDbLine
 62
7
  6
CONTINUOUS
 10
10.5383523885
 20
11.0711935612
 11
10.7263523885
 21
11.0711935612
  0
LINE
  5
499
100
AcDbEntity
  8
0
100
AcDbLine
 62
7
  6
CONTINUOUS
 10
10.7363684167
 20
11.0812095952
 11
11.2530130042
 21
11.0812095952
  0
LINE
  5
49A
100
AcDbEntity
  8
03__ASM_ALL_CURVES
100
AcDbLine
 62
4
  6
CONTINUOUS
 10
12.3967683885
 20
9.362482895
 11
12.4084723885
 21
9.3468775612
  0
LINE
  5
49B
100
AcDbEntity
  8
03__ASM_ALL_CURVES
100
AcDbLine
 62
4
  6
CONTINUOUS
 10
12.5781803885
 20
9.3546802281
 11
12.5723283885
 21
9.362482895
  0
LINE
  5
49C
100
AcDbEntity
  8
03__ASM_ALL_CURVES
100
AcDbLine
 62
4
  6
CONTINUOUS
 10
12.6015883885
 20
9.4327068964
 11
12.6074403885
 21
9.424904226
  0
LINE
  5
49D
100
AcDbEntity
  8
0
100
AcDbLine
 62
7
  6
CONTINUOUS
 10
11.2530130041
 20
11.0812095954
 11
11.2573523885
 21
11.0736935612
  0
LINE
  5
49E
100
AcDbEntity
  8
03__ASM_ALL_CURVES
100
AcDbLine
 62
4
  6
CONTINUOUS
 10
12.2387643885
 20
9.3936935612
 11
12.2446163885
 21
9.3780882288
  0
LINE
  5
49F
100
AcDbEntity
  8
03__ASM_ALL_CURVES
100
AcDbLine
 62
4
  6
CONTINUOUS
 10
12.2972843885
 20
11.651496226
 11
12.2972843885
 21
11.6358908936
  0
LINE
  5
4A0
100
AcDbEntity
  8
03__ASM_ALL_CURVES
100
AcDbLine
 62
4
  6
CONTINUOUS
 10
12.3909163885
 20
11.026496226
 11
12.3909163885
 21
11.0108908936
  0
LINE
  5
4A1
100
AcDbEntity
  8
03__ASM_ALL_CURVES
100
AcDbLine
 62
4
  6
CONTINUOUS
 10
12.3909163885
 20
9.401496226
 11
12.3909163885
 21
9.3858908936
  0
LINE
  5
4A2
100
AcDbEntity
  8
03__ASM_ALL_CURVES
100
AcDbLine
 62
4
  6
CONTINUOUS
 10
12.4728443885
 20
11.0030882288
 11
12.4728443885
 21
11.0342988964
  0
LINE
  5
4A3
100
AcDbEntity
  8
03__ASM_ALL_CURVES
100
AcDbLine
 62
4
  6
CONTINUOUS
 10
12.4728443885
 20
11.6280882288
 11
12.4728443885
 21
11.6592988964
  0
LINE
  5
4A4
100
AcDbEntity
  8
03__ASM_ALL_CURVES
100
AcDbLine
 62
4
  6
CONTINUOUS
 10
12.4962523885
 20
9.4405095612
 11
12.4962523885
 21
9.3468775612
  0
LINE
  5
4A5
100
AcDbEntity
  8
03__ASM_ALL_CURVES
100
AcDbLine
 62
4
  6
CONTINUOUS
 10
12.9761163885
 20
11.0108908936
 11
12.9702643885
 21
10.987482895
  0
LINE
  5
4A6
100
AcDbEntity
  8
03__ASM_ALL_CURVES
100
AcDbLine
 62
4
  6
CONTINUOUS
 10
12.5664763885
 20
9.4092988964
 11
12.5723283885
 21
9.424904226
  0
LINE
  5
4A7
100
AcDbEntity
  8
03__ASM_ALL_CURVES
100
AcDbLine
 62
4
  6
CONTINUOUS
 10
12.6132923885
 20
9.4092988964
 11
12.6074403885
 21
9.3936935612
  0
LINE
  5
4A8
100
AcDbEntity
  8
03__ASM_ALL_CURVES
100
AcDbLine
 62
4
  6
CONTINUOUS
 10
12.6132923885
 20
9.3780882288
 11
12.6074403885
 21
9.362482895
  0
LINE
  5
4A9
100
AcDbEntity
  8
03__ASM_ALL_CURVES
100
AcDbLine
 62
4
  6
CONTINUOUS
 10
12.7537403885
 20
9.4092988964
 11
12.7595923885
 21
9.424904226
  0
LINE
  5
4AA
100
AcDbEntity
  8
03__ASM_ALL_CURVES
100
AcDbLine
 62
4
  6
CONTINUOUS
 10
12.8883363885
 20
9.4405095612
 11
12.8473723885
 21
9.3702855612
  0
LINE
  5
4AB
100
AcDbEntity
  8
03__ASM_ALL_CURVES
100
AcDbLine
 62
4
  6
CONTINUOUS
 10
11.3041683885
 20
7.0987655612
 11
11.2963657216
 21
7.0870615612
  0
LINE
  5
4AC
100
AcDbEntity
  8
03__ASM_ALL_CURVES
100
AcDbLine
 62
4
  6
CONTINUOUS
 10
12.9702643885
 20
9.362482895
 11
12.9585603885
 21
9.3468775612
  0
LINE
  5
4AD
100
AcDbEntity
  8
03__ASM_ALL_CURVES
100
AcDbLine
 62
4
  6
CONTINUOUS
 10
11.2924643881
 20
7.2070275612
 11
11.3041683885
 21
7.2158055612
  0
LINE
  5
4AE
100
AcDbEntity
  8
03__ASM_ALL_CURVES
100
AcDbLine
 62
4
  6
CONTINUOUS
 10
11.2183390533
 20
7.1104695612
 11
11.2261417237
 21
7.1163215612
  0
LINE
  5
4AF
100
AcDbEntity
  8
03__ASM_ALL_CURVES
100
AcDbLine
 62
4
  6
CONTINUOUS
 10
12.6981463885
 20
9.3585815616
 11
12.7069243885
 21
9.3468775612
  0
LINE
  5
4B0
100
AcDbEntity
  8
03__ASM_ALL_CURVES
100
AcDbLine
 62
4
  6
CONTINUOUS
 10
12.7654443885
 20
9.3546802281
 11
12.7595923885
 21
9.362482895
  0
LINE
  5
4B1
100
AcDbEntity
  8
03__ASM_ALL_CURVES
100
AcDbLine
 62
4
  6
CONTINUOUS
 10
12.7888523885
 20
9.4327068964
 11
12.7947043885
 21
9.424904226
  0
LINE
  5
4B2
100
AcDbEntity
  8
03__ASM_ALL_CURVES
100
AcDbLine
 62
4
  6
CONTINUOUS
 10
12.5723283885
 20
9.3936935612
 11
12.5664763885
 21
9.4092988964
  0
LINE
  5
4B3
100
AcDbEntity
  8
03__ASM_ALL_CURVES
100
AcDbLine
 62
4
  6
CONTINUOUS
 10
12.6074403885
 20
9.424904226
 11
12.6132923885
 21
9.4092988964
  0
LINE
  5
4B4
100
AcDbEntity
  8
03__ASM_ALL_CURVES
100
AcDbLine
 62
4
  6
CONTINUOUS
 10
12.3909163885
 20
9.3858908936
 11
12.3967683885
 21
9.362482895
  0
LINE
  5
4B5
100
AcDbEntity
  8
03__ASM_ALL_CURVES
100
AcDbLine
 62
4
  6
CONTINUOUS
 10
12.5664763885
 20
11.0030882288
 11
12.5664763885
 21
11.0342988964
  0
LINE
  5
4B6
100
AcDbEntity
  8
03__ASM_ALL_CURVES
100
AcDbLine
 62
4
  6
CONTINUOUS
 10
12.6045143885
 20
11.5968775612
 11
12.6045143885
 21
11.6085815616
  0
LINE
  5
4B7
100
AcDbEntity
  8
03__ASM_ALL_CURVES
100
AcDbLine
 62
4
  6
CONTINUOUS
 10
12.6132923885
 20
11.0342988964
 11
12.6132923885
 21
11.0030882288
  0
LINE
  5
4B8
100
AcDbEntity
  8
03__ASM_ALL_CURVES
100
AcDbLine
 62
4
  6
CONTINUOUS
 10
12.6132923885
 20
9.4092988964
 11
12.6132923885
 21
9.3780882288
  0
LINE
  5
4B9
100
AcDbEntity
  8
03__ASM_ALL_CURVES
100
AcDbLine
 62
4
  6
CONTINUOUS
 10
12.6835163885
 20
11.6905095612
 11
12.6835163885
 21
11.5968775612
  0
LINE
  5
4BA
100
AcDbEntity
  8
03__ASM_ALL_CURVES
100
AcDbLine
 62
4
  6
CONTINUOUS
 10
12.6981463885
 20
9.3468775612
 11
12.6981463885
 21
9.3585815616
  0
LINE
  5
4BB
100
AcDbEntity
  8
03__ASM_ALL_CURVES
100
AcDbLine
 62
4
  6
CONTINUOUS
 10
12.6981463885
 20
10.9718775612
 11
12.6981463885
 21
10.9835815616
  0
LINE
  5
4BC
100
AcDbEntity
  8
03__ASM_ALL_CURVES
100
AcDbLine
 62
4
  6
CONTINUOUS
 10
12.7537403885
 20
9.3780882288
 11
12.7537403885
 21
9.4092988964
  0
LINE
  5
4BD
100
AcDbEntity
  8
03__ASM_ALL_CURVES
100
AcDbLine
 62
4
  6
CONTINUOUS
 10
12.7771483885
 20
11.0655095612
 11
12.7771483885
 21
10.9718775612
  0
LINE
  5
4BE
100
AcDbEntity
  8
03__ASM_ALL_CURVES
100
AcDbLine
 62
4
  6
CONTINUOUS
 10
12.8005563885
 20
9.3780882288
 11
12.7947043885
 21
9.362482895
  0
LINE
  5
4BF
100
AcDbEntity
  8
03__ASM_ALL_CURVES
100
AcDbLine
 62
4
  6
CONTINUOUS
 10
11.2963657216
 20
7.0870615612
 11
11.2885630547
 21
7.0812095612
  0
LINE
  5
4C0
100
AcDbEntity
  8
03__ASM_ALL_CURVES
100
AcDbLine
 62
4
  6
CONTINUOUS
 10
11.2261417237
 20
7.1163215612
 11
11.2417470533
 21
7.1221735612
  0
LINE
  5
4C1
100
AcDbEntity
  8
03__ASM_ALL_CURVES
100
AcDbLine
 62
4
  6
CONTINUOUS
 10
11.2885630547
 20
7.0812095612
 11
11.2729577209
 21
7.0753575612
  0
LINE
  5
4C2
100
AcDbEntity
  8
03__ASM_ALL_CURVES
100
AcDbLine
 62
4
  6
CONTINUOUS
 10
12.6132923885
 20
11.5968775612
 11
12.6045143885
 21
11.5968775612
  0
LINE
  5
4C3
100
AcDbEntity
  8
03__ASM_ALL_CURVES
100
AcDbLine
 62
4
  6
CONTINUOUS
 10
12.0515003885
 20
11.5968775612
 11
12.0427223885
 21
11.5968775612
  0
LINE
  5
4C4
100
AcDbEntity
  8
03__ASM_ALL_CURVES
100
AcDbLine
 62
4
  6
CONTINUOUS
 10
11.9403123885
 20
11.5968775612
 11
11.9286083885
 21
11.5968775612
  0
LINE
  5
4C5
100
AcDbEntity
  8
0
100
AcDbLine
 62
7
  6
CONTINUOUS
 10
7.6003524247
 20
11.6436935612
 11
10.5383523885
 21
11.6436935612
  0
LINE
  5
4C6
100
AcDbEntity
  8
03__ASM_ALL_CURVES
100
AcDbLine
 62
4
  6
CONTINUOUS
 10
10.6319843885
 20
11.6436935612
 11
11.4194843885
 21
11.6436935612
  0
LINE
  5
4C7
100
AcDbEntity
  8
03__ASM_ALL_CURVES
100
AcDbLine
 62
4
  6
CONTINUOUS
 10
11.9286083885
 20
11.651496226
 11
11.9403123885
 21
11.651496226
  0
LINE
  5
4C8
100
AcDbEntity
  8
03__ASM_ALL_CURVES
100
AcDbLine
 62
4
  6
CONTINUOUS
 10
12.4260283885
 20
11.6905095612
 11
12.3792123885
 21
11.6905095612
  0
LINE
  5
4C9
100
AcDbEntity
  8
03__ASM_ALL_CURVES
100
AcDbLine
 62
4
  6
CONTINUOUS
 10
11.9286083885
 20
11.6905095612
 11
11.9403123885
 21
11.6905095612
  0
LINE
  5
4CA
100
AcDbEntity
  8
03__ASM_ALL_CURVES
100
AcDbLine
 62
4
  6
CONTINUOUS
 10
11.9403123885
 20
11.0655095612
 11
11.9520163885
 21
11.0577068964
  0
LINE
  5
4CB
100
AcDbEntity
  8
03__ASM_ALL_CURVES
100
AcDbLine
 62
4
  6
CONTINUOUS
 10
12.1158723885
 20
10.9718775612
 11
12.1041683885
 21
10.9796802281
  0
LINE
  5
4CC
100
AcDbEntity
  8
03__ASM_ALL_CURVES
100
AcDbLine
 62
4
  6
CONTINUOUS
 10
12.9585603885
 20
9.4405095612
 11
12.9702643885
 21
9.424904226
  0
LINE
  5
4CD
100
AcDbEntity
  8
03__ASM_ALL_CURVES
100
AcDbLine
 62
4
  6
CONTINUOUS
 10
11.9520163885
 20
11.0577068964
 11
11.9578683885
 21
11.049904226
  0
LINE
  5
4CE
100
AcDbEntity
  8
03__ASM_ALL_CURVES
100
AcDbLine
 62
4
  6
CONTINUOUS
 10
12.0427223885
 20
10.9835815616
 11
12.0515003885
 21
10.9718775612
  0
LINE
  5
4CF
100
AcDbEntity
  8
03__ASM_ALL_CURVES
100
AcDbLine
 62
4
  6
CONTINUOUS
 10
12.7595923885
 20
9.362482895
 11
12.7537403885
 21
9.3780882288
  0
LINE
  5
4D0
100
AcDbEntity
  8
03__ASM_ALL_CURVES
100
AcDbLine
 62
4
  6
CONTINUOUS
 10
12.7947043885
 20
9.424904226
 11
12.8005563885
 21
9.4092988964
  0
LINE
  5
4D1
100
AcDbEntity
  8
03__ASM_ALL_CURVES
100
AcDbLine
 62
4
  6
CONTINUOUS
 10
12.3909163885
 20
11.0108908936
 11
12.3967683885
 21
10.987482895
  0
LINE
  5
4D2
100
AcDbEntity
  8
03__ASM_ALL_CURVES
100
AcDbLine
 62
4
  6
CONTINUOUS
 10
12.8005563885
 20
11.6592988964
 11
12.8005563885
 21
11.6280882288
  0
LINE
  5
4D3
100
AcDbEntity
  8
03__ASM_ALL_CURVES
100
AcDbLine
 62
4
  6
CONTINUOUS
 10
12.8005563885
 20
9.4092988964
 11
12.8005563885
 21
9.3780882288
  0
LINE
  5
4D4
100
AcDbEntity
  8
03__ASM_ALL_CURVES
100
AcDbLine
 62
4
  6
CONTINUOUS
 10
12.8824843885
 20
11.651496226
 11
12.8824843885
 21
11.6358908936
  0
LINE
  5
4D5
100
AcDbEntity
  8
03__ASM_ALL_CURVES
100
AcDbLine
 62
4
  6
CONTINUOUS
 10
12.8883363885
 20
9.3468775612
 11
12.8883363885
 21
9.4405095612
  0
LINE
  5
4D6
100
AcDbEntity
  8
03__ASM_ALL_CURVES
100
AcDbLine
 62
4
  6
CONTINUOUS
 10
12.8941883885
 20
11.0342988964
 11
12.8941883885
 21
11.0030882288
  0
LINE
  5
4D7
100
AcDbEntity
  8
03__ASM_ALL_CURVES
100
AcDbLine
 62
4
  6
CONTINUOUS
 10
12.9761163885
 20
11.026496226
 11
12.9761163885
 21
11.0108908936
  0
LINE
  5
4D8
100
AcDbEntity
  8
03__ASM_ALL_CURVES
100
AcDbLine
 62
4
  6
CONTINUOUS
 10
12.9761163885
 20
9.401496226
 11
12.9761163885
 21
9.3858908936
  0
LINE
  5
4D9
100
AcDbEntity
  8
03__ASM_ALL_CURVES
100
AcDbLine
 62
4
  6
CONTINUOUS
 10
12.9761163885
 20
9.3858908936
 11
12.9702643885
 21
9.362482895
  0
LINE
  5
4DA
100
AcDbEntity
  8
03__ASM_ALL_CURVES
100
AcDbLine
 62
4
  6
CONTINUOUS
 10
12.4962523885
 20
11.026496226
 11
12.5138083885
 21
11.0186935612
  0
LINE
  5
4DB
100
AcDbEntity
  8
03__ASM_ALL_CURVES
100
AcDbLine
 62
4
  6
CONTINUOUS
 10
12.8707803885
 20
11.0108908936
 11
12.8532243885
 21
11.0186935612
  0
LINE
  5
4DC
100
AcDbEntity
  8
03__ASM_ALL_CURVES
100
AcDbLine
 62
4
  6
CONTINUOUS
 10
12.1275763885
 20
11.026496226
 11
12.1392803885
 21
11.0186935612
  0
LINE
  5
4DD
100
AcDbEntity
  8
03__ASM_ALL_CURVES
100
AcDbLine
 62
4
  6
CONTINUOUS
 10
12.1275763885
 20
11.0655095612
 11
12.1392803885
 21
11.0577068964
  0
LINE
  5
4DE
100
AcDbEntity
  8
03__ASM_ALL_CURVES
100
AcDbLine
 62
4
  6
CONTINUOUS
 10
12.4962523885
 20
10.9718775612
 11
12.4845483885
 21
10.9796802281
  0
LINE
  5
4DF
100
AcDbEntity
  8
03__ASM_ALL_CURVES
100
AcDbLine
 62
4
  6
CONTINUOUS
 10
12.1041683885
 20
10.9796802281
 11
12.0983163885
 21
10.987482895
  0
LINE
  5
4E0
100
AcDbEntity
  8
03__ASM_ALL_CURVES
100
AcDbLine
 62
4
  6
CONTINUOUS
 10
12.1392803885
 20
11.0186935612
 11
12.1509843885
 21
11.0030882288
  0
LINE
  5
4E1
100
AcDbEntity
  8
03__ASM_ALL_CURVES
100
AcDbLine
 62
4
  6
CONTINUOUS
 10
12.1392803885
 20
11.0577068964
 11
12.1451323885
 21
11.049904226
  0
LINE
  5
4E2
100
AcDbEntity
  8
03__ASM_ALL_CURVES
100
AcDbLine
 62
4
  6
CONTINUOUS
 10
12.1041683885
 20
11.612482895
 11
12.0983163885
 21
11.6280882288
  0
LINE
  5
4E3
100
AcDbEntity
  8
03__ASM_ALL_CURVES
100
AcDbLine
 62
4
  6
CONTINUOUS
 10
12.1392803885
 20
11.674904226
 11
12.1451323885
 21
11.6592988964
  0
LINE
  5
4E4
100
AcDbEntity
  8
03__ASM_ALL_CURVES
100
AcDbLine
 62
4
  6
CONTINUOUS
 10
12.4786963885
 20
10.987482895
 11
12.4728443885
 21
11.0030882288
  0
LINE
  5
4E5
100
AcDbEntity
  8
03__ASM_ALL_CURVES
100
AcDbLine
 62
4
  6
CONTINUOUS
 10
12.5138083885
 20
11.0186935612
 11
12.5196603885
 21
11.0030882288
  0
LINE
  5
4E6
100
AcDbEntity
  8
03__ASM_ALL_CURVES
100
AcDbLine
 62
4
  6
CONTINUOUS
 10
12.2972843885
 20
11.6358908936
 11
12.3031363885
 21
11.612482895
  0
LINE
  5
4E7
100
AcDbEntity
  8
03__ASM_ALL_CURVES
100
AcDbLine
 62
4
  6
CONTINUOUS
 10
12.9702643885
 20
9.424904226
 11
12.9761163885
 21
9.401496226
  0
LINE
  5
4E8
100
AcDbEntity
  8
03__ASM_ALL_CURVES
100
AcDbLine
 62
4
  6
CONTINUOUS
 10
12.5898843885
 20
10.9718775612
 11
12.5781803885
 21
10.9796802281
  0
LINE
  5
4E9
100
AcDbEntity
  8
03__ASM_ALL_CURVES
100
AcDbLine
 62
4
  6
CONTINUOUS
 10
12.4962523885
 20
11.0655095612
 11
12.5079563885
 21
11.0577068964
  0
LINE
  5
4EA
100
AcDbEntity
  8
03__ASM_ALL_CURVES
100
AcDbLine
 62
4
  6
CONTINUOUS
 10
12.5898843885
 20
11.0655095612
 11
12.6015883885
 21
11.0577068964
  0
LINE
  5
4EB
100
AcDbEntity
  8
03__ASM_ALL_CURVES
100
AcDbLine
 62
4
  6
CONTINUOUS
 10
11.9286083885
 20
11.5968775612
 11
11.9169043885
 21
11.6046802281
  0
LINE
  5
4EC
100
AcDbEntity
  8
03__ASM_ALL_CURVES
100
AcDbLine
 62
4
  6
CONTINUOUS
 10
12.8707803885
 20
10.9718775612
 11
12.8590763885
 21
10.9796802281
  0
LINE
  5
4ED
100
AcDbEntity
  8
03__ASM_ALL_CURVES
100
AcDbLine
 62
4
  6
CONTINUOUS
 10
11.9403123885
 20
11.651496226
 11
11.9520163885
 21
11.6436935612
  0
LINE
  5
4EE
100
AcDbEntity
  8
03__ASM_ALL_CURVES
100
AcDbLine
 62
4
  6
CONTINUOUS
 10
12.8707803885
 20
11.0655095612
 11
12.8824843885
 21
11.0577068964
  0
LINE
  5
4EF
100
AcDbEntity
  8
03__ASM_ALL_CURVES
100
AcDbLine
 62
4
  6
CONTINUOUS
 10
11.9403123885
 20
11.6905095612
 11
11.9520163885
 21
11.6827068964
  0
LINE
  5
4F0
100
AcDbEntity
  8
03__ASM_ALL_CURVES
100
AcDbLine
 62
4
  6
CONTINUOUS
 10
11.9169043885
 20
11.6046802281
 11
11.9110523885
 21
11.612482895
  0
LINE
  5
4F1
100
AcDbEntity
  8
03__ASM_ALL_CURVES
100
AcDbLine
 62
4
  6
CONTINUOUS
 10
12.3967683885
 20
10.987482895
 11
12.4084723885
 21
10.9718775612
  0
LINE
  5
4F2
100
AcDbEntity
  8
03__ASM_ALL_CURVES
100
AcDbLine
 62
4
  6
CONTINUOUS
 10
11.9520163885
 20
11.6436935612
 11
11.9637203885
 21
11.6280882288
  0
LINE
  5
4F3
100
AcDbEntity
  8
03__ASM_ALL_CURVES
100
AcDbLine
 62
4
  6
CONTINUOUS
 10
11.9520163885
 20
11.6827068964
 11
11.9578683885
 21
11.674904226
  0
LINE
  5
4F4
100
AcDbEntity
  8
03__ASM_ALL_CURVES
100
AcDbLine
 62
4
  6
CONTINUOUS
 10
12.4845483885
 20
10.9796802281
 11
12.4786963885
 21
10.987482895
  0
LINE
  5
4F5
100
AcDbEntity
  8
03__ASM_ALL_CURVES
100
AcDbLine
 62
4
  6
CONTINUOUS
 10
12.0427223885
 20
11.6085815616
 11
12.0515003885
 21
11.5968775612
  0
LINE
  5
4F6
100
AcDbEntity
  8
03__ASM_ALL_CURVES
100
AcDbLine
 62
4
  6
CONTINUOUS
 10
12.5079563885
 20
11.0577068964
 11
12.5138083885
 21
11.049904226
  0
LINE
  5
4F7
100
AcDbEntity
  8
03__ASM_ALL_CURVES
100
AcDbLine
 62
4
  6
CONTINUOUS
 10
12.5781803885
 20
10.9796802281
 11
12.5723283885
 21
10.987482895
  0
LINE
  5
4F8
100
AcDbEntity
  8
03__ASM_ALL_CURVES
100
AcDbLine
 62
4
  6
CONTINUOUS
 10
12.1100203885
 20
11.6046802281
 11
12.1041683885
 21
11.612482895
  0
LINE
  5
4F9
100
AcDbEntity
  8
03__ASM_ALL_CURVES
100
AcDbLine
 62
4
  6
CONTINUOUS
 10
12.6015883885
 20
11.0577068964
 11
12.6074403885
 21
11.049904226
  0
LINE
  5
4FA
100
AcDbEntity
  8
03__ASM_ALL_CURVES
100
AcDbLine
 62
4
  6
CONTINUOUS
 10
12.1334283885
 20
11.6827068964
 11
12.1392803885
 21
11.674904226
  0
LINE
  5
4FB
100
AcDbEntity
  8
03__ASM_ALL_CURVES
100
AcDbLine
 62
4
  6
CONTINUOUS
 10
12.5723283885
 20
10.987482895
 11
12.5664763885
 21
11.0030882288
  0
LINE
  5
4FC
100
AcDbEntity
  8
03__ASM_ALL_CURVES
100
AcDbLine
 62
4
  6
CONTINUOUS
 10
12.6074403885
 20
11.049904226
 11
12.6132923885
 21
11.0342988964
  0
LINE
  5
4FD
100
AcDbEntity
  8
03__ASM_ALL_CURVES
100
AcDbLine
 62
4
  6
CONTINUOUS
 10
12.4786963885
 20
11.612482895
 11
12.4728443885
 21
11.6280882288
  0
LINE
  5
4FE
100
AcDbEntity
  8
03__ASM_ALL_CURVES
100
AcDbLine
 62
4
  6
CONTINUOUS
 10
12.5138083885
 20
11.6436935612
 11
12.5196603885
 21
11.6280882288
  0
LINE
  5
4FF
100
AcDbEntity
  8
03__ASM_ALL_CURVES
100
AcDbLine
 62
4
  6
CONTINUOUS
 10
12.4962523885
 20
11.651496226
 11
12.5138083885
 21
11.6436935612
  0
LINE
  5
500
100
AcDbEntity
  8
03__ASM_ALL_CURVES
100
AcDbLine
 62
4
  6
CONTINUOUS
 10
12.7771483885
 20
11.6358908936
 11
12.7595923885
 21
11.6436935612
  0
LINE
  5
501
100
AcDbEntity
  8
03__ASM_ALL_CURVES
100
AcDbLine
 62
4
  6
CONTINUOUS
 10
12.1217243885
 20
11.5968775612
 11
12.1100203885
 21
11.6046802281
  0
LINE
  5
502
100
AcDbEntity
  8
03__ASM_ALL_CURVES
100
AcDbLine
 62
4
  6
CONTINUOUS
 10
12.1217243885
 20
11.6905095612
 11
12.1334283885
 21
11.6827068964
  0
LINE
  5
503
100
AcDbEntity
  8
03__ASM_ALL_CURVES
100
AcDbLine
 62
4
  6
CONTINUOUS
 10
12.4962523885
 20
11.5968775612
 11
12.4845483885
 21
11.6046802281
  0
LINE
  5
504
100
AcDbEntity
  8
03__ASM_ALL_CURVES
100
AcDbLine
 62
4
  6
CONTINUOUS
 10
12.6981463885
 20
10.9835815616
 11
12.7069243885
 21
10.9718775612
  0
LINE
  5
505
100
AcDbEntity
  8
03__ASM_ALL_CURVES
100
AcDbLine
 62
4
  6
CONTINUOUS
 10
12.3031363885
 20
11.612482895
 11
12.3148403885
 21
11.5968775612
  0
LINE
  5
506
100
AcDbEntity
  8
03__ASM_ALL_CURVES
100
AcDbLine
 62
4
  6
CONTINUOUS
 10
12.8590763885
 20
10.9796802281
 11
12.8532243885
 21
10.987482895
  0
LINE
  5
507
100
AcDbEntity
  8
03__ASM_ALL_CURVES
100
AcDbLine
 62
4
  6
CONTINUOUS
 10
12.8824843885
 20
11.0577068964
 11
12.8883363885
 21
11.049904226
  0
LINE
  5
508
100
AcDbEntity
  8
03__ASM_ALL_CURVES
100
AcDbLine
 62
4
  6
CONTINUOUS
 10
12.4845483885
 20
11.6046802281
 11
12.4786963885
 21
11.612482895
  0
LINE
  5
509
100
AcDbEntity
  8
03__ASM_ALL_CURVES
100
AcDbLine
 62
4
  6
CONTINUOUS
 10
12.8532243885
 20
11.0186935612
 11
12.8473723885
 21
11.0342988964
  0
LINE
  5
50A
100
AcDbEntity
  8
03__ASM_ALL_CURVES
100
AcDbLine
 62
4
  6
CONTINUOUS
 10
12.8883363885
 20
11.049904226
 11
12.8941883885
 21
11.0342988964
  0
LINE
  5
50B
100
AcDbEntity
  8
03__ASM_ALL_CURVES
100
AcDbLine
 62
4
  6
CONTINUOUS
 10
12.7595923885
 20
11.6436935612
 11
12.7537403885
 21
11.6592988964
  0
LINE
  5
50C
100
AcDbEntity
  8
03__ASM_ALL_CURVES
100
AcDbLine
 62
4
  6
CONTINUOUS
 10
12.7947043885
 20
11.674904226
 11
12.8005563885
 21
11.6592988964
  0
LINE
  5
50D
100
AcDbEntity
  8
03__ASM_ALL_CURVES
100
AcDbLine
 62
4
  6
CONTINUOUS
 10
12.9702643885
 20
11.049904226
 11
12.9761163885
 21
11.026496226
  0
LINE
  5
50E
100
AcDbEntity
  8
03__ASM_ALL_CURVES
100
AcDbLine
 62
4
  6
CONTINUOUS
 10
12.8766323885
 20
11.674904226
 11
12.8824843885
 21
11.651496226
  0
LINE
  5
50F
100
AcDbEntity
  8
03__ASM_ALL_CURVES
100
AcDbLine
 62
4
  6
CONTINUOUS
 10
12.4962523885
 20
11.6905095612
 11
12.5079563885
 21
11.6827068964
  0
LINE
  5
510
100
AcDbEntity
  8
03__ASM_ALL_CURVES
100
AcDbLine
 62
4
  6
CONTINUOUS
 10
12.7771483885
 20
11.5968775612
 11
12.7654443885
 21
11.6046802281
  0
LINE
  5
511
100
AcDbEntity
  8
03__ASM_ALL_CURVES
100
AcDbLine
 62
4
  6
CONTINUOUS
 10
12.7771483885
 20
11.6905095612
 11
12.7888523885
 21
11.6827068964
  0
LINE
  5
512
100
AcDbEntity
  8
03__ASM_ALL_CURVES
100
AcDbLine
 62
4
  6
CONTINUOUS
 10
12.9585603885
 20
11.0655095612
 11
12.9702643885
 21
11.049904226
  0
LINE
  5
513
100
AcDbEntity
  8
03__ASM_ALL_CURVES
100
AcDbLine
 62
4
  6
CONTINUOUS
 10
12.5079563885
 20
11.6827068964
 11
12.5138083885
 21
11.674904226
  0
LINE
  5
514
100
AcDbEntity
  8
03__ASM_ALL_CURVES
100
AcDbLine
 62
4
  6
CONTINUOUS
 10
12.6045143885
 20
11.6085815616
 11
12.6132923885
 21
11.5968775612
  0
LINE
  5
515
100
AcDbEntity
  8
03__ASM_ALL_CURVES
100
AcDbLine
 62
4
  6
CONTINUOUS
 10
12.7654443885
 20
11.6046802281
 11
12.7595923885
 21
11.612482895
  0
LINE
  5
516
100
AcDbEntity
  8
03__ASM_ALL_CURVES
100
AcDbLine
 62
4
  6
CONTINUOUS
 10
12.7888523885
 20
11.6827068964
 11
12.7947043885
 21
11.674904226
  0
LINE
  5
517
100
AcDbEntity
  8
03__ASM_ALL_CURVES
100
AcDbLine
 62
4
  6
CONTINUOUS
 10
12.8649283885
 20
11.6905095612
 11
12.8766323885
 21
11.674904226
  0
CIRCLE
  5
518
100
AcDbEntity
  8
0
100
AcDbCircle
 62
7
  6
CONTINUOUS
 10
9.7883523885
 20
9.3936935612
 40
0.6695
  0
ARC
  5
519
100
AcDbEntity
  8
0
100
AcDbCircle
 62
7
  6
CONTINUOUS
 10
9.7883523885
 20
11.0186935612
 40
0.6695
100
AcDbArc
 50
111.0076632311
 51
68.9923367688
  0
CIRCLE
  5
51A
100
AcDbEntity
  8
0
100
AcDbCircle
 62
7
  6
CONTINUOUS
 10
9.7883523885
 20
9.3936935612
 40
0.4725
  0
CIRCLE
  5
51B
100
AcDbEntity
  8
0
100
AcDbCircle
 62
7
  6
CONTINUOUS
 10
9.7883523885
 20
11.0186935612
 40
0.4725
  0
CIRCLE
  5
51C
100
AcDbEntity
  8
0
100
AcDbCircle
 62
7
  6
CONTINUOUS
 10
9.7883523885
 20
9.3936935612
 40
0.4440973856
  0
CIRCLE
  5
51D
100
AcDbEntity
  8
0
100
AcDbCircle
 62
7
  6
CONTINUOUS
 10
9.7883523885
 20
11.0186935612
 40
0.4440973856
  0
CIRCLE
  5
51E
100
AcDbEntity
  8
0
100
AcDbCircle
 62
7
  6
CONTINUOUS
 10
9.7883523885
 20
9.3936935612
 40
0.403
  0
CIRCLE
  5
51F
100
AcDbEntity
  8
0
100
AcDbCircle
 62
7
  6
CONTINUOUS
 10
9.7883523885
 20
11.0186935612
 40
0.403
  0
CIRCLE
  5
520
100
AcDbEntity
  8
0
100
AcDbCircle
 62
7
  6
CONTINUOUS
 10
9.7883523885
 20
9.3936935612
 40
0.336
  0
CIRCLE
  5
521
100
AcDbEntity
  8
0
100
AcDbCircle
 62
7
  6
CONTINUOUS
 10
9.7883523885
 20
11.0186935612
 40
0.336
  0
SPLINE
  5
522
100
AcDbEntity
  8
0
100
AcDbSpline
 62
7
  6
CONTINUOUS
 70
0
 71
3
 72
8
 73
4
 74
2
 42
0.0000001
 43
0.0000001
 44
0.0000000001
 12
-0.0009371536
 22
-0.0007970235
 32
0.0
 13
-0.000978399
 23
-0.0007461912
 33
0.0
 40
0.0
 40
0.0
 40
0.0
 40
0.0
 40
1.0
 40
1.0
 40
1.0
 40
1.0
 10
9.8193523885
 20
10.8777323569
 30
0.0
 10
9.8190400039
 20
10.8774666824
 30
0.0
 10
9.8187201374
 20
10.8772096906
 30
0.0
 10
9.8183940044
 20
10.8769609602
 30
0.0
 11
9.8193523885
 21
10.8777323569
 31
0.0
 11
9.8183940044
 21
10.8769609602
 31
0.0
  0
SPLINE
  5
523
100
AcDbEntity
  8
0
100
AcDbSpline
 62
7
  6
CONTINUOUS
 70
0
 71
3
 72
50
 73
46
 74
44
 42
0.0000001
 43
0.0000001
 44
0.0000000001
 12
-0.051063614
 22
-0.0389444596
 32
0.0
 13
-0.0047716798
 23
0.064064591
 33
0.0
 40
0.0
 40
0.0
 40
0.0
 40
0.0
 40
0.0016407386
 40
0.0232595636
 40
0.0456730311
 40
0.0688497571
 40
0.0927513185
 40
0.1173334628
 40
0.1425472315
 40
0.1683399892
 40
0.1946563486
 40
0.2214389768
 40
0.2486292759
 40
0.2761679276
 40
0.3039953037
 40
0.3320517445
 40
0.3602777188
 40
0.3886138818
 40
0.417001052
 40
0.4453801363
 40
0.4736920261
 40
0.5018775009
 40
0.5298771642
 40
0.55763144
 40
0.5850806565
 40
0.6121652374
 40
0.6388260155
 40
0.665004679
 40
0.6906443545
 40
0.7156903224
 40
0.7400908573
 40
0.7637981827
 40
0.7867695262
 40
0.8089682677
 40
0.8303651723
 40
0.8509397087
 40
0.87068146
 40
0.8895916313
 40
0.9076846566
 40
0.924989879
 40
0.9415532326
 40
0.9574387751
 40
0.9727298041
 40
0.9875291723
 40
1.0
 40
1.0
 40
1.0
 40
1.0
 10
9.8183940044
 20
10.8769609602
 30
0.0
 10
9.8183660771
 20
10.8769396609
 30
0.0
 10
9.8179695199
 20
10.876638576
 30
0.0
 10
9.8171729986
 20
10.8760711603
 30
0.0
 10
9.8159590925
 20
10.8752982766
 30
0.0
 10
9.8146663425
 20
10.8745617052
 30
0.0
 10
9.8132994028
 20
10.873865009
 30
0.0
 10
9.8118632447
 20
10.8732116042
 30
0.0
 10
9.8103630961
 20
10.8726047059
 30
0.0
 10
9.8088044082
 20
10.8720473025
 30
0.0
 10
9.8071928124
 20
10.8715421304
 30
0.0
 10
9.8055340809
 20
10.8710916542
 30
0.0
 10
9.80383409
 20
10.8706980538
 30
0.0
 10
9.8020987873
 20
10.8703632151
 30
0.0
 10
9.8003341659
 20
10.870088726
 30
0.0
 10
9.7985462442
 20
10.8698758749
 30
0.0
 10
9.7967410518
 20
10.8697256518
 30
0.0
 10
9.7949246212
 20
10.8696387502
 30
0.0
 10
9.7931029849
 20
10.8696155693
 30
0.0
 10
9.791282174
 20
10.8696562153
 30
0.0
 10
9.78946822
 20
10.8697605019
 30
0.0
 10
9.7876671554
 20
10.8699279495
 30
0.0
 10
9.7858850127
 20
10.8701577837
 30
0.0
 10
9.7841278193
 20
10.870448933
 30
0.0
 10
9.7824015883
 20
10.8708000269
 30
0.0
 10
9.7807123026
 20
10.8712093958
 30
0.0
 10
9.7790658933
 20
10.8716750726
 30
0.0
 10
9.7774682114
 20
10.8721947987
 30
0.0
 10
9.7759249946
 20
10.8727660333
 30
0.0
 10
9.7744418289
 20
10.8733859689
 30
0.0
 10
9.7730241086
 20
10.8740515522
 30
0.0
 10
9.7716769948
 20
10.8747595102
 30
0.0
 10
9.7704053767
 20
10.8755063821
 30
0.0
 10
9.7692138355
 20
10.8762885548
 30
0.0
 10
9.768106615
 20
10.8771023026
 30
0.0
 10
9.7670876001
 20
10.8779438282
 30
0.0
 10
9.7661603033
 20
10.8788093033
 30
0.0
 10
9.7653278625
 20
10.8796949085
 30
0.0
 10
9.7645930473
 20
10.880596868
 30
0.0
 10
9.7639582771
 20
10.8815114768
 30
0.0
 10
9.763425645
 20
10.8824351178
 30
0.0
 10
9.7629969463
 20
10.8833642627
 30
0.0
 10
9.7626737006
 20
10.8842954552
 30
0.0
 10
9.7624666818
 20
10.8851843771
 30
0.0
 10
9.7623939936
 20
10.8857645279
 30
0.0
 10
9.762374158
 20
10.8860308407
 30
0.0
 11
9.8183940044
 21
10.8769609602
 31
0.0
 11
9.8183100853
 21
10.876897244
 31
0.0
 11
9.8171802546
 21
10.8760908373
 31
0.0
 11
9.8159669139
 21
10.8753169743
 31
0.0
 11
9.8146744375
 21
10.874579397
 31
0.0
 11
9.8133075308
 21
10.8738817137
 31
0.0
 11
9.8118711967
 21
10.8732273624
 31
0.0
 11
9.8103706986
 21
10.8726195771
 31
0.0
 11
9.8088115189
 21
10.8720613596
 31
0.0
 11
9.8071993179
 21
10.8715554549
 31
0.0
 11
9.8055398932
 21
10.8711043331
 31
0.0
 11
9.8038391424
 21
10.8707101765
 31
0.0
 11
9.8021030315
 21
10.8703748721
 31
0.0
 11
9.8003375679
 21
10.8701000068
 31
0.0
 11
9.798548781
 21
10.869886868
 31
0.0
 11
9.7967427089
 21
10.8697364441
 31
0.0
 11
9.7949253906
 21
10.8696494273
 31
0.0
 11
9.7931028628
 21
10.8696262157
 31
0.0
 11
9.7912811611
 21
10.8696669155
 31
0.0
 11
9.789466321
 21
10.8697713406
 31
0.0
 11
9.78766438
 21
10.8699390127
 31
0.0
 11
9.7858813775
 21
10.8701691586
 31
0.0
 11
9.7841233499
 21
10.8704607084
 31
0.0
 11
9.7823963223
 21
10.8708122928
 31
0.0
 11
9.7807062931
 21
10.8712222425
 31
0.0
 11
9.7790592123
 21
10.8716885892
 31
0.0
 11
9.7774609536
 21
10.8722090709
 31
0.0
 11
9.775917281
 21
10.8727811405
 31
0.0
 11
9.77443381
 21
10.8734019809
 31
0.0
 11
9.7730159674
 21
10.874068524
 31
0.0
 11
9.7716689491
 21
10.8747774769
 31
0.0
 11
9.7703976802
 21
10.8755253516
 31
0.0
 11
9.7692067785
 21
10.8763084993
 31
0.0
 11
9.7681005229
 21
10.8771231482
 31
0.0
 11
9.7670828296
 21
10.8779654414
 31
0.0
 11
9.7661572349
 21
10.8788314758
 31
0.0
 11
9.7653268866
 21
10.8797173383
 31
0.0
 11
9.7645945422
 21
10.8806191399
 31
0.0
 11
9.7639625735
 21
10.8815330453
 31
0.0
 11
9.7634329766
 21
10.8824552975
 31
0.0
 11
9.7630073843
 21
10.8833822382
 31
0.0
 11
9.7626870804
 21
10.8843103227
 31
0.0
 11
9.7624730134
 21
10.8852361302
 31
0.0
 11
9.762374158
 21
10.8860308407
 31
0.0
  0
SPLINE
  5
524
100
AcDbEntity
  8
0
100
AcDbSpline
 62
7
  6
CONTINUOUS
 70
0
 71
3
 72
9
 73
5
 74
3
 42
0.0000001
 43
0.0000001
 44
0.0000000001
 12
-0.0000433302
 22
0.0005817517
 32
0.0
 13
-0.0000000021
 23
0.0005833904
 33
0.0
 40
0.0
 40
0.0
 40
0.0
 40
0.0
 40
0.2156588104
 40
1.0
 40
1.0
 40
1.0
 40
1.0
 10
9.762374158
 20
10.8860308407
 30
0.0
 10
9.7623710432
 20
10.8860726606
 30
0.0
 10
9.7623581326
 20
10.8862666929
 30
0.0
 10
9.7623524017
 20
10.8864611581
 30
0.0
 10
9.7623524012
 20
10.8866136838
 30
0.0
 11
9.762374158
 21
10.8860308407
 31
0.0
 11
9.7623658085
 21
10.8861563703
 31
0.0
 11
9.7623524012
 21
10.8866136838
 31
0.0
  0
SPLINE
  5
525
100
AcDbEntity
  8
0
100
AcDbSpline
 62
7
  6
CONTINUOUS
 70
0
 71
3
 72
51
 73
47
 74
45
 42
0.0000001
 43
0.0000001
 44
0.0000000001
 12
-0.0000002317
 22
0.0639359164
 32
0.0
 13
0.0526027927
 23
-0.0362766986
 33
0.0
 40
0.0
 40
0.0
 40
0.0
 40
0.0
 40
0.0071081976
 40
0.0212888635
 40
0.0355401578
 40
0.0500154913
 40
0.0648599921
 40
0.0802049543
 40
0.0961640072
 40
0.1128310701
 40
0.1302798
 40
0.1485640994
 40
0.1677192712
 40
0.1877635075
 40
0.2086995114
 40
0.2305161385
 40
0.253190001
 40
0.2766870105
 40
0.3009638455
 40
0.325969336
 40
0.3516457542
 40
0.3779299996
 40
0.4047546657
 40
0.4320489799
 40
0.4597396102
 40
0.4877513382
 40
0.5160076058
 40
0.5444309568
 40
0.5729433626
 40
0.6014677714
 40
0.6299244574
 40
0.6582352961
 40
0.6863227316
 40
0.7141099983
 40
0.7415215549
 40
0.7684835764
 40
0.7949245615
 40
0.8207756781
 40
0.8459723493
 40
0.8704553541
 40
0.8941716794
 40
0.917075802
 40
0.9391310398
 40
0.9603109837
 40
0.9806010551
 40
1.0
 40
1.0
 40
1.0
 40
1.0
 10
9.7623524012
 20
10.8866136838
 30
0.0
 10
9.7623524006
 20
10.8867651736
 30
0.0
 10
9.7623656773
 20
10.8872188772
 30
0.0
 10
9.7624553686
 20
10.8879723536
 30
0.0
 10
9.7626711868
 20
10.8888626123
 30
0.0
 10
9.7629942392
 20
10.8897347896
 30
0.0
 10
9.7634232496
 20
10.8905860167
 30
0.0
 10
9.7639565715
 20
10.8914137162
 30
0.0
 10
9.7645922492
 20
10.8922155778
 30
0.0
 10
9.7653280436
 20
10.8929895115
 30
0.0
 10
9.7661614265
 20
10.8937336017
 30
0.0
 10
9.767089559
 20
10.8944460758
 30
0.0
 10
9.7681092668
 20
10.8951252903
 30
0.0
 10
9.7692170235
 20
10.8957697271
 30
0.0
 10
9.7704089447
 20
10.8963779978
 30
0.0
 10
9.7716807948
 20
10.8969488492
 30
0.0
 10
9.7730280047
 20
10.8974811676
 30
0.0
 10
9.7744456991
 20
10.8979739813
 30
0.0
 10
9.7759287303
 20
10.8984264592
 30
0.0
 10
9.7774717175
 20
10.8988379056
 30
0.0
 10
9.7790690868
 20
10.8992077516
 30
0.0
 10
9.7807151126
 20
10.8995355447
 30
0.0
 10
9.7824039545
 20
10.8998209345
 30
0.0
 10
9.7841296917
 20
10.9000636586
 30
0.0
 10
9.785886351
 20
10.900263527
 30
0.0
 10
9.7876679284
 20
10.900420408
 30
0.0
 10
9.7894684053
 20
10.9005342142
 30
0.0
 10
9.7912817575
 20
10.9006048915
 30
0.0
 10
9.7931019871
 20
10.9006324108
 30
0.0
 10
9.7949230671
 20
10.9006167593
 30
0.0
 10
9.7967389709
 20
10.9005579412
 30
0.0
 10
9.7985436462
 20
10.9004559814
 30
0.0
 10
9.8003310722
 20
10.9003109266
 30
0.0
 10
9.8020952333
 20
10.9001228536
 30
0.0
 10
9.8038301256
 20
10.8998918799
 30
0.0
 10
9.8055297703
 20
10.8996181763
 30
0.0
 10
9.8071882232
 20
10.8993019837
 30
0.0
 10
9.8087996069
 20
10.8989436285
 30
0.0
 10
9.8103581499
 20
10.8985435371
 30
0.0
 10
9.8118582326
 20
10.8981022465
 30
0.0
 10
9.8132944221
 20
10.8976204163
 30
0.0
 10
9.8146615096
 20
10.8970988379
 30
0.0
 10
9.8159545405
 20
10.896538446
 30
0.0
 10
9.8171688809
 20
10.8959403001
 30
0.0
 10
9.8183001399
 20
10.8953056569
 30
0.0
 10
9.8190122423
 20
10.8948488765
 30
0.0
 10
9.8193523885
 20
10.8946142999
 30
0.0
 11
9.7623524012
 21
10.8866136838
 31
0.0
 11
9.7623657761
 21
10.8870678866
 31
0.0
 11
9.7624729161
 21
10.8879676573
 31
0.0
 11
9.7626869185
 21
10.8888527949
 31
0.0
 11
9.7630071583
 21
10.8897205449
 31
0.0
 11
9.7634326872
 21
10.8905682851
 31
0.0
 11
9.7639622216
 21
10.8913935251
 31
0.0
 11
9.7645941288
 21
10.8921939072
 31
0.0
 11
9.7653264131
 21
10.8929672085
 31
0.0
 11
9.7661567028
 21
10.8937113441
 31
0.0
 11
9.7670822406
 21
10.8944243714
 31
0.0
 11
9.7680998791
 21
10.895104495
 31
0.0
 11
9.769206082
 21
10.8957500714
 31
0.0
 11
9.7703969337
 21
10.8963596128
 31
0.0
 11
9.7716681551
 21
10.8969317903
 31
0.0
 11
9.7730151288
 21
10.897465434
 31
0.0
 11
9.77443293
 21
10.8979595311
 31
0.0
 11
9.7759163626
 21
10.8984132212
 31
0.0
 11
9.7774600003
 21
10.8988257884
 31
0.0
 11
9.7790582274
 21
10.8991966506
 31
0.0
 11
9.7807052802
 21
10.8995253468
 31
0.0
 11
9.782395285
 21
10.899811522
 31
0.0
 11
9.7841222917
 21
10.9000549118
 31
0.0
 11
9.7858803022
 21
10.9002553259
 31
0.0
 11
9.7876632912
 21
10.9004126331
 31
0.0
 11
9.7894652222
 21
10.9005267471
 31
0.0
 11
9.7912800562
 21
10.9005976149
 31
0.0
 11
9.7931017548
 21
10.9006252079
 31
0.0
 11
9.7949243619
 21
10.900609514
 31
0.0
 11
9.7967417524
 21
10.9005505375
 31
0.0
 11
9.798547889
 21
10.9004483022
 31
0.0
 11
9.8003367382
 21
10.900302854
 31
0.0
 11
9.802102267
 21
10.9001142685
 31
0.0
 11
9.8038384517
 21
10.8998826623
 31
0.0
 11
9.8055392902
 21
10.8996082061
 31
0.0
 11
9.8071988192
 21
10.8992911406
 31
0.0
 11
9.8088111147
 21
10.8989317987
 31
0.0
 11
9.8103703671
 21
10.8985306145
 31
0.0
 11
9.8118709222
 21
10.8980881355
 31
0.0
 11
9.8133073026
 21
10.8976050394
 31
0.0
 11
9.8146742503
 21
10.8970821449
 31
0.0
 11
9.8159667669
 21
10.8965204204
 31
0.0
 11
9.8171801507
 21
10.8959209902
 31
0.0
 11
9.8183100308
 21
10.895285136
 31
0.0
 11
9.8193523885
 21
10.8946142999
 31
0.0
  0
SPLINE
  5
526
100
AcDbEntity
  8
0
100
AcDbSpline
 62
7
  6
CONTINUOUS
 70
0
 71
3
 72
9
 73
5
 74
3
 42
0.0000001
 43
0.0000001
 44
0.0000000001
 12
0.000000002
 22
0.0005830475
 32
0.0
 13
0.0000432798
 23
0.0005814116
 33
0.0
 40
0.0
 40
0.0
 40
0.0
 40
0.0
 40
0.7838490691
 40
1.0
 40
1.0
 40
1.0
 40
1.0
 10
9.7623524012
 20
9.5257734386
 30
0.0
 10
9.7623524017
 20
9.5259257791
 30
0.0
 10
9.7623581222
 20
9.52612013
 30
0.0
 10
9.7623710143
 20
9.526314049
 30
0.0
 10
9.7623741326
 20
9.5263559399
 30
0.0
 11
9.7623524012
 21
9.5257734386
 31
0.0
 11
9.7623657761
 21
9.5262301972
 31
0.0
 11
9.7623741326
 21
9.5263559399
 31
0.0
  0
SPLINE
  5
527
100
AcDbEntity
  8
0
100
AcDbSpline
 62
7
  6
CONTINUOUS
 70
0
 71
3
 72
50
 73
46
 74
44
 42
0.0000001
 43
0.0000001
 44
0.0000000001
 12
0.0047689472
 22
0.0640650954
 32
0.0
 13
0.0510639225
 23
-0.0389445507
 33
0.0
 40
0.0
 40
0.0
 40
0.0
 40
0.0
 40
0.0124672703
 40
0.0272663066
 40
0.042556933
 40
0.0584420139
 40
0.0750048581
 40
0.0923095341
 40
0.1104019867
 40
0.1293115681
 40
0.1490527207
 40
0.1696266574
 40
0.1910229677
 40
0.2132211265
 40
0.2361919034
 40
0.2598986827
 40
0.2842986958
 40
0.3093441687
 40
0.3349833785
 40
0.3611616075
 40
0.3878219838
 40
0.4149061966
 40
0.4423550791
 40
0.4701090553
 40
0.4981084539
 40
0.5262936984
 40
0.5546053954
 40
0.5829843129
 40
0.611372579
 40
0.6397097085
 40
0.6679365164
 40
0.695993747
 40
0.7238219497
 40
0.7513615623
 40
0.7785530471
 40
0.8053371399
 40
0.8316548288
 40
0.8574485825
 40
0.8826631056
 40
0.9072458434
 40
0.931147925
 40
0.9543251842
 40
0.9767392673
 40
0.9983588802
 40
1.0
 40
1.0
 40
1.0
 40
1.0
 10
9.7623741326
 20
9.5263559399
 30
0.0
 10
9.7623939512
 20
9.5266221788
 30
0.0
 10
9.7624665967
 20
9.5272022533
 30
0.0
 10
9.7626735371
 20
9.5280911034
 30
0.0
 10
9.7629967185
 20
9.5290222961
 30
0.0
 10
9.7634253537
 20
9.5299514433
 30
0.0
 10
9.7639579234
 20
9.5308750887
 30
0.0
 10
9.7645926323
 20
9.531789704
 30
0.0
 10
9.7653273875
 20
9.5326916722
 30
0.0
 10
9.76615977
 20
9.5335772884
 30
0.0
 10
9.7670870102
 20
9.5344427768
 30
0.0
 10
9.7681059705
 20
9.535284318
 30
0.0
 10
9.7692131386
 20
9.5360980837
 30
0.0
 10
9.7704046299
 20
9.5368802767
 30
0.0
 10
9.7716762007
 20
9.537627171
 30
0.0
 10
9.77302327
 20
9.5383351536
 30
0.0
 10
9.774440949
 20
9.5390007636
 30
0.0
 10
9.7759240765
 20
9.5396207278
 30
0.0
 10
9.7774672584
 20
9.5401919927
 30
0.0
 10
9.7790649088
 20
9.5407117507
 30
0.0
 10
9.7807112901
 20
9.5411774611
 30
0.0
 10
9.7824005514
 20
9.5415868647
 30
0.0
 10
9.7841267617
 20
9.5419379945
 30
0.0
 10
9.7858839379
 20
9.5422291805
 30
0.0
 10
9.7876660671
 20
9.5424590523
 30
0.0
 10
9.7894671218
 20
9.542626538
 30
0.0
 10
9.7912810694
 20
9.5427308631
 30
0.0
 10
9.7931019037
 20
9.5427715484
 30
0.0
 10
9.7949235896
 20
9.5427484044
 30
0.0
 10
9.7967400922
 20
9.5426615343
 30
0.0
 10
9.7985453511
 20
9.5425113385
 30
0.0
 10
9.8003333369
 20
9.5422985109
 30
0.0
 10
9.8020980254
 20
9.5420240407
 30
0.0
 10
9.8038334039
 20
9.541689215
 30
0.0
 10
9.8055334837
 20
9.5412956195
 30
0.0
 10
9.8071923108
 20
9.5408451399
 30
0.0
 10
9.8088039971
 20
9.5403399588
 30
0.0
 10
9.8103627597
 20
9.5397825455
 30
0.0
 10
9.811862967
 20
9.5391756381
 30
0.0
 10
9.8132991732
 20
9.5385222247
 30
0.0
 10
9.8146661555
 20
9.5378255187
 30
0.0
 10
9.8159589472
 20
9.5370889342
 30
0.0
 10
9.817172898
 20
9.5363160309
 30
0.0
 10
9.8179694563
 20
9.5357485934
 30
0.0
 10
9.818366036
 20
9.5354474928
 30
0.0
 10
9.81839397
 20
9.5354261886
 30
0.0
 11
9.7623741326
 21
9.5263559399
 31
0.0
 11
9.7624729161
 21
9.527150433
 31
0.0
 11
9.7626869185
 21
9.5280762381
 31
0.0
 11
9.7630071583
 21
9.5290043222
 31
0.0
 11
9.7634326872
 21
9.5299312647
 31
0.0
 11
9.7639622216
 21
9.5308535208
 31
0.0
 11
9.7645941288
 21
9.5317674323
 31
0.0
 11
9.7653264131
 21
9.5326692424
 31
0.0
 11
9.7661567028
 21
9.5335551157
 31
0.0
 11
9.7670822406
 21
9.5344211632
 31
0.0
 11
9.7680998791
 21
9.5352634719
 31
0.0
 11
9.769206082
 21
9.5360781387
 31
0.0
 11
9.7703969337
 21
9.5368613066
 31
0.0
 11
9.7716681551
 21
9.5376092037
 31
0.0
 11
9.7730151289
 21
9.5383181812
 31
0.0
 11
9.77443293
 21
9.538984751
 31
0.0
 11
9.7759163626
 21
9.53960562
 31
0.0
 11
9.7774600003
 21
9.54017772
 31
0.0
 11
9.7790582274
 21
9.5406982337
 31
0.0
 11
9.7807052802
 21
9.541164614
 31
0.0
 11
9.782395285
 21
9.5415745984
 31
0.0
 11
9.7841222918
 21
9.5419262188
 31
0.0
 11
9.7858803022
 21
9.5422178054
 31
0.0
 11
9.7876632912
 21
9.5424479889
 31
0.0
 11
9.7894652222
 21
9.5426156992
 31
0.0
 11
9.7912800562
 21
9.5427201629
 31
0.0
 11
9.7931017548
 21
9.5427609014
 31
0.0
 11
9.7949243619
 21
9.5427377264
 31
0.0
 11
9.7967417524
 21
9.5426507411
 31
0.0
 11
9.798547889
 21
9.5425003447
 31
0.0
 11
9.8003367382
 21
9.5422872296
 31
0.0
 11
9.8021022669
 21
9.5420123837
 31
0.0
 11
9.8038384517
 21
9.5416770926
 31
0.0
 11
9.8055392901
 21
9.5412829412
 31
0.0
 11
9.8071988191
 21
9.5408318136
 31
0.0
 11
9.8088111145
 21
9.5403258986
 31
0.0
 11
9.810370367
 21
9.5397676717
 31
0.0
 11
9.8118709222
 21
9.5391598782
 31
0.0
 11
9.8133073026
 21
9.5385055189
 31
0.0
 11
9.8146742503
 21
9.5378078266
 31
0.0
 11
9.8159667669
 21
9.5370702369
 31
0.0
 11
9.8171801507
 21
9.5362963554
 31
0.0
 11
9.8183100308
 21
9.5354899197
 31
0.0
 11
9.81839397
 21
9.5354261886
 31
0.0
  0
SPLINE
  5
528
100
AcDbEntity
  8
0
100
AcDbSpline
 62
7
  6
CONTINUOUS
 70
0
 71
3
 72
8
 73
4
 74
2
 42
0.0000001
 43
0.0000001
 44
0.0000000001
 12
0.0009784348
 22
-0.0007462158
 32
0.0
 13
0.0009371866
 23
-0.0007970516
 33
0.0
 40
0.0
 40
0.0
 40
0.0
 40
0.0
 40
1.0
 40
1.0
 40
1.0
 40
1.0
 10
9.81839397
 20
9.5354261886
 30
0.0
 10
9.8187201149
 20
9.53517745
 30
0.0
 10
9.8190399929
 20
9.5349204494
 30
0.0
 10
9.8193523885
 20
9.5346547656
 30
0.0
 11
9.81839397
 21
9.5354261886
 31
0.0
 11
9.8193523885
 21
9.5346547656
 31
0.0
  0
SPLINE
  5
529
100
AcDbEntity
  8
0
100
AcDbSpline
 62
7
  6
CONTINUOUS
 70
0
 71
3
 72
51
 73
47
 74
45
 42
0.0000001
 43
0.0000001
 44
0.0000000001
 12
-0.0526027928
 22
-0.0362766986
 32
0.0
 13
0.0000002232
 23
0.063935919
 33
0.0
 40
0.0
 40
0.0
 40
0.0
 40
0.0
 40
0.0193979498
 40
0.039687178
 40
0.0608664261
 40
0.0829210338
 40
0.1058245272
 40
0.1295401422
 40
0.15402227
 40
0.1792178174
 40
0.2050674694
 40
0.231506843
 40
0.2584675205
 40
0.2858779527
 40
0.3136642282
 40
0.3417507119
 40
0.3700605597
 40
0.3985161281
 40
0.4270392989
 40
0.4555517465
 40
0.4839751774
 40
0.5122315743
 40
0.5402434773
 40
0.5679343286
 40
0.5952289086
 40
0.622053884
 40
0.6483384805
 40
0.6740152896
 40
0.6990212075
 40
0.7232985027
 40
0.7467960008
 40
0.7694703753
 40
0.7912875317
 40
0.8122240754
 40
0.8322688541
 40
0.851424562
 40
0.8697093812
 40
0.8871586038
 40
0.9038261206
 40
0.9197855765
 40
0.9351308785
 40
0.9499756447
 40
0.9644511594
 40
0.9787025437
 40
0.9928832054
 40
1.0
 40
1.0
 40
1.0
 40
1.0
 10
9.8193523885
 20
9.5177728225
 30
0.0
 10
9.8190122597
 20
9.517538258
 30
0.0
 10
9.8183001911
 20
9.5170814976
 30
0.0
 10
9.8171689818
 20
9.5164468763
 30
0.0
 10
9.8159546861
 20
9.5158487444
 30
0.0
 10
9.8146616968
 20
9.5152883612
 30
0.0
 10
9.8132946519
 20
9.5147667889
 30
0.0
 10
9.8118585104
 20
9.5142849639
 30
0.0
 10
9.8103584864
 20
9.5138436786
 30
0.0
 10
9.8088000181
 20
9.5134435931
 30
0.0
 10
9.8071887249
 20
9.5130852432
 30
0.0
 10
9.8055303676
 20
9.5127690519
 30
0.0
 10
9.8038308117
 20
9.512495344
 30
0.0
 10
9.802095995
 20
9.5122643606
 30
0.0
 10
9.8003319011
 20
9.5120762741
 30
0.0
 10
9.7985445391
 20
9.511931203
 30
0.0
 10
9.7967399302
 20
9.5118292243
 30
0.0
 10
9.7949240984
 20
9.5117703849
 30
0.0
 10
9.7931030679
 20
9.5117547084
 30
0.0
 10
9.7912828617
 20
9.5117822011
 30
0.0
 10
9.7894695031
 20
9.5118528523
 30
0.0
 10
9.7876690164
 20
9.5119666323
 30
0.0
 10
9.7858874255
 20
9.5121234872
 30
0.0
 10
9.7841307491
 20
9.5123233296
 30
0.0
 10
9.782404991
 20
9.5125660277
 30
0.0
 10
9.7807161248
 20
9.5128513917
 30
0.0
 10
9.7790700711
 20
9.5131791592
 30
0.0
 10
9.7774726703
 20
9.51354898
 30
0.0
 10
9.7759296484
 20
9.5139604012
 30
0.0
 10
9.774446579
 20
9.5144128545
 30
0.0
 10
9.7730288433
 20
9.5149056441
 30
0.0
 10
9.771681589
 20
9.5154379389
 30
0.0
 10
9.7704096918
 20
9.5160087672
 30
0.0
 10
9.7692177207
 20
9.5166170157
 30
0.0
 10
9.7681099118
 20
9.517261431
 30
0.0
 10
9.7670901494
 20
9.5179406249
 30
0.0
 10
9.7661619604
 20
9.5186530795
 30
0.0
 10
9.7653285191
 20
9.519397151
 30
0.0
 10
9.7645926648
 20
9.5201710672
 30
0.0
 10
9.7639569257
 20
9.5209729126
 30
0.0
 10
9.7634235412
 20
9.5218005971
 30
0.0
 10
9.7629944671
 20
9.5226518108
 30
0.0
 10
9.7626713501
 20
9.5235239762
 30
0.0
 10
9.7624554667
 20
9.524414225
 30
0.0
 10
9.7623656988
 20
9.5251678789
 30
0.0
 10
9.7623524006
 20
9.5256217657
 30
0.0
 10
9.7623524012
 20
9.5257734386
 30
0.0
 11
9.8193523885
 21
9.5177728225
 31
0.0
 11
9.8183100853
 21
9.5171020193
 31
0.0
 11
9.8171802546
 21
9.516466187
 31
0.0
 11
9.8159669139
 21
9.5158667702
 31
0.0
 11
9.8146744375
 21
9.515305054
 31
0.0
 11
9.8133075308
 21
9.514782165
 31
0.0
 11
9.8118711967
 21
9.5142990735
 31
0.0
 11
9.8103706986
 21
9.5138565994
 31
0.0
 11
9.8088115189
 21
9.5134554207
 31
0.0
 11
9.8071993179
 21
9.513096085
 31
0.0
 11
9.8055398932
 21
9.5127790225
 31
0.0
 11
9.8038391424
 21
9.5125045619
 31
0.0
 11
9.8021030315
 21
9.5122729457
 31
0.0
 11
9.8003375679
 21
9.5120843464
 31
0.0
 11
9.798548781
 21
9.5119388817
 31
0.0
 11
9.7967427089
 21
9.5118366276
 31
0.0
 11
9.7949253906
 21
9.5117776296
 31
0.0
 11
9.7931028628
 21
9.511761911
 31
0.0
 11
9.7912811611
 21
9.5117894777
 31
0.0
 11
9.789466321
 21
9.5118603193
 31
0.0
 11
9.78766438
 21
9.511974407
 31
0.0
 11
9.7858813775
 21
9.512131688
 31
0.0
 11
9.7841233499
 21
9.512332076
 31
0.0
 11
9.7823963223
 21
9.5125754398
 31
0.0
 11
9.7807062931
 21
9.5128615892
 31
0.0
 11
9.7790592123
 21
9.5131902597
 31
0.0
 11
9.7774609536
 21
9.5135610965
 31
0.0
 11
9.775917281
 21
9.5139736386
 31
0.0
 11
9.77443381
 21
9.514427304
 31
0.0
 11
9.7730159674
 21
9.5149213769
 31
0.0
 11
9.7716689491
 21
9.5154549969
 31
0.0
 11
9.7703976802
 21
9.5160271515
 31
0.0
 11
9.7692067785
 21
9.5166366707
 31
0.0
 11
9.7681005229
 21
9.5172822257
 31
0.0
 11
9.7670828296
 21
9.5179623289
 31
0.0
 11
9.7661572349
 21
9.5186753368
 31
0.0
 11
9.7653268866
 21
9.5194194542
 31
0.0
 11
9.7645945422
 21
9.5201927385
 31
0.0
 11
9.7639625735
 21
9.5209931049
 31
0.0
 11
9.7634329766
 21
9.5218183306
 31
0.0
 11
9.7630073843
 21
9.5226660579
 31
0.0
 11
9.7626870804
 21
9.5235337966
 31
0.0
 11
9.7624730134
 21
9.5244189244
 31
0.0
 11
9.7623658085
 21
9.5253186871
 31
0.0
 11
9.7623524012
 21
9.5257734386
 31
0.0
  0
SPLINE
  5
52A
100
AcDbEntity
  8
0
100
AcDbSpline
 62
7
  6
CONTINUOUS
 70
0
 71
3
 72
8
 73
4
 74
2
 42
0.0000001
 43
0.0000001
 44
0.0000000001
 12
-0.0000000017
 22
0.0005830458
 32
0.0
 13
0.0000432541
 23
0.0005814386
 33
0.0
 40
0.0
 40
0.0
 40
0.0
 40
0.0
 40
1.0
 40
1.0
 40
1.0
 40
1.0
 10
9.7623523885
 20
9.5257734355
 30
0.0
 10
9.7623523879
 20
9.5259677841
 30
0.0
 10
9.7623597158
 20
9.5261621266
 30
0.0
 10
9.7623741339
 20
9.5263559395
 30
0.0
 11
9.7623523885
 21
9.5257734355
 31
0.0
 11
9.7623741339
 21
9.5263559395
 31
0.0
  0
SPLINE
  5
52B
100
AcDbEntity
  8
0
100
AcDbSpline
 62
7
  6
CONTINUOUS
 70
0
 71
3
 72
60
 73
56
 74
54
 42
0.0000001
 43
0.0000001
 44
0.0000000001
 12
0.0048566776
 22
0.0652853069
 32
0.0
 13
0.0498501622
 23
-0.0423961981
 33
0.0
 40
0.0
 40
0.0
 40
0.0
 40
0.0
 40
0.0025893428
 40
0.0142690467
 40
0.0262059212
 40
0.0384650099
 40
0.0511033349
 40
0.0641694875
 40
0.0777033841
 40
0.0917365663
 40
0.1062924822
 40
0.1213866741
 40
0.137028599
 40
0.1532217019
 40
0.1699639493
 40
0.1872483985
 40
0.2050630645
 40
0.223392151
 40
0.242217018
 40
0.2615161159
 40
0.2812654157
 40
0.3014386591
 40
0.3220069739
 40
0.3429409436
 40
0.3642103135
 40
0.3857840737
 40
0.4076306945
 40
0.4297177177
 40
0.4520121916
 40
0.4744819979
 40
0.497095059
 40
0.5198193722
 40
0.5426229457
 40
0.5654728222
 40
0.5883368433
 40
0.6111832394
 40
0.6339802205
 40
0.6566959372
 40
0.6792980376
 40
0.7017534341
 40
0.7240299994
 40
0.7460956388
 40
0.7679183154
 40
0.7894661494
 40
0.8107067003
 40
0.8316085099
 40
0.8521414311
 40
0.8722763779
 40
0.89198564
 40
0.9112430131
 40
0.9300236888
 40
0.948306284
 40
0.9660724786
 40
0.9833073937
 40
1.0
 40
1.0
 40
1.0
 40
1.0
 10
9.7623741339
 20
9.5263559395
 30
0.0
 10
9.7623783257
 20
9.5264122881
 30
0.0
 10
9.7624047284
 20
9.5267225611
 30
0.0
 10
9.7624863171
 20
9.5272891805
 30
0.0
 10
9.7626679208
 20
9.5280514501
 30
0.0
 10
9.7629213344
 20
9.5288149289
 30
0.0
 10
9.7632459382
 20
9.5295777235
 30
0.0
 10
9.7636409839
 20
9.5303379238
 30
0.0
 10
9.764105595
 20
9.5310935888
 30
0.0
 10
9.7646387562
 20
9.5318427324
 30
0.0
 10
9.7652392965
 20
9.5325833139
 30
0.0
 10
9.7659058849
 20
9.533313254
 30
0.0
 10
9.7666370279
 20
9.5340304469
 30
0.0
 10
9.7674310751
 20
9.5347327771
 30
0.0
 10
9.7682862084
 20
9.5354181203
 30
0.0
 10
9.7692004285
 20
9.5360843473
 30
0.0
 10
9.7701715561
 20
9.5367293419
 30
0.0
 10
9.7711972462
 20
9.5373510237
 30
0.0
 10
9.7722750096
 20
9.5379473701
 30
0.0
 10
9.7734022243
 20
9.5385164276
 30
0.0
 10
9.7745761349
 20
9.5390563179
 30
0.0
 10
9.7757938476
 20
9.5395652428
 30
0.0
 10
9.7770523598
 20
9.5400415062
 30
0.0
 10
9.7783485825
 20
9.5404835265
 30
0.0
 10
9.7796793756
 20
9.5408898487
 30
0.0
 10
9.7810415465
 20
9.5412591437
 30
0.0
 10
9.782431846
 20
9.5415902076
 30
0.0
 10
9.7838469728
 20
9.5418819657
 30
0.0
 10
9.7852836021
 20
9.5421334809
 30
0.0
 10
9.7867384072
 20
9.5423439554
 30
0.0
 10
9.7882080735
 20
9.5425127292
 30
0.0
 10
9.7896892818
 20
9.5426392758
 30
0.0
 10
9.791178688
 20
9.5427231997
 30
0.0
 10
9.7926729399
 20
9.5427642399
 30
0.0
 10
9.794168688
 20
9.542762271
 30
0.0
 10
9.795662607
 20
9.5427173003
 30
0.0
 10
9.7971513798
 20
9.542629466
 30
0.0
 10
9.7986316789
 20
9.5424990379
 30
0.0
 10
9.800100153
 20
9.5423264214
 30
0.0
 10
9.8015534511
 20
9.5421121589
 30
0.0
 10
9.8029882355
 20
9.5418569284
 30
0.0
 10
9.8044011999
 20
9.541561539
 30
0.0
 10
9.8057890531
 20
9.541226934
 30
0.0
 10
9.8071485064
 20
9.5408541949
 30
0.0
 10
9.8084762947
 20
9.5404445409
 30
0.0
 10
9.8097692001
 20
9.539999323
 30
0.0
 10
9.8110240842
 20
9.5395200115
 30
0.0
 10
9.8122378918
 20
9.5390081907
 30
0.0
 10
9.8134076512
 20
9.5384655558
 30
0.0
 10
9.8145304757
 20
9.5378939117
 30
0.0
 10
9.815603598
 20
9.5372951548
 30
0.0
 10
9.8166243878
 20
9.5366712598
 30
0.0
 10
9.8175903889
 20
9.5360242443
 30
0.0
 10
9.818499265
 20
9.5353562022
 30
0.0
 10
9.8190750121
 20
9.5348906666
 30
0.0
 10
9.8193523885
 20
9.5346547656
 30
0.0
 11
9.7623741339
 21
9.5263559395
 31
0.0
 11
9.7623885016
 21
9.5265248383
 31
0.0
 11
9.7624967724
 21
9.5272814581
 31
0.0
 11
9.7626769947
 21
9.5280415407
 31
0.0
 11
9.7629288092
 21
9.5288032378
 31
0.0
 11
9.7632517094
 21
9.5295646599
 31
0.0
 11
9.7636450447
 21
9.5303238768
 31
0.0
 11
9.764108012
 21
9.5310789046
 31
0.0
 11
9.7646396505
 21
9.5318277099
 31
0.0
 11
9.7652388277
 21
9.5325682063
 31
0.0
 11
9.7659042143
 21
9.5332982455
 31
0.0
 11
9.7666343306
 21
9.5340156873
 31
0.0
 11
9.7674275265
 21
9.5347183797
 31
0.0
 11
9.7682819774
 21
9.5354041669
 31
0.0
 11
9.769195686
 21
9.536070902
 31
0.0
 11
9.770166449
 21
9.5367164372
 31
0.0
 11
9.7711918993
 21
9.5373386694
 31
0.0
 11
9.7722695437
 21
9.5379355678
 31
0.0
 11
9.7733967466
 21
9.5385051677
 31
0.0
 11
9.7745707424
 21
9.5390455831
 31
0.0
 11
9.77578864
 21
9.539555015
 31
0.0
 11
9.7770473901
 21
9.5400317473
 31
0.0
 11
9.7783439047
 21
9.5404741998
 31
0.0
 11
9.7796750374
 21
9.5408809165
 31
0.0
 11
9.7810375863
 21
9.5412505664
 31
0.0
 11
9.7824283072
 21
9.5415819478
 31
0.0
 11
9.7838438861
 21
9.5418739836
 31
0.0
 11
9.7852809666
 21
9.5421257317
 31
0.0
 11
9.7867362357
 21
9.5423363987
 31
0.0
 11
9.7882063753
 21
9.5425053253
 31
0.0
 11
9.7896880649
 21
9.5426319855
 31
0.0
 11
9.7911779791
 21
9.5427159854
 31
0.0
 11
9.7926727251
 21
9.5427570623
 31
0.0
 11
9.7941689598
 21
9.5427550916
 31
0.0
 11
9.7956633647
 21
9.5427100811
 31
0.0
 11
9.797152621
 21
9.5426221685
 31
0.0
 11
9.7986334086
 21
9.5424916225
 31
0.0
 11
9.8001023785
 21
9.542318847
 31
0.0
 11
9.8015561405
 21
9.5421043881
 31
0.0
 11
9.8029913741
 21
9.541848921
 31
0.0
 11
9.8044047695
 21
9.5415532542
 31
0.0
 11
9.8057930298
 21
9.5412183308
 31
0.0
 11
9.807152878
 21
9.5408452277
 31
0.0
 11
9.8084810123
 21
9.5404351724
 31
0.0
 11
9.8097742043
 21
9.539989519
 31
0.0
 11
9.8110293159
 21
9.5395097373
 31
0.0
 11
9.812243281
 21
9.5389974156
 31
0.0
 11
9.81341312
 21
9.5384542525
 31
0.0
 11
9.8145359427
 21
9.5378820548
 31
0.0
 11
9.8156089367
 21
9.5372827449
 31
0.0
 11
9.8166294757
 21
9.5366582996
 31
0.0
 11
9.8175950839
 21
9.5360107569
 31
0.0
 11
9.8185034414
 21
9.5353422038
 31
0.0
 11
9.8193523885
 21
9.5346547656
 31
0.0
  0
SPLINE
  5
52C
100
AcDbEntity
  8
0
100
AcDbSpline
 62
7
  6
CONTINUOUS
 70
0
 71
3
 72
60
 73
56
 74
54
 42
0.0000001
 43
0.0000001
 44
0.0000000001
 12
-0.0498499011
 22
-0.0423959761
 32
0.0
 13
-0.0048594613
 23
0.0652847551
 33
0.0
 40
0.0
 40
0.0
 40
0.0
 40
0.0
 40
0.0166926935
 40
0.0339276987
 40
0.0516939863
 40
0.0699766771
 40
0.0887574507
 40
0.1080149244
 40
0.12772429
 40
0.1478593424
 40
0.1683923709
 40
0.1892942894
 40
0.2105349503
 40
0.2320828973
 40
0.2539056887
 40
0.2759714438
 40
0.2982481252
 40
0.320703638
 40
0.3433058557
 40
0.3660216927
 40
0.3888187937
 40
0.4116653094
 40
0.4345294491
 40
0.4573794434
 40
0.4801831372
 40
0.5029075709
 40
0.5255207511
 40
0.5479906747
 40
0.5702852641
 40
0.5923724014
 40
0.6142191387
 40
0.635793013
 40
0.6570624945
 40
0.6779965732
 40
0.6985649943
 40
0.7187383435
 40
0.7384877484
 40
0.757786948
 40
0.7766119135
 40
0.7949410952
 40
0.812755853
 40
0.8300403943
 40
0.8467827304
 40
0.8629759185
 40
0.878617925
 40
0.893712195
 40
0.9082681869
 40
0.9223014439
 40
0.935835412
 40
0.9489016331
 40
0.9615400238
 40
0.9737991757
 40
0.9857361134
 40
0.9974158793
 40
1.0
 40
1.0
 40
1.0
 40
1.0
 10
9.8193523885
 20
10.8777323569
 30
0.0
 10
9.8190750121
 20
10.8774964559
 30
0.0
 10
9.8184992651
 20
10.8770309203
 30
0.0
 10
9.817590389
 20
10.8763628782
 30
0.0
 10
9.8166243878
 20
10.8757158627
 30
0.0
 10
9.8156035981
 20
10.8750919677
 30
0.0
 10
9.8145304758
 20
10.8744932108
 30
0.0
 10
9.8134076513
 20
10.8739215667
 30
0.0
 10
9.8122378918
 20
10.8733789318
 30
0.0
 10
9.8110240842
 20
10.872867111
 30
0.0
 10
9.8097692002
 20
10.8723877996
 30
0.0
 10
9.8084762948
 20
10.8719425816
 30
0.0
 10
9.8071485065
 20
10.8715329276
 30
0.0
 10
9.8057890533
 20
10.8711601886
 30
0.0
 10
9.8044012001
 20
10.8708255835
 30
0.0
 10
9.8029882356
 20
10.8705301941
 30
0.0
 10
9.8015534513
 20
10.8702749636
 30
0.0
 10
9.8001001533
 20
10.8700607011
 30
0.0
 10
9.7986316792
 20
10.8698880846
 30
0.0
 10
9.7971513801
 20
10.8697576565
 30
0.0
 10
9.7956626073
 20
10.8696698222
 30
0.0
 10
9.7941686882
 20
10.8696248515
 30
0.0
 10
9.7926729403
 20
10.8696228826
 30
0.0
 10
9.7911786883
 20
10.8696639228
 30
0.0
 10
9.7896892822
 20
10.8697478466
 30
0.0
 10
9.7882080738
 20
10.8698743932
 30
0.0
 10
9.7867384075
 20
10.8700431671
 30
0.0
 10
9.7852836024
 20
10.8702536416
 30
0.0
 10
9.7838469731
 20
10.8705051567
 30
0.0
 10
9.7824318463
 20
10.8707969148
 30
0.0
 10
9.7810415468
 20
10.8711279787
 30
0.0
 10
9.7796793759
 20
10.8714972737
 30
0.0
 10
9.7783485827
 20
10.8719035959
 30
0.0
 10
9.77705236
 20
10.8723456162
 30
0.0
 10
9.7757938479
 20
10.8728218796
 30
0.0
 10
9.7745761352
 20
10.8733308045
 30
0.0
 10
9.7734022246
 20
10.8738706948
 30
0.0
 10
9.7722750098
 20
10.8744397523
 30
0.0
 10
9.7711972464
 20
10.8750360987
 30
0.0
 10
9.7701715563
 20
10.8756577805
 30
0.0
 10
9.7692004287
 20
10.876302775
 30
0.0
 10
9.7682862086
 20
10.8769690021
 30
0.0
 10
9.7674310752
 20
10.8776543453
 30
0.0
 10
9.766637028
 20
10.8783566754
 30
0.0
 10
9.7659058851
 20
10.8790738683
 30
0.0
 10
9.7652392967
 20
10.8798038084
 30
0.0
 10
9.7646387563
 20
10.8805443899
 30
0.0
 10
9.7641055951
 20
10.8812935336
 30
0.0
 10
9.763640984
 20
10.8820491986
 30
0.0
 10
9.7632459383
 20
10.8828093989
 30
0.0
 10
9.7629213344
 20
10.8835721934
 30
0.0
 10
9.7626679208
 20
10.8843356722
 30
0.0
 10
9.7624863171
 20
10.8850979418
 30
0.0
 10
9.7624047448
 20
10.885664448
 30
0.0
 10
9.7623783451
 20
10.8859746065
 30
0.0
 10
9.7623741593
 20
10.8860308411
 30
0.0
 11
9.8193523885
 21
10.8777323569
 31
0.0
 11
9.8185034414
 21
10.8770449187
 31
0.0
 11
9.8175950839
 21
10.8763763656
 31
0.0
 11
9.8166294757
 21
10.8757288229
 31
0.0
 11
9.8156089367
 21
10.8751043776
 31
0.0
 11
9.8145359428
 21
10.8745050677
 31
0.0
 11
9.8134131201
 21
10.87393287
 31
0.0
 11
9.8122432811
 21
10.8733897069
 31
0.0
 11
9.811029316
 21
10.8728773852
 31
0.0
 11
9.8097742044
 21
10.8723976035
 31
0.0
 11
9.8084810125
 21
10.8719519501
 31
0.0
 11
9.8071528782
 21
10.8715418949
 31
0.0
 11
9.80579303
 21
10.8711687917
 31
0.0
 11
9.8044047697
 21
10.8708338683
 31
0.0
 11
9.8029913743
 21
10.8705382015
 31
0.0
 11
9.8015561407
 21
10.8702827344
 31
0.0
 11
9.8001023788
 21
10.8700682755
 31
0.0
 11
9.7986334089
 21
10.8698955
 31
0.0
 11
9.7971526213
 21
10.869764954
 31
0.0
 11
9.7956633649
 21
10.8696770414
 31
0.0
 11
9.79416896
 21
10.8696320308
 31
0.0
 11
9.7926727254
 21
10.8696300602
 31
0.0
 11
9.7911779795
 21
10.869671137
 31
0.0
 11
9.7896880652
 21
10.869755137
 31
0.0
 11
9.7882063755
 21
10.8698817972
 31
0.0
 11
9.7867362359
 21
10.8700507237
 31
0.0
 11
9.7852809668
 21
10.8702613907
 31
0.0
 11
9.7838438865
 21
10.8705131389
 31
0.0
 11
9.7824283076
 21
10.8708051746
 31
0.0
 11
9.7810375866
 21
10.871136556
 31
0.0
 11
9.7796750376
 21
10.8715062059
 31
0.0
 11
9.7783439049
 21
10.8719129226
 31
0.0
 11
9.7770473904
 21
10.8723553751
 31
0.0
 11
9.7757886404
 21
10.8728321074
 31
0.0
 11
9.7745707427
 21
10.8733415393
 31
0.0
 11
9.7733967468
 21
10.8738819546
 31
0.0
 11
9.7722695438
 21
10.8744515546
 31
0.0
 11
9.7711918995
 21
10.875048453
 31
0.0
 11
9.7701664492
 21
10.8756706851
 31
0.0
 11
9.7691956863
 21
10.8763162203
 31
0.0
 11
9.7682819776
 21
10.8769829554
 31
0.0
 11
9.7674275266
 21
10.8776687426
 31
0.0
 11
9.7666343308
 21
10.8783714351
 31
0.0
 11
9.7659042144
 21
10.8790888769
 31
0.0
 11
9.7652388279
 21
10.879818916
 31
0.0
 11
9.7646396506
 21
10.8805594123
 31
0.0
 11
9.7641080121
 21
10.8813082178
 31
0.0
 11
9.7636450448
 21
10.8820632455
 31
0.0
 11
9.7632517095
 21
10.8828224624
 31
0.0
 11
9.7629288092
 21
10.8835838845
 31
0.0
 11
9.7626769947
 21
10.8843455815
 31
0.0
 11
9.7624967725
 21
10.8851056642
 31
0.0
 11
9.7623885016
 21
10.885862284
 31
0.0
 11
9.7623741593
 21
10.8860308411
 31
0.0
  0
SPLINE
  5
52D
100
AcDbEntity
  8
0
100
AcDbSpline
 62
7
  6
CONTINUOUS
 70
0
 71
3
 72
8
 73
4
 74
2
 42
0.0000001
 43
0.0000001
 44
0.0000000001
 12
-0.0000433046
 22
0.0005817787
 32
0.0
 13
0.0000000017
 23
0.0005833887
 33
0.0
 40
0.0
 40
0.0
 40
0.0
 40
0.0
 40
1.0
 40
1.0
 40
1.0
 40
1.0
 10
9.7623741593
 20
10.8860308411
 30
0.0
 10
9.7623597244
 20
10.8862247673
 30
0.0
 10
9.7623523879
 20
10.8864192241
 30
0.0
 10
9.7623523885
 20
10.886613687
 30
0.0
 11
9.7623741593
 21
10.8860308411
 31
0.0
 11
9.7623523885
 21
10.886613687
 31
0.0
  0
SPLINE
  5
52E
100
AcDbEntity
  8
0
100
AcDbSpline
 62
7
  6
CONTINUOUS
 70
0
 71
3
 72
60
 73
56
 74
54
 42
0.0000001
 43
0.0000001
 44
0.0000000001
 12
0.0000001811
 22
0.0639255765
 32
0.0
 13
0.0526046573
 23
-0.0362779844
 33
0.0
 40
0.0
 40
0.0
 40
0.0
 40
0.0
 40
0.0116644336
 40
0.0233054917
 40
0.0350092392
 40
0.0468600664
 40
0.0589389601
 40
0.0713213337
 40
0.0840751508
 40
0.0972598595
 40
0.1109256585
 40
0.125113007
 40
0.1398539409
 40
0.1551719617
 40
0.1710825
 40
0.1875935012
 40
0.2047053876
 40
0.2224123486
 40
0.2407034123
 40
0.2595625277
 40
0.2789691225
 40
0.2988984822
 40
0.3193214965
 40
0.3402068387
 40
0.3615208231
 40
0.3832276267
 40
0.4052896602
 40
0.4276672863
 40
0.4503193886
 40
0.4732048551
 40
0.4962819134
 40
0.5195082956
 40
0.5428413031
 40
0.566236934
 40
0.5896518178
 40
0.6130429253
 40
0.6363672757
 40
0.6595820237
 40
0.6826441345
 40
0.7055102793
 40
0.7281386972
 40
0.750488376
 40
0.7725192103
 40
0.7941922361
 40
0.8154690508
 40
0.8363135061
 40
0.8566921642
 40
0.8765741794
 40
0.8959317453
 40
0.9147403629
 40
0.9329788828
 40
0.9506316236
 40
0.9676881442
 40
0.984143746
 40
1.0
 40
1.0
 40
1.0
 40
1.0
 10
9.7623523885
 20
10.886613687
 30
0.0
 10
9.7623523892
 20
10.8868622389
 30
0.0
 10
9.762376339
 20
10.8873588643
 30
0.0
 10
9.7624851074
 20
10.8880978046
 30
0.0
 10
9.7626663616
 20
10.8888264532
 30
0.0
 10
9.7629196659
 20
10.8895431428
 30
0.0
 10
9.7632443962
 20
10.8902463084
 30
0.0
 10
9.7636397655
 20
10.8909345046
 30
0.0
 10
9.7641048407
 20
10.891606396
 30
0.0
 10
9.764638547
 20
10.892260739
 30
0.0
 10
9.7652396606
 20
10.8928963622
 30
0.0
 10
9.7659068096
 20
10.8935121673
 30
0.0
 10
9.7666384717
 20
10.8941071258
 30
0.0
 10
9.7674329787
 20
10.8946802804
 30
0.0
 10
9.768288503
 20
10.8952307338
 30
0.0
 10
9.7692030416
 20
10.8957576424
 30
0.0
 10
9.7701744156
 20
10.8962602205
 30
0.0
 10
9.7712002827
 20
10.8967377493
 30
0.0
 10
9.7722781582
 20
10.8971895826
 30
0.0
 10
9.7734054248
 20
10.8976151444
 30
0.0
 10
9.7745793322
 20
10.8980139228
 30
0.0
 10
9.7757969914
 20
10.8983854634
 30
0.0
 10
9.7770554047
 20
10.8987293747
 30
0.0
 10
9.7783514881
 20
10.8990453265
 30
0.0
 10
9.7796821058
 20
10.8993330487
 30
0.0
 10
9.7810440693
 20
10.8995923211
 30
0.0
 10
9.7824341333
 20
10.8998229641
 30
0.0
 10
9.7838490003
 20
10.9000248344
 30
0.0
 10
9.7852853492
 20
10.900197823
 30
0.0
 10
9.7867398568
 20
10.9003418511
 30
0.0
 10
9.7882092117
 20
10.9004568632
 30
0.0
 10
9.7896900979
 20
10.9005428201
 30
0.0
 10
9.7911791744
 20
10.9005996939
 30
0.0
 10
9.7926730923
 20
10.9006274681
 30
0.0
 10
9.7941685049
 20
10.9006261362
 30
0.0
 10
9.7956620902
 20
10.9005956994
 30
0.0
 10
9.7971505339
 20
10.9005361653
 30
0.0
 10
9.7986305117
 20
10.900447549
 30
0.0
 10
9.8000986755
 20
10.900329878
 30
0.0
 10
9.8015516775
 20
10.9001831952
 30
0.0
 10
9.8029861833
 20
10.9000075616
 30
0.0
 10
9.8043988901
 20
10.899803058
 30
0.0
 10
9.8057865101
 20
10.8995697915
 30
0.0
 10
9.8071457586
 20
10.8993079051
 30
0.0
 10
9.8084733747
 20
10.8990175841
 30
0.0
 10
9.8097661444
 20
10.8986990604
 30
0.0
 10
9.8110209337
 20
10.8983526122
 30
0.0
 10
9.8122346921
 20
10.8979785692
 30
0.0
 10
9.813404453
 20
10.8975773208
 30
0.0
 10
9.8145273346
 20
10.8971493253
 30
0.0
 10
9.815600575
 20
10.8966951081
 30
0.0
 10
9.8166215478
 20
10.8962152632
 30
0.0
 10
9.8175878029
 20
10.895710434
 30
0.0
 10
9.8184970003
 20
10.8951813585
 30
0.0
 10
9.8190743509
 20
10.8948060443
 30
0.0
 10
9.8193523885
 20
10.8946142999
 30
0.0
 11
9.7623523885
 21
10.886613687
 31
0.0
 11
9.7623885016
 21
10.887358181
 31
0.0
 11
9.7624967724
 21
10.8880941351
 31
0.0
 11
9.7626769947
 21
10.8888199772
 31
0.0
 11
9.7629288092
 21
10.8895341639
 31
0.0
 11
9.7632517094
 21
10.89023523
 31
0.0
 11
9.7636450447
 21
10.8909217854
 31
0.0
 11
9.764108012
 21
10.8915924993
 31
0.0
 11
9.7646396505
 21
10.8922461006
 31
0.0
 11
9.7652388277
 21
10.8928813701
 31
0.0
 11
9.7659042143
 21
10.8934971292
 31
0.0
 11
9.7666343306
 21
10.8940922935
 31
0.0
 11
9.7674275265
 21
10.8946658464
 31
0.0
 11
9.7682819774
 21
10.8952168385
 31
0.0
 11
9.769195686
 21
10.8957443888
 31
0.0
 11
9.770166449
 21
10.8962476678
 31
0.0
 11
9.7711918993
 21
10.8967259234
 31
0.0
 11
9.7722695437
 21
10.8971784914
 31
0.0
 11
9.7733967466
 21
10.8976047783
 31
0.0
 11
9.7745707424
 21
10.8980042597
 31
0.0
 11
9.77578864
 21
10.8983764756
 31
0.0
 11
9.7770473901
 21
10.8987210163
 31
0.0
 11
9.7783439047
 21
10.8990375501
 31
0.0
 11
9.7796750374
 21
10.8993258046
 31
0.0
 11
9.7810375863
 21
10.8995855569
 31
0.0
 11
9.7824283072
 21
10.8998166285
 31
0.0
 11
9.7838438861
 21
10.9000188737
 31
0.0
 11
9.7852809666
 21
10.9001921801
 31
0.0
 11
9.7867362357
 21
10.9003364716
 31
0.0
 11
9.7882063753
 21
10.9004516933
 31
0.0
 11
9.7896880649
 21
10.9005378063
 31
0.0
 11
9.7911779791
 21
10.9005947841
 31
0.0
 11
9.7926727251
 21
10.9006226086
 31
0.0
 11
9.7941689598
 21
10.9006212743
 31
0.0
 11
9.7956633647
 21
10.9005907825
 31
0.0
 11
9.797152621
 21
10.9005311405
 31
0.0
 11
9.7986334086
 21
10.9004423628
 31
0.0
 11
9.8001023785
 21
10.9003244754
 31
0.0
 11
9.8015561405
 21
10.9001775241
 31
0.0
 11
9.8029913741
 21
10.9000015678
 31
0.0
 11
9.8044047695
 21
10.8997966871
 31
0.0
 11
9.8057930298
 21
10.8995629891
 31
0.0
 11
9.807152878
 21
10.899300614
 31
0.0
 11
9.8084810123
 21
10.8990097538
 31
0.0
 11
9.8097742043
 21
10.8986906437
 31
0.0
 11
9.8110293159
 21
10.8983435634
 31
0.0
 11
9.812243281
 21
10.8979688481
 31
0.0
 11
9.81341312
 21
10.8975668932
 31
0.0
 11
9.8145359427
 21
10.8971381636
 31
0.0
 11
9.8156089367
 21
10.8966832113
 31
0.0
 11
9.8166294757
 21
10.8962026406
 31
0.0
 11
9.8175950839
 21
10.8956971244
 31
0.0
 11
9.8185034414
 21
10.8951674057
 31
0.0
 11
9.8193523885
 21
10.8946142999
 31
0.0
  0
SPLINE
  5
52F
100
AcDbEntity
  8
0
100
AcDbSpline
 62
7
  6
CONTINUOUS
 70
0
 71
3
 72
60
 73
56
 74
54
 42
0.0000001
 43
0.0000001
 44
0.0000000001
 12
-0.0526046573
 22
-0.0362779844
 32
0.0
 13
-0.0000001811
 23
0.0639255765
 33
0.0
 40
0.0
 40
0.0
 40
0.0
 40
0.0
 40
0.0158562538
 40
0.0323118554
 40
0.049368376
 40
0.0670211166
 40
0.0852596361
 40
0.1040682534
 40
0.1234258195
 40
0.1433078348
 40
0.1636864928
 40
0.1845309474
 40
0.2058077608
 40
0.2274807869
 40
0.2495116217
 40
0.2718613005
 40
0.2944897178
 40
0.3173558613
 40
0.3404179709
 40
0.3636327203
 40
0.3869570713
 40
0.4103481786
 40
0.4337630613
 40
0.4571586902
 40
0.4804916986
 40
0.5037180824
 40
0.5267951412
 40
0.5496806074
 40
0.5723327085
 40
0.594710333
 40
0.6167723685
 40
0.6384791733
 40
0.6597931579
 40
0.6806784995
 40
0.7011015124
 40
0.7210308723
 40
0.7404374686
 40
0.7592965847
 40
0.7775876483
 40
0.7952946086
 40
0.8124064936
 40
0.8289174963
 40
0.8448280356
 40
0.8601460568
 40
0.8748869904
 40
0.889074338
 40
0.9027401368
 40
0.9159248466
 40
0.9286786643
 40
0.9410610379
 40
0.9531399311
 40
0.9649907574
 40
0.9766945055
 40
0.9883355643
 40
1.0
 40
1.0
 40
1.0
 40
1.0
 10
9.8193523885
 20
9.5177728225
 30
0.0
 10
9.8190743509
 20
9.5175810782
 30
0.0
 10
9.8184970003
 20
9.517205764
 30
0.0
 10
9.8175878029
 20
9.5166766885
 30
0.0
 10
9.8166215478
 20
9.5161718593
 30
0.0
 10
9.815600575
 20
9.5156920144
 30
0.0
 10
9.8145273346
 20
9.5152377972
 30
0.0
 10
9.8134044531
 20
9.5148098017
 30
0.0
 10
9.8122346922
 20
9.5144085533
 30
0.0
 10
9.8110209338
 20
9.5140345103
 30
0.0
 10
9.8097661445
 20
9.5136880621
 30
0.0
 10
9.8084733748
 20
9.5133695384
 30
0.0
 10
9.8071457588
 20
9.5130792174
 30
0.0
 10
9.8057865103
 20
9.512817331
 30
0.0
 10
9.8043988903
 20
9.5125840645
 30
0.0
 10
9.8029861835
 20
9.5123795609
 30
0.0
 10
9.8015516777
 20
9.5122039273
 30
0.0
 10
9.8000986758
 20
9.5120572445
 30
0.0
 10
9.798630512
 20
9.5119395735
 30
0.0
 10
9.7971505342
 20
9.5118509572
 30
0.0
 10
9.7956620905
 20
9.5117914231
 30
0.0
 10
9.7941685052
 20
9.5117609863
 30
0.0
 10
9.7926730926
 20
9.5117596544
 30
0.0
 10
9.7911791748
 20
9.5117874286
 30
0.0
 10
9.7896900982
 20
9.5118443024
 30
0.0
 10
9.788209212
 20
9.5119302592
 30
0.0
 10
9.786739857
 20
9.5120452714
 30
0.0
 10
9.7852853495
 20
9.5121892994
 30
0.0
 10
9.7838490007
 20
9.5123622881
 30
0.0
 10
9.7824341337
 20
9.5125641583
 30
0.0
 10
9.7810440696
 20
9.5127948014
 30
0.0
 10
9.779682106
 20
9.5130540737
 30
0.0
 10
9.7783514883
 20
9.513341796
 30
0.0
 10
9.777055405
 20
9.5136577477
 30
0.0
 10
9.7757969917
 20
9.514001659
 30
0.0
 10
9.7745793325
 20
9.5143731996
 30
0.0
 10
9.773405425
 20
9.514771978
 30
0.0
 10
9.7722781584
 20
9.5151975398
 30
0.0
 10
9.7712002829
 20
9.5156493731
 30
0.0
 10
9.7701744158
 20
9.5161269019
 30
0.0
 10
9.7692030419
 20
9.51662948
 30
0.0
 10
9.7682885032
 20
9.5171563886
 30
0.0
 10
9.7674329788
 20
9.517706842
 30
0.0
 10
9.7666384718
 20
9.5182799965
 30
0.0
 10
9.7659068098
 20
9.5188749551
 30
0.0
 10
9.7652396608
 20
9.5194907602
 30
0.0
 10
9.7646385471
 20
9.5201263833
 30
0.0
 10
9.7641048408
 20
9.5207807264
 30
0.0
 10
9.7636397656
 20
9.5214526178
 30
0.0
 10
9.7632443963
 20
9.5221408139
 30
0.0
 10
9.7629196659
 20
9.5228439795
 30
0.0
 10
9.7626663617
 20
9.5235606692
 30
0.0
 10
9.7624851075
 20
9.5242893177
 30
0.0
 10
9.7623763391
 20
9.525028258
 30
0.0
 10
9.7623523892
 20
9.5255248836
 30
0.0
 10
9.7623523885
 20
9.5257734355
 30
0.0
 11
9.8193523885
 21
9.5177728225
 31
0.0
 11
9.8185034414
 21
9.5172197168
 31
0.0
 11
9.8175950839
 21
9.5166899981
 31
0.0
 11
9.8166294757
 21
9.5161844819
 31
0.0
 11
9.8156089367
 21
9.5157039112
 31
0.0
 11
9.8145359428
 21
9.5152489589
 31
0.0
 11
9.8134131201
 21
9.5148202294
 31
0.0
 11
9.8122432811
 21
9.5144182745
 31
0.0
 11
9.811029316
 21
9.5140435591
 31
0.0
 11
9.8097742044
 21
9.5136964788
 31
0.0
 11
9.8084810125
 21
9.5133773687
 31
0.0
 11
9.8071528782
 21
9.5130865086
 31
0.0
 11
9.80579303
 21
9.5128241335
 31
0.0
 11
9.8044047697
 21
9.5125904354
 31
0.0
 11
9.8029913743
 21
9.5123855547
 31
0.0
 11
9.8015561407
 21
9.5122095984
 31
0.0
 11
9.8001023788
 21
9.5120626471
 31
0.0
 11
9.7986334089
 21
9.5119447597
 31
0.0
 11
9.7971526213
 21
9.511855982
 31
0.0
 11
9.7956633649
 21
9.51179634
 31
0.0
 11
9.79416896
 21
9.5117658482
 31
0.0
 11
9.7926727254
 21
9.5117645139
 31
0.0
 11
9.7911779795
 21
9.5117923384
 31
0.0
 11
9.7896880652
 21
9.5118493161
 31
0.0
 11
9.7882063755
 21
9.5119354292
 31
0.0
 11
9.7867362359
 21
9.5120506508
 31
0.0
 11
9.7852809668
 21
9.5121949424
 31
0.0
 11
9.7838438865
 21
9.5123682488
 31
0.0
 11
9.7824283076
 21
9.5125704939
 31
0.0
 11
9.7810375866
 21
9.5128015655
 31
0.0
 11
9.7796750376
 21
9.5130613179
 31
0.0
 11
9.7783439049
 21
9.5133495723
 31
0.0
 11
9.7770473904
 21
9.5136661062
 31
0.0
 11
9.7757886404
 21
9.5140106468
 31
0.0
 11
9.7745707427
 21
9.5143828627
 31
0.0
 11
9.7733967468
 21
9.5147823441
 31
0.0
 11
9.7722695438
 21
9.515208631
 31
0.0
 11
9.7711918995
 21
9.515661199
 31
0.0
 11
9.7701664492
 21
9.5161394546
 31
0.0
 11
9.7691956863
 21
9.5166427335
 31
0.0
 11
9.7682819776
 21
9.5171702839
 31
0.0
 11
9.7674275266
 21
9.517721276
 31
0.0
 11
9.7666343308
 21
9.5182948289
 31
0.0
 11
9.7659042144
 21
9.5188899931
 31
0.0
 11
9.7652388279
 21
9.5195057523
 31
0.0
 11
9.7646396506
 21
9.5201410217
 31
0.0
 11
9.7641080121
 21
9.520794623
 31
0.0
 11
9.7636450448
 21
9.521465337
 31
0.0
 11
9.7632517095
 21
9.5221518924
 31
0.0
 11
9.7629288092
 21
9.5228529584
 31
0.0
 11
9.7626769947
 21
9.5235671451
 31
0.0
 11
9.7624967725
 21
9.5242929872
 31
0.0
 11
9.7623885016
 21
9.5250289413
 31
0.0
 11
9.7623523885
 21
9.5257734355
 31
0.0
  0
SPLINE
  5
530
100
AcDbEntity
  8
0
100
AcDbSpline
 62
7
  6
CONTINUOUS
 70
0
 71
3
 72
51
 73
47
 74
45
 42
0.0000001
 43
0.0000001
 44
0.0000000001
 12
0.1096693594
 22
-0.3683180118
 32
0.0
 13
-0.1096693594
 23
-0.3683180118
 33
0.0
 40
0.0
 40
0.0
 40
0.0
 40
0.0
 40
0.0242101197
 40
0.0481529977
 40
0.0718544083
 40
0.0953387786
 40
0.11862873
 40
0.1417453972
 40
0.1647083387
 40
0.1875357009
 40
0.2102442435
 40
0.2328493687
 40
0.2553651619
 40
0.2778043797
 40
0.3001785247
 40
0.3224979661
 40
0.3447719642
 40
0.3670087422
 40
0.3892155569
 40
0.4113987349
 40
0.4335639256
 40
0.4557161894
 40
0.4778601221
 40
0.5
 40
0.5221398779
 40
0.5442838106
 40
0.5664360744
 40
0.5886012651
 40
0.6107844431
 40
0.6329912578
 40
0.6552280358
 40
0.6775020339
 40
0.6998214753
 40
0.7221956203
 40
0.7446348381
 40
0.7671506314
 40
0.7897557565
 40
0.8124642991
 40
0.8352916613
 40
0.8582546028
 40
0.88137127
 40
0.9046612214
 40
0.9281455917
 40
0.9518470023
 40
0.9757898803
 40
1.0
 40
1.0
 40
1.0
 40
1.0
 10
11.2232887226
 20
10.1765958089
 30
0.0
 10
11.2241737587
 20
10.1736234679
 30
0.0
 10
11.225903566
 20
10.1677024614
 30
0.0
 10
11.2283905329
 20
10.1588401076
 30
0.0
 10
11.2307564009
 20
10.1500408768
 30
0.0
 10
11.2330027549
 20
10.1412967034
 30
0.0
 10
11.2351307816
 20
10.1326000698
 30
0.0
 10
11.2371412798
 20
10.1239440672
 30
0.0
 10
11.2390346993
 20
10.1153223541
 30
0.0
 10
11.2408111706
 20
10.1067291575
 30
0.0
 10
11.242470541
 20
10.098159256
 30
0.0
 10
11.2440124075
 20
10.0896079795
 30
0.0
 10
11.245436153
 20
10.081071211
 30
0.0
 10
11.246740985
 20
10.0725453825
 30
0.0
 10
11.2479259777
 20
10.0640274589
 30
0.0
 10
11.2489901155
 20
10.0555149152
 30
0.0
 10
11.2499323367
 20
10.0470057122
 30
0.0
 10
11.250751575
 20
10.0384982765
 30
0.0
 10
11.2514468015
 20
10.0299914762
 30
0.0
 10
11.2520170666
 20
10.0214845715
 30
0.0
 10
11.2524615371
 20
10.0129771604
 30
0.0
 10
11.2527795291
 20
10.0044691107
 30
0.0
 10
11.2529705338
 20
9.9959605043
 30
0.0
 10
11.2530342375
 20
9.9874515782
 30
0.0
 10
11.2529705338
 20
9.9789426521
 30
0.0
 10
11.2527795291
 20
9.9704340458
 30
0.0
 10
11.2524615371
 20
9.9619259961
 30
0.0
 10
11.2520170666
 20
9.953418585
 30
0.0
 10
11.2514468015
 20
9.9449116803
 30
0.0
 10
11.250751575
 20
9.93640488
 30
0.0
 10
11.2499323367
 20
9.9278974443
 30
0.0
 10
11.2489901155
 20
9.9193882413
 30
0.0
 10
11.2479259777
 20
9.9108756976
 30
0.0
 10
11.246740985
 20
9.9023577739
 30
0.0
 10
11.245436153
 20
9.8938319455
 30
0.0
 10
11.2440124075
 20
9.885295177
 30
0.0
 10
11.242470541
 20
9.8767439005
 30
0.0
 10
11.2408111706
 20
9.868173999
 30
0.0
 10
11.2390346993
 20
9.8595808023
 30
0.0
 10
11.2371412798
 20
9.8509590893
 30
0.0
 10
11.2351307816
 20
9.8423030867
 30
0.0
 10
11.2330027549
 20
9.8336064531
 30
0.0
 10
11.2307564009
 20
9.8248622797
 30
0.0
 10
11.2283905329
 20
9.8160630489
 30
0.0
 10
11.225903566
 20
9.8072006951
 30
0.0
 10
11.2241737587
 20
9.8012796886
 30
0.0
 10
11.2232887226
 20
9.7983073476
 30
0.0
 11
11.2232887226
 21
10.1765958089
 31
0.0
 11
11.2258971967
 21
10.1676650327
 31
0.0
 11
11.2283826544
 21
10.1588058616
 31
0.0
 11
11.2307470996
 21
10.150009683
 31
0.0
 11
11.2329921337
 21
10.1412683616
 31
0.0
 11
11.2351189298
 21
10.1325744216
 31
0.0
 11
11.2371282874
 21
10.1239209414
 31
0.0
 11
11.2390206496
 21
10.1153015996
 31
0.0
 11
11.2407961448
 21
10.1067106252
 31
0.0
 11
11.242454618
 21
10.0981428
 31
0.0
 11
11.243995664
 21
10.0895934577
 31
0.0
 11
11.245418665
 21
10.081058479
 31
0.0
 11
11.2467228257
 21
10.072534304
 31
0.0
 11
11.2479072173
 21
10.0640179116
 31
0.0
 11
11.2489708234
 21
10.0555067783
 31
0.0
 11
11.2499125803
 21
10.0469988726
 31
0.0
 11
11.2507314206
 21
10.038492628
 31
0.0
 11
11.2514263144
 21
10.0299869152
 31
0.0
 11
11.251996309
 21
10.0214810245
 31
0.0
 11
11.2524405705
 21
10.0129745627
 31
0.0
 11
11.252758414
 21
10.004467411
 31
0.0
 11
11.25294933
 21
9.9959596673
 31
0.0
 11
11.2530130042
 21
9.9874515782
 31
0.0
 11
11.25294933
 21
9.9789434892
 31
0.0
 11
11.252758414
 21
9.9704357455
 31
0.0
 11
11.2524405705
 21
9.9619285938
 31
0.0
 11
11.251996309
 21
9.953422132
 31
0.0
 11
11.2514263144
 21
9.9449162413
 31
0.0
 11
11.2507314206
 21
9.9364105285
 31
0.0
 11
11.2499125803
 21
9.9279042839
 31
0.0
 11
11.2489708234
 21
9.9193963782
 31
0.0
 11
11.2479072173
 21
9.9108852449
 31
0.0
 11
11.2467228257
 21
9.9023688525
 31
0.0
 11
11.245418665
 21
9.8938446775
 31
0.0
 11
11.243995664
 21
9.8853096987
 31
0.0
 11
11.242454618
 21
9.8767603565
 31
0.0
 11
11.2407961448
 21
9.8681925312
 31
0.0
 11
11.2390206496
 21
9.8596015568
 31
0.0
 11
11.2371282874
 21
9.850982215
 31
0.0
 11
11.2351189298
 21
9.8423287349
 31
0.0
 11
11.2329921337
 21
9.8336347949
 31
0.0
 11
11.2307470996
 21
9.8248934735
 31
0.0
 11
11.2283826544
 21
9.8160972949
 31
0.0
 11
11.2258971967
 21
9.8072381238
 31
0.0
 11
11.2232887226
 21
9.7983073476
 31
0.0
  0
SPLINE
  5
531
100
AcDbEntity
  8
0
100
AcDbSpline
 62
7
  6
CONTINUOUS
 70
0
 71
3
 72
57
 73
53
 74
51
 42
0.0000001
 43
0.0000001
 44
0.0000000001
 12
-0.1814542154
 22
-0.3518390874
 32
0.0
 13
0.1814542154
 23
-0.3518390874
 33
0.0
 40
0.0
 40
0.0
 40
0.0
 40
0.0
 40
0.0234547239
 40
0.0464285952
 40
0.0689545578
 40
0.091063946
 40
0.1127860278
 40
0.1341484601
 40
0.1551772316
 40
0.1758969924
 40
0.1963311366
 40
0.2165018925
 40
0.2364304267
 40
0.2561368679
 40
0.2756404078
 40
0.2949595351
 40
0.3141120267
 40
0.3331150197
 40
0.3519850705
 40
0.3707380955
 40
0.389389647
 40
0.4079549419
 40
0.4264488773
 40
0.4448860843
 40
0.4632809221
 40
0.4816475123
 40
0.5
 40
0.5183524878
 40
0.5367190779
 40
0.5551139157
 40
0.5735511227
 40
0.5920450581
 40
0.610610353
 40
0.6292619045
 40
0.6480149295
 40
0.6668849803
 40
0.6858879733
 40
0.7050404649
 40
0.7243595922
 40
0.7438631321
 40
0.7635695733
 40
0.7834981075
 40
0.8036688634
 40
0.8241030076
 40
0.8448227684
 40
0.86585154
 40
0.8872139722
 40
0.908936054
 40
0.9310454422
 40
0.9535714048
 40
0.9765452761
 40
1.0
 40
1.0
 40
1.0
 40
1.0
 10
10.7878523885
 20
10.1765958089
 30
0.0
 10
10.7864337356
 20
10.173845046
 30
0.0
 10
10.7836641996
 20
10.16837985
 30
0.0
 10
10.7796713305
 20
10.1602032552
 30
0.0
 10
10.7758784097
 20
10.1521276924
 30
0.0
 10
10.7722795862
 20
10.1441446277
 30
0.0
 10
10.7688696432
 20
10.1362460218
 30
0.0
 10
10.7656439939
 20
10.1284243953
 30
0.0
 10
10.7625986139
 20
10.1206727536
 30
0.0
 10
10.7597299993
 20
10.1129845686
 30
0.0
 10
10.7570351186
 20
10.1053537352
 30
0.0
 10
10.7545113753
 20
10.0977745567
 30
0.0
 10
10.7521565736
 20
10.0902417348
 30
0.0
 10
10.7499688814
 20
10.0827503581
 30
0.0
 10
10.7479467895
 20
10.0752958714
 30
0.0
 10
10.7460890728
 20
10.0678740475
 30
0.0
 10
10.7443947548
 20
10.0604809597
 30
0.0
 10
10.7428630777
 20
10.0531129751
 30
0.0
 10
10.7414934732
 20
10.0457667518
 30
0.0
 10
10.7402855287
 20
10.0384392084
 30
0.0
 10
10.7392389554
 20
10.0311274941
 30
0.0
 10
10.7383535602
 20
10.0238289458
 30
0.0
 10
10.737629224
 20
10.0165410732
 30
0.0
 10
10.7370658817
 20
10.0092615454
 30
0.0
 10
10.7366635037
 20
10.0019881734
 30
0.0
 10
10.7364220791
 20
9.9947188636
 30
0.0
 10
10.7363416045
 20
9.9874515782
 30
0.0
 10
10.7364220791
 20
9.9801842928
 30
0.0
 10
10.7366635037
 20
9.9729149831
 30
0.0
 10
10.7370658817
 20
9.965641611
 30
0.0
 10
10.737629224
 20
9.9583620833
 30
0.0
 10
10.7383535602
 20
9.9510742107
 30
0.0
 10
10.7392389554
 20
9.9437756624
 30
0.0
 10
10.7402855287
 20
9.936463948
 30
0.0
 10
10.7414934732
 20
9.9291364047
 30
0.0
 10
10.7428630777
 20
9.9217901814
 30
0.0
 10
10.7443947548
 20
9.9144221967
 30
0.0
 10
10.7460890728
 20
9.9070291089
 30
0.0
 10
10.7479467895
 20
9.8996072851
 30
0.0
 10
10.7499688814
 20
9.8921527984
 30
0.0
 10
10.7521565736
 20
9.8846614217
 30
0.0
 10
10.7545113753
 20
9.8771285998
 30
0.0
 10
10.7570351186
 20
9.8695494213
 30
0.0
 10
10.7597299993
 20
9.8619185879
 30
0.0
 10
10.7625986139
 20
9.8542304028
 30
0.0
 10
10.7656439939
 20
9.8464787612
 30
0.0
 10
10.7688696432
 20
9.8386571346
 30
0.0
 10
10.7722795862
 20
9.8307585288
 30
0.0
 10
10.7758784097
 20
9.8227754641
 30
0.0
 10
10.7796713305
 20
9.8146999013
 30
0.0
 10
10.7836641996
 20
9.8065233065
 30
0.0
 10
10.7864337356
 20
9.8010581104
 30
0.0
 10
10.7878523885
 20
9.7983073476
 30
0.0
 11
10.7878523885
 21
10.1765958089
 31
0.0
 11
10.7836562006
 21
10.1683129677
 31
0.0
 11
10.7796663339
 21
10.1601401058
 31
0.0
 11
10.7758762607
 21
10.1520681661
 31
0.0
 11
10.7722800972
 21
10.1440885359
 31
0.0
 11
10.7688726577
 21
10.1361932338
 31
0.0
 11
10.7656493547
 21
10.1283747693
 31
0.0
 11
10.7626061828
 21
10.1206261867
 31
0.0
 11
10.7597396435
 21
10.1129409656
 31
0.0
 11
10.75704671
 21
10.1053130106
 31
0.0
 11
10.7545247912
 21
10.0977366358
 31
0.0
 11
10.7521716917
 21
10.0902065442
 31
0.0
 11
10.7499855834
 21
10.0827178349
 31
0.0
 11
10.7479649641
 21
10.0752659803
 31
0.0
 11
10.7461086067
 21
10.0678467496
 31
0.0
 11
10.744415535
 21
10.0604562229
 31
0.0
 11
10.7428849905
 21
10.0530907718
 31
0.0
 11
10.7415164014
 21
10.0457470434
 31
0.0
 11
10.7403093592
 21
10.0384219886
 31
0.0
 11
10.7392635728
 21
10.0311127559
 31
0.0
 11
10.7383788468
 21
10.0238166802
 31
0.0
 11
10.7376550604
 21
10.0165312734
 31
0.0
 11
10.7370921467
 21
10.0092541984
 31
0.0
 11
10.7366900752
 21
10.0019832653
 31
0.0
 11
10.7364488354
 21
9.9947164095
 31
0.0
 11
10.7363684225
 21
9.9874515782
 31
0.0
 11
10.7364488354
 21
9.980186747
 31
0.0
 11
10.7366900752
 21
9.9729198911
 31
0.0
 11
10.7370921467
 21
9.9656489581
 31
0.0
 11
10.7376550604
 21
9.9583718831
 31
0.0
 11
10.7383788468
 21
9.9510864762
 31
0.0
 11
10.7392635728
 21
9.9437904005
 31
0.0
 11
10.7403093592
 21
9.9364811679
 31
0.0
 11
10.7415164014
 21
9.929156113
 31
0.0
 11
10.7428849905
 21
9.9218123847
 31
0.0
 11
10.744415535
 21
9.9144469335
 31
0.0
 11
10.7461086068
 21
9.9070564068
 31
0.0
 11
10.7479649641
 21
9.8996371762
 31
0.0
 11
10.7499855834
 21
9.8921853216
 31
0.0
 11
10.7521716917
 21
9.8846966123
 31
0.0
 11
10.7545247912
 21
9.8771665207
 31
0.0
 11
10.75704671
 21
9.8695901459
 31
0.0
 11
10.7597396435
 21
9.8619621909
 31
0.0
 11
10.7626061828
 21
9.8542769698
 31
0.0
 11
10.7656493547
 21
9.8465283872
 31
0.0
 11
10.7688726577
 21
9.8387099227
 31
0.0
 11
10.7722800972
 21
9.8308146206
 31
0.0
 11
10.7758762607
 21
9.8228349904
 31
0.0
 11
10.7796663339
 21
9.8147630507
 31
0.0
 11
10.7836562006
 21
9.8065901887
 31
0.0
 11
10.7878523885
 21
9.7983073476
 31
0.0
  0
SPLINE
  5
532
100
AcDbEntity
  8
0
100
AcDbSpline
 62
7
  6
CONTINUOUS
 70
0
 71
3
 72
51
 73
47
 74
45
 42
0.0000001
 43
0.0000001
 44
0.0000000001
 12
0.1096693594
 22
-0.3683180118
 32
0.0
 13
-0.1096693594
 23
-0.3683180118
 33
0.0
 40
0.0
 40
0.0
 40
0.0
 40
0.0
 40
0.0242101197
 40
0.0481529977
 40
0.0718544083
 40
0.0953387786
 40
0.11862873
 40
0.1417453972
 40
0.1647083387
 40
0.1875357009
 40
0.2102442435
 40
0.2328493687
 40
0.2553651619
 40
0.2778043797
 40
0.3001785247
 40
0.3224979661
 40
0.3447719642
 40
0.3670087422
 40
0.3892155569
 40
0.4113987349
 40
0.4335639256
 40
0.4557161894
 40
0.4778601221
 40
0.5
 40
0.5221398779
 40
0.5442838106
 40
0.5664360744
 40
0.5886012651
 40
0.6107844431
 40
0.6329912578
 40
0.6552280358
 40
0.6775020339
 40
0.6998214753
 40
0.7221956203
 40
0.7446348381
 40
0.7671506314
 40
0.7897557565
 40
0.8124642991
 40
0.8352916613
 40
0.8582546028
 40
0.88137127
 40
0.9046612214
 40
0.9281455917
 40
0.9518470023
 40
0.9757898803
 40
1.0
 40
1.0
 40
1.0
 40
1.0
 10
11.2232887226
 20
9.7390797749
 30
0.0
 10
11.2241737587
 20
9.7361074339
 30
0.0
 10
11.225903566
 20
9.7301864274
 30
0.0
 10
11.2283905329
 20
9.7213240736
 30
0.0
 10
11.2307564009
 20
9.7125248428
 30
0.0
 10
11.2330027549
 20
9.7037806694
 30
0.0
 10
11.2351307816
 20
9.6950840358
 30
0.0
 10
11.2371412798
 20
9.6864280332
 30
0.0
 10
11.2390346993
 20
9.6778063202
 30
0.0
 10
11.2408111706
 20
9.6692131235
 30
0.0
 10
11.242470541
 20
9.660643222
 30
0.0
 10
11.2440124075
 20
9.6520919455
 30
0.0
 10
11.245436153
 20
9.643555177
 30
0.0
 10
11.246740985
 20
9.6350293485
 30
0.0
 10
11.2479259777
 20
9.6265114249
 30
0.0
 10
11.2489901155
 20
9.6179988812
 30
0.0
 10
11.2499323367
 20
9.6094896782
 30
0.0
 10
11.250751575
 20
9.6009822425
 30
0.0
 10
11.2514468015
 20
9.5924754422
 30
0.0
 10
11.2520170666
 20
9.5839685375
 30
0.0
 10
11.2524615371
 20
9.5754611264
 30
0.0
 10
11.2527795291
 20
9.5669530767
 30
0.0
 10
11.2529705338
 20
9.5584444703
 30
0.0
 10
11.2530342375
 20
9.5499355442
 30
0.0
 10
11.2529705338
 20
9.5414266181
 30
0.0
 10
11.2527795291
 20
9.5329180118
 30
0.0
 10
11.2524615371
 20
9.5244099621
 30
0.0
 10
11.2520170666
 20
9.515902551
 30
0.0
 10
11.2514468015
 20
9.5073956463
 30
0.0
 10
11.250751575
 20
9.498888846
 30
0.0
 10
11.2499323367
 20
9.4903814103
 30
0.0
 10
11.2489901155
 20
9.4818722073
 30
0.0
 10
11.2479259777
 20
9.4733596636
 30
0.0
 10
11.246740985
 20
9.46484174
 30
0.0
 10
11.245436153
 20
9.4563159115
 30
0.0
 10
11.2440124075
 20
9.447779143
 30
0.0
 10
11.242470541
 20
9.4392278665
 30
0.0
 10
11.2408111706
 20
9.430657965
 30
0.0
 10
11.2390346993
 20
9.4220647683
 30
0.0
 10
11.2371412798
 20
9.4134430553
 30
0.0
 10
11.2351307816
 20
9.4047870527
 30
0.0
 10
11.2330027549
 20
9.3960904191
 30
0.0
 10
11.2307564009
 20
9.3873462457
 30
0.0
 10
11.2283905329
 20
9.3785470149
 30
0.0
 10
11.225903566
 20
9.3696846611
 30
0.0
 10
11.2241737587
 20
9.3637636546
 30
0.0
 10
11.2232887226
 20
9.3607913136
 30
0.0
 11
11.2232887226
 21
9.7390797749
 31
0.0
 11
11.2258971967
 21
9.7301489987
 31
0.0
 11
11.2283826544
 21
9.7212898276
 31
0.0
 11
11.2307470996
 21
9.712493649
 31
0.0
 11
11.2329921337
 21
9.7037523276
 31
0.0
 11
11.2351189298
 21
9.6950583876
 31
0.0
 11
11.2371282874
 21
9.6864049075
 31
0.0
 11
11.2390206496
 21
9.6777855656
 31
0.0
 11
11.2407961448
 21
9.6691945912
 31
0.0
 11
11.242454618
 21
9.660626766
 31
0.0
 11
11.243995664
 21
9.6520774237
 31
0.0
 11
11.245418665
 21
9.643542445
 31
0.0
 11
11.2467228257
 21
9.63501827
 31
0.0
 11
11.2479072173
 21
9.6265018776
 31
0.0
 11
11.2489708234
 21
9.6179907443
 31
0.0
 11
11.2499125803
 21
9.6094828386
 31
0.0
 11
11.2507314206
 21
9.600976594
 31
0.0
 11
11.2514263144
 21
9.5924708812
 31
0.0
 11
11.251996309
 21
9.5839649905
 31
0.0
 11
11.2524405705
 21
9.5754585287
 31
0.0
 11
11.252758414
 21
9.566951377
 31
0.0
 11
11.25294933
 21
9.5584436333
 31
0.0
 11
11.2530130042
 21
9.5499355442
 31
0.0
 11
11.25294933
 21
9.5414274552
 31
0.0
 11
11.252758414
 21
9.5329197115
 31
0.0
 11
11.2524405705
 21
9.5244125598
 31
0.0
 11
11.251996309
 21
9.515906098
 31
0.0
 11
11.2514263144
 21
9.5074002073
 31
0.0
 11
11.2507314206
 21
9.4988944945
 31
0.0
 11
11.2499125803
 21
9.4903882499
 31
0.0
 11
11.2489708234
 21
9.4818803442
 31
0.0
 11
11.2479072173
 21
9.4733692109
 31
0.0
 11
11.2467228257
 21
9.4648528185
 31
0.0
 11
11.245418665
 21
9.4563286435
 31
0.0
 11
11.243995664
 21
9.4477936647
 31
0.0
 11
11.242454618
 21
9.4392443225
 31
0.0
 11
11.2407961448
 21
9.4306764972
 31
0.0
 11
11.2390206496
 21
9.4220855228
 31
0.0
 11
11.2371282874
 21
9.413466181
 31
0.0
 11
11.2351189298
 21
9.4048127009
 31
0.0
 11
11.2329921337
 21
9.3961187609
 31
0.0
 11
11.2307470996
 21
9.3873774395
 31
0.0
 11
11.2283826544
 21
9.3785812609
 31
0.0
 11
11.2258971967
 21
9.3697220898
 31
0.0
 11
11.2232887226
 21
9.3607913136
 31
0.0
  0
SPLINE
  5
533
100
AcDbEntity
  8
0
100
AcDbSpline
 62
7
  6
CONTINUOUS
 70
0
 71
3
 72
57
 73
53
 74
51
 42
0.0000001
 43
0.0000001
 44
0.0000000001
 12
-0.1814542154
 22
-0.3518390874
 32
0.0
 13
0.1814542154
 23
-0.3518390874
 33
0.0
 40
0.0
 40
0.0
 40
0.0
 40
0.0
 40
0.0234547239
 40
0.0464285952
 40
0.0689545578
 40
0.091063946
 40
0.1127860278
 40
0.1341484601
 40
0.1551772316
 40
0.1758969924
 40
0.1963311366
 40
0.2165018925
 40
0.2364304267
 40
0.2561368679
 40
0.2756404078
 40
0.2949595351
 40
0.3141120267
 40
0.3331150197
 40
0.3519850705
 40
0.3707380955
 40
0.389389647
 40
0.4079549419
 40
0.4264488773
 40
0.4448860843
 40
0.4632809221
 40
0.4816475123
 40
0.5
 40
0.5183524878
 40
0.5367190779
 40
0.5551139157
 40
0.5735511227
 40
0.5920450581
 40
0.610610353
 40
0.6292619045
 40
0.6480149295
 40
0.6668849803
 40
0.6858879733
 40
0.7050404649
 40
0.7243595922
 40
0.7438631321
 40
0.7635695733
 40
0.7834981075
 40
0.8036688634
 40
0.8241030076
 40
0.8448227684
 40
0.86585154
 40
0.8872139722
 40
0.908936054
 40
0.9310454422
 40
0.9535714048
 40
0.9765452761
 40
1.0
 40
1.0
 40
1.0
 40
1.0
 10
10.7878523885
 20
9.7390797749
 30
0.0
 10
10.7864337356
 20
9.736329012
 30
0.0
 10
10.7836641996
 20
9.730863816
 30
0.0
 10
10.7796713305
 20
9.7226872212
 30
0.0
 10
10.7758784097
 20
9.7146116584
 30
0.0
 10
10.7722795862
 20
9.7066285937
 30
0.0
 10
10.7688696432
 20
9.6987299879
 30
0.0
 10
10.7656439939
 20
9.6909083613
 30
0.0
 10
10.7625986139
 20
9.6831567197
 30
0.0
 10
10.7597299993
 20
9.6754685346
 30
0.0
 10
10.7570351186
 20
9.6678377012
 30
0.0
 10
10.7545113753
 20
9.6602585227
 30
0.0
 10
10.7521565736
 20
9.6527257008
 30
0.0
 10
10.7499688814
 20
9.6452343241
 30
0.0
 10
10.7479467895
 20
9.6377798374
 30
0.0
 10
10.7460890728
 20
9.6303580135
 30
0.0
 10
10.7443947548
 20
9.6229649258
 30
0.0
 10
10.7428630777
 20
9.6155969411
 30
0.0
 10
10.7414934732
 20
9.6082507178
 30
0.0
 10
10.7402855287
 20
9.6009231745
 30
0.0
 10
10.7392389554
 20
9.5936114601
 30
0.0
 10
10.7383535602
 20
9.5863129118
 30
0.0
 10
10.737629224
 20
9.5790250392
 30
0.0
 10
10.7370658817
 20
9.5717455114
 30
0.0
 10
10.7366635037
 20
9.5644721394
 30
0.0
 10
10.7364220791
 20
9.5572028296
 30
0.0
 10
10.7363416045
 20
9.5499355442
 30
0.0
 10
10.7364220791
 20
9.5426682589
 30
0.0
 10
10.7366635037
 20
9.5353989491
 30
0.0
 10
10.7370658817
 20
9.5281255771
 30
0.0
 10
10.737629224
 20
9.5208460493
 30
0.0
 10
10.7383535602
 20
9.5135581767
 30
0.0
 10
10.7392389554
 20
9.5062596284
 30
0.0
 10
10.7402855287
 20
9.498947914
 30
0.0
 10
10.7414934732
 20
9.4916203707
 30
0.0
 10
10.7428630777
 20
9.4842741474
 30
0.0
 10
10.7443947548
 20
9.4769061627
 30
0.0
 10
10.7460890728
 20
9.4695130749
 30
0.0
 10
10.7479467895
 20
9.4620912511
 30
0.0
 10
10.7499688814
 20
9.4546367644
 30
0.0
 10
10.7521565736
 20
9.4471453877
 30
0.0
 10
10.7545113753
 20
9.4396125658
 30
0.0
 10
10.7570351186
 20
9.4320333873
 30
0.0
 10
10.7597299993
 20
9.4244025539
 30
0.0
 10
10.7625986139
 20
9.4167143688
 30
0.0
 10
10.7656439939
 20
9.4089627272
 30
0.0
 10
10.7688696432
 20
9.4011411006
 30
0.0
 10
10.7722795862
 20
9.3932424948
 30
0.0
 10
10.7758784097
 20
9.3852594301
 30
0.0
 10
10.7796713305
 20
9.3771838673
 30
0.0
 10
10.7836641996
 20
9.3690072725
 30
0.0
 10
10.7864337356
 20
9.3635420764
 30
0.0
 10
10.7878523885
 20
9.3607913136
 30
0.0
 11
10.7878523885
 21
9.7390797749
 31
0.0
 11
10.7836562006
 21
9.7307969337
 31
0.0
 11
10.7796663339
 21
9.7226240718
 31
0.0
 11
10.7758762607
 21
9.7145521321
 31
0.0
 11
10.7722800972
 21
9.7065725019
 31
0.0
 11
10.7688726577
 21
9.6986771998
 31
0.0
 11
10.7656493547
 21
9.6908587353
 31
0.0
 11
10.7626061828
 21
9.6831101527
 31
0.0
 11
10.7597396435
 21
9.6754249316
 31
0.0
 11
10.75704671
 21
9.6677969766
 31
0.0
 11
10.7545247912
 21
9.6602206018
 31
0.0
 11
10.7521716917
 21
9.6526905102
 31
0.0
 11
10.7499855834
 21
9.6452018009
 31
0.0
 11
10.7479649641
 21
9.6377499463
 31
0.0
 11
10.7461086067
 21
9.6303307156
 31
0.0
 11
10.744415535
 21
9.6229401889
 31
0.0
 11
10.7428849905
 21
9.6155747378
 31
0.0
 11
10.7415164014
 21
9.6082310095
 31
0.0
 11
10.7403093592
 21
9.6009059546
 31
0.0
 11
10.7392635728
 21
9.5935967219
 31
0.0
 11
10.7383788468
 21
9.5863006462
 31
0.0
 11
10.7376550604
 21
9.5790152394
 31
0.0
 11
10.7370921467
 21
9.5717381644
 31
0.0
 11
10.7366900752
 21
9.5644672314
 31
0.0
 11
10.7364488354
 21
9.5572003755
 31
0.0
 11
10.7363684225
 21
9.5499355442
 31
0.0
 11
10.7364488354
 21
9.542670713
 31
0.0
 11
10.7366900752
 21
9.5354038571
 31
0.0
 11
10.7370921467
 21
9.5281329241
 31
0.0
 11
10.7376550604
 21
9.5208558491
 31
0.0
 11
10.7383788468
 21
9.5135704422
 31
0.0
 11
10.7392635728
 21
9.5062743665
 31
0.0
 11
10.7403093592
 21
9.4989651339
 31
0.0
 11
10.7415164014
 21
9.491640079
 31
0.0
 11
10.7428849905
 21
9.4842963507
 31
0.0
 11
10.744415535
 21
9.4769308996
 31
0.0
 11
10.7461086068
 21
9.4695403728
 31
0.0
 11
10.7479649641
 21
9.4621211422
 31
0.0
 11
10.7499855834
 21
9.4546692876
 31
0.0
 11
10.7521716917
 21
9.4471805783
 31
0.0
 11
10.7545247912
 21
9.4396504867
 31
0.0
 11
10.75704671
 21
9.4320741119
 31
0.0
 11
10.7597396435
 21
9.4244461569
 31
0.0
 11
10.7626061828
 21
9.4167609358
 31
0.0
 11
10.7656493547
 21
9.4090123532
 31
0.0
 11
10.7688726577
 21
9.4011938887
 31
0.0
 11
10.7722800972
 21
9.3932985866
 31
0.0
 11
10.7758762607
 21
9.3853189564
 31
0.0
 11
10.7796663339
 21
9.3772470167
 31
0.0
 11
10.7836562006
 21
9.3690741548
 31
0.0
 11
10.7878523885
 21
9.3607913136
 31
0.0
  0
SPLINE
  5
534
100
AcDbEntity
  8
0
100
AcDbSpline
 62
7
  6
CONTINUOUS
 70
0
 71
3
 72
57
 73
53
 74
51
 42
0.0000001
 43
0.0000001
 44
0.0000000001
 12
-0.1814542154
 22
-0.3518390874
 32
0.0
 13
0.1814542154
 23
-0.3518390874
 33
0.0
 40
0.0
 40
0.0
 40
0.0
 40
0.0
 40
0.0234547239
 40
0.0464285952
 40
0.0689545578
 40
0.091063946
 40
0.1127860278
 40
0.1341484601
 40
0.1551772316
 40
0.1758969924
 40
0.1963311366
 40
0.2165018925
 40
0.2364304267
 40
0.2561368679
 40
0.2756404078
 40
0.2949595351
 40
0.3141120267
 40
0.3331150197
 40
0.3519850705
 40
0.3707380955
 40
0.389389647
 40
0.4079549419
 40
0.4264488773
 40
0.4448860843
 40
0.4632809221
 40
0.4816475123
 40
0.5
 40
0.5183524878
 40
0.5367190779
 40
0.5551139157
 40
0.5735511227
 40
0.5920450581
 40
0.610610353
 40
0.6292619045
 40
0.6480149295
 40
0.6668849803
 40
0.6858879733
 40
0.7050404649
 40
0.7243595922
 40
0.7438631321
 40
0.7635695733
 40
0.7834981075
 40
0.8036688634
 40
0.8241030076
 40
0.8448227684
 40
0.86585154
 40
0.8872139722
 40
0.908936054
 40
0.9310454422
 40
0.9535714048
 40
0.9765452761
 40
1.0
 40
1.0
 40
1.0
 40
1.0
 10
10.7878523885
 20
10.6140797749
 30
0.0
 10
10.7864337356
 20
10.611329012
 30
0.0
 10
10.7836641996
 20
10.605863816
 30
0.0
 10
10.7796713305
 20
10.5976872212
 30
0.0
 10
10.7758784097
 20
10.5896116584
 30
0.0
 10
10.7722795862
 20
10.5816285937
 30
0.0
 10
10.7688696432
 20
10.5737299879
 30
0.0
 10
10.7656439939
 20
10.5659083613
 30
0.0
 10
10.7625986139
 20
10.5581567197
 30
0.0
 10
10.7597299993
 20
10.5504685346
 30
0.0
 10
10.7570351186
 20
10.5428377012
 30
0.0
 10
10.7545113753
 20
10.5352585227
 30
0.0
 10
10.7521565736
 20
10.5277257008
 30
0.0
 10
10.7499688814
 20
10.5202343241
 30
0.0
 10
10.7479467895
 20
10.5127798374
 30
0.0
 10
10.7460890728
 20
10.5053580135
 30
0.0
 10
10.7443947548
 20
10.4979649258
 30
0.0
 10
10.7428630777
 20
10.4905969411
 30
0.0
 10
10.7414934732
 20
10.4832507178
 30
0.0
 10
10.7402855287
 20
10.4759231745
 30
0.0
 10
10.7392389554
 20
10.4686114601
 30
0.0
 10
10.7383535602
 20
10.4613129118
 30
0.0
 10
10.737629224
 20
10.4540250392
 30
0.0
 10
10.7370658817
 20
10.4467455114
 30
0.0
 10
10.7366635037
 20
10.4394721394
 30
0.0
 10
10.7364220791
 20
10.4322028296
 30
0.0
 10
10.7363416045
 20
10.4249355442
 30
0.0
 10
10.7364220791
 20
10.4176682589
 30
0.0
 10
10.7366635037
 20
10.4103989491
 30
0.0
 10
10.7370658817
 20
10.4031255771
 30
0.0
 10
10.737629224
 20
10.3958460493
 30
0.0
 10
10.7383535602
 20
10.3885581767
 30
0.0
 10
10.7392389554
 20
10.3812596284
 30
0.0
 10
10.7402855287
 20
10.373947914
 30
0.0
 10
10.7414934732
 20
10.3666203707
 30
0.0
 10
10.7428630777
 20
10.3592741474
 30
0.0
 10
10.7443947548
 20
10.3519061627
 30
0.0
 10
10.7460890728
 20
10.3445130749
 30
0.0
 10
10.7479467895
 20
10.3370912511
 30
0.0
 10
10.7499688814
 20
10.3296367644
 30
0.0
 10
10.7521565736
 20
10.3221453877
 30
0.0
 10
10.7545113753
 20
10.3146125658
 30
0.0
 10
10.7570351186
 20
10.3070333873
 30
0.0
 10
10.7597299993
 20
10.2994025539
 30
0.0
 10
10.7625986139
 20
10.2917143688
 30
0.0
 10
10.7656439939
 20
10.2839627272
 30
0.0
 10
10.7688696432
 20
10.2761411006
 30
0.0
 10
10.7722795862
 20
10.2682424948
 30
0.0
 10
10.7758784097
 20
10.2602594301
 30
0.0
 10
10.7796713305
 20
10.2521838673
 30
0.0
 10
10.7836641996
 20
10.2440072725
 30
0.0
 10
10.7864337356
 20
10.2385420764
 30
0.0
 10
10.7878523885
 20
10.2357913136
 30
0.0
 11
10.7878523885
 21
10.6140797749
 31
0.0
 11
10.7836562006
 21
10.6057969337
 31
0.0
 11
10.7796663339
 21
10.5976240718
 31
0.0
 11
10.7758762607
 21
10.5895521321
 31
0.0
 11
10.7722800972
 21
10.5815725019
 31
0.0
 11
10.7688726577
 21
10.5736771998
 31
0.0
 11
10.7656493547
 21
10.5658587353
 31
0.0
 11
10.7626061828
 21
10.5581101527
 31
0.0
 11
10.7597396435
 21
10.5504249316
 31
0.0
 11
10.75704671
 21
10.5427969766
 31
0.0
 11
10.7545247912
 21
10.5352206018
 31
0.0
 11
10.7521716917
 21
10.5276905102
 31
0.0
 11
10.7499855834
 21
10.5202018009
 31
0.0
 11
10.7479649641
 21
10.5127499463
 31
0.0
 11
10.7461086067
 21
10.5053307156
 31
0.0
 11
10.744415535
 21
10.4979401889
 31
0.0
 11
10.7428849905
 21
10.4905747378
 31
0.0
 11
10.7415164014
 21
10.4832310095
 31
0.0
 11
10.7403093592
 21
10.4759059546
 31
0.0
 11
10.7392635728
 21
10.4685967219
 31
0.0
 11
10.7383788468
 21
10.4613006462
 31
0.0
 11
10.7376550604
 21
10.4540152394
 31
0.0
 11
10.7370921467
 21
10.4467381644
 31
0.0
 11
10.7366900752
 21
10.4394672314
 31
0.0
 11
10.7364488354
 21
10.4322003755
 31
0.0
 11
10.7363684225
 21
10.4249355442
 31
0.0
 11
10.7364488354
 21
10.417670713
 31
0.0
 11
10.7366900752
 21
10.4104038571
 31
0.0
 11
10.7370921467
 21
10.4031329241
 31
0.0
 11
10.7376550604
 21
10.3958558491
 31
0.0
 11
10.7383788468
 21
10.3885704422
 31
0.0
 11
10.7392635728
 21
10.3812743665
 31
0.0
 11
10.7403093592
 21
10.3739651339
 31
0.0
 11
10.7415164014
 21
10.366640079
 31
0.0
 11
10.7428849905
 21
10.3592963507
 31
0.0
 11
10.744415535
 21
10.3519308996
 31
0.0
 11
10.7461086068
 21
10.3445403728
 31
0.0
 11
10.7479649641
 21
10.3371211422
 31
0.0
 11
10.7499855834
 21
10.3296692876
 31
0.0
 11
10.7521716917
 21
10.3221805783
 31
0.0
 11
10.7545247912
 21
10.3146504867
 31
0.0
 11
10.75704671
 21
10.3070741119
 31
0.0
 11
10.7597396435
 21
10.2994461569
 31
0.0
 11
10.7626061828
 21
10.2917609358
 31
0.0
 11
10.7656493547
 21
10.2840123532
 31
0.0
 11
10.7688726577
 21
10.2761938887
 31
0.0
 11
10.7722800972
 21
10.2682985866
 31
0.0
 11
10.7758762607
 21
10.2603189564
 31
0.0
 11
10.7796663339
 21
10.2522470167
 31
0.0
 11
10.7836562006
 21
10.2440741548
 31
0.0
 11
10.7878523885
 21
10.2357913136
 31
0.0
  0
SPLINE
  5
535
100
AcDbEntity
  8
0
100
AcDbSpline
 62
7
  6
CONTINUOUS
 70
0
 71
3
 72
51
 73
47
 74
45
 42
0.0000001
 43
0.0000001
 44
0.0000000001
 12
0.1096693594
 22
-0.3683180118
 32
0.0
 13
-0.1096693594
 23
-0.3683180118
 33
0.0
 40
0.0
 40
0.0
 40
0.0
 40
0.0
 40
0.0242101197
 40
0.0481529977
 40
0.0718544083
 40
0.0953387786
 40
0.11862873
 40
0.1417453972
 40
0.1647083387
 40
0.1875357009
 40
0.2102442435
 40
0.2328493687
 40
0.2553651619
 40
0.2778043797
 40
0.3001785247
 40
0.3224979661
 40
0.3447719642
 40
0.3670087422
 40
0.3892155569
 40
0.4113987349
 40
0.4335639256
 40
0.4557161894
 40
0.4778601221
 40
0.5
 40
0.5221398779
 40
0.5442838106
 40
0.5664360744
 40
0.5886012651
 40
0.6107844431
 40
0.6329912578
 40
0.6552280358
 40
0.6775020339
 40
0.6998214753
 40
0.7221956203
 40
0.7446348381
 40
0.7671506314
 40
0.7897557565
 40
0.8124642991
 40
0.8352916613
 40
0.8582546028
 40
0.88137127
 40
0.9046612214
 40
0.9281455917
 40
0.9518470023
 40
0.9757898803
 40
1.0
 40
1.0
 40
1.0
 40
1.0
 10
11.2232887226
 20
10.6140797749
 30
0.0
 10
11.2241737587
 20
10.6111074339
 30
0.0
 10
11.225903566
 20
10.6051864274
 30
0.0
 10
11.2283905329
 20
10.5963240736
 30
0.0
 10
11.2307564009
 20
10.5875248428
 30
0.0
 10
11.2330027549
 20
10.5787806694
 30
0.0
 10
11.2351307816
 20
10.5700840358
 30
0.0
 10
11.2371412798
 20
10.5614280332
 30
0.0
 10
11.2390346993
 20
10.5528063202
 30
0.0
 10
11.2408111706
 20
10.5442131235
 30
0.0
 10
11.242470541
 20
10.535643222
 30
0.0
 10
11.2440124075
 20
10.5270919455
 30
0.0
 10
11.245436153
 20
10.518555177
 30
0.0
 10
11.246740985
 20
10.5100293485
 30
0.0
 10
11.2479259777
 20
10.5015114249
 30
0.0
 10
11.2489901155
 20
10.4929988812
 30
0.0
 10
11.2499323367
 20
10.4844896782
 30
0.0
 10
11.250751575
 20
10.4759822425
 30
0.0
 10
11.2514468015
 20
10.4674754422
 30
0.0
 10
11.2520170666
 20
10.4589685375
 30
0.0
 10
11.2524615371
 20
10.4504611264
 30
0.0
 10
11.2527795291
 20
10.4419530767
 30
0.0
 10
11.2529705338
 20
10.4334444703
 30
0.0
 10
11.2530342375
 20
10.4249355442
 30
0.0
 10
11.2529705338
 20
10.4164266181
 30
0.0
 10
11.2527795291
 20
10.4079180118
 30
0.0
 10
11.2524615371
 20
10.3994099621
 30
0.0
 10
11.2520170666
 20
10.390902551
 30
0.0
 10
11.2514468015
 20
10.3823956463
 30
0.0
 10
11.250751575
 20
10.373888846
 30
0.0
 10
11.2499323367
 20
10.3653814103
 30
0.0
 10
11.2489901155
 20
10.3568722073
 30
0.0
 10
11.2479259777
 20
10.3483596636
 30
0.0
 10
11.246740985
 20
10.33984174
 30
0.0
 10
11.245436153
 20
10.3313159115
 30
0.0
 10
11.2440124075
 20
10.322779143
 30
0.0
 10
11.242470541
 20
10.3142278665
 30
0.0
 10
11.2408111706
 20
10.305657965
 30
0.0
 10
11.2390346993
 20
10.2970647683
 30
0.0
 10
11.2371412798
 20
10.2884430553
 30
0.0
 10
11.2351307816
 20
10.2797870527
 30
0.0
 10
11.2330027549
 20
10.2710904191
 30
0.0
 10
11.2307564009
 20
10.2623462457
 30
0.0
 10
11.2283905329
 20
10.2535470149
 30
0.0
 10
11.225903566
 20
10.2446846611
 30
0.0
 10
11.2241737587
 20
10.2387636546
 30
0.0
 10
11.2232887226
 20
10.2357913136
 30
0.0
 11
11.2232887226
 21
10.6140797749
 31
0.0
 11
11.2258971967
 21
10.6051489987
 31
0.0
 11
11.2283826544
 21
10.5962898276
 31
0.0
 11
11.2307470996
 21
10.587493649
 31
0.0
 11
11.2329921337
 21
10.5787523276
 31
0.0
 11
11.2351189298
 21
10.5700583876
 31
0.0
 11
11.2371282874
 21
10.5614049075
 31
0.0
 11
11.2390206496
 21
10.5527855656
 31
0.0
 11
11.2407961448
 21
10.5441945912
 31
0.0
 11
11.242454618
 21
10.535626766
 31
0.0
 11
11.243995664
 21
10.5270774237
 31
0.0
 11
11.245418665
 21
10.518542445
 31
0.0
 11
11.2467228257
 21
10.51001827
 31
0.0
 11
11.2479072173
 21
10.5015018776
 31
0.0
 11
11.2489708234
 21
10.4929907443
 31
0.0
 11
11.2499125803
 21
10.4844828386
 31
0.0
 11
11.2507314206
 21
10.475976594
 31
0.0
 11
11.2514263144
 21
10.4674708812
 31
0.0
 11
11.251996309
 21
10.4589649905
 31
0.0
 11
11.2524405705
 21
10.4504585287
 31
0.0
 11
11.252758414
 21
10.441951377
 31
0.0
 11
11.25294933
 21
10.4334436333
 31
0.0
 11
11.2530130042
 21
10.4249355442
 31
0.0
 11
11.25294933
 21
10.4164274552
 31
0.0
 11
11.252758414
 21
10.4079197115
 31
0.0
 11
11.2524405705
 21
10.3994125598
 31
0.0
 11
11.251996309
 21
10.390906098
 31
0.0
 11
11.2514263144
 21
10.3824002073
 31
0.0
 11
11.2507314206
 21
10.3738944945
 31
0.0
 11
11.2499125803
 21
10.3653882499
 31
0.0
 11
11.2489708234
 21
10.3568803442
 31
0.0
 11
11.2479072173
 21
10.3483692109
 31
0.0
 11
11.2467228257
 21
10.3398528185
 31
0.0
 11
11.245418665
 21
10.3313286435
 31
0.0
 11
11.243995664
 21
10.3227936647
 31
0.0
 11
11.242454618
 21
10.3142443225
 31
0.0
 11
11.2407961448
 21
10.3056764972
 31
0.0
 11
11.2390206496
 21
10.2970855228
 31
0.0
 11
11.2371282874
 21
10.288466181
 31
0.0
 11
11.2351189298
 21
10.2798127009
 31
0.0
 11
11.2329921337
 21
10.2711187609
 31
0.0
 11
11.2307470996
 21
10.2623774395
 31
0.0
 11
11.2283826544
 21
10.2535812609
 31
0.0
 11
11.2258971967
 21
10.2447220898
 31
0.0
 11
11.2232887226
 21
10.2357913136
 31
0.0
  0
SPLINE
  5
536
100
AcDbEntity
  8
0
100
AcDbSpline
 62
7
  6
CONTINUOUS
 70
0
 71
3
 72
57
 73
53
 74
51
 42
0.0000001
 43
0.0000001
 44
0.0000000001
 12
-0.1814542154
 22
-0.3518390874
 32
0.0
 13
0.1814542154
 23
-0.3518390874
 33
0.0
 40
0.0
 40
0.0
 40
0.0
 40
0.0
 40
0.0234547239
 40
0.0464285952
 40
0.0689545578
 40
0.091063946
 40
0.1127860278
 40
0.1341484601
 40
0.1551772316
 40
0.1758969924
 40
0.1963311366
 40
0.2165018925
 40
0.2364304267
 40
0.2561368679
 40
0.2756404078
 40
0.2949595351
 40
0.3141120267
 40
0.3331150197
 40
0.3519850705
 40
0.3707380955
 40
0.389389647
 40
0.4079549419
 40
0.4264488773
 40
0.4448860843
 40
0.4632809221
 40
0.4816475123
 40
0.5
 40
0.5183524878
 40
0.5367190779
 40
0.5551139157
 40
0.5735511227
 40
0.5920450581
 40
0.610610353
 40
0.6292619045
 40
0.6480149295
 40
0.6668849803
 40
0.6858879733
 40
0.7050404649
 40
0.7243595922
 40
0.7438631321
 40
0.7635695733
 40
0.7834981075
 40
0.8036688634
 40
0.8241030076
 40
0.8448227684
 40
0.86585154
 40
0.8872139722
 40
0.908936054
 40
0.9310454422
 40
0.9535714048
 40
0.9765452761
 40
1.0
 40
1.0
 40
1.0
 40
1.0
 10
10.7878523885
 20
11.0515958089
 30
0.0
 10
10.7864337356
 20
11.048845046
 30
0.0
 10
10.7836641996
 20
11.04337985
 30
0.0
 10
10.7796713305
 20
11.0352032552
 30
0.0
 10
10.7758784097
 20
11.0271276924
 30
0.0
 10
10.7722795862
 20
11.0191446277
 30
0.0
 10
10.7688696432
 20
11.0112460218
 30
0.0
 10
10.7656439939
 20
11.0034243953
 30
0.0
 10
10.7625986139
 20
10.9956727536
 30
0.0
 10
10.7597299993
 20
10.9879845686
 30
0.0
 10
10.7570351186
 20
10.9803537352
 30
0.0
 10
10.7545113753
 20
10.9727745567
 30
0.0
 10
10.7521565736
 20
10.9652417348
 30
0.0
 10
10.7499688814
 20
10.9577503581
 30
0.0
 10
10.7479467895
 20
10.9502958714
 30
0.0
 10
10.7460890728
 20
10.9428740475
 30
0.0
 10
10.7443947548
 20
10.9354809597
 30
0.0
 10
10.7428630777
 20
10.9281129751
 30
0.0
 10
10.7414934732
 20
10.9207667518
 30
0.0
 10
10.7402855287
 20
10.9134392084
 30
0.0
 10
10.7392389554
 20
10.9061274941
 30
0.0
 10
10.7383535602
 20
10.8988289458
 30
0.0
 10
10.737629224
 20
10.8915410732
 30
0.0
 10
10.7370658817
 20
10.8842615454
 30
0.0
 10
10.7366635037
 20
10.8769881734
 30
0.0
 10
10.7364220791
 20
10.8697188636
 30
0.0
 10
10.7363416045
 20
10.8624515782
 30
0.0
 10
10.7364220791
 20
10.8551842928
 30
0.0
 10
10.7366635037
 20
10.8479149831
 30
0.0
 10
10.7370658817
 20
10.840641611
 30
0.0
 10
10.737629224
 20
10.8333620833
 30
0.0
 10
10.7383535602
 20
10.8260742107
 30
0.0
 10
10.7392389554
 20
10.8187756624
 30
0.0
 10
10.7402855287
 20
10.811463948
 30
0.0
 10
10.7414934732
 20
10.8041364047
 30
0.0
 10
10.7428630777
 20
10.7967901814
 30
0.0
 10
10.7443947548
 20
10.7894221967
 30
0.0
 10
10.7460890728
 20
10.7820291089
 30
0.0
 10
10.7479467895
 20
10.7746072851
 30
0.0
 10
10.7499688814
 20
10.7671527984
 30
0.0
 10
10.7521565736
 20
10.7596614217
 30
0.0
 10
10.7545113753
 20
10.7521285998
 30
0.0
 10
10.7570351186
 20
10.7445494213
 30
0.0
 10
10.7597299993
 20
10.7369185879
 30
0.0
 10
10.7625986139
 20
10.7292304028
 30
0.0
 10
10.7656439939
 20
10.7214787612
 30
0.0
 10
10.7688696432
 20
10.7136571346
 30
0.0
 10
10.7722795862
 20
10.7057585288
 30
0.0
 10
10.7758784097
 20
10.6977754641
 30
0.0
 10
10.7796713305
 20
10.6896999013
 30
0.0
 10
10.7836641996
 20
10.6815233065
 30
0.0
 10
10.7864337356
 20
10.6760581104
 30
0.0
 10
10.7878523885
 20
10.6733073476
 30
0.0
 11
10.7878523885
 21
11.0515958089
 31
0.0
 11
10.7836562006
 21
11.0433129677
 31
0.0
 11
10.7796663339
 21
11.0351401058
 31
0.0
 11
10.7758762607
 21
11.0270681661
 31
0.0
 11
10.7722800972
 21
11.0190885359
 31
0.0
 11
10.7688726577
 21
11.0111932338
 31
0.0
 11
10.7656493547
 21
11.0033747693
 31
0.0
 11
10.7626061828
 21
10.9956261867
 31
0.0
 11
10.7597396435
 21
10.9879409656
 31
0.0
 11
10.75704671
 21
10.9803130106
 31
0.0
 11
10.7545247912
 21
10.9727366358
 31
0.0
 11
10.7521716917
 21
10.9652065442
 31
0.0
 11
10.7499855834
 21
10.9577178349
 31
0.0
 11
10.7479649641
 21
10.9502659803
 31
0.0
 11
10.7461086067
 21
10.9428467496
 31
0.0
 11
10.744415535
 21
10.9354562229
 31
0.0
 11
10.7428849905
 21
10.9280907718
 31
0.0
 11
10.7415164014
 21
10.9207470434
 31
0.0
 11
10.7403093592
 21
10.9134219886
 31
0.0
 11
10.7392635728
 21
10.9061127559
 31
0.0
 11
10.7383788468
 21
10.8988166802
 31
0.0
 11
10.7376550604
 21
10.8915312734
 31
0.0
 11
10.7370921467
 21
10.8842541984
 31
0.0
 11
10.7366900752
 21
10.8769832653
 31
0.0
 11
10.7364488354
 21
10.8697164095
 31
0.0
 11
10.7363684225
 21
10.8624515782
 31
0.0
 11
10.7364488354
 21
10.855186747
 31
0.0
 11
10.7366900752
 21
10.8479198911
 31
0.0
 11
10.7370921467
 21
10.8406489581
 31
0.0
 11
10.7376550604
 21
10.8333718831
 31
0.0
 11
10.7383788468
 21
10.8260864762
 31
0.0
 11
10.7392635728
 21
10.8187904005
 31
0.0
 11
10.7403093592
 21
10.8114811679
 31
0.0
 11
10.7415164014
 21
10.804156113
 31
0.0
 11
10.7428849905
 21
10.7968123847
 31
0.0
 11
10.744415535
 21
10.7894469335
 31
0.0
 11
10.7461086068
 21
10.7820564068
 31
0.0
 11
10.7479649641
 21
10.7746371762
 31
0.0
 11
10.7499855834
 21
10.7671853216
 31
0.0
 11
10.7521716917
 21
10.7596966123
 31
0.0
 11
10.7545247912
 21
10.7521665207
 31
0.0
 11
10.75704671
 21
10.7445901459
 31
0.0
 11
10.7597396435
 21
10.7369621909
 31
0.0
 11
10.7626061828
 21
10.7292769698
 31
0.0
 11
10.7656493547
 21
10.7215283872
 31
0.0
 11
10.7688726577
 21
10.7137099227
 31
0.0
 11
10.7722800972
 21
10.7058146206
 31
0.0
 11
10.7758762607
 21
10.6978349904
 31
0.0
 11
10.7796663339
 21
10.6897630507
 31
0.0
 11
10.7836562006
 21
10.6815901887
 31
0.0
 11
10.7878523885
 21
10.6733073476
 31
0.0
  0
SPLINE
  5
537
100
AcDbEntity
  8
0
100
AcDbSpline
 62
7
  6
CONTINUOUS
 70
0
 71
3
 72
51
 73
47
 74
45
 42
0.0000001
 43
0.0000001
 44
0.0000000001
 12
0.1096693594
 22
-0.3683180118
 32
0.0
 13
-0.1096693594
 23
-0.3683180118
 33
0.0
 40
0.0
 40
0.0
 40
0.0
 40
0.0
 40
0.0242101197
 40
0.0481529977
 40
0.0718544083
 40
0.0953387786
 40
0.11862873
 40
0.1417453972
 40
0.1647083387
 40
0.1875357009
 40
0.2102442435
 40
0.2328493687
 40
0.2553651619
 40
0.2778043797
 40
0.3001785247
 40
0.3224979661
 40
0.3447719642
 40
0.3670087422
 40
0.3892155569
 40
0.4113987349
 40
0.4335639256
 40
0.4557161894
 40
0.4778601221
 40
0.5
 40
0.5221398779
 40
0.5442838106
 40
0.5664360744
 40
0.5886012651
 40
0.6107844431
 40
0.6329912578
 40
0.6552280358
 40
0.6775020339
 40
0.6998214753
 40
0.7221956203
 40
0.7446348381
 40
0.7671506314
 40
0.7897557565
 40
0.8124642991
 40
0.8352916613
 40
0.8582546028
 40
0.88137127
 40
0.9046612214
 40
0.9281455917
 40
0.9518470023
 40
0.9757898803
 40
1.0
 40
1.0
 40
1.0
 40
1.0
 10
11.2232887226
 20
11.0515958089
 30
0.0
 10
11.2241737587
 20
11.0486234679
 30
0.0
 10
11.225903566
 20
11.0427024614
 30
0.0
 10
11.2283905329
 20
11.0338401076
 30
0.0
 10
11.2307564009
 20
11.0250408768
 30
0.0
 10
11.2330027549
 20
11.0162967034
 30
0.0
 10
11.2351307816
 20
11.0076000698
 30
0.0
 10
11.2371412798
 20
10.9989440672
 30
0.0
 10
11.2390346993
 20
10.9903223541
 30
0.0
 10
11.2408111706
 20
10.9817291575
 30
0.0
 10
11.242470541
 20
10.973159256
 30
0.0
 10
11.2440124075
 20
10.9646079795
 30
0.0
 10
11.245436153
 20
10.956071211
 30
0.0
 10
11.246740985
 20
10.9475453825
 30
0.0
 10
11.2479259777
 20
10.9390274589
 30
0.0
 10
11.2489901155
 20
10.9305149152
 30
0.0
 10
11.2499323367
 20
10.9220057122
 30
0.0
 10
11.250751575
 20
10.9134982765
 30
0.0
 10
11.2514468015
 20
10.9049914762
 30
0.0
 10
11.2520170666
 20
10.8964845715
 30
0.0
 10
11.2524615371
 20
10.8879771604
 30
0.0
 10
11.2527795291
 20
10.8794691107
 30
0.0
 10
11.2529705338
 20
10.8709605043
 30
0.0
 10
11.2530342375
 20
10.8624515782
 30
0.0
 10
11.2529705338
 20
10.8539426521
 30
0.0
 10
11.2527795291
 20
10.8454340458
 30
0.0
 10
11.2524615371
 20
10.8369259961
 30
0.0
 10
11.2520170666
 20
10.828418585
 30
0.0
 10
11.2514468015
 20
10.8199116803
 30
0.0
 10
11.250751575
 20
10.81140488
 30
0.0
 10
11.2499323367
 20
10.8028974443
 30
0.0
 10
11.2489901155
 20
10.7943882413
 30
0.0
 10
11.2479259777
 20
10.7858756976
 30
0.0
 10
11.246740985
 20
10.7773577739
 30
0.0
 10
11.245436153
 20
10.7688319455
 30
0.0
 10
11.2440124075
 20
10.760295177
 30
0.0
 10
11.242470541
 20
10.7517439005
 30
0.0
 10
11.2408111706
 20
10.743173999
 30
0.0
 10
11.2390346993
 20
10.7345808023
 30
0.0
 10
11.2371412798
 20
10.7259590893
 30
0.0
 10
11.2351307816
 20
10.7173030867
 30
0.0
 10
11.2330027549
 20
10.7086064531
 30
0.0
 10
11.2307564009
 20
10.6998622797
 30
0.0
 10
11.2283905329
 20
10.6910630489
 30
0.0
 10
11.225903566
 20
10.6822006951
 30
0.0
 10
11.2241737587
 20
10.6762796886
 30
0.0
 10
11.2232887226
 20
10.6733073476
 30
0.0
 11
11.2232887226
 21
11.0515958089
 31
0.0
 11
11.2258971967
 21
11.0426650327
 31
0.0
 11
11.2283826544
 21
11.0338058616
 31
0.0
 11
11.2307470996
 21
11.025009683
 31
0.0
 11
11.2329921337
 21
11.0162683616
 31
0.0
 11
11.2351189298
 21
11.0075744216
 31
0.0
 11
11.2371282874
 21
10.9989209414
 31
0.0
 11
11.2390206496
 21
10.9903015996
 31
0.0
 11
11.2407961448
 21
10.9817106252
 31
0.0
 11
11.242454618
 21
10.9731428
 31
0.0
 11
11.243995664
 21
10.9645934577
 31
0.0
 11
11.245418665
 21
10.956058479
 31
0.0
 11
11.2467228257
 21
10.947534304
 31
0.0
 11
11.2479072173
 21
10.9390179116
 31
0.0
 11
11.2489708234
 21
10.9305067783
 31
0.0
 11
11.2499125803
 21
10.9219988726
 31
0.0
 11
11.2507314206
 21
10.913492628
 31
0.0
 11
11.2514263144
 21
10.9049869152
 31
0.0
 11
11.251996309
 21
10.8964810245
 31
0.0
 11
11.2524405705
 21
10.8879745627
 31
0.0
 11
11.252758414
 21
10.879467411
 31
0.0
 11
11.25294933
 21
10.8709596673
 31
0.0
 11
11.2530130042
 21
10.8624515782
 31
0.0
 11
11.25294933
 21
10.8539434892
 31
0.0
 11
11.252758414
 21
10.8454357455
 31
0.0
 11
11.2524405705
 21
10.8369285938
 31
0.0
 11
11.251996309
 21
10.828422132
 31
0.0
 11
11.2514263144
 21
10.8199162413
 31
0.0
 11
11.2507314206
 21
10.8114105285
 31
0.0
 11
11.2499125803
 21
10.8029042839
 31
0.0
 11
11.2489708234
 21
10.7943963782
 31
0.0
 11
11.2479072173
 21
10.7858852449
 31
0.0
 11
11.2467228257
 21
10.7773688525
 31
0.0
 11
11.245418665
 21
10.7688446775
 31
0.0
 11
11.243995664
 21
10.7603096987
 31
0.0
 11
11.242454618
 21
10.7517603565
 31
0.0
 11
11.2407961448
 21
10.7431925312
 31
0.0
 11
11.2390206496
 21
10.7346015568
 31
0.0
 11
11.2371282874
 21
10.725982215
 31
0.0
 11
11.2351189298
 21
10.7173287349
 31
0.0
 11
11.2329921337
 21
10.7086347949
 31
0.0
 11
11.2307470996
 21
10.6998934735
 31
0.0
 11
11.2283826544
 21
10.6910972949
 31
0.0
 11
11.2258971967
 21
10.6822381238
 31
0.0
 11
11.2232887226
 21
10.6733073476
 31
0.0
  0
ENDSEC
  0
SECTION
  2
OBJECTS
  0
DICTIONARY
  5
C
100
AcDbDictionary
280
0
281
1
  3
ACAD_GROUP
350
D
  3
ACAD_MLINESTYLE
350
17
  3
ACAD_LAYOUT
350
1A
  3
ACAD_PLOTSETTINGS
350
19
  3
ACAD_PLOTSTYLENAME
350
E
  0
DICTIONARY
  5
D
102
{ACAD_REACTORS
330
C
102
}
100
AcDbDictionary
280
0
281
1
  0
ACDBDICTIONARYWDFLT
  5
E
102
{ACAD_REACTORS
330
C
102
}
100
AcDbDictionary
281
1
  3
Normal
350
F
100
AcDbDictionaryWithDefault
340
F
  0
DICTIONARY
  5
17
102
{ACAD_REACTORS
330
C
102
}
100
AcDbDictionary
280
0
281
1
  3
Standard
350
18
  0
DICTIONARY
  5
19
102
{ACAD_REACTORS
330
C
102
}
100
AcDbDictionary
281
1
  0
DICTIONARY
  5
1A
102
{ACAD_REACTORS
330
C
102
}
100
AcDbDictionary
281
1
  3
Layout1
350
1E
  3
Model
350
22
  0
ACDBPLACEHOLDER
  5
F
102
{ACAD_REACTORS
330
E
102
}
  0
MLINESTYLE
  5
18
102
{ACAD_REACTORS
330
17
102
}
100
AcDbMlineStyle
  2
STANDARD
 70
0
  3

 62
256
 51
90.0
 52
90.0
 71
2
 49
0.5
 62
256
  6
BYLAYER
 49
-0.5
 62
256
  6
BYLAYER
  0
LAYOUT
  5
1E
102
{ACAD_REACTORS
330
1A
102
}
100
AcDbPlotSettings
  1

  2

  4

  6

 40
0.0
 41
0.0
 42
0.0
 43
0.0
 44
0.0
 45
0.0
 46
0.0
 47
0.0
 48
0.0
 49
0.0
140
0.0
141
0.0
142
1.0
143
1.0
 70
0
 72
0
 73
0
 74
0
  7

 75
0
147
1.0
148
0.0
149
0.0
100
AcDbLayout
  1
Layout1
 70
0
 71
0
 10
0.0
 20
0.0
 11
0.0
 21
0.0
 12
0.0
 22
0.0
 32
0.0
 14
0.0
 24
0.0
 34
0.0
 15
0.0
 25
0.0
 35
0.0
146
0.0
 13
0.0
 23
0.0
 33
0.0
 16
0.0
 26
0.0
 36
0.0
 17
0.0
 27
0.0
 37
0.0
 76
0
330
1B
331
0
345
0
346
0
  0
LAYOUT
  5
22
102
{ACAD_REACTORS
330
1A
102
}
100
AcDbPlotSettings
  1

  2

  4

  6

 40
0.0
 41
0.0
 42
0.0
 43
0.0
 44
0.0
 45
0.0
 46
0.0
 47
0.0
 48
0.0
 49
0.0
140
0.0
141
0.0
142
1.0
143
1.0
 70
0
 72
0
 73
0
 74
0
  7

 75
0
147
1.0
148
0.0
149
0.0
100
AcDbLayout
  1
Model
 70
0
 71
0
 10
0.0
 20
0.0
 11
0.0
 21
0.0
 12
0.0
 22
0.0
 32
0.0
 14
0.0
 24
0.0
 34
0.0
 15
0.0
 25
0.0
 35
0.0
146
0.0
 13
0.0
 23
0.0
 33
0.0
 16
0.0
 26
0.0
 36
0.0
 17
0.0
 27
0.0
 37
0.0
 76
0
330
1F
331
0
345
0
346
0
  0
ENDSEC
  0
EOF
