999
DXF file: FMK_5.dxf
999
Pro/ENGINEER 2006240 by Parametric Technology Corporation
  0
SECTION
  2
HEADER
  9
$ACADVER
  1
AC1015
  9
$DWGCODEPAGE
  3
ANSI_1252
  9
$EXTMAX
 10
22.0
 20
17.0
 30
0.0
  9
$EXTMIN
 10
0.0
 20
0.0
 30
0.0
  9
$LIMMIN
 10
0.0
 20
0.0
  9
$LIMMAX
 10
22.0
 20
17.0
  9
$VIEWCTR
 10
11.0
 20
8.5
  9
$VIEWSIZE
 40
17.0
  9
$CLAYER
  8
0
  9
$LTSCALE
 40
1.21
  9
$CELTYPE
  6
BYLAYER
  9
$DIMSCALE
 40
1.0
  9
$DIMASZ
 40
0.1875
  9
$DIMEXO
 40
0.1375
  9
$DIMDLI
 40
0.836
  9
$DIMEXE
 40
0.396
  9
$DIMCEN
 40
0.198
  9
$DIMLFAC
 40
1.0
  9
$DIMBLK
  1
_CLOSED
  9
$DIMTXT
 40
0.15625
  9
$DIMTOL
 70
0
  9
$DIMLIM
 70
0
  9
$DIMTFAC
 40
1.0
  9
$PDMODE
 70
3
  9
$PDSIZE
 40
0.3125
  9
$HANDSEED
  5
53E
  9
$MEASUREMENT
 70
0
  9
$INSUNITS
 70
1
  0
ENDSEC
  0
SECTION
  2
CLASSES
  0
CLASS
  1
ACDBDICTIONARYWDFLT
  2
AcDbDictionaryWithDefault
  3
AutoCAD 2000
 90
0
280
0
281
0
  0
CLASS
  1
ACDBPLACEHOLDER
  2
AcDbPlaceHolder
  3
AutoCAD 2000
 90
0
280
0
281
0
  0
CLASS
  1
LAYOUT
  2
AcDbLayout
  3
AutoCAD 2000
 90
0
280
0
281
0
  0
ENDSEC
  0
SECTION
  2
TABLES
  0
TABLE
  2
VPORT
  5
8
100
AcDbSymbolTable
 70
2
  0
VPORT
  5
1F4
100
AcDbSymbolTableRecord
100
AcDbViewportTableRecord
  2
*ACTIVE
 70
0
 10
0.0
 20
0.0
 11
1.0
 21
1.0
 12
11.0
 22
8.5
 13
0.0
 23
0.0
 14
1.0
 24
1.0
 15
0.0
 25
0.0
 16
0.0
 26
0.0
 36
1.0
 17
0.0
 27
0.0
 37
0.0
 40
17.0
 41
1.2941176471
 42
50.0
 43
0.0
 44
0.0
 50
0.0
 51
0.0
 71
0
 72
100
 73
1
 74
1
 75
0
 76
0
 77
0
 78
0
  0
ENDTAB
  0
TABLE
  2
LTYPE
  5
5
100
AcDbSymbolTable
 70
6
  0
LTYPE
  5
14
100
AcDbSymbolTableRecord
100
AcDbLinetypeTableRecord
  2
BYBLOCK
 70
0
  3

 72
65
 73
0
 40
0.0
  0
LTYPE
  5
15
100
AcDbSymbolTableRecord
100
AcDbLinetypeTableRecord
  2
BYLAYER
 70
0
  3

 72
65
 73
0
 40
0.0
  0
LTYPE
  5
16
100
AcDbSymbolTableRecord
100
AcDbLinetypeTableRecord
  2
CONTINUOUS
 70
64
  3
Solid line
 72
65
 73
0
 40
0.0
  0
LTYPE
  5
1F5
100
AcDbSymbolTableRecord
100
AcDbLinetypeTableRecord
  2
CENTER
 70
64
  3
____ _ ____ _ ____ _ ____ _ ____ _ ____ _ ____
 72
65
 73
4
 40
0.6
 49
0.375
 74
0
 49
-0.075
 74
0
 49
0.075
 74
0
 49
-0.075
 74
0
  0
LTYPE
  5
1F6
100
AcDbSymbolTableRecord
100
AcDbLinetypeTableRecord
  2
HIDDEN
 70
64
  3
- - - - - - - - - - - - - - - - - - - -
 72
65
 73
2
 40
0.2
 49
0.1
 74
0
 49
-0.1
 74
0
  0
LTYPE
  5
1F7
100
AcDbSymbolTableRecord
100
AcDbLinetypeTableRecord
  2
PHANTOM
 70
64
  3
_____ _ _ _____ _ _ _____ _ _ _____
 72
65
 73
6
 40
0.8
 49
0.45
 74
0
 49
-0.05
 74
0
 49
0.1
 74
0
 49
-0.05
 74
0
 49
0.1
 74
0
 49
-0.05
 74
0
  0
LTYPE
  5
1F8
100
AcDbSymbolTableRecord
100
AcDbLinetypeTableRecord
  2
DOT
 70
64
  3
. . . . . . . . . . . . . . . . . . . .
 72
65
 73
2
 40
0.2
 49
0.1
 74
0
 49
-0.1
 74
0
  0
LTYPE
  5
1F9
100
AcDbSymbolTableRecord
100
AcDbLinetypeTableRecord
  2
DASHED
 70
64
  3
- - - - - - - - - - - - - - - - - - - -
 72
65
 73
2
 40
0.2
 49
0.1
 74
0
 49
-0.1
 74
0
  0
ENDTAB
  0
TABLE
  2
LAYER
  5
2
100
AcDbSymbolTable
 70
36
  0
LAYER
  5
10
100
AcDbSymbolTableRecord
100
AcDbLayerTableRecord
  2
0
 70
0
 62
7
  6
CONTINUOUS
370
-3
390
F
  0
LAYER
  5
1FA
100
AcDbSymbolTableRecord
100
AcDbLayerTableRecord
  2
DEFAULT_1
 70
0
 62
7
  6
CENTER
370
-3
390
F
  0
LAYER
  5
1FB
100
AcDbSymbolTableRecord
100
AcDbLayerTableRecord
  2
DEFAULT_2
 70
0
 62
8
  6
HIDDEN
370
-3
390
F
  0
LAYER
  5
1FC
100
AcDbSymbolTableRecord
100
AcDbLayerTableRecord
  2
DEFAULT_3
 70
0
 62
7
  6
PHANTOM
370
-3
390
F
  0
LAYER
  5
1FD
100
AcDbSymbolTableRecord
100
AcDbLayerTableRecord
  2
01_ALL_DTM_PLN
 70
0
 62
7
  6
CONTINUOUS
370
-3
390
F
  0
LAYER
  5
1FE
100
AcDbSymbolTableRecord
100
AcDbLayerTableRecord
  2
01__ASM_ALL_DTM_PLN
 70
0
 62
7
  6
CONTINUOUS
370
-3
390
F
  0
LAYER
  5
1FF
100
AcDbSymbolTableRecord
100
AcDbLayerTableRecord
  2
01__ASM_DEF_DTM_PLN
 70
0
 62
7
  6
CONTINUOUS
370
-3
390
F
  0
LAYER
  5
200
100
AcDbSymbolTableRecord
100
AcDbLayerTableRecord
  2
01___PRT_ALL_DTM_PLN
 70
0
 62
7
  6
CONTINUOUS
370
-3
390
F
  0
LAYER
  5
201
100
AcDbSymbolTableRecord
100
AcDbLayerTableRecord
  2
01___PRT_DEF_DTM_PLN
 70
0
 62
7
  6
CONTINUOUS
370
-3
390
F
  0
LAYER
  5
202
100
AcDbSymbolTableRecord
100
AcDbLayerTableRecord
  2
02_ALL_AXES
 70
0
 62
7
  6
CONTINUOUS
370
-3
390
F
  0
LAYER
  5
203
100
AcDbSymbolTableRecord
100
AcDbLayerTableRecord
  2
02__ASM_ALL_AXES
 70
0
 62
7
  6
CONTINUOUS
370
-3
390
F
  0
LAYER
  5
204
100
AcDbSymbolTableRecord
100
AcDbLayerTableRecord
  2
02___PRT_ALL_AXES
 70
0
 62
7
  6
CONTINUOUS
370
-3
390
F
  0
LAYER
  5
205
100
AcDbSymbolTableRecord
100
AcDbLayerTableRecord
  2
03_ALL_CURVES
 70
0
 62
7
  6
CONTINUOUS
370
-3
390
F
  0
LAYER
  5
206
100
AcDbSymbolTableRecord
100
AcDbLayerTableRecord
  2
03__ASM_ALL_CURVES
 70
0
 62
7
  6
CONTINUOUS
370
-3
390
F
  0
LAYER
  5
207
100
AcDbSymbolTableRecord
100
AcDbLayerTableRecord
  2
03___PRT_ALL_CURVES
 70
0
 62
7
  6
CONTINUOUS
370
-3
390
F
  0
LAYER
  5
208
100
AcDbSymbolTableRecord
100
AcDbLayerTableRecord
  2
04_ALL_DTM_PNT
 70
0
 62
7
  6
CONTINUOUS
370
-3
390
F
  0
LAYER
  5
209
100
AcDbSymbolTableRecord
100
AcDbLayerTableRecord
  2
04__ASM_ALL_DTM_PNT
 70
0
 62
7
  6
CONTINUOUS
370
-3
390
F
  0
LAYER
  5
20A
100
AcDbSymbolTableRecord
100
AcDbLayerTableRecord
  2
04___PRT_ALL_DTM_PNT
 70
0
 62
7
  6
CONTINUOUS
370
-3
390
F
  0
LAYER
  5
20B
100
AcDbSymbolTableRecord
100
AcDbLayerTableRecord
  2
05_ALL_DTM_CSYS
 70
0
 62
7
  6
CONTINUOUS
370
-3
390
F
  0
LAYER
  5
20C
100
AcDbSymbolTableRecord
100
AcDbLayerTableRecord
  2
05__ASM_ALL_DTM_CSYS
 70
0
 62
7
  6
CONTINUOUS
370
-3
390
F
  0
LAYER
  5
20D
100
AcDbSymbolTableRecord
100
AcDbLayerTableRecord
  2
05__ASM_DEF_DTM_CSYS
 70
0
 62
7
  6
CONTINUOUS
370
-3
390
F
  0
LAYER
  5
20E
100
AcDbSymbolTableRecord
100
AcDbLayerTableRecord
  2
05___PRT_ALL_DTM_CSYS
 70
0
 62
7
  6
CONTINUOUS
370
-3
390
F
  0
LAYER
  5
20F
100
AcDbSymbolTableRecord
100
AcDbLayerTableRecord
  2
05___PRT_DEF_DTM_CSYS
 70
0
 62
7
  6
CONTINUOUS
370
-3
390
F
  0
LAYER
  5
210
100
AcDbSymbolTableRecord
100
AcDbLayerTableRecord
  2
06_ALL_SURFS
 70
0
 62
7
  6
CONTINUOUS
370
-3
390
F
  0
LAYER
  5
211
100
AcDbSymbolTableRecord
100
AcDbLayerTableRecord
  2
06__ASM_ALL_SURFS
 70
0
 62
7
  6
CONTINUOUS
370
-3
390
F
  0
LAYER
  5
212
100
AcDbSymbolTableRecord
100
AcDbLayerTableRecord
  2
06___PRT_ALL_SURFS
 70
0
 62
7
  6
CONTINUOUS
370
-3
390
F
  0
LAYER
  5
213
100
AcDbSymbolTableRecord
100
AcDbLayerTableRecord
  2
07__ASM_ALL_SKELETONS
 70
0
 62
7
  6
CONTINUOUS
370
-3
390
F
  0
LAYER
  5
214
100
AcDbSymbolTableRecord
100
AcDbLayerTableRecord
  2
COPY_GEO_FET
 70
0
 62
7
  6
CONTINUOUS
370
-3
390
F
  0
LAYER
  5
215
100
AcDbSymbolTableRecord
100
AcDbLayerTableRecord
  2
COSMETIC
 70
0
 62
7
  6
CONTINUOUS
370
-3
390
F
  0
LAYER
  5
216
100
AcDbSymbolTableRecord
100
AcDbLayerTableRecord
  2
CUT_REF_SURF
 70
0
 62
7
  6
CONTINUOUS
370
-3
390
F
  0
LAYER
  5
217
100
AcDbSymbolTableRecord
100
AcDbLayerTableRecord
  2
DATESTAMP
 70
0
 62
7
  6
CONTINUOUS
370
-3
390
F
  0
LAYER
  5
218
100
AcDbSymbolTableRecord
100
AcDbLayerTableRecord
  2
DATUM
 70
0
 62
7
  6
CONTINUOUS
370
-3
390
F
  0
LAYER
  5
219
100
AcDbSymbolTableRecord
100
AcDbLayerTableRecord
  2
DATUM_B
 70
0
 62
7
  6
CONTINUOUS
370
-3
390
F
  0
LAYER
  5
21A
100
AcDbSymbolTableRecord
100
AcDbLayerTableRecord
  2
DATUM_PLANES
 70
0
 62
7
  6
CONTINUOUS
370
-3
390
F
  0
LAYER
  5
21B
100
AcDbSymbolTableRecord
100
AcDbLayerTableRecord
  2
DIM
 70
0
 62
7
  6
CONTINUOUS
370
-3
390
F
  0
LAYER
  5
21C
100
AcDbSymbolTableRecord
100
AcDbLayerTableRecord
  2
DIM_1
 70
0
 62
7
  6
CONTINUOUS
370
-3
390
F
  0
LAYER
  5
21D
100
AcDbSymbolTableRecord
100
AcDbLayerTableRecord
  2
DIM_2
 70
0
 62
7
  6
CONTINUOUS
370
-3
390
F
  0
LAYER
  5
21E
100
AcDbSymbolTableRecord
100
AcDbLayerTableRecord
  2
DIM_3
 70
0
 62
7
  6
CONTINUOUS
370
-3
390
F
  0
LAYER
  5
21F
100
AcDbSymbolTableRecord
100
AcDbLayerTableRecord
  2
DIM_4
 70
0
 62
7
  6
CONTINUOUS
370
-3
390
F
  0
LAYER
  5
220
100
AcDbSymbolTableRecord
100
AcDbLayerTableRecord
  2
DIM_5
 70
0
 62
7
  6
CONTINUOUS
370
-3
390
F
  0
LAYER
  5
221
100
AcDbSymbolTableRecord
100
AcDbLayerTableRecord
  2
DIM_6
 70
0
 62
7
  6
CONTINUOUS
370
-3
390
F
  0
LAYER
  5
222
100
AcDbSymbolTableRecord
100
AcDbLayerTableRecord
  2
DTM
 70
0
 62
7
  6
CONTINUOUS
370
-3
390
F
  0
LAYER
  5
223
100
AcDbSymbolTableRecord
100
AcDbLayerTableRecord
  2
EXT_COPY_GEO
 70
0
 62
7
  6
CONTINUOUS
370
-3
390
F
  0
LAYER
  5
224
100
AcDbSymbolTableRecord
100
AcDbLayerTableRecord
  2
FMK_10
 70
0
 62
7
  6
CONTINUOUS
370
-3
390
F
  0
LAYER
  5
225
100
AcDbSymbolTableRecord
100
AcDbLayerTableRecord
  2
FMK_2
 70
0
 62
7
  6
CONTINUOUS
370
-3
390
F
  0
LAYER
  5
226
100
AcDbSymbolTableRecord
100
AcDbLayerTableRecord
  2
FMK_5
 70
0
 62
7
  6
CONTINUOUS
370
-3
390
F
  0
LAYER
  5
227
100
AcDbSymbolTableRecord
100
AcDbLayerTableRecord
  2
FMK_6
 70
0
 62
7
  6
CONTINUOUS
370
-3
390
F
  0
LAYER
  5
228
100
AcDbSymbolTableRecord
100
AcDbLayerTableRecord
  2
FMK_7
 70
0
 62
7
  6
CONTINUOUS
370
-3
390
F
  0
LAYER
  5
229
100
AcDbSymbolTableRecord
100
AcDbLayerTableRecord
  2
FMK_8
 70
0
 62
7
  6
CONTINUOUS
370
-3
390
F
  0
LAYER
  5
22A
100
AcDbSymbolTableRecord
100
AcDbLayerTableRecord
  2
LS
 70
0
 62
7
  6
CONTINUOUS
370
-3
390
F
  0
LAYER
  5
22B
100
AcDbSymbolTableRecord
100
AcDbLayerTableRecord
  2
ORIGIN
 70
0
 62
7
  6
CONTINUOUS
370
-3
390
F
  0
LAYER
  5
22C
100
AcDbSymbolTableRecord
100
AcDbLayerTableRecord
  2
PARTNUMBER
 70
0
 62
7
  6
CONTINUOUS
370
-3
390
F
  0
LAYER
  5
22D
100
AcDbSymbolTableRecord
100
AcDbLayerTableRecord
  2
PORT_AREAS
 70
0
 62
7
  6
CONTINUOUS
370
-3
390
F
  0
LAYER
  5
22E
100
AcDbSymbolTableRecord
100
AcDbLayerTableRecord
  2
TEXT
 70
0
 62
7
  6
CONTINUOUS
370
-3
390
F
  0
LAYER
  5
22F
100
AcDbSymbolTableRecord
100
AcDbLayerTableRecord
  2
THREAD
 70
0
 62
7
  6
CONTINUOUS
370
-3
390
F
  0
LAYER
  5
230
100
AcDbSymbolTableRecord
100
AcDbLayerTableRecord
  2
THREADS
 70
0
 62
7
  6
CONTINUOUS
370
-3
390
F
  0
ENDTAB
  0
TABLE
  2
STYLE
  5
3
100
AcDbSymbolTable
 70
1
  0
STYLE
  5
11
100
AcDbSymbolTableRecord
100
AcDbTextStyleTableRecord
  2
STANDARD
 70
0
 40
0.0
 41
0.8
 50
0.0
 71
0
 42
0.2
  3
txt
  4

  0
ENDTAB
  0
TABLE
  2
VIEW
  5
6
100
AcDbSymbolTable
 70
0
  0
ENDTAB
  0
TABLE
  2
UCS
  5
7
100
AcDbSymbolTable
 70
0
  0
ENDTAB
  0
TABLE
  2
APPID
  5
9
100
AcDbSymbolTable
 70
1
  0
APPID
  5
231
100
AcDbSymbolTableRecord
100
AcDbRegAppTableRecord
  2
ACAD
 70
0
  0
ENDTAB
  0
TABLE
  2
BLOCK_RECORD
  5
1
100
AcDbSymbolTable
 70
0
  0
BLOCK_RECORD
  5
1F
100
AcDbSymbolTableRecord
100
AcDbBlockTableRecord
  2
*MODEL_SPACE
  0
BLOCK_RECORD
  5
1B
100
AcDbSymbolTableRecord
100
AcDbBlockTableRecord
  2
*PAPER_SPACE
  0
ENDTAB
  0
TABLE
  2
DIMSTYLE
  5
A
100
AcDbSymbolTable
 70
1
100
AcDbDimStyleTable
 71
0
  0
DIMSTYLE
105
232
100
AcDbSymbolTableRecord
100
AcDbDimStyleTableRecord
  2
STANDARD
 70
0
  3

  4

 40
1.0
 41
0.1875
 42
0.0625
 43
0.38
 44
0.18
 45
0.0
 46
0.0
 47
0.01
 48
0.01
140
0.15625
141
0.09
142
0.0
143
25.4
144
1.0
145
0.0
146
1.0
147
0.09
 71
0.0
 72
0.0
 73
1
 74
1
 75
0
 76
0
 77
0
 78
4
170
0
171
2
172
0
173
0
174
0
175
0
176
0
177
0
178
0
270
2
271
2
272
2
273
2
274
2
275
0
280
0
281
0
282
0
283
1
284
4
285
0
286
0
287
3
288
0
340
11
  0
ENDTAB
  0
ENDSEC
  0
SECTION
  2
BLOCKS
  0
BLOCK
  5
20
100
AcDbEntity
  8
0
100
AcDbBlockBegin
  2
*MODEL_SPACE
 70
0
 10
0.0
 20
0.0
 30
0.0
  3
*MODEL_SPACE
  1

  0
ENDBLK
  5
21
100
AcDbEntity
  8
0
100
AcDbBlockEnd
  0
BLOCK
  5
1C
100
AcDbEntity
  8
0
100
AcDbBlockBegin
  2
*PAPER_SPACE
 70
0
 10
0.0
 20
0.0
 30
0.0
  3
*PAPER_SPACE
  1

  0
ENDBLK
  5
1D
100
AcDbEntity
  8
0
100
AcDbBlockEnd
  0
ENDSEC
  0
SECTION
  2
ENTITIES
  0
LINE
  5
233
100
AcDbEntity
  8
03__ASM_ALL_CURVES
100
AcDbLine
 62
4
  6
CONTINUOUS
 10
8.0209880923
 20
11.2776286594
 11
8.0284880923
 21
11.2876286642
  0
LINE
  5
234
100
AcDbEntity
  8
03__ASM_ALL_CURVES
100
AcDbLine
 62
4
  6
CONTINUOUS
 10
8.0434880923
 20
11.2276286606
 11
8.0284880923
 21
11.2076286618
  0
LINE
  5
235
100
AcDbEntity
  8
03__ASM_ALL_CURVES
100
AcDbLine
 62
4
  6
CONTINUOUS
 10
8.0809880923
 20
11.2576286642
 11
8.0734880923
 21
11.2476286594
  0
LINE
  5
236
100
AcDbEntity
  8
03__ASM_ALL_CURVES
100
AcDbLine
 62
4
  6
CONTINUOUS
 10
7.8443300923
 20
7.2698586618
 11
7.8515494239
 21
7.2644441618
  0
LINE
  5
237
100
AcDbEntity
  8
03__ASM_ALL_CURVES
100
AcDbLine
 62
4
  6
CONTINUOUS
 10
7.8298914239
 20
7.2319571618
 11
7.8226720923
 21
7.2427861618
  0
LINE
  5
238
100
AcDbEntity
  8
03__ASM_ALL_CURVES
100
AcDbLine
 62
4
  6
CONTINUOUS
 10
7.8515494239
 20
7.2644441618
 11
7.8587687607
 21
7.2536151618
  0
LINE
  5
239
100
AcDbEntity
  8
03__ASM_ALL_CURVES
100
AcDbLine
 62
4
  6
CONTINUOUS
 10
7.9020847588
 20
7.2644441618
 11
7.9093040923
 21
7.2536151618
  0
LINE
  5
23A
100
AcDbEntity
  8
03__ASM_ALL_CURVES
100
AcDbLine
 62
4
  6
CONTINUOUS
 10
7.8298914239
 20
7.4918531618
 11
7.8226720923
 21
7.5026821618
  0
LINE
  5
23B
100
AcDbEntity
  8
03__ASM_ALL_CURVES
100
AcDbLine
 62
4
  6
CONTINUOUS
 10
7.8659880923
 20
7.4918531618
 11
7.8587687607
 21
7.5026821618
  0
LINE
  5
23C
100
AcDbEntity
  8
03__ASM_ALL_CURVES
100
AcDbLine
 62
4
  6
CONTINUOUS
 10
7.8515494239
 20
7.5243401618
 11
7.8587687607
 21
7.5135111618
  0
LINE
  5
23D
100
AcDbEntity
  8
03__ASM_ALL_CURVES
100
AcDbLine
 62
4
  6
CONTINUOUS
 10
8.0284880923
 20
11.2876286642
 11
8.0434880923
 21
11.2976286618
  0
LINE
  5
23E
100
AcDbEntity
  8
03__ASM_ALL_CURVES
100
AcDbLine
 62
4
  6
CONTINUOUS
 10
8.0734880923
 20
11.2476286594
 11
8.0434880923
 21
11.2276286606
  0
LINE
  5
23F
100
AcDbEntity
  8
03__ASM_ALL_CURVES
100
AcDbLine
 62
4
  6
CONTINUOUS
 10
7.8876460923
 20
7.2752731618
 11
7.9020847588
 21
7.2644441618
  0
LINE
  5
240
100
AcDbEntity
  8
03__ASM_ALL_CURVES
100
AcDbLine
 62
4
  6
CONTINUOUS
 10
7.8371107607
 20
7.4864386618
 11
7.8298914239
 21
7.4918531618
  0
LINE
  5
241
100
AcDbEntity
  8
03__ASM_ALL_CURVES
100
AcDbLine
 62
4
  6
CONTINUOUS
 10
7.8804267581
 20
7.4810241618
 11
7.8659880923
 21
7.4918531618
  0
LINE
  5
242
100
AcDbEntity
  8
03__ASM_ALL_CURVES
100
AcDbLine
 62
4
  6
CONTINUOUS
 10
7.8443300923
 20
7.5297546618
 11
7.8515494239
 21
7.5243401618
  0
LINE
  5
243
100
AcDbEntity
  8
03__ASM_ALL_CURVES
100
AcDbLine
 62
4
  6
CONTINUOUS
 10
7.8876460923
 20
7.5351691618
 11
7.9020847588
 21
7.5243401618
  0
LINE
  5
244
100
AcDbEntity
  8
03__ASM_ALL_CURVES
100
AcDbLine
 62
4
  6
CONTINUOUS
 10
7.9020847588
 20
7.5243401618
 11
7.9093040923
 21
7.5135111618
  0
LINE
  5
245
100
AcDbEntity
  8
03__ASM_ALL_CURVES
100
AcDbLine
 62
4
  6
CONTINUOUS
 10
7.8298914239
 20
7.7517491618
 11
7.8226720923
 21
7.7625781618
  0
LINE
  5
246
100
AcDbEntity
  8
03__ASM_ALL_CURVES
100
AcDbLine
 62
4
  6
CONTINUOUS
 10
7.8659880923
 20
7.7517491618
 11
7.8587687607
 21
7.7625781618
  0
LINE
  5
247
100
AcDbEntity
  8
03__ASM_ALL_CURVES
100
AcDbLine
 62
4
  6
CONTINUOUS
 10
7.8515494239
 20
7.7842361618
 11
7.8587687607
 21
7.7734071618
  0
LINE
  5
248
100
AcDbEntity
  8
03__ASM_ALL_CURVES
100
AcDbLine
 62
4
  6
CONTINUOUS
 10
7.8298914239
 20
7.8437956618
 11
7.8226720923
 21
7.8546246618
  0
LINE
  5
249
100
AcDbEntity
  8
03__ASM_ALL_CURVES
100
AcDbLine
 62
4
  6
CONTINUOUS
 10
7.9020847588
 20
7.7842361618
 11
7.9093040923
 21
7.7734071618
  0
LINE
  5
24A
100
AcDbEntity
  8
03__ASM_ALL_CURVES
100
AcDbLine
 62
4
  6
CONTINUOUS
 10
7.9020847588
 20
7.8654536618
 11
7.9093040923
 21
7.8546246618
  0
LINE
  5
24B
100
AcDbEntity
  8
03__ASM_ALL_CURVES
100
AcDbLine
 62
4
  6
CONTINUOUS
 10
7.8226720923
 20
8.1361786618
 11
7.8226720923
 21
8.0928626618
  0
LINE
  5
24C
100
AcDbEntity
  8
03__ASM_ALL_CURVES
100
AcDbLine
 62
4
  6
CONTINUOUS
 10
7.8226720923
 20
8.0495466618
 11
7.8226720923
 21
8.0062306618
  0
LINE
  5
24D
100
AcDbEntity
  8
03__ASM_ALL_CURVES
100
AcDbLine
 62
4
  6
CONTINUOUS
 10
7.8226720923
 20
7.2427861618
 11
7.8226720923
 21
7.2536151618
  0
LINE
  5
24E
100
AcDbEntity
  8
03__ASM_ALL_CURVES
100
AcDbLine
 62
4
  6
CONTINUOUS
 10
7.8226720923
 20
7.5026821618
 11
7.8226720923
 21
7.5135111618
  0
LINE
  5
24F
100
AcDbEntity
  8
03__ASM_ALL_CURVES
100
AcDbLine
 62
4
  6
CONTINUOUS
 10
7.8226720923
 20
7.7625781618
 11
7.8226720923
 21
7.7734071618
  0
LINE
  5
250
100
AcDbEntity
  8
03__ASM_ALL_CURVES
100
AcDbLine
 62
4
  6
CONTINUOUS
 10
8.0284880923
 20
11.2076286618
 11
8.0209880923
 21
11.1776286618
  0
LINE
  5
251
100
AcDbEntity
  8
03__ASM_ALL_CURVES
100
AcDbLine
 62
4
  6
CONTINUOUS
 10
7.8226720923
 20
7.6867751618
 11
7.8371107607
 21
7.6759461618
  0
LINE
  5
252
100
AcDbEntity
  8
03__ASM_ALL_CURVES
100
AcDbLine
 62
4
  6
CONTINUOUS
 10
7.8371107607
 20
7.7463346618
 11
7.8298914239
 21
7.7517491618
  0
LINE
  5
253
100
AcDbEntity
  8
03__ASM_ALL_CURVES
100
AcDbLine
 62
4
  6
CONTINUOUS
 10
7.8804267581
 20
7.7409201618
 11
7.8659880923
 21
7.7517491618
  0
LINE
  5
254
100
AcDbEntity
  8
03__ASM_ALL_CURVES
100
AcDbLine
 62
4
  6
CONTINUOUS
 10
7.8443300923
 20
7.7896506618
 11
7.8515494239
 21
7.7842361618
  0
LINE
  5
255
100
AcDbEntity
  8
03__ASM_ALL_CURVES
100
AcDbLine
 62
4
  6
CONTINUOUS
 10
7.8876460923
 20
7.7950651618
 11
7.9020847588
 21
7.7842361618
  0
LINE
  5
256
100
AcDbEntity
  8
03__ASM_ALL_CURVES
100
AcDbLine
 62
4
  6
CONTINUOUS
 10
7.8371107607
 20
7.8383811618
 11
7.8298914239
 21
7.8437956618
  0
LINE
  5
257
100
AcDbEntity
  8
03__ASM_ALL_CURVES
100
AcDbLine
 62
4
  6
CONTINUOUS
 10
7.8587687607
 20
7.2427861618
 11
7.8587687607
 21
7.2536151618
  0
LINE
  5
258
100
AcDbEntity
  8
03__ASM_ALL_CURVES
100
AcDbLine
 62
4
  6
CONTINUOUS
 10
7.8587687607
 20
7.5026821618
 11
7.8587687607
 21
7.5135111618
  0
LINE
  5
259
100
AcDbEntity
  8
03__ASM_ALL_CURVES
100
AcDbLine
 62
4
  6
CONTINUOUS
 10
7.8587687607
 20
7.7625781618
 11
7.8587687607
 21
7.7734071618
  0
LINE
  5
25A
100
AcDbEntity
  8
03__ASM_ALL_CURVES
100
AcDbLine
 62
4
  6
CONTINUOUS
 10
7.8659880923
 20
8.5909966618
 11
7.8659880923
 21
8.3311006618
  0
LINE
  5
25B
100
AcDbEntity
  8
0
100
AcDbLine
 62
7
  6
CONTINUOUS
 10
7.8659881286
 20
8.6776286618
 11
7.8659881286
 21
11.6776286618
  0
LINE
  5
25C
100
AcDbEntity
  8
03__ASM_ALL_CURVES
100
AcDbLine
 62
4
  6
CONTINUOUS
 10
7.9093040923
 20
7.9629146618
 11
7.9093040923
 21
7.9547929118
  0
LINE
  5
25D
100
AcDbEntity
  8
03__ASM_ALL_CURVES
100
AcDbLine
 62
4
  6
CONTINUOUS
 10
7.9093040923
 20
7.7734071618
 11
7.9093040923
 21
7.7625781618
  0
LINE
  5
25E
100
AcDbEntity
  8
03__ASM_ALL_CURVES
100
AcDbLine
 62
4
  6
CONTINUOUS
 10
7.9093040923
 20
7.5135111618
 11
7.9093040923
 21
7.5026821618
  0
LINE
  5
25F
100
AcDbEntity
  8
03__ASM_ALL_CURVES
100
AcDbLine
 62
4
  6
CONTINUOUS
 10
7.9093040923
 20
7.3564906618
 11
7.9093040923
 21
7.3483689118
  0
LINE
  5
260
100
AcDbEntity
  8
03__ASM_ALL_CURVES
100
AcDbLine
 62
4
  6
CONTINUOUS
 10
7.9093040923
 20
7.2536151618
 11
7.9093040923
 21
7.2427861618
  0
LINE
  5
261
100
AcDbEntity
  8
03__ASM_ALL_CURVES
100
AcDbLine
 62
4
  6
CONTINUOUS
 10
8.0509880923
 20
9.5476286618
 11
8.0509880923
 21
9.4276286618
  0
LINE
  5
262
100
AcDbEntity
  8
0
100
AcDbLine
 62
7
  6
CONTINUOUS
 10
8.0689880923
 20
10.9876286618
 11
8.0689880923
 21
10.9276286618
  0
LINE
  5
263
100
AcDbEntity
  8
03__ASM_ALL_CURVES
100
AcDbLine
 62
4
  6
CONTINUOUS
 10
8.0809880923
 20
11.2776286594
 11
8.0809880923
 21
11.2576286642
  0
LINE
  5
264
100
AcDbEntity
  8
03__ASM_ALL_CURVES
100
AcDbLine
 62
4
  6
CONTINUOUS
 10
8.1814880923
 20
10.4276286594
 11
8.1739880923
 21
10.3976286594
  0
LINE
  5
265
100
AcDbEntity
  8
03__ASM_ALL_CURVES
100
AcDbLine
 62
4
  6
CONTINUOUS
 10
8.1964880923
 20
10.4476286618
 11
8.1814880923
 21
10.4276286594
  0
LINE
  5
266
100
AcDbEntity
  8
03__ASM_ALL_CURVES
100
AcDbLine
 62
4
  6
CONTINUOUS
 10
8.3389880923
 20
10.3576286618
 11
8.3239880923
 21
10.3376286621
  0
LINE
  5
267
100
AcDbEntity
  8
03__ASM_ALL_CURVES
100
AcDbLine
 62
4
  6
CONTINUOUS
 10
7.8948654252
 20
7.8708681618
 11
7.9020847588
 21
7.8654536618
  0
LINE
  5
268
100
AcDbEntity
  8
03__ASM_ALL_CURVES
100
AcDbLine
 62
4
  6
CONTINUOUS
 10
8.9311107607
 20
7.2265426618
 11
8.9238914239
 21
7.2319571618
  0
LINE
  5
269
100
AcDbEntity
  8
03__ASM_ALL_CURVES
100
AcDbLine
 62
4
  6
CONTINUOUS
 10
8.9672074265
 20
7.2427861618
 11
8.9816460923
 21
7.2319571618
  0
LINE
  5
26A
100
AcDbEntity
  8
03__ASM_ALL_CURVES
100
AcDbLine
 62
4
  6
CONTINUOUS
 10
8.9455494239
 20
7.2698586618
 11
8.9527687607
 21
7.2644441618
  0
LINE
  5
26B
100
AcDbEntity
  8
03__ASM_ALL_CURVES
100
AcDbLine
 62
4
  6
CONTINUOUS
 10
8.9238914239
 20
7.2319571618
 11
8.9166720923
 21
7.2427861618
  0
LINE
  5
26C
100
AcDbEntity
  8
0
100
AcDbLine
 62
7
  6
CONTINUOUS
 10
8.1289880923
 20
10.9276286618
 11
8.1289880923
 21
10.8676286618
  0
LINE
  5
26D
100
AcDbEntity
  8
0
100
AcDbLine
 62
7
  6
CONTINUOUS
 10
8.1589880923
 20
10.8676286618
 11
8.1589880923
 21
10.9876286618
  0
LINE
  5
26E
100
AcDbEntity
  8
03__ASM_ALL_CURVES
100
AcDbLine
 62
4
  6
CONTINUOUS
 10
8.1739880923
 20
10.3976286594
 11
8.1739880923
 21
10.3776286606
  0
LINE
  5
26F
100
AcDbEntity
  8
0
100
AcDbLine
 62
7
  6
CONTINUOUS
 10
8.2189880923
 20
10.9876286618
 11
8.2189880923
 21
10.8676286618
  0
LINE
  5
270
100
AcDbEntity
  8
0
100
AcDbLine
 62
7
  6
CONTINUOUS
 10
8.2489880923
 20
10.9876286618
 11
8.2489880923
 21
10.8676286618
  0
LINE
  5
271
100
AcDbEntity
  8
03__ASM_ALL_CURVES
100
AcDbLine
 62
4
  6
CONTINUOUS
 10
8.2789880923
 20
10.3276286618
 11
8.2789880923
 21
10.4476286618
  0
LINE
  5
272
100
AcDbEntity
  8
0
100
AcDbLine
 62
7
  6
CONTINUOUS
 10
8.3089880923
 20
10.9876286618
 11
8.3089880923
 21
10.8676286618
  0
LINE
  5
273
100
AcDbEntity
  8
03__ASM_ALL_CURVES
100
AcDbLine
 62
4
  6
CONTINUOUS
 10
8.3464880923
 20
10.3876286618
 11
8.3389880923
 21
10.3576286618
  0
LINE
  5
274
100
AcDbEntity
  8
03__ASM_ALL_CURVES
100
AcDbLine
 62
4
  6
CONTINUOUS
 10
8.3914880923
 20
10.3276286618
 11
8.4289880923
 21
10.4476286618
  0
LINE
  5
275
100
AcDbEntity
  8
03__ASM_ALL_CURVES
100
AcDbLine
 62
4
  6
CONTINUOUS
 10
8.8189880923
 20
10.6176286606
 11
8.8789880923
 21
10.6876286618
  0
LINE
  5
276
100
AcDbEntity
  8
03__ASM_ALL_CURVES
100
AcDbLine
 62
4
  6
CONTINUOUS
 10
8.9816460923
 20
7.2319571618
 11
9.0033040923
 21
7.2265426618
  0
LINE
  5
277
100
AcDbEntity
  8
03__ASM_ALL_CURVES
100
AcDbLine
 62
4
  6
CONTINUOUS
 10
8.9455494239
 20
7.3998066618
 11
8.9311107607
 21
7.4052211618
  0
LINE
  5
278
100
AcDbEntity
  8
03__ASM_ALL_CURVES
100
AcDbLine
 62
4
  6
CONTINUOUS
 10
7.8515494239
 20
7.8329666618
 11
7.8371107607
 21
7.8383811618
  0
LINE
  5
279
100
AcDbEntity
  8
03__ASM_ALL_CURVES
100
AcDbLine
 62
4
  6
CONTINUOUS
 10
8.9744267581
 20
7.4431226618
 11
8.9888654252
 21
7.4377081618
  0
LINE
  5
27A
100
AcDbEntity
  8
03__ASM_ALL_CURVES
100
AcDbLine
 62
4
  6
CONTINUOUS
 10
7.8804267581
 20
7.8762826618
 11
7.8948654252
 21
7.8708681618
  0
LINE
  5
27B
100
AcDbEntity
  8
03__ASM_ALL_CURVES
100
AcDbLine
 62
4
  6
CONTINUOUS
 10
8.9455494239
 20
7.4864386618
 11
8.9311107607
 21
7.4918531618
  0
LINE
  5
27C
100
AcDbEntity
  8
03__ASM_ALL_CURVES
100
AcDbLine
 62
4
  6
CONTINUOUS
 10
8.9311107607
 20
7.4052211618
 11
8.9238914239
 21
7.4106356618
  0
LINE
  5
27D
100
AcDbEntity
  8
03__ASM_ALL_CURVES
100
AcDbLine
 62
4
  6
CONTINUOUS
 10
7.8948654252
 20
8.2065671618
 11
7.9093040923
 21
8.1957381618
  0
LINE
  5
27E
100
AcDbEntity
  8
03__ASM_ALL_CURVES
100
AcDbLine
 62
4
  6
CONTINUOUS
 10
8.9888654252
 20
7.4377081618
 11
8.9960847588
 21
7.4322936618
  0
LINE
  5
27F
100
AcDbEntity
  8
03__ASM_ALL_CURVES
100
AcDbLine
 62
4
  6
CONTINUOUS
 10
8.9311107607
 20
7.4918531618
 11
8.9238914239
 21
7.4972676618
  0
LINE
  5
280
100
AcDbEntity
  8
03__ASM_ALL_CURVES
100
AcDbLine
 62
4
  6
CONTINUOUS
 10
8.9888654252
 20
7.5243401618
 11
8.9960847588
 21
7.5189256618
  0
LINE
  5
281
100
AcDbEntity
  8
03__ASM_ALL_CURVES
100
AcDbLine
 62
4
  6
CONTINUOUS
 10
8.9166720923
 20
7.6867751618
 11
8.9311107607
 21
7.6759461618
  0
LINE
  5
282
100
AcDbEntity
  8
03__ASM_ALL_CURVES
100
AcDbLine
 62
4
  6
CONTINUOUS
 10
8.9527687607
 20
7.2644441618
 11
8.9672074265
 21
7.2427861618
  0
LINE
  5
283
100
AcDbEntity
  8
03__ASM_ALL_CURVES
100
AcDbLine
 62
4
  6
CONTINUOUS
 10
8.9238914239
 20
7.4106356618
 11
8.9166720923
 21
7.4214646618
  0
LINE
  5
284
100
AcDbEntity
  8
03__ASM_ALL_CURVES
100
AcDbLine
 62
4
  6
CONTINUOUS
 10
8.9238914239
 20
7.4972676618
 11
8.9166720923
 21
7.5080966618
  0
LINE
  5
285
100
AcDbEntity
  8
03__ASM_ALL_CURVES
100
AcDbLine
 62
4
  6
CONTINUOUS
 10
8.9960847588
 20
7.4322936618
 11
9.0033040923
 21
7.4214646618
  0
LINE
  5
286
100
AcDbEntity
  8
03__ASM_ALL_CURVES
100
AcDbLine
 62
4
  6
CONTINUOUS
 10
8.9960847588
 20
7.5189256618
 11
9.0033040923
 21
7.5080966618
  0
LINE
  5
287
100
AcDbEntity
  8
0
100
AcDbLine
 62
7
  6
CONTINUOUS
 10
8.4289880923
 20
10.8676286618
 11
8.4289880923
 21
10.9876286618
  0
LINE
  5
288
100
AcDbEntity
  8
0
100
AcDbLine
 62
7
  6
CONTINUOUS
 10
8.4889880923
 20
10.8676286618
 11
8.4889880923
 21
10.9276286618
  0
LINE
  5
289
100
AcDbEntity
  8
0
100
AcDbLine
 62
7
  6
CONTINUOUS
 10
8.5289880923
 20
10.8676286618
 11
8.5289880923
 21
10.9276286618
  0
LINE
  5
28A
100
AcDbEntity
  8
03__ASM_ALL_CURVES
100
AcDbLine
 62
4
  6
CONTINUOUS
 10
8.5489880923
 20
10.4476286618
 11
8.5489880923
 21
10.3276286618
  0
LINE
  5
28B
100
AcDbEntity
  8
03__ASM_ALL_CURVES
100
AcDbLine
 62
4
  6
CONTINUOUS
 10
8.5789880923
 20
10.5676286618
 11
8.5789880923
 21
10.6876286618
  0
LINE
  5
28C
100
AcDbEntity
  8
0
100
AcDbLine
 62
7
  6
CONTINUOUS
 10
8.5889880923
 20
10.9276286618
 11
8.5889880923
 21
10.8076286618
  0
LINE
  5
28D
100
AcDbEntity
  8
03__ASM_ALL_CURVES
100
AcDbLine
 62
4
  6
CONTINUOUS
 10
8.7439880923
 20
10.3876286618
 11
8.7514880923
 21
10.4176286618
  0
LINE
  5
28E
100
AcDbEntity
  8
03__ASM_ALL_CURVES
100
AcDbLine
 62
4
  6
CONTINUOUS
 10
8.7289880923
 20
10.5876286624
 11
8.7664880923
 21
10.6876286618
  0
LINE
  5
28F
100
AcDbEntity
  8
03__ASM_ALL_CURVES
100
AcDbLine
 62
4
  6
CONTINUOUS
 10
8.7514880923
 20
10.4176286618
 11
8.7664880923
 21
10.4376286642
  0
LINE
  5
290
100
AcDbEntity
  8
03__ASM_ALL_CURVES
100
AcDbLine
 62
4
  6
CONTINUOUS
 10
8.8189880923
 20
10.3476286624
 11
8.8114880923
 21
10.3376286621
  0
LINE
  5
291
100
AcDbEntity
  8
03__ASM_ALL_CURVES
100
AcDbLine
 62
4
  6
CONTINUOUS
 10
8.8714880923
 20
10.4176286618
 11
8.8864880923
 21
10.4376286642
  0
LINE
  5
292
100
AcDbEntity
  8
03__ASM_ALL_CURVES
100
AcDbLine
 62
4
  6
CONTINUOUS
 10
8.9464880923
 20
10.3576286618
 11
8.9314880923
 21
10.3376286621
  0
LINE
  5
293
100
AcDbEntity
  8
03__ASM_ALL_CURVES
100
AcDbLine
 62
4
  6
CONTINUOUS
 10
8.3239880923
 20
10.3376286621
 11
8.3089880923
 21
10.3276286618
  0
LINE
  5
294
100
AcDbEntity
  8
03__ASM_ALL_CURVES
100
AcDbLine
 62
4
  6
CONTINUOUS
 10
8.7664880923
 20
10.4376286642
 11
8.7814880923
 21
10.4476286618
  0
LINE
  5
295
100
AcDbEntity
  8
03__ASM_ALL_CURVES
100
AcDbLine
 62
4
  6
CONTINUOUS
 10
9.9166720923
 20
7.2482006618
 11
10.0033040923
 21
7.2482006618
  0
LINE
  5
296
100
AcDbEntity
  8
03__ASM_ALL_CURVES
100
AcDbLine
 62
4
  6
CONTINUOUS
 10
7.8371107607
 20
7.2698586618
 11
7.8443300923
 21
7.2698586618
  0
LINE
  5
297
100
AcDbEntity
  8
03__ASM_ALL_CURVES
100
AcDbLine
 62
4
  6
CONTINUOUS
 10
8.9311107607
 20
7.2698586618
 11
8.9455494239
 21
7.2698586618
  0
LINE
  5
298
100
AcDbEntity
  8
03__ASM_ALL_CURVES
100
AcDbLine
 62
4
  6
CONTINUOUS
 10
7.8804267581
 20
7.2752731618
 11
7.8876460923
 21
7.2752731618
  0
LINE
  5
299
100
AcDbEntity
  8
03__ASM_ALL_CURVES
100
AcDbLine
 62
4
  6
CONTINUOUS
 10
7.8371107607
 20
7.6759461618
 11
7.8587687607
 21
7.6705316618
  0
LINE
  5
29A
100
AcDbEntity
  8
03__ASM_ALL_CURVES
100
AcDbLine
 62
4
  6
CONTINUOUS
 10
8.9455494239
 20
7.5297546618
 11
8.9599880923
 21
7.5243401618
  0
LINE
  5
29B
100
AcDbEntity
  8
03__ASM_ALL_CURVES
100
AcDbLine
 62
4
  6
CONTINUOUS
 10
8.9744267581
 20
7.5297546618
 11
8.9888654252
 21
7.5243401618
  0
LINE
  5
29C
100
AcDbEntity
  8
03__ASM_ALL_CURVES
100
AcDbLine
 62
4
  6
CONTINUOUS
 10
7.8515494239
 20
8.0387176618
 11
7.8226720923
 21
8.0495466618
  0
LINE
  5
29D
100
AcDbEntity
  8
03__ASM_ALL_CURVES
100
AcDbLine
 62
4
  6
CONTINUOUS
 10
7.8515494239
 20
8.1253496618
 11
7.8226720923
 21
8.1361786618
  0
LINE
  5
29E
100
AcDbEntity
  8
03__ASM_ALL_CURVES
100
AcDbLine
 62
4
  6
CONTINUOUS
 10
8.9888654252
 20
7.7896506618
 11
8.9960847588
 21
7.7842361618
  0
LINE
  5
29F
100
AcDbEntity
  8
03__ASM_ALL_CURVES
100
AcDbLine
 62
4
  6
CONTINUOUS
 10
8.9383300923
 20
7.8762826618
 11
8.9455494239
 21
7.8708681618
  0
LINE
  5
2A0
100
AcDbEntity
  8
03__ASM_ALL_CURVES
100
AcDbLine
 62
4
  6
CONTINUOUS
 10
8.9816460923
 20
7.8816971618
 11
8.9960847588
 21
7.8708681618
  0
LINE
  5
2A1
100
AcDbEntity
  8
03__ASM_ALL_CURVES
100
AcDbLine
 62
4
  6
CONTINUOUS
 10
8.9311107607
 20
8.0116451618
 11
8.9238914239
 21
8.0170596618
  0
LINE
  5
2A2
100
AcDbEntity
  8
03__ASM_ALL_CURVES
100
AcDbLine
 62
4
  6
CONTINUOUS
 10
8.9527687607
 20
7.7517491618
 11
8.9455494239
 21
7.7625781618
  0
LINE
  5
2A3
100
AcDbEntity
  8
03__ASM_ALL_CURVES
100
AcDbLine
 62
4
  6
CONTINUOUS
 10
8.9238914239
 20
7.8383811618
 11
8.9166720923
 21
7.8492101618
  0
LINE
  5
2A4
100
AcDbEntity
  8
03__ASM_ALL_CURVES
100
AcDbLine
 62
4
  6
CONTINUOUS
 10
8.9960847588
 20
7.7842361618
 11
9.0033040923
 21
7.7734071618
  0
LINE
  5
2A5
100
AcDbEntity
  8
03__ASM_ALL_CURVES
100
AcDbLine
 62
4
  6
CONTINUOUS
 10
8.9455494239
 20
7.8708681618
 11
8.9527687607
 21
7.8600391618
  0
LINE
  5
2A6
100
AcDbEntity
  8
03__ASM_ALL_CURVES
100
AcDbLine
 62
4
  6
CONTINUOUS
 10
8.9960847588
 20
7.8708681618
 11
9.0033040923
 21
7.8600391618
  0
LINE
  5
2A7
100
AcDbEntity
  8
03__ASM_ALL_CURVES
100
AcDbLine
 62
4
  6
CONTINUOUS
 10
8.9238914239
 20
8.0170596618
 11
8.9166720923
 21
8.0278886618
  0
LINE
  5
2A8
100
AcDbEntity
  8
03__ASM_ALL_CURVES
100
AcDbLine
 62
4
  6
CONTINUOUS
 10
8.9238914239
 20
8.0982771618
 11
8.9166720923
 21
8.1091061618
  0
LINE
  5
2A9
100
AcDbEntity
  8
03__ASM_ALL_CURVES
100
AcDbLine
 62
4
  6
CONTINUOUS
 10
8.9960847588
 20
8.0387176618
 11
9.0033040923
 21
8.0278886618
  0
LINE
  5
2AA
100
AcDbEntity
  8
03__ASM_ALL_CURVES
100
AcDbLine
 62
4
  6
CONTINUOUS
 10
8.9599880923
 20
7.5243401618
 11
8.9672074265
 21
7.5080966618
  0
LINE
  5
2AB
100
AcDbEntity
  8
03__ASM_ALL_CURVES
100
AcDbLine
 62
4
  6
CONTINUOUS
 10
8.1739880923
 20
10.3776286606
 11
8.1814880923
 21
10.3476286624
  0
LINE
  5
2AC
100
AcDbEntity
  8
0
100
AcDbLine
 62
7
  6
CONTINUOUS
 10
8.6289880923
 20
10.8676286618
 11
8.6289880923
 21
10.9276286618
  0
LINE
  5
2AD
100
AcDbEntity
  8
03__ASM_ALL_CURVES
100
AcDbLine
 62
4
  6
CONTINUOUS
 10
8.6389880923
 20
10.3276286618
 11
8.6389880923
 21
10.4476286618
  0
LINE
  5
2AE
100
AcDbEntity
  8
0
100
AcDbLine
 62
7
  6
CONTINUOUS
 10
8.6889880923
 20
10.9876286618
 11
8.6889880923
 21
10.8676286618
  0
LINE
  5
2AF
100
AcDbEntity
  8
03__ASM_ALL_CURVES
100
AcDbLine
 62
4
  6
CONTINUOUS
 10
8.6914880923
 20
10.5676286618
 11
8.6914880923
 21
10.6876286618
  0
LINE
  5
2B0
100
AcDbEntity
  8
0
100
AcDbLine
 62
7
  6
CONTINUOUS
 10
8.7289880923
 20
10.9276286618
 11
8.7289880923
 21
10.8676286618
  0
LINE
  5
2B1
100
AcDbEntity
  8
03__ASM_ALL_CURVES
100
AcDbLine
 62
4
  6
CONTINUOUS
 10
8.7664880923
 20
10.6876286618
 11
8.7664880923
 21
10.5676286618
  0
LINE
  5
2B2
100
AcDbEntity
  8
03__ASM_ALL_CURVES
100
AcDbLine
 62
4
  6
CONTINUOUS
 10
8.8189880923
 20
10.6876286618
 11
8.8189880923
 21
10.5676286618
  0
LINE
  5
2B3
100
AcDbEntity
  8
0
100
AcDbLine
 62
7
  6
CONTINUOUS
 10
8.8289880923
 20
10.8676286618
 11
8.8289880923
 21
10.9076286618
  0
LINE
  5
2B4
100
AcDbEntity
  8
03__ASM_ALL_CURVES
100
AcDbLine
 62
4
  6
CONTINUOUS
 10
8.8639880923
 20
10.3876286618
 11
8.8714880923
 21
10.4176286618
  0
LINE
  5
2B5
100
AcDbEntity
  8
03__ASM_ALL_CURVES
100
AcDbLine
 62
4
  6
CONTINUOUS
 10
8.9539880923
 20
10.3876286618
 11
8.9464880923
 21
10.3576286618
  0
LINE
  5
2B6
100
AcDbEntity
  8
03__ASM_ALL_CURVES
100
AcDbLine
 62
4
  6
CONTINUOUS
 10
9.0664880923
 20
10.3876286618
 11
9.0589880923
 21
10.3576286618
  0
LINE
  5
2B7
100
AcDbEntity
  8
03__ASM_ALL_CURVES
100
AcDbLine
 62
4
  6
CONTINUOUS
 10
9.0589880923
 20
10.3576286618
 11
9.0439880923
 21
10.3376286621
  0
LINE
  5
2B8
100
AcDbEntity
  8
03__ASM_ALL_CURVES
100
AcDbLine
 62
4
  6
CONTINUOUS
 10
8.8864880923
 20
10.4376286642
 11
8.9014880923
 21
10.4476286618
  0
LINE
  5
2B9
100
AcDbEntity
  8
03__ASM_ALL_CURVES
100
AcDbLine
 62
4
  6
CONTINUOUS
 10
8.8114880923
 20
10.3376286621
 11
8.7964880923
 21
10.3276286618
  0
LINE
  5
2BA
100
AcDbEntity
  8
03__ASM_ALL_CURVES
100
AcDbLine
 62
4
  6
CONTINUOUS
 10
8.9314880923
 20
10.3376286621
 11
8.9164880923
 21
10.3276286618
  0
LINE
  5
2BB
100
AcDbEntity
  8
03__ASM_ALL_CURVES
100
AcDbLine
 62
4
  6
CONTINUOUS
 10
9.0439880923
 20
10.3376286621
 11
9.0289880923
 21
10.3276286618
  0
LINE
  5
2BC
100
AcDbEntity
  8
03__ASM_ALL_CURVES
100
AcDbLine
 62
4
  6
CONTINUOUS
 10
10.0033040923
 20
7.3483689118
 11
9.992475092
 21
7.3483689118
  0
LINE
  5
2BD
100
AcDbEntity
  8
03__ASM_ALL_CURVES
100
AcDbLine
 62
4
  6
CONTINUOUS
 10
9.0033040923
 20
7.3483689118
 11
8.992475092
 21
7.3483689118
  0
LINE
  5
2BE
100
AcDbEntity
  8
03__ASM_ALL_CURVES
100
AcDbLine
 62
4
  6
CONTINUOUS
 10
7.9093040923
 20
7.3483689118
 11
7.898475092
 21
7.3483689118
  0
LINE
  5
2BF
100
AcDbEntity
  8
03__ASM_ALL_CURVES
100
AcDbLine
 62
4
  6
CONTINUOUS
 10
9.9744267581
 20
7.3998066618
 11
9.9455494239
 21
7.3998066618
  0
LINE
  5
2C0
100
AcDbEntity
  8
03__ASM_ALL_CURVES
100
AcDbLine
 62
4
  6
CONTINUOUS
 10
8.9744267581
 20
7.3998066618
 11
8.9455494239
 21
7.3998066618
  0
LINE
  5
2C1
100
AcDbEntity
  8
03__ASM_ALL_CURVES
100
AcDbLine
 62
4
  6
CONTINUOUS
 10
7.8226720923
 20
7.4214646618
 11
7.9093040923
 21
7.4214646618
  0
LINE
  5
2C2
100
AcDbEntity
  8
03__ASM_ALL_CURVES
100
AcDbLine
 62
4
  6
CONTINUOUS
 10
8.9455494239
 20
7.4431226618
 11
8.9744267581
 21
7.4431226618
  0
LINE
  5
2C3
100
AcDbEntity
  8
03__ASM_ALL_CURVES
100
AcDbLine
 62
4
  6
CONTINUOUS
 10
9.9455494239
 20
7.4431226618
 11
9.9744267581
 21
7.4431226618
  0
LINE
  5
2C4
100
AcDbEntity
  8
03__ASM_ALL_CURVES
100
AcDbLine
 62
4
  6
CONTINUOUS
 10
7.8876460923
 20
7.4810241618
 11
7.8804267581
 21
7.4810241618
  0
LINE
  5
2C5
100
AcDbEntity
  8
03__ASM_ALL_CURVES
100
AcDbLine
 62
4
  6
CONTINUOUS
 10
7.8443300923
 20
7.4864386618
 11
7.8371107607
 21
7.4864386618
  0
LINE
  5
2C6
100
AcDbEntity
  8
03__ASM_ALL_CURVES
100
AcDbLine
 62
4
  6
CONTINUOUS
 10
7.8371107607
 20
7.5297546618
 11
7.8443300923
 21
7.5297546618
  0
LINE
  5
2C7
100
AcDbEntity
  8
03__ASM_ALL_CURVES
100
AcDbLine
 62
4
  6
CONTINUOUS
 10
8.9455494239
 20
7.5297546618
 11
8.9744267581
 21
7.5297546618
  0
LINE
  5
2C8
100
AcDbEntity
  8
03__ASM_ALL_CURVES
100
AcDbLine
 62
4
  6
CONTINUOUS
 10
9.9455494239
 20
7.5297546618
 11
9.9744267581
 21
7.5297546618
  0
LINE
  5
2C9
100
AcDbEntity
  8
03__ASM_ALL_CURVES
100
AcDbLine
 62
4
  6
CONTINUOUS
 10
7.8804267581
 20
7.5351691618
 11
7.8876460923
 21
7.5351691618
  0
LINE
  5
2CA
100
AcDbEntity
  8
03__ASM_ALL_CURVES
100
AcDbLine
 62
4
  6
CONTINUOUS
 10
8.9166720923
 20
7.7571636618
 11
8.9527687607
 21
7.7517491618
  0
LINE
  5
2CB
100
AcDbEntity
  8
03__ASM_ALL_CURVES
100
AcDbLine
 62
4
  6
CONTINUOUS
 10
8.9311107607
 20
7.6759461618
 11
8.9527687607
 21
7.6705316618
  0
LINE
  5
2CC
100
AcDbEntity
  8
03__ASM_ALL_CURVES
100
AcDbLine
 62
4
  6
CONTINUOUS
 10
7.8732074265
 20
8.0333031618
 11
7.8515494239
 21
8.0387176618
  0
LINE
  5
2CD
100
AcDbEntity
  8
03__ASM_ALL_CURVES
100
AcDbLine
 62
4
  6
CONTINUOUS
 10
7.8732074265
 20
8.1199351618
 11
7.8515494239
 21
8.1253496618
  0
LINE
  5
2CE
100
AcDbEntity
  8
03__ASM_ALL_CURVES
100
AcDbLine
 62
4
  6
CONTINUOUS
 10
9.9455494239
 20
7.3998066618
 11
9.9311107607
 21
7.4052211618
  0
LINE
  5
2CF
100
AcDbEntity
  8
03__ASM_ALL_CURVES
100
AcDbLine
 62
4
  6
CONTINUOUS
 10
8.9744267581
 20
7.7950651618
 11
8.9888654252
 21
7.7896506618
  0
LINE
  5
2D0
100
AcDbEntity
  8
03__ASM_ALL_CURVES
100
AcDbLine
 62
4
  6
CONTINUOUS
 10
9.9744267581
 20
7.4431226618
 11
9.9888654252
 21
7.4377081618
  0
LINE
  5
2D1
100
AcDbEntity
  8
03__ASM_ALL_CURVES
100
AcDbLine
 62
4
  6
CONTINUOUS
 10
9.9455494239
 20
7.4864386618
 11
9.9311107607
 21
7.4918531618
  0
LINE
  5
2D2
100
AcDbEntity
  8
03__ASM_ALL_CURVES
100
AcDbLine
 62
4
  6
CONTINUOUS
 10
9.9455494239
 20
7.5297546618
 11
9.9599880923
 21
7.5243401618
  0
LINE
  5
2D3
100
AcDbEntity
  8
03__ASM_ALL_CURVES
100
AcDbLine
 62
4
  6
CONTINUOUS
 10
9.9744267581
 20
7.5297546618
 11
9.9888654252
 21
7.5243401618
  0
LINE
  5
2D4
100
AcDbEntity
  8
03__ASM_ALL_CURVES
100
AcDbLine
 62
4
  6
CONTINUOUS
 10
8.9455494239
 20
8.0062306618
 11
8.9311107607
 21
8.0116451618
  0
LINE
  5
2D5
100
AcDbEntity
  8
03__ASM_ALL_CURVES
100
AcDbLine
 62
4
  6
CONTINUOUS
 10
8.9888654252
 20
8.0441321618
 11
8.9960847588
 21
8.0387176618
  0
LINE
  5
2D6
100
AcDbEntity
  8
03__ASM_ALL_CURVES
100
AcDbLine
 62
4
  6
CONTINUOUS
 10
8.9311107607
 20
8.0928626618
 11
8.9238914239
 21
8.0982771618
  0
LINE
  5
2D7
100
AcDbEntity
  8
03__ASM_ALL_CURVES
100
AcDbLine
 62
4
  6
CONTINUOUS
 10
8.9744267581
 20
8.0874481618
 11
8.9599880923
 21
8.0982771618
  0
LINE
  5
2D8
100
AcDbEntity
  8
03__ASM_ALL_CURVES
100
AcDbLine
 62
4
  6
CONTINUOUS
 10
8.9383300923
 20
8.1361786618
 11
8.9455494239
 21
8.1307641618
  0
LINE
  5
2D9
100
AcDbEntity
  8
03__ASM_ALL_CURVES
100
AcDbLine
 62
4
  6
CONTINUOUS
 10
9.9311107607
 20
7.4052211618
 11
9.9238914239
 21
7.4106356618
  0
LINE
  5
2DA
100
AcDbEntity
  8
03__ASM_ALL_CURVES
100
AcDbLine
 62
4
  6
CONTINUOUS
 10
8.9816460923
 20
8.1415931618
 11
8.9960847588
 21
8.1307641618
  0
LINE
  5
2DB
100
AcDbEntity
  8
03__ASM_ALL_CURVES
100
AcDbLine
 62
4
  6
CONTINUOUS
 10
9.9888654252
 20
7.4377081618
 11
9.9960847588
 21
7.4322936618
  0
LINE
  5
2DC
100
AcDbEntity
  8
03__ASM_ALL_CURVES
100
AcDbLine
 62
4
  6
CONTINUOUS
 10
9.9311107607
 20
7.4918531618
 11
9.9238914239
 21
7.4972676618
  0
LINE
  5
2DD
100
AcDbEntity
  8
03__ASM_ALL_CURVES
100
AcDbLine
 62
4
  6
CONTINUOUS
 10
8.9888654252
 20
8.2065671618
 11
9.0033040923
 21
8.1957381618
  0
LINE
  5
2DE
100
AcDbEntity
  8
03__ASM_ALL_CURVES
100
AcDbLine
 62
4
  6
CONTINUOUS
 10
9.9888654252
 20
7.5243401618
 11
9.9960847588
 21
7.5189256618
  0
LINE
  5
2DF
100
AcDbEntity
  8
03__ASM_ALL_CURVES
100
AcDbLine
 62
4
  6
CONTINUOUS
 10
8.9599880923
 20
8.0982771618
 11
8.9527687607
 21
8.1091061618
  0
LINE
  5
2E0
100
AcDbEntity
  8
03__ASM_ALL_CURVES
100
AcDbLine
 62
4
  6
CONTINUOUS
 10
8.9455494239
 20
8.1307641618
 11
8.9527687607
 21
8.1199351618
  0
LINE
  5
2E1
100
AcDbEntity
  8
03__ASM_ALL_CURVES
100
AcDbLine
 62
4
  6
CONTINUOUS
 10
8.9960847588
 20
8.1307641618
 11
9.0033040923
 21
8.1199351618
  0
LINE
  5
2E2
100
AcDbEntity
  8
03__ASM_ALL_CURVES
100
AcDbLine
 62
4
  6
CONTINUOUS
 10
8.3389880923
 20
10.4176286618
 11
8.3464880923
 21
10.3876286618
  0
LINE
  5
2E3
100
AcDbEntity
  8
0
100
AcDbLine
 62
7
  6
CONTINUOUS
 10
8.8889880923
 20
10.9276286618
 11
8.8889880923
 21
10.8676286618
  0
LINE
  5
2E4
100
AcDbEntity
  8
03__ASM_ALL_CURVES
100
AcDbLine
 62
4
  6
CONTINUOUS
 10
8.9166720923
 20
7.7896506618
 11
8.9166720923
 21
7.7571636618
  0
LINE
  5
2E5
100
AcDbEntity
  8
03__ASM_ALL_CURVES
100
AcDbLine
 62
4
  6
CONTINUOUS
 10
8.9166720923
 20
7.2427861618
 11
8.9166720923
 21
7.2536151618
  0
LINE
  5
2E6
100
AcDbEntity
  8
03__ASM_ALL_CURVES
100
AcDbLine
 62
4
  6
CONTINUOUS
 10
8.9166720923
 20
7.8492101618
 11
8.9166720923
 21
7.8600391618
  0
LINE
  5
2E7
100
AcDbEntity
  8
03__ASM_ALL_CURVES
100
AcDbLine
 62
4
  6
CONTINUOUS
 10
8.9166720923
 20
8.1091061618
 11
8.9166720923
 21
8.1199351618
  0
LINE
  5
2E8
100
AcDbEntity
  8
0
100
AcDbLine
 62
7
  6
CONTINUOUS
 10
8.9289880923
 20
10.9276286618
 11
8.9289880923
 21
10.8676286618
  0
LINE
  5
2E9
100
AcDbEntity
  8
03__ASM_ALL_CURVES
100
AcDbLine
 62
4
  6
CONTINUOUS
 10
8.9455494239
 20
7.7625781618
 11
8.9455494239
 21
7.7734071618
  0
LINE
  5
2EA
100
AcDbEntity
  8
03__ASM_ALL_CURVES
100
AcDbLine
 62
4
  6
CONTINUOUS
 10
8.9527687607
 20
7.8492101618
 11
8.9527687607
 21
7.8600391618
  0
LINE
  5
2EB
100
AcDbEntity
  8
03__ASM_ALL_CURVES
100
AcDbLine
 62
4
  6
CONTINUOUS
 10
8.9527687607
 20
8.1091061618
 11
8.9527687607
 21
8.1199351618
  0
LINE
  5
2EC
100
AcDbEntity
  8
03__ASM_ALL_CURVES
100
AcDbLine
 62
4
  6
CONTINUOUS
 10
8.9599880923
 20
8.5909966618
 11
8.9599880923
 21
8.3311006618
  0
LINE
  5
2ED
100
AcDbEntity
  8
0
100
AcDbLine
 62
7
  6
CONTINUOUS
 10
8.9889880923
 20
10.8676286618
 11
8.9889880923
 21
10.9276286618
  0
LINE
  5
2EE
100
AcDbEntity
  8
03__ASM_ALL_CURVES
100
AcDbLine
 62
4
  6
CONTINUOUS
 10
8.9989880923
 20
10.3276286618
 11
8.9989880923
 21
10.4476286618
  0
LINE
  5
2EF
100
AcDbEntity
  8
03__ASM_ALL_CURVES
100
AcDbLine
 62
4
  6
CONTINUOUS
 10
9.0033040923
 20
8.1199351618
 11
9.0033040923
 21
8.1091061618
  0
LINE
  5
2F0
100
AcDbEntity
  8
03__ASM_ALL_CURVES
100
AcDbLine
 62
4
  6
CONTINUOUS
 10
9.0033040923
 20
7.9629146618
 11
9.0033040923
 21
7.9547929118
  0
LINE
  5
2F1
100
AcDbEntity
  8
03__ASM_ALL_CURVES
100
AcDbLine
 62
4
  6
CONTINUOUS
 10
9.0033040923
 20
7.8600391618
 11
9.0033040923
 21
7.8492101618
  0
LINE
  5
2F2
100
AcDbEntity
  8
03__ASM_ALL_CURVES
100
AcDbLine
 62
4
  6
CONTINUOUS
 10
9.0033040923
 20
7.7734071618
 11
9.0033040923
 21
7.7625781618
  0
LINE
  5
2F3
100
AcDbEntity
  8
03__ASM_ALL_CURVES
100
AcDbLine
 62
4
  6
CONTINUOUS
 10
9.0033040923
 20
7.3564906618
 11
9.0033040923
 21
7.3483689118
  0
LINE
  5
2F4
100
AcDbEntity
  8
03__ASM_ALL_CURVES
100
AcDbLine
 62
4
  6
CONTINUOUS
 10
9.0033040923
 20
7.2265426618
 11
9.0033040923
 21
7.2698586618
  0
LINE
  5
2F5
100
AcDbEntity
  8
0
100
AcDbLine
 62
7
  6
CONTINUOUS
 10
9.0289880923
 20
10.8676286618
 11
9.0289880923
 21
10.9876286618
  0
LINE
  5
2F6
100
AcDbEntity
  8
0
100
AcDbLine
 62
7
  6
CONTINUOUS
 10
9.0689880923
 20
10.8676286618
 11
9.0689880923
 21
10.9276286618
  0
LINE
  5
2F7
100
AcDbEntity
  8
03__ASM_ALL_CURVES
100
AcDbLine
 62
4
  6
CONTINUOUS
 10
9.2839880923
 20
10.3776286606
 11
9.2764880923
 21
10.3476286624
  0
LINE
  5
2F8
100
AcDbEntity
  8
03__ASM_ALL_CURVES
100
AcDbLine
 62
4
  6
CONTINUOUS
 10
7.8226720923
 20
7.8546246618
 11
7.8298914239
 21
7.8654536618
  0
LINE
  5
2F9
100
AcDbEntity
  8
03__ASM_ALL_CURVES
100
AcDbLine
 62
4
  6
CONTINUOUS
 10
7.8226720923
 20
7.7734071618
 11
7.8298914239
 21
7.7842361618
  0
LINE
  5
2FA
100
AcDbEntity
  8
03__ASM_ALL_CURVES
100
AcDbLine
 62
4
  6
CONTINUOUS
 10
9.2764880923
 20
10.3476286624
 11
9.2614880923
 21
10.3276286618
  0
LINE
  5
2FB
100
AcDbEntity
  8
03__ASM_ALL_CURVES
100
AcDbLine
 62
4
  6
CONTINUOUS
 10
10.7794880923
 20
11.2876286642
 11
10.7944880923
 21
11.2976286618
  0
LINE
  5
2FC
100
AcDbEntity
  8
03__ASM_ALL_CURVES
100
AcDbLine
 62
4
  6
CONTINUOUS
 10
10.8244880923
 20
11.2476286594
 11
10.7944880923
 21
11.2276286606
  0
LINE
  5
2FD
100
AcDbEntity
  8
03__ASM_ALL_CURVES
100
AcDbLine
 62
4
  6
CONTINUOUS
 10
11.6008525923
 20
11.7137253302
 11
11.6116815923
 21
11.7209446618
  0
LINE
  5
2FE
100
AcDbEntity
  8
03__ASM_ALL_CURVES
100
AcDbLine
 62
4
  6
CONTINUOUS
 10
12.1206445923
 20
11.6776286618
 11
12.1368880923
 21
11.6848479934
  0
LINE
  5
2FF
100
AcDbEntity
  8
03__ASM_ALL_CURVES
100
AcDbLine
 62
4
  6
CONTINUOUS
 10
12.4130275923
 20
11.6776286618
 11
12.3967840923
 21
11.6704093276
  0
LINE
  5
300
100
AcDbEntity
  8
03__ASM_ALL_CURVES
100
AcDbLine
 62
4
  6
CONTINUOUS
 10
7.8587687607
 20
7.6705316618
 11
7.8732074265
 21
7.6705316618
  0
LINE
  5
301
100
AcDbEntity
  8
03__ASM_ALL_CURVES
100
AcDbLine
 62
4
  6
CONTINUOUS
 10
8.9527687607
 20
7.6705316618
 11
8.9672074265
 21
7.6705316618
  0
LINE
  5
302
100
AcDbEntity
  8
03__ASM_ALL_CURVES
100
AcDbLine
 62
4
  6
CONTINUOUS
 10
9.9527687607
 20
7.6705316618
 11
9.9672074265
 21
7.6705316618
  0
LINE
  5
303
100
AcDbEntity
  8
03__ASM_ALL_CURVES
100
AcDbLine
 62
4
  6
CONTINUOUS
 10
7.8876460923
 20
7.7409201618
 11
7.8804267581
 21
7.7409201618
  0
LINE
  5
304
100
AcDbEntity
  8
03__ASM_ALL_CURVES
100
AcDbLine
 62
4
  6
CONTINUOUS
 10
7.8443300923
 20
7.7463346618
 11
7.8371107607
 21
7.7463346618
  0
LINE
  5
305
100
AcDbEntity
  8
03__ASM_ALL_CURVES
100
AcDbLine
 62
4
  6
CONTINUOUS
 10
7.8371107607
 20
7.7896506618
 11
7.8443300923
 21
7.7896506618
  0
LINE
  5
306
100
AcDbEntity
  8
03__ASM_ALL_CURVES
100
AcDbLine
 62
4
  6
CONTINUOUS
 10
9.9311107607
 20
7.7896506618
 11
9.9455494239
 21
7.7896506618
  0
LINE
  5
307
100
AcDbEntity
  8
03__ASM_ALL_CURVES
100
AcDbLine
 62
4
  6
CONTINUOUS
 10
7.9093040923
 20
8.0278886618
 11
7.8732074265
 21
8.0333031618
  0
LINE
  5
308
100
AcDbEntity
  8
03__ASM_ALL_CURVES
100
AcDbLine
 62
4
  6
CONTINUOUS
 10
7.9093040923
 20
8.1145206618
 11
7.8732074265
 21
8.1199351618
  0
LINE
  5
309
100
AcDbEntity
  8
03__ASM_ALL_CURVES
100
AcDbLine
 62
4
  6
CONTINUOUS
 10
9.9311107607
 20
7.6759461618
 11
9.9527687607
 21
7.6705316618
  0
LINE
  5
30A
100
AcDbEntity
  8
03__ASM_ALL_CURVES
100
AcDbLine
 62
4
  6
CONTINUOUS
 10
7.8732074265
 20
8.2119816618
 11
7.8948654252
 21
8.2065671618
  0
LINE
  5
30B
100
AcDbEntity
  8
03__ASM_ALL_CURVES
100
AcDbLine
 62
4
  6
CONTINUOUS
 10
9.9816460923
 20
7.7517491618
 11
10.0033040923
 21
7.7463346618
  0
LINE
  5
30C
100
AcDbEntity
  8
03__ASM_ALL_CURVES
100
AcDbLine
 62
4
  6
CONTINUOUS
 10
9.9672074265
 20
7.8600391618
 11
9.9455494239
 21
7.8654536618
  0
LINE
  5
30D
100
AcDbEntity
  8
03__ASM_ALL_CURVES
100
AcDbLine
 62
4
  6
CONTINUOUS
 10
8.9744267581
 20
8.0495466618
 11
8.9888654252
 21
8.0441321618
  0
LINE
  5
30E
100
AcDbEntity
  8
03__ASM_ALL_CURVES
100
AcDbLine
 62
4
  6
CONTINUOUS
 10
9.9455494239
 20
7.8654536618
 11
9.9166720923
 21
7.8762826618
  0
LINE
  5
30F
100
AcDbEntity
  8
03__ASM_ALL_CURVES
100
AcDbLine
 62
4
  6
CONTINUOUS
 10
9.9166720923
 20
7.6867751618
 11
9.9311107607
 21
7.6759461618
  0
LINE
  5
310
100
AcDbEntity
  8
03__ASM_ALL_CURVES
100
AcDbLine
 62
4
  6
CONTINUOUS
 10
9.9311107607
 20
7.7463346618
 11
9.9238914239
 21
7.7517491618
  0
LINE
  5
311
100
AcDbEntity
  8
03__ASM_ALL_CURVES
100
AcDbLine
 62
4
  6
CONTINUOUS
 10
9.9672074265
 20
7.7625781618
 11
9.9816460923
 21
7.7517491618
  0
LINE
  5
312
100
AcDbEntity
  8
03__ASM_ALL_CURVES
100
AcDbLine
 62
4
  6
CONTINUOUS
 10
9.9455494239
 20
7.7896506618
 11
9.9527687607
 21
7.7842361618
  0
LINE
  5
313
100
AcDbEntity
  8
03__ASM_ALL_CURVES
100
AcDbLine
 62
4
  6
CONTINUOUS
 10
9.9238914239
 20
7.4106356618
 11
9.9166720923
 21
7.4214646618
  0
LINE
  5
314
100
AcDbEntity
  8
03__ASM_ALL_CURVES
100
AcDbLine
 62
4
  6
CONTINUOUS
 10
9.9238914239
 20
7.4972676618
 11
9.9166720923
 21
7.5080966618
  0
LINE
  5
315
100
AcDbEntity
  8
03__ASM_ALL_CURVES
100
AcDbLine
 62
4
  6
CONTINUOUS
 10
8.4289880923
 20
10.4476286618
 11
8.4664880923
 21
10.3276286618
  0
LINE
  5
316
100
AcDbEntity
  8
03__ASM_ALL_CURVES
100
AcDbLine
 62
4
  6
CONTINUOUS
 10
8.7514880923
 20
10.3576286618
 11
8.7439880923
 21
10.3876286618
  0
LINE
  5
317
100
AcDbEntity
  8
0
100
AcDbLine
 62
7
  6
CONTINUOUS
 10
9.1089880923
 20
10.9276286618
 11
9.1089880923
 21
10.8676286618
  0
LINE
  5
318
100
AcDbEntity
  8
03__ASM_ALL_CURVES
100
AcDbLine
 62
4
  6
CONTINUOUS
 10
9.1189880923
 20
10.3276286618
 11
9.1189880923
 21
10.4476286618
  0
LINE
  5
319
100
AcDbEntity
  8
0
100
AcDbLine
 62
7
  6
CONTINUOUS
 10
9.2089880923
 20
10.9276286618
 11
9.2089880923
 21
10.8976286618
  0
LINE
  5
31A
100
AcDbEntity
  8
0
100
AcDbLine
 62
7
  6
CONTINUOUS
 10
9.2689880923
 20
10.8976286618
 11
9.2689880923
 21
10.8676286618
  0
LINE
  5
31B
100
AcDbEntity
  8
03__ASM_ALL_CURVES
100
AcDbLine
 62
4
  6
CONTINUOUS
 10
9.2839880923
 20
10.3976286594
 11
9.2839880923
 21
10.3776286606
  0
LINE
  5
31C
100
AcDbEntity
  8
03__ASM_ALL_CURVES
100
AcDbLine
 62
4
  6
CONTINUOUS
 10
7.9093040923
 20
7.8546246618
 11
7.9020847588
 21
7.8437956618
  0
LINE
  5
31D
100
AcDbEntity
  8
03__ASM_ALL_CURVES
100
AcDbLine
 62
4
  6
CONTINUOUS
 10
7.8587687607
 20
7.7734071618
 11
7.8659880923
 21
7.7842361618
  0
LINE
  5
31E
100
AcDbEntity
  8
03__ASM_ALL_CURVES
100
AcDbLine
 62
4
  6
CONTINUOUS
 10
7.8587687607
 20
7.7625781618
 11
7.8515494239
 21
7.7517491618
  0
LINE
  5
31F
100
AcDbEntity
  8
03__ASM_ALL_CURVES
100
AcDbLine
 62
4
  6
CONTINUOUS
 10
7.9093040923
 20
7.7625781618
 11
7.9020847588
 21
7.7517491618
  0
LINE
  5
320
100
AcDbEntity
  8
03__ASM_ALL_CURVES
100
AcDbLine
 62
4
  6
CONTINUOUS
 10
7.8226720923
 20
7.5135111618
 11
7.8298914239
 21
7.5243401618
  0
LINE
  5
321
100
AcDbEntity
  8
03__ASM_ALL_CURVES
100
AcDbLine
 62
4
  6
CONTINUOUS
 10
7.8587687607
 20
7.5135111618
 11
7.8659880923
 21
7.5243401618
  0
LINE
  5
322
100
AcDbEntity
  8
03__ASM_ALL_CURVES
100
AcDbLine
 62
4
  6
CONTINUOUS
 10
7.8587687607
 20
7.5026821618
 11
7.8515494239
 21
7.4918531618
  0
LINE
  5
323
100
AcDbEntity
  8
03__ASM_ALL_CURVES
100
AcDbLine
 62
4
  6
CONTINUOUS
 10
7.9093040923
 20
7.5026821618
 11
7.9020847588
 21
7.4918531618
  0
LINE
  5
324
100
AcDbEntity
  8
03__ASM_ALL_CURVES
100
AcDbLine
 62
4
  6
CONTINUOUS
 10
11.6333395923
 20
11.6920673302
 11
11.6225105923
 21
11.6848479934
  0
LINE
  5
325
100
AcDbEntity
  8
03__ASM_ALL_CURVES
100
AcDbLine
 62
4
  6
CONTINUOUS
 10
11.6333395923
 20
11.6415319953
 11
11.6225105923
 21
11.6343126618
  0
LINE
  5
326
100
AcDbEntity
  8
03__ASM_ALL_CURVES
100
AcDbLine
 62
4
  6
CONTINUOUS
 10
11.7795310923
 20
11.7137253302
 11
11.7903600923
 21
11.7209446618
  0
LINE
  5
327
100
AcDbEntity
  8
03__ASM_ALL_CURVES
100
AcDbLine
 62
4
  6
CONTINUOUS
 10
11.8011890923
 20
11.6415319953
 11
11.7903600923
 21
11.6343126618
  0
LINE
  5
328
100
AcDbEntity
  8
03__ASM_ALL_CURVES
100
AcDbLine
 62
4
  6
CONTINUOUS
 10
9.9672074265
 20
7.6705316618
 11
9.9888654252
 21
7.6759461618
  0
LINE
  5
329
100
AcDbEntity
  8
03__ASM_ALL_CURVES
100
AcDbLine
 62
4
  6
CONTINUOUS
 10
7.8804267581
 20
7.7950651618
 11
7.8876460923
 21
7.7950651618
  0
LINE
  5
32A
100
AcDbEntity
  8
03__ASM_ALL_CURVES
100
AcDbLine
 62
4
  6
CONTINUOUS
 10
7.8804267581
 20
7.8329666618
 11
7.8515494239
 21
7.8329666618
  0
LINE
  5
32B
100
AcDbEntity
  8
03__ASM_ALL_CURVES
100
AcDbLine
 62
4
  6
CONTINUOUS
 10
7.8515494239
 20
7.8762826618
 11
7.8804267581
 21
7.8762826618
  0
LINE
  5
32C
100
AcDbEntity
  8
03__ASM_ALL_CURVES
100
AcDbLine
 62
4
  6
CONTINUOUS
 10
8.9311107607
 20
7.8762826618
 11
8.9383300923
 21
7.8762826618
  0
LINE
  5
32D
100
AcDbEntity
  8
03__ASM_ALL_CURVES
100
AcDbLine
 62
4
  6
CONTINUOUS
 10
8.9744267581
 20
7.8816971618
 11
8.9816460923
 21
7.8816971618
  0
LINE
  5
32E
100
AcDbEntity
  8
03__ASM_ALL_CURVES
100
AcDbLine
 62
4
  6
CONTINUOUS
 10
10.0033040923
 20
7.9547929118
 11
9.992475092
 21
7.9547929118
  0
LINE
  5
32F
100
AcDbEntity
  8
03__ASM_ALL_CURVES
100
AcDbLine
 62
4
  6
CONTINUOUS
 10
9.0033040923
 20
7.9547929118
 11
8.992475092
 21
7.9547929118
  0
LINE
  5
330
100
AcDbEntity
  8
03__ASM_ALL_CURVES
100
AcDbLine
 62
4
  6
CONTINUOUS
 10
7.9093040923
 20
7.9547929118
 11
7.898475092
 21
7.9547929118
  0
LINE
  5
331
100
AcDbEntity
  8
03__ASM_ALL_CURVES
100
AcDbLine
 62
4
  6
CONTINUOUS
 10
9.9744267581
 20
8.0062306618
 11
9.9455494239
 21
8.0062306618
  0
LINE
  5
332
100
AcDbEntity
  8
03__ASM_ALL_CURVES
100
AcDbLine
 62
4
  6
CONTINUOUS
 10
8.9744267581
 20
8.0062306618
 11
8.9455494239
 21
8.0062306618
  0
LINE
  5
333
100
AcDbEntity
  8
03__ASM_ALL_CURVES
100
AcDbLine
 62
4
  6
CONTINUOUS
 10
10.0033040923
 20
7.8546246618
 11
9.9672074265
 21
7.8600391618
  0
LINE
  5
334
100
AcDbEntity
  8
03__ASM_ALL_CURVES
100
AcDbLine
 62
4
  6
CONTINUOUS
 10
8.9672074265
 20
8.2119816618
 11
8.9888654252
 21
8.2065671618
  0
LINE
  5
335
100
AcDbEntity
  8
03__ASM_ALL_CURVES
100
AcDbLine
 62
4
  6
CONTINUOUS
 10
9.9455494239
 20
8.0062306618
 11
9.9311107607
 21
8.0116451618
  0
LINE
  5
336
100
AcDbEntity
  8
03__ASM_ALL_CURVES
100
AcDbLine
 62
4
  6
CONTINUOUS
 10
9.9744267581
 20
8.0062306618
 11
9.9599880923
 21
8.0116451618
  0
LINE
  5
337
100
AcDbEntity
  8
03__ASM_ALL_CURVES
100
AcDbLine
 62
4
  6
CONTINUOUS
 10
9.9744267581
 20
8.0495466618
 11
9.9888654252
 21
8.0441321618
  0
LINE
  5
338
100
AcDbEntity
  8
03__ASM_ALL_CURVES
100
AcDbLine
 62
4
  6
CONTINUOUS
 10
9.9311107607
 20
8.0116451618
 11
9.9238914239
 21
8.0170596618
  0
LINE
  5
339
100
AcDbEntity
  8
03__ASM_ALL_CURVES
100
AcDbLine
 62
4
  6
CONTINUOUS
 10
9.9888654252
 20
8.0441321618
 11
9.9960847588
 21
8.0387176618
  0
LINE
  5
33A
100
AcDbEntity
  8
03__ASM_ALL_CURVES
100
AcDbLine
 62
4
  6
CONTINUOUS
 10
9.9311107607
 20
8.0928626618
 11
9.9238914239
 21
8.0982771618
  0
LINE
  5
33B
100
AcDbEntity
  8
03__ASM_ALL_CURVES
100
AcDbLine
 62
4
  6
CONTINUOUS
 10
9.9744267581
 20
8.0874481618
 11
9.9599880923
 21
8.0982771618
  0
LINE
  5
33C
100
AcDbEntity
  8
03__ASM_ALL_CURVES
100
AcDbLine
 62
4
  6
CONTINUOUS
 10
9.9383300923
 20
8.1361786618
 11
9.9455494239
 21
8.1307641618
  0
LINE
  5
33D
100
AcDbEntity
  8
03__ASM_ALL_CURVES
100
AcDbLine
 62
4
  6
CONTINUOUS
 10
9.9816460923
 20
8.1415931618
 11
9.9960847588
 21
8.1307641618
  0
LINE
  5
33E
100
AcDbEntity
  8
03__ASM_ALL_CURVES
100
AcDbLine
 62
4
  6
CONTINUOUS
 10
8.1814880923
 20
10.3476286624
 11
8.1964880923
 21
10.3276286618
  0
LINE
  5
33F
100
AcDbEntity
  8
03__ASM_ALL_CURVES
100
AcDbLine
 62
4
  6
CONTINUOUS
 10
9.9960847588
 20
7.4322936618
 11
10.0033040923
 21
7.4214646618
  0
LINE
  5
340
100
AcDbEntity
  8
03__ASM_ALL_CURVES
100
AcDbLine
 62
4
  6
CONTINUOUS
 10
9.9960847588
 20
7.5189256618
 11
10.0033040923
 21
7.5080966618
  0
LINE
  5
341
100
AcDbEntity
  8
03__ASM_ALL_CURVES
100
AcDbLine
 62
4
  6
CONTINUOUS
 10
9.9238914239
 20
7.7517491618
 11
9.9166720923
 21
7.7625781618
  0
LINE
  5
342
100
AcDbEntity
  8
03__ASM_ALL_CURVES
100
AcDbLine
 62
4
  6
CONTINUOUS
 10
9.9527687607
 20
7.7842361618
 11
9.9672074265
 21
7.7625781618
  0
LINE
  5
343
100
AcDbEntity
  8
03__ASM_ALL_CURVES
100
AcDbLine
 62
4
  6
CONTINUOUS
 10
9.9599880923
 20
7.5243401618
 11
9.9672074265
 21
7.5080966618
  0
LINE
  5
344
100
AcDbEntity
  8
03__ASM_ALL_CURVES
100
AcDbLine
 62
4
  6
CONTINUOUS
 10
8.6914880923
 20
10.6876286618
 11
8.7289880923
 21
10.5876286624
  0
LINE
  5
345
100
AcDbEntity
  8
03__ASM_ALL_CURVES
100
AcDbLine
 62
4
  6
CONTINUOUS
 10
8.8714880923
 20
10.3576286618
 11
8.8639880923
 21
10.3876286618
  0
LINE
  5
346
100
AcDbEntity
  8
03__ASM_ALL_CURVES
100
AcDbLine
 62
4
  6
CONTINUOUS
 10
8.9464880923
 20
10.4176286618
 11
8.9539880923
 21
10.3876286618
  0
LINE
  5
347
100
AcDbEntity
  8
03__ASM_ALL_CURVES
100
AcDbLine
 62
4
  6
CONTINUOUS
 10
9.5199880923
 20
8.9226286618
 11
9.5199880923
 21
8.8026286618
  0
LINE
  5
348
100
AcDbEntity
  8
03__ASM_ALL_CURVES
100
AcDbLine
 62
4
  6
CONTINUOUS
 10
7.8226720923
 20
7.2536151618
 11
7.8298914239
 21
7.2644441618
  0
LINE
  5
349
100
AcDbEntity
  8
03__ASM_ALL_CURVES
100
AcDbLine
 62
4
  6
CONTINUOUS
 10
7.8587687607
 20
7.2536151618
 11
7.8659880923
 21
7.2644441618
  0
LINE
  5
34A
100
AcDbEntity
  8
03__ASM_ALL_CURVES
100
AcDbLine
 62
4
  6
CONTINUOUS
 10
7.9093040923
 20
7.2427861618
 11
7.9020847588
 21
7.2319571618
  0
LINE
  5
34B
100
AcDbEntity
  8
03__ASM_ALL_CURVES
100
AcDbLine
 62
4
  6
CONTINUOUS
 10
10.7719880923
 20
11.2776286594
 11
10.7794880923
 21
11.2876286642
  0
LINE
  5
34C
100
AcDbEntity
  8
03__ASM_ALL_CURVES
100
AcDbLine
 62
4
  6
CONTINUOUS
 10
10.7944880923
 20
11.2276286606
 11
10.7794880923
 21
11.2076286618
  0
LINE
  5
34D
100
AcDbEntity
  8
03__ASM_ALL_CURVES
100
AcDbLine
 62
4
  6
CONTINUOUS
 10
10.8319880923
 20
11.2576286642
 11
10.8244880923
 21
11.2476286594
  0
LINE
  5
34E
100
AcDbEntity
  8
03__ASM_ALL_CURVES
100
AcDbLine
 62
4
  6
CONTINUOUS
 10
12.1260590923
 20
11.7137253302
 11
12.1368880923
 21
11.7209446618
  0
LINE
  5
34F
100
AcDbEntity
  8
03__ASM_ALL_CURVES
100
AcDbLine
 62
4
  6
CONTINUOUS
 10
12.1477170923
 20
11.6415319953
 11
12.1368880923
 21
11.6343126618
  0
LINE
  5
350
100
AcDbEntity
  8
03__ASM_ALL_CURVES
100
AcDbLine
 62
4
  6
CONTINUOUS
 10
12.3859550923
 20
11.7137253302
 11
12.3967840923
 21
11.7209446618
  0
LINE
  5
351
100
AcDbEntity
  8
03__ASM_ALL_CURVES
100
AcDbLine
 62
4
  6
CONTINUOUS
 10
12.4076130923
 20
11.6415319953
 11
12.3967840923
 21
11.6343126618
  0
LINE
  5
352
100
AcDbEntity
  8
03__ASM_ALL_CURVES
100
AcDbLine
 62
4
  6
CONTINUOUS
 10
8.9672074265
 20
7.6705316618
 11
8.9888654252
 21
7.6759461618
  0
LINE
  5
353
100
AcDbEntity
  8
03__ASM_ALL_CURVES
100
AcDbLine
 62
4
  6
CONTINUOUS
 10
8.9455494239
 20
8.0495466618
 11
8.9744267581
 21
8.0495466618
  0
LINE
  5
354
100
AcDbEntity
  8
03__ASM_ALL_CURVES
100
AcDbLine
 62
4
  6
CONTINUOUS
 10
9.9816460923
 20
8.0874481618
 11
9.9744267581
 21
8.0874481618
  0
LINE
  5
355
100
AcDbEntity
  8
03__ASM_ALL_CURVES
100
AcDbLine
 62
4
  6
CONTINUOUS
 10
8.9816460923
 20
8.0874481618
 11
8.9744267581
 21
8.0874481618
  0
LINE
  5
356
100
AcDbEntity
  8
03__ASM_ALL_CURVES
100
AcDbLine
 62
4
  6
CONTINUOUS
 10
11.0684267581
 20
8.0928626618
 11
11.0395494239
 21
8.0928626618
  0
LINE
  5
357
100
AcDbEntity
  8
03__ASM_ALL_CURVES
100
AcDbLine
 62
4
  6
CONTINUOUS
 10
9.9383300923
 20
8.0928626618
 11
9.9311107607
 21
8.0928626618
  0
LINE
  5
358
100
AcDbEntity
  8
03__ASM_ALL_CURVES
100
AcDbLine
 62
4
  6
CONTINUOUS
 10
8.9383300923
 20
8.0928626618
 11
8.9311107607
 21
8.0928626618
  0
LINE
  5
359
100
AcDbEntity
  8
03__ASM_ALL_CURVES
100
AcDbLine
 62
4
  6
CONTINUOUS
 10
8.9311107607
 20
8.1361786618
 11
8.9383300923
 21
8.1361786618
  0
LINE
  5
35A
100
AcDbEntity
  8
03__ASM_ALL_CURVES
100
AcDbLine
 62
4
  6
CONTINUOUS
 10
9.9311107607
 20
8.1361786618
 11
9.9383300923
 21
8.1361786618
  0
LINE
  5
35B
100
AcDbEntity
  8
03__ASM_ALL_CURVES
100
AcDbLine
 62
4
  6
CONTINUOUS
 10
11.0395494239
 20
8.1361786618
 11
11.0684267581
 21
8.1361786618
  0
LINE
  5
35C
100
AcDbEntity
  8
03__ASM_ALL_CURVES
100
AcDbLine
 62
4
  6
CONTINUOUS
 10
8.9744267581
 20
8.1415931618
 11
8.9816460923
 21
8.1415931618
  0
LINE
  5
35D
100
AcDbEntity
  8
03__ASM_ALL_CURVES
100
AcDbLine
 62
4
  6
CONTINUOUS
 10
9.9744267581
 20
8.1415931618
 11
9.9816460923
 21
8.1415931618
  0
LINE
  5
35E
100
AcDbEntity
  8
03__ASM_ALL_CURVES
100
AcDbLine
 62
4
  6
CONTINUOUS
 10
7.8587687607
 20
8.2119816618
 11
7.8732074265
 21
8.2119816618
  0
LINE
  5
35F
100
AcDbEntity
  8
03__ASM_ALL_CURVES
100
AcDbLine
 62
4
  6
CONTINUOUS
 10
8.9527687607
 20
8.2119816618
 11
8.9672074265
 21
8.2119816618
  0
LINE
  5
360
100
AcDbEntity
  8
03__ASM_ALL_CURVES
100
AcDbLine
 62
4
  6
CONTINUOUS
 10
9.9527687607
 20
8.2119816618
 11
9.9672074265
 21
8.2119816618
  0
LINE
  5
361
100
AcDbEntity
  8
03__ASM_ALL_CURVES
100
AcDbLine
 62
4
  6
CONTINUOUS
 10
9.9672074265
 20
8.2119816618
 11
9.9888654252
 21
8.2065671618
  0
LINE
  5
362
100
AcDbEntity
  8
03__ASM_ALL_CURVES
100
AcDbLine
 62
4
  6
CONTINUOUS
 10
9.9888654252
 20
8.2065671618
 11
10.0033040923
 21
8.1957381618
  0
LINE
  5
363
100
AcDbEntity
  8
03__ASM_ALL_CURVES
100
AcDbLine
 62
4
  6
CONTINUOUS
 10
8.3239880923
 20
10.4376286642
 11
8.3389880923
 21
10.4176286618
  0
LINE
  5
364
100
AcDbEntity
  8
03__ASM_ALL_CURVES
100
AcDbLine
 62
4
  6
CONTINUOUS
 10
9.9238914239
 20
8.0170596618
 11
9.9166720923
 21
8.0278886618
  0
LINE
  5
365
100
AcDbEntity
  8
03__ASM_ALL_CURVES
100
AcDbLine
 62
4
  6
CONTINUOUS
 10
9.9238914239
 20
8.0982771618
 11
9.9166720923
 21
8.1091061618
  0
LINE
  5
366
100
AcDbEntity
  8
03__ASM_ALL_CURVES
100
AcDbLine
 62
4
  6
CONTINUOUS
 10
9.9960847588
 20
8.0387176618
 11
10.0033040923
 21
8.0278886618
  0
LINE
  5
367
100
AcDbEntity
  8
03__ASM_ALL_CURVES
100
AcDbLine
 62
4
  6
CONTINUOUS
 10
9.9599880923
 20
8.0982771618
 11
9.9527687607
 21
8.1091061618
  0
LINE
  5
368
100
AcDbEntity
  8
03__ASM_ALL_CURVES
100
AcDbLine
 62
4
  6
CONTINUOUS
 10
9.9455494239
 20
8.1307641618
 11
9.9527687607
 21
8.1199351618
  0
LINE
  5
369
100
AcDbEntity
  8
03__ASM_ALL_CURVES
100
AcDbLine
 62
4
  6
CONTINUOUS
 10
9.9960847588
 20
8.1307641618
 11
10.0033040923
 21
8.1199351618
  0
LINE
  5
36A
100
AcDbEntity
  8
03__ASM_ALL_CURVES
100
AcDbLine
 62
4
  6
CONTINUOUS
 10
9.9599880923
 20
8.0116451618
 11
9.9527687607
 21
8.0278886618
  0
LINE
  5
36B
100
AcDbEntity
  8
03__ASM_ALL_CURVES
100
AcDbLine
 62
4
  6
CONTINUOUS
 10
8.8489880923
 20
10.6476286642
 11
8.8789880923
 21
10.5676286618
  0
LINE
  5
36C
100
AcDbEntity
  8
03__ASM_ALL_CURVES
100
AcDbLine
 62
4
  6
CONTINUOUS
 10
9.0589880923
 20
10.4176286618
 11
9.0664880923
 21
10.3876286618
  0
LINE
  5
36D
100
AcDbEntity
  8
03__ASM_ALL_CURVES
100
AcDbLine
 62
4
  6
CONTINUOUS
 10
8.9672074265
 20
7.5080966618
 11
8.9599880923
 21
7.4918531618
  0
LINE
  5
36E
100
AcDbEntity
  8
03__ASM_ALL_CURVES
100
AcDbLine
 62
4
  6
CONTINUOUS
 10
8.9166720923
 20
8.1199351618
 11
8.9238914239
 21
8.1307641618
  0
LINE
  5
36F
100
AcDbEntity
  8
03__ASM_ALL_CURVES
100
AcDbLine
 62
4
  6
CONTINUOUS
 10
7.8226720923
 20
8.1957381618
 11
7.8371107607
 21
8.2065671618
  0
LINE
  5
370
100
AcDbEntity
  8
03__ASM_ALL_CURVES
100
AcDbLine
 62
4
  6
CONTINUOUS
 10
11.6008525923
 20
10.8387253302
 11
11.6116815923
 21
10.8459446618
  0
LINE
  5
371
100
AcDbEntity
  8
03__ASM_ALL_CURVES
100
AcDbLine
 62
4
  6
CONTINUOUS
 10
7.8732074265
 20
7.6705316618
 11
7.8948654252
 21
7.6759461618
  0
LINE
  5
372
100
AcDbEntity
  8
03__ASM_ALL_CURVES
100
AcDbLine
 62
4
  6
CONTINUOUS
 10
9.9311107607
 20
8.2065671618
 11
9.9527687607
 21
8.2119816618
  0
LINE
  5
373
100
AcDbEntity
  8
03__ASM_ALL_CURVES
100
AcDbLine
 62
4
  6
CONTINUOUS
 10
11.0395494239
 20
8.0928626618
 11
11.0251107607
 21
8.0982771618
  0
LINE
  5
374
100
AcDbEntity
  8
03__ASM_ALL_CURVES
100
AcDbLine
 62
4
  6
CONTINUOUS
 10
11.0684267581
 20
8.1361786618
 11
11.0828654252
 21
8.1307641618
  0
LINE
  5
375
100
AcDbEntity
  8
03__ASM_ALL_CURVES
100
AcDbLine
 62
4
  6
CONTINUOUS
 10
8.7664880923
 20
10.3376286621
 11
8.7514880923
 21
10.3576286618
  0
LINE
  5
376
100
AcDbEntity
  8
03__ASM_ALL_CURVES
100
AcDbLine
 62
4
  6
CONTINUOUS
 10
8.0734880923
 20
11.2876286642
 11
8.0809880923
 21
11.2776286594
  0
LINE
  5
377
100
AcDbEntity
  8
03__ASM_ALL_CURVES
100
AcDbLine
 62
4
  6
CONTINUOUS
 10
9.2764880923
 20
10.4276286594
 11
9.2839880923
 21
10.3976286594
  0
LINE
  5
378
100
AcDbEntity
  8
03__ASM_ALL_CURVES
100
AcDbLine
 62
4
  6
CONTINUOUS
 10
9.9166720923
 20
7.8762826618
 11
9.9166720923
 21
7.8329666618
  0
LINE
  5
379
100
AcDbEntity
  8
03__ASM_ALL_CURVES
100
AcDbLine
 62
4
  6
CONTINUOUS
 10
9.9166720923
 20
7.7625781618
 11
9.9166720923
 21
7.7734071618
  0
LINE
  5
37A
100
AcDbEntity
  8
03__ASM_ALL_CURVES
100
AcDbLine
 62
4
  6
CONTINUOUS
 10
9.9166720923
 20
8.1091061618
 11
9.9166720923
 21
8.1199351618
  0
LINE
  5
37B
100
AcDbEntity
  8
03__ASM_ALL_CURVES
100
AcDbLine
 62
4
  6
CONTINUOUS
 10
9.9527687607
 20
8.1091061618
 11
9.9527687607
 21
8.1199351618
  0
LINE
  5
37C
100
AcDbEntity
  8
03__ASM_ALL_CURVES
100
AcDbLine
 62
4
  6
CONTINUOUS
 10
9.9599880923
 20
8.5909966618
 11
9.9599880923
 21
8.3311006618
  0
LINE
  5
37D
100
AcDbEntity
  8
03__ASM_ALL_CURVES
100
AcDbLine
 62
4
  6
CONTINUOUS
 10
10.0033040923
 20
8.1199351618
 11
10.0033040923
 21
8.1091061618
  0
LINE
  5
37E
100
AcDbEntity
  8
03__ASM_ALL_CURVES
100
AcDbLine
 62
4
  6
CONTINUOUS
 10
10.0033040923
 20
7.9629146618
 11
10.0033040923
 21
7.9547929118
  0
LINE
  5
37F
100
AcDbEntity
  8
03__ASM_ALL_CURVES
100
AcDbLine
 62
4
  6
CONTINUOUS
 10
10.0033040923
 20
7.3564906618
 11
10.0033040923
 21
7.3483689118
  0
LINE
  5
380
100
AcDbEntity
  8
03__ASM_ALL_CURVES
100
AcDbLine
 62
4
  6
CONTINUOUS
 10
10.0033040923
 20
7.7463346618
 11
10.0033040923
 21
7.7896506618
  0
LINE
  5
381
100
AcDbEntity
  8
03__ASM_ALL_CURVES
100
AcDbLine
 62
4
  6
CONTINUOUS
 10
8.9527687607
 20
8.1199351618
 11
8.9599880923
 21
8.1307641618
  0
LINE
  5
382
100
AcDbEntity
  8
03__ASM_ALL_CURVES
100
AcDbLine
 62
4
  6
CONTINUOUS
 10
8.9527687607
 20
8.1091061618
 11
8.9455494239
 21
8.0982771618
  0
LINE
  5
383
100
AcDbEntity
  8
03__ASM_ALL_CURVES
100
AcDbLine
 62
4
  6
CONTINUOUS
 10
8.9166720923
 20
8.0278886618
 11
8.9238914239
 21
8.0387176618
  0
LINE
  5
384
100
AcDbEntity
  8
03__ASM_ALL_CURVES
100
AcDbLine
 62
4
  6
CONTINUOUS
 10
9.0033040923
 20
8.1091061618
 11
8.9960847588
 21
8.0982771618
  0
LINE
  5
385
100
AcDbEntity
  8
03__ASM_ALL_CURVES
100
AcDbLine
 62
4
  6
CONTINUOUS
 10
9.0033040923
 20
8.0278886618
 11
8.9960847588
 21
8.0170596618
  0
LINE
  5
386
100
AcDbEntity
  8
03__ASM_ALL_CURVES
100
AcDbLine
 62
4
  6
CONTINUOUS
 10
8.9166720923
 20
7.8600391618
 11
8.9238914239
 21
7.8708681618
  0
LINE
  5
387
100
AcDbEntity
  8
03__ASM_ALL_CURVES
100
AcDbLine
 62
4
  6
CONTINUOUS
 10
8.9527687607
 20
7.8600391618
 11
8.9599880923
 21
7.8708681618
  0
LINE
  5
388
100
AcDbEntity
  8
03__ASM_ALL_CURVES
100
AcDbLine
 62
4
  6
CONTINUOUS
 10
8.9455494239
 20
7.7734071618
 11
8.9527687607
 21
7.7842361618
  0
LINE
  5
389
100
AcDbEntity
  8
03__ASM_ALL_CURVES
100
AcDbLine
 62
4
  6
CONTINUOUS
 10
9.0033040923
 20
7.8492101618
 11
8.9960847588
 21
7.8383811618
  0
LINE
  5
38A
100
AcDbEntity
  8
03__ASM_ALL_CURVES
100
AcDbLine
 62
4
  6
CONTINUOUS
 10
11.6387540923
 20
11.6992866618
 11
11.6333395923
 21
11.6920673302
  0
LINE
  5
38B
100
AcDbEntity
  8
03__ASM_ALL_CURVES
100
AcDbLine
 62
4
  6
CONTINUOUS
 10
11.6441685923
 20
11.6559706618
 11
11.6333395923
 21
11.6415319953
  0
LINE
  5
38C
100
AcDbEntity
  8
03__ASM_ALL_CURVES
100
AcDbLine
 62
4
  6
CONTINUOUS
 10
11.7741165923
 20
11.7065059934
 11
11.7795310923
 21
11.7137253302
  0
LINE
  5
38D
100
AcDbEntity
  8
03__ASM_ALL_CURVES
100
AcDbLine
 62
4
  6
CONTINUOUS
 10
7.898475092
 20
7.9547929118
 11
7.9093040923
 21
7.9629146618
  0
LINE
  5
38E
100
AcDbEntity
  8
03__ASM_ALL_CURVES
100
AcDbLine
 62
4
  6
CONTINUOUS
 10
7.8298914239
 20
7.8654536618
 11
7.8371107607
 21
7.8708681618
  0
LINE
  5
38F
100
AcDbEntity
  8
03__ASM_ALL_CURVES
100
AcDbLine
 62
4
  6
CONTINUOUS
 10
7.9020847588
 20
7.8437956618
 11
7.8948654252
 21
7.8383811618
  0
LINE
  5
390
100
AcDbEntity
  8
03__ASM_ALL_CURVES
100
AcDbLine
 62
4
  6
CONTINUOUS
 10
7.8298914239
 20
7.7842361618
 11
7.8371107607
 21
7.7896506618
  0
LINE
  5
391
100
AcDbEntity
  8
03__ASM_ALL_CURVES
100
AcDbLine
 62
4
  6
CONTINUOUS
 10
11.6333395923
 20
10.8098479934
 11
11.6116815923
 21
10.7954093276
  0
LINE
  5
392
100
AcDbEntity
  8
03__ASM_ALL_CURVES
100
AcDbLine
 62
4
  6
CONTINUOUS
 10
11.8607485923
 20
10.8387253302
 11
11.8715775923
 21
10.8459446618
  0
LINE
  5
393
100
AcDbEntity
  8
03__ASM_ALL_CURVES
100
AcDbLine
 62
4
  6
CONTINUOUS
 10
11.8932355923
 20
10.8098479934
 11
11.8715775923
 21
10.7954093276
  0
LINE
  5
394
100
AcDbEntity
  8
03__ASM_ALL_CURVES
100
AcDbLine
 62
4
  6
CONTINUOUS
 10
8.9311107607
 20
8.2065671618
 11
8.9527687607
 21
8.2119816618
  0
LINE
  5
395
100
AcDbEntity
  8
0
100
AcDbLine
 62
7
  6
CONTINUOUS
 10
11.0539880923
 20
8.6776286618
 11
7.8659881286
 21
8.6776286618
  0
LINE
  5
396
100
AcDbEntity
  8
03__ASM_ALL_CURVES
100
AcDbLine
 62
4
  6
CONTINUOUS
 10
11.1406200923
 20
8.6776286618
 11
11.4005160923
 21
8.6776286618
  0
LINE
  5
397
100
AcDbEntity
  8
03__ASM_ALL_CURVES
100
AcDbLine
 62
4
  6
CONTINUOUS
 10
11.0251107607
 20
8.0982771618
 11
11.0178914239
 21
8.1036916618
  0
LINE
  5
398
100
AcDbEntity
  8
03__ASM_ALL_CURVES
100
AcDbLine
 62
4
  6
CONTINUOUS
 10
11.0828654252
 20
8.1307641618
 11
11.0900847588
 21
8.1253496618
  0
LINE
  5
399
100
AcDbEntity
  8
03__ASM_ALL_CURVES
100
AcDbLine
 62
4
  6
CONTINUOUS
 10
8.8114880923
 20
10.4376286642
 11
8.8189880923
 21
10.4276286594
  0
LINE
  5
39A
100
AcDbEntity
  8
03__ASM_ALL_CURVES
100
AcDbLine
 62
4
  6
CONTINUOUS
 10
8.8864880923
 20
10.3376286621
 11
8.8714880923
 21
10.3576286618
  0
LINE
  5
39B
100
AcDbEntity
  8
03__ASM_ALL_CURVES
100
AcDbLine
 62
4
  6
CONTINUOUS
 10
8.9314880923
 20
10.4376286642
 11
8.9464880923
 21
10.4176286618
  0
LINE
  5
39C
100
AcDbEntity
  8
03__ASM_ALL_CURVES
100
AcDbLine
 62
4
  6
CONTINUOUS
 10
9.0439880923
 20
10.4376286642
 11
9.0589880923
 21
10.4176286618
  0
LINE
  5
39D
100
AcDbEntity
  8
03__ASM_ALL_CURVES
100
AcDbLine
 62
4
  6
CONTINUOUS
 10
10.7794880923
 20
11.2076286618
 11
10.7719880923
 21
11.1776286618
  0
LINE
  5
39E
100
AcDbEntity
  8
03__ASM_ALL_CURVES
100
AcDbLine
 62
4
  6
CONTINUOUS
 10
9.0033040923
 20
7.7625781618
 11
8.9960847588
 21
7.7517491618
  0
LINE
  5
39F
100
AcDbEntity
  8
03__ASM_ALL_CURVES
100
AcDbLine
 62
4
  6
CONTINUOUS
 10
8.9166720923
 20
7.5080966618
 11
8.9238914239
 21
7.5189256618
  0
LINE
  5
3A0
100
AcDbEntity
  8
03__ASM_ALL_CURVES
100
AcDbLine
 62
4
  6
CONTINUOUS
 10
8.9166720923
 20
7.4214646618
 11
8.9238914239
 21
7.4322936618
  0
LINE
  5
3A1
100
AcDbEntity
  8
03__ASM_ALL_CURVES
100
AcDbLine
 62
4
  6
CONTINUOUS
 10
9.0033040923
 20
7.5080966618
 11
8.9960847588
 21
7.4972676618
  0
LINE
  5
3A2
100
AcDbEntity
  8
03__ASM_ALL_CURVES
100
AcDbLine
 62
4
  6
CONTINUOUS
 10
9.0033040923
 20
7.4214646618
 11
8.9960847588
 21
7.4106356618
  0
LINE
  5
3A3
100
AcDbEntity
  8
03__ASM_ALL_CURVES
100
AcDbLine
 62
4
  6
CONTINUOUS
 10
8.9166720923
 20
7.2536151618
 11
8.9238914239
 21
7.2644441618
  0
LINE
  5
3A4
100
AcDbEntity
  8
03__ASM_ALL_CURVES
100
AcDbLine
 62
4
  6
CONTINUOUS
 10
11.8066035923
 20
11.6487513289
 11
11.8011890923
 21
11.6415319953
  0
LINE
  5
3A5
100
AcDbEntity
  8
03__ASM_ALL_CURVES
100
AcDbLine
 62
4
  6
CONTINUOUS
 10
11.9690385923
 20
11.7209446618
 11
11.9582095923
 21
11.7065059934
  0
LINE
  5
3A6
100
AcDbEntity
  8
03__ASM_ALL_CURVES
100
AcDbLine
 62
4
  6
CONTINUOUS
 10
7.8659880923
 20
7.7842361618
 11
7.8804267581
 21
7.7950651618
  0
LINE
  5
3A7
100
AcDbEntity
  8
03__ASM_ALL_CURVES
100
AcDbLine
 62
4
  6
CONTINUOUS
 10
7.8515494239
 20
7.7517491618
 11
7.8443300923
 21
7.7463346618
  0
LINE
  5
3A8
100
AcDbEntity
  8
03__ASM_ALL_CURVES
100
AcDbLine
 62
4
  6
CONTINUOUS
 10
7.9020847588
 20
7.7517491618
 11
7.8876460923
 21
7.7409201618
  0
LINE
  5
3A9
100
AcDbEntity
  8
03__ASM_ALL_CURVES
100
AcDbLine
 62
4
  6
CONTINUOUS
 10
7.8948654252
 20
7.6759461618
 11
7.9093040923
 21
7.6867751618
  0
LINE
  5
3AA
100
AcDbEntity
  8
03__ASM_ALL_CURVES
100
AcDbLine
 62
4
  6
CONTINUOUS
 10
7.8298914239
 20
7.5243401618
 11
7.8371107607
 21
7.5297546618
  0
LINE
  5
3AB
100
AcDbEntity
  8
03__ASM_ALL_CURVES
100
AcDbLine
 62
4
  6
CONTINUOUS
 10
7.8659880923
 20
7.5243401618
 11
7.8804267581
 21
7.5351691618
  0
LINE
  5
3AC
100
AcDbEntity
  8
03__ASM_ALL_CURVES
100
AcDbLine
 62
4
  6
CONTINUOUS
 10
7.8515494239
 20
7.4918531618
 11
7.8443300923
 21
7.4864386618
  0
LINE
  5
3AD
100
AcDbEntity
  8
03__ASM_ALL_CURVES
100
AcDbLine
 62
4
  6
CONTINUOUS
 10
12.1206445923
 20
10.8098479934
 11
12.1314735923
 21
10.8170673302
  0
LINE
  5
3AE
100
AcDbEntity
  8
03__ASM_ALL_CURVES
100
AcDbLine
 62
4
  6
CONTINUOUS
 10
12.2072765923
 20
10.8387253302
 11
12.2181055923
 21
10.8459446618
  0
LINE
  5
3AF
100
AcDbEntity
  8
03__ASM_ALL_CURVES
100
AcDbLine
 62
4
  6
CONTINUOUS
 10
12.1531315923
 20
10.7665319953
 11
12.1423025923
 21
10.7593126618
  0
LINE
  5
3B0
100
AcDbEntity
  8
03__ASM_ALL_CURVES
100
AcDbLine
 62
4
  6
CONTINUOUS
 10
12.2397635923
 20
10.8170673302
 11
12.2289345923
 21
10.8098479934
  0
LINE
  5
3B1
100
AcDbEntity
  8
03__ASM_ALL_CURVES
100
AcDbLine
 62
4
  6
CONTINUOUS
 10
12.2397635923
 20
10.7665319953
 11
12.2289345923
 21
10.7593126618
  0
LINE
  5
3B2
100
AcDbEntity
  8
03__ASM_ALL_CURVES
100
AcDbLine
 62
4
  6
CONTINUOUS
 10
12.3805405923
 20
10.8387253302
 11
12.3913695923
 21
10.8459446618
  0
LINE
  5
3B3
100
AcDbEntity
  8
03__ASM_ALL_CURVES
100
AcDbLine
 62
4
  6
CONTINUOUS
 10
12.3805405923
 20
10.8026286618
 11
12.3913695923
 21
10.8098479934
  0
LINE
  5
3B4
100
AcDbEntity
  8
03__ASM_ALL_CURVES
100
AcDbLine
 62
4
  6
CONTINUOUS
 10
12.4130275923
 20
10.8170673302
 11
12.4021985923
 21
10.8098479934
  0
LINE
  5
3B5
100
AcDbEntity
  8
03__ASM_ALL_CURVES
100
AcDbLine
 62
4
  6
CONTINUOUS
 10
12.4130275923
 20
10.7665319953
 11
12.4021985923
 21
10.7593126618
  0
LINE
  5
3B6
100
AcDbEntity
  8
03__ASM_ALL_CURVES
100
AcDbLine
 62
4
  6
CONTINUOUS
 10
7.8371107607
 20
8.2065671618
 11
7.8587687607
 21
8.2119816618
  0
LINE
  5
3B7
100
AcDbEntity
  8
03__ASM_ALL_CURVES
100
AcDbLine
 62
4
  6
CONTINUOUS
 10
9.4824880923
 20
8.9226286618
 11
9.5574880923
 21
8.9226286618
  0
LINE
  5
3B8
100
AcDbEntity
  8
03__ASM_ALL_CURVES
100
AcDbLine
 62
4
  6
CONTINUOUS
 10
8.3089880923
 20
10.4476286618
 11
8.3239880923
 21
10.4376286642
  0
LINE
  5
3B9
100
AcDbEntity
  8
03__ASM_ALL_CURVES
100
AcDbLine
 62
4
  6
CONTINUOUS
 10
9.2614880923
 20
10.4476286618
 11
9.2764880923
 21
10.4276286594
  0
LINE
  5
3BA
100
AcDbEntity
  8
03__ASM_ALL_CURVES
100
AcDbLine
 62
4
  6
CONTINUOUS
 10
11.0178914239
 20
8.1036916618
 11
11.0106720923
 21
8.1145206618
  0
LINE
  5
3BB
100
AcDbEntity
  8
03__ASM_ALL_CURVES
100
AcDbLine
 62
4
  6
CONTINUOUS
 10
9.9527687607
 20
8.0278886618
 11
9.9599880923
 21
8.0441321618
  0
LINE
  5
3BC
100
AcDbEntity
  8
03__ASM_ALL_CURVES
100
AcDbLine
 62
4
  6
CONTINUOUS
 10
12.1206445923
 20
11.7065059934
 11
12.1260590923
 21
11.7137253302
  0
LINE
  5
3BD
100
AcDbEntity
  8
03__ASM_ALL_CURVES
100
AcDbLine
 62
4
  6
CONTINUOUS
 10
12.1531315923
 20
11.6487513289
 11
12.1477170923
 21
11.6415319953
  0
LINE
  5
3BE
100
AcDbEntity
  8
03__ASM_ALL_CURVES
100
AcDbLine
 62
4
  6
CONTINUOUS
 10
11.5954380923
 20
10.8315059934
 11
11.6008525923
 21
10.8387253302
  0
LINE
  5
3BF
100
AcDbEntity
  8
03__ASM_ALL_CURVES
100
AcDbLine
 62
4
  6
CONTINUOUS
 10
11.6116815923
 20
10.7954093276
 11
11.6008525923
 21
10.7809706618
  0
LINE
  5
3C0
100
AcDbEntity
  8
03__ASM_ALL_CURVES
100
AcDbLine
 62
4
  6
CONTINUOUS
 10
11.6387540923
 20
10.8170673302
 11
11.6333395923
 21
10.8098479934
  0
LINE
  5
3C1
100
AcDbEntity
  8
03__ASM_ALL_CURVES
100
AcDbLine
 62
4
  6
CONTINUOUS
 10
12.3805405923
 20
11.7065059934
 11
12.3859550923
 21
11.7137253302
  0
LINE
  5
3C2
100
AcDbEntity
  8
03__ASM_ALL_CURVES
100
AcDbLine
 62
4
  6
CONTINUOUS
 10
7.9020847588
 20
7.4918531618
 11
7.8876460923
 21
7.4810241618
  0
LINE
  5
3C3
100
AcDbEntity
  8
03__ASM_ALL_CURVES
100
AcDbLine
 62
4
  6
CONTINUOUS
 10
8.9166720923
 20
8.1957381618
 11
8.9311107607
 21
8.2065671618
  0
LINE
  5
3C4
100
AcDbEntity
  8
03__ASM_ALL_CURVES
100
AcDbLine
 62
4
  6
CONTINUOUS
 10
8.9238914239
 20
8.1307641618
 11
8.9311107607
 21
8.1361786618
  0
LINE
  5
3C5
100
AcDbEntity
  8
03__ASM_ALL_CURVES
100
AcDbLine
 62
4
  6
CONTINUOUS
 10
7.898475092
 20
7.3483689118
 11
7.9093040923
 21
7.3564906618
  0
LINE
  5
3C6
100
AcDbEntity
  8
03__ASM_ALL_CURVES
100
AcDbLine
 62
4
  6
CONTINUOUS
 10
8.9599880923
 20
8.1307641618
 11
8.9744267581
 21
8.1415931618
  0
LINE
  5
3C7
100
AcDbEntity
  8
03__ASM_ALL_CURVES
100
AcDbLine
 62
4
  6
CONTINUOUS
 10
7.8298914239
 20
7.2644441618
 11
7.8371107607
 21
7.2698586618
  0
LINE
  5
3C8
100
AcDbEntity
  8
03__ASM_ALL_CURVES
100
AcDbLine
 62
4
  6
CONTINUOUS
 10
8.9455494239
 20
8.0982771618
 11
8.9383300923
 21
8.0928626618
  0
LINE
  5
3C9
100
AcDbEntity
  8
03__ASM_ALL_CURVES
100
AcDbLine
 62
4
  6
CONTINUOUS
 10
7.8659880923
 20
7.2644441618
 11
7.8804267581
 21
7.2752731618
  0
LINE
  5
3CA
100
AcDbEntity
  8
03__ASM_ALL_CURVES
100
AcDbLine
 62
4
  6
CONTINUOUS
 10
8.9960847588
 20
8.0982771618
 11
8.9816460923
 21
8.0874481618
  0
LINE
  5
3CB
100
AcDbEntity
  8
03__ASM_ALL_CURVES
100
AcDbLine
 62
4
  6
CONTINUOUS
 10
8.9238914239
 20
8.0387176618
 11
8.9311107607
 21
8.0441321618
  0
LINE
  5
3CC
100
AcDbEntity
  8
03__ASM_ALL_CURVES
100
AcDbLine
 62
4
  6
CONTINUOUS
 10
7.9020847588
 20
7.2319571618
 11
7.8948654252
 21
7.2265426618
  0
LINE
  5
3CD
100
AcDbEntity
  8
03__ASM_ALL_CURVES
100
AcDbLine
 62
4
  6
CONTINUOUS
 10
8.7814880923
 20
10.3276286618
 11
8.7664880923
 21
10.3376286621
  0
LINE
  5
3CE
100
AcDbEntity
  8
03__ASM_ALL_CURVES
100
AcDbLine
 62
4
  6
CONTINUOUS
 10
8.9014880923
 20
10.3276286618
 11
8.8864880923
 21
10.3376286621
  0
LINE
  5
3CF
100
AcDbEntity
  8
03__ASM_ALL_CURVES
100
AcDbLine
 62
4
  6
CONTINUOUS
 10
11.0900847588
 20
8.1253496618
 11
11.0973040923
 21
8.1145206618
  0
LINE
  5
3D0
100
AcDbEntity
  8
03__ASM_ALL_CURVES
100
AcDbLine
 62
4
  6
CONTINUOUS
 10
10.8019880923
 20
9.5476286618
 11
10.8019880923
 21
9.4276286618
  0
LINE
  5
3D1
100
AcDbEntity
  8
03__ASM_ALL_CURVES
100
AcDbLine
 62
4
  6
CONTINUOUS
 10
9.9672074265
 20
7.5080966618
 11
9.9599880923
 21
7.4918531618
  0
LINE
  5
3D2
100
AcDbEntity
  8
03__ASM_ALL_CURVES
100
AcDbLine
 62
4
  6
CONTINUOUS
 10
9.9166720923
 20
8.1199351618
 11
9.9238914239
 21
8.1307641618
  0
LINE
  5
3D3
100
AcDbEntity
  8
03__ASM_ALL_CURVES
100
AcDbLine
 62
4
  6
CONTINUOUS
 10
9.9527687607
 20
8.1199351618
 11
9.9599880923
 21
8.1307641618
  0
LINE
  5
3D4
100
AcDbEntity
  8
03__ASM_ALL_CURVES
100
AcDbLine
 62
4
  6
CONTINUOUS
 10
9.9527687607
 20
8.1091061618
 11
9.9455494239
 21
8.0982771618
  0
LINE
  5
3D5
100
AcDbEntity
  8
03__ASM_ALL_CURVES
100
AcDbLine
 62
4
  6
CONTINUOUS
 10
9.9166720923
 20
8.0278886618
 11
9.9238914239
 21
8.0387176618
  0
LINE
  5
3D6
100
AcDbEntity
  8
03__ASM_ALL_CURVES
100
AcDbLine
 62
4
  6
CONTINUOUS
 10
10.0033040923
 20
8.1091061618
 11
9.9960847588
 21
8.0982771618
  0
LINE
  5
3D7
100
AcDbEntity
  8
03__ASM_ALL_CURVES
100
AcDbLine
 62
4
  6
CONTINUOUS
 10
10.0033040923
 20
8.0278886618
 11
9.9960847588
 21
8.0170596618
  0
LINE
  5
3D8
100
AcDbEntity
  8
03__ASM_ALL_CURVES
100
AcDbLine
 62
4
  6
CONTINUOUS
 10
12.4130275923
 20
11.6487513289
 11
12.4076130923
 21
11.6415319953
  0
LINE
  5
3D9
100
AcDbEntity
  8
03__ASM_ALL_CURVES
100
AcDbLine
 62
4
  6
CONTINUOUS
 10
11.8553340923
 20
10.8315059934
 11
11.8607485923
 21
10.8387253302
  0
LINE
  5
3DA
100
AcDbEntity
  8
03__ASM_ALL_CURVES
100
AcDbLine
 62
4
  6
CONTINUOUS
 10
12.4888305923
 20
11.6487513289
 11
12.4780015923
 21
11.6343126618
  0
LINE
  5
3DB
100
AcDbEntity
  8
03__ASM_ALL_CURVES
100
AcDbLine
 62
4
  6
CONTINUOUS
 10
11.8715775923
 20
10.7954093276
 11
11.8607485923
 21
10.7809706618
  0
LINE
  5
3DC
100
AcDbEntity
  8
03__ASM_ALL_CURVES
100
AcDbLine
 62
4
  6
CONTINUOUS
 10
11.8986500923
 20
10.8170673302
 11
11.8932355923
 21
10.8098479934
  0
LINE
  5
3DD
100
AcDbEntity
  8
03__ASM_ALL_CURVES
100
AcDbLine
 62
4
  6
CONTINUOUS
 10
12.0556705923
 20
10.8459446618
 11
12.0448415923
 21
10.8315059934
  0
LINE
  5
3DE
100
AcDbEntity
  8
03__ASM_ALL_CURVES
100
AcDbLine
 62
4
  6
CONTINUOUS
 10
8.9960847588
 20
8.0170596618
 11
8.9888654252
 21
8.0116451618
  0
LINE
  5
3DF
100
AcDbEntity
  8
03__ASM_ALL_CURVES
100
AcDbLine
 62
4
  6
CONTINUOUS
 10
8.992475092
 20
7.9547929118
 11
9.0033040923
 21
7.9629146618
  0
LINE
  5
3E0
100
AcDbEntity
  8
03__ASM_ALL_CURVES
100
AcDbLine
 62
4
  6
CONTINUOUS
 10
8.9238914239
 20
7.8708681618
 11
8.9311107607
 21
7.8762826618
  0
LINE
  5
3E1
100
AcDbEntity
  8
03__ASM_ALL_CURVES
100
AcDbLine
 62
4
  6
CONTINUOUS
 10
8.9599880923
 20
7.8708681618
 11
8.9744267581
 21
7.8816971618
  0
LINE
  5
3E2
100
AcDbEntity
  8
03__ASM_ALL_CURVES
100
AcDbLine
 62
4
  6
CONTINUOUS
 10
8.9960847588
 20
7.8383811618
 11
8.9888654252
 21
7.8329666618
  0
LINE
  5
3E3
100
AcDbEntity
  8
03__ASM_ALL_CURVES
100
AcDbLine
 62
4
  6
CONTINUOUS
 10
8.9527687607
 20
7.7842361618
 11
8.9599880923
 21
7.7896506618
  0
LINE
  5
3E4
100
AcDbEntity
  8
03__ASM_ALL_CURVES
100
AcDbLine
 62
4
  6
CONTINUOUS
 10
8.9960847588
 20
7.7517491618
 11
8.9888654252
 21
7.7463346618
  0
LINE
  5
3E5
100
AcDbEntity
  8
03__ASM_ALL_CURVES
100
AcDbLine
 62
4
  6
CONTINUOUS
 10
8.7964880923
 20
10.4476286618
 11
8.8114880923
 21
10.4376286642
  0
LINE
  5
3E6
100
AcDbEntity
  8
03__ASM_ALL_CURVES
100
AcDbLine
 62
4
  6
CONTINUOUS
 10
11.6170960923
 20
8.6343126618
 11
11.6062670923
 21
8.6415319953
  0
LINE
  5
3E7
100
AcDbEntity
  8
03__ASM_ALL_CURVES
100
AcDbLine
 62
4
  6
CONTINUOUS
 10
8.9164880923
 20
10.4476286618
 11
8.9314880923
 21
10.4376286642
  0
LINE
  5
3E8
100
AcDbEntity
  8
03__ASM_ALL_CURVES
100
AcDbLine
 62
4
  6
CONTINUOUS
 10
11.6170960923
 20
8.7209446618
 11
11.6279250923
 21
8.7137253302
  0
LINE
  5
3E9
100
AcDbEntity
  8
03__ASM_ALL_CURVES
100
AcDbLine
 62
4
  6
CONTINUOUS
 10
9.0289880923
 20
10.4476286618
 11
9.0439880923
 21
10.4376286642
  0
LINE
  5
3EA
100
AcDbEntity
  8
03__ASM_ALL_CURVES
100
AcDbLine
 62
4
  6
CONTINUOUS
 10
10.8319880923
 20
11.2776286594
 11
10.8319880923
 21
11.2576286642
  0
LINE
  5
3EB
100
AcDbEntity
  8
03__ASM_ALL_CURVES
100
AcDbLine
 62
4
  6
CONTINUOUS
 10
11.7687020923
 20
11.6920673302
 11
11.7741165923
 21
11.7065059934
  0
LINE
  5
3EC
100
AcDbEntity
  8
03__ASM_ALL_CURVES
100
AcDbLine
 62
4
  6
CONTINUOUS
 10
11.8120180923
 20
11.663189996
 11
11.8066035923
 21
11.6487513289
  0
LINE
  5
3ED
100
AcDbEntity
  8
03__ASM_ALL_CURVES
100
AcDbLine
 62
4
  6
CONTINUOUS
 10
9.9166720923
 20
7.7734071618
 11
9.9238914239
 21
7.7842361618
  0
LINE
  5
3EE
100
AcDbEntity
  8
03__ASM_ALL_CURVES
100
AcDbLine
 62
4
  6
CONTINUOUS
 10
9.9166720923
 20
7.5080966618
 11
9.9238914239
 21
7.5189256618
  0
LINE
  5
3EF
100
AcDbEntity
  8
03__ASM_ALL_CURVES
100
AcDbLine
 62
4
  6
CONTINUOUS
 10
9.9166720923
 20
7.4214646618
 11
9.9238914239
 21
7.4322936618
  0
LINE
  5
3F0
100
AcDbEntity
  8
03__ASM_ALL_CURVES
100
AcDbLine
 62
4
  6
CONTINUOUS
 10
10.0033040923
 20
7.5080966618
 11
9.9960847588
 21
7.4972676618
  0
LINE
  5
3F1
100
AcDbEntity
  8
03__ASM_ALL_CURVES
100
AcDbLine
 62
4
  6
CONTINUOUS
 10
12.1585460923
 20
10.7737513289
 11
12.1531315923
 21
10.7665319953
  0
LINE
  5
3F2
100
AcDbEntity
  8
03__ASM_ALL_CURVES
100
AcDbLine
 62
4
  6
CONTINUOUS
 10
12.2451780923
 20
10.8242866618
 11
12.2397635923
 21
10.8170673302
  0
LINE
  5
3F3
100
AcDbEntity
  8
03__ASM_ALL_CURVES
100
AcDbLine
 62
4
  6
CONTINUOUS
 10
12.2505925923
 20
10.7809706618
 11
12.2397635923
 21
10.7665319953
  0
LINE
  5
3F4
100
AcDbEntity
  8
03__ASM_ALL_CURVES
100
AcDbLine
 62
4
  6
CONTINUOUS
 10
12.3751260923
 20
10.8315059934
 11
12.3805405923
 21
10.8387253302
  0
LINE
  5
3F5
100
AcDbEntity
  8
03__ASM_ALL_CURVES
100
AcDbLine
 62
4
  6
CONTINUOUS
 10
8.9888654252
 20
7.6759461618
 11
9.0033040923
 21
7.6867751618
  0
LINE
  5
3F6
100
AcDbEntity
  8
03__ASM_ALL_CURVES
100
AcDbLine
 62
4
  6
CONTINUOUS
 10
8.9238914239
 20
7.5189256618
 11
8.9311107607
 21
7.5243401618
  0
LINE
  5
3F7
100
AcDbEntity
  8
03__ASM_ALL_CURVES
100
AcDbLine
 62
4
  6
CONTINUOUS
 10
9.9166720923
 20
8.1957381618
 11
9.9311107607
 21
8.2065671618
  0
LINE
  5
3F8
100
AcDbEntity
  8
03__ASM_ALL_CURVES
100
AcDbLine
 62
4
  6
CONTINUOUS
 10
8.9960847588
 20
7.4972676618
 11
8.9888654252
 21
7.4918531618
  0
LINE
  5
3F9
100
AcDbEntity
  8
03__ASM_ALL_CURVES
100
AcDbLine
 62
4
  6
CONTINUOUS
 10
8.9238914239
 20
7.4322936618
 11
8.9311107607
 21
7.4377081618
  0
LINE
  5
3FA
100
AcDbEntity
  8
03__ASM_ALL_CURVES
100
AcDbLine
 62
4
  6
CONTINUOUS
 10
9.9238914239
 20
8.1307641618
 11
9.9311107607
 21
8.1361786618
  0
LINE
  5
3FB
100
AcDbEntity
  8
03__ASM_ALL_CURVES
100
AcDbLine
 62
4
  6
CONTINUOUS
 10
11.7795310923
 20
9.7137253302
 11
11.7903600923
 21
9.7209446618
  0
LINE
  5
3FC
100
AcDbEntity
  8
03__ASM_ALL_CURVES
100
AcDbLine
 62
4
  6
CONTINUOUS
 10
11.8011890923
 20
9.6415319953
 11
11.7903600923
 21
9.6343126618
  0
LINE
  5
3FD
100
AcDbEntity
  8
03__ASM_ALL_CURVES
100
AcDbLine
 62
4
  6
CONTINUOUS
 10
12.0340125923
 20
9.7137253302
 11
12.0448415923
 21
9.7209446618
  0
LINE
  5
3FE
100
AcDbEntity
  8
03__ASM_ALL_CURVES
100
AcDbLine
 62
4
  6
CONTINUOUS
 10
12.0664995923
 20
9.6848479934
 11
12.0448415923
 21
9.6704093276
  0
LINE
  5
3FF
100
AcDbEntity
  8
03__ASM_ALL_CURVES
100
AcDbLine
 62
4
  6
CONTINUOUS
 10
12.1206445923
 20
9.6848479934
 11
12.1314735923
 21
9.6920673302
  0
LINE
  5
400
100
AcDbEntity
  8
03__ASM_ALL_CURVES
100
AcDbLine
 62
4
  6
CONTINUOUS
 10
7.8371107607
 20
7.8708681618
 11
7.8515494239
 21
7.8762826618
  0
LINE
  5
401
100
AcDbEntity
  8
03__ASM_ALL_CURVES
100
AcDbLine
 62
4
  6
CONTINUOUS
 10
7.8948654252
 20
7.8383811618
 11
7.8804267581
 21
7.8329666618
  0
LINE
  5
402
100
AcDbEntity
  8
03__ASM_ALL_CURVES
100
AcDbLine
 62
4
  6
CONTINUOUS
 10
12.2451780923
 20
9.6343126618
 11
12.2370563423
 21
9.6343126618
  0
LINE
  5
403
100
AcDbEntity
  8
03__ASM_ALL_CURVES
100
AcDbLine
 62
4
  6
CONTINUOUS
 10
12.1423025923
 20
9.6343126618
 11
12.1314735923
 21
9.6343126618
  0
LINE
  5
404
100
AcDbEntity
  8
03__ASM_ALL_CURVES
100
AcDbLine
 62
4
  6
CONTINUOUS
 10
11.7253860923
 20
9.6343126618
 11
11.7172643423
 21
9.6343126618
  0
LINE
  5
405
100
AcDbEntity
  8
03__ASM_ALL_CURVES
100
AcDbLine
 62
4
  6
CONTINUOUS
 10
12.0285980923
 20
9.6343126618
 11
12.0719140923
 21
9.6343126618
  0
LINE
  5
406
100
AcDbEntity
  8
03__ASM_ALL_CURVES
100
AcDbLine
 62
4
  6
CONTINUOUS
 10
12.2884940923
 20
9.6559706618
 11
12.3372245923
 21
9.6559706618
  0
LINE
  5
407
100
AcDbEntity
  8
03__ASM_ALL_CURVES
100
AcDbLine
 62
4
  6
CONTINUOUS
 10
11.1406200923
 20
9.6776286618
 11
11.4005160923
 21
9.6776286618
  0
LINE
  5
408
100
AcDbEntity
  8
03__ASM_ALL_CURVES
100
AcDbLine
 62
4
  6
CONTINUOUS
 10
12.1314735923
 20
9.6920673302
 11
12.1423025923
 21
9.6920673302
  0
LINE
  5
409
100
AcDbEntity
  8
03__ASM_ALL_CURVES
100
AcDbLine
 62
4
  6
CONTINUOUS
 10
12.1585460923
 20
9.7209446618
 11
12.1260590923
 21
9.7209446618
  0
LINE
  5
40A
100
AcDbEntity
  8
03__ASM_ALL_CURVES
100
AcDbLine
 62
4
  6
CONTINUOUS
 10
12.0448415923
 20
9.7209446618
 11
12.0556705923
 21
9.7209446618
  0
LINE
  5
40B
100
AcDbEntity
  8
03__ASM_ALL_CURVES
100
AcDbLine
 62
4
  6
CONTINUOUS
 10
8.0584880923
 20
11.2976286618
 11
8.0734880923
 21
11.2876286642
  0
LINE
  5
40C
100
AcDbEntity
  8
03__ASM_ALL_CURVES
100
AcDbLine
 62
4
  6
CONTINUOUS
 10
11.6062670923
 20
8.6415319953
 11
11.6008525923
 21
8.6487513289
  0
LINE
  5
40D
100
AcDbEntity
  8
03__ASM_ALL_CURVES
100
AcDbLine
 62
4
  6
CONTINUOUS
 10
11.0539880923
 20
8.5909966618
 11
11.0539880923
 21
8.3311006618
  0
LINE
  5
40E
100
AcDbEntity
  8
0
100
AcDbLine
 62
7
  6
CONTINUOUS
 10
11.0539880923
 20
8.6776286618
 11
11.0539880923
 21
11.6776286618
  0
LINE
  5
40F
100
AcDbEntity
  8
03__ASM_ALL_CURVES
100
AcDbLine
 62
4
  6
CONTINUOUS
 10
11.6008525923
 20
10.7809706618
 11
11.5954380923
 21
10.7593126618
  0
LINE
  5
410
100
AcDbEntity
  8
03__ASM_ALL_CURVES
100
AcDbLine
 62
4
  6
CONTINUOUS
 10
12.0610850923
 20
11.6920673302
 11
12.0719140923
 21
11.7209446618
  0
LINE
  5
411
100
AcDbEntity
  8
03__ASM_ALL_CURVES
100
AcDbLine
 62
4
  6
CONTINUOUS
 10
12.1152300923
 20
11.6920673302
 11
12.1206445923
 21
11.7065059934
  0
LINE
  5
412
100
AcDbEntity
  8
03__ASM_ALL_CURVES
100
AcDbLine
 62
4
  6
CONTINUOUS
 10
12.1152300923
 20
11.663189996
 11
12.1206445923
 21
11.6776286618
  0
LINE
  5
413
100
AcDbEntity
  8
03__ASM_ALL_CURVES
100
AcDbLine
 62
4
  6
CONTINUOUS
 10
12.1585460923
 20
11.663189996
 11
12.1531315923
 21
11.6487513289
  0
LINE
  5
414
100
AcDbEntity
  8
03__ASM_ALL_CURVES
100
AcDbLine
 62
4
  6
CONTINUOUS
 10
10.0033040923
 20
7.4214646618
 11
9.9960847588
 21
7.4106356618
  0
LINE
  5
415
100
AcDbEntity
  8
03__ASM_ALL_CURVES
100
AcDbLine
 62
4
  6
CONTINUOUS
 10
12.3697115923
 20
10.788189996
 11
12.3805405923
 21
10.8026286618
  0
LINE
  5
416
100
AcDbEntity
  8
03__ASM_ALL_CURVES
100
AcDbLine
 62
4
  6
CONTINUOUS
 10
12.4184420923
 20
10.8242866618
 11
12.4130275923
 21
10.8170673302
  0
LINE
  5
417
100
AcDbEntity
  8
03__ASM_ALL_CURVES
100
AcDbLine
 62
4
  6
CONTINUOUS
 10
12.4238565923
 20
10.7809706618
 11
12.4130275923
 21
10.7665319953
  0
LINE
  5
418
100
AcDbEntity
  8
03__ASM_ALL_CURVES
100
AcDbLine
 62
4
  6
CONTINUOUS
 10
11.7741165923
 20
9.7065059934
 11
11.7795310923
 21
9.7137253302
  0
LINE
  5
419
100
AcDbEntity
  8
03__ASM_ALL_CURVES
100
AcDbLine
 62
4
  6
CONTINUOUS
 10
12.5754625923
 20
10.7737513289
 11
12.5646335923
 21
10.7593126618
  0
LINE
  5
41A
100
AcDbEntity
  8
03__ASM_ALL_CURVES
100
AcDbLine
 62
4
  6
CONTINUOUS
 10
8.9960847588
 20
7.4106356618
 11
8.9888654252
 21
7.4052211618
  0
LINE
  5
41B
100
AcDbEntity
  8
03__ASM_ALL_CURVES
100
AcDbLine
 62
4
  6
CONTINUOUS
 10
9.9599880923
 20
8.1307641618
 11
9.9744267581
 21
8.1415931618
  0
LINE
  5
41C
100
AcDbEntity
  8
03__ASM_ALL_CURVES
100
AcDbLine
 62
4
  6
CONTINUOUS
 10
9.9455494239
 20
8.0982771618
 11
9.9383300923
 21
8.0928626618
  0
LINE
  5
41D
100
AcDbEntity
  8
03__ASM_ALL_CURVES
100
AcDbLine
 62
4
  6
CONTINUOUS
 10
8.992475092
 20
7.3483689118
 11
9.0033040923
 21
7.3564906618
  0
LINE
  5
41E
100
AcDbEntity
  8
03__ASM_ALL_CURVES
100
AcDbLine
 62
4
  6
CONTINUOUS
 10
9.9960847588
 20
8.0982771618
 11
9.9816460923
 21
8.0874481618
  0
LINE
  5
41F
100
AcDbEntity
  8
03__ASM_ALL_CURVES
100
AcDbLine
 62
4
  6
CONTINUOUS
 10
9.9238914239
 20
8.0387176618
 11
9.9311107607
 21
8.0441321618
  0
LINE
  5
420
100
AcDbEntity
  8
03__ASM_ALL_CURVES
100
AcDbLine
 62
4
  6
CONTINUOUS
 10
8.9238914239
 20
7.2644441618
 11
8.9311107607
 21
7.2698586618
  0
LINE
  5
421
100
AcDbEntity
  8
03__ASM_ALL_CURVES
100
AcDbLine
 62
4
  6
CONTINUOUS
 10
9.9960847588
 20
8.0170596618
 11
9.9888654252
 21
8.0116451618
  0
LINE
  5
422
100
AcDbEntity
  8
03__ASM_ALL_CURVES
100
AcDbLine
 62
4
  6
CONTINUOUS
 10
9.992475092
 20
7.9547929118
 11
10.0033040923
 21
7.9629146618
  0
LINE
  5
423
100
AcDbEntity
  8
03__ASM_ALL_CURVES
100
AcDbLine
 62
4
  6
CONTINUOUS
 10
12.1531315923
 20
9.6415319953
 11
12.1423025923
 21
9.6343126618
  0
LINE
  5
424
100
AcDbEntity
  8
03__ASM_ALL_CURVES
100
AcDbLine
 62
4
  6
CONTINUOUS
 10
8.9311107607
 20
8.0441321618
 11
8.9455494239
 21
8.0495466618
  0
LINE
  5
425
100
AcDbEntity
  8
03__ASM_ALL_CURVES
100
AcDbLine
 62
4
  6
CONTINUOUS
 10
8.9888654252
 20
8.0116451618
 11
8.9744267581
 21
8.0062306618
  0
LINE
  5
426
100
AcDbEntity
  8
03__ASM_ALL_CURVES
100
AcDbLine
 62
4
  6
CONTINUOUS
 10
11.6279250923
 20
8.7137253302
 11
11.6333395923
 21
8.7065059934
  0
LINE
  5
427
100
AcDbEntity
  8
03__ASM_ALL_CURVES
100
AcDbLine
 62
4
  6
CONTINUOUS
 10
11.9582095923
 20
11.7065059934
 11
11.9527950923
 21
11.6848479934
  0
LINE
  5
428
100
AcDbEntity
  8
03__ASM_ALL_CURVES
100
AcDbLine
 62
4
  6
CONTINUOUS
 10
12.0556705923
 20
11.6704093276
 11
12.0610850923
 21
11.6920673302
  0
LINE
  5
429
100
AcDbEntity
  8
03__ASM_ALL_CURVES
100
AcDbLine
 62
4
  6
CONTINUOUS
 10
11.8607485923
 20
10.7809706618
 11
11.8553340923
 21
10.7593126618
  0
LINE
  5
42A
100
AcDbEntity
  8
03__ASM_ALL_CURVES
100
AcDbLine
 62
4
  6
CONTINUOUS
 10
12.3751260923
 20
11.6920673302
 11
12.3805405923
 21
11.7065059934
  0
LINE
  5
42B
100
AcDbEntity
  8
03__ASM_ALL_CURVES
100
AcDbLine
 62
4
  6
CONTINUOUS
 10
12.4184420923
 20
11.6920673302
 11
12.4130275923
 21
11.6776286618
  0
LINE
  5
42C
100
AcDbEntity
  8
03__ASM_ALL_CURVES
100
AcDbLine
 62
4
  6
CONTINUOUS
 10
12.4184420923
 20
11.663189996
 11
12.4130275923
 21
11.6487513289
  0
LINE
  5
42D
100
AcDbEntity
  8
03__ASM_ALL_CURVES
100
AcDbLine
 62
4
  6
CONTINUOUS
 10
12.1639605923
 20
10.788189996
 11
12.1585460923
 21
10.7737513289
  0
LINE
  5
42E
100
AcDbEntity
  8
03__ASM_ALL_CURVES
100
AcDbLine
 62
4
  6
CONTINUOUS
 10
11.7687020923
 20
9.6920673302
 11
11.7741165923
 21
9.7065059934
  0
LINE
  5
42F
100
AcDbEntity
  8
03__ASM_ALL_CURVES
100
AcDbLine
 62
4
  6
CONTINUOUS
 10
12.4996595923
 20
10.8459446618
 11
12.4617580923
 21
10.7809706618
  0
LINE
  5
430
100
AcDbEntity
  8
03__ASM_ALL_CURVES
100
AcDbLine
 62
4
  6
CONTINUOUS
 10
11.8066035923
 20
9.6487513289
 11
11.8011890923
 21
9.6415319953
  0
LINE
  5
431
100
AcDbEntity
  8
03__ASM_ALL_CURVES
100
AcDbLine
 62
4
  6
CONTINUOUS
 10
11.9690385923
 20
9.7209446618
 11
11.9582095923
 21
9.7065059934
  0
LINE
  5
432
100
AcDbEntity
  8
03__ASM_ALL_CURVES
100
AcDbLine
 62
4
  6
CONTINUOUS
 10
12.0285980923
 20
9.7065059934
 11
12.0340125923
 21
9.7137253302
  0
LINE
  5
433
100
AcDbEntity
  8
03__ASM_ALL_CURVES
100
AcDbLine
 62
4
  6
CONTINUOUS
 10
12.0448415923
 20
9.6704093276
 11
12.0340125923
 21
9.6559706618
  0
LINE
  5
434
100
AcDbEntity
  8
03__ASM_ALL_CURVES
100
AcDbLine
 62
4
  6
CONTINUOUS
 10
12.0719140923
 20
9.6920673302
 11
12.0664995923
 21
9.6848479934
  0
LINE
  5
435
100
AcDbEntity
  8
03__ASM_ALL_CURVES
100
AcDbLine
 62
4
  6
CONTINUOUS
 10
9.9238914239
 20
7.7842361618
 11
9.9311107607
 21
7.7896506618
  0
LINE
  5
436
100
AcDbEntity
  8
03__ASM_ALL_CURVES
100
AcDbLine
 62
4
  6
CONTINUOUS
 10
9.9888654252
 20
7.6759461618
 11
10.0033040923
 21
7.6867751618
  0
LINE
  5
437
100
AcDbEntity
  8
03__ASM_ALL_CURVES
100
AcDbLine
 62
4
  6
CONTINUOUS
 10
9.9238914239
 20
7.5189256618
 11
9.9311107607
 21
7.5243401618
  0
LINE
  5
438
100
AcDbEntity
  8
03__ASM_ALL_CURVES
100
AcDbLine
 62
4
  6
CONTINUOUS
 10
8.9599880923
 20
7.7896506618
 11
8.9744267581
 21
7.7950651618
  0
LINE
  5
439
100
AcDbEntity
  8
03__ASM_ALL_CURVES
100
AcDbLine
 62
4
  6
CONTINUOUS
 10
9.9599880923
 20
8.0441321618
 11
9.9744267581
 21
8.0495466618
  0
LINE
  5
43A
100
AcDbEntity
  8
03__ASM_ALL_CURVES
100
AcDbLine
 62
4
  6
CONTINUOUS
 10
9.9888654252
 20
8.0116451618
 11
9.9744267581
 21
8.0062306618
  0
LINE
  5
43B
100
AcDbEntity
  8
03__ASM_ALL_CURVES
100
AcDbLine
 62
4
  6
CONTINUOUS
 10
11.6008525923
 20
8.6487513289
 11
11.5954380923
 21
8.663189996
  0
LINE
  5
43C
100
AcDbEntity
  8
03__ASM_ALL_CURVES
100
AcDbLine
 62
4
  6
CONTINUOUS
 10
11.6333395923
 20
8.7065059934
 11
11.6387540923
 21
8.6920673302
  0
LINE
  5
43D
100
AcDbEntity
  8
03__ASM_ALL_CURVES
100
AcDbLine
 62
4
  6
CONTINUOUS
 10
11.5954380923
 20
8.663189996
 11
11.5954380923
 21
8.6920673302
  0
LINE
  5
43E
100
AcDbEntity
  8
03__ASM_ALL_CURVES
100
AcDbLine
 62
4
  6
CONTINUOUS
 10
11.6170960923
 20
9.7209446618
 11
11.6170960923
 21
9.6343126618
  0
LINE
  5
43F
100
AcDbEntity
  8
03__ASM_ALL_CURVES
100
AcDbLine
 62
4
  6
CONTINUOUS
 10
11.6387540923
 20
11.7065059934
 11
11.6387540923
 21
11.6992866618
  0
LINE
  5
440
100
AcDbEntity
  8
03__ASM_ALL_CURVES
100
AcDbLine
 62
4
  6
CONTINUOUS
 10
11.6387540923
 20
10.8315059934
 11
11.6387540923
 21
10.8170673302
  0
LINE
  5
441
100
AcDbEntity
  8
03__ASM_ALL_CURVES
100
AcDbLine
 62
4
  6
CONTINUOUS
 10
11.6387540923
 20
8.6920673302
 11
11.6387540923
 21
8.663189996
  0
LINE
  5
442
100
AcDbEntity
  8
03__ASM_ALL_CURVES
100
AcDbLine
 62
4
  6
CONTINUOUS
 10
11.6441685923
 20
11.663189996
 11
11.6441685923
 21
11.6559706618
  0
LINE
  5
443
100
AcDbEntity
  8
03__ASM_ALL_CURVES
100
AcDbLine
 62
4
  6
CONTINUOUS
 10
11.7172643423
 20
9.6343126618
 11
11.7172643423
 21
9.6451416621
  0
LINE
  5
444
100
AcDbEntity
  8
03__ASM_ALL_CURVES
100
AcDbLine
 62
4
  6
CONTINUOUS
 10
11.7172643423
 20
10.7593126618
 11
11.7172643423
 21
10.7701416621
  0
LINE
  5
445
100
AcDbEntity
  8
03__ASM_ALL_CURVES
100
AcDbLine
 62
4
  6
CONTINUOUS
 10
11.7172643423
 20
11.6343126618
 11
11.7172643423
 21
11.6451416621
  0
LINE
  5
446
100
AcDbEntity
  8
03__ASM_ALL_CURVES
100
AcDbLine
 62
4
  6
CONTINUOUS
 10
11.7687020923
 20
9.663189996
 11
11.7687020923
 21
9.6920673302
  0
LINE
  5
447
100
AcDbEntity
  8
03__ASM_ALL_CURVES
100
AcDbLine
 62
4
  6
CONTINUOUS
 10
11.7687020923
 20
11.663189996
 11
11.7687020923
 21
11.6920673302
  0
LINE
  5
448
100
AcDbEntity
  8
03__ASM_ALL_CURVES
100
AcDbLine
 62
4
  6
CONTINUOUS
 10
12.0502560923
 20
11.6343126618
 11
12.0556705923
 21
11.6704093276
  0
LINE
  5
449
100
AcDbEntity
  8
03__ASM_ALL_CURVES
100
AcDbLine
 62
4
  6
CONTINUOUS
 10
12.0448415923
 20
10.8315059934
 11
12.0394270923
 21
10.8098479934
  0
LINE
  5
44A
100
AcDbEntity
  8
03__ASM_ALL_CURVES
100
AcDbLine
 62
4
  6
CONTINUOUS
 10
11.8120180923
 20
9.663189996
 11
11.8066035923
 21
9.6487513289
  0
LINE
  5
44B
100
AcDbEntity
  8
03__ASM_ALL_CURVES
100
AcDbLine
 62
4
  6
CONTINUOUS
 10
11.5954380923
 20
8.6920673302
 11
11.6008525923
 21
8.7065059934
  0
LINE
  5
44C
100
AcDbEntity
  8
03__ASM_ALL_CURVES
100
AcDbLine
 62
4
  6
CONTINUOUS
 10
11.6387540923
 20
8.663189996
 11
11.6333395923
 21
8.6487513289
  0
LINE
  5
44D
100
AcDbEntity
  8
03__ASM_ALL_CURVES
100
AcDbLine
 62
4
  6
CONTINUOUS
 10
11.0106720923
 20
8.1145206618
 11
11.0178914239
 21
8.1253496618
  0
LINE
  5
44E
100
AcDbEntity
  8
03__ASM_ALL_CURVES
100
AcDbLine
 62
4
  6
CONTINUOUS
 10
11.0973040923
 20
8.1145206618
 11
11.0900847588
 21
8.1036916618
  0
LINE
  5
44F
100
AcDbEntity
  8
03__ASM_ALL_CURVES
100
AcDbLine
 62
4
  6
CONTINUOUS
 10
12.1585460923
 20
9.6487513289
 11
12.1531315923
 21
9.6415319953
  0
LINE
  5
450
100
AcDbEntity
  8
03__ASM_ALL_CURVES
100
AcDbLine
 62
4
  6
CONTINUOUS
 10
11.6008525923
 20
8.7065059934
 11
11.6062670923
 21
8.7137253302
  0
LINE
  5
451
100
AcDbEntity
  8
03__ASM_ALL_CURVES
100
AcDbLine
 62
4
  6
CONTINUOUS
 10
11.6333395923
 20
8.6487513289
 11
11.6279250923
 21
8.6415319953
  0
LINE
  5
452
100
AcDbEntity
  8
03__ASM_ALL_CURVES
100
AcDbLine
 62
4
  6
CONTINUOUS
 10
12.4021985923
 20
9.6487513289
 11
12.3913695923
 21
9.6343126618
  0
LINE
  5
453
100
AcDbEntity
  8
03__ASM_ALL_CURVES
100
AcDbLine
 62
4
  6
CONTINUOUS
 10
9.9960847588
 20
7.4972676618
 11
9.9888654252
 21
7.4918531618
  0
LINE
  5
454
100
AcDbEntity
  8
03__ASM_ALL_CURVES
100
AcDbLine
 62
4
  6
CONTINUOUS
 10
9.9238914239
 20
7.4322936618
 11
9.9311107607
 21
7.4377081618
  0
LINE
  5
455
100
AcDbEntity
  8
03__ASM_ALL_CURVES
100
AcDbLine
 62
4
  6
CONTINUOUS
 10
9.9960847588
 20
7.4106356618
 11
9.9888654252
 21
7.4052211618
  0
LINE
  5
456
100
AcDbEntity
  8
03__ASM_ALL_CURVES
100
AcDbLine
 62
4
  6
CONTINUOUS
 10
11.0178914239
 20
8.1253496618
 11
11.0251107607
 21
8.1307641618
  0
LINE
  5
457
100
AcDbEntity
  8
03__ASM_ALL_CURVES
100
AcDbLine
 62
4
  6
CONTINUOUS
 10
9.992475092
 20
7.3483689118
 11
10.0033040923
 21
7.3564906618
  0
LINE
  5
458
100
AcDbEntity
  8
03__ASM_ALL_CURVES
100
AcDbLine
 62
4
  6
CONTINUOUS
 10
11.0900847588
 20
8.1036916618
 11
11.0828654252
 21
8.0982771618
  0
LINE
  5
459
100
AcDbEntity
  8
03__ASM_ALL_CURVES
100
AcDbLine
 62
4
  6
CONTINUOUS
 10
11.6062670923
 20
8.7137253302
 11
11.6170960923
 21
8.7209446618
  0
LINE
  5
45A
100
AcDbEntity
  8
03__ASM_ALL_CURVES
100
AcDbLine
 62
4
  6
CONTINUOUS
 10
11.6279250923
 20
8.6415319953
 11
11.6170960923
 21
8.6343126618
  0
LINE
  5
45B
100
AcDbEntity
  8
03__ASM_ALL_CURVES
100
AcDbLine
 62
4
  6
CONTINUOUS
 10
8.9311107607
 20
7.5243401618
 11
8.9455494239
 21
7.5297546618
  0
LINE
  5
45C
100
AcDbEntity
  8
03__ASM_ALL_CURVES
100
AcDbLine
 62
4
  6
CONTINUOUS
 10
8.9599880923
 20
7.4918531618
 11
8.9455494239
 21
7.4864386618
  0
LINE
  5
45D
100
AcDbEntity
  8
03__ASM_ALL_CURVES
100
AcDbLine
 62
4
  6
CONTINUOUS
 10
8.9311107607
 20
7.4377081618
 11
8.9455494239
 21
7.4431226618
  0
LINE
  5
45E
100
AcDbEntity
  8
03__ASM_ALL_CURVES
100
AcDbLine
 62
4
  6
CONTINUOUS
 10
8.9888654252
 20
7.4052211618
 11
8.9744267581
 21
7.3998066618
  0
LINE
  5
45F
100
AcDbEntity
  8
03__ASM_ALL_CURVES
100
AcDbLine
 62
4
  6
CONTINUOUS
 10
11.0251107607
 20
8.1307641618
 11
11.0395494239
 21
8.1361786618
  0
LINE
  5
460
100
AcDbEntity
  8
03__ASM_ALL_CURVES
100
AcDbLine
 62
4
  6
CONTINUOUS
 10
11.0828654252
 20
8.0982771618
 11
11.0684267581
 21
8.0928626618
  0
LINE
  5
461
100
AcDbEntity
  8
03__ASM_ALL_CURVES
100
AcDbLine
 62
4
  6
CONTINUOUS
 10
9.1789880923
 20
10.3276286618
 11
9.1189880923
 21
10.3276286618
  0
LINE
  5
462
100
AcDbEntity
  8
03__ASM_ALL_CURVES
100
AcDbLine
 62
4
  6
CONTINUOUS
 10
9.0289880923
 20
10.3276286618
 11
8.9989880923
 21
10.3276286618
  0
LINE
  5
463
100
AcDbEntity
  8
03__ASM_ALL_CURVES
100
AcDbLine
 62
4
  6
CONTINUOUS
 10
8.9164880923
 20
10.3276286618
 11
8.9014880923
 21
10.3276286618
  0
LINE
  5
464
100
AcDbEntity
  8
03__ASM_ALL_CURVES
100
AcDbLine
 62
4
  6
CONTINUOUS
 10
8.7964880923
 20
10.3276286618
 11
8.7814880923
 21
10.3276286618
  0
LINE
  5
465
100
AcDbEntity
  8
03__ASM_ALL_CURVES
100
AcDbLine
 62
4
  6
CONTINUOUS
 10
8.6989880923
 20
10.3276286618
 11
8.6389880923
 21
10.3276286618
  0
LINE
  5
466
100
AcDbEntity
  8
03__ASM_ALL_CURVES
100
AcDbLine
 62
4
  6
CONTINUOUS
 10
8.3089880923
 20
10.3276286618
 11
8.2789880923
 21
10.3276286618
  0
LINE
  5
467
100
AcDbEntity
  8
03__ASM_ALL_CURVES
100
AcDbLine
 62
4
  6
CONTINUOUS
 10
8.4064880923
 20
10.367628663
 11
8.4514880923
 21
10.367628663
  0
LINE
  5
468
100
AcDbEntity
  8
03__ASM_ALL_CURVES
100
AcDbLine
 62
4
  6
CONTINUOUS
 10
8.6389880923
 20
10.3876286618
 11
8.6764880923
 21
10.3876286618
  0
LINE
  5
469
100
AcDbEntity
  8
03__ASM_ALL_CURVES
100
AcDbLine
 62
4
  6
CONTINUOUS
 10
9.1189880923
 20
10.3876286618
 11
9.1564880923
 21
10.3876286618
  0
LINE
  5
46A
100
AcDbEntity
  8
03__ASM_ALL_CURVES
100
AcDbLine
 62
4
  6
CONTINUOUS
 10
8.2789880923
 20
10.4476286618
 11
8.3089880923
 21
10.4476286618
  0
LINE
  5
46B
100
AcDbEntity
  8
03__ASM_ALL_CURVES
100
AcDbLine
 62
4
  6
CONTINUOUS
 10
8.5114880923
 20
10.4476286618
 11
8.5864880923
 21
10.4476286618
  0
LINE
  5
46C
100
AcDbEntity
  8
03__ASM_ALL_CURVES
100
AcDbLine
 62
4
  6
CONTINUOUS
 10
8.6389880923
 20
10.4476286618
 11
8.6989880923
 21
10.4476286618
  0
LINE
  5
46D
100
AcDbEntity
  8
03__ASM_ALL_CURVES
100
AcDbLine
 62
4
  6
CONTINUOUS
 10
8.7814880923
 20
10.4476286618
 11
8.7964880923
 21
10.4476286618
  0
LINE
  5
46E
100
AcDbEntity
  8
03__ASM_ALL_CURVES
100
AcDbLine
 62
4
  6
CONTINUOUS
 10
8.9014880923
 20
10.4476286618
 11
8.9164880923
 21
10.4476286618
  0
LINE
  5
46F
100
AcDbEntity
  8
03__ASM_ALL_CURVES
100
AcDbLine
 62
4
  6
CONTINUOUS
 10
8.9989880923
 20
10.4476286618
 11
9.0289880923
 21
10.4476286618
  0
LINE
  5
470
100
AcDbEntity
  8
03__ASM_ALL_CURVES
100
AcDbLine
 62
4
  6
CONTINUOUS
 10
9.1189880923
 20
10.4476286618
 11
9.1789880923
 21
10.4476286618
  0
LINE
  5
471
100
AcDbEntity
  8
03__ASM_ALL_CURVES
100
AcDbLine
 62
4
  6
CONTINUOUS
 10
11.7903600923
 20
9.6343126618
 11
11.7795310923
 21
9.6415319953
  0
LINE
  5
472
100
AcDbEntity
  8
03__ASM_ALL_CURVES
100
AcDbLine
 62
4
  6
CONTINUOUS
 10
11.7903600923
 20
9.7209446618
 11
11.8011890923
 21
9.7137253302
  0
LINE
  5
473
100
AcDbEntity
  8
03__ASM_ALL_CURVES
100
AcDbLine
 62
4
  6
CONTINUOUS
 10
12.1314735923
 20
9.6343126618
 11
12.1206445923
 21
9.6415319953
  0
LINE
  5
474
100
AcDbEntity
  8
03__ASM_ALL_CURVES
100
AcDbLine
 62
4
  6
CONTINUOUS
 10
12.0556705923
 20
9.7209446618
 11
12.0664995923
 21
9.7137253302
  0
LINE
  5
475
100
AcDbEntity
  8
03__ASM_ALL_CURVES
100
AcDbLine
 62
4
  6
CONTINUOUS
 10
11.7172643423
 20
9.6451416621
 11
11.7253860923
 21
9.6343126618
  0
LINE
  5
476
100
AcDbEntity
  8
03__ASM_ALL_CURVES
100
AcDbLine
 62
4
  6
CONTINUOUS
 10
11.7795310923
 20
9.6415319953
 11
11.7741165923
 21
9.6487513289
  0
LINE
  5
477
100
AcDbEntity
  8
03__ASM_ALL_CURVES
100
AcDbLine
 62
4
  6
CONTINUOUS
 10
11.7903600923
 20
10.8459446618
 11
11.7903600923
 21
10.7593126618
  0
LINE
  5
478
100
AcDbEntity
  8
03__ASM_ALL_CURVES
100
AcDbLine
 62
4
  6
CONTINUOUS
 10
11.8120180923
 20
11.6920673302
 11
11.8120180923
 21
11.663189996
  0
LINE
  5
479
100
AcDbEntity
  8
03__ASM_ALL_CURVES
100
AcDbLine
 62
4
  6
CONTINUOUS
 10
11.8120180923
 20
9.6920673302
 11
11.8120180923
 21
9.663189996
  0
LINE
  5
47A
100
AcDbEntity
  8
03__ASM_ALL_CURVES
100
AcDbLine
 62
4
  6
CONTINUOUS
 10
11.8986500923
 20
10.8315059934
 11
11.8986500923
 21
10.8170673302
  0
LINE
  5
47B
100
AcDbEntity
  8
03__ASM_ALL_CURVES
100
AcDbLine
 62
4
  6
CONTINUOUS
 10
11.9527950923
 20
11.6848479934
 11
11.9527950923
 21
11.6704093276
  0
LINE
  5
47C
100
AcDbEntity
  8
03__ASM_ALL_CURVES
100
AcDbLine
 62
4
  6
CONTINUOUS
 10
11.9527950923
 20
9.6848479934
 11
11.9527950923
 21
9.6704093276
  0
LINE
  5
47D
100
AcDbEntity
  8
03__ASM_ALL_CURVES
100
AcDbLine
 62
4
  6
CONTINUOUS
 10
12.1260590923
 20
10.8459446618
 11
12.1206445923
 21
10.8098479934
  0
LINE
  5
47E
100
AcDbEntity
  8
03__ASM_ALL_CURVES
100
AcDbLine
 62
4
  6
CONTINUOUS
 10
11.9582095923
 20
9.7065059934
 11
11.9527950923
 21
9.6848479934
  0
LINE
  5
47F
100
AcDbEntity
  8
03__ASM_ALL_CURVES
100
AcDbLine
 62
4
  6
CONTINUOUS
 10
12.4942450923
 20
11.6704093276
 11
12.4888305923
 21
11.6487513289
  0
LINE
  5
480
100
AcDbEntity
  8
03__ASM_ALL_CURVES
100
AcDbLine
 62
4
  6
CONTINUOUS
 10
12.0340125923
 20
9.6559706618
 11
12.0285980923
 21
9.6343126618
  0
LINE
  5
481
100
AcDbEntity
  8
03__ASM_ALL_CURVES
100
AcDbLine
 62
4
  6
CONTINUOUS
 10
12.1639605923
 20
9.663189996
 11
12.1585460923
 21
9.6487513289
  0
LINE
  5
482
100
AcDbEntity
  8
03__ASM_ALL_CURVES
100
AcDbLine
 62
4
  6
CONTINUOUS
 10
12.3263955923
 20
9.7209446618
 11
12.2884940923
 21
9.6559706618
  0
LINE
  5
483
100
AcDbEntity
  8
03__ASM_ALL_CURVES
100
AcDbLine
 62
4
  6
CONTINUOUS
 10
9.9311107607
 20
7.5243401618
 11
9.9455494239
 21
7.5297546618
  0
LINE
  5
484
100
AcDbEntity
  8
03__ASM_ALL_CURVES
100
AcDbLine
 62
4
  6
CONTINUOUS
 10
9.9599880923
 20
7.4918531618
 11
9.9455494239
 21
7.4864386618
  0
LINE
  5
485
100
AcDbEntity
  8
03__ASM_ALL_CURVES
100
AcDbLine
 62
4
  6
CONTINUOUS
 10
9.9311107607
 20
7.4377081618
 11
9.9455494239
 21
7.4431226618
  0
LINE
  5
486
100
AcDbEntity
  8
03__ASM_ALL_CURVES
100
AcDbLine
 62
4
  6
CONTINUOUS
 10
8.5789880923
 20
10.6276286618
 11
8.6164880923
 21
10.6276286618
  0
LINE
  5
487
100
AcDbEntity
  8
03__ASM_ALL_CURVES
100
AcDbLine
 62
4
  6
CONTINUOUS
 10
8.5789880923
 20
10.6876286618
 11
8.6389880923
 21
10.6876286618
  0
LINE
  5
488
100
AcDbEntity
  8
03__ASM_ALL_CURVES
100
AcDbLine
 62
4
  6
CONTINUOUS
 10
12.1423025923
 20
9.6920673302
 11
12.1531315923
 21
9.6848479934
  0
LINE
  5
489
100
AcDbEntity
  8
03__ASM_ALL_CURVES
100
AcDbLine
 62
4
  6
CONTINUOUS
 10
11.8011890923
 20
9.7137253302
 11
11.8066035923
 21
9.7065059934
  0
LINE
  5
48A
100
AcDbEntity
  8
03__ASM_ALL_CURVES
100
AcDbLine
 62
4
  6
CONTINUOUS
 10
11.9582095923
 20
9.6487513289
 11
11.9690385923
 21
9.6343126618
  0
LINE
  5
48B
100
AcDbEntity
  8
03__ASM_ALL_CURVES
100
AcDbLine
 62
4
  6
CONTINUOUS
 10
10.8244880923
 20
11.2876286642
 11
10.8319880923
 21
11.2776286594
  0
LINE
  5
48C
100
AcDbEntity
  8
03__ASM_ALL_CURVES
100
AcDbLine
 62
4
  6
CONTINUOUS
 10
11.7741165923
 20
9.6487513289
 11
11.7687020923
 21
9.663189996
  0
LINE
  5
48D
100
AcDbEntity
  8
03__ASM_ALL_CURVES
100
AcDbLine
 62
4
  6
CONTINUOUS
 10
11.8066035923
 20
9.7065059934
 11
11.8120180923
 21
9.6920673302
  0
LINE
  5
48E
100
AcDbEntity
  8
03__ASM_ALL_CURVES
100
AcDbLine
 62
4
  6
CONTINUOUS
 10
11.9527950923
 20
9.6704093276
 11
11.9582095923
 21
9.6487513289
  0
LINE
  5
48F
100
AcDbEntity
  8
03__ASM_ALL_CURVES
100
AcDbLine
 62
4
  6
CONTINUOUS
 10
12.0394270923
 20
10.8098479934
 11
12.0394270923
 21
10.7954093276
  0
LINE
  5
490
100
AcDbEntity
  8
03__ASM_ALL_CURVES
100
AcDbLine
 62
4
  6
CONTINUOUS
 10
12.0719140923
 20
9.7065059934
 11
12.0719140923
 21
9.6920673302
  0
LINE
  5
491
100
AcDbEntity
  8
03__ASM_ALL_CURVES
100
AcDbLine
 62
4
  6
CONTINUOUS
 10
12.1152300923
 20
11.663189996
 11
12.1152300923
 21
11.6920673302
  0
LINE
  5
492
100
AcDbEntity
  8
03__ASM_ALL_CURVES
100
AcDbLine
 62
4
  6
CONTINUOUS
 10
12.2370563423
 20
9.6343126618
 11
12.2370563423
 21
9.6451416621
  0
LINE
  5
493
100
AcDbEntity
  8
03__ASM_ALL_CURVES
100
AcDbLine
 62
4
  6
CONTINUOUS
 10
12.2370563423
 20
11.6343126618
 11
12.2370563423
 21
11.6451416621
  0
LINE
  5
494
100
AcDbEntity
  8
03__ASM_ALL_CURVES
100
AcDbLine
 62
4
  6
CONTINUOUS
 10
12.2451780923
 20
10.8315059934
 11
12.2451780923
 21
10.8242866618
  0
LINE
  5
495
100
AcDbEntity
  8
03__ASM_ALL_CURVES
100
AcDbLine
 62
4
  6
CONTINUOUS
 10
12.2505925923
 20
10.788189996
 11
12.2505925923
 21
10.7809706618
  0
LINE
  5
496
100
AcDbEntity
  8
03__ASM_ALL_CURVES
100
AcDbLine
 62
4
  6
CONTINUOUS
 10
12.1260590923
 20
9.7209446618
 11
12.1206445923
 21
9.6848479934
  0
LINE
  5
497
100
AcDbEntity
  8
03__ASM_ALL_CURVES
100
AcDbLine
 62
4
  6
CONTINUOUS
 10
12.5808770923
 20
10.7954093276
 11
12.5754625923
 21
10.7737513289
  0
LINE
  5
498
100
AcDbEntity
  8
03__ASM_ALL_CURVES
100
AcDbLine
 62
4
  6
CONTINUOUS
 10
12.4076130923
 20
9.6704093276
 11
12.4021985923
 21
9.6487513289
  0
LINE
  5
499
100
AcDbEntity
  8
03__ASM_ALL_CURVES
100
AcDbLine
 62
4
  6
CONTINUOUS
 10
9.9888654252
 20
7.4052211618
 11
9.9744267581
 21
7.3998066618
  0
LINE
  5
49A
100
AcDbEntity
  8
03__ASM_ALL_CURVES
100
AcDbLine
 62
4
  6
CONTINUOUS
 10
12.4021985923
 20
10.7593126618
 11
12.3913695923
 21
10.7593126618
  0
LINE
  5
49B
100
AcDbEntity
  8
03__ASM_ALL_CURVES
100
AcDbLine
 62
4
  6
CONTINUOUS
 10
12.3318100923
 20
10.7593126618
 11
12.3236883423
 21
10.7593126618
  0
LINE
  5
49C
100
AcDbEntity
  8
03__ASM_ALL_CURVES
100
AcDbLine
 62
4
  6
CONTINUOUS
 10
12.2289345923
 20
10.7593126618
 11
12.2181055923
 21
10.7593126618
  0
LINE
  5
49D
100
AcDbEntity
  8
03__ASM_ALL_CURVES
100
AcDbLine
 62
4
  6
CONTINUOUS
 10
12.1423025923
 20
10.7593126618
 11
12.1314735923
 21
10.7593126618
  0
LINE
  5
49E
100
AcDbEntity
  8
03__ASM_ALL_CURVES
100
AcDbLine
 62
4
  6
CONTINUOUS
 10
11.7253860923
 20
10.7593126618
 11
11.7172643423
 21
10.7593126618
  0
LINE
  5
49F
100
AcDbEntity
  8
03__ASM_ALL_CURVES
100
AcDbLine
 62
4
  6
CONTINUOUS
 10
11.5954380923
 20
10.7593126618
 11
11.6387540923
 21
10.7593126618
  0
LINE
  5
4A0
100
AcDbEntity
  8
03__ASM_ALL_CURVES
100
AcDbLine
 62
4
  6
CONTINUOUS
 10
11.8553340923
 20
10.7593126618
 11
11.8986500923
 21
10.7593126618
  0
LINE
  5
4A1
100
AcDbEntity
  8
03__ASM_ALL_CURVES
100
AcDbLine
 62
4
  6
CONTINUOUS
 10
12.4617580923
 20
10.7809706618
 11
12.5104885923
 21
10.7809706618
  0
LINE
  5
4A2
100
AcDbEntity
  8
03__ASM_ALL_CURVES
100
AcDbLine
 62
4
  6
CONTINUOUS
 10
11.1406200923
 20
10.8026286618
 11
11.4005160923
 21
10.8026286618
  0
LINE
  5
4A3
100
AcDbEntity
  8
0
100
AcDbLine
 62
7
  6
CONTINUOUS
 10
8.5889880923
 20
10.8076286618
 11
8.5489880923
 21
10.8076286618
  0
LINE
  5
4A4
100
AcDbEntity
  8
03__ASM_ALL_CURVES
100
AcDbLine
 62
4
  6
CONTINUOUS
 10
12.2181055923
 20
10.8098479934
 11
12.2289345923
 21
10.8098479934
  0
LINE
  5
4A5
100
AcDbEntity
  8
03__ASM_ALL_CURVES
100
AcDbLine
 62
4
  6
CONTINUOUS
 10
12.3913695923
 20
10.8098479934
 11
12.4021985923
 21
10.8098479934
  0
LINE
  5
4A6
100
AcDbEntity
  8
03__ASM_ALL_CURVES
100
AcDbLine
 62
4
  6
CONTINUOUS
 10
12.1314735923
 20
10.8170673302
 11
12.1423025923
 21
10.8170673302
  0
LINE
  5
4A7
100
AcDbEntity
  8
03__ASM_ALL_CURVES
100
AcDbLine
 62
4
  6
CONTINUOUS
 10
12.1585460923
 20
10.8459446618
 11
12.1260590923
 21
10.8459446618
  0
LINE
  5
4A8
100
AcDbEntity
  8
03__ASM_ALL_CURVES
100
AcDbLine
 62
4
  6
CONTINUOUS
 10
11.6116815923
 20
10.8459446618
 11
11.6225105923
 21
10.8459446618
  0
LINE
  5
4A9
100
AcDbEntity
  8
03__ASM_ALL_CURVES
100
AcDbLine
 62
4
  6
CONTINUOUS
 10
11.8715775923
 20
10.8459446618
 11
11.8824065923
 21
10.8459446618
  0
LINE
  5
4AA
100
AcDbEntity
  8
03__ASM_ALL_CURVES
100
AcDbLine
 62
4
  6
CONTINUOUS
 10
12.2181055923
 20
10.8459446618
 11
12.2289345923
 21
10.8459446618
  0
LINE
  5
4AB
100
AcDbEntity
  8
03__ASM_ALL_CURVES
100
AcDbLine
 62
4
  6
CONTINUOUS
 10
12.3913695923
 20
10.8459446618
 11
12.4021985923
 21
10.8459446618
  0
LINE
  5
4AC
100
AcDbEntity
  8
0
100
AcDbLine
 62
7
  6
CONTINUOUS
 10
9.2689880923
 20
10.8676286618
 11
9.2089880923
 21
10.8676286618
  0
LINE
  5
4AD
100
AcDbEntity
  8
0
100
AcDbLine
 62
7
  6
CONTINUOUS
 10
8.8889880923
 20
10.8676286618
 11
8.8289880923
 21
10.8676286618
  0
LINE
  5
4AE
100
AcDbEntity
  8
0
100
AcDbLine
 62
7
  6
CONTINUOUS
 10
8.6889880923
 20
10.8676286618
 11
8.6289880923
 21
10.8676286618
  0
LINE
  5
4AF
100
AcDbEntity
  8
0
100
AcDbLine
 62
7
  6
CONTINUOUS
 10
8.5889880923
 20
10.8676286618
 11
8.5289880923
 21
10.8676286618
  0
LINE
  5
4B0
100
AcDbEntity
  8
0
100
AcDbLine
 62
7
  6
CONTINUOUS
 10
8.2189880923
 20
10.8676286618
 11
8.1589880923
 21
10.8676286618
  0
LINE
  5
4B1
100
AcDbEntity
  8
0
100
AcDbLine
 62
7
  6
CONTINUOUS
 10
8.1289880923
 20
10.8676286618
 11
8.0689880923
 21
10.8676286618
  0
LINE
  5
4B2
100
AcDbEntity
  8
0
100
AcDbLine
 62
7
  6
CONTINUOUS
 10
8.9289880923
 20
10.8676286618
 11
8.9889880923
 21
10.8676286618
  0
LINE
  5
4B3
100
AcDbEntity
  8
0
100
AcDbLine
 62
7
  6
CONTINUOUS
 10
9.1089880923
 20
10.8676286618
 11
9.1689880923
 21
10.8676286618
  0
LINE
  5
4B4
100
AcDbEntity
  8
0
100
AcDbLine
 62
7
  6
CONTINUOUS
 10
9.2089880923
 20
10.8976286618
 11
9.2689880923
 21
10.8976286618
  0
LINE
  5
4B5
100
AcDbEntity
  8
0
100
AcDbLine
 62
7
  6
CONTINUOUS
 10
8.8289880923
 20
10.9076286618
 11
8.8889880923
 21
10.9076286618
  0
LINE
  5
4B6
100
AcDbEntity
  8
0
100
AcDbLine
 62
7
  6
CONTINUOUS
 10
8.8889880923
 20
10.9276286618
 11
8.8489880923
 21
10.9276286618
  0
LINE
  5
4B7
100
AcDbEntity
  8
0
100
AcDbLine
 62
7
  6
CONTINUOUS
 10
8.4889880923
 20
10.9276286618
 11
8.4289880923
 21
10.9276286618
  0
LINE
  5
4B8
100
AcDbEntity
  8
0
100
AcDbLine
 62
7
  6
CONTINUOUS
 10
8.0689880923
 20
10.9276286618
 11
8.1289880923
 21
10.9276286618
  0
LINE
  5
4B9
100
AcDbEntity
  8
0
100
AcDbLine
 62
7
  6
CONTINUOUS
 10
8.6289880923
 20
10.9276286618
 11
8.6889880923
 21
10.9276286618
  0
LINE
  5
4BA
100
AcDbEntity
  8
0
100
AcDbLine
 62
7
  6
CONTINUOUS
 10
8.7289880923
 20
10.9276286618
 11
8.7889880923
 21
10.9276286618
  0
LINE
  5
4BB
100
AcDbEntity
  8
0
100
AcDbLine
 62
7
  6
CONTINUOUS
 10
9.1089880923
 20
10.9276286618
 11
9.1689880923
 21
10.9276286618
  0
LINE
  5
4BC
100
AcDbEntity
  8
0
100
AcDbLine
 62
7
  6
CONTINUOUS
 10
9.2089880923
 20
10.9276286618
 11
9.2689880923
 21
10.9276286618
  0
LINE
  5
4BD
100
AcDbEntity
  8
0
100
AcDbLine
 62
7
  6
CONTINUOUS
 10
9.0614880923
 20
10.9576286618
 11
9.0764880923
 21
10.9576286618
  0
LINE
  5
4BE
100
AcDbEntity
  8
03__ASM_ALL_CURVES
100
AcDbLine
 62
4
  6
CONTINUOUS
 10
12.1206445923
 20
9.6415319953
 11
12.1152300923
 21
9.6487513289
  0
LINE
  5
4BF
100
AcDbEntity
  8
03__ASM_ALL_CURVES
100
AcDbLine
 62
4
  6
CONTINUOUS
 10
12.0664995923
 20
9.7137253302
 11
12.0719140923
 21
9.7065059934
  0
LINE
  5
4C0
100
AcDbEntity
  8
03__ASM_ALL_CURVES
100
AcDbLine
 62
4
  6
CONTINUOUS
 10
12.1531315923
 20
9.6848479934
 11
12.1585460923
 21
9.6776286618
  0
LINE
  5
4C1
100
AcDbEntity
  8
03__ASM_ALL_CURVES
100
AcDbLine
 62
4
  6
CONTINUOUS
 10
12.2370563423
 20
9.6451416621
 11
12.2451780923
 21
9.6343126618
  0
LINE
  5
4C2
100
AcDbEntity
  8
03__ASM_ALL_CURVES
100
AcDbLine
 62
4
  6
CONTINUOUS
 10
12.1585460923
 20
9.6776286618
 11
12.1639605923
 21
9.663189996
  0
LINE
  5
4C3
100
AcDbEntity
  8
03__ASM_ALL_CURVES
100
AcDbLine
 62
4
  6
CONTINUOUS
 10
12.3101520923
 20
11.7209446618
 11
12.3101520923
 21
11.6343126618
  0
LINE
  5
4C4
100
AcDbEntity
  8
03__ASM_ALL_CURVES
100
AcDbLine
 62
4
  6
CONTINUOUS
 10
12.3236883423
 20
10.7593126618
 11
12.3236883423
 21
10.7701416621
  0
LINE
  5
4C5
100
AcDbEntity
  8
03__ASM_ALL_CURVES
100
AcDbLine
 62
4
  6
CONTINUOUS
 10
12.3263955923
 20
9.6343126618
 11
12.3263955923
 21
9.7209446618
  0
LINE
  5
4C6
100
AcDbEntity
  8
03__ASM_ALL_CURVES
100
AcDbLine
 62
4
  6
CONTINUOUS
 10
12.3697115923
 20
10.7809706618
 11
12.3697115923
 21
10.788189996
  0
LINE
  5
4C7
100
AcDbEntity
  8
03__ASM_ALL_CURVES
100
AcDbLine
 62
4
  6
CONTINUOUS
 10
12.3751260923
 20
10.8242866618
 11
12.3751260923
 21
10.8315059934
  0
LINE
  5
4C8
100
AcDbEntity
  8
03__ASM_ALL_CURVES
100
AcDbLine
 62
4
  6
CONTINUOUS
 10
12.4076130923
 20
9.6848479934
 11
12.4076130923
 21
9.6704093276
  0
LINE
  5
4C9
100
AcDbEntity
  8
03__ASM_ALL_CURVES
100
AcDbLine
 62
4
  6
CONTINUOUS
 10
12.4184420923
 20
11.6920673302
 11
12.4184420923
 21
11.663189996
  0
LINE
  5
4CA
100
AcDbEntity
  8
03__ASM_ALL_CURVES
100
AcDbLine
 62
4
  6
CONTINUOUS
 10
12.4184420923
 20
10.8315059934
 11
12.4184420923
 21
10.8242866618
  0
LINE
  5
4CB
100
AcDbEntity
  8
03__ASM_ALL_CURVES
100
AcDbLine
 62
4
  6
CONTINUOUS
 10
12.4238565923
 20
10.788189996
 11
12.4238565923
 21
10.7809706618
  0
LINE
  5
4CC
100
AcDbEntity
  8
03__ASM_ALL_CURVES
100
AcDbLine
 62
4
  6
CONTINUOUS
 10
12.4942450923
 20
11.6848479934
 11
12.4942450923
 21
11.6704093276
  0
LINE
  5
4CD
100
AcDbEntity
  8
03__ASM_ALL_CURVES
100
AcDbLine
 62
4
  6
CONTINUOUS
 10
12.4996595923
 20
10.7593126618
 11
12.4996595923
 21
10.8459446618
  0
LINE
  5
4CE
100
AcDbEntity
  8
0
100
AcDbLine
 62
7
  6
CONTINUOUS
 10
8.1289880923
 20
10.9876286618
 11
8.0689880923
 21
10.9876286618
  0
LINE
  5
4CF
100
AcDbEntity
  8
0
100
AcDbLine
 62
7
  6
CONTINUOUS
 10
8.2489880923
 20
10.9876286618
 11
8.3089880923
 21
10.9876286618
  0
LINE
  5
4D0
100
AcDbEntity
  8
03__ASM_ALL_CURVES
100
AcDbLine
 62
4
  6
CONTINUOUS
 10
8.0209880923
 20
11.1776286618
 11
8.0809880923
 21
11.1776286618
  0
LINE
  5
4D1
100
AcDbEntity
  8
03__ASM_ALL_CURVES
100
AcDbLine
 62
4
  6
CONTINUOUS
 10
10.7719880923
 20
11.1776286618
 11
10.8319880923
 21
11.1776286618
  0
LINE
  5
4D2
100
AcDbEntity
  8
03__ASM_ALL_CURVES
100
AcDbLine
 62
4
  6
CONTINUOUS
 10
10.8094880923
 20
11.2976286618
 11
10.8244880923
 21
11.2876286642
  0
LINE
  5
4D3
100
AcDbEntity
  8
03__ASM_ALL_CURVES
100
AcDbLine
 62
4
  6
CONTINUOUS
 10
11.6225105923
 20
10.8459446618
 11
11.6333395923
 21
10.8387253302
  0
LINE
  5
4D4
100
AcDbEntity
  8
03__ASM_ALL_CURVES
100
AcDbLine
 62
4
  6
CONTINUOUS
 10
12.3913695923
 20
9.7209446618
 11
12.4021985923
 21
9.7065059934
  0
LINE
  5
4D5
100
AcDbEntity
  8
03__ASM_ALL_CURVES
100
AcDbLine
 62
4
  6
CONTINUOUS
 10
11.6333395923
 20
10.8387253302
 11
11.6387540923
 21
10.8315059934
  0
LINE
  5
4D6
100
AcDbEntity
  8
03__ASM_ALL_CURVES
100
AcDbLine
 62
4
  6
CONTINUOUS
 10
11.7172643423
 20
10.7701416621
 11
11.7253860923
 21
10.7593126618
  0
LINE
  5
4D7
100
AcDbEntity
  8
03__ASM_ALL_CURVES
100
AcDbLine
 62
4
  6
CONTINUOUS
 10
12.0394270923
 20
10.7954093276
 11
12.0448415923
 21
10.7737513289
  0
LINE
  5
4D8
100
AcDbEntity
  8
03__ASM_ALL_CURVES
100
AcDbLine
 62
4
  6
CONTINUOUS
 10
12.4021985923
 20
9.7065059934
 11
12.4076130923
 21
9.6848479934
  0
LINE
  5
4D9
100
AcDbEntity
  8
03__ASM_ALL_CURVES
100
AcDbLine
 62
4
  6
CONTINUOUS
 10
11.9527950923
 20
11.6704093276
 11
11.9582095923
 21
11.6487513289
  0
LINE
  5
4DA
100
AcDbEntity
  8
03__ASM_ALL_CURVES
100
AcDbLine
 62
4
  6
CONTINUOUS
 10
12.5808770923
 20
10.8098479934
 11
12.5808770923
 21
10.7954093276
  0
LINE
  5
4DB
100
AcDbEntity
  8
03__ASM_ALL_CURVES
100
AcDbLine
 62
4
  6
CONTINUOUS
 10
8.0434880923
 20
11.2976286618
 11
8.0584880923
 21
11.2976286618
  0
LINE
  5
4DC
100
AcDbEntity
  8
03__ASM_ALL_CURVES
100
AcDbLine
 62
4
  6
CONTINUOUS
 10
10.7944880923
 20
11.2976286618
 11
10.8094880923
 21
11.2976286618
  0
LINE
  5
4DD
100
AcDbEntity
  8
03__ASM_ALL_CURVES
100
AcDbLine
 62
4
  6
CONTINUOUS
 10
11.8824065923
 20
10.8459446618
 11
11.8932355923
 21
10.8387253302
  0
LINE
  5
4DE
100
AcDbEntity
  8
03__ASM_ALL_CURVES
100
AcDbLine
 62
4
  6
CONTINUOUS
 10
12.1314735923
 20
10.7593126618
 11
12.1206445923
 21
10.7665319953
  0
LINE
  5
4DF
100
AcDbEntity
  8
03__ASM_ALL_CURVES
100
AcDbLine
 62
4
  6
CONTINUOUS
 10
12.2181055923
 20
10.7593126618
 11
12.2072765923
 21
10.7665319953
  0
LINE
  5
4E0
100
AcDbEntity
  8
03__ASM_ALL_CURVES
100
AcDbLine
 62
4
  6
CONTINUOUS
 10
12.1423025923
 20
10.8170673302
 11
12.1531315923
 21
10.8098479934
  0
LINE
  5
4E1
100
AcDbEntity
  8
03__ASM_ALL_CURVES
100
AcDbLine
 62
4
  6
CONTINUOUS
 10
11.8932355923
 20
10.8387253302
 11
11.8986500923
 21
10.8315059934
  0
LINE
  5
4E2
100
AcDbEntity
  8
03__ASM_ALL_CURVES
100
AcDbLine
 62
4
  6
CONTINUOUS
 10
12.0448415923
 20
10.7737513289
 11
12.0556705923
 21
10.7593126618
  0
LINE
  5
4E3
100
AcDbEntity
  8
03__ASM_ALL_CURVES
100
AcDbLine
 62
4
  6
CONTINUOUS
 10
12.1206445923
 20
10.7665319953
 11
12.1152300923
 21
10.7737513289
  0
LINE
  5
4E4
100
AcDbEntity
  8
03__ASM_ALL_CURVES
100
AcDbLine
 62
4
  6
CONTINUOUS
 10
11.7741165923
 20
11.6487513289
 11
11.7687020923
 21
11.663189996
  0
LINE
  5
4E5
100
AcDbEntity
  8
03__ASM_ALL_CURVES
100
AcDbLine
 62
4
  6
CONTINUOUS
 10
11.8066035923
 20
11.7065059934
 11
11.8120180923
 21
11.6920673302
  0
LINE
  5
4E6
100
AcDbEntity
  8
03__ASM_ALL_CURVES
100
AcDbLine
 62
4
  6
CONTINUOUS
 10
12.1585460923
 20
10.8026286618
 11
12.1639605923
 21
10.788189996
  0
LINE
  5
4E7
100
AcDbEntity
  8
03__ASM_ALL_CURVES
100
AcDbLine
 62
4
  6
CONTINUOUS
 10
12.2451780923
 20
11.6343126618
 11
12.2370563423
 21
11.6343126618
  0
LINE
  5
4E8
100
AcDbEntity
  8
03__ASM_ALL_CURVES
100
AcDbLine
 62
4
  6
CONTINUOUS
 10
11.7253860923
 20
11.6343126618
 11
11.7172643423
 21
11.6343126618
  0
LINE
  5
4E9
100
AcDbEntity
  8
03__ASM_ALL_CURVES
100
AcDbLine
 62
4
  6
CONTINUOUS
 10
11.6225105923
 20
11.6343126618
 11
11.6116815923
 21
11.6343126618
  0
LINE
  5
4EA
100
AcDbEntity
  8
0
100
AcDbLine
 62
7
  6
CONTINUOUS
 10
11.0539880923
 20
11.6776286618
 11
7.8659881286
 21
11.6776286618
  0
LINE
  5
4EB
100
AcDbEntity
  8
03__ASM_ALL_CURVES
100
AcDbLine
 62
4
  6
CONTINUOUS
 10
11.1406200923
 20
11.6776286618
 11
11.4005160923
 21
11.6776286618
  0
LINE
  5
4EC
100
AcDbEntity
  8
03__ASM_ALL_CURVES
100
AcDbLine
 62
4
  6
CONTINUOUS
 10
11.6116815923
 20
11.6848479934
 11
11.6225105923
 21
11.6848479934
  0
LINE
  5
4ED
100
AcDbEntity
  8
03__ASM_ALL_CURVES
100
AcDbLine
 62
4
  6
CONTINUOUS
 10
12.2289345923
 20
10.8098479934
 11
12.2397635923
 21
10.8026286618
  0
LINE
  5
4EE
100
AcDbEntity
  8
03__ASM_ALL_CURVES
100
AcDbLine
 62
4
  6
CONTINUOUS
 10
12.2289345923
 20
10.8459446618
 11
12.2397635923
 21
10.8387253302
  0
LINE
  5
4EF
100
AcDbEntity
  8
03__ASM_ALL_CURVES
100
AcDbLine
 62
4
  6
CONTINUOUS
 10
12.3913695923
 20
10.7593126618
 11
12.3805405923
 21
10.7665319953
  0
LINE
  5
4F0
100
AcDbEntity
  8
03__ASM_ALL_CURVES
100
AcDbLine
 62
4
  6
CONTINUOUS
 10
12.3913695923
 20
10.8098479934
 11
12.3805405923
 21
10.8170673302
  0
LINE
  5
4F1
100
AcDbEntity
  8
03__ASM_ALL_CURVES
100
AcDbLine
 62
4
  6
CONTINUOUS
 10
12.4021985923
 20
10.8098479934
 11
12.4130275923
 21
10.8026286618
  0
LINE
  5
4F2
100
AcDbEntity
  8
03__ASM_ALL_CURVES
100
AcDbLine
 62
4
  6
CONTINUOUS
 10
12.4021985923
 20
10.8459446618
 11
12.4130275923
 21
10.8387253302
  0
LINE
  5
4F3
100
AcDbEntity
  8
03__ASM_ALL_CURVES
100
AcDbLine
 62
4
  6
CONTINUOUS
 10
12.1531315923
 20
10.8098479934
 11
12.1585460923
 21
10.8026286618
  0
LINE
  5
4F4
100
AcDbEntity
  8
03__ASM_ALL_CURVES
100
AcDbLine
 62
4
  6
CONTINUOUS
 10
12.2072765923
 20
10.7665319953
 11
12.2018620923
 21
10.7737513289
  0
LINE
  5
4F5
100
AcDbEntity
  8
03__ASM_ALL_CURVES
100
AcDbLine
 62
4
  6
CONTINUOUS
 10
11.6008525923
 20
11.6415319953
 11
11.5954380923
 21
11.6487513289
  0
LINE
  5
4F6
100
AcDbEntity
  8
03__ASM_ALL_CURVES
100
AcDbLine
 62
4
  6
CONTINUOUS
 10
12.2397635923
 20
10.8026286618
 11
12.2505925923
 21
10.788189996
  0
LINE
  5
4F7
100
AcDbEntity
  8
03__ASM_ALL_CURVES
100
AcDbLine
 62
4
  6
CONTINUOUS
 10
12.2397635923
 20
10.8387253302
 11
12.2451780923
 21
10.8315059934
  0
LINE
  5
4F8
100
AcDbEntity
  8
03__ASM_ALL_CURVES
100
AcDbLine
 62
4
  6
CONTINUOUS
 10
11.6333395923
 20
11.6776286618
 11
11.6441685923
 21
11.663189996
  0
LINE
  5
4F9
100
AcDbEntity
  8
03__ASM_ALL_CURVES
100
AcDbLine
 62
4
  6
CONTINUOUS
 10
12.3236883423
 20
10.7701416621
 11
12.3318100923
 21
10.7593126618
  0
LINE
  5
4FA
100
AcDbEntity
  8
03__ASM_ALL_CURVES
100
AcDbLine
 62
4
  6
CONTINUOUS
 10
11.6333395923
 20
11.7137253302
 11
11.6387540923
 21
11.7065059934
  0
LINE
  5
4FB
100
AcDbEntity
  8
03__ASM_ALL_CURVES
100
AcDbLine
 62
4
  6
CONTINUOUS
 10
11.7172643423
 20
11.6451416621
 11
11.7253860923
 21
11.6343126618
  0
LINE
  5
4FC
100
AcDbEntity
  8
03__ASM_ALL_CURVES
100
AcDbLine
 62
4
  6
CONTINUOUS
 10
12.3805405923
 20
10.7665319953
 11
12.3697115923
 21
10.7809706618
  0
LINE
  5
4FD
100
AcDbEntity
  8
03__ASM_ALL_CURVES
100
AcDbLine
 62
4
  6
CONTINUOUS
 10
12.3805405923
 20
10.8170673302
 11
12.3751260923
 21
10.8242866618
  0
LINE
  5
4FE
100
AcDbEntity
  8
03__ASM_ALL_CURVES
100
AcDbLine
 62
4
  6
CONTINUOUS
 10
11.7795310923
 20
11.6415319953
 11
11.7741165923
 21
11.6487513289
  0
LINE
  5
4FF
100
AcDbEntity
  8
03__ASM_ALL_CURVES
100
AcDbLine
 62
4
  6
CONTINUOUS
 10
12.4130275923
 20
10.8026286618
 11
12.4238565923
 21
10.788189996
  0
LINE
  5
500
100
AcDbEntity
  8
03__ASM_ALL_CURVES
100
AcDbLine
 62
4
  6
CONTINUOUS
 10
12.4130275923
 20
10.8387253302
 11
12.4184420923
 21
10.8315059934
  0
LINE
  5
501
100
AcDbEntity
  8
03__ASM_ALL_CURVES
100
AcDbLine
 62
4
  6
CONTINUOUS
 10
12.1206445923
 20
11.6487513289
 11
12.1152300923
 21
11.663189996
  0
LINE
  5
502
100
AcDbEntity
  8
03__ASM_ALL_CURVES
100
AcDbLine
 62
4
  6
CONTINUOUS
 10
12.1531315923
 20
11.6776286618
 11
12.1585460923
 21
11.663189996
  0
LINE
  5
503
100
AcDbEntity
  8
03__ASM_ALL_CURVES
100
AcDbLine
 62
4
  6
CONTINUOUS
 10
12.5754625923
 20
10.8315059934
 11
12.5808770923
 21
10.8098479934
  0
LINE
  5
504
100
AcDbEntity
  8
03__ASM_ALL_CURVES
100
AcDbLine
 62
4
  6
CONTINUOUS
 10
12.0719140923
 20
11.7209446618
 11
12.0285980923
 21
11.7209446618
  0
LINE
  5
505
100
AcDbEntity
  8
03__ASM_ALL_CURVES
100
AcDbLine
 62
4
  6
CONTINUOUS
 10
11.6116815923
 20
11.7209446618
 11
11.6225105923
 21
11.7209446618
  0
LINE
  5
506
100
AcDbEntity
  8
03__ASM_ALL_CURVES
100
AcDbLine
 62
4
  6
CONTINUOUS
 10
11.6116815923
 20
11.6343126618
 11
11.6008525923
 21
11.6415319953
  0
LINE
  5
507
100
AcDbEntity
  8
03__ASM_ALL_CURVES
100
AcDbLine
 62
4
  6
CONTINUOUS
 10
11.6225105923
 20
11.6848479934
 11
11.6333395923
 21
11.6776286618
  0
LINE
  5
508
100
AcDbEntity
  8
03__ASM_ALL_CURVES
100
AcDbLine
 62
4
  6
CONTINUOUS
 10
11.6225105923
 20
11.7209446618
 11
11.6333395923
 21
11.7137253302
  0
LINE
  5
509
100
AcDbEntity
  8
03__ASM_ALL_CURVES
100
AcDbLine
 62
4
  6
CONTINUOUS
 10
11.7903600923
 20
11.6343126618
 11
11.7795310923
 21
11.6415319953
  0
LINE
  5
50A
100
AcDbEntity
  8
03__ASM_ALL_CURVES
100
AcDbLine
 62
4
  6
CONTINUOUS
 10
11.8011890923
 20
11.7137253302
 11
11.8066035923
 21
11.7065059934
  0
LINE
  5
50B
100
AcDbEntity
  8
03__ASM_ALL_CURVES
100
AcDbLine
 62
4
  6
CONTINUOUS
 10
11.9582095923
 20
11.6487513289
 11
11.9690385923
 21
11.6343126618
  0
LINE
  5
50C
100
AcDbEntity
  8
03__ASM_ALL_CURVES
100
AcDbLine
 62
4
  6
CONTINUOUS
 10
12.5646335923
 20
10.8459446618
 11
12.5754625923
 21
10.8315059934
  0
LINE
  5
50D
100
AcDbEntity
  8
03__ASM_ALL_CURVES
100
AcDbLine
 62
4
  6
CONTINUOUS
 10
12.1260590923
 20
11.6415319953
 11
12.1206445923
 21
11.6487513289
  0
LINE
  5
50E
100
AcDbEntity
  8
03__ASM_ALL_CURVES
100
AcDbLine
 62
4
  6
CONTINUOUS
 10
12.3805405923
 20
11.6776286618
 11
12.3751260923
 21
11.6920673302
  0
LINE
  5
50F
100
AcDbEntity
  8
03__ASM_ALL_CURVES
100
AcDbLine
 62
4
  6
CONTINUOUS
 10
12.4130275923
 20
11.7065059934
 11
12.4184420923
 21
11.6920673302
  0
LINE
  5
510
100
AcDbEntity
  8
03__ASM_ALL_CURVES
100
AcDbLine
 62
4
  6
CONTINUOUS
 10
12.4888305923
 20
11.7065059934
 11
12.4942450923
 21
11.6848479934
  0
LINE
  5
511
100
AcDbEntity
  8
03__ASM_ALL_CURVES
100
AcDbLine
 62
4
  6
CONTINUOUS
 10
12.1368880923
 20
11.6848479934
 11
12.1531315923
 21
11.6776286618
  0
LINE
  5
512
100
AcDbEntity
  8
03__ASM_ALL_CURVES
100
AcDbLine
 62
4
  6
CONTINUOUS
 10
11.7903600923
 20
11.7209446618
 11
11.8011890923
 21
11.7137253302
  0
LINE
  5
513
100
AcDbEntity
  8
03__ASM_ALL_CURVES
100
AcDbLine
 62
4
  6
CONTINUOUS
 10
12.1368880923
 20
11.6343126618
 11
12.1260590923
 21
11.6415319953
  0
LINE
  5
514
100
AcDbEntity
  8
03__ASM_ALL_CURVES
100
AcDbLine
 62
4
  6
CONTINUOUS
 10
12.1368880923
 20
11.7209446618
 11
12.1477170923
 21
11.7137253302
  0
LINE
  5
515
100
AcDbEntity
  8
03__ASM_ALL_CURVES
100
AcDbLine
 62
4
  6
CONTINUOUS
 10
12.1477170923
 20
11.7137253302
 11
12.1531315923
 21
11.7065059934
  0
LINE
  5
516
100
AcDbEntity
  8
03__ASM_ALL_CURVES
100
AcDbLine
 62
4
  6
CONTINUOUS
 10
12.2370563423
 20
11.6451416621
 11
12.2451780923
 21
11.6343126618
  0
LINE
  5
517
100
AcDbEntity
  8
03__ASM_ALL_CURVES
100
AcDbLine
 62
4
  6
CONTINUOUS
 10
12.3859550923
 20
11.6415319953
 11
12.3805405923
 21
11.6487513289
  0
LINE
  5
518
100
AcDbEntity
  8
03__ASM_ALL_CURVES
100
AcDbLine
 62
4
  6
CONTINUOUS
 10
12.3967840923
 20
11.6704093276
 11
12.3805405923
 21
11.6776286618
  0
LINE
  5
519
100
AcDbEntity
  8
03__ASM_ALL_CURVES
100
AcDbLine
 62
4
  6
CONTINUOUS
 10
12.3967840923
 20
11.6343126618
 11
12.3859550923
 21
11.6415319953
  0
LINE
  5
51A
100
AcDbEntity
  8
03__ASM_ALL_CURVES
100
AcDbLine
 62
4
  6
CONTINUOUS
 10
12.3967840923
 20
11.7209446618
 11
12.4076130923
 21
11.7137253302
  0
LINE
  5
51B
100
AcDbEntity
  8
03__ASM_ALL_CURVES
100
AcDbLine
 62
4
  6
CONTINUOUS
 10
12.4076130923
 20
11.7137253302
 11
12.4130275923
 21
11.7065059934
  0
LINE
  5
51C
100
AcDbEntity
  8
03__ASM_ALL_CURVES
100
AcDbLine
 62
4
  6
CONTINUOUS
 10
12.4780015923
 20
11.7209446618
 11
12.4888305923
 21
11.7065059934
  0
CIRCLE
  5
51D
100
AcDbEntity
  8
0
100
AcDbCircle
 62
7
  6
CONTINUOUS
 10
8.9599879912
 20
9.6776286618
 40
0.4305
  0
CIRCLE
  5
51E
100
AcDbEntity
  8
0
100
AcDbCircle
 62
7
  6
CONTINUOUS
 10
8.9599879912
 20
9.6776286618
 40
0.4175
  0
CIRCLE
  5
51F
100
AcDbEntity
  8
0
100
AcDbCircle
 62
7
  6
CONTINUOUS
 10
8.9599879912
 20
9.6776286618
 40
0.407
  0
CIRCLE
  5
520
100
AcDbEntity
  8
0
100
AcDbCircle
 62
7
  6
CONTINUOUS
 10
8.9599879912
 20
9.6776286618
 40
0.367
  0
CIRCLE
  5
521
100
AcDbEntity
  8
0
100
AcDbCircle
 62
7
  6
CONTINUOUS
 10
8.9599879912
 20
9.6776286618
 40
0.3503578644
  0
CIRCLE
  5
522
100
AcDbEntity
  8
0
100
AcDbCircle
 62
7
  6
CONTINUOUS
 10
8.9599879912
 20
9.6776286618
 40
0.3445
  0
CIRCLE
  5
523
100
AcDbEntity
  8
0
100
AcDbCircle
 62
7
  6
CONTINUOUS
 10
8.9599879912
 20
9.6776286618
 40
0.3345
  0
CIRCLE
  5
524
100
AcDbEntity
  8
0
100
AcDbCircle
 62
7
  6
CONTINUOUS
 10
8.9599879912
 20
9.6776286618
 40
0.2655
  0
CIRCLE
  5
525
100
AcDbEntity
  8
0
100
AcDbCircle
 62
7
  6
CONTINUOUS
 10
8.1889880923
 20
10.9276286618
 40
0.18
  0
CIRCLE
  5
526
100
AcDbEntity
  8
0
100
AcDbCircle
 62
7
  6
CONTINUOUS
 10
9.9599881104
 20
10.8026286618
 40
0.4305
  0
CIRCLE
  5
527
100
AcDbEntity
  8
0
100
AcDbCircle
 62
7
  6
CONTINUOUS
 10
9.9599881104
 20
10.8026286618
 40
0.4175
  0
CIRCLE
  5
528
100
AcDbEntity
  8
0
100
AcDbCircle
 62
7
  6
CONTINUOUS
 10
9.9599881104
 20
10.8026286618
 40
0.407
  0
CIRCLE
  5
529
100
AcDbEntity
  8
0
100
AcDbCircle
 62
7
  6
CONTINUOUS
 10
9.9599881104
 20
10.8026286618
 40
0.367
  0
CIRCLE
  5
52A
100
AcDbEntity
  8
0
100
AcDbCircle
 62
7
  6
CONTINUOUS
 10
9.9599881104
 20
10.8026286618
 40
0.3503578644
  0
CIRCLE
  5
52B
100
AcDbEntity
  8
0
100
AcDbCircle
 62
7
  6
CONTINUOUS
 10
9.9599881104
 20
10.8026286618
 40
0.3445
  0
CIRCLE
  5
52C
100
AcDbEntity
  8
0
100
AcDbCircle
 62
7
  6
CONTINUOUS
 10
9.9599881104
 20
10.8026286618
 40
0.3345
  0
CIRCLE
  5
52D
100
AcDbEntity
  8
0
100
AcDbCircle
 62
7
  6
CONTINUOUS
 10
9.9599881104
 20
10.8026286618
 40
0.2655
  0
SPLINE
  5
52E
100
AcDbEntity
  8
0
100
AcDbSpline
 62
7
  6
CONTINUOUS
 70
0
 71
3
 72
8
 73
4
 74
2
 42
0.0000001
 43
0.0000001
 44
0.0000000001
 12
0.0000265104
 22
0.000015979
 32
0.0
 13
0.0000265098
 23
0.0000159799
 33
0.0
 40
0.0
 40
0.0
 40
0.0
 40
0.0
 40
1.0
 40
1.0
 40
1.0
 40
1.0
 10
9.6957164374
 20
10.8281381275
 30
0.0
 10
9.6957252742
 20
10.8281434538
 30
0.0
 10
9.6957341109
 20
10.8281487803
 30
0.0
 10
9.6957429475
 20
10.8281541069
 30
0.0
 11
9.6957164374
 21
10.8281381275
 31
0.0
 11
9.6957429475
 21
10.8281541069
 31
0.0
  0
SPLINE
  5
52F
100
AcDbEntity
  8
0
100
AcDbSpline
 62
7
  6
CONTINUOUS
 70
0
 71
3
 72
8
 73
4
 74
2
 42
0.0000001
 43
0.0000001
 44
0.0000000001
 12
0.0017452476
 22
0.001052018
 32
0.0
 13
0.0017430493
 23
0.0010556644
 33
0.0
 40
0.0
 40
0.0
 40
0.0
 40
0.0
 40
1.0
 40
1.0
 40
1.0
 40
1.0
 10
9.6957429475
 20
10.8281541069
 30
0.0
 10
9.6963246967
 20
10.8285047796
 30
0.0
 10
9.6969060764
 20
10.8288560668
 30
0.0
 10
9.6974870928
 20
10.8292079549
 30
0.0
 11
9.6957429475
 21
10.8281541069
 31
0.0
 11
9.6974870928
 21
10.8292079549
 31
0.0
  0
SPLINE
  5
530
100
AcDbEntity
  8
0
100
AcDbSpline
 62
7
  6
CONTINUOUS
 70
0
 71
3
 72
93
 73
89
 74
87
 42
0.0000001
 43
0.0000001
 44
0.0000000001
 12
0.5005725367
 22
0.303167916
 32
0.0
 13
0.5005725365
 23
-0.3031679167
 33
0.0
 40
0.0
 40
0.0
 40
0.0
 40
0.0
 40
0.0113510952
 40
0.0256029072
 40
0.0392781225
 40
0.0524354889
 40
0.0651356572
 40
0.0774389362
 40
0.0894004408
 40
0.1010647564
 40
0.1124741003
 40
0.1236634948
 40
0.1346668109
 40
0.1455173259
 40
0.1562441686
 40
0.1668763241
 40
0.1774424
 40
0.1879668189
 40
0.1984737566
 40
0.2089893891
 40
0.2195397456
 40
0.230150879
 40
0.2408487869
 40
0.2516543653
 40
0.26258902
 40
0.2736860323
 40
0.284985051
 40
0.2965248599
 40
0.3083167335
 40
0.3203520216
 40
0.3326221128
 40
0.3451047479
 40
0.3577082501
 40
0.370322478
 40
0.3828432191
 40
0.3952202914
 40
0.4074284252
 40
0.4194431308
 40
0.4312633083
 40
0.442921665
 40
0.4544509321
 40
0.4658859824
 40
0.4772666039
 40
0.4886113803
 40
0.4999348965
 40
0.5112565849
 40
0.5226036399
 40
0.5339898348
 40
0.5454278437
 40
0.556945359
 40
0.568588153
 40
0.5803967416
 40
0.5924111081
 40
0.6046481784
 40
0.6170673975
 40
0.6296202266
 40
0.6422563696
 40
0.6548868091
 40
0.6674011455
 40
0.6796925164
 40
0.6917187569
 40
0.7034902875
 40
0.7150182585
 40
0.7263176605
 40
0.7374197921
 40
0.7483568408
 40
0.7591607545
 40
0.7698568744
 40
0.7804672863
 40
0.7910170363
 40
0.8015322321
 40
0.8120381678
 40
0.8225612754
 40
0.8331265407
 40
0.8437583208
 40
0.8544844008
 40
0.8653343269
 40
0.8763372488
 40
0.8875259739
 40
0.8989350819
 40
0.910599489
 40
0.9225609928
 40
0.9348643939
 40
0.9475639395
 40
0.9607203834
 40
0.9743949666
 40
0.9886470804
 40
1.0
 40
1.0
 40
1.0
 40
1.0
 10
9.6974870928
 20
10.8292079549
 30
0.0
 10
9.6993811083
 20
10.8303550509
 30
0.0
 10
9.7036444398
 20
10.8329567812
 30
0.0
 10
9.7101565167
 20
10.836994332
 30
0.0
 10
9.7169387122
 20
10.8412645059
 30
0.0
 10
9.7234407539
 20
10.8454112622
 30
0.0
 10
9.7296979953
 20
10.849443966
 30
0.0
 10
9.7357444014
 20
10.85337307
 30
0.0
 10
9.7416106505
 20
10.8572085074
 30
0.0
 10
9.7473239438
 20
10.8609591952
 30
0.0
 10
9.752907798
 20
10.8646325906
 30
0.0
 10
9.7583836706
 20
10.8682355121
 30
0.0
 10
9.7637713246
 20
10.871774182
 30
0.0
 10
9.7690893933
 20
10.8752544247
 30
0.0
 10
9.7743556047
 20
10.8786816572
 30
0.0
 10
9.7795868708
 20
10.882060806
 30
0.0
 10
9.7847993321
 20
10.8853962007
 30
0.0
 10
9.7900083825
 20
10.8886914703
 30
0.0
 10
9.7952290962
 20
10.8919497044
 30
0.0
 10
9.8004769379
 20
10.8951737653
 30
0.0
 10
9.8057678584
 20
10.8983661885
 30
0.0
 10
9.8111179973
 20
10.9015288415
 30
0.0
 10
9.8165428843
 20
10.9046623043
 30
0.0
 10
9.8220575249
 20
10.9077658208
 30
0.0
 10
9.8276784345
 20
10.9108383211
 30
0.0
 10
9.8334256848
 20
10.9138792088
 30
0.0
 10
9.8393228118
 20
10.9168877813
 30
0.0
 10
9.8453900378
 20
10.9198593626
 30
0.0
 10
9.8516394282
 20
10.9227832098
 30
0.0
 10
9.8580745827
 20
10.9256432395
 30
0.0
 10
9.8646926542
 20
10.928419817
 30
0.0
 10
9.8714749535
 20
10.9310869108
 30
0.0
 10
9.8783826251
 20
10.9336130476
 30
0.0
 10
9.8853592495
 20
10.9359655954
 30
0.0
 10
9.892353319
 20
10.938120364
 30
0.0
 10
9.899326985
 20
10.9400633671
 30
0.0
 10
9.906256011
 20
10.9417886671
 30
0.0
 10
9.9131246542
 20
10.9432954017
 30
0.0
 10
9.9199278629
 20
10.9445869187
 30
0.0
 10
9.9266716171
 20
10.9456689957
 30
0.0
 10
9.9333691086
 20
10.9465476799
 30
0.0
 10
9.940035209
 20
10.9472278122
 30
0.0
 10
9.9466822876
 20
10.9477124322
 30
0.0
 10
9.9533188908
 20
10.948003124
 30
0.0
 10
9.9599496442
 20
10.9481006583
 30
0.0
 10
9.9665808742
 20
10.9480053502
 30
0.0
 10
9.9732187491
 20
10.9477168313
 30
0.0
 10
9.9798680887
 20
10.9472342059
 30
0.0
 10
9.986533775
 20
10.9465561992
 30
0.0
 10
9.993226831
 20
10.9456802523
 30
0.0
 10
9.9999634616
 20
10.9446017037
 30
0.0
 10
10.0067618784
 20
10.9433137113
 30
0.0
 10
10.0136343306
 20
10.9418088546
 30
0.0
 10
10.0205773312
 20
10.9400825342
 30
0.0
 10
10.0275708693
 20
10.9381358344
 30
0.0
 10
10.0345832081
 20
10.9359766374
 30
0.0
 10
10.0415750221
 20
10.9336197059
 30
0.0
 10
10.0484975639
 20
10.9310884644
 30
0.0
 10
10.055294337
 20
10.928415564
 30
0.0
 10
10.061920145
 20
10.9256352677
 30
0.0
 10
10.0683536613
 20
10.9227754507
 30
0.0
 10
10.07459565
 20
10.9198547664
 30
0.0
 10
10.0806572648
 20
10.9168858329
 30
0.0
 10
10.0865532764
 20
10.9138777935
 30
0.0
 10
10.0923018638
 20
10.9108361385
 30
0.0
 10
10.0979237379
 20
10.9077630239
 30
0.0
 10
10.1034381636
 20
10.9046595468
 30
0.0
 10
10.1088623185
 20
10.9015264448
 30
0.0
 10
10.1142119132
 20
10.8983640657
 30
0.0
 10
10.1195025217
 20
10.8951717917
 30
0.0
 10
10.1247500092
 20
10.8919479164
 30
0.0
 10
10.1299702566
 20
10.8886899486
 30
0.0
 10
10.1351787845
 20
10.8853949929
 30
0.0
 10
10.1403908307
 20
10.8820598532
 30
0.0
 10
10.1456217742
 20
10.8786809057
 30
0.0
 10
10.1508877012
 20
10.875253854
 30
0.0
 10
10.156205484
 20
10.8717737963
 30
0.0
 10
10.1615928683
 20
10.8682353028
 30
0.0
 10
10.1670685291
 20
10.8646325207
 30
0.0
 10
10.1726522507
 20
10.8609592126
 30
0.0
 10
10.1783655203
 20
10.8572085403
 30
0.0
 10
10.184231804
 20
10.85337308
 30
0.0
 10
10.1902781281
 20
10.8494440293
 30
0.0
 10
10.1965351358
 20
10.8454114754
 30
0.0
 10
10.2030368178
 20
10.8412649448
 30
0.0
 10
10.2098188029
 20
10.8369948955
 30
0.0
 10
10.2163311234
 20
10.8329571843
 30
0.0
 10
10.2205948075
 20
10.8303552357
 30
0.0
 10
10.2224891274
 20
10.8292079554
 30
0.0
 11
9.6974870928
 21
10.8292079549
 31
0.0
 11
9.7031577788
 21
10.8326679295
 31
0.0
 11
9.7102469171
 21
10.8370619139
 31
0.0
 11
9.7170199657
 21
10.8413250031
 31
0.0
 11
9.7235125898
 21
10.8454644576
 31
0.0
 11
9.7297604994
 21
10.8494898824
 31
0.0
 11
9.7357984444
 21
10.853412252
 31
0.0
 11
9.7416579634
 21
10.8572420782
 31
0.0
 11
9.7473649155
 21
10.8609874146
 31
0.0
 11
9.7529435989
 21
10.8646562391
 31
0.0
 11
9.7584144809
 21
10.8682547243
 31
0.0
 11
9.7637972305
 21
10.8717890338
 31
0.0
 11
9.7691110583
 21
10.8752653716
 31
0.0
 11
9.7743730366
 21
10.8786887256
 31
0.0
 11
9.7796001133
 21
10.8820640468
 31
0.0
 11
9.7848090524
 21
10.8853960641
 31
0.0
 11
9.7900145998
 21
10.8886879888
 31
0.0
 11
9.7952314553
 21
10.891942677
 31
0.0
 11
9.800475435
 21
10.8951632137
 31
0.0
 11
9.8057624576
 21
10.8983521154
 31
0.0
 11
9.8111086721
 21
10.9015112561
 31
0.0
 11
9.8165304558
 21
10.9046417063
 31
0.0
 11
9.822041865
 21
10.9077421533
 31
0.0
 11
9.8276574614
 21
10.9108104648
 31
0.0
 11
9.8333982295
 21
10.9138465976
 31
0.0
 11
9.839288935
 21
10.9168505195
 31
0.0
 11
9.8453544574
 21
10.9198198344
 31
0.0
 11
9.8516055866
 21
10.9227430088
 31
0.0
 11
9.8580424067
 21
10.9256022508
 31
0.0
 11
9.8646645142
 21
10.9283789663
 31
0.0
 11
9.8714633708
 21
10.9310510103
 31
0.0
 11
9.8783910036
 21
10.9335829284
 31
0.0
 11
9.8853865405
 21
10.9359404279
 31
0.0
 11
9.8923894918
 21
10.9380966405
 31
0.0
 11
9.8993673266
 21
10.940039661
 31
0.0
 11
9.9063003204
 21
10.9417649558
 31
0.0
 11
9.913168437
 21
10.9432707318
 31
0.0
 11
9.9199645904
 21
10.9445602078
 31
0.0
 11
9.9267012123
 21
10.9456405667
 31
0.0
 11
9.9333910983
 21
10.9465177962
 31
0.0
 11
9.9400485896
 21
10.9471967015
 31
0.0
 11
9.9466911418
 21
10.9476807448
 31
0.0
 11
9.9533239763
 21
10.9479711244
 31
0.0
 11
9.9599500061
 21
10.94806854
 31
0.0
 11
9.9665749988
 21
10.9479733696
 31
0.0
 11
9.9732092624
 21
10.9476851538
 31
0.0
 11
9.9798552237
 21
10.9472030195
 31
0.0
 11
9.9865146472
 21
10.9465259977
 31
0.0
 11
9.9931979909
 21
10.9456517763
 31
0.0
 11
9.9999259919
 21
10.9445751795
 31
0.0
 11
10.0067159594
 21
10.943289486
 31
0.0
 11
10.0135844486
 21
10.9417863388
 31
0.0
 11
10.0205344527
 21
10.9400592759
 31
0.0
 11
10.0275365263
 21
10.9381113551
 31
0.0
 11
10.0345577642
 21
10.9359507196
 31
0.0
 11
10.0415656799
 21
10.9335897929
 31
0.0
 11
10.0485082289
 21
10.9310527639
 31
0.0
 11
10.0553243156
 21
10.9283738411
 31
0.0
 11
10.0619577408
 21
10.9255919121
 31
0.0
 11
10.0683895301
 21
10.9227343875
 31
0.0
 11
10.0746297579
 21
10.9198160059
 31
0.0
 11
10.0806890174
 21
10.9168496536
 31
0.0
 11
10.0865799082
 21
10.9138456014
 31
0.0
 11
10.0923233005
 21
10.9108080223
 31
0.0
 11
10.09794009
 21
10.9077389724
 31
0.0
 11
10.1034506151
 21
10.9046389408
 31
0.0
 11
10.1088714657
 21
10.9015089671
 31
0.0
 11
10.1142172956
 21
10.8983500057
 31
0.0
 11
10.119503997
 21
10.8951612586
 31
0.0
 11
10.1247477445
 21
10.8919408324
 31
0.0
 11
10.1299640914
 21
10.8886864366
 31
0.0
 11
10.1351689825
 21
10.88539491
 31
0.0
 11
10.1403775171
 21
10.8820631406
 31
0.0
 11
10.145604406
 21
10.8786879335
 31
0.0
 11
10.1508660081
 21
10.8752648198
 31
0.0
 11
10.1561795465
 21
10.8717886692
 31
0.0
 11
10.1615621029
 21
10.8682544858
 31
0.0
 11
10.1670326576
 21
10.8646562156
 31
0.0
 11
10.1726112256
 21
10.8609874671
 31
0.0
 11
10.1783182225
 21
10.8572421011
 31
0.0
 11
10.184177741
 21
10.8534122752
 31
0.0
 11
10.1902157459
 21
10.8494898666
 31
0.0
 11
10.1964633488
 21
10.8454646386
 31
0.0
 11
10.2029555159
 21
10.8413254716
 31
0.0
 11
10.2097282478
 21
10.8370625737
 31
0.0
 11
10.2168175317
 21
10.8326684889
 31
0.0
 11
10.2224891274
 21
10.8292079554
 31
0.0
  0
SPLINE
  5
531
100
AcDbEntity
  8
0
100
AcDbSpline
 62
7
  6
CONTINUOUS
 70
0
 71
3
 72
8
 73
4
 74
2
 42
0.0000001
 43
0.0000001
 44
0.0000000001
 12
0.00174305
 22
-0.0010556648
 32
0.0
 13
0.0017452483
 23
-0.0010520184
 33
0.0
 40
0.0
 40
0.0
 40
0.0
 40
0.0
 40
1.0
 40
1.0
 40
1.0
 40
1.0
 10
10.2224891274
 20
10.8292079554
 30
0.0
 10
10.223070144
 20
10.8288560671
 30
0.0
 10
10.2236515239
 20
10.8285047797
 30
0.0
 10
10.2242332734
 20
10.8281541069
 30
0.0
 11
10.2224891274
 21
10.8292079554
 31
0.0
 11
10.2242332734
 21
10.8281541069
 31
0.0
  0
SPLINE
  5
532
100
AcDbEntity
  8
0
100
AcDbSpline
 62
7
  6
CONTINUOUS
 70
0
 71
3
 72
8
 73
4
 74
2
 42
0.0000001
 43
0.0000001
 44
0.0000000001
 12
0.0000265099
 22
-0.0000159799
 32
0.0
 13
0.0000265104
 23
-0.000015979
 33
0.0
 40
0.0
 40
0.0
 40
0.0
 40
0.0
 40
1.0
 40
1.0
 40
1.0
 40
1.0
 10
10.2242332734
 20
10.8281541069
 30
0.0
 10
10.22424211
 20
10.8281487803
 30
0.0
 10
10.2242509467
 20
10.8281434538
 30
0.0
 10
10.2242597835
 20
10.8281381275
 30
0.0
 11
10.2242332734
 21
10.8281541069
 31
0.0
 11
10.2242597835
 21
10.8281381275
 31
0.0
  0
SPLINE
  5
533
100
AcDbEntity
  8
0
100
AcDbSpline
 62
7
  6
CONTINUOUS
 70
0
 71
3
 72
8
 73
4
 74
2
 42
0.0000001
 43
0.0000001
 44
0.0000000001
 12
-0.0000265104
 22
-0.000015979
 32
0.0
 13
-0.0000265098
 23
-0.0000159799
 33
0.0
 40
0.0
 40
0.0
 40
0.0
 40
0.0
 40
1.0
 40
1.0
 40
1.0
 40
1.0
 10
9.2242596643
 20
9.6521191961
 30
0.0
 10
9.2242508275
 20
9.6521138698
 30
0.0
 10
9.2242419908
 20
9.6521085433
 30
0.0
 10
9.2242331542
 20
9.6521032167
 30
0.0
 11
9.2242596643
 21
9.6521191961
 31
0.0
 11
9.2242331542
 21
9.6521032167
 31
0.0
  0
SPLINE
  5
534
100
AcDbEntity
  8
0
100
AcDbSpline
 62
7
  6
CONTINUOUS
 70
0
 71
3
 72
8
 73
4
 74
2
 42
0.0000001
 43
0.0000001
 44
0.0000000001
 12
-0.0017452476
 22
-0.001052018
 32
0.0
 13
-0.0017430493
 23
-0.0010556644
 33
0.0
 40
0.0
 40
0.0
 40
0.0
 40
0.0
 40
1.0
 40
1.0
 40
1.0
 40
1.0
 10
9.2242331542
 20
9.6521032167
 30
0.0
 10
9.223651405
 20
9.651752544
 30
0.0
 10
9.2230700253
 20
9.6514012568
 30
0.0
 10
9.2224890089
 20
9.6510493686
 30
0.0
 11
9.2242331542
 21
9.6521032167
 31
0.0
 11
9.2224890089
 21
9.6510493686
 31
0.0
  0
SPLINE
  5
535
100
AcDbEntity
  8
0
100
AcDbSpline
 62
7
  6
CONTINUOUS
 70
0
 71
3
 72
93
 73
89
 74
87
 42
0.0000001
 43
0.0000001
 44
0.0000000001
 12
-0.5005725367
 22
-0.303167916
 32
0.0
 13
-0.5005725365
 23
0.3031679167
 33
0.0
 40
0.0
 40
0.0
 40
0.0
 40
0.0
 40
0.0113510952
 40
0.0256029072
 40
0.0392781225
 40
0.0524354889
 40
0.0651356572
 40
0.0774389362
 40
0.0894004408
 40
0.1010647564
 40
0.1124741003
 40
0.1236634948
 40
0.1346668109
 40
0.1455173259
 40
0.1562441686
 40
0.1668763241
 40
0.1774424
 40
0.1879668189
 40
0.1984737566
 40
0.2089893891
 40
0.2195397456
 40
0.230150879
 40
0.2408487869
 40
0.2516543653
 40
0.26258902
 40
0.2736860323
 40
0.284985051
 40
0.2965248599
 40
0.3083167335
 40
0.3203520216
 40
0.3326221128
 40
0.3451047479
 40
0.3577082501
 40
0.370322478
 40
0.3828432191
 40
0.3952202914
 40
0.4074284252
 40
0.4194431308
 40
0.4312633083
 40
0.442921665
 40
0.4544509321
 40
0.4658859824
 40
0.4772666039
 40
0.4886113803
 40
0.4999348965
 40
0.5112565849
 40
0.5226036399
 40
0.5339898348
 40
0.5454278437
 40
0.556945359
 40
0.568588153
 40
0.5803967416
 40
0.5924111081
 40
0.6046481784
 40
0.6170673975
 40
0.6296202266
 40
0.6422563696
 40
0.6548868091
 40
0.6674011455
 40
0.6796925164
 40
0.6917187569
 40
0.7034902875
 40
0.7150182585
 40
0.7263176605
 40
0.7374197921
 40
0.7483568408
 40
0.7591607545
 40
0.7698568744
 40
0.7804672863
 40
0.7910170363
 40
0.8015322321
 40
0.8120381678
 40
0.8225612754
 40
0.8331265407
 40
0.8437583208
 40
0.8544844008
 40
0.8653343269
 40
0.8763372488
 40
0.8875259739
 40
0.8989350819
 40
0.910599489
 40
0.9225609928
 40
0.9348643939
 40
0.9475639395
 40
0.9607203834
 40
0.9743949666
 40
0.9886470804
 40
1.0
 40
1.0
 40
1.0
 40
1.0
 10
9.2224890089
 20
9.6510493686
 30
0.0
 10
9.2205949934
 20
9.6499022727
 30
0.0
 10
9.2163316619
 20
9.6473005424
 30
0.0
 10
9.209819585
 20
9.6432629916
 30
0.0
 10
9.2030373895
 20
9.6389928177
 30
0.0
 10
9.1965353478
 20
9.6348460614
 30
0.0
 10
9.1902781064
 20
9.6308133576
 30
0.0
 10
9.1842317003
 20
9.6268842536
 30
0.0
 10
9.1783654512
 20
9.6230488162
 30
0.0
 10
9.1726521579
 20
9.6192981284
 30
0.0
 10
9.1670683036
 20
9.615624733
 30
0.0
 10
9.1615924311
 20
9.6120218115
 30
0.0
 10
9.156204777
 20
9.6084831416
 30
0.0
 10
9.1508867084
 20
9.6050028989
 30
0.0
 10
9.145620497
 20
9.6015756663
 30
0.0
 10
9.1403892309
 20
9.5981965176
 30
0.0
 10
9.1351767696
 20
9.5948611229
 30
0.0
 10
9.1299677192
 20
9.5915658533
 30
0.0
 10
9.1247470055
 20
9.5883076192
 30
0.0
 10
9.1194991638
 20
9.5850835583
 30
0.0
 10
9.1142082433
 20
9.5818911351
 30
0.0
 10
9.1088581043
 20
9.5787284821
 30
0.0
 10
9.1034332174
 20
9.5755950192
 30
0.0
 10
9.0979185768
 20
9.5724915028
 30
0.0
 10
9.0922976672
 20
9.5694190024
 30
0.0
 10
9.0865504169
 20
9.5663781148
 30
0.0
 10
9.0806532899
 20
9.5633695423
 30
0.0
 10
9.0745860639
 20
9.5603979609
 30
0.0
 10
9.0683366735
 20
9.5574741138
 30
0.0
 10
9.061901519
 20
9.5546140841
 30
0.0
 10
9.0552834474
 20
9.5518375066
 30
0.0
 10
9.0485011482
 20
9.5491704127
 30
0.0
 10
9.0415934766
 20
9.5466442759
 30
0.0
 10
9.0346168522
 20
9.5442917282
 30
0.0
 10
9.0276227827
 20
9.5421369596
 30
0.0
 10
9.0206491167
 20
9.5401939565
 30
0.0
 10
9.0137200906
 20
9.5384686565
 30
0.0
 10
9.0068514475
 20
9.5369619219
 30
0.0
 10
9.0000482387
 20
9.5356704049
 30
0.0
 10
8.9933044846
 20
9.5345883279
 30
0.0
 10
8.9866069931
 20
9.5337096437
 30
0.0
 10
8.9799408926
 20
9.5330295114
 30
0.0
 10
8.9732938141
 20
9.5325448914
 30
0.0
 10
8.9666572109
 20
9.5322541996
 30
0.0
 10
8.9600264575
 20
9.5321566653
 30
0.0
 10
8.9533952274
 20
9.5322519734
 30
0.0
 10
8.9467573525
 20
9.5325404923
 30
0.0
 10
8.940108013
 20
9.5330231177
 30
0.0
 10
8.9334423267
 20
9.5337011244
 30
0.0
 10
8.9267492707
 20
9.5345770713
 30
0.0
 10
8.9200126401
 20
9.5356556199
 30
0.0
 10
8.9132142232
 20
9.5369436123
 30
0.0
 10
8.906341771
 20
9.538448469
 30
0.0
 10
8.8993987705
 20
9.5401747894
 30
0.0
 10
8.8924052323
 20
9.5421214892
 30
0.0
 10
8.8853928936
 20
9.5442806862
 30
0.0
 10
8.8784010796
 20
9.5466376177
 30
0.0
 10
8.8714785378
 20
9.5491688592
 30
0.0
 10
8.8646817647
 20
9.5518417595
 30
0.0
 10
8.8580559566
 20
9.5546220559
 30
0.0
 10
8.8516224404
 20
9.5574818729
 30
0.0
 10
8.8453804517
 20
9.5604025572
 30
0.0
 10
8.8393188368
 20
9.5633714907
 30
0.0
 10
8.8334228253
 20
9.56637953
 30
0.0
 10
8.8276742379
 20
9.569421185
 30
0.0
 10
8.8220523637
 20
9.5724942997
 30
0.0
 10
8.8165379381
 20
9.5755977768
 30
0.0
 10
8.8111137831
 20
9.5787308787
 30
0.0
 10
8.8057641885
 20
9.5818932579
 30
0.0
 10
8.80047358
 20
9.5850855318
 30
0.0
 10
8.7952260925
 20
9.5883094071
 30
0.0
 10
8.7900058451
 20
9.591567375
 30
0.0
 10
8.7847973172
 20
9.5948623307
 30
0.0
 10
8.779585271
 20
9.5981974703
 30
0.0
 10
8.7743543275
 20
9.6015764179
 30
0.0
 10
8.7690884004
 20
9.6050034696
 30
0.0
 10
8.7637706176
 20
9.6084835273
 30
0.0
 10
8.7583832334
 20
9.6120220208
 30
0.0
 10
8.7529075726
 20
9.6156248029
 30
0.0
 10
8.7473238509
 20
9.619298111
 30
0.0
 10
8.7416105814
 20
9.6230487833
 30
0.0
 10
8.7357442977
 20
9.6268842436
 30
0.0
 10
8.7296979736
 20
9.6308132943
 30
0.0
 10
8.7234409658
 20
9.6348458481
 30
0.0
 10
8.7169392839
 20
9.6389923787
 30
0.0
 10
8.7101572987
 20
9.6432624281
 30
0.0
 10
8.7036449783
 20
9.6473001392
 30
0.0
 10
8.6993812942
 20
9.6499020879
 30
0.0
 10
8.6974869743
 20
9.6510493682
 30
0.0
 11
9.2224890089
 21
9.6510493686
 31
0.0
 11
9.2168183229
 21
9.6475893941
 31
0.0
 11
9.2097291845
 21
9.6431954097
 31
0.0
 11
9.202956136
 21
9.6389323204
 31
0.0
 11
9.1964635119
 21
9.634792866
 31
0.0
 11
9.1902156023
 21
9.6307674412
 31
0.0
 11
9.1841776573
 21
9.6268450716
 31
0.0
 11
9.1783181383
 21
9.6230152454
 31
0.0
 11
9.1726111862
 21
9.619269909
 31
0.0
 11
9.1670325028
 21
9.6156010845
 31
0.0
 11
9.1615616208
 21
9.6120025992
 31
0.0
 11
9.1561788711
 21
9.6084682898
 31
0.0
 11
9.1508650433
 21
9.604991952
 31
0.0
 11
9.1456030651
 21
9.6015685979
 31
0.0
 11
9.1403759883
 21
9.5981932767
 31
0.0
 11
9.1351670493
 21
9.5948612595
 31
0.0
 11
9.1299615019
 21
9.5915693348
 31
0.0
 11
9.1247446463
 21
9.5883146466
 31
0.0
 11
9.1195006667
 21
9.5850941099
 31
0.0
 11
9.1142136441
 21
9.5819052082
 31
0.0
 11
9.1088674296
 21
9.5787460675
 31
0.0
 11
9.1034456459
 21
9.5756156173
 31
0.0
 11
9.0979342367
 21
9.5725151703
 31
0.0
 11
9.0923186403
 21
9.5694468587
 31
0.0
 11
9.0865778722
 21
9.566410726
 31
0.0
 11
9.0806871666
 21
9.5634068041
 31
0.0
 11
9.0746216442
 21
9.5604374891
 31
0.0
 11
9.0683705151
 21
9.5575143148
 31
0.0
 11
9.061933695
 21
9.5546550727
 31
0.0
 11
9.0553115875
 21
9.5518783573
 31
0.0
 11
9.0485127309
 21
9.5492063133
 31
0.0
 11
9.0415850981
 21
9.5466743952
 31
0.0
 11
9.0345895612
 21
9.5443168957
 31
0.0
 11
9.0275866099
 21
9.5421606831
 31
0.0
 11
9.0206087751
 21
9.5402176626
 31
0.0
 11
9.0136757812
 21
9.5384923678
 31
0.0
 11
9.0068076647
 21
9.5369865918
 31
0.0
 11
9.0000115113
 21
9.5356971158
 31
0.0
 11
8.9932748893
 21
9.5346167569
 31
0.0
 11
8.9865850034
 21
9.5337395273
 31
0.0
 11
8.9799275121
 21
9.5330606221
 31
0.0
 11
8.9732849599
 21
9.5325765787
 31
0.0
 11
8.9666521254
 21
9.5322861992
 31
0.0
 11
8.9600260956
 21
9.5321887836
 31
0.0
 11
8.9534011029
 21
9.532283954
 31
0.0
 11
8.9467668392
 21
9.5325721698
 31
0.0
 11
8.940120878
 21
9.533054304
 31
0.0
 11
8.9334614545
 21
9.5337313258
 31
0.0
 11
8.9267781107
 21
9.5346055472
 31
0.0
 11
8.9200501098
 21
9.5356821441
 31
0.0
 11
8.9132601423
 21
9.5369678376
 31
0.0
 11
8.906391653
 21
9.5384709848
 31
0.0
 11
8.899441649
 21
9.5401980477
 31
0.0
 11
8.8924395753
 21
9.5421459685
 31
0.0
 11
8.8854183375
 21
9.544306604
 31
0.0
 11
8.8784104218
 21
9.5466675307
 31
0.0
 11
8.8714678728
 21
9.5492045597
 31
0.0
 11
8.8646517861
 21
9.5518834824
 31
0.0
 11
8.8580183608
 21
9.5546654115
 31
0.0
 11
8.8515865716
 21
9.557522936
 31
0.0
 11
8.8453463438
 21
9.5604413177
 31
0.0
 11
8.8392870843
 21
9.5634076699
 31
0.0
 11
8.8333961934
 21
9.5664117221
 31
0.0
 11
8.8276528012
 21
9.5694493013
 31
0.0
 11
8.8220360116
 21
9.5725183512
 31
0.0
 11
8.8165254866
 21
9.5756183828
 31
0.0
 11
8.811104636
 21
9.5787483565
 31
0.0
 11
8.8057588061
 21
9.5819073179
 31
0.0
 11
8.8004721046
 21
9.585096065
 31
0.0
 11
8.7952283572
 21
9.5883164912
 31
0.0
 11
8.7900120103
 21
9.591570887
 31
0.0
 11
8.7848071191
 21
9.5948624136
 31
0.0
 11
8.7795985846
 21
9.5981941829
 31
0.0
 11
8.7743716957
 21
9.60156939
 31
0.0
 11
8.7691100936
 21
9.6049925038
 31
0.0
 11
8.7637965551
 21
9.6084686544
 31
0.0
 11
8.7584139987
 21
9.6120028378
 31
0.0
 11
8.7529434441
 21
9.6156011079
 31
0.0
 11
8.7473648761
 21
9.6192698565
 31
0.0
 11
8.7416578792
 21
9.6230152225
 31
0.0
 11
8.7357983607
 21
9.6268450484
 31
0.0
 11
8.7297603558
 21
9.630767457
 31
0.0
 11
8.7235127529
 21
9.634792685
 31
0.0
 11
8.7170205857
 21
9.6389318519
 31
0.0
 11
8.7102478538
 21
9.6431947499
 31
0.0
 11
8.7031585699
 21
9.6475888347
 31
0.0
 11
8.6974869743
 21
9.6510493682
 31
0.0
  0
SPLINE
  5
536
100
AcDbEntity
  8
0
100
AcDbSpline
 62
7
  6
CONTINUOUS
 70
0
 71
3
 72
8
 73
4
 74
2
 42
0.0000001
 43
0.0000001
 44
0.0000000001
 12
-0.00174305
 22
0.0010556648
 32
0.0
 13
-0.0017452483
 23
0.0010520184
 33
0.0
 40
0.0
 40
0.0
 40
0.0
 40
0.0
 40
1.0
 40
1.0
 40
1.0
 40
1.0
 10
8.6974869743
 20
9.6510493682
 30
0.0
 10
8.6969059576
 20
9.6514012565
 30
0.0
 10
8.6963245777
 20
9.6517525438
 30
0.0
 10
8.6957428283
 20
9.6521032167
 30
0.0
 11
8.6974869743
 21
9.6510493682
 31
0.0
 11
8.6957428283
 21
9.6521032167
 31
0.0
  0
SPLINE
  5
537
100
AcDbEntity
  8
0
100
AcDbSpline
 62
7
  6
CONTINUOUS
 70
0
 71
3
 72
8
 73
4
 74
2
 42
0.0000001
 43
0.0000001
 44
0.0000000001
 12
-0.0000265099
 22
0.0000159799
 32
0.0
 13
-0.0000265104
 23
0.000015979
 33
0.0
 40
0.0
 40
0.0
 40
0.0
 40
0.0
 40
1.0
 40
1.0
 40
1.0
 40
1.0
 10
8.6957428283
 20
9.6521032167
 30
0.0
 10
8.6957339917
 20
9.6521085433
 30
0.0
 10
8.695725155
 20
9.6521138698
 30
0.0
 10
8.6957163182
 20
9.6521191961
 30
0.0
 11
8.6957428283
 21
9.6521032167
 31
0.0
 11
8.6957163182
 21
9.6521191961
 31
0.0
  0
SPLINE
  5
538
100
AcDbEntity
  8
0
100
AcDbSpline
 62
7
  6
CONTINUOUS
 70
0
 71
3
 72
8
 73
4
 74
2
 42
0.0000001
 43
0.0000001
 44
0.0000000001
 12
0.0017988777
 22
0.0010842671
 32
0.0
 13
0.001796414
 23
0.0010882943
 33
0.0
 40
0.0
 40
0.0
 40
0.0
 40
0.0
 40
1.0
 40
1.0
 40
1.0
 40
1.0
 10
9.6957164374
 20
10.8281381275
 30
0.0
 10
9.6963160633
 20
10.8284995498
 30
0.0
 10
9.6969152728
 20
10.8288616531
 30
0.0
 10
9.6975140775
 20
10.8292244179
 30
0.0
 11
9.6957164374
 21
10.8281381275
 31
0.0
 11
9.6975140775
 21
10.8292244179
 31
0.0
  0
SPLINE
  5
539
100
AcDbEntity
  8
0
100
AcDbSpline
 62
7
  6
CONTINUOUS
 70
0
 71
3
 72
18
 73
14
 74
12
 42
0.0000001
 43
0.0000001
 44
0.0000000001
 12
0.5001237441
 22
0.3029823874
 32
0.0
 13
0.5001255786
 23
-0.3029805811
 33
0.0
 40
0.0
 40
0.0
 40
0.0
 40
0.0
 40
0.0998044484
 40
0.1965768387
 40
0.2876454885
 40
0.3758025468
 40
0.4614263798
 40
0.5450413419
 40
0.6301010908
 40
0.7173115321
 40
0.8070376835
 40
0.9020979021
 40
1.0
 40
1.0
 40
1.0
 40
1.0
 10
9.6975140775
 20
10.8292244179
 30
0.0
 10
9.714152269
 20
10.8393040813
 30
0.0
 10
9.746307571
 20
10.8601629758
 30
0.0
 10
9.7929927328
 20
10.8912038793
 30
0.0
 10
9.8395725722
 20
10.9182697628
 30
0.0
 10
9.8874120431
 20
10.9382567519
 30
0.0
 10
9.9368515654
 20
10.9487013154
 30
0.0
 10
9.9868140731
 20
10.9482762353
 30
0.0
 10
10.0357898812
 20
10.9371678346
 30
0.0
 10
10.0829055366
 20
10.916944372
 30
0.0
 10
10.1286925279
 20
10.8900853059
 30
0.0
 10
10.1745643387
 20
10.8595667832
 30
0.0
 10
10.2061414209
 20
10.8391116539
 30
0.0
 10
10.2224625353
 20
10.8292241757
 30
0.0
 11
9.6975140775
 21
10.8292244179
 31
0.0
 11
9.7467389264
 21
10.8605760764
 31
0.0
 11
9.7942409036
 21
10.8913284011
 31
0.0
 11
9.8406127755
 21
10.9175094949
 31
0.0
 11
9.8883815374
 21
10.9368877111
 31
0.0
 11
9.9374278573
 21
10.9469525829
 31
0.0
 11
9.9863198889
 21
10.9465485497
 31
0.0
 11
10.0348925533
 21
10.935842552
 31
0.0
 11
10.0819589375
 21
10.9162118898
 31
0.0
 11
10.1275302968
 21
10.8902107528
 31
0.0
 11
10.1741675293
 21
10.8599650146
 31
0.0
 11
10.2224625353
 21
10.8292241757
 31
0.0
  0
SPLINE
  5
53A
100
AcDbEntity
  8
0
100
AcDbSpline
 62
7
  6
CONTINUOUS
 70
0
 71
3
 72
8
 73
4
 74
2
 42
0.0000001
 43
0.0000001
 44
0.0000000001
 12
0.0017960255
 22
-0.0010880485
 32
0.0
 13
0.0017984821
 23
-0.0010840286
 33
0.0
 40
0.0
 40
0.0
 40
0.0
 40
0.0
 40
1.0
 40
1.0
 40
1.0
 40
1.0
 10
10.2224625353
 20
10.8292241757
 30
0.0
 10
10.2230612105
 20
10.8288614929
 30
0.0
 10
10.2236602894
 20
10.8284994703
 30
0.0
 10
10.2242597835
 20
10.8281381275
 30
0.0
 11
10.2224625353
 21
10.8292241757
 31
0.0
 11
10.2242597835
 21
10.8281381275
 31
0.0
  0
SPLINE
  5
53B
100
AcDbEntity
  8
0
100
AcDbSpline
 62
7
  6
CONTINUOUS
 70
0
 71
3
 72
8
 73
4
 74
2
 42
0.0000001
 43
0.0000001
 44
0.0000000001
 12
-0.0017988777
 22
-0.0010842671
 32
0.0
 13
-0.001796414
 23
-0.0010882943
 33
0.0
 40
0.0
 40
0.0
 40
0.0
 40
0.0
 40
1.0
 40
1.0
 40
1.0
 40
1.0
 10
9.2242596643
 20
9.6521191961
 30
0.0
 10
9.2236600384
 20
9.6517577738
 30
0.0
 10
9.2230608289
 20
9.6513956704
 30
0.0
 10
9.2224620242
 20
9.6510329057
 30
0.0
 11
9.2242596643
 21
9.6521191961
 31
0.0
 11
9.2224620242
 21
9.6510329057
 31
0.0
  0
SPLINE
  5
53C
100
AcDbEntity
  8
0
100
AcDbSpline
 62
7
  6
CONTINUOUS
 70
0
 71
3
 72
18
 73
14
 74
12
 42
0.0000001
 43
0.0000001
 44
0.0000000001
 12
-0.5001237441
 22
-0.3029823874
 32
0.0
 13
-0.5001255786
 23
0.3029805811
 33
0.0
 40
0.0
 40
0.0
 40
0.0
 40
0.0
 40
0.0998044484
 40
0.1965768387
 40
0.2876454885
 40
0.3758025468
 40
0.4614263798
 40
0.5450413419
 40
0.6301010908
 40
0.7173115321
 40
0.8070376835
 40
0.9020979021
 40
1.0
 40
1.0
 40
1.0
 40
1.0
 10
9.2224620242
 20
9.6510329057
 30
0.0
 10
9.2058238327
 20
9.6409532423
 30
0.0
 10
9.1736685306
 20
9.6200943478
 30
0.0
 10
9.1269833689
 20
9.5890534443
 30
0.0
 10
9.0804035295
 20
9.5619875607
 30
0.0
 10
9.0325640585
 20
9.5420005716
 30
0.0
 10
8.9831245362
 20
9.5315560081
 30
0.0
 10
8.9331620286
 20
9.5319810883
 30
0.0
 10
8.8841862205
 20
9.543089489
 30
0.0
 10
8.8370705651
 20
9.5633129515
 30
0.0
 10
8.7912835738
 20
9.5901720177
 30
0.0
 10
8.745411763
 20
9.6206905404
 30
0.0
 10
8.7138346808
 20
9.6411456697
 30
0.0
 10
8.6975135663
 20
9.6510331479
 30
0.0
 11
9.2224620242
 21
9.6510329057
 31
0.0
 11
9.1732371753
 21
9.6196812471
 31
0.0
 11
9.125735198
 21
9.5889289224
 31
0.0
 11
9.0793633262
 21
9.5627478287
 31
0.0
 11
9.0315945642
 21
9.5433696124
 31
0.0
 11
8.9825482443
 21
9.5333047407
 31
0.0
 11
8.9336562128
 21
9.5337087739
 31
0.0
 11
8.8850835484
 21
9.5444147716
 31
0.0
 11
8.8380171642
 21
9.5640454338
 31
0.0
 11
8.7924458048
 21
9.5900465708
 31
0.0
 11
8.7458085724
 21
9.620292309
 31
0.0
 11
8.6975135663
 21
9.6510331479
 31
0.0
  0
SPLINE
  5
53D
100
AcDbEntity
  8
0
100
AcDbSpline
 62
7
  6
CONTINUOUS
 70
0
 71
3
 72
8
 73
4
 74
2
 42
0.0000001
 43
0.0000001
 44
0.0000000001
 12
-0.0017960255
 22
0.0010880485
 32
0.0
 13
-0.0017984821
 23
0.0010840286
 33
0.0
 40
0.0
 40
0.0
 40
0.0
 40
0.0
 40
1.0
 40
1.0
 40
1.0
 40
1.0
 10
8.6975135663
 20
9.6510331479
 30
0.0
 10
8.6969148911
 20
9.6513958307
 30
0.0
 10
8.6963158123
 20
9.6517578532
 30
0.0
 10
8.6957163182
 20
9.6521191961
 30
0.0
 11
8.6975135663
 21
9.6510331479
 31
0.0
 11
8.6957163182
 21
9.6521191961
 31
0.0
  0
ENDSEC
  0
SECTION
  2
OBJECTS
  0
DICTIONARY
  5
C
100
AcDbDictionary
280
0
281
1
  3
ACAD_GROUP
350
D
  3
ACAD_MLINESTYLE
350
17
  3
ACAD_LAYOUT
350
1A
  3
ACAD_PLOTSETTINGS
350
19
  3
ACAD_PLOTSTYLENAME
350
E
  0
DICTIONARY
  5
D
102
{ACAD_REACTORS
330
C
102
}
100
AcDbDictionary
280
0
281
1
  0
ACDBDICTIONARYWDFLT
  5
E
102
{ACAD_REACTORS
330
C
102
}
100
AcDbDictionary
281
1
  3
Normal
350
F
100
AcDbDictionaryWithDefault
340
F
  0
DICTIONARY
  5
17
102
{ACAD_REACTORS
330
C
102
}
100
AcDbDictionary
280
0
281
1
  3
Standard
350
18
  0
DICTIONARY
  5
19
102
{ACAD_REACTORS
330
C
102
}
100
AcDbDictionary
281
1
  0
DICTIONARY
  5
1A
102
{ACAD_REACTORS
330
C
102
}
100
AcDbDictionary
281
1
  3
Layout1
350
1E
  3
Model
350
22
  0
ACDBPLACEHOLDER
  5
F
102
{ACAD_REACTORS
330
E
102
}
  0
MLINESTYLE
  5
18
102
{ACAD_REACTORS
330
17
102
}
100
AcDbMlineStyle
  2
STANDARD
 70
0
  3

 62
256
 51
90.0
 52
90.0
 71
2
 49
0.5
 62
256
  6
BYLAYER
 49
-0.5
 62
256
  6
BYLAYER
  0
LAYOUT
  5
1E
102
{ACAD_REACTORS
330
1A
102
}
100
AcDbPlotSettings
  1

  2

  4

  6

 40
0.0
 41
0.0
 42
0.0
 43
0.0
 44
0.0
 45
0.0
 46
0.0
 47
0.0
 48
0.0
 49
0.0
140
0.0
141
0.0
142
1.0
143
1.0
 70
0
 72
0
 73
0
 74
0
  7

 75
0
147
1.0
148
0.0
149
0.0
100
AcDbLayout
  1
Layout1
 70
0
 71
0
 10
0.0
 20
0.0
 11
0.0
 21
0.0
 12
0.0
 22
0.0
 32
0.0
 14
0.0
 24
0.0
 34
0.0
 15
0.0
 25
0.0
 35
0.0
146
0.0
 13
0.0
 23
0.0
 33
0.0
 16
0.0
 26
0.0
 36
0.0
 17
0.0
 27
0.0
 37
0.0
 76
0
330
1B
331
0
345
0
346
0
  0
LAYOUT
  5
22
102
{ACAD_REACTORS
330
1A
102
}
100
AcDbPlotSettings
  1

  2

  4

  6

 40
0.0
 41
0.0
 42
0.0
 43
0.0
 44
0.0
 45
0.0
 46
0.0
 47
0.0
 48
0.0
 49
0.0
140
0.0
141
0.0
142
1.0
143
1.0
 70
0
 72
0
 73
0
 74
0
  7

 75
0
147
1.0
148
0.0
149
0.0
100
AcDbLayout
  1
Model
 70
0
 71
0
 10
0.0
 20
0.0
 11
0.0
 21
0.0
 12
0.0
 22
0.0
 32
0.0
 14
0.0
 24
0.0
 34
0.0
 15
0.0
 25
0.0
 35
0.0
146
0.0
 13
0.0
 23
0.0
 33
0.0
 16
0.0
 26
0.0
 36
0.0
 17
0.0
 27
0.0
 37
0.0
 76
0
330
1F
331
0
345
0
346
0
  0
ENDSEC
  0
EOF
