999
DXF file: FMK_2.dxf
999
Pro/ENGINEER 2006240 by Parametric Technology Corporation
  0
SECTION
  2
HEADER
  9
$ACADVER
  1
AC1015
  9
$DWGCODEPAGE
  3
ANSI_1252
  9
$EXTMAX
 10
22.0
 20
17.0
 30
0.0
  9
$EXTMIN
 10
0.0
 20
0.0
 30
0.0
  9
$LIMMIN
 10
0.0
 20
0.0
  9
$LIMMAX
 10
22.0
 20
17.0
  9
$VIEWCTR
 10
11.0
 20
8.5
  9
$VIEWSIZE
 40
17.0
  9
$CLAYER
  8
0
  9
$LTSCALE
 40
1.21
  9
$CELTYPE
  6
BYLAYER
  9
$DIMSCALE
 40
1.0
  9
$DIMASZ
 40
0.1875
  9
$DIMEXO
 40
0.1375
  9
$DIMDLI
 40
0.836
  9
$DIMEXE
 40
0.396
  9
$DIMCEN
 40
0.198
  9
$DIMLFAC
 40
1.0
  9
$DIMBLK
  1
_CLOSED
  9
$DIMTXT
 40
0.15625
  9
$DIMTOL
 70
0
  9
$DIMLIM
 70
0
  9
$DIMTFAC
 40
1.0
  9
$PDMODE
 70
3
  9
$PDSIZE
 40
0.3125
  9
$HANDSEED
  5
426
  9
$MEASUREMENT
 70
0
  9
$INSUNITS
 70
1
  0
ENDSEC
  0
SECTION
  2
CLASSES
  0
CLASS
  1
ACDBDICTIONARYWDFLT
  2
AcDbDictionaryWithDefault
  3
AutoCAD 2000
 90
0
280
0
281
0
  0
CLASS
  1
ACDBPLACEHOLDER
  2
AcDbPlaceHolder
  3
AutoCAD 2000
 90
0
280
0
281
0
  0
CLASS
  1
LAYOUT
  2
AcDbLayout
  3
AutoCAD 2000
 90
0
280
0
281
0
  0
ENDSEC
  0
SECTION
  2
TABLES
  0
TABLE
  2
VPORT
  5
8
100
AcDbSymbolTable
 70
2
  0
VPORT
  5
1F4
100
AcDbSymbolTableRecord
100
AcDbViewportTableRecord
  2
*ACTIVE
 70
0
 10
0.0
 20
0.0
 11
1.0
 21
1.0
 12
11.0
 22
8.5
 13
0.0
 23
0.0
 14
1.0
 24
1.0
 15
0.0
 25
0.0
 16
0.0
 26
0.0
 36
1.0
 17
0.0
 27
0.0
 37
0.0
 40
17.0
 41
1.2941176471
 42
50.0
 43
0.0
 44
0.0
 50
0.0
 51
0.0
 71
0
 72
100
 73
1
 74
1
 75
0
 76
0
 77
0
 78
0
  0
ENDTAB
  0
TABLE
  2
LTYPE
  5
5
100
AcDbSymbolTable
 70
6
  0
LTYPE
  5
14
100
AcDbSymbolTableRecord
100
AcDbLinetypeTableRecord
  2
BYBLOCK
 70
0
  3

 72
65
 73
0
 40
0.0
  0
LTYPE
  5
15
100
AcDbSymbolTableRecord
100
AcDbLinetypeTableRecord
  2
BYLAYER
 70
0
  3

 72
65
 73
0
 40
0.0
  0
LTYPE
  5
16
100
AcDbSymbolTableRecord
100
AcDbLinetypeTableRecord
  2
CONTINUOUS
 70
64
  3
Solid line
 72
65
 73
0
 40
0.0
  0
LTYPE
  5
1F5
100
AcDbSymbolTableRecord
100
AcDbLinetypeTableRecord
  2
CENTER
 70
64
  3
____ _ ____ _ ____ _ ____ _ ____ _ ____ _ ____
 72
65
 73
4
 40
0.6
 49
0.375
 74
0
 49
-0.075
 74
0
 49
0.075
 74
0
 49
-0.075
 74
0
  0
LTYPE
  5
1F6
100
AcDbSymbolTableRecord
100
AcDbLinetypeTableRecord
  2
HIDDEN
 70
64
  3
- - - - - - - - - - - - - - - - - - - -
 72
65
 73
2
 40
0.2
 49
0.1
 74
0
 49
-0.1
 74
0
  0
LTYPE
  5
1F7
100
AcDbSymbolTableRecord
100
AcDbLinetypeTableRecord
  2
PHANTOM
 70
64
  3
_____ _ _ _____ _ _ _____ _ _ _____
 72
65
 73
6
 40
0.8
 49
0.45
 74
0
 49
-0.05
 74
0
 49
0.1
 74
0
 49
-0.05
 74
0
 49
0.1
 74
0
 49
-0.05
 74
0
  0
LTYPE
  5
1F8
100
AcDbSymbolTableRecord
100
AcDbLinetypeTableRecord
  2
DOT
 70
64
  3
. . . . . . . . . . . . . . . . . . . .
 72
65
 73
2
 40
0.2
 49
0.1
 74
0
 49
-0.1
 74
0
  0
LTYPE
  5
1F9
100
AcDbSymbolTableRecord
100
AcDbLinetypeTableRecord
  2
DASHED
 70
64
  3
- - - - - - - - - - - - - - - - - - - -
 72
65
 73
2
 40
0.2
 49
0.1
 74
0
 49
-0.1
 74
0
  0
ENDTAB
  0
TABLE
  2
LAYER
  5
2
100
AcDbSymbolTable
 70
36
  0
LAYER
  5
10
100
AcDbSymbolTableRecord
100
AcDbLayerTableRecord
  2
0
 70
0
 62
7
  6
CONTINUOUS
370
-3
390
F
  0
LAYER
  5
1FA
100
AcDbSymbolTableRecord
100
AcDbLayerTableRecord
  2
DEFAULT_1
 70
0
 62
7
  6
CENTER
370
-3
390
F
  0
LAYER
  5
1FB
100
AcDbSymbolTableRecord
100
AcDbLayerTableRecord
  2
DEFAULT_2
 70
0
 62
8
  6
HIDDEN
370
-3
390
F
  0
LAYER
  5
1FC
100
AcDbSymbolTableRecord
100
AcDbLayerTableRecord
  2
DEFAULT_3
 70
0
 62
7
  6
PHANTOM
370
-3
390
F
  0
LAYER
  5
1FD
100
AcDbSymbolTableRecord
100
AcDbLayerTableRecord
  2
01_ALL_DTM_PLN
 70
0
 62
7
  6
CONTINUOUS
370
-3
390
F
  0
LAYER
  5
1FE
100
AcDbSymbolTableRecord
100
AcDbLayerTableRecord
  2
01__ASM_ALL_DTM_PLN
 70
0
 62
7
  6
CONTINUOUS
370
-3
390
F
  0
LAYER
  5
1FF
100
AcDbSymbolTableRecord
100
AcDbLayerTableRecord
  2
01__ASM_DEF_DTM_PLN
 70
0
 62
7
  6
CONTINUOUS
370
-3
390
F
  0
LAYER
  5
200
100
AcDbSymbolTableRecord
100
AcDbLayerTableRecord
  2
01___PRT_ALL_DTM_PLN
 70
0
 62
7
  6
CONTINUOUS
370
-3
390
F
  0
LAYER
  5
201
100
AcDbSymbolTableRecord
100
AcDbLayerTableRecord
  2
01___PRT_DEF_DTM_PLN
 70
0
 62
7
  6
CONTINUOUS
370
-3
390
F
  0
LAYER
  5
202
100
AcDbSymbolTableRecord
100
AcDbLayerTableRecord
  2
02_ALL_AXES
 70
0
 62
7
  6
CONTINUOUS
370
-3
390
F
  0
LAYER
  5
203
100
AcDbSymbolTableRecord
100
AcDbLayerTableRecord
  2
02__ASM_ALL_AXES
 70
0
 62
7
  6
CONTINUOUS
370
-3
390
F
  0
LAYER
  5
204
100
AcDbSymbolTableRecord
100
AcDbLayerTableRecord
  2
02___PRT_ALL_AXES
 70
0
 62
7
  6
CONTINUOUS
370
-3
390
F
  0
LAYER
  5
205
100
AcDbSymbolTableRecord
100
AcDbLayerTableRecord
  2
03_ALL_CURVES
 70
0
 62
7
  6
CONTINUOUS
370
-3
390
F
  0
LAYER
  5
206
100
AcDbSymbolTableRecord
100
AcDbLayerTableRecord
  2
03__ASM_ALL_CURVES
 70
0
 62
7
  6
CONTINUOUS
370
-3
390
F
  0
LAYER
  5
207
100
AcDbSymbolTableRecord
100
AcDbLayerTableRecord
  2
03___PRT_ALL_CURVES
 70
0
 62
7
  6
CONTINUOUS
370
-3
390
F
  0
LAYER
  5
208
100
AcDbSymbolTableRecord
100
AcDbLayerTableRecord
  2
04_ALL_DTM_PNT
 70
0
 62
7
  6
CONTINUOUS
370
-3
390
F
  0
LAYER
  5
209
100
AcDbSymbolTableRecord
100
AcDbLayerTableRecord
  2
04__ASM_ALL_DTM_PNT
 70
0
 62
7
  6
CONTINUOUS
370
-3
390
F
  0
LAYER
  5
20A
100
AcDbSymbolTableRecord
100
AcDbLayerTableRecord
  2
04___PRT_ALL_DTM_PNT
 70
0
 62
7
  6
CONTINUOUS
370
-3
390
F
  0
LAYER
  5
20B
100
AcDbSymbolTableRecord
100
AcDbLayerTableRecord
  2
05_ALL_DTM_CSYS
 70
0
 62
7
  6
CONTINUOUS
370
-3
390
F
  0
LAYER
  5
20C
100
AcDbSymbolTableRecord
100
AcDbLayerTableRecord
  2
05__ASM_ALL_DTM_CSYS
 70
0
 62
7
  6
CONTINUOUS
370
-3
390
F
  0
LAYER
  5
20D
100
AcDbSymbolTableRecord
100
AcDbLayerTableRecord
  2
05__ASM_DEF_DTM_CSYS
 70
0
 62
7
  6
CONTINUOUS
370
-3
390
F
  0
LAYER
  5
20E
100
AcDbSymbolTableRecord
100
AcDbLayerTableRecord
  2
05___PRT_ALL_DTM_CSYS
 70
0
 62
7
  6
CONTINUOUS
370
-3
390
F
  0
LAYER
  5
20F
100
AcDbSymbolTableRecord
100
AcDbLayerTableRecord
  2
05___PRT_DEF_DTM_CSYS
 70
0
 62
7
  6
CONTINUOUS
370
-3
390
F
  0
LAYER
  5
210
100
AcDbSymbolTableRecord
100
AcDbLayerTableRecord
  2
06_ALL_SURFS
 70
0
 62
7
  6
CONTINUOUS
370
-3
390
F
  0
LAYER
  5
211
100
AcDbSymbolTableRecord
100
AcDbLayerTableRecord
  2
06__ASM_ALL_SURFS
 70
0
 62
7
  6
CONTINUOUS
370
-3
390
F
  0
LAYER
  5
212
100
AcDbSymbolTableRecord
100
AcDbLayerTableRecord
  2
06___PRT_ALL_SURFS
 70
0
 62
7
  6
CONTINUOUS
370
-3
390
F
  0
LAYER
  5
213
100
AcDbSymbolTableRecord
100
AcDbLayerTableRecord
  2
07__ASM_ALL_SKELETONS
 70
0
 62
7
  6
CONTINUOUS
370
-3
390
F
  0
LAYER
  5
214
100
AcDbSymbolTableRecord
100
AcDbLayerTableRecord
  2
COPY_GEO_FET
 70
0
 62
7
  6
CONTINUOUS
370
-3
390
F
  0
LAYER
  5
215
100
AcDbSymbolTableRecord
100
AcDbLayerTableRecord
  2
COSMETIC
 70
0
 62
7
  6
CONTINUOUS
370
-3
390
F
  0
LAYER
  5
216
100
AcDbSymbolTableRecord
100
AcDbLayerTableRecord
  2
CUT_REF_SURF
 70
0
 62
7
  6
CONTINUOUS
370
-3
390
F
  0
LAYER
  5
217
100
AcDbSymbolTableRecord
100
AcDbLayerTableRecord
  2
DATESTAMP
 70
0
 62
7
  6
CONTINUOUS
370
-3
390
F
  0
LAYER
  5
218
100
AcDbSymbolTableRecord
100
AcDbLayerTableRecord
  2
DATUM
 70
0
 62
7
  6
CONTINUOUS
370
-3
390
F
  0
LAYER
  5
219
100
AcDbSymbolTableRecord
100
AcDbLayerTableRecord
  2
DATUM_B
 70
0
 62
7
  6
CONTINUOUS
370
-3
390
F
  0
LAYER
  5
21A
100
AcDbSymbolTableRecord
100
AcDbLayerTableRecord
  2
DATUM_PLANES
 70
0
 62
7
  6
CONTINUOUS
370
-3
390
F
  0
LAYER
  5
21B
100
AcDbSymbolTableRecord
100
AcDbLayerTableRecord
  2
DIM
 70
0
 62
7
  6
CONTINUOUS
370
-3
390
F
  0
LAYER
  5
21C
100
AcDbSymbolTableRecord
100
AcDbLayerTableRecord
  2
DIM_1
 70
0
 62
7
  6
CONTINUOUS
370
-3
390
F
  0
LAYER
  5
21D
100
AcDbSymbolTableRecord
100
AcDbLayerTableRecord
  2
DIM_2
 70
0
 62
7
  6
CONTINUOUS
370
-3
390
F
  0
LAYER
  5
21E
100
AcDbSymbolTableRecord
100
AcDbLayerTableRecord
  2
DIM_3
 70
0
 62
7
  6
CONTINUOUS
370
-3
390
F
  0
LAYER
  5
21F
100
AcDbSymbolTableRecord
100
AcDbLayerTableRecord
  2
DIM_4
 70
0
 62
7
  6
CONTINUOUS
370
-3
390
F
  0
LAYER
  5
220
100
AcDbSymbolTableRecord
100
AcDbLayerTableRecord
  2
DIM_5
 70
0
 62
7
  6
CONTINUOUS
370
-3
390
F
  0
LAYER
  5
221
100
AcDbSymbolTableRecord
100
AcDbLayerTableRecord
  2
DIM_6
 70
0
 62
7
  6
CONTINUOUS
370
-3
390
F
  0
LAYER
  5
222
100
AcDbSymbolTableRecord
100
AcDbLayerTableRecord
  2
DTM
 70
0
 62
7
  6
CONTINUOUS
370
-3
390
F
  0
LAYER
  5
223
100
AcDbSymbolTableRecord
100
AcDbLayerTableRecord
  2
EXT_COPY_GEO
 70
0
 62
7
  6
CONTINUOUS
370
-3
390
F
  0
LAYER
  5
224
100
AcDbSymbolTableRecord
100
AcDbLayerTableRecord
  2
FMK_10
 70
0
 62
7
  6
CONTINUOUS
370
-3
390
F
  0
LAYER
  5
225
100
AcDbSymbolTableRecord
100
AcDbLayerTableRecord
  2
FMK_2
 70
0
 62
7
  6
CONTINUOUS
370
-3
390
F
  0
LAYER
  5
226
100
AcDbSymbolTableRecord
100
AcDbLayerTableRecord
  2
FMK_5
 70
0
 62
7
  6
CONTINUOUS
370
-3
390
F
  0
LAYER
  5
227
100
AcDbSymbolTableRecord
100
AcDbLayerTableRecord
  2
FMK_6
 70
0
 62
7
  6
CONTINUOUS
370
-3
390
F
  0
LAYER
  5
228
100
AcDbSymbolTableRecord
100
AcDbLayerTableRecord
  2
FMK_7
 70
0
 62
7
  6
CONTINUOUS
370
-3
390
F
  0
LAYER
  5
229
100
AcDbSymbolTableRecord
100
AcDbLayerTableRecord
  2
FMK_8
 70
0
 62
7
  6
CONTINUOUS
370
-3
390
F
  0
LAYER
  5
22A
100
AcDbSymbolTableRecord
100
AcDbLayerTableRecord
  2
LS
 70
0
 62
7
  6
CONTINUOUS
370
-3
390
F
  0
LAYER
  5
22B
100
AcDbSymbolTableRecord
100
AcDbLayerTableRecord
  2
ORIGIN
 70
0
 62
7
  6
CONTINUOUS
370
-3
390
F
  0
LAYER
  5
22C
100
AcDbSymbolTableRecord
100
AcDbLayerTableRecord
  2
PARTNUMBER
 70
0
 62
7
  6
CONTINUOUS
370
-3
390
F
  0
LAYER
  5
22D
100
AcDbSymbolTableRecord
100
AcDbLayerTableRecord
  2
PORT_AREAS
 70
0
 62
7
  6
CONTINUOUS
370
-3
390
F
  0
LAYER
  5
22E
100
AcDbSymbolTableRecord
100
AcDbLayerTableRecord
  2
TEXT
 70
0
 62
7
  6
CONTINUOUS
370
-3
390
F
  0
LAYER
  5
22F
100
AcDbSymbolTableRecord
100
AcDbLayerTableRecord
  2
THREAD
 70
0
 62
7
  6
CONTINUOUS
370
-3
390
F
  0
LAYER
  5
230
100
AcDbSymbolTableRecord
100
AcDbLayerTableRecord
  2
THREADS
 70
0
 62
7
  6
CONTINUOUS
370
-3
390
F
  0
ENDTAB
  0
TABLE
  2
STYLE
  5
3
100
AcDbSymbolTable
 70
1
  0
STYLE
  5
11
100
AcDbSymbolTableRecord
100
AcDbTextStyleTableRecord
  2
STANDARD
 70
0
 40
0.0
 41
0.8
 50
0.0
 71
0
 42
0.2
  3
txt
  4

  0
ENDTAB
  0
TABLE
  2
VIEW
  5
6
100
AcDbSymbolTable
 70
0
  0
ENDTAB
  0
TABLE
  2
UCS
  5
7
100
AcDbSymbolTable
 70
0
  0
ENDTAB
  0
TABLE
  2
APPID
  5
9
100
AcDbSymbolTable
 70
1
  0
APPID
  5
231
100
AcDbSymbolTableRecord
100
AcDbRegAppTableRecord
  2
ACAD
 70
0
  0
ENDTAB
  0
TABLE
  2
BLOCK_RECORD
  5
1
100
AcDbSymbolTable
 70
0
  0
BLOCK_RECORD
  5
1F
100
AcDbSymbolTableRecord
100
AcDbBlockTableRecord
  2
*MODEL_SPACE
  0
BLOCK_RECORD
  5
1B
100
AcDbSymbolTableRecord
100
AcDbBlockTableRecord
  2
*PAPER_SPACE
  0
ENDTAB
  0
TABLE
  2
DIMSTYLE
  5
A
100
AcDbSymbolTable
 70
1
100
AcDbDimStyleTable
 71
0
  0
DIMSTYLE
105
232
100
AcDbSymbolTableRecord
100
AcDbDimStyleTableRecord
  2
STANDARD
 70
0
  3

  4

 40
1.0
 41
0.1875
 42
0.0625
 43
0.38
 44
0.18
 45
0.0
 46
0.0
 47
0.01
 48
0.01
140
0.15625
141
0.09
142
0.0
143
25.4
144
1.0
145
0.0
146
1.0
147
0.09
 71
0.0
 72
0.0
 73
1
 74
1
 75
0
 76
0
 77
0
 78
4
170
0
171
2
172
0
173
0
174
0
175
0
176
0
177
0
178
0
270
2
271
2
272
2
273
2
274
2
275
0
280
0
281
0
282
0
283
1
284
4
285
0
286
0
287
3
288
0
340
11
  0
ENDTAB
  0
ENDSEC
  0
SECTION
  2
BLOCKS
  0
BLOCK
  5
20
100
AcDbEntity
  8
0
100
AcDbBlockBegin
  2
*MODEL_SPACE
 70
0
 10
0.0
 20
0.0
 30
0.0
  3
*MODEL_SPACE
  1

  0
ENDBLK
  5
21
100
AcDbEntity
  8
0
100
AcDbBlockEnd
  0
BLOCK
  5
1C
100
AcDbEntity
  8
0
100
AcDbBlockBegin
  2
*PAPER_SPACE
 70
0
 10
0.0
 20
0.0
 30
0.0
  3
*PAPER_SPACE
  1

  0
ENDBLK
  5
1D
100
AcDbEntity
  8
0
100
AcDbBlockEnd
  0
ENDSEC
  0
SECTION
  2
ENTITIES
  0
LINE
  5
233
100
AcDbEntity
  8
03__ASM_ALL_CURVES
100
AcDbLine
 62
4
  6
CONTINUOUS
 10
8.0214442953
 20
5.9904100503
 11
8.0134222915
 21
5.9964265503
  0
LINE
  5
234
100
AcDbEntity
  8
03__ASM_ALL_CURVES
100
AcDbLine
 62
4
  6
CONTINUOUS
 10
8.0615542944
 20
6.0084595503
 11
8.0775982934
 21
5.9964265503
  0
LINE
  5
235
100
AcDbEntity
  8
03__ASM_ALL_CURVES
100
AcDbLine
 62
4
  6
CONTINUOUS
 10
8.0374882915
 20
6.0385420503
 11
8.0455102953
 21
6.0325255503
  0
LINE
  5
236
100
AcDbEntity
  8
03__ASM_ALL_CURVES
100
AcDbLine
 62
4
  6
CONTINUOUS
 10
8.0214442953
 20
6.1829380503
 11
8.0134222915
 21
6.1889545503
  0
LINE
  5
237
100
AcDbEntity
  8
03__ASM_ALL_CURVES
100
AcDbLine
 62
4
  6
CONTINUOUS
 10
8.0695762925
 20
6.1769215503
 11
8.0535322934
 21
6.1889545503
  0
LINE
  5
238
100
AcDbEntity
  8
03__ASM_ALL_CURVES
100
AcDbLine
 62
4
  6
CONTINUOUS
 10
8.0294662934
 20
6.2310700503
 11
8.0374882915
 21
6.2250535503
  0
LINE
  5
239
100
AcDbEntity
  8
03__ASM_ALL_CURVES
100
AcDbLine
 62
4
  6
CONTINUOUS
 10
7.8736802953
 20
6.3754660503
 11
7.8656582915
 21
6.3814825503
  0
LINE
  5
23A
100
AcDbEntity
  8
03__ASM_ALL_CURVES
100
AcDbLine
 62
4
  6
CONTINUOUS
 10
8.0775982934
 20
6.2370865503
 11
8.0936422932
 21
6.2250535503
  0
LINE
  5
23B
100
AcDbEntity
  8
03__ASM_ALL_CURVES
100
AcDbLine
 62
4
  6
CONTINUOUS
 10
7.9137902944
 20
6.3935155503
 11
7.9298342934
 21
6.3814825503
  0
LINE
  5
23C
100
AcDbEntity
  8
03__ASM_ALL_CURVES
100
AcDbLine
 62
4
  6
CONTINUOUS
 10
8.0134222915
 20
5.9964265503
 11
8.0054002934
 21
6.0084595503
  0
LINE
  5
23D
100
AcDbEntity
  8
03__ASM_ALL_CURVES
100
AcDbLine
 62
4
  6
CONTINUOUS
 10
8.0455102953
 20
6.0325255503
 11
8.0615542944
 21
6.0084595503
  0
LINE
  5
23E
100
AcDbEntity
  8
03__ASM_ALL_CURVES
100
AcDbLine
 62
4
  6
CONTINUOUS
 10
7.8656582915
 20
6.3814825503
 11
7.8576362934
 21
6.3935155503
  0
LINE
  5
23F
100
AcDbEntity
  8
03__ASM_ALL_CURVES
100
AcDbLine
 62
4
  6
CONTINUOUS
 10
8.0134222915
 20
6.1889545503
 11
8.0054002934
 21
6.2009875503
  0
LINE
  5
240
100
AcDbEntity
  8
03__ASM_ALL_CURVES
100
AcDbLine
 62
4
  6
CONTINUOUS
 10
7.8977462953
 20
6.4175815503
 11
7.9137902944
 21
6.3935155503
  0
LINE
  5
241
100
AcDbEntity
  8
03__ASM_ALL_CURVES
100
AcDbLine
 62
4
  6
CONTINUOUS
 10
8.0535322934
 20
6.1889545503
 11
8.0455102953
 21
6.2009875503
  0
LINE
  5
242
100
AcDbEntity
  8
03__ASM_ALL_CURVES
100
AcDbLine
 62
4
  6
CONTINUOUS
 10
8.0374882915
 20
6.2250535503
 11
8.0455102953
 21
6.2130205503
  0
LINE
  5
243
100
AcDbEntity
  8
03__ASM_ALL_CURVES
100
AcDbLine
 62
4
  6
CONTINUOUS
 10
8.0936422932
 20
6.2250535503
 11
8.1016642934
 21
6.2130205503
  0
LINE
  5
244
100
AcDbEntity
  8
03__ASM_ALL_CURVES
100
AcDbLine
 62
4
  6
CONTINUOUS
 10
7.8656582915
 20
6.5800270503
 11
7.8576362934
 21
6.5920600503
  0
LINE
  5
245
100
AcDbEntity
  8
03__ASM_ALL_CURVES
100
AcDbLine
 62
4
  6
CONTINUOUS
 10
8.0775982934
 20
5.9964265503
 11
8.1016642934
 21
5.9904100503
  0
LINE
  5
246
100
AcDbEntity
  8
03__ASM_ALL_CURVES
100
AcDbLine
 62
4
  6
CONTINUOUS
 10
7.8897242915
 20
6.4235980503
 11
7.8977462953
 21
6.4175815503
  0
LINE
  5
247
100
AcDbEntity
  8
03__ASM_ALL_CURVES
100
AcDbLine
 62
4
  6
CONTINUOUS
 10
7.8736802953
 20
6.5740105503
 11
7.8656582915
 21
6.5800270503
  0
LINE
  5
248
100
AcDbEntity
  8
03__ASM_ALL_CURVES
100
AcDbLine
 62
4
  6
CONTINUOUS
 10
8.0054002934
 20
6.5018125503
 11
8.0214442953
 21
6.4897795503
  0
LINE
  5
249
100
AcDbEntity
  8
03__ASM_ALL_CURVES
100
AcDbLine
 62
4
  6
CONTINUOUS
 10
7.9378562929
 20
6.6101095503
 11
7.9458782932
 21
6.6040930503
  0
LINE
  5
24A
100
AcDbEntity
  8
03__ASM_ALL_CURVES
100
AcDbLine
 62
4
  6
CONTINUOUS
 10
7.8817022934
 20
6.7123900503
 11
7.8897242915
 21
6.7063735503
  0
LINE
  5
24B
100
AcDbEntity
  8
03__ASM_ALL_CURVES
100
AcDbLine
 62
4
  6
CONTINUOUS
 10
7.8656582915
 20
6.6702745503
 11
7.8576362934
 21
6.6823075503
  0
LINE
  5
24C
100
AcDbEntity
  8
03__ASM_ALL_CURVES
100
AcDbLine
 62
4
  6
CONTINUOUS
 10
7.9458782932
 20
6.6040930503
 11
7.9539002934
 21
6.5920600503
  0
LINE
  5
24D
100
AcDbEntity
  8
03__ASM_ALL_CURVES
100
AcDbLine
 62
4
  6
CONTINUOUS
 10
7.8897242915
 20
6.7063735503
 11
7.8977462953
 21
6.6943405503
  0
LINE
  5
24E
100
AcDbEntity
  8
03__ASM_ALL_CURVES
100
AcDbLine
 62
4
  6
CONTINUOUS
 10
7.9458782932
 20
6.7063735503
 11
7.9539002934
 21
6.6943405503
  0
LINE
  5
24F
100
AcDbEntity
  8
03__ASM_ALL_CURVES
100
AcDbLine
 62
4
  6
CONTINUOUS
 10
8.0134222915
 20
6.6702745503
 11
8.0054002934
 21
6.6823075503
  0
LINE
  5
250
100
AcDbEntity
  8
03__ASM_ALL_CURVES
100
AcDbLine
 62
4
  6
CONTINUOUS
 10
8.0455102953
 20
6.7063735503
 11
8.0615542944
 21
6.6823075503
  0
LINE
  5
251
100
AcDbEntity
  8
03__ASM_ALL_CURVES
100
AcDbLine
 62
4
  6
CONTINUOUS
 10
8.0134222915
 20
6.8628025503
 11
8.0054002934
 21
6.8748355503
  0
LINE
  5
252
100
AcDbEntity
  8
03__ASM_ALL_CURVES
100
AcDbLine
 62
4
  6
CONTINUOUS
 10
7.9057682934
 20
6.6101095503
 11
7.9137902944
 21
6.5920600503
  0
LINE
  5
253
100
AcDbEntity
  8
03__ASM_ALL_CURVES
100
AcDbLine
 62
4
  6
CONTINUOUS
 10
8.0374882915
 20
6.3153010503
 11
8.0054002934
 21
6.3273340503
  0
LINE
  5
254
100
AcDbEntity
  8
03__ASM_ALL_CURVES
100
AcDbLine
 62
4
  6
CONTINUOUS
 10
7.9298342934
 20
6.7184065503
 11
7.9458782932
 21
6.7063735503
  0
LINE
  5
255
100
AcDbEntity
  8
03__ASM_ALL_CURVES
100
AcDbLine
 62
4
  6
CONTINUOUS
 10
8.0214442953
 20
6.6642580503
 11
8.0134222915
 21
6.6702745503
  0
LINE
  5
256
100
AcDbEntity
  8
03__ASM_ALL_CURVES
100
AcDbLine
 62
4
  6
CONTINUOUS
 10
8.0615542944
 20
6.6823075503
 11
8.0775982934
 21
6.6702745503
  0
LINE
  5
257
100
AcDbEntity
  8
03__ASM_ALL_CURVES
100
AcDbLine
 62
4
  6
CONTINUOUS
 10
8.0374882915
 20
6.7123900503
 11
8.0455102953
 21
6.7063735503
  0
LINE
  5
258
100
AcDbEntity
  8
03__ASM_ALL_CURVES
100
AcDbLine
 62
4
  6
CONTINUOUS
 10
7.8576362934
 20
6.8868685503
 11
7.8736802953
 21
6.8748355503
  0
LINE
  5
259
100
AcDbEntity
  8
03__ASM_ALL_CURVES
100
AcDbLine
 62
4
  6
CONTINUOUS
 10
8.0214442953
 20
6.8567860503
 11
8.0134222915
 21
6.8628025503
  0
LINE
  5
25A
100
AcDbEntity
  8
03__ASM_ALL_CURVES
100
AcDbLine
 62
4
  6
CONTINUOUS
 10
8.0695762925
 20
6.8507695503
 11
8.0535322934
 21
6.8628025503
  0
LINE
  5
25B
100
AcDbEntity
  8
03__ASM_ALL_CURVES
100
AcDbLine
 62
4
  6
CONTINUOUS
 10
8.0294662934
 20
6.9049180503
 11
8.0374882915
 21
6.8989015503
  0
LINE
  5
25C
100
AcDbEntity
  8
03__ASM_ALL_CURVES
100
AcDbLine
 62
4
  6
CONTINUOUS
 10
8.0775982934
 20
6.9109345503
 11
8.0936422932
 21
6.8989015503
  0
LINE
  5
25D
100
AcDbEntity
  8
03__ASM_ALL_CURVES
100
AcDbLine
 62
4
  6
CONTINUOUS
 10
8.0214442953
 20
6.9590665503
 11
8.0134222915
 21
6.9650830503
  0
LINE
  5
25E
100
AcDbEntity
  8
03__ASM_ALL_CURVES
100
AcDbLine
 62
4
  6
CONTINUOUS
 10
8.0535322934
 20
6.8628025503
 11
8.0455102953
 21
6.8748355503
  0
LINE
  5
25F
100
AcDbEntity
  8
03__ASM_ALL_CURVES
100
AcDbLine
 62
4
  6
CONTINUOUS
 10
8.0374882915
 20
6.8989015503
 11
8.0455102953
 21
6.8868685503
  0
LINE
  5
260
100
AcDbEntity
  8
03__ASM_ALL_CURVES
100
AcDbLine
 62
4
  6
CONTINUOUS
 10
8.0134222915
 20
6.9650830503
 11
8.0054002934
 21
6.9771160503
  0
LINE
  5
261
100
AcDbEntity
  8
03__ASM_ALL_CURVES
100
AcDbLine
 62
4
  6
CONTINUOUS
 10
8.0936422932
 20
6.8989015503
 11
8.1016642934
 21
6.8868685503
  0
LINE
  5
262
100
AcDbEntity
  8
03__ASM_ALL_CURVES
100
AcDbLine
 62
4
  6
CONTINUOUS
 10
8.0936422932
 20
6.9891490503
 11
8.1016642934
 21
6.9771160503
  0
LINE
  5
263
100
AcDbEntity
  8
03__ASM_ALL_CURVES
100
AcDbLine
 62
4
  6
CONTINUOUS
 10
7.8656582915
 20
7.3441225503
 11
7.8576362934
 21
7.3561555503
  0
LINE
  5
264
100
AcDbEntity
  8
03__ASM_ALL_CURVES
100
AcDbLine
 62
4
  6
CONTINUOUS
 10
7.8977462953
 20
7.3802215503
 11
7.9137902944
 21
7.3561555503
  0
LINE
  5
265
100
AcDbEntity
  8
03__ASM_ALL_CURVES
100
AcDbLine
 62
4
  6
CONTINUOUS
 10
8.0535322934
 20
6.9951655503
 11
8.0615542944
 21
6.9771160503
  0
LINE
  5
266
100
AcDbEntity
  8
03__ASM_ALL_CURVES
100
AcDbLine
 62
4
  6
CONTINUOUS
 10
7.8576362934
 20
7.0011820503
 11
7.8576362934
 21
6.9530500503
  0
LINE
  5
267
100
AcDbEntity
  8
03__ASM_ALL_CURVES
100
AcDbLine
 62
4
  6
CONTINUOUS
 10
7.8576362934
 20
6.3935155503
 11
7.8576362934
 21
6.4055485503
  0
LINE
  5
268
100
AcDbEntity
  8
03__ASM_ALL_CURVES
100
AcDbLine
 62
4
  6
CONTINUOUS
 10
7.8576362934
 20
6.6823075503
 11
7.8576362934
 21
6.6943405503
  0
LINE
  5
269
100
AcDbEntity
  8
03__ASM_ALL_CURVES
100
AcDbLine
 62
4
  6
CONTINUOUS
 10
7.8576362934
 20
7.3561555503
 11
7.8576362934
 21
7.3681885503
  0
LINE
  5
26A
100
AcDbEntity
  8
03__ASM_ALL_CURVES
100
AcDbLine
 62
4
  6
CONTINUOUS
 10
7.8977462953
 20
6.6823075503
 11
7.8977462953
 21
6.6943405503
  0
LINE
  5
26B
100
AcDbEntity
  8
03__ASM_ALL_CURVES
100
AcDbLine
 62
4
  6
CONTINUOUS
 10
7.9057682934
 20
7.8916240503
 11
7.9057682934
 21
7.6028320503
  0
LINE
  5
26C
100
AcDbEntity
  8
0
100
AcDbLine
 62
7
  6
CONTINUOUS
 10
7.9057683297
 20
7.9878880503
 11
7.9057683297
 21
11.175888014
  0
LINE
  5
26D
100
AcDbEntity
  8
03__ASM_ALL_CURVES
100
AcDbLine
 62
4
  6
CONTINUOUS
 10
7.9298342934
 20
7.0493140503
 11
7.9298342934
 21
7.1034625503
  0
LINE
  5
26E
100
AcDbEntity
  8
03__ASM_ALL_CURVES
100
AcDbLine
 62
4
  6
CONTINUOUS
 10
7.9298342934
 20
7.2418420503
 11
7.9298342934
 21
7.2959905503
  0
LINE
  5
26F
100
AcDbEntity
  8
03__ASM_ALL_CURVES
100
AcDbLine
 62
4
  6
CONTINUOUS
 10
7.9539002934
 20
7.1937100503
 11
7.9539002934
 21
7.1846853003
  0
LINE
  5
270
100
AcDbEntity
  8
03__ASM_ALL_CURVES
100
AcDbLine
 62
4
  6
CONTINUOUS
 10
7.9539002934
 20
6.6943405503
 11
7.9539002934
 21
6.6823075503
  0
LINE
  5
271
100
AcDbEntity
  8
03__ASM_ALL_CURVES
100
AcDbLine
 62
4
  6
CONTINUOUS
 10
7.9539002934
 20
6.5198620503
 11
7.9539002934
 21
6.5108373003
  0
LINE
  5
272
100
AcDbEntity
  8
03__ASM_ALL_CURVES
100
AcDbLine
 62
4
  6
CONTINUOUS
 10
7.9539002934
 20
6.3754660503
 11
7.9539002934
 21
6.4235980503
  0
LINE
  5
273
100
AcDbEntity
  8
03__ASM_ALL_CURVES
100
AcDbLine
 62
4
  6
CONTINUOUS
 10
7.9539002934
 20
7.3381060503
 11
7.9539002934
 21
7.3862380503
  0
LINE
  5
274
100
AcDbEntity
  8
03__ASM_ALL_CURVES
100
AcDbLine
 62
4
  6
CONTINUOUS
 10
7.9677682934
 20
7.8916240503
 11
7.9677682934
 21
7.7953600503
  0
LINE
  5
275
100
AcDbEntity
  8
03__ASM_ALL_CURVES
100
AcDbLine
 62
4
  6
CONTINUOUS
 10
8.0054002934
 20
7.4644525503
 11
8.0054002934
 21
7.4524195503
  0
LINE
  5
276
100
AcDbEntity
  8
03__ASM_ALL_CURVES
100
AcDbLine
 62
4
  6
CONTINUOUS
 10
8.0054002934
 20
6.6161260503
 11
8.0054002934
 21
6.5679940503
  0
LINE
  5
277
100
AcDbEntity
  8
03__ASM_ALL_CURVES
100
AcDbLine
 62
4
  6
CONTINUOUS
 10
8.0054002934
 20
6.3273340503
 11
8.0054002934
 21
6.2792020503
  0
LINE
  5
278
100
AcDbEntity
  8
03__ASM_ALL_CURVES
100
AcDbLine
 62
4
  6
CONTINUOUS
 10
8.0054002934
 20
6.0084595503
 11
8.0054002934
 21
6.0204925503
  0
LINE
  5
279
100
AcDbEntity
  8
03__ASM_ALL_CURVES
100
AcDbLine
 62
4
  6
CONTINUOUS
 10
8.0054002934
 20
6.2009875503
 11
8.0054002934
 21
6.2130205503
  0
LINE
  5
27A
100
AcDbEntity
  8
03__ASM_ALL_CURVES
100
AcDbLine
 62
4
  6
CONTINUOUS
 10
8.0054002934
 20
6.6823075503
 11
8.0054002934
 21
6.6943405503
  0
LINE
  5
27B
100
AcDbEntity
  8
03__ASM_ALL_CURVES
100
AcDbLine
 62
4
  6
CONTINUOUS
 10
8.0054002934
 20
6.8748355503
 11
8.0054002934
 21
6.8868685503
  0
LINE
  5
27C
100
AcDbEntity
  8
03__ASM_ALL_CURVES
100
AcDbLine
 62
4
  6
CONTINUOUS
 10
8.0455102953
 20
6.2009875503
 11
8.0455102953
 21
6.2130205503
  0
LINE
  5
27D
100
AcDbEntity
  8
03__ASM_ALL_CURVES
100
AcDbLine
 62
4
  6
CONTINUOUS
 10
8.0455102953
 20
6.8748355503
 11
8.0455102953
 21
6.8868685503
  0
LINE
  5
27E
100
AcDbEntity
  8
03__ASM_ALL_CURVES
100
AcDbLine
 62
4
  6
CONTINUOUS
 10
8.0535322934
 20
7.6990960503
 11
8.0535322934
 21
7.6028320503
  0
LINE
  5
27F
100
AcDbEntity
  8
03__ASM_ALL_CURVES
100
AcDbLine
 62
4
  6
CONTINUOUS
 10
8.1016642934
 20
6.3032680503
 11
8.0615542944
 21
6.3092845503
  0
LINE
  5
280
100
AcDbEntity
  8
03__ASM_ALL_CURVES
100
AcDbLine
 62
4
  6
CONTINUOUS
 10
8.0615542944
 20
6.3092845503
 11
8.0374882915
 21
6.3153010503
  0
LINE
  5
281
100
AcDbEntity
  8
03__ASM_ALL_CURVES
100
AcDbLine
 62
4
  6
CONTINUOUS
 10
7.9298342934
 20
6.3814825503
 11
7.9539002934
 21
6.3754660503
  0
LINE
  5
282
100
AcDbEntity
  8
03__ASM_ALL_CURVES
100
AcDbLine
 62
4
  6
CONTINUOUS
 10
8.0214442953
 20
6.4897795503
 11
8.0455102953
 21
6.4837630503
  0
LINE
  5
283
100
AcDbEntity
  8
03__ASM_ALL_CURVES
100
AcDbLine
 62
4
  6
CONTINUOUS
 10
7.8897242915
 20
6.5679940503
 11
7.8736802953
 21
6.5740105503
  0
LINE
  5
284
100
AcDbEntity
  8
03__ASM_ALL_CURVES
100
AcDbLine
 62
4
  6
CONTINUOUS
 10
7.8897242915
 20
6.6161260503
 11
7.9057682934
 21
6.6101095503
  0
LINE
  5
285
100
AcDbEntity
  8
03__ASM_ALL_CURVES
100
AcDbLine
 62
4
  6
CONTINUOUS
 10
7.9218122925
 20
6.6161260503
 11
7.9378562929
 21
6.6101095503
  0
LINE
  5
286
100
AcDbEntity
  8
03__ASM_ALL_CURVES
100
AcDbLine
 62
4
  6
CONTINUOUS
 10
8.0374882915
 20
6.6040930503
 11
8.0054002934
 21
6.6161260503
  0
LINE
  5
287
100
AcDbEntity
  8
03__ASM_ALL_CURVES
100
AcDbLine
 62
4
  6
CONTINUOUS
 10
7.8576362934
 20
7.0914295503
 11
7.9298342934
 21
7.0493140503
  0
LINE
  5
288
100
AcDbEntity
  8
03__ASM_ALL_CURVES
100
AcDbLine
 62
4
  6
CONTINUOUS
 10
8.0856202929
 20
6.9951655503
 11
8.0936422932
 21
6.9891490503
  0
LINE
  5
289
100
AcDbEntity
  8
03__ASM_ALL_CURVES
100
AcDbLine
 62
4
  6
CONTINUOUS
 10
8.0856202929
 20
7.0793965503
 11
8.1016642934
 21
7.0673635503
  0
LINE
  5
28A
100
AcDbEntity
  8
03__ASM_ALL_CURVES
100
AcDbLine
 62
4
  6
CONTINUOUS
 10
7.8736802953
 20
7.3381060503
 11
7.8656582915
 21
7.3441225503
  0
LINE
  5
28B
100
AcDbEntity
  8
03__ASM_ALL_CURVES
100
AcDbLine
 62
4
  6
CONTINUOUS
 10
8.0054002934
 20
7.2719245503
 11
8.0214442953
 21
7.2598915503
  0
LINE
  5
28C
100
AcDbEntity
  8
03__ASM_ALL_CURVES
100
AcDbLine
 62
4
  6
CONTINUOUS
 10
7.9137902944
 20
7.3561555503
 11
7.9298342934
 21
7.3441225503
  0
LINE
  5
28D
100
AcDbEntity
  8
03__ASM_ALL_CURVES
100
AcDbLine
 62
4
  6
CONTINUOUS
 10
8.0054002934
 20
7.4524195503
 11
8.0134222915
 21
7.4403865503
  0
LINE
  5
28E
100
AcDbEntity
  8
03__ASM_ALL_CURVES
100
AcDbLine
 62
4
  6
CONTINUOUS
 10
8.0936422932
 20
7.4764855503
 11
8.1016642934
 21
7.4644525503
  0
LINE
  5
28F
100
AcDbEntity
  8
03__ASM_ALL_CURVES
100
AcDbLine
 62
4
  6
CONTINUOUS
 10
8.1016642934
 20
7.4644525503
 11
8.1016642934
 21
7.4524195503
  0
LINE
  5
290
100
AcDbEntity
  8
03__ASM_ALL_CURVES
100
AcDbLine
 62
4
  6
CONTINUOUS
 10
8.1016642934
 20
6.8868685503
 11
8.1016642934
 21
6.8748355503
  0
LINE
  5
291
100
AcDbEntity
  8
03__ASM_ALL_CURVES
100
AcDbLine
 62
4
  6
CONTINUOUS
 10
8.1016642934
 20
6.8086540503
 11
8.1016642934
 21
6.7996293003
  0
LINE
  5
292
100
AcDbEntity
  8
03__ASM_ALL_CURVES
100
AcDbLine
 62
4
  6
CONTINUOUS
 10
8.1016642934
 20
6.2130205503
 11
8.1016642934
 21
6.2009875503
  0
LINE
  5
293
100
AcDbEntity
  8
03__ASM_ALL_CURVES
100
AcDbLine
 62
4
  6
CONTINUOUS
 10
8.1016642934
 20
6.1348060503
 11
8.1016642934
 21
6.1257813003
  0
LINE
  5
294
100
AcDbEntity
  8
03__ASM_ALL_CURVES
100
AcDbLine
 62
4
  6
CONTINUOUS
 10
8.1016642934
 20
5.9904100503
 11
8.1016642934
 21
6.0385420503
  0
LINE
  5
295
100
AcDbEntity
  8
03__ASM_ALL_CURVES
100
AcDbLine
 62
4
  6
CONTINUOUS
 10
8.1016642934
 20
6.6642580503
 11
8.1016642934
 21
6.7123900503
  0
LINE
  5
296
100
AcDbEntity
  8
03__ASM_ALL_CURVES
100
AcDbLine
 62
4
  6
CONTINUOUS
 10
8.1016642934
 20
7.3381060503
 11
8.1016642934
 21
7.3862380503
  0
LINE
  5
297
100
AcDbEntity
  8
03__ASM_ALL_CURVES
100
AcDbLine
 62
4
  6
CONTINUOUS
 10
8.0214442953
 20
6.0385420503
 11
8.0374882915
 21
6.0385420503
  0
LINE
  5
298
100
AcDbEntity
  8
03__ASM_ALL_CURVES
100
AcDbLine
 62
4
  6
CONTINUOUS
 10
8.1016642934
 20
6.1257813003
 11
8.0896312931
 21
6.1257813003
  0
LINE
  5
299
100
AcDbEntity
  8
03__ASM_ALL_CURVES
100
AcDbLine
 62
4
  6
CONTINUOUS
 10
8.0775982934
 20
6.1769215503
 11
8.0695762925
 21
6.1769215503
  0
LINE
  5
29A
100
AcDbEntity
  8
03__ASM_ALL_CURVES
100
AcDbLine
 62
4
  6
CONTINUOUS
 10
8.0294662934
 20
6.1829380503
 11
8.0214442953
 21
6.1829380503
  0
LINE
  5
29B
100
AcDbEntity
  8
03__ASM_ALL_CURVES
100
AcDbLine
 62
4
  6
CONTINUOUS
 10
8.0214442953
 20
6.2310700503
 11
8.0294662934
 21
6.2310700503
  0
LINE
  5
29C
100
AcDbEntity
  8
03__ASM_ALL_CURVES
100
AcDbLine
 62
4
  6
CONTINUOUS
 10
8.0695762925
 20
6.2370865503
 11
8.0775982934
 21
6.2370865503
  0
LINE
  5
29D
100
AcDbEntity
  8
03__ASM_ALL_CURVES
100
AcDbLine
 62
4
  6
CONTINUOUS
 10
8.0615542944
 20
6.5980765503
 11
8.0374882915
 21
6.6040930503
  0
LINE
  5
29E
100
AcDbEntity
  8
03__ASM_ALL_CURVES
100
AcDbLine
 62
4
  6
CONTINUOUS
 10
8.0775982934
 20
6.6702745503
 11
8.1016642934
 21
6.6642580503
  0
LINE
  5
29F
100
AcDbEntity
  8
03__ASM_ALL_CURVES
100
AcDbLine
 62
4
  6
CONTINUOUS
 10
7.8897242915
 20
6.9891490503
 11
7.8576362934
 21
7.0011820503
  0
LINE
  5
2A0
100
AcDbEntity
  8
03__ASM_ALL_CURVES
100
AcDbLine
 62
4
  6
CONTINUOUS
 10
8.0374882915
 20
6.9530500503
 11
8.0214442953
 21
6.9590665503
  0
LINE
  5
2A1
100
AcDbEntity
  8
03__ASM_ALL_CURVES
100
AcDbLine
 62
4
  6
CONTINUOUS
 10
8.0374882915
 20
7.0011820503
 11
8.0535322934
 21
6.9951655503
  0
LINE
  5
2A2
100
AcDbEntity
  8
03__ASM_ALL_CURVES
100
AcDbLine
 62
4
  6
CONTINUOUS
 10
8.0695762925
 20
7.0011820503
 11
8.0856202929
 21
6.9951655503
  0
LINE
  5
2A3
100
AcDbEntity
  8
03__ASM_ALL_CURVES
100
AcDbLine
 62
4
  6
CONTINUOUS
 10
7.8576362934
 20
7.2839575503
 11
7.9298342934
 21
7.2418420503
  0
LINE
  5
2A4
100
AcDbEntity
  8
03__ASM_ALL_CURVES
100
AcDbLine
 62
4
  6
CONTINUOUS
 10
7.8897242915
 20
7.3862380503
 11
7.8977462953
 21
7.3802215503
  0
LINE
  5
2A5
100
AcDbEntity
  8
03__ASM_ALL_CURVES
100
AcDbLine
 62
4
  6
CONTINUOUS
 10
7.9378562929
 20
7.4644525503
 11
7.9539002934
 21
7.4524195503
  0
LINE
  5
2A6
100
AcDbEntity
  8
03__ASM_ALL_CURVES
100
AcDbLine
 62
4
  6
CONTINUOUS
 10
8.0134222915
 20
7.4403865503
 11
8.0214442953
 21
7.4343700503
  0
LINE
  5
2A7
100
AcDbEntity
  8
03__ASM_ALL_CURVES
100
AcDbLine
 62
4
  6
CONTINUOUS
 10
8.0856202929
 20
7.4825020503
 11
8.0936422932
 21
7.4764855503
  0
LINE
  5
2A8
100
AcDbEntity
  8
03__ASM_ALL_CURVES
100
AcDbLine
 62
4
  6
CONTINUOUS
 10
7.9677682934
 20
7.7953600503
 11
8.0535322934
 21
7.6990960503
  0
LINE
  5
2A9
100
AcDbEntity
  8
03__ASM_ALL_CURVES
100
AcDbLine
 62
4
  6
CONTINUOUS
 10
11.5788122925
 20
6.3754660503
 11
11.5467242915
 21
6.3754660503
  0
LINE
  5
2AA
100
AcDbEntity
  8
03__ASM_ALL_CURVES
100
AcDbLine
 62
4
  6
CONTINUOUS
 10
7.8736802953
 20
6.4235980503
 11
7.8897242915
 21
6.4235980503
  0
LINE
  5
2AB
100
AcDbEntity
  8
03__ASM_ALL_CURVES
100
AcDbLine
 62
4
  6
CONTINUOUS
 10
11.5467242915
 20
6.4235980503
 11
11.5788122925
 21
6.4235980503
  0
LINE
  5
2AC
100
AcDbEntity
  8
03__ASM_ALL_CURVES
100
AcDbLine
 62
4
  6
CONTINUOUS
 10
8.0455102953
 20
6.4837630503
 11
8.0615542944
 21
6.4837630503
  0
LINE
  5
2AD
100
AcDbEntity
  8
03__ASM_ALL_CURVES
100
AcDbLine
 62
4
  6
CONTINUOUS
 10
8.1016642934
 20
6.5920600503
 11
8.0615542944
 21
6.5980765503
  0
LINE
  5
2AE
100
AcDbEntity
  8
03__ASM_ALL_CURVES
100
AcDbLine
 62
4
  6
CONTINUOUS
 10
7.8736802953
 20
6.8748355503
 11
7.8977462953
 21
6.8688190503
  0
LINE
  5
2AF
100
AcDbEntity
  8
03__ASM_ALL_CURVES
100
AcDbLine
 62
4
  6
CONTINUOUS
 10
7.9137902944
 20
6.9831325503
 11
7.8897242915
 21
6.9891490503
  0
LINE
  5
2B0
100
AcDbEntity
  8
03__ASM_ALL_CURVES
100
AcDbLine
 62
4
  6
CONTINUOUS
 10
8.0856202929
 20
7.5607165503
 11
8.1016642934
 21
7.5486835503
  0
LINE
  5
2B1
100
AcDbEntity
  8
03__ASM_ALL_CURVES
100
AcDbLine
 62
4
  6
CONTINUOUS
 10
11.5707902944
 20
6.8688190503
 11
11.5948562929
 21
6.8748355503
  0
LINE
  5
2B2
100
AcDbEntity
  8
03__ASM_ALL_CURVES
100
AcDbLine
 62
4
  6
CONTINUOUS
 10
11.6109002934
 20
6.5108373003
 11
11.5988672931
 21
6.5108373003
  0
LINE
  5
2B3
100
AcDbEntity
  8
03__ASM_ALL_CURVES
100
AcDbLine
 62
4
  6
CONTINUOUS
 10
7.9539002934
 20
6.5108373003
 11
7.9418672931
 21
6.5108373003
  0
LINE
  5
2B4
100
AcDbEntity
  8
03__ASM_ALL_CURVES
100
AcDbLine
 62
4
  6
CONTINUOUS
 10
7.8897242915
 20
6.6161260503
 11
7.9218122925
 21
6.6161260503
  0
LINE
  5
2B5
100
AcDbEntity
  8
03__ASM_ALL_CURVES
100
AcDbLine
 62
4
  6
CONTINUOUS
 10
11.5146362934
 20
6.6883240503
 11
11.6109002934
 21
6.6883240503
  0
LINE
  5
2B6
100
AcDbEntity
  8
03__ASM_ALL_CURVES
100
AcDbLine
 62
4
  6
CONTINUOUS
 10
7.8736802953
 20
6.7123900503
 11
7.8817022934
 21
6.7123900503
  0
LINE
  5
2B7
100
AcDbEntity
  8
03__ASM_ALL_CURVES
100
AcDbLine
 62
4
  6
CONTINUOUS
 10
8.0214442953
 20
6.7123900503
 11
8.0374882915
 21
6.7123900503
  0
LINE
  5
2B8
100
AcDbEntity
  8
03__ASM_ALL_CURVES
100
AcDbLine
 62
4
  6
CONTINUOUS
 10
7.9218122925
 20
6.7184065503
 11
7.9298342934
 21
6.7184065503
  0
LINE
  5
2B9
100
AcDbEntity
  8
03__ASM_ALL_CURVES
100
AcDbLine
 62
4
  6
CONTINUOUS
 10
7.9539002934
 20
6.9771160503
 11
7.9137902944
 21
6.9831325503
  0
LINE
  5
2BA
100
AcDbEntity
  8
03__ASM_ALL_CURVES
100
AcDbLine
 62
4
  6
CONTINUOUS
 10
8.0615542944
 20
7.0854130503
 11
8.0856202929
 21
7.0793965503
  0
LINE
  5
2BB
100
AcDbEntity
  8
03__ASM_ALL_CURVES
100
AcDbLine
 62
4
  6
CONTINUOUS
 10
8.0214442953
 20
7.2598915503
 11
8.0455102953
 21
7.2538750503
  0
LINE
  5
2BC
100
AcDbEntity
  8
03__ASM_ALL_CURVES
100
AcDbLine
 62
4
  6
CONTINUOUS
 10
7.9298342934
 20
7.3441225503
 11
7.9539002934
 21
7.3381060503
  0
LINE
  5
2BD
100
AcDbEntity
  8
03__ASM_ALL_CURVES
100
AcDbLine
 62
4
  6
CONTINUOUS
 10
8.0615542944
 20
6.9771160503
 11
8.0535322934
 21
6.9590665503
  0
LINE
  5
2BE
100
AcDbEntity
  8
03__ASM_ALL_CURVES
100
AcDbLine
 62
4
  6
CONTINUOUS
 10
7.9137902944
 20
6.5920600503
 11
7.9057682934
 21
6.5740105503
  0
LINE
  5
2BF
100
AcDbEntity
  8
03__ASM_ALL_CURVES
100
AcDbLine
 62
4
  6
CONTINUOUS
 10
7.8576362934
 20
7.3681885503
 11
7.8656582915
 21
7.3802215503
  0
LINE
  5
2C0
100
AcDbEntity
  8
03__ASM_ALL_CURVES
100
AcDbLine
 62
4
  6
CONTINUOUS
 10
8.0134222915
 20
7.4764855503
 11
8.0054002934
 21
7.4644525503
  0
LINE
  5
2C1
100
AcDbEntity
  8
03__ASM_ALL_CURVES
100
AcDbLine
 62
4
  6
CONTINUOUS
 10
8.0374882915
 20
7.4403865503
 11
8.0615542944
 21
7.4764855503
  0
LINE
  5
2C2
100
AcDbEntity
  8
03__ASM_ALL_CURVES
100
AcDbLine
 62
4
  6
CONTINUOUS
 10
8.1016642934
 20
6.7996293003
 11
8.0896312931
 21
6.7996293003
  0
LINE
  5
2C3
100
AcDbEntity
  8
03__ASM_ALL_CURVES
100
AcDbLine
 62
4
  6
CONTINUOUS
 10
8.0775982934
 20
6.8507695503
 11
8.0695762925
 21
6.8507695503
  0
LINE
  5
2C4
100
AcDbEntity
  8
03__ASM_ALL_CURVES
100
AcDbLine
 62
4
  6
CONTINUOUS
 10
8.0294662934
 20
6.8567860503
 11
8.0214442953
 21
6.8567860503
  0
LINE
  5
2C5
100
AcDbEntity
  8
03__ASM_ALL_CURVES
100
AcDbLine
 62
4
  6
CONTINUOUS
 10
7.8977462953
 20
6.8688190503
 11
7.9137902944
 21
6.8688190503
  0
LINE
  5
2C6
100
AcDbEntity
  8
03__ASM_ALL_CURVES
100
AcDbLine
 62
4
  6
CONTINUOUS
 10
11.5547462953
 20
6.8688190503
 11
11.5707902944
 21
6.8688190503
  0
LINE
  5
2C7
100
AcDbEntity
  8
03__ASM_ALL_CURVES
100
AcDbLine
 62
4
  6
CONTINUOUS
 10
8.0214442953
 20
6.9049180503
 11
8.0294662934
 21
6.9049180503
  0
LINE
  5
2C8
100
AcDbEntity
  8
03__ASM_ALL_CURVES
100
AcDbLine
 62
4
  6
CONTINUOUS
 10
8.0695762925
 20
6.9109345503
 11
8.0775982934
 21
6.9109345503
  0
LINE
  5
2C9
100
AcDbEntity
  8
03__ASM_ALL_CURVES
100
AcDbLine
 62
4
  6
CONTINUOUS
 10
11.5146362934
 20
6.9771160503
 11
11.6109002934
 21
6.9771160503
  0
LINE
  5
2CA
100
AcDbEntity
  8
03__ASM_ALL_CURVES
100
AcDbLine
 62
4
  6
CONTINUOUS
 10
8.0374882915
 20
7.0011820503
 11
8.0695762925
 21
7.0011820503
  0
LINE
  5
2CB
100
AcDbEntity
  8
03__ASM_ALL_CURVES
100
AcDbLine
 62
4
  6
CONTINUOUS
 10
11.6109002934
 20
6.5920600503
 11
11.5707902944
 21
6.5980765503
  0
LINE
  5
2CC
100
AcDbEntity
  8
03__ASM_ALL_CURVES
100
AcDbLine
 62
4
  6
CONTINUOUS
 10
7.9137902944
 20
7.4704690503
 11
7.9378562929
 21
7.4644525503
  0
LINE
  5
2CD
100
AcDbEntity
  8
03__ASM_ALL_CURVES
100
AcDbLine
 62
4
  6
CONTINUOUS
 10
11.5707902944
 20
6.5980765503
 11
11.5467242915
 21
6.6040930503
  0
LINE
  5
2CE
100
AcDbEntity
  8
03__ASM_ALL_CURVES
100
AcDbLine
 62
4
  6
CONTINUOUS
 10
8.0615542944
 20
7.5667330503
 11
8.0856202929
 21
7.5607165503
  0
LINE
  5
2CF
100
AcDbEntity
  8
03__ASM_ALL_CURVES
100
AcDbLine
 62
4
  6
CONTINUOUS
 10
11.5467242915
 20
6.3754660503
 11
11.5306802953
 21
6.3814825503
  0
LINE
  5
2D0
100
AcDbEntity
  8
03__ASM_ALL_CURVES
100
AcDbLine
 62
4
  6
CONTINUOUS
 10
11.5788122925
 20
6.4235980503
 11
11.5948562929
 21
6.4175815503
  0
LINE
  5
2D1
100
AcDbEntity
  8
03__ASM_ALL_CURVES
100
AcDbLine
 62
4
  6
CONTINUOUS
 10
8.1016642934
 20
7.4524195503
 11
8.0936422932
 21
7.4403865503
  0
LINE
  5
2D2
100
AcDbEntity
  8
03__ASM_ALL_CURVES
100
AcDbLine
 62
4
  6
CONTINUOUS
 10
8.0054002934
 20
6.9771160503
 11
8.0134222915
 21
6.9891490503
  0
LINE
  5
2D3
100
AcDbEntity
  8
03__ASM_ALL_CURVES
100
AcDbLine
 62
4
  6
CONTINUOUS
 10
7.8576362934
 20
6.6943405503
 11
7.8656582915
 21
6.7063735503
  0
LINE
  5
2D4
100
AcDbEntity
  8
03__ASM_ALL_CURVES
100
AcDbLine
 62
4
  6
CONTINUOUS
 10
8.0054002934
 20
6.8868685503
 11
8.0134222915
 21
6.8989015503
  0
LINE
  5
2D5
100
AcDbEntity
  8
03__ASM_ALL_CURVES
100
AcDbLine
 62
4
  6
CONTINUOUS
 10
12.2389347934
 20
11.2159980522
 11
12.2509677934
 21
11.2240200503
  0
LINE
  5
2D6
100
AcDbEntity
  8
03__ASM_ALL_CURVES
100
AcDbLine
 62
4
  6
CONTINUOUS
 10
12.2750337934
 20
11.1919320522
 11
12.2630007934
 21
11.1839100484
  0
LINE
  5
2D7
100
AcDbEntity
  8
03__ASM_ALL_CURVES
100
AcDbLine
 62
4
  6
CONTINUOUS
 10
8.0615542944
 20
6.4837630503
 11
8.0856202929
 21
6.4897795503
  0
LINE
  5
2D8
100
AcDbEntity
  8
03__ASM_ALL_CURVES
100
AcDbLine
 62
4
  6
CONTINUOUS
 10
11.5306802953
 20
7.4644525503
 11
11.5547462953
 21
7.4704690503
  0
LINE
  5
2D9
100
AcDbEntity
  8
03__ASM_ALL_CURVES
100
AcDbLine
 62
4
  6
CONTINUOUS
 10
11.5868342934
 20
7.0432975503
 11
11.5788122925
 21
7.0432975503
  0
LINE
  5
2DA
100
AcDbEntity
  8
03__ASM_ALL_CURVES
100
AcDbLine
 62
4
  6
CONTINUOUS
 10
11.5387022934
 20
7.0493140503
 11
11.5306802953
 21
7.0493140503
  0
LINE
  5
2DB
100
AcDbEntity
  8
03__ASM_ALL_CURVES
100
AcDbLine
 62
4
  6
CONTINUOUS
 10
8.0455102953
 20
7.0854130503
 11
8.0615542944
 21
7.0854130503
  0
LINE
  5
2DC
100
AcDbEntity
  8
03__ASM_ALL_CURVES
100
AcDbLine
 62
4
  6
CONTINUOUS
 10
7.9539002934
 20
7.0914295503
 11
7.8576362934
 21
7.0914295503
  0
LINE
  5
2DD
100
AcDbEntity
  8
03__ASM_ALL_CURVES
100
AcDbLine
 62
4
  6
CONTINUOUS
 10
11.5306802953
 20
7.0974460503
 11
11.5387022934
 21
7.0974460503
  0
LINE
  5
2DE
100
AcDbEntity
  8
03__ASM_ALL_CURVES
100
AcDbLine
 62
4
  6
CONTINUOUS
 10
11.5788122925
 20
7.1034625503
 11
11.5868342934
 21
7.1034625503
  0
LINE
  5
2DF
100
AcDbEntity
  8
03__ASM_ALL_CURVES
100
AcDbLine
 62
4
  6
CONTINUOUS
 10
11.6109002934
 20
7.1846853003
 11
11.5988672931
 21
7.1846853003
  0
LINE
  5
2E0
100
AcDbEntity
  8
03__ASM_ALL_CURVES
100
AcDbLine
 62
4
  6
CONTINUOUS
 10
7.9539002934
 20
7.1846853003
 11
7.9418672931
 21
7.1846853003
  0
LINE
  5
2E1
100
AcDbEntity
  8
03__ASM_ALL_CURVES
100
AcDbLine
 62
4
  6
CONTINUOUS
 10
11.5788122925
 20
7.2418420503
 11
11.5467242915
 21
7.2418420503
  0
LINE
  5
2E2
100
AcDbEntity
  8
03__ASM_ALL_CURVES
100
AcDbLine
 62
4
  6
CONTINUOUS
 10
8.0455102953
 20
7.2538750503
 11
8.0615542944
 21
7.2538750503
  0
LINE
  5
2E3
100
AcDbEntity
  8
03__ASM_ALL_CURVES
100
AcDbLine
 62
4
  6
CONTINUOUS
 10
11.5306802953
 20
6.8748355503
 11
11.5547462953
 21
6.8688190503
  0
LINE
  5
2E4
100
AcDbEntity
  8
03__ASM_ALL_CURVES
100
AcDbLine
 62
4
  6
CONTINUOUS
 10
11.5467242915
 20
6.6040930503
 11
11.5146362934
 21
6.6161260503
  0
LINE
  5
2E5
100
AcDbEntity
  8
03__ASM_ALL_CURVES
100
AcDbLine
 62
4
  6
CONTINUOUS
 10
7.8977462953
 20
6.6943405503
 11
7.9057682934
 21
6.7063735503
  0
LINE
  5
2E6
100
AcDbEntity
  8
03__ASM_ALL_CURVES
100
AcDbLine
 62
4
  6
CONTINUOUS
 10
8.1016642934
 20
6.9771160503
 11
8.0936422932
 21
6.9650830503
  0
LINE
  5
2E7
100
AcDbEntity
  8
03__ASM_ALL_CURVES
100
AcDbLine
 62
4
  6
CONTINUOUS
 10
8.0455102953
 20
6.8868685503
 11
8.0535322934
 21
6.8989015503
  0
LINE
  5
2E8
100
AcDbEntity
  8
03__ASM_ALL_CURVES
100
AcDbLine
 62
4
  6
CONTINUOUS
 10
8.0455102953
 20
6.8748355503
 11
8.0374882915
 21
6.8628025503
  0
LINE
  5
2E9
100
AcDbEntity
  8
03__ASM_ALL_CURVES
100
AcDbLine
 62
4
  6
CONTINUOUS
 10
7.8576362934
 20
6.5920600503
 11
7.8656582915
 21
6.6040930503
  0
LINE
  5
2EA
100
AcDbEntity
  8
03__ASM_ALL_CURVES
100
AcDbLine
 62
4
  6
CONTINUOUS
 10
7.9539002934
 20
6.6823075503
 11
7.9458782932
 21
6.6702745503
  0
LINE
  5
2EB
100
AcDbEntity
  8
03__ASM_ALL_CURVES
100
AcDbLine
 62
4
  6
CONTINUOUS
 10
8.1016642934
 20
6.8748355503
 11
8.0936422932
 21
6.8628025503
  0
LINE
  5
2EC
100
AcDbEntity
  8
03__ASM_ALL_CURVES
100
AcDbLine
 62
4
  6
CONTINUOUS
 10
8.0054002934
 20
6.6943405503
 11
8.0134222915
 21
6.7063735503
  0
LINE
  5
2ED
100
AcDbEntity
  8
03__ASM_ALL_CURVES
100
AcDbLine
 62
4
  6
CONTINUOUS
 10
7.9539002934
 20
6.5920600503
 11
7.9458782932
 21
6.5800270503
  0
LINE
  5
2EE
100
AcDbEntity
  8
03__ASM_ALL_CURVES
100
AcDbLine
 62
4
  6
CONTINUOUS
 10
7.8576362934
 20
6.4055485503
 11
7.8656582915
 21
6.4175815503
  0
LINE
  5
2EF
100
AcDbEntity
  8
0
100
AcDbLine
 62
7
  6
CONTINUOUS
 10
11.0317682934
 20
10.3843880503
 11
11.0932682934
 21
10.4458880503
  0
LINE
  5
2F0
100
AcDbEntity
  8
03__ASM_ALL_CURVES
100
AcDbLine
 62
4
  6
CONTINUOUS
 10
12.2750337934
 20
11.1357780505
 11
12.2630007934
 21
11.1277560503
  0
LINE
  5
2F1
100
AcDbEntity
  8
03__ASM_ALL_CURVES
100
AcDbLine
 62
4
  6
CONTINUOUS
 10
12.5277267934
 20
11.2159980522
 11
12.5397597934
 21
11.2240200503
  0
LINE
  5
2F2
100
AcDbEntity
  8
03__ASM_ALL_CURVES
100
AcDbLine
 62
4
  6
CONTINUOUS
 10
12.5277267934
 20
11.1758880503
 11
12.5397597934
 21
11.1839100484
  0
LINE
  5
2F3
100
AcDbEntity
  8
03__ASM_ALL_CURVES
100
AcDbLine
 62
4
  6
CONTINUOUS
 10
12.5638257934
 20
11.1919320522
 11
12.5517927934
 21
11.1839100484
  0
LINE
  5
2F4
100
AcDbEntity
  8
03__ASM_ALL_CURVES
100
AcDbLine
 62
4
  6
CONTINUOUS
 10
12.5638257934
 20
11.1357780505
 11
12.5517927934
 21
11.1277560503
  0
LINE
  5
2F5
100
AcDbEntity
  8
03__ASM_ALL_CURVES
100
AcDbLine
 62
4
  6
CONTINUOUS
 10
12.8165187934
 20
11.2159980522
 11
12.8285517934
 21
11.2240200503
  0
LINE
  5
2F6
100
AcDbEntity
  8
03__ASM_ALL_CURVES
100
AcDbLine
 62
4
  6
CONTINUOUS
 10
7.9539002934
 20
7.2839575503
 11
7.8576362934
 21
7.2839575503
  0
LINE
  5
2F7
100
AcDbEntity
  8
03__ASM_ALL_CURVES
100
AcDbLine
 62
4
  6
CONTINUOUS
 10
11.5467242915
 20
7.2899740503
 11
11.5788122925
 21
7.2899740503
  0
LINE
  5
2F8
100
AcDbEntity
  8
03__ASM_ALL_CURVES
100
AcDbLine
 62
4
  6
CONTINUOUS
 10
10.8598122925
 20
7.3381060503
 11
10.8277242915
 21
7.3381060503
  0
LINE
  5
2F9
100
AcDbEntity
  8
03__ASM_ALL_CURVES
100
AcDbLine
 62
4
  6
CONTINUOUS
 10
8.0054002934
 20
7.3381060503
 11
8.1016642934
 21
7.3381060503
  0
LINE
  5
2FA
100
AcDbEntity
  8
03__ASM_ALL_CURVES
100
AcDbLine
 62
4
  6
CONTINUOUS
 10
7.8736802953
 20
7.3862380503
 11
7.8897242915
 21
7.3862380503
  0
LINE
  5
2FB
100
AcDbEntity
  8
03__ASM_ALL_CURVES
100
AcDbLine
 62
4
  6
CONTINUOUS
 10
10.8277242915
 20
7.3862380503
 11
10.8598122925
 21
7.3862380503
  0
LINE
  5
2FC
100
AcDbEntity
  8
03__ASM_ALL_CURVES
100
AcDbLine
 62
4
  6
CONTINUOUS
 10
11.5306802953
 20
7.3862380503
 11
11.5387022934
 21
7.3862380503
  0
LINE
  5
2FD
100
AcDbEntity
  8
03__ASM_ALL_CURVES
100
AcDbLine
 62
4
  6
CONTINUOUS
 10
11.5788122925
 20
7.3922545503
 11
11.5868342934
 21
7.3922545503
  0
LINE
  5
2FE
100
AcDbEntity
  8
03__ASM_ALL_CURVES
100
AcDbLine
 62
4
  6
CONTINUOUS
 10
8.0214442953
 20
7.4343700503
 11
8.0294662934
 21
7.4343700503
  0
LINE
  5
2FF
100
AcDbEntity
  8
03__ASM_ALL_CURVES
100
AcDbLine
 62
4
  6
CONTINUOUS
 10
7.8977462953
 20
7.4704690503
 11
7.9137902944
 21
7.4704690503
  0
LINE
  5
300
100
AcDbEntity
  8
03__ASM_ALL_CURVES
100
AcDbLine
 62
4
  6
CONTINUOUS
 10
11.5547462953
 20
7.4704690503
 11
11.5707902944
 21
7.4704690503
  0
LINE
  5
301
100
AcDbEntity
  8
03__ASM_ALL_CURVES
100
AcDbLine
 62
4
  6
CONTINUOUS
 10
8.0695762925
 20
7.4825020503
 11
8.0856202929
 21
7.4825020503
  0
LINE
  5
302
100
AcDbEntity
  8
03__ASM_ALL_CURVES
100
AcDbLine
 62
4
  6
CONTINUOUS
 10
10.8277242915
 20
7.3381060503
 11
10.8116802953
 21
7.3441225503
  0
LINE
  5
303
100
AcDbEntity
  8
03__ASM_ALL_CURVES
100
AcDbLine
 62
4
  6
CONTINUOUS
 10
11.5306802953
 20
6.3814825503
 11
11.5226582915
 21
6.3874990503
  0
LINE
  5
304
100
AcDbEntity
  8
03__ASM_ALL_CURVES
100
AcDbLine
 62
4
  6
CONTINUOUS
 10
11.5948562929
 20
6.4175815503
 11
11.6028782932
 21
6.4115650503
  0
LINE
  5
305
100
AcDbEntity
  8
0
100
AcDbLine
 62
7
  6
CONTINUOUS
 10
9.8537573562
 20
11.175888014
 11
9.8537573562
 21
11.159888014
  0
LINE
  5
306
100
AcDbEntity
  8
0
100
AcDbLine
 62
7
  6
CONTINUOUS
 10
9.8537573562
 20
7.9878880503
 11
9.8537573562
 21
8.0038880503
  0
LINE
  5
307
100
AcDbEntity
  8
03__ASM_ALL_CURVES
100
AcDbLine
 62
4
  6
CONTINUOUS
 10
8.0054002934
 20
6.2130205503
 11
8.0134222915
 21
6.2250535503
  0
LINE
  5
308
100
AcDbEntity
  8
03__ASM_ALL_CURVES
100
AcDbLine
 62
4
  6
CONTINUOUS
 10
8.0455102953
 20
6.2130205503
 11
8.0535322934
 21
6.2250535503
  0
LINE
  5
309
100
AcDbEntity
  8
03__ASM_ALL_CURVES
100
AcDbLine
 62
4
  6
CONTINUOUS
 10
8.0455102953
 20
6.2009875503
 11
8.0374882915
 21
6.1889545503
  0
LINE
  5
30A
100
AcDbEntity
  8
03__ASM_ALL_CURVES
100
AcDbLine
 62
4
  6
CONTINUOUS
 10
8.1016642934
 20
6.2009875503
 11
8.0936422932
 21
6.1889545503
  0
LINE
  5
30B
100
AcDbEntity
  8
03__ASM_ALL_CURVES
100
AcDbLine
 62
4
  6
CONTINUOUS
 10
8.0054002934
 20
6.0204925503
 11
8.0134222915
 21
6.0325255503
  0
LINE
  5
30C
100
AcDbEntity
  8
03__ASM_ALL_CURVES
100
AcDbLine
 62
4
  6
CONTINUOUS
 10
7.8576362934
 20
7.4524195503
 11
7.8736802953
 21
7.4644525503
  0
LINE
  5
30D
100
AcDbEntity
  8
03__ASM_ALL_CURVES
100
AcDbLine
 62
4
  6
CONTINUOUS
 10
8.0054002934
 20
7.5486835503
 11
8.0214442953
 21
7.5607165503
  0
LINE
  5
30E
100
AcDbEntity
  8
03__ASM_ALL_CURVES
100
AcDbLine
 62
4
  6
CONTINUOUS
 10
12.8165187934
 20
11.1758880503
 11
12.8285517934
 21
11.1839100484
  0
LINE
  5
30F
100
AcDbEntity
  8
03__ASM_ALL_CURVES
100
AcDbLine
 62
4
  6
CONTINUOUS
 10
12.8526177934
 20
11.1919320522
 11
12.8405847934
 21
11.1839100484
  0
LINE
  5
310
100
AcDbEntity
  8
03__ASM_ALL_CURVES
100
AcDbLine
 62
4
  6
CONTINUOUS
 10
12.9187992934
 20
11.2159980522
 11
12.9308322934
 21
11.2240200503
  0
LINE
  5
311
100
AcDbEntity
  8
03__ASM_ALL_CURVES
100
AcDbLine
 62
4
  6
CONTINUOUS
 10
12.8526177934
 20
11.1357780505
 11
12.8405847934
 21
11.1277560503
  0
LINE
  5
312
100
AcDbEntity
  8
03__ASM_ALL_CURVES
100
AcDbLine
 62
4
  6
CONTINUOUS
 10
12.9428652934
 20
11.1357780505
 11
12.9308322934
 21
11.1277560503
  0
LINE
  5
313
100
AcDbEntity
  8
03__ASM_ALL_CURVES
100
AcDbLine
 62
4
  6
CONTINUOUS
 10
7.9137902944
 20
6.8688190503
 11
7.9378562929
 21
6.8748355503
  0
LINE
  5
314
100
AcDbEntity
  8
03__ASM_ALL_CURVES
100
AcDbLine
 62
4
  6
CONTINUOUS
 10
8.0214442953
 20
7.0793965503
 11
8.0455102953
 21
7.0854130503
  0
LINE
  5
315
100
AcDbEntity
  8
03__ASM_ALL_CURVES
100
AcDbLine
 62
4
  6
CONTINUOUS
 10
8.0455102953
 20
7.5667330503
 11
8.0615542944
 21
7.5667330503
  0
LINE
  5
316
100
AcDbEntity
  8
03__ASM_ALL_CURVES
100
AcDbLine
 62
4
  6
CONTINUOUS
 10
11.5707902944
 20
7.4704690503
 11
11.5948562929
 21
7.4644525503
  0
LINE
  5
317
100
AcDbEntity
  8
03__ASM_ALL_CURVES
100
AcDbLine
 62
4
  6
CONTINUOUS
 10
10.8598122925
 20
7.3862380503
 11
10.8758562929
 21
7.3802215503
  0
LINE
  5
318
100
AcDbEntity
  8
03__ASM_ALL_CURVES
100
AcDbLine
 62
4
  6
CONTINUOUS
 10
11.5467242915
 20
7.2418420503
 11
11.5306802953
 21
7.2478585503
  0
LINE
  5
319
100
AcDbEntity
  8
03__ASM_ALL_CURVES
100
AcDbLine
 62
4
  6
CONTINUOUS
 10
11.5788122925
 20
7.2899740503
 11
11.5948562929
 21
7.2839575503
  0
LINE
  5
31A
100
AcDbEntity
  8
03__ASM_ALL_CURVES
100
AcDbLine
 62
4
  6
CONTINUOUS
 10
10.8116802953
 20
7.3441225503
 11
10.8036582915
 21
7.3501390503
  0
LINE
  5
31B
100
AcDbEntity
  8
03__ASM_ALL_CURVES
100
AcDbLine
 62
4
  6
CONTINUOUS
 10
11.5146362934
 20
6.8868685503
 11
11.5306802953
 21
6.8748355503
  0
LINE
  5
31C
100
AcDbEntity
  8
03__ASM_ALL_CURVES
100
AcDbLine
 62
4
  6
CONTINUOUS
 10
10.8758562929
 20
7.3802215503
 11
10.8838782932
 21
7.3742050503
  0
LINE
  5
31D
100
AcDbEntity
  8
03__ASM_ALL_CURVES
100
AcDbLine
 62
4
  6
CONTINUOUS
 10
7.8656582915
 20
7.3802215503
 11
7.8736802953
 21
7.3862380503
  0
LINE
  5
31E
100
AcDbEntity
  8
03__ASM_ALL_CURVES
100
AcDbLine
 62
4
  6
CONTINUOUS
 10
8.0214442953
 20
7.4825020503
 11
8.0134222915
 21
7.4764855503
  0
LINE
  5
31F
100
AcDbEntity
  8
03__ASM_ALL_CURVES
100
AcDbLine
 62
4
  6
CONTINUOUS
 10
8.0615542944
 20
7.4764855503
 11
8.0695762925
 21
7.4825020503
  0
LINE
  5
320
100
AcDbEntity
  8
03__ASM_ALL_CURVES
100
AcDbLine
 62
4
  6
CONTINUOUS
 10
8.0294662934
 20
7.4343700503
 11
8.0374882915
 21
7.4403865503
  0
LINE
  5
321
100
AcDbEntity
  8
03__ASM_ALL_CURVES
100
AcDbLine
 62
4
  6
CONTINUOUS
 10
8.0936422932
 20
7.4403865503
 11
8.0775982934
 21
7.4283535503
  0
LINE
  5
322
100
AcDbEntity
  8
03__ASM_ALL_CURVES
100
AcDbLine
 62
4
  6
CONTINUOUS
 10
7.9418672931
 20
7.1846853003
 11
7.9539002934
 21
7.1937100503
  0
LINE
  5
323
100
AcDbEntity
  8
03__ASM_ALL_CURVES
100
AcDbLine
 62
4
  6
CONTINUOUS
 10
8.0856202929
 20
7.2598915503
 11
8.1016642934
 21
7.2719245503
  0
LINE
  5
324
100
AcDbEntity
  8
03__ASM_ALL_CURVES
100
AcDbLine
 62
4
  6
CONTINUOUS
 10
8.0615542944
 20
7.2538750503
 11
8.0856202929
 21
7.2598915503
  0
LINE
  5
325
100
AcDbEntity
  8
0
100
AcDbLine
 62
7
  6
CONTINUOUS
 10
7.9057683297
 20
7.9878880503
 11
10.8437682934
 21
7.9878880503
  0
LINE
  5
326
100
AcDbEntity
  8
03__ASM_ALL_CURVES
100
AcDbLine
 62
4
  6
CONTINUOUS
 10
10.9400322934
 20
7.9878880503
 11
11.2288242934
 21
7.9878880503
  0
LINE
  5
327
100
AcDbEntity
  8
0
100
AcDbLine
 62
7
  6
CONTINUOUS
 10
9.8537573562
 20
8.0038880503
 11
10.3337792307
 21
8.0038880503
  0
LINE
  5
328
100
AcDbEntity
  8
03__ASM_ALL_CURVES
100
AcDbLine
 62
4
  6
CONTINUOUS
 10
11.5306802953
 20
7.0493140503
 11
11.5226582915
 21
7.0553305503
  0
LINE
  5
329
100
AcDbEntity
  8
03__ASM_ALL_CURVES
100
AcDbLine
 62
4
  6
CONTINUOUS
 10
11.5788122925
 20
7.0432975503
 11
11.5627682934
 21
7.0553305503
  0
LINE
  5
32A
100
AcDbEntity
  8
03__ASM_ALL_CURVES
100
AcDbLine
 62
4
  6
CONTINUOUS
 10
11.5387022934
 20
7.0974460503
 11
11.5467242915
 21
7.0914295503
  0
LINE
  5
32B
100
AcDbEntity
  8
03__ASM_ALL_CURVES
100
AcDbLine
 62
4
  6
CONTINUOUS
 10
11.5868342934
 20
7.1034625503
 11
11.6028782932
 21
7.0914295503
  0
LINE
  5
32C
100
AcDbEntity
  8
0
100
AcDbLine
 62
7
  6
CONTINUOUS
 10
10.3337792307
 20
11.175888014
 11
10.3337792307
 21
11.159888014
  0
LINE
  5
32D
100
AcDbEntity
  8
0
100
AcDbLine
 62
7
  6
CONTINUOUS
 10
10.3337792307
 20
7.9878880503
 11
10.3337792307
 21
8.0038880503
  0
LINE
  5
32E
100
AcDbEntity
  8
03__ASM_ALL_CURVES
100
AcDbLine
 62
4
  6
CONTINUOUS
 10
12.2810502934
 20
11.1999540503
 11
12.2750337934
 21
11.1919320522
  0
LINE
  5
32F
100
AcDbEntity
  8
03__ASM_ALL_CURVES
100
AcDbLine
 62
4
  6
CONTINUOUS
 10
12.2870667934
 20
11.1518220503
 11
12.2750337934
 21
11.1357780505
  0
LINE
  5
330
100
AcDbEntity
  8
03__ASM_ALL_CURVES
100
AcDbLine
 62
4
  6
CONTINUOUS
 10
8.0054002934
 20
7.0673635503
 11
8.0214442953
 21
7.0793965503
  0
LINE
  5
331
100
AcDbEntity
  8
03__ASM_ALL_CURVES
100
AcDbLine
 62
4
  6
CONTINUOUS
 10
8.0134222915
 20
6.9891490503
 11
8.0214442953
 21
6.9951655503
  0
LINE
  5
332
100
AcDbEntity
  8
03__ASM_ALL_CURVES
100
AcDbLine
 62
4
  6
CONTINUOUS
 10
7.9378562929
 20
6.8748355503
 11
7.9539002934
 21
6.8868685503
  0
LINE
  5
333
100
AcDbEntity
  8
03__ASM_ALL_CURVES
100
AcDbLine
 62
4
  6
CONTINUOUS
 10
8.0936422932
 20
6.9650830503
 11
8.0856202929
 21
6.9590665503
  0
LINE
  5
334
100
AcDbEntity
  8
03__ASM_ALL_CURVES
100
AcDbLine
 62
4
  6
CONTINUOUS
 10
8.0134222915
 20
6.8989015503
 11
8.0214442953
 21
6.9049180503
  0
LINE
  5
335
100
AcDbEntity
  8
03__ASM_ALL_CURVES
100
AcDbLine
 62
4
  6
CONTINUOUS
 10
8.0535322934
 20
6.8989015503
 11
8.0695762925
 21
6.9109345503
  0
LINE
  5
336
100
AcDbEntity
  8
03__ASM_ALL_CURVES
100
AcDbLine
 62
4
  6
CONTINUOUS
 10
7.8736802953
 20
7.4644525503
 11
7.8977462953
 21
7.4704690503
  0
LINE
  5
337
100
AcDbEntity
  8
03__ASM_ALL_CURVES
100
AcDbLine
 62
4
  6
CONTINUOUS
 10
8.0214442953
 20
7.5607165503
 11
8.0455102953
 21
7.5667330503
  0
LINE
  5
338
100
AcDbEntity
  8
03__ASM_ALL_CURVES
100
AcDbLine
 62
4
  6
CONTINUOUS
 10
11.5306802953
 20
7.2478585503
 11
11.5226582915
 21
7.2538750503
  0
LINE
  5
339
100
AcDbEntity
  8
03__ASM_ALL_CURVES
100
AcDbLine
 62
4
  6
CONTINUOUS
 10
11.5948562929
 20
7.2839575503
 11
11.6028782932
 21
7.2779410503
  0
LINE
  5
33A
100
AcDbEntity
  8
03__ASM_ALL_CURVES
100
AcDbLine
 62
4
  6
CONTINUOUS
 10
11.5387022934
 20
7.3862380503
 11
11.5467242915
 21
7.3802215503
  0
LINE
  5
33B
100
AcDbEntity
  8
03__ASM_ALL_CURVES
100
AcDbLine
 62
4
  6
CONTINUOUS
 10
11.5868342934
 20
7.3922545503
 11
11.6028782932
 21
7.3802215503
  0
LINE
  5
33C
100
AcDbEntity
  8
03__ASM_ALL_CURVES
100
AcDbLine
 62
4
  6
CONTINUOUS
 10
11.5948562929
 20
7.4644525503
 11
11.6109002934
 21
7.4524195503
  0
LINE
  5
33D
100
AcDbEntity
  8
03__ASM_ALL_CURVES
100
AcDbLine
 62
4
  6
CONTINUOUS
 10
10.8036582915
 20
7.3501390503
 11
10.7956362934
 21
7.3621720503
  0
LINE
  5
33E
100
AcDbEntity
  8
03__ASM_ALL_CURVES
100
AcDbLine
 62
4
  6
CONTINUOUS
 10
11.5226582915
 20
6.3874990503
 11
11.5146362934
 21
6.3995320503
  0
LINE
  5
33F
100
AcDbEntity
  8
03__ASM_ALL_CURVES
100
AcDbLine
 62
4
  6
CONTINUOUS
 10
10.8838782932
 20
7.3742050503
 11
10.8919002934
 21
7.3621720503
  0
LINE
  5
340
100
AcDbEntity
  8
03__ASM_ALL_CURVES
100
AcDbLine
 62
4
  6
CONTINUOUS
 10
11.6028782932
 20
6.4115650503
 11
11.6109002934
 21
6.3995320503
  0
LINE
  5
341
100
AcDbEntity
  8
03__ASM_ALL_CURVES
100
AcDbLine
 62
4
  6
CONTINUOUS
 10
12.5217102934
 20
11.2079760484
 11
12.5277267934
 21
11.2159980522
  0
LINE
  5
342
100
AcDbEntity
  8
03__ASM_ALL_CURVES
100
AcDbLine
 62
4
  6
CONTINUOUS
 10
12.5156937934
 20
11.1598440512
 11
12.5277267934
 21
11.1758880503
  0
LINE
  5
343
100
AcDbEntity
  8
03__ASM_ALL_CURVES
100
AcDbLine
 62
4
  6
CONTINUOUS
 10
12.5698422934
 20
11.1999540503
 11
12.5638257934
 21
11.1919320522
  0
LINE
  5
344
100
AcDbEntity
  8
03__ASM_ALL_CURVES
100
AcDbLine
 62
4
  6
CONTINUOUS
 10
12.5758587934
 20
11.1518220503
 11
12.5638257934
 21
11.1357780505
  0
LINE
  5
345
100
AcDbEntity
  8
03__ASM_ALL_CURVES
100
AcDbLine
 62
4
  6
CONTINUOUS
 10
8.0374882915
 20
6.8628025503
 11
8.0294662934
 21
6.8567860503
  0
LINE
  5
346
100
AcDbEntity
  8
03__ASM_ALL_CURVES
100
AcDbLine
 62
4
  6
CONTINUOUS
 10
7.8656582915
 20
6.7063735503
 11
7.8736802953
 21
6.7123900503
  0
LINE
  5
347
100
AcDbEntity
  8
03__ASM_ALL_CURVES
100
AcDbLine
 62
4
  6
CONTINUOUS
 10
8.0936422932
 20
6.8628025503
 11
8.0775982934
 21
6.8507695503
  0
LINE
  5
348
100
AcDbEntity
  8
03__ASM_ALL_CURVES
100
AcDbLine
 62
4
  6
CONTINUOUS
 10
7.9057682934
 20
6.7063735503
 11
7.9218122925
 21
6.7184065503
  0
LINE
  5
349
100
AcDbEntity
  8
03__ASM_ALL_CURVES
100
AcDbLine
 62
4
  6
CONTINUOUS
 10
8.0896312931
 20
6.7996293003
 11
8.1016642934
 21
6.8086540503
  0
LINE
  5
34A
100
AcDbEntity
  8
03__ASM_ALL_CURVES
100
AcDbLine
 62
4
  6
CONTINUOUS
 10
7.9458782932
 20
6.6702745503
 11
7.9378562929
 21
6.6642580503
  0
LINE
  5
34B
100
AcDbEntity
  8
03__ASM_ALL_CURVES
100
AcDbLine
 62
4
  6
CONTINUOUS
 10
7.8656582915
 20
6.6040930503
 11
7.8736802953
 21
6.6101095503
  0
LINE
  5
34C
100
AcDbEntity
  8
03__ASM_ALL_CURVES
100
AcDbLine
 62
4
  6
CONTINUOUS
 10
8.0134222915
 20
6.7063735503
 11
8.0214442953
 21
6.7123900503
  0
LINE
  5
34D
100
AcDbEntity
  8
03__ASM_ALL_CURVES
100
AcDbLine
 62
4
  6
CONTINUOUS
 10
7.9458782932
 20
6.5800270503
 11
7.9378562929
 21
6.5740105503
  0
LINE
  5
34E
100
AcDbEntity
  8
03__ASM_ALL_CURVES
100
AcDbLine
 62
4
  6
CONTINUOUS
 10
7.9418672931
 20
6.5108373003
 11
7.9539002934
 21
6.5198620503
  0
LINE
  5
34F
100
AcDbEntity
  8
03__ASM_ALL_CURVES
100
AcDbLine
 62
4
  6
CONTINUOUS
 10
11.4694842934
 20
7.9397560503
 11
11.4574512934
 21
7.9477780505
  0
LINE
  5
350
100
AcDbEntity
  8
03__ASM_ALL_CURVES
100
AcDbLine
 62
4
  6
CONTINUOUS
 10
11.5226582915
 20
7.0553305503
 11
11.5146362934
 21
7.0673635503
  0
LINE
  5
351
100
AcDbEntity
  8
03__ASM_ALL_CURVES
100
AcDbLine
 62
4
  6
CONTINUOUS
 10
11.5627682934
 20
7.0553305503
 11
11.5547462953
 21
7.0673635503
  0
LINE
  5
352
100
AcDbEntity
  8
03__ASM_ALL_CURVES
100
AcDbLine
 62
4
  6
CONTINUOUS
 10
11.5467242915
 20
7.0914295503
 11
11.5547462953
 21
7.0793965503
  0
LINE
  5
353
100
AcDbEntity
  8
03__ASM_ALL_CURVES
100
AcDbLine
 62
4
  6
CONTINUOUS
 10
10.8437682934
 20
7.8916240503
 11
10.8437682934
 21
7.6028320503
  0
LINE
  5
354
100
AcDbEntity
  8
0
100
AcDbLine
 62
7
  6
CONTINUOUS
 10
10.8437682934
 20
7.9878880503
 11
10.8437682934
 21
11.175888014
  0
LINE
  5
355
100
AcDbEntity
  8
03__ASM_ALL_CURVES
100
AcDbLine
 62
4
  6
CONTINUOUS
 10
12.7443207934
 20
11.2240200503
 11
12.7322877934
 21
11.2079760484
  0
LINE
  5
356
100
AcDbEntity
  8
03__ASM_ALL_CURVES
100
AcDbLine
 62
4
  6
CONTINUOUS
 10
12.8105022934
 20
11.2079760484
 11
12.8165187934
 21
11.2159980522
  0
LINE
  5
357
100
AcDbEntity
  8
03__ASM_ALL_CURVES
100
AcDbLine
 62
4
  6
CONTINUOUS
 10
12.8044857934
 20
11.1598440512
 11
12.8165187934
 21
11.1758880503
  0
LINE
  5
358
100
AcDbEntity
  8
03__ASM_ALL_CURVES
100
AcDbLine
 62
4
  6
CONTINUOUS
 10
12.8586342934
 20
11.1999540503
 11
12.8526177934
 21
11.1919320522
  0
LINE
  5
359
100
AcDbEntity
  8
03__ASM_ALL_CURVES
100
AcDbLine
 62
4
  6
CONTINUOUS
 10
12.8646507934
 20
11.1518220503
 11
12.8526177934
 21
11.1357780505
  0
LINE
  5
35A
100
AcDbEntity
  8
03__ASM_ALL_CURVES
100
AcDbLine
 62
4
  6
CONTINUOUS
 10
12.9127827934
 20
11.2079760484
 11
12.9187992934
 21
11.2159980522
  0
LINE
  5
35B
100
AcDbEntity
  8
03__ASM_ALL_CURVES
100
AcDbLine
 62
4
  6
CONTINUOUS
 10
7.8656582915
 20
6.4175815503
 11
7.8736802953
 21
6.4235980503
  0
LINE
  5
35C
100
AcDbEntity
  8
03__ASM_ALL_CURVES
100
AcDbLine
 62
4
  6
CONTINUOUS
 10
8.0856202929
 20
6.4897795503
 11
8.1016642934
 21
6.5018125503
  0
LINE
  5
35D
100
AcDbEntity
  8
03__ASM_ALL_CURVES
100
AcDbLine
 62
4
  6
CONTINUOUS
 10
8.0134222915
 20
6.2250535503
 11
8.0214442953
 21
6.2310700503
  0
LINE
  5
35E
100
AcDbEntity
  8
0
100
AcDbLine
 62
7
  6
CONTINUOUS
 10
11.0932682934
 20
8.7178880503
 11
11.5287046275
 21
8.7178880503
  0
LINE
  5
35F
100
AcDbEntity
  8
0
100
AcDbLine
 62
7
  6
CONTINUOUS
 10
11.0932682934
 20
8.7187855778
 11
11.5287046275
 21
8.7187855778
  0
LINE
  5
360
100
AcDbEntity
  8
0
100
AcDbLine
 62
7
  6
CONTINUOUS
 10
10.8437682934
 20
8.7793880503
 11
11.0317682934
 21
8.7793880503
  0
LINE
  5
361
100
AcDbEntity
  8
03__ASM_ALL_CURVES
100
AcDbLine
 62
4
  6
CONTINUOUS
 10
11.4694842934
 20
8.0360200503
 11
11.4815172934
 21
8.0279980522
  0
LINE
  5
362
100
AcDbEntity
  8
03__ASM_ALL_CURVES
100
AcDbLine
 62
4
  6
CONTINUOUS
 10
11.6028782932
 20
7.0914295503
 11
11.6109002934
 21
7.0793965503
  0
LINE
  5
363
100
AcDbEntity
  8
03__ASM_ALL_CURVES
100
AcDbLine
 62
4
  6
CONTINUOUS
 10
11.5226582915
 20
7.2538750503
 11
11.5146362934
 21
7.2659080503
  0
LINE
  5
364
100
AcDbEntity
  8
03__ASM_ALL_CURVES
100
AcDbLine
 62
4
  6
CONTINUOUS
 10
11.5226582915
 20
7.3441225503
 11
11.5146362934
 21
7.3561555503
  0
LINE
  5
365
100
AcDbEntity
  8
03__ASM_ALL_CURVES
100
AcDbLine
 62
4
  6
CONTINUOUS
 10
11.6028782932
 20
7.2779410503
 11
11.6109002934
 21
7.2659080503
  0
LINE
  5
366
100
AcDbEntity
  8
03__ASM_ALL_CURVES
100
AcDbLine
 62
4
  6
CONTINUOUS
 10
11.5467242915
 20
7.3802215503
 11
11.5547462953
 21
7.3681885503
  0
LINE
  5
367
100
AcDbEntity
  8
03__ASM_ALL_CURVES
100
AcDbLine
 62
4
  6
CONTINUOUS
 10
11.6028782932
 20
7.3802215503
 11
11.6109002934
 21
7.3681885503
  0
LINE
  5
368
100
AcDbEntity
  8
0
100
AcDbLine
 62
7
  6
CONTINUOUS
 10
11.0317682934
 20
8.7793880503
 11
11.0317682934
 21
10.3843880503
  0
LINE
  5
369
100
AcDbEntity
  8
0
100
AcDbLine
 62
7
  6
CONTINUOUS
 10
11.0932682934
 20
8.7178880503
 11
11.0932682934
 21
8.7187855778
  0
LINE
  5
36A
100
AcDbEntity
  8
0
100
AcDbLine
 62
7
  6
CONTINUOUS
 10
11.0932682934
 20
8.9371905228
 11
11.0932682934
 21
8.9884831053
  0
LINE
  5
36B
100
AcDbEntity
  8
0
100
AcDbLine
 62
7
  6
CONTINUOUS
 10
11.0932682934
 20
9.4252929953
 11
11.0932682934
 21
9.4687855778
  0
LINE
  5
36C
100
AcDbEntity
  8
0
100
AcDbLine
 62
7
  6
CONTINUOUS
 10
11.0932682934
 20
9.6871905228
 11
11.0932682934
 21
9.7384831053
  0
LINE
  5
36D
100
AcDbEntity
  8
0
100
AcDbLine
 62
7
  6
CONTINUOUS
 10
11.0932682934
 20
10.1752929953
 11
11.0932682934
 21
10.2265855778
  0
LINE
  5
36E
100
AcDbEntity
  8
0
100
AcDbLine
 62
7
  6
CONTINUOUS
 10
11.0932682934
 20
10.4449905228
 11
11.0932682934
 21
10.4458880503
  0
LINE
  5
36F
100
AcDbEntity
  8
0
100
AcDbLine
 62
7
  6
CONTINUOUS
 10
11.5287046275
 20
9.4678880503
 11
11.5627682934
 21
9.5268880503
  0
LINE
  5
370
100
AcDbEntity
  8
03__ASM_ALL_CURVES
100
AcDbLine
 62
4
  6
CONTINUOUS
 10
12.9488817934
 20
11.1438000508
 11
12.9428652934
 21
11.1357780505
  0
LINE
  5
371
100
AcDbEntity
  8
03__ASM_ALL_CURVES
100
AcDbLine
 62
4
  6
CONTINUOUS
 10
8.0535322934
 20
6.2250535503
 11
8.0695762925
 21
6.2370865503
  0
LINE
  5
372
100
AcDbEntity
  8
03__ASM_ALL_CURVES
100
AcDbLine
 62
4
  6
CONTINUOUS
 10
8.0374882915
 20
6.1889545503
 11
8.0294662934
 21
6.1829380503
  0
LINE
  5
373
100
AcDbEntity
  8
03__ASM_ALL_CURVES
100
AcDbLine
 62
4
  6
CONTINUOUS
 10
8.0936422932
 20
6.1889545503
 11
8.0775982934
 21
6.1769215503
  0
LINE
  5
374
100
AcDbEntity
  8
03__ASM_ALL_CURVES
100
AcDbLine
 62
4
  6
CONTINUOUS
 10
8.0896312931
 20
6.1257813003
 11
8.1016642934
 21
6.1348060503
  0
LINE
  5
375
100
AcDbEntity
  8
03__ASM_ALL_CURVES
100
AcDbLine
 62
4
  6
CONTINUOUS
 10
8.0134222915
 20
6.0325255503
 11
8.0214442953
 21
6.0385420503
  0
LINE
  5
376
100
AcDbEntity
  8
03__ASM_ALL_CURVES
100
AcDbLine
 62
4
  6
CONTINUOUS
 10
8.0214442953
 20
6.9951655503
 11
8.0374882915
 21
7.0011820503
  0
LINE
  5
377
100
AcDbEntity
  8
0
100
AcDbLine
 62
7
  6
CONTINUOUS
 10
11.0932682934
 20
8.9371905228
 11
11.5287046275
 21
8.9371905228
  0
LINE
  5
378
100
AcDbEntity
  8
0
100
AcDbLine
 62
7
  6
CONTINUOUS
 10
11.0932682934
 20
8.9884831053
 11
11.5287046275
 21
8.9884831053
  0
LINE
  5
379
100
AcDbEntity
  8
0
100
AcDbLine
 62
7
  6
CONTINUOUS
 10
11.0317682934
 20
8.7793880503
 11
11.0932682934
 21
8.7178880503
  0
LINE
  5
37A
100
AcDbEntity
  8
03__ASM_ALL_CURVES
100
AcDbLine
 62
4
  6
CONTINUOUS
 10
11.4574512934
 20
7.9477780505
 11
11.4514347934
 21
7.9558000508
  0
LINE
  5
37B
100
AcDbEntity
  8
03__ASM_ALL_CURVES
100
AcDbLine
 62
4
  6
CONTINUOUS
 10
11.4815172934
 20
8.0279980522
 11
11.4875337934
 21
8.0199760484
  0
LINE
  5
37C
100
AcDbEntity
  8
0
100
AcDbLine
 62
7
  6
CONTINUOUS
 10
11.5287046275
 20
8.7178880503
 11
11.5627682934
 21
8.7768880503
  0
LINE
  5
37D
100
AcDbEntity
  8
03__ASM_ALL_CURVES
100
AcDbLine
 62
4
  6
CONTINUOUS
 10
13.3219047934
 20
11.1438000508
 11
13.3098717934
 21
11.1277560503
  0
LINE
  5
37E
100
AcDbEntity
  8
03__ASM_ALL_CURVES
100
AcDbLine
 62
4
  6
CONTINUOUS
 10
8.0535322934
 20
6.9590665503
 11
8.0374882915
 21
6.9530500503
  0
LINE
  5
37F
100
AcDbEntity
  8
03__ASM_ALL_CURVES
100
AcDbLine
 62
4
  6
CONTINUOUS
 10
11.4514347934
 20
7.9558000508
 11
11.4454182934
 21
7.9718440512
  0
LINE
  5
380
100
AcDbEntity
  8
03__ASM_ALL_CURVES
100
AcDbLine
 62
4
  6
CONTINUOUS
 10
11.4875337934
 20
8.0199760484
 11
11.4935502934
 21
8.0039320522
  0
LINE
  5
381
100
AcDbEntity
  8
03__ASM_ALL_CURVES
100
AcDbLine
 62
4
  6
CONTINUOUS
 10
11.4454182934
 20
7.9718440512
 11
11.4454182934
 21
8.0039320522
  0
LINE
  5
382
100
AcDbEntity
  8
03__ASM_ALL_CURVES
100
AcDbLine
 62
4
  6
CONTINUOUS
 10
11.4935502934
 20
8.0039320522
 11
11.4935502934
 21
7.9718440512
  0
LINE
  5
383
100
AcDbEntity
  8
03__ASM_ALL_CURVES
100
AcDbLine
 62
4
  6
CONTINUOUS
 10
11.5146362934
 20
6.6161260503
 11
11.5146362934
 21
6.5679940503
  0
LINE
  5
384
100
AcDbEntity
  8
03__ASM_ALL_CURVES
100
AcDbLine
 62
4
  6
CONTINUOUS
 10
11.5146362934
 20
7.0673635503
 11
11.5146362934
 21
7.0793965503
  0
LINE
  5
385
100
AcDbEntity
  8
03__ASM_ALL_CURVES
100
AcDbLine
 62
4
  6
CONTINUOUS
 10
11.5146362934
 20
7.3561555503
 11
11.5146362934
 21
7.3681885503
  0
LINE
  5
386
100
AcDbEntity
  8
0
100
AcDbLine
 62
7
  6
CONTINUOUS
 10
11.5287046275
 20
10.4458880503
 11
11.5287046275
 21
10.4449905228
  0
LINE
  5
387
100
AcDbEntity
  8
0
100
AcDbLine
 62
7
  6
CONTINUOUS
 10
11.5287046275
 20
10.2265855778
 11
11.5287046275
 21
10.1752929953
  0
LINE
  5
388
100
AcDbEntity
  8
0
100
AcDbLine
 62
7
  6
CONTINUOUS
 10
11.5287046275
 20
9.7384831053
 11
11.5287046275
 21
9.6871905228
  0
LINE
  5
389
100
AcDbEntity
  8
0
100
AcDbLine
 62
7
  6
CONTINUOUS
 10
11.5287046275
 20
9.4687855778
 11
11.5287046275
 21
9.4252929953
  0
LINE
  5
38A
100
AcDbEntity
  8
0
100
AcDbLine
 62
7
  6
CONTINUOUS
 10
11.5287046275
 20
8.9884831053
 11
11.5287046275
 21
8.9371905228
  0
LINE
  5
38B
100
AcDbEntity
  8
0
100
AcDbLine
 62
7
  6
CONTINUOUS
 10
11.5287046275
 20
8.7187855778
 11
11.5287046275
 21
8.7178880503
  0
LINE
  5
38C
100
AcDbEntity
  8
03__ASM_ALL_CURVES
100
AcDbLine
 62
4
  6
CONTINUOUS
 10
11.5547462953
 20
7.0673635503
 11
11.5547462953
 21
7.0793965503
  0
LINE
  5
38D
100
AcDbEntity
  8
03__ASM_ALL_CURVES
100
AcDbLine
 62
4
  6
CONTINUOUS
 10
11.5547462953
 20
7.3561555503
 11
11.5547462953
 21
7.3681885503
  0
LINE
  5
38E
100
AcDbEntity
  8
0
100
AcDbLine
 62
7
  6
CONTINUOUS
 10
11.5627682934
 20
10.3868880503
 11
11.5627682934
 21
8.7768880503
  0
LINE
  5
38F
100
AcDbEntity
  8
03__ASM_ALL_CURVES
100
AcDbLine
 62
4
  6
CONTINUOUS
 10
11.5627682934
 20
7.8916240503
 11
11.5627682934
 21
7.6028320503
  0
LINE
  5
390
100
AcDbEntity
  8
03__ASM_ALL_CURVES
100
AcDbLine
 62
4
  6
CONTINUOUS
 10
11.6109002934
 20
7.3681885503
 11
11.6109002934
 21
7.3561555503
  0
LINE
  5
391
100
AcDbEntity
  8
03__ASM_ALL_CURVES
100
AcDbLine
 62
4
  6
CONTINUOUS
 10
11.6109002934
 20
7.1937100503
 11
11.6109002934
 21
7.1846853003
  0
LINE
  5
392
100
AcDbEntity
  8
03__ASM_ALL_CURVES
100
AcDbLine
 62
4
  6
CONTINUOUS
 10
11.6109002934
 20
7.0793965503
 11
11.6109002934
 21
7.0673635503
  0
LINE
  5
393
100
AcDbEntity
  8
03__ASM_ALL_CURVES
100
AcDbLine
 62
4
  6
CONTINUOUS
 10
11.6109002934
 20
6.5198620503
 11
11.6109002934
 21
6.5108373003
  0
LINE
  5
394
100
AcDbEntity
  8
03__ASM_ALL_CURVES
100
AcDbLine
 62
4
  6
CONTINUOUS
 10
11.4454182934
 20
8.0039320522
 11
11.4514347934
 21
8.0199760484
  0
LINE
  5
395
100
AcDbEntity
  8
03__ASM_ALL_CURVES
100
AcDbLine
 62
4
  6
CONTINUOUS
 10
11.4935502934
 20
7.9718440512
 11
11.4875337934
 21
7.9558000508
  0
LINE
  5
396
100
AcDbEntity
  8
03__ASM_ALL_CURVES
100
AcDbLine
 62
4
  6
CONTINUOUS
 10
10.7956362934
 20
7.3621720503
 11
10.8036582915
 21
7.3742050503
  0
LINE
  5
397
100
AcDbEntity
  8
03__ASM_ALL_CURVES
100
AcDbLine
 62
4
  6
CONTINUOUS
 10
10.8919002934
 20
7.3621720503
 11
10.8838782932
 21
7.3501390503
  0
LINE
  5
398
100
AcDbEntity
  8
03__ASM_ALL_CURVES
100
AcDbLine
 62
4
  6
CONTINUOUS
 10
11.4514347934
 20
8.0199760484
 11
11.4574512934
 21
8.0279980522
  0
LINE
  5
399
100
AcDbEntity
  8
03__ASM_ALL_CURVES
100
AcDbLine
 62
4
  6
CONTINUOUS
 10
11.4875337934
 20
7.9558000508
 11
11.4815172934
 21
7.9477780505
  0
LINE
  5
39A
100
AcDbEntity
  8
03__ASM_ALL_CURVES
100
AcDbLine
 62
4
  6
CONTINUOUS
 10
10.8036582915
 20
7.3742050503
 11
10.8116802953
 21
7.3802215503
  0
LINE
  5
39B
100
AcDbEntity
  8
03__ASM_ALL_CURVES
100
AcDbLine
 62
4
  6
CONTINUOUS
 10
11.4574512934
 20
8.0279980522
 11
11.4694842934
 21
8.0360200503
  0
LINE
  5
39C
100
AcDbEntity
  8
03__ASM_ALL_CURVES
100
AcDbLine
 62
4
  6
CONTINUOUS
 10
11.4815172934
 20
7.9477780505
 11
11.4694842934
 21
7.9397560503
  0
LINE
  5
39D
100
AcDbEntity
  8
03__ASM_ALL_CURVES
100
AcDbLine
 62
4
  6
CONTINUOUS
 10
7.8736802953
 20
6.6101095503
 11
7.8897242915
 21
6.6161260503
  0
LINE
  5
39E
100
AcDbEntity
  8
03__ASM_ALL_CURVES
100
AcDbLine
 62
4
  6
CONTINUOUS
 10
7.9057682934
 20
6.5740105503
 11
7.8897242915
 21
6.5679940503
  0
LINE
  5
39F
100
AcDbEntity
  8
0
100
AcDbLine
 62
7
  6
CONTINUOUS
 10
11.0932682934
 20
9.4252929953
 11
11.5287046275
 21
9.4252929953
  0
LINE
  5
3A0
100
AcDbEntity
  8
0
100
AcDbLine
 62
7
  6
CONTINUOUS
 10
11.0932682934
 20
9.4678880503
 11
11.5287046275
 21
9.4678880503
  0
LINE
  5
3A1
100
AcDbEntity
  8
0
100
AcDbLine
 62
7
  6
CONTINUOUS
 10
11.0932682934
 20
9.4687855778
 11
11.5287046275
 21
9.4687855778
  0
LINE
  5
3A2
100
AcDbEntity
  8
0
100
AcDbLine
 62
7
  6
CONTINUOUS
 10
10.8437682934
 20
9.5293880503
 11
11.0317682934
 21
9.5293880503
  0
LINE
  5
3A3
100
AcDbEntity
  8
0
100
AcDbLine
 62
7
  6
CONTINUOUS
 10
11.0317682934
 20
9.5293880503
 11
11.0932682934
 21
9.4678880503
  0
LINE
  5
3A4
100
AcDbEntity
  8
03__ASM_ALL_CURVES
100
AcDbLine
 62
4
  6
CONTINUOUS
 10
12.9067662934
 20
11.1919320522
 11
12.9127827934
 21
11.2079760484
  0
LINE
  5
3A5
100
AcDbEntity
  8
03__ASM_ALL_CURVES
100
AcDbLine
 62
4
  6
CONTINUOUS
 10
12.9548982934
 20
11.1598440512
 11
12.9488817934
 21
11.1438000508
  0
LINE
  5
3A6
100
AcDbEntity
  8
03__ASM_ALL_CURVES
100
AcDbLine
 62
4
  6
CONTINUOUS
 10
10.8838782932
 20
7.3501390503
 11
10.8758562929
 21
7.3441225503
  0
LINE
  5
3A7
100
AcDbEntity
  8
03__ASM_ALL_CURVES
100
AcDbLine
 62
4
  6
CONTINUOUS
 10
10.8116802953
 20
7.3802215503
 11
10.8277242915
 21
7.3862380503
  0
LINE
  5
3A8
100
AcDbEntity
  8
03__ASM_ALL_CURVES
100
AcDbLine
 62
4
  6
CONTINUOUS
 10
10.8758562929
 20
7.3441225503
 11
10.8598122925
 21
7.3381060503
  0
LINE
  5
3A9
100
AcDbEntity
  8
0
100
AcDbLine
 62
7
  6
CONTINUOUS
 10
11.0932682934
 20
9.6871905228
 11
11.5287046275
 21
9.6871905228
  0
LINE
  5
3AA
100
AcDbEntity
  8
0
100
AcDbLine
 62
7
  6
CONTINUOUS
 10
11.0932682934
 20
9.7384831053
 11
11.5287046275
 21
9.7384831053
  0
LINE
  5
3AB
100
AcDbEntity
  8
03__ASM_ALL_CURVES
100
AcDbLine
 62
4
  6
CONTINUOUS
 10
12.7322877934
 20
11.2079760484
 11
12.7262712934
 21
11.1839100484
  0
LINE
  5
3AC
100
AcDbEntity
  8
03__ASM_ALL_CURVES
100
AcDbLine
 62
4
  6
CONTINUOUS
 10
13.1353932934
 20
11.1919320522
 11
13.1474262934
 21
11.2240200503
  0
LINE
  5
3AD
100
AcDbEntity
  8
03__ASM_ALL_CURVES
100
AcDbLine
 62
4
  6
CONTINUOUS
 10
13.2316572934
 20
11.1919320522
 11
13.2436902934
 21
11.2240200503
  0
LINE
  5
3AE
100
AcDbEntity
  8
03__ASM_ALL_CURVES
100
AcDbLine
 62
4
  6
CONTINUOUS
 10
11.5146362934
 20
7.3681885503
 11
11.5226582915
 21
7.3802215503
  0
LINE
  5
3AF
100
AcDbEntity
  8
03__ASM_ALL_CURVES
100
AcDbLine
 62
4
  6
CONTINUOUS
 10
11.5547462953
 20
7.3681885503
 11
11.5627682934
 21
7.3802215503
  0
LINE
  5
3B0
100
AcDbEntity
  8
03__ASM_ALL_CURVES
100
AcDbLine
 62
4
  6
CONTINUOUS
 10
11.5146362934
 20
7.2659080503
 11
11.5226582915
 21
7.2779410503
  0
LINE
  5
3B1
100
AcDbEntity
  8
03__ASM_ALL_CURVES
100
AcDbLine
 62
4
  6
CONTINUOUS
 10
11.6109002934
 20
7.3561555503
 11
11.6028782932
 21
7.3441225503
  0
LINE
  5
3B2
100
AcDbEntity
  8
03__ASM_ALL_CURVES
100
AcDbLine
 62
4
  6
CONTINUOUS
 10
11.6109002934
 20
7.2659080503
 11
11.6028782932
 21
7.2538750503
  0
LINE
  5
3B3
100
AcDbEntity
  8
03__ASM_ALL_CURVES
100
AcDbLine
 62
4
  6
CONTINUOUS
 10
11.5146362934
 20
7.0793965503
 11
11.5226582915
 21
7.0914295503
  0
LINE
  5
3B4
100
AcDbEntity
  8
03__ASM_ALL_CURVES
100
AcDbLine
 62
4
  6
CONTINUOUS
 10
11.5146362934
 20
7.4524195503
 11
11.5306802953
 21
7.4644525503
  0
LINE
  5
3B5
100
AcDbEntity
  8
03__ASM_ALL_CURVES
100
AcDbLine
 62
4
  6
CONTINUOUS
 10
11.5226582915
 20
7.3802215503
 11
11.5306802953
 21
7.3862380503
  0
LINE
  5
3B6
100
AcDbEntity
  8
03__ASM_ALL_CURVES
100
AcDbLine
 62
4
  6
CONTINUOUS
 10
11.5627682934
 20
7.3802215503
 11
11.5788122925
 21
7.3922545503
  0
LINE
  5
3B7
100
AcDbEntity
  8
03__ASM_ALL_CURVES
100
AcDbLine
 62
4
  6
CONTINUOUS
 10
11.6028782932
 20
7.3441225503
 11
11.5948562929
 21
7.3381060503
  0
LINE
  5
3B8
100
AcDbEntity
  8
03__ASM_ALL_CURVES
100
AcDbLine
 62
4
  6
CONTINUOUS
 10
11.5226582915
 20
7.2779410503
 11
11.5306802953
 21
7.2839575503
  0
LINE
  5
3B9
100
AcDbEntity
  8
03__ASM_ALL_CURVES
100
AcDbLine
 62
4
  6
CONTINUOUS
 10
11.5306802953
 20
7.2839575503
 11
11.5467242915
 21
7.2899740503
  0
LINE
  5
3BA
100
AcDbEntity
  8
03__ASM_ALL_CURVES
100
AcDbLine
 62
4
  6
CONTINUOUS
 10
11.5948562929
 20
7.2478585503
 11
11.5788122925
 21
7.2418420503
  0
LINE
  5
3BB
100
AcDbEntity
  8
03__ASM_ALL_CURVES
100
AcDbLine
 62
4
  6
CONTINUOUS
 10
12.2810502934
 20
11.2079760484
 11
12.2810502934
 21
11.1999540503
  0
LINE
  5
3BC
100
AcDbEntity
  8
03__ASM_ALL_CURVES
100
AcDbLine
 62
4
  6
CONTINUOUS
 10
12.2870667934
 20
11.1598440512
 11
12.2870667934
 21
11.1518220503
  0
LINE
  5
3BD
100
AcDbEntity
  8
03__ASM_ALL_CURVES
100
AcDbLine
 62
4
  6
CONTINUOUS
 10
12.3682895434
 20
11.1277560503
 11
12.3682895434
 21
11.1397890506
  0
LINE
  5
3BE
100
AcDbEntity
  8
03__ASM_ALL_CURVES
100
AcDbLine
 62
4
  6
CONTINUOUS
 10
13.1293767934
 20
11.1678660493
 11
13.1353932934
 21
11.1919320522
  0
LINE
  5
3BF
100
AcDbEntity
  8
03__ASM_ALL_CURVES
100
AcDbLine
 62
4
  6
CONTINUOUS
 10
11.5547462953
 20
7.0793965503
 11
11.5627682934
 21
7.0914295503
  0
LINE
  5
3C0
100
AcDbEntity
  8
03__ASM_ALL_CURVES
100
AcDbLine
 62
4
  6
CONTINUOUS
 10
11.5547462953
 20
7.0673635503
 11
11.5467242915
 21
7.0553305503
  0
LINE
  5
3C1
100
AcDbEntity
  8
03__ASM_ALL_CURVES
100
AcDbLine
 62
4
  6
CONTINUOUS
 10
11.6109002934
 20
7.0673635503
 11
11.6028782932
 21
7.0553305503
  0
LINE
  5
3C2
100
AcDbEntity
  8
03__ASM_ALL_CURVES
100
AcDbLine
 62
4
  6
CONTINUOUS
 10
11.6028782932
 20
7.2538750503
 11
11.5948562929
 21
7.2478585503
  0
LINE
  5
3C3
100
AcDbEntity
  8
03__ASM_ALL_CURVES
100
AcDbLine
 62
4
  6
CONTINUOUS
 10
11.5988672931
 20
7.1846853003
 11
11.6109002934
 21
7.1937100503
  0
LINE
  5
3C4
100
AcDbEntity
  8
03__ASM_ALL_CURVES
100
AcDbLine
 62
4
  6
CONTINUOUS
 10
11.5226582915
 20
7.0914295503
 11
11.5306802953
 21
7.0974460503
  0
LINE
  5
3C5
100
AcDbEntity
  8
03__ASM_ALL_CURVES
100
AcDbLine
 62
4
  6
CONTINUOUS
 10
11.5627682934
 20
7.0914295503
 11
11.5788122925
 21
7.1034625503
  0
LINE
  5
3C6
100
AcDbEntity
  8
03__ASM_ALL_CURVES
100
AcDbLine
 62
4
  6
CONTINUOUS
 10
11.5467242915
 20
7.0553305503
 11
11.5387022934
 21
7.0493140503
  0
LINE
  5
3C7
100
AcDbEntity
  8
03__ASM_ALL_CURVES
100
AcDbLine
 62
4
  6
CONTINUOUS
 10
11.6028782932
 20
7.0553305503
 11
11.5868342934
 21
7.0432975503
  0
LINE
  5
3C8
100
AcDbEntity
  8
0
100
AcDbLine
 62
7
  6
CONTINUOUS
 10
11.0932682934
 20
10.1752929953
 11
11.5287046275
 21
10.1752929953
  0
LINE
  5
3C9
100
AcDbEntity
  8
0
100
AcDbLine
 62
7
  6
CONTINUOUS
 10
11.0932682934
 20
10.2265855778
 11
11.5287046275
 21
10.2265855778
  0
LINE
  5
3CA
100
AcDbEntity
  8
0
100
AcDbLine
 62
7
  6
CONTINUOUS
 10
11.5287046275
 20
10.4458880503
 11
11.5627682934
 21
10.3868880503
  0
LINE
  5
3CB
100
AcDbEntity
  8
03__ASM_ALL_CURVES
100
AcDbLine
 62
4
  6
CONTINUOUS
 10
12.4495122934
 20
11.2240200503
 11
12.4495122934
 21
11.1277560503
  0
LINE
  5
3CC
100
AcDbEntity
  8
03__ASM_ALL_CURVES
100
AcDbLine
 62
4
  6
CONTINUOUS
 10
12.5156937934
 20
11.1518220503
 11
12.5156937934
 21
11.1598440512
  0
LINE
  5
3CD
100
AcDbEntity
  8
03__ASM_ALL_CURVES
100
AcDbLine
 62
4
  6
CONTINUOUS
 10
12.5217102934
 20
11.1999540503
 11
12.5217102934
 21
11.2079760484
  0
LINE
  5
3CE
100
AcDbEntity
  8
03__ASM_ALL_CURVES
100
AcDbLine
 62
4
  6
CONTINUOUS
 10
12.5698422934
 20
11.2079760484
 11
12.5698422934
 21
11.1999540503
  0
LINE
  5
3CF
100
AcDbEntity
  8
03__ASM_ALL_CURVES
100
AcDbLine
 62
4
  6
CONTINUOUS
 10
12.5758587934
 20
11.1598440512
 11
12.5758587934
 21
11.1518220503
  0
LINE
  5
3D0
100
AcDbEntity
  8
03__ASM_ALL_CURVES
100
AcDbLine
 62
4
  6
CONTINUOUS
 10
13.2256407934
 20
11.1678660493
 11
13.2316572934
 21
11.1919320522
  0
LINE
  5
3D1
100
AcDbEntity
  8
03__ASM_ALL_CURVES
100
AcDbLine
 62
4
  6
CONTINUOUS
 10
13.3279212934
 20
11.1678660493
 11
13.3219047934
 21
11.1438000508
  0
LINE
  5
3D2
100
AcDbEntity
  8
03__ASM_ALL_CURVES
100
AcDbLine
 62
4
  6
CONTINUOUS
 10
11.5146362934
 20
6.3995320503
 11
11.5226582915
 21
6.4115650503
  0
LINE
  5
3D3
100
AcDbEntity
  8
03__ASM_ALL_CURVES
100
AcDbLine
 62
4
  6
CONTINUOUS
 10
11.6109002934
 20
6.3995320503
 11
11.6028782932
 21
6.3874990503
  0
LINE
  5
3D4
100
AcDbEntity
  8
03__ASM_ALL_CURVES
100
AcDbLine
 62
4
  6
CONTINUOUS
 10
11.5948562929
 20
6.8748355503
 11
11.6109002934
 21
6.8868685503
  0
LINE
  5
3D5
100
AcDbEntity
  8
0
100
AcDbLine
 62
7
  6
CONTINUOUS
 10
10.8437682934
 20
10.3843880503
 11
11.0317682934
 21
10.3843880503
  0
LINE
  5
3D6
100
AcDbEntity
  8
0
100
AcDbLine
 62
7
  6
CONTINUOUS
 10
11.0932682934
 20
10.4449905228
 11
11.5287046275
 21
10.4449905228
  0
LINE
  5
3D7
100
AcDbEntity
  8
0
100
AcDbLine
 62
7
  6
CONTINUOUS
 10
11.0932682934
 20
10.4458880503
 11
11.5287046275
 21
10.4458880503
  0
LINE
  5
3D8
100
AcDbEntity
  8
03__ASM_ALL_CURVES
100
AcDbLine
 62
4
  6
CONTINUOUS
 10
12.7262712934
 20
11.1839100484
 11
12.7262712934
 21
11.1678660493
  0
LINE
  5
3D9
100
AcDbEntity
  8
03__ASM_ALL_CURVES
100
AcDbLine
 62
4
  6
CONTINUOUS
 10
12.8044857934
 20
11.1518220503
 11
12.8044857934
 21
11.1598440512
  0
LINE
  5
3DA
100
AcDbEntity
  8
03__ASM_ALL_CURVES
100
AcDbLine
 62
4
  6
CONTINUOUS
 10
12.8105022934
 20
11.1999540503
 11
12.8105022934
 21
11.2079760484
  0
LINE
  5
3DB
100
AcDbEntity
  8
03__ASM_ALL_CURVES
100
AcDbLine
 62
4
  6
CONTINUOUS
 10
12.8586342934
 20
11.2079760484
 11
12.8586342934
 21
11.1999540503
  0
LINE
  5
3DC
100
AcDbEntity
  8
03__ASM_ALL_CURVES
100
AcDbLine
 62
4
  6
CONTINUOUS
 10
12.8646507934
 20
11.1598440512
 11
12.8646507934
 21
11.1518220503
  0
LINE
  5
3DD
100
AcDbEntity
  8
03__ASM_ALL_CURVES
100
AcDbLine
 62
4
  6
CONTINUOUS
 10
12.9067662934
 20
11.1598440512
 11
12.9067662934
 21
11.1919320522
  0
LINE
  5
3DE
100
AcDbEntity
  8
03__ASM_ALL_CURVES
100
AcDbLine
 62
4
  6
CONTINUOUS
 10
13.1233602934
 20
11.1277560503
 11
13.1293767934
 21
11.1678660493
  0
LINE
  5
3DF
100
AcDbEntity
  8
03__ASM_ALL_CURVES
100
AcDbLine
 62
4
  6
CONTINUOUS
 10
13.2196242934
 20
11.1277560503
 11
13.2256407934
 21
11.1678660493
  0
LINE
  5
3E0
100
AcDbEntity
  8
03__ASM_ALL_CURVES
100
AcDbLine
 62
4
  6
CONTINUOUS
 10
11.5988672931
 20
6.5108373003
 11
11.6109002934
 21
6.5198620503
  0
LINE
  5
3E1
100
AcDbEntity
  8
03__ASM_ALL_CURVES
100
AcDbLine
 62
4
  6
CONTINUOUS
 10
11.5226582915
 20
6.4115650503
 11
11.5306802953
 21
6.4175815503
  0
LINE
  5
3E2
100
AcDbEntity
  8
03__ASM_ALL_CURVES
100
AcDbLine
 62
4
  6
CONTINUOUS
 10
11.6028782932
 20
6.3874990503
 11
11.5948562929
 21
6.3814825503
  0
LINE
  5
3E3
100
AcDbEntity
  8
03__ASM_ALL_CURVES
100
AcDbLine
 62
4
  6
CONTINUOUS
 10
11.5306802953
 20
6.4175815503
 11
11.5467242915
 21
6.4235980503
  0
LINE
  5
3E4
100
AcDbEntity
  8
03__ASM_ALL_CURVES
100
AcDbLine
 62
4
  6
CONTINUOUS
 10
12.9548982934
 20
11.1919320522
 11
12.9548982934
 21
11.1598440512
  0
LINE
  5
3E5
100
AcDbEntity
  8
03__ASM_ALL_CURVES
100
AcDbLine
 62
4
  6
CONTINUOUS
 10
13.0421375434
 20
11.1277560503
 11
13.0421375434
 21
11.1397890506
  0
LINE
  5
3E6
100
AcDbEntity
  8
03__ASM_ALL_CURVES
100
AcDbLine
 62
4
  6
CONTINUOUS
 10
11.5948562929
 20
6.3814825503
 11
11.5788122925
 21
6.3754660503
  0
LINE
  5
3E7
100
AcDbEntity
  8
03__ASM_ALL_CURVES
100
AcDbLine
 62
4
  6
CONTINUOUS
 10
13.3279212934
 20
11.1839100484
 11
13.3279212934
 21
11.1678660493
  0
LINE
  5
3E8
100
AcDbEntity
  8
03__ASM_ALL_CURVES
100
AcDbLine
 62
4
  6
CONTINUOUS
 10
13.0511622934
 20
11.1277560503
 11
13.0421375434
 21
11.1277560503
  0
LINE
  5
3E9
100
AcDbEntity
  8
03__ASM_ALL_CURVES
100
AcDbLine
 62
4
  6
CONTINUOUS
 10
12.8405847934
 20
11.1277560503
 11
12.8285517934
 21
11.1277560503
  0
LINE
  5
3EA
100
AcDbEntity
  8
03__ASM_ALL_CURVES
100
AcDbLine
 62
4
  6
CONTINUOUS
 10
12.5517927934
 20
11.1277560503
 11
12.5397597934
 21
11.1277560503
  0
LINE
  5
3EB
100
AcDbEntity
  8
03__ASM_ALL_CURVES
100
AcDbLine
 62
4
  6
CONTINUOUS
 10
12.3773142934
 20
11.1277560503
 11
12.3682895434
 21
11.1277560503
  0
LINE
  5
3EC
100
AcDbEntity
  8
03__ASM_ALL_CURVES
100
AcDbLine
 62
4
  6
CONTINUOUS
 10
12.2630007934
 20
11.1277560503
 11
12.2509677934
 21
11.1277560503
  0
LINE
  5
3ED
100
AcDbEntity
  8
0
100
AcDbLine
 62
7
  6
CONTINUOUS
 10
9.8537573562
 20
11.159888014
 11
10.3337792307
 21
11.159888014
  0
LINE
  5
3EE
100
AcDbEntity
  8
0
100
AcDbLine
 62
7
  6
CONTINUOUS
 10
7.9057683297
 20
11.175888014
 11
10.8437682934
 21
11.175888014
  0
LINE
  5
3EF
100
AcDbEntity
  8
03__ASM_ALL_CURVES
100
AcDbLine
 62
4
  6
CONTINUOUS
 10
10.9400322934
 20
11.1758880503
 11
11.7275322934
 21
11.1758880503
  0
LINE
  5
3F0
100
AcDbEntity
  8
03__ASM_ALL_CURVES
100
AcDbLine
 62
4
  6
CONTINUOUS
 10
12.2509677934
 20
11.1839100484
 11
12.2630007934
 21
11.1839100484
  0
LINE
  5
3F1
100
AcDbEntity
  8
03__ASM_ALL_CURVES
100
AcDbLine
 62
4
  6
CONTINUOUS
 10
12.5397597934
 20
11.1839100484
 11
12.5517927934
 21
11.1839100484
  0
LINE
  5
3F2
100
AcDbEntity
  8
03__ASM_ALL_CURVES
100
AcDbLine
 62
4
  6
CONTINUOUS
 10
12.8285517934
 20
11.1839100484
 11
12.8405847934
 21
11.1839100484
  0
LINE
  5
3F3
100
AcDbEntity
  8
03__ASM_ALL_CURVES
100
AcDbLine
 62
4
  6
CONTINUOUS
 10
13.2436902934
 20
11.2240200503
 11
13.1955582934
 21
11.2240200503
  0
LINE
  5
3F4
100
AcDbEntity
  8
03__ASM_ALL_CURVES
100
AcDbLine
 62
4
  6
CONTINUOUS
 10
13.1474262934
 20
11.2240200503
 11
13.0992942934
 21
11.2240200503
  0
LINE
  5
3F5
100
AcDbEntity
  8
03__ASM_ALL_CURVES
100
AcDbLine
 62
4
  6
CONTINUOUS
 10
12.2509677934
 20
11.2240200503
 11
12.2630007934
 21
11.2240200503
  0
LINE
  5
3F6
100
AcDbEntity
  8
03__ASM_ALL_CURVES
100
AcDbLine
 62
4
  6
CONTINUOUS
 10
12.5397597934
 20
11.2240200503
 11
12.5517927934
 21
11.2240200503
  0
LINE
  5
3F7
100
AcDbEntity
  8
03__ASM_ALL_CURVES
100
AcDbLine
 62
4
  6
CONTINUOUS
 10
12.8285517934
 20
11.2240200503
 11
12.8405847934
 21
11.2240200503
  0
LINE
  5
3F8
100
AcDbEntity
  8
03__ASM_ALL_CURVES
100
AcDbLine
 62
4
  6
CONTINUOUS
 10
12.7262712934
 20
11.1678660493
 11
12.7322877934
 21
11.1438000508
  0
LINE
  5
3F9
100
AcDbEntity
  8
03__ASM_ALL_CURVES
100
AcDbLine
 62
4
  6
CONTINUOUS
 10
12.2509677934
 20
11.1277560503
 11
12.2389347934
 21
11.1357780505
  0
LINE
  5
3FA
100
AcDbEntity
  8
03__ASM_ALL_CURVES
100
AcDbLine
 62
4
  6
CONTINUOUS
 10
12.2389347934
 20
11.1357780505
 11
12.2329182934
 21
11.1438000508
  0
LINE
  5
3FB
100
AcDbEntity
  8
03__ASM_ALL_CURVES
100
AcDbLine
 62
4
  6
CONTINUOUS
 10
12.2750337934
 20
11.1758880503
 11
12.2870667934
 21
11.1598440512
  0
LINE
  5
3FC
100
AcDbEntity
  8
03__ASM_ALL_CURVES
100
AcDbLine
 62
4
  6
CONTINUOUS
 10
12.2750337934
 20
11.2159980522
 11
12.2810502934
 21
11.2079760484
  0
LINE
  5
3FD
100
AcDbEntity
  8
03__ASM_ALL_CURVES
100
AcDbLine
 62
4
  6
CONTINUOUS
 10
12.3682895434
 20
11.1397890506
 11
12.3773142934
 21
11.1277560503
  0
LINE
  5
3FE
100
AcDbEntity
  8
03__ASM_ALL_CURVES
100
AcDbLine
 62
4
  6
CONTINUOUS
 10
12.9127827934
 20
11.1438000508
 11
12.9067662934
 21
11.1598440512
  0
LINE
  5
3FF
100
AcDbEntity
  8
03__ASM_ALL_CURVES
100
AcDbLine
 62
4
  6
CONTINUOUS
 10
12.2630007934
 20
11.1839100484
 11
12.2750337934
 21
11.1758880503
  0
LINE
  5
400
100
AcDbEntity
  8
03__ASM_ALL_CURVES
100
AcDbLine
 62
4
  6
CONTINUOUS
 10
12.2630007934
 20
11.2240200503
 11
12.2750337934
 21
11.2159980522
  0
LINE
  5
401
100
AcDbEntity
  8
03__ASM_ALL_CURVES
100
AcDbLine
 62
4
  6
CONTINUOUS
 10
12.5397597934
 20
11.1277560503
 11
12.5277267934
 21
11.1357780505
  0
LINE
  5
402
100
AcDbEntity
  8
03__ASM_ALL_CURVES
100
AcDbLine
 62
4
  6
CONTINUOUS
 10
12.5397597934
 20
11.1839100484
 11
12.5277267934
 21
11.1919320522
  0
LINE
  5
403
100
AcDbEntity
  8
03__ASM_ALL_CURVES
100
AcDbLine
 62
4
  6
CONTINUOUS
 10
12.5517927934
 20
11.1839100484
 11
12.5638257934
 21
11.1758880503
  0
LINE
  5
404
100
AcDbEntity
  8
03__ASM_ALL_CURVES
100
AcDbLine
 62
4
  6
CONTINUOUS
 10
12.5517927934
 20
11.2240200503
 11
12.5638257934
 21
11.2159980522
  0
LINE
  5
405
100
AcDbEntity
  8
03__ASM_ALL_CURVES
100
AcDbLine
 62
4
  6
CONTINUOUS
 10
12.5277267934
 20
11.1357780505
 11
12.5156937934
 21
11.1518220503
  0
LINE
  5
406
100
AcDbEntity
  8
03__ASM_ALL_CURVES
100
AcDbLine
 62
4
  6
CONTINUOUS
 10
12.5277267934
 20
11.1919320522
 11
12.5217102934
 21
11.1999540503
  0
LINE
  5
407
100
AcDbEntity
  8
03__ASM_ALL_CURVES
100
AcDbLine
 62
4
  6
CONTINUOUS
 10
12.5638257934
 20
11.1758880503
 11
12.5758587934
 21
11.1598440512
  0
LINE
  5
408
100
AcDbEntity
  8
03__ASM_ALL_CURVES
100
AcDbLine
 62
4
  6
CONTINUOUS
 10
12.5638257934
 20
11.2159980522
 11
12.5698422934
 21
11.2079760484
  0
LINE
  5
409
100
AcDbEntity
  8
03__ASM_ALL_CURVES
100
AcDbLine
 62
4
  6
CONTINUOUS
 10
12.7322877934
 20
11.1438000508
 11
12.7443207934
 21
11.1277560503
  0
LINE
  5
40A
100
AcDbEntity
  8
03__ASM_ALL_CURVES
100
AcDbLine
 62
4
  6
CONTINUOUS
 10
12.8165187934
 20
11.1357780505
 11
12.8044857934
 21
11.1518220503
  0
LINE
  5
40B
100
AcDbEntity
  8
03__ASM_ALL_CURVES
100
AcDbLine
 62
4
  6
CONTINUOUS
 10
12.9488817934
 20
11.2079760484
 11
12.9548982934
 21
11.1919320522
  0
LINE
  5
40C
100
AcDbEntity
  8
03__ASM_ALL_CURVES
100
AcDbLine
 62
4
  6
CONTINUOUS
 10
13.3219047934
 20
11.2079760484
 11
13.3279212934
 21
11.1839100484
  0
LINE
  5
40D
100
AcDbEntity
  8
03__ASM_ALL_CURVES
100
AcDbLine
 62
4
  6
CONTINUOUS
 10
12.8285517934
 20
11.1277560503
 11
12.8165187934
 21
11.1357780505
  0
LINE
  5
40E
100
AcDbEntity
  8
03__ASM_ALL_CURVES
100
AcDbLine
 62
4
  6
CONTINUOUS
 10
12.8285517934
 20
11.1839100484
 11
12.8165187934
 21
11.1919320522
  0
LINE
  5
40F
100
AcDbEntity
  8
03__ASM_ALL_CURVES
100
AcDbLine
 62
4
  6
CONTINUOUS
 10
12.8405847934
 20
11.1839100484
 11
12.8526177934
 21
11.1758880503
  0
LINE
  5
410
100
AcDbEntity
  8
03__ASM_ALL_CURVES
100
AcDbLine
 62
4
  6
CONTINUOUS
 10
12.9308322934
 20
11.1277560503
 11
12.9187992934
 21
11.1357780505
  0
LINE
  5
411
100
AcDbEntity
  8
03__ASM_ALL_CURVES
100
AcDbLine
 62
4
  6
CONTINUOUS
 10
12.8405847934
 20
11.2240200503
 11
12.8526177934
 21
11.2159980522
  0
LINE
  5
412
100
AcDbEntity
  8
03__ASM_ALL_CURVES
100
AcDbLine
 62
4
  6
CONTINUOUS
 10
12.9308322934
 20
11.2240200503
 11
12.9428652934
 21
11.2159980522
  0
LINE
  5
413
100
AcDbEntity
  8
03__ASM_ALL_CURVES
100
AcDbLine
 62
4
  6
CONTINUOUS
 10
12.8165187934
 20
11.1919320522
 11
12.8105022934
 21
11.1999540503
  0
LINE
  5
414
100
AcDbEntity
  8
03__ASM_ALL_CURVES
100
AcDbLine
 62
4
  6
CONTINUOUS
 10
12.8526177934
 20
11.1758880503
 11
12.8646507934
 21
11.1598440512
  0
LINE
  5
415
100
AcDbEntity
  8
03__ASM_ALL_CURVES
100
AcDbLine
 62
4
  6
CONTINUOUS
 10
12.8526177934
 20
11.2159980522
 11
12.8586342934
 21
11.2079760484
  0
LINE
  5
416
100
AcDbEntity
  8
03__ASM_ALL_CURVES
100
AcDbLine
 62
4
  6
CONTINUOUS
 10
12.9187992934
 20
11.1357780505
 11
12.9127827934
 21
11.1438000508
  0
LINE
  5
417
100
AcDbEntity
  8
03__ASM_ALL_CURVES
100
AcDbLine
 62
4
  6
CONTINUOUS
 10
12.9428652934
 20
11.2159980522
 11
12.9488817934
 21
11.2079760484
  0
LINE
  5
418
100
AcDbEntity
  8
03__ASM_ALL_CURVES
100
AcDbLine
 62
4
  6
CONTINUOUS
 10
13.0421375434
 20
11.1397890506
 11
13.0511622934
 21
11.1277560503
  0
LINE
  5
419
100
AcDbEntity
  8
03__ASM_ALL_CURVES
100
AcDbLine
 62
4
  6
CONTINUOUS
 10
13.3098717934
 20
11.2240200503
 11
13.3219047934
 21
11.2079760484
  0
CIRCLE
  5
41A
100
AcDbEntity
  8
0
100
AcDbCircle
 62
7
  6
CONTINUOUS
 10
8.8437682934
 20
10.7688879492
 40
0.172
  0
CIRCLE
  5
41B
100
AcDbEntity
  8
0
100
AcDbCircle
 62
7
  6
CONTINUOUS
 10
8.8437682934
 20
8.3938880386
 40
0.172
  0
SPLINE
  5
41C
100
AcDbEntity
  8
0
100
AcDbSpline
 62
7
  6
CONTINUOUS
 70
0
 71
3
 72
51
 73
47
 74
45
 42
0.0000001
 43
0.0000001
 44
0.0000000001
 12
0.1103741919
 22
-0.4280303422
 32
0.0
 13
-0.1103741919
 23
-0.4280303422
 33
0.0
 40
0.0
 40
0.0
 40
0.0
 40
0.0
 40
0.0240642199
 40
0.0478799081
 40
0.0714721547
 40
0.0948647205
 40
0.1180795724
 40
0.1411371928
 40
0.164056482
 40
0.1868549145
 40
0.2095485562
 40
0.232152087
 40
0.2546788352
 40
0.2771407591
 40
0.2995485177
 40
0.3219115884
 40
0.3442382882
 40
0.3665358466
 40
0.3888104767
 40
0.411067414
 40
0.4333111747
 40
0.4555456502
 40
0.4777742388
 40
0.5
 40
0.5222257612
 40
0.5444543498
 40
0.5666888254
 40
0.588932586
 40
0.6111895233
 40
0.6334641534
 40
0.6557617118
 40
0.6780884116
 40
0.7004514823
 40
0.7228592409
 40
0.7453211648
 40
0.767847913
 40
0.7904514439
 40
0.8131450855
 40
0.835943518
 40
0.8588628072
 40
0.8819204276
 40
0.9051352795
 40
0.9285278453
 40
0.9521200919
 40
0.9759357801
 40
1.0
 40
1.0
 40
1.0
 40
1.0
 10
11.5287046275
 20
9.4252929953
 30
0.0
 10
11.5295899838
 20
9.4218595899
 30
0.0
 10
11.5313203856
 20
9.4150201542
 30
0.0
 10
11.5338072991
 20
9.4047868577
 30
0.0
 10
11.5361731123
 20
9.3946264581
 30
0.0
 10
11.5384194111
 20
9.3845296399
 30
0.0
 10
11.5405473819
 20
9.3744877244
 30
0.0
 10
11.5425578237
 20
9.3644927348
 30
0.0
 10
11.5444511863
 20
9.3545373498
 30
0.0
 10
11.5462276008
 20
9.3446149039
 30
0.0
 10
11.5478869146
 20
9.3347193693
 30
0.0
 10
11.5494287251
 20
9.3248453538
 30
0.0
 10
11.5508524158
 20
9.3149881043
 30
0.0
 10
11.5521571945
 20
9.3051435011
 30
0.0
 10
11.5533421362
 20
9.2953080398
 30
0.0
 10
11.5544062259
 20
9.2854788046
 30
0.0
 10
11.5553484024
 20
9.2756534406
 30
0.0
 10
11.5561676003
 20
9.26583013
 30
0.0
 10
11.5568627913
 20
9.256007565
 30
0.0
 10
11.5574330264
 20
9.2461848898
 30
0.0
 10
11.5578774729
 20
9.2363616386
 30
0.0
 10
11.5581954474
 20
9.2265376569
 30
0.0
 10
11.5583864415
 20
9.216713037
 30
0.0
 10
11.5584501416
 20
9.2068880503
 30
0.0
 10
11.5583864415
 20
9.1970630636
 30
0.0
 10
11.5581954474
 20
9.1872384437
 30
0.0
 10
11.5578774729
 20
9.177414462
 30
0.0
 10
11.5574330264
 20
9.1675912107
 30
0.0
 10
11.5568627913
 20
9.1577685356
 30
0.0
 10
11.5561676003
 20
9.1479459705
 30
0.0
 10
11.5553484024
 20
9.13812266
 30
0.0
 10
11.5544062259
 20
9.1282972959
 30
0.0
 10
11.5533421362
 20
9.1184680607
 30
0.0
 10
11.5521571945
 20
9.1086325994
 30
0.0
 10
11.5508524158
 20
9.0987879963
 30
0.0
 10
11.5494287251
 20
9.0889307468
 30
0.0
 10
11.5478869146
 20
9.0790567313
 30
0.0
 10
11.5462276008
 20
9.0691611966
 30
0.0
 10
11.5444511863
 20
9.0592387508
 30
0.0
 10
11.5425578237
 20
9.0492833657
 30
0.0
 10
11.5405473819
 20
9.0392883762
 30
0.0
 10
11.5384194111
 20
9.0292464607
 30
0.0
 10
11.5361731123
 20
9.0191496425
 30
0.0
 10
11.5338072991
 20
9.0089892428
 30
0.0
 10
11.5313203856
 20
8.9987559464
 30
0.0
 10
11.5295899838
 20
8.9919165107
 30
0.0
 10
11.5287046275
 20
8.9884831053
 30
0.0
 11
11.5287046275
 21
9.4252929953
 31
0.0
 11
11.5313131017
 21
9.4149806231
 31
0.0
 11
11.5337985594
 21
9.4047509335
 31
0.0
 11
11.5361630046
 21
9.3945939814
 31
0.0
 11
11.5384080387
 21
9.3845003728
 31
0.0
 11
11.5405348348
 21
9.3744614756
 31
0.0
 11
11.5425441924
 21
9.3644692974
 31
0.0
 11
11.5444365545
 21
9.3545165388
 31
0.0
 11
11.5462120498
 21
9.3445965361
 31
0.0
 11
11.5478705229
 21
9.3347032636
 31
0.0
 11
11.549411569
 21
9.3248313335
 31
0.0
 11
11.5508345699
 21
9.314975989
 31
0.0
 11
11.5521387306
 21
9.3051331195
 31
0.0
 11
11.5533231222
 21
9.2952992366
 31
0.0
 11
11.5543867283
 21
9.2854714264
 31
0.0
 11
11.5553284853
 21
9.2756473431
 31
0.0
 11
11.5561473255
 21
9.2658251779
 31
0.0
 11
11.5568422193
 21
9.2560036268
 31
0.0
 11
11.557412214
 21
9.2461818702
 31
0.0
 11
11.5578564754
 21
9.2363594541
 31
0.0
 11
11.5581743189
 21
9.2265362415
 31
0.0
 11
11.558365235
 21
9.2167123453
 31
0.0
 11
11.5584289092
 21
9.2068880503
 31
0.0
 11
11.558365235
 21
9.1970637553
 31
0.0
 11
11.5581743189
 21
9.187239859
 31
0.0
 11
11.5578564754
 21
9.1774166464
 31
0.0
 11
11.557412214
 21
9.1675942304
 31
0.0
 11
11.5568422193
 21
9.1577724738
 31
0.0
 11
11.5561473255
 21
9.1479509226
 31
0.0
 11
11.5553284853
 21
9.1381287574
 31
0.0
 11
11.5543867283
 21
9.1283046741
 31
0.0
 11
11.5533231222
 21
9.1184768639
 31
0.0
 11
11.5521387306
 21
9.108642981
 31
0.0
 11
11.5508345699
 21
9.0988001116
 31
0.0
 11
11.549411569
 21
9.088944767
 31
0.0
 11
11.5478705229
 21
9.0790728369
 31
0.0
 11
11.5462120498
 21
9.0691795645
 31
0.0
 11
11.5444365545
 21
9.0592595617
 31
0.0
 11
11.5425441924
 21
9.0493068031
 31
0.0
 11
11.5405348348
 21
9.0393146249
 31
0.0
 11
11.5384080387
 21
9.0292757277
 31
0.0
 11
11.5361630046
 21
9.0191821192
 31
0.0
 11
11.5337985594
 21
9.0090251671
 31
0.0
 11
11.5313131017
 21
8.9987954774
 31
0.0
 11
11.5287046275
 21
8.9884831053
 31
0.0
  0
SPLINE
  5
41D
100
AcDbEntity
  8
0
100
AcDbSpline
 62
7
  6
CONTINUOUS
 70
0
 71
3
 72
57
 73
53
 74
51
 42
0.0000001
 43
0.0000001
 44
0.0000000001
 12
-0.1844027707
 22
-0.4128704818
 32
0.0
 13
0.1844027707
 23
-0.4128704818
 33
0.0
 40
0.0
 40
0.0
 40
0.0
 40
0.0
 40
0.023097524
 40
0.0457565978
 40
0.0680083504
 40
0.0898823831
 40
0.1114063047
 40
0.1326061675
 40
0.1535063973
 40
0.1741301066
 40
0.1944991654
 40
0.2146342792
 40
0.2345550811
 40
0.2542801465
 40
0.2738270829
 40
0.2932127574
 40
0.3124532808
 40
0.3315640751
 40
0.3505599287
 40
0.3694549347
 40
0.3882627681
 40
0.4069967163
 40
0.4256696986
 40
0.4442943242
 40
0.4628828936
 40
0.4814474395
 40
0.5
 40
0.5185525605
 40
0.5371171064
 40
0.5557056758
 40
0.5743303015
 40
0.5930032837
 40
0.611737232
 40
0.6305450653
 40
0.6494400713
 40
0.6684359249
 40
0.6875467192
 40
0.7067872426
 40
0.7261729171
 40
0.7457198535
 40
0.7654449189
 40
0.7853657208
 40
0.8055008346
 40
0.8258698934
 40
0.8464936027
 40
0.8673938325
 40
0.8885936953
 40
0.9101176169
 40
0.9319916496
 40
0.9542434022
 40
0.976902476
 40
1.0
 40
1.0
 40
1.0
 40
1.0
 10
11.0932682934
 20
9.4252929953
 30
0.0
 10
11.0918485443
 20
9.4221142333
 30
0.0
 10
11.0890769334
 20
9.4157986638
 30
0.0
 10
11.0850842203
 20
9.4063572367
 30
0.0
 10
11.0812914592
 20
9.3970324842
 30
0.0
 10
11.0776927974
 20
9.3878145499
 30
0.0
 10
11.0742830185
 20
9.3786941536
 30
0.0
 10
11.0710575356
 20
9.3696626601
 30
0.0
 10
11.0680123239
 20
9.360711995
 30
0.0
 10
11.0651438792
 20
9.3518346215
 30
0.0
 10
11.0624491693
 20
9.3430234919
 30
0.0
 10
11.0599255971
 20
9.3342720297
 30
0.0
 10
11.0575709657
 20
9.3255741183
 30
0.0
 10
11.0553834421
 20
9.3169240878
 30
0.0
 10
11.0533615157
 20
9.3083166791
 30
0.0
 10
11.0515039601
 20
9.2997470116
 30
0.0
 10
11.0498097971
 20
9.2912105513
 30
0.0
 10
11.0482782673
 20
9.2827031031
 30
0.0
 10
11.046908801
 20
9.2742208076
 30
0.0
 10
11.0457009834
 20
9.2657601056
 30
0.0
 10
11.0446545243
 20
9.2573177035
 30
0.0
 10
11.043769229
 20
9.2488905243
 30
0.0
 10
11.0430449767
 20
9.24047569
 30
0.0
 10
11.042481701
 20
9.232070506
 30
0.0
 10
11.0420793715
 20
9.2236724413
 30
0.0
 10
11.0418379764
 20
9.2152790751
 30
0.0
 10
11.0417575116
 20
9.2068880503
 30
0.0
 10
11.0418379764
 20
9.1984970255
 30
0.0
 10
11.0420793715
 20
9.1901036592
 30
0.0
 10
11.042481701
 20
9.1817055945
 30
0.0
 10
11.0430449767
 20
9.1733004105
 30
0.0
 10
11.043769229
 20
9.1648855762
 30
0.0
 10
11.0446545243
 20
9.156458397
 30
0.0
 10
11.0457009834
 20
9.1480159949
 30
0.0
 10
11.046908801
 20
9.139555293
 30
0.0
 10
11.0482782673
 20
9.1310729975
 30
0.0
 10
11.0498097971
 20
9.1225655493
 30
0.0
 10
11.0515039601
 20
9.114029089
 30
0.0
 10
11.0533615157
 20
9.1054594214
 30
0.0
 10
11.0553834421
 20
9.0968520127
 30
0.0
 10
11.0575709657
 20
9.0882019822
 30
0.0
 10
11.0599255971
 20
9.0795040709
 30
0.0
 10
11.0624491693
 20
9.0707526086
 30
0.0
 10
11.0651438792
 20
9.061941479
 30
0.0
 10
11.0680123239
 20
9.0530641056
 30
0.0
 10
11.0710575356
 20
9.0441134404
 30
0.0
 10
11.0742830185
 20
9.0350819469
 30
0.0
 10
11.0776927974
 20
9.0259615507
 30
0.0
 10
11.0812914592
 20
9.0167436163
 30
0.0
 10
11.0850842203
 20
9.0074188638
 30
0.0
 10
11.0890769334
 20
8.9979774368
 30
0.0
 10
11.0918485443
 20
8.9916618672
 30
0.0
 10
11.0932682934
 20
8.9884831053
 30
0.0
 11
11.0932682934
 21
9.4252929953
 31
0.0
 11
11.0890721056
 21
9.4157287941
 31
0.0
 11
11.0850822388
 21
9.406291586
 31
0.0
 11
11.0812921656
 21
9.3969709128
 31
0.0
 11
11.0776960021
 21
9.3877568296
 31
0.0
 11
11.0742885626
 21
9.37864012
 31
0.0
 11
11.0710652597
 21
9.3696121349
 31
0.0
 11
11.0680220878
 21
9.3606648423
 31
0.0
 11
11.0651555484
 21
9.3517907134
 31
0.0
 11
11.062462615
 21
9.3429827097
 31
0.0
 11
11.0599406961
 21
9.3342342656
 31
0.0
 11
11.0575875967
 21
9.3255392648
 31
0.0
 11
11.0554014883
 21
9.3168920481
 31
0.0
 11
11.0533808691
 21
9.3082873876
 31
0.0
 11
11.0515245117
 21
9.299720398
 31
0.0
 11
11.0498314399
 21
9.2911865528
 31
0.0
 11
11.0483008954
 21
9.2826816624
 31
0.0
 11
11.0469323064
 21
9.2742018553
 31
0.0
 11
11.0457252641
 21
9.2657436105
 31
0.0
 11
11.0446794777
 21
9.2573036357
 31
0.0
 11
11.0437947517
 21
9.2488788531
 31
0.0
 11
11.0430709653
 21
9.2404663899
 31
0.0
 11
11.0425080516
 21
9.2320635475
 31
0.0
 11
11.0421059801
 21
9.2236677972
 31
0.0
 11
11.0418647403
 21
9.2152767548
 31
0.0
 11
11.0417843274
 21
9.2068880503
 31
0.0
 11
11.0418647403
 21
9.1984993457
 31
0.0
 11
11.0421059801
 21
9.1901083033
 31
0.0
 11
11.0425080516
 21
9.181712553
 31
0.0
 11
11.0430709653
 21
9.1733097106
 31
0.0
 11
11.0437947517
 21
9.1648972474
 31
0.0
 11
11.0446794777
 21
9.1564724649
 31
0.0
 11
11.0457252641
 21
9.14803249
 31
0.0
 11
11.0469323064
 21
9.1395742452
 31
0.0
 11
11.0483008954
 21
9.1310944382
 31
0.0
 11
11.0498314399
 21
9.1225895477
 31
0.0
 11
11.0515245117
 21
9.1140557026
 31
0.0
 11
11.0533808691
 21
9.1054887129
 31
0.0
 11
11.0554014883
 21
9.0968840524
 31
0.0
 11
11.0575875967
 21
9.0882368357
 31
0.0
 11
11.0599406961
 21
9.0795418349
 31
0.0
 11
11.062462615
 21
9.0707933909
 31
0.0
 11
11.0651555484
 21
9.0619853871
 31
0.0
 11
11.0680220878
 21
9.0531112582
 31
0.0
 11
11.0710652597
 21
9.0441639657
 31
0.0
 11
11.0742885626
 21
9.0351359806
 31
0.0
 11
11.0776960021
 21
9.0260192709
 31
0.0
 11
11.0812921656
 21
9.0168051877
 31
0.0
 11
11.0850822388
 21
9.0074845145
 31
0.0
 11
11.0890721056
 21
8.9980473065
 31
0.0
 11
11.0932682934
 21
8.9884831053
 31
0.0
  0
SPLINE
  5
41E
100
AcDbEntity
  8
0
100
AcDbSpline
 62
7
  6
CONTINUOUS
 70
0
 71
3
 72
51
 73
47
 74
45
 42
0.0000001
 43
0.0000001
 44
0.0000000001
 12
0.104762157
 22
-0.203133455
 32
0.0
 13
-0.104762157
 23
-0.203133455
 33
0.0
 40
0.0
 40
0.0
 40
0.0
 40
0.0
 40
0.0252822779
 40
0.0501633825
 40
0.0746733327
 40
0.0988407073
 40
0.1226922322
 40
0.1462531736
 40
0.1695473106
 40
0.1925971662
 40
0.2154240933
 40
0.2380483625
 40
0.2604892569
 40
0.2827651071
 40
0.3048934067
 40
0.326890961
 40
0.3487739283
 40
0.3705578955
 40
0.3922579379
 40
0.4138886308
 40
0.4354642568
 40
0.4569988388
 40
0.478506194
 40
0.5
 40
0.521493806
 40
0.5430011612
 40
0.5645357432
 40
0.5861113692
 40
0.6077420621
 40
0.6294421045
 40
0.6512260717
 40
0.673109039
 40
0.6951065934
 40
0.717234893
 40
0.7395107432
 40
0.7619516375
 40
0.7845759067
 40
0.8074028338
 40
0.8304526894
 40
0.8537468264
 40
0.8773077678
 40
0.9011592927
 40
0.9253266673
 40
0.9498366175
 40
0.9747177221
 40
1.0
 40
1.0
 40
1.0
 40
1.0
 10
11.5287046275
 20
8.9371905228
 30
0.0
 10
11.5295875029
 20
8.9354786306
 30
0.0
 10
11.5313132357
 20
8.9320685142
 30
0.0
 10
11.5338005009
 20
8.9269517373
 30
0.0
 10
11.5361666834
 20
8.9218713717
 30
0.0
 10
11.538413364
 20
8.9168227646
 30
0.0
 10
11.5405417306
 20
8.9118015681
 30
0.0
 10
11.5425525813
 20
8.9068037888
 30
0.0
 10
11.5444463648
 20
8.9018257598
 30
0.0
 10
11.5462232102
 20
8.896864143
 30
0.0
 10
11.5478829622
 20
8.8919159187
 30
0.0
 10
11.5494252149
 20
8.8869783861
 30
0.0
 10
11.5508493473
 20
8.8820491643
 30
0.0
 10
11.5521545623
 20
8.8771261903
 30
0.0
 10
11.5533399289
 20
8.87220771
 30
0.0
 10
11.5544044258
 20
8.8672922651
 30
0.0
 10
11.5553469846
 20
8.8623786796
 30
0.0
 10
11.5561665329
 20
8.8574660478
 30
0.0
 10
11.5568620353
 20
8.8525537212
 30
0.0
 10
11.5574325359
 20
8.8476412793
 30
0.0
 10
11.5578771959
 20
8.8427284985
 30
0.0
 10
11.5581953269
 20
8.8378153125
 30
0.0
 10
11.5583864166
 20
8.8329017801
 30
0.0
 10
11.5584501488
 20
8.8279880503
 30
0.0
 10
11.5583864166
 20
8.8230743204
 30
0.0
 10
11.5581953269
 20
8.818160788
 30
0.0
 10
11.5578771959
 20
8.8132476021
 30
0.0
 10
11.5574325359
 20
8.8083348212
 30
0.0
 10
11.5568620353
 20
8.8034223793
 30
0.0
 10
11.5561665329
 20
8.7985100527
 30
0.0
 10
11.5553469846
 20
8.793597421
 30
0.0
 10
11.5544044258
 20
8.7886838354
 30
0.0
 10
11.5533399289
 20
8.7837683906
 30
0.0
 10
11.5521545623
 20
8.7788499102
 30
0.0
 10
11.5508493473
 20
8.7739269363
 30
0.0
 10
11.5494252149
 20
8.7689977145
 30
0.0
 10
11.5478829622
 20
8.7640601819
 30
0.0
 10
11.5462232102
 20
8.7591119576
 30
0.0
 10
11.5444463648
 20
8.7541503407
 30
0.0
 10
11.5425525813
 20
8.7491723118
 30
0.0
 10
11.5405417306
 20
8.7441745325
 30
0.0
 10
11.538413364
 20
8.739153336
 30
0.0
 10
11.5361666834
 20
8.7341047288
 30
0.0
 10
11.5338005009
 20
8.7290243632
 30
0.0
 10
11.5313132357
 20
8.7239075863
 30
0.0
 10
11.5295875029
 20
8.7204974699
 30
0.0
 10
11.5287046275
 20
8.7187855778
 30
0.0
 11
11.5287046275
 21
8.9371905228
 31
0.0
 11
11.5313131017
 21
8.9320343367
 31
0.0
 11
11.5337985594
 21
8.9269194919
 31
0.0
 11
11.5361630046
 21
8.9218410158
 31
0.0
 11
11.5384080387
 21
8.9167942115
 31
0.0
 11
11.5405348348
 21
8.9117747629
 31
0.0
 11
11.5425441924
 21
8.9067786739
 31
0.0
 11
11.5444365545
 21
8.9018022945
 31
0.0
 11
11.5462120498
 21
8.8968422932
 31
0.0
 11
11.5478705229
 21
8.8918956569
 31
0.0
 11
11.549411569
 21
8.8869596919
 31
0.0
 11
11.5508345699
 21
8.8820320196
 31
0.0
 11
11.5521387306
 21
8.8771105849
 31
0.0
 11
11.5533231222
 21
8.8721936434
 31
0.0
 11
11.5543867283
 21
8.8672797384
 31
0.0
 11
11.5553284853
 21
8.8623676967
 31
0.0
 11
11.5561473255
 21
8.8574566141
 31
0.0
 11
11.5568422193
 21
8.8525458385
 31
0.0
 11
11.557412214
 21
8.8476349602
 31
0.0
 11
11.5578564754
 21
8.8427237522
 31
0.0
 11
11.5581743189
 21
8.8378121459
 31
0.0
 11
11.558365235
 21
8.8329001978
 31
0.0
 11
11.5584289092
 21
8.8279880503
 31
0.0
 11
11.558365235
 21
8.8230759028
 31
0.0
 11
11.5581743189
 21
8.8181639546
 31
0.0
 11
11.5578564754
 21
8.8132523483
 31
0.0
 11
11.557412214
 21
8.8083411403
 31
0.0
 11
11.5568422193
 21
8.803430262
 31
0.0
 11
11.5561473255
 21
8.7985194865
 31
0.0
 11
11.5553284853
 21
8.7936084039
 31
0.0
 11
11.5543867283
 21
8.7886963622
 31
0.0
 11
11.5533231222
 21
8.7837824571
 31
0.0
 11
11.5521387306
 21
8.7788655156
 31
0.0
 11
11.5508345699
 21
8.7739440809
 31
0.0
 11
11.549411569
 21
8.7690164086
 31
0.0
 11
11.5478705229
 21
8.7640804436
 31
0.0
 11
11.5462120498
 21
8.7591338074
 31
0.0
 11
11.5444365545
 21
8.754173806
 31
0.0
 11
11.5425441924
 21
8.7491974267
 31
0.0
 11
11.5405348348
 21
8.7442013376
 31
0.0
 11
11.5384080387
 21
8.739181889
 31
0.0
 11
11.5361630046
 21
8.7341350847
 31
0.0
 11
11.5337985594
 21
8.7290566087
 31
0.0
 11
11.5313131017
 21
8.7239417638
 31
0.0
 11
11.5287046275
 21
8.7187855778
 31
0.0
  0
SPLINE
  5
41F
100
AcDbEntity
  8
0
100
AcDbSpline
 62
7
  6
CONTINUOUS
 70
0
 71
3
 72
57
 73
53
 74
51
 42
0.0000001
 43
0.0000001
 44
0.0000000001
 12
-0.1645242793
 22
-0.1841816645
 32
0.0
 13
0.1645242793
 23
-0.1841816645
 33
0.0
 40
0.0
 40
0.0
 40
0.0
 40
0.0
 40
0.0257613158
 40
0.0507825586
 40
0.0751057388
 40
0.0987708184
 40
0.1218153071
 40
0.1442748474
 40
0.1661832508
 40
0.187572941
 40
0.2084751336
 40
0.2289200229
 40
0.24893698
 40
0.2685546681
 40
0.2878012287
 40
0.3067045905
 40
0.3252925238
 40
0.3435927653
 40
0.3616331147
 40
0.3794414026
 40
0.3970457584
 40
0.4144746192
 40
0.431756706
 40
0.4489210166
 40
0.4659967425
 40
0.4830132075
 40
0.5
 40
0.5169867925
 40
0.5340032575
 40
0.5510789835
 40
0.568243294
 40
0.5855253808
 40
0.6029542416
 40
0.6205585974
 40
0.6383668853
 40
0.6564072347
 40
0.6747074763
 40
0.6932954095
 40
0.7121987713
 40
0.7314453319
 40
0.75106302
 40
0.7710799771
 40
0.7915248664
 40
0.812427059
 40
0.8338167492
 40
0.8557251526
 40
0.8781846929
 40
0.9012291816
 40
0.9248942612
 40
0.9492174414
 40
0.9742386842
 40
1.0
 40
1.0
 40
1.0
 40
1.0
 10
11.0932682934
 20
8.9371905228
 30
0.0
 10
11.0918555061
 20
8.9356089354
 30
0.0
 10
11.089097371
 20
8.932467066
 30
0.0
 10
11.0851039839
 20
8.9277464577
 30
0.0
 10
11.0813105051
 20
8.9230841525
 30
0.0
 10
11.0777110855
 20
8.9184752216
 30
0.0
 10
11.0743005035
 20
8.9139150138
 30
0.0
 10
11.0710741701
 20
8.9093992019
 30
0.0
 10
11.0680280591
 20
8.9049237375
 30
0.0
 10
11.065158666
 20
8.900484841
 30
0.0
 10
11.0624629599
 20
8.8960789762
 30
0.0
 10
11.0599383466
 20
8.8917028425
 30
0.0
 10
11.057582634
 20
8.887353369
 30
0.0
 10
11.0553939962
 20
8.8830277082
 30
0.0
 10
11.0533709321
 20
8.8787232195
 30
0.0
 10
11.0515122272
 20
8.8744374523
 30
0.0
 10
11.0498169179
 20
8.8701681318
 30
0.0
 10
11.0482842615
 20
8.8659131548
 30
0.0
 10
11.0469137068
 20
8.8616705891
 30
0.0
 10
11.0457048596
 20
8.8574386567
 30
0.0
 10
11.0446574509
 20
8.8532157167
 30
0.0
 10
11.043771307
 20
8.8490002412
 30
0.0
 10
11.0430463278
 20
8.8447908063
 30
0.0
 10
11.0424824651
 20
8.8405860845
 30
0.0
 10
11.0420797043
 20
8.8363848342
 30
0.0
 10
11.0418380454
 20
8.8321858724
 30
0.0
 10
11.0417574919
 20
8.8279880503
 30
0.0
 10
11.0418380454
 20
8.8237902282
 30
0.0
 10
11.0420797043
 20
8.8195912663
 30
0.0
 10
11.0424824651
 20
8.8153900161
 30
0.0
 10
11.0430463278
 20
8.8111852943
 30
0.0
 10
11.043771307
 20
8.8069758594
 30
0.0
 10
11.0446574509
 20
8.8027603839
 30
0.0
 10
11.0457048597
 20
8.7985374439
 30
0.0
 10
11.0469137068
 20
8.7943055114
 30
0.0
 10
11.0482842615
 20
8.7900629458
 30
0.0
 10
11.0498169179
 20
8.7858079687
 30
0.0
 10
11.0515122272
 20
8.7815386482
 30
0.0
 10
11.0533709321
 20
8.7772528811
 30
0.0
 10
11.0553939962
 20
8.7729483923
 30
0.0
 10
11.057582634
 20
8.7686227316
 30
0.0
 10
11.0599383466
 20
8.764273258
 30
0.0
 10
11.0624629599
 20
8.7598971243
 30
0.0
 10
11.065158666
 20
8.7554912596
 30
0.0
 10
11.0680280591
 20
8.751052363
 30
0.0
 10
11.0710741701
 20
8.7465768987
 30
0.0
 10
11.0743005035
 20
8.7420610867
 30
0.0
 10
11.0777110855
 20
8.737500879
 30
0.0
 10
11.0813105051
 20
8.7328919481
 30
0.0
 10
11.0851039839
 20
8.7282296428
 30
0.0
 10
11.089097371
 20
8.7235090345
 30
0.0
 10
11.0918555061
 20
8.7203671651
 30
0.0
 10
11.0932682934
 20
8.7187855778
 30
0.0
 11
11.0932682934
 21
8.9371905228
 31
0.0
 11
11.0890721056
 21
8.9324084222
 31
0.0
 11
11.0850822388
 21
8.9276898181
 31
0.0
 11
11.0812921656
 21
8.9230294816
 31
0.0
 11
11.0776960021
 21
8.9184224399
 31
0.0
 11
11.0742885626
 21
8.9138640851
 31
0.0
 11
11.0710652597
 21
8.9093500926
 31
0.0
 11
11.0680220878
 21
8.9048764463
 31
0.0
 11
11.0651555484
 21
8.9004393819
 31
0.0
 11
11.062462615
 21
8.89603538
 31
0.0
 11
11.0599406961
 21
8.8916611579
 31
0.0
 11
11.0575875967
 21
8.8873136575
 31
0.0
 11
11.0554014883
 21
8.8829900492
 31
0.0
 11
11.0533808691
 21
8.8786877189
 31
0.0
 11
11.0515245117
 21
8.8744042241
 31
0.0
 11
11.0498314399
 21
8.8701373015
 31
0.0
 11
11.0483008954
 21
8.8658848563
 31
0.0
 11
11.0469323064
 21
8.8616449528
 31
0.0
 11
11.0457252641
 21
8.8574158304
 31
0.0
 11
11.0446794777
 21
8.853195843
 31
0.0
 11
11.0437947517
 21
8.8489834517
 31
0.0
 11
11.0430709653
 21
8.8447772201
 31
0.0
 11
11.0425080516
 21
8.8405757989
 31
0.0
 11
11.0421059801
 21
8.8363779237
 31
0.0
 11
11.0418647403
 21
8.8321824025
 31
0.0
 11
11.0417843274
 21
8.8279880503
 31
0.0
 11
11.0418647403
 21
8.823793698
 31
0.0
 11
11.0421059801
 21
8.8195981768
 31
0.0
 11
11.0425080516
 21
8.8154003016
 31
0.0
 11
11.0430709653
 21
8.8111988805
 31
0.0
 11
11.0437947517
 21
8.8069926488
 31
0.0
 11
11.0446794777
 21
8.8027802576
 31
0.0
 11
11.0457252641
 21
8.7985602701
 31
0.0
 11
11.0469323064
 21
8.7943311477
 31
0.0
 11
11.0483008954
 21
8.7900912442
 31
0.0
 11
11.0498314399
 21
8.785838799
 31
0.0
 11
11.0515245117
 21
8.7815718764
 31
0.0
 11
11.0533808691
 21
8.7772883816
 31
0.0
 11
11.0554014883
 21
8.7729860513
 31
0.0
 11
11.0575875967
 21
8.768662443
 31
0.0
 11
11.0599406961
 21
8.7643149426
 31
0.0
 11
11.062462615
 21
8.7599407206
 31
0.0
 11
11.0651555484
 21
8.7555367187
 31
0.0
 11
11.0680220878
 21
8.7510996543
 31
0.0
 11
11.0710652597
 21
8.746626008
 31
0.0
 11
11.0742885626
 21
8.7421120154
 31
0.0
 11
11.0776960021
 21
8.7375536606
 31
0.0
 11
11.0812921656
 21
8.732946619
 31
0.0
 11
11.0850822388
 21
8.7282862824
 31
0.0
 11
11.0890721056
 21
8.7235676784
 31
0.0
 11
11.0932682934
 21
8.7187855778
 31
0.0
  0
SPLINE
  5
420
100
AcDbEntity
  8
0
100
AcDbSpline
 62
7
  6
CONTINUOUS
 70
0
 71
3
 72
51
 73
47
 74
45
 42
0.0000001
 43
0.0000001
 44
0.0000000001
 12
0.1103741919
 22
-0.4280303422
 32
0.0
 13
-0.1103741919
 23
-0.4280303422
 33
0.0
 40
0.0
 40
0.0
 40
0.0
 40
0.0
 40
0.0240642199
 40
0.0478799081
 40
0.0714721547
 40
0.0948647205
 40
0.1180795724
 40
0.1411371928
 40
0.164056482
 40
0.1868549145
 40
0.2095485562
 40
0.232152087
 40
0.2546788352
 40
0.2771407591
 40
0.2995485177
 40
0.3219115884
 40
0.3442382882
 40
0.3665358466
 40
0.3888104767
 40
0.411067414
 40
0.4333111747
 40
0.4555456502
 40
0.4777742388
 40
0.5
 40
0.5222257612
 40
0.5444543498
 40
0.5666888254
 40
0.588932586
 40
0.6111895233
 40
0.6334641534
 40
0.6557617118
 40
0.6780884116
 40
0.7004514823
 40
0.7228592409
 40
0.7453211648
 40
0.767847913
 40
0.7904514439
 40
0.8131450855
 40
0.835943518
 40
0.8588628072
 40
0.8819204276
 40
0.9051352795
 40
0.9285278453
 40
0.9521200919
 40
0.9759357801
 40
1.0
 40
1.0
 40
1.0
 40
1.0
 10
11.5287046275
 20
10.1752929953
 30
0.0
 10
11.5295899838
 20
10.1718595899
 30
0.0
 10
11.5313203856
 20
10.1650201542
 30
0.0
 10
11.5338072991
 20
10.1547868577
 30
0.0
 10
11.5361731123
 20
10.1446264581
 30
0.0
 10
11.5384194111
 20
10.1345296399
 30
0.0
 10
11.5405473819
 20
10.1244877244
 30
0.0
 10
11.5425578237
 20
10.1144927348
 30
0.0
 10
11.5444511863
 20
10.1045373498
 30
0.0
 10
11.5462276008
 20
10.0946149039
 30
0.0
 10
11.5478869146
 20
10.0847193693
 30
0.0
 10
11.5494287251
 20
10.0748453538
 30
0.0
 10
11.5508524158
 20
10.0649881043
 30
0.0
 10
11.5521571945
 20
10.0551435011
 30
0.0
 10
11.5533421362
 20
10.0453080398
 30
0.0
 10
11.5544062259
 20
10.0354788046
 30
0.0
 10
11.5553484024
 20
10.0256534406
 30
0.0
 10
11.5561676003
 20
10.01583013
 30
0.0
 10
11.5568627913
 20
10.006007565
 30
0.0
 10
11.5574330264
 20
9.9961848898
 30
0.0
 10
11.5578774729
 20
9.9863616386
 30
0.0
 10
11.5581954474
 20
9.9765376569
 30
0.0
 10
11.5583864415
 20
9.966713037
 30
0.0
 10
11.5584501416
 20
9.9568880503
 30
0.0
 10
11.5583864415
 20
9.9470630636
 30
0.0
 10
11.5581954474
 20
9.9372384437
 30
0.0
 10
11.5578774729
 20
9.927414462
 30
0.0
 10
11.5574330264
 20
9.9175912107
 30
0.0
 10
11.5568627913
 20
9.9077685356
 30
0.0
 10
11.5561676003
 20
9.8979459705
 30
0.0
 10
11.5553484024
 20
9.88812266
 30
0.0
 10
11.5544062259
 20
9.8782972959
 30
0.0
 10
11.5533421362
 20
9.8684680607
 30
0.0
 10
11.5521571945
 20
9.8586325994
 30
0.0
 10
11.5508524158
 20
9.8487879963
 30
0.0
 10
11.5494287251
 20
9.8389307468
 30
0.0
 10
11.5478869146
 20
9.8290567313
 30
0.0
 10
11.5462276008
 20
9.8191611966
 30
0.0
 10
11.5444511863
 20
9.8092387508
 30
0.0
 10
11.5425578237
 20
9.7992833657
 30
0.0
 10
11.5405473819
 20
9.7892883762
 30
0.0
 10
11.5384194111
 20
9.7792464607
 30
0.0
 10
11.5361731123
 20
9.7691496425
 30
0.0
 10
11.5338072991
 20
9.7589892428
 30
0.0
 10
11.5313203856
 20
9.7487559464
 30
0.0
 10
11.5295899838
 20
9.7419165107
 30
0.0
 10
11.5287046275
 20
9.7384831053
 30
0.0
 11
11.5287046275
 21
10.1752929953
 31
0.0
 11
11.5313131017
 21
10.1649806231
 31
0.0
 11
11.5337985594
 21
10.1547509335
 31
0.0
 11
11.5361630046
 21
10.1445939814
 31
0.0
 11
11.5384080387
 21
10.1345003728
 31
0.0
 11
11.5405348348
 21
10.1244614756
 31
0.0
 11
11.5425441924
 21
10.1144692974
 31
0.0
 11
11.5444365545
 21
10.1045165388
 31
0.0
 11
11.5462120498
 21
10.0945965361
 31
0.0
 11
11.5478705229
 21
10.0847032636
 31
0.0
 11
11.549411569
 21
10.0748313335
 31
0.0
 11
11.5508345699
 21
10.064975989
 31
0.0
 11
11.5521387306
 21
10.0551331195
 31
0.0
 11
11.5533231222
 21
10.0452992366
 31
0.0
 11
11.5543867283
 21
10.0354714264
 31
0.0
 11
11.5553284853
 21
10.0256473431
 31
0.0
 11
11.5561473255
 21
10.0158251779
 31
0.0
 11
11.5568422193
 21
10.0060036268
 31
0.0
 11
11.557412214
 21
9.9961818702
 31
0.0
 11
11.5578564754
 21
9.9863594541
 31
0.0
 11
11.5581743189
 21
9.9765362415
 31
0.0
 11
11.558365235
 21
9.9667123453
 31
0.0
 11
11.5584289092
 21
9.9568880503
 31
0.0
 11
11.558365235
 21
9.9470637553
 31
0.0
 11
11.5581743189
 21
9.937239859
 31
0.0
 11
11.5578564754
 21
9.9274166464
 31
0.0
 11
11.557412214
 21
9.9175942304
 31
0.0
 11
11.5568422193
 21
9.9077724738
 31
0.0
 11
11.5561473255
 21
9.8979509226
 31
0.0
 11
11.5553284853
 21
9.8881287574
 31
0.0
 11
11.5543867283
 21
9.8783046741
 31
0.0
 11
11.5533231222
 21
9.8684768639
 31
0.0
 11
11.5521387306
 21
9.858642981
 31
0.0
 11
11.5508345699
 21
9.8488001116
 31
0.0
 11
11.549411569
 21
9.838944767
 31
0.0
 11
11.5478705229
 21
9.8290728369
 31
0.0
 11
11.5462120498
 21
9.8191795645
 31
0.0
 11
11.5444365545
 21
9.8092595617
 31
0.0
 11
11.5425441924
 21
9.7993068031
 31
0.0
 11
11.5405348348
 21
9.7893146249
 31
0.0
 11
11.5384080387
 21
9.7792757277
 31
0.0
 11
11.5361630046
 21
9.7691821192
 31
0.0
 11
11.5337985594
 21
9.7590251671
 31
0.0
 11
11.5313131017
 21
9.7487954774
 31
0.0
 11
11.5287046275
 21
9.7384831053
 31
0.0
  0
SPLINE
  5
421
100
AcDbEntity
  8
0
100
AcDbSpline
 62
7
  6
CONTINUOUS
 70
0
 71
3
 72
57
 73
53
 74
51
 42
0.0000001
 43
0.0000001
 44
0.0000000001
 12
-0.1844027707
 22
-0.4128704818
 32
0.0
 13
0.1844027707
 23
-0.4128704818
 33
0.0
 40
0.0
 40
0.0
 40
0.0
 40
0.0
 40
0.023097524
 40
0.0457565978
 40
0.0680083504
 40
0.0898823831
 40
0.1114063047
 40
0.1326061675
 40
0.1535063973
 40
0.1741301066
 40
0.1944991654
 40
0.2146342792
 40
0.2345550811
 40
0.2542801465
 40
0.2738270829
 40
0.2932127574
 40
0.3124532808
 40
0.3315640751
 40
0.3505599287
 40
0.3694549347
 40
0.3882627681
 40
0.4069967163
 40
0.4256696986
 40
0.4442943242
 40
0.4628828936
 40
0.4814474395
 40
0.5
 40
0.5185525605
 40
0.5371171064
 40
0.5557056758
 40
0.5743303015
 40
0.5930032837
 40
0.611737232
 40
0.6305450653
 40
0.6494400713
 40
0.6684359249
 40
0.6875467192
 40
0.7067872426
 40
0.7261729171
 40
0.7457198535
 40
0.7654449189
 40
0.7853657208
 40
0.8055008346
 40
0.8258698934
 40
0.8464936027
 40
0.8673938325
 40
0.8885936953
 40
0.9101176169
 40
0.9319916496
 40
0.9542434022
 40
0.976902476
 40
1.0
 40
1.0
 40
1.0
 40
1.0
 10
11.0932682934
 20
10.1752929953
 30
0.0
 10
11.0918485443
 20
10.1721142333
 30
0.0
 10
11.0890769334
 20
10.1657986638
 30
0.0
 10
11.0850842203
 20
10.1563572367
 30
0.0
 10
11.0812914592
 20
10.1470324842
 30
0.0
 10
11.0776927974
 20
10.1378145499
 30
0.0
 10
11.0742830185
 20
10.1286941536
 30
0.0
 10
11.0710575356
 20
10.1196626601
 30
0.0
 10
11.0680123239
 20
10.110711995
 30
0.0
 10
11.0651438792
 20
10.1018346215
 30
0.0
 10
11.0624491693
 20
10.0930234919
 30
0.0
 10
11.0599255971
 20
10.0842720297
 30
0.0
 10
11.0575709657
 20
10.0755741183
 30
0.0
 10
11.0553834421
 20
10.0669240878
 30
0.0
 10
11.0533615157
 20
10.0583166791
 30
0.0
 10
11.0515039601
 20
10.0497470116
 30
0.0
 10
11.0498097971
 20
10.0412105513
 30
0.0
 10
11.0482782673
 20
10.0327031031
 30
0.0
 10
11.046908801
 20
10.0242208076
 30
0.0
 10
11.0457009834
 20
10.0157601056
 30
0.0
 10
11.0446545243
 20
10.0073177035
 30
0.0
 10
11.043769229
 20
9.9988905243
 30
0.0
 10
11.0430449767
 20
9.99047569
 30
0.0
 10
11.042481701
 20
9.982070506
 30
0.0
 10
11.0420793715
 20
9.9736724413
 30
0.0
 10
11.0418379764
 20
9.9652790751
 30
0.0
 10
11.0417575116
 20
9.9568880503
 30
0.0
 10
11.0418379764
 20
9.9484970255
 30
0.0
 10
11.0420793715
 20
9.9401036592
 30
0.0
 10
11.042481701
 20
9.9317055945
 30
0.0
 10
11.0430449767
 20
9.9233004105
 30
0.0
 10
11.043769229
 20
9.9148855762
 30
0.0
 10
11.0446545243
 20
9.906458397
 30
0.0
 10
11.0457009834
 20
9.8980159949
 30
0.0
 10
11.046908801
 20
9.889555293
 30
0.0
 10
11.0482782673
 20
9.8810729975
 30
0.0
 10
11.0498097971
 20
9.8725655493
 30
0.0
 10
11.0515039601
 20
9.864029089
 30
0.0
 10
11.0533615157
 20
9.8554594214
 30
0.0
 10
11.0553834421
 20
9.8468520127
 30
0.0
 10
11.0575709657
 20
9.8382019822
 30
0.0
 10
11.0599255971
 20
9.8295040709
 30
0.0
 10
11.0624491693
 20
9.8207526086
 30
0.0
 10
11.0651438792
 20
9.811941479
 30
0.0
 10
11.0680123239
 20
9.8030641056
 30
0.0
 10
11.0710575356
 20
9.7941134404
 30
0.0
 10
11.0742830185
 20
9.7850819469
 30
0.0
 10
11.0776927974
 20
9.7759615507
 30
0.0
 10
11.0812914592
 20
9.7667436163
 30
0.0
 10
11.0850842203
 20
9.7574188638
 30
0.0
 10
11.0890769334
 20
9.7479774368
 30
0.0
 10
11.0918485443
 20
9.7416618672
 30
0.0
 10
11.0932682934
 20
9.7384831053
 30
0.0
 11
11.0932682934
 21
10.1752929953
 31
0.0
 11
11.0890721056
 21
10.1657287941
 31
0.0
 11
11.0850822388
 21
10.156291586
 31
0.0
 11
11.0812921656
 21
10.1469709128
 31
0.0
 11
11.0776960021
 21
10.1377568296
 31
0.0
 11
11.0742885626
 21
10.12864012
 31
0.0
 11
11.0710652597
 21
10.1196121349
 31
0.0
 11
11.0680220878
 21
10.1106648423
 31
0.0
 11
11.0651555484
 21
10.1017907134
 31
0.0
 11
11.062462615
 21
10.0929827097
 31
0.0
 11
11.0599406961
 21
10.0842342656
 31
0.0
 11
11.0575875967
 21
10.0755392648
 31
0.0
 11
11.0554014883
 21
10.0668920481
 31
0.0
 11
11.0533808691
 21
10.0582873876
 31
0.0
 11
11.0515245117
 21
10.049720398
 31
0.0
 11
11.0498314399
 21
10.0411865528
 31
0.0
 11
11.0483008954
 21
10.0326816624
 31
0.0
 11
11.0469323064
 21
10.0242018553
 31
0.0
 11
11.0457252641
 21
10.0157436105
 31
0.0
 11
11.0446794777
 21
10.0073036357
 31
0.0
 11
11.0437947517
 21
9.9988788531
 31
0.0
 11
11.0430709653
 21
9.9904663899
 31
0.0
 11
11.0425080516
 21
9.9820635475
 31
0.0
 11
11.0421059801
 21
9.9736677972
 31
0.0
 11
11.0418647403
 21
9.9652767548
 31
0.0
 11
11.0417843274
 21
9.9568880503
 31
0.0
 11
11.0418647403
 21
9.9484993457
 31
0.0
 11
11.0421059801
 21
9.9401083033
 31
0.0
 11
11.0425080516
 21
9.931712553
 31
0.0
 11
11.0430709653
 21
9.9233097106
 31
0.0
 11
11.0437947517
 21
9.9148972474
 31
0.0
 11
11.0446794777
 21
9.9064724649
 31
0.0
 11
11.0457252641
 21
9.89803249
 31
0.0
 11
11.0469323064
 21
9.8895742452
 31
0.0
 11
11.0483008954
 21
9.8810944382
 31
0.0
 11
11.0498314399
 21
9.8725895477
 31
0.0
 11
11.0515245117
 21
9.8640557026
 31
0.0
 11
11.0533808691
 21
9.8554887129
 31
0.0
 11
11.0554014883
 21
9.8468840524
 31
0.0
 11
11.0575875967
 21
9.8382368357
 31
0.0
 11
11.0599406961
 21
9.8295418349
 31
0.0
 11
11.062462615
 21
9.8207933909
 31
0.0
 11
11.0651555484
 21
9.8119853871
 31
0.0
 11
11.0680220878
 21
9.8031112582
 31
0.0
 11
11.0710652597
 21
9.7941639657
 31
0.0
 11
11.0742885626
 21
9.7851359806
 31
0.0
 11
11.0776960021
 21
9.7760192709
 31
0.0
 11
11.0812921656
 21
9.7668051877
 31
0.0
 11
11.0850822388
 21
9.7574845145
 31
0.0
 11
11.0890721056
 21
9.7480473065
 31
0.0
 11
11.0932682934
 21
9.7384831053
 31
0.0
  0
SPLINE
  5
422
100
AcDbEntity
  8
0
100
AcDbSpline
 62
7
  6
CONTINUOUS
 70
0
 71
3
 72
51
 73
47
 74
45
 42
0.0000001
 43
0.0000001
 44
0.0000000001
 12
0.104762157
 22
-0.203133455
 32
0.0
 13
-0.104762157
 23
-0.203133455
 33
0.0
 40
0.0
 40
0.0
 40
0.0
 40
0.0
 40
0.0252822779
 40
0.0501633825
 40
0.0746733327
 40
0.0988407073
 40
0.1226922322
 40
0.1462531736
 40
0.1695473106
 40
0.1925971662
 40
0.2154240933
 40
0.2380483625
 40
0.2604892569
 40
0.2827651071
 40
0.3048934067
 40
0.326890961
 40
0.3487739283
 40
0.3705578955
 40
0.3922579379
 40
0.4138886308
 40
0.4354642568
 40
0.4569988388
 40
0.478506194
 40
0.5
 40
0.521493806
 40
0.5430011612
 40
0.5645357432
 40
0.5861113692
 40
0.6077420621
 40
0.6294421045
 40
0.6512260717
 40
0.673109039
 40
0.6951065934
 40
0.717234893
 40
0.7395107432
 40
0.7619516375
 40
0.7845759067
 40
0.8074028338
 40
0.8304526894
 40
0.8537468264
 40
0.8773077678
 40
0.9011592927
 40
0.9253266673
 40
0.9498366175
 40
0.9747177221
 40
1.0
 40
1.0
 40
1.0
 40
1.0
 10
11.5287046275
 20
9.6871905228
 30
0.0
 10
11.5295875029
 20
9.6854786306
 30
0.0
 10
11.5313132357
 20
9.6820685142
 30
0.0
 10
11.5338005009
 20
9.6769517373
 30
0.0
 10
11.5361666834
 20
9.6718713717
 30
0.0
 10
11.538413364
 20
9.6668227646
 30
0.0
 10
11.5405417306
 20
9.6618015681
 30
0.0
 10
11.5425525813
 20
9.6568037888
 30
0.0
 10
11.5444463648
 20
9.6518257598
 30
0.0
 10
11.5462232102
 20
9.646864143
 30
0.0
 10
11.5478829622
 20
9.6419159187
 30
0.0
 10
11.5494252149
 20
9.6369783861
 30
0.0
 10
11.5508493473
 20
9.6320491643
 30
0.0
 10
11.5521545623
 20
9.6271261903
 30
0.0
 10
11.5533399289
 20
9.62220771
 30
0.0
 10
11.5544044258
 20
9.6172922651
 30
0.0
 10
11.5553469846
 20
9.6123786796
 30
0.0
 10
11.5561665329
 20
9.6074660478
 30
0.0
 10
11.5568620353
 20
9.6025537212
 30
0.0
 10
11.5574325359
 20
9.5976412793
 30
0.0
 10
11.5578771959
 20
9.5927284985
 30
0.0
 10
11.5581953269
 20
9.5878153125
 30
0.0
 10
11.5583864166
 20
9.5829017801
 30
0.0
 10
11.5584501488
 20
9.5779880503
 30
0.0
 10
11.5583864166
 20
9.5730743204
 30
0.0
 10
11.5581953269
 20
9.568160788
 30
0.0
 10
11.5578771959
 20
9.5632476021
 30
0.0
 10
11.5574325359
 20
9.5583348212
 30
0.0
 10
11.5568620353
 20
9.5534223793
 30
0.0
 10
11.5561665329
 20
9.5485100527
 30
0.0
 10
11.5553469846
 20
9.543597421
 30
0.0
 10
11.5544044258
 20
9.5386838354
 30
0.0
 10
11.5533399289
 20
9.5337683906
 30
0.0
 10
11.5521545623
 20
9.5288499102
 30
0.0
 10
11.5508493473
 20
9.5239269363
 30
0.0
 10
11.5494252149
 20
9.5189977145
 30
0.0
 10
11.5478829622
 20
9.5140601819
 30
0.0
 10
11.5462232102
 20
9.5091119576
 30
0.0
 10
11.5444463648
 20
9.5041503407
 30
0.0
 10
11.5425525813
 20
9.4991723118
 30
0.0
 10
11.5405417306
 20
9.4941745325
 30
0.0
 10
11.538413364
 20
9.489153336
 30
0.0
 10
11.5361666834
 20
9.4841047288
 30
0.0
 10
11.5338005009
 20
9.4790243632
 30
0.0
 10
11.5313132357
 20
9.4739075863
 30
0.0
 10
11.5295875029
 20
9.4704974699
 30
0.0
 10
11.5287046275
 20
9.4687855778
 30
0.0
 11
11.5287046275
 21
9.6871905228
 31
0.0
 11
11.5313131017
 21
9.6820343367
 31
0.0
 11
11.5337985594
 21
9.6769194919
 31
0.0
 11
11.5361630046
 21
9.6718410158
 31
0.0
 11
11.5384080387
 21
9.6667942115
 31
0.0
 11
11.5405348348
 21
9.6617747629
 31
0.0
 11
11.5425441924
 21
9.6567786739
 31
0.0
 11
11.5444365545
 21
9.6518022945
 31
0.0
 11
11.5462120498
 21
9.6468422932
 31
0.0
 11
11.5478705229
 21
9.6418956569
 31
0.0
 11
11.549411569
 21
9.6369596919
 31
0.0
 11
11.5508345699
 21
9.6320320196
 31
0.0
 11
11.5521387306
 21
9.6271105849
 31
0.0
 11
11.5533231222
 21
9.6221936434
 31
0.0
 11
11.5543867283
 21
9.6172797384
 31
0.0
 11
11.5553284853
 21
9.6123676967
 31
0.0
 11
11.5561473255
 21
9.6074566141
 31
0.0
 11
11.5568422193
 21
9.6025458385
 31
0.0
 11
11.557412214
 21
9.5976349602
 31
0.0
 11
11.5578564754
 21
9.5927237522
 31
0.0
 11
11.5581743189
 21
9.5878121459
 31
0.0
 11
11.558365235
 21
9.5829001978
 31
0.0
 11
11.5584289092
 21
9.5779880503
 31
0.0
 11
11.558365235
 21
9.5730759028
 31
0.0
 11
11.5581743189
 21
9.5681639546
 31
0.0
 11
11.5578564754
 21
9.5632523483
 31
0.0
 11
11.557412214
 21
9.5583411403
 31
0.0
 11
11.5568422193
 21
9.553430262
 31
0.0
 11
11.5561473255
 21
9.5485194865
 31
0.0
 11
11.5553284853
 21
9.5436084039
 31
0.0
 11
11.5543867283
 21
9.5386963622
 31
0.0
 11
11.5533231222
 21
9.5337824571
 31
0.0
 11
11.5521387306
 21
9.5288655156
 31
0.0
 11
11.5508345699
 21
9.5239440809
 31
0.0
 11
11.549411569
 21
9.5190164086
 31
0.0
 11
11.5478705229
 21
9.5140804436
 31
0.0
 11
11.5462120498
 21
9.5091338074
 31
0.0
 11
11.5444365545
 21
9.504173806
 31
0.0
 11
11.5425441924
 21
9.4991974267
 31
0.0
 11
11.5405348348
 21
9.4942013376
 31
0.0
 11
11.5384080387
 21
9.489181889
 31
0.0
 11
11.5361630046
 21
9.4841350847
 31
0.0
 11
11.5337985594
 21
9.4790566087
 31
0.0
 11
11.5313131017
 21
9.4739417638
 31
0.0
 11
11.5287046275
 21
9.4687855778
 31
0.0
  0
SPLINE
  5
423
100
AcDbEntity
  8
0
100
AcDbSpline
 62
7
  6
CONTINUOUS
 70
0
 71
3
 72
57
 73
53
 74
51
 42
0.0000001
 43
0.0000001
 44
0.0000000001
 12
-0.1645242793
 22
-0.1841816645
 32
0.0
 13
0.1645242793
 23
-0.1841816645
 33
0.0
 40
0.0
 40
0.0
 40
0.0
 40
0.0
 40
0.0257613158
 40
0.0507825586
 40
0.0751057388
 40
0.0987708184
 40
0.1218153071
 40
0.1442748474
 40
0.1661832508
 40
0.187572941
 40
0.2084751336
 40
0.2289200229
 40
0.24893698
 40
0.2685546681
 40
0.2878012287
 40
0.3067045905
 40
0.3252925238
 40
0.3435927653
 40
0.3616331147
 40
0.3794414026
 40
0.3970457584
 40
0.4144746192
 40
0.431756706
 40
0.4489210166
 40
0.4659967425
 40
0.4830132075
 40
0.5
 40
0.5169867925
 40
0.5340032575
 40
0.5510789835
 40
0.568243294
 40
0.5855253808
 40
0.6029542416
 40
0.6205585974
 40
0.6383668853
 40
0.6564072347
 40
0.6747074763
 40
0.6932954095
 40
0.7121987713
 40
0.7314453319
 40
0.75106302
 40
0.7710799771
 40
0.7915248664
 40
0.812427059
 40
0.8338167492
 40
0.8557251526
 40
0.8781846929
 40
0.9012291816
 40
0.9248942612
 40
0.9492174414
 40
0.9742386842
 40
1.0
 40
1.0
 40
1.0
 40
1.0
 10
11.0932682934
 20
9.6871905228
 30
0.0
 10
11.0918555061
 20
9.6856089354
 30
0.0
 10
11.089097371
 20
9.682467066
 30
0.0
 10
11.0851039839
 20
9.6777464577
 30
0.0
 10
11.0813105051
 20
9.6730841525
 30
0.0
 10
11.0777110855
 20
9.6684752216
 30
0.0
 10
11.0743005035
 20
9.6639150138
 30
0.0
 10
11.0710741701
 20
9.6593992019
 30
0.0
 10
11.0680280591
 20
9.6549237375
 30
0.0
 10
11.065158666
 20
9.650484841
 30
0.0
 10
11.0624629599
 20
9.6460789762
 30
0.0
 10
11.0599383466
 20
9.6417028425
 30
0.0
 10
11.057582634
 20
9.637353369
 30
0.0
 10
11.0553939962
 20
9.6330277082
 30
0.0
 10
11.0533709321
 20
9.6287232195
 30
0.0
 10
11.0515122272
 20
9.6244374523
 30
0.0
 10
11.0498169179
 20
9.6201681318
 30
0.0
 10
11.0482842615
 20
9.6159131548
 30
0.0
 10
11.0469137068
 20
9.6116705891
 30
0.0
 10
11.0457048596
 20
9.6074386567
 30
0.0
 10
11.0446574509
 20
9.6032157167
 30
0.0
 10
11.043771307
 20
9.5990002412
 30
0.0
 10
11.0430463278
 20
9.5947908063
 30
0.0
 10
11.0424824651
 20
9.5905860845
 30
0.0
 10
11.0420797043
 20
9.5863848342
 30
0.0
 10
11.0418380454
 20
9.5821858724
 30
0.0
 10
11.0417574919
 20
9.5779880503
 30
0.0
 10
11.0418380454
 20
9.5737902282
 30
0.0
 10
11.0420797043
 20
9.5695912663
 30
0.0
 10
11.0424824651
 20
9.5653900161
 30
0.0
 10
11.0430463278
 20
9.5611852943
 30
0.0
 10
11.043771307
 20
9.5569758594
 30
0.0
 10
11.0446574509
 20
9.5527603839
 30
0.0
 10
11.0457048597
 20
9.5485374439
 30
0.0
 10
11.0469137068
 20
9.5443055114
 30
0.0
 10
11.0482842615
 20
9.5400629458
 30
0.0
 10
11.0498169179
 20
9.5358079687
 30
0.0
 10
11.0515122272
 20
9.5315386482
 30
0.0
 10
11.0533709321
 20
9.5272528811
 30
0.0
 10
11.0553939962
 20
9.5229483923
 30
0.0
 10
11.057582634
 20
9.5186227316
 30
0.0
 10
11.0599383466
 20
9.514273258
 30
0.0
 10
11.0624629599
 20
9.5098971243
 30
0.0
 10
11.065158666
 20
9.5054912596
 30
0.0
 10
11.0680280591
 20
9.501052363
 30
0.0
 10
11.0710741701
 20
9.4965768987
 30
0.0
 10
11.0743005035
 20
9.4920610867
 30
0.0
 10
11.0777110855
 20
9.487500879
 30
0.0
 10
11.0813105051
 20
9.4828919481
 30
0.0
 10
11.0851039839
 20
9.4782296428
 30
0.0
 10
11.089097371
 20
9.4735090345
 30
0.0
 10
11.0918555061
 20
9.4703671651
 30
0.0
 10
11.0932682934
 20
9.4687855778
 30
0.0
 11
11.0932682934
 21
9.6871905228
 31
0.0
 11
11.0890721056
 21
9.6824084222
 31
0.0
 11
11.0850822388
 21
9.6776898181
 31
0.0
 11
11.0812921656
 21
9.6730294816
 31
0.0
 11
11.0776960021
 21
9.6684224399
 31
0.0
 11
11.0742885626
 21
9.6638640851
 31
0.0
 11
11.0710652597
 21
9.6593500926
 31
0.0
 11
11.0680220878
 21
9.6548764463
 31
0.0
 11
11.0651555484
 21
9.6504393819
 31
0.0
 11
11.062462615
 21
9.64603538
 31
0.0
 11
11.0599406961
 21
9.6416611579
 31
0.0
 11
11.0575875967
 21
9.6373136575
 31
0.0
 11
11.0554014883
 21
9.6329900492
 31
0.0
 11
11.0533808691
 21
9.6286877189
 31
0.0
 11
11.0515245117
 21
9.6244042241
 31
0.0
 11
11.0498314399
 21
9.6201373015
 31
0.0
 11
11.0483008954
 21
9.6158848563
 31
0.0
 11
11.0469323064
 21
9.6116449528
 31
0.0
 11
11.0457252641
 21
9.6074158304
 31
0.0
 11
11.0446794777
 21
9.603195843
 31
0.0
 11
11.0437947517
 21
9.5989834517
 31
0.0
 11
11.0430709653
 21
9.5947772201
 31
0.0
 11
11.0425080516
 21
9.5905757989
 31
0.0
 11
11.0421059801
 21
9.5863779237
 31
0.0
 11
11.0418647403
 21
9.5821824025
 31
0.0
 11
11.0417843274
 21
9.5779880503
 31
0.0
 11
11.0418647403
 21
9.573793698
 31
0.0
 11
11.0421059801
 21
9.5695981768
 31
0.0
 11
11.0425080516
 21
9.5654003016
 31
0.0
 11
11.0430709653
 21
9.5611988805
 31
0.0
 11
11.0437947517
 21
9.5569926488
 31
0.0
 11
11.0446794777
 21
9.5527802576
 31
0.0
 11
11.0457252641
 21
9.5485602701
 31
0.0
 11
11.0469323064
 21
9.5443311477
 31
0.0
 11
11.0483008954
 21
9.5400912442
 31
0.0
 11
11.0498314399
 21
9.535838799
 31
0.0
 11
11.0515245117
 21
9.5315718764
 31
0.0
 11
11.0533808691
 21
9.5272883816
 31
0.0
 11
11.0554014883
 21
9.5229860513
 31
0.0
 11
11.0575875967
 21
9.518662443
 31
0.0
 11
11.0599406961
 21
9.5143149426
 31
0.0
 11
11.062462615
 21
9.5099407206
 31
0.0
 11
11.0651555484
 21
9.5055367187
 31
0.0
 11
11.0680220878
 21
9.5010996543
 31
0.0
 11
11.0710652597
 21
9.496626008
 31
0.0
 11
11.0742885626
 21
9.4921120154
 31
0.0
 11
11.0776960021
 21
9.4875536606
 31
0.0
 11
11.0812921656
 21
9.482946619
 31
0.0
 11
11.0850822388
 21
9.4782862824
 31
0.0
 11
11.0890721056
 21
9.4735676784
 31
0.0
 11
11.0932682934
 21
9.4687855778
 31
0.0
  0
SPLINE
  5
424
100
AcDbEntity
  8
0
100
AcDbSpline
 62
7
  6
CONTINUOUS
 70
0
 71
3
 72
51
 73
47
 74
45
 42
0.0000001
 43
0.0000001
 44
0.0000000001
 12
0.104762157
 22
-0.203133455
 32
0.0
 13
-0.104762157
 23
-0.203133455
 33
0.0
 40
0.0
 40
0.0
 40
0.0
 40
0.0
 40
0.0252822779
 40
0.0501633825
 40
0.0746733327
 40
0.0988407073
 40
0.1226922322
 40
0.1462531736
 40
0.1695473106
 40
0.1925971662
 40
0.2154240933
 40
0.2380483625
 40
0.2604892569
 40
0.2827651071
 40
0.3048934067
 40
0.326890961
 40
0.3487739283
 40
0.3705578955
 40
0.3922579379
 40
0.4138886308
 40
0.4354642568
 40
0.4569988388
 40
0.478506194
 40
0.5
 40
0.521493806
 40
0.5430011612
 40
0.5645357432
 40
0.5861113692
 40
0.6077420621
 40
0.6294421045
 40
0.6512260717
 40
0.673109039
 40
0.6951065934
 40
0.717234893
 40
0.7395107432
 40
0.7619516375
 40
0.7845759067
 40
0.8074028338
 40
0.8304526894
 40
0.8537468264
 40
0.8773077678
 40
0.9011592927
 40
0.9253266673
 40
0.9498366175
 40
0.9747177221
 40
1.0
 40
1.0
 40
1.0
 40
1.0
 10
11.5287046275
 20
10.4449905228
 30
0.0
 10
11.5295875029
 20
10.4432786306
 30
0.0
 10
11.5313132357
 20
10.4398685142
 30
0.0
 10
11.5338005009
 20
10.4347517373
 30
0.0
 10
11.5361666834
 20
10.4296713717
 30
0.0
 10
11.538413364
 20
10.4246227646
 30
0.0
 10
11.5405417306
 20
10.4196015681
 30
0.0
 10
11.5425525813
 20
10.4146037888
 30
0.0
 10
11.5444463648
 20
10.4096257598
 30
0.0
 10
11.5462232102
 20
10.404664143
 30
0.0
 10
11.5478829622
 20
10.3997159187
 30
0.0
 10
11.5494252149
 20
10.3947783861
 30
0.0
 10
11.5508493473
 20
10.3898491643
 30
0.0
 10
11.5521545623
 20
10.3849261903
 30
0.0
 10
11.5533399289
 20
10.38000771
 30
0.0
 10
11.5544044258
 20
10.3750922651
 30
0.0
 10
11.5553469846
 20
10.3701786796
 30
0.0
 10
11.5561665329
 20
10.3652660478
 30
0.0
 10
11.5568620353
 20
10.3603537212
 30
0.0
 10
11.5574325359
 20
10.3554412793
 30
0.0
 10
11.5578771959
 20
10.3505284985
 30
0.0
 10
11.5581953269
 20
10.3456153125
 30
0.0
 10
11.5583864166
 20
10.3407017801
 30
0.0
 10
11.5584501488
 20
10.3357880503
 30
0.0
 10
11.5583864166
 20
10.3308743204
 30
0.0
 10
11.5581953269
 20
10.325960788
 30
0.0
 10
11.5578771959
 20
10.3210476021
 30
0.0
 10
11.5574325359
 20
10.3161348212
 30
0.0
 10
11.5568620353
 20
10.3112223793
 30
0.0
 10
11.5561665329
 20
10.3063100527
 30
0.0
 10
11.5553469846
 20
10.301397421
 30
0.0
 10
11.5544044258
 20
10.2964838354
 30
0.0
 10
11.5533399289
 20
10.2915683906
 30
0.0
 10
11.5521545623
 20
10.2866499102
 30
0.0
 10
11.5508493473
 20
10.2817269363
 30
0.0
 10
11.5494252149
 20
10.2767977145
 30
0.0
 10
11.5478829622
 20
10.2718601819
 30
0.0
 10
11.5462232102
 20
10.2669119576
 30
0.0
 10
11.5444463648
 20
10.2619503407
 30
0.0
 10
11.5425525813
 20
10.2569723118
 30
0.0
 10
11.5405417306
 20
10.2519745325
 30
0.0
 10
11.538413364
 20
10.246953336
 30
0.0
 10
11.5361666834
 20
10.2419047288
 30
0.0
 10
11.5338005009
 20
10.2368243632
 30
0.0
 10
11.5313132357
 20
10.2317075863
 30
0.0
 10
11.5295875029
 20
10.2282974699
 30
0.0
 10
11.5287046275
 20
10.2265855778
 30
0.0
 11
11.5287046275
 21
10.4449905228
 31
0.0
 11
11.5313131017
 21
10.4398343367
 31
0.0
 11
11.5337985594
 21
10.4347194919
 31
0.0
 11
11.5361630046
 21
10.4296410158
 31
0.0
 11
11.5384080387
 21
10.4245942115
 31
0.0
 11
11.5405348348
 21
10.4195747629
 31
0.0
 11
11.5425441924
 21
10.4145786739
 31
0.0
 11
11.5444365545
 21
10.4096022945
 31
0.0
 11
11.5462120498
 21
10.4046422932
 31
0.0
 11
11.5478705229
 21
10.3996956569
 31
0.0
 11
11.549411569
 21
10.3947596919
 31
0.0
 11
11.5508345699
 21
10.3898320196
 31
0.0
 11
11.5521387306
 21
10.3849105849
 31
0.0
 11
11.5533231222
 21
10.3799936434
 31
0.0
 11
11.5543867283
 21
10.3750797384
 31
0.0
 11
11.5553284853
 21
10.3701676967
 31
0.0
 11
11.5561473255
 21
10.3652566141
 31
0.0
 11
11.5568422193
 21
10.3603458385
 31
0.0
 11
11.557412214
 21
10.3554349602
 31
0.0
 11
11.5578564754
 21
10.3505237522
 31
0.0
 11
11.5581743189
 21
10.3456121459
 31
0.0
 11
11.558365235
 21
10.3407001978
 31
0.0
 11
11.5584289092
 21
10.3357880503
 31
0.0
 11
11.558365235
 21
10.3308759028
 31
0.0
 11
11.5581743189
 21
10.3259639546
 31
0.0
 11
11.5578564754
 21
10.3210523483
 31
0.0
 11
11.557412214
 21
10.3161411403
 31
0.0
 11
11.5568422193
 21
10.311230262
 31
0.0
 11
11.5561473255
 21
10.3063194865
 31
0.0
 11
11.5553284853
 21
10.3014084039
 31
0.0
 11
11.5543867283
 21
10.2964963622
 31
0.0
 11
11.5533231222
 21
10.2915824571
 31
0.0
 11
11.5521387306
 21
10.2866655156
 31
0.0
 11
11.5508345699
 21
10.2817440809
 31
0.0
 11
11.549411569
 21
10.2768164086
 31
0.0
 11
11.5478705229
 21
10.2718804436
 31
0.0
 11
11.5462120498
 21
10.2669338074
 31
0.0
 11
11.5444365545
 21
10.261973806
 31
0.0
 11
11.5425441924
 21
10.2569974267
 31
0.0
 11
11.5405348348
 21
10.2520013376
 31
0.0
 11
11.5384080387
 21
10.246981889
 31
0.0
 11
11.5361630046
 21
10.2419350847
 31
0.0
 11
11.5337985594
 21
10.2368566087
 31
0.0
 11
11.5313131017
 21
10.2317417638
 31
0.0
 11
11.5287046275
 21
10.2265855778
 31
0.0
  0
SPLINE
  5
425
100
AcDbEntity
  8
0
100
AcDbSpline
 62
7
  6
CONTINUOUS
 70
0
 71
3
 72
57
 73
53
 74
51
 42
0.0000001
 43
0.0000001
 44
0.0000000001
 12
-0.1645242793
 22
-0.1841816645
 32
0.0
 13
0.1645242793
 23
-0.1841816645
 33
0.0
 40
0.0
 40
0.0
 40
0.0
 40
0.0
 40
0.0257613158
 40
0.0507825586
 40
0.0751057388
 40
0.0987708184
 40
0.1218153071
 40
0.1442748474
 40
0.1661832508
 40
0.187572941
 40
0.2084751336
 40
0.2289200229
 40
0.24893698
 40
0.2685546681
 40
0.2878012287
 40
0.3067045905
 40
0.3252925238
 40
0.3435927653
 40
0.3616331147
 40
0.3794414026
 40
0.3970457584
 40
0.4144746192
 40
0.431756706
 40
0.4489210166
 40
0.4659967425
 40
0.4830132075
 40
0.5
 40
0.5169867925
 40
0.5340032575
 40
0.5510789835
 40
0.568243294
 40
0.5855253808
 40
0.6029542416
 40
0.6205585974
 40
0.6383668853
 40
0.6564072347
 40
0.6747074763
 40
0.6932954095
 40
0.7121987713
 40
0.7314453319
 40
0.75106302
 40
0.7710799771
 40
0.7915248664
 40
0.812427059
 40
0.8338167492
 40
0.8557251526
 40
0.8781846929
 40
0.9012291816
 40
0.9248942612
 40
0.9492174414
 40
0.9742386842
 40
1.0
 40
1.0
 40
1.0
 40
1.0
 10
11.0932682934
 20
10.4449905228
 30
0.0
 10
11.0918555061
 20
10.4434089354
 30
0.0
 10
11.089097371
 20
10.440267066
 30
0.0
 10
11.0851039839
 20
10.4355464577
 30
0.0
 10
11.0813105051
 20
10.4308841525
 30
0.0
 10
11.0777110855
 20
10.4262752216
 30
0.0
 10
11.0743005035
 20
10.4217150138
 30
0.0
 10
11.0710741701
 20
10.4171992019
 30
0.0
 10
11.0680280591
 20
10.4127237375
 30
0.0
 10
11.065158666
 20
10.408284841
 30
0.0
 10
11.0624629599
 20
10.4038789762
 30
0.0
 10
11.0599383466
 20
10.3995028425
 30
0.0
 10
11.057582634
 20
10.395153369
 30
0.0
 10
11.0553939962
 20
10.3908277082
 30
0.0
 10
11.0533709321
 20
10.3865232195
 30
0.0
 10
11.0515122272
 20
10.3822374523
 30
0.0
 10
11.0498169179
 20
10.3779681318
 30
0.0
 10
11.0482842615
 20
10.3737131548
 30
0.0
 10
11.0469137068
 20
10.3694705891
 30
0.0
 10
11.0457048596
 20
10.3652386567
 30
0.0
 10
11.0446574509
 20
10.3610157167
 30
0.0
 10
11.043771307
 20
10.3568002412
 30
0.0
 10
11.0430463278
 20
10.3525908063
 30
0.0
 10
11.0424824651
 20
10.3483860845
 30
0.0
 10
11.0420797043
 20
10.3441848342
 30
0.0
 10
11.0418380454
 20
10.3399858724
 30
0.0
 10
11.0417574919
 20
10.3357880503
 30
0.0
 10
11.0418380454
 20
10.3315902282
 30
0.0
 10
11.0420797043
 20
10.3273912663
 30
0.0
 10
11.0424824651
 20
10.3231900161
 30
0.0
 10
11.0430463278
 20
10.3189852943
 30
0.0
 10
11.043771307
 20
10.3147758594
 30
0.0
 10
11.0446574509
 20
10.3105603839
 30
0.0
 10
11.0457048597
 20
10.3063374439
 30
0.0
 10
11.0469137068
 20
10.3021055114
 30
0.0
 10
11.0482842615
 20
10.2978629458
 30
0.0
 10
11.0498169179
 20
10.2936079687
 30
0.0
 10
11.0515122272
 20
10.2893386482
 30
0.0
 10
11.0533709321
 20
10.2850528811
 30
0.0
 10
11.0553939962
 20
10.2807483923
 30
0.0
 10
11.057582634
 20
10.2764227316
 30
0.0
 10
11.0599383466
 20
10.272073258
 30
0.0
 10
11.0624629599
 20
10.2676971243
 30
0.0
 10
11.065158666
 20
10.2632912596
 30
0.0
 10
11.0680280591
 20
10.258852363
 30
0.0
 10
11.0710741701
 20
10.2543768987
 30
0.0
 10
11.0743005035
 20
10.2498610867
 30
0.0
 10
11.0777110855
 20
10.245300879
 30
0.0
 10
11.0813105051
 20
10.2406919481
 30
0.0
 10
11.0851039839
 20
10.2360296428
 30
0.0
 10
11.089097371
 20
10.2313090345
 30
0.0
 10
11.0918555061
 20
10.2281671651
 30
0.0
 10
11.0932682934
 20
10.2265855778
 30
0.0
 11
11.0932682934
 21
10.4449905228
 31
0.0
 11
11.0890721056
 21
10.4402084222
 31
0.0
 11
11.0850822388
 21
10.4354898181
 31
0.0
 11
11.0812921656
 21
10.4308294816
 31
0.0
 11
11.0776960021
 21
10.4262224399
 31
0.0
 11
11.0742885626
 21
10.4216640851
 31
0.0
 11
11.0710652597
 21
10.4171500926
 31
0.0
 11
11.0680220878
 21
10.4126764463
 31
0.0
 11
11.0651555484
 21
10.4082393819
 31
0.0
 11
11.062462615
 21
10.40383538
 31
0.0
 11
11.0599406961
 21
10.3994611579
 31
0.0
 11
11.0575875967
 21
10.3951136575
 31
0.0
 11
11.0554014883
 21
10.3907900492
 31
0.0
 11
11.0533808691
 21
10.3864877189
 31
0.0
 11
11.0515245117
 21
10.3822042241
 31
0.0
 11
11.0498314399
 21
10.3779373015
 31
0.0
 11
11.0483008954
 21
10.3736848563
 31
0.0
 11
11.0469323064
 21
10.3694449528
 31
0.0
 11
11.0457252641
 21
10.3652158304
 31
0.0
 11
11.0446794777
 21
10.360995843
 31
0.0
 11
11.0437947517
 21
10.3567834517
 31
0.0
 11
11.0430709653
 21
10.3525772201
 31
0.0
 11
11.0425080516
 21
10.3483757989
 31
0.0
 11
11.0421059801
 21
10.3441779237
 31
0.0
 11
11.0418647403
 21
10.3399824025
 31
0.0
 11
11.0417843274
 21
10.3357880503
 31
0.0
 11
11.0418647403
 21
10.331593698
 31
0.0
 11
11.0421059801
 21
10.3273981768
 31
0.0
 11
11.0425080516
 21
10.3232003016
 31
0.0
 11
11.0430709653
 21
10.3189988805
 31
0.0
 11
11.0437947517
 21
10.3147926488
 31
0.0
 11
11.0446794777
 21
10.3105802576
 31
0.0
 11
11.0457252641
 21
10.3063602701
 31
0.0
 11
11.0469323064
 21
10.3021311477
 31
0.0
 11
11.0483008954
 21
10.2978912442
 31
0.0
 11
11.0498314399
 21
10.293638799
 31
0.0
 11
11.0515245117
 21
10.2893718764
 31
0.0
 11
11.0533808691
 21
10.2850883816
 31
0.0
 11
11.0554014883
 21
10.2807860513
 31
0.0
 11
11.0575875967
 21
10.276462443
 31
0.0
 11
11.0599406961
 21
10.2721149426
 31
0.0
 11
11.062462615
 21
10.2677407206
 31
0.0
 11
11.0651555484
 21
10.2633367187
 31
0.0
 11
11.0680220878
 21
10.2588996543
 31
0.0
 11
11.0710652597
 21
10.254426008
 31
0.0
 11
11.0742885626
 21
10.2499120154
 31
0.0
 11
11.0776960021
 21
10.2453536606
 31
0.0
 11
11.0812921656
 21
10.240746619
 31
0.0
 11
11.0850822388
 21
10.2360862824
 31
0.0
 11
11.0890721056
 21
10.2313676784
 31
0.0
 11
11.0932682934
 21
10.2265855778
 31
0.0
  0
ENDSEC
  0
SECTION
  2
OBJECTS
  0
DICTIONARY
  5
C
100
AcDbDictionary
280
0
281
1
  3
ACAD_GROUP
350
D
  3
ACAD_MLINESTYLE
350
17
  3
ACAD_LAYOUT
350
1A
  3
ACAD_PLOTSETTINGS
350
19
  3
ACAD_PLOTSTYLENAME
350
E
  0
DICTIONARY
  5
D
102
{ACAD_REACTORS
330
C
102
}
100
AcDbDictionary
280
0
281
1
  0
ACDBDICTIONARYWDFLT
  5
E
102
{ACAD_REACTORS
330
C
102
}
100
AcDbDictionary
281
1
  3
Normal
350
F
100
AcDbDictionaryWithDefault
340
F
  0
DICTIONARY
  5
17
102
{ACAD_REACTORS
330
C
102
}
100
AcDbDictionary
280
0
281
1
  3
Standard
350
18
  0
DICTIONARY
  5
19
102
{ACAD_REACTORS
330
C
102
}
100
AcDbDictionary
281
1
  0
DICTIONARY
  5
1A
102
{ACAD_REACTORS
330
C
102
}
100
AcDbDictionary
281
1
  3
Layout1
350
1E
  3
Model
350
22
  0
ACDBPLACEHOLDER
  5
F
102
{ACAD_REACTORS
330
E
102
}
  0
MLINESTYLE
  5
18
102
{ACAD_REACTORS
330
17
102
}
100
AcDbMlineStyle
  2
STANDARD
 70
0
  3

 62
256
 51
90.0
 52
90.0
 71
2
 49
0.5
 62
256
  6
BYLAYER
 49
-0.5
 62
256
  6
BYLAYER
  0
LAYOUT
  5
1E
102
{ACAD_REACTORS
330
1A
102
}
100
AcDbPlotSettings
  1

  2

  4

  6

 40
0.0
 41
0.0
 42
0.0
 43
0.0
 44
0.0
 45
0.0
 46
0.0
 47
0.0
 48
0.0
 49
0.0
140
0.0
141
0.0
142
1.0
143
1.0
 70
0
 72
0
 73
0
 74
0
  7

 75
0
147
1.0
148
0.0
149
0.0
100
AcDbLayout
  1
Layout1
 70
0
 71
0
 10
0.0
 20
0.0
 11
0.0
 21
0.0
 12
0.0
 22
0.0
 32
0.0
 14
0.0
 24
0.0
 34
0.0
 15
0.0
 25
0.0
 35
0.0
146
0.0
 13
0.0
 23
0.0
 33
0.0
 16
0.0
 26
0.0
 36
0.0
 17
0.0
 27
0.0
 37
0.0
 76
0
330
1B
331
0
345
0
346
0
  0
LAYOUT
  5
22
102
{ACAD_REACTORS
330
1A
102
}
100
AcDbPlotSettings
  1

  2

  4

  6

 40
0.0
 41
0.0
 42
0.0
 43
0.0
 44
0.0
 45
0.0
 46
0.0
 47
0.0
 48
0.0
 49
0.0
140
0.0
141
0.0
142
1.0
143
1.0
 70
0
 72
0
 73
0
 74
0
  7

 75
0
147
1.0
148
0.0
149
0.0
100
AcDbLayout
  1
Model
 70
0
 71
0
 10
0.0
 20
0.0
 11
0.0
 21
0.0
 12
0.0
 22
0.0
 32
0.0
 14
0.0
 24
0.0
 34
0.0
 15
0.0
 25
0.0
 35
0.0
146
0.0
 13
0.0
 23
0.0
 33
0.0
 16
0.0
 26
0.0
 36
0.0
 17
0.0
 27
0.0
 37
0.0
 76
0
330
1F
331
0
345
0
346
0
  0
ENDSEC
  0
EOF
