999
DXF file: FMJ_assy_2.dxf
999
Pro/ENGINEER 2014200 by Parametric Technology Corporation
  0
SECTION
  2
HEADER
  9
$ACADVER
  1
AC1021
  9
$DWGCODEPAGE
  3
ANSI_1252
  9
$EXTMAX
 10
22.0
 20
17.0
 30
0.0
  9
$EXTMIN
 10
0.0
 20
0.0
 30
0.0
  9
$LIMMIN
 10
0.0
 20
0.0
  9
$LIMMAX
 10
22.0
 20
17.0
  9
$VIEWCTR
 10
11.0
 20
8.5
  9
$VIEWSIZE
 40
17.0
  9
$CLAYER
  8
0
  9
$LTSCALE
 40
1.21
  9
$CELTYPE
  6
BYLAYER
  9
$DIMSCALE
 40
1.0
  9
$DIMASZ
 40
0.1875
  9
$DIMEXO
 40
0.0625
  9
$DIMDLI
 40
0.836
  9
$DIMEXE
 40
0.125
  9
$DIMCEN
 40
0.198
  9
$DIMLFAC
 40
1.0
  9
$DIMBLK
  1
_FILLED
  9
$DIMTXT
 40
0.1
  9
$DIMTOL
 70
0
  9
$DIMLIM
 70
0
  9
$DIMTFAC
 40
1.0
  9
$DIMGAP
 40
0.09
  9
$DIMDSEP
 70
46
  9
$AUNITS
 70
0
  9
$PDMODE
 70
3
  9
$PDSIZE
 40
0.3125
  9
$HANDSEED
  5
384
  9
$TILEMODE
 70
1
  9
$MEASUREMENT
 70
0
  9
$INSUNITS
 70
1
  0
ENDSEC
  0
SECTION
  2
CLASSES
  0
CLASS
  1
ACDBDICTIONARYWDFLT
  2
AcDbDictionaryWithDefault
  3
AutoCAD 2000
 90
0
 91
1
280
0
281
0
  0
CLASS
  1
ACDBPLACEHOLDER
  2
AcDbPlaceHolder
  3
AutoCAD 2000
 90
0
 91
1
280
0
281
0
  0
CLASS
  1
LAYOUT
  2
AcDbLayout
  3
AutoCAD 2000
 90
0
 91
0
280
0
281
0
  0
CLASS
  1
RASTERVARIABLES
  2
AcDbRasterVariables
  3
ISM
 90
0
 91
1
280
0
281
0
  0
CLASS
  1
IMAGEDEF
  2
AcDbRasterImageDef
  3
ISM
 90
0
 91
1
280
0
281
0
  0
CLASS
  1
IMAGEDEF_REACTOR
  2
AcDbRasterImageDefReactor
  3
ISM
 90
0
 91
1
280
0
281
0
  0
CLASS
  1
IMAGE
  2
AcDbRasterImage
  3
ISM
 90
127
 91
1
280
0
281
1
  0
CLASS
  1
TABLESTYLE
  2
AcDbTableStyle
  3
ObjectDBX Classes
 90
2047
 91
1
280
0
281
0
  0
CLASS
  1
ACAD_TABLE
  2
AcDbTable
  3
ObjectDBX Classes
 90
1025
 91
3
280
0
281
1
  0
ENDSEC
  0
SECTION
  2
TABLES
  0
TABLE
  2
VPORT
  5
8
100
AcDbSymbolTable
 70
2
  0
VPORT
  5
1F4
100
AcDbSymbolTableRecord
100
AcDbViewportTableRecord
  2
*ACTIVE
 70
0
 10
0.0
 20
0.0
 11
1.0
 21
1.0
 12
11.0
 22
8.5
 13
0.0
 23
0.0
 14
1.0
 24
1.0
 15
0.0
 25
0.0
 16
0.0
 26
0.0
 36
1.0
 17
0.0
 27
0.0
 37
0.0
 40
17.0
 41
1.2941176471
 42
50.0
 43
0.0
 44
0.0
 50
0.0
 51
0.0
 71
0
 72
100
 73
1
 74
1
 75
0
 76
0
 77
0
 78
0
  0
ENDTAB
  0
TABLE
  2
LTYPE
  5
5
100
AcDbSymbolTable
 70
6
  0
LTYPE
  5
14
100
AcDbSymbolTableRecord
100
AcDbLinetypeTableRecord
  2
BYBLOCK
 70
0
  3

 72
65
 73
0
 40
0.0
  0
LTYPE
  5
15
100
AcDbSymbolTableRecord
100
AcDbLinetypeTableRecord
  2
BYLAYER
 70
0
  3

 72
65
 73
0
 40
0.0
  0
LTYPE
  5
16
100
AcDbSymbolTableRecord
100
AcDbLinetypeTableRecord
  2
CONTINUOUS
 70
64
  3
Solid line
 72
65
 73
0
 40
0.0
  0
LTYPE
  5
1F5
100
AcDbSymbolTableRecord
100
AcDbLinetypeTableRecord
  2
CENTER
 70
64
  3
____ _ ____ _ ____ _ ____ _ ____ _ ____ _ ____
 72
65
 73
4
 40
0.6
 49
0.375
 74
0
 49
-0.075
 74
0
 49
0.075
 74
0
 49
-0.075
 74
0
  0
LTYPE
  5
1F6
100
AcDbSymbolTableRecord
100
AcDbLinetypeTableRecord
  2
HIDDEN
 70
64
  3
- - - - - - - - - - - - - - - - - - - -
 72
65
 73
2
 40
0.2
 49
0.1
 74
0
 49
-0.1
 74
0
  0
LTYPE
  5
1F7
100
AcDbSymbolTableRecord
100
AcDbLinetypeTableRecord
  2
PHANTOM
 70
64
  3
_____ _ _ _____ _ _ _____ _ _ _____
 72
65
 73
6
 40
0.8
 49
0.45
 74
0
 49
-0.05
 74
0
 49
0.1
 74
0
 49
-0.05
 74
0
 49
0.1
 74
0
 49
-0.05
 74
0
  0
LTYPE
  5
1F8
100
AcDbSymbolTableRecord
100
AcDbLinetypeTableRecord
  2
DOT
 70
64
  3
. . . . . . . . . . . . . . . . . . . .
 72
65
 73
2
 40
0.2
 49
0.1
 74
0
 49
-0.1
 74
0
  0
LTYPE
  5
1F9
100
AcDbSymbolTableRecord
100
AcDbLinetypeTableRecord
  2
DASHED
 70
64
  3
- - - - - - - - - - - - - - - - - - - -
 72
65
 73
2
 40
0.2
 49
0.1
 74
0
 49
-0.1
 74
0
  0
ENDTAB
  0
TABLE
  2
LAYER
  5
2
100
AcDbSymbolTable
 70
36
  0
LAYER
  5
10
100
AcDbSymbolTableRecord
100
AcDbLayerTableRecord
  2
0
 70
0
 62
7
  6
CONTINUOUS
370
-3
390
F
  0
LAYER
  5
1FA
100
AcDbSymbolTableRecord
100
AcDbLayerTableRecord
  2
DEFAULT_1
 70
0
 62
7
  6
CENTER
370
-3
390
F
  0
LAYER
  5
1FB
100
AcDbSymbolTableRecord
100
AcDbLayerTableRecord
  2
DEFAULT_2
 70
0
 62
8
  6
HIDDEN
370
-3
390
F
  0
LAYER
  5
1FC
100
AcDbSymbolTableRecord
100
AcDbLayerTableRecord
  2
DEFAULT_3
 70
0
 62
7
  6
PHANTOM
370
-3
390
F
  0
LAYER
  5
1FD
100
AcDbSymbolTableRecord
100
AcDbLayerTableRecord
  2
DATUM_PLANES
 70
0
 62
7
  6
CONTINUOUS
370
-3
390
F
  0
LAYER
  5
1FE
100
AcDbSymbolTableRecord
100
AcDbLayerTableRecord
  2
PORT_AREAS
 70
0
 62
7
  6
CONTINUOUS
370
-3
390
F
  0
LAYER
  5
1FF
100
AcDbSymbolTableRecord
100
AcDbLayerTableRecord
  2
SUNNBOMCOSMETIC
 70
0
 62
7
  6
CONTINUOUS
370
-3
390
F
  0
LAYER
  5
200
100
AcDbSymbolTableRecord
100
AcDbLayerTableRecord
  2
SUNNBOMSTAMPING
 70
0
 62
7
  6
CONTINUOUS
370
-3
390
F
  0
LAYER
  5
201
100
AcDbSymbolTableRecord
100
AcDbLayerTableRecord
  2
THREADS
 70
0
 62
7
  6
CONTINUOUS
370
-3
390
F
  0
ENDTAB
  0
TABLE
  2
STYLE
  5
3
100
AcDbSymbolTable
 70
1
  0
STYLE
  5
11
100
AcDbSymbolTableRecord
100
AcDbTextStyleTableRecord
  2
STANDARD
 70
0
 40
0.0
 41
0.8
 50
0.0
 71
0
 42
0.2
  3
txt
  4

  0
STYLE
  5
202
100
AcDbSymbolTableRecord
100
AcDbTextStyleTableRecord
  2
TEXTSTYLE_1
 70
0
 40
0.0
 41
0.8
 50
0.0
 71
0
 42
0.2
  3
gdt
  4

  0
ENDTAB
  0
TABLE
  2
VIEW
  5
6
100
AcDbSymbolTable
 70
0
  0
ENDTAB
  0
TABLE
  2
UCS
  5
7
100
AcDbSymbolTable
 70
0
  0
ENDTAB
  0
TABLE
  2
APPID
  5
9
100
AcDbSymbolTable
 70
1
  0
APPID
  5
203
100
AcDbSymbolTableRecord
100
AcDbRegAppTableRecord
  2
ACAD
 70
0
  0
ENDTAB
  0
TABLE
  2
BLOCK_RECORD
  5
1
100
AcDbSymbolTable
 70
0
  0
BLOCK_RECORD
  5
204
100
AcDbSymbolTableRecord
100
AcDbBlockTableRecord
  2
*Model_Space
  0
BLOCK_RECORD
  5
205
100
AcDbSymbolTableRecord
100
AcDbBlockTableRecord
  2
*Paper_Space
  0
BLOCK_RECORD
  5
206
100
AcDbSymbolTableRecord
100
AcDbBlockTableRecord
  2
SUN_FIRST_THIRD_ANGLE_BL0
  0
BLOCK_RECORD
  5
207
100
AcDbSymbolTableRecord
100
AcDbBlockTableRecord
  2
*T1
  0
BLOCK_RECORD
  5
208
100
AcDbSymbolTableRecord
100
AcDbBlockTableRecord
  2
*T2
  0
BLOCK_RECORD
  5
209
100
AcDbSymbolTableRecord
100
AcDbBlockTableRecord
  2
*T3
  0
ENDTAB
  0
TABLE
  2
DIMSTYLE
  5
A
100
AcDbSymbolTable
 70
1
100
AcDbDimStyleTable
 71
0
  0
DIMSTYLE
105
20A
100
AcDbSymbolTableRecord
100
AcDbDimStyleTableRecord
  2
STANDARD
 70
0
  3

  4

 40
1.0
 41
0.1875
 42
0.0625
 43
0.38
 44
0.125
 45
0.0
 46
0.0
 47
0.001
 48
0.001
140
0.1
141
0.09
142
0.0
143
25.4
144
1.0
145
0.0
146
1.0
147
0.09
 71
0.0
 72
0.0
 73
1
 74
1
 75
0
 76
0
 77
0
 78
4
170
0
171
2
172
0
173
0
174
0
175
0
176
0
177
0
178
0
270
2
271
3
272
3
273
2
274
2
275
0
280
0
281
0
282
0
283
1
284
4
285
0
286
0
287
3
288
0
340
11
278
46
  0
ENDTAB
  0
ENDSEC
  0
SECTION
  2
BLOCKS
  0
BLOCK
  5
20
100
AcDbEntity
  8
0
100
AcDbBlockBegin
  2
*Model_Space
 70
0
 10
0.0
 20
0.0
 30
0.0
  3
*Model_Space
  1

  0
ENDBLK
  5
21
100
AcDbEntity
  8
0
100
AcDbBlockEnd
  0
BLOCK
  5
1C
100
AcDbEntity
  8
0
100
AcDbBlockBegin
  2
*Paper_Space
 70
0
 10
0.0
 20
0.0
 30
0.0
  3
*Paper_Space
  1

  0
ENDBLK
  5
1D
100
AcDbEntity
  8
0
100
AcDbBlockEnd
  0
BLOCK
  5
20B
100
AcDbEntity
  8
0
100
AcDbBlockBegin
 62
2
  6
CONTINUOUS
  2
SUN_FIRST_THIRD_ANGLE_BL0
 70
64
 10
20.4816717061
 20
1.2289683772
  3
SUN_FIRST_THIRD_ANGLE_BL0
  1

  0
TEXT
  5
20C
100
AcDbEntity
  8
0
100
AcDbText
 62
2
  6
CONTINUOUS
 10
19.4750896608
 20
1.4136269581
  7
STANDARD
 40
0.08
  1
FIRST ANGLE
 41
0.8
 72
0
100
AcDbText
  0
TEXT
  5
20D
100
AcDbEntity
  8
0
100
AcDbText
 62
2
  6
CONTINUOUS
 10
20.7842537513
 20
1.4047600029
  7
STANDARD
 40
0.08
  1
THIRD ANGLE
 41
0.8
 72
0
100
AcDbText
  0
LINE
  5
20E
100
AcDbEntity
  8
0
100
AcDbLine
 62
7
  6
CONTINUOUS
 10
19.4767170086
 20
1.1727031207
 11
19.6334271527
 21
1.1717972817
  0
LINE
  5
20F
100
AcDbEntity
  8
0
100
AcDbLine
 62
7
  6
CONTINUOUS
 10
19.6596964832
 20
1.1717972817
 11
19.6950230232
 21
1.171593082
  0
LINE
  5
210
100
AcDbEntity
  8
0
100
AcDbLine
 62
7
  6
CONTINUOUS
 10
19.7194818561
 20
1.1708914427
 11
19.8852396156
 21
1.1699333054
  0
LINE
  5
211
100
AcDbEntity
  8
0
100
AcDbLine
 62
7
  6
CONTINUOUS
 10
19.4758111696
 20
1.2723454088
 11
19.88525039
 21
1.3511534004
  0
LINE
  5
212
100
AcDbEntity
  8
0
100
AcDbLine
 62
7
  6
CONTINUOUS
 10
19.88525039
 20
1.3511534004
 11
19.8831348489
 21
0.9851647912
  0
LINE
  5
213
100
AcDbEntity
  8
0
100
AcDbLine
 62
7
  6
CONTINUOUS
 10
19.8831348489
 20
0.9851647912
 11
19.4767170086
 21
1.0658141206
  0
LINE
  5
214
100
AcDbEntity
  8
0
100
AcDbLine
 62
7
  6
CONTINUOUS
 10
19.4767170086
 20
1.0658141206
 11
19.4779056764
 21
1.2714536432
  0
CIRCLE
  5
215
100
AcDbEntity
  8
0
100
AcDbCircle
 62
7
  6
CONTINUOUS
 10
20.2068232291
 20
1.1717972817
 40
0.175742101
  0
CIRCLE
  5
216
100
AcDbEntity
  8
0
100
AcDbCircle
 62
7
  6
CONTINUOUS
 10
20.2068232291
 20
1.1717972817
 40
0.1005522074
  0
LINE
  5
217
100
AcDbEntity
  8
0
100
AcDbLine
 62
7
  6
CONTINUOUS
 10
20.2077290681
 20
1.3756110529
 11
20.2071171714
 21
1.2379342989
  0
LINE
  5
218
100
AcDbEntity
  8
0
100
AcDbLine
 62
7
  6
CONTINUOUS
 10
20.2077290681
 20
1.2016899681
 11
20.2074674401
 21
1.1428236749
  0
LINE
  5
219
100
AcDbEntity
  8
0
100
AcDbLine
 62
7
  6
CONTINUOUS
 10
20.208634907
 20
1.101141841
 11
20.2080230104
 21
0.963465087
  0
LINE
  5
21A
100
AcDbEntity
  8
0
100
AcDbLine
 62
7
  6
CONTINUOUS
 10
20.0066328138
 20
1.1745147986
 11
20.1443095678
 21
1.1739029019
  0
LINE
  5
21B
100
AcDbEntity
  8
0
100
AcDbLine
 62
7
  6
CONTINUOUS
 10
20.1832714155
 20
1.1727031207
 11
20.238153505
 21
1.172335442
  0
LINE
  5
21C
100
AcDbEntity
  8
0
100
AcDbLine
 62
7
  6
CONTINUOUS
 10
20.2756669918
 20
1.1717972817
 11
20.407916871
 21
1.1712095044
  0
CIRCLE
  5
21D
100
AcDbEntity
  8
0
100
AcDbCircle
 62
7
  6
CONTINUOUS
 10
20.7509457401
 20
1.1693297793
 40
0.1722024983
  0
CIRCLE
  5
21E
100
AcDbEntity
  8
0
100
AcDbCircle
 62
7
  6
CONTINUOUS
 10
20.7509457401
 20
1.1693297793
 40
0.0985164967
  0
LINE
  5
21F
100
AcDbEntity
  8
0
100
AcDbLine
 62
7
  6
CONTINUOUS
 10
20.7169767782
 20
1.170462078
 11
20.7825395137
 21
1.1682766535
  0
LINE
  5
220
100
AcDbEntity
  8
0
100
AcDbLine
 62
7
  6
CONTINUOUS
 10
20.8177513651
 20
1.1693297793
 11
20.947965719
 21
1.1693297793
  0
LINE
  5
221
100
AcDbEntity
  8
0
100
AcDbLine
 62
7
  6
CONTINUOUS
 10
20.6875370113
 20
1.170462078
 11
20.5573226574
 21
1.170462078
  0
LINE
  5
222
100
AcDbEntity
  8
0
100
AcDbLine
 62
7
  6
CONTINUOUS
 10
20.7486811426
 20
1.1987695462
 11
20.7486811426
 21
1.1432869085
  0
LINE
  5
223
100
AcDbEntity
  8
0
100
AcDbLine
 62
7
  6
CONTINUOUS
 10
20.7498134414
 20
1.1059210505
 11
20.7498134414
 21
0.9757066966
  0
LINE
  5
224
100
AcDbEntity
  8
0
100
AcDbLine
 62
7
  6
CONTINUOUS
 10
20.7486811426
 20
1.2338708068
 11
20.7486811426
 21
1.3640851607
  0
LINE
  5
225
100
AcDbEntity
  8
0
100
AcDbLine
 62
7
  6
CONTINUOUS
 10
21.0702539817
 20
1.2701043662
 11
21.4790138229
 21
1.3448360823
  0
LINE
  5
226
100
AcDbEntity
  8
0
100
AcDbLine
 62
7
  6
CONTINUOUS
 10
21.4790138229
 20
1.3448360823
 11
21.4790138229
 21
0.9779712941
  0
LINE
  5
227
100
AcDbEntity
  8
0
100
AcDbLine
 62
7
  6
CONTINUOUS
 10
21.4790138229
 20
0.9779712941
 11
21.069121683
 21
1.0617614
  0
LINE
  5
228
100
AcDbEntity
  8
0
100
AcDbLine
 62
7
  6
CONTINUOUS
 10
21.0702539817
 20
1.2701043662
 11
21.069121683
 21
1.0617614
  0
LINE
  5
229
100
AcDbEntity
  8
0
100
AcDbLine
 62
7
  6
CONTINUOUS
 10
21.4790138229
 20
1.1693297793
 11
21.3159628059
 21
1.1693297793
  0
LINE
  5
22A
100
AcDbEntity
  8
0
100
AcDbLine
 62
7
  6
CONTINUOUS
 10
21.2876553377
 20
1.1693297793
 11
21.2502894796
 21
1.1693297793
  0
LINE
  5
22B
100
AcDbEntity
  8
0
100
AcDbLine
 62
7
  6
CONTINUOUS
 10
21.2208497126
 20
1.1659328831
 11
21.0713862804
 21
1.1659328831
  0
LINE
  5
22C
100
AcDbEntity
  8
0
100
AcDbLine
 62
7
  6
CONTINUOUS
 10
20.4796138713
 20
1.5284908897
 11
20.4766766948
 21
0.9294458646
  0
ENDBLK
  5
22D
100
AcDbEntity
  8
0
  6
BYBLOCK
 62
0
100
AcDbBlockEnd
  0
BLOCK
  5
22E
100
AcDbEntity
  8
0
100
AcDbBlockBegin
  2
*T1
 70
1
 10
0.0
 20
0.0
  3
*T1
  1

  0
LINE
  5
22F
100
AcDbEntity
  8
0
100
AcDbLine
 62
2
  6
CONTINUOUS
 10
9.275
 20
0.0
 11
-0.0
 21
0.0
  0
LINE
  5
230
100
AcDbEntity
  8
0
100
AcDbLine
 62
2
  6
CONTINUOUS
 10
9.275
 20
0.0
 11
9.275
 21
1.25
  0
LINE
  5
231
100
AcDbEntity
  8
0
100
AcDbLine
 62
2
  6
CONTINUOUS
 10
9.275
 20
0.625
 11
-0.0
 21
0.625
  0
LINE
  5
232
100
AcDbEntity
  8
0
100
AcDbLine
 62
2
  6
CONTINUOUS
 10
9.275
 20
1.25
 11
-0.0
 21
1.25
  0
LINE
  5
233
100
AcDbEntity
  8
0
100
AcDbLine
 62
2
  6
CONTINUOUS
 10
6.8
 20
0.0
 11
6.8
 21
1.25
  0
LINE
  5
234
100
AcDbEntity
  8
0
100
AcDbLine
 62
2
  6
CONTINUOUS
 10
6.4
 20
0.0
 11
6.4
 21
0.625
  0
LINE
  5
235
100
AcDbEntity
  8
0
100
AcDbLine
 62
2
  6
CONTINUOUS
 10
5.9
 20
0.0
 11
5.9
 21
0.625
  0
LINE
  5
236
100
AcDbEntity
  8
0
100
AcDbLine
 62
2
  6
CONTINUOUS
 10
5.2
 20
0.0
 11
5.2
 21
0.625
  0
LINE
  5
237
100
AcDbEntity
  8
0
100
AcDbLine
 62
2
  6
CONTINUOUS
 10
4.1
 20
0.0
 11
4.1
 21
1.25
  0
LINE
  5
238
100
AcDbEntity
  8
0
100
AcDbLine
 62
2
  6
CONTINUOUS
 10
-0.0
 20
0.0
 11
-0.0
 21
1.25
  0
MTEXT
  5
239
100
AcDbEntity
  8
0
100
AcDbMText
 62
2
  6
CONTINUOUS
  7
STANDARD
 71
2
 72
1
 10
6.6
 20
0.325
 30
0.0
 11
1.0
 21
0.0
 31
0.0
 44
0.9
  1
2
 40
0.125
 41
0.2
  0
MTEXT
  5
23A
100
AcDbEntity
  8
0
100
AcDbMText
 62
2
  6
CONTINUOUS
  7
STANDARD
 71
2
 72
1
 10
6.15
 20
0.325
 30
0.0
 11
1.0
 21
0.0
 31
0.0
 44
0.9
  1
C
 40
0.125
 41
0.2
  0
MTEXT
  5
23B
100
AcDbEntity
  8
0
100
AcDbMText
 62
2
  6
CONTINUOUS
  7
STANDARD
 71
2
 72
1
 10
5.55
 20
0.325
 30
0.0
 11
1.0
 21
0.0
 31
0.0
 44
0.9
  1
2.000
 40
0.125
 41
1.0
  0
MTEXT
  5
23C
100
AcDbEntity
  8
0
100
AcDbMText
 62
2
  6
CONTINUOUS
  7
STANDARD
 71
2
 72
1
 10
4.65
 20
0.325
 30
0.0
 11
1.0
 21
0.0
 31
0.0
 44
0.9
  1
Aug-24-23
 40
0.125
 41
1.8
  0
MTEXT
  5
23D
100
AcDbEntity
  8
0
100
AcDbMText
 62
2
  6
CONTINUOUS
  7
STANDARD
 71
2
 72
1
 10
2.05
 20
0.4625
 30
0.0
 11
1.0
 21
0.0
 31
0.0
 44
0.9
  1
T-10A Line mount\PCross port with make up checks
 40
0.125
 41
6.0
  0
MTEXT
  5
23E
100
AcDbEntity
  8
0
100
AcDbMText
 62
2
  6
CONTINUOUS
  7
STANDARD
 71
1
 72
1
 10
6.45
 20
0.5625
 30
0.0
 11
1.0
 21
0.0
 31
0.0
 44
0.9
  1
SHEET
 40
0.06
 41
0.48
  0
MTEXT
  5
23F
100
AcDbEntity
  8
0
100
AcDbMText
 62
2
  6
CONTINUOUS
  7
STANDARD
 71
1
 72
1
 10
5.95
 20
0.5625
 30
0.0
 11
1.0
 21
0.0
 31
0.0
 44
0.9
  1
DWG SIZE
 40
0.06
 41
0.768
  0
MTEXT
  5
240
100
AcDbEntity
  8
0
100
AcDbMText
 62
2
  6
CONTINUOUS
  7
STANDARD
 71
1
 72
1
 10
5.25
 20
0.5625
 30
0.0
 11
1.0
 21
0.0
 31
0.0
 44
0.9
  1
SCALE
 40
0.06
 41
0.48
  0
MTEXT
  5
241
100
AcDbEntity
  8
0
100
AcDbMText
 62
2
  6
CONTINUOUS
  7
STANDARD
 71
1
 72
1
 10
4.15
 20
0.5625
 30
0.0
 11
1.0
 21
0.0
 31
0.0
 44
0.9
  1
DATE
 40
0.06
 41
0.384
  0
MTEXT
  5
242
100
AcDbEntity
  8
0
100
AcDbMText
 62
2
  6
CONTINUOUS
  7
STANDARD
 71
1
 72
1
 10
0.05
 20
0.5625
 30
0.0
 11
1.0
 21
0.0
 31
0.0
 44
0.9
  1
DESCRIPTION
 40
0.06
 41
1.056
  0
MTEXT
  5
243
100
AcDbEntity
  8
0
100
AcDbMText
 62
2
  6
CONTINUOUS
  7
STANDARD
 71
2
 72
1
 10
5.45
 20
1.0375
 30
0.0
 11
1.0
 21
0.0
 31
0.0
 44
0.9
  1
ALL DIMENSIONS IN INCH\PVIEWS ARE THIRD ANGLE
 40
0.12
 41
4.224
  0
MTEXT
  5
244
100
AcDbEntity
  8
0
100
AcDbMText
 62
2
  6
CONTINUOUS
  7
STANDARD
 71
2
 72
1
 10
2.05
 20
0.95
 30
0.0
 11
1.0
 21
0.0
 31
0.0
 44
0.9
  1
FMJ
 40
0.125
 41
0.6
  0
MTEXT
  5
245
100
AcDbEntity
  8
0
100
AcDbMText
 62
2
  6
CONTINUOUS
  7
STANDARD
 71
1
 72
1
 10
0.05
 20
1.1875
 30
0.0
 11
1.0
 21
0.0
 31
0.0
 44
0.9
  1
MODEL
 40
0.06
 41
0.48
  0
ENDBLK
  5
246
100
AcDbEntity
  8
0
  6
BYBLOCK
 62
0
100
AcDbBlockEnd
  0
BLOCK
  5
247
100
AcDbEntity
  8
0
100
AcDbBlockBegin
  2
*T2
 70
1
 10
0.0
 20
0.0
  3
*T2
  1

  0
LINE
  5
248
100
AcDbEntity
  8
0
100
AcDbLine
 62
2
  6
CONTINUOUS
 10
0.0
 20
0.0
 11
9.055
 21
0.0
  0
LINE
  5
249
100
AcDbEntity
  8
0
100
AcDbLine
 62
2
  6
CONTINUOUS
 10
0.0
 20
0.0
 11
0.0
 21
-2.844
  0
LINE
  5
24A
100
AcDbEntity
  8
0
100
AcDbLine
 62
2
  6
CONTINUOUS
 10
0.0
 20
-0.344
 11
9.055
 21
-0.344
  0
LINE
  5
24B
100
AcDbEntity
  8
0
100
AcDbLine
 62
2
  6
CONTINUOUS
 10
0.0
 20
-0.594
 11
9.055
 21
-0.594
  0
LINE
  5
24C
100
AcDbEntity
  8
0
100
AcDbLine
 62
2
  6
CONTINUOUS
 10
0.0
 20
-0.844
 11
9.055
 21
-0.844
  0
LINE
  5
24D
100
AcDbEntity
  8
0
100
AcDbLine
 62
2
  6
CONTINUOUS
 10
0.0
 20
-1.094
 11
9.055
 21
-1.094
  0
LINE
  5
24E
100
AcDbEntity
  8
0
100
AcDbLine
 62
2
  6
CONTINUOUS
 10
0.0
 20
-1.344
 11
9.055
 21
-1.344
  0
LINE
  5
24F
100
AcDbEntity
  8
0
100
AcDbLine
 62
2
  6
CONTINUOUS
 10
0.0
 20
-1.594
 11
9.055
 21
-1.594
  0
LINE
  5
250
100
AcDbEntity
  8
0
100
AcDbLine
 62
2
  6
CONTINUOUS
 10
0.0
 20
-1.844
 11
9.055
 21
-1.844
  0
LINE
  5
251
100
AcDbEntity
  8
0
100
AcDbLine
 62
2
  6
CONTINUOUS
 10
0.0
 20
-2.094
 11
9.055
 21
-2.094
  0
LINE
  5
252
100
AcDbEntity
  8
0
100
AcDbLine
 62
2
  6
CONTINUOUS
 10
0.0
 20
-2.344
 11
9.055
 21
-2.344
  0
LINE
  5
253
100
AcDbEntity
  8
0
100
AcDbLine
 62
2
  6
CONTINUOUS
 10
0.0
 20
-2.594
 11
9.055
 21
-2.594
  0
LINE
  5
254
100
AcDbEntity
  8
0
100
AcDbLine
 62
2
  6
CONTINUOUS
 10
0.0
 20
-2.844
 11
9.055
 21
-2.844
  0
LINE
  5
255
100
AcDbEntity
  8
0
100
AcDbLine
 62
2
  6
CONTINUOUS
 10
3.055
 20
0.0
 11
3.055
 21
-2.844
  0
LINE
  5
256
100
AcDbEntity
  8
0
100
AcDbLine
 62
2
  6
CONTINUOUS
 10
9.055
 20
0.0
 11
9.055
 21
-2.844
  0
MTEXT
  5
257
100
AcDbEntity
  8
0
100
AcDbMText
 62
2
  6
CONTINUOUS
  7
STANDARD
 71
2
 72
1
 10
1.5275
 20
-0.0995
 30
0.0
 11
1.0
 21
0.0
 31
0.0
 44
0.9
  1
Technical Data
 40
0.145
 41
3.248
  0
MTEXT
  5
258
100
AcDbEntity
  8
0
100
AcDbMText
 62
2
  6
CONTINUOUS
  7
STANDARD
 71
2
 72
1
 10
4.555
 20
-0.0995
 30
0.0
 11
1.0
 21
0.0
 31
0.0
 44
0.9
  1
U.S. Units
 40
0.145
 41
2.32
  0
MTEXT
  5
259
100
AcDbEntity
  8
0
100
AcDbMText
 62
2
  6
CONTINUOUS
  7
STANDARD
 71
2
 72
1
 10
7.555
 20
-0.0995
 30
0.0
 11
1.0
 21
0.0
 31
0.0
 44
0.9
  1
Metric Units
 40
0.145
 41
2.784
  0
MTEXT
  5
25A
100
AcDbEntity
  8
0
100
AcDbMText
 62
2
  6
CONTINUOUS
  7
STANDARD
 71
2
 72
1
 10
1.5275
 20
-0.4065
 30
0.0
 11
1.0
 21
0.0
 31
0.0
 44
0.9
  1
Cavity
 40
0.125
 41
1.2
  0
MTEXT
  5
25B
100
AcDbEntity
  8
0
100
AcDbMText
 62
2
  6
CONTINUOUS
  7
STANDARD
 71
2
 72
1
 10
6.055
 20
-0.4065
 30
0.0
 11
1.0
 21
0.0
 31
0.0
 44
0.9
  1
T-10A
 40
0.125
 41
1.0
  0
MTEXT
  5
25C
100
AcDbEntity
  8
0
100
AcDbMText
 62
2
  6
CONTINUOUS
  7
STANDARD
 71
2
 72
1
 10
1.5275
 20
-0.6565
 30
0.0
 11
1.0
 21
0.0
 31
0.0
 44
0.9
  1
Body Features
 40
0.125
 41
2.6
  0
MTEXT
  5
25D
100
AcDbEntity
  8
0
100
AcDbMText
 62
2
  6
CONTINUOUS
  7
STANDARD
 71
2
 72
1
 10
6.055
 20
-0.6565
 30
0.0
 11
1.0
 21
0.0
 31
0.0
 44
0.9
  1
Cross port with make up checks
 40
0.125
 41
6.0
  0
MTEXT
  5
25E
100
AcDbEntity
  8
0
100
AcDbMText
 62
2
  6
CONTINUOUS
  7
STANDARD
 71
2
 72
1
 10
1.5275
 20
-0.9065
 30
0.0
 11
1.0
 21
0.0
 31
0.0
 44
0.9
  1
Body Type
 40
0.125
 41
1.8
  0
MTEXT
  5
25F
100
AcDbEntity
  8
0
100
AcDbMText
 62
2
  6
CONTINUOUS
  7
STANDARD
 71
2
 72
1
 10
6.055
 20
-0.9065
 30
0.0
 11
1.0
 21
0.0
 31
0.0
 44
0.9
  1
Line mount
 40
0.125
 41
2.0
  0
MTEXT
  5
260
100
AcDbEntity
  8
0
100
AcDbMText
 62
2
  6
CONTINUOUS
  7
STANDARD
 71
2
 72
1
 10
1.5275
 20
-1.1565
 30
0.0
 11
1.0
 21
0.0
 31
0.0
 44
0.9
  1
Interface
 40
0.125
 41
1.8
  0
MTEXT
  5
261
100
AcDbEntity
  8
0
100
AcDbMText
 62
2
  6
CONTINUOUS
  7
STANDARD
 71
2
 72
1
 10
6.055
 20
-1.1565
 30
0.0
 11
1.0
 21
0.0
 31
0.0
 44
0.9
  1
None
 40
0.125
 41
0.8
  0
MTEXT
  5
262
100
AcDbEntity
  8
0
100
AcDbMText
 62
2
  6
CONTINUOUS
  7
STANDARD
 71
2
 72
1
 10
1.5275
 20
-1.4065
 30
0.0
 11
1.0
 21
0.0
 31
0.0
 44
0.9
  1
Open Cavity Quantity
 40
0.125
 41
4.0
  0
MTEXT
  5
263
100
AcDbEntity
  8
0
100
AcDbMText
 62
2
  6
CONTINUOUS
  7
STANDARD
 71
2
 72
1
 10
6.055
 20
-1.4065
 30
0.0
 11
1.0
 21
0.0
 31
0.0
 44
0.9
  1
2
 40
0.125
 41
0.2
  0
MTEXT
  5
264
100
AcDbEntity
  8
0
100
AcDbMText
 62
2
  6
CONTINUOUS
  7
STANDARD
 71
2
 72
1
 10
1.5275
 20
-1.6565
 30
0.0
 11
1.0
 21
0.0
 31
0.0
 44
0.9
  1
Weight
 40
0.125
 41
1.2
  0
MTEXT
  5
265
100
AcDbEntity
  8
0
100
AcDbMText
 62
2
  6
CONTINUOUS
  7
STANDARD
 71
2
 72
1
 10
4.555
 20
-1.6565
 30
0.0
 11
1.0
 21
0.0
 31
0.0
 44
0.9
  1
2.561 lb.
 40
0.125
 41
1.8
  0
MTEXT
  5
266
100
AcDbEntity
  8
0
100
AcDbMText
 62
2
  6
CONTINUOUS
  7
STANDARD
 71
2
 72
1
 10
7.555
 20
-1.6565
 30
0.0
 11
1.0
 21
0.0
 31
0.0
 44
0.9
  1
1,162 kg.
 40
0.125
 41
1.8
  0
MTEXT
  5
267
100
AcDbEntity
  8
0
100
AcDbMText
 62
2
  6
CONTINUOUS
  7
STANDARD
 71
2
 72
1
 10
1.5275
 20
-1.9065
 30
0.0
 11
1.0
 21
0.0
 31
0.0
 44
0.9
  1
Mounting Hole Diameter
 40
0.125
 41
4.4
  0
MTEXT
  5
268
100
AcDbEntity
  8
0
100
AcDbMText
 62
2
  6
CONTINUOUS
  7
STANDARD
 71
2
 72
1
 10
4.555
 20
-1.9065
 30
0.0
 11
1.0
 21
0.0
 31
0.0
 44
0.9
  1
.34 in.
 40
0.125
 41
1.4
  0
MTEXT
  5
269
100
AcDbEntity
  8
0
100
AcDbMText
 62
2
  6
CONTINUOUS
  7
STANDARD
 71
2
 72
1
 10
7.555
 20
-1.9065
 30
0.0
 11
1.0
 21
0.0
 31
0.0
 44
0.9
  1
8.6 mm
 40
0.125
 41
1.2
  0
MTEXT
  5
26A
100
AcDbEntity
  8
0
100
AcDbMText
 62
2
  6
CONTINUOUS
  7
STANDARD
 71
2
 72
1
 10
1.5275
 20
-2.1565
 30
0.0
 11
1.0
 21
0.0
 31
0.0
 44
0.9
  1
Mounting Hole Depth
 40
0.125
 41
3.8
  0
MTEXT
  5
26B
100
AcDbEntity
  8
0
100
AcDbMText
 62
2
  6
CONTINUOUS
  7
STANDARD
 71
2
 72
1
 10
6.055
 20
-2.1565
 30
0.0
 11
1.0
 21
0.0
 31
0.0
 44
0.9
  1
Through
 40
0.125
 41
1.4
  0
MTEXT
  5
26C
100
AcDbEntity
  8
0
100
AcDbMText
 62
2
  6
CONTINUOUS
  7
STANDARD
 71
2
 72
1
 10
1.5275
 20
-2.4065
 30
0.0
 11
1.0
 21
0.0
 31
0.0
 44
0.9
  1
Mounting Hole Quantity
 40
0.125
 41
4.4
  0
MTEXT
  5
26D
100
AcDbEntity
  8
0
100
AcDbMText
 62
2
  6
CONTINUOUS
  7
STANDARD
 71
2
 72
1
 10
6.055
 20
-2.4065
 30
0.0
 11
1.0
 21
0.0
 31
0.0
 44
0.9
  1
2
 40
0.125
 41
0.2
  0
MTEXT
  5
26E
100
AcDbEntity
  8
0
100
AcDbMText
 62
2
  6
CONTINUOUS
  7
STANDARD
 71
2
 72
1
 10
1.5275
 20
-2.6565
 30
0.0
 11
1.0
 21
0.0
 31
0.0
 44
0.9
  1
Includes integral cartridge(s)
 40
0.125
 41
6.0
  0
MTEXT
  5
26F
100
AcDbEntity
  8
0
100
AcDbMText
 62
2
  6
CONTINUOUS
  7
STANDARD
 71
2
 72
1
 10
6.055
 20
-2.6565
 30
0.0
 11
1.0
 21
0.0
 31
0.0
 44
0.9
  1
Yes (see Included Components)
 40
0.125
 41
5.8
  0
ENDBLK
  5
270
100
AcDbEntity
  8
0
  6
BYBLOCK
 62
0
100
AcDbBlockEnd
  0
BLOCK
  5
271
100
AcDbEntity
  8
0
100
AcDbBlockBegin
  2
*T3
 70
1
 10
0.0
 20
0.0
  3
*T3
  1

  0
LINE
  5
272
100
AcDbEntity
  8
0
100
AcDbLine
 62
2
  6
CONTINUOUS
 10
0.0
 20
0.0
 11
4.6
 21
0.0
  0
LINE
  5
273
100
AcDbEntity
  8
0
100
AcDbLine
 62
2
  6
CONTINUOUS
 10
0.0
 20
0.0
 11
0.0
 21
-0.93775
  0
LINE
  5
274
100
AcDbEntity
  8
0
100
AcDbLine
 62
2
  6
CONTINUOUS
 10
0.0
 20
-0.34375
 11
4.6
 21
-0.34375
  0
LINE
  5
275
100
AcDbEntity
  8
0
100
AcDbLine
 62
2
  6
CONTINUOUS
 10
0.0
 20
-0.68775
 11
4.6
 21
-0.68775
  0
LINE
  5
276
100
AcDbEntity
  8
0
100
AcDbLine
 62
2
  6
CONTINUOUS
 10
0.0
 20
-0.93775
 11
4.6
 21
-0.93775
  0
LINE
  5
277
100
AcDbEntity
  8
0
100
AcDbLine
 62
2
  6
CONTINUOUS
 10
1.3
 20
-0.34375
 11
1.3
 21
-0.93775
  0
LINE
  5
278
100
AcDbEntity
  8
0
100
AcDbLine
 62
2
  6
CONTINUOUS
 10
3.3
 20
-0.34375
 11
3.3
 21
-0.93775
  0
LINE
  5
279
100
AcDbEntity
  8
0
100
AcDbLine
 62
2
  6
CONTINUOUS
 10
4.6
 20
0.0
 11
4.6
 21
-0.93775
  0
MTEXT
  5
27A
100
AcDbEntity
  8
0
100
AcDbMText
 62
2
  6
CONTINUOUS
  7
STANDARD
 71
2
 72
1
 10
2.3
 20
-0.099375
 30
0.0
 11
1.0
 21
0.0
 31
0.0
 44
0.9
  1
Port Headings
 40
0.145
 41
3.016
  0
MTEXT
  5
27B
100
AcDbEntity
  8
0
100
AcDbMText
 62
2
  6
CONTINUOUS
  7
STANDARD
 71
2
 72
1
 10
0.65
 20
-0.44325
 30
0.0
 11
1.0
 21
0.0
 31
0.0
 44
0.9
  1
Product
 40
0.145
 41
1.624
  0
MTEXT
  5
27C
100
AcDbEntity
  8
0
100
AcDbMText
 62
2
  6
CONTINUOUS
  7
STANDARD
 71
2
 72
1
 10
2.3
 20
-0.44325
 30
0.0
 11
1.0
 21
0.0
 31
0.0
 44
0.9
  1
Port
 40
0.145
 41
0.928
  0
MTEXT
  5
27D
100
AcDbEntity
  8
0
100
AcDbMText
 62
2
  6
CONTINUOUS
  7
STANDARD
 71
2
 72
1
 10
3.95
 20
-0.44325
 30
0.0
 11
1.0
 21
0.0
 31
0.0
 44
0.9
  1
Size
 40
0.145
 41
0.928
  0
MTEXT
  5
27E
100
AcDbEntity
  8
0
100
AcDbMText
 62
2
  6
CONTINUOUS
  7
STANDARD
 71
2
 72
1
 10
0.65
 20
-0.75025
 30
0.0
 11
1.0
 21
0.0
 31
0.0
 44
0.9
  1
FMJ
 40
0.125
 41
0.6
  0
MTEXT
  5
27F
100
AcDbEntity
  8
0
100
AcDbMText
 62
2
  6
CONTINUOUS
  7
STANDARD
 71
2
 72
1
 10
2.3
 20
-0.75025
 30
0.0
 11
1.0
 21
0.0
 31
0.0
 44
0.9
  1
All Ports
 40
0.125
 41
1.8
  0
MTEXT
  5
280
100
AcDbEntity
  8
0
100
AcDbMText
 62
2
  6
CONTINUOUS
  7
STANDARD
 71
2
 72
1
 10
3.95
 20
-0.75025
 30
0.0
 11
1.0
 21
0.0
 31
0.0
 44
0.9
  1
SAE 8
 40
0.125
 41
1.0
  0
ENDBLK
  5
281
100
AcDbEntity
  8
0
  6
BYBLOCK
 62
0
100
AcDbBlockEnd
  0
ENDSEC
  0
SECTION
  2
ENTITIES
  0
IMAGE
  5
282
100
AcDbEntity
  8
0
100
AcDbRasterImage
 62
7
  6
CONTINUOUS
 10
19.2297077316
 20
0.3094318264
 30
0.0
 11
0.0066666667
 21
0.0
 31
0.0
 12
0.0
 22
0.0066666667
 32
0.0
 13
369.0
 23
92.0
340
       381
 70
9
280
0
281
50
282
50
283
0
360
       37B
 71
1
 91
2
 14
-0.5
 24
-0.5
 14
368.5
 24
91.5
  0
INSERT
  5
283
100
AcDbEntity
  8
0
100
AcDbBlockReference
 62
2
  6
CONTINUOUS
  2
SUN_FIRST_THIRD_ANGLE_BL0
 10
20.4816717061
 20
1.2289683772
  0
ACAD_TABLE
  5
284
100
AcDbEntity
  8
0
 62
2
  6
CONTINUOUS
100
AcDbBlockReference
  2
*T1
 10
12.42375
 20
0.30125
 30
0.0
100
AcDbTable
342
       383
343
207
 11
1.0
 21
0.0
 31
0.0
 90
6
 91
4
 92
6
 93
20
 94
0
 95
0
 96
0
 70
1
 41
0.0
141
0.525
141
0.1
141
0.525
141
0.1
142
4.1
142
1.1
142
0.7
142
0.5
142
0.4
142
2.475
171
1
172
0
173
0
174
0
175
1
176
1
 91
33
178
0
145
0.0
301
CELL_VALUE
 90
4
  1
T-10A Line mount\PCross port with make up checks
304
ACVALUE_END
170
2
140
0.125
171
1
172
0
173
0
174
0
175
1
176
1
 91
33
178
0
145
0.0
301
CELL_VALUE
 90
4
  1
Aug-24-23
304
ACVALUE_END
170
5
140
0.125
171
1
172
0
173
0
174
0
175
1
176
1
 91
33
178
0
145
0.0
301
CELL_VALUE
 90
4
  1
2.000
304
ACVALUE_END
170
5
140
0.125
171
1
172
0
173
0
174
0
175
1
176
1
 91
33
178
0
145
0.0
301
CELL_VALUE
 90
4
  1
C
304
ACVALUE_END
170
5
140
0.125
171
1
172
0
173
0
174
0
175
1
176
1
 91
33
178
0
145
0.0
301
CELL_VALUE
 90
4
  1
2
304
ACVALUE_END
170
5
140
0.125
171
1
172
0
173
0
174
0
175
1
176
1
 91
33
178
0
145
0.0
301
CELL_VALUE
 90
4
  1
 
304
ACVALUE_END
170
1
140
0.125
171
1
172
0
173
0
174
0
175
1
176
1
 91
33
178
0
145
0.0
301
CELL_VALUE
 90
4
  1
DESCRIPTION
304
ACVALUE_END
170
1
140
0.06
171
1
172
0
173
0
174
0
175
1
176
1
 91
33
178
0
145
0.0
301
CELL_VALUE
 90
4
  1
DATE
304
ACVALUE_END
170
1
140
0.06
171
1
172
0
173
0
174
0
175
1
176
1
 91
33
178
0
145
0.0
301
CELL_VALUE
 90
4
  1
SCALE
304
ACVALUE_END
170
1
140
0.06
171
1
172
0
173
0
174
0
175
1
176
1
 91
33
178
0
145
0.0
301
CELL_VALUE
 90
4
  1
DWG SIZE
304
ACVALUE_END
170
1
140
0.06
171
1
172
0
173
0
174
0
175
1
176
1
 91
33
178
0
145
0.0
301
CELL_VALUE
 90
4
  1
SHEET
304
ACVALUE_END
170
1
140
0.06
171
1
172
0
173
0
174
0
175
1
176
1
 91
33
178
0
145
0.0
301
CELL_VALUE
 90
4
  1
 
304
ACVALUE_END
170
1
140
0.125
171
1
172
0
173
0
174
0
175
1
176
1
 91
33
178
0
145
0.0
301
CELL_VALUE
 90
4
  1
FMJ
304
ACVALUE_END
170
5
140
0.125
171
1
172
0
173
0
174
0
175
4
176
1
 91
33
178
0
145
0.0
301
CELL_VALUE
 90
4
  1
ALL DIMENSIONS IN INCH\PVIEWS ARE THIRD ANGLE
304
ACVALUE_END
170
5
140
0.12
171
1
172
0
173
1
174
0
175
1
176
1
 91
1
178
0
145
0.0
170
1
171
1
172
0
173
1
174
0
175
1
176
1
 91
1
178
0
145
0.0
170
1
171
1
172
0
173
1
174
0
175
1
176
1
 91
1
178
0
145
0.0
170
5
171
1
172
0
173
0
174
0
175
1
176
1
 91
33
178
0
145
0.0
301
CELL_VALUE
 90
4
  1
 
304
ACVALUE_END
170
1
140
0.125
171
1
172
0
173
0
174
0
175
1
176
1
 91
33
178
0
145
0.0
301
CELL_VALUE
 90
4
  1
MODEL
304
ACVALUE_END
170
1
140
0.06
171
1
172
0
173
0
174
0
175
1
176
1
 91
33
178
0
145
0.0
301
CELL_VALUE
 90
4
  1
 
304
ACVALUE_END
170
1
140
0.125
171
1
172
0
173
0
174
0
175
1
176
1
 91
33
178
0
145
0.0
301
CELL_VALUE
 90
4
  1
 
304
ACVALUE_END
170
1
140
0.125
171
1
172
0
173
0
174
0
175
1
176
1
 91
33
178
0
145
0.0
301
CELL_VALUE
 90
4
  1
 
304
ACVALUE_END
170
1
140
0.125
171
1
172
0
173
0
174
0
175
1
176
1
 91
33
178
0
145
0.0
301
CELL_VALUE
 90
4
  1
 
304
ACVALUE_END
170
1
140
0.125
171
1
172
0
173
0
174
0
175
1
176
1
 91
33
178
0
145
0.0
301
CELL_VALUE
 90
4
  1
 
304
ACVALUE_END
170
1
140
0.125
  0
ACAD_TABLE
  5
285
100
AcDbEntity
  8
0
 62
2
  6
CONTINUOUS
100
AcDbBlockReference
  2
*T2
 10
12.4237499994
 20
16.47875
 30
0.0
100
AcDbTable
342
       382
343
208
 11
1.0
 21
0.0
 31
0.0
 90
22
 91
11
 92
3
 93
16
 94
0
 95
0
 96
0
 41
0.028
141
0.344
141
0.25
141
0.25
141
0.25
141
0.25
141
0.25
141
0.25
141
0.25
141
0.25
141
0.25
141
0.25
142
3.055
142
3.0
142
3.0
171
1
172
0
173
0
174
0
175
1
176
1
 91
33
178
0
145
0.0
301
CELL_VALUE
 90
4
  1
Technical Data
304
ACVALUE_END
170
5
140
0.145
171
1
172
0
173
0
174
0
175
1
176
1
 91
33
178
0
145
0.0
301
CELL_VALUE
 90
4
  1
U.S. Units
304
ACVALUE_END
170
5
140
0.145
171
1
172
0
173
0
174
0
175
1
176
1
 91
33
178
0
145
0.0
301
CELL_VALUE
 90
4
  1
Metric Units
304
ACVALUE_END
170
5
140
0.145
171
1
172
0
173
0
174
0
175
1
176
1
 91
33
178
0
145
0.0
301
CELL_VALUE
 90
4
  1
Cavity
304
ACVALUE_END
170
5
140
0.125
171
1
172
0
173
0
174
0
175
2
176
1
 91
33
178
0
145
0.0
301
CELL_VALUE
 90
4
  1
T-10A
304
ACVALUE_END
170
5
140
0.125
171
1
172
0
173
1
174
0
175
1
176
1
 91
1
178
0
145
0.0
170
1
171
1
172
0
173
0
174
0
175
1
176
1
 91
33
178
0
145
0.0
301
CELL_VALUE
 90
4
  1
Body Features
304
ACVALUE_END
170
5
140
0.125
171
1
172
0
173
0
174
0
175
2
176
1
 91
33
178
0
145
0.0
301
CELL_VALUE
 90
4
  1
Cross port with make up checks
304
ACVALUE_END
170
5
140
0.125
171
1
172
0
173
1
174
0
175
1
176
1
 91
1
178
0
145
0.0
170
1
171
1
172
0
173
0
174
0
175
1
176
1
 91
33
178
0
145
0.0
301
CELL_VALUE
 90
4
  1
Body Type
304
ACVALUE_END
170
5
140
0.125
171
1
172
0
173
0
174
0
175
2
176
1
 91
33
178
0
145
0.0
301
CELL_VALUE
 90
4
  1
Line mount
304
ACVALUE_END
170
5
140
0.125
171
1
172
0
173
1
174
0
175
1
176
1
 91
1
178
0
145
0.0
170
1
171
1
172
0
173
0
174
0
175
1
176
1
 91
33
178
0
145
0.0
301
CELL_VALUE
 90
4
  1
Interface
304
ACVALUE_END
170
5
140
0.125
171
1
172
0
173
0
174
0
175
2
176
1
 91
33
178
0
145
0.0
301
CELL_VALUE
 90
4
  1
None
304
ACVALUE_END
170
5
140
0.125
171
1
172
0
173
1
174
0
175
1
176
1
 91
1
178
0
145
0.0
170
1
171
1
172
0
173
0
174
0
175
1
176
1
 91
33
178
0
145
0.0
301
CELL_VALUE
 90
4
  1
Open Cavity Quantity
304
ACVALUE_END
170
5
140
0.125
171
1
172
0
173
0
174
0
175
2
176
1
 91
33
178
0
145
0.0
301
CELL_VALUE
 90
4
  1
2
304
ACVALUE_END
170
5
140
0.125
171
1
172
0
173
1
174
0
175
1
176
1
 91
1
178
0
145
0.0
170
1
171
1
172
0
173
0
174
0
175
1
176
1
 91
33
178
0
145
0.0
301
CELL_VALUE
 90
4
  1
Weight
304
ACVALUE_END
170
5
140
0.125
171
1
172
0
173
0
174
0
175
1
176
1
 91
33
178
0
145
0.0
301
CELL_VALUE
 90
4
  1
2.561 lb.
304
ACVALUE_END
170
5
140
0.125
171
1
172
0
173
0
174
0
175
1
176
1
 91
33
178
0
145
0.0
301
CELL_VALUE
 90
4
  1
1,162 kg.
304
ACVALUE_END
170
5
140
0.125
171
1
172
0
173
0
174
0
175
1
176
1
 91
33
178
0
145
0.0
301
CELL_VALUE
 90
4
  1
Mounting Hole Diameter
304
ACVALUE_END
170
5
140
0.125
171
1
172
0
173
0
174
0
175
1
176
1
 91
33
178
0
145
0.0
301
CELL_VALUE
 90
4
  1
.34 in.
304
ACVALUE_END
170
5
140
0.125
171
1
172
0
173
0
174
0
175
1
176
1
 91
33
178
0
145
0.0
301
CELL_VALUE
 90
4
  1
8.6 mm
304
ACVALUE_END
170
5
140
0.125
171
1
172
0
173
0
174
0
175
1
176
1
 91
33
178
0
145
0.0
301
CELL_VALUE
 90
4
  1
Mounting Hole Depth
304
ACVALUE_END
170
5
140
0.125
171
1
172
0
173
0
174
0
175
2
176
1
 91
33
178
0
145
0.0
301
CELL_VALUE
 90
4
  1
Through
304
ACVALUE_END
170
5
140
0.125
171
1
172
0
173
1
174
0
175
1
176
1
 91
1
178
0
145
0.0
170
1
171
1
172
0
173
0
174
0
175
1
176
1
 91
33
178
0
145
0.0
301
CELL_VALUE
 90
4
  1
Mounting Hole Quantity
304
ACVALUE_END
170
5
140
0.125
171
1
172
0
173
0
174
0
175
2
176
1
 91
33
178
0
145
0.0
301
CELL_VALUE
 90
4
  1
2
304
ACVALUE_END
170
5
140
0.125
171
1
172
0
173
1
174
0
175
1
176
1
 91
1
178
0
145
0.0
170
1
171
1
172
0
173
0
174
0
175
1
176
1
 91
33
178
0
145
0.0
301
CELL_VALUE
 90
4
  1
Includes integral cartridge(s)
304
ACVALUE_END
170
5
140
0.125
171
1
172
0
173
0
174
0
175
2
176
1
 91
33
178
0
145
0.0
301
CELL_VALUE
 90
4
  1
Yes (see Included Components)
304
ACVALUE_END
170
5
140
0.125
171
1
172
0
173
1
174
0
175
1
176
1
 91
1
178
0
145
0.0
170
1
  0
ACAD_TABLE
  5
286
100
AcDbEntity
  8
0
 62
2
  6
CONTINUOUS
100
AcDbBlockReference
  2
*T3
 10
0.52125
 20
1.459
 30
0.0
100
AcDbTable
342
       382
343
209
 11
1.0
 21
0.0
 31
0.0
 90
22
 91
3
 92
3
 93
16
 94
0
 95
0
 96
0
 41
0.05
141
0.34375
141
0.344
141
0.25
142
1.3
142
2.0
142
1.3
171
1
172
0
173
0
174
0
175
3
176
1
 91
33
178
0
145
0.0
301
CELL_VALUE
 90
4
  1
Port Headings
304
ACVALUE_END
170
5
140
0.145
171
1
172
0
173
1
174
0
175
1
176
1
 91
1
178
0
145
0.0
170
1
171
1
172
0
173
1
174
0
175
1
176
1
 91
1
178
0
145
0.0
170
1
171
1
172
0
173
0
174
0
175
1
176
1
 91
33
178
0
145
0.0
301
CELL_VALUE
 90
4
  1
Product
304
ACVALUE_END
170
5
140
0.145
171
1
172
0
173
0
174
0
175
1
176
1
 91
33
178
0
145
0.0
301
CELL_VALUE
 90
4
  1
Port
304
ACVALUE_END
170
5
140
0.145
171
1
172
0
173
0
174
0
175
1
176
1
 91
33
178
0
145
0.0
301
CELL_VALUE
 90
4
  1
Size
304
ACVALUE_END
170
5
140
0.145
171
1
172
0
173
0
174
0
175
1
176
1
 91
33
178
0
145
0.0
301
CELL_VALUE
 90
4
  1
FMJ
304
ACVALUE_END
170
5
140
0.125
171
1
172
0
173
0
174
0
175
1
176
1
 91
33
178
0
145
0.0
301
CELL_VALUE
 90
4
  1
All Ports
304
ACVALUE_END
170
5
140
0.125
171
1
172
0
173
0
174
0
175
1
176
1
 91
33
178
0
145
0.0
301
CELL_VALUE
 90
4
  1
SAE 8
304
ACVALUE_END
170
5
140
0.125
  0
MTEXT
  5
287
100
AcDbEntity
  8
0
100
AcDbMText
 62
2
  6
CONTINUOUS
  7
STANDARD
 71
1
 72
1
 10
0.52125
 20
5.75995
 30
0.0
 11
1.0
 21
0.0
 31
0.0
 44
0.6
  3
Notes\P \P1. Important: Carefully consider\P   the maximum system pressure. The\P   pressure rating of the manifold is\P   dependent on the manifold material,\P   with the port type/size a secondary\P   consideration. Manifolds\P   constructed of alu
  3
minum are not\P   rated for pressures higher than\P   3000 psi (210 bar), regardless of\P   the port type/size specified.\P2. This drawing is for reference\P   only. It is generated by an\P   automated process and does not fall\P   under Sun's docume
  1
nt control\P   process.
 40
0.1
 41
3.04
  0
LINE
  5
288
100
AcDbEntity
  8
0
100
AcDbLine
 62
7
  6
CONTINUOUS
 10
0.30125
 20
0.30125
 11
0.30125
 21
16.69875
  0
LINE
  5
289
100
AcDbEntity
  8
0
100
AcDbLine
 62
7
  6
CONTINUOUS
 10
0.30125
 20
0.30125
 11
21.69875
 21
0.30125
  0
LINE
  5
28A
100
AcDbEntity
  8
0
100
AcDbLine
 62
7
  6
CONTINUOUS
 10
0.30125
 20
16.69875
 11
21.69875
 21
16.69875
  0
LINE
  5
28B
100
AcDbEntity
  8
0
100
AcDbLine
 62
7
  6
CONTINUOUS
 10
21.69875
 20
0.30125
 11
21.69875
 21
16.69875
  0
LINE
  5
28C
100
AcDbEntity
  8
0
100
AcDbLine
 62
7
  6
CONTINUOUS
 10
7.1602186008
 20
10.8768333737
 11
8.6810380359
 21
12.3458322303
  0
LINE
  5
28D
100
AcDbEntity
  8
0
100
AcDbLine
 62
7
  6
CONTINUOUS
 10
7.1602186008
 20
5.0812780726
 11
7.1602186008
 21
10.8768333737
  0
LINE
  5
28E
100
AcDbEntity
  8
0
100
AcDbLine
 62
4
  6
CONTINUOUS
 10
7.4161889596
 20
9.9511114372
 11
7.4017000716
 21
9.8941606933
  0
LINE
  5
28F
100
AcDbEntity
  8
0
100
AcDbLine
 62
4
  6
CONTINUOUS
 10
7.4017000716
 20
10.0873458611
 11
7.4161889596
 21
10.1056595798
  0
LINE
  5
290
100
AcDbEntity
  8
0
100
AcDbLine
 62
4
  6
CONTINUOUS
 10
7.4451667354
 20
9.9877388538
 11
7.4161889596
 21
9.9511114372
  0
LINE
  5
291
100
AcDbEntity
  8
0
100
AcDbLine
 62
4
  6
CONTINUOUS
 10
7.5176111751
 20
10.0406703735
 11
7.5031222871
 21
10.0223566548
  0
LINE
  5
292
100
AcDbEntity
  8
0
100
AcDbLine
 62
7
  6
CONTINUOUS
 10
13.3189619641
 20
4.6541677697
 11
7.1602186008
 21
5.0812780726
  0
LINE
  5
293
100
AcDbEntity
  8
0
100
AcDbLine
 62
4
  6
CONTINUOUS
 10
7.5176111751
 20
10.0793073988
 11
7.5176111751
 21
10.0406703735
  0
LINE
  5
294
100
AcDbEntity
  8
0
100
AcDbLine
 62
4
  6
CONTINUOUS
 10
7.5176111751
 20
6.7372038455
 11
7.5176111751
 21
6.5053816387
  0
LINE
  5
295
100
AcDbEntity
  8
0
100
AcDbLine
 62
4
  6
CONTINUOUS
 10
7.7281828581
 20
9.5044671994
 11
7.7281828581
 21
9.3885560934
  0
LINE
  5
296
100
AcDbEntity
  8
0
100
AcDbLine
 62
4
  6
CONTINUOUS
 10
7.4161889596
 20
10.1056595798
 11
7.4451667354
 21
10.1229684768
  0
LINE
  5
297
100
AcDbEntity
  8
0
100
AcDbLine
 62
4
  6
CONTINUOUS
 10
7.8440939642
 20
9.3805176309
 11
7.8440939642
 21
9.2646065249
  0
LINE
  5
298
100
AcDbEntity
  8
0
100
AcDbLine
 62
4
  6
CONTINUOUS
 10
7.9020495172
 20
9.2605872936
 11
7.9020495172
 21
9.4924095057
  0
LINE
  5
299
100
AcDbEntity
  8
0
100
AcDbLine
 62
4
  6
CONTINUOUS
 10
7.9967102653
 20
8.071729267
 11
7.9967102653
 21
8.3035514791
  0
LINE
  5
29A
100
AcDbEntity
  8
0
100
AcDbLine
 62
4
  6
CONTINUOUS
 10
8.0179606232
 20
9.4843710432
 11
8.0179606232
 21
9.2525488311
  0
LINE
  5
29B
100
AcDbEntity
  8
0
100
AcDbLine
 62
4
  6
CONTINUOUS
 10
8.0759161762
 20
9.4803518119
 11
8.0759161762
 21
9.2485295999
  0
LINE
  5
29C
100
AcDbEntity
  8
0
100
AcDbLine
 62
4
  6
CONTINUOUS
 10
8.1126213575
 20
8.2623955606
 11
8.1126213575
 21
8.0968082658
  0
LINE
  5
29D
100
AcDbEntity
  8
0
100
AcDbLine
 62
4
  6
CONTINUOUS
 10
7.5031222871
 20
10.0223566548
 11
7.4451667354
 21
9.9877388538
  0
LINE
  5
29E
100
AcDbEntity
  8
0
100
AcDbLine
 62
4
  6
CONTINUOUS
 10
10.2395902833
 20
5.3410265988
 11
10.3844791626
 21
5.3309785209
  0
LINE
  5
29F
100
AcDbEntity
  8
0
100
AcDbLine
 62
4
  6
CONTINUOUS
 10
8.1918272822
 20
9.4723133494
 11
8.1918272822
 21
9.2404911374
  0
LINE
  5
2A0
100
AcDbEntity
  8
0
100
AcDbLine
 62
4
  6
CONTINUOUS
 10
8.4236494943
 20
9.2244142124
 11
8.4236494943
 21
9.4562364244
  0
LINE
  5
2A1
100
AcDbEntity
  8
0
100
AcDbLine
 62
4
  6
CONTINUOUS
 10
8.4713938417
 20
8.0388098492
 11
8.4713938417
 21
8.2706320612
  0
LINE
  5
2A2
100
AcDbEntity
  8
0
100
AcDbLine
 62
4
  6
CONTINUOUS
 10
8.2064541589
 20
8.0571834786
 11
8.2726890727
 21
8.2844122838
  0
LINE
  5
2A3
100
AcDbEntity
  8
0
100
AcDbLine
 62
4
  6
CONTINUOUS
 10
8.2726890727
 20
8.2844122838
 11
8.3389240141
 21
8.0479966629
  0
LINE
  5
2A4
100
AcDbEntity
  8
0
100
AcDbLine
 62
4
  6
CONTINUOUS
 10
8.5395606003
 20
9.2163757499
 11
8.5395606003
 21
9.3322868559
  0
LINE
  5
2A5
100
AcDbEntity
  8
0
100
AcDbLine
 62
4
  6
CONTINUOUS
 10
8.6038636692
 20
8.0296230354
 11
8.6038636692
 21
8.2614452475
  0
LINE
  5
2A6
100
AcDbEntity
  8
0
100
AcDbLine
 62
4
  6
CONTINUOUS
 10
8.6038636594
 20
8.5396319026
 11
8.6038636594
 21
8.7714541147
  0
LINE
  5
2A7
100
AcDbEntity
  8
0
100
AcDbLine
 62
4
  6
CONTINUOUS
 10
8.6342213369
 20
9.2098110055
 11
8.6342213369
 21
9.3257221115
  0
LINE
  5
2A8
100
AcDbEntity
  8
0
100
AcDbLine
 62
4
  6
CONTINUOUS
 10
8.7501324429
 20
9.317683649
 11
8.7501324429
 21
9.0858614369
  0
LINE
  5
2A9
100
AcDbEntity
  8
0
100
AcDbLine
 62
4
  6
CONTINUOUS
 10
8.7694509577
 20
8.5281483845
 11
8.7694509577
 21
8.7599705965
  0
LINE
  5
2AA
100
AcDbEntity
  8
0
100
AcDbLine
 62
4
  6
CONTINUOUS
 10
8.8274065136
 20
9.196413568
 11
8.8274065136
 21
9.312324674
  0
LINE
  5
2AB
100
AcDbEntity
  8
0
100
AcDbLine
 62
4
  6
CONTINUOUS
 10
8.0795039006
 20
8.297809721
 11
8.1126213575
 21
8.2623955606
  0
LINE
  5
2AC
100
AcDbEntity
  8
0
100
AcDbLine
 62
4
  6
CONTINUOUS
 10
8.9019207853
 20
8.7507837828
 11
8.9019207853
 21
8.5189615707
  0
LINE
  5
2AD
100
AcDbEntity
  8
0
100
AcDbLine
 62
4
  6
CONTINUOUS
 10
8.9433176196
 20
9.4201973175
 11
8.9433176196
 21
9.1883751055
  0
LINE
  5
2AE
100
AcDbEntity
  8
0
100
AcDbLine
 62
4
  6
CONTINUOUS
 10
8.9515970426
 20
8.0386251044
 11
8.9515970426
 21
8.2042123993
  0
LINE
  5
2AF
100
AcDbEntity
  8
0
100
AcDbLine
 62
4
  6
CONTINUOUS
 10
9.0205916903
 20
9.2989272365
 11
9.0205916903
 21
9.1830161305
  0
LINE
  5
2B0
100
AcDbEntity
  8
0
100
AcDbLine
 62
4
  6
CONTINUOUS
 10
9.050949362
 20
8.5417438642
 11
9.050949362
 21
8.7404486159
  0
LINE
  5
2B1
100
AcDbEntity
  8
0
100
AcDbLine
 62
4
  6
CONTINUOUS
 10
9.1447821456
 20
8.025227672
 11
9.1447821456
 21
8.1908149669
  0
LINE
  5
2B2
100
AcDbEntity
  8
0
100
AcDbLine
 62
4
  6
CONTINUOUS
 10
9.213776867
 20
9.169618693
 11
9.213776867
 21
9.2468927636
  0
LINE
  5
2B3
100
AcDbEntity
  8
0
100
AcDbLine
 62
4
  6
CONTINUOUS
 10
8.8356858715
 20
8.6229073552
 11
8.9019207853
 21
8.7507837828
  0
LINE
  5
2B4
100
AcDbEntity
  8
0
100
AcDbLine
 62
4
  6
CONTINUOUS
 10
7.8642404239
 20
8.1802684593
 11
7.9525536492
 21
8.1299873037
  0
LINE
  5
2B5
100
AcDbEntity
  8
0
100
AcDbLine
 62
4
  6
CONTINUOUS
 10
8.9847144856
 20
8.0032109416
 11
8.9515970426
 21
8.0386251044
  0
LINE
  5
2B6
100
AcDbEntity
  8
0
100
AcDbLine
 62
4
  6
CONTINUOUS
 10
7.5031222871
 20
10.099630733
 11
7.5176111751
 21
10.0793073988
  0
LINE
  5
2B7
100
AcDbEntity
  8
0
100
AcDbLine
 62
4
  6
CONTINUOUS
 10
8.7694509577
 20
8.7599705965
 11
8.8356858715
 21
8.6229073552
  0
LINE
  5
2B8
100
AcDbEntity
  8
0
100
AcDbLine
 62
4
  6
CONTINUOUS
 10
9.2606932516
 20
8.1827765044
 11
9.2606932516
 21
8.0171892095
  0
LINE
  5
2B9
100
AcDbEntity
  8
0
100
AcDbLine
 62
4
  6
CONTINUOUS
 10
9.3269281377
 20
7.9794783442
 11
9.3269281377
 21
8.2113005563
  0
LINE
  5
2BA
100
AcDbEntity
  8
0
100
AcDbLine
 62
4
  6
CONTINUOUS
 10
9.329687973
 20
9.2774913365
 11
9.329687973
 21
9.1615802304
  0
LINE
  5
2BB
100
AcDbEntity
  8
0
100
AcDbLine
 62
4
  6
CONTINUOUS
 10
9.4069620437
 20
9.2721323615
 11
9.4069620437
 21
9.1562212554
  0
LINE
  5
2BC
100
AcDbEntity
  8
0
100
AcDbLine
 62
4
  6
CONTINUOUS
 10
9.4428392438
 20
8.1701446369
 11
9.4428392438
 21
8.0045573421
  0
LINE
  5
2BD
100
AcDbEntity
  8
0
100
AcDbLine
 62
4
  6
CONTINUOUS
 10
9.5228731497
 20
9.1481827929
 11
9.5228731497
 21
9.264093899
  0
LINE
  5
2BE
100
AcDbEntity
  8
0
100
AcDbLine
 62
4
  6
CONTINUOUS
 10
9.5366721281
 20
7.9649325491
 11
9.5366721281
 21
8.1967547612
  0
LINE
  5
2BF
100
AcDbEntity
  8
0
100
AcDbLine
 62
4
  6
CONTINUOUS
 10
8.1126213575
 20
8.0968082658
 11
8.0795039006
 21
8.0659875089
  0
LINE
  5
2C0
100
AcDbEntity
  8
0
100
AcDbLine
 62
4
  6
CONTINUOUS
 10
9.1778995886
 20
7.9898135092
 11
9.1447821456
 21
8.025227672
  0
LINE
  5
2C1
100
AcDbEntity
  8
0
100
AcDbLine
 62
4
  6
CONTINUOUS
 10
9.2275758085
 20
8.2181906637
 11
9.2606932516
 21
8.1827765044
  0
LINE
  5
2C2
100
AcDbEntity
  8
0
100
AcDbLine
 62
4
  6
CONTINUOUS
 10
9.6001472204
 20
9.1428238179
 11
9.6001472204
 21
9.37464603
  0
LINE
  5
2C3
100
AcDbEntity
  8
0
100
AcDbLine
 62
4
  6
CONTINUOUS
 10
9.6774212911
 20
9.1374648429
 11
9.6774212911
 21
9.253375949
  0
LINE
  5
2C4
100
AcDbEntity
  8
0
100
AcDbLine
 62
4
  6
CONTINUOUS
 10
9.7546953618
 20
9.248016974
 11
9.7546953618
 21
9.1321058679
  0
LINE
  5
2C5
100
AcDbEntity
  8
0
100
AcDbLine
 62
4
  6
CONTINUOUS
 10
9.9478805385
 20
9.2346195364
 11
9.9478805385
 21
9.1766639834
  0
LINE
  5
2C6
100
AcDbEntity
  8
0
100
AcDbLine
 62
4
  6
CONTINUOUS
 10
9.0178318913
 20
8.5109231082
 11
9.050949362
 21
8.5417438642
  0
LINE
  5
2C7
100
AcDbEntity
  8
0
100
AcDbLine
 62
4
  6
CONTINUOUS
 10
8.9515970426
 20
8.2042123993
 11
8.9847144856
 21
8.2350331537
  0
LINE
  5
2C8
100
AcDbEntity
  8
0
100
AcDbLine
 62
4
  6
CONTINUOUS
 10
9.4097218007
 20
8.2055587963
 11
9.4428392438
 21
8.1701446369
  0
LINE
  5
2C9
100
AcDbEntity
  8
0
100
AcDbLine
 62
4
  6
CONTINUOUS
 10
10.0637916445
 20
9.1686255209
 11
10.0637916445
 21
9.1106699679
  0
LINE
  5
2CA
100
AcDbEntity
  8
0
100
AcDbLine
 62
4
  6
CONTINUOUS
 10
10.312034723
 20
5.3360025599
 11
10.312034723
 21
5.104180353
  0
LINE
  5
2CB
100
AcDbEntity
  8
0
100
AcDbLine
 62
7
  6
CONTINUOUS
 10
10.8701328219
 20
9.5135597907
 11
11.0741339574
 21
9.7106097678
  0
LINE
  5
2CC
100
AcDbEntity
  8
0
100
AcDbLine
 62
4
  6
CONTINUOUS
 10
9.1447821456
 20
8.1908149669
 11
9.1778995886
 21
8.2216357213
  0
LINE
  5
2CD
100
AcDbEntity
  8
0
100
AcDbLine
 62
4
  6
CONTINUOUS
 10
9.2606932516
 20
8.0171892095
 11
9.2275758085
 21
7.9863684517
  0
LINE
  5
2CE
100
AcDbEntity
  8
0
100
AcDbLine
 62
4
  6
CONTINUOUS
 10
9.4428392438
 20
8.0045573421
 11
9.4097218007
 21
7.9737365842
  0
LINE
  5
2CF
100
AcDbEntity
  8
0
100
AcDbLine
 62
4
  6
CONTINUOUS
 10
7.9525536492
 20
8.2183005324
 11
7.8642404239
 21
8.1802684593
  0
LINE
  5
2D0
100
AcDbEntity
  8
0
100
AcDbLine
 62
4
  6
CONTINUOUS
 10
9.7022593435
 20
8.0969580304
 11
9.7905725618
 21
8.0466768718
  0
LINE
  5
2D1
100
AcDbEntity
  8
0
100
AcDbLine
 62
4
  6
CONTINUOUS
 10
7.4741445113
 20
10.1209588612
 11
7.5031222871
 21
10.099630733
  0
LINE
  5
2D2
100
AcDbEntity
  8
0
100
AcDbLine
 62
4
  6
CONTINUOUS
 10
9.4097218007
 20
7.9737365842
 11
9.3269281377
 21
7.9794783442
  0
LINE
  5
2D3
100
AcDbEntity
  8
0
100
AcDbLine
 62
4
  6
CONTINUOUS
 10
9.2275758085
 20
7.9863684517
 11
9.1778995886
 21
7.9898135092
  0
LINE
  5
2D4
100
AcDbEntity
  8
0
100
AcDbLine
 62
4
  6
CONTINUOUS
 10
9.0509493718
 20
7.9986175367
 11
8.9847144856
 21
8.0032109416
  0
LINE
  5
2D5
100
AcDbEntity
  8
0
100
AcDbLine
 62
4
  6
CONTINUOUS
 10
8.0795039006
 20
8.0659875089
 11
7.9967102653
 21
8.071729267
  0
LINE
  5
2D6
100
AcDbEntity
  8
0
100
AcDbLine
 62
4
  6
CONTINUOUS
 10
8.6038636692
 20
8.0296230354
 11
8.7032160537
 21
8.0227329242
  0
LINE
  5
2D7
100
AcDbEntity
  8
0
100
AcDbLine
 62
4
  6
CONTINUOUS
 10
9.5366721281
 20
7.9649325491
 11
9.6360244573
 21
7.9580424417
  0
LINE
  5
2D8
100
AcDbEntity
  8
0
100
AcDbLine
 62
4
  6
CONTINUOUS
 10
8.2285324635
 20
8.1218872637
 11
8.3168456819
 21
8.1157627212
  0
LINE
  5
2D9
100
AcDbEntity
  8
0
100
AcDbLine
 62
4
  6
CONTINUOUS
 10
9.6029070142
 20
8.0928089855
 11
9.5366721281
 21
8.0974023905
  0
LINE
  5
2DA
100
AcDbEntity
  8
0
100
AcDbLine
 62
4
  6
CONTINUOUS
 10
8.6700986106
 20
8.157499468
 11
8.6038636692
 21
8.1620928768
  0
LINE
  5
2DB
100
AcDbEntity
  8
0
100
AcDbLine
 62
4
  6
CONTINUOUS
 10
7.9967102653
 20
8.3035514791
 11
8.0795039006
 21
8.297809721
  0
LINE
  5
2DC
100
AcDbEntity
  8
0
100
AcDbLine
 62
4
  6
CONTINUOUS
 10
8.4051589002
 20
8.27522547
 11
8.5376287278
 21
8.2660386563
  0
LINE
  5
2DD
100
AcDbEntity
  8
0
100
AcDbLine
 62
4
  6
CONTINUOUS
 10
8.6038636692
 20
8.2614452475
 11
8.7032160537
 21
8.2545551362
  0
LINE
  5
2DE
100
AcDbEntity
  8
0
100
AcDbLine
 62
4
  6
CONTINUOUS
 10
8.9847144856
 20
8.2350331537
 11
9.0509493718
 21
8.2304397487
  0
LINE
  5
2DF
100
AcDbEntity
  8
0
100
AcDbLine
 62
4
  6
CONTINUOUS
 10
9.1778995886
 20
8.2216357213
 11
9.2275758085
 21
8.2181906637
  0
LINE
  5
2E0
100
AcDbEntity
  8
0
100
AcDbLine
 62
4
  6
CONTINUOUS
 10
9.3269281377
 20
8.2113005563
 11
9.4097218007
 21
8.2055587963
  0
LINE
  5
2E1
100
AcDbEntity
  8
0
100
AcDbLine
 62
4
  6
CONTINUOUS
 10
9.5366721281
 20
8.1967547612
 11
9.6360244573
 21
8.1898646537
  0
LINE
  5
2E2
100
AcDbEntity
  8
0
100
AcDbLine
 62
4
  6
CONTINUOUS
 10
12.7307130883
 20
9.7370960796
 11
12.7596908641
 21
9.7544049767
  0
LINE
  5
2E3
100
AcDbEntity
  8
0
100
AcDbLine
 62
4
  6
CONTINUOUS
 10
12.8176464158
 20
9.6537931547
 11
12.7596908641
 21
9.6191753537
  0
LINE
  5
2E4
100
AcDbEntity
  8
0
100
AcDbLine
 62
4
  6
CONTINUOUS
 10
9.7905725618
 20
8.0466768718
 11
9.7022593435
 21
8.0086448017
  0
LINE
  5
2E5
100
AcDbEntity
  8
0
100
AcDbLine
 62
4
  6
CONTINUOUS
 10
8.968155699
 20
8.5143681639
 11
9.0178318913
 21
8.5109231082
  0
LINE
  5
2E6
100
AcDbEntity
  8
0
100
AcDbLine
 62
4
  6
CONTINUOUS
 10
8.703216037
 20
8.6652116332
 11
8.6038636594
 21
8.672101744
  0
LINE
  5
2E7
100
AcDbEntity
  8
0
100
AcDbLine
 62
7
  6
CONTINUOUS
 10
13.3189619641
 20
10.4497230708
 11
14.8397813992
 21
11.9187219274
  0
LINE
  5
2E8
100
AcDbEntity
  8
0
100
AcDbLine
 62
4
  6
CONTINUOUS
 10
8.6038636594
 20
8.7714541147
 11
8.703216037
 21
8.7645640039
  0
LINE
  5
2E9
100
AcDbEntity
  8
0
100
AcDbLine
 62
4
  6
CONTINUOUS
 10
12.7162242003
 20
9.718782361
 11
12.7307130883
 21
9.7370960796
  0
LINE
  5
2EA
100
AcDbEntity
  8
0
100
AcDbLine
 62
4
  6
CONTINUOUS
 10
12.7596908641
 20
9.6191753537
 11
12.7307130883
 21
9.5825479371
  0
LINE
  5
2EB
100
AcDbEntity
  8
0
100
AcDbLine
 62
4
  6
CONTINUOUS
 10
12.8321353038
 20
9.6721068734
 11
12.8176464158
 21
9.6537931547
  0
LINE
  5
2EC
100
AcDbEntity
  8
0
100
AcDbLine
 62
4
  6
CONTINUOUS
 10
8.7501324429
 20
9.0858614369
 11
8.6728583722
 21
9.091220412
  0
LINE
  5
2ED
100
AcDbEntity
  8
0
100
AcDbLine
 62
4
  6
CONTINUOUS
 10
10.0637916445
 20
9.1106699679
 11
9.9478805385
 21
9.1187084304
  0
LINE
  5
2EE
100
AcDbEntity
  8
0
100
AcDbLine
 62
4
  6
CONTINUOUS
 10
9.329687973
 20
9.1615802304
 11
9.213776867
 21
9.169618693
  0
LINE
  5
2EF
100
AcDbEntity
  8
0
100
AcDbLine
 62
4
  6
CONTINUOUS
 10
8.9433176196
 20
9.1883751055
 11
8.8274065136
 21
9.196413568
  0
LINE
  5
2F0
100
AcDbEntity
  8
0
100
AcDbLine
 62
4
  6
CONTINUOUS
 10
8.7501324429
 20
9.201772543
 11
8.6342213369
 21
9.2098110055
  0
LINE
  5
2F1
100
AcDbEntity
  8
0
100
AcDbLine
 62
4
  6
CONTINUOUS
 10
8.0179606232
 20
9.2525488311
 11
7.9020495172
 21
9.2605872936
  0
LINE
  5
2F2
100
AcDbEntity
  8
0
100
AcDbLine
 62
4
  6
CONTINUOUS
 10
7.8440939642
 20
9.2646065249
 11
7.7281828581
 21
9.2726449874
  0
LINE
  5
2F3
100
AcDbEntity
  8
0
100
AcDbLine
 62
4
  6
CONTINUOUS
 10
9.4069620437
 20
9.1562212554
 11
9.5228731497
 21
9.1481827929
  0
LINE
  5
2F4
100
AcDbEntity
  8
0
100
AcDbLine
 62
4
  6
CONTINUOUS
 10
9.7546953618
 20
9.1321058679
 11
9.8706064678
 21
9.1240674054
  0
LINE
  5
2F5
100
AcDbEntity
  8
0
100
AcDbLine
 62
4
  6
CONTINUOUS
 10
9.9478805385
 20
9.1766639834
 11
10.0637916445
 21
9.1686255209
  0
LINE
  5
2F6
100
AcDbEntity
  8
0
100
AcDbLine
 62
4
  6
CONTINUOUS
 10
9.213776867
 20
9.2468927636
 11
9.329687973
 21
9.2388543011
  0
LINE
  5
2F7
100
AcDbEntity
  8
0
100
AcDbLine
 62
4
  6
CONTINUOUS
 10
9.329687973
 20
9.2774913365
 11
9.2524139023
 21
9.2828503115
  0
LINE
  5
2F8
100
AcDbEntity
  8
0
100
AcDbLine
 62
4
  6
CONTINUOUS
 10
8.5395606003
 20
9.3322868559
 11
8.4236494943
 21
9.3403253184
  0
LINE
  5
2F9
100
AcDbEntity
  8
0
100
AcDbLine
 62
4
  6
CONTINUOUS
 10
7.7281828581
 20
9.3885560934
 11
7.8440939642
 21
9.3805176309
  0
LINE
  5
2FA
100
AcDbEntity
  8
0
100
AcDbLine
 62
4
  6
CONTINUOUS
 10
8.8274065136
 20
9.312324674
 11
8.9433176196
 21
9.3042862115
  0
LINE
  5
2FB
100
AcDbEntity
  8
0
100
AcDbLine
 62
4
  6
CONTINUOUS
 10
9.0205916903
 20
9.2989272365
 11
9.1365027963
 21
9.290888774
  0
LINE
  5
2FC
100
AcDbEntity
  8
0
100
AcDbLine
 62
4
  6
CONTINUOUS
 10
9.7546953618
 20
9.248016974
 11
9.8706064678
 21
9.2399785114
  0
LINE
  5
2FD
100
AcDbEntity
  8
0
100
AcDbLine
 62
4
  6
CONTINUOUS
 10
9.9478805385
 20
9.2346195364
 11
10.0637916445
 21
9.2265810739
  0
LINE
  5
2FE
100
AcDbEntity
  8
0
100
AcDbLine
 62
4
  6
CONTINUOUS
 10
9.6629324028
 20
9.3123363098
 11
9.6919101793
 21
9.3103266942
  0
LINE
  5
2FF
100
AcDbEntity
  8
0
100
AcDbLine
 62
4
  6
CONTINUOUS
 10
7.8440939642
 20
9.4964287369
 11
7.7281828581
 21
9.5044671994
  0
LINE
  5
300
100
AcDbEntity
  8
0
100
AcDbLine
 62
4
  6
CONTINUOUS
 10
8.0759161762
 20
9.4803518119
 11
8.1918272822
 21
9.4723133494
  0
LINE
  5
301
100
AcDbEntity
  8
0
100
AcDbLine
 62
4
  6
CONTINUOUS
 10
12.7307130883
 20
9.5825479371
 11
12.7162242003
 21
9.5255971932
  0
LINE
  5
302
100
AcDbEntity
  8
0
100
AcDbLine
 62
4
  6
CONTINUOUS
 10
7.4017000716
 20
9.8941606933
 11
7.5176111751
 21
9.886122231
  0
LINE
  5
303
100
AcDbEntity
  8
0
100
AcDbLine
 62
4
  6
CONTINUOUS
 10
12.7162242003
 20
9.5255971932
 11
12.8321353038
 21
9.5175587309
  0
LINE
  5
304
100
AcDbEntity
  8
0
100
AcDbLine
 62
4
  6
CONTINUOUS
 10
7.4451667354
 20
10.1229684768
 11
7.4741445113
 21
10.1209588612
  0
LINE
  5
305
100
AcDbEntity
  8
0
100
AcDbLine
 62
4
  6
CONTINUOUS
 10
12.7596908641
 20
9.7544049767
 11
12.78866864
 21
9.7523953611
  0
LINE
  5
306
100
AcDbEntity
  8
0
100
AcDbLine
 62
4
  6
CONTINUOUS
 10
12.8321353038
 20
9.7107438986
 11
12.8321353038
 21
9.6721068734
  0
LINE
  5
307
100
AcDbEntity
  8
0
100
AcDbLine
 62
4
  6
CONTINUOUS
 10
12.8321353038
 20
6.3686403454
 11
12.8321353038
 21
6.1368181385
  0
LINE
  5
308
100
AcDbEntity
  8
0
100
AcDbLine
 62
7
  6
CONTINUOUS
 10
13.3189619641
 20
10.4497230708
 11
7.1602186008
 21
10.8768333737
  0
LINE
  5
309
100
AcDbEntity
  8
0
100
AcDbLine
 62
4
  6
CONTINUOUS
 10
12.78866864
 20
9.7523953611
 11
12.8176464158
 21
9.7310672329
  0
LINE
  5
30A
100
AcDbEntity
  8
0
100
AcDbLine
 62
4
  6
CONTINUOUS
 10
12.8176464158
 20
9.7310672329
 11
12.8321353038
 21
9.7107438986
  0
LINE
  5
30B
100
AcDbEntity
  8
0
100
AcDbLine
 62
7
  6
CONTINUOUS
 10
13.3189619641
 20
4.6541677697
 11
13.3189619641
 21
10.4497230708
  0
LINE
  5
30C
100
AcDbEntity
  8
0
100
AcDbLine
 62
7
  6
CONTINUOUS
 10
14.8397813992
 20
11.9187219274
 11
14.8397813992
 21
6.1231666263
  0
LINE
  5
30D
100
AcDbEntity
  8
0
100
AcDbLine
 62
7
  6
CONTINUOUS
 10
14.8397813992
 20
11.9187219274
 11
8.6810380359
 21
12.3458322303
  0
LINE
  5
30E
100
AcDbEntity
  8
0
100
AcDbLine
 62
7
  6
CONTINUOUS
 10
14.8397813992
 20
6.1231666263
 11
13.3189619641
 21
4.6541677697
  0
ARC
  5
30F
100
AcDbEntity
  8
0
100
AcDbCircle
 62
7
  6
CONTINUOUS
 10
9.3090725848
 20
6.8520509456
 40
0.792362826
100
AcDbArc
 50
0.00553974
 51
4.1913822612
  0
ARC
  5
310
100
AcDbEntity
  8
0
100
AcDbCircle
 62
7
  6
CONTINUOUS
 10
11.2409245821
 20
8.8914097925
 40
0.792362826
100
AcDbArc
 50
0.00553974
 51
4.1913822612
  0
ARC
  5
311
100
AcDbEntity
  8
0
100
AcDbCircle
 62
7
  6
CONTINUOUS
 10
11.1603787692
 20
9.0168892167
 40
0.7498264853
100
AcDbArc
 50
135.4368323966
 51
137.415064188
  0
ARC
  5
312
100
AcDbEntity
  8
0
100
AcDbCircle
 62
7
  6
CONTINUOUS
 10
9.2285267718
 20
6.9775303698
 40
0.7498264853
100
AcDbArc
 50
135.4368323966
 51
137.415064188
  0
ARC
  5
313
100
AcDbEntity
  8
0
100
AcDbCircle
 62
7
  6
CONTINUOUS
 10
11.3149333245
 20
8.8568744118
 40
0.7497060121
100
AcDbArc
 50
310.6033370368
 51
312.4573513682
  0
ARC
  5
314
100
AcDbEntity
  8
0
100
AcDbCircle
 62
7
  6
CONTINUOUS
 10
9.3830813271
 20
6.8175155649
 40
0.7497060121
100
AcDbArc
 50
310.6033370368
 51
312.4573513682
  0
ARC
  5
315
100
AcDbEntity
  8
0
100
AcDbCircle
 62
7
  6
CONTINUOUS
 10
11.8810127305
 20
9.6194381797
 40
0.6970613865
100
AcDbArc
 50
170.5479608062
 51
180.0287155309
  0
ARC
  5
316
100
AcDbEntity
  8
0
100
AcDbCircle
 62
7
  6
CONTINUOUS
 10
9.9491607331
 20
7.5800793328
 40
0.6970613865
100
AcDbArc
 50
170.5479608062
 51
180.0287155309
  0
ARC
  5
317
100
AcDbEntity
  8
0
100
AcDbCircle
 62
7
  6
CONTINUOUS
 10
9.9585075509
 20
7.5861437587
 40
0.6656436477
100
AcDbArc
 50
170.7130630571
 51
180.0277454756
  0
ARC
  5
318
100
AcDbEntity
  8
0
100
AcDbCircle
 62
7
  6
CONTINUOUS
 10
11.8903595482
 20
9.6255026056
 40
0.6656436477
100
AcDbArc
 50
170.7130630571
 51
180.0277454756
  0
ARC
  5
319
100
AcDbEntity
  8
0
100
AcDbCircle
 62
7
  6
CONTINUOUS
 10
11.8984553207
 20
9.6317503255
 40
0.6551026847
100
AcDbArc
 50
171.2238088465
 51
180.0248213111
  0
ARC
  5
31A
100
AcDbEntity
  8
0
100
AcDbCircle
 62
7
  6
CONTINUOUS
 10
9.9666033234
 20
7.5923914787
 40
0.6551026847
100
AcDbArc
 50
171.2238088465
 51
180.0248213111
  0
ARC
  5
31B
100
AcDbEntity
  8
0
100
AcDbCircle
 62
7
  6
CONTINUOUS
 10
10.2175967866
 20
6.5075797314
 40
0.2287929551
100
AcDbArc
 50
133.8077931636
 51
134.0063758192
  0
SPLINE
  5
31C
100
AcDbEntity
  8
0
100
AcDbSpline
 62
7
  6
CONTINUOUS
 70
0
 71
3
 72
61
 73
57
 74
0
 42
0.0000001
 43
0.0000001
 44
0.0000000001
 40
0.0
 40
0.0
 40
0.0
 40
0.0
 40
0.0417736088
 40
0.0840360431
 40
0.126657155
 40
0.1695046842
 40
0.2124458378
 40
0.2553473321
 40
0.2980760744
 40
0.3404996436
 40
0.3824868274
 40
0.4239081481
 40
0.4646363976
 40
0.5045471783
 40
0.5435194547
 40
0.5814361204
 40
0.5999634452
 40
0.6181850312
 40
0.6360876424
 40
0.6536583488
 40
0.6708846631
 40
0.6877544565
 40
0.7042560738
 40
0.7203782989
 40
0.7361104104
 40
0.7514422273
 40
0.7663640903
 40
0.7808669935
 40
0.7949425048
 40
0.8085829615
 40
0.8217813757
 40
0.8345316441
 40
0.8468285057
 40
0.8586677174
 40
0.8700461208
 40
0.8809617639
 40
0.8914141105
 40
0.9014041268
 40
0.9109346407
 40
0.9200104579
 40
0.9286388542
 40
0.9368298218
 40
0.9445966692
 40
0.9519564915
 40
0.9589308526
 40
0.9655464796
 40
0.97183593
 40
0.9778382749
 40
0.9807467215
 40
0.9836011958
 40
0.9864085004
 40
0.9891758164
 40
0.9919106777
 40
0.9946209229
 40
0.9973146203
 40
1.0
 40
1.0
 40
1.0
 40
1.0
 10
14.1461469308
 20
6.9020559648
 30
0.0
 10
14.1461469308
 20
6.9240698971
 30
0.0
 10
14.1464903695
 20
6.9683560558
 30
0.0
 10
14.1480086617
 20
7.0350871201
 30
0.0
 10
14.1505286419
 20
7.1023543114
 30
0.0
 10
14.1540420625
 20
7.1699350113
 30
0.0
 10
14.1585373049
 20
7.2376055903
 30
0.0
 10
14.1639995137
 20
7.3051421898
 30
0.0
 10
14.1704105937
 20
7.3723213669
 30
0.0
 10
14.1777492928
 20
7.4389208784
 30
0.0
 10
14.1859912633
 20
7.504720408
 30
0.0
 10
14.1951091436
 20
7.5695023094
 30
0.0
 10
14.2050726488
 20
7.6330523115
 30
0.0
 10
14.2158486598
 20
7.6951603162
 30
0.0
 10
14.2274013589
 20
7.7556208171
 30
0.0
 10
14.237721473
 20
7.8048362179
 30
0.0
 10
14.2463486434
 20
7.8432267264
 30
0.0
 10
14.2529389535
 20
7.8712634344
 30
0.0
 10
14.2596933409
 20
7.8987422191
 30
0.0
 10
14.266606308
 20
7.9256403706
 30
0.0
 10
14.2736720436
 20
7.9519356437
 30
0.0
 10
14.2808847507
 20
7.9776062926
 30
0.0
 10
14.2882384053
 20
8.0026310981
 30
0.0
 10
14.295726929
 20
8.0269893742
 30
0.0
 10
14.3033441174
 20
8.0506609921
 30
0.0
 10
14.3110836219
 20
8.0736264006
 30
0.0
 10
14.3189390813
 20
8.095866628
 30
0.0
 10
14.3269039059
 20
8.1173633284
 30
0.0
 10
14.3349715851
 20
8.1380987529
 30
0.0
 10
14.3431353375
 20
8.158055826
 30
0.0
 10
14.3513884951
 20
8.1772180906
 30
0.0
 10
14.3597241502
 20
8.1955697976
 30
0.0
 10
14.3681354701
 20
8.2130958531
 30
0.0
 10
14.3766154868
 20
8.229781885
 30
0.0
 10
14.3851572143
 20
8.2456142338
 30
0.0
 10
14.3937536832
 20
8.2605799517
 30
0.0
 10
14.4023977989
 20
8.274666879
 30
0.0
 10
14.411082644
 20
8.2878635371
 30
0.0
 10
14.4198011082
 20
8.3001593131
 30
0.0
 10
14.4285463829
 20
8.3115442357
 30
0.0
 10
14.4373114951
 20
8.3220092369
 30
0.0
 10
14.4460898264
 20
8.3315458574
 30
0.0
 10
14.4548747377
 20
8.340146465
 30
0.0
 10
14.4636599305
 20
8.3478040004
 30
0.0
 10
14.4724392113
 20
8.3545119434
 30
0.0
 10
14.4812068029
 20
8.3602643113
 30
0.0
 10
14.4899562116
 20
8.36505493
 30
0.0
 10
14.4973046428
 20
8.3682746294
 30
0.0
 10
14.5031516679
 20
8.3703435081
 30
0.0
 10
14.5074812305
 20
8.3716359846
 30
0.0
 10
14.5117996618
 20
8.3726849952
 30
0.0
 10
14.516106122
 20
8.3734902295
 30
0.0
 10
14.5203996165
 20
8.3740513782
 30
0.0
 10
14.5246792116
 20
8.3743683141
 30
0.0
 10
14.5289437307
 20
8.3744409285
 30
0.0
 10
14.5317779403
 20
8.3743262922
 30
0.0
 10
14.5331896961
 20
8.3742283929
 30
0.0
  0
SPLINE
  5
31D
100
AcDbEntity
  8
0
100
AcDbSpline
 62
7
  6
CONTINUOUS
 70
0
 71
3
 72
61
 73
57
 74
0
 42
0.0000001
 43
0.0000001
 44
0.0000000001
 40
0.0
 40
0.0
 40
0.0
 40
0.0
 40
0.0417736088
 40
0.0840360431
 40
0.126657155
 40
0.1695046842
 40
0.2124458378
 40
0.2553473321
 40
0.2980760744
 40
0.3404996436
 40
0.3824868274
 40
0.4239081481
 40
0.4646363976
 40
0.5045471783
 40
0.5435194547
 40
0.5814361204
 40
0.5999634452
 40
0.6181850312
 40
0.6360876424
 40
0.6536583488
 40
0.6708846631
 40
0.6877544565
 40
0.7042560738
 40
0.7203782989
 40
0.7361104104
 40
0.7514422273
 40
0.7663640903
 40
0.7808669935
 40
0.7949425048
 40
0.8085829615
 40
0.8217813757
 40
0.8345316441
 40
0.8468285057
 40
0.8586677174
 40
0.8700461208
 40
0.8809617639
 40
0.8914141105
 40
0.9014041268
 40
0.9109346407
 40
0.9200104579
 40
0.9286388542
 40
0.9368298218
 40
0.9445966692
 40
0.9519564915
 40
0.9589308526
 40
0.9655464796
 40
0.97183593
 40
0.9778382749
 40
0.9807467215
 40
0.9836011958
 40
0.9864085004
 40
0.9891758164
 40
0.9919106777
 40
0.9946209229
 40
0.9973146203
 40
1.0
 40
1.0
 40
1.0
 40
1.0
 10
14.1461469308
 20
10.0413150862
 30
0.0
 10
14.1461469308
 20
10.0633290185
 30
0.0
 10
14.1464903695
 20
10.1076151772
 30
0.0
 10
14.1480086617
 20
10.1743462416
 30
0.0
 10
14.1505286419
 20
10.2416134329
 30
0.0
 10
14.1540420625
 20
10.3091941328
 30
0.0
 10
14.1585373049
 20
10.3768647118
 30
0.0
 10
14.1639995137
 20
10.4444013112
 30
0.0
 10
14.1704105937
 20
10.5115804883
 30
0.0
 10
14.1777492928
 20
10.5781799999
 30
0.0
 10
14.1859912633
 20
10.6439795295
 30
0.0
 10
14.1951091436
 20
10.7087614308
 30
0.0
 10
14.2050726488
 20
10.7723114329
 30
0.0
 10
14.2158486598
 20
10.8344194376
 30
0.0
 10
14.2274013589
 20
10.8948799386
 30
0.0
 10
14.237721473
 20
10.9440953393
 30
0.0
 10
14.2463486434
 20
10.9824858479
 30
0.0
 10
14.2529389535
 20
11.0105225558
 30
0.0
 10
14.2596933409
 20
11.0380013406
 30
0.0
 10
14.266606308
 20
11.0648994921
 30
0.0
 10
14.2736720436
 20
11.0911947652
 30
0.0
 10
14.2808847507
 20
11.116865414
 30
0.0
 10
14.2882384053
 20
11.1418902196
 30
0.0
 10
14.295726929
 20
11.1662484956
 30
0.0
 10
14.3033441174
 20
11.1899201135
 30
0.0
 10
14.3110836219
 20
11.2128855221
 30
0.0
 10
14.3189390813
 20
11.2351257494
 30
0.0
 10
14.3269039059
 20
11.2566224498
 30
0.0
 10
14.3349715851
 20
11.2773578744
 30
0.0
 10
14.3431353375
 20
11.2973149475
 30
0.0
 10
14.3513884951
 20
11.3164772121
 30
0.0
 10
14.3597241502
 20
11.334828919
 30
0.0
 10
14.3681354701
 20
11.3523549745
 30
0.0
 10
14.3766154868
 20
11.3690410065
 30
0.0
 10
14.3851572143
 20
11.3848733553
 30
0.0
 10
14.3937536832
 20
11.3998390731
 30
0.0
 10
14.4023977989
 20
11.4139260005
 30
0.0
 10
14.411082644
 20
11.4271226585
 30
0.0
 10
14.4198011082
 20
11.4394184345
 30
0.0
 10
14.4285463829
 20
11.4508033572
 30
0.0
 10
14.4373114951
 20
11.4612683584
 30
0.0
 10
14.4460898264
 20
11.4708049788
 30
0.0
 10
14.4548747377
 20
11.4794055865
 30
0.0
 10
14.4636599305
 20
11.4870631219
 30
0.0
 10
14.4724392113
 20
11.4937710648
 30
0.0
 10
14.4812068029
 20
11.4995234328
 30
0.0
 10
14.4899562116
 20
11.5043140514
 30
0.0
 10
14.4973046428
 20
11.5075337509
 30
0.0
 10
14.5031516679
 20
11.5096026295
 30
0.0
 10
14.5074812305
 20
11.5108951061
 30
0.0
 10
14.5117996618
 20
11.5119441167
 30
0.0
 10
14.516106122
 20
11.5127493509
 30
0.0
 10
14.5203996165
 20
11.5133104997
 30
0.0
 10
14.5246792116
 20
11.5136274355
 30
0.0
 10
14.5289437307
 20
11.5137000499
 30
0.0
 10
14.5317779403
 20
11.5135854137
 30
0.0
 10
14.5331896961
 20
11.5134875144
 30
0.0
  0
SPLINE
  5
31E
100
AcDbEntity
  8
0
100
AcDbSpline
 62
7
  6
CONTINUOUS
 70
0
 71
3
 72
28
 73
24
 74
0
 42
0.0000001
 43
0.0000001
 44
0.0000000001
 40
0.0
 40
0.0
 40
0.0
 40
0.0
 40
0.0637758941
 40
0.0955879065
 40
0.1273462157
 40
0.1907019646
 40
0.2538545302
 40
0.2853587825
 40
0.3168148204
 40
0.379582186
 40
0.4421719279
 40
0.504596336
 40
0.566869323
 40
0.6290062994
 40
0.6910240361
 40
0.7219962863
 40
0.7529455528
 40
0.8147797337
 40
0.8765514554
 40
0.9074228165
 40
0.9382862783
 40
0.9691444605
 40
1.0
 40
1.0
 40
1.0
 40
1.0
 10
10.1053263543
 20
6.8088859232
 30
0.0
 10
10.1053263543
 20
6.7956017017
 30
0.0
 10
10.1048490112
 20
6.7756867587
 30
0.0
 10
10.1032520879
 20
6.7492073884
 30
0.0
 10
10.1010211135
 20
6.7228612058
 30
0.0
 10
10.0970424855
 20
6.6901220415
 30
0.0
 10
10.0914750001
 20
6.6576687555
 30
0.0
 10
10.0860785653
 20
6.6319579038
 30
0.0
 10
10.0800669098
 20
6.6064664089
 30
0.0
 10
10.0713898664
 20
6.5749614089
 30
0.0
 10
10.059131773
 20
6.5378010401
 30
0.0
 10
10.0450633607
 20
6.5013973434
 30
0.0
 10
10.0292170353
 20
6.4658347072
 30
0.0
 10
10.0116295794
 20
6.4311955396
 30
0.0
 10
9.9955481053
 20
6.4031518439
 30
0.0
 10
9.9818566968
 20
6.3812627054
 30
0.0
 10
9.9676317213
 20
6.3597622692
 30
0.0
 10
9.9488426225
 20
6.3336025867
 30
0.0
 10
9.9287466708
 20
6.3084534907
 30
0.0
 10
9.9119232099
 20
6.2889878545
 30
0.0
 10
9.8989393661
 20
6.2747231098
 30
0.0
 10
9.8855955192
 20
6.2607994567
 30
0.0
 10
9.8764641532
 20
6.25174936
 30
0.0
 10
9.8718414592
 20
6.2472841762
 30
0.0
  0
SPLINE
  5
31F
100
AcDbEntity
  8
0
100
AcDbSpline
 62
7
  6
CONTINUOUS
 70
0
 71
3
 72
28
 73
24
 74
0
 42
0.0000001
 43
0.0000001
 44
0.0000000001
 40
0.0
 40
0.0
 40
0.0
 40
0.0
 40
0.0637758941
 40
0.0955879065
 40
0.1273462157
 40
0.1907019646
 40
0.2538545302
 40
0.2853587825
 40
0.3168148204
 40
0.379582186
 40
0.4421719279
 40
0.504596336
 40
0.566869323
 40
0.6290062994
 40
0.6910240361
 40
0.7219962863
 40
0.7529455528
 40
0.8147797337
 40
0.8765514554
 40
0.9074228165
 40
0.9382862783
 40
0.9691444605
 40
1.0
 40
1.0
 40
1.0
 40
1.0
 10
12.0371783517
 20
8.8482447701
 30
0.0
 10
12.0371783517
 20
8.8349605486
 30
0.0
 10
12.0367010086
 20
8.8150456056
 30
0.0
 10
12.0351040852
 20
8.7885662353
 30
0.0
 10
12.0328731108
 20
8.7622200527
 30
0.0
 10
12.0288944828
 20
8.7294808884
 30
0.0
 10
12.0233269975
 20
8.6970276023
 30
0.0
 10
12.0179305626
 20
8.6713167507
 30
0.0
 10
12.0119189072
 20
8.6458252558
 30
0.0
 10
12.0032418637
 20
8.6143202558
 30
0.0
 10
11.9909837703
 20
8.5771598869
 30
0.0
 10
11.976915358
 20
8.5407561903
 30
0.0
 10
11.9610690326
 20
8.5051935541
 30
0.0
 10
11.9434815768
 20
8.4705543865
 30
0.0
 10
11.9274001026
 20
8.4425106907
 30
0.0
 10
11.9137086942
 20
8.4206215523
 30
0.0
 10
11.8994837186
 20
8.399121116
 30
0.0
 10
11.8806946199
 20
8.3729614336
 30
0.0
 10
11.8605986681
 20
8.3478123376
 30
0.0
 10
11.8437752072
 20
8.3283467014
 30
0.0
 10
11.8307913634
 20
8.3140819567
 30
0.0
 10
11.8174475165
 20
8.3001583035
 30
0.0
 10
11.8083161505
 20
8.2911082068
 30
0.0
 10
11.8036934565
 20
8.2866430231
 30
0.0
  0
SPLINE
  5
320
100
AcDbEntity
  8
0
100
AcDbSpline
 62
7
  6
CONTINUOUS
 70
0
 71
3
 72
39
 73
35
 74
0
 42
0.0000001
 43
0.0000001
 44
0.0000000001
 40
0.0
 40
0.0
 40
0.0
 40
0.0
 40
0.0958313223
 40
0.1890999066
 40
0.2792396479
 40
0.3229663115
 40
0.3657099292
 40
0.4074081191
 40
0.4480006754
 40
0.4874302648
 40
0.5256424385
 40
0.5625857699
 40
0.5982125807
 40
0.6324786396
 40
0.665344311
 40
0.6967743203
 40
0.7267388303
 40
0.7552139511
 40
0.7821824427
 40
0.807635341
 40
0.8315726205
 40
0.8540058864
 40
0.8749600023
 40
0.8944766962
 40
0.9126183481
 40
0.9294727137
 40
0.94515911
 40
0.9598336921
 40
0.9668557838
 40
0.973702854
 40
0.9804062715
 40
0.9869997015
 40
0.9935186515
 40
1.0
 40
1.0
 40
1.0
 40
1.0
 10
8.3429928263
 20
11.2053054829
 30
0.0
 10
8.3340330094
 20
11.2059268483
 30
0.0
 10
8.3163658769
 20
11.2073500153
 30
0.0
 10
8.2903344726
 20
11.210066692
 30
0.0
 10
8.2692216625
 20
11.2128065798
 30
0.0
 10
8.2528540445
 20
11.2152729199
 30
0.0
 10
8.2410022768
 20
11.2172309254
 30
0.0
 10
8.2294699248
 20
11.2193124755
 30
0.0
 10
8.2182762384
 20
11.2215141469
 30
0.0
 10
8.2074399132
 20
11.2238322062
 30
0.0
 10
8.1969790313
 20
11.2262627459
 30
0.0
 10
8.1869110429
 20
11.2288017231
 30
0.0
 10
8.1772527217
 20
11.2314447964
 30
0.0
 10
8.1680201547
 20
11.2341876082
 30
0.0
 10
8.1592286804
 20
11.2370254695
 30
0.0
 10
8.1508928935
 20
11.2399536773
 30
0.0
 10
8.1430265874
 20
11.2429673068
 30
0.0
 10
8.13564273
 20
11.2460613077
 30
0.0
 10
8.128753463
 20
11.2492306113
 30
0.0
 10
8.1223699974
 20
11.2524699069
 30
0.0
 10
8.1165027073
 20
11.2557740538
 30
0.0
 10
8.1111609576
 20
11.2591377064
 30
0.0
 10
8.1063532534
 20
11.2625557715
 30
0.0
 10
8.1020871592
 20
11.2660232642
 30
0.0
 10
8.0983694274
 20
11.2695354106
 30
0.0
 10
8.0952062507
 20
11.2730881901
 30
0.0
 10
8.0926036553
 20
11.2766769762
 30
0.0
 10
8.0908822348
 20
11.2797398394
 30
0.0
 10
8.0898090949
 20
11.282192255
 30
0.0
 10
8.0891593741
 20
11.2840093077
 30
0.0
 10
8.0886535642
 20
11.2858299448
 30
0.0
 10
8.0882919409
 20
11.2876534073
 30
0.0
 10
8.0880748246
 20
11.2894786475
 30
0.0
 10
8.0880265281
 20
11.290697583
 30
0.0
 10
8.0880265228
 20
11.2913050167
 30
0.0
  0
SPLINE
  5
321
100
AcDbEntity
  8
0
100
AcDbSpline
 62
7
  6
CONTINUOUS
 70
0
 71
3
 72
39
 73
35
 74
0
 42
0.0000001
 43
0.0000001
 44
0.0000000001
 40
0.0
 40
0.0
 40
0.0
 40
0.0
 40
0.0958313223
 40
0.1890999066
 40
0.2792396479
 40
0.3229663115
 40
0.3657099292
 40
0.4074081191
 40
0.4480006754
 40
0.4874302648
 40
0.5256424385
 40
0.5625857699
 40
0.5982125807
 40
0.6324786396
 40
0.665344311
 40
0.6967743203
 40
0.7267388303
 40
0.7552139511
 40
0.7821824427
 40
0.807635341
 40
0.8315726205
 40
0.8540058864
 40
0.8749600023
 40
0.8944766962
 40
0.9126183481
 40
0.9294727137
 40
0.94515911
 40
0.9598336921
 40
0.9668557838
 40
0.973702854
 40
0.9804062715
 40
0.9869997015
 40
0.9935186515
 40
1.0
 40
1.0
 40
1.0
 40
1.0
 10
12.9311406003
 20
10.887116354
 30
0.0
 10
12.9221807834
 20
10.8877377194
 30
0.0
 10
12.9045136509
 20
10.8891608865
 30
0.0
 10
12.8784822467
 20
10.8918775631
 30
0.0
 10
12.8573694365
 20
10.894617451
 30
0.0
 10
12.8410018185
 20
10.8970837911
 30
0.0
 10
12.8291500508
 20
10.8990417965
 30
0.0
 10
12.8176176988
 20
10.9011233467
 30
0.0
 10
12.8064240124
 20
10.9033250181
 30
0.0
 10
12.7955876872
 20
10.9056430774
 30
0.0
 10
12.7851268053
 20
10.9080736171
 30
0.0
 10
12.775058817
 20
10.9106125942
 30
0.0
 10
12.7654004957
 20
10.9132556676
 30
0.0
 10
12.7561679287
 20
10.9159984794
 30
0.0
 10
12.7473764544
 20
10.9188363406
 30
0.0
 10
12.7390406675
 20
10.9217645485
 30
0.0
 10
12.7311743614
 20
10.924778178
 30
0.0
 10
12.723790504
 20
10.9278721788
 30
0.0
 10
12.7169012371
 20
10.9310414824
 30
0.0
 10
12.7105177714
 20
10.934280778
 30
0.0
 10
12.7046504813
 20
10.937584925
 30
0.0
 10
12.6993087316
 20
10.9409485776
 30
0.0
 10
12.6945010274
 20
10.9443666426
 30
0.0
 10
12.6902349332
 20
10.9478341353
 30
0.0
 10
12.6865172014
 20
10.9513462818
 30
0.0
 10
12.6833540247
 20
10.9548990612
 30
0.0
 10
12.6807514293
 20
10.9584878474
 30
0.0
 10
12.6790300088
 20
10.9615507105
 30
0.0
 10
12.6779568689
 20
10.9640031261
 30
0.0
 10
12.6773071481
 20
10.9658201788
 30
0.0
 10
12.6768013382
 20
10.9676408159
 30
0.0
 10
12.6764397149
 20
10.9694642785
 30
0.0
 10
12.6762225986
 20
10.9712895186
 30
0.0
 10
12.6761743021
 20
10.9725084542
 30
0.0
 10
12.6761742968
 20
10.9731158879
 30
0.0
  0
SPLINE
  5
322
100
AcDbEntity
  8
0
100
AcDbSpline
 62
7
  6
CONTINUOUS
 70
0
 71
3
 72
21
 73
17
 74
0
 42
0.0000001
 43
0.0000001
 44
0.0000000001
 40
0.0
 40
0.0
 40
0.0
 40
0.0
 40
0.0627710168
 40
0.124779276
 40
0.1861623792
 40
0.2470639024
 40
0.3076394466
 40
0.3680527307
 40
0.4284695989
 40
0.4890590317
 40
0.5499928248
 40
0.6114406604
 40
0.6735698091
 40
0.7365471081
 40
0.8656487814
 40
1.0
 40
1.0
 40
1.0
 40
1.0
 10
11.3742365853
 20
8.7626295945
 30
0.0
 10
11.37518167
 20
8.7635424763
 30
0.0
 10
11.3770168395
 20
8.7654028975
 30
0.0
 10
11.379612448
 20
8.7683117016
 30
0.0
 10
11.3820314336
 20
8.771319091
 30
0.0
 10
11.384272756
 20
8.7744242347
 30
0.0
 10
11.3863356595
 20
8.777626593
 30
0.0
 10
11.3882195742
 20
8.7809257559
 30
0.0
 10
11.3899240218
 20
8.7843214472
 30
0.0
 10
11.3914486123
 20
8.7878134812
 30
0.0
 10
11.3927931162
 20
8.7914017582
 30
0.0
 10
11.3939573658
 20
8.795086261
 30
0.0
 10
11.3949412322
 20
8.7988671971
 30
0.0
 10
11.3960216939
 20
8.8040796269
 30
0.0
 10
11.3969132961
 20
8.8108652173
 30
0.0
 10
11.3971346813
 20
8.8163833377
 30
0.0
 10
11.3971343801
 20
8.8191956953
 30
0.0
  0
SPLINE
  5
323
100
AcDbEntity
  8
0
100
AcDbSpline
 62
7
  6
CONTINUOUS
 70
0
 71
3
 72
54
 73
50
 74
0
 42
0.0000001
 43
0.0000001
 44
0.0000000001
 40
0.0
 40
0.0
 40
0.0
 40
0.0
 40
0.0391026681
 40
0.0781279247
 40
0.1170736615
 40
0.1559345321
 40
0.1946988464
 40
0.2140416365
 40
0.2333534871
 40
0.2718671
 40
0.3102132434
 40
0.3293140404
 40
0.3483581299
 40
0.38624691
 40
0.4238283917
 40
0.4610375578
 40
0.4977996467
 40
0.5340304734
 40
0.5519203803
 40
0.5696421907
 40
0.5871833193
 40
0.6045308636
 40
0.6385884047
 40
0.6717149596
 40
0.6878991436
 40
0.7038124025
 40
0.7347743667
 40
0.764515846
 40
0.7929576141
 40
0.8066716193
 40
0.8200366697
 40
0.8330463115
 40
0.8456954772
 40
0.8579796651
 40
0.8698958842
 40
0.8814418771
 40
0.8926170566
 40
0.9034218165
 40
0.9138584653
 40
0.9239306383
 40
0.9336442713
 40
0.9430071067
 40
0.9520297519
 40
0.9607252111
 40
0.9691099751
 40
0.9772037377
 40
0.9850307738
 40
0.9926189434
 40
1.0
 40
1.0
 40
1.0
 40
1.0
 10
10.8223503064
 20
9.2698109171
 30
0.0
 10
10.8223503064
 20
9.2582474428
 30
0.0
 10
10.8229811188
 20
9.2351383363
 30
0.0
 10
10.8258245462
 20
9.2006175095
 30
0.0
 10
10.8305589661
 20
9.1663756257
 30
0.0
 10
10.8371743865
 20
9.1325261341
 30
0.0
 10
10.8442486178
 20
9.1047198686
 30
0.0
 10
10.8508333633
 20
9.0827900406
 30
0.0
 10
10.8580179474
 20
9.0611274028
 30
0.0
 10
10.8681297459
 20
9.0345278413
 30
0.0
 10
10.8797477324
 20
9.0086185022
 30
0.0
 10
10.8899113347
 20
8.9884071383
 30
0.0
 10
10.9006084437
 20
8.9686267708
 30
0.0
 10
10.915005655
 20
8.9446486065
 30
0.0
 10
10.933881707
 20
8.9171640961
 30
0.0
 10
10.9542210402
 20
8.8911643192
 30
0.0
 10
10.9758907784
 20
8.8667951559
 30
0.0
 10
10.9950097612
 20
8.8478776767
 30
0.0
 10
11.0108232466
 20
8.8336850812
 30
0.0
 10
11.0228583812
 20
8.823570046
 30
0.0
 10
11.0350909616
 20
8.8139520737
 30
0.0
 10
11.0515258065
 20
8.8018804705
 30
0.0
 10
11.0723895651
 20
8.7880763015
 30
0.0
 10
11.0938211802
 20
8.7758516075
 30
0.0
 10
11.1110367371
 20
8.7671465122
 30
0.0
 10
11.1279518345
 20
8.7592894184
 30
0.0
 10
11.1489654214
 20
8.7507680557
 30
0.0
 10
11.1740225783
 20
8.7425158436
 30
0.0
 10
11.194638548
 20
8.7372423124
 30
0.0
 10
11.2107384919
 20
8.7340089212
 30
0.0
 10
11.2224381457
 20
8.7320800655
 30
0.0
 10
11.2338861077
 20
8.7306052305
 30
0.0
 10
11.2450613378
 20
8.7295709698
 30
0.0
 10
11.255944071
 20
8.7289636818
 30
0.0
 10
11.2665157721
 20
8.7287695972
 30
0.0
 10
11.2767593065
 20
8.7289749492
 30
0.0
 10
11.286658662
 20
8.7295662421
 30
0.0
 10
11.2961991511
 20
8.7305301276
 30
0.0
 10
11.3053670905
 20
8.731853889
 30
0.0
 10
11.3141500313
 20
8.7335250774
 30
0.0
 10
11.322536384
 20
8.7355321546
 30
0.0
 10
11.3305157181
 20
8.7378639586
 30
0.0
 10
11.3380782877
 20
8.740510464
 30
0.0
 10
11.3452154012
 20
8.7434620963
 30
0.0
 10
11.3519188921
 20
8.7467104986
 30
0.0
 10
11.3581815983
 20
8.7502479051
 30
0.0
 10
11.3639967956
 20
8.7540680349
 30
0.0
 10
11.3693579126
 20
8.7581644702
 30
0.0
 10
11.3726666451
 20
8.7611131486
 30
0.0
 10
11.3742365853
 20
8.7626295945
 30
0.0
  0
SPLINE
  5
324
100
AcDbEntity
  8
0
100
AcDbSpline
 62
7
  6
CONTINUOUS
 70
0
 71
3
 72
15
 73
11
 74
0
 42
0.0000001
 43
0.0000001
 44
0.0000000001
 40
0.0
 40
0.0
 40
0.0
 40
0.0
 40
0.1262912699
 40
0.2521563204
 40
0.377615826
 40
0.5027033339
 40
0.6274530276
 40
0.7518985778
 40
0.8760737468
 40
1.0
 40
1.0
 40
1.0
 40
1.0
 10
10.8701328219
 20
9.5135597907
 30
0.0
 10
10.8661990459
 20
9.5038031165
 30
0.0
 10
10.858796939
 20
9.4841367196
 30
0.0
 10
10.8491125322
 20
9.4541981279
 30
0.0
 10
10.840887341
 20
9.4239292487
 30
0.0
 10
10.8341383784
 20
9.3933926209
 30
0.0
 10
10.8288779713
 20
9.3626502981
 30
0.0
 10
10.8251145611
 20
9.3317653612
 30
0.0
 10
10.8228539934
 20
9.3008036935
 30
0.0
 10
10.8223503064
 20
9.2801337672
 30
0.0
 10
10.8223503064
 20
9.2698109171
 30
0.0
  0
SPLINE
  5
325
100
AcDbEntity
  8
0
100
AcDbSpline
 62
7
  6
CONTINUOUS
 70
0
 71
3
 72
26
 73
22
 74
0
 42
0.0000001
 43
0.0000001
 44
0.0000000001
 40
0.0
 40
0.0
 40
0.0
 40
0.0
 40
0.0637763276
 40
0.127342886
 40
0.1906991341
 40
0.2538523424
 40
0.2853569136
 40
0.3168132539
 40
0.3795812247
 40
0.4421715801
 40
0.5045965951
 40
0.5668701916
 40
0.6290077778
 40
0.6910261223
 40
0.7219986725
 40
0.7529482429
 40
0.8147830252
 40
0.8765553491
 40
0.9074270146
 40
0.9382907765
 40
1.0
 40
1.0
 40
1.0
 40
1.0
 10
10.1014354071
 20
6.8521275566
 30
0.0
 10
10.1014354071
 20
6.8395685142
 30
0.0
 10
10.1008342964
 20
6.814487503
 30
0.0
 10
10.0981210835
 20
6.7770184043
 30
0.0
 10
10.0936037133
 20
6.7398468068
 30
0.0
 10
10.0883401594
 20
6.7091648062
 30
0.0
 10
10.0832382504
 20
6.6848574607
 30
0.0
 10
10.0775547932
 20
6.6607574453
 30
0.0
 10
10.0693513521
 20
6.6309722176
 30
0.0
 10
10.0577623728
 20
6.5958403172
 30
0.0
 10
10.0444618979
 20
6.5614237826
 30
0.0
 10
10.0294805725
 20
6.5278023929
 30
0.0
 10
10.0128531564
 20
6.4950540621
 30
0.0
 10
9.9976494941
 20
6.4685411919
 30
0.0
 10
9.9847054288
 20
6.4478469239
 30
0.0
 10
9.9712569213
 20
6.4275201488
 30
0.0
 10
9.9534934081
 20
6.4027884344
 30
0.0
 10
9.9344945158
 20
6.3790122184
 30
0.0
 10
9.918589201
 20
6.3606090096
 30
0.0
 10
9.902224954
 20
6.3426302126
 30
0.0
 10
9.8894358419
 20
6.3296244568
 30
0.0
 10
9.8806954795
 20
6.3211819028
 30
0.0
  0
SPLINE
  5
326
100
AcDbEntity
  8
0
100
AcDbSpline
 62
7
  6
CONTINUOUS
 70
0
 71
3
 72
21
 73
17
 74
0
 42
0.0000001
 43
0.0000001
 44
0.0000000001
 40
0.0
 40
0.0
 40
0.0
 40
0.0
 40
0.0632451793
 40
0.1263570498
 40
0.1893411014
 40
0.252203513
 40
0.3775708245
 40
0.5025402828
 40
0.5649075243
 40
0.6272018629
 40
0.6894330042
 40
0.7516109596
 40
0.8137460381
 40
0.8758487568
 40
0.9379298075
 40
1.0
 40
1.0
 40
1.0
 40
1.0
 10
10.0992737331
 20
6.7935527275
 30
0.0
 10
10.0975139031
 20
6.7857670064
 30
0.0
 10
10.0937229281
 20
6.7702726306
 30
0.0
 10
10.0872220631
 20
6.7472723376
 30
0.0
 10
10.0799200893
 20
6.7245637665
 30
0.0
 10
10.0691389315
 20
6.6947415685
 30
0.0
 10
10.0537046994
 20
6.6583110493
 30
0.0
 10
10.0357045244
 20
6.6231472249
 30
0.0
 10
10.0198360153
 20
6.5959227494
 30
0.0
 10
10.0072197367
 20
6.5759862775
 30
0.0
 10
9.9938968908
 20
6.5565441652
 30
0.0
 10
9.979882899
 20
6.5376190661
 30
0.0
 10
9.9651945036
 20
6.5192332624
 30
0.0
 10
9.949848714
 20
6.5014084829
 30
0.0
 10
9.9338641156
 20
6.4841658553
 30
0.0
 10
9.9227932017
 20
6.4730714887
 30
0.0
 10
9.9171586864
 20
6.4676289458
 30
0.0
  0
SPLINE
  5
327
100
AcDbEntity
  8
0
100
AcDbSpline
 62
7
  6
CONTINUOUS
 70
0
 71
3
 72
25
 73
21
 74
0
 42
0.0000001
 43
0.0000001
 44
0.0000000001
 40
0.0
 40
0.0
 40
0.0
 40
0.0
 40
0.0639570184
 40
0.0958511422
 40
0.127687059
 40
0.1911792725
 40
0.2544419986
 40
0.2859917418
 40
0.3174863476
 40
0.3803088408
 40
0.4429256337
 40
0.5053495615
 40
0.5675957264
 40
0.6296813399
 40
0.6916255341
 40
0.7534491453
 40
0.8151744721
 40
0.8768250119
 40
0.9384251773
 40
1.0
 40
1.0
 40
1.0
 40
1.0
 10
9.3466257587
 20
7.6901080424
 30
0.0
 10
9.3328587149
 20
7.6916139964
 30
0.0
 10
9.3121621326
 20
7.693334363
 30
0.0
 10
9.2845368375
 20
7.6945372452
 30
0.0
 10
9.2569894549
 20
7.6950101685
 30
0.0
 10
9.2226400336
 20
7.694238327
 30
0.0
 10
9.1884419098
 20
7.6916425911
 30
0.0
 10
9.1612725918
 20
7.6884756083
 30
0.0
 10
9.1342928339
 20
7.6845918899
 30
0.0
 10
9.1008631048
 20
7.6783889611
 30
0.0
 10
9.0613098168
 20
7.6687984251
 30
0.0
 10
9.0224594772
 20
7.6570932406
 30
0.0
 10
8.9844206859
 20
7.6433058662
 30
0.0
 10
8.947298879
 20
7.6274744475
 30
0.0
 10
8.9111972168
 20
7.6096428557
 30
0.0
 10
8.8762159437
 20
7.5898604971
 30
0.0
 10
8.8424523295
 20
7.568182321
 30
0.0
 10
8.8099998503
 20
7.5446681669
 30
0.0
 10
8.7789498786
 20
7.519384459
 30
0.0
 10
8.7592380473
 20
7.501391643
 30
0.0
 10
8.7496479963
 20
7.4921283517
 30
0.0
  0
SPLINE
  5
328
100
AcDbEntity
  8
0
100
AcDbSpline
 62
7
  6
CONTINUOUS
 70
0
 71
3
 72
21
 73
17
 74
0
 42
0.0000001
 43
0.0000001
 44
0.0000000001
 40
0.0
 40
0.0
 40
0.0
 40
0.0
 40
0.0632421657
 40
0.1263514621
 40
0.1893334483
 40
0.2521942838
 40
0.3149407654
 40
0.3775802381
 40
0.440120603
 40
0.5025702617
 40
0.6272126849
 40
0.7516036635
 40
0.8137403859
 40
0.8758449023
 40
0.9379278585
 40
1.0
 40
1.0
 40
1.0
 40
1.0
 10
9.2284031617
 20
7.6940328717
 30
0.0
 10
9.2205826521
 20
7.6925369405
 30
0.0
 10
9.2050092885
 20
7.6892727105
 30
0.0
 10
9.1818620916
 20
7.6835581325
 30
0.0
 10
9.1589785743
 20
7.6770371768
 30
0.0
 10
9.1363860128
 20
7.6697173489
 30
0.0
 10
9.1141106952
 20
7.6616074222
 30
0.0
 10
9.0921789404
 20
7.6527167105
 30
0.0
 10
9.070616057
 20
7.6430556309
 30
0.0
 10
9.0424128735
 20
7.6291728375
 30
0.0
 10
9.008190183
 20
7.6099475029
 30
0.0
 10
8.9754928467
 20
7.588299665
 30
0.0
 10
8.9503748664
 20
7.5696089278
 30
0.0
 10
8.9320761849
 20
7.5549214594
 30
0.0
 10
8.9143349668
 20
7.5395786294
 30
0.0
 10
8.9028916415
 20
7.5289240861
 30
0.0
 10
8.8972706839
 20
7.523494639
 30
0.0
  0
SPLINE
  5
329
100
AcDbEntity
  8
0
100
AcDbSpline
 62
7
  6
CONTINUOUS
 70
0
 71
3
 72
26
 73
22
 74
0
 42
0.0000001
 43
0.0000001
 44
0.0000000001
 40
0.0
 40
0.0
 40
0.0
 40
0.0
 40
0.0637763276
 40
0.127342886
 40
0.1906991341
 40
0.2538523424
 40
0.2853569136
 40
0.3168132539
 40
0.3795812247
 40
0.4421715801
 40
0.5045965951
 40
0.5668701916
 40
0.6290077778
 40
0.6910261223
 40
0.7219986725
 40
0.7529482429
 40
0.8147830252
 40
0.8765553491
 40
0.9074270146
 40
0.9382907765
 40
1.0
 40
1.0
 40
1.0
 40
1.0
 10
12.0332874044
 20
8.8914864034
 30
0.0
 10
12.0332874044
 20
8.8789273611
 30
0.0
 10
12.0326862938
 20
8.8538463498
 30
0.0
 10
12.0299730808
 20
8.8163772512
 30
0.0
 10
12.0254557106
 20
8.7792056537
 30
0.0
 10
12.0201921567
 20
8.7485236531
 30
0.0
 10
12.0150902477
 20
8.7242163076
 30
0.0
 10
12.0094067905
 20
8.7001162922
 30
0.0
 10
12.0012033494
 20
8.6703310645
 30
0.0
 10
11.9896143702
 20
8.6351991641
 30
0.0
 10
11.9763138953
 20
8.6007826295
 30
0.0
 10
11.9613325699
 20
8.5671612397
 30
0.0
 10
11.9447051537
 20
8.534412909
 30
0.0
 10
11.9295014914
 20
8.5079000387
 30
0.0
 10
11.9165574261
 20
8.4872057708
 30
0.0
 10
11.9031089187
 20
8.4668789957
 30
0.0
 10
11.8853454054
 20
8.4421472812
 30
0.0
 10
11.8663465131
 20
8.4183710653
 30
0.0
 10
11.8504411983
 20
8.3999678565
 30
0.0
 10
11.8340769513
 20
8.3819890594
 30
0.0
 10
11.8212878393
 20
8.3689833036
 30
0.0
 10
11.8125474768
 20
8.3605407496
 30
0.0
  0
SPLINE
  5
32A
100
AcDbEntity
  8
0
100
AcDbSpline
 62
7
  6
CONTINUOUS
 70
0
 71
3
 72
21
 73
17
 74
0
 42
0.0000001
 43
0.0000001
 44
0.0000000001
 40
0.0
 40
0.0
 40
0.0
 40
0.0
 40
0.0632451793
 40
0.1263570498
 40
0.1893411014
 40
0.252203513
 40
0.3775708245
 40
0.5025402828
 40
0.5649075243
 40
0.6272018629
 40
0.6894330042
 40
0.7516109596
 40
0.8137460381
 40
0.8758487568
 40
0.9379298075
 40
1.0
 40
1.0
 40
1.0
 40
1.0
 10
12.0311257304
 20
8.8329115744
 30
0.0
 10
12.0293659005
 20
8.8251258533
 30
0.0
 10
12.0255749255
 20
8.8096314774
 30
0.0
 10
12.0190740604
 20
8.7866311845
 30
0.0
 10
12.0117720867
 20
8.7639226133
 30
0.0
 10
12.0009909288
 20
8.7341004154
 30
0.0
 10
11.9855566967
 20
8.6976698962
 30
0.0
 10
11.9675565217
 20
8.6625060718
 30
0.0
 10
11.9516880126
 20
8.6352815963
 30
0.0
 10
11.939071734
 20
8.6153451244
 30
0.0
 10
11.9257488881
 20
8.595903012
 30
0.0
 10
11.9117348963
 20
8.5769779129
 30
0.0
 10
11.8970465009
 20
8.5585921093
 30
0.0
 10
11.8817007113
 20
8.5407673297
 30
0.0
 10
11.8657161129
 20
8.5235247022
 30
0.0
 10
11.8546451991
 20
8.5124303356
 30
0.0
 10
11.8490106838
 20
8.5069877927
 30
0.0
  0
SPLINE
  5
32B
100
AcDbEntity
  8
0
100
AcDbSpline
 62
7
  6
CONTINUOUS
 70
0
 71
3
 72
25
 73
21
 74
0
 42
0.0000001
 43
0.0000001
 44
0.0000000001
 40
0.0
 40
0.0
 40
0.0
 40
0.0
 40
0.0639570184
 40
0.0958511422
 40
0.127687059
 40
0.1911792725
 40
0.2544419986
 40
0.2859917418
 40
0.3174863476
 40
0.3803088408
 40
0.4429256337
 40
0.5053495615
 40
0.5675957264
 40
0.6296813399
 40
0.6916255341
 40
0.7534491453
 40
0.8151744721
 40
0.8768250119
 40
0.9384251773
 40
1.0
 40
1.0
 40
1.0
 40
1.0
 10
11.2784777561
 20
9.7294668892
 30
0.0
 10
11.2647107123
 20
9.7309728433
 30
0.0
 10
11.2440141299
 20
9.7326932099
 30
0.0
 10
11.2163888349
 20
9.7338960921
 30
0.0
 10
11.1888414522
 20
9.7343690153
 30
0.0
 10
11.1544920309
 20
9.7335971738
 30
0.0
 10
11.1202939071
 20
9.731001438
 30
0.0
 10
11.0931245892
 20
9.7278344551
 30
0.0
 10
11.0661448312
 20
9.7239507367
 30
0.0
 10
11.0327151022
 20
9.717747808
 30
0.0
 10
10.9931618141
 20
9.7081572719
 30
0.0
 10
10.9543114745
 20
9.6964520875
 30
0.0
 10
10.9162726832
 20
9.682664713
 30
0.0
 10
10.8791508763
 20
9.6668332943
 30
0.0
 10
10.8430492142
 20
9.6490017026
 30
0.0
 10
10.808067941
 20
9.629219344
 30
0.0
 10
10.7743043269
 20
9.6075411679
 30
0.0
 10
10.7418518476
 20
9.5840270138
 30
0.0
 10
10.7108018759
 20
9.5587433059
 30
0.0
 10
10.6910900446
 20
9.5407504899
 30
0.0
 10
10.6814999936
 20
9.5314871985
 30
0.0
  0
SPLINE
  5
32C
100
AcDbEntity
  8
0
100
AcDbSpline
 62
7
  6
CONTINUOUS
 70
0
 71
3
 72
21
 73
17
 74
0
 42
0.0000001
 43
0.0000001
 44
0.0000000001
 40
0.0
 40
0.0
 40
0.0
 40
0.0
 40
0.0632421657
 40
0.1263514621
 40
0.1893334483
 40
0.2521942838
 40
0.3149407654
 40
0.3775802381
 40
0.440120603
 40
0.5025702617
 40
0.6272126849
 40
0.7516036635
 40
0.8137403859
 40
0.8758449023
 40
0.9379278585
 40
1.0
 40
1.0
 40
1.0
 40
1.0
 10
11.1602551591
 20
9.7333917186
 30
0.0
 10
11.1524346494
 20
9.7318957874
 30
0.0
 10
11.1368612859
 20
9.7286315573
 30
0.0
 10
11.1137140889
 20
9.7229169793
 30
0.0
 10
11.0908305717
 20
9.7163960237
 30
0.0
 10
11.0682380102
 20
9.7090761958
 30
0.0
 10
11.0459626926
 20
9.7009662691
 30
0.0
 10
11.0240309377
 20
9.6920755574
 30
0.0
 10
11.0024680543
 20
9.6824144777
 30
0.0
 10
10.9742648708
 20
9.6685316843
 30
0.0
 10
10.9400421803
 20
9.6493063498
 30
0.0
 10
10.9073448441
 20
9.6276585119
 30
0.0
 10
10.8822268638
 20
9.6089677747
 30
0.0
 10
10.8639281823
 20
9.5942803063
 30
0.0
 10
10.8461869641
 20
9.5789374763
 30
0.0
 10
10.8347436388
 20
9.568282933
 30
0.0
 10
10.8291226812
 20
9.5628534858
 30
0.0
  0
SPLINE
  5
32D
100
AcDbEntity
  8
0
100
AcDbSpline
 62
7
  6
CONTINUOUS
 70
0
 71
3
 72
54
 73
50
 74
0
 42
0.0000001
 43
0.0000001
 44
0.0000000001
 40
0.0
 40
0.0
 40
0.0
 40
0.0
 40
0.0063158507
 40
0.0126706009
 40
0.0191023977
 40
0.0256478986
 40
0.0323417211
 40
0.0392160215
 40
0.0536137219
 40
0.0611943855
 40
0.0690560622
 40
0.0772171197
 40
0.0856934318
 40
0.0944987522
 40
0.1036448027
 40
0.113141486
 40
0.1229971814
 40
0.1332187245
 40
0.1438117391
 40
0.1547806923
 40
0.1661289554
 40
0.1778590781
 40
0.1899726748
 40
0.2024706471
 40
0.2153532452
 40
0.2286199987
 40
0.2422699729
 40
0.2563016345
 40
0.2707129683
 40
0.2855015805
 40
0.3006645508
 40
0.3161986637
 40
0.3321003047
 40
0.364989385
 40
0.3992970598
 40
0.4349833452
 40
0.4720041093
 40
0.5103114544
 40
0.549854083
 40
0.590577587
 40
0.6324246928
 40
0.6753354638
 40
0.7192475599
 40
0.7640963991
 40
0.8098154153
 40
0.8563362597
 40
0.9035882195
 40
0.9515013118
 40
1.0
 40
1.0
 40
1.0
 40
1.0
 10
14.3699166079
 20
6.0198830847
 30
0.0
 10
14.3679221834
 20
6.0200213896
 30
0.0
 10
14.3639304775
 20
6.0204621111
 30
0.0
 10
14.3579876317
 20
6.0216107754
 30
0.0
 10
14.3520845255
 20
6.0232471621
 30
0.0
 10
14.3462245953
 20
6.0253698652
 30
0.0
 10
14.3404101189
 20
6.0279776463
 30
0.0
 10
14.3326028862
 20
6.0321627263
 30
0.0
 10
14.3250076168
 20
6.0372858263
 30
0.0
 10
14.3176573766
 20
6.043222776
 30
0.0
 10
14.3121054322
 20
6.0482282975
 30
0.0
 10
14.3066128152
 20
6.0537068942
 30
0.0
 10
14.301180825
 20
6.0596565457
 30
0.0
 10
14.2958117366
 20
6.0660747309
 30
0.0
 10
14.2905075144
 20
6.0729588291
 30
0.0
 10
14.2852701502
 20
6.0803059974
 30
0.0
 10
14.2801017739
 20
6.0881133161
 30
0.0
 10
14.2750043205
 20
6.0963775635
 30
0.0
 10
14.2699798585
 20
6.1050954167
 30
0.0
 10
14.2650304195
 20
6.1142633431
 30
0.0
 10
14.2601579201
 20
6.123877586
 30
0.0
 10
14.2553644281
 20
6.1339342678
 30
0.0
 10
14.2506518249
 20
6.1444292595
 30
0.0
 10
14.2460220443
 20
6.1553582805
 30
0.0
 10
14.2414770317
 20
6.1667168744
 30
0.0
 10
14.2370185693
 20
6.1785003672
 30
0.0
 10
14.2326485655
 20
6.1907039482
 30
0.0
 10
14.2283687846
 20
6.2033225996
 30
0.0
 10
14.2241809691
 20
6.216351137
 30
0.0
 10
14.2200869115
 20
6.2297842201
 30
0.0
 10
14.2160882303
 20
6.2436163074
 30
0.0
 10
14.2121866052
 20
6.257841733
 30
0.0
 10
14.2070584233
 20
6.2775471955
 30
0.0
 10
14.2009162853
 20
6.3031267934
 30
0.0
 10
14.1940379308
 20
6.3349611985
 30
0.0
 10
14.1875830121
 20
6.3682172488
 30
0.0
 10
14.1815622692
 20
6.4028401348
 30
0.0
 10
14.1759857259
 20
6.4387729557
 30
0.0
 10
14.1708626738
 20
6.4759565526
 30
0.0
 10
14.1662016548
 20
6.5143297002
 30
0.0
 10
14.1620104488
 20
6.5538291772
 30
0.0
 10
14.1582960291
 20
6.5943898797
 30
0.0
 10
14.1550645851
 20
6.6359449277
 30
0.0
 10
14.1523215025
 20
6.6784258014
 30
0.0
 10
14.1500713636
 20
6.7217624763
 30
0.0
 10
14.1483179494
 20
6.7658833222
 30
0.0
 10
14.1470641171
 20
6.810715944
 30
0.0
 10
14.1463120715
 20
6.8561858454
 30
0.0
 10
14.1461469308
 20
6.8867042301
 30
0.0
 10
14.1461469308
 20
6.9020559648
 30
0.0
  0
SPLINE
  5
32E
100
AcDbEntity
  8
0
100
AcDbSpline
 62
7
  6
CONTINUOUS
 70
0
 71
3
 72
49
 73
45
 74
0
 42
0.0000001
 43
0.0000001
 44
0.0000000001
 40
0.0
 40
0.0
 40
0.0
 40
0.0
 40
0.0063856902
 40
0.0129180053
 40
0.019624098
 40
0.0265287875
 40
0.0336545132
 40
0.0410214547
 40
0.0486474966
 40
0.0565483583
 40
0.0647378786
 40
0.073228045
 40
0.0820291327
 40
0.0911500263
 40
0.1005982378
 40
0.1103799828
 40
0.1205004928
 40
0.1309640109
 40
0.1417737918
 40
0.1529323962
 40
0.1644416754
 40
0.1763027046
 40
0.2010807194
 40
0.2272658068
 40
0.2548487476
 40
0.283813836
 40
0.3141399625
 40
0.3458012609
 40
0.378767443
 40
0.4130045002
 40
0.4484749693
 40
0.4851381229
 40
0.5229504705
 40
0.5618658381
 40
0.6018355411
 40
0.6428087597
 40
0.6847325381
 40
0.7275519339
 40
0.7712103781
 40
0.8156497522
 40
0.8608098586
 40
0.9066296536
 40
0.9530492264
 40
1.0
 40
1.0
 40
1.0
 40
1.0
 10
14.3198535246
 20
6.3961889697
 30
0.0
 10
14.3185738144
 20
6.3966414065
 30
0.0
 10
14.3160173923
 20
6.3976509349
 30
0.0
 10
14.3122497632
 20
6.3994479678
 30
0.0
 10
14.3085118634
 20
6.4015421192
 30
0.0
 10
14.3048052767
 20
6.4039322269
 30
0.0
 10
14.3011311512
 20
6.406617172
 30
0.0
 10
14.2974907893
 20
6.409595877
 30
0.0
 10
14.2938853833
 20
6.4128671132
 30
0.0
 10
14.2903160796
 20
6.4164295507
 30
0.0
 10
14.2867841224
 20
6.420281895
 30
0.0
 10
14.2832907061
 20
6.4244227051
 30
0.0
 10
14.2798369673
 20
6.4288504091
 30
0.0
 10
14.2764241472
 20
6.4335634288
 30
0.0
 10
14.2730534527
 20
6.4385600522
 30
0.0
 10
14.2697260142
 20
6.443838419
 30
0.0
 10
14.2664430558
 20
6.4493966367
 30
0.0
 10
14.2632057804
 20
6.4552326921
 30
0.0
 10
14.260015294
 20
6.4613444222
 30
0.0
 10
14.2568727923
 20
6.4677296105
 30
0.0
 10
14.2537794237
 20
6.4743859492
 30
0.0
 10
14.2496618693
 20
6.4837561432
 30
0.0
 10
14.2446581301
 20
6.4961408055
 30
0.0
 10
14.2389515346
 20
6.5118340566
 30
0.0
 10
14.2334670222
 20
6.5285454212
 30
0.0
 10
14.2282126352
 20
6.5462503246
 30
0.0
 10
14.2231961638
 20
6.5649229706
 30
0.0
 10
14.2184251123
 20
6.5845359851
 30
0.0
 10
14.2139065247
 20
6.6050605566
 30
0.0
 10
14.2096471609
 20
6.626466493
 30
0.0
 10
14.2056534013
 20
6.6487222683
 30
0.0
 10
14.2019311524
 20
6.6717950631
 30
0.0
 10
14.1984860027
 20
6.6956508386
 30
0.0
 10
14.1953231029
 20
6.7202543788
 30
0.0
 10
14.1924471307
 20
6.7455693445
 30
0.0
 10
14.1898624181
 20
6.7715583407
 30
0.0
 10
14.1875728177
 20
6.7981829576
 30
0.0
 10
14.1855817138
 20
6.8254038393
 30
0.0
 10
14.1838921193
 20
6.8531807773
 30
0.0
 10
14.1825065541
 20
6.881472651
 30
0.0
 10
14.1814270506
 20
6.9102375658
 30
0.0
 10
14.1806552521
 20
6.9394334216
 30
0.0
 10
14.1801923679
 20
6.9690164231
 30
0.0
 10
14.1800906405
 20
6.9888632739
 30
0.0
 10
14.1800906405
 20
6.998843074
 30
0.0
  0
SPLINE
  5
32F
100
AcDbEntity
  8
0
100
AcDbSpline
 62
7
  6
CONTINUOUS
 70
0
 71
3
 72
54
 73
50
 74
0
 42
0.0000001
 43
0.0000001
 44
0.0000000001
 40
0.0
 40
0.0
 40
0.0
 40
0.0
 40
0.005498893
 40
0.0111936524
 40
0.0171298113
 40
0.0233468368
 40
0.0298783914
 40
0.0367525319
 40
0.0439924553
 40
0.051616895
 40
0.0596408766
 40
0.0680760951
 40
0.0769314837
 40
0.086213548
 40
0.0959267042
 40
0.1060736054
 40
0.1166552689
 40
0.1276714219
 40
0.1391204621
 40
0.1509998266
 40
0.163305842
 40
0.1760340936
 40
0.1891792302
 40
0.2027352946
 40
0.2166955447
 40
0.2310527078
 40
0.2457988643
 40
0.2609256001
 40
0.2764239788
 40
0.2922845858
 40
0.3084975922
 40
0.3250527011
 40
0.3591458174
 40
0.3944748275
 40
0.4309447968
 40
0.4684560714
 40
0.5069048168
 40
0.5461835246
 40
0.5861814964
 40
0.6267853117
 40
0.6678792849
 40
0.7093459164
 40
0.7510663332
 40
0.7929207448
 40
0.8347888378
 40
0.8765503489
 40
0.9180851332
 40
0.9592745042
 40
1.0
 40
1.0
 40
1.0
 40
1.0
 10
14.4316630293
 20
8.0084352596
 30
0.0
 10
14.4297395159
 20
8.0080426333
 30
0.0
 10
14.4258635538
 20
8.0070369992
 30
0.0
 10
14.4201133676
 20
8.00493022
 30
0.0
 10
14.4143443338
 20
8.0022058493
 30
0.0
 10
14.4085611297
 20
7.9988676843
 30
0.0
 10
14.4027673414
 20
7.9949189437
 30
0.0
 10
14.3969665511
 20
7.9903633942
 30
0.0
 10
14.391162587
 20
7.9852046273
 30
0.0
 10
14.3853591597
 20
7.9794467805
 30
0.0
 10
14.379560311
 20
7.9730941223
 30
0.0
 10
14.3737700243
 20
7.966151457
 30
0.0
 10
14.3679924834
 20
7.9586239222
 30
0.0
 10
14.3622318882
 20
7.9505171382
 30
0.0
 10
14.3564924746
 20
7.9418371715
 30
0.0
 10
14.3507785767
 20
7.9325905124
 30
0.0
 10
14.3450944205
 20
7.9227841497
 30
0.0
 10
14.3394444029
 20
7.9124254519
 30
0.0
 10
14.3338327066
 20
7.9015222978
 30
0.0
 10
14.3282637322
 20
7.8900829215
 30
0.0
 10
14.3227416073
 20
7.8781160538
 30
0.0
 10
14.3172706843
 20
7.8656307714
 30
0.0
 10
14.3118550352
 20
7.8526366185
 30
0.0
 10
14.3064989207
 20
7.8391434854
 30
0.0
 10
14.3012063579
 20
7.8251616933
 30
0.0
 10
14.2959814829
 20
7.8107019115
 30
0.0
 10
14.2908282535
 20
7.7957752037
 30
0.0
 10
14.2857506593
 20
7.7803929809
 30
0.0
 10
14.2807525873
 20
7.7645670139
 30
0.0
 10
14.2758378725
 20
7.7483094183
 30
0.0
 10
14.271010293
 20
7.7316326249
 30
0.0
 10
14.2646322375
 20
7.7086297367
 30
0.0
 10
14.2569166348
 20
7.6789177327
 30
0.0
 10
14.2481507189
 20
7.642140869
 30
0.0
 10
14.2398165092
 20
7.6040137767
 30
0.0
 10
14.2319396771
 20
7.5646532629
 30
0.0
 10
14.2245444991
 20
7.5241797695
 30
0.0
 10
14.2176537488
 20
7.4827172395
 30
0.0
 10
14.2112886384
 20
7.4403926597
 30
0.0
 10
14.2054687522
 20
7.3973356847
 30
0.0
 10
14.2002119881
 20
7.3536782288
 30
0.0
 10
14.1955345047
 20
7.3095540601
 30
0.0
 10
14.1914506691
 20
7.2650983832
 30
0.0
 10
14.1879730215
 20
7.2204474347
 30
0.0
 10
14.1851122185
 20
7.1757380236
 30
0.0
 10
14.1828770401
 20
7.1311072226
 30
0.0
 10
14.181274286
 20
7.086691656
 30
0.0
 10
14.1803088789
 20
7.0426276909
 30
0.0
 10
14.1800906405
 20
7.0133826017
 30
0.0
 10
14.1800906405
 20
6.998843074
 30
0.0
  0
SPLINE
  5
330
100
AcDbEntity
  8
0
100
AcDbSpline
 62
7
  6
CONTINUOUS
 70
0
 71
3
 72
54
 73
50
 74
0
 42
0.0000001
 43
0.0000001
 44
0.0000000001
 40
0.0
 40
0.0
 40
0.0
 40
0.0
 40
0.0063158507
 40
0.0126706009
 40
0.0191023977
 40
0.0256478986
 40
0.0323417211
 40
0.0392160215
 40
0.0536137219
 40
0.0611943855
 40
0.0690560622
 40
0.0772171197
 40
0.0856934318
 40
0.0944987522
 40
0.1036448027
 40
0.113141486
 40
0.1229971814
 40
0.1332187245
 40
0.1438117391
 40
0.1547806923
 40
0.1661289554
 40
0.1778590781
 40
0.1899726748
 40
0.2024706471
 40
0.2153532452
 40
0.2286199987
 40
0.2422699729
 40
0.2563016345
 40
0.2707129683
 40
0.2855015805
 40
0.3006645508
 40
0.3161986637
 40
0.3321003047
 40
0.364989385
 40
0.3992970598
 40
0.4349833452
 40
0.4720041093
 40
0.5103114544
 40
0.549854083
 40
0.590577587
 40
0.6324246928
 40
0.6753354638
 40
0.7192475599
 40
0.7640963991
 40
0.8098154153
 40
0.8563362597
 40
0.9035882195
 40
0.9515013118
 40
1.0
 40
1.0
 40
1.0
 40
1.0
 10
14.3699166079
 20
9.1591422061
 30
0.0
 10
14.3679221834
 20
9.1592805111
 30
0.0
 10
14.3639304775
 20
9.1597212326
 30
0.0
 10
14.3579876317
 20
9.1608698968
 30
0.0
 10
14.3520845255
 20
9.1625062835
 30
0.0
 10
14.3462245953
 20
9.1646289866
 30
0.0
 10
14.3404101189
 20
9.1672367677
 30
0.0
 10
14.3326028862
 20
9.1714218478
 30
0.0
 10
14.3250076168
 20
9.1765449477
 30
0.0
 10
14.3176573766
 20
9.1824818975
 30
0.0
 10
14.3121054322
 20
9.1874874189
 30
0.0
 10
14.3066128152
 20
9.1929660156
 30
0.0
 10
14.301180825
 20
9.1989156672
 30
0.0
 10
14.2958117366
 20
9.2053338523
 30
0.0
 10
14.2905075144
 20
9.2122179506
 30
0.0
 10
14.2852701502
 20
9.2195651188
 30
0.0
 10
14.2801017739
 20
9.2273724375
 30
0.0
 10
14.2750043205
 20
9.2356366849
 30
0.0
 10
14.2699798585
 20
9.2443545381
 30
0.0
 10
14.2650304195
 20
9.2535224645
 30
0.0
 10
14.2601579201
 20
9.2631367074
 30
0.0
 10
14.2553644281
 20
9.2731933892
 30
0.0
 10
14.2506518249
 20
9.283688381
 30
0.0
 10
14.2460220443
 20
9.294617402
 30
0.0
 10
14.2414770317
 20
9.3059759958
 30
0.0
 10
14.2370185693
 20
9.3177594887
 30
0.0
 10
14.2326485655
 20
9.3299630696
 30
0.0
 10
14.2283687846
 20
9.3425817211
 30
0.0
 10
14.2241809691
 20
9.3556102585
 30
0.0
 10
14.2200869115
 20
9.3690433416
 30
0.0
 10
14.2160882303
 20
9.3828754288
 30
0.0
 10
14.2121866052
 20
9.3971008545
 30
0.0
 10
14.2070584233
 20
9.4168063169
 30
0.0
 10
14.2009162853
 20
9.4423859149
 30
0.0
 10
14.1940379308
 20
9.47422032
 30
0.0
 10
14.1875830121
 20
9.5074763703
 30
0.0
 10
14.1815622692
 20
9.5420992563
 30
0.0
 10
14.1759857259
 20
9.5780320771
 30
0.0
 10
14.1708626738
 20
9.615215674
 30
0.0
 10
14.1662016548
 20
9.6535888216
 30
0.0
 10
14.1620104488
 20
9.6930882986
 30
0.0
 10
14.1582960291
 20
9.7336490011
 30
0.0
 10
14.1550645851
 20
9.7752040491
 30
0.0
 10
14.1523215025
 20
9.8176849229
 30
0.0
 10
14.1500713636
 20
9.8610215977
 30
0.0
 10
14.1483179494
 20
9.9051424436
 30
0.0
 10
14.1470641171
 20
9.9499750655
 30
0.0
 10
14.1463120715
 20
9.9954449669
 30
0.0
 10
14.1461469308
 20
10.0259633515
 30
0.0
 10
14.1461469308
 20
10.0413150862
 30
0.0
  0
SPLINE
  5
331
100
AcDbEntity
  8
0
100
AcDbSpline
 62
7
  6
CONTINUOUS
 70
0
 71
3
 72
49
 73
45
 74
0
 42
0.0000001
 43
0.0000001
 44
0.0000000001
 40
0.0
 40
0.0
 40
0.0
 40
0.0
 40
0.0063856902
 40
0.0129180053
 40
0.019624098
 40
0.0265287875
 40
0.0336545132
 40
0.0410214547
 40
0.0486474966
 40
0.0565483583
 40
0.0647378786
 40
0.073228045
 40
0.0820291327
 40
0.0911500263
 40
0.1005982378
 40
0.1103799828
 40
0.1205004928
 40
0.1309640109
 40
0.1417737918
 40
0.1529323962
 40
0.1644416754
 40
0.1763027046
 40
0.2010807194
 40
0.2272658068
 40
0.2548487476
 40
0.283813836
 40
0.3141399625
 40
0.3458012609
 40
0.378767443
 40
0.4130045002
 40
0.4484749693
 40
0.4851381229
 40
0.5229504705
 40
0.5618658381
 40
0.6018355411
 40
0.6428087597
 40
0.6847325381
 40
0.7275519339
 40
0.7712103781
 40
0.8156497522
 40
0.8608098586
 40
0.9066296536
 40
0.9530492264
 40
1.0
 40
1.0
 40
1.0
 40
1.0
 10
14.3198535246
 20
9.5354480911
 30
0.0
 10
14.3185738144
 20
9.5359005279
 30
0.0
 10
14.3160173923
 20
9.5369100563
 30
0.0
 10
14.3122497632
 20
9.5387070892
 30
0.0
 10
14.3085118634
 20
9.5408012407
 30
0.0
 10
14.3048052767
 20
9.5431913483
 30
0.0
 10
14.3011311512
 20
9.5458762934
 30
0.0
 10
14.2974907893
 20
9.5488549984
 30
0.0
 10
14.2938853833
 20
9.5521262346
 30
0.0
 10
14.2903160796
 20
9.5556886722
 30
0.0
 10
14.2867841224
 20
9.5595410164
 30
0.0
 10
14.2832907061
 20
9.5636818266
 30
0.0
 10
14.2798369673
 20
9.5681095305
 30
0.0
 10
14.2764241472
 20
9.5728225503
 30
0.0
 10
14.2730534527
 20
9.5778191736
 30
0.0
 10
14.2697260142
 20
9.5830975404
 30
0.0
 10
14.2664430558
 20
9.5886557581
 30
0.0
 10
14.2632057804
 20
9.5944918136
 30
0.0
 10
14.260015294
 20
9.6006035436
 30
0.0
 10
14.2568727923
 20
9.6069887319
 30
0.0
 10
14.2537794237
 20
9.6136450707
 30
0.0
 10
14.2496618693
 20
9.6230152646
 30
0.0
 10
14.2446581301
 20
9.6353999269
 30
0.0
 10
14.2389515346
 20
9.6510931781
 30
0.0
 10
14.2334670222
 20
9.6678045426
 30
0.0
 10
14.2282126352
 20
9.685509446
 30
0.0
 10
14.2231961638
 20
9.704182092
 30
0.0
 10
14.2184251123
 20
9.7237951066
 30
0.0
 10
14.2139065247
 20
9.744319678
 30
0.0
 10
14.2096471609
 20
9.7657256144
 30
0.0
 10
14.2056534013
 20
9.7879813898
 30
0.0
 10
14.2019311524
 20
9.8110541846
 30
0.0
 10
14.1984860027
 20
9.8349099601
 30
0.0
 10
14.1953231029
 20
9.8595135002
 30
0.0
 10
14.1924471307
 20
9.884828466
 30
0.0
 10
14.1898624181
 20
9.9108174621
 30
0.0
 10
14.1875728177
 20
9.937442079
 30
0.0
 10
14.1855817138
 20
9.9646629607
 30
0.0
 10
14.1838921193
 20
9.9924398988
 30
0.0
 10
14.1825065541
 20
10.0207317725
 30
0.0
 10
14.1814270506
 20
10.0494966872
 30
0.0
 10
14.1806552521
 20
10.078692543
 30
0.0
 10
14.1801923679
 20
10.1082755445
 30
0.0
 10
14.1800906405
 20
10.1281223954
 30
0.0
 10
14.1800906405
 20
10.1381021955
 30
0.0
  0
SPLINE
  5
332
100
AcDbEntity
  8
0
100
AcDbSpline
 62
7
  6
CONTINUOUS
 70
0
 71
3
 72
54
 73
50
 74
0
 42
0.0000001
 43
0.0000001
 44
0.0000000001
 40
0.0
 40
0.0
 40
0.0
 40
0.0
 40
0.005498893
 40
0.0111936524
 40
0.0171298113
 40
0.0233468368
 40
0.0298783914
 40
0.0367525319
 40
0.0439924553
 40
0.051616895
 40
0.0596408766
 40
0.0680760951
 40
0.0769314837
 40
0.086213548
 40
0.0959267042
 40
0.1060736054
 40
0.1166552689
 40
0.1276714219
 40
0.1391204621
 40
0.1509998266
 40
0.163305842
 40
0.1760340936
 40
0.1891792302
 40
0.2027352946
 40
0.2166955447
 40
0.2310527078
 40
0.2457988643
 40
0.2609256001
 40
0.2764239788
 40
0.2922845858
 40
0.3084975922
 40
0.3250527011
 40
0.3591458174
 40
0.3944748275
 40
0.4309447968
 40
0.4684560714
 40
0.5069048168
 40
0.5461835246
 40
0.5861814964
 40
0.6267853117
 40
0.6678792849
 40
0.7093459164
 40
0.7510663332
 40
0.7929207448
 40
0.8347888378
 40
0.8765503489
 40
0.9180851332
 40
0.9592745042
 40
1.0
 40
1.0
 40
1.0
 40
1.0
 10
14.4316630293
 20
11.147694381
 30
0.0
 10
14.4297395159
 20
11.1473017548
 30
0.0
 10
14.4258635538
 20
11.1462961206
 30
0.0
 10
14.4201133676
 20
11.1441893415
 30
0.0
 10
14.4143443338
 20
11.1414649708
 30
0.0
 10
14.4085611297
 20
11.1381268057
 30
0.0
 10
14.4027673414
 20
11.1341780652
 30
0.0
 10
14.3969665511
 20
11.1296225157
 30
0.0
 10
14.391162587
 20
11.1244637487
 30
0.0
 10
14.3853591597
 20
11.1187059019
 30
0.0
 10
14.379560311
 20
11.1123532437
 30
0.0
 10
14.3737700243
 20
11.1054105784
 30
0.0
 10
14.3679924834
 20
11.0978830437
 30
0.0
 10
14.3622318882
 20
11.0897762597
 30
0.0
 10
14.3564924746
 20
11.0810962929
 30
0.0
 10
14.3507785767
 20
11.0718496339
 30
0.0
 10
14.3450944205
 20
11.0620432711
 30
0.0
 10
14.3394444029
 20
11.0516845733
 30
0.0
 10
14.3338327066
 20
11.0407814192
 30
0.0
 10
14.3282637322
 20
11.029342043
 30
0.0
 10
14.3227416073
 20
11.0173751753
 30
0.0
 10
14.3172706843
 20
11.0048898929
 30
0.0
 10
14.3118550352
 20
10.99189574
 30
0.0
 10
14.3064989207
 20
10.9784026069
 30
0.0
 10
14.3012063579
 20
10.9644208147
 30
0.0
 10
14.2959814829
 20
10.949961033
 30
0.0
 10
14.2908282535
 20
10.9350343252
 30
0.0
 10
14.2857506593
 20
10.9196521024
 30
0.0
 10
14.2807525873
 20
10.9038261353
 30
0.0
 10
14.2758378725
 20
10.8875685397
 30
0.0
 10
14.271010293
 20
10.8708917464
 30
0.0
 10
14.2646322375
 20
10.8478888581
 30
0.0
 10
14.2569166348
 20
10.8181768541
 30
0.0
 10
14.2481507189
 20
10.7813999904
 30
0.0
 10
14.2398165092
 20
10.7432728981
 30
0.0
 10
14.2319396771
 20
10.7039123843
 30
0.0
 10
14.2245444991
 20
10.6634388909
 30
0.0
 10
14.2176537488
 20
10.6219763609
 30
0.0
 10
14.2112886384
 20
10.5796517811
 30
0.0
 10
14.2054687522
 20
10.5365948061
 30
0.0
 10
14.2002119881
 20
10.4929373502
 30
0.0
 10
14.1955345047
 20
10.4488131815
 30
0.0
 10
14.1914506691
 20
10.4043575046
 30
0.0
 10
14.1879730215
 20
10.3597065562
 30
0.0
 10
14.1851122185
 20
10.314997145
 30
0.0
 10
14.1828770401
 20
10.270366344
 30
0.0
 10
14.181274286
 20
10.2259507774
 30
0.0
 10
14.1803088789
 20
10.1818868124
 30
0.0
 10
14.1800906405
 20
10.1526417231
 30
0.0
 10
14.1800906405
 20
10.1381021955
 30
0.0
  0
SPLINE
  5
333
100
AcDbEntity
  8
0
100
AcDbSpline
 62
7
  6
CONTINUOUS
 70
0
 71
3
 72
54
 73
50
 74
0
 42
0.0000001
 43
0.0000001
 44
0.0000000001
 40
0.0
 40
0.0
 40
0.0
 40
0.0
 40
0.0149714207
 40
0.0299459009
 40
0.0449264795
 40
0.0599161607
 40
0.0749178924
 40
0.0899345474
 40
0.1049689109
 40
0.1200236599
 40
0.135101347
 40
0.1502043904
 40
0.1653350555
 40
0.1804954423
 40
0.195687479
 40
0.210912906
 40
0.2261732683
 40
0.2414699124
 40
0.2568039734
 40
0.2721763729
 40
0.2875878193
 40
0.3030387972
 40
0.3185295728
 40
0.3340601946
 40
0.3496304877
 40
0.3652400644
 40
0.3808883259
 40
0.3965744612
 40
0.4122974619
 40
0.4280561242
 40
0.4438490534
 40
0.4596746808
 40
0.4914119437
 40
0.5232571513
 40
0.5551923202
 40
0.587197651
 40
0.6192519366
 40
0.651332993
 40
0.6834181045
 40
0.7154844744
 40
0.7475096792
 40
0.7794721147
 40
0.8113514322
 40
0.8431289588
 40
0.8747880885
 40
0.9063146442
 40
0.9376972366
 40
0.9689272309
 40
1.0
 40
1.0
 40
1.0
 40
1.0
 10
10.6073388754
 20
9.525198454
 30
0.0
 10
10.6144814069
 20
9.5320976162
 30
0.0
 10
10.6290438656
 20
9.5456149401
 30
0.0
 10
10.6516784932
 20
9.5650089833
 30
0.0
 10
10.6750752439
 20
9.5834967589
 30
0.0
 10
10.699201445
 20
9.6010524427
 30
0.0
 10
10.7240240903
 20
9.6176518828
 30
0.0
 10
10.7495089184
 20
9.6332723032
 30
0.0
 10
10.7756208595
 20
9.6478922439
 30
0.0
 10
10.8023240329
 20
9.6614914842
 30
0.0
 10
10.8295816246
 20
9.6740514458
 30
0.0
 10
10.85735614
 20
9.6855548392
 30
0.0
 10
10.8856093901
 20
9.6959857633
 30
0.0
 10
10.9143024467
 20
9.7053300194
 30
0.0
 10
10.9433958545
 20
9.7135747087
 30
0.0
 10
10.9728495939
 20
9.7207084562
 30
0.0
 10
11.0026231122
 20
9.726721601
 30
0.0
 10
11.032675473
 20
9.7316057964
 30
0.0
 10
11.0629653317
 20
9.7353543391
 30
0.0
 10
11.0934510135
 20
9.7379622093
 30
0.0
 10
11.1240905998
 20
9.7394257207
 30
0.0
 10
11.1548419442
 20
9.7397429236
 30
0.0
 10
11.1856627602
 20
9.7389134874
 30
0.0
 10
11.2165106603
 20
9.7369384404
 30
0.0
 10
11.247343228
 20
9.7338206034
 30
0.0
 10
11.278118078
 20
9.7295643294
 30
0.0
 10
11.3087928795
 20
9.7241753592
 30
0.0
 10
11.3393254677
 20
9.7176612406
 30
0.0
 10
11.3696739054
 20
9.7100309356
 30
0.0
 10
11.3997963177
 20
9.7012948991
 30
0.0
 10
11.4296517918
 20
9.6914650751
 30
0.0
 10
11.4690807676
 20
9.6769065235
 30
0.0
 10
11.5174932694
 20
9.6560373193
 30
0.0
 10
11.5738087724
 20
9.6268991354
 30
0.0
 10
11.6281004001
 20
9.5937989214
 30
0.0
 10
11.6800682231
 20
9.5569193005
 30
0.0
 10
11.7294276282
 20
9.5164626962
 30
0.0
 10
11.7759076724
 20
9.4726513953
 30
0.0
 10
11.8192532983
 20
9.4257258787
 30
0.0
 10
11.8592265003
 20
9.3759436535
 30
0.0
 10
11.895607844
 20
9.3235779557
 30
0.0
 10
11.9281974807
 20
9.268916124
 30
0.0
 10
11.9568161989
 20
9.2122580387
 30
0.0
 10
11.9813065912
 20
9.1539146417
 30
0.0
 10
12.0015338316
 20
9.0942060399
 30
0.0
 10
12.0173863217
 20
9.0334602489
 30
0.0
 10
12.0287763038
 20
8.9720096795
 30
0.0
 10
12.0356408499
 20
8.9101961502
 30
0.0
 10
12.0371783517
 20
8.8688551814
 30
0.0
 10
12.0371783517
 20
8.8482447701
 30
0.0
  0
SPLINE
  5
334
100
AcDbEntity
  8
0
100
AcDbSpline
 62
7
  6
CONTINUOUS
 70
0
 71
3
 72
15
 73
11
 74
0
 42
0.0000001
 43
0.0000001
 44
0.0000000001
 40
0.0
 40
0.0
 40
0.0
 40
0.0
 40
0.1363783615
 40
0.2662944745
 40
0.3911619829
 40
0.5125863565
 40
0.6323328409
 40
0.7522611032
 40
0.8742258087
 40
1.0
 40
1.0
 40
1.0
 40
1.0
 10
10.0351344137
 20
6.6369933908
 30
0.0
 10
10.0351345782
 20
6.6366228239
 30
0.0
 10
10.0351687373
 20
6.635898612
 30
0.0
 10
10.0353317609
 20
6.6348461758
 30
0.0
 10
10.0356051842
 20
6.6338585894
 30
0.0
 10
10.0359889186
 20
6.6329380535
 30
0.0
 10
10.0364826097
 20
6.6320868297
 30
0.0
 10
10.0370855589
 20
6.6313072554
 30
0.0
 10
10.0377964339
 20
6.6306015813
 30
0.0
 10
10.0383311776
 20
6.6301895282
 30
0.0
 10
10.0386133729
 20
6.629996756
 30
0.0
  0
SPLINE
  5
335
100
AcDbEntity
  8
0
100
AcDbSpline
 62
7
  6
CONTINUOUS
 70
0
 71
3
 72
54
 73
50
 74
0
 42
0.0000001
 43
0.0000001
 44
0.0000000001
 40
0.0
 40
0.0
 40
0.0
 40
0.0
 40
0.0149714207
 40
0.0299459009
 40
0.0449264795
 40
0.0599161607
 40
0.0749178924
 40
0.0899345474
 40
0.1049689109
 40
0.1200236599
 40
0.135101347
 40
0.1502043904
 40
0.1653350555
 40
0.1804954423
 40
0.195687479
 40
0.210912906
 40
0.2261732683
 40
0.2414699124
 40
0.2568039734
 40
0.2721763729
 40
0.2875878193
 40
0.3030387972
 40
0.3185295728
 40
0.3340601946
 40
0.3496304877
 40
0.3652400644
 40
0.3808883259
 40
0.3965744612
 40
0.4122974619
 40
0.4280561242
 40
0.4438490534
 40
0.4596746808
 40
0.4914119437
 40
0.5232571513
 40
0.5551923202
 40
0.587197651
 40
0.6192519366
 40
0.651332993
 40
0.6834181045
 40
0.7154844744
 40
0.7475096792
 40
0.7794721147
 40
0.8113514322
 40
0.8431289588
 40
0.8747880885
 40
0.9063146442
 40
0.9376972366
 40
0.9689272309
 40
1.0
 40
1.0
 40
1.0
 40
1.0
 10
8.675486878
 20
7.4858396072
 30
0.0
 10
8.6826294096
 20
7.4927387693
 30
0.0
 10
8.6971918683
 20
7.5062560932
 30
0.0
 10
8.7198264958
 20
7.5256501365
 30
0.0
 10
8.7432232466
 20
7.544137912
 30
0.0
 10
8.7673494476
 20
7.5616935958
 30
0.0
 10
8.7921720929
 20
7.5782930359
 30
0.0
 10
8.817656921
 20
7.5939134564
 30
0.0
 10
8.8437688622
 20
7.6085333971
 30
0.0
 10
8.8704720355
 20
7.6221326373
 30
0.0
 10
8.8977296273
 20
7.6346925989
 30
0.0
 10
8.9255041426
 20
7.6461959923
 30
0.0
 10
8.9537573927
 20
7.6566269164
 30
0.0
 10
8.9824504494
 20
7.6659711725
 30
0.0
 10
9.0115438572
 20
7.6742158619
 30
0.0
 10
9.0409975966
 20
7.6813496094
 30
0.0
 10
9.0707711149
 20
7.6873627541
 30
0.0
 10
9.1008234756
 20
7.6922469495
 30
0.0
 10
9.1311133344
 20
7.6959954922
 30
0.0
 10
9.1615990161
 20
7.6986033625
 30
0.0
 10
9.1922386024
 20
7.7000668738
 30
0.0
 10
9.2229899469
 20
7.7003840767
 30
0.0
 10
9.2538107628
 20
7.6995546406
 30
0.0
 10
9.284658663
 20
7.6975795935
 30
0.0
 10
9.3154912307
 20
7.6944617565
 30
0.0
 10
9.3462660806
 20
7.6902054825
 30
0.0
 10
9.3769408822
 20
7.6848165123
 30
0.0
 10
9.4074734703
 20
7.6783023937
 30
0.0
 10
9.437821908
 20
7.6706720888
 30
0.0
 10
9.4679443204
 20
7.6619360522
 30
0.0
 10
9.4977997944
 20
7.6521062282
 30
0.0
 10
9.5372287703
 20
7.6375476767
 30
0.0
 10
9.5856412721
 20
7.6166784724
 30
0.0
 10
9.6419567751
 20
7.5875402885
 30
0.0
 10
9.6962484028
 20
7.5544400746
 30
0.0
 10
9.7482162258
 20
7.5175604536
 30
0.0
 10
9.7975756309
 20
7.4771038493
 30
0.0
 10
9.844055675
 20
7.4332925484
 30
0.0
 10
9.8874013009
 20
7.3863670318
 30
0.0
 10
9.927374503
 20
7.3365848066
 30
0.0
 10
9.9637558467
 20
7.2842191088
 30
0.0
 10
9.9963454833
 20
7.2295572771
 30
0.0
 10
10.0249642016
 20
7.1728991918
 30
0.0
 10
10.0494545938
 20
7.1145557948
 30
0.0
 10
10.0696818343
 20
7.054847193
 30
0.0
 10
10.0855343244
 20
6.994101402
 30
0.0
 10
10.0969243065
 20
6.9326508326
 30
0.0
 10
10.1037888525
 20
6.8708373033
 30
0.0
 10
10.1053263543
 20
6.8294963346
 30
0.0
 10
10.1053263543
 20
6.8088859232
 30
0.0
  0
SPLINE
  5
336
100
AcDbEntity
  8
0
100
AcDbSpline
 62
7
  6
CONTINUOUS
 70
0
 71
3
 72
51
 73
47
 74
0
 42
0.0000001
 43
0.0000001
 44
0.0000000001
 40
0.0
 40
0.0
 40
0.0
 40
0.0
 40
0.0055575483
 40
0.0111779716
 40
0.01692191
 40
0.0228457685
 40
0.029000541
 40
0.0354309187
 40
0.0421753321
 40
0.0492661787
 40
0.0567301751
 40
0.0645892818
 40
0.072860934
 40
0.0815589354
 40
0.0906938799
 40
0.1002734384
 40
0.1103031157
 40
0.1207861166
 40
0.1317239771
 40
0.1431166596
 40
0.1549625852
 40
0.1672591636
 40
0.1800024627
 40
0.1931876894
 40
0.2068091423
 40
0.2208601567
 40
0.2502201891
 40
0.2812020358
 40
0.3137291498
 40
0.3477165256
 40
0.3830717054
 40
0.4196956132
 40
0.4574832856
 40
0.4963245986
 40
0.5361048951
 40
0.5767055669
 40
0.6180046028
 40
0.6598771293
 40
0.7021959705
 40
0.7448321944
 40
0.7876555817
 40
0.8305351627
 40
0.8733399838
 40
0.9159382941
 40
0.9582023666
 40
1.0
 40
1.0
 40
1.0
 40
1.0
 10
13.36417426
 20
10.9731166884
 30
0.0
 10
13.3641742673
 20
10.9722656982
 30
0.0
 10
13.3640790266
 20
10.9705526082
 30
0.0
 10
13.3636514699
 20
10.9679921041
 30
0.0
 10
13.3629398493
 20
10.9654373327
 30
0.0
 10
13.3619457069
 20
10.9628912002
 30
0.0
 10
13.3606704978
 20
10.9603558448
 30
0.0
 10
13.3591160792
 20
10.9578331454
 30
0.0
 10
13.3572841608
 20
10.9553248563
 30
0.0
 10
13.3551765144
 20
10.9528327028
 30
0.0
 10
13.3527951058
 20
10.9503582773
 30
0.0
 10
13.3501418327
 20
10.9479034059
 30
0.0
 10
13.3472189301
 20
10.9454697565
 30
0.0
 10
13.3440287044
 20
10.9430591596
 30
0.0
 10
13.3405736835
 20
10.940673473
 30
0.0
 10
13.3368566629
 20
10.9383144571
 30
0.0
 10
13.3328805595
 20
10.9359840701
 30
0.0
 10
13.3286486027
 20
10.9336840798
 30
0.0
 10
13.3241641788
 20
10.9314163675
 30
0.0
 10
13.3194309013
 20
10.92918279
 30
0.0
 10
13.3144526215
 20
10.9269850892
 30
0.0
 10
13.3092333504
 20
10.9248251471
 30
0.0
 10
13.3037773513
 20
10.9227046512
 30
0.0
 10
13.2980890572
 20
10.9206253764
 30
0.0
 10
13.2921730947
 20
10.9185890209
 30
0.0
 10
13.2838660042
 20
10.9158937788
 30
0.0
 10
13.2729429271
 20
10.9126540272
 30
0.0
 10
13.2591934735
 20
10.9090175617
 30
0.0
 10
13.2446616815
 20
10.9055896617
 30
0.0
 10
13.2293950432
 20
10.9023816555
 30
0.0
 10
13.2134433306
 20
10.89940418
 30
0.0
 10
13.1968586743
 20
10.896667097
 30
0.0
 10
13.1796953096
 20
10.8941794564
 30
0.0
 10
13.162009401
 20
10.8919494847
 30
0.0
 10
13.1438588405
 20
10.8899845555
 30
0.0
 10
13.1253030577
 20
10.8882911674
 30
0.0
 10
13.1064028265
 20
10.8868749213
 30
0.0
 10
13.0872200634
 20
10.8857404872
 30
0.0
 10
13.0678176157
 20
10.8848916077
 30
0.0
 10
13.0482590547
 20
10.8843310866
 30
0.0
 10
13.02860847
 20
10.8840607783
 30
0.0
 10
13.0089302227
 20
10.8840815756
 30
0.0
 10
12.9892889047
 20
10.8843934238
 30
0.0
 10
12.969748601
 20
10.8849952439
 30
0.0
 10
12.9503737142
 20
10.8858851229
 30
0.0
 10
12.937525457
 20
10.8866735627
 30
0.0
 10
12.9311406003
 20
10.887116354
 30
0.0
  0
SPLINE
  5
337
100
AcDbEntity
  8
0
100
AcDbSpline
 62
7
  6
CONTINUOUS
 70
0
 71
3
 72
51
 73
47
 74
0
 42
0.0000001
 43
0.0000001
 44
0.0000000001
 40
0.0
 40
0.0
 40
0.0
 40
0.0
 40
0.0055575483
 40
0.0111779716
 40
0.01692191
 40
0.0228457685
 40
0.029000541
 40
0.0354309187
 40
0.0421753321
 40
0.0492661787
 40
0.0567301751
 40
0.0645892818
 40
0.072860934
 40
0.0815589354
 40
0.0906938799
 40
0.1002734384
 40
0.1103031157
 40
0.1207861166
 40
0.1317239771
 40
0.1431166596
 40
0.1549625852
 40
0.1672591636
 40
0.1800024627
 40
0.1931876894
 40
0.2068091423
 40
0.2208601567
 40
0.2502201891
 40
0.2812020358
 40
0.3137291498
 40
0.3477165256
 40
0.3830717054
 40
0.4196956132
 40
0.4574832856
 40
0.4963245986
 40
0.5361048951
 40
0.5767055669
 40
0.6180046028
 40
0.6598771293
 40
0.7021959705
 40
0.7448321944
 40
0.7876555817
 40
0.8305351627
 40
0.8733399838
 40
0.9159382941
 40
0.9582023666
 40
1.0
 40
1.0
 40
1.0
 40
1.0
 10
8.7760264859
 20
11.2913058173
 30
0.0
 10
8.7760264933
 20
11.290454827
 30
0.0
 10
8.7759312526
 20
11.288741737
 30
0.0
 10
8.7755036959
 20
11.2861812329
 30
0.0
 10
8.7747920753
 20
11.2836264616
 30
0.0
 10
8.7737979329
 20
11.2810803291
 30
0.0
 10
8.7725227238
 20
11.2785449737
 30
0.0
 10
8.7709683052
 20
11.2760222743
 30
0.0
 10
8.7691363868
 20
11.2735139851
 30
0.0
 10
8.7670287404
 20
11.2710218317
 30
0.0
 10
8.7646473318
 20
11.2685474061
 30
0.0
 10
8.7619940587
 20
11.2660925348
 30
0.0
 10
8.7590711561
 20
11.2636588854
 30
0.0
 10
8.7558809304
 20
11.2612482885
 30
0.0
 10
8.7524259095
 20
11.2588626018
 30
0.0
 10
8.7487088889
 20
11.2565035859
 30
0.0
 10
8.7447327855
 20
11.2541731989
 30
0.0
 10
8.7405008287
 20
11.2518732087
 30
0.0
 10
8.7360164048
 20
11.2496054964
 30
0.0
 10
8.7312831273
 20
11.2473719189
 30
0.0
 10
8.7263048475
 20
11.245174218
 30
0.0
 10
8.7210855764
 20
11.243014276
 30
0.0
 10
8.7156295773
 20
11.2408937801
 30
0.0
 10
8.7099412832
 20
11.2388145052
 30
0.0
 10
8.7040253207
 20
11.2367781498
 30
0.0
 10
8.6957182302
 20
11.2340829076
 30
0.0
 10
8.6847951531
 20
11.230843156
 30
0.0
 10
8.6710456995
 20
11.2272066906
 30
0.0
 10
8.6565139075
 20
11.2237787906
 30
0.0
 10
8.6412472692
 20
11.2205707844
 30
0.0
 10
8.6252955566
 20
11.2175933089
 30
0.0
 10
8.6087109003
 20
11.2148562259
 30
0.0
 10
8.5915475356
 20
11.2123685852
 30
0.0
 10
8.573861627
 20
11.2101386135
 30
0.0
 10
8.5557110665
 20
11.2081736843
 30
0.0
 10
8.5371552837
 20
11.2064802962
 30
0.0
 10
8.5182550525
 20
11.2050640501
 30
0.0
 10
8.4990722894
 20
11.2039296161
 30
0.0
 10
8.4796698417
 20
11.2030807365
 30
0.0
 10
8.4601112807
 20
11.2025202154
 30
0.0
 10
8.440460696
 20
11.2022499071
 30
0.0
 10
8.4207824487
 20
11.2022707044
 30
0.0
 10
8.4011411307
 20
11.2025825527
 30
0.0
 10
8.381600827
 20
11.2031843728
 30
0.0
 10
8.3622259401
 20
11.2040742517
 30
0.0
 10
8.349377683
 20
11.2048626916
 30
0.0
 10
8.3429928263
 20
11.2053054829
 30
0.0
  0
SPLINE
  5
338
100
AcDbEntity
  8
0
100
AcDbSpline
 62
7
  6
CONTINUOUS
 70
0
 71
3
 72
39
 73
35
 74
0
 42
0.0000001
 43
0.0000001
 44
0.0000000001
 40
0.0
 40
0.0
 40
0.0
 40
0.0
 40
0.0958313223
 40
0.1890999066
 40
0.2792396479
 40
0.3229663115
 40
0.3657099292
 40
0.4074081191
 40
0.4480006754
 40
0.4874302648
 40
0.5256424385
 40
0.5625857699
 40
0.5982125807
 40
0.6324786396
 40
0.665344311
 40
0.6967743203
 40
0.7267388303
 40
0.7552139511
 40
0.7821824427
 40
0.807635341
 40
0.8315726205
 40
0.8540058864
 40
0.8749600023
 40
0.8944766962
 40
0.9126183481
 40
0.9294727137
 40
0.94515911
 40
0.9598336921
 40
0.9668557838
 40
0.973702854
 40
0.9804062715
 40
0.9869997015
 40
0.9935186515
 40
1.0
 40
1.0
 40
1.0
 40
1.0
 10
8.5210601824
 20
11.3773053511
 30
0.0
 10
8.5300199993
 20
11.3766839857
 30
0.0
 10
8.5476871319
 20
11.3752608187
 30
0.0
 10
8.5737185361
 20
11.372544142
 30
0.0
 10
8.5948313462
 20
11.3698042542
 30
0.0
 10
8.6111989642
 20
11.3673379141
 30
0.0
 10
8.6230507319
 20
11.3653799086
 30
0.0
 10
8.6345830839
 20
11.3632983585
 30
0.0
 10
8.6457767704
 20
11.3610966871
 30
0.0
 10
8.6566130955
 20
11.3587786278
 30
0.0
 10
8.6670739774
 20
11.3563480881
 30
0.0
 10
8.6771419658
 20
11.3538091109
 30
0.0
 10
8.6868002871
 20
11.3511660376
 30
0.0
 10
8.696032854
 20
11.3484232258
 30
0.0
 10
8.7048243283
 20
11.3455853645
 30
0.0
 10
8.7131601153
 20
11.3426571566
 30
0.0
 10
8.7210264213
 20
11.3396435272
 30
0.0
 10
8.7284102787
 20
11.3365495263
 30
0.0
 10
8.7352995457
 20
11.3333802227
 30
0.0
 10
8.7416830113
 20
11.3301409271
 30
0.0
 10
8.7475503014
 20
11.3268367802
 30
0.0
 10
8.7528920511
 20
11.3234731276
 30
0.0
 10
8.7576997554
 20
11.3200550625
 30
0.0
 10
8.7619658496
 20
11.3165875698
 30
0.0
 10
8.7656835813
 20
11.3130754233
 30
0.0
 10
8.768846758
 20
11.3095226439
 30
0.0
 10
8.7714493534
 20
11.3059338578
 30
0.0
 10
8.773170774
 20
11.3028709946
 30
0.0
 10
8.7742439138
 20
11.300418579
 30
0.0
 10
8.7748936347
 20
11.2986015263
 30
0.0
 10
8.7753994445
 20
11.2967808892
 30
0.0
 10
8.7757610679
 20
11.2949574267
 30
0.0
 10
8.7759781842
 20
11.2931321865
 30
0.0
 10
8.7760264807
 20
11.291913251
 30
0.0
 10
8.7760264859
 20
11.2913058173
 30
0.0
  0
SPLINE
  5
339
100
AcDbEntity
  8
0
100
AcDbSpline
 62
7
  6
CONTINUOUS
 70
0
 71
3
 72
11
 73
7
 74
0
 42
0.0000001
 43
0.0000001
 44
0.0000000001
 40
0.0
 40
0.0
 40
0.0
 40
0.0
 40
0.2548065624
 40
0.5066680494
 40
0.7552109701
 40
1.0
 40
1.0
 40
1.0
 40
1.0
 10
11.1417910468
 20
9.5783669965
 30
0.0
 10
11.1417910468
 20
9.5915642832
 30
0.0
 10
11.1424393996
 20
9.6178112399
 30
0.0
 10
11.1453831439
 20
9.6568317145
 30
0.0
 10
11.1502632298
 20
9.6951347611
 30
0.0
 10
11.1548129881
 20
9.7202918717
 30
0.0
 10
11.1574013357
 20
9.7327032948
 30
0.0
  0
SPLINE
  5
33A
100
AcDbEntity
  8
0
100
AcDbSpline
 62
7
  6
CONTINUOUS
 70
0
 71
3
 72
39
 73
35
 74
0
 42
0.0000001
 43
0.0000001
 44
0.0000000001
 40
0.0
 40
0.0
 40
0.0
 40
0.0
 40
0.0958313223
 40
0.1890999066
 40
0.2792396479
 40
0.3229663115
 40
0.3657099292
 40
0.4074081191
 40
0.4480006754
 40
0.4874302648
 40
0.5256424385
 40
0.5625857699
 40
0.5982125807
 40
0.6324786396
 40
0.665344311
 40
0.6967743203
 40
0.7267388303
 40
0.7552139511
 40
0.7821824427
 40
0.807635341
 40
0.8315726205
 40
0.8540058864
 40
0.8749600023
 40
0.8944766962
 40
0.9126183481
 40
0.9294727137
 40
0.94515911
 40
0.9598336921
 40
0.9668557838
 40
0.973702854
 40
0.9804062715
 40
0.9869997015
 40
0.9935186515
 40
1.0
 40
1.0
 40
1.0
 40
1.0
 10
13.1092079564
 20
11.0591162223
 30
0.0
 10
13.1181677734
 20
11.0584948569
 30
0.0
 10
13.1358349059
 20
11.0570716898
 30
0.0
 10
13.1618663101
 20
11.0543550132
 30
0.0
 10
13.1829791202
 20
11.0516151253
 30
0.0
 10
13.1993467382
 20
11.0491487852
 30
0.0
 10
13.2111985059
 20
11.0471907798
 30
0.0
 10
13.2227308579
 20
11.0451092296
 30
0.0
 10
13.2339245444
 20
11.0429075582
 30
0.0
 10
13.2447608695
 20
11.0405894989
 30
0.0
 10
13.2552217514
 20
11.0381589592
 30
0.0
 10
13.2652897398
 20
11.0356199821
 30
0.0
 10
13.2749480611
 20
11.0329769087
 30
0.0
 10
13.284180628
 20
11.0302340969
 30
0.0
 10
13.2929721023
 20
11.0273962357
 30
0.0
 10
13.3013078893
 20
11.0244680278
 30
0.0
 10
13.3091741954
 20
11.0214543983
 30
0.0
 10
13.3165580527
 20
11.0183603975
 30
0.0
 10
13.3234473197
 20
11.0151910939
 30
0.0
 10
13.3298307853
 20
11.0119517983
 30
0.0
 10
13.3356980754
 20
11.0086476513
 30
0.0
 10
13.3410398251
 20
11.0052839987
 30
0.0
 10
13.3458475294
 20
11.0018659337
 30
0.0
 10
13.3501136236
 20
10.998398441
 30
0.0
 10
13.3538313553
 20
10.9948862945
 30
0.0
 10
13.3569945321
 20
10.9913335151
 30
0.0
 10
13.3595971274
 20
10.9877447289
 30
0.0
 10
13.361318548
 20
10.9846818658
 30
0.0
 10
13.3623916878
 20
10.9822294502
 30
0.0
 10
13.3630414087
 20
10.9804123975
 30
0.0
 10
13.3635472185
 20
10.9785917604
 30
0.0
 10
13.3639088419
 20
10.9767682979
 30
0.0
 10
13.3641259582
 20
10.9749430577
 30
0.0
 10
13.3641742547
 20
10.9737241221
 30
0.0
 10
13.36417426
 20
10.9731166884
 30
0.0
  0
SPLINE
  5
33B
100
AcDbEntity
  8
0
100
AcDbSpline
 62
7
  6
CONTINUOUS
 70
0
 71
3
 72
28
 73
24
 74
0
 42
0.0000001
 43
0.0000001
 44
0.0000000001
 40
0.0
 40
0.0
 40
0.0
 40
0.0
 40
0.0637758941
 40
0.0955879065
 40
0.1273462157
 40
0.1907019646
 40
0.2538545302
 40
0.2853587825
 40
0.3168148204
 40
0.379582186
 40
0.4421719279
 40
0.504596336
 40
0.566869323
 40
0.6290062994
 40
0.6910240361
 40
0.7219962863
 40
0.7529455528
 40
0.8147797337
 40
0.8765514554
 40
0.9074228165
 40
0.9382862783
 40
0.9691444605
 40
1.0
 40
1.0
 40
1.0
 40
1.0
 10
10.3738539802
 20
8.963596707
 30
0.0
 10
10.3738539802
 20
8.9768809286
 30
0.0
 10
10.3743313233
 20
8.9967958715
 30
0.0
 10
10.3759282466
 20
9.0232752418
 30
0.0
 10
10.3781592211
 20
9.0496214244
 30
0.0
 10
10.3821378491
 20
9.0823605888
 30
0.0
 10
10.3877053344
 20
9.1148138748
 30
0.0
 10
10.3931017693
 20
9.1405247265
 30
0.0
 10
10.3991134247
 20
9.1660162213
 30
0.0
 10
10.4077904682
 20
9.1975212213
 30
0.0
 10
10.4200485615
 20
9.2346815902
 30
0.0
 10
10.4341169739
 20
9.2710852869
 30
0.0
 10
10.4499632992
 20
9.3066479231
 30
0.0
 10
10.4675507551
 20
9.3412870906
 30
0.0
 10
10.4836322293
 20
9.3693307864
 30
0.0
 10
10.4973236377
 20
9.3912199248
 30
0.0
 10
10.5115486133
 20
9.4127203611
 30
0.0
 10
10.530337712
 20
9.4388800436
 30
0.0
 10
10.5504336638
 20
9.4640291395
 30
0.0
 10
10.5672571247
 20
9.4834947757
 30
0.0
 10
10.5802409685
 20
9.4977595204
 30
0.0
 10
10.5935848154
 20
9.5116831736
 30
0.0
 10
10.6027161814
 20
9.5207332703
 30
0.0
 10
10.6073388754
 20
9.525198454
 30
0.0
  0
SPLINE
  5
33C
100
AcDbEntity
  8
0
100
AcDbSpline
 62
7
  6
CONTINUOUS
 70
0
 71
3
 72
27
 73
23
 74
0
 42
0.0000001
 43
0.0000001
 44
0.0000000001
 40
0.0
 40
0.0
 40
0.0
 40
0.0
 40
0.0762050691
 40
0.1512743835
 40
0.2250385058
 40
0.2973392456
 40
0.3680186844
 40
0.4369253165
 40
0.5039128872
 40
0.5688413638
 40
0.6315775871
 40
0.6919959517
 40
0.7499792518
 40
0.8054196641
 40
0.8321560649
 40
0.8582211232
 40
0.8836046552
 40
0.9082970609
 40
0.9322898731
 40
0.9555754786
 40
0.9781472778
 40
1.0
 40
1.0
 40
1.0
 40
1.0
 10
14.3716163878
 20
7.4038427508
 30
0.0
 10
14.3716163878
 20
7.4155754623
 30
0.0
 10
14.3714650902
 20
7.438866334
 30
0.0
 10
14.3707744513
 20
7.4735079349
 30
0.0
 10
14.3696232477
 20
7.5075359509
 30
0.0
 10
14.3680143921
 20
7.5408688087
 30
0.0
 10
14.3659517105
 20
7.5734274156
 30
0.0
 10
14.3634402239
 20
7.6051340559
 30
0.0
 10
14.3604860043
 20
7.6359132485
 30
0.0
 10
14.3570962055
 20
7.665691714
 30
0.0
 10
14.3532790264
 20
7.6943985791
 30
0.0
 10
14.3490437034
 20
7.7219656218
 30
0.0
 10
14.344400448
 20
7.7483271848
 30
0.0
 10
14.3401508178
 20
7.7694865463
 30
0.0
 10
14.3365447719
 20
7.7857573523
 30
0.0
 10
14.3337780074
 20
7.7974730455
 30
0.0
 10
14.3309180858
 20
7.808842131
 30
0.0
 10
14.3279666057
 20
7.8198578566
 30
0.0
 10
14.324925398
 20
7.8305136747
 30
0.0
 10
14.3217962627
 20
7.8408032765
 30
0.0
 10
14.3185810414
 20
7.85072049
 30
0.0
 10
14.3163451191
 20
7.8571849898
 30
0.0
 10
14.3152117471
 20
7.8603528446
 30
0.0
  0
SPLINE
  5
33D
100
AcDbEntity
  8
0
100
AcDbSpline
 62
7
  6
CONTINUOUS
 70
0
 71
3
 72
39
 73
35
 74
0
 42
0.0000001
 43
0.0000001
 44
0.0000000001
 40
0.0
 40
0.0
 40
0.0
 40
0.0
 40
0.0301591263
 40
0.060330288
 40
0.0905566831
 40
0.1208780509
 40
0.1513307272
 40
0.1819453581
 40
0.2127460029
 40
0.2437491901
 40
0.2749634265
 40
0.306389019
 40
0.3380182266
 40
0.3698357044
 40
0.4018192029
 40
0.4339404818
 40
0.4661663969
 40
0.4984601203
 40
0.5307824546
 40
0.5630932072
 40
0.5953525884
 40
0.6275225992
 40
0.6595683758
 40
0.6914594539
 40
0.7231709171
 40
0.7546843892
 40
0.7859888294
 40
0.8170810914
 40
0.8479661965
 40
0.8786573255
 40
0.9091753653
 40
0.9395484802
 40
0.9698102396
 40
1.0
 40
1.0
 40
1.0
 40
1.0
 10
12.9277518481
 20
5.0872714629
 30
0.0
 10
12.925234196
 20
5.0844456416
 30
0.0
 10
12.9198962391
 20
5.0790535051
 30
0.0
 10
12.9110812673
 20
5.0718499625
 30
0.0
 10
12.9015417967
 20
5.0655982683
 30
0.0
 10
12.8913712198
 20
5.0603600009
 30
0.0
 10
12.8806677751
 20
5.056185171
 30
0.0
 10
12.8695350516
 20
5.0531138624
 30
0.0
 10
12.8580806065
 20
5.0511752658
 30
0.0
 10
12.8464149771
 20
5.0503876308
 30
0.0
 10
12.8346505889
 20
5.0507580762
 30
0.0
 10
12.8229006815
 20
5.0522825853
 30
0.0
 10
12.811278234
 20
5.0549460753
 30
0.0
 10
12.7998949014
 20
5.058722572
 30
0.0
 10
12.7888599678
 20
5.0635754781
 30
0.0
 10
12.7782793237
 20
5.0694579346
 30
0.0
 10
12.7682544742
 20
5.0763132739
 30
0.0
 10
12.7588815879
 20
5.0840755612
 30
0.0
 10
12.7502505937
 20
5.0926702205
 30
0.0
 10
12.7424443332
 20
5.102014738
 30
0.0
 10
12.7355377812
 20
5.1120194428
 30
0.0
 10
12.7295973373
 20
5.122588351
 30
0.0
 10
12.7246801969
 20
5.1336200678
 30
0.0
 10
12.7208338057
 20
5.1450087388
 30
0.0
 10
12.7180954028
 20
5.1566450417
 30
0.0
 10
12.716491656
 20
5.168417211
 30
0.0
 10
12.7160383874
 20
5.1802120842
 30
0.0
 10
12.7167404029
 20
5.1919161683
 30
0.0
 10
12.7185913925
 20
5.2034167066
 30
0.0
 10
12.7215740084
 20
5.2146027803
 30
0.0
 10
12.7256598044
 20
5.2253662837
 30
0.0
 10
12.7308100395
 20
5.2356034002
 30
0.0
 10
12.736974083
 20
5.2452138933
 30
0.0
 10
12.7417259871
 20
5.251148456
 30
0.0
 10
12.7442461965
 20
5.2539771476
 30
0.0
  0
SPLINE
  5
33E
100
AcDbEntity
  8
0
100
AcDbSpline
 62
7
  6
CONTINUOUS
 70
0
 71
3
 72
20
 73
16
 74
0
 42
0.0000001
 43
0.0000001
 44
0.0000000001
 40
0.0
 40
0.0
 40
0.0
 40
0.0
 40
0.1405840015
 40
0.2779087567
 40
0.4113435594
 40
0.4764114057
 40
0.5402804926
 40
0.6028794673
 40
0.6641389046
 40
0.7239918481
 40
0.7823738523
 40
0.8392229693
 40
0.8944804198
 40
0.9480902031
 40
1.0
 40
1.0
 40
1.0
 40
1.0
 10
14.2968442806
 20
7.3926696147
 30
0.0
 10
14.2968442806
 20
7.4082631732
 30
0.0
 10
14.2965548834
 20
7.4390897045
 30
0.0
 10
14.2952252279
 20
7.4846993708
 30
0.0
 10
14.2933653907
 20
7.5219060485
 30
0.0
 10
14.2914252771
 20
7.5509440742
 30
0.0
 10
14.2897650601
 20
7.5721247484
 30
0.0
 10
14.2878897789
 20
7.5928633561
 30
0.0
 10
14.2858017365
 20
7.613133888
 30
0.0
 10
14.2835035966
 20
7.632910894
 30
0.0
 10
14.2809982893
 20
7.6521695621
 30
0.0
 10
14.2782889294
 20
7.6708857294
 30
0.0
 10
14.2753790227
 20
7.6890359459
 30
0.0
 10
14.2722721744
 20
7.7065973796
 30
0.0
 10
14.2700355754
 20
7.7180866581
 30
0.0
 10
14.2688826713
 20
7.7237278806
 30
0.0
  0
SPLINE
  5
33F
100
AcDbEntity
  8
0
100
AcDbSpline
 62
7
  6
CONTINUOUS
 70
0
 71
3
 72
72
 73
68
 74
0
 42
0.0000001
 43
0.0000001
 44
0.0000000001
 40
0.0
 40
0.0
 40
0.0
 40
0.0
 40
0.015356485
 40
0.0230190262
 40
0.0306711275
 40
0.0459442341
 40
0.0611797292
 40
0.0763807909
 40
0.0915509089
 40
0.1066938545
 40
0.1218136464
 40
0.1369145157
 40
0.1520008687
 40
0.1670772467
 40
0.1821482835
 40
0.1972186618
 40
0.2122930704
 40
0.2273761608
 40
0.2424725045
 40
0.2575865501
 40
0.2727225823
 40
0.2878846828
 40
0.3030766951
 40
0.3183021914
 40
0.3335644407
 40
0.3488663811
 40
0.3642105966
 40
0.379599298
 40
0.395034307
 40
0.4105170429
 40
0.4260485127
 40
0.441629308
 40
0.4572596047
 40
0.4729391651
 40
0.4886673426
 40
0.50444309
 40
0.5202649737
 40
0.536131189
 40
0.5520395766
 40
0.5679876417
 40
0.5839725762
 40
0.5999912849
 40
0.6160404106
 40
0.6321163611
 40
0.6482153366
 40
0.6643333617
 40
0.6804663167
 40
0.6966099685
 40
0.7127600021
 40
0.7289120537
 40
0.7450617452
 40
0.7612047167
 40
0.777336659
 40
0.7934533452
 40
0.809550665
 40
0.8256246566
 40
0.8416715367
 40
0.8576877295
 40
0.8736698961
 40
0.8896149617
 40
0.9055201471
 40
0.9213829765
 40
0.9372013178
 40
0.9529734403
 40
0.9686977178
 40
0.9843737587
 40
1.0
 40
1.0
 40
1.0
 40
1.0
 10
10.0941763836
 20
6.6728383362
 30
0.0
 10
10.0915861393
 20
6.6610082761
 30
0.0
 10
10.0872853057
 20
6.6433628651
 30
0.0
 10
10.0807253766
 20
6.6200800871
 30
0.0
 10
10.0736335457
 20
6.5970221394
 30
0.0
 10
10.063761493
 20
6.568580321
 30
0.0
 10
10.0503198094
 20
6.5351184221
 30
0.0
 10
10.0353181493
 20
6.502415045
 30
0.0
 10
10.0187880502
 20
6.4705392125
 30
0.0
 10
10.00076408
 20
6.439557633
 30
0.0
 10
9.9812839682
 20
6.4095353181
 30
0.0
 10
9.9603885026
 20
6.3805352293
 30
0.0
 10
9.9381214998
 20
6.3526181601
 30
0.0
 10
9.9145296307
 20
6.3258426444
 30
0.0
 10
9.8896623418
 20
6.3002648295
 30
0.0
 10
9.8635717393
 20
6.2759383729
 30
0.0
 10
9.836312534
 20
6.2529142734
 30
0.0
 10
9.8079419065
 20
6.2312407684
 30
0.0
 10
9.7785193479
 20
6.2109632778
 30
0.0
 10
9.7481065477
 20
6.192124299
 30
0.0
 10
9.7167672609
 20
6.1747633305
 30
0.0
 10
9.6845672193
 20
6.1589167032
 30
0.0
 10
9.6515739462
 20
6.144617571
 30
0.0
 10
9.6178566109
 20
6.1318958541
 30
0.0
 10
9.5834858869
 20
6.1207781819
 30
0.0
 10
9.5485338139
 20
6.1112878183
 30
0.0
 10
9.5130736591
 20
6.1034445479
 30
0.0
 10
9.4771797327
 20
6.0972647282
 30
0.0
 10
9.4409272397
 20
6.0927612414
 30
0.0
 10
9.4043921251
 20
6.0899434875
 30
0.0
 10
9.3676509243
 20
6.0888172986
 30
0.0
 10
9.3307805929
 20
6.0893849295
 30
0.0
 10
9.2938583431
 20
6.0916451203
 30
0.0
 10
9.2569614871
 20
6.0955930824
 30
0.0
 10
9.2201672829
 20
6.1012205242
 30
0.0
 10
9.18355276
 20
6.1085155767
 30
0.0
 10
9.1471945607
 20
6.1174628873
 30
0.0
 10
9.1111687867
 20
6.1280436717
 30
0.0
 10
9.0755508453
 20
6.1402357508
 30
0.0
 10
9.040415293
 20
6.1540135833
 30
0.0
 10
9.0058356499
 20
6.1693482521
 30
0.0
 10
8.9718842755
 20
6.1862076132
 30
0.0
 10
8.938632217
 20
6.2045563504
 30
0.0
 10
8.9061490732
 20
6.2243560598
 30
0.0
 10
8.8745028229
 20
6.2455652805
 30
0.0
 10
8.8437596696
 20
6.2681395739
 30
0.0
 10
8.8139839418
 20
6.2920316769
 30
0.0
 10
8.7852379526
 20
6.3171915829
 30
0.0
 10
8.7575818848
 20
6.343566656
 30
0.0
 10
8.7310736046
 20
6.3711016763
 30
0.0
 10
8.7057685723
 20
6.3997389997
 30
0.0
 10
8.68171975
 20
6.4294186961
 30
0.0
 10
8.6589774892
 20
6.4600786665
 30
0.0
 10
8.6375894255
 20
6.4916547672
 30
0.0
 10
8.6176003087
 20
6.5240808992
 30
0.0
 10
8.5990519823
 20
6.5572892024
 30
0.0
 10
8.5819832923
 20
6.5912101874
 30
0.0
 10
8.5664300189
 20
6.6257728827
 30
0.0
 10
8.5524247614
 20
6.6609049605
 30
0.0
 10
8.5399968344
 20
6.6965328839
 30
0.0
 10
8.5291722946
 20
6.7325820897
 30
0.0
 10
8.5199738491
 20
6.768977123
 30
0.0
 10
8.5124208196
 20
6.8056418644
 30
0.0
 10
8.5065291611
 20
6.8424993602
 30
0.0
 10
8.502310987
 20
6.8794730478
 30
0.0
 10
8.4997755849
 20
6.9164841045
 30
0.0
 10
8.4992095904
 20
6.9411731225
 30
0.0
 10
8.4992095904
 20
6.953496169
 30
0.0
  0
SPLINE
  5
340
100
AcDbEntity
  8
0
100
AcDbSpline
 62
7
  6
CONTINUOUS
 70
0
 71
3
 72
52
 73
48
 74
0
 42
0.0000001
 43
0.0000001
 44
0.0000000001
 40
0.0
 40
0.0
 40
0.0
 40
0.0
 40
0.0461615535
 40
0.0918166269
 40
0.1369028682
 40
0.1813643426
 40
0.2251438871
 40
0.2681857938
 40
0.310435899
 40
0.35184132
 40
0.392350814
 40
0.4319148143
 40
0.4704855498
 40
0.50801729
 40
0.5444664378
 40
0.5797916689
 40
0.613954212
 40
0.6469180623
 40
0.6786501588
 40
0.7091207314
 40
0.7383037227
 40
0.7524056394
 40
0.7661777812
 40
0.7796180762
 40
0.7927248798
 40
0.8054968214
 40
0.817932899
 40
0.8300326032
 40
0.8417957753
 40
0.8532227603
 40
0.8643144868
 40
0.8750723598
 40
0.8854984677
 40
0.8955956185
 40
0.9053672925
 40
0.9148178921
 40
0.9239527488
 40
0.9327781533
 40
0.9413016351
 40
0.9495319579
 40
0.9574792369
 40
0.965155216
 40
0.9725732688
 40
0.9797485704
 40
0.9866983146
 40
0.9934416887
 40
1.0
 40
1.0
 40
1.0
 40
1.0
 10
14.6951401152
 20
7.4963426929
 30
0.0
 10
14.6951401152
 20
7.5104685329
 30
0.0
 10
14.6950001987
 20
7.5385654419
 30
0.0
 10
14.6943636729
 20
7.5804547949
 30
0.0
 10
14.6933023593
 20
7.6218152021
 30
0.0
 10
14.6918178379
 20
7.6625883006
 30
0.0
 10
14.6899121702
 20
7.7027176495
 30
0.0
 10
14.6875880594
 20
7.7421471299
 30
0.0
 10
14.6848487788
 20
7.7808217061
 30
0.0
 10
14.6816981659
 20
7.818687442
 30
0.0
 10
14.6781406841
 20
7.8556915101
 30
0.0
 10
14.6741813405
 20
7.8917822976
 30
0.0
 10
14.6698256802
 20
7.9269094732
 30
0.0
 10
14.6650798583
 20
7.9610240718
 30
0.0
 10
14.6599505655
 20
7.9940785573
 30
0.0
 10
14.6544449954
 20
8.0260268784
 30
0.0
 10
14.6485709014
 20
8.0568245652
 30
0.0
 10
14.642336573
 20
8.0864287739
 30
0.0
 10
14.6357507674
 20
8.1147984079
 30
0.0
 10
14.6288227099
 20
8.1418939222
 30
0.0
 10
14.6227045604
 20
8.163621461
 30
0.0
 10
14.6176361096
 20
8.1803300576
 30
0.0
 10
14.6137987154
 20
8.1923766191
 30
0.0
 10
14.6098831653
 20
8.2040773414
 30
0.0
 10
14.6058908651
 20
8.2154281883
 30
0.0
 10
14.6018231913
 20
8.2264252072
 30
0.0
 10
14.5976815198
 20
8.2370645663
 30
0.0
 10
14.5934673577
 20
8.2473425965
 30
0.0
 10
14.589182127
 20
8.2572557217
 30
0.0
 10
14.5848272937
 20
8.2668004994
 30
0.0
 10
14.5804044275
 20
8.2759736544
 30
0.0
 10
14.5759149931
 20
8.2847719927
 30
0.0
 10
14.571360538
 20
8.293192478
 30
0.0
 10
14.5667426747
 20
8.3012322371
 30
0.0
 10
14.5620628995
 20
8.3088884635
 30
0.0
 10
14.557322827
 20
8.3161585393
 30
0.0
 10
14.5525240862
 20
8.323039992
 30
0.0
 10
14.5476681916
 20
8.3295303998
 30
0.0
 10
14.5427568013
 20
8.3356275629
 30
0.0
 10
14.5377915314
 20
8.3413293878
 30
0.0
 10
14.5327739039
 20
8.3466338165
 30
0.0
 10
14.5277055974
 20
8.3515390372
 30
0.0
 10
14.5225881939
 20
8.3560432812
 30
0.0
 10
14.5174232687
 20
8.3601447912
 30
0.0
 10
14.5122124404
 20
8.3638421189
 30
0.0
 10
14.5069576409
 20
8.3671335731
 30
0.0
 10
14.5033799418
 20
8.3690814768
 30
0.0
 10
14.5015870545
 20
8.3699832561
 30
0.0
  0
SPLINE
  5
341
100
AcDbEntity
  8
0
100
AcDbSpline
 62
7
  6
CONTINUOUS
 70
0
 71
3
 72
55
 73
51
 74
0
 42
0.0000001
 43
0.0000001
 44
0.0000000001
 40
0.0
 40
0.0
 40
0.0
 40
0.0
 40
0.040190622
 40
0.0808318335
 40
0.1218120711
 40
0.1630183918
 40
0.2043371644
 40
0.2456543213
 40
0.2868558155
 40
0.3278280004
 40
0.3684580359
 40
0.4086342887
 40
0.4482467371
 40
0.4871873792
 40
0.5253506481
 40
0.562633835
 40
0.5989375257
 40
0.6341660553
 40
0.6513485928
 40
0.6682284137
 40
0.684794852
 40
0.7010375383
 40
0.7169464945
 40
0.7325120694
 40
0.7477250555
 40
0.7625766094
 40
0.7770583914
 40
0.7911624721
 40
0.8048814971
 40
0.8182085825
 40
0.8311375054
 40
0.8436625946
 40
0.8557789488
 40
0.8674823288
 40
0.8787694082
 40
0.8896376775
 40
0.9000857327
 40
0.9101132077
 40
0.9197211097
 40
0.9289118022
 40
0.9376894026
 40
0.9460598441
 40
0.9540313562
 40
0.9616146395
 40
0.9688234474
 40
0.9756748948
 40
0.9821901283
 40
0.988394729
 40
0.9943193486
 40
1.0
 40
1.0
 40
1.0
 40
1.0
 10
14.6951401152
 20
7.4963426929
 30
0.0
 10
14.6951401152
 20
7.4755875495
 30
0.0
 10
14.6948348695
 20
7.4338439872
 30
0.0
 10
14.6934840525
 20
7.3709506479
 30
0.0
 10
14.6912412324
 20
7.3075578528
 30
0.0
 10
14.6881129588
 20
7.243852322
 30
0.0
 10
14.6841084199
 20
7.1800215375
 30
0.0
 10
14.6792393901
 20
7.1162533731
 30
0.0
 10
14.673520211
 20
7.0527355169
 30
0.0
 10
14.6669677408
 20
6.9896549146
 30
0.0
 10
14.6596013088
 20
6.927197218
 30
0.0
 10
14.6514426573
 20
6.8655462336
 30
0.0
 10
14.6425158792
 20
6.8048833792
 30
0.0
 10
14.6328473481
 20
6.7453871392
 30
0.0
 10
14.6224656404
 20
6.6872325542
 30
0.0
 10
14.6114014596
 20
6.6305906216
 30
0.0
 10
14.5996875226
 20
6.5756280576
 30
0.0
 10
14.5893293604
 20
6.5309974864
 30
0.0
 10
14.5807325325
 20
6.4962619823
 30
0.0
 10
14.5741979396
 20
6.4709456662
 30
0.0
 10
14.5675277875
 20
6.4461670173
 30
0.0
 10
14.5607269246
 20
6.4219442467
 30
0.0
 10
14.5538004246
 20
6.3982951727
 30
0.0
 10
14.5467533373
 20
6.3752371897
 30
0.0
 10
14.5395909238
 20
6.3527872457
 30
0.0
 10
14.5323183975
 20
6.3309618497
 30
0.0
 10
14.524941197
 20
6.3097770312
 30
0.0
 10
14.5174646812
 20
6.2892483626
 30
0.0
 10
14.5098944499
 20
6.2693909043
 30
0.0
 10
14.5022359895
 20
6.2502192443
 30
0.0
 10
14.4944950426
 20
6.2317474244
 30
0.0
 10
14.4866772037
 20
6.2139890027
 30
0.0
 10
14.4787883371
 20
6.1969569543
 30
0.0
 10
14.4708341232
 20
6.1806637638
 30
0.0
 10
14.4628205228
 20
6.1651212932
 30
0.0
 10
14.4547532751
 20
6.1503409119
 30
0.0
 10
14.4466384048
 20
6.1363333241
 30
0.0
 10
14.438481675
 20
6.1231087465
 30
0.0
 10
14.4302891291
 20
6.1106766858
 30
0.0
 10
14.4220665045
 20
6.0990461758
 30
0.0
 10
14.4138197987
 20
6.0882254984
 30
0.0
 10
14.4055546517
 20
6.0782224965
 30
0.0
 10
14.3972769231
 20
6.0690442339
 30
0.0
 10
14.3889920574
 20
6.0606974063
 30
0.0
 10
14.3807056692
 20
6.0531879483
 30
0.0
 10
14.3724228959
 20
6.0465215619
 30
0.0
 10
14.3641491167
 20
6.0407033179
 30
0.0
 10
14.3558889622
 20
6.0357381874
 30
0.0
 10
14.3476486719
 20
6.0316310655
 30
0.0
 10
14.342065399
 20
6.0294263737
 30
0.0
 10
14.3392887245
 20
6.0284797911
 30
0.0
  0
SPLINE
  5
342
100
AcDbEntity
  8
0
100
AcDbSpline
 62
7
  6
CONTINUOUS
 70
0
 71
3
 72
39
 73
35
 74
0
 42
0.0000001
 43
0.0000001
 44
0.0000000001
 40
0.0
 40
0.0
 40
0.0
 40
0.0
 40
0.0301591263
 40
0.060330288
 40
0.0905566831
 40
0.1208780509
 40
0.1513307272
 40
0.1819453581
 40
0.2127460029
 40
0.2437491901
 40
0.2749634265
 40
0.306389019
 40
0.3380182266
 40
0.3698357044
 40
0.4018192029
 40
0.4339404818
 40
0.4661663969
 40
0.4984601203
 40
0.5307824546
 40
0.5630932072
 40
0.5953525884
 40
0.6275225992
 40
0.6595683758
 40
0.6914594539
 40
0.7231709171
 40
0.7546843892
 40
0.7859888294
 40
0.8170810914
 40
0.8479661965
 40
0.8786573255
 40
0.9091753653
 40
0.9395484802
 40
0.9698102396
 40
1.0
 40
1.0
 40
1.0
 40
1.0
 10
12.7442461965
 20
5.2539771476
 30
0.0
 10
12.7467638487
 20
5.2568029688
 30
0.0
 10
12.7521018055
 20
5.2621951053
 30
0.0
 10
12.7609167773
 20
5.2693986479
 30
0.0
 10
12.7704562479
 20
5.2756503421
 30
0.0
 10
12.7806268249
 20
5.2808886095
 30
0.0
 10
12.7913302696
 20
5.2850634395
 30
0.0
 10
12.802462993
 20
5.2881347481
 30
0.0
 10
12.8139174381
 20
5.2900733446
 30
0.0
 10
12.8255830675
 20
5.2908609796
 30
0.0
 10
12.8373474558
 20
5.2904905342
 30
0.0
 10
12.8490973631
 20
5.2889660251
 30
0.0
 10
12.8607198106
 20
5.2863025352
 30
0.0
 10
12.8721031433
 20
5.2825260384
 30
0.0
 10
12.8831380769
 20
5.2776731323
 30
0.0
 10
12.893718721
 20
5.2717906758
 30
0.0
 10
12.9037435704
 20
5.2649353365
 30
0.0
 10
12.9131164567
 20
5.2571730492
 30
0.0
 10
12.9217474509
 20
5.24857839
 30
0.0
 10
12.9295537114
 20
5.2392338725
 30
0.0
 10
12.9364602634
 20
5.2292291676
 30
0.0
 10
12.9424007073
 20
5.2186602594
 30
0.0
 10
12.9473178477
 20
5.2076285426
 30
0.0
 10
12.9511642389
 20
5.1962398717
 30
0.0
 10
12.9539026418
 20
5.1846035687
 30
0.0
 10
12.9555063886
 20
5.1728313994
 30
0.0
 10
12.9559596572
 20
5.1610365262
 30
0.0
 10
12.9552576418
 20
5.1493324422
 30
0.0
 10
12.9534066521
 20
5.1378319039
 30
0.0
 10
12.9504240363
 20
5.1266458301
 30
0.0
 10
12.9463382402
 20
5.1158823267
 30
0.0
 10
12.9411880052
 20
5.1056452102
 30
0.0
 10
12.9350239616
 20
5.0960347171
 30
0.0
 10
12.9302720576
 20
5.0901001544
 30
0.0
 10
12.9277518481
 20
5.0872714629
 30
0.0
  0
SPLINE
  5
343
100
AcDbEntity
  8
0
100
AcDbSpline
 62
7
  6
CONTINUOUS
 70
0
 71
3
 72
39
 73
35
 74
0
 42
0.0000001
 43
0.0000001
 44
0.0000000001
 40
0.0
 40
0.0
 40
0.0
 40
0.0
 40
0.0315206499
 40
0.0629611014
 40
0.0943254206
 40
0.1256182265
 40
0.1568446568
 40
0.1880103398
 40
0.2191213576
 40
0.2501841974
 40
0.2812057044
 40
0.3121930389
 40
0.34315362
 40
0.3740950663
 40
0.4050251417
 40
0.4359516997
 40
0.4668826198
 40
0.4978257455
 40
0.5287888287
 40
0.5597794727
 40
0.5908050697
 40
0.6218727455
 40
0.6529893126
 40
0.6841612191
 40
0.7153944967
 40
0.7466947202
 40
0.7780669819
 40
0.8095158436
 40
0.8410452737
 40
0.8726587846
 40
0.9043591251
 40
0.9361481565
 40
0.9680290551
 40
1.0
 40
1.0
 40
1.0
 40
1.0
 10
9.1092787748
 20
7.6934382432
 30
0.0
 10
9.098499352
 20
7.6914782983
 30
0.0
 10
9.0770483489
 20
7.6871048179
 30
0.0
 10
9.0452235934
 20
7.6791831918
 30
0.0
 10
9.0138444125
 20
7.6699219412
 30
0.0
 10
8.9829653729
 20
7.6593370239
 30
0.0
 10
8.9526392467
 20
7.6474464407
 30
0.0
 10
8.922918082
 20
7.6342705965
 30
0.0
 10
8.8938528121
 20
7.6198320948
 30
0.0
 10
8.8654933103
 20
7.6041556218
 30
0.0
 10
8.837888242
 20
7.5872679998
 30
0.0
 10
8.811084913
 20
7.569198243
 30
0.0
 10
8.7851292944
 20
7.5499773186
 30
0.0
 10
8.7600659596
 20
7.5296381102
 30
0.0
 10
8.735937865
 20
7.5082155383
 30
0.0
 10
8.7127863619
 20
7.4857463686
 30
0.0
 10
8.6906511928
 20
7.4622690931
 30
0.0
 10
8.6695703424
 20
7.43782396
 30
0.0
 10
8.6495798945
 20
7.4124529525
 30
0.0
 10
8.6307141243
 20
7.3861995783
 30
0.0
 10
8.6130054409
 20
7.3591088211
 30
0.0
 10
8.5964841404
 20
7.3312271874
 30
0.0
 10
8.581178498
 20
7.3026025144
 30
0.0
 10
8.5671147863
 20
7.2732838649
 30
0.0
 10
8.5543171095
 20
7.2433215169
 30
0.0
 10
8.5428073027
 20
7.2127668839
 30
0.0
 10
8.5326050769
 20
7.1816723473
 30
0.0
 10
8.5237279707
 20
7.150091205
 30
0.0
 10
8.5161910662
 20
7.1180776134
 30
0.0
 10
8.5100072519
 20
7.0856864372
 30
0.0
 10
8.5051871628
 20
7.0529733565
 30
0.0
 10
8.5017388477
 20
7.0199938467
 30
0.0
 10
8.4996684868
 20
6.9868056781
 30
0.0
 10
8.4992095904
 20
6.9646088409
 30
0.0
 10
8.4992095904
 20
6.953496169
 30
0.0
  0
SPLINE
  5
344
100
AcDbEntity
  8
0
100
AcDbSpline
 62
7
  6
CONTINUOUS
 70
0
 71
3
 72
62
 73
58
 74
0
 42
0.0000001
 43
0.0000001
 44
0.0000000001
 40
0.0
 40
0.0
 40
0.0
 40
0.0
 40
0.0427953947
 40
0.0861053008
 40
0.1297856944
 40
0.1736908756
 40
0.2176742457
 40
0.261588852
 40
0.3052880413
 40
0.3486260722
 40
0.3914587437
 40
0.4336440238
 40
0.4750426852
 40
0.5155189514
 40
0.554941158
 40
0.5931824368
 40
0.6118223117
 40
0.630121951
 40
0.6480671385
 40
0.6656441757
 40
0.6828397626
 40
0.6996411782
 40
0.7160361613
 40
0.7320130999
 40
0.7475609157
 40
0.7626692628
 40
0.7773284218
 40
0.7915295094
 40
0.8052643884
 40
0.8185258932
 40
0.8313077649
 40
0.8436048998
 40
0.8554133246
 40
0.8667304798
 40
0.8775552564
 40
0.8878883361
 40
0.8977323199
 40
0.9070921586
 40
0.9159754183
 40
0.9243928474
 40
0.9323588315
 40
0.939892141
 40
0.947016602
 40
0.953761997
 40
0.9601648321
 40
0.9662691058
 40
0.9721266645
 40
0.9749823565
 40
0.9777993047
 40
0.9805859948
 40
0.9833512142
 40
0.9861039693
 40
0.9888534033
 40
0.9916086969
 40
0.9943789637
 40
0.9971731598
 40
1.0
 40
1.0
 40
1.0
 40
1.0
 10
14.5993771475
 20
7.4038427638
 30
0.0
 10
14.5993771475
 20
7.3881596036
 30
0.0
 10
14.59912319
 20
7.3566042019
 30
0.0
 10
14.5980012678
 20
7.3090533057
 30
0.0
 10
14.596139588
 20
7.2611185314
 30
0.0
 10
14.5935447364
 20
7.2129707502
 30
0.0
 10
14.5902259357
 20
7.1647814132
 30
0.0
 10
14.586195004
 20
7.1167221614
 30
0.0
 10
14.581466319
 20
7.0689641604
 30
0.0
 10
14.5760567631
 20
7.0216774965
 30
0.0
 10
14.5699856657
 20
6.9750305656
 30
0.0
 10
14.5632747351
 20
6.9291894636
 30
0.0
 10
14.5559479799
 20
6.884317406
 30
0.0
 10
14.5480316364
 20
6.8405740725
 30
0.0
 10
14.5395540373
 20
6.7981152679
 30
0.0
 10
14.5319840663
 20
6.7636419517
 30
0.0
 10
14.5256606149
 20
6.7368256081
 30
0.0
 10
14.5208374837
 20
6.7172985281
 30
0.0
 10
14.5158977218
 20
6.6982026761
 30
0.0
 10
14.5108457872
 20
6.6795550315
 30
0.0
 10
14.5056861244
 20
6.6613722025
 30
0.0
 10
14.5004234118
 20
6.6436703633
 30
0.0
 10
14.4950622762
 20
6.6264652707
 30
0.0
 10
14.4896075776
 20
6.6097722199
 30
0.0
 10
14.4840641136
 20
6.5936060619
 30
0.0
 10
14.4784369062
 20
6.577981154
 30
0.0
 10
14.4727309057
 20
6.5629113861
 30
0.0
 10
14.4669512763
 20
6.5484101218
 30
0.0
 10
14.4611031002
 20
6.5344902362
 30
0.0
 10
14.4551916617
 20
6.5211640457
 30
0.0
 10
14.449222151
 20
6.5084433584
 30
0.0
 10
14.4431999459
 20
6.4963393916
 30
0.0
 10
14.4371303151
 20
6.4848628366
 30
0.0
 10
14.431018695
 20
6.474023761
 30
0.0
 10
14.4248703928
 20
6.4638316929
 30
0.0
 10
14.4186908541
 20
6.454295505
 30
0.0
 10
14.4124853655
 20
6.4454235231
 30
0.0
 10
14.4062593066
 20
6.4372233948
 30
0.0
 10
14.4000178529
 20
6.4297022316
 30
0.0
 10
14.3937662051
 20
6.4228664696
 30
0.0
 10
14.3875092985
 20
6.4167220668
 30
0.0
 10
14.3812520186
 20
6.4112743796
 30
0.0
 10
14.3749989331
 20
6.4065284451
 30
0.0
 10
14.3687546142
 20
6.4024889097
 30
0.0
 10
14.362523262
 20
6.3991603727
 30
0.0
 10
14.3563101113
 20
6.3965473816
 30
0.0
 10
14.3511065821
 20
6.394956532
 30
0.0
 10
14.3469758195
 20
6.3940581572
 30
0.0
 10
14.3439126276
 20
6.3935702323
 30
0.0
 10
14.3408594279
 20
6.3932628101
 30
0.0
 10
14.3378168996
 20
6.3931359452
 30
0.0
 10
14.3347858373
 20
6.3931897283
 30
0.0
 10
14.3317670195
 20
6.3934242241
 30
0.0
 10
14.3287612364
 20
6.3938393149
 30
0.0
 10
14.3257692207
 20
6.3944348573
 30
0.0
 10
14.3227918423
 20
6.3952106393
 30
0.0
 10
14.3208302276
 20
6.39584366
 30
0.0
 10
14.3198535246
 20
6.3961889697
 30
0.0
  0
SPLINE
  5
345
100
AcDbEntity
  8
0
100
AcDbSpline
 62
7
  6
CONTINUOUS
 70
0
 71
3
 72
54
 73
50
 74
0
 42
0.0000001
 43
0.0000001
 44
0.0000000001
 40
0.0
 40
0.0
 40
0.0
 40
0.0
 40
0.0063158507
 40
0.0126706009
 40
0.0191023977
 40
0.0256478986
 40
0.0323417211
 40
0.0392160215
 40
0.0536137219
 40
0.0611943855
 40
0.0690560622
 40
0.0772171197
 40
0.0856934318
 40
0.0944987522
 40
0.1036448027
 40
0.113141486
 40
0.1229971814
 40
0.1332187245
 40
0.1438117391
 40
0.1547806923
 40
0.1661289554
 40
0.1778590781
 40
0.1899726748
 40
0.2024706471
 40
0.2153532452
 40
0.2286199987
 40
0.2422699729
 40
0.2563016345
 40
0.2707129683
 40
0.2855015805
 40
0.3006645508
 40
0.3161986637
 40
0.3321003047
 40
0.364989385
 40
0.3992970598
 40
0.4349833452
 40
0.4720041093
 40
0.5103114544
 40
0.549854083
 40
0.590577587
 40
0.6324246928
 40
0.6753354638
 40
0.7192475599
 40
0.7640963991
 40
0.8098154153
 40
0.8563362597
 40
0.9035882195
 40
0.9515013118
 40
1.0
 40
1.0
 40
1.0
 40
1.0
 10
14.5331896961
 20
8.3742283929
 30
0.0
 10
14.5351841206
 20
8.374090088
 30
0.0
 10
14.5391758264
 20
8.3736493665
 30
0.0
 10
14.5451186722
 20
8.3725007022
 30
0.0
 10
14.5510217785
 20
8.3708643155
 30
0.0
 10
14.5568817086
 20
8.3687416124
 30
0.0
 10
14.5626961851
 20
8.3661338313
 30
0.0
 10
14.5705034178
 20
8.3619487513
 30
0.0
 10
14.5780986872
 20
8.3568256513
 30
0.0
 10
14.5854489274
 20
8.3508887016
 30
0.0
 10
14.5910008718
 20
8.3458831802
 30
0.0
 10
14.5964934887
 20
8.3404045834
 30
0.0
 10
14.601925479
 20
8.3344549319
 30
0.0
 10
14.6072945674
 20
8.3280367468
 30
0.0
 10
14.6125987896
 20
8.3211526485
 30
0.0
 10
14.6178361537
 20
8.3138054802
 30
0.0
 10
14.62300453
 20
8.3059981616
 30
0.0
 10
14.6281019835
 20
8.2977339141
 30
0.0
 10
14.6331264454
 20
8.289016061
 30
0.0
 10
14.6380758845
 20
8.2798481345
 30
0.0
 10
14.6429483839
 20
8.2702338917
 30
0.0
 10
14.6477418759
 20
8.2601772099
 30
0.0
 10
14.652454479
 20
8.2496822181
 30
0.0
 10
14.6570842597
 20
8.2387531971
 30
0.0
 10
14.6616292722
 20
8.2273946032
 30
0.0
 10
14.6660877347
 20
8.2156111104
 30
0.0
 10
14.6704577384
 20
8.2034075295
 30
0.0
 10
14.6747375194
 20
8.190788878
 30
0.0
 10
14.6789253349
 20
8.1777603406
 30
0.0
 10
14.6830193925
 20
8.1643272575
 30
0.0
 10
14.6870180737
 20
8.1504951702
 30
0.0
 10
14.6909196988
 20
8.1362697446
 30
0.0
 10
14.6960478807
 20
8.1165642821
 30
0.0
 10
14.7021900187
 20
8.0909846842
 30
0.0
 10
14.7090683732
 20
8.0591502791
 30
0.0
 10
14.7155232919
 20
8.0258942288
 30
0.0
 10
14.7215440348
 20
7.9912713428
 30
0.0
 10
14.7271205781
 20
7.955338522
 30
0.0
 10
14.7322436301
 20
7.918154925
 30
0.0
 10
14.7369046492
 20
7.8797817775
 30
0.0
 10
14.7410958552
 20
7.8402823005
 30
0.0
 10
14.7448102749
 20
7.799721598
 30
0.0
 10
14.7480417188
 20
7.75816655
 30
0.0
 10
14.7507848015
 20
7.7156856762
 30
0.0
 10
14.7530349404
 20
7.6723490013
 30
0.0
 10
14.7547883546
 20
7.6282281554
 30
0.0
 10
14.7560421868
 20
7.5833955336
 30
0.0
 10
14.7567942325
 20
7.5379256322
 30
0.0
 10
14.7569593732
 20
7.5074072476
 30
0.0
 10
14.7569593732
 20
7.4920555128
 30
0.0
  0
SPLINE
  5
346
100
AcDbEntity
  8
0
100
AcDbSpline
 62
7
  6
CONTINUOUS
 70
0
 71
3
 72
36
 73
32
 74
0
 42
0.0000001
 43
0.0000001
 44
0.0000000001
 40
0.0
 40
0.0
 40
0.0
 40
0.0
 40
0.0348955964
 40
0.0701091963
 40
0.1055811443
 40
0.1412567476
 40
0.2129885257
 40
0.2848458815
 40
0.356368676
 40
0.3918619458
 40
0.4271004656
 40
0.4620280931
 40
0.4965893205
 40
0.5307294303
 40
0.5643945643
 40
0.5975318518
 40
0.6300895968
 40
0.6620173364
 40
0.6932659645
 40
0.7237879598
 40
0.7535374523
 40
0.7824703463
 40
0.8105445948
 40
0.8377203128
 40
0.8639599164
 40
0.8892284636
 40
0.9134938777
 40
0.9367271565
 40
0.9589028416
 40
0.9799994706
 40
1.0
 40
1.0
 40
1.0
 40
1.0
 10
14.3716163878
 20
7.4038427508
 30
0.0
 10
14.3716163878
 20
7.3937954687
 30
0.0
 10
14.371504056
 20
7.3736091753
 30
0.0
 10
14.3710050609
 20
7.3432133699
 30
0.0
 10
14.3701754621
 20
7.3126000641
 30
0.0
 10
14.3686276429
 20
7.2714901791
 30
0.0
 10
14.3658778318
 20
7.2199447679
 30
0.0
 10
14.3613033769
 20
7.1581738612
 30
0.0
 10
14.356438062
 20
7.1068980888
 30
0.0
 10
14.3519247054
 20
7.0661883655
 30
0.0
 10
14.3482501399
 20
7.0359885949
 30
0.0
 10
14.3442839044
 20
7.0060964511
 30
0.0
 10
14.3400327478
 20
6.9765629505
 30
0.0
 10
14.3355039832
 20
6.947438539
 30
0.0
 10
14.3307053521
 20
6.9187729552
 30
0.0
 10
14.3256450512
 20
6.8906151544
 30
0.0
 10
14.3203317778
 20
6.8630132087
 30
0.0
 10
14.3147746326
 20
6.8360142436
 30
0.0
 10
14.3089831083
 20
6.8096643537
 30
0.0
 10
14.3029671596
 20
6.7840085021
 30
0.0
 10
14.2967371056
 20
6.7590904627
 30
0.0
 10
14.2903035949
 20
6.7349527489
 30
0.0
 10
14.283677682
 20
6.7116365094
 30
0.0
 10
14.2768707472
 20
6.6891814724
 30
0.0
 10
14.2698944315
 20
6.6676258904
 30
0.0
 10
14.2627607118
 20
6.6470064372
 30
0.0
 10
14.2554818414
 20
6.6273581353
 30
0.0
 10
14.2480702736
 20
6.6087143594
 30
0.0
 10
14.240538646
 20
6.5911065938
 30
0.0
 10
14.2329000007
 20
6.5745648308
 30
0.0
 10
14.2276022247
 20
6.5639812386
 30
0.0
 10
14.2249318911
 20
6.5588791624
 30
0.0
  0
SPLINE
  5
347
100
AcDbEntity
  8
0
100
AcDbSpline
 62
7
  6
CONTINUOUS
 70
0
 71
3
 72
37
 73
33
 74
0
 42
0.0000001
 43
0.0000001
 44
0.0000000001
 40
0.0
 40
0.0
 40
0.0
 40
0.0
 40
0.030746918
 40
0.0615815023
 40
0.0925011026
 40
0.1235024444
 40
0.1545816684
 40
0.1857343632
 40
0.2169555911
 40
0.2482399297
 40
0.2795815213
 40
0.3109741067
 40
0.3424110691
 40
0.3738854909
 40
0.4053901977
 40
0.436917802
 40
0.4999984781
 40
0.5630792119
 40
0.5946068887
 40
0.6261116954
 40
0.6575862445
 40
0.6890233615
 40
0.7204161266
 40
0.7517579215
 40
0.7830424876
 40
0.8142639635
 40
0.8454169239
 40
0.8764964393
 40
0.9074980723
 40
0.9384179765
 40
0.9692529811
 40
1.0
 40
1.0
 40
1.0
 40
1.0
 10
10.0723732682
 20
7.042343586
 30
0.0
 10
10.0630286032
 20
7.0436747066
 30
0.0
 10
10.044367362
 20
7.0467423559
 30
0.0
 10
10.016559913
 20
7.0525380791
 30
0.0
 10
9.988946364
 20
7.0595242505
 30
0.0
 10
9.9615794552
 20
7.0676875107
 30
0.0
 10
9.9345105876
 20
7.0770124131
 30
0.0
 10
9.9077908604
 20
7.0874813879
 30
0.0
 10
9.8814706548
 20
7.0990747075
 30
0.0
 10
9.8555995628
 20
7.1117704088
 30
0.0
 10
9.8302263536
 20
7.1255445463
 30
0.0
 10
9.8053989111
 20
7.1403711969
 30
0.0
 10
9.7811639782
 20
7.1562223577
 30
0.0
 10
9.7575673287
 20
7.1730679989
 30
0.0
 10
9.7346530847
 20
7.190876807
 30
0.0
 10
9.7050672793
 20
7.215861838
 30
0.0
 10
9.6700088404
 20
7.2493253671
 30
0.0
 10
9.6377748019
 20
7.2855175039
 30
0.0
 10
9.6138253536
 20
7.3159477695
 30
0.0
 10
9.5968176803
 20
7.339462884
 30
0.0
 10
9.5807961073
 20
7.3636267716
 30
0.0
 10
9.5657904244
 20
7.3883942699
 30
0.0
 10
9.5518290861
 20
7.4137186069
 30
0.0
 10
9.5389384354
 20
7.4395520837
 30
0.0
 10
9.5271427296
 20
7.4658459531
 30
0.0
 10
9.5164642381
 20
7.4925506565
 30
0.0
 10
9.5069231975
 20
7.5196158734
 30
0.0
 10
9.4985375624
 20
7.546990559
 30
0.0
 10
9.4913231426
 20
7.5746230433
 30
0.0
 10
9.4852936122
 20
7.6024614559
 30
0.0
 10
9.480460534
 20
7.6304525318
 30
0.0
 10
9.4780383496
 20
7.6492086358
 30
0.0
 10
9.4770303331
 20
7.6585936843
 30
0.0
  0
SPLINE
  5
348
100
AcDbEntity
  8
0
100
AcDbSpline
 62
7
  6
CONTINUOUS
 70
0
 71
3
 72
28
 73
24
 74
0
 42
0.0000001
 43
0.0000001
 44
0.0000000001
 40
0.0
 40
0.0
 40
0.0
 40
0.0
 40
0.0663188078
 40
0.1335199809
 40
0.2013033635
 40
0.2693637459
 40
0.337395201
 40
0.4050916927
 40
0.4721491693
 40
0.5382672294
 40
0.6031509096
 40
0.6665124763
 40
0.7280732529
 40
0.7580946787
 40
0.7875664629
 40
0.8164572428
 40
0.844736463
 40
0.872374705
 40
0.8993435412
 40
0.9256157619
 40
0.9511654219
 40
0.9759678599
 40
1.0
 40
1.0
 40
1.0
 40
1.0
 10
14.2968442806
 20
7.3926696147
 30
0.0
 10
14.2968442806
 20
7.3771501242
 30
0.0
 10
14.2965522691
 20
7.345903963
 30
0.0
 10
14.2952661063
 20
7.298811498
 30
0.0
 10
14.2931343482
 20
7.2513416544
 30
0.0
 10
14.2901671112
 20
7.2037221037
 30
0.0
 10
14.2863786342
 20
7.1561812251
 30
0.0
 10
14.281787094
 20
7.10894694
 30
0.0
 10
14.2764145794
 20
7.0622457118
 30
0.0
 10
14.2702869587
 20
7.0163014328
 30
0.0
 10
14.2634337779
 20
6.9713342683
 30
0.0
 10
14.2558880841
 20
6.9275598601
 30
0.0
 10
14.2489971001
 20
6.8919587242
 30
0.0
 10
14.2431549344
 20
6.8642389172
 30
0.0
 10
14.2386602241
 20
6.8440496784
 30
0.0
 10
14.2340214032
 20
6.8243116353
 30
0.0
 10
14.2292439461
 20
6.8050484354
 30
0.0
 10
14.2243336746
 20
6.7862831685
 30
0.0
 10
14.2192964486
 20
6.768038323
 30
0.0
 10
14.2141383467
 20
6.750335761
 30
0.0
 10
14.2088655867
 20
6.7331966612
 30
0.0
 10
14.2034844866
 20
6.7166416191
 30
0.0
 10
14.1997694726
 20
6.7058336447
 30
0.0
 10
14.1978929467
 20
6.7005321108
 30
0.0
  0
SPLINE
  5
349
100
AcDbEntity
  8
0
100
AcDbSpline
 62
7
  6
CONTINUOUS
 70
0
 71
3
 72
44
 73
40
 74
0
 42
0.0000001
 43
0.0000001
 44
0.0000000001
 40
0.0
 40
0.0
 40
0.0
 40
0.0
 40
0.015166805
 40
0.0303618835
 40
0.0455856256
 40
0.0608383248
 40
0.0914284179
 40
0.1221357166
 40
0.1375345482
 40
0.1529622489
 40
0.1839000514
 40
0.2149483963
 40
0.2461023918
 40
0.2773559157
 40
0.3087016987
 40
0.3401314168
 40
0.3716357946
 40
0.4032047167
 40
0.4348273453
 40
0.466492246
 40
0.4981875162
 40
0.5299009188
 40
0.5616200173
 40
0.5933323123
 40
0.6250253796
 40
0.6566870062
 40
0.688305326
 40
0.7198689521
 40
0.7513671059
 40
0.7827897422
 40
0.8141276632
 40
0.8453726433
 40
0.8609593731
 40
0.8765202576
 40
0.9075590327
 40
0.9384866981
 40
0.9539091558
 40
0.9693032561
 40
1.0
 40
1.0
 40
1.0
 40
1.0
 10
10.1010774334
 20
6.8658046217
 30
0.0
 10
10.0949644074
 20
6.8650190166
 30
0.0
 10
10.0827040584
 20
6.8636189994
 30
0.0
 10
10.0642450684
 20
6.8620352406
 30
0.0
 10
10.0457138558
 20
6.8609669025
 30
0.0
 10
10.0209066546
 20
6.8602300153
 30
0.0
 10
9.9897844154
 20
6.8606043323
 30
0.0
 10
9.9586713051
 20
6.8626978777
 30
0.0
 10
9.9338094705
 20
6.8653984563
 30
0.0
 10
9.9089376973
 20
6.8687882649
 30
0.0
 10
9.8779500356
 20
6.8743067938
 30
0.0
 10
9.8410817724
 20
6.8829459692
 30
0.0
 10
9.8046052649
 20
6.8935822237
 30
0.0
 10
9.7686321992
 20
6.906182983
 30
0.0
 10
9.7332718236
 20
6.9207098337
 30
0.0
 10
9.6986317551
 20
6.9371184829
 30
0.0
 10
9.664817349
 20
6.9553589357
 30
0.0
 10
9.6319314635
 20
6.9753756367
 30
0.0
 10
9.6000741259
 20
6.9971076385
 30
0.0
 10
9.5693422312
 20
7.020488781
 30
0.0
 10
9.5398292533
 20
7.0454479014
 30
0.0
 10
9.5116249624
 20
7.0719090482
 30
0.0
 10
9.4848151539
 20
7.0997917118
 30
0.0
 10
9.4594813891
 20
7.1290110678
 30
0.0
 10
9.4357007489
 20
7.1594782325
 30
0.0
 10
9.4135456006
 20
7.1911005337
 30
0.0
 10
9.3930833794
 20
7.2237817841
 30
0.0
 10
9.3743763815
 20
7.2574225939
 30
0.0
 10
9.3574815837
 20
7.2919205885
 30
0.0
 10
9.3424504092
 20
7.3271710114
 30
0.0
 10
9.3293288134
 20
7.3630659636
 30
0.0
 10
9.3200108142
 20
7.3934511668
 30
0.0
 10
9.313550748
 20
7.4179713952
 30
0.0
 10
9.3077669117
 20
7.4425738414
 30
0.0
 10
9.3017908468
 20
7.4735228628
 30
0.0
 10
9.29750062
 20
7.5046936666
 30
0.0
 10
9.2950961007
 20
7.5296719184
 30
0.0
 10
9.2933802766
 20
7.5546121624
 30
0.0
 10
9.2928621214
 20
7.5733472548
 30
0.0
 10
9.2928621214
 20
7.5858214199
 30
0.0
  0
SPLINE
  5
34A
100
AcDbEntity
  8
0
100
AcDbSpline
 62
7
  6
CONTINUOUS
 70
0
 71
3
 72
52
 73
48
 74
0
 42
0.0000001
 43
0.0000001
 44
0.0000000001
 40
0.0
 40
0.0
 40
0.0
 40
0.0
 40
0.0461615535
 40
0.0918166269
 40
0.1369028682
 40
0.1813643426
 40
0.2251438871
 40
0.2681857938
 40
0.310435899
 40
0.35184132
 40
0.392350814
 40
0.4319148143
 40
0.4704855498
 40
0.50801729
 40
0.5444664378
 40
0.5797916689
 40
0.613954212
 40
0.6469180623
 40
0.6786501588
 40
0.7091207314
 40
0.7383037227
 40
0.7524056394
 40
0.7661777812
 40
0.7796180762
 40
0.7927248798
 40
0.8054968214
 40
0.817932899
 40
0.8300326032
 40
0.8417957753
 40
0.8532227603
 40
0.8643144868
 40
0.8750723598
 40
0.8854984677
 40
0.8955956185
 40
0.9053672925
 40
0.9148178921
 40
0.9239527488
 40
0.9327781533
 40
0.9413016351
 40
0.9495319579
 40
0.9574792369
 40
0.965155216
 40
0.9725732688
 40
0.9797485704
 40
0.9866983146
 40
0.9934416887
 40
1.0
 40
1.0
 40
1.0
 40
1.0
 10
14.6951401152
 20
10.6356018144
 30
0.0
 10
14.6951401152
 20
10.6497276544
 30
0.0
 10
14.6950001987
 20
10.6778245633
 30
0.0
 10
14.6943636729
 20
10.7197139164
 30
0.0
 10
14.6933023593
 20
10.7610743235
 30
0.0
 10
14.6918178379
 20
10.8018474221
 30
0.0
 10
14.6899121702
 20
10.841976771
 30
0.0
 10
14.6875880594
 20
10.8814062514
 30
0.0
 10
14.6848487788
 20
10.9200808276
 30
0.0
 10
14.6816981659
 20
10.9579465635
 30
0.0
 10
14.6781406841
 20
10.9949506316
 30
0.0
 10
14.6741813405
 20
11.0310414191
 30
0.0
 10
14.6698256802
 20
11.0661685947
 30
0.0
 10
14.6650798583
 20
11.1002831933
 30
0.0
 10
14.6599505655
 20
11.1333376788
 30
0.0
 10
14.6544449954
 20
11.1652859998
 30
0.0
 10
14.6485709014
 20
11.1960836866
 30
0.0
 10
14.642336573
 20
11.2256878953
 30
0.0
 10
14.6357507674
 20
11.2540575293
 30
0.0
 10
14.6288227099
 20
11.2811530436
 30
0.0
 10
14.6227045604
 20
11.3028805824
 30
0.0
 10
14.6176361096
 20
11.3195891791
 30
0.0
 10
14.6137987154
 20
11.3316357405
 30
0.0
 10
14.6098831653
 20
11.3433364629
 30
0.0
 10
14.6058908651
 20
11.3546873098
 30
0.0
 10
14.6018231913
 20
11.3656843286
 30
0.0
 10
14.5976815198
 20
11.3763236878
 30
0.0
 10
14.5934673577
 20
11.3866017179
 30
0.0
 10
14.589182127
 20
11.3965148431
 30
0.0
 10
14.5848272937
 20
11.4060596208
 30
0.0
 10
14.5804044275
 20
11.4152327758
 30
0.0
 10
14.5759149931
 20
11.4240311141
 30
0.0
 10
14.571360538
 20
11.4324515995
 30
0.0
 10
14.5667426747
 20
11.4404913586
 30
0.0
 10
14.5620628995
 20
11.448147585
 30
0.0
 10
14.557322827
 20
11.4554176608
 30
0.0
 10
14.5525240862
 20
11.4622991135
 30
0.0
 10
14.5476681916
 20
11.4687895213
 30
0.0
 10
14.5427568013
 20
11.4748866843
 30
0.0
 10
14.5377915314
 20
11.4805885092
 30
0.0
 10
14.5327739039
 20
11.485892938
 30
0.0
 10
14.5277055974
 20
11.4907981587
 30
0.0
 10
14.5225881939
 20
11.4953024026
 30
0.0
 10
14.5174232687
 20
11.4994039126
 30
0.0
 10
14.5122124404
 20
11.5031012404
 30
0.0
 10
14.5069576409
 20
11.5063926945
 30
0.0
 10
14.5033799418
 20
11.5083405982
 30
0.0
 10
14.5015870545
 20
11.5092423775
 30
0.0
  0
SPLINE
  5
34B
100
AcDbEntity
  8
0
100
AcDbSpline
 62
7
  6
CONTINUOUS
 70
0
 71
3
 72
55
 73
51
 74
0
 42
0.0000001
 43
0.0000001
 44
0.0000000001
 40
0.0
 40
0.0
 40
0.0
 40
0.0
 40
0.040190622
 40
0.0808318335
 40
0.1218120711
 40
0.1630183918
 40
0.2043371644
 40
0.2456543213
 40
0.2868558155
 40
0.3278280004
 40
0.3684580359
 40
0.4086342887
 40
0.4482467371
 40
0.4871873792
 40
0.5253506481
 40
0.562633835
 40
0.5989375257
 40
0.6341660553
 40
0.6513485928
 40
0.6682284137
 40
0.684794852
 40
0.7010375383
 40
0.7169464945
 40
0.7325120694
 40
0.7477250555
 40
0.7625766094
 40
0.7770583914
 40
0.7911624721
 40
0.8048814971
 40
0.8182085825
 40
0.8311375054
 40
0.8436625946
 40
0.8557789488
 40
0.8674823288
 40
0.8787694082
 40
0.8896376775
 40
0.9000857327
 40
0.9101132077
 40
0.9197211097
 40
0.9289118022
 40
0.9376894026
 40
0.9460598441
 40
0.9540313562
 40
0.9616146395
 40
0.9688234474
 40
0.9756748948
 40
0.9821901283
 40
0.988394729
 40
0.9943193486
 40
1.0
 40
1.0
 40
1.0
 40
1.0
 10
14.6951401152
 20
10.6356018144
 30
0.0
 10
14.6951401152
 20
10.614846671
 30
0.0
 10
14.6948348695
 20
10.5731031087
 30
0.0
 10
14.6934840525
 20
10.5102097693
 30
0.0
 10
14.6912412324
 20
10.4468169742
 30
0.0
 10
14.6881129588
 20
10.3831114434
 30
0.0
 10
14.6841084199
 20
10.319280659
 30
0.0
 10
14.6792393901
 20
10.2555124946
 30
0.0
 10
14.673520211
 20
10.1919946384
 30
0.0
 10
14.6669677408
 20
10.1289140361
 30
0.0
 10
14.6596013088
 20
10.0664563395
 30
0.0
 10
14.6514426573
 20
10.004805355
 30
0.0
 10
14.6425158792
 20
9.9441425006
 30
0.0
 10
14.6328473481
 20
9.8846462606
 30
0.0
 10
14.6224656404
 20
9.8264916756
 30
0.0
 10
14.6114014596
 20
9.7698497431
 30
0.0
 10
14.5996875226
 20
9.7148871791
 30
0.0
 10
14.5893293604
 20
9.6702566079
 30
0.0
 10
14.5807325325
 20
9.6355211037
 30
0.0
 10
14.5741979396
 20
9.6102047876
 30
0.0
 10
14.5675277875
 20
9.5854261388
 30
0.0
 10
14.5607269246
 20
9.5612033682
 30
0.0
 10
14.5538004246
 20
9.5375542942
 30
0.0
 10
14.5467533373
 20
9.5144963111
 30
0.0
 10
14.5395909238
 20
9.4920463672
 30
0.0
 10
14.5323183975
 20
9.4702209711
 30
0.0
 10
14.524941197
 20
9.4490361526
 30
0.0
 10
14.5174646812
 20
9.4285074841
 30
0.0
 10
14.5098944499
 20
9.4086500257
 30
0.0
 10
14.5022359895
 20
9.3894783657
 30
0.0
 10
14.4944950426
 20
9.3710065458
 30
0.0
 10
14.4866772037
 20
9.3532481241
 30
0.0
 10
14.4787883371
 20
9.3362160758
 30
0.0
 10
14.4708341232
 20
9.3199228853
 30
0.0
 10
14.4628205228
 20
9.3043804147
 30
0.0
 10
14.4547532751
 20
9.2896000333
 30
0.0
 10
14.4466384048
 20
9.2755924456
 30
0.0
 10
14.438481675
 20
9.262367868
 30
0.0
 10
14.4302891291
 20
9.2499358072
 30
0.0
 10
14.4220665045
 20
9.2383052972
 30
0.0
 10
14.4138197987
 20
9.2274846198
 30
0.0
 10
14.4055546517
 20
9.217481618
 30
0.0
 10
14.3972769231
 20
9.2083033553
 30
0.0
 10
14.3889920574
 20
9.1999565278
 30
0.0
 10
14.3807056692
 20
9.1924470698
 30
0.0
 10
14.3724228959
 20
9.1857806833
 30
0.0
 10
14.3641491167
 20
9.1799624393
 30
0.0
 10
14.3558889622
 20
9.1749973088
 30
0.0
 10
14.3476486719
 20
9.1708901869
 30
0.0
 10
14.342065399
 20
9.1686854951
 30
0.0
 10
14.3392887245
 20
9.1677389125
 30
0.0
  0
SPLINE
  5
34C
100
AcDbEntity
  8
0
100
AcDbSpline
 62
7
  6
CONTINUOUS
 70
0
 71
3
 72
28
 73
24
 74
0
 42
0.0000001
 43
0.0000001
 44
0.0000000001
 40
0.0
 40
0.0
 40
0.0
 40
0.0
 40
0.0637758941
 40
0.0955879065
 40
0.1273462157
 40
0.1907019646
 40
0.2538545302
 40
0.2853587825
 40
0.3168148204
 40
0.379582186
 40
0.4421719279
 40
0.504596336
 40
0.566869323
 40
0.6290062994
 40
0.6910240361
 40
0.7219962863
 40
0.7529455528
 40
0.8147797337
 40
0.8765514554
 40
0.9074228165
 40
0.9382862783
 40
0.9691444605
 40
1.0
 40
1.0
 40
1.0
 40
1.0
 10
8.4420019829
 20
6.9242378602
 30
0.0
 10
8.4420019829
 20
6.9375220817
 30
0.0
 10
8.442479326
 20
6.9574370247
 30
0.0
 10
8.4440762493
 20
6.983916395
 30
0.0
 10
8.4463072237
 20
7.0102625776
 30
0.0
 10
8.4502858517
 20
7.0430017419
 30
0.0
 10
8.4558533371
 20
7.0754550279
 30
0.0
 10
8.4612497719
 20
7.1011658796
 30
0.0
 10
8.4672614274
 20
7.1266573745
 30
0.0
 10
8.4759384708
 20
7.1581623744
 30
0.0
 10
8.4881965642
 20
7.1953227433
 30
0.0
 10
8.5022649765
 20
7.23172644
 30
0.0
 10
8.5181113019
 20
7.2672890762
 30
0.0
 10
8.5356987578
 20
7.3019282438
 30
0.0
 10
8.5517802319
 20
7.3299719395
 30
0.0
 10
8.5654716404
 20
7.351861078
 30
0.0
 10
8.5796966159
 20
7.3733615142
 30
0.0
 10
8.5984857147
 20
7.3995211967
 30
0.0
 10
8.6185816665
 20
7.4246702927
 30
0.0
 10
8.6354051274
 20
7.4441359289
 30
0.0
 10
8.6483889711
 20
7.4584006736
 30
0.0
 10
8.661732818
 20
7.4723243267
 30
0.0
 10
8.670864184
 20
7.4813744234
 30
0.0
 10
8.675486878
 20
7.4858396072
 30
0.0
  0
SPLINE
  5
34D
100
AcDbEntity
  8
0
100
AcDbSpline
 62
7
  6
CONTINUOUS
 70
0
 71
3
 72
72
 73
68
 74
0
 42
0.0000001
 43
0.0000001
 44
0.0000000001
 40
0.0
 40
0.0
 40
0.0
 40
0.0
 40
0.015356485
 40
0.0230190262
 40
0.0306711275
 40
0.0459442341
 40
0.0611797292
 40
0.0763807909
 40
0.0915509089
 40
0.1066938545
 40
0.1218136464
 40
0.1369145157
 40
0.1520008687
 40
0.1670772467
 40
0.1821482835
 40
0.1972186618
 40
0.2122930704
 40
0.2273761608
 40
0.2424725045
 40
0.2575865501
 40
0.2727225823
 40
0.2878846828
 40
0.3030766951
 40
0.3183021914
 40
0.3335644407
 40
0.3488663811
 40
0.3642105966
 40
0.379599298
 40
0.395034307
 40
0.4105170429
 40
0.4260485127
 40
0.441629308
 40
0.4572596047
 40
0.4729391651
 40
0.4886673426
 40
0.50444309
 40
0.5202649737
 40
0.536131189
 40
0.5520395766
 40
0.5679876417
 40
0.5839725762
 40
0.5999912849
 40
0.6160404106
 40
0.6321163611
 40
0.6482153366
 40
0.6643333617
 40
0.6804663167
 40
0.6966099685
 40
0.7127600021
 40
0.7289120537
 40
0.7450617452
 40
0.7612047167
 40
0.777336659
 40
0.7934533452
 40
0.809550665
 40
0.8256246566
 40
0.8416715367
 40
0.8576877295
 40
0.8736698961
 40
0.8896149617
 40
0.9055201471
 40
0.9213829765
 40
0.9372013178
 40
0.9529734403
 40
0.9686977178
 40
0.9843737587
 40
1.0
 40
1.0
 40
1.0
 40
1.0
 10
12.026028381
 20
8.7121971831
 30
0.0
 10
12.0234381366
 20
8.7003671229
 30
0.0
 10
12.019137303
 20
8.682721712
 30
0.0
 10
12.0125773739
 20
8.6594389339
 30
0.0
 10
12.0054855431
 20
8.6363809863
 30
0.0
 10
11.9956134903
 20
8.6079391678
 30
0.0
 10
11.9821718067
 20
8.574477269
 30
0.0
 10
11.9671701466
 20
8.5417738919
 30
0.0
 10
11.9506400476
 20
8.5098980593
 30
0.0
 10
11.9326160773
 20
8.4789164799
 30
0.0
 10
11.9131359655
 20
8.448894165
 30
0.0
 10
11.8922404999
 20
8.4198940762
 30
0.0
 10
11.8699734971
 20
8.3919770069
 30
0.0
 10
11.846381628
 20
8.3652014912
 30
0.0
 10
11.8215143391
 20
8.3396236764
 30
0.0
 10
11.7954237366
 20
8.3152972198
 30
0.0
 10
11.7681645314
 20
8.2922731202
 30
0.0
 10
11.7397939038
 20
8.2705996152
 30
0.0
 10
11.7103713452
 20
8.2503221247
 30
0.0
 10
11.6799585451
 20
8.2314831458
 30
0.0
 10
11.6486192582
 20
8.2141221773
 30
0.0
 10
11.6164192166
 20
8.19827555
 30
0.0
 10
11.5834259435
 20
8.1839764178
 30
0.0
 10
11.5497086083
 20
8.171254701
 30
0.0
 10
11.5153378842
 20
8.1601370288
 30
0.0
 10
11.4803858112
 20
8.1506466651
 30
0.0
 10
11.4449256565
 20
8.1428033948
 30
0.0
 10
11.4090317301
 20
8.1366235751
 30
0.0
 10
11.372779237
 20
8.1321200883
 30
0.0
 10
11.3362441225
 20
8.1293023343
 30
0.0
 10
11.2995029217
 20
8.1281761454
 30
0.0
 10
11.2626325903
 20
8.1287437764
 30
0.0
 10
11.2257103405
 20
8.1310039672
 30
0.0
 10
11.1888134844
 20
8.1349519293
 30
0.0
 10
11.1520192802
 20
8.1405793711
 30
0.0
 10
11.1154047573
 20
8.1478744235
 30
0.0
 10
11.079046558
 20
8.1568217342
 30
0.0
 10
11.0430207841
 20
8.1674025186
 30
0.0
 10
11.0074028426
 20
8.1795945976
 30
0.0
 10
10.9722672904
 20
8.1933724302
 30
0.0
 10
10.9376876473
 20
8.208707099
 30
0.0
 10
10.9037362728
 20
8.2255664601
 30
0.0
 10
10.8704842143
 20
8.2439151973
 30
0.0
 10
10.8380010705
 20
8.2637149067
 30
0.0
 10
10.8063548203
 20
8.2849241274
 30
0.0
 10
10.7756116669
 20
8.3074984208
 30
0.0
 10
10.7458359391
 20
8.3313905238
 30
0.0
 10
10.71708995
 20
8.3565504298
 30
0.0
 10
10.6894338822
 20
8.3829255029
 30
0.0
 10
10.6629256019
 20
8.4104605232
 30
0.0
 10
10.6376205697
 20
8.4390978466
 30
0.0
 10
10.6135717473
 20
8.4687775429
 30
0.0
 10
10.5908294866
 20
8.4994375134
 30
0.0
 10
10.5694414228
 20
8.531013614
 30
0.0
 10
10.549452306
 20
8.5634397461
 30
0.0
 10
10.5309039797
 20
8.5966480493
 30
0.0
 10
10.5138352897
 20
8.6305690342
 30
0.0
 10
10.4982820162
 20
8.6651317296
 30
0.0
 10
10.4842767587
 20
8.7002638074
 30
0.0
 10
10.4718488317
 20
8.7358917308
 30
0.0
 10
10.4610242919
 20
8.7719409366
 30
0.0
 10
10.4518258464
 20
8.8083359699
 30
0.0
 10
10.4442728169
 20
8.8450007113
 30
0.0
 10
10.4383811585
 20
8.881858207
 30
0.0
 10
10.4341629843
 20
8.9188318947
 30
0.0
 10
10.4316275823
 20
8.9558429513
 30
0.0
 10
10.4310615878
 20
8.9805319694
 30
0.0
 10
10.4310615878
 20
8.9928550159
 30
0.0
  0
SPLINE
  5
34E
100
AcDbEntity
  8
0
100
AcDbSpline
 62
7
  6
CONTINUOUS
 70
0
 71
3
 72
54
 73
50
 74
0
 42
0.0000001
 43
0.0000001
 44
0.0000000001
 40
0.0
 40
0.0
 40
0.0
 40
0.0
 40
0.0063158507
 40
0.0126706009
 40
0.0191023977
 40
0.0256478986
 40
0.0323417211
 40
0.0392160215
 40
0.0536137219
 40
0.0611943855
 40
0.0690560622
 40
0.0772171197
 40
0.0856934318
 40
0.0944987522
 40
0.1036448027
 40
0.113141486
 40
0.1229971814
 40
0.1332187245
 40
0.1438117391
 40
0.1547806923
 40
0.1661289554
 40
0.1778590781
 40
0.1899726748
 40
0.2024706471
 40
0.2153532452
 40
0.2286199987
 40
0.2422699729
 40
0.2563016345
 40
0.2707129683
 40
0.2855015805
 40
0.3006645508
 40
0.3161986637
 40
0.3321003047
 40
0.364989385
 40
0.3992970598
 40
0.4349833452
 40
0.4720041093
 40
0.5103114544
 40
0.549854083
 40
0.590577587
 40
0.6324246928
 40
0.6753354638
 40
0.7192475599
 40
0.7640963991
 40
0.8098154153
 40
0.8563362597
 40
0.9035882195
 40
0.9515013118
 40
1.0
 40
1.0
 40
1.0
 40
1.0
 10
14.5331896961
 20
11.5134875144
 30
0.0
 10
14.5351841206
 20
11.5133492095
 30
0.0
 10
14.5391758264
 20
11.512908488
 30
0.0
 10
14.5451186722
 20
11.5117598237
 30
0.0
 10
14.5510217785
 20
11.510123437
 30
0.0
 10
14.5568817086
 20
11.5080007339
 30
0.0
 10
14.5626961851
 20
11.5053929528
 30
0.0
 10
14.5705034178
 20
11.5012078728
 30
0.0
 10
14.5780986872
 20
11.4960847728
 30
0.0
 10
14.5854489274
 20
11.4901478231
 30
0.0
 10
14.5910008718
 20
11.4851423016
 30
0.0
 10
14.5964934887
 20
11.4796637049
 30
0.0
 10
14.601925479
 20
11.4737140533
 30
0.0
 10
14.6072945674
 20
11.4672958682
 30
0.0
 10
14.6125987896
 20
11.46041177
 30
0.0
 10
14.6178361537
 20
11.4530646017
 30
0.0
 10
14.62300453
 20
11.445257283
 30
0.0
 10
14.6281019835
 20
11.4369930356
 30
0.0
 10
14.6331264454
 20
11.4282751824
 30
0.0
 10
14.6380758845
 20
11.419107256
 30
0.0
 10
14.6429483839
 20
11.4094930131
 30
0.0
 10
14.6477418759
 20
11.3994363313
 30
0.0
 10
14.652454479
 20
11.3889413395
 30
0.0
 10
14.6570842597
 20
11.3780123185
 30
0.0
 10
14.6616292722
 20
11.3666537247
 30
0.0
 10
14.6660877347
 20
11.3548702319
 30
0.0
 10
14.6704577384
 20
11.3426666509
 30
0.0
 10
14.6747375194
 20
11.3300479994
 30
0.0
 10
14.6789253349
 20
11.317019462
 30
0.0
 10
14.6830193925
 20
11.303586379
 30
0.0
 10
14.6870180737
 20
11.2897542917
 30
0.0
 10
14.6909196988
 20
11.2755288661
 30
0.0
 10
14.6960478807
 20
11.2558234036
 30
0.0
 10
14.7021900187
 20
11.2302438057
 30
0.0
 10
14.7090683732
 20
11.1984094005
 30
0.0
 10
14.7155232919
 20
11.1651533502
 30
0.0
 10
14.7215440348
 20
11.1305304643
 30
0.0
 10
14.7271205781
 20
11.0945976434
 30
0.0
 10
14.7322436301
 20
11.0574140465
 30
0.0
 10
14.7369046492
 20
11.0190408989
 30
0.0
 10
14.7410958552
 20
10.9795414219
 30
0.0
 10
14.7448102749
 20
10.9389807194
 30
0.0
 10
14.7480417188
 20
10.8974256714
 30
0.0
 10
14.7507848015
 20
10.8549447977
 30
0.0
 10
14.7530349404
 20
10.8116081228
 30
0.0
 10
14.7547883546
 20
10.7674872769
 30
0.0
 10
14.7560421868
 20
10.7226546551
 30
0.0
 10
14.7567942325
 20
10.6771847537
 30
0.0
 10
14.7569593732
 20
10.646666369
 30
0.0
 10
14.7569593732
 20
10.6313146343
 30
0.0
  0
SPLINE
  5
34F
100
AcDbEntity
  8
0
100
AcDbSpline
 62
7
  6
CONTINUOUS
 70
0
 71
3
 72
62
 73
58
 74
0
 42
0.0000001
 43
0.0000001
 44
0.0000000001
 40
0.0
 40
0.0
 40
0.0
 40
0.0
 40
0.0427953947
 40
0.0861053008
 40
0.1297856944
 40
0.1736908756
 40
0.2176742457
 40
0.261588852
 40
0.3052880413
 40
0.3486260722
 40
0.3914587437
 40
0.4336440238
 40
0.4750426852
 40
0.5155189514
 40
0.554941158
 40
0.5931824368
 40
0.6118223117
 40
0.630121951
 40
0.6480671385
 40
0.6656441757
 40
0.6828397626
 40
0.6996411782
 40
0.7160361613
 40
0.7320130999
 40
0.7475609157
 40
0.7626692628
 40
0.7773284218
 40
0.7915295094
 40
0.8052643884
 40
0.8185258932
 40
0.8313077649
 40
0.8436048998
 40
0.8554133246
 40
0.8667304798
 40
0.8775552564
 40
0.8878883361
 40
0.8977323199
 40
0.9070921586
 40
0.9159754183
 40
0.9243928474
 40
0.9323588315
 40
0.939892141
 40
0.947016602
 40
0.953761997
 40
0.9601648321
 40
0.9662691058
 40
0.9721266645
 40
0.9749823565
 40
0.9777993047
 40
0.9805859948
 40
0.9833512142
 40
0.9861039693
 40
0.9888534033
 40
0.9916086969
 40
0.9943789637
 40
0.9971731598
 40
1.0
 40
1.0
 40
1.0
 40
1.0
 10
14.5993771475
 20
10.5431018852
 30
0.0
 10
14.5993771475
 20
10.527418725
 30
0.0
 10
14.59912319
 20
10.4958633234
 30
0.0
 10
14.5980012678
 20
10.4483124272
 30
0.0
 10
14.596139588
 20
10.4003776529
 30
0.0
 10
14.5935447364
 20
10.3522298716
 30
0.0
 10
14.5902259357
 20
10.3040405346
 30
0.0
 10
14.586195004
 20
10.2559812829
 30
0.0
 10
14.581466319
 20
10.2082232819
 30
0.0
 10
14.5760567631
 20
10.1609366179
 30
0.0
 10
14.5699856657
 20
10.1142896871
 30
0.0
 10
14.5632747351
 20
10.068448585
 30
0.0
 10
14.5559479799
 20
10.0235765275
 30
0.0
 10
14.5480316364
 20
9.9798331939
 30
0.0
 10
14.5395540373
 20
9.9373743894
 30
0.0
 10
14.5319840663
 20
9.9029010732
 30
0.0
 10
14.5256606149
 20
9.8760847295
 30
0.0
 10
14.5208374837
 20
9.8565576496
 30
0.0
 10
14.5158977218
 20
9.8374617975
 30
0.0
 10
14.5108457872
 20
9.8188141529
 30
0.0
 10
14.5056861244
 20
9.8006313239
 30
0.0
 10
14.5004234118
 20
9.7829294847
 30
0.0
 10
14.4950622762
 20
9.7657243922
 30
0.0
 10
14.4896075776
 20
9.7490313413
 30
0.0
 10
14.4840641136
 20
9.7328651834
 30
0.0
 10
14.4784369062
 20
9.7172402755
 30
0.0
 10
14.4727309057
 20
9.7021705075
 30
0.0
 10
14.4669512763
 20
9.6876692433
 30
0.0
 10
14.4611031002
 20
9.6737493577
 30
0.0
 10
14.4551916617
 20
9.6604231671
 30
0.0
 10
14.449222151
 20
9.6477024799
 30
0.0
 10
14.4431999459
 20
9.635598513
 30
0.0
 10
14.4371303151
 20
9.624121958
 30
0.0
 10
14.431018695
 20
9.6132828825
 30
0.0
 10
14.4248703928
 20
9.6030908143
 30
0.0
 10
14.4186908541
 20
9.5935546264
 30
0.0
 10
14.4124853655
 20
9.5846826445
 30
0.0
 10
14.4062593066
 20
9.5764825163
 30
0.0
 10
14.4000178529
 20
9.568961353
 30
0.0
 10
14.3937662051
 20
9.5621255911
 30
0.0
 10
14.3875092985
 20
9.5559811882
 30
0.0
 10
14.3812520186
 20
9.5505335011
 30
0.0
 10
14.3749989331
 20
9.5457875666
 30
0.0
 10
14.3687546142
 20
9.5417480312
 30
0.0
 10
14.362523262
 20
9.5384194942
 30
0.0
 10
14.3563101113
 20
9.535806503
 30
0.0
 10
14.3511065821
 20
9.5342156534
 30
0.0
 10
14.3469758195
 20
9.5333172786
 30
0.0
 10
14.3439126276
 20
9.5328293538
 30
0.0
 10
14.3408594279
 20
9.5325219315
 30
0.0
 10
14.3378168996
 20
9.5323950666
 30
0.0
 10
14.3347858373
 20
9.5324488498
 30
0.0
 10
14.3317670195
 20
9.5326833455
 30
0.0
 10
14.3287612364
 20
9.5330984363
 30
0.0
 10
14.3257692207
 20
9.5336939787
 30
0.0
 10
14.3227918423
 20
9.5344697608
 30
0.0
 10
14.3208302276
 20
9.5351027814
 30
0.0
 10
14.3198535246
 20
9.5354480911
 30
0.0
  0
SPLINE
  5
350
100
AcDbEntity
  8
0
100
AcDbSpline
 62
7
  6
CONTINUOUS
 70
0
 71
3
 72
44
 73
40
 74
0
 42
0.0000001
 43
0.0000001
 44
0.0000000001
 40
0.0
 40
0.0
 40
0.0
 40
0.0
 40
0.015166805
 40
0.0303618835
 40
0.0455856256
 40
0.0608383248
 40
0.0914284179
 40
0.1221357166
 40
0.1375345482
 40
0.1529622489
 40
0.1839000514
 40
0.2149483963
 40
0.2461023918
 40
0.2773559157
 40
0.3087016987
 40
0.3401314168
 40
0.3716357946
 40
0.4032047167
 40
0.4348273453
 40
0.466492246
 40
0.4981875162
 40
0.5299009188
 40
0.5616200173
 40
0.5933323123
 40
0.6250253796
 40
0.6566870062
 40
0.688305326
 40
0.7198689521
 40
0.7513671059
 40
0.7827897422
 40
0.8141276632
 40
0.8453726433
 40
0.8609593731
 40
0.8765202576
 40
0.9075590327
 40
0.9384866981
 40
0.9539091558
 40
0.9693032561
 40
1.0
 40
1.0
 40
1.0
 40
1.0
 10
12.0329294307
 20
8.9051634686
 30
0.0
 10
12.0268164048
 20
8.9043778634
 30
0.0
 10
12.0145560557
 20
8.9029778463
 30
0.0
 10
11.9960970657
 20
8.9013940875
 30
0.0
 10
11.9775658531
 20
8.9003257494
 30
0.0
 10
11.9527586519
 20
8.8995888622
 30
0.0
 10
11.9216364127
 20
8.8999631792
 30
0.0
 10
11.8905233024
 20
8.9020567245
 30
0.0
 10
11.8656614679
 20
8.9047573031
 30
0.0
 10
11.8407896946
 20
8.9081471117
 30
0.0
 10
11.8098020329
 20
8.9136656407
 30
0.0
 10
11.7729337698
 20
8.9223048161
 30
0.0
 10
11.7364572623
 20
8.9329410705
 30
0.0
 10
11.7004841965
 20
8.9455418299
 30
0.0
 10
11.6651238209
 20
8.9600686806
 30
0.0
 10
11.6304837525
 20
8.9764773297
 30
0.0
 10
11.5966693464
 20
8.9947177826
 30
0.0
 10
11.5637834609
 20
9.0147344836
 30
0.0
 10
11.5319261232
 20
9.0364664854
 30
0.0
 10
11.5011942285
 20
9.0598476279
 30
0.0
 10
11.4716812506
 20
9.0848067482
 30
0.0
 10
11.4434769598
 20
9.111267895
 30
0.0
 10
11.4166671512
 20
9.1391505587
 30
0.0
 10
11.3913333864
 20
9.1683699147
 30
0.0
 10
11.3675527462
 20
9.1988370794
 30
0.0
 10
11.3453975979
 20
9.2304593806
 30
0.0
 10
11.3249353767
 20
9.2631406309
 30
0.0
 10
11.3062283788
 20
9.2967814407
 30
0.0
 10
11.289333581
 20
9.3312794354
 30
0.0
 10
11.2743024065
 20
9.3665298583
 30
0.0
 10
11.2611808107
 20
9.4024248104
 30
0.0
 10
11.2518628116
 20
9.4328100137
 30
0.0
 10
11.2454027453
 20
9.4573302421
 30
0.0
 10
11.239618909
 20
9.4819326882
 30
0.0
 10
11.2336428442
 20
9.5128817097
 30
0.0
 10
11.2293526174
 20
9.5440525135
 30
0.0
 10
11.226948098
 20
9.5690307653
 30
0.0
 10
11.2252322739
 20
9.5939710093
 30
0.0
 10
11.2247141187
 20
9.6127061016
 30
0.0
 10
11.2247141187
 20
9.6251802668
 30
0.0
  0
SPLINE
  5
351
100
AcDbEntity
  8
0
100
AcDbSpline
 62
7
  6
CONTINUOUS
 70
0
 71
3
 72
37
 73
33
 74
0
 42
0.0000001
 43
0.0000001
 44
0.0000000001
 40
0.0
 40
0.0
 40
0.0
 40
0.0
 40
0.030746918
 40
0.0615815023
 40
0.0925011026
 40
0.1235024444
 40
0.1545816684
 40
0.1857343632
 40
0.2169555911
 40
0.2482399297
 40
0.2795815213
 40
0.3109741067
 40
0.3424110691
 40
0.3738854909
 40
0.4053901977
 40
0.436917802
 40
0.4999984781
 40
0.5630792119
 40
0.5946068887
 40
0.6261116954
 40
0.6575862445
 40
0.6890233615
 40
0.7204161266
 40
0.7517579215
 40
0.7830424876
 40
0.8142639635
 40
0.8454169239
 40
0.8764964393
 40
0.9074980723
 40
0.9384179765
 40
0.9692529811
 40
1.0
 40
1.0
 40
1.0
 40
1.0
 10
12.0042252656
 20
9.0817024329
 30
0.0
 10
11.9948806005
 20
9.0830335535
 30
0.0
 10
11.9762193593
 20
9.0861012028
 30
0.0
 10
11.9484119103
 20
9.091896926
 30
0.0
 10
11.9207983613
 20
9.0988830974
 30
0.0
 10
11.8934314525
 20
9.1070463576
 30
0.0
 10
11.8663625849
 20
9.11637126
 30
0.0
 10
11.8396428577
 20
9.1268402348
 30
0.0
 10
11.8133226522
 20
9.1384335543
 30
0.0
 10
11.7874515601
 20
9.1511292557
 30
0.0
 10
11.762078351
 20
9.1649033931
 30
0.0
 10
11.7372509085
 20
9.1797300437
 30
0.0
 10
11.7130159755
 20
9.1955812046
 30
0.0
 10
11.689419326
 20
9.2124268458
 30
0.0
 10
11.666505082
 20
9.2302356538
 30
0.0
 10
11.6369192767
 20
9.2552206849
 30
0.0
 10
11.6018608377
 20
9.288684214
 30
0.0
 10
11.5696267992
 20
9.3248763508
 30
0.0
 10
11.5456773509
 20
9.3553066164
 30
0.0
 10
11.5286696777
 20
9.3788217309
 30
0.0
 10
11.5126481047
 20
9.4029856185
 30
0.0
 10
11.4976424218
 20
9.4277531168
 30
0.0
 10
11.4836810834
 20
9.4530774538
 30
0.0
 10
11.4707904328
 20
9.4789109306
 30
0.0
 10
11.4589947269
 20
9.5052047999
 30
0.0
 10
11.4483162354
 20
9.5319095034
 30
0.0
 10
11.4387751949
 20
9.5589747203
 30
0.0
 10
11.4303895598
 20
9.5863494058
 30
0.0
 10
11.4231751399
 20
9.6139818902
 30
0.0
 10
11.4171456096
 20
9.6418203028
 30
0.0
 10
11.4123125314
 20
9.6698113787
 30
0.0
 10
11.409890347
 20
9.6885674827
 30
0.0
 10
11.4088823304
 20
9.6979525312
 30
0.0
  0
SPLINE
  5
352
100
AcDbEntity
  8
0
100
AcDbSpline
 62
7
  6
CONTINUOUS
 70
0
 71
3
 72
36
 73
32
 74
0
 42
0.0000001
 43
0.0000001
 44
0.0000000001
 40
0.0
 40
0.0
 40
0.0
 40
0.0
 40
0.0348955964
 40
0.0701091963
 40
0.1055811443
 40
0.1412567476
 40
0.2129885257
 40
0.2848458815
 40
0.356368676
 40
0.3918619458
 40
0.4271004656
 40
0.4620280931
 40
0.4965893205
 40
0.5307294303
 40
0.5643945643
 40
0.5975318518
 40
0.6300895968
 40
0.6620173364
 40
0.6932659645
 40
0.7237879598
 40
0.7535374523
 40
0.7824703463
 40
0.8105445948
 40
0.8377203128
 40
0.8639599164
 40
0.8892284636
 40
0.9134938777
 40
0.9367271565
 40
0.9589028416
 40
0.9799994706
 40
1.0
 40
1.0
 40
1.0
 40
1.0
 10
14.3716163878
 20
10.5431018722
 30
0.0
 10
14.3716163878
 20
10.5330545902
 30
0.0
 10
14.371504056
 20
10.5128682968
 30
0.0
 10
14.3710050609
 20
10.4824724914
 30
0.0
 10
14.3701754621
 20
10.4518591856
 30
0.0
 10
14.3686276429
 20
10.4107493006
 30
0.0
 10
14.3658778318
 20
10.3592038894
 30
0.0
 10
14.3613033769
 20
10.2974329827
 30
0.0
 10
14.356438062
 20
10.2461572103
 30
0.0
 10
14.3519247054
 20
10.205447487
 30
0.0
 10
14.3482501399
 20
10.1752477164
 30
0.0
 10
14.3442839044
 20
10.1453555725
 30
0.0
 10
14.3400327478
 20
10.115822072
 30
0.0
 10
14.3355039832
 20
10.0866976605
 30
0.0
 10
14.3307053521
 20
10.0580320766
 30
0.0
 10
14.3256450512
 20
10.0298742758
 30
0.0
 10
14.3203317778
 20
10.0022723301
 30
0.0
 10
14.3147746326
 20
9.975273365
 30
0.0
 10
14.3089831083
 20
9.9489234751
 30
0.0
 10
14.3029671596
 20
9.9232676236
 30
0.0
 10
14.2967371056
 20
9.8983495841
 30
0.0
 10
14.2903035949
 20
9.8742118704
 30
0.0
 10
14.283677682
 20
9.8508956308
 30
0.0
 10
14.2768707472
 20
9.8284405938
 30
0.0
 10
14.2698944315
 20
9.8068850119
 30
0.0
 10
14.2627607118
 20
9.7862655587
 30
0.0
 10
14.2554818414
 20
9.7666172567
 30
0.0
 10
14.2480702736
 20
9.7479734808
 30
0.0
 10
14.240538646
 20
9.7303657153
 30
0.0
 10
14.2329000007
 20
9.7138239523
 30
0.0
 10
14.2276022247
 20
9.70324036
 30
0.0
 10
14.2249318911
 20
9.6981382839
 30
0.0
  0
SPLINE
  5
353
100
AcDbEntity
  8
0
100
AcDbSpline
 62
7
  6
CONTINUOUS
 70
0
 71
3
 72
28
 73
24
 74
0
 42
0.0000001
 43
0.0000001
 44
0.0000000001
 40
0.0
 40
0.0
 40
0.0
 40
0.0
 40
0.0663188078
 40
0.1335199809
 40
0.2013033635
 40
0.2693637459
 40
0.337395201
 40
0.4050916927
 40
0.4721491693
 40
0.5382672294
 40
0.6031509096
 40
0.6665124763
 40
0.7280732529
 40
0.7580946787
 40
0.7875664629
 40
0.8164572428
 40
0.844736463
 40
0.872374705
 40
0.8993435412
 40
0.9256157619
 40
0.9511654219
 40
0.9759678599
 40
1.0
 40
1.0
 40
1.0
 40
1.0
 10
14.2968442806
 20
10.5319287362
 30
0.0
 10
14.2968442806
 20
10.5164092457
 30
0.0
 10
14.2965522691
 20
10.4851630844
 30
0.0
 10
14.2952661063
 20
10.4380706195
 30
0.0
 10
14.2931343482
 20
10.3906007758
 30
0.0
 10
14.2901671112
 20
10.3429812251
 30
0.0
 10
14.2863786342
 20
10.2954403465
 30
0.0
 10
14.281787094
 20
10.2482060614
 30
0.0
 10
14.2764145794
 20
10.2015048333
 30
0.0
 10
14.2702869587
 20
10.1555605543
 30
0.0
 10
14.2634337779
 20
10.1105933897
 30
0.0
 10
14.2558880841
 20
10.0668189815
 30
0.0
 10
14.2489971001
 20
10.0312178456
 30
0.0
 10
14.2431549344
 20
10.0034980386
 30
0.0
 10
14.2386602241
 20
9.9833087999
 30
0.0
 10
14.2340214032
 20
9.9635707568
 30
0.0
 10
14.2292439461
 20
9.9443075568
 30
0.0
 10
14.2243336746
 20
9.9255422899
 30
0.0
 10
14.2192964486
 20
9.9072974445
 30
0.0
 10
14.2141383467
 20
9.8895948824
 30
0.0
 10
14.2088655867
 20
9.8724557826
 30
0.0
 10
14.2034844866
 20
9.8559007405
 30
0.0
 10
14.1997694726
 20
9.8450927662
 30
0.0
 10
14.1978929467
 20
9.8397912323
 30
0.0
  0
SPLINE
  5
354
100
AcDbEntity
  8
0
100
AcDbSpline
 62
7
  6
CONTINUOUS
 70
0
 71
3
 72
39
 73
35
 74
0
 42
0.0000001
 43
0.0000001
 44
0.0000000001
 40
0.0
 40
0.0
 40
0.0
 40
0.0
 40
0.0315206499
 40
0.0629611014
 40
0.0943254206
 40
0.1256182265
 40
0.1568446568
 40
0.1880103398
 40
0.2191213576
 40
0.2501841974
 40
0.2812057044
 40
0.3121930389
 40
0.34315362
 40
0.3740950663
 40
0.4050251417
 40
0.4359516997
 40
0.4668826198
 40
0.4978257455
 40
0.5287888287
 40
0.5597794727
 40
0.5908050697
 40
0.6218727455
 40
0.6529893126
 40
0.6841612191
 40
0.7153944967
 40
0.7466947202
 40
0.7780669819
 40
0.8095158436
 40
0.8410452737
 40
0.8726587846
 40
0.9043591251
 40
0.9361481565
 40
0.9680290551
 40
1.0
 40
1.0
 40
1.0
 40
1.0
 10
11.0411307721
 20
9.73279709
 30
0.0
 10
11.0303513493
 20
9.7308371452
 30
0.0
 10
11.0089003462
 20
9.7264636648
 30
0.0
 10
10.9770755907
 20
9.7185420386
 30
0.0
 10
10.9456964098
 20
9.709280788
 30
0.0
 10
10.9148173702
 20
9.6986958708
 30
0.0
 10
10.884491244
 20
9.6868052875
 30
0.0
 10
10.8547700793
 20
9.6736294433
 30
0.0
 10
10.8257048095
 20
9.6591909417
 30
0.0
 10
10.7973453076
 20
9.6435144686
 30
0.0
 10
10.7697402393
 20
9.6266268467
 30
0.0
 10
10.7429369103
 20
9.6085570899
 30
0.0
 10
10.7169812918
 20
9.5893361654
 30
0.0
 10
10.6919179569
 20
9.5689969571
 30
0.0
 10
10.6677898624
 20
9.5475743852
 30
0.0
 10
10.6446383592
 20
9.5251052155
 30
0.0
 10
10.6225031901
 20
9.50162794
 30
0.0
 10
10.6014223397
 20
9.4771828068
 30
0.0
 10
10.5814318918
 20
9.4518117994
 30
0.0
 10
10.5625661217
 20
9.4255584252
 30
0.0
 10
10.5448574382
 20
9.398467668
 30
0.0
 10
10.5283361378
 20
9.3705860343
 30
0.0
 10
10.5130304953
 20
9.3419613613
 30
0.0
 10
10.4989667836
 20
9.3126427117
 30
0.0
 10
10.4861691068
 20
9.2826803638
 30
0.0
 10
10.4746593001
 20
9.2521257308
 30
0.0
 10
10.4644570742
 20
9.2210311942
 30
0.0
 10
10.4555799681
 20
9.1894500519
 30
0.0
 10
10.4480430635
 20
9.1574364603
 30
0.0
 10
10.4418592493
 20
9.1250452841
 30
0.0
 10
10.4370391601
 20
9.0923322033
 30
0.0
 10
10.433590845
 20
9.0593526936
 30
0.0
 10
10.4315204842
 20
9.026164525
 30
0.0
 10
10.4310615878
 20
9.0039676878
 30
0.0
 10
10.4310615878
 20
8.9928550159
 30
0.0
  0
SPLINE
  5
355
100
AcDbEntity
  8
0
100
AcDbSpline
 62
7
  6
CONTINUOUS
 70
0
 71
3
 72
54
 73
50
 74
0
 42
0.0000001
 43
0.0000001
 44
0.0000000001
 40
0.0
 40
0.0
 40
0.0
 40
0.0
 40
0.0499774976
 40
0.0993158726
 40
0.1479274444
 40
0.1957330614
 40
0.2426522441
 40
0.2886071664
 40
0.3335224668
 40
0.3773250835
 40
0.4199448324
 40
0.461314559
 40
0.5013703557
 40
0.5400519278
 40
0.5773030155
 40
0.6130716862
 40
0.6473107772
 40
0.6799785629
 40
0.7110394088
 40
0.7259584109
 40
0.7404655449
 40
0.7545583898
 40
0.7682352653
 40
0.7814950226
 40
0.7943371717
 40
0.8067621193
 40
0.8187709677
 40
0.8303657946
 40
0.8415497853
 40
0.8523271309
 40
0.8627034278
 40
0.8726857178
 40
0.8822825588
 40
0.8915044872
 40
0.9003640253
 40
0.9088759518
 40
0.9170577374
 40
0.924929577
 40
0.9325147665
 40
0.9398399583
 40
0.946935137
 40
0.9538337905
 40
0.9605727132
 40
0.9671916183
 40
0.9737326777
 40
0.9802396989
 40
0.9867572426
 40
0.993329631
 40
1.0
 40
1.0
 40
1.0
 40
1.0
 10
14.5993771475
 20
10.5431018852
 30
0.0
 10
14.5993771475
 20
10.5541975508
 30
0.0
 10
14.5992515167
 20
10.5762472127
 30
0.0
 10
14.5986790922
 20
10.6090848119
 30
0.0
 10
14.5977247516
 20
10.6414312182
 30
0.0
 10
14.5963903681
 20
10.6732266484
 30
0.0
 10
14.5946783586
 20
10.7044133521
 30
0.0
 10
14.5925919236
 20
10.734934147
 30
0.0
 10
14.5901349367
 20
10.7647332034
 30
0.0
 10
14.5873119147
 20
10.7937560338
 30
0.0
 10
14.5841281001
 20
10.8219495669
 30
0.0
 10
14.580589398
 20
10.8492622802
 30
0.0
 10
14.5767023452
 20
10.8756442697
 30
0.0
 10
14.5724741178
 20
10.9010473603
 30
0.0
 10
14.5679125657
 20
10.9254252224
 30
0.0
 10
14.5630261303
 20
10.9487334177
 30
0.0
 10
14.5578238251
 20
10.9709295779
 30
0.0
 10
14.5523152442
 20
10.9919731998
 30
0.0
 10
14.5474145304
 20
11.008735214
 30
0.0
 10
14.5433375928
 20
11.0215308474
 30
0.0
 10
14.5402508001
 20
11.0306867927
 30
0.0
 10
14.5370951745
 20
11.0395269901
 30
0.0
 10
14.5338721973
 20
11.0480474495
 30
0.0
 10
14.5305833312
 20
11.056244294
 30
0.0
 10
14.5272300184
 20
11.0641137848
 30
0.0
 10
14.5238138607
 20
11.0716523834
 30
0.0
 10
14.5203363509
 20
11.0788566619
 30
0.0
 10
14.5167990394
 20
11.0857233569
 30
0.0
 10
14.513203582
 20
11.0922494066
 30
0.0
 10
14.5095514956
 20
11.0984318364
 30
0.0
 10
14.5058444218
 20
11.104267882
 30
0.0
 10
14.5020840225
 20
11.1097549541
 30
0.0
 10
14.4982718239
 20
11.1148905296
 30
0.0
 10
14.4944095204
 20
11.1196723443
 30
0.0
 10
14.4904987245
 20
11.1240982396
 30
0.0
 10
14.4865409673
 20
11.1281661158
 30
0.0
 10
14.4825379437
 20
11.1318741492
 30
0.0
 10
14.4784912035
 20
11.1352205012
 30
0.0
 10
14.4744023311
 20
11.1382034152
 30
0.0
 10
14.4702730533
 20
11.1408213662
 30
0.0
 10
14.4661050143
 20
11.1430726908
 30
0.0
 10
14.4619000704
 20
11.144955922
 30
0.0
 10
14.4576602401
 20
11.1464697823
 30
0.0
 10
14.4533876449
 20
11.1476129089
 30
0.0
 10
14.4490846894
 20
11.148384437
 30
0.0
 10
14.4447539165
 20
11.1487837429
 30
0.0
 10
14.440397853
 20
11.1488103744
 30
0.0
 10
14.4360194916
 20
11.1484646647
 30
0.0
 10
14.4331140203
 20
11.1479905563
 30
0.0
 10
14.4316630293
 20
11.147694381
 30
0.0
  0
SPLINE
  5
356
100
AcDbEntity
  8
0
100
AcDbSpline
 62
7
  6
CONTINUOUS
 70
0
 71
3
 72
27
 73
23
 74
0
 42
0.0000001
 43
0.0000001
 44
0.0000000001
 40
0.0
 40
0.0
 40
0.0
 40
0.0
 40
0.0762050691
 40
0.1512743835
 40
0.2250385058
 40
0.2973392456
 40
0.3680186844
 40
0.4369253165
 40
0.5039128872
 40
0.5688413638
 40
0.6315775871
 40
0.6919959517
 40
0.7499792518
 40
0.8054196641
 40
0.8321560649
 40
0.8582211232
 40
0.8836046552
 40
0.9082970609
 40
0.9322898731
 40
0.9555754786
 40
0.9781472778
 40
1.0
 40
1.0
 40
1.0
 40
1.0
 10
14.3716163878
 20
10.5431018722
 30
0.0
 10
14.3716163878
 20
10.5548345837
 30
0.0
 10
14.3714650902
 20
10.5781254555
 30
0.0
 10
14.3707744513
 20
10.6127670563
 30
0.0
 10
14.3696232477
 20
10.6467950724
 30
0.0
 10
14.3680143921
 20
10.6801279302
 30
0.0
 10
14.3659517105
 20
10.7126865371
 30
0.0
 10
14.3634402239
 20
10.7443931773
 30
0.0
 10
14.3604860043
 20
10.7751723699
 30
0.0
 10
14.3570962055
 20
10.8049508354
 30
0.0
 10
14.3532790264
 20
10.8336577006
 30
0.0
 10
14.3490437034
 20
10.8612247432
 30
0.0
 10
14.344400448
 20
10.8875863062
 30
0.0
 10
14.3401508178
 20
10.9087456678
 30
0.0
 10
14.3365447719
 20
10.9250164738
 30
0.0
 10
14.3337780074
 20
10.9367321669
 30
0.0
 10
14.3309180858
 20
10.9481012524
 30
0.0
 10
14.3279666057
 20
10.959116978
 30
0.0
 10
14.324925398
 20
10.9697727961
 30
0.0
 10
14.3217962627
 20
10.980062398
 30
0.0
 10
14.3185810414
 20
10.9899796115
 30
0.0
 10
14.3163451191
 20
10.9964441112
 30
0.0
 10
14.3152117471
 20
10.999611966
 30
0.0
  0
SPLINE
  5
357
100
AcDbEntity
  8
0
100
AcDbSpline
 62
7
  6
CONTINUOUS
 70
0
 71
3
 72
20
 73
16
 74
0
 42
0.0000001
 43
0.0000001
 44
0.0000000001
 40
0.0
 40
0.0
 40
0.0
 40
0.0
 40
0.1405840015
 40
0.2779087567
 40
0.4113435594
 40
0.4764114057
 40
0.5402804926
 40
0.6028794673
 40
0.6641389046
 40
0.7239918481
 40
0.7823738523
 40
0.8392229693
 40
0.8944804198
 40
0.9480902031
 40
1.0
 40
1.0
 40
1.0
 40
1.0
 10
14.2968442806
 20
10.5319287362
 30
0.0
 10
14.2968442806
 20
10.5475222947
 30
0.0
 10
14.2965548834
 20
10.578348826
 30
0.0
 10
14.2952252279
 20
10.6239584922
 30
0.0
 10
14.2933653907
 20
10.6611651699
 30
0.0
 10
14.2914252771
 20
10.6902031956
 30
0.0
 10
14.2897650601
 20
10.7113838699
 30
0.0
 10
14.2878897789
 20
10.7321224776
 30
0.0
 10
14.2858017365
 20
10.7523930095
 30
0.0
 10
14.2835035966
 20
10.7721700155
 30
0.0
 10
14.2809982893
 20
10.7914286835
 30
0.0
 10
14.2782889294
 20
10.8101448508
 30
0.0
 10
14.2753790227
 20
10.8282950673
 30
0.0
 10
14.2722721744
 20
10.8458565011
 30
0.0
 10
14.2700355754
 20
10.8573457795
 30
0.0
 10
14.2688826713
 20
10.8629870021
 30
0.0
  0
SPLINE
  5
358
100
AcDbEntity
  8
0
100
AcDbSpline
 62
7
  6
CONTINUOUS
 70
0
 71
3
 72
61
 73
57
 74
0
 42
0.0000001
 43
0.0000001
 44
0.0000000001
 40
0.0
 40
0.0
 40
0.0
 40
0.0
 40
0.0417736088
 40
0.0840360431
 40
0.126657155
 40
0.1695046842
 40
0.2124458378
 40
0.2553473321
 40
0.2980760744
 40
0.3404996436
 40
0.3824868274
 40
0.4239081481
 40
0.4646363976
 40
0.5045471783
 40
0.5435194547
 40
0.5814361204
 40
0.5999634452
 40
0.6181850312
 40
0.6360876424
 40
0.6536583488
 40
0.6708846631
 40
0.6877544565
 40
0.7042560738
 40
0.7203782989
 40
0.7361104104
 40
0.7514422273
 40
0.7663640903
 40
0.7808669935
 40
0.7949425048
 40
0.8085829615
 40
0.8217813757
 40
0.8345316441
 40
0.8468285057
 40
0.8586677174
 40
0.8700461208
 40
0.8809617639
 40
0.8914141105
 40
0.9014041268
 40
0.9109346407
 40
0.9200104579
 40
0.9286388542
 40
0.9368298218
 40
0.9445966692
 40
0.9519564915
 40
0.9589308526
 40
0.9655464796
 40
0.97183593
 40
0.9778382749
 40
0.9807467215
 40
0.9836011958
 40
0.9864085004
 40
0.9891758164
 40
0.9919106777
 40
0.9946209229
 40
0.9973146203
 40
1.0
 40
1.0
 40
1.0
 40
1.0
 10
14.7569593732
 20
7.4920555128
 30
0.0
 10
14.7569593732
 20
7.4700415806
 30
0.0
 10
14.7566159344
 20
7.4257554218
 30
0.0
 10
14.7550976423
 20
7.3590243575
 30
0.0
 10
14.752577662
 20
7.2917571662
 30
0.0
 10
14.7490642415
 20
7.2241764663
 30
0.0
 10
14.744568999
 20
7.1565058873
 30
0.0
 10
14.7391067902
 20
7.0889692878
 30
0.0
 10
14.7326957103
 20
7.0217901107
 30
0.0
 10
14.7253570112
 20
6.9551905992
 30
0.0
 10
14.7171150407
 20
6.8893910696
 30
0.0
 10
14.7079971604
 20
6.8246091682
 30
0.0
 10
14.6980336552
 20
6.7610591661
 30
0.0
 10
14.6872576442
 20
6.6989511615
 30
0.0
 10
14.6757049451
 20
6.6384906605
 30
0.0
 10
14.6653848309
 20
6.5892752598
 30
0.0
 10
14.6567576606
 20
6.5508847512
 30
0.0
 10
14.6501673504
 20
6.5228480433
 30
0.0
 10
14.643412963
 20
6.4953692585
 30
0.0
 10
14.6364999959
 20
6.468471107
 30
0.0
 10
14.6294342604
 20
6.4421758339
 30
0.0
 10
14.6222215533
 20
6.4165051851
 30
0.0
 10
14.6148678986
 20
6.3914803795
 30
0.0
 10
14.6073793749
 20
6.3671221035
 30
0.0
 10
14.5997621866
 20
6.3434504856
 30
0.0
 10
14.5920226821
 20
6.320485077
 30
0.0
 10
14.5841672227
 20
6.2982448497
 30
0.0
 10
14.5762023981
 20
6.2767481492
 30
0.0
 10
14.5681347188
 20
6.2560127247
 30
0.0
 10
14.5599709665
 20
6.2360556516
 30
0.0
 10
14.5517178089
 20
6.216893387
 30
0.0
 10
14.5433821538
 20
6.1985416801
 30
0.0
 10
14.5349708339
 20
6.1810156246
 30
0.0
 10
14.5264908172
 20
6.1643295926
 30
0.0
 10
14.5179490896
 20
6.1484972438
 30
0.0
 10
14.5093526208
 20
6.1335315259
 30
0.0
 10
14.5007085051
 20
6.1194445986
 30
0.0
 10
14.49202366
 20
6.1062479405
 30
0.0
 10
14.4833051958
 20
6.0939521646
 30
0.0
 10
14.474559921
 20
6.0825672419
 30
0.0
 10
14.4657948089
 20
6.0721022407
 30
0.0
 10
14.4570164775
 20
6.0625656203
 30
0.0
 10
14.4482315663
 20
6.0539650126
 30
0.0
 10
14.4394463735
 20
6.0463074772
 30
0.0
 10
14.4306670927
 20
6.0395995342
 30
0.0
 10
14.4218995011
 20
6.0338471663
 30
0.0
 10
14.4131500924
 20
6.0290565477
 30
0.0
 10
14.4058016612
 20
6.0258368482
 30
0.0
 10
14.399954636
 20
6.0237679696
 30
0.0
 10
14.3956250734
 20
6.022475493
 30
0.0
 10
14.3913066422
 20
6.0214264824
 30
0.0
 10
14.387000182
 20
6.0206212481
 30
0.0
 10
14.3827066875
 20
6.0200600994
 30
0.0
 10
14.3784270923
 20
6.0197431636
 30
0.0
 10
14.3741625733
 20
6.0196705492
 30
0.0
 10
14.3713283637
 20
6.0197851854
 30
0.0
 10
14.3699166079
 20
6.0198830847
 30
0.0
  0
SPLINE
  5
359
100
AcDbEntity
  8
0
100
AcDbSpline
 62
7
  6
CONTINUOUS
 70
0
 71
3
 72
23
 73
19
 74
0
 42
0.0000001
 43
0.0000001
 44
0.0000000001
 40
0.0
 40
0.0
 40
0.0
 40
0.0
 40
0.0618603907
 40
0.1239640988
 40
0.1862853195
 40
0.2487942118
 40
0.3114574842
 40
0.3742390306
 40
0.4371006016
 40
0.5000025046
 40
0.5629043217
 40
0.6257656364
 40
0.6885467608
 40
0.7512094533
 40
0.8137176182
 40
0.8760379774
 40
0.9381407091
 40
1.0
 40
1.0
 40
1.0
 40
1.0
 10
11.9478060816
 20
9.2287369863
 30
0.0
 10
11.9359895143
 20
9.2319965347
 30
0.0
 10
11.9125260451
 20
9.2393423293
 30
0.0
 10
11.8781023257
 20
9.2527424166
 30
0.0
 10
11.8445399431
 20
9.2684822332
 30
0.0
 10
11.8120078582
 20
9.2864827251
 30
0.0
 10
11.7806671176
 20
9.306654426
 30
0.0
 10
11.7506735906
 20
9.3288969095
 30
0.0
 10
11.7221762558
 20
9.353099556
 30
0.0
 10
11.6953167231
 20
9.3791420265
 30
0.0
 10
11.6702284702
 20
9.4068948738
 30
0.0
 10
11.6470362019
 20
9.43622018
 30
0.0
 10
11.6258552364
 20
9.4669722181
 30
0.0
 10
11.6067909204
 20
9.4989982373
 30
0.0
 10
11.5899381725
 20
9.5321389564
 30
0.0
 10
11.5753807772
 20
9.5662303043
 30
0.0
 10
11.5631918434
 20
9.6011006609
 30
0.0
 10
11.5566705157
 20
9.6248060864
 30
0.0
 10
11.553825925
 20
9.6367291263
 30
0.0
  0
SPLINE
  5
35A
100
AcDbEntity
  8
0
100
AcDbSpline
 62
7
  6
CONTINUOUS
 70
0
 71
3
 72
23
 73
19
 74
0
 42
0.0000001
 43
0.0000001
 44
0.0000000001
 40
0.0
 40
0.0
 40
0.0
 40
0.0
 40
0.0924152724
 40
0.1807004833
 40
0.2648548765
 40
0.3448832902
 40
0.4207988331
 40
0.4926232421
 40
0.5603872164
 40
0.6241305888
 40
0.6839024371
 40
0.7397679849
 40
0.7918134196
 40
0.8401488061
 40
0.8849175374
 40
0.9263081859
 40
0.9645644431
 40
1.0
 40
1.0
 40
1.0
 40
1.0
 10
10.0586455319
 20
6.6721419231
 30
0.0
 10
10.0576901193
 20
6.6712190653
 30
0.0
 10
10.0558378536
 20
6.669398058
 30
0.0
 10
10.0531759419
 20
6.6666761572
 30
0.0
 10
10.0506948528
 20
6.664027551
 30
0.0
 10
10.048395575
 20
6.6614535175
 30
0.0
 10
10.0462787405
 20
6.6589555701
 30
0.0
 10
10.0443447268
 20
6.6565353616
 30
0.0
 10
10.0425939754
 20
6.6541944782
 30
0.0
 10
10.0410268659
 20
6.6519346586
 30
0.0
 10
10.0396434411
 20
6.6497579645
 30
0.0
 10
10.0384438066
 20
6.6476664409
 30
0.0
 10
10.0374281427
 20
6.6456621363
 30
0.0
 10
10.0365962409
 20
6.643747328
 30
0.0
 10
10.0359478773
 20
6.6419243164
 30
0.0
 10
10.0354830585
 20
6.6401951872
 30
0.0
 10
10.035201711
 20
6.6385626217
 30
0.0
 10
10.0351341876
 20
6.6375027261
 30
0.0
 10
10.0351344137
 20
6.6369933908
 30
0.0
  0
SPLINE
  5
35B
100
AcDbEntity
  8
0
100
AcDbSpline
 62
7
  6
CONTINUOUS
 70
0
 71
3
 72
26
 73
22
 74
0
 42
0.0000001
 43
0.0000001
 44
0.0000000001
 40
0.0
 40
0.0
 40
0.0
 40
0.0
 40
0.0617092224
 40
0.0925729861
 40
0.1234446505
 40
0.1852169763
 40
0.2470517586
 40
0.2780013275
 40
0.3089738786
 40
0.3709922214
 40
0.4331298083
 40
0.4954034066
 40
0.5578284213
 40
0.6204187786
 40
0.6831867415
 40
0.7146430811
 40
0.7461476607
 40
0.8093008765
 40
0.8726570625
 40
0.9362237834
 40
1.0
 40
1.0
 40
1.0
 40
1.0
 10
10.8291226812
 20
9.5628534858
 30
0.0
 10
10.8212413304
 20
9.5552406589
 30
0.0
 10
10.8097090934
 20
9.5435131488
 30
0.0
 10
10.7949531665
 20
9.527301273
 30
0.0
 10
10.7806109791
 20
9.5107067754
 30
0.0
 10
10.7634793247
 20
9.489267265
 30
0.0
 10
10.7474616415
 20
9.4669661671
 30
0.0
 10
10.7353348055
 20
9.4486371416
 30
0.0
 10
10.7236629388
 20
9.4299766745
 30
0.0
 10
10.709953452
 20
9.4060695175
 30
0.0
 10
10.694960181
 20
9.3765396938
 30
0.0
 10
10.6814512291
 20
9.3462226141
 30
0.0
 10
10.6694579337
 20
9.3151885362
 30
0.0
 10
10.6590079273
 20
9.283509402
 30
0.0
 10
10.6516107016
 20
9.2566514757
 30
0.0
 10
10.6464858303
 20
9.2349200088
 30
0.0
 10
10.6418853187
 20
9.2130015928
 30
0.0
 10
10.6371390849
 20
9.1853350273
 30
0.0
 10
10.6330656704
 20
9.1518166405
 30
0.0
 10
10.6306191257
 20
9.1180300093
 30
0.0
 10
10.630077084
 20
9.0954139536
 30
0.0
 10
10.630077084
 20
9.0840892349
 30
0.0
  0
SPLINE
  5
35C
100
AcDbEntity
  8
0
100
AcDbSpline
 62
7
  6
CONTINUOUS
 70
0
 71
3
 72
25
 73
21
 74
0
 42
0.0000001
 43
0.0000001
 44
0.0000000001
 40
0.0
 40
0.0
 40
0.0
 40
0.0
 40
0.0616698585
 40
0.0925221144
 40
0.1233873692
 40
0.1851610503
 40
0.2470116891
 40
0.2779729665
 40
0.308959368
 40
0.3710107408
 40
0.4331841913
 40
0.4954928703
 40
0.5579488032
 40
0.6205628041
 40
0.6833443175
 40
0.7463016016
 40
0.8094414048
 40
0.872768098
 40
0.9362885602
 40
1.0
 40
1.0
 40
1.0
 40
1.0
 10
10.718708324
 20
9.5650605591
 30
0.0
 10
10.7112548959
 20
9.5567888432
 30
0.0
 10
10.7003626781
 20
9.5441129181
 30
0.0
 10
10.6864479624
 20
9.5267138341
 30
0.0
 10
10.6729342305
 20
9.5089773967
 30
0.0
 10
10.656815402
 20
9.4862002196
 30
0.0
 10
10.6417718639
 20
9.4626784119
 30
0.0
 10
10.6303951339
 20
9.4434366988
 30
0.0
 10
10.6194524258
 20
9.4239033712
 30
0.0
 10
10.6066140048
 20
9.3989817342
 30
0.0
 10
10.5925912763
 20
9.3683486524
 30
0.0
 10
10.5799711449
 20
9.3370325043
 30
0.0
 10
10.568778246
 20
9.3050942353
 30
0.0
 10
10.5590340909
 20
9.2725955172
 30
0.0
 10
10.5507574206
 20
9.2395992264
 30
0.0
 10
10.5439642048
 20
9.2061691034
 30
0.0
 10
10.5386676445
 20
9.1723699567
 30
0.0
 10
10.5348776384
 20
9.138266511
 30
0.0
 10
10.5326018534
 20
9.1039260225
 30
0.0
 10
10.5320975068
 20
9.0809512301
 30
0.0
 10
10.5320975068
 20
9.0694482252
 30
0.0
  0
SPLINE
  5
35D
100
AcDbEntity
  8
0
100
AcDbSpline
 62
7
  6
CONTINUOUS
 70
0
 71
3
 72
26
 73
22
 74
0
 42
0.0000001
 43
0.0000001
 44
0.0000000001
 40
0.0
 40
0.0
 40
0.0
 40
0.0
 40
0.0617092235
 40
0.0925729854
 40
0.1234446509
 40
0.1852169748
 40
0.2470517571
 40
0.2780013275
 40
0.3089738777
 40
0.3709922222
 40
0.4331298084
 40
0.4954034049
 40
0.5578284199
 40
0.6204187753
 40
0.6831867461
 40
0.7146430864
 40
0.7461476576
 40
0.8093008659
 40
0.872657114
 40
0.9362236724
 40
1.0
 40
1.0
 40
1.0
 40
1.0
 10
10.6814999936
 20
9.5314871985
 30
0.0
 10
10.6727596312
 20
9.5230446445
 30
0.0
 10
10.6599705191
 20
9.5100388887
 30
0.0
 10
10.6436062721
 20
9.4920600917
 30
0.0
 10
10.6277009573
 20
9.4736568829
 30
0.0
 10
10.608702065
 20
9.4498806669
 30
0.0
 10
10.5909385517
 20
9.4251489525
 30
0.0
 10
10.5774900443
 20
9.4048221774
 30
0.0
 10
10.564545979
 20
9.3841279094
 30
0.0
 10
10.5493423167
 20
9.3576150392
 30
0.0
 10
10.5327149006
 20
9.3248667084
 30
0.0
 10
10.5177335752
 20
9.2912453187
 30
0.0
 10
10.5044331003
 20
9.2568287841
 30
0.0
 10
10.492844121
 20
9.2216968837
 30
0.0
 10
10.4846406799
 20
9.191911656
 30
0.0
 10
10.4789572227
 20
9.1678116406
 30
0.0
 10
10.4738553137
 20
9.1435042951
 30
0.0
 10
10.4685917598
 20
9.1128222945
 30
0.0
 10
10.4640743896
 20
9.075650697
 30
0.0
 10
10.4613611767
 20
9.0381815983
 30
0.0
 10
10.460760066
 20
9.0131005871
 30
0.0
 10
10.460760066
 20
9.0005415447
 30
0.0
  0
SPLINE
  5
35E
100
AcDbEntity
  8
0
100
AcDbSpline
 62
7
  6
CONTINUOUS
 70
0
 71
3
 72
25
 73
21
 74
0
 42
0.0000001
 43
0.0000001
 44
0.0000000001
 40
0.0
 40
0.0
 40
0.0
 40
0.0
 40
0.0616739827
 40
0.1233885017
 40
0.1851611334
 40
0.2470089423
 40
0.2779683585
 40
0.3089526602
 40
0.3709992415
 40
0.4331676999
 40
0.49547167
 40
0.5579236192
 40
0.6205347777
 40
0.6833149774
 40
0.7147732343
 40
0.7462768529
 40
0.8094192768
 40
0.8727509238
 40
0.9362784945
 40
1.0
 40
1.0
 40
1.0
 40
1.0
 10
10.6083002544
 20
9.5242836113
 30
0.0
 10
10.6002275736
 20
9.5155000468
 30
0.0
 10
10.5844937906
 20
9.4975387174
 30
0.0
 10
10.5621961969
 20
9.4694932797
 30
0.0
 10
10.5412380819
 20
9.4403912711
 30
0.0
 10
10.5249293568
 20
9.415315218
 30
0.0
 10
10.512593994
 20
9.3947893937
 30
0.0
 10
10.5007282376
 20
9.3739443077
 30
0.0
 10
10.4868045835
 20
9.347334254
 30
0.0
 10
10.4715939188
 20
9.3146042363
 30
0.0
 10
10.4579025855
 20
9.2811251016
 30
0.0
 10
10.4457579289
 20
9.2469636153
 30
0.0
 10
10.4351839999
 20
9.2121879382
 30
0.0
 10
10.4277035779
 20
9.1827727261
 30
0.0
 10
10.4225229539
 20
9.1590063697
 30
0.0
 10
10.4178739507
 20
9.1350589263
 30
0.0
 10
10.4130793325
 20
9.1048677938
 30
0.0
 10
10.4089653904
 20
9.0683337848
 30
0.0
 10
10.4064949579
 20
9.0315401955
 30
0.0
 10
10.4059475148
 20
9.0069225008
 30
0.0
 10
10.4059475148
 20
8.9945966828
 30
0.0
  0
SPLINE
  5
35F
100
AcDbEntity
  8
0
100
AcDbSpline
 62
7
  6
CONTINUOUS
 70
0
 71
3
 72
39
 73
35
 74
0
 42
0.0000001
 43
0.0000001
 44
0.0000000001
 40
0.0
 40
0.0
 40
0.0
 40
0.0
 40
0.0307220853
 40
0.0615353935
 40
0.0924373903
 40
0.123424861
 40
0.1544939419
 40
0.1856401473
 40
0.216858407
 40
0.2481431177
 40
0.279488184
 40
0.3108870598
 40
0.3423328045
 40
0.3738181397
 40
0.4053354964
 40
0.4368770697
 40
0.4684348836
 40
0.5000008462
 40
0.5315668019
 40
0.5631245966
 40
0.5946661387
 40
0.6261834514
 40
0.6576687301
 40
0.6891144075
 40
0.7205132048
 40
0.7518581812
 40
0.7831427931
 40
0.8143609439
 40
0.8455070329
 40
0.876575995
 40
0.9075633128
 40
0.9384652097
 40
0.9692784105
 40
1.0
 40
1.0
 40
1.0
 40
1.0
 10
12.0109152888
 20
9.0557752981
 30
0.0
 10
12.0009998881
 20
9.0569887789
 30
0.0
 10
11.9811906537
 20
9.0598588726
 30
0.0
 10
11.9516537764
 20
9.0654715575
 30
0.0
 10
11.92230535
 20
9.0723872569
 30
0.0
 10
11.8932047179
 20
9.0805920006
 30
0.0
 10
11.8644097648
 20
9.0900694171
 30
0.0
 10
11.8359780447
 20
9.1008006078
 30
0.0
 10
11.8079662677
 20
9.1127640522
 30
0.0
 10
11.7804303339
 20
9.1259358257
 30
0.0
 10
11.7534252199
 20
9.140289661
 30
0.0
 10
11.7270048321
 20
9.1557968975
 30
0.0
 10
11.7012218637
 20
9.1724265046
 30
0.0
 10
11.6761277682
 20
9.1901452806
 30
0.0
 10
11.6517726692
 20
9.2089179059
 30
0.0
 10
11.6282051503
 20
9.2287068663
 30
0.0
 10
11.6054722186
 20
9.2494726273
 30
0.0
 10
11.5836192627
 20
9.2711737617
 30
0.0
 10
11.5626899428
 20
9.2937669927
 30
0.0
 10
11.5427259821
 20
9.3172071746
 30
0.0
 10
11.5237672189
 20
9.3414475196
 30
0.0
 10
11.5058515472
 20
9.3664396862
 30
0.0
 10
11.4890147428
 20
9.3921337964
 30
0.0
 10
11.4732903707
 20
9.4184785375
 30
0.0
 10
11.4587098379
 20
9.4454213411
 30
0.0
 10
11.4453023332
 20
9.4729084704
 30
0.0
 10
11.4330945978
 20
9.5008850417
 30
0.0
 10
11.4221109898
 20
9.529295209
 30
0.0
 10
11.4123734953
 20
9.5580822821
 30
0.0
 10
11.4039016427
 20
9.5871888244
 30
0.0
 10
11.3967122846
 20
9.616556671
 30
0.0
 10
11.3908198216
 20
9.6461274153
 30
0.0
 10
11.3862361965
 20
9.6758411482
 30
0.0
 10
11.3840556256
 20
9.6957378932
 30
0.0
 10
11.383187188
 20
9.7056892902
 30
0.0
  0
SPLINE
  5
360
100
AcDbEntity
  8
0
100
AcDbSpline
 62
7
  6
CONTINUOUS
 70
0
 71
3
 72
44
 73
40
 74
0
 42
0.0000001
 43
0.0000001
 44
0.0000000001
 40
0.0
 40
0.0
 40
0.0
 40
0.0
 40
0.0151732875
 40
0.0303748369
 40
0.0456050022
 40
0.060864052
 40
0.0914665415
 40
0.122185615
 40
0.1375900262
 40
0.1530230813
 40
0.1839708813
 40
0.2150281194
 40
0.2461897957
 40
0.277449708
 40
0.3088005338
 40
0.3402339229
 40
0.371740599
 40
0.4033104699
 40
0.4349327437
 40
0.4665960515
 40
0.4982885749
 40
0.5299981766
 40
0.5617125336
 40
0.593419271
 40
0.625106097
 40
0.656760937
 40
0.6883720656
 40
0.7199282364
 40
0.7514188085
 40
0.7828338683
 40
0.8141643422
 40
0.8454021182
 40
0.8609853547
 40
0.8765428438
 40
0.9075751893
 40
0.9384969135
 40
0.953916598
 40
0.9693080715
 40
1.0
 40
1.0
 40
1.0
 40
1.0
 10
12.0324104243
 20
8.9227882651
 30
0.0
 10
12.0264190001
 20
8.9220719579
 30
0.0
 10
12.0144041937
 20
8.9208062102
 30
0.0
 10
11.9963196237
 20
8.9194106124
 30
0.0
 10
11.9781688984
 20
8.9185170552
 30
0.0
 10
11.9538770423
 20
8.9179956283
 30
0.0
 10
11.923412223
 20
8.9186052156
 30
0.0
 10
11.8929693385
 20
8.9208877658
 30
0.0
 10
11.8686504198
 20
8.9237118454
 30
0.0
 10
11.8443269361
 20
8.9272066647
 30
0.0
 10
11.8140311663
 20
8.9328213486
 30
0.0
 10
11.7779985789
 20
8.9415196595
 30
0.0
 10
11.7423607158
 20
8.9521589622
 30
0.0
 10
11.7072256287
 20
8.9647069852
 30
0.0
 10
11.6726989804
 20
8.9791258539
 30
0.0
 10
11.6388848252
 20
8.9953720352
 30
0.0
 10
11.6058850032
 20
9.0133965144
 30
0.0
 10
11.5737989158
 20
9.0331449304
 30
0.0
 10
11.5427232077
 20
9.0545577434
 30
0.0
 10
11.5127514795
 20
9.0775704066
 30
0.0
 10
11.4839740041
 20
9.1021135598
 30
0.0
 10
11.4564774618
 20
9.1281132455
 30
0.0
 10
11.4303446798
 20
9.1554911287
 30
0.0
 10
11.4056543855
 20
9.184164732
 30
0.0
 10
11.3824809698
 20
9.2140476819
 30
0.0
 10
11.3608942652
 20
9.2450499689
 30
0.0
 10
11.3409593369
 20
9.2770782105
 30
0.0
 10
11.3227362842
 20
9.3100359517
 30
0.0
 10
11.3062800737
 20
9.343823876
 30
0.0
 10
11.2916403048
 20
9.378340381
 30
0.0
 10
11.2788612988
 20
9.4134808433
 30
0.0
 10
11.2697871634
 20
9.4432222811
 30
0.0
 10
11.263496385
 20
9.4672205757
 30
0.0
 10
11.2578642143
 20
9.4912980616
 30
0.0
 10
11.2520450504
 20
9.5215843863
 30
0.0
 10
11.247867622
 20
9.5520853389
 30
0.0
 10
11.2455263468
 20
9.5765260733
 30
0.0
 10
11.2438556558
 20
9.6009295218
 30
0.0
 10
11.2433511464
 20
9.6192610029
 30
0.0
 10
11.2433511464
 20
9.6314665255
 30
0.0
  0
SPLINE
  5
361
100
AcDbEntity
  8
0
100
AcDbSpline
 62
7
  6
CONTINUOUS
 70
0
 71
3
 72
54
 73
50
 74
0
 42
0.0000001
 43
0.0000001
 44
0.0000000001
 40
0.0
 40
0.0
 40
0.0
 40
0.0
 40
0.0499774976
 40
0.0993158726
 40
0.1479274444
 40
0.1957330614
 40
0.2426522441
 40
0.2886071664
 40
0.3335224668
 40
0.3773250835
 40
0.4199448324
 40
0.461314559
 40
0.5013703557
 40
0.5400519278
 40
0.5773030155
 40
0.6130716862
 40
0.6473107772
 40
0.6799785629
 40
0.7110394088
 40
0.7259584109
 40
0.7404655449
 40
0.7545583898
 40
0.7682352653
 40
0.7814950226
 40
0.7943371717
 40
0.8067621193
 40
0.8187709677
 40
0.8303657946
 40
0.8415497853
 40
0.8523271309
 40
0.8627034278
 40
0.8726857178
 40
0.8822825588
 40
0.8915044872
 40
0.9003640253
 40
0.9088759518
 40
0.9170577374
 40
0.924929577
 40
0.9325147665
 40
0.9398399583
 40
0.946935137
 40
0.9538337905
 40
0.9605727132
 40
0.9671916183
 40
0.9737326777
 40
0.9802396989
 40
0.9867572426
 40
0.993329631
 40
1.0
 40
1.0
 40
1.0
 40
1.0
 10
14.5993771475
 20
7.4038427638
 30
0.0
 10
14.5993771475
 20
7.4149384293
 30
0.0
 10
14.5992515167
 20
7.4369880912
 30
0.0
 10
14.5986790922
 20
7.4698256905
 30
0.0
 10
14.5977247516
 20
7.5021720967
 30
0.0
 10
14.5963903681
 20
7.5339675269
 30
0.0
 10
14.5946783586
 20
7.5651542307
 30
0.0
 10
14.5925919236
 20
7.5956750256
 30
0.0
 10
14.5901349367
 20
7.625474082
 30
0.0
 10
14.5873119147
 20
7.6544969123
 30
0.0
 10
14.5841281001
 20
7.6826904454
 30
0.0
 10
14.580589398
 20
7.7100031587
 30
0.0
 10
14.5767023452
 20
7.7363851483
 30
0.0
 10
14.5724741178
 20
7.7617882389
 30
0.0
 10
14.5679125657
 20
7.7861661009
 30
0.0
 10
14.5630261303
 20
7.8094742963
 30
0.0
 10
14.5578238251
 20
7.8316704565
 30
0.0
 10
14.5523152442
 20
7.8527140784
 30
0.0
 10
14.5474145304
 20
7.8694760926
 30
0.0
 10
14.5433375928
 20
7.8822717259
 30
0.0
 10
14.5402508001
 20
7.8914276712
 30
0.0
 10
14.5370951745
 20
7.9002678686
 30
0.0
 10
14.5338721973
 20
7.908788328
 30
0.0
 10
14.5305833312
 20
7.9169851726
 30
0.0
 10
14.5272300184
 20
7.9248546634
 30
0.0
 10
14.5238138607
 20
7.9323932619
 30
0.0
 10
14.5203363509
 20
7.9395975405
 30
0.0
 10
14.5167990394
 20
7.9464642355
 30
0.0
 10
14.513203582
 20
7.9529902851
 30
0.0
 10
14.5095514956
 20
7.9591727149
 30
0.0
 10
14.5058444218
 20
7.9650087606
 30
0.0
 10
14.5020840225
 20
7.9704958327
 30
0.0
 10
14.4982718239
 20
7.9756314082
 30
0.0
 10
14.4944095204
 20
7.9804132229
 30
0.0
 10
14.4904987245
 20
7.9848391182
 30
0.0
 10
14.4865409673
 20
7.9889069943
 30
0.0
 10
14.4825379437
 20
7.9926150277
 30
0.0
 10
14.4784912035
 20
7.9959613797
 30
0.0
 10
14.4744023311
 20
7.9989442937
 30
0.0
 10
14.4702730533
 20
8.0015622448
 30
0.0
 10
14.4661050143
 20
8.0038135694
 30
0.0
 10
14.4619000704
 20
8.0056968006
 30
0.0
 10
14.4576602401
 20
8.0072106608
 30
0.0
 10
14.4533876449
 20
8.0083537875
 30
0.0
 10
14.4490846894
 20
8.0091253156
 30
0.0
 10
14.4447539165
 20
8.0095246215
 30
0.0
 10
14.440397853
 20
8.009551253
 30
0.0
 10
14.4360194916
 20
8.0092055433
 30
0.0
 10
14.4331140203
 20
8.0087314348
 30
0.0
 10
14.4316630293
 20
8.0084352596
 30
0.0
  0
SPLINE
  5
362
100
AcDbEntity
  8
0
100
AcDbSpline
 62
7
  6
CONTINUOUS
 70
0
 71
3
 72
43
 73
39
 74
0
 42
0.0000001
 43
0.0000001
 44
0.0000000001
 40
0.0
 40
0.0
 40
0.0
 40
0.0
 40
0.0303546589
 40
0.0455763053
 40
0.0608269374
 40
0.0914129854
 40
0.1221164404
 40
0.1375134516
 40
0.1529394062
 40
0.1838739518
 40
0.2149194073
 40
0.2460709173
 40
0.2773223873
 40
0.3086665654
 40
0.3400951368
 40
0.3715988265
 40
0.403167512
 40
0.4347903413
 40
0.4664558587
 40
0.4981521342
 40
0.5298668974
 40
0.5615876735
 40
0.5933019214
 40
0.6249971718
 40
0.6566611651
 40
0.6882819878
 40
0.7198482062
 40
0.7513489958
 40
0.7827742672
 40
0.8141147812
 40
0.8453622728
 40
0.8609502244
 40
0.8765122974
 40
0.9075533139
 40
0.9384831009
 40
0.9539065263
 40
0.9693015043
 40
1.0
 40
1.0
 40
1.0
 40
1.0
 10
12.0325637016
 20
8.8651320751
 30
0.0
 10
12.0197326733
 20
8.8634445389
 30
0.0
 10
12.0003899071
 20
8.8614560174
 30
0.0
 10
11.9745016311
 20
8.859890499
 30
0.0
 10
11.9484803721
 20
8.859045844
 30
0.0
 10
11.9158316143
 20
8.8593512631
 30
0.0
 10
11.8831875504
 20
8.86146389
 30
0.0
 10
11.8570997379
 20
8.8642321154
 30
0.0
 10
11.8309996449
 20
8.8677249233
 30
0.0
 10
11.7984784394
 20
8.873437829
 30
0.0
 10
11.759781102
 20
8.8824141575
 30
0.0
 10
11.7214906738
 20
8.8934905257
 30
0.0
 10
11.6837247834
 20
8.9066329221
 30
0.0
 10
11.6465985001
 20
8.9218011424
 30
0.0
 10
11.6102251845
 20
8.9389487823
 30
0.0
 10
11.5747158236
 20
8.9580234186
 30
0.0
 10
11.5401787814
 20
8.9789667593
 30
0.0
 10
11.5067194473
 20
9.0017148235
 30
0.0
 10
11.4744399232
 20
9.0261981362
 30
0.0
 10
11.4434387127
 20
9.052341939
 30
0.0
 10
11.4138104227
 20
9.0800664175
 30
0.0
 10
11.3856454766
 20
9.1092869437
 30
0.0
 10
11.3590298401
 20
9.1399143327
 30
0.0
 10
11.3340447602
 20
9.1718551128
 30
0.0
 10
11.310766519
 20
9.2050118112
 30
0.0
 10
11.2892661982
 20
9.2392832405
 30
0.0
 10
11.2696094609
 20
9.2745648302
 30
0.0
 10
11.2518563715
 20
9.3107488626
 30
0.0
 10
11.2360611439
 20
9.3477251044
 30
0.0
 10
11.2222722354
 20
9.3853800062
 30
0.0
 10
11.2124801354
 20
9.4172568415
 30
0.0
 10
11.2056913297
 20
9.4429816689
 30
0.0
 10
11.1996130938
 20
9.4687931987
 30
0.0
 10
11.1933327959
 20
9.5012640593
 30
0.0
 10
11.1888241069
 20
9.5339684681
 30
0.0
 10
11.1862971413
 20
9.5601759021
 30
0.0
 10
11.1844939239
 20
9.5863434948
 30
0.0
 10
11.1839493834
 20
9.6060007075
 30
0.0
 10
11.1839493834
 20
9.6190888251
 30
0.0
  0
SPLINE
  5
363
100
AcDbEntity
  8
0
100
AcDbSpline
 62
7
  6
CONTINUOUS
 70
0
 71
3
 72
55
 73
51
 74
0
 42
0.0000001
 43
0.0000001
 44
0.0000000001
 40
0.0
 40
0.0
 40
0.0
 40
0.0
 40
0.0149713426
 40
0.029945745
 40
0.0449262466
 40
0.0599158497
 40
0.0749175039
 40
0.0899340815
 40
0.1049683671
 40
0.1200230387
 40
0.1351006478
 40
0.1502036136
 40
0.1653342004
 40
0.1804945089
 40
0.1956864682
 40
0.2109118157
 40
0.2261721
 40
0.2414686657
 40
0.2568026464
 40
0.2721749684
 40
0.2875863346
 40
0.3030372323
 40
0.3185279299
 40
0.3340584699
 40
0.3496286834
 40
0.3652381805
 40
0.3808863595
 40
0.3965724155
 40
0.4122953346
 40
0.4280539148
 40
0.4596672873
 40
0.4914043865
 40
0.5232494291
 40
0.5551844326
 40
0.5871895976
 40
0.619243717
 40
0.651324607
 40
0.6834095519
 40
0.7154757557
 40
0.747500794
 40
0.7794630628
 40
0.8113422149
 40
0.8431195771
 40
0.8747785431
 40
0.8905616191
 40
0.9063099906
 40
0.9220223492
 40
0.9376975737
 40
0.9689273837
 40
1.0
 40
1.0
 40
1.0
 40
1.0
 10
11.8490106838
 20
8.5069877927
 30
0.0
 10
11.8429217062
 20
8.5011062714
 30
0.0
 10
11.8305072002
 20
8.4895828574
 30
0.0
 10
11.8112112904
 20
8.4730494547
 30
0.0
 10
11.7912655923
 20
8.4572887373
 30
0.0
 10
11.770698074
 20
8.4423225867
 30
0.0
 10
11.7495368475
 20
8.4281716167
 30
0.0
 10
11.7278110891
 20
8.4148552966
 30
0.0
 10
11.7055507426
 20
8.4023918432
 30
0.0
 10
11.6827863557
 20
8.3907985663
 30
0.0
 10
11.6595493436
 20
8.3800912427
 30
0.0
 10
11.6358716458
 20
8.3702846634
 30
0.0
 10
11.6117858315
 20
8.3613923583
 30
0.0
 10
11.5873250967
 20
8.3534263915
 30
0.0
 10
11.5625230396
 20
8.3463978881
 30
0.0
 10
11.5374138251
 20
8.3403163735
 30
0.0
 10
11.5120319925
 20
8.3351901926
 30
0.0
 10
11.4864124394
 20
8.3310265042
 30
0.0
 10
11.4605904378
 20
8.3278308253
 30
0.0
 10
11.4346014841
 20
8.3256076888
 30
0.0
 10
11.4084813342
 20
8.3243600772
 30
0.0
 10
11.3822659098
 20
8.3240896049
 30
0.0
 10
11.3559912646
 20
8.3247968015
 30
0.0
 10
11.3296935267
 20
8.3264804871
 30
0.0
 10
11.303408857
 20
8.3291384279
 30
0.0
 10
11.2771734129
 20
8.3327669751
 30
0.0
 10
11.2510232127
 20
8.3373609904
 30
0.0
 10
11.2249943516
 20
8.3429142856
 30
0.0
 10
11.1991221784
 20
8.3494192192
 30
0.0
 10
11.1648504266
 20
8.3593584704
 30
0.0
 10
11.1225799403
 20
8.3741217573
 30
0.0
 10
11.0731079197
 20
8.3954482148
 30
0.0
 10
11.0250977713
 20
8.4202888845
 30
0.0
 10
10.9788147108
 20
8.448506608
 30
0.0
 10
10.934512215
 20
8.479946408
 30
0.0
 10
10.892433514
 20
8.514435535
 30
0.0
 10
10.8528094414
 20
8.5517845562
 30
0.0
 10
10.815857456
 20
8.5917884271
 30
0.0
 10
10.7817804029
 20
8.6342275869
 30
0.0
 10
10.7507654323
 20
8.678869209
 30
0.0
 10
10.7229829404
 20
8.7254681942
 30
0.0
 10
10.6985854928
 20
8.7737693196
 30
0.0
 10
10.6777077726
 20
8.8235057803
 30
0.0
 10
10.6633219558
 20
8.8659718993
 30
0.0
 10
10.6536846127
 20
8.9003858664
 30
0.0
 10
10.6474054532
 20
8.9263580249
 30
0.0
 10
10.6420774282
 20
8.9524796255
 30
0.0
 10
10.6362591667
 20
8.9874126078
 30
0.0
 10
10.6313876083
 20
9.0312767634
 30
0.0
 10
10.630077084
 20
9.0665189204
 30
0.0
 10
10.630077084
 20
9.0840892349
 30
0.0
  0
SPLINE
  5
364
100
AcDbEntity
  8
0
100
AcDbSpline
 62
7
  6
CONTINUOUS
 70
0
 71
3
 72
54
 73
50
 74
0
 42
0.0000001
 43
0.0000001
 44
0.0000000001
 40
0.0
 40
0.0
 40
0.0
 40
0.0
 40
0.0149609029
 40
0.0299299255
 40
0.0449098678
 40
0.0599034639
 40
0.07491337
 40
0.089942152
 40
0.1049922632
 40
0.1200660404
 40
0.135165685
 40
0.1502932511
 40
0.1654506415
 40
0.1806395878
 40
0.1958616507
 40
0.21111821
 40
0.2264104527
 40
0.2417393791
 40
0.2571057873
 40
0.272510277
 40
0.2879532492
 40
0.3034348963
 40
0.3189552159
 40
0.3345140011
 40
0.3501108471
 40
0.3657451596
 40
0.3814161475
 40
0.3971228414
 40
0.4286338034
 40
0.4602716597
 40
0.4920227052
 40
0.5238710432
 40
0.5557989108
 40
0.5877870312
 40
0.6198149876
 40
0.6518616134
 40
0.6839053919
 40
0.7159248594
 40
0.7478990088
 40
0.7798076874
 40
0.8116319828
 40
0.8433545917
 40
0.8749601653
 40
0.8907172686
 40
0.9064404048
 40
0.9221283752
 40
0.9377801437
 40
0.9689664454
 40
1.0
 40
1.0
 40
1.0
 40
1.0
 10
11.8466160897
 20
8.3959139193
 30
0.0
 10
11.8396159599
 20
8.3900497533
 30
0.0
 10
11.8253837771
 20
8.3785874996
 30
0.0
 10
11.8033820444
 20
8.3622259922
 30
0.0
 10
11.7807495085
 20
8.346712752
 30
0.0
 10
11.757515953
 20
8.3320684019
 30
0.0
 10
11.7337115961
 20
8.3183117151
 30
0.0
 10
11.709367332
 20
8.3054607661
 30
0.0
 10
11.6845148733
 20
8.2935321574
 30
0.0
 10
11.6591865557
 20
8.2825413585
 30
0.0
 10
11.6334152635
 20
8.272502794
 30
0.0
 10
11.6072345899
 20
8.2634293063
 30
0.0
 10
11.5806785255
 20
8.2553328342
 30
0.0
 10
11.5537816268
 20
8.248223836
 30
0.0
 10
11.5265788847
 20
8.2421114541
 30
0.0
 10
11.4991056329
 20
8.2370038001
 30
0.0
 10
11.4713976301
 20
8.2329072924
 30
0.0
 10
11.4434908769
 20
8.2298273641
 30
0.0
 10
11.4154216588
 20
8.2277679974
 30
0.0
 10
11.3872264681
 20
8.226731722
 30
0.0
 10
11.3589419496
 20
8.2267200673
 30
0.0
 10
11.3306048694
 20
8.2277328414
 30
0.0
 10
11.3022520534
 20
8.2297687934
 30
0.0
 10
11.2739203674
 20
8.2328253055
 30
0.0
 10
11.2456465785
 20
8.2368982371
 30
0.0
 10
11.2174675715
 20
8.2419824397
 30
0.0
 10
11.1894195157
 20
8.2480712783
 30
0.0
 10
11.152209906
 20
8.257527543
 30
0.0
 10
11.106206336
 20
8.2718254933
 30
0.0
 10
11.052172919
 20
8.292822725
 30
0.0
 10
10.9995226142
 20
8.3175708761
 30
0.0
 10
10.9485303674
 20
8.3459407476
 30
0.0
 10
10.8994601669
 20
8.3777849913
 30
0.0
 10
10.8525666755
 20
8.4129381809
 30
0.0
 10
10.8080930647
 20
8.4512177728
 30
0.0
 10
10.7662700215
 20
8.4924250651
 30
0.0
 10
10.7273145193
 20
8.5363462447
 30
0.0
 10
10.69142873
 20
8.5827534659
 30
0.0
 10
10.6587989465
 20
8.6314060546
 30
0.0
 10
10.629594623
 20
8.6820515051
 30
0.0
 10
10.6039673801
 20
8.7344276173
 30
0.0
 10
10.5820509511
 20
8.78826091
 30
0.0
 10
10.5669575938
 20
8.8341569243
 30
0.0
 10
10.5568491209
 20
8.8713193617
 30
0.0
 10
10.5502641405
 20
8.8993529242
 30
0.0
 10
10.5446774578
 20
8.9275368407
 30
0.0
 10
10.5385773054
 20
8.9652175763
 30
0.0
 10
10.5334708318
 20
9.0125153742
 30
0.0
 10
10.5320975068
 20
9.0505059832
 30
0.0
 10
10.5320975068
 20
9.0694482252
 30
0.0
  0
SPLINE
  5
365
100
AcDbEntity
  8
0
100
AcDbSpline
 62
7
  6
CONTINUOUS
 70
0
 71
3
 72
56
 73
52
 74
0
 42
0.0000001
 43
0.0000001
 44
0.0000000001
 40
0.0
 40
0.0
 40
0.0
 40
0.0
 40
0.0149712696
 40
0.0299455975
 40
0.0449260257
 40
0.0599155555
 40
0.0749171349
 40
0.0899336395
 40
0.1049678509
 40
0.1200224476
 40
0.1350999838
 40
0.1502028742
 40
0.1653333868
 40
0.1804936216
 40
0.1956855044
 40
0.2109107785
 40
0.2261709873
 40
0.2414674767
 40
0.2568013838
 40
0.2721736284
 40
0.2875849194
 40
0.303035742
 40
0.3185263613
 40
0.3340568268
 40
0.3496269629
 40
0.3652363825
 40
0.3808844863
 40
0.3965704631
 40
0.412293306
 40
0.4280518089
 40
0.4438445787
 40
0.4596700473
 40
0.4755264713
 40
0.4914119521
 40
0.5232568382
 40
0.5551916851
 40
0.5871966925
 40
0.619250654
 40
0.6513313861
 40
0.6834161731
 40
0.7154822189
 40
0.7475070999
 40
0.7794692115
 40
0.8113482064
 40
0.8431254121
 40
0.874784222
 40
0.9063104541
 40
0.9220227305
 40
0.937697876
 40
0.9689275382
 40
1.0
 40
1.0
 40
1.0
 40
1.0
 10
11.8125474768
 20
8.3605407496
 30
0.0
 10
11.8057948435
 20
8.3540181973
 30
0.0
 10
11.7920272511
 20
8.3412388323
 30
0.0
 10
11.7706282291
 20
8.3229034438
 30
0.0
 10
11.7485086575
 20
8.3054248792
 30
0.0
 10
11.7256993954
 20
8.2888276125
 30
0.0
 10
11.7022318047
 20
8.2731342499
 30
0.0
 10
11.6781381134
 20
8.2583665606
 30
0.0
 10
11.6534515387
 20
8.2445447537
 30
0.0
 10
11.628206067
 20
8.2316878109
 30
0.0
 10
11.602436376
 20
8.2198135489
 30
0.0
 10
11.5761780092
 20
8.2089381216
 30
0.0
 10
11.549467057
 20
8.1990765711
 30
0.0
 10
11.5223402707
 20
8.190242478
 30
0.0
 10
11.4948350185
 20
8.1824478342
 30
0.0
 10
11.4669890955
 20
8.175703515
 30
0.0
 10
11.4388408425
 20
8.1700186727
 30
0.0
 10
11.4104289836
 20
8.1654010707
 30
0.0
 10
11.3817925817
 20
8.1618571919
 30
0.0
 10
11.3529710499
 20
8.1593917061
 30
0.0
 10
11.3240040168
 20
8.1580080794
 30
0.0
 10
11.2949313258
 20
8.1577082279
 30
0.0
 10
11.2657929562
 20
8.1584923924
 30
0.0
 10
11.2366289819
 20
8.160359647
 30
0.0
 10
11.2074795035
 20
8.1633073011
 30
0.0
 10
11.1783845911
 20
8.1673312425
 30
0.0
 10
11.1493842726
 20
8.1724260714
 30
0.0
 10
11.1205183894
 20
8.1785845871
 30
0.0
 10
11.0918266383
 20
8.1857983959
 30
0.0
 10
11.0633484861
 20
8.1940575964
 30
0.0
 10
11.0351230062
 20
8.2033506914
 30
0.0
 10
11.0071891624
 20
8.2136649903
 30
0.0
 10
10.9795849062
 20
8.2249864369
 30
0.0
 10
10.9432441253
 20
8.2414149072
 30
0.0
 10
10.8988339496
 20
8.2643927403
 30
0.0
 10
10.8475074755
 20
8.2956855238
 30
0.0
 10
10.798376092
 20
8.3305521337
 30
0.0
 10
10.751711201
 20
8.3688002216
 30
0.0
 10
10.7077684136
 20
8.4102199981
 30
0.0
 10
10.6667889891
 20
8.4545839772
 30
0.0
 10
10.6289978223
 20
8.5016486741
 30
0.0
 10
10.5946024505
 20
8.5511558166
 30
0.0
 10
10.5637918669
 20
8.602833824
 30
0.0
 10
10.5367354149
 20
8.6563989685
 30
0.0
 10
10.5135818224
 20
8.711557846
 30
0.0
 10
10.4944589696
 20
8.7680058101
 30
0.0
 10
10.4819545925
 20
8.8159232885
 30
0.0
 10
10.4740684188
 20
8.8545873487
 30
0.0
 10
10.4676159012
 20
8.8933280737
 30
0.0
 10
10.4622134448
 20
8.9419728999
 30
0.0
 10
10.460760066
 20
8.9810562106
 30
0.0
 10
10.460760066
 20
9.0005415447
 30
0.0
  0
SPLINE
  5
366
100
AcDbEntity
  8
0
100
AcDbSpline
 62
7
  6
CONTINUOUS
 70
0
 71
3
 72
55
 73
51
 74
0
 42
0.0000001
 43
0.0000001
 44
0.0000000001
 40
0.0
 40
0.0
 40
0.0
 40
0.0
 40
0.0149619368
 40
0.0299312102
 40
0.0449106607
 40
0.0599030693
 40
0.0749111394
 40
0.0899374877
 40
0.1049846232
 40
0.1200549352
 40
0.1351506842
 40
0.1502739817
 40
0.1654267865
 40
0.1806108923
 40
0.195827914
 40
0.2110792891
 40
0.2263662629
 40
0.2416898848
 40
0.2570510099
 40
0.2724502853
 40
0.2878881575
 40
0.3033648687
 40
0.3188804517
 40
0.3344347417
 40
0.3500273692
 40
0.3656577666
 40
0.3813251774
 40
0.397028651
 40
0.412767059
 40
0.4285390978
 40
0.4443432922
 40
0.4601780138
 40
0.4919270556
 40
0.5237750956
 40
0.5557043255
 40
0.5876953777
 40
0.6197277047
 40
0.6517799743
 40
0.683830476
 40
0.7158575332
 40
0.7478399137
 40
0.7797572342
 40
0.8115903556
 40
0.8433217594
 40
0.8749358986
 40
0.9064195193
 40
0.9221113913
 40
0.9377669155
 40
0.9689601911
 40
1.0
 40
1.0
 40
1.0
 40
1.0
 10
11.8028558201
 20
8.2876725646
 30
0.0
 10
11.7954895806
 20
8.2813581742
 30
0.0
 10
11.7805067465
 20
8.2690109081
 30
0.0
 10
11.757325552
 20
8.2513708537
 30
0.0
 10
11.7334622506
 20
8.2346299072
 30
0.0
 10
11.7089484893
 20
8.2188105783
 30
0.0
 10
11.6838164284
 20
8.2039333793
 30
0.0
 10
11.6580990598
 20
8.1900178949
 30
0.0
 10
11.6318300972
 20
8.1770824516
 30
0.0
 10
11.6050441016
 20
8.1651438557
 30
0.0
 10
11.5777761636
 20
8.1542179084
 30
0.0
 10
11.5500621034
 20
8.1443188755
 30
0.0
 10
11.5219383157
 20
8.1354596548
 30
0.0
 10
11.4934416606
 20
8.1276520223
 30
0.0
 10
11.4646095838
 20
8.120906035
 30
0.0
 10
11.4354798989
 20
8.1152305913
 30
0.0
 10
11.406090822
 20
8.110633184
 30
0.0
 10
11.3764809367
 20
8.1071196599
 30
0.0
 10
11.34668907
 20
8.1046947756
 30
0.0
 10
11.3167543179
 20
8.1033616079
 30
0.0
 10
11.2867159464
 20
8.1031218281
 30
0.0
 10
11.2566133606
 20
8.1039758937
 30
0.0
 10
11.2264860412
 20
8.1059224848
 30
0.0
 10
11.1963735044
 20
8.1089591162
 30
0.0
 10
11.1663152534
 20
8.1130818289
 30
0.0
 10
11.1363506851
 20
8.1182850473
 30
0.0
 10
11.1065191225
 20
8.1245621008
 30
0.0
 10
11.0768596763
 20
8.131904636
 30
0.0
 10
11.0474111951
 20
8.1403029905
 30
0.0
 10
11.0182124509
 20
8.1497462227
 30
0.0
 10
10.989301252
 20
8.1602219715
 30
0.0
 10
10.9511581166
 20
8.1755595382
 30
0.0
 10
10.9043891564
 20
8.1972474156
 30
0.0
 10
10.8500714374
 20
8.2271240591
 30
0.0
 10
10.7977850012
 20
8.2607214415
 30
0.0
 10
10.7478053611
 20
8.2978627125
 30
0.0
 10
10.7003936445
 20
8.3383534624
 30
0.0
 10
10.6557981962
 20
8.3819815685
 30
0.0
 10
10.6142524254
 20
8.4285185423
 30
0.0
 10
10.5759738997
 20
8.4777207387
 30
0.0
 10
10.5411631611
 20
8.5293306063
 30
0.0
 10
10.5100026766
 20
8.5830780558
 30
0.0
 10
10.4826558261
 20
8.6386815857
 30
0.0
 10
10.4592660233
 20
8.6958506513
 30
0.0
 10
10.4399565078
 20
8.7542840435
 30
0.0
 10
10.4273348017
 20
8.8038393971
 30
0.0
 10
10.4193759844
 20
8.8438053259
 30
0.0
 10
10.4128644475
 20
8.8838419279
 30
0.0
 10
10.4074135656
 20
8.934099081
 30
0.0
 10
10.4059475148
 20
8.9744686098
 30
0.0
 10
10.4059475148
 20
8.9945966828
 30
0.0
  0
SPLINE
  5
367
100
AcDbEntity
  8
0
100
AcDbSpline
 62
7
  6
CONTINUOUS
 70
0
 71
3
 72
54
 73
50
 74
0
 42
0.0000001
 43
0.0000001
 44
0.0000000001
 40
0.0
 40
0.0
 40
0.0
 40
0.0
 40
0.0149714207
 40
0.0299459009
 40
0.0449264795
 40
0.0599161607
 40
0.0749178924
 40
0.0899345474
 40
0.1049689109
 40
0.1200236599
 40
0.135101347
 40
0.1502043904
 40
0.1653350555
 40
0.1804954423
 40
0.195687479
 40
0.210912906
 40
0.2261732683
 40
0.2414699124
 40
0.2568039734
 40
0.2721763729
 40
0.2875878193
 40
0.3030387972
 40
0.3185295728
 40
0.3340601946
 40
0.3496304877
 40
0.3652400644
 40
0.3808883259
 40
0.3965744612
 40
0.4122974619
 40
0.4280561242
 40
0.4438490534
 40
0.4596746808
 40
0.4914119437
 40
0.5232571513
 40
0.5551923202
 40
0.587197651
 40
0.6192519366
 40
0.651332993
 40
0.6834181045
 40
0.7154844744
 40
0.7475096792
 40
0.7794721147
 40
0.8113514322
 40
0.8431289588
 40
0.8747880885
 40
0.9063146442
 40
0.9376972366
 40
0.9689272309
 40
1.0
 40
1.0
 40
1.0
 40
1.0
 10
11.8036934565
 20
8.2866430231
 30
0.0
 10
11.796550925
 20
8.279743861
 30
0.0
 10
11.7819884662
 20
8.266226537
 30
0.0
 10
11.7593538387
 20
8.2468324938
 30
0.0
 10
11.7359570879
 20
8.2283447182
 30
0.0
 10
11.7118308869
 20
8.2107890345
 30
0.0
 10
11.6870082416
 20
8.1941895944
 30
0.0
 10
11.6615234135
 20
8.1785691739
 30
0.0
 10
11.6354114723
 20
8.1639492332
 30
0.0
 10
11.608708299
 20
8.150349993
 30
0.0
 10
11.5814507072
 20
8.1377900314
 30
0.0
 10
11.5536761919
 20
8.126286638
 30
0.0
 10
11.5254229418
 20
8.1158557138
 30
0.0
 10
11.4967298852
 20
8.1065114578
 30
0.0
 10
11.4676364774
 20
8.0982667684
 30
0.0
 10
11.4381827379
 20
8.0911330209
 30
0.0
 10
11.4084092196
 20
8.0851198761
 30
0.0
 10
11.3783568589
 20
8.0802356808
 30
0.0
 10
11.3480670002
 20
8.076487138
 30
0.0
 10
11.3175813184
 20
8.0738792678
 30
0.0
 10
11.2869417321
 20
8.0724157565
 30
0.0
 10
11.2561903876
 20
8.0720985535
 30
0.0
 10
11.2253695717
 20
8.0729279897
 30
0.0
 10
11.1945216716
 20
8.0749030368
 30
0.0
 10
11.1636891038
 20
8.0780208738
 30
0.0
 10
11.1329142539
 20
8.0822771478
 30
0.0
 10
11.1022394524
 20
8.087666118
 30
0.0
 10
11.0717068642
 20
8.0941802366
 30
0.0
 10
11.0413584265
 20
8.1018105415
 30
0.0
 10
11.0112360142
 20
8.110546578
 30
0.0
 10
10.9813805401
 20
8.120376402
 30
0.0
 10
10.9419515643
 20
8.1349349536
 30
0.0
 10
10.8935390625
 20
8.1558041579
 30
0.0
 10
10.8372235595
 20
8.1849423417
 30
0.0
 10
10.7829319317
 20
8.2180425557
 30
0.0
 10
10.7309641087
 20
8.2549221766
 30
0.0
 10
10.6816047037
 20
8.295378781
 30
0.0
 10
10.6351246595
 20
8.3391900818
 30
0.0
 10
10.5917790336
 20
8.3861155984
 30
0.0
 10
10.5518058316
 20
8.4358978236
 30
0.0
 10
10.5154244878
 20
8.4882635215
 30
0.0
 10
10.4828348512
 20
8.5429253532
 30
0.0
 10
10.454216133
 20
8.5995834385
 30
0.0
 10
10.4297257407
 20
8.6579268355
 30
0.0
 10
10.4094985002
 20
8.7176354372
 30
0.0
 10
10.3936460101
 20
8.7783812282
 30
0.0
 10
10.382256028
 20
8.8398317976
 30
0.0
 10
10.375391482
 20
8.9016453269
 30
0.0
 10
10.3738539802
 20
8.9429862957
 30
0.0
 10
10.3738539802
 20
8.963596707
 30
0.0
  0
SPLINE
  5
368
100
AcDbEntity
  8
0
100
AcDbSpline
 62
7
  6
CONTINUOUS
 70
0
 71
3
 72
23
 73
19
 74
0
 42
0.0000001
 43
0.0000001
 44
0.0000000001
 40
0.0
 40
0.0
 40
0.0
 40
0.0
 40
0.0618603907
 40
0.1239640988
 40
0.1862853195
 40
0.2487942118
 40
0.3114574842
 40
0.3742390306
 40
0.4371006016
 40
0.5000025046
 40
0.5629043217
 40
0.6257656364
 40
0.6885467608
 40
0.7512094533
 40
0.8137176182
 40
0.8760379774
 40
0.9381407091
 40
1.0
 40
1.0
 40
1.0
 40
1.0
 10
10.0159540843
 20
7.1893781394
 30
0.0
 10
10.004137517
 20
7.1926376878
 30
0.0
 10
9.9806740478
 20
7.1999834825
 30
0.0
 10
9.9462503284
 20
7.2133835697
 30
0.0
 10
9.9126879458
 20
7.2291233863
 30
0.0
 10
9.8801558608
 20
7.2471238782
 30
0.0
 10
9.8488151202
 20
7.2672955791
 30
0.0
 10
9.8188215933
 20
7.2895380626
 30
0.0
 10
9.7903242584
 20
7.3137407092
 30
0.0
 10
9.7634647258
 20
7.3397831796
 30
0.0
 10
9.7383764728
 20
7.3675360269
 30
0.0
 10
9.7151842046
 20
7.3968613331
 30
0.0
 10
9.694003239
 20
7.4276133712
 30
0.0
 10
9.674938923
 20
7.4596393905
 30
0.0
 10
9.6580861751
 20
7.4927801095
 30
0.0
 10
9.6435287798
 20
7.5268714574
 30
0.0
 10
9.6313398461
 20
7.561741814
 30
0.0
 10
9.6248185183
 20
7.5854472395
 30
0.0
 10
9.6219739276
 20
7.5973702794
 30
0.0
  0
SPLINE
  5
369
100
AcDbEntity
  8
0
100
AcDbSpline
 62
7
  6
CONTINUOUS
 70
0
 71
3
 72
26
 73
22
 74
0
 42
0.0000001
 43
0.0000001
 44
0.0000000001
 40
0.0
 40
0.0
 40
0.0
 40
0.0
 40
0.0617092224
 40
0.0925729861
 40
0.1234446505
 40
0.1852169763
 40
0.2470517586
 40
0.2780013275
 40
0.3089738786
 40
0.3709922214
 40
0.4331298083
 40
0.4954034066
 40
0.5578284213
 40
0.6204187786
 40
0.6831867415
 40
0.7146430811
 40
0.7461476607
 40
0.8093008765
 40
0.8726570625
 40
0.9362237834
 40
1.0
 40
1.0
 40
1.0
 40
1.0
 10
8.8972706839
 20
7.523494639
 30
0.0
 10
8.8893893331
 20
7.515881812
 30
0.0
 10
8.877857096
 20
7.5041543019
 30
0.0
 10
8.8631011692
 20
7.4879424261
 30
0.0
 10
8.8487589817
 20
7.4713479285
 30
0.0
 10
8.8316273273
 20
7.4499084182
 30
0.0
 10
8.8156096442
 20
7.4276073202
 30
0.0
 10
8.8034828082
 20
7.4092782947
 30
0.0
 10
8.7918109414
 20
7.3906178276
 30
0.0
 10
8.7781014547
 20
7.3667106706
 30
0.0
 10
8.7631081836
 20
7.3371808469
 30
0.0
 10
8.7495992318
 20
7.3068637673
 30
0.0
 10
8.7376059364
 20
7.2758296894
 30
0.0
 10
8.72715593
 20
7.2441505551
 30
0.0
 10
8.7197587043
 20
7.2172926289
 30
0.0
 10
8.7146338329
 20
7.1955611619
 30
0.0
 10
8.7100333213
 20
7.173642746
 30
0.0
 10
8.7052870876
 20
7.1459761804
 30
0.0
 10
8.7012136731
 20
7.1124577936
 30
0.0
 10
8.6987671283
 20
7.0786711625
 30
0.0
 10
8.6982250866
 20
7.0560551067
 30
0.0
 10
8.6982250866
 20
7.044730388
 30
0.0
  0
SPLINE
  5
36A
100
AcDbEntity
  8
0
100
AcDbSpline
 62
7
  6
CONTINUOUS
 70
0
 71
3
 72
25
 73
21
 74
0
 42
0.0000001
 43
0.0000001
 44
0.0000000001
 40
0.0
 40
0.0
 40
0.0
 40
0.0
 40
0.0616698585
 40
0.0925221144
 40
0.1233873692
 40
0.1851610503
 40
0.2470116891
 40
0.2779729665
 40
0.308959368
 40
0.3710107408
 40
0.4331841913
 40
0.4954928703
 40
0.5579488032
 40
0.6205628041
 40
0.6833443175
 40
0.7463016016
 40
0.8094414048
 40
0.872768098
 40
0.9362885602
 40
1.0
 40
1.0
 40
1.0
 40
1.0
 10
8.7868563267
 20
7.5257017122
 30
0.0
 10
8.7794028986
 20
7.5174299964
 30
0.0
 10
8.7685106808
 20
7.5047540712
 30
0.0
 10
8.7545959651
 20
7.4873549872
 30
0.0
 10
8.7410822332
 20
7.4696185498
 30
0.0
 10
8.7249634047
 20
7.4468413728
 30
0.0
 10
8.7099198666
 20
7.423319565
 30
0.0
 10
8.6985431366
 20
7.4040778519
 30
0.0
 10
8.6876004284
 20
7.3845445243
 30
0.0
 10
8.6747620075
 20
7.3596228873
 30
0.0
 10
8.660739279
 20
7.3289898056
 30
0.0
 10
8.6481191476
 20
7.2976736575
 30
0.0
 10
8.6369262487
 20
7.2657353884
 30
0.0
 10
8.6271820935
 20
7.2332366704
 30
0.0
 10
8.6189054232
 20
7.2002403795
 30
0.0
 10
8.6121122075
 20
7.1668102565
 30
0.0
 10
8.6068156471
 20
7.1330111098
 30
0.0
 10
8.6030256411
 20
7.0989076642
 30
0.0
 10
8.600749856
 20
7.0645671756
 30
0.0
 10
8.6002455094
 20
7.0415923833
 30
0.0
 10
8.6002455094
 20
7.0300893784
 30
0.0
  0
SPLINE
  5
36B
100
AcDbEntity
  8
0
100
AcDbSpline
 62
7
  6
CONTINUOUS
 70
0
 71
3
 72
26
 73
22
 74
0
 42
0.0000001
 43
0.0000001
 44
0.0000000001
 40
0.0
 40
0.0
 40
0.0
 40
0.0
 40
0.0617092235
 40
0.0925729854
 40
0.1234446509
 40
0.1852169748
 40
0.2470517571
 40
0.2780013275
 40
0.3089738777
 40
0.3709922222
 40
0.4331298084
 40
0.4954034049
 40
0.5578284199
 40
0.6204187753
 40
0.6831867461
 40
0.7146430864
 40
0.7461476576
 40
0.8093008659
 40
0.872657114
 40
0.9362236724
 40
1.0
 40
1.0
 40
1.0
 40
1.0
 10
8.7496479963
 20
7.4921283517
 30
0.0
 10
8.7409076338
 20
7.4836857977
 30
0.0
 10
8.7281185217
 20
7.4706800419
 30
0.0
 10
8.7117542748
 20
7.4527012448
 30
0.0
 10
8.6958489599
 20
7.434298036
 30
0.0
 10
8.6768500677
 20
7.4105218201
 30
0.0
 10
8.6590865544
 20
7.3857901056
 30
0.0
 10
8.6456380469
 20
7.3654633305
 30
0.0
 10
8.6326939817
 20
7.3447690626
 30
0.0
 10
8.6174903194
 20
7.3182561923
 30
0.0
 10
8.6008629032
 20
7.2855078616
 30
0.0
 10
8.5858815778
 20
7.2518864718
 30
0.0
 10
8.5725811029
 20
7.2174699372
 30
0.0
 10
8.5609921237
 20
7.1823380368
 30
0.0
 10
8.5527886826
 20
7.1525528091
 30
0.0
 10
8.5471052253
 20
7.1284527937
 30
0.0
 10
8.5420033164
 20
7.1041454482
 30
0.0
 10
8.5367397624
 20
7.0734634476
 30
0.0
 10
8.5322223923
 20
7.0362918501
 30
0.0
 10
8.5295091793
 20
6.9988227515
 30
0.0
 10
8.5289080687
 20
6.9737417402
 30
0.0
 10
8.5289080687
 20
6.9611826979
 30
0.0
  0
SPLINE
  5
36C
100
AcDbEntity
  8
0
100
AcDbSpline
 62
7
  6
CONTINUOUS
 70
0
 71
3
 72
25
 73
21
 74
0
 42
0.0000001
 43
0.0000001
 44
0.0000000001
 40
0.0
 40
0.0
 40
0.0
 40
0.0
 40
0.0616739827
 40
0.1233885017
 40
0.1851611334
 40
0.2470089423
 40
0.2779683585
 40
0.3089526602
 40
0.3709992415
 40
0.4331676999
 40
0.49547167
 40
0.5579236192
 40
0.6205347777
 40
0.6833149774
 40
0.7147732343
 40
0.7462768529
 40
0.8094192768
 40
0.8727509238
 40
0.9362784945
 40
1.0
 40
1.0
 40
1.0
 40
1.0
 10
8.6764482571
 20
7.4849247644
 30
0.0
 10
8.6683755762
 20
7.4761411999
 30
0.0
 10
8.6526417932
 20
7.4581798705
 30
0.0
 10
8.6303441996
 20
7.4301344329
 30
0.0
 10
8.6093860845
 20
7.4010324242
 30
0.0
 10
8.5930773595
 20
7.3759563711
 30
0.0
 10
8.5807419967
 20
7.3554305469
 30
0.0
 10
8.5688762403
 20
7.3345854608
 30
0.0
 10
8.5549525862
 20
7.3079754071
 30
0.0
 10
8.5397419215
 20
7.2752453894
 30
0.0
 10
8.5260505881
 20
7.2417662547
 30
0.0
 10
8.5139059315
 20
7.2076047684
 30
0.0
 10
8.5033320026
 20
7.1728290914
 30
0.0
 10
8.4958515805
 20
7.1434138793
 30
0.0
 10
8.4906709565
 20
7.1196475228
 30
0.0
 10
8.4860219533
 20
7.0957000795
 30
0.0
 10
8.4812273351
 20
7.0655089469
 30
0.0
 10
8.477113393
 20
7.0289749379
 30
0.0
 10
8.4746429605
 20
6.9921813486
 30
0.0
 10
8.4740955175
 20
6.967563654
 30
0.0
 10
8.4740955175
 20
6.9552378359
 30
0.0
  0
SPLINE
  5
36D
100
AcDbEntity
  8
0
100
AcDbSpline
 62
7
  6
CONTINUOUS
 70
0
 71
3
 72
39
 73
35
 74
0
 42
0.0000001
 43
0.0000001
 44
0.0000000001
 40
0.0
 40
0.0
 40
0.0
 40
0.0
 40
0.0307220853
 40
0.0615353935
 40
0.0924373903
 40
0.123424861
 40
0.1544939419
 40
0.1856401473
 40
0.216858407
 40
0.2481431177
 40
0.279488184
 40
0.3108870598
 40
0.3423328045
 40
0.3738181397
 40
0.4053354964
 40
0.4368770697
 40
0.4684348836
 40
0.5000008462
 40
0.5315668019
 40
0.5631245966
 40
0.5946661387
 40
0.6261834514
 40
0.6576687301
 40
0.6891144075
 40
0.7205132048
 40
0.7518581812
 40
0.7831427931
 40
0.8143609439
 40
0.8455070329
 40
0.876575995
 40
0.9075633128
 40
0.9384652097
 40
0.9692784105
 40
1.0
 40
1.0
 40
1.0
 40
1.0
 10
10.0790632915
 20
7.0164164512
 30
0.0
 10
10.0691478908
 20
7.017629932
 30
0.0
 10
10.0493386564
 20
7.0205000258
 30
0.0
 10
10.019801779
 20
7.0261127106
 30
0.0
 10
9.9904533526
 20
7.03302841
 30
0.0
 10
9.9613527206
 20
7.0412331537
 30
0.0
 10
9.9325577675
 20
7.0507105703
 30
0.0
 10
9.9041260474
 20
7.0614417609
 30
0.0
 10
9.8761142704
 20
7.0734052053
 30
0.0
 10
9.8485783366
 20
7.0865769789
 30
0.0
 10
9.8215732225
 20
7.1009308141
 30
0.0
 10
9.7951528348
 20
7.1164380507
 30
0.0
 10
9.7693698664
 20
7.1330676577
 30
0.0
 10
9.7442757709
 20
7.1507864337
 30
0.0
 10
9.7199206719
 20
7.1695590591
 30
0.0
 10
9.6963531529
 20
7.1893480195
 30
0.0
 10
9.6736202212
 20
7.2101137804
 30
0.0
 10
9.6517672654
 20
7.2318149148
 30
0.0
 10
9.6308379455
 20
7.2544081458
 30
0.0
 10
9.6108739848
 20
7.2778483278
 30
0.0
 10
9.5919152216
 20
7.3020886727
 30
0.0
 10
9.5739995499
 20
7.3270808393
 30
0.0
 10
9.5571627454
 20
7.3527749495
 30
0.0
 10
9.5414383733
 20
7.3791196906
 30
0.0
 10
9.5268578406
 20
7.4060624942
 30
0.0
 10
9.5134503359
 20
7.4335496235
 30
0.0
 10
9.5012426005
 20
7.4615261949
 30
0.0
 10
9.4902589925
 20
7.4899363621
 30
0.0
 10
9.480521498
 20
7.5187234352
 30
0.0
 10
9.4720496453
 20
7.5478299775
 30
0.0
 10
9.4648602873
 20
7.5771978241
 30
0.0
 10
9.4589678242
 20
7.6067685685
 30
0.0
 10
9.4543841992
 20
7.6364823013
 30
0.0
 10
9.4522036282
 20
7.6563790463
 30
0.0
 10
9.4513351907
 20
7.6663304433
 30
0.0
  0
SPLINE
  5
36E
100
AcDbEntity
  8
0
100
AcDbSpline
 62
7
  6
CONTINUOUS
 70
0
 71
3
 72
44
 73
40
 74
0
 42
0.0000001
 43
0.0000001
 44
0.0000000001
 40
0.0
 40
0.0
 40
0.0
 40
0.0
 40
0.0151732875
 40
0.0303748369
 40
0.0456050022
 40
0.060864052
 40
0.0914665415
 40
0.122185615
 40
0.1375900262
 40
0.1530230813
 40
0.1839708813
 40
0.2150281194
 40
0.2461897957
 40
0.277449708
 40
0.3088005338
 40
0.3402339229
 40
0.371740599
 40
0.4033104699
 40
0.4349327437
 40
0.4665960515
 40
0.4982885749
 40
0.5299981766
 40
0.5617125336
 40
0.593419271
 40
0.625106097
 40
0.656760937
 40
0.6883720656
 40
0.7199282364
 40
0.7514188085
 40
0.7828338683
 40
0.8141643422
 40
0.8454021182
 40
0.8609853547
 40
0.8765428438
 40
0.9075751893
 40
0.9384969135
 40
0.953916598
 40
0.9693080715
 40
1.0
 40
1.0
 40
1.0
 40
1.0
 10
10.1005584269
 20
6.8834294182
 30
0.0
 10
10.0945670027
 20
6.882713111
 30
0.0
 10
10.0825521963
 20
6.8814473633
 30
0.0
 10
10.0644676263
 20
6.8800517655
 30
0.0
 10
10.0463169011
 20
6.8791582083
 30
0.0
 10
10.022025045
 20
6.8786367815
 30
0.0
 10
9.9915602257
 20
6.8792463688
 30
0.0
 10
9.9611173411
 20
6.881528919
 30
0.0
 10
9.9367984225
 20
6.8843529985
 30
0.0
 10
9.9124749388
 20
6.8878478179
 30
0.0
 10
9.882179169
 20
6.8934625017
 30
0.0
 10
9.8461465815
 20
6.9021608127
 30
0.0
 10
9.8105087185
 20
6.9128001153
 30
0.0
 10
9.7753736314
 20
6.9253481383
 30
0.0
 10
9.7408469831
 20
6.939767007
 30
0.0
 10
9.7070328278
 20
6.9560131883
 30
0.0
 10
9.6740330059
 20
6.9740376676
 30
0.0
 10
9.6419469185
 20
6.9937860836
 30
0.0
 10
9.6108712103
 20
7.0151988966
 30
0.0
 10
9.5808994822
 20
7.0382115597
 30
0.0
 10
9.5521220068
 20
7.062754713
 30
0.0
 10
9.5246254644
 20
7.0887543987
 30
0.0
 10
9.4984926825
 20
7.1161322819
 30
0.0
 10
9.4738023881
 20
7.1448058851
 30
0.0
 10
9.4506289725
 20
7.1746888351
 30
0.0
 10
9.4290422678
 20
7.205691122
 30
0.0
 10
9.4091073395
 20
7.2377193636
 30
0.0
 10
9.3908842869
 20
7.2706771049
 30
0.0
 10
9.3744280763
 20
7.3044650291
 30
0.0
 10
9.3597883074
 20
7.3389815342
 30
0.0
 10
9.3470093015
 20
7.3741219964
 30
0.0
 10
9.3379351661
 20
7.4038634342
 30
0.0
 10
9.3316443877
 20
7.4278617288
 30
0.0
 10
9.326012217
 20
7.4519392147
 30
0.0
 10
9.3201930531
 20
7.4822255395
 30
0.0
 10
9.3160156247
 20
7.512726492
 30
0.0
 10
9.3136743495
 20
7.5371672265
 30
0.0
 10
9.3120036585
 20
7.5615706749
 30
0.0
 10
9.311499149
 20
7.579902156
 30
0.0
 10
9.311499149
 20
7.5921076786
 30
0.0
  0
SPLINE
  5
36F
100
AcDbEntity
  8
0
100
AcDbSpline
 62
7
  6
CONTINUOUS
 70
0
 71
3
 72
49
 73
45
 74
0
 42
0.0000001
 43
0.0000001
 44
0.0000000001
 40
0.0
 40
0.0
 40
0.0
 40
0.0
 40
0.0151888453
 40
0.0231979019
 40
0.0315095484
 40
0.0401418088
 40
0.0491103936
 40
0.0584287456
 40
0.0681082746
 40
0.0781582455
 40
0.0885860322
 40
0.0993971491
 40
0.1105951758
 40
0.1221821886
 40
0.1341582438
 40
0.1465221548
 40
0.1592707688
 40
0.1723997581
 40
0.1859030987
 40
0.199773516
 40
0.2140024247
 40
0.2285798901
 40
0.2434950797
 40
0.274289353
 40
0.3062789429
 40
0.3393467733
 40
0.3733690174
 40
0.4082192058
 40
0.4437720483
 40
0.4799066616
 40
0.5165091425
 40
0.5534744625
 40
0.5907075255
 40
0.6281236026
 40
0.6656482212
 40
0.7032166156
 40
0.7407729557
 40
0.7782692974
 40
0.8156643736
 40
0.852922502
 40
0.8900123997
 40
0.9269054121
 40
0.963577154
 40
1.0
 40
1.0
 40
1.0
 40
1.0
 10
11.3971343801
 20
8.8191956953
 30
0.0
 10
11.3971339409
 20
8.8232973292
 30
0.0
 10
11.3967654938
 20
8.8295661554
 30
0.0
 10
11.3956581082
 20
8.8380041622
 30
0.0
 10
11.3944827103
 20
8.8446416642
 30
0.0
 10
11.392981618
 20
8.8514779489
 30
0.0
 10
11.3911588742
 20
8.8585166442
 30
0.0
 10
11.3890201001
 20
8.8657609326
 30
0.0
 10
11.386570749
 20
8.8732140212
 30
0.0
 10
11.3838174758
 20
8.8808791931
 30
0.0
 10
11.3807674565
 20
8.8887596215
 30
0.0
 10
11.3774284463
 20
8.8968582584
 30
0.0
 10
11.3738094042
 20
8.9051780987
 30
0.0
 10
11.3699194333
 20
8.9137215605
 30
0.0
 10
11.3657691465
 20
8.922491177
 30
0.0
 10
11.3613692585
 20
8.9314887182
 30
0.0
 10
11.3567318621
 20
8.940715939
 30
0.0
 10
11.3518694018
 20
8.950173861
 30
0.0
 10
11.3467953209
 20
8.9598632166
 30
0.0
 10
11.3415237005
 20
8.9697841497
 30
0.0
 10
11.3360692454
 20
8.9799362325
 30
0.0
 10
11.3304474325
 20
8.9903185846
 30
0.0
 10
11.3226666732
 20
9.0046189147
 30
0.0
 10
11.3126159282
 20
9.0230370772
 30
0.0
 10
11.3002778023
 20
9.0457913715
 30
0.0
 10
11.2876763732
 20
9.06939409
 30
0.0
 10
11.2749510221
 20
9.0938051557
 30
0.0
 10
11.2622389329
 20
9.1189776658
 30
0.0
 10
11.2496725839
 20
9.1448593341
 30
0.0
 10
11.2373775732
 20
9.1713939263
 30
0.0
 10
11.2254709443
 20
9.1985226142
 30
0.0
 10
11.214060109
 20
9.2261851788
 30
0.0
 10
11.2032422621
 20
9.2543209681
 30
0.0
 10
11.193104256
 20
9.2828695873
 30
0.0
 10
11.1837227825
 20
9.3117713293
 30
0.0
 10
11.1751648227
 20
9.3409674082
 30
0.0
 10
11.1674880235
 20
9.37039994
 30
0.0
 10
11.160741457
 20
9.4000118704
 30
0.0
 10
11.1549662597
 20
9.429746753
 30
0.0
 10
11.1501962445
 20
9.4595484892
 30
0.0
 10
11.146458413
 20
9.4893607852
 30
0.0
 10
11.1437729597
 20
9.5191275874
 30
0.0
 10
11.1421545081
 20
9.548790812
 30
0.0
 10
11.1417910468
 20
9.5685312799
 30
0.0
 10
11.1417910468
 20
9.5783669965
 30
0.0
  0
SPLINE
  5
370
100
AcDbEntity
  8
0
100
AcDbSpline
 62
7
  6
CONTINUOUS
 70
0
 71
3
 72
43
 73
39
 74
0
 42
0.0000001
 43
0.0000001
 44
0.0000000001
 40
0.0
 40
0.0
 40
0.0
 40
0.0
 40
0.0303546589
 40
0.0455763053
 40
0.0608269374
 40
0.0914129854
 40
0.1221164404
 40
0.1375134516
 40
0.1529394062
 40
0.1838739518
 40
0.2149194073
 40
0.2460709173
 40
0.2773223873
 40
0.3086665654
 40
0.3400951368
 40
0.3715988265
 40
0.403167512
 40
0.4347903413
 40
0.4664558587
 40
0.4981521342
 40
0.5298668974
 40
0.5615876735
 40
0.5933019214
 40
0.6249971718
 40
0.6566611651
 40
0.6882819878
 40
0.7198482062
 40
0.7513489958
 40
0.7827742672
 40
0.8141147812
 40
0.8453622728
 40
0.8609502244
 40
0.8765122974
 40
0.9075533139
 40
0.9384831009
 40
0.9539065263
 40
0.9693015043
 40
1.0
 40
1.0
 40
1.0
 40
1.0
 10
10.1007117043
 20
6.8257732282
 30
0.0
 10
10.0878806759
 20
6.824085692
 30
0.0
 10
10.0685379098
 20
6.8220971706
 30
0.0
 10
10.0426496338
 20
6.8205316522
 30
0.0
 10
10.0166283747
 20
6.8196869972
 30
0.0
 10
9.983979617
 20
6.8199924162
 30
0.0
 10
9.9513355531
 20
6.8221050431
 30
0.0
 10
9.9252477405
 20
6.8248732685
 30
0.0
 10
9.8991476475
 20
6.8283660765
 30
0.0
 10
9.8666264421
 20
6.8340789822
 30
0.0
 10
9.8279291047
 20
6.8430553106
 30
0.0
 10
9.7896386765
 20
6.8541316789
 30
0.0
 10
9.7518727861
 20
6.8672740752
 30
0.0
 10
9.7147465027
 20
6.8824422955
 30
0.0
 10
9.6783731871
 20
6.8995899354
 30
0.0
 10
9.6428638263
 20
6.9186645718
 30
0.0
 10
9.6083267841
 20
6.9396079124
 30
0.0
 10
9.5748674499
 20
6.9623559767
 30
0.0
 10
9.5425879259
 20
6.9868392893
 30
0.0
 10
9.5115867153
 20
7.0129830921
 30
0.0
 10
9.4819584253
 20
7.0407075706
 30
0.0
 10
9.4537934792
 20
7.0699280968
 30
0.0
 10
9.4271778427
 20
7.1005554858
 30
0.0
 10
9.4021927629
 20
7.1324962659
 30
0.0
 10
9.3789145217
 20
7.1656529644
 30
0.0
 10
9.3574142009
 20
7.1999243936
 30
0.0
 10
9.3377574635
 20
7.2352059833
 30
0.0
 10
9.3200043742
 20
7.2713900158
 30
0.0
 10
9.3042091465
 20
7.3083662575
 30
0.0
 10
9.290420238
 20
7.3460211593
 30
0.0
 10
9.280628138
 20
7.3778979946
 30
0.0
 10
9.2738393324
 20
7.403622822
 30
0.0
 10
9.2677610964
 20
7.4294343518
 30
0.0
 10
9.2614807985
 20
7.4619052124
 30
0.0
 10
9.2569721095
 20
7.4946096213
 30
0.0
 10
9.254445144
 20
7.5208170553
 30
0.0
 10
9.2526419266
 20
7.546984648
 30
0.0
 10
9.252097386
 20
7.5666418606
 30
0.0
 10
9.252097386
 20
7.5797299782
 30
0.0
  0
SPLINE
  5
371
100
AcDbEntity
  8
0
100
AcDbSpline
 62
7
  6
CONTINUOUS
 70
0
 71
3
 72
61
 73
57
 74
0
 42
0.0000001
 43
0.0000001
 44
0.0000000001
 40
0.0
 40
0.0
 40
0.0
 40
0.0
 40
0.0417736088
 40
0.0840360431
 40
0.126657155
 40
0.1695046842
 40
0.2124458378
 40
0.2553473321
 40
0.2980760744
 40
0.3404996436
 40
0.3824868274
 40
0.4239081481
 40
0.4646363976
 40
0.5045471783
 40
0.5435194547
 40
0.5814361204
 40
0.5999634452
 40
0.6181850312
 40
0.6360876424
 40
0.6536583488
 40
0.6708846631
 40
0.6877544565
 40
0.7042560738
 40
0.7203782989
 40
0.7361104104
 40
0.7514422273
 40
0.7663640903
 40
0.7808669935
 40
0.7949425048
 40
0.8085829615
 40
0.8217813757
 40
0.8345316441
 40
0.8468285057
 40
0.8586677174
 40
0.8700461208
 40
0.8809617639
 40
0.8914141105
 40
0.9014041268
 40
0.9109346407
 40
0.9200104579
 40
0.9286388542
 40
0.9368298218
 40
0.9445966692
 40
0.9519564915
 40
0.9589308526
 40
0.9655464796
 40
0.97183593
 40
0.9778382749
 40
0.9807467215
 40
0.9836011958
 40
0.9864085004
 40
0.9891758164
 40
0.9919106777
 40
0.9946209229
 40
0.9973146203
 40
1.0
 40
1.0
 40
1.0
 40
1.0
 10
14.7569593732
 20
10.6313146343
 30
0.0
 10
14.7569593732
 20
10.609300702
 30
0.0
 10
14.7566159344
 20
10.5650145433
 30
0.0
 10
14.7550976423
 20
10.498283479
 30
0.0
 10
14.752577662
 20
10.4310162876
 30
0.0
 10
14.7490642415
 20
10.3634355877
 30
0.0
 10
14.744568999
 20
10.2957650087
 30
0.0
 10
14.7391067902
 20
10.2282284093
 30
0.0
 10
14.7326957103
 20
10.1610492322
 30
0.0
 10
14.7253570112
 20
10.0944497206
 30
0.0
 10
14.7171150407
 20
10.028650191
 30
0.0
 10
14.7079971604
 20
9.9638682897
 30
0.0
 10
14.6980336552
 20
9.9003182876
 30
0.0
 10
14.6872576442
 20
9.8382102829
 30
0.0
 10
14.6757049451
 20
9.7777497819
 30
0.0
 10
14.6653848309
 20
9.7285343812
 30
0.0
 10
14.6567576606
 20
9.6901438726
 30
0.0
 10
14.6501673504
 20
9.6621071647
 30
0.0
 10
14.643412963
 20
9.6346283799
 30
0.0
 10
14.6364999959
 20
9.6077302285
 30
0.0
 10
14.6294342604
 20
9.5814349554
 30
0.0
 10
14.6222215533
 20
9.5557643065
 30
0.0
 10
14.6148678986
 20
9.530739501
 30
0.0
 10
14.6073793749
 20
9.5063812249
 30
0.0
 10
14.5997621866
 20
9.482709607
 30
0.0
 10
14.5920226821
 20
9.4597441984
 30
0.0
 10
14.5841672227
 20
9.4375039711
 30
0.0
 10
14.5762023981
 20
9.4160072707
 30
0.0
 10
14.5681347188
 20
9.3952718461
 30
0.0
 10
14.5599709665
 20
9.3753147731
 30
0.0
 10
14.5517178089
 20
9.3561525085
 30
0.0
 10
14.5433821538
 20
9.3378008015
 30
0.0
 10
14.5349708339
 20
9.320274746
 30
0.0
 10
14.5264908172
 20
9.3035887141
 30
0.0
 10
14.5179490896
 20
9.2877563653
 30
0.0
 10
14.5093526208
 20
9.2727906474
 30
0.0
 10
14.5007085051
 20
9.25870372
 30
0.0
 10
14.49202366
 20
9.245507062
 30
0.0
 10
14.4833051958
 20
9.233211286
 30
0.0
 10
14.474559921
 20
9.2218263634
 30
0.0
 10
14.4657948089
 20
9.2113613621
 30
0.0
 10
14.4570164775
 20
9.2018247417
 30
0.0
 10
14.4482315663
 20
9.193224134
 30
0.0
 10
14.4394463735
 20
9.1855665986
 30
0.0
 10
14.4306670927
 20
9.1788586557
 30
0.0
 10
14.4218995011
 20
9.1731062878
 30
0.0
 10
14.4131500924
 20
9.1683156691
 30
0.0
 10
14.4058016612
 20
9.1650959696
 30
0.0
 10
14.399954636
 20
9.163027091
 30
0.0
 10
14.3956250734
 20
9.1617346145
 30
0.0
 10
14.3913066422
 20
9.1606856038
 30
0.0
 10
14.387000182
 20
9.1598803696
 30
0.0
 10
14.3827066875
 20
9.1593192209
 30
0.0
 10
14.3784270923
 20
9.159002285
 30
0.0
 10
14.3741625733
 20
9.1589296706
 30
0.0
 10
14.3713283637
 20
9.1590443068
 30
0.0
 10
14.3699166079
 20
9.1591422061
 30
0.0
  0
SPLINE
  5
372
100
AcDbEntity
  8
0
100
AcDbSpline
 62
7
  6
CONTINUOUS
 70
0
 71
3
 72
55
 73
51
 74
0
 42
0.0000001
 43
0.0000001
 44
0.0000000001
 40
0.0
 40
0.0
 40
0.0
 40
0.0
 40
0.0149713426
 40
0.029945745
 40
0.0449262466
 40
0.0599158497
 40
0.0749175039
 40
0.0899340815
 40
0.1049683671
 40
0.1200230387
 40
0.1351006478
 40
0.1502036136
 40
0.1653342004
 40
0.1804945089
 40
0.1956864682
 40
0.2109118157
 40
0.2261721
 40
0.2414686657
 40
0.2568026464
 40
0.2721749684
 40
0.2875863346
 40
0.3030372323
 40
0.3185279299
 40
0.3340584699
 40
0.3496286834
 40
0.3652381805
 40
0.3808863595
 40
0.3965724155
 40
0.4122953346
 40
0.4280539148
 40
0.4596672873
 40
0.4914043865
 40
0.5232494291
 40
0.5551844326
 40
0.5871895976
 40
0.619243717
 40
0.651324607
 40
0.6834095519
 40
0.7154757557
 40
0.747500794
 40
0.7794630628
 40
0.8113422149
 40
0.8431195771
 40
0.8747785431
 40
0.8905616191
 40
0.9063099906
 40
0.9220223492
 40
0.9376975737
 40
0.9689273837
 40
1.0
 40
1.0
 40
1.0
 40
1.0
 10
9.9171586864
 20
6.4676289458
 30
0.0
 10
9.9110697089
 20
6.4617474245
 30
0.0
 10
9.8986552028
 20
6.4502240106
 30
0.0
 10
9.8793592931
 20
6.4336906078
 30
0.0
 10
9.8594135949
 20
6.4179298904
 30
0.0
 10
9.8388460766
 20
6.4029637399
 30
0.0
 10
9.8176848501
 20
6.3888127699
 30
0.0
 10
9.7959590917
 20
6.3754964497
 30
0.0
 10
9.7736987452
 20
6.3630329963
 30
0.0
 10
9.7509343584
 20
6.3514397195
 30
0.0
 10
9.7276973463
 20
6.3407323958
 30
0.0
 10
9.7040196485
 20
6.3309258165
 30
0.0
 10
9.6799338341
 20
6.3220335114
 30
0.0
 10
9.6554730994
 20
6.3140675447
 30
0.0
 10
9.6306710422
 20
6.3070390413
 30
0.0
 10
9.6055618277
 20
6.3009575266
 30
0.0
 10
9.5801799951
 20
6.2958313457
 30
0.0
 10
9.5545604421
 20
6.2916676573
 30
0.0
 10
9.5287384404
 20
6.2884719785
 30
0.0
 10
9.5027494867
 20
6.286248842
 30
0.0
 10
9.4766293368
 20
6.2850012303
 30
0.0
 10
9.4504139124
 20
6.284730758
 30
0.0
 10
9.4241392673
 20
6.2854379547
 30
0.0
 10
9.3978415293
 20
6.2871216402
 30
0.0
 10
9.3715568597
 20
6.2897795811
 30
0.0
 10
9.3453214156
 20
6.2934081282
 30
0.0
 10
9.3191712154
 20
6.2980021435
 30
0.0
 10
9.2931423543
 20
6.3035554387
 30
0.0
 10
9.2672701811
 20
6.3100603723
 30
0.0
 10
9.2329984293
 20
6.3199996236
 30
0.0
 10
9.190727943
 20
6.3347629104
 30
0.0
 10
9.1412559223
 20
6.3560893679
 30
0.0
 10
9.093245774
 20
6.3809300377
 30
0.0
 10
9.0469627134
 20
6.4091477611
 30
0.0
 10
9.0026602177
 20
6.4405875612
 30
0.0
 10
8.9605815166
 20
6.4750766881
 30
0.0
 10
8.9209574441
 20
6.5124257093
 30
0.0
 10
8.8840054586
 20
6.5524295802
 30
0.0
 10
8.8499284056
 20
6.59486874
 30
0.0
 10
8.818913435
 20
6.6395103622
 30
0.0
 10
8.791130943
 20
6.6861093474
 30
0.0
 10
8.7667334955
 20
6.7344104727
 30
0.0
 10
8.7458557752
 20
6.7841469335
 30
0.0
 10
8.7314699585
 20
6.8266130525
 30
0.0
 10
8.7218326153
 20
6.8610270195
 30
0.0
 10
8.7155534559
 20
6.886999178
 30
0.0
 10
8.7102254309
 20
6.9131207787
 30
0.0
 10
8.7044071694
 20
6.9480537609
 30
0.0
 10
8.699535611
 20
6.9919179165
 30
0.0
 10
8.6982250866
 20
7.0271600736
 30
0.0
 10
8.6982250866
 20
7.044730388
 30
0.0
  0
SPLINE
  5
373
100
AcDbEntity
  8
0
100
AcDbSpline
 62
7
  6
CONTINUOUS
 70
0
 71
3
 72
54
 73
50
 74
0
 42
0.0000001
 43
0.0000001
 44
0.0000000001
 40
0.0
 40
0.0
 40
0.0
 40
0.0
 40
0.0149609029
 40
0.0299299255
 40
0.0449098678
 40
0.0599034639
 40
0.07491337
 40
0.089942152
 40
0.1049922632
 40
0.1200660404
 40
0.135165685
 40
0.1502932511
 40
0.1654506415
 40
0.1806395878
 40
0.1958616507
 40
0.21111821
 40
0.2264104527
 40
0.2417393791
 40
0.2571057873
 40
0.272510277
 40
0.2879532492
 40
0.3034348963
 40
0.3189552159
 40
0.3345140011
 40
0.3501108471
 40
0.3657451596
 40
0.3814161475
 40
0.3971228414
 40
0.4286338034
 40
0.4602716597
 40
0.4920227052
 40
0.5238710432
 40
0.5557989108
 40
0.5877870312
 40
0.6198149876
 40
0.6518616134
 40
0.6839053919
 40
0.7159248594
 40
0.7478990088
 40
0.7798076874
 40
0.8116319828
 40
0.8433545917
 40
0.8749601653
 40
0.8907172686
 40
0.9064404048
 40
0.9221283752
 40
0.9377801437
 40
0.9689664454
 40
1.0
 40
1.0
 40
1.0
 40
1.0
 10
9.9147640924
 20
6.3565550724
 30
0.0
 10
9.9077639626
 20
6.3506909064
 30
0.0
 10
9.8935317798
 20
6.3392286527
 30
0.0
 10
9.8715300471
 20
6.3228671454
 30
0.0
 10
9.8488975112
 20
6.3073539052
 30
0.0
 10
9.8256639557
 20
6.2927095551
 30
0.0
 10
9.8018595988
 20
6.2789528682
 30
0.0
 10
9.7775153347
 20
6.2661019192
 30
0.0
 10
9.7526628759
 20
6.2541733106
 30
0.0
 10
9.7273345584
 20
6.2431825117
 30
0.0
 10
9.7015632662
 20
6.2331439471
 30
0.0
 10
9.6753825925
 20
6.2240704595
 30
0.0
 10
9.6488265282
 20
6.2159739874
 30
0.0
 10
9.6219296294
 20
6.2088649892
 30
0.0
 10
9.5947268873
 20
6.2027526073
 30
0.0
 10
9.5672536355
 20
6.1976449533
 30
0.0
 10
9.5395456328
 20
6.1935484455
 30
0.0
 10
9.5116388796
 20
6.1904685172
 30
0.0
 10
9.4835696614
 20
6.1884091505
 30
0.0
 10
9.4553744708
 20
6.1873728751
 30
0.0
 10
9.4270899522
 20
6.1873612204
 30
0.0
 10
9.398752872
 20
6.1883739946
 30
0.0
 10
9.3704000561
 20
6.1904099465
 30
0.0
 10
9.34206837
 20
6.1934664587
 30
0.0
 10
9.3137945811
 20
6.1975393902
 30
0.0
 10
9.2856155741
 20
6.2026235929
 30
0.0
 10
9.2575675183
 20
6.2087124315
 30
0.0
 10
9.2203579087
 20
6.2181686961
 30
0.0
 10
9.1743543387
 20
6.2324666464
 30
0.0
 10
9.1203209217
 20
6.2534638782
 30
0.0
 10
9.0676706169
 20
6.2782120293
 30
0.0
 10
9.0166783701
 20
6.3065819007
 30
0.0
 10
8.9676081696
 20
6.3384261444
 30
0.0
 10
8.9207146782
 20
6.373579334
 30
0.0
 10
8.8762410674
 20
6.4118589259
 30
0.0
 10
8.8344180241
 20
6.4530662182
 30
0.0
 10
8.795462522
 20
6.4969873979
 30
0.0
 10
8.7595767326
 20
6.543394619
 30
0.0
 10
8.7269469491
 20
6.5920472078
 30
0.0
 10
8.6977426257
 20
6.6426926583
 30
0.0
 10
8.6721153827
 20
6.6950687704
 30
0.0
 10
8.6501989538
 20
6.7489020631
 30
0.0
 10
8.6351055965
 20
6.7947980774
 30
0.0
 10
8.6249971235
 20
6.8319605148
 30
0.0
 10
8.6184121432
 20
6.8599940773
 30
0.0
 10
8.6128254605
 20
6.8881779938
 30
0.0
 10
8.6067253081
 20
6.9258587294
 30
0.0
 10
8.6016188345
 20
6.9731565274
 30
0.0
 10
8.6002455094
 20
7.0111471363
 30
0.0
 10
8.6002455094
 20
7.0300893784
 30
0.0
  0
SPLINE
  5
374
100
AcDbEntity
  8
0
100
AcDbSpline
 62
7
  6
CONTINUOUS
 70
0
 71
3
 72
51
 73
47
 74
0
 42
0.0000001
 43
0.0000001
 44
0.0000000001
 40
0.0
 40
0.0
 40
0.0
 40
0.0
 40
0.0055575483
 40
0.0111779716
 40
0.01692191
 40
0.0228457685
 40
0.029000541
 40
0.0354309187
 40
0.0421753321
 40
0.0492661787
 40
0.0567301751
 40
0.0645892818
 40
0.072860934
 40
0.0815589354
 40
0.0906938799
 40
0.1002734384
 40
0.1103031157
 40
0.1207861166
 40
0.1317239771
 40
0.1431166596
 40
0.1549625852
 40
0.1672591636
 40
0.1800024627
 40
0.1931876894
 40
0.2068091423
 40
0.2208601567
 40
0.2502201891
 40
0.2812020358
 40
0.3137291498
 40
0.3477165256
 40
0.3830717054
 40
0.4196956132
 40
0.4574832856
 40
0.4963245986
 40
0.5361048951
 40
0.5767055669
 40
0.6180046028
 40
0.6598771293
 40
0.7021959705
 40
0.7448321944
 40
0.7876555817
 40
0.8305351627
 40
0.8733399838
 40
0.9159382941
 40
0.9582023666
 40
1.0
 40
1.0
 40
1.0
 40
1.0
 10
12.6761742968
 20
10.9731158879
 30
0.0
 10
12.6761742894
 20
10.9739668781
 30
0.0
 10
12.6762695301
 20
10.9756799681
 30
0.0
 10
12.6766970869
 20
10.9782404722
 30
0.0
 10
12.6774087074
 20
10.9807952436
 30
0.0
 10
12.6784028499
 20
10.9833413761
 30
0.0
 10
12.679678059
 20
10.9858767315
 30
0.0
 10
12.6812324775
 20
10.9883994309
 30
0.0
 10
12.6830643959
 20
10.99090772
 30
0.0
 10
12.6851720423
 20
10.9933998735
 30
0.0
 10
12.687553451
 20
10.995874299
 30
0.0
 10
12.6902067241
 20
10.9983291704
 30
0.0
 10
12.6931296266
 20
11.0007628198
 30
0.0
 10
12.6963198524
 20
11.0031734167
 30
0.0
 10
12.6997748732
 20
11.0055591033
 30
0.0
 10
12.7034918938
 20
11.0079181192
 30
0.0
 10
12.7074679973
 20
11.0102485062
 30
0.0
 10
12.7116999541
 20
11.0125484965
 30
0.0
 10
12.7161843779
 20
11.0148162088
 30
0.0
 10
12.7209176554
 20
11.0170497863
 30
0.0
 10
12.7258959353
 20
11.0192474871
 30
0.0
 10
12.7311152064
 20
11.0214074292
 30
0.0
 10
12.7365712054
 20
11.0235279251
 30
0.0
 10
12.7422594995
 20
11.0256071999
 30
0.0
 10
12.748175462
 20
11.0276435554
 30
0.0
 10
12.7564825526
 20
11.0303387975
 30
0.0
 10
12.7674056296
 20
11.0335785491
 30
0.0
 10
12.7811550832
 20
11.0372150146
 30
0.0
 10
12.7956868752
 20
11.0406429146
 30
0.0
 10
12.8109535135
 20
11.0438509208
 30
0.0
 10
12.8269052262
 20
11.0468283963
 30
0.0
 10
12.8434898825
 20
11.0495654793
 30
0.0
 10
12.8606532472
 20
11.0520531199
 30
0.0
 10
12.8783391558
 20
11.0542830916
 30
0.0
 10
12.8964897163
 20
11.0562480208
 30
0.0
 10
12.915045499
 20
11.0579414089
 30
0.0
 10
12.9339457303
 20
11.059357655
 30
0.0
 10
12.9531284933
 20
11.0604920891
 30
0.0
 10
12.9725309411
 20
11.0613409686
 30
0.0
 10
12.9920895021
 20
11.0619014897
 30
0.0
 10
13.0117400868
 20
11.062171798
 30
0.0
 10
13.031418334
 20
11.0621510007
 30
0.0
 10
13.051059652
 20
11.0618391525
 30
0.0
 10
13.0705999558
 20
11.0612373324
 30
0.0
 10
13.0899748426
 20
11.0603474534
 30
0.0
 10
13.1028230997
 20
11.0595590136
 30
0.0
 10
13.1092079564
 20
11.0591162223
 30
0.0
  0
SPLINE
  5
375
100
AcDbEntity
  8
0
100
AcDbSpline
 62
7
  6
CONTINUOUS
 70
0
 71
3
 72
56
 73
52
 74
0
 42
0.0000001
 43
0.0000001
 44
0.0000000001
 40
0.0
 40
0.0
 40
0.0
 40
0.0
 40
0.0149712696
 40
0.0299455975
 40
0.0449260257
 40
0.0599155555
 40
0.0749171349
 40
0.0899336395
 40
0.1049678509
 40
0.1200224476
 40
0.1350999838
 40
0.1502028742
 40
0.1653333868
 40
0.1804936216
 40
0.1956855044
 40
0.2109107785
 40
0.2261709873
 40
0.2414674767
 40
0.2568013838
 40
0.2721736284
 40
0.2875849194
 40
0.303035742
 40
0.3185263613
 40
0.3340568268
 40
0.3496269629
 40
0.3652363825
 40
0.3808844863
 40
0.3965704631
 40
0.412293306
 40
0.4280518089
 40
0.4438445787
 40
0.4596700473
 40
0.4755264713
 40
0.4914119521
 40
0.5232568382
 40
0.5551916851
 40
0.5871966925
 40
0.619250654
 40
0.6513313861
 40
0.6834161731
 40
0.7154822189
 40
0.7475070999
 40
0.7794692115
 40
0.8113482064
 40
0.8431254121
 40
0.874784222
 40
0.9063104541
 40
0.9220227305
 40
0.937697876
 40
0.9689275382
 40
1.0
 40
1.0
 40
1.0
 40
1.0
 10
9.8806954795
 20
6.3211819028
 30
0.0
 10
9.8739428461
 20
6.3146593504
 30
0.0
 10
9.8601752537
 20
6.3018799854
 30
0.0
 10
9.8387762318
 20
6.2835445969
 30
0.0
 10
9.8166566602
 20
6.2660660323
 30
0.0
 10
9.793847398
 20
6.2494687656
 30
0.0
 10
9.7703798074
 20
6.2337754031
 30
0.0
 10
9.746286116
 20
6.2190077137
 30
0.0
 10
9.7215995414
 20
6.2051859068
 30
0.0
 10
9.6963540696
 20
6.192328964
 30
0.0
 10
9.6705843786
 20
6.180454702
 30
0.0
 10
9.6443260119
 20
6.1695792747
 30
0.0
 10
9.6176150596
 20
6.1597177242
 30
0.0
 10
9.5904882734
 20
6.1508836311
 30
0.0
 10
9.5629830212
 20
6.1430889873
 30
0.0
 10
9.5351370981
 20
6.1363446681
 30
0.0
 10
9.5069888451
 20
6.1306598258
 30
0.0
 10
9.4785769862
 20
6.1260422239
 30
0.0
 10
9.4499405843
 20
6.122498345
 30
0.0
 10
9.4211190526
 20
6.1200328592
 30
0.0
 10
9.3921520195
 20
6.1186492325
 30
0.0
 10
9.3630793284
 20
6.118349381
 30
0.0
 10
9.3339409588
 20
6.1191335455
 30
0.0
 10
9.3047769846
 20
6.1210008001
 30
0.0
 10
9.2756275062
 20
6.1239484542
 30
0.0
 10
9.2465325938
 20
6.1279723956
 30
0.0
 10
9.2175322753
 20
6.1330672246
 30
0.0
 10
9.188666392
 20
6.1392257403
 30
0.0
 10
9.159974641
 20
6.146439549
 30
0.0
 10
9.1314964887
 20
6.1546987496
 30
0.0
 10
9.1032710088
 20
6.1639918445
 30
0.0
 10
9.0753371651
 20
6.1743061434
 30
0.0
 10
9.0477329088
 20
6.18562759
 30
0.0
 10
9.0113921279
 20
6.2020560603
 30
0.0
 10
8.9669819522
 20
6.2250338935
 30
0.0
 10
8.9156554781
 20
6.256326677
 30
0.0
 10
8.8665240947
 20
6.2911932868
 30
0.0
 10
8.8198592037
 20
6.3294413748
 30
0.0
 10
8.7759164162
 20
6.3708611512
 30
0.0
 10
8.7349369917
 20
6.4152251303
 30
0.0
 10
8.697145825
 20
6.4622898273
 30
0.0
 10
8.6627504532
 20
6.5117969698
 30
0.0
 10
8.6319398696
 20
6.5634749771
 30
0.0
 10
8.6048834176
 20
6.6170401216
 30
0.0
 10
8.5817298251
 20
6.6721989991
 30
0.0
 10
8.5626069723
 20
6.7286469632
 30
0.0
 10
8.5501025952
 20
6.7765644416
 30
0.0
 10
8.5422164214
 20
6.8152285019
 30
0.0
 10
8.5357639039
 20
6.8539692269
 30
0.0
 10
8.5303614475
 20
6.902614053
 30
0.0
 10
8.5289080687
 20
6.9416973637
 30
0.0
 10
8.5289080687
 20
6.9611826979
 30
0.0
  0
SPLINE
  5
376
100
AcDbEntity
  8
0
100
AcDbSpline
 62
7
  6
CONTINUOUS
 70
0
 71
3
 72
55
 73
51
 74
0
 42
0.0000001
 43
0.0000001
 44
0.0000000001
 40
0.0
 40
0.0
 40
0.0
 40
0.0
 40
0.0149619368
 40
0.0299312102
 40
0.0449106607
 40
0.0599030693
 40
0.0749111394
 40
0.0899374877
 40
0.1049846232
 40
0.1200549352
 40
0.1351506842
 40
0.1502739817
 40
0.1654267865
 40
0.1806108923
 40
0.195827914
 40
0.2110792891
 40
0.2263662629
 40
0.2416898848
 40
0.2570510099
 40
0.2724502853
 40
0.2878881575
 40
0.3033648687
 40
0.3188804517
 40
0.3344347417
 40
0.3500273692
 40
0.3656577666
 40
0.3813251774
 40
0.397028651
 40
0.412767059
 40
0.4285390978
 40
0.4443432922
 40
0.4601780138
 40
0.4919270556
 40
0.5237750956
 40
0.5557043255
 40
0.5876953777
 40
0.6197277047
 40
0.6517799743
 40
0.683830476
 40
0.7158575332
 40
0.7478399137
 40
0.7797572342
 40
0.8115903556
 40
0.8433217594
 40
0.8749358986
 40
0.9064195193
 40
0.9221113913
 40
0.9377669155
 40
0.9689601911
 40
1.0
 40
1.0
 40
1.0
 40
1.0
 10
9.8710038228
 20
6.2483137177
 30
0.0
 10
9.8636375833
 20
6.2419993273
 30
0.0
 10
9.8486547491
 20
6.2296520612
 30
0.0
 10
9.8254735547
 20
6.2120120068
 30
0.0
 10
9.8016102533
 20
6.1952710603
 30
0.0
 10
9.7770964919
 20
6.1794517314
 30
0.0
 10
9.7519644311
 20
6.1645745325
 30
0.0
 10
9.7262470625
 20
6.150659048
 30
0.0
 10
9.6999780999
 20
6.1377236047
 30
0.0
 10
9.6731921042
 20
6.1257850089
 30
0.0
 10
9.6459241663
 20
6.1148590615
 30
0.0
 10
9.6182101061
 20
6.1049600286
 30
0.0
 10
9.5900863184
 20
6.0961008079
 30
0.0
 10
9.5615896633
 20
6.0882931755
 30
0.0
 10
9.5327575864
 20
6.0815471882
 30
0.0
 10
9.5036279016
 20
6.0758717444
 30
0.0
 10
9.4742388247
 20
6.0712743371
 30
0.0
 10
9.4446289394
 20
6.067760813
 30
0.0
 10
9.4148370726
 20
6.0653359288
 30
0.0
 10
9.3849023206
 20
6.064002761
 30
0.0
 10
9.3548639491
 20
6.0637629812
 30
0.0
 10
9.3247613633
 20
6.0646170468
 30
0.0
 10
9.2946340439
 20
6.066563638
 30
0.0
 10
9.264521507
 20
6.0696002693
 30
0.0
 10
9.2344632561
 20
6.0737229821
 30
0.0
 10
9.2044986878
 20
6.0789262004
 30
0.0
 10
9.1746671252
 20
6.085203254
 30
0.0
 10
9.1450076789
 20
6.0925457892
 30
0.0
 10
9.1155591978
 20
6.1009441436
 30
0.0
 10
9.0863604536
 20
6.1103873758
 30
0.0
 10
9.0574492547
 20
6.1208631246
 30
0.0
 10
9.0193061193
 20
6.1362006913
 30
0.0
 10
8.972537159
 20
6.1578885687
 30
0.0
 10
8.91821944
 20
6.1877652122
 30
0.0
 10
8.8659330038
 20
6.2213625946
 30
0.0
 10
8.8159533638
 20
6.2585038656
 30
0.0
 10
8.7685416472
 20
6.2989946155
 30
0.0
 10
8.7239461989
 20
6.3426227217
 30
0.0
 10
8.682400428
 20
6.3891596954
 30
0.0
 10
8.6441219023
 20
6.4383618918
 30
0.0
 10
8.6093111637
 20
6.4899717594
 30
0.0
 10
8.5781506793
 20
6.5437192089
 30
0.0
 10
8.5508038288
 20
6.5993227389
 30
0.0
 10
8.527414026
 20
6.6564918045
 30
0.0
 10
8.5081045105
 20
6.7149251966
 30
0.0
 10
8.4954828044
 20
6.7644805502
 30
0.0
 10
8.487523987
 20
6.804446479
 30
0.0
 10
8.4810124501
 20
6.844483081
 30
0.0
 10
8.4755615683
 20
6.8947402342
 30
0.0
 10
8.4740955175
 20
6.935109763
 30
0.0
 10
8.4740955175
 20
6.9552378359
 30
0.0
  0
SPLINE
  5
377
100
AcDbEntity
  8
0
100
AcDbSpline
 62
7
  6
CONTINUOUS
 70
0
 71
3
 72
54
 73
50
 74
0
 42
0.0000001
 43
0.0000001
 44
0.0000000001
 40
0.0
 40
0.0
 40
0.0
 40
0.0
 40
0.0149714207
 40
0.0299459009
 40
0.0449264795
 40
0.0599161607
 40
0.0749178924
 40
0.0899345474
 40
0.1049689109
 40
0.1200236599
 40
0.135101347
 40
0.1502043904
 40
0.1653350555
 40
0.1804954423
 40
0.195687479
 40
0.210912906
 40
0.2261732683
 40
0.2414699124
 40
0.2568039734
 40
0.2721763729
 40
0.2875878193
 40
0.3030387972
 40
0.3185295728
 40
0.3340601946
 40
0.3496304877
 40
0.3652400644
 40
0.3808883259
 40
0.3965744612
 40
0.4122974619
 40
0.4280561242
 40
0.4438490534
 40
0.4596746808
 40
0.4914119437
 40
0.5232571513
 40
0.5551923202
 40
0.587197651
 40
0.6192519366
 40
0.651332993
 40
0.6834181045
 40
0.7154844744
 40
0.7475096792
 40
0.7794721147
 40
0.8113514322
 40
0.8431289588
 40
0.8747880885
 40
0.9063146442
 40
0.9376972366
 40
0.9689272309
 40
1.0
 40
1.0
 40
1.0
 40
1.0
 10
9.8718414592
 20
6.2472841762
 30
0.0
 10
9.8646989276
 20
6.2403850141
 30
0.0
 10
9.8501364689
 20
6.2268676902
 30
0.0
 10
9.8275018414
 20
6.2074736469
 30
0.0
 10
9.8041050906
 20
6.1889858714
 30
0.0
 10
9.7799788896
 20
6.1714301876
 30
0.0
 10
9.7551562443
 20
6.1548307475
 30
0.0
 10
9.7296714162
 20
6.139210327
 30
0.0
 10
9.703559475
 20
6.1245903863
 30
0.0
 10
9.6768563017
 20
6.1109911461
 30
0.0
 10
9.6495987099
 20
6.0984311845
 30
0.0
 10
9.6218241946
 20
6.0869277911
 30
0.0
 10
9.5935709445
 20
6.0764968669
 30
0.0
 10
9.5648778878
 20
6.0671526109
 30
0.0
 10
9.53578448
 20
6.0589079215
 30
0.0
 10
9.5063307406
 20
6.051774174
 30
0.0
 10
9.4765572223
 20
6.0457610293
 30
0.0
 10
9.4465048616
 20
6.0408768339
 30
0.0
 10
9.4162150028
 20
6.0371282911
 30
0.0
 10
9.3857293211
 20
6.0345204209
 30
0.0
 10
9.3550897348
 20
6.0330569096
 30
0.0
 10
9.3243383903
 20
6.0327397067
 30
0.0
 10
9.2935175744
 20
6.0335691428
 30
0.0
 10
9.2626696742
 20
6.0355441899
 30
0.0
 10
9.2318371065
 20
6.0386620269
 30
0.0
 10
9.2010622566
 20
6.0429183009
 30
0.0
 10
9.170387455
 20
6.0483072711
 30
0.0
 10
9.1398548669
 20
6.0548213897
 30
0.0
 10
9.1095064292
 20
6.0624516946
 30
0.0
 10
9.0793840168
 20
6.0711877312
 30
0.0
 10
9.0495285428
 20
6.0810175552
 30
0.0
 10
9.0100995669
 20
6.0955761067
 30
0.0
 10
8.9616870651
 20
6.116445311
 30
0.0
 10
8.9053715621
 20
6.1455834949
 30
0.0
 10
8.8510799344
 20
6.1786837088
 30
0.0
 10
8.7991121114
 20
6.2155633298
 30
0.0
 10
8.7497527063
 20
6.2560199341
 30
0.0
 10
8.7032726622
 20
6.299831235
 30
0.0
 10
8.6599270363
 20
6.3467567516
 30
0.0
 10
8.6199538342
 20
6.3965389768
 30
0.0
 10
8.5835724905
 20
6.4489046746
 30
0.0
 10
8.5509828539
 20
6.5035665063
 30
0.0
 10
8.5223641356
 20
6.5602245916
 30
0.0
 10
8.4978737434
 20
6.6185679886
 30
0.0
 10
8.4776465029
 20
6.6782765903
 30
0.0
 10
8.4617940128
 20
6.7390223813
 30
0.0
 10
8.4504040307
 20
6.8004729508
 30
0.0
 10
8.4435394847
 20
6.8622864801
 30
0.0
 10
8.4420019829
 20
6.9036274488
 30
0.0
 10
8.4420019829
 20
6.9242378602
 30
0.0
  0
SPLINE
  5
378
100
AcDbEntity
  8
0
100
AcDbSpline
 62
7
  6
CONTINUOUS
 70
0
 71
3
 72
51
 73
47
 74
0
 42
0.0000001
 43
0.0000001
 44
0.0000000001
 40
0.0
 40
0.0
 40
0.0
 40
0.0
 40
0.0055575483
 40
0.0111779716
 40
0.01692191
 40
0.0228457685
 40
0.029000541
 40
0.0354309187
 40
0.0421753321
 40
0.0492661787
 40
0.0567301751
 40
0.0645892818
 40
0.072860934
 40
0.0815589354
 40
0.0906938799
 40
0.1002734384
 40
0.1103031157
 40
0.1207861166
 40
0.1317239771
 40
0.1431166596
 40
0.1549625852
 40
0.1672591636
 40
0.1800024627
 40
0.1931876894
 40
0.2068091423
 40
0.2208601567
 40
0.2502201891
 40
0.2812020358
 40
0.3137291498
 40
0.3477165256
 40
0.3830717054
 40
0.4196956132
 40
0.4574832856
 40
0.4963245986
 40
0.5361048951
 40
0.5767055669
 40
0.6180046028
 40
0.6598771293
 40
0.7021959705
 40
0.7448321944
 40
0.7876555817
 40
0.8305351627
 40
0.8733399838
 40
0.9159382941
 40
0.9582023666
 40
1.0
 40
1.0
 40
1.0
 40
1.0
 10
8.0880265228
 20
11.2913050167
 30
0.0
 10
8.0880265154
 20
11.2921560069
 30
0.0
 10
8.0881217561
 20
11.293869097
 30
0.0
 10
8.0885493129
 20
11.2964296011
 30
0.0
 10
8.0892609334
 20
11.2989843724
 30
0.0
 10
8.0902550759
 20
11.3015305049
 30
0.0
 10
8.091530285
 20
11.3040658603
 30
0.0
 10
8.0930847035
 20
11.3065885597
 30
0.0
 10
8.0949166219
 20
11.3090968489
 30
0.0
 10
8.0970242683
 20
11.3115890023
 30
0.0
 10
8.099405677
 20
11.3140634279
 30
0.0
 10
8.1020589501
 20
11.3165182992
 30
0.0
 10
8.1049818526
 20
11.3189519486
 30
0.0
 10
8.1081720784
 20
11.3213625455
 30
0.0
 10
8.1116270992
 20
11.3237482322
 30
0.0
 10
8.1153441198
 20
11.3261072481
 30
0.0
 10
8.1193202233
 20
11.3284376351
 30
0.0
 10
8.12355218
 20
11.3307376253
 30
0.0
 10
8.1280366039
 20
11.3330053376
 30
0.0
 10
8.1327698814
 20
11.3352389151
 30
0.0
 10
8.1377481613
 20
11.3374366159
 30
0.0
 10
8.1429674324
 20
11.339596558
 30
0.0
 10
8.1484234314
 20
11.3417170539
 30
0.0
 10
8.1541117255
 20
11.3437963287
 30
0.0
 10
8.160027688
 20
11.3458326842
 30
0.0
 10
8.1683347786
 20
11.3485279263
 30
0.0
 10
8.1792578556
 20
11.351767678
 30
0.0
 10
8.1930073092
 20
11.3554041434
 30
0.0
 10
8.2075391012
 20
11.3588320434
 30
0.0
 10
8.2228057395
 20
11.3620400496
 30
0.0
 10
8.2387574522
 20
11.3650175251
 30
0.0
 10
8.2553421085
 20
11.3677546081
 30
0.0
 10
8.2725054732
 20
11.3702422488
 30
0.0
 10
8.2901913817
 20
11.3724722204
 30
0.0
 10
8.3083419423
 20
11.3744371497
 30
0.0
 10
8.326897725
 20
11.3761305378
 30
0.0
 10
8.3457979563
 20
11.3775467839
 30
0.0
 10
8.3649807193
 20
11.3786812179
 30
0.0
 10
8.3843831671
 20
11.3795300974
 30
0.0
 10
8.403941728
 20
11.3800906186
 30
0.0
 10
8.4235923128
 20
11.3803609268
 30
0.0
 10
8.44327056
 20
11.3803401295
 30
0.0
 10
8.462911878
 20
11.3800282813
 30
0.0
 10
8.4824521817
 20
11.3794264612
 30
0.0
 10
8.5018270686
 20
11.3785365822
 30
0.0
 10
8.5146753257
 20
11.3777481424
 30
0.0
 10
8.5210601824
 20
11.3773053511
 30
0.0
  0
SPLINE
  5
379
100
AcDbEntity
  8
0
100
AcDbSpline
 62
4
  6
CONTINUOUS
 70
0
 71
3
 72
361
 73
357
 74
0
 42
0.0000001
 43
0.0000001
 44
0.0000000001
 40
0.0
 40
0.0
 40
0.0
 40
0.0
 40
0.015625
 40
0.0234375
 40
0.03125
 40
0.0390625
 40
0.04296875
 40
0.046875
 40
0.05078125
 40
0.0546875
 40
0.056640625
 40
0.05859375
 40
0.0595703125
 40
0.060546875
 40
0.0615234375
 40
0.0620117188
 40
0.0625
 40
0.0629882812
 40
0.0634765625
 40
0.064453125
 40
0.0654296875
 40
0.06640625
 40
0.068359375
 40
0.0703125
 40
0.07421875
 40
0.078125
 40
0.08203125
 40
0.0859375
 40
0.09375
 40
0.1015625
 40
0.10546875
 40
0.109375
 40
0.11328125
 40
0.1171875
 40
0.119140625
 40
0.12109375
 40
0.1220703125
 40
0.123046875
 40
0.1240234375
 40
0.1245117188
 40
0.125
 40
0.1254882812
 40
0.1259765625
 40
0.126953125
 40
0.1279296875
 40
0.12890625
 40
0.130859375
 40
0.1328125
 40
0.13671875
 40
0.140625
 40
0.14453125
 40
0.1484375
 40
0.15625
 40
0.1640625
 40
0.16796875
 40
0.171875
 40
0.17578125
 40
0.1796875
 40
0.181640625
 40
0.18359375
 40
0.1845703125
 40
0.185546875
 40
0.1865234375
 40
0.1870117188
 40
0.1875
 40
0.1879882812
 40
0.1884765625
 40
0.189453125
 40
0.1904296875
 40
0.19140625
 40
0.193359375
 40
0.1953125
 40
0.19921875
 40
0.203125
 40
0.20703125
 40
0.2109375
 40
0.21875
 40
0.2265625
 40
0.23046875
 40
0.234375
 40
0.23828125
 40
0.2421875
 40
0.244140625
 40
0.24609375
 40
0.2470703125
 40
0.248046875
 40
0.2490234375
 40
0.2495117188
 40
0.25
 40
0.2504882812
 40
0.2509765625
 40
0.251953125
 40
0.2529296875
 40
0.25390625
 40
0.255859375
 40
0.2578125
 40
0.26171875
 40
0.265625
 40
0.26953125
 40
0.2734375
 40
0.28125
 40
0.2890625
 40
0.29296875
 40
0.296875
 40
0.30078125
 40
0.3046875
 40
0.306640625
 40
0.30859375
 40
0.3095703125
 40
0.310546875
 40
0.3115234375
 40
0.3120117188
 40
0.3125
 40
0.3129882812
 40
0.3134765625
 40
0.314453125
 40
0.3154296875
 40
0.31640625
 40
0.318359375
 40
0.3203125
 40
0.32421875
 40
0.328125
 40
0.33203125
 40
0.3359375
 40
0.34375
 40
0.3515625
 40
0.35546875
 40
0.359375
 40
0.36328125
 40
0.3671875
 40
0.369140625
 40
0.37109375
 40
0.3720703125
 40
0.373046875
 40
0.3740234375
 40
0.3745117188
 40
0.375
 40
0.3754882812
 40
0.3759765625
 40
0.376953125
 40
0.3779296875
 40
0.37890625
 40
0.380859375
 40
0.3828125
 40
0.38671875
 40
0.390625
 40
0.39453125
 40
0.3984375
 40
0.40625
 40
0.4140625
 40
0.41796875
 40
0.421875
 40
0.42578125
 40
0.4296875
 40
0.431640625
 40
0.43359375
 40
0.4345703125
 40
0.435546875
 40
0.4365234375
 40
0.4370117188
 40
0.4375
 40
0.4379882812
 40
0.4384765625
 40
0.439453125
 40
0.4404296875
 40
0.44140625
 40
0.443359375
 40
0.4453125
 40
0.44921875
 40
0.453125
 40
0.45703125
 40
0.4609375
 40
0.46875
 40
0.4765625
 40
0.48046875
 40
0.484375
 40
0.48828125
 40
0.4921875
 40
0.494140625
 40
0.49609375
 40
0.4970703125
 40
0.498046875
 40
0.4990234375
 40
0.4995117188
 40
0.5
 40
0.5004882812
 40
0.5009765625
 40
0.501953125
 40
0.5029296875
 40
0.50390625
 40
0.505859375
 40
0.5078125
 40
0.51171875
 40
0.515625
 40
0.51953125
 40
0.5234375
 40
0.53125
 40
0.5390625
 40
0.54296875
 40
0.546875
 40
0.55078125
 40
0.5546875
 40
0.556640625
 40
0.55859375
 40
0.560546875
 40
0.5615234375
 40
0.5620117188
 40
0.5625
 40
0.5629882812
 40
0.5634765625
 40
0.564453125
 40
0.56640625
 40
0.568359375
 40
0.5703125
 40
0.57421875
 40
0.578125
 40
0.58203125
 40
0.5859375
 40
0.59375
 40
0.6015625
 40
0.60546875
 40
0.609375
 40
0.61328125
 40
0.6171875
 40
0.619140625
 40
0.62109375
 40
0.623046875
 40
0.6240234375
 40
0.6245117188
 40
0.625
 40
0.6254882812
 40
0.6259765625
 40
0.626953125
 40
0.62890625
 40
0.630859375
 40
0.6328125
 40
0.63671875
 40
0.640625
 40
0.64453125
 40
0.6484375
 40
0.65625
 40
0.6640625
 40
0.66796875
 40
0.671875
 40
0.67578125
 40
0.6796875
 40
0.681640625
 40
0.68359375
 40
0.685546875
 40
0.6865234375
 40
0.6870117188
 40
0.6875
 40
0.6879882812
 40
0.6884765625
 40
0.689453125
 40
0.69140625
 40
0.693359375
 40
0.6953125
 40
0.69921875
 40
0.703125
 40
0.70703125
 40
0.7109375
 40
0.71875
 40
0.7265625
 40
0.73046875
 40
0.734375
 40
0.73828125
 40
0.7421875
 40
0.744140625
 40
0.74609375
 40
0.748046875
 40
0.7490234375
 40
0.7495117188
 40
0.75
 40
0.7504882812
 40
0.7509765625
 40
0.751953125
 40
0.75390625
 40
0.755859375
 40
0.7578125
 40
0.76171875
 40
0.765625
 40
0.76953125
 40
0.7734375
 40
0.78125
 40
0.7890625
 40
0.79296875
 40
0.796875
 40
0.80078125
 40
0.8046875
 40
0.806640625
 40
0.80859375
 40
0.810546875
 40
0.8115234375
 40
0.8120117188
 40
0.8125
 40
0.8129882812
 40
0.8134765625
 40
0.814453125
 40
0.81640625
 40
0.818359375
 40
0.8203125
 40
0.82421875
 40
0.828125
 40
0.83203125
 40
0.8359375
 40
0.84375
 40
0.8515625
 40
0.85546875
 40
0.859375
 40
0.86328125
 40
0.8671875
 40
0.869140625
 40
0.87109375
 40
0.873046875
 40
0.8740234375
 40
0.8745117188
 40
0.875
 40
0.8754882812
 40
0.8759765625
 40
0.876953125
 40
0.87890625
 40
0.880859375
 40
0.8828125
 40
0.88671875
 40
0.890625
 40
0.89453125
 40
0.8984375
 40
0.90625
 40
0.9140625
 40
0.91796875
 40
0.921875
 40
0.92578125
 40
0.9296875
 40
0.931640625
 40
0.93359375
 40
0.9345703125
 40
0.935546875
 40
0.9365234375
 40
0.9370117188
 40
0.9375
 40
0.9379882812
 40
0.9384765625
 40
0.939453125
 40
0.9404296875
 40
0.94140625
 40
0.943359375
 40
0.9453125
 40
0.94921875
 40
0.953125
 40
0.95703125
 40
0.9609375
 40
0.96875
 40
0.9765625
 40
0.984375
 40
1.0
 40
1.0
 40
1.0
 40
1.0
 10
7.9600050702
 20
9.0247458503
 30
0.0
 10
7.9656335498
 20
9.0249073912
 30
0.0
 10
7.9740762692
 20
9.0251497025
 30
0.0
 10
7.9853332285
 20
9.0254727843
 30
0.0
 10
7.9937759479
 20
9.0257150953
 30
0.0
 10
8.0008115473
 20
9.0259170222
 30
0.0
 10
8.0064400272
 20
9.0260785614
 30
0.0
 10
8.010661386
 20
9.0261997221
 30
0.0
 10
8.0148827494
 20
9.0263208588
 30
0.0
 10
8.0184005376
 20
9.0264218808
 30
0.0
 10
8.0212148009
 20
9.0265025311
 30
0.0
 10
8.0229736411
 20
9.0265533182
 30
0.0
 10
8.0243808835
 20
9.0265930762
 30
0.0
 10
8.0254358491
 20
9.0266252815
 30
0.0
 10
8.0263164702
 20
9.0266445263
 30
0.0
 10
8.0270176408
 20
9.0266769517
 30
0.0
 10
8.0275526077
 20
9.0266547379
 30
0.0
 10
8.028052882
 20
9.0268101408
 30
0.0
 10
8.0287320329
 20
9.0269553008
 30
0.0
 10
8.0295768137
 20
9.0271580377
 30
0.0
 10
8.0305923304
 20
9.0273922105
 30
0.0
 10
8.031945731
 20
9.0277076233
 30
0.0
 10
8.0336376946
 20
9.0281007997
 30
0.0
 10
8.0363447175
 20
9.0287304909
 30
0.0
 10
8.0397285368
 20
9.029517396
 30
0.0
 10
8.0437891026
 20
9.0304617717
 30
0.0
 10
8.047849673
 20
9.0314061234
 30
0.0
 10
8.0532637652
 20
9.0326652674
 30
0.0
 10
8.0600313812
 20
9.0342391943
 30
0.0
 10
8.0667989966
 20
9.0358131232
 30
0.0
 10
8.0722130898
 20
9.0370722639
 30
0.0
 10
8.0762736573
 20
9.0380166255
 30
0.0
 10
8.080334234
 20
9.0389609641
 30
0.0
 10
8.0837180193
 20
9.0397479844
 30
0.0
 10
8.0864251116
 20
9.0403774407
 30
0.0
 10
8.0881168984
 20
9.0407712149
 30
0.0
 10
8.0894706619
 20
9.0410854006
 30
0.0
 10
8.0904850699
 20
9.0413233225
 30
0.0
 10
8.0913333196
 20
9.0415143296
 30
0.0
 10
8.0920053934
 20
9.0416834206
 30
0.0
 10
8.0925272805
 20
9.0417657394
 30
0.0
 10
8.0929811038
 20
9.0420179137
 30
0.0
 10
8.093609977
 20
9.0422948133
 30
0.0
 10
8.0943879113
 20
9.0426612946
 30
0.0
 10
8.095324924
 20
9.0430923589
 30
0.0
 10
8.0965730547
 20
9.0436701546
 30
0.0
 10
8.0981336357
 20
9.0443913572
 30
0.0
 10
8.1006303319
 20
9.0455458638
 30
0.0
 10
8.1037512823
 20
9.0469887971
 30
0.0
 10
8.1074963883
 20
9.0487204028
 30
0.0
 10
8.1112415036
 20
9.0504519856
 30
0.0
 10
8.1162349874
 20
9.0527607706
 30
0.0
 10
8.1224768434
 20
9.0556467489
 30
0.0
 10
8.1287186984
 20
9.0585327292
 30
0.0
 10
8.1337121837
 20
9.0608415111
 30
0.0
 10
8.1374572945
 20
9.0625731034
 30
0.0
 10
8.1412024171
 20
9.0643046733
 30
0.0
 10
8.144323316
 20
9.0657477181
 30
0.0
 10
8.1468201172
 20
9.0669019973
 30
0.0
 10
8.148380431
 20
9.0676237784
 30
0.0
 10
8.1496291102
 20
9.0682003867
 30
0.0
 10
8.1505644472
 20
9.0686350787
 30
0.0
 10
8.1513476244
 20
9.0689902097
 30
0.0
 10
8.151965801
 20
9.0692902662
 30
0.0
 10
8.1524522911
 20
9.0694717209
 30
0.0
 10
8.1528515332
 20
9.0698195504
 30
0.0
 10
8.1534143329
 20
9.0702252062
 30
0.0
 10
8.154107376
 20
9.0707522155
 30
0.0
 10
8.1549435034
 20
9.0713760919
 30
0.0
 10
8.1560567767
 20
9.0722109082
 30
0.0
 10
8.1574489035
 20
9.0732534078
 30
0.0
 10
8.1596760074
 20
9.0749219777
 30
0.0
 10
8.1624599898
 20
9.0770074942
 30
0.0
 10
8.1658007247
 20
9.079510198
 30
0.0
 10
8.1691414714
 20
9.0820128794
 30
0.0
 10
8.1735957962
 20
9.0853497957
 30
0.0
 10
8.1791637039
 20
9.0895209382
 30
0.0
 10
8.1847316102
 20
9.0936920825
 30
0.0
 10
8.1891859371
 20
9.097028996
 30
0.0
 10
8.1925266774
 20
9.0995316857
 30
0.0
 10
8.1958674365
 20
9.1020343582
 30
0.0
 10
8.1986513437
 20
9.104119972
 30
0.0
 10
8.2008786011
 20
9.1057883436
 30
0.0
 10
8.2022703371
 20
9.1068313478
 30
0.0
 10
8.2033844126
 20
9.1076651283
 30
0.0
 10
8.2042180891
 20
9.1082921692
 30
0.0
 10
8.2049188007
 20
9.1088092777
 30
0.0
 10
8.2054659551
 20
9.1092351332
 30
0.0
 10
8.2059129768
 20
9.1095212739
 30
0.0
 10
8.2062200825
 20
9.1099343338
 30
0.0
 10
8.2066784313
 20
9.1104407459
 30
0.0
 10
8.2072345987
 20
9.1110889719
 30
0.0
 10
8.207909177
 20
9.1118603323
 30
0.0
 10
8.2088061079
 20
9.112891087
 30
0.0
 10
8.2099281299
 20
9.1141787516
 30
0.0
 10
8.2117228852
 20
9.1162394503
 30
0.0
 10
8.2139664941
 20
9.1188151743
 30
0.0
 10
8.2166587542
 20
9.1219061071
 30
0.0
 10
8.2193510331
 20
9.1249970228
 30
0.0
 10
8.2229407317
 20
9.1291182497
 30
0.0
 10
8.2274278575
 20
9.1342697811
 30
0.0
 10
8.2319149816
 20
9.1394213139
 30
0.0
 10
8.235504683
 20
9.1435425386
 30
0.0
 10
8.2381969537
 20
9.146633461
 30
0.0
 10
8.2408892445
 20
9.1497243686
 30
0.0
 10
8.2431327578
 20
9.152300171
 30
0.0
 10
8.2449277081
 20
9.1543607098
 30
0.0
 10
8.246049234
 20
9.1556487815
 30
0.0
 10
8.2469471831
 20
9.1566787006
 30
0.0
 10
8.2476186505
 20
9.1574526136
 30
0.0
 10
8.2481845515
 20
9.1580928534
 30
0.0
 10
8.2486230418
 20
9.1586155588
 30
0.0
 10
8.2489907943
 20
9.15897886
 30
0.0
 10
8.2492101227
 20
9.1594518156
 30
0.0
 10
8.2495544071
 20
9.1600441195
 30
0.0
 10
8.2499669744
 20
9.1607976411
 30
0.0
 10
8.250469669
 20
9.161696242
 30
0.0
 10
8.2511372691
 20
9.1628963412
 30
0.0
 10
8.2519726798
 20
9.1643957924
 30
0.0
 10
8.253308828
 20
9.1667952904
 30
0.0
 10
8.2549791879
 20
9.1697945339
 30
0.0
 10
8.2569835449
 20
9.1733936814
 30
0.0
 10
8.258987922
 20
9.1769928141
 30
0.0
 10
8.2616604177
 20
9.1817916629
 30
0.0
 10
8.26500104
 20
9.1877902219
 30
0.0
 10
8.2683416604
 20
9.1937887821
 30
0.0
 10
8.2710141591
 20
9.1985876291
 30
0.0
 10
8.2730185272
 20
9.2021867672
 30
0.0
 10
8.2750229176
 20
9.2057858944
 30
0.0
 10
8.2766931736
 20
9.2087852008
 30
0.0
 10
8.2780295337
 20
9.2111845706
 30
0.0
 10
8.2788644053
 20
9.2126843483
 30
0.0
 10
8.2795331119
 20
9.2138837774
 30
0.0
 10
8.280032426
 20
9.2147844253
 30
0.0
 10
8.2804555702
 20
9.2155315421
 30
0.0
 10
8.2807782756
 20
9.216136913
 30
0.0
 10
8.281063505
 20
9.2165699627
 30
0.0
 10
8.2811838378
 20
9.2170830878
 30
0.0
 10
8.281401882
 20
9.2177392833
 30
0.0
 10
8.2816546748
 20
9.2185691244
 30
0.0
 10
8.2819664851
 20
9.219560826
 30
0.0
 10
8.2823792777
 20
9.2208845296
 30
0.0
 10
8.2828962801
 20
9.2225386678
 30
0.0
 10
8.2837229184
 20
9.2251855635
 30
0.0
 10
8.2847564104
 20
9.2284940889
 30
0.0
 10
8.2859965176
 20
9.2324643598
 30
0.0
 10
8.287236647
 20
9.2364346199
 30
0.0
 10
8.2888901451
 20
9.2417283038
 30
0.0
 10
8.2909570207
 20
9.2483454073
 30
0.0
 10
8.2930238943
 20
9.2549625116
 30
0.0
 10
8.2946773956
 20
9.2602561942
 30
0.0
 10
8.2959175154
 20
9.2642264583
 30
0.0
 10
8.2971576588
 20
9.2681967139
 30
0.0
 10
8.2981910381
 20
9.271505287
 30
0.0
 10
8.2990179062
 20
9.2741520855
 30
0.0
 10
8.2995343237
 20
9.2758064712
 30
0.0
 10
8.2999483169
 20
9.2771296667
 30
0.0
 10
8.3002564592
 20
9.2781229208
 30
0.0
 10
8.3005207282
 20
9.2789479046
 30
0.0
 10
8.3007153589
 20
9.2796140099
 30
0.0
 10
8.300907195
 20
9.2800968708
 30
0.0
 10
8.3009239711
 20
9.2806435448
 30
0.0
 10
8.30100749
 20
9.2813501528
 30
0.0
 10
8.3010909082
 20
9.2822410605
 30
0.0
 10
8.3011999903
 20
9.2833068763
 30
0.0
 10
8.3013422964
 20
9.2847291074
 30
0.0
 10
8.3015212531
 20
9.2865065047
 30
0.0
 10
8.3018069834
 20
9.2893505593
 30
0.0
 10
8.3021643524
 20
9.2929055525
 30
0.0
 10
8.3025931069
 20
9.2971715764
 30
0.0
 10
8.303021885
 20
9.3014375918
 30
0.0
 10
8.3035935808
 20
9.3071256152
 30
0.0
 10
8.3043082037
 20
9.3142356435
 30
0.0
 10
8.3050228245
 20
9.3213456722
 30
0.0
 10
8.3055945237
 20
9.3270336951
 30
0.0
 10
8.3060232917
 20
9.3312997122
 30
0.0
 10
8.3064520842
 20
9.3355657297
 30
0.0
 10
8.3068093348
 20
9.3391207429
 30
0.0
 10
8.3070953065
 20
9.3419647566
 30
0.0
 10
8.3072736491
 20
9.3437422579
 30
0.0
 10
8.3074172156
 20
9.3451642757
 30
0.0
 10
8.3075224472
 20
9.3462307429
 30
0.0
 10
8.3076179127
 20
9.3471196126
 30
0.0
 10
8.3076768526
 20
9.3478303784
 30
0.0
 10
8.3077686915
 20
9.3483643546
 30
0.0
 10
8.3076787108
 20
9.3488948886
 30
0.0
 10
8.3076222484
 20
9.3496034698
 30
0.0
 10
8.3075298798
 20
9.3504887836
 30
0.0
 10
8.3074283645
 20
9.3515513368
 30
0.0
 10
8.3072897531
 20
9.3529680128
 30
0.0
 10
8.3071176043
 20
9.3547388789
 30
0.0
 10
8.3068415427
 20
9.3575722527
 30
0.0
 10
8.3064966797
 20
9.3611139742
 30
0.0
 10
8.3060827524
 20
9.3653640381
 30
0.0
 10
8.3056688496
 20
9.3696141025
 30
0.0
 10
8.3051169708
 20
9.375280855
 30
0.0
 10
8.3044271242
 20
9.3823642954
 30
0.0
 10
8.3037372804
 20
9.3894477363
 30
0.0
 10
8.3031853971
 20
9.395114488
 30
0.0
 10
8.3027715076
 20
9.3993645547
 30
0.0
 10
8.3023575305
 20
9.4036146101
 30
0.0
 10
8.3020128224
 20
9.4071563581
 30
0.0
 10
8.301736445
 20
9.4099896778
 30
0.0
 10
8.301530831
 20
9.4121148824
 30
0.0
 10
8.301354177
 20
9.4138852032
 30
0.0
 10
8.3012409378
 20
9.4151257681
 30
0.0
 10
8.3011599619
 20
9.4158325694
 30
0.0
 10
8.3011450567
 20
9.4163685663
 30
0.0
 10
8.3009549787
 20
9.4168820262
 30
0.0
 10
8.3007626435
 20
9.4175745006
 30
0.0
 10
8.3003975884
 20
9.4187826682
 30
0.0
 10
8.2998909648
 20
9.4205105367
 30
0.0
 10
8.2992766458
 20
9.4225831592
 30
0.0
 10
8.2984597791
 20
9.4253469423
 30
0.0
 10
8.2974379321
 20
9.4288015729
 30
0.0
 10
8.2962120431
 20
9.4329471717
 30
0.0
 10
8.2949860664
 20
9.4370927593
 30
0.0
 10
8.2933514616
 20
9.4426202133
 30
0.0
 10
8.2913081942
 20
9.4495295292
 30
0.0
 10
8.2892649342
 20
9.4564388468
 30
0.0
 10
8.2876303175
 20
9.4619662981
 30
0.0
 10
8.2864043767
 20
9.4661118939
 30
0.0
 10
8.2851783533
 20
9.4702574615
 30
0.0
 10
8.2841569243
 20
9.4737121893
 30
0.0
 10
8.2833392053
 20
9.4764757741
 30
0.0
 10
8.2827274891
 20
9.4785490021
 30
0.0
 10
8.2822127219
 20
9.4802749766
 30
0.0
 10
8.2818622044
 20
9.4814865251
 30
0.0
 10
8.2816465764
 20
9.4821735824
 30
0.0
 10
8.2815280468
 20
9.4827036822
 30
0.0
 10
8.2812444176
 20
9.4831771825
 30
0.0
 10
8.2809238339
 20
9.4838282588
 30
0.0
 10
8.2803359809
 20
9.484958444
 30
0.0
 10
8.2795102188
 20
9.4865778033
 30
0.0
 10
8.2785132999
 20
9.488518976
 30
0.0
 10
8.277186172
 20
9.4911079253
 30
0.0
 10
8.2755265425
 20
9.4943438651
 30
0.0
 10
8.2735352956
 20
9.4982270988
 30
0.0
 10
8.2715439661
 20
9.5021103041
 30
0.0
 10
8.2688888892
 20
9.5072879212
 30
0.0
 10
8.2655700321
 20
9.5137599386
 30
0.0
 10
8.2622511822
 20
9.520231959
 30
0.0
 10
8.2595960938
 20
9.5254095714
 30
0.0
 10
8.2576047986
 20
9.5292927907
 30
0.0
 10
8.2556134232
 20
9.533175972
 30
0.0
 10
8.2539541934
 20
9.5364120748
 30
0.0
 10
8.2526262505
 20
9.5390006917
 30
0.0
 10
8.2516318206
 20
9.5409428796
 30
0.0
 10
8.2507982711
 20
9.5425590627
 30
0.0
 10
8.2502243198
 20
9.5436949178
 30
0.0
 10
8.2498814621
 20
9.5443369095
 30
0.0
 10
8.2496662518
 20
9.544838315
 30
0.0
 10
8.2492907521
 20
9.5452636075
 30
0.0
 10
8.2488459966
 20
9.5458572133
 30
0.0
 10
8.2480416247
 20
9.5468836537
 30
0.0
 10
8.246906141
 20
9.5483564641
 30
0.0
 10
8.2455377312
 20
9.5501210685
 30
0.0
 10
8.243715221
 20
9.5524748414
 30
0.0
 10
8.2414363846
 20
9.5554167256
 30
0.0
 10
8.2387020804
 20
9.5589471289
 30
0.0
 10
8.2359676961
 20
9.5624774941
 30
0.0
 10
8.2323218784
 20
9.5671846612
 30
0.0
 10
8.227764596
 20
9.5730686147
 30
0.0
 10
8.2232073196
 20
9.5789525727
 30
0.0
 10
8.2195614922
 20
9.5836597324
 30
0.0
 10
8.2168271371
 20
9.5871901196
 30
0.0
 10
8.2140927233
 20
9.5907204408
 30
0.0
 10
8.2118142277
 20
9.5936625804
 30
0.0
 10
8.2099910225
 20
9.5960158325
 30
0.0
 10
8.2086247352
 20
9.597782027
 30
0.0
 10
8.2074826108
 20
9.5992498625
 30
0.0
 10
8.2066900937
 20
9.6002851839
 30
0.0
 10
8.2062263437
 20
9.6008645601
 30
0.0
 10
8.2059091892
 20
9.6013335613
 30
0.0
 10
8.2054748441
 20
9.6016708042
 30
0.0
 10
8.2049365947
 20
9.6021664201
 30
0.0
 10
8.2039756127
 20
9.6030123349
 30
0.0
 10
8.2026127386
 20
9.6042319796
 30
0.0
 10
8.2009730275
 20
9.6056907614
 30
0.0
 10
8.198788235
 20
9.6076374776
 30
0.0
 10
8.1960567334
 20
9.6100702986
 30
0.0
 10
8.1927791504
 20
9.6129899299
 30
0.0
 10
8.1895015089
 20
9.6159094953
 30
0.0
 10
8.1851313408
 20
9.6198022724
 30
0.0
 10
8.179668623
 20
9.624668235
 30
0.0
 10
8.1742059099
 20
9.6295342036
 30
0.0
 10
8.1698357342
 20
9.6334269711
 30
0.0
 10
8.1665581154
 20
9.6363465653
 30
0.0
 10
8.163280447
 20
9.6392660888
 30
0.0
 10
8.1605492114
 20
9.6416992454
 30
0.0
 10
8.1583638764
 20
9.6436452771
 30
0.0
 10
8.1567258217
 20
9.6451061492
 30
0.0
 10
8.1553577654
 20
9.6463192541
 30
0.0
 10
8.1544060344
 20
9.6471768435
 30
0.0
 10
8.1538529627
 20
9.6476537537
 30
0.0
 10
8.153464147
 20
9.6480484546
 30
0.0
 10
8.1529759916
 20
9.6483016528
 30
0.0
 10
8.1523597685
 20
9.6486886082
 30
0.0
 10
8.1512652337
 20
9.6493427833
 30
0.0
 10
8.149710053
 20
9.6502893422
 30
0.0
 10
8.1478402233
 20
9.6514200667
 30
0.0
 10
8.1453483791
 20
9.6529294969
 30
0.0
 10
8.1422331408
 20
9.6548156678
 30
0.0
 10
8.1384950405
 20
9.6570793374
 30
0.0
 10
8.1347568905
 20
9.6593429362
 30
0.0
 10
8.129772708
 20
9.6623610927
 30
0.0
 10
8.1235424734
 20
9.666133779
 30
0.0
 10
8.1173122425
 20
9.6699064719
 30
0.0
 10
8.112328054
 20
9.6729246179
 30
0.0
 10
8.1085899217
 20
9.6751882484
 30
0.0
 10
8.1048517551
 20
9.6774517989
 30
0.0
 10
8.1017367231
 20
9.6793383403
 30
0.0
 10
8.0992444582
 20
9.6808470151
 30
0.0
 10
8.0973759133
 20
9.6819800466
 30
0.0
 10
8.0958167128
 20
9.6829193873
 30
0.0
 10
8.094729354
 20
9.6835864481
 30
0.0
 10
8.0941016331
 20
9.6839527575
 30
0.0
 10
8.0936487954
 20
9.6842693735
 30
0.0
 10
8.0931273325
 20
9.6844258876
 30
0.0
 10
8.092455986
 20
9.6846904185
 30
0.0
 10
8.0912699767
 20
9.6851273281
 30
0.0
 10
8.0895815085
 20
9.685765088
 30
0.0
 10
8.0875528509
 20
9.6865245772
 30
0.0
 10
8.0848488459
 20
9.6875392633
 30
0.0
 10
8.0814685406
 20
9.6888069231
 30
0.0
 10
8.0774123024
 20
9.690328414
 30
0.0
 10
8.0733560298
 20
9.6918498249
 30
0.0
 10
8.0679476785
 20
9.6938784007
 30
0.0
 10
8.0611872352
 20
9.696414111
 30
0.0
 10
8.0544267931
 20
9.6989498239
 30
0.0
 10
8.0490184398
 20
9.7009783956
 30
0.0
 10
8.044962173
 20
9.7024998185
 30
0.0
 10
8.0409059132
 20
9.7040212645
 30
0.0
 10
8.037525675
 20
9.7052890641
 30
0.0
 10
8.0348215331
 20
9.7063034651
 30
0.0
 10
8.0331313336
 20
9.7069370983
 30
0.0
 10
8.0317794277
 20
9.7074448465
 30
0.0
 10
8.0307648039
 20
9.7078233533
 30
0.0
 10
8.0299214929
 20
9.708146106
 30
0.0
 10
8.0292418899
 20
9.7083878674
 30
0.0
 10
8.0287457252
 20
9.7086141126
 30
0.0
 10
8.0281978874
 20
9.7086688814
 30
0.0
 10
8.0274854871
 20
9.7088018055
 30
0.0
 10
8.0265887939
 20
9.7089474095
 30
0.0
 10
8.0255154128
 20
9.7091309308
 30
0.0
 10
8.0240833121
 20
9.7093725534
 30
0.0
 10
8.0222935033
 20
9.7096756338
 30
0.0
 10
8.019429632
 20
9.7101599743
 30
0.0
 10
8.0158498536
 20
9.7107656018
 30
0.0
 10
8.0115540935
 20
9.7114922682
 30
0.0
 10
8.0072583404
 20
9.7122189578
 30
0.0
 10
8.0015306672
 20
9.7131878691
 30
0.0
 10
7.9943710764
 20
9.7143990111
 30
0.0
 10
7.9857795672
 20
9.7158523803
 30
0.0
 10
7.9743242217
 20
9.7177902062
 30
0.0
 10
7.9657327126
 20
9.7192435756
 30
0.0
 10
7.9600050398
 20
9.7202124886
 30
0.0
  0
SPLINE
  5
37A
100
AcDbEntity
  8
0
100
AcDbSpline
 62
4
  6
CONTINUOUS
 70
0
 71
3
 72
361
 73
357
 74
0
 42
0.0000001
 43
0.0000001
 44
0.0000000001
 40
0.0
 40
0.0
 40
0.0
 40
0.0
 40
0.015625
 40
0.0234375
 40
0.03125
 40
0.0390625
 40
0.04296875
 40
0.046875
 40
0.05078125
 40
0.0546875
 40
0.056640625
 40
0.05859375
 40
0.0595703125
 40
0.060546875
 40
0.0615234375
 40
0.0620117188
 40
0.0625
 40
0.0629882812
 40
0.0634765625
 40
0.064453125
 40
0.0654296875
 40
0.06640625
 40
0.068359375
 40
0.0703125
 40
0.07421875
 40
0.078125
 40
0.08203125
 40
0.0859375
 40
0.09375
 40
0.1015625
 40
0.10546875
 40
0.109375
 40
0.11328125
 40
0.1171875
 40
0.119140625
 40
0.12109375
 40
0.1220703125
 40
0.123046875
 40
0.1240234375
 40
0.1245117188
 40
0.125
 40
0.1254882812
 40
0.1259765625
 40
0.126953125
 40
0.1279296875
 40
0.12890625
 40
0.130859375
 40
0.1328125
 40
0.13671875
 40
0.140625
 40
0.14453125
 40
0.1484375
 40
0.15625
 40
0.1640625
 40
0.16796875
 40
0.171875
 40
0.17578125
 40
0.1796875
 40
0.181640625
 40
0.18359375
 40
0.1845703125
 40
0.185546875
 40
0.1865234375
 40
0.1870117188
 40
0.1875
 40
0.1879882812
 40
0.1884765625
 40
0.189453125
 40
0.1904296875
 40
0.19140625
 40
0.193359375
 40
0.1953125
 40
0.19921875
 40
0.203125
 40
0.20703125
 40
0.2109375
 40
0.21875
 40
0.2265625
 40
0.23046875
 40
0.234375
 40
0.23828125
 40
0.2421875
 40
0.244140625
 40
0.24609375
 40
0.2470703125
 40
0.248046875
 40
0.2490234375
 40
0.2495117188
 40
0.25
 40
0.2504882812
 40
0.2509765625
 40
0.251953125
 40
0.2529296875
 40
0.25390625
 40
0.255859375
 40
0.2578125
 40
0.26171875
 40
0.265625
 40
0.26953125
 40
0.2734375
 40
0.28125
 40
0.2890625
 40
0.29296875
 40
0.296875
 40
0.30078125
 40
0.3046875
 40
0.306640625
 40
0.30859375
 40
0.3095703125
 40
0.310546875
 40
0.3115234375
 40
0.3120117188
 40
0.3125
 40
0.3129882812
 40
0.3134765625
 40
0.314453125
 40
0.3154296875
 40
0.31640625
 40
0.318359375
 40
0.3203125
 40
0.32421875
 40
0.328125
 40
0.33203125
 40
0.3359375
 40
0.34375
 40
0.3515625
 40
0.35546875
 40
0.359375
 40
0.36328125
 40
0.3671875
 40
0.369140625
 40
0.37109375
 40
0.3720703125
 40
0.373046875
 40
0.3740234375
 40
0.3745117188
 40
0.375
 40
0.3754882812
 40
0.3759765625
 40
0.376953125
 40
0.3779296875
 40
0.37890625
 40
0.380859375
 40
0.3828125
 40
0.38671875
 40
0.390625
 40
0.39453125
 40
0.3984375
 40
0.40625
 40
0.4140625
 40
0.41796875
 40
0.421875
 40
0.42578125
 40
0.4296875
 40
0.431640625
 40
0.43359375
 40
0.4345703125
 40
0.435546875
 40
0.4365234375
 40
0.4370117188
 40
0.4375
 40
0.4379882812
 40
0.4384765625
 40
0.439453125
 40
0.4404296875
 40
0.44140625
 40
0.443359375
 40
0.4453125
 40
0.44921875
 40
0.453125
 40
0.45703125
 40
0.4609375
 40
0.46875
 40
0.4765625
 40
0.48046875
 40
0.484375
 40
0.48828125
 40
0.4921875
 40
0.494140625
 40
0.49609375
 40
0.4970703125
 40
0.498046875
 40
0.4990234375
 40
0.4995117188
 40
0.5
 40
0.5004882812
 40
0.5009765625
 40
0.501953125
 40
0.5029296875
 40
0.50390625
 40
0.505859375
 40
0.5078125
 40
0.51171875
 40
0.515625
 40
0.51953125
 40
0.5234375
 40
0.53125
 40
0.5390625
 40
0.54296875
 40
0.546875
 40
0.55078125
 40
0.5546875
 40
0.556640625
 40
0.55859375
 40
0.560546875
 40
0.5615234375
 40
0.5620117188
 40
0.5625
 40
0.5629882812
 40
0.5634765625
 40
0.564453125
 40
0.56640625
 40
0.568359375
 40
0.5703125
 40
0.57421875
 40
0.578125
 40
0.58203125
 40
0.5859375
 40
0.59375
 40
0.6015625
 40
0.60546875
 40
0.609375
 40
0.61328125
 40
0.6171875
 40
0.619140625
 40
0.62109375
 40
0.623046875
 40
0.6240234375
 40
0.6245117188
 40
0.625
 40
0.6254882812
 40
0.6259765625
 40
0.626953125
 40
0.62890625
 40
0.630859375
 40
0.6328125
 40
0.63671875
 40
0.640625
 40
0.64453125
 40
0.6484375
 40
0.65625
 40
0.6640625
 40
0.66796875
 40
0.671875
 40
0.67578125
 40
0.6796875
 40
0.681640625
 40
0.68359375
 40
0.685546875
 40
0.6865234375
 40
0.6870117188
 40
0.6875
 40
0.6879882812
 40
0.6884765625
 40
0.689453125
 40
0.69140625
 40
0.693359375
 40
0.6953125
 40
0.69921875
 40
0.703125
 40
0.70703125
 40
0.7109375
 40
0.71875
 40
0.7265625
 40
0.73046875
 40
0.734375
 40
0.73828125
 40
0.7421875
 40
0.744140625
 40
0.74609375
 40
0.748046875
 40
0.7490234375
 40
0.7495117188
 40
0.75
 40
0.7504882812
 40
0.7509765625
 40
0.751953125
 40
0.75390625
 40
0.755859375
 40
0.7578125
 40
0.76171875
 40
0.765625
 40
0.76953125
 40
0.7734375
 40
0.78125
 40
0.7890625
 40
0.79296875
 40
0.796875
 40
0.80078125
 40
0.8046875
 40
0.806640625
 40
0.80859375
 40
0.810546875
 40
0.8115234375
 40
0.8120117188
 40
0.8125
 40
0.8129882812
 40
0.8134765625
 40
0.814453125
 40
0.81640625
 40
0.818359375
 40
0.8203125
 40
0.82421875
 40
0.828125
 40
0.83203125
 40
0.8359375
 40
0.84375
 40
0.8515625
 40
0.85546875
 40
0.859375
 40
0.86328125
 40
0.8671875
 40
0.869140625
 40
0.87109375
 40
0.873046875
 40
0.8740234375
 40
0.8745117188
 40
0.875
 40
0.8754882812
 40
0.8759765625
 40
0.876953125
 40
0.87890625
 40
0.880859375
 40
0.8828125
 40
0.88671875
 40
0.890625
 40
0.89453125
 40
0.8984375
 40
0.90625
 40
0.9140625
 40
0.91796875
 40
0.921875
 40
0.92578125
 40
0.9296875
 40
0.931640625
 40
0.93359375
 40
0.9345703125
 40
0.935546875
 40
0.9365234375
 40
0.9370117188
 40
0.9375
 40
0.9379882812
 40
0.9384765625
 40
0.939453125
 40
0.9404296875
 40
0.94140625
 40
0.943359375
 40
0.9453125
 40
0.94921875
 40
0.953125
 40
0.95703125
 40
0.9609375
 40
0.96875
 40
0.9765625
 40
0.984375
 40
1.0
 40
1.0
 40
1.0
 40
1.0
 10
7.9600050702
 20
9.7202124865
 30
0.0
 10
7.9543765906
 20
9.7200509456
 30
0.0
 10
7.9459338711
 20
9.7198086343
 30
0.0
 10
7.9346769119
 20
9.7194855525
 30
0.0
 10
7.9262341924
 20
9.7192432415
 30
0.0
 10
7.9191985931
 20
9.7190413146
 30
0.0
 10
7.9135701131
 20
9.7188797754
 30
0.0
 10
7.9093487544
 20
9.7187586147
 30
0.0
 10
7.905127391
 20
9.718637478
 30
0.0
 10
7.9016096027
 20
9.718536456
 30
0.0
 10
7.8987953395
 20
9.7184558057
 30
0.0
 10
7.8970364993
 20
9.7184050186
 30
0.0
 10
7.8956292568
 20
9.7183652606
 30
0.0
 10
7.8945742912
 20
9.7183330553
 30
0.0
 10
7.8936936701
 20
9.7183138105
 30
0.0
 10
7.8929924995
 20
9.7182813851
 30
0.0
 10
7.8924575326
 20
9.7183035989
 30
0.0
 10
7.8919572584
 20
9.718148196
 30
0.0
 10
7.8912781075
 20
9.718003036
 30
0.0
 10
7.8904333266
 20
9.7178002991
 30
0.0
 10
7.88941781
 20
9.7175661263
 30
0.0
 10
7.8880644093
 20
9.7172507135
 30
0.0
 10
7.8863724457
 20
9.7168575371
 30
0.0
 10
7.8836654229
 20
9.7162278459
 30
0.0
 10
7.8802816035
 20
9.7154409408
 30
0.0
 10
7.8762210378
 20
9.7144965651
 30
0.0
 10
7.8721604674
 20
9.7135522134
 30
0.0
 10
7.8667463751
 20
9.7122930694
 30
0.0
 10
7.8599787592
 20
9.7107191425
 30
0.0
 10
7.8532111438
 20
9.7091452136
 30
0.0
 10
7.8477970506
 20
9.7078860729
 30
0.0
 10
7.8437364831
 20
9.7069417113
 30
0.0
 10
7.8396759064
 20
9.7059973727
 30
0.0
 10
7.8362921211
 20
9.7052103524
 30
0.0
 10
7.8335850288
 20
9.7045808961
 30
0.0
 10
7.8318932419
 20
9.7041871219
 30
0.0
 10
7.8305394784
 20
9.7038729362
 30
0.0
 10
7.8295250704
 20
9.7036350143
 30
0.0
 10
7.8286768208
 20
9.7034440072
 30
0.0
 10
7.8280047469
 20
9.7032749162
 30
0.0
 10
7.8274828598
 20
9.7031925974
 30
0.0
 10
7.8270290366
 20
9.7029404231
 30
0.0
 10
7.8264001633
 20
9.7026635235
 30
0.0
 10
7.8256222291
 20
9.7022970422
 30
0.0
 10
7.8246852164
 20
9.7018659779
 30
0.0
 10
7.8234370856
 20
9.7012881822
 30
0.0
 10
7.8218765046
 20
9.7005669796
 30
0.0
 10
7.8193798084
 20
9.699412473
 30
0.0
 10
7.8162588581
 20
9.6979695397
 30
0.0
 10
7.812513752
 20
9.696237934
 30
0.0
 10
7.8087686368
 20
9.6945063512
 30
0.0
 10
7.803775153
 20
9.6921975662
 30
0.0
 10
7.797533297
 20
9.6893115879
 30
0.0
 10
7.7912914419
 20
9.6864256076
 30
0.0
 10
7.7862979567
 20
9.6841168257
 30
0.0
 10
7.7825528458
 20
9.6823852334
 30
0.0
 10
7.7788077232
 20
9.6806536635
 30
0.0
 10
7.7756868244
 20
9.6792106187
 30
0.0
 10
7.7731900232
 20
9.6780563395
 30
0.0
 10
7.7716297094
 20
9.6773345584
 30
0.0
 10
7.7703810302
 20
9.6767579501
 30
0.0
 10
7.7694456932
 20
9.6763232581
 30
0.0
 10
7.768662516
 20
9.6759681271
 30
0.0
 10
7.7680443393
 20
9.6756680706
 30
0.0
 10
7.7675578492
 20
9.6754866159
 30
0.0
 10
7.7671586072
 20
9.6751387864
 30
0.0
 10
7.7665958075
 20
9.6747331306
 30
0.0
 10
7.7659027644
 20
9.6742061213
 30
0.0
 10
7.765066637
 20
9.6735822449
 30
0.0
 10
7.7639533637
 20
9.6727474286
 30
0.0
 10
7.7625612368
 20
9.671704929
 30
0.0
 10
7.760334133
 20
9.6700363591
 30
0.0
 10
7.7575501506
 20
9.6679508426
 30
0.0
 10
7.7542094156
 20
9.6654481388
 30
0.0
 10
7.7508686689
 20
9.6629454574
 30
0.0
 10
7.7464143441
 20
9.6596085411
 30
0.0
 10
7.7408464365
 20
9.6554373986
 30
0.0
 10
7.7352785302
 20
9.6512662543
 30
0.0
 10
7.7308242032
 20
9.6479293408
 30
0.0
 10
7.727483463
 20
9.6454266511
 30
0.0
 10
7.7241427039
 20
9.6429239786
 30
0.0
 10
7.7213587967
 20
9.6408383648
 30
0.0
 10
7.7191315393
 20
9.6391699932
 30
0.0
 10
7.7177398033
 20
9.638126989
 30
0.0
 10
7.7166257277
 20
9.6372932085
 30
0.0
 10
7.7157920513
 20
9.6366661676
 30
0.0
 10
7.7150913397
 20
9.6361490592
 30
0.0
 10
7.7145441853
 20
9.6357232036
 30
0.0
 10
7.7140971636
 20
9.6354370629
 30
0.0
 10
7.7137900579
 20
9.635024003
 30
0.0
 10
7.7133317091
 20
9.6345175909
 30
0.0
 10
7.7127755417
 20
9.6338693649
 30
0.0
 10
7.7121009633
 20
9.6330980045
 30
0.0
 10
7.7112040325
 20
9.6320672498
 30
0.0
 10
7.7100820105
 20
9.6307795852
 30
0.0
 10
7.7082872551
 20
9.6287188865
 30
0.0
 10
7.7060436463
 20
9.6261431625
 30
0.0
 10
7.7033513862
 20
9.6230522297
 30
0.0
 10
7.7006591073
 20
9.619961314
 30
0.0
 10
7.6970694086
 20
9.6158400871
 30
0.0
 10
7.6925822828
 20
9.6106885557
 30
0.0
 10
7.6880951588
 20
9.6055370229
 30
0.0
 10
7.6845054574
 20
9.6014157982
 30
0.0
 10
7.6818131866
 20
9.5983248758
 30
0.0
 10
7.6791208959
 20
9.5952339682
 30
0.0
 10
7.6768773826
 20
9.5926581658
 30
0.0
 10
7.6750824323
 20
9.590597627
 30
0.0
 10
7.6739609064
 20
9.5893095553
 30
0.0
 10
7.6730629572
 20
9.5882796362
 30
0.0
 10
7.6723914899
 20
9.5875057232
 30
0.0
 10
7.6718255888
 20
9.5868654834
 30
0.0
 10
7.6713870986
 20
9.586342778
 30
0.0
 10
7.6710193461
 20
9.5859794769
 30
0.0
 10
7.6708000176
 20
9.5855065212
 30
0.0
 10
7.6704557332
 20
9.5849142173
 30
0.0
 10
7.670043166
 20
9.5841606957
 30
0.0
 10
7.6695404714
 20
9.5832620948
 30
0.0
 10
7.6688728713
 20
9.5820619957
 30
0.0
 10
7.6680374606
 20
9.5805625444
 30
0.0
 10
7.6667013123
 20
9.5781630464
 30
0.0
 10
7.6650309524
 20
9.5751638029
 30
0.0
 10
7.6630265954
 20
9.5715646554
 30
0.0
 10
7.6610222184
 20
9.5679655227
 30
0.0
 10
7.6583497227
 20
9.5631666739
 30
0.0
 10
7.6550091004
 20
9.5571681149
 30
0.0
 10
7.65166848
 20
9.5511695547
 30
0.0
 10
7.6489959813
 20
9.5463707077
 30
0.0
 10
7.6469916131
 20
9.5427715696
 30
0.0
 10
7.6449872227
 20
9.5391724424
 30
0.0
 10
7.6433169667
 20
9.536173136
 30
0.0
 10
7.6419806067
 20
9.5337737662
 30
0.0
 10
7.641145735
 20
9.5322739886
 30
0.0
 10
7.6404770284
 20
9.5310745594
 30
0.0
 10
7.6399777144
 20
9.5301739115
 30
0.0
 10
7.6395545702
 20
9.5294267947
 30
0.0
 10
7.6392318648
 20
9.5288214238
 30
0.0
 10
7.6389466353
 20
9.5283883741
 30
0.0
 10
7.6388263026
 20
9.527875249
 30
0.0
 10
7.6386082584
 20
9.5272190536
 30
0.0
 10
7.6383554656
 20
9.5263892124
 30
0.0
 10
7.6380436552
 20
9.5253975108
 30
0.0
 10
7.6376308627
 20
9.5240738072
 30
0.0
 10
7.6371138603
 20
9.522419669
 30
0.0
 10
7.6362872219
 20
9.5197727733
 30
0.0
 10
7.63525373
 20
9.5164642479
 30
0.0
 10
7.6340136228
 20
9.512493977
 30
0.0
 10
7.6327734934
 20
9.5085237169
 30
0.0
 10
7.6311199952
 20
9.503230033
 30
0.0
 10
7.6290531197
 20
9.4966129295
 30
0.0
 10
7.6269862461
 20
9.4899958252
 30
0.0
 10
7.6253327448
 20
9.4847021426
 30
0.0
 10
7.624092625
 20
9.4807318785
 30
0.0
 10
7.6228524816
 20
9.4767616229
 30
0.0
 10
7.6218191023
 20
9.4734530498
 30
0.0
 10
7.6209922341
 20
9.4708062513
 30
0.0
 10
7.6204758167
 20
9.4691518656
 30
0.0
 10
7.6200618235
 20
9.4678286702
 30
0.0
 10
7.6197536811
 20
9.4668354161
 30
0.0
 10
7.6194894122
 20
9.4660104322
 30
0.0
 10
7.6192947815
 20
9.4653443269
 30
0.0
 10
7.6191029454
 20
9.464861466
 30
0.0
 10
7.6190861692
 20
9.464314792
 30
0.0
 10
7.6190026503
 20
9.463608184
 30
0.0
 10
7.6189192322
 20
9.4627172763
 30
0.0
 10
7.6188101501
 20
9.4616514605
 30
0.0
 10
7.618667844
 20
9.4602292294
 30
0.0
 10
7.6184888873
 20
9.4584518321
 30
0.0
 10
7.6182031569
 20
9.4556077775
 30
0.0
 10
7.617845788
 20
9.4520527843
 30
0.0
 10
7.6174170335
 20
9.4477867604
 30
0.0
 10
7.6169882554
 20
9.443520745
 30
0.0
 10
7.6164165596
 20
9.4378327216
 30
0.0
 10
7.6157019366
 20
9.4307226933
 30
0.0
 10
7.6149873158
 20
9.4236126646
 30
0.0
 10
7.6144156166
 20
9.4179246417
 30
0.0
 10
7.6139868487
 20
9.4136586246
 30
0.0
 10
7.6135580562
 20
9.4093926071
 30
0.0
 10
7.6132008055
 20
9.4058375939
 30
0.0
 10
7.6129148339
 20
9.4029935802
 30
0.0
 10
7.6127364912
 20
9.401216079
 30
0.0
 10
7.6125929247
 20
9.3997940611
 30
0.0
 10
7.6124876932
 20
9.3987275939
 30
0.0
 10
7.6123922277
 20
9.3978387242
 30
0.0
 10
7.6123332878
 20
9.3971279584
 30
0.0
 10
7.6122414488
 20
9.3965939822
 30
0.0
 10
7.6123314296
 20
9.3960634482
 30
0.0
 10
7.612387892
 20
9.3953548671
 30
0.0
 10
7.6124802606
 20
9.3944695532
 30
0.0
 10
7.6125817758
 20
9.393407
 30
0.0
 10
7.6127203873
 20
9.391990324
 30
0.0
 10
7.6128925361
 20
9.390219458
 30
0.0
 10
7.6131685976
 20
9.3873860841
 30
0.0
 10
7.6135134606
 20
9.3838443626
 30
0.0
 10
7.613927388
 20
9.3795942987
 30
0.0
 10
7.6143412908
 20
9.3753442343
 30
0.0
 10
7.6148931696
 20
9.3696774818
 30
0.0
 10
7.6155830162
 20
9.3625940414
 30
0.0
 10
7.61627286
 20
9.3555106005
 30
0.0
 10
7.6168247433
 20
9.3498438488
 30
0.0
 10
7.6172386328
 20
9.3455937821
 30
0.0
 10
7.6176526099
 20
9.3413437267
 30
0.0
 10
7.617997318
 20
9.3378019787
 30
0.0
 10
7.6182736954
 20
9.334968659
 30
0.0
 10
7.6184793094
 20
9.3328434544
 30
0.0
 10
7.6186559634
 20
9.3310731336
 30
0.0
 10
7.6187692025
 20
9.3298325687
 30
0.0
 10
7.6188501784
 20
9.3291257674
 30
0.0
 10
7.6188650837
 20
9.3285897705
 30
0.0
 10
7.6190551617
 20
9.3280763106
 30
0.0
 10
7.6192474968
 20
9.3273838362
 30
0.0
 10
7.6196125519
 20
9.3261756686
 30
0.0
 10
7.6201191755
 20
9.3244478001
 30
0.0
 10
7.6207334946
 20
9.3223751776
 30
0.0
 10
7.6215503613
 20
9.3196113945
 30
0.0
 10
7.6225722083
 20
9.3161567639
 30
0.0
 10
7.6237980973
 20
9.3120111651
 30
0.0
 10
7.6250240739
 20
9.3078655776
 30
0.0
 10
7.6266586787
 20
9.3023381235
 30
0.0
 10
7.6287019462
 20
9.2954288076
 30
0.0
 10
7.6307452061
 20
9.28851949
 30
0.0
 10
7.6323798229
 20
9.2829920388
 30
0.0
 10
7.6336057637
 20
9.2788464429
 30
0.0
 10
7.6348317871
 20
9.2747008753
 30
0.0
 10
7.6358532161
 20
9.2712461475
 30
0.0
 10
7.6366709351
 20
9.2684825627
 30
0.0
 10
7.6372826513
 20
9.2664093347
 30
0.0
 10
7.6377974184
 20
9.2646833602
 30
0.0
 10
7.638147936
 20
9.2634718117
 30
0.0
 10
7.638363564
 20
9.2627847544
 30
0.0
 10
7.6384820936
 20
9.2622546547
 30
0.0
 10
7.6387657228
 20
9.2617811543
 30
0.0
 10
7.6390863064
 20
9.261130078
 30
0.0
 10
7.6396741594
 20
9.2599998928
 30
0.0
 10
7.6404999216
 20
9.2583805335
 30
0.0
 10
7.6414968405
 20
9.2564393608
 30
0.0
 10
7.6428239683
 20
9.2538504115
 30
0.0
 10
7.6444835979
 20
9.2506144717
 30
0.0
 10
7.6464748448
 20
9.246731238
 30
0.0
 10
7.6484661742
 20
9.2428480327
 30
0.0
 10
7.6511212512
 20
9.2376704156
 30
0.0
 10
7.6544401083
 20
9.2311983982
 30
0.0
 10
7.6577589582
 20
9.2247263778
 30
0.0
 10
7.6604140466
 20
9.2195487654
 30
0.0
 10
7.6624053418
 20
9.2156655461
 30
0.0
 10
7.6643967171
 20
9.2117823649
 30
0.0
 10
7.666055947
 20
9.208546262
 30
0.0
 10
7.6673838899
 20
9.2059576451
 30
0.0
 10
7.6683783198
 20
9.2040154572
 30
0.0
 10
7.6692118693
 20
9.2023992741
 30
0.0
 10
7.6697858205
 20
9.201263419
 30
0.0
 10
7.6701286783
 20
9.2006214273
 30
0.0
 10
7.6703438886
 20
9.2001200218
 30
0.0
 10
7.6707193882
 20
9.1996947293
 30
0.0
 10
7.6711641437
 20
9.1991011235
 30
0.0
 10
7.6719685157
 20
9.1980746831
 30
0.0
 10
7.6731039993
 20
9.1966018727
 30
0.0
 10
7.6744724092
 20
9.1948372683
 30
0.0
 10
7.6762949193
 20
9.1924834954
 30
0.0
 10
7.6785737558
 20
9.1895416112
 30
0.0
 10
7.68130806
 20
9.1860112079
 30
0.0
 10
7.6840424443
 20
9.1824808427
 30
0.0
 10
7.687688262
 20
9.1777736756
 30
0.0
 10
7.6922455444
 20
9.1718897222
 30
0.0
 10
7.6968028207
 20
9.1660057641
 30
0.0
 10
7.7004486482
 20
9.1612986044
 30
0.0
 10
7.7031830033
 20
9.1577682172
 30
0.0
 10
7.705917417
 20
9.154237896
 30
0.0
 10
7.7081959126
 20
9.1512957564
 30
0.0
 10
7.7100191178
 20
9.1489425043
 30
0.0
 10
7.7113854051
 20
9.1471763098
 30
0.0
 10
7.7125275296
 20
9.1457084743
 30
0.0
 10
7.7133200466
 20
9.1446731529
 30
0.0
 10
7.7137837967
 20
9.1440937767
 30
0.0
 10
7.7141009512
 20
9.1436247755
 30
0.0
 10
7.7145352963
 20
9.1432875326
 30
0.0
 10
7.7150735456
 20
9.1427919167
 30
0.0
 10
7.7160345276
 20
9.1419460019
 30
0.0
 10
7.7173974018
 20
9.1407263572
 30
0.0
 10
7.7190371128
 20
9.1392675754
 30
0.0
 10
7.7212219054
 20
9.1373208592
 30
0.0
 10
7.723953407
 20
9.1348880383
 30
0.0
 10
7.7272309899
 20
9.1319684069
 30
0.0
 10
7.7305086315
 20
9.1290488415
 30
0.0
 10
7.7348787996
 20
9.1251560644
 30
0.0
 10
7.7403415174
 20
9.1202901018
 30
0.0
 10
7.7458042305
 20
9.1154241332
 30
0.0
 10
7.7501744062
 20
9.1115313657
 30
0.0
 10
7.7534520249
 20
9.1086117715
 30
0.0
 10
7.7567296933
 20
9.105692248
 30
0.0
 10
7.759460929
 20
9.1032590915
 30
0.0
 10
7.7616462639
 20
9.1013130597
 30
0.0
 10
7.7632843186
 20
9.0998521876
 30
0.0
 10
7.7646523749
 20
9.0986390827
 30
0.0
 10
7.765604106
 20
9.0977814933
 30
0.0
 10
7.7661571777
 20
9.0973045831
 30
0.0
 10
7.7665459934
 20
9.0969098822
 30
0.0
 10
7.7670341488
 20
9.096656684
 30
0.0
 10
7.7676503718
 20
9.0962697286
 30
0.0
 10
7.7687449067
 20
9.0956155535
 30
0.0
 10
7.7703000874
 20
9.0946689946
 30
0.0
 10
7.772169917
 20
9.0935382702
 30
0.0
 10
7.7746617612
 20
9.0920288399
 30
0.0
 10
7.7777769995
 20
9.090142669
 30
0.0
 10
7.7815150998
 20
9.0878789994
 30
0.0
 10
7.7852532498
 20
9.0856154006
 30
0.0
 10
7.7902374324
 20
9.0825972441
 30
0.0
 10
7.796467667
 20
9.0788245578
 30
0.0
 10
7.8026978979
 20
9.0750518649
 30
0.0
 10
7.8076820864
 20
9.0720337189
 30
0.0
 10
7.8114202187
 20
9.0697700884
 30
0.0
 10
7.8151583853
 20
9.0675065379
 30
0.0
 10
7.8182734173
 20
9.0656199965
 30
0.0
 10
7.8207656822
 20
9.0641113217
 30
0.0
 10
7.822634227
 20
9.0629782902
 30
0.0
 10
7.8241934275
 20
9.0620389495
 30
0.0
 10
7.8252807863
 20
9.0613718887
 30
0.0
 10
7.8259085072
 20
9.0610055793
 30
0.0
 10
7.826361345
 20
9.0606889633
 30
0.0
 10
7.8268828078
 20
9.0605324492
 30
0.0
 10
7.8275541544
 20
9.0602679183
 30
0.0
 10
7.8287401637
 20
9.0598310087
 30
0.0
 10
7.8304286319
 20
9.0591932488
 30
0.0
 10
7.8324572894
 20
9.0584337596
 30
0.0
 10
7.8351612944
 20
9.0574190735
 30
0.0
 10
7.8385415998
 20
9.0561514137
 30
0.0
 10
7.842597838
 20
9.0546299228
 30
0.0
 10
7.8466541105
 20
9.0531085119
 30
0.0
 10
7.8520624619
 20
9.0510799361
 30
0.0
 10
7.8588229052
 20
9.0485442258
 30
0.0
 10
7.8655833473
 20
9.0460085129
 30
0.0
 10
7.8709917006
 20
9.0439799412
 30
0.0
 10
7.8750479673
 20
9.0424585183
 30
0.0
 10
7.8791042271
 20
9.0409370723
 30
0.0
 10
7.8824844653
 20
9.0396692727
 30
0.0
 10
7.8851886073
 20
9.0386548717
 30
0.0
 10
7.8868788067
 20
9.0380212385
 30
0.0
 10
7.8882307127
 20
9.0375134903
 30
0.0
 10
7.8892453365
 20
9.0371349835
 30
0.0
 10
7.8900886474
 20
9.0368122308
 30
0.0
 10
7.8907682505
 20
9.0365704694
 30
0.0
 10
7.8912644152
 20
9.0363442242
 30
0.0
 10
7.891812253
 20
9.0362894554
 30
0.0
 10
7.8925246532
 20
9.0361565313
 30
0.0
 10
7.8934213465
 20
9.0360109273
 30
0.0
 10
7.8944947276
 20
9.035827406
 30
0.0
 10
7.8959268283
 20
9.0355857834
 30
0.0
 10
7.8977166371
 20
9.035282703
 30
0.0
 10
7.9005805084
 20
9.0347983625
 30
0.0
 10
7.9041602868
 20
9.0341927351
 30
0.0
 10
7.9084560468
 20
9.0334660686
 30
0.0
 10
7.9127517999
 20
9.032739379
 30
0.0
 10
7.9184794732
 20
9.0317704677
 30
0.0
 10
7.9256390639
 20
9.0305593257
 30
0.0
 10
7.9342305731
 20
9.0291059565
 30
0.0
 10
7.9456859187
 20
9.0271681306
 30
0.0
 10
7.9542774278
 20
9.0257147612
 30
0.0
 10
7.9600051006
 20
9.0247458482
 30
0.0
  0
ENDSEC
  0
SECTION
  2
OBJECTS
  0
DICTIONARY
  5
C
100
AcDbDictionary
280
0
281
1
  3
ACAD_GROUP
350
D
  3
ACAD_MLINESTYLE
350
17
  3
ACAD_LAYOUT
350
1A
  3
ACAD_PLOTSETTINGS
350
19
  3
ACAD_PLOTSTYLENAME
350
E
  3
ACAD_IMAGE_DICT
350
       37C
  3
ACAD_IMAGE_VARS
350
       37D
  3
ACAD_TABLESTYLE
350
       37E
  0
IMAGEDEF_REACTOR
  5
37B
100
AcDbRasterImageDefReactor
 90
2
330
282
  0
DICTIONARY
  5
D
102
{ACAD_REACTORS
330
C
102
}
100
AcDbDictionary
280
0
281
1
  0
ACDBDICTIONARYWDFLT
  5
E
102
{ACAD_REACTORS
330
C
102
}
100
AcDbDictionary
281
1
  3
Normal
350
F
100
AcDbDictionaryWithDefault
340
F
  0
DICTIONARY
  5
37C
330
C
100
AcDbDictionary
281
1
  3
FMJ_assy_2_img_1
350
       381
  0
RASTERVARIABLES
  5
37D
330
C
100
AcDbRasterVariables
 90
0
 70
0
 71
1
 72
5
  0
DICTIONARY
  5
17
102
{ACAD_REACTORS
330
C
102
}
100
AcDbDictionary
280
0
281
1
  3
Standard
350
18
  0
DICTIONARY
  5
37E
330
C
100
AcDbDictionary
281
1
  3
Standard
350
       382
  3
Standard1
350
       383
  0
DICTIONARY
  5
19
102
{ACAD_REACTORS
330
C
102
}
100
AcDbDictionary
281
1
  0
DICTIONARY
  5
1A
102
{ACAD_REACTORS
330
C
102
}
100
AcDbDictionary
281
1
  3
Model
350
37F
  3
Layout1
350
380
  0
ACDBPLACEHOLDER
  5
F
102
{ACAD_REACTORS
330
E
102
}
  0
MLINESTYLE
  5
18
102
{ACAD_REACTORS
330
17
102
}
100
AcDbMlineStyle
  2
STANDARD
 70
0
  3

 62
256
 51
90.0
 52
90.0
 71
2
 49
0.5
 62
256
  6
BYLAYER
 49
-0.5
 62
256
  6
BYLAYER
  0
LAYOUT
  5
37F
102
{ACAD_REACTORS
330
1A
102
}
100
AcDbPlotSettings
  1

  2
none_device
  4
ANSI_C_(22.00_x_17.00_Inches)
  6

 40
0.0
 41
0.0
 42
0.0
 43
0.0
 44
558.8
 45
431.8
 46
0.0
 47
0.0
 48
0.0
 49
0.0
140
0.0
141
0.0
142
1.0
143
1.0
 70
1024
 72
0
 73
0
 74
0
  7

 75
0
147
1.0
148
0.0
149
0.0
100
AcDbLayout
  1
Model
 70
0
 71
0
 10
0.0
 20
0.0
 11
22.0
 21
17.0
 12
0.0
 22
0.0
 32
0.0
 14
0.0
 24
0.0
 34
0.0
 15
0.0
 25
0.0
 35
0.0
146
0.0
 13
0.0
 23
0.0
 33
0.0
 16
1.0
 26
0.0
 36
0.0
 17
0.0
 27
1.0
 37
0.0
 76
0
330
204
345
0
346
0
  0
LAYOUT
  5
380
102
{ACAD_REACTORS
330
1A
102
}
100
AcDbPlotSettings
  1

  2
none_device
  4
ANSI_C_(22.00_x_17.00_Inches)
  6

 40
0.0
 41
0.0
 42
0.0
 43
0.0
 44
558.8
 45
431.8
 46
0.0
 47
0.0
 48
0.0
 49
0.0
140
0.0
141
0.0
142
1.0
143
1.0
 70
0
 72
0
 73
0
 74
0
  7

 75
0
147
1.0
148
0.0
149
0.0
100
AcDbLayout
  1
Layout1
 70
0
 71
1
 10
0.0
 20
0.0
 11
22.0
 21
17.0
 12
0.0
 22
0.0
 32
0.0
 14
0.0
 24
0.0
 34
0.0
 15
0.0
 25
0.0
 35
0.0
146
0.0
 13
0.0
 23
0.0
 33
0.0
 16
1.0
 26
0.0
 36
0.0
 17
0.0
 27
1.0
 37
0.0
 76
0
330
205
345
0
346
0
  0
IMAGEDEF
  5
381
102
{ACAD_REACTORS
330
37C
330
37B
102
}
100
AcDbRasterImageDef
 90
0
  1
FMJ_assy_2_img_1.png
 10
369.0
 20
92.0
 11
0.0066666667
 21
0.0066666667
280
1
281
0
  0
TABLESTYLE
  5
382
102
{ACAD_REACTORS
330
37E
330
285
330
286
102
}
330
37E
100
AcDbTableStyle
  3
Standard
 70
0
 71
0
 40
0.06
 41
0.06
280
1
281
1
  7
Standard
140
0.18
170
1
 62
0
 63
7
283
0
  7
Standard
140
0.18
170
1
 62
0
 63
7
283
0
  7
Standard
140
0.18
170
1
 62
0
 63
7
283
0
  0
TABLESTYLE
  5
383
102
{ACAD_REACTORS
330
37E
330
284
102
}
330
37E
100
AcDbTableStyle
  3
Standard1
 70
1
 71
0
 40
0.06
 41
0.06
280
1
281
1
  7
Standard
140
0.18
170
1
 62
0
 63
7
283
0
  7
Standard
140
0.18
170
1
 62
0
 63
7
283
0
  7
Standard
140
0.18
170
1
 62
0
 63
7
283
0
  0
ENDSEC
  0
EOF
