999
DXF file: FMI_assy_2.dxf
999
Pro/ENGINEER 2014200 by Parametric Technology Corporation
  0
SECTION
  2
HEADER
  9
$ACADVER
  1
AC1021
  9
$DWGCODEPAGE
  3
ANSI_1252
  9
$EXTMAX
 10
22.0
 20
17.0
 30
0.0
  9
$EXTMIN
 10
0.0
 20
0.0
 30
0.0
  9
$LIMMIN
 10
0.0
 20
0.0
  9
$LIMMAX
 10
22.0
 20
17.0
  9
$VIEWCTR
 10
11.0
 20
8.5
  9
$VIEWSIZE
 40
17.0
  9
$CLAYER
  8
0
  9
$LTSCALE
 40
1.21
  9
$CELTYPE
  6
BYLAYER
  9
$DIMSCALE
 40
1.0
  9
$DIMASZ
 40
0.1875
  9
$DIMEXO
 40
0.0625
  9
$DIMDLI
 40
0.836
  9
$DIMEXE
 40
0.125
  9
$DIMCEN
 40
0.198
  9
$DIMLFAC
 40
1.0
  9
$DIMBLK
  1
_FILLED
  9
$DIMTXT
 40
0.1
  9
$DIMTOL
 70
0
  9
$DIMLIM
 70
0
  9
$DIMTFAC
 40
1.0
  9
$DIMGAP
 40
0.09
  9
$DIMDSEP
 70
46
  9
$AUNITS
 70
0
  9
$PDMODE
 70
3
  9
$PDSIZE
 40
0.3125
  9
$HANDSEED
  5
398
  9
$TILEMODE
 70
1
  9
$MEASUREMENT
 70
0
  9
$INSUNITS
 70
1
  0
ENDSEC
  0
SECTION
  2
CLASSES
  0
CLASS
  1
ACDBDICTIONARYWDFLT
  2
AcDbDictionaryWithDefault
  3
AutoCAD 2000
 90
0
 91
1
280
0
281
0
  0
CLASS
  1
ACDBPLACEHOLDER
  2
AcDbPlaceHolder
  3
AutoCAD 2000
 90
0
 91
1
280
0
281
0
  0
CLASS
  1
LAYOUT
  2
AcDbLayout
  3
AutoCAD 2000
 90
0
 91
0
280
0
281
0
  0
CLASS
  1
RASTERVARIABLES
  2
AcDbRasterVariables
  3
ISM
 90
0
 91
1
280
0
281
0
  0
CLASS
  1
IMAGEDEF
  2
AcDbRasterImageDef
  3
ISM
 90
0
 91
1
280
0
281
0
  0
CLASS
  1
IMAGEDEF_REACTOR
  2
AcDbRasterImageDefReactor
  3
ISM
 90
0
 91
1
280
0
281
0
  0
CLASS
  1
IMAGE
  2
AcDbRasterImage
  3
ISM
 90
127
 91
1
280
0
281
1
  0
CLASS
  1
TABLESTYLE
  2
AcDbTableStyle
  3
ObjectDBX Classes
 90
2047
 91
1
280
0
281
0
  0
CLASS
  1
ACAD_TABLE
  2
AcDbTable
  3
ObjectDBX Classes
 90
1025
 91
3
280
0
281
1
  0
ENDSEC
  0
SECTION
  2
TABLES
  0
TABLE
  2
VPORT
  5
8
100
AcDbSymbolTable
 70
2
  0
VPORT
  5
1F4
100
AcDbSymbolTableRecord
100
AcDbViewportTableRecord
  2
*ACTIVE
 70
0
 10
0.0
 20
0.0
 11
1.0
 21
1.0
 12
11.0
 22
8.5
 13
0.0
 23
0.0
 14
1.0
 24
1.0
 15
0.0
 25
0.0
 16
0.0
 26
0.0
 36
1.0
 17
0.0
 27
0.0
 37
0.0
 40
17.0
 41
1.2941176471
 42
50.0
 43
0.0
 44
0.0
 50
0.0
 51
0.0
 71
0
 72
100
 73
1
 74
1
 75
0
 76
0
 77
0
 78
0
  0
ENDTAB
  0
TABLE
  2
LTYPE
  5
5
100
AcDbSymbolTable
 70
6
  0
LTYPE
  5
14
100
AcDbSymbolTableRecord
100
AcDbLinetypeTableRecord
  2
BYBLOCK
 70
0
  3

 72
65
 73
0
 40
0.0
  0
LTYPE
  5
15
100
AcDbSymbolTableRecord
100
AcDbLinetypeTableRecord
  2
BYLAYER
 70
0
  3

 72
65
 73
0
 40
0.0
  0
LTYPE
  5
16
100
AcDbSymbolTableRecord
100
AcDbLinetypeTableRecord
  2
CONTINUOUS
 70
64
  3
Solid line
 72
65
 73
0
 40
0.0
  0
LTYPE
  5
1F5
100
AcDbSymbolTableRecord
100
AcDbLinetypeTableRecord
  2
CENTER
 70
64
  3
____ _ ____ _ ____ _ ____ _ ____ _ ____ _ ____
 72
65
 73
4
 40
0.6
 49
0.375
 74
0
 49
-0.075
 74
0
 49
0.075
 74
0
 49
-0.075
 74
0
  0
LTYPE
  5
1F6
100
AcDbSymbolTableRecord
100
AcDbLinetypeTableRecord
  2
HIDDEN
 70
64
  3
- - - - - - - - - - - - - - - - - - - -
 72
65
 73
2
 40
0.2
 49
0.1
 74
0
 49
-0.1
 74
0
  0
LTYPE
  5
1F7
100
AcDbSymbolTableRecord
100
AcDbLinetypeTableRecord
  2
PHANTOM
 70
64
  3
_____ _ _ _____ _ _ _____ _ _ _____
 72
65
 73
6
 40
0.8
 49
0.45
 74
0
 49
-0.05
 74
0
 49
0.1
 74
0
 49
-0.05
 74
0
 49
0.1
 74
0
 49
-0.05
 74
0
  0
LTYPE
  5
1F8
100
AcDbSymbolTableRecord
100
AcDbLinetypeTableRecord
  2
DOT
 70
64
  3
. . . . . . . . . . . . . . . . . . . .
 72
65
 73
2
 40
0.2
 49
0.1
 74
0
 49
-0.1
 74
0
  0
LTYPE
  5
1F9
100
AcDbSymbolTableRecord
100
AcDbLinetypeTableRecord
  2
DASHED
 70
64
  3
- - - - - - - - - - - - - - - - - - - -
 72
65
 73
2
 40
0.2
 49
0.1
 74
0
 49
-0.1
 74
0
  0
ENDTAB
  0
TABLE
  2
LAYER
  5
2
100
AcDbSymbolTable
 70
36
  0
LAYER
  5
10
100
AcDbSymbolTableRecord
100
AcDbLayerTableRecord
  2
0
 70
0
 62
7
  6
CONTINUOUS
370
-3
390
F
  0
LAYER
  5
1FA
100
AcDbSymbolTableRecord
100
AcDbLayerTableRecord
  2
DEFAULT_1
 70
0
 62
7
  6
CENTER
370
-3
390
F
  0
LAYER
  5
1FB
100
AcDbSymbolTableRecord
100
AcDbLayerTableRecord
  2
DEFAULT_2
 70
0
 62
8
  6
HIDDEN
370
-3
390
F
  0
LAYER
  5
1FC
100
AcDbSymbolTableRecord
100
AcDbLayerTableRecord
  2
DEFAULT_3
 70
0
 62
7
  6
PHANTOM
370
-3
390
F
  0
LAYER
  5
1FD
100
AcDbSymbolTableRecord
100
AcDbLayerTableRecord
  2
DATUM_PLANES
 70
0
 62
7
  6
CONTINUOUS
370
-3
390
F
  0
LAYER
  5
1FE
100
AcDbSymbolTableRecord
100
AcDbLayerTableRecord
  2
PORT_AREAS
 70
0
 62
7
  6
CONTINUOUS
370
-3
390
F
  0
LAYER
  5
1FF
100
AcDbSymbolTableRecord
100
AcDbLayerTableRecord
  2
SUNNBOMCOSMETIC
 70
0
 62
7
  6
CONTINUOUS
370
-3
390
F
  0
LAYER
  5
200
100
AcDbSymbolTableRecord
100
AcDbLayerTableRecord
  2
SUNNBOMSTAMPING
 70
0
 62
7
  6
CONTINUOUS
370
-3
390
F
  0
LAYER
  5
201
100
AcDbSymbolTableRecord
100
AcDbLayerTableRecord
  2
THREADS
 70
0
 62
7
  6
CONTINUOUS
370
-3
390
F
  0
ENDTAB
  0
TABLE
  2
STYLE
  5
3
100
AcDbSymbolTable
 70
1
  0
STYLE
  5
11
100
AcDbSymbolTableRecord
100
AcDbTextStyleTableRecord
  2
STANDARD
 70
0
 40
0.0
 41
0.8
 50
0.0
 71
0
 42
0.2
  3
txt
  4

  0
STYLE
  5
202
100
AcDbSymbolTableRecord
100
AcDbTextStyleTableRecord
  2
TEXTSTYLE_1
 70
0
 40
0.0
 41
0.8
 50
0.0
 71
0
 42
0.2
  3
gdt
  4

  0
ENDTAB
  0
TABLE
  2
VIEW
  5
6
100
AcDbSymbolTable
 70
0
  0
ENDTAB
  0
TABLE
  2
UCS
  5
7
100
AcDbSymbolTable
 70
0
  0
ENDTAB
  0
TABLE
  2
APPID
  5
9
100
AcDbSymbolTable
 70
1
  0
APPID
  5
203
100
AcDbSymbolTableRecord
100
AcDbRegAppTableRecord
  2
ACAD
 70
0
  0
ENDTAB
  0
TABLE
  2
BLOCK_RECORD
  5
1
100
AcDbSymbolTable
 70
0
  0
BLOCK_RECORD
  5
204
100
AcDbSymbolTableRecord
100
AcDbBlockTableRecord
  2
*Model_Space
  0
BLOCK_RECORD
  5
205
100
AcDbSymbolTableRecord
100
AcDbBlockTableRecord
  2
*Paper_Space
  0
BLOCK_RECORD
  5
206
100
AcDbSymbolTableRecord
100
AcDbBlockTableRecord
  2
SUN_FIRST_THIRD_ANGLE_BL0
  0
BLOCK_RECORD
  5
207
100
AcDbSymbolTableRecord
100
AcDbBlockTableRecord
  2
*T1
  0
BLOCK_RECORD
  5
208
100
AcDbSymbolTableRecord
100
AcDbBlockTableRecord
  2
*T2
  0
BLOCK_RECORD
  5
209
100
AcDbSymbolTableRecord
100
AcDbBlockTableRecord
  2
*T3
  0
ENDTAB
  0
TABLE
  2
DIMSTYLE
  5
A
100
AcDbSymbolTable
 70
1
100
AcDbDimStyleTable
 71
0
  0
DIMSTYLE
105
20A
100
AcDbSymbolTableRecord
100
AcDbDimStyleTableRecord
  2
STANDARD
 70
0
  3

  4

 40
1.0
 41
0.1875
 42
0.0625
 43
0.38
 44
0.125
 45
0.0
 46
0.0
 47
0.001
 48
0.001
140
0.1
141
0.09
142
0.0
143
25.4
144
1.0
145
0.0
146
1.0
147
0.09
 71
0.0
 72
0.0
 73
1
 74
1
 75
0
 76
0
 77
0
 78
4
170
0
171
2
172
0
173
0
174
0
175
0
176
0
177
0
178
0
270
2
271
3
272
3
273
2
274
2
275
0
280
0
281
0
282
0
283
1
284
4
285
0
286
0
287
3
288
0
340
11
278
46
  0
ENDTAB
  0
ENDSEC
  0
SECTION
  2
BLOCKS
  0
BLOCK
  5
20
100
AcDbEntity
  8
0
100
AcDbBlockBegin
  2
*Model_Space
 70
0
 10
0.0
 20
0.0
 30
0.0
  3
*Model_Space
  1

  0
ENDBLK
  5
21
100
AcDbEntity
  8
0
100
AcDbBlockEnd
  0
BLOCK
  5
1C
100
AcDbEntity
  8
0
100
AcDbBlockBegin
  2
*Paper_Space
 70
0
 10
0.0
 20
0.0
 30
0.0
  3
*Paper_Space
  1

  0
ENDBLK
  5
1D
100
AcDbEntity
  8
0
100
AcDbBlockEnd
  0
BLOCK
  5
20B
100
AcDbEntity
  8
0
100
AcDbBlockBegin
 62
2
  6
CONTINUOUS
  2
SUN_FIRST_THIRD_ANGLE_BL0
 70
64
 10
20.4816717061
 20
1.2289683772
  3
SUN_FIRST_THIRD_ANGLE_BL0
  1

  0
TEXT
  5
20C
100
AcDbEntity
  8
0
100
AcDbText
 62
2
  6
CONTINUOUS
 10
19.4750896608
 20
1.4136269581
  7
STANDARD
 40
0.08
  1
FIRST ANGLE
 41
0.8
 72
0
100
AcDbText
  0
TEXT
  5
20D
100
AcDbEntity
  8
0
100
AcDbText
 62
2
  6
CONTINUOUS
 10
20.7842537513
 20
1.4047600029
  7
STANDARD
 40
0.08
  1
THIRD ANGLE
 41
0.8
 72
0
100
AcDbText
  0
LINE
  5
20E
100
AcDbEntity
  8
0
100
AcDbLine
 62
7
  6
CONTINUOUS
 10
19.4767170086
 20
1.1727031207
 11
19.6334271527
 21
1.1717972817
  0
LINE
  5
20F
100
AcDbEntity
  8
0
100
AcDbLine
 62
7
  6
CONTINUOUS
 10
19.6596964832
 20
1.1717972817
 11
19.6950230232
 21
1.171593082
  0
LINE
  5
210
100
AcDbEntity
  8
0
100
AcDbLine
 62
7
  6
CONTINUOUS
 10
19.7194818561
 20
1.1708914427
 11
19.8852396156
 21
1.1699333054
  0
LINE
  5
211
100
AcDbEntity
  8
0
100
AcDbLine
 62
7
  6
CONTINUOUS
 10
19.4758111696
 20
1.2723454088
 11
19.88525039
 21
1.3511534004
  0
LINE
  5
212
100
AcDbEntity
  8
0
100
AcDbLine
 62
7
  6
CONTINUOUS
 10
19.88525039
 20
1.3511534004
 11
19.8831348489
 21
0.9851647912
  0
LINE
  5
213
100
AcDbEntity
  8
0
100
AcDbLine
 62
7
  6
CONTINUOUS
 10
19.8831348489
 20
0.9851647912
 11
19.4767170086
 21
1.0658141206
  0
LINE
  5
214
100
AcDbEntity
  8
0
100
AcDbLine
 62
7
  6
CONTINUOUS
 10
19.4767170086
 20
1.0658141206
 11
19.4779056764
 21
1.2714536432
  0
CIRCLE
  5
215
100
AcDbEntity
  8
0
100
AcDbCircle
 62
7
  6
CONTINUOUS
 10
20.2068232291
 20
1.1717972817
 40
0.175742101
  0
CIRCLE
  5
216
100
AcDbEntity
  8
0
100
AcDbCircle
 62
7
  6
CONTINUOUS
 10
20.2068232291
 20
1.1717972817
 40
0.1005522074
  0
LINE
  5
217
100
AcDbEntity
  8
0
100
AcDbLine
 62
7
  6
CONTINUOUS
 10
20.2077290681
 20
1.3756110529
 11
20.2071171714
 21
1.2379342989
  0
LINE
  5
218
100
AcDbEntity
  8
0
100
AcDbLine
 62
7
  6
CONTINUOUS
 10
20.2077290681
 20
1.2016899681
 11
20.2074674401
 21
1.1428236749
  0
LINE
  5
219
100
AcDbEntity
  8
0
100
AcDbLine
 62
7
  6
CONTINUOUS
 10
20.208634907
 20
1.101141841
 11
20.2080230104
 21
0.963465087
  0
LINE
  5
21A
100
AcDbEntity
  8
0
100
AcDbLine
 62
7
  6
CONTINUOUS
 10
20.0066328138
 20
1.1745147986
 11
20.1443095678
 21
1.1739029019
  0
LINE
  5
21B
100
AcDbEntity
  8
0
100
AcDbLine
 62
7
  6
CONTINUOUS
 10
20.1832714155
 20
1.1727031207
 11
20.238153505
 21
1.172335442
  0
LINE
  5
21C
100
AcDbEntity
  8
0
100
AcDbLine
 62
7
  6
CONTINUOUS
 10
20.2756669918
 20
1.1717972817
 11
20.407916871
 21
1.1712095044
  0
CIRCLE
  5
21D
100
AcDbEntity
  8
0
100
AcDbCircle
 62
7
  6
CONTINUOUS
 10
20.7509457401
 20
1.1693297793
 40
0.1722024983
  0
CIRCLE
  5
21E
100
AcDbEntity
  8
0
100
AcDbCircle
 62
7
  6
CONTINUOUS
 10
20.7509457401
 20
1.1693297793
 40
0.0985164967
  0
LINE
  5
21F
100
AcDbEntity
  8
0
100
AcDbLine
 62
7
  6
CONTINUOUS
 10
20.7169767782
 20
1.170462078
 11
20.7825395137
 21
1.1682766535
  0
LINE
  5
220
100
AcDbEntity
  8
0
100
AcDbLine
 62
7
  6
CONTINUOUS
 10
20.8177513651
 20
1.1693297793
 11
20.947965719
 21
1.1693297793
  0
LINE
  5
221
100
AcDbEntity
  8
0
100
AcDbLine
 62
7
  6
CONTINUOUS
 10
20.6875370113
 20
1.170462078
 11
20.5573226574
 21
1.170462078
  0
LINE
  5
222
100
AcDbEntity
  8
0
100
AcDbLine
 62
7
  6
CONTINUOUS
 10
20.7486811426
 20
1.1987695462
 11
20.7486811426
 21
1.1432869085
  0
LINE
  5
223
100
AcDbEntity
  8
0
100
AcDbLine
 62
7
  6
CONTINUOUS
 10
20.7498134414
 20
1.1059210505
 11
20.7498134414
 21
0.9757066966
  0
LINE
  5
224
100
AcDbEntity
  8
0
100
AcDbLine
 62
7
  6
CONTINUOUS
 10
20.7486811426
 20
1.2338708068
 11
20.7486811426
 21
1.3640851607
  0
LINE
  5
225
100
AcDbEntity
  8
0
100
AcDbLine
 62
7
  6
CONTINUOUS
 10
21.0702539817
 20
1.2701043662
 11
21.4790138229
 21
1.3448360823
  0
LINE
  5
226
100
AcDbEntity
  8
0
100
AcDbLine
 62
7
  6
CONTINUOUS
 10
21.4790138229
 20
1.3448360823
 11
21.4790138229
 21
0.9779712941
  0
LINE
  5
227
100
AcDbEntity
  8
0
100
AcDbLine
 62
7
  6
CONTINUOUS
 10
21.4790138229
 20
0.9779712941
 11
21.069121683
 21
1.0617614
  0
LINE
  5
228
100
AcDbEntity
  8
0
100
AcDbLine
 62
7
  6
CONTINUOUS
 10
21.0702539817
 20
1.2701043662
 11
21.069121683
 21
1.0617614
  0
LINE
  5
229
100
AcDbEntity
  8
0
100
AcDbLine
 62
7
  6
CONTINUOUS
 10
21.4790138229
 20
1.1693297793
 11
21.3159628059
 21
1.1693297793
  0
LINE
  5
22A
100
AcDbEntity
  8
0
100
AcDbLine
 62
7
  6
CONTINUOUS
 10
21.2876553377
 20
1.1693297793
 11
21.2502894796
 21
1.1693297793
  0
LINE
  5
22B
100
AcDbEntity
  8
0
100
AcDbLine
 62
7
  6
CONTINUOUS
 10
21.2208497126
 20
1.1659328831
 11
21.0713862804
 21
1.1659328831
  0
LINE
  5
22C
100
AcDbEntity
  8
0
100
AcDbLine
 62
7
  6
CONTINUOUS
 10
20.4796138713
 20
1.5284908897
 11
20.4766766948
 21
0.9294458646
  0
ENDBLK
  5
22D
100
AcDbEntity
  8
0
  6
BYBLOCK
 62
0
100
AcDbBlockEnd
  0
BLOCK
  5
22E
100
AcDbEntity
  8
0
100
AcDbBlockBegin
  2
*T1
 70
1
 10
0.0
 20
0.0
  3
*T1
  1

  0
LINE
  5
22F
100
AcDbEntity
  8
0
100
AcDbLine
 62
2
  6
CONTINUOUS
 10
9.275
 20
0.0
 11
-0.0
 21
0.0
  0
LINE
  5
230
100
AcDbEntity
  8
0
100
AcDbLine
 62
2
  6
CONTINUOUS
 10
9.275
 20
0.0
 11
9.275
 21
1.25
  0
LINE
  5
231
100
AcDbEntity
  8
0
100
AcDbLine
 62
2
  6
CONTINUOUS
 10
9.275
 20
0.625
 11
-0.0
 21
0.625
  0
LINE
  5
232
100
AcDbEntity
  8
0
100
AcDbLine
 62
2
  6
CONTINUOUS
 10
9.275
 20
1.25
 11
-0.0
 21
1.25
  0
LINE
  5
233
100
AcDbEntity
  8
0
100
AcDbLine
 62
2
  6
CONTINUOUS
 10
6.8
 20
0.0
 11
6.8
 21
1.25
  0
LINE
  5
234
100
AcDbEntity
  8
0
100
AcDbLine
 62
2
  6
CONTINUOUS
 10
6.4
 20
0.0
 11
6.4
 21
0.625
  0
LINE
  5
235
100
AcDbEntity
  8
0
100
AcDbLine
 62
2
  6
CONTINUOUS
 10
5.9
 20
0.0
 11
5.9
 21
0.625
  0
LINE
  5
236
100
AcDbEntity
  8
0
100
AcDbLine
 62
2
  6
CONTINUOUS
 10
5.2
 20
0.0
 11
5.2
 21
0.625
  0
LINE
  5
237
100
AcDbEntity
  8
0
100
AcDbLine
 62
2
  6
CONTINUOUS
 10
4.1
 20
0.0
 11
4.1
 21
1.25
  0
LINE
  5
238
100
AcDbEntity
  8
0
100
AcDbLine
 62
2
  6
CONTINUOUS
 10
-0.0
 20
0.0
 11
-0.0
 21
1.25
  0
MTEXT
  5
239
100
AcDbEntity
  8
0
100
AcDbMText
 62
2
  6
CONTINUOUS
  7
STANDARD
 71
2
 72
1
 10
6.6
 20
0.325
 30
0.0
 11
1.0
 21
0.0
 31
0.0
 44
0.9
  1
2
 40
0.125
 41
0.2
  0
MTEXT
  5
23A
100
AcDbEntity
  8
0
100
AcDbMText
 62
2
  6
CONTINUOUS
  7
STANDARD
 71
2
 72
1
 10
6.15
 20
0.325
 30
0.0
 11
1.0
 21
0.0
 31
0.0
 44
0.9
  1
C
 40
0.125
 41
0.2
  0
MTEXT
  5
23B
100
AcDbEntity
  8
0
100
AcDbMText
 62
2
  6
CONTINUOUS
  7
STANDARD
 71
2
 72
1
 10
5.55
 20
0.325
 30
0.0
 11
1.0
 21
0.0
 31
0.0
 44
0.9
  1
2.000
 40
0.125
 41
1.0
  0
MTEXT
  5
23C
100
AcDbEntity
  8
0
100
AcDbMText
 62
2
  6
CONTINUOUS
  7
STANDARD
 71
2
 72
1
 10
4.65
 20
0.325
 30
0.0
 11
1.0
 21
0.0
 31
0.0
 44
0.9
  1
Feb-03-22
 40
0.125
 41
1.8
  0
MTEXT
  5
23D
100
AcDbEntity
  8
0
100
AcDbMText
 62
2
  6
CONTINUOUS
  7
STANDARD
 71
2
 72
1
 10
2.05
 20
0.4625
 30
0.0
 11
1.0
 21
0.0
 31
0.0
 44
0.9
  1
T-10A Line mount\PCross port with make up checks
 40
0.125
 41
6.0
  0
MTEXT
  5
23E
100
AcDbEntity
  8
0
100
AcDbMText
 62
2
  6
CONTINUOUS
  7
STANDARD
 71
1
 72
1
 10
6.45
 20
0.5625
 30
0.0
 11
1.0
 21
0.0
 31
0.0
 44
0.9
  1
SHEET
 40
0.06
 41
0.48
  0
MTEXT
  5
23F
100
AcDbEntity
  8
0
100
AcDbMText
 62
2
  6
CONTINUOUS
  7
STANDARD
 71
1
 72
1
 10
5.95
 20
0.5625
 30
0.0
 11
1.0
 21
0.0
 31
0.0
 44
0.9
  1
DWG SIZE
 40
0.06
 41
0.768
  0
MTEXT
  5
240
100
AcDbEntity
  8
0
100
AcDbMText
 62
2
  6
CONTINUOUS
  7
STANDARD
 71
1
 72
1
 10
5.25
 20
0.5625
 30
0.0
 11
1.0
 21
0.0
 31
0.0
 44
0.9
  1
SCALE
 40
0.06
 41
0.48
  0
MTEXT
  5
241
100
AcDbEntity
  8
0
100
AcDbMText
 62
2
  6
CONTINUOUS
  7
STANDARD
 71
1
 72
1
 10
4.15
 20
0.5625
 30
0.0
 11
1.0
 21
0.0
 31
0.0
 44
0.9
  1
DATE
 40
0.06
 41
0.384
  0
MTEXT
  5
242
100
AcDbEntity
  8
0
100
AcDbMText
 62
2
  6
CONTINUOUS
  7
STANDARD
 71
1
 72
1
 10
0.05
 20
0.5625
 30
0.0
 11
1.0
 21
0.0
 31
0.0
 44
0.9
  1
DESCRIPTION
 40
0.06
 41
1.056
  0
MTEXT
  5
243
100
AcDbEntity
  8
0
100
AcDbMText
 62
2
  6
CONTINUOUS
  7
STANDARD
 71
2
 72
1
 10
5.45
 20
1.0375
 30
0.0
 11
1.0
 21
0.0
 31
0.0
 44
0.9
  1
ALL DIMENSIONS IN INCH\PVIEWS ARE THIRD ANGLE
 40
0.12
 41
4.224
  0
MTEXT
  5
244
100
AcDbEntity
  8
0
100
AcDbMText
 62
2
  6
CONTINUOUS
  7
STANDARD
 71
2
 72
1
 10
2.05
 20
0.95
 30
0.0
 11
1.0
 21
0.0
 31
0.0
 44
0.9
  1
FMI
 40
0.125
 41
0.6
  0
MTEXT
  5
245
100
AcDbEntity
  8
0
100
AcDbMText
 62
2
  6
CONTINUOUS
  7
STANDARD
 71
1
 72
1
 10
0.05
 20
1.1875
 30
0.0
 11
1.0
 21
0.0
 31
0.0
 44
0.9
  1
MODEL
 40
0.06
 41
0.48
  0
ENDBLK
  5
246
100
AcDbEntity
  8
0
  6
BYBLOCK
 62
0
100
AcDbBlockEnd
  0
BLOCK
  5
247
100
AcDbEntity
  8
0
100
AcDbBlockBegin
  2
*T2
 70
1
 10
0.0
 20
0.0
  3
*T2
  1

  0
LINE
  5
248
100
AcDbEntity
  8
0
100
AcDbLine
 62
2
  6
CONTINUOUS
 10
0.0
 20
0.0
 11
9.055
 21
0.0
  0
LINE
  5
249
100
AcDbEntity
  8
0
100
AcDbLine
 62
2
  6
CONTINUOUS
 10
0.0
 20
0.0
 11
0.0
 21
-2.594
  0
LINE
  5
24A
100
AcDbEntity
  8
0
100
AcDbLine
 62
2
  6
CONTINUOUS
 10
0.0
 20
-0.344
 11
9.055
 21
-0.344
  0
LINE
  5
24B
100
AcDbEntity
  8
0
100
AcDbLine
 62
2
  6
CONTINUOUS
 10
0.0
 20
-0.594
 11
9.055
 21
-0.594
  0
LINE
  5
24C
100
AcDbEntity
  8
0
100
AcDbLine
 62
2
  6
CONTINUOUS
 10
0.0
 20
-0.844
 11
9.055
 21
-0.844
  0
LINE
  5
24D
100
AcDbEntity
  8
0
100
AcDbLine
 62
2
  6
CONTINUOUS
 10
0.0
 20
-1.094
 11
9.055
 21
-1.094
  0
LINE
  5
24E
100
AcDbEntity
  8
0
100
AcDbLine
 62
2
  6
CONTINUOUS
 10
0.0
 20
-1.344
 11
9.055
 21
-1.344
  0
LINE
  5
24F
100
AcDbEntity
  8
0
100
AcDbLine
 62
2
  6
CONTINUOUS
 10
0.0
 20
-1.594
 11
9.055
 21
-1.594
  0
LINE
  5
250
100
AcDbEntity
  8
0
100
AcDbLine
 62
2
  6
CONTINUOUS
 10
0.0
 20
-1.844
 11
9.055
 21
-1.844
  0
LINE
  5
251
100
AcDbEntity
  8
0
100
AcDbLine
 62
2
  6
CONTINUOUS
 10
0.0
 20
-2.094
 11
9.055
 21
-2.094
  0
LINE
  5
252
100
AcDbEntity
  8
0
100
AcDbLine
 62
2
  6
CONTINUOUS
 10
0.0
 20
-2.344
 11
9.055
 21
-2.344
  0
LINE
  5
253
100
AcDbEntity
  8
0
100
AcDbLine
 62
2
  6
CONTINUOUS
 10
0.0
 20
-2.594
 11
9.055
 21
-2.594
  0
LINE
  5
254
100
AcDbEntity
  8
0
100
AcDbLine
 62
2
  6
CONTINUOUS
 10
3.055
 20
0.0
 11
3.055
 21
-2.594
  0
LINE
  5
255
100
AcDbEntity
  8
0
100
AcDbLine
 62
2
  6
CONTINUOUS
 10
9.055
 20
0.0
 11
9.055
 21
-2.594
  0
MTEXT
  5
256
100
AcDbEntity
  8
0
100
AcDbMText
 62
2
  6
CONTINUOUS
  7
STANDARD
 71
2
 72
1
 10
1.5275
 20
-0.0995
 30
0.0
 11
1.0
 21
0.0
 31
0.0
 44
0.9
  1
Technical Data
 40
0.145
 41
3.248
  0
MTEXT
  5
257
100
AcDbEntity
  8
0
100
AcDbMText
 62
2
  6
CONTINUOUS
  7
STANDARD
 71
2
 72
1
 10
4.555
 20
-0.0995
 30
0.0
 11
1.0
 21
0.0
 31
0.0
 44
0.9
  1
U.S. Units
 40
0.145
 41
2.32
  0
MTEXT
  5
258
100
AcDbEntity
  8
0
100
AcDbMText
 62
2
  6
CONTINUOUS
  7
STANDARD
 71
2
 72
1
 10
7.555
 20
-0.0995
 30
0.0
 11
1.0
 21
0.0
 31
0.0
 44
0.9
  1
Metric Units
 40
0.145
 41
2.784
  0
MTEXT
  5
259
100
AcDbEntity
  8
0
100
AcDbMText
 62
2
  6
CONTINUOUS
  7
STANDARD
 71
2
 72
1
 10
1.5275
 20
-0.4065
 30
0.0
 11
1.0
 21
0.0
 31
0.0
 44
0.9
  1
Cavity
 40
0.125
 41
1.2
  0
MTEXT
  5
25A
100
AcDbEntity
  8
0
100
AcDbMText
 62
2
  6
CONTINUOUS
  7
STANDARD
 71
2
 72
1
 10
6.055
 20
-0.4065
 30
0.0
 11
1.0
 21
0.0
 31
0.0
 44
0.9
  1
T-10A
 40
0.125
 41
1.0
  0
MTEXT
  5
25B
100
AcDbEntity
  8
0
100
AcDbMText
 62
2
  6
CONTINUOUS
  7
STANDARD
 71
2
 72
1
 10
1.5275
 20
-0.6565
 30
0.0
 11
1.0
 21
0.0
 31
0.0
 44
0.9
  1
Body Features
 40
0.125
 41
2.6
  0
MTEXT
  5
25C
100
AcDbEntity
  8
0
100
AcDbMText
 62
2
  6
CONTINUOUS
  7
STANDARD
 71
2
 72
1
 10
6.055
 20
-0.6565
 30
0.0
 11
1.0
 21
0.0
 31
0.0
 44
0.9
  1
Cross port with make up checks
 40
0.125
 41
6.0
  0
MTEXT
  5
25D
100
AcDbEntity
  8
0
100
AcDbMText
 62
2
  6
CONTINUOUS
  7
STANDARD
 71
2
 72
1
 10
1.5275
 20
-0.9065
 30
0.0
 11
1.0
 21
0.0
 31
0.0
 44
0.9
  1
Body Type
 40
0.125
 41
1.8
  0
MTEXT
  5
25E
100
AcDbEntity
  8
0
100
AcDbMText
 62
2
  6
CONTINUOUS
  7
STANDARD
 71
2
 72
1
 10
6.055
 20
-0.9065
 30
0.0
 11
1.0
 21
0.0
 31
0.0
 44
0.9
  1
Line mount
 40
0.125
 41
2.0
  0
MTEXT
  5
25F
100
AcDbEntity
  8
0
100
AcDbMText
 62
2
  6
CONTINUOUS
  7
STANDARD
 71
2
 72
1
 10
1.5275
 20
-1.1565
 30
0.0
 11
1.0
 21
0.0
 31
0.0
 44
0.9
  1
Interface
 40
0.125
 41
1.8
  0
MTEXT
  5
260
100
AcDbEntity
  8
0
100
AcDbMText
 62
2
  6
CONTINUOUS
  7
STANDARD
 71
2
 72
1
 10
6.055
 20
-1.1565
 30
0.0
 11
1.0
 21
0.0
 31
0.0
 44
0.9
  1
None
 40
0.125
 41
0.8
  0
MTEXT
  5
261
100
AcDbEntity
  8
0
100
AcDbMText
 62
2
  6
CONTINUOUS
  7
STANDARD
 71
2
 72
1
 10
1.5275
 20
-1.4065
 30
0.0
 11
1.0
 21
0.0
 31
0.0
 44
0.9
  1
Open Cavity Quantity
 40
0.125
 41
4.0
  0
MTEXT
  5
262
100
AcDbEntity
  8
0
100
AcDbMText
 62
2
  6
CONTINUOUS
  7
STANDARD
 71
2
 72
1
 10
6.055
 20
-1.4065
 30
0.0
 11
1.0
 21
0.0
 31
0.0
 44
0.9
  1
2
 40
0.125
 41
0.2
  0
MTEXT
  5
263
100
AcDbEntity
  8
0
100
AcDbMText
 62
2
  6
CONTINUOUS
  7
STANDARD
 71
2
 72
1
 10
1.5275
 20
-1.6565
 30
0.0
 11
1.0
 21
0.0
 31
0.0
 44
0.9
  1
Weight
 40
0.125
 41
1.2
  0
MTEXT
  5
264
100
AcDbEntity
  8
0
100
AcDbMText
 62
2
  6
CONTINUOUS
  7
STANDARD
 71
2
 72
1
 10
4.555
 20
-1.6565
 30
0.0
 11
1.0
 21
0.0
 31
0.0
 44
0.9
  1
2.681 lb.
 40
0.125
 41
1.8
  0
MTEXT
  5
265
100
AcDbEntity
  8
0
100
AcDbMText
 62
2
  6
CONTINUOUS
  7
STANDARD
 71
2
 72
1
 10
7.555
 20
-1.6565
 30
0.0
 11
1.0
 21
0.0
 31
0.0
 44
0.9
  1
1,216 kg.
 40
0.125
 41
1.8
  0
MTEXT
  5
266
100
AcDbEntity
  8
0
100
AcDbMText
 62
2
  6
CONTINUOUS
  7
STANDARD
 71
2
 72
1
 10
1.5275
 20
-1.9065
 30
0.0
 11
1.0
 21
0.0
 31
0.0
 44
0.9
  1
Mounting Hole Diameter
 40
0.125
 41
4.4
  0
MTEXT
  5
267
100
AcDbEntity
  8
0
100
AcDbMText
 62
2
  6
CONTINUOUS
  7
STANDARD
 71
2
 72
1
 10
4.555
 20
-1.9065
 30
0.0
 11
1.0
 21
0.0
 31
0.0
 44
0.9
  1
.34 in.
 40
0.125
 41
1.4
  0
MTEXT
  5
268
100
AcDbEntity
  8
0
100
AcDbMText
 62
2
  6
CONTINUOUS
  7
STANDARD
 71
2
 72
1
 10
7.555
 20
-1.9065
 30
0.0
 11
1.0
 21
0.0
 31
0.0
 44
0.9
  1
8.6 mm
 40
0.125
 41
1.2
  0
MTEXT
  5
269
100
AcDbEntity
  8
0
100
AcDbMText
 62
2
  6
CONTINUOUS
  7
STANDARD
 71
2
 72
1
 10
1.5275
 20
-2.1565
 30
0.0
 11
1.0
 21
0.0
 31
0.0
 44
0.9
  1
Mounting Hole Depth
 40
0.125
 41
3.8
  0
MTEXT
  5
26A
100
AcDbEntity
  8
0
100
AcDbMText
 62
2
  6
CONTINUOUS
  7
STANDARD
 71
2
 72
1
 10
6.055
 20
-2.1565
 30
0.0
 11
1.0
 21
0.0
 31
0.0
 44
0.9
  1
Through
 40
0.125
 41
1.4
  0
MTEXT
  5
26B
100
AcDbEntity
  8
0
100
AcDbMText
 62
2
  6
CONTINUOUS
  7
STANDARD
 71
2
 72
1
 10
1.5275
 20
-2.4065
 30
0.0
 11
1.0
 21
0.0
 31
0.0
 44
0.9
  1
Mounting Hole Quantity
 40
0.125
 41
4.4
  0
MTEXT
  5
26C
100
AcDbEntity
  8
0
100
AcDbMText
 62
2
  6
CONTINUOUS
  7
STANDARD
 71
2
 72
1
 10
6.055
 20
-2.4065
 30
0.0
 11
1.0
 21
0.0
 31
0.0
 44
0.9
  1
2
 40
0.125
 41
0.2
  0
ENDBLK
  5
26D
100
AcDbEntity
  8
0
  6
BYBLOCK
 62
0
100
AcDbBlockEnd
  0
BLOCK
  5
26E
100
AcDbEntity
  8
0
100
AcDbBlockBegin
  2
*T3
 70
1
 10
0.0
 20
0.0
  3
*T3
  1

  0
LINE
  5
26F
100
AcDbEntity
  8
0
100
AcDbLine
 62
2
  6
CONTINUOUS
 10
0.0
 20
0.0
 11
4.6
 21
0.0
  0
LINE
  5
270
100
AcDbEntity
  8
0
100
AcDbLine
 62
2
  6
CONTINUOUS
 10
0.0
 20
0.0
 11
0.0
 21
-0.93775
  0
LINE
  5
271
100
AcDbEntity
  8
0
100
AcDbLine
 62
2
  6
CONTINUOUS
 10
0.0
 20
-0.34375
 11
4.6
 21
-0.34375
  0
LINE
  5
272
100
AcDbEntity
  8
0
100
AcDbLine
 62
2
  6
CONTINUOUS
 10
0.0
 20
-0.68775
 11
4.6
 21
-0.68775
  0
LINE
  5
273
100
AcDbEntity
  8
0
100
AcDbLine
 62
2
  6
CONTINUOUS
 10
0.0
 20
-0.93775
 11
4.6
 21
-0.93775
  0
LINE
  5
274
100
AcDbEntity
  8
0
100
AcDbLine
 62
2
  6
CONTINUOUS
 10
1.3
 20
-0.34375
 11
1.3
 21
-0.93775
  0
LINE
  5
275
100
AcDbEntity
  8
0
100
AcDbLine
 62
2
  6
CONTINUOUS
 10
3.3
 20
-0.34375
 11
3.3
 21
-0.93775
  0
LINE
  5
276
100
AcDbEntity
  8
0
100
AcDbLine
 62
2
  6
CONTINUOUS
 10
4.6
 20
0.0
 11
4.6
 21
-0.93775
  0
MTEXT
  5
277
100
AcDbEntity
  8
0
100
AcDbMText
 62
2
  6
CONTINUOUS
  7
STANDARD
 71
2
 72
1
 10
2.3
 20
-0.099375
 30
0.0
 11
1.0
 21
0.0
 31
0.0
 44
0.9
  1
Port Headings
 40
0.145
 41
3.016
  0
MTEXT
  5
278
100
AcDbEntity
  8
0
100
AcDbMText
 62
2
  6
CONTINUOUS
  7
STANDARD
 71
2
 72
1
 10
0.65
 20
-0.44325
 30
0.0
 11
1.0
 21
0.0
 31
0.0
 44
0.9
  1
Product
 40
0.145
 41
1.624
  0
MTEXT
  5
279
100
AcDbEntity
  8
0
100
AcDbMText
 62
2
  6
CONTINUOUS
  7
STANDARD
 71
2
 72
1
 10
2.3
 20
-0.44325
 30
0.0
 11
1.0
 21
0.0
 31
0.0
 44
0.9
  1
Port
 40
0.145
 41
0.928
  0
MTEXT
  5
27A
100
AcDbEntity
  8
0
100
AcDbMText
 62
2
  6
CONTINUOUS
  7
STANDARD
 71
2
 72
1
 10
3.95
 20
-0.44325
 30
0.0
 11
1.0
 21
0.0
 31
0.0
 44
0.9
  1
Size
 40
0.145
 41
0.928
  0
MTEXT
  5
27B
100
AcDbEntity
  8
0
100
AcDbMText
 62
2
  6
CONTINUOUS
  7
STANDARD
 71
2
 72
1
 10
0.65
 20
-0.75025
 30
0.0
 11
1.0
 21
0.0
 31
0.0
 44
0.9
  1
FMI
 40
0.125
 41
0.6
  0
MTEXT
  5
27C
100
AcDbEntity
  8
0
100
AcDbMText
 62
2
  6
CONTINUOUS
  7
STANDARD
 71
2
 72
1
 10
2.3
 20
-0.75025
 30
0.0
 11
1.0
 21
0.0
 31
0.0
 44
0.9
  1
All Ports
 40
0.125
 41
1.8
  0
MTEXT
  5
27D
100
AcDbEntity
  8
0
100
AcDbMText
 62
2
  6
CONTINUOUS
  7
STANDARD
 71
2
 72
1
 10
3.95
 20
-0.75025
 30
0.0
 11
1.0
 21
0.0
 31
0.0
 44
0.9
  1
SAE 6
 40
0.125
 41
1.0
  0
ENDBLK
  5
27E
100
AcDbEntity
  8
0
  6
BYBLOCK
 62
0
100
AcDbBlockEnd
  0
ENDSEC
  0
SECTION
  2
ENTITIES
  0
IMAGE
  5
27F
100
AcDbEntity
  8
0
100
AcDbRasterImage
 62
7
  6
CONTINUOUS
 10
19.2297077316
 20
0.3094318264
 30
0.0
 11
0.0066666667
 21
0.0
 31
0.0
 12
0.0
 22
0.0066666667
 32
0.0
 13
369.0
 23
92.0
340
       395
 70
9
280
0
281
50
282
50
283
0
360
       38F
 71
1
 91
2
 14
-0.5
 24
-0.5
 14
368.5
 24
91.5
  0
INSERT
  5
280
100
AcDbEntity
  8
0
100
AcDbBlockReference
 62
2
  6
CONTINUOUS
  2
SUN_FIRST_THIRD_ANGLE_BL0
 10
20.4816717061
 20
1.2289683772
  0
ACAD_TABLE
  5
281
100
AcDbEntity
  8
0
 62
2
  6
CONTINUOUS
100
AcDbBlockReference
  2
*T1
 10
12.42375
 20
0.30125
 30
0.0
100
AcDbTable
342
       397
343
207
 11
1.0
 21
0.0
 31
0.0
 90
6
 91
4
 92
6
 93
20
 94
0
 95
0
 96
0
 70
1
 41
0.0
141
0.525
141
0.1
141
0.525
141
0.1
142
4.1
142
1.1
142
0.7
142
0.5
142
0.4
142
2.475
171
1
172
0
173
0
174
0
175
1
176
1
 91
33
178
0
145
0.0
301
CELL_VALUE
 90
4
  1
T-10A Line mount\PCross port with make up checks
304
ACVALUE_END
170
2
140
0.125
171
1
172
0
173
0
174
0
175
1
176
1
 91
33
178
0
145
0.0
301
CELL_VALUE
 90
4
  1
Feb-03-22
304
ACVALUE_END
170
5
140
0.125
171
1
172
0
173
0
174
0
175
1
176
1
 91
33
178
0
145
0.0
301
CELL_VALUE
 90
4
  1
2.000
304
ACVALUE_END
170
5
140
0.125
171
1
172
0
173
0
174
0
175
1
176
1
 91
33
178
0
145
0.0
301
CELL_VALUE
 90
4
  1
C
304
ACVALUE_END
170
5
140
0.125
171
1
172
0
173
0
174
0
175
1
176
1
 91
33
178
0
145
0.0
301
CELL_VALUE
 90
4
  1
2
304
ACVALUE_END
170
5
140
0.125
171
1
172
0
173
0
174
0
175
1
176
1
 91
33
178
0
145
0.0
301
CELL_VALUE
 90
4
  1
 
304
ACVALUE_END
170
1
140
0.125
171
1
172
0
173
0
174
0
175
1
176
1
 91
33
178
0
145
0.0
301
CELL_VALUE
 90
4
  1
DESCRIPTION
304
ACVALUE_END
170
1
140
0.06
171
1
172
0
173
0
174
0
175
1
176
1
 91
33
178
0
145
0.0
301
CELL_VALUE
 90
4
  1
DATE
304
ACVALUE_END
170
1
140
0.06
171
1
172
0
173
0
174
0
175
1
176
1
 91
33
178
0
145
0.0
301
CELL_VALUE
 90
4
  1
SCALE
304
ACVALUE_END
170
1
140
0.06
171
1
172
0
173
0
174
0
175
1
176
1
 91
33
178
0
145
0.0
301
CELL_VALUE
 90
4
  1
DWG SIZE
304
ACVALUE_END
170
1
140
0.06
171
1
172
0
173
0
174
0
175
1
176
1
 91
33
178
0
145
0.0
301
CELL_VALUE
 90
4
  1
SHEET
304
ACVALUE_END
170
1
140
0.06
171
1
172
0
173
0
174
0
175
1
176
1
 91
33
178
0
145
0.0
301
CELL_VALUE
 90
4
  1
 
304
ACVALUE_END
170
1
140
0.125
171
1
172
0
173
0
174
0
175
1
176
1
 91
33
178
0
145
0.0
301
CELL_VALUE
 90
4
  1
FMI
304
ACVALUE_END
170
5
140
0.125
171
1
172
0
173
0
174
0
175
4
176
1
 91
33
178
0
145
0.0
301
CELL_VALUE
 90
4
  1
ALL DIMENSIONS IN INCH\PVIEWS ARE THIRD ANGLE
304
ACVALUE_END
170
5
140
0.12
171
1
172
0
173
1
174
0
175
1
176
1
 91
1
178
0
145
0.0
170
1
171
1
172
0
173
1
174
0
175
1
176
1
 91
1
178
0
145
0.0
170
1
171
1
172
0
173
1
174
0
175
1
176
1
 91
1
178
0
145
0.0
170
5
171
1
172
0
173
0
174
0
175
1
176
1
 91
33
178
0
145
0.0
301
CELL_VALUE
 90
4
  1
 
304
ACVALUE_END
170
1
140
0.125
171
1
172
0
173
0
174
0
175
1
176
1
 91
33
178
0
145
0.0
301
CELL_VALUE
 90
4
  1
MODEL
304
ACVALUE_END
170
1
140
0.06
171
1
172
0
173
0
174
0
175
1
176
1
 91
33
178
0
145
0.0
301
CELL_VALUE
 90
4
  1
 
304
ACVALUE_END
170
1
140
0.125
171
1
172
0
173
0
174
0
175
1
176
1
 91
33
178
0
145
0.0
301
CELL_VALUE
 90
4
  1
 
304
ACVALUE_END
170
1
140
0.125
171
1
172
0
173
0
174
0
175
1
176
1
 91
33
178
0
145
0.0
301
CELL_VALUE
 90
4
  1
 
304
ACVALUE_END
170
1
140
0.125
171
1
172
0
173
0
174
0
175
1
176
1
 91
33
178
0
145
0.0
301
CELL_VALUE
 90
4
  1
 
304
ACVALUE_END
170
1
140
0.125
171
1
172
0
173
0
174
0
175
1
176
1
 91
33
178
0
145
0.0
301
CELL_VALUE
 90
4
  1
 
304
ACVALUE_END
170
1
140
0.125
  0
ACAD_TABLE
  5
282
100
AcDbEntity
  8
0
 62
2
  6
CONTINUOUS
100
AcDbBlockReference
  2
*T2
 10
12.4237499994
 20
16.47875
 30
0.0
100
AcDbTable
342
       396
343
208
 11
1.0
 21
0.0
 31
0.0
 90
22
 91
10
 92
3
 93
16
 94
0
 95
0
 96
0
 41
0.028
141
0.344
141
0.25
141
0.25
141
0.25
141
0.25
141
0.25
141
0.25
141
0.25
141
0.25
141
0.25
142
3.055
142
3.0
142
3.0
171
1
172
0
173
0
174
0
175
1
176
1
 91
33
178
0
145
0.0
301
CELL_VALUE
 90
4
  1
Technical Data
304
ACVALUE_END
170
5
140
0.145
171
1
172
0
173
0
174
0
175
1
176
1
 91
33
178
0
145
0.0
301
CELL_VALUE
 90
4
  1
U.S. Units
304
ACVALUE_END
170
5
140
0.145
171
1
172
0
173
0
174
0
175
1
176
1
 91
33
178
0
145
0.0
301
CELL_VALUE
 90
4
  1
Metric Units
304
ACVALUE_END
170
5
140
0.145
171
1
172
0
173
0
174
0
175
1
176
1
 91
33
178
0
145
0.0
301
CELL_VALUE
 90
4
  1
Cavity
304
ACVALUE_END
170
5
140
0.125
171
1
172
0
173
0
174
0
175
2
176
1
 91
33
178
0
145
0.0
301
CELL_VALUE
 90
4
  1
T-10A
304
ACVALUE_END
170
5
140
0.125
171
1
172
0
173
1
174
0
175
1
176
1
 91
1
178
0
145
0.0
170
1
171
1
172
0
173
0
174
0
175
1
176
1
 91
33
178
0
145
0.0
301
CELL_VALUE
 90
4
  1
Body Features
304
ACVALUE_END
170
5
140
0.125
171
1
172
0
173
0
174
0
175
2
176
1
 91
33
178
0
145
0.0
301
CELL_VALUE
 90
4
  1
Cross port with make up checks
304
ACVALUE_END
170
5
140
0.125
171
1
172
0
173
1
174
0
175
1
176
1
 91
1
178
0
145
0.0
170
1
171
1
172
0
173
0
174
0
175
1
176
1
 91
33
178
0
145
0.0
301
CELL_VALUE
 90
4
  1
Body Type
304
ACVALUE_END
170
5
140
0.125
171
1
172
0
173
0
174
0
175
2
176
1
 91
33
178
0
145
0.0
301
CELL_VALUE
 90
4
  1
Line mount
304
ACVALUE_END
170
5
140
0.125
171
1
172
0
173
1
174
0
175
1
176
1
 91
1
178
0
145
0.0
170
1
171
1
172
0
173
0
174
0
175
1
176
1
 91
33
178
0
145
0.0
301
CELL_VALUE
 90
4
  1
Interface
304
ACVALUE_END
170
5
140
0.125
171
1
172
0
173
0
174
0
175
2
176
1
 91
33
178
0
145
0.0
301
CELL_VALUE
 90
4
  1
None
304
ACVALUE_END
170
5
140
0.125
171
1
172
0
173
1
174
0
175
1
176
1
 91
1
178
0
145
0.0
170
1
171
1
172
0
173
0
174
0
175
1
176
1
 91
33
178
0
145
0.0
301
CELL_VALUE
 90
4
  1
Open Cavity Quantity
304
ACVALUE_END
170
5
140
0.125
171
1
172
0
173
0
174
0
175
2
176
1
 91
33
178
0
145
0.0
301
CELL_VALUE
 90
4
  1
2
304
ACVALUE_END
170
5
140
0.125
171
1
172
0
173
1
174
0
175
1
176
1
 91
1
178
0
145
0.0
170
1
171
1
172
0
173
0
174
0
175
1
176
1
 91
33
178
0
145
0.0
301
CELL_VALUE
 90
4
  1
Weight
304
ACVALUE_END
170
5
140
0.125
171
1
172
0
173
0
174
0
175
1
176
1
 91
33
178
0
145
0.0
301
CELL_VALUE
 90
4
  1
2.681 lb.
304
ACVALUE_END
170
5
140
0.125
171
1
172
0
173
0
174
0
175
1
176
1
 91
33
178
0
145
0.0
301
CELL_VALUE
 90
4
  1
1,216 kg.
304
ACVALUE_END
170
5
140
0.125
171
1
172
0
173
0
174
0
175
1
176
1
 91
33
178
0
145
0.0
301
CELL_VALUE
 90
4
  1
Mounting Hole Diameter
304
ACVALUE_END
170
5
140
0.125
171
1
172
0
173
0
174
0
175
1
176
1
 91
33
178
0
145
0.0
301
CELL_VALUE
 90
4
  1
.34 in.
304
ACVALUE_END
170
5
140
0.125
171
1
172
0
173
0
174
0
175
1
176
1
 91
33
178
0
145
0.0
301
CELL_VALUE
 90
4
  1
8.6 mm
304
ACVALUE_END
170
5
140
0.125
171
1
172
0
173
0
174
0
175
1
176
1
 91
33
178
0
145
0.0
301
CELL_VALUE
 90
4
  1
Mounting Hole Depth
304
ACVALUE_END
170
5
140
0.125
171
1
172
0
173
0
174
0
175
2
176
1
 91
33
178
0
145
0.0
301
CELL_VALUE
 90
4
  1
Through
304
ACVALUE_END
170
5
140
0.125
171
1
172
0
173
1
174
0
175
1
176
1
 91
1
178
0
145
0.0
170
1
171
1
172
0
173
0
174
0
175
1
176
1
 91
33
178
0
145
0.0
301
CELL_VALUE
 90
4
  1
Mounting Hole Quantity
304
ACVALUE_END
170
5
140
0.125
171
1
172
0
173
0
174
0
175
2
176
1
 91
33
178
0
145
0.0
301
CELL_VALUE
 90
4
  1
2
304
ACVALUE_END
170
5
140
0.125
171
1
172
0
173
1
174
0
175
1
176
1
 91
1
178
0
145
0.0
170
1
  0
ACAD_TABLE
  5
283
100
AcDbEntity
  8
0
 62
2
  6
CONTINUOUS
100
AcDbBlockReference
  2
*T3
 10
0.52125
 20
1.459
 30
0.0
100
AcDbTable
342
       396
343
209
 11
1.0
 21
0.0
 31
0.0
 90
22
 91
3
 92
3
 93
16
 94
0
 95
0
 96
0
 41
0.05
141
0.34375
141
0.344
141
0.25
142
1.3
142
2.0
142
1.3
171
1
172
0
173
0
174
0
175
3
176
1
 91
33
178
0
145
0.0
301
CELL_VALUE
 90
4
  1
Port Headings
304
ACVALUE_END
170
5
140
0.145
171
1
172
0
173
1
174
0
175
1
176
1
 91
1
178
0
145
0.0
170
1
171
1
172
0
173
1
174
0
175
1
176
1
 91
1
178
0
145
0.0
170
1
171
1
172
0
173
0
174
0
175
1
176
1
 91
33
178
0
145
0.0
301
CELL_VALUE
 90
4
  1
Product
304
ACVALUE_END
170
5
140
0.145
171
1
172
0
173
0
174
0
175
1
176
1
 91
33
178
0
145
0.0
301
CELL_VALUE
 90
4
  1
Port
304
ACVALUE_END
170
5
140
0.145
171
1
172
0
173
0
174
0
175
1
176
1
 91
33
178
0
145
0.0
301
CELL_VALUE
 90
4
  1
Size
304
ACVALUE_END
170
5
140
0.145
171
1
172
0
173
0
174
0
175
1
176
1
 91
33
178
0
145
0.0
301
CELL_VALUE
 90
4
  1
FMI
304
ACVALUE_END
170
5
140
0.125
171
1
172
0
173
0
174
0
175
1
176
1
 91
33
178
0
145
0.0
301
CELL_VALUE
 90
4
  1
All Ports
304
ACVALUE_END
170
5
140
0.125
171
1
172
0
173
0
174
0
175
1
176
1
 91
33
178
0
145
0.0
301
CELL_VALUE
 90
4
  1
SAE 6
304
ACVALUE_END
170
5
140
0.125
  0
MTEXT
  5
284
100
AcDbEntity
  8
0
100
AcDbMText
 62
2
  6
CONTINUOUS
  7
STANDARD
 71
1
 72
1
 10
0.52125
 20
5.75995
 30
0.0
 11
1.0
 21
0.0
 31
0.0
 44
0.6
  3
Notes\P \P1. Important: Carefully consider\P   the maximum system pressure. The\P   pressure rating of the manifold is\P   dependent on the manifold material,\P   with the port type/size a secondary\P   consideration. Manifolds\P   constructed of alu
  1
minum are not\P   rated for pressures higher than\P   3000 psi (210 bar), regardless of\P   the port type/size specified.
 40
0.1
 41
3.04
  0
LINE
  5
285
100
AcDbEntity
  8
0
100
AcDbLine
 62
7
  6
CONTINUOUS
 10
0.30125
 20
0.30125
 11
0.30125
 21
16.69875
  0
LINE
  5
286
100
AcDbEntity
  8
0
100
AcDbLine
 62
7
  6
CONTINUOUS
 10
0.30125
 20
0.30125
 11
21.69875
 21
0.30125
  0
LINE
  5
287
100
AcDbEntity
  8
0
100
AcDbLine
 62
7
  6
CONTINUOUS
 10
0.30125
 20
16.69875
 11
21.69875
 21
16.69875
  0
LINE
  5
288
100
AcDbEntity
  8
0
100
AcDbLine
 62
7
  6
CONTINUOUS
 10
21.69875
 20
0.30125
 11
21.69875
 21
16.69875
  0
LINE
  5
289
100
AcDbEntity
  8
0
100
AcDbLine
 62
7
  6
CONTINUOUS
 10
7.1602186008
 20
10.8768333737
 11
8.6810380359
 21
12.3458322303
  0
LINE
  5
28A
100
AcDbEntity
  8
0
100
AcDbLine
 62
7
  6
CONTINUOUS
 10
7.1602186008
 20
5.0812780726
 11
7.1602186008
 21
10.8768333737
  0
LINE
  5
28B
100
AcDbEntity
  8
0
100
AcDbLine
 62
4
  6
CONTINUOUS
 10
7.4161889596
 20
9.9511114372
 11
7.4017000716
 21
9.8941606933
  0
LINE
  5
28C
100
AcDbEntity
  8
0
100
AcDbLine
 62
4
  6
CONTINUOUS
 10
7.4017000716
 20
10.0873458611
 11
7.4161889596
 21
10.1056595798
  0
LINE
  5
28D
100
AcDbEntity
  8
0
100
AcDbLine
 62
4
  6
CONTINUOUS
 10
7.4451667354
 20
9.9877388538
 11
7.4161889596
 21
9.9511114372
  0
LINE
  5
28E
100
AcDbEntity
  8
0
100
AcDbLine
 62
4
  6
CONTINUOUS
 10
7.5176111751
 20
10.0406703735
 11
7.5031222871
 21
10.0223566548
  0
LINE
  5
28F
100
AcDbEntity
  8
0
100
AcDbLine
 62
7
  6
CONTINUOUS
 10
13.3189619641
 20
4.6541677697
 11
7.1602186008
 21
5.0812780726
  0
LINE
  5
290
100
AcDbEntity
  8
0
100
AcDbLine
 62
4
  6
CONTINUOUS
 10
7.5176111751
 20
10.0793073988
 11
7.5176111751
 21
10.0406703735
  0
LINE
  5
291
100
AcDbEntity
  8
0
100
AcDbLine
 62
4
  6
CONTINUOUS
 10
7.5176111751
 20
6.7372038455
 11
7.5176111751
 21
6.5053816387
  0
LINE
  5
292
100
AcDbEntity
  8
0
100
AcDbLine
 62
4
  6
CONTINUOUS
 10
7.4161889596
 20
10.1056595798
 11
7.4451667354
 21
10.1229684768
  0
LINE
  5
293
100
AcDbEntity
  8
0
100
AcDbLine
 62
4
  6
CONTINUOUS
 10
7.8297432601
 20
9.4311890467
 11
7.8297432601
 21
9.4643065029
  0
LINE
  5
294
100
AcDbEntity
  8
0
100
AcDbLine
 62
4
  6
CONTINUOUS
 10
7.9456543635
 20
9.2906807495
 11
7.9456543635
 21
9.3237982091
  0
LINE
  5
295
100
AcDbEntity
  8
0
100
AcDbLine
 62
4
  6
CONTINUOUS
 10
8.0118892758
 20
9.48479209
 11
8.0118892758
 21
9.2860873427
  0
LINE
  5
296
100
AcDbEntity
  8
0
100
AcDbLine
 62
4
  6
CONTINUOUS
 10
8.0836437968
 20
8.0657004352
 11
8.0836437968
 21
8.297522642
  0
LINE
  5
297
100
AcDbEntity
  8
0
100
AcDbLine
 62
4
  6
CONTINUOUS
 10
8.1278003792
 20
9.2780488804
 11
8.1278003792
 21
9.4767536276
  0
LINE
  5
298
100
AcDbEntity
  8
0
100
AcDbLine
 62
4
  6
CONTINUOUS
 10
7.8297432601
 20
9.4643065029
 11
7.8628607197
 21
9.4951272554
  0
LINE
  5
299
100
AcDbEntity
  8
0
100
AcDbLine
 62
4
  6
CONTINUOUS
 10
7.5031222871
 20
10.0223566548
 11
7.4451667354
 21
9.9877388538
  0
LINE
  5
29A
100
AcDbEntity
  8
0
100
AcDbLine
 62
4
  6
CONTINUOUS
 10
10.2395902833
 20
5.3410265988
 11
10.3844791626
 21
5.3309785209
  0
LINE
  5
29B
100
AcDbEntity
  8
0
100
AcDbLine
 62
4
  6
CONTINUOUS
 10
8.1940352915
 20
9.240338014
 11
8.1940352915
 21
9.4721602209
  0
LINE
  5
29C
100
AcDbEntity
  8
0
100
AcDbLine
 62
4
  6
CONTINUOUS
 10
8.1995548864
 20
8.2563667245
 11
8.1995548864
 21
8.0907794334
  0
LINE
  5
29D
100
AcDbEntity
  8
0
100
AcDbLine
 62
4
  6
CONTINUOUS
 10
8.309946395
 20
9.2322995517
 11
8.309946395
 21
9.4641217585
  0
LINE
  5
29E
100
AcDbEntity
  8
0
100
AcDbLine
 62
4
  6
CONTINUOUS
 10
7.9125369074
 20
9.2598599932
 11
7.9456543635
 21
9.2906807495
  0
LINE
  5
29F
100
AcDbEntity
  8
0
100
AcDbLine
 62
4
  6
CONTINUOUS
 10
8.0946829369
 20
9.2472281232
 11
8.1278003792
 21
9.2780488804
  0
LINE
  5
2A0
100
AcDbEntity
  8
0
100
AcDbLine
 62
4
  6
CONTINUOUS
 10
8.359622598
 20
8.2783834471
 11
8.425857538
 21
8.0419678316
  0
LINE
  5
2A1
100
AcDbEntity
  8
0
100
AcDbLine
 62
4
  6
CONTINUOUS
 10
8.5583273626
 20
8.0327810181
 11
8.5583273626
 21
8.2646032249
  0
LINE
  5
2A2
100
AcDbEntity
  8
0
100
AcDbLine
 62
4
  6
CONTINUOUS
 10
8.558327323
 20
9.2150742758
 11
8.558327323
 21
9.4468964827
  0
LINE
  5
2A3
100
AcDbEntity
  8
0
100
AcDbLine
 62
4
  6
CONTINUOUS
 10
8.6576797053
 20
9.3572127243
 11
8.6576797053
 21
9.2081841647
  0
LINE
  5
2A4
100
AcDbEntity
  8
0
100
AcDbLine
 62
4
  6
CONTINUOUS
 10
8.6907971872
 20
8.0235942045
 11
8.6907971872
 21
8.2554164114
  0
LINE
  5
2A5
100
AcDbEntity
  8
0
100
AcDbLine
 62
4
  6
CONTINUOUS
 10
8.7101155924
 20
8.5322633237
 11
8.7101155924
 21
8.7640855305
  0
LINE
  5
2A6
100
AcDbEntity
  8
0
100
AcDbLine
 62
4
  6
CONTINUOUS
 10
8.8674236357
 20
9.2101971035
 11
8.8674236357
 21
9.3426669333
  0
LINE
  5
2A7
100
AcDbEntity
  8
0
100
AcDbLine
 62
4
  6
CONTINUOUS
 10
8.2933876857
 20
8.0511546471
 11
8.359622598
 21
8.2783834471
  0
LINE
  5
2A8
100
AcDbEntity
  8
0
100
AcDbLine
 62
4
  6
CONTINUOUS
 10
8.7570320875
 20
9.1460982899
 11
8.8232669722
 21
9.3622879433
  0
LINE
  5
2A9
100
AcDbEntity
  8
0
100
AcDbLine
 62
4
  6
CONTINUOUS
 10
8.1664374303
 20
8.291780884
 11
8.1995548864
 21
8.2563667245
  0
LINE
  5
2AA
100
AcDbEntity
  8
0
100
AcDbLine
 62
4
  6
CONTINUOUS
 10
8.875702887
 20
8.5207798058
 11
8.875702887
 21
8.7526020126
  0
LINE
  5
2AB
100
AcDbEntity
  8
0
100
AcDbLine
 62
4
  6
CONTINUOUS
 10
8.9667759627
 20
9.4185704733
 11
8.9667759627
 21
9.1867482664
  0
LINE
  5
2AC
100
AcDbEntity
  8
0
100
AcDbLine
 62
4
  6
CONTINUOUS
 10
9.0081727116
 20
8.7434151991
 11
9.0081727116
 21
8.5115929922
  0
LINE
  5
2AD
100
AcDbEntity
  8
0
100
AcDbLine
 62
4
  6
CONTINUOUS
 10
9.0330109579
 20
9.1821548539
 11
9.0330109579
 21
9.3477421485
  0
LINE
  5
2AE
100
AcDbEntity
  8
0
100
AcDbLine
 62
4
  6
CONTINUOUS
 10
9.0385305527
 20
8.0325962733
 11
9.0385305527
 21
8.1981835644
  0
LINE
  5
2AF
100
AcDbEntity
  8
0
100
AcDbLine
 62
4
  6
CONTINUOUS
 10
9.1102849531
 20
9.3258244437
 11
9.1102849531
 21
9.2927069876
  0
LINE
  5
2B0
100
AcDbEntity
  8
0
100
AcDbLine
 62
4
  6
CONTINUOUS
 10
9.1185642321
 20
8.5039373143
 11
9.1185642321
 21
8.7357595212
  0
LINE
  5
2B1
100
AcDbEntity
  8
0
100
AcDbLine
 62
4
  6
CONTINUOUS
 10
9.1820395036
 20
9.188378419
 11
9.1820395036
 21
9.2380546084
  0
LINE
  5
2B2
100
AcDbEntity
  8
0
100
AcDbLine
 62
4
  6
CONTINUOUS
 10
9.2317156514
 20
8.0191988412
 11
9.2317156514
 21
8.1847861323
  0
LINE
  5
2B3
100
AcDbEntity
  8
0
100
AcDbLine
 62
4
  6
CONTINUOUS
 10
8.9419377993
 20
8.6155387744
 11
9.0081727116
 21
8.7434151991
  0
LINE
  5
2B4
100
AcDbEntity
  8
0
100
AcDbLine
 62
4
  6
CONTINUOUS
 10
7.9511739584
 20
8.174239625
 11
8.0394871817
 21
8.1239584705
  0
LINE
  5
2B5
100
AcDbEntity
  8
0
100
AcDbLine
 62
4
  6
CONTINUOUS
 10
7.8297432601
 20
9.282160482
 11
7.8463019899
 21
9.2644534004
  0
LINE
  5
2B6
100
AcDbEntity
  8
0
100
AcDbLine
 62
4
  6
CONTINUOUS
 10
7.5031222871
 20
10.099630733
 11
7.5176111751
 21
10.0793073988
  0
LINE
  5
2B7
100
AcDbEntity
  8
0
100
AcDbLine
 62
4
  6
CONTINUOUS
 10
8.1940352915
 20
9.4721602209
 11
8.309946395
 21
9.2322995517
  0
LINE
  5
2B8
100
AcDbEntity
  8
0
100
AcDbLine
 62
4
  6
CONTINUOUS
 10
8.875702887
 20
8.7526020126
 11
8.9419377993
 21
8.6155387744
  0
LINE
  5
2B9
100
AcDbEntity
  8
0
100
AcDbLine
 62
4
  6
CONTINUOUS
 10
8.7239146452
 20
9.3691780506
 11
8.773590864
 21
9.2001456985
  0
LINE
  5
2BA
100
AcDbEntity
  8
0
100
AcDbLine
 62
4
  6
CONTINUOUS
 10
9.2813918306
 20
9.1649295819
 11
9.2813918306
 21
9.2973994203
  0
LINE
  5
2BB
100
AcDbEntity
  8
0
100
AcDbLine
 62
4
  6
CONTINUOUS
 10
9.3476267153
 20
9.3259234716
 11
9.3476267153
 21
9.1768949068
  0
LINE
  5
2BC
100
AcDbEntity
  8
0
100
AcDbLine
 62
4
  6
CONTINUOUS
 10
9.3476267549
 20
8.17674767
 11
9.3476267549
 21
8.0111603789
  0
LINE
  5
2BD
100
AcDbEntity
  8
0
100
AcDbLine
 62
4
  6
CONTINUOUS
 10
9.4138616395
 20
7.9734495144
 11
9.4138616395
 21
8.2052717213
  0
LINE
  5
2BE
100
AcDbEntity
  8
0
100
AcDbLine
 62
4
  6
CONTINUOUS
 10
9.4469791528
 20
9.1534460621
 11
9.4469791528
 21
9.3190333567
  0
LINE
  5
2BF
100
AcDbEntity
  8
0
100
AcDbLine
 62
4
  6
CONTINUOUS
 10
9.5132140375
 20
9.165411387
 11
9.5132140375
 21
9.3806748641
  0
LINE
  5
2C0
100
AcDbEntity
  8
0
100
AcDbLine
 62
4
  6
CONTINUOUS
 10
9.529772743
 20
8.1641158028
 11
9.529772743
 21
7.9985285117
  0
LINE
  5
2C1
100
AcDbEntity
  8
0
100
AcDbLine
 62
4
  6
CONTINUOUS
 10
9.6677621386
 20
9.3699569169
 11
9.6622425833
 21
9.3537809644
  0
LINE
  5
2C2
100
AcDbEntity
  8
0
100
AcDbLine
 62
4
  6
CONTINUOUS
 10
8.1995548864
 20
8.0907794334
 11
8.1664374303
 21
8.0599586772
  0
LINE
  5
2C3
100
AcDbEntity
  8
0
100
AcDbLine
 62
4
  6
CONTINUOUS
 10
9.7505557997
 20
9.2814215097
 11
9.7671144656
 21
9.2968318973
  0
LINE
  5
2C4
100
AcDbEntity
  8
0
100
AcDbLine
 62
4
  6
CONTINUOUS
 10
8.8674236357
 20
9.3426669333
 11
8.900541078
 21
9.3569289659
  0
LINE
  5
2C5
100
AcDbEntity
  8
0
100
AcDbLine
 62
4
  6
CONTINUOUS
 10
7.9456543635
 20
9.3237982091
 11
7.8297432601
 21
9.4311890467
  0
LINE
  5
2C6
100
AcDbEntity
  8
0
100
AcDbLine
 62
4
  6
CONTINUOUS
 10
9.0716479951
 20
7.9971821113
 11
9.0385305527
 21
8.0325962733
  0
LINE
  5
2C7
100
AcDbEntity
  8
0
100
AcDbLine
 62
4
  6
CONTINUOUS
 10
8.0118892758
 20
9.2860873427
 11
8.045006732
 21
9.2506731797
  0
LINE
  5
2C8
100
AcDbEntity
  8
0
100
AcDbLine
 62
4
  6
CONTINUOUS
 10
9.2648330938
 20
7.9837846792
 11
9.2317156514
 21
8.0191988412
  0
LINE
  5
2C9
100
AcDbEntity
  8
0
100
AcDbLine
 62
4
  6
CONTINUOUS
 10
7.9290956354
 20
9.4905338484
 11
7.9456543635
 21
9.4728267617
  0
LINE
  5
2CA
100
AcDbEntity
  8
0
100
AcDbLine
 62
4
  6
CONTINUOUS
 10
9.3145093125
 20
8.2121618286
 11
9.3476267549
 21
8.17674767
  0
LINE
  5
2CB
100
AcDbEntity
  8
0
100
AcDbLine
 62
4
  6
CONTINUOUS
 10
9.6236056252
 20
7.9589037196
 11
9.6236056252
 21
8.1907259265
  0
LINE
  5
2CC
100
AcDbEntity
  8
0
100
AcDbLine
 62
4
  6
CONTINUOUS
 10
9.6622425833
 20
9.1385174925
 11
9.6622425833
 21
9.3041047871
  0
LINE
  5
2CD
100
AcDbEntity
  8
0
100
AcDbLine
 62
4
  6
CONTINUOUS
 10
9.6622425833
 20
9.3537809644
 11
9.6622425833
 21
9.3703396993
  0
LINE
  5
2CE
100
AcDbEntity
  8
0
100
AcDbLine
 62
4
  6
CONTINUOUS
 10
9.7505557997
 20
9.1489516799
 11
9.7505557997
 21
9.2814215097
  0
LINE
  5
2CF
100
AcDbEntity
  8
0
100
AcDbLine
 62
4
  6
CONTINUOUS
 10
9.899584456
 20
9.2214101531
 11
9.899584456
 21
9.2710863373
  0
LINE
  5
2D0
100
AcDbEntity
  8
0
100
AcDbLine
 62
4
  6
CONTINUOUS
 10
9.899584456
 20
9.2710863373
 11
9.9161431219
 21
9.2864967249
  0
LINE
  5
2D1
100
AcDbEntity
  8
0
100
AcDbLine
 62
4
  6
CONTINUOUS
 10
9.9823780065
 20
9.1163160255
 11
9.9989366724
 21
9.1317264079
  0
LINE
  5
2D2
100
AcDbEntity
  8
0
100
AcDbLine
 62
4
  6
CONTINUOUS
 10
9.0385305527
 20
8.1981835644
 11
9.0716479951
 21
8.2290043181
  0
LINE
  5
2D3
100
AcDbEntity
  8
0
100
AcDbLine
 62
4
  6
CONTINUOUS
 10
9.1820395036
 20
9.2380546084
 11
9.215156946
 21
9.252316634
  0
LINE
  5
2D4
100
AcDbEntity
  8
0
100
AcDbLine
 62
4
  6
CONTINUOUS
 10
9.4966553006
 20
8.1995299614
 11
9.529772743
 21
8.1641158028
  0
LINE
  5
2D5
100
AcDbEntity
  8
0
100
AcDbLine
 62
4
  6
CONTINUOUS
 10
8.6411209841
 20
9.3749198105
 11
8.6576797053
 21
9.3572127243
  0
LINE
  5
2D6
100
AcDbEntity
  8
0
100
AcDbLine
 62
4
  6
CONTINUOUS
 10
9.0992458425
 20
9.3431487436
 11
9.1102849531
 21
9.3258244437
  0
LINE
  5
2D7
100
AcDbEntity
  8
0
100
AcDbLine
 62
4
  6
CONTINUOUS
 10
9.2813918306
 20
9.2973994203
 11
9.2648331647
 21
9.3316652238
  0
LINE
  5
2D8
100
AcDbEntity
  8
0
100
AcDbLine
 62
4
  6
CONTINUOUS
 10
9.9989366724
 20
9.1317264079
 11
9.9989366724
 21
9.1814025973
  0
LINE
  5
2D9
100
AcDbEntity
  8
0
100
AcDbLine
 62
4
  6
CONTINUOUS
 10
10.312034723
 20
5.3360025599
 11
10.312034723
 21
5.104180353
  0
LINE
  5
2DA
100
AcDbEntity
  8
0
100
AcDbLine
 62
7
  6
CONTINUOUS
 10
10.9282365835
 20
9.5696837181
 11
11.0741339574
 21
9.7106097678
  0
LINE
  5
2DB
100
AcDbEntity
  8
0
100
AcDbLine
 62
4
  6
CONTINUOUS
 10
9.2317156514
 20
8.1847861323
 11
9.2648330938
 21
8.215606886
  0
LINE
  5
2DC
100
AcDbEntity
  8
0
100
AcDbLine
 62
4
  6
CONTINUOUS
 10
9.3476267549
 20
8.0111603789
 11
9.3145093125
 21
7.9803396217
  0
LINE
  5
2DD
100
AcDbEntity
  8
0
100
AcDbLine
 62
4
  6
CONTINUOUS
 10
8.0394871817
 20
8.2122716973
 11
7.9511739584
 21
8.174239625
  0
LINE
  5
2DE
100
AcDbEntity
  8
0
100
AcDbLine
 62
4
  6
CONTINUOUS
 10
9.7891928368
 20
8.090929198
 11
9.8775060532
 21
8.0406480405
  0
LINE
  5
2DF
100
AcDbEntity
  8
0
100
AcDbLine
 62
4
  6
CONTINUOUS
 10
7.4741445113
 20
10.1209588612
 11
7.5031222871
 21
10.099630733
  0
LINE
  5
2E0
100
AcDbEntity
  8
0
100
AcDbLine
 62
4
  6
CONTINUOUS
 10
9.3476267153
 20
9.1768949068
 11
9.3641854917
 21
9.159187822
  0
LINE
  5
2E1
100
AcDbEntity
  8
0
100
AcDbLine
 62
4
  6
CONTINUOUS
 10
9.529772743
 20
7.9985285117
 11
9.4966553006
 21
7.9677077545
  0
LINE
  5
2E2
100
AcDbEntity
  8
0
100
AcDbLine
 62
4
  6
CONTINUOUS
 10
9.4966553006
 20
7.9677077545
 11
9.4138616395
 21
7.9734495144
  0
LINE
  5
2E3
100
AcDbEntity
  8
0
100
AcDbLine
 62
4
  6
CONTINUOUS
 10
9.3145093125
 20
7.9803396217
 11
9.2648330938
 21
7.9837846792
  0
LINE
  5
2E4
100
AcDbEntity
  8
0
100
AcDbLine
 62
4
  6
CONTINUOUS
 10
9.1378828797
 20
7.9925887064
 11
9.0716479951
 21
7.9971821113
  0
LINE
  5
2E5
100
AcDbEntity
  8
0
100
AcDbLine
 62
4
  6
CONTINUOUS
 10
8.1664374303
 20
8.0599586772
 11
8.0836437968
 21
8.0657004352
  0
LINE
  5
2E6
100
AcDbEntity
  8
0
100
AcDbLine
 62
4
  6
CONTINUOUS
 10
8.6907971872
 20
8.0235942045
 11
8.7901495694
 21
8.0167040934
  0
LINE
  5
2E7
100
AcDbEntity
  8
0
100
AcDbLine
 62
4
  6
CONTINUOUS
 10
9.6236056252
 20
7.9589037196
 11
9.7229579522
 21
7.9520136123
  0
LINE
  5
2E8
100
AcDbEntity
  8
0
100
AcDbLine
 62
4
  6
CONTINUOUS
 10
8.3154659898
 20
8.1158584307
 11
8.4037792062
 21
8.1097338883
  0
LINE
  5
2E9
100
AcDbEntity
  8
0
100
AcDbLine
 62
4
  6
CONTINUOUS
 10
9.6898405099
 20
8.0867801532
 11
9.6236056252
 21
8.091373558
  0
LINE
  5
2EA
100
AcDbEntity
  8
0
100
AcDbLine
 62
4
  6
CONTINUOUS
 10
8.7570321271
 20
8.1514706342
 11
8.6907971872
 21
8.1560640429
  0
LINE
  5
2EB
100
AcDbEntity
  8
0
100
AcDbLine
 62
4
  6
CONTINUOUS
 10
8.0836437968
 20
8.297522642
 11
8.1664374303
 21
8.291780884
  0
LINE
  5
2EC
100
AcDbEntity
  8
0
100
AcDbLine
 62
4
  6
CONTINUOUS
 10
8.4920924226
 20
8.2691966336
 11
8.6245622472
 21
8.2600098201
  0
LINE
  5
2ED
100
AcDbEntity
  8
0
100
AcDbLine
 62
4
  6
CONTINUOUS
 10
8.6907971872
 20
8.2554164114
 11
8.7901495694
 21
8.2485263003
  0
LINE
  5
2EE
100
AcDbEntity
  8
0
100
AcDbLine
 62
4
  6
CONTINUOUS
 10
9.0716479951
 20
8.2290043181
 11
9.1378828797
 21
8.2244109133
  0
LINE
  5
2EF
100
AcDbEntity
  8
0
100
AcDbLine
 62
4
  6
CONTINUOUS
 10
9.2648330938
 20
8.215606886
 11
9.3145093125
 21
8.2121618286
  0
LINE
  5
2F0
100
AcDbEntity
  8
0
100
AcDbLine
 62
4
  6
CONTINUOUS
 10
9.4138616395
 20
8.2052717213
 11
9.4966553006
 21
8.1995299614
  0
LINE
  5
2F1
100
AcDbEntity
  8
0
100
AcDbLine
 62
4
  6
CONTINUOUS
 10
9.6236056252
 20
8.1907259265
 11
9.7229579522
 21
8.1838358192
  0
LINE
  5
2F2
100
AcDbEntity
  8
0
100
AcDbLine
 62
4
  6
CONTINUOUS
 10
8.900541078
 20
9.1913416713
 11
8.8674236357
 21
9.2101971035
  0
LINE
  5
2F3
100
AcDbEntity
  8
0
100
AcDbLine
 62
4
  6
CONTINUOUS
 10
9.5297728139
 20
9.1477043022
 11
9.5132140375
 21
9.165411387
  0
LINE
  5
2F4
100
AcDbEntity
  8
0
100
AcDbLine
 62
4
  6
CONTINUOUS
 10
9.7671144656
 20
9.1312446027
 11
9.7505557997
 21
9.1489516799
  0
LINE
  5
2F5
100
AcDbEntity
  8
0
100
AcDbLine
 62
4
  6
CONTINUOUS
 10
9.899584456
 20
9.1386165075
 11
9.9161431219
 21
9.1209094303
  0
LINE
  5
2F6
100
AcDbEntity
  8
0
100
AcDbLine
 62
4
  6
CONTINUOUS
 10
12.8504879103
 20
9.7287896675
 11
12.8794656861
 21
9.7460985646
  0
LINE
  5
2F7
100
AcDbEntity
  8
0
100
AcDbLine
 62
4
  6
CONTINUOUS
 10
12.9374212378
 20
9.6454867426
 11
12.8794656861
 21
9.6108689416
  0
LINE
  5
2F8
100
AcDbEntity
  8
0
100
AcDbLine
 62
4
  6
CONTINUOUS
 10
9.8775060532
 20
8.0406480405
 11
9.7891928368
 21
8.0026159712
  0
LINE
  5
2F9
100
AcDbEntity
  8
0
100
AcDbLine
 62
4
  6
CONTINUOUS
 10
8.8094679678
 20
8.6578430514
 11
8.7101155924
 21
8.6647331621
  0
LINE
  5
2FA
100
AcDbEntity
  8
0
100
AcDbLine
 62
4
  6
CONTINUOUS
 10
9.215156946
 20
9.1695229867
 11
9.1820395036
 21
9.188378419
  0
LINE
  5
2FB
100
AcDbEntity
  8
0
100
AcDbLine
 62
4
  6
CONTINUOUS
 10
9.9161431219
 20
9.2092226536
 11
9.899584456
 21
9.2214101531
  0
LINE
  5
2FC
100
AcDbEntity
  8
0
100
AcDbLine
 62
4
  6
CONTINUOUS
 10
9.9989366724
 20
9.1814025973
 11
9.9823780065
 21
9.1935900967
  0
LINE
  5
2FD
100
AcDbEntity
  8
0
100
AcDbLine
 62
4
  6
CONTINUOUS
 10
9.9823780065
 20
9.28190332
 11
9.9989366724
 21
9.2641962377
  0
LINE
  5
2FE
100
AcDbEntity
  8
0
100
AcDbLine
 62
7
  6
CONTINUOUS
 10
13.3189619641
 20
10.4497230708
 11
14.8397813992
 21
11.9187219274
  0
LINE
  5
2FF
100
AcDbEntity
  8
0
100
AcDbLine
 62
4
  6
CONTINUOUS
 10
8.7101155924
 20
8.7640855305
 11
8.8094679678
 21
8.7571954199
  0
LINE
  5
300
100
AcDbEntity
  8
0
100
AcDbLine
 62
4
  6
CONTINUOUS
 10
12.8359990223
 20
9.7104759488
 11
12.8504879103
 21
9.7287896675
  0
LINE
  5
301
100
AcDbEntity
  8
0
100
AcDbLine
 62
4
  6
CONTINUOUS
 10
8.7239146452
 20
9.1483949923
 11
8.7570320875
 21
9.1460982899
  0
LINE
  5
302
100
AcDbEntity
  8
0
100
AcDbLine
 62
4
  6
CONTINUOUS
 10
9.8333495713
 20
9.1266511826
 11
9.7671144656
 21
9.1312446027
  0
LINE
  5
303
100
AcDbEntity
  8
0
100
AcDbLine
 62
4
  6
CONTINUOUS
 10
9.5628902563
 20
9.1454075998
 11
9.5297728139
 21
9.1477043022
  0
LINE
  5
304
100
AcDbEntity
  8
0
100
AcDbLine
 62
4
  6
CONTINUOUS
 10
9.2813918306
 20
9.1649295819
 11
9.215156946
 21
9.1695229867
  0
LINE
  5
305
100
AcDbEntity
  8
0
100
AcDbLine
 62
4
  6
CONTINUOUS
 10
8.9667759627
 20
9.1867482664
 11
8.900541078
 21
9.1913416713
  0
LINE
  5
306
100
AcDbEntity
  8
0
100
AcDbLine
 62
4
  6
CONTINUOUS
 10
7.8463019899
 20
9.2644534004
 11
7.9125369074
 21
9.2598599932
  0
LINE
  5
307
100
AcDbEntity
  8
0
100
AcDbLine
 62
4
  6
CONTINUOUS
 10
8.045006732
 20
9.2506731797
 11
8.0946829369
 21
9.2472281232
  0
LINE
  5
308
100
AcDbEntity
  8
0
100
AcDbLine
 62
4
  6
CONTINUOUS
 10
9.3641854917
 20
9.159187822
 11
9.4469791528
 21
9.1534460621
  0
LINE
  5
309
100
AcDbEntity
  8
0
100
AcDbLine
 62
4
  6
CONTINUOUS
 10
9.9161431219
 20
9.1209094303
 11
9.9823780065
 21
9.1163160255
  0
LINE
  5
30A
100
AcDbEntity
  8
0
100
AcDbLine
 62
4
  6
CONTINUOUS
 10
9.215156946
 20
9.252316634
 11
9.2813918306
 21
9.2477232292
  0
LINE
  5
30B
100
AcDbEntity
  8
0
100
AcDbLine
 62
4
  6
CONTINUOUS
 10
9.2648331647
 20
9.3316652238
 11
9.1820395036
 21
9.3374069837
  0
LINE
  5
30C
100
AcDbEntity
  8
0
100
AcDbLine
 62
4
  6
CONTINUOUS
 10
8.558327323
 20
9.3806615704
 11
8.6411209841
 21
9.3749198105
  0
LINE
  5
30D
100
AcDbEntity
  8
0
100
AcDbLine
 62
4
  6
CONTINUOUS
 10
8.900541078
 20
9.3569289659
 11
8.9667759627
 21
9.352335561
  0
LINE
  5
30E
100
AcDbEntity
  8
0
100
AcDbLine
 62
4
  6
CONTINUOUS
 10
9.0330109579
 20
9.3477421485
 11
9.0992458425
 21
9.3431487436
  0
LINE
  5
30F
100
AcDbEntity
  8
0
100
AcDbLine
 62
4
  6
CONTINUOUS
 10
9.7671144656
 20
9.2968318973
 11
9.8333495713
 21
9.2922384771
  0
LINE
  5
310
100
AcDbEntity
  8
0
100
AcDbLine
 62
4
  6
CONTINUOUS
 10
9.9161431219
 20
9.2864967249
 11
9.9823780065
 21
9.28190332
  0
LINE
  5
311
100
AcDbEntity
  8
0
100
AcDbLine
 62
4
  6
CONTINUOUS
 10
9.9823780065
 20
9.1935900967
 11
9.9161431219
 21
9.2092226536
  0
LINE
  5
312
100
AcDbEntity
  8
0
100
AcDbLine
 62
4
  6
CONTINUOUS
 10
12.8794656861
 20
9.6108689416
 11
12.8504879103
 21
9.574241525
  0
LINE
  5
313
100
AcDbEntity
  8
0
100
AcDbLine
 62
4
  6
CONTINUOUS
 10
12.9519101258
 20
9.6638004613
 11
12.9374212378
 21
9.6454867426
  0
LINE
  5
314
100
AcDbEntity
  8
0
100
AcDbLine
 62
4
  6
CONTINUOUS
 10
7.8628607197
 20
9.4951272554
 11
7.9290956354
 21
9.4905338484
  0
LINE
  5
315
100
AcDbEntity
  8
0
100
AcDbLine
 62
4
  6
CONTINUOUS
 10
9.6622425833
 20
9.3703396993
 11
9.6677621386
 21
9.3699569169
  0
LINE
  5
316
100
AcDbEntity
  8
0
100
AcDbLine
 62
4
  6
CONTINUOUS
 10
7.4017000716
 20
9.8941606933
 11
7.5176111751
 21
9.886122231
  0
LINE
  5
317
100
AcDbEntity
  8
0
100
AcDbLine
 62
4
  6
CONTINUOUS
 10
12.8359990223
 20
9.5172907811
 11
12.9519101258
 21
9.5092523187
  0
LINE
  5
318
100
AcDbEntity
  8
0
100
AcDbLine
 62
4
  6
CONTINUOUS
 10
7.4451667354
 20
10.1229684768
 11
7.4741445113
 21
10.1209588612
  0
LINE
  5
319
100
AcDbEntity
  8
0
100
AcDbLine
 62
4
  6
CONTINUOUS
 10
12.8794656861
 20
9.7460985646
 11
12.908443462
 21
9.744088949
  0
LINE
  5
31A
100
AcDbEntity
  8
0
100
AcDbLine
 62
4
  6
CONTINUOUS
 10
12.8504879103
 20
9.574241525
 11
12.8359990223
 21
9.5172907811
  0
LINE
  5
31B
100
AcDbEntity
  8
0
100
AcDbLine
 62
4
  6
CONTINUOUS
 10
12.9519101258
 20
9.7024374865
 11
12.9519101258
 21
9.6638004613
  0
LINE
  5
31C
100
AcDbEntity
  8
0
100
AcDbLine
 62
4
  6
CONTINUOUS
 10
12.9519101258
 20
6.3603339333
 11
12.9519101258
 21
6.1285117264
  0
LINE
  5
31D
100
AcDbEntity
  8
0
100
AcDbLine
 62
7
  6
CONTINUOUS
 10
13.3189619641
 20
10.4497230708
 11
7.1602186008
 21
10.8768333737
  0
LINE
  5
31E
100
AcDbEntity
  8
0
100
AcDbLine
 62
4
  6
CONTINUOUS
 10
12.908443462
 20
9.744088949
 11
12.9374212378
 21
9.7227608208
  0
LINE
  5
31F
100
AcDbEntity
  8
0
100
AcDbLine
 62
7
  6
CONTINUOUS
 10
13.3189619641
 20
4.6541677697
 11
13.3189619641
 21
10.4497230708
  0
LINE
  5
320
100
AcDbEntity
  8
0
100
AcDbLine
 62
4
  6
CONTINUOUS
 10
12.9374212378
 20
9.7227608208
 11
12.9519101258
 21
9.7024374865
  0
LINE
  5
321
100
AcDbEntity
  8
0
100
AcDbLine
 62
7
  6
CONTINUOUS
 10
14.8397813992
 20
11.9187219274
 11
14.8397813992
 21
6.1231666263
  0
LINE
  5
322
100
AcDbEntity
  8
0
100
AcDbLine
 62
7
  6
CONTINUOUS
 10
14.8397813992
 20
11.9187219274
 11
8.6810380359
 21
12.3458322303
  0
LINE
  5
323
100
AcDbEntity
  8
0
100
AcDbLine
 62
7
  6
CONTINUOUS
 10
14.8397813992
 20
6.1231666263
 11
13.3189619641
 21
4.6541677697
  0
ARC
  5
324
100
AcDbEntity
  8
0
100
AcDbCircle
 62
7
  6
CONTINUOUS
 10
12.4743412301
 20
7.3472017654
 40
1.7805957885
100
AcDbArc
 50
359.9959895818
 51
1.3360075063
  0
ARC
  5
325
100
AcDbEntity
  8
0
100
AcDbCircle
 62
7
  6
CONTINUOUS
 10
12.4743412301
 20
10.4864608869
 40
1.7805957885
100
AcDbArc
 50
359.9959895818
 51
1.3360075063
  0
ARC
  5
326
100
AcDbEntity
  8
0
100
AcDbCircle
 62
7
  6
CONTINUOUS
 10
12.5286670572
 20
10.4517422945
 40
1.7237887252
100
AcDbArc
 50
350.7294677436
 51
351.1251849156
  0
ARC
  5
327
100
AcDbEntity
  8
0
100
AcDbCircle
 62
7
  6
CONTINUOUS
 10
12.5286670574
 20
7.312483173
 40
1.723788725
100
AcDbArc
 50
350.7294677436
 51
351.1251849156
  0
ARC
  5
328
100
AcDbEntity
  8
0
100
AcDbCircle
 62
7
  6
CONTINUOUS
 10
9.3090725848
 20
6.8520509456
 40
0.792362826
100
AcDbArc
 50
0.00553974
 51
4.1913822612
  0
ARC
  5
329
100
AcDbEntity
  8
0
100
AcDbCircle
 62
7
  6
CONTINUOUS
 10
11.2409245821
 20
8.8914097925
 40
0.792362826
100
AcDbArc
 50
0.00553974
 51
4.1913822612
  0
ARC
  5
32A
100
AcDbEntity
  8
0
100
AcDbCircle
 62
7
  6
CONTINUOUS
 10
11.1603787692
 20
9.0168892167
 40
0.7498264853
100
AcDbArc
 50
135.4368323966
 51
137.415064188
  0
ARC
  5
32B
100
AcDbEntity
  8
0
100
AcDbCircle
 62
7
  6
CONTINUOUS
 10
9.2285267718
 20
6.9775303698
 40
0.7498264853
100
AcDbArc
 50
135.4368323966
 51
137.415064188
  0
ARC
  5
32C
100
AcDbEntity
  8
0
100
AcDbCircle
 62
7
  6
CONTINUOUS
 10
11.3149333245
 20
8.8568744118
 40
0.7497060121
100
AcDbArc
 50
310.6033370368
 51
312.4573513682
  0
ARC
  5
32D
100
AcDbEntity
  8
0
100
AcDbCircle
 62
7
  6
CONTINUOUS
 10
9.3830813271
 20
6.8175155649
 40
0.7497060121
100
AcDbArc
 50
310.6033370368
 51
312.4573513682
  0
ARC
  5
32E
100
AcDbEntity
  8
0
100
AcDbCircle
 62
7
  6
CONTINUOUS
 10
11.8810127305
 20
9.6194381797
 40
0.6970613865
100
AcDbArc
 50
170.5479608062
 51
180.0287155309
  0
ARC
  5
32F
100
AcDbEntity
  8
0
100
AcDbCircle
 62
7
  6
CONTINUOUS
 10
9.9491607331
 20
7.5800793328
 40
0.6970613865
100
AcDbArc
 50
170.5479608062
 51
180.0287155309
  0
ARC
  5
330
100
AcDbEntity
  8
0
100
AcDbCircle
 62
7
  6
CONTINUOUS
 10
9.9585075509
 20
7.5861437587
 40
0.6656436477
100
AcDbArc
 50
170.7130630571
 51
180.0277454756
  0
ARC
  5
331
100
AcDbEntity
  8
0
100
AcDbCircle
 62
7
  6
CONTINUOUS
 10
11.8903595482
 20
9.6255026056
 40
0.6656436477
100
AcDbArc
 50
170.7130630571
 51
180.0277454756
  0
ARC
  5
332
100
AcDbEntity
  8
0
100
AcDbCircle
 62
7
  6
CONTINUOUS
 10
11.8984553207
 20
9.6317503255
 40
0.6551026847
100
AcDbArc
 50
171.2238088465
 51
180.0248213111
  0
ARC
  5
333
100
AcDbEntity
  8
0
100
AcDbCircle
 62
7
  6
CONTINUOUS
 10
9.9666033234
 20
7.5923914787
 40
0.6551026847
100
AcDbArc
 50
171.2238088465
 51
180.0248213111
  0
SPLINE
  5
334
100
AcDbEntity
  8
0
100
AcDbSpline
 62
7
  6
CONTINUOUS
 70
0
 71
3
 72
59
 73
55
 74
0
 42
0.0000001
 43
0.0000001
 44
0.0000000001
 40
0.0
 40
0.0
 40
0.0
 40
0.0
 40
0.0417736767
 40
0.0840362765
 40
0.1266574811
 40
0.1695051262
 40
0.2124463914
 40
0.2553479967
 40
0.2980768488
 40
0.3405005256
 40
0.3824878146
 40
0.4239092383
 40
0.464637589
 40
0.5045484688
 40
0.5435208413
 40
0.5814375992
 40
0.6181861539
 40
0.6360888024
 40
0.6536595531
 40
0.6708859017
 40
0.6877557363
 40
0.7042573867
 40
0.720379648
 40
0.7361117919
 40
0.7514436399
 40
0.7663655339
 40
0.7808684645
 40
0.7949440033
 40
0.8085844873
 40
0.8217829218
 40
0.83453322
 40
0.8468300923
 40
0.8586693371
 40
0.8700477415
 40
0.8809634199
 40
0.8914157604
 40
0.9014058112
 40
0.9109363168
 40
0.9200121632
 40
0.9286405545
 40
0.9368315416
 40
0.9445983908
 40
0.9519582219
 40
0.9589325919
 40
0.9655482195
 40
0.9718376843
 40
0.9778400275
 40
0.9836011664
 40
0.9864084736
 40
0.9891757902
 40
0.9919106587
 40
0.9946209114
 40
0.9973146138
 40
1.0
 40
1.0
 40
1.0
 40
1.0
 10
14.1968754218
 20
6.9510559273
 30
0.0
 10
14.1968754218
 20
6.9694133001
 30
0.0
 10
14.1971618163
 20
7.0063434794
 30
0.0
 10
14.1984279143
 20
7.0619904298
 30
0.0
 10
14.200529326
 20
7.1180844754
 30
0.0
 10
14.2034591629
 20
7.1744399311
 30
0.0
 10
14.2072077428
 20
7.2308703445
 30
0.0
 10
14.2117626754
 20
7.2871890298
 30
0.0
 10
14.2171088714
 20
7.3432096598
 30
0.0
 10
14.2232286086
 20
7.3987469055
 30
0.0
 10
14.2301015826
 20
7.4536170465
 30
0.0
 10
14.2377049766
 20
7.5076385844
 30
0.0
 10
14.2460135337
 20
7.5606328545
 30
0.0
 10
14.2549996419
 20
7.6124246026
 30
0.0
 10
14.2646334146
 20
7.6628426499
 30
0.0
 10
14.2748828184
 20
7.711720197
 30
0.0
 10
14.283985831
 20
7.7513703957
 30
0.0
 10
14.2915616693
 20
7.7821912765
 30
0.0
 10
14.2973263928
 20
7.8046216145
 30
0.0
 10
14.3032185077
 20
7.8265491978
 30
0.0
 10
14.3092331707
 20
7.8479559117
 30
0.0
 10
14.3153653819
 20
7.8688240551
 30
0.0
 10
14.321610051
 20
7.8891363807
 30
0.0
 10
14.3279620183
 20
7.9088761018
 30
0.0
 10
14.3344159842
 20
7.9280269149
 30
0.0
 10
14.3409666422
 20
7.9465730003
 30
0.0
 10
14.3476085032
 20
7.9644990581
 30
0.0
 10
14.3543361327
 20
7.9817902891
 30
0.0
 10
14.3611438735
 20
7.9984324536
 30
0.0
 10
14.3680261822
 20
8.0144118252
 30
0.0
 10
14.37497726
 20
8.0297152791
 30
0.0
 10
14.3819914746
 20
8.0443302117
 30
0.0
 10
14.3890629193
 20
8.0582446655
 30
0.0
 10
14.3961858962
 20
8.0714472093
 30
0.0
 10
14.4033544355
 20
8.0839271016
 30
0.0
 10
14.4105628054
 20
8.0956741309
 30
0.0
 10
14.4178050337
 20
8.1066788127
 30
0.0
 10
14.4250754045
 20
8.1169321961
 30
0.0
 10
14.4323680291
 20
8.1264260763
 30
0.0
 10
14.4396772878
 20
8.1351527791
 30
0.0
 10
14.4469974951
 20
8.1431053547
 30
0.0
 10
14.4543232442
 20
8.1502773538
 30
0.0
 10
14.4616491884
 20
8.1566629401
 30
0.0
 10
14.4689702512
 20
8.1622566811
 30
0.0
 10
14.4762814192
 20
8.1670534871
 30
0.0
 10
14.4835779758
 20
8.1710485158
 30
0.0
 10
14.4908542748
 20
8.1742368014
 30
0.0
 10
14.4969501422
 20
8.1762347657
 30
0.0
 10
14.5017928121
 20
8.1774110242
 30
0.0
 10
14.5053840201
 20
8.1780824817
 30
0.0
 10
14.5089643413
 20
8.178550425
 30
0.0
 10
14.512533093
 20
8.1788147339
 30
0.0
 10
14.5160892697
 20
8.1788752459
 30
0.0
 10
14.5184527111
 20
8.1787796272
 30
0.0
 10
14.5196299722
 20
8.1786979868
 30
0.0
  0
SPLINE
  5
335
100
AcDbEntity
  8
0
100
AcDbSpline
 62
7
  6
CONTINUOUS
 70
0
 71
3
 72
59
 73
55
 74
0
 42
0.0000001
 43
0.0000001
 44
0.0000000001
 40
0.0
 40
0.0
 40
0.0
 40
0.0
 40
0.0417736767
 40
0.0840362765
 40
0.1266574811
 40
0.1695051262
 40
0.2124463914
 40
0.2553479967
 40
0.2980768488
 40
0.3405005256
 40
0.3824878146
 40
0.4239092383
 40
0.464637589
 40
0.5045484688
 40
0.5435208413
 40
0.5814375992
 40
0.6181861539
 40
0.6360888024
 40
0.6536595531
 40
0.6708859017
 40
0.6877557363
 40
0.7042573867
 40
0.720379648
 40
0.7361117919
 40
0.7514436399
 40
0.7663655339
 40
0.7808684645
 40
0.7949440033
 40
0.8085844873
 40
0.8217829218
 40
0.83453322
 40
0.8468300923
 40
0.8586693371
 40
0.8700477415
 40
0.8809634199
 40
0.8914157604
 40
0.9014058112
 40
0.9109363168
 40
0.9200121632
 40
0.9286405545
 40
0.9368315416
 40
0.9445983908
 40
0.9519582219
 40
0.9589325919
 40
0.9655482195
 40
0.9718376843
 40
0.9778400275
 40
0.9836011664
 40
0.9864084736
 40
0.9891757902
 40
0.9919106587
 40
0.9946209114
 40
0.9973146138
 40
1.0
 40
1.0
 40
1.0
 40
1.0
 10
14.1968754218
 20
10.0903150487
 30
0.0
 10
14.1968754218
 20
10.1086724216
 30
0.0
 10
14.1971618163
 20
10.1456026009
 30
0.0
 10
14.1984279143
 20
10.2012495512
 30
0.0
 10
14.200529326
 20
10.2573435969
 30
0.0
 10
14.2034591629
 20
10.3136990526
 30
0.0
 10
14.2072077428
 20
10.3701294659
 30
0.0
 10
14.2117626754
 20
10.4264481512
 30
0.0
 10
14.2171088714
 20
10.4824687812
 30
0.0
 10
14.2232286086
 20
10.5380060269
 30
0.0
 10
14.2301015826
 20
10.5928761679
 30
0.0
 10
14.2377049766
 20
10.6468977059
 30
0.0
 10
14.2460135337
 20
10.699891976
 30
0.0
 10
14.2549996419
 20
10.751683724
 30
0.0
 10
14.2646334146
 20
10.8021017714
 30
0.0
 10
14.2748828184
 20
10.8509793185
 30
0.0
 10
14.283985831
 20
10.8906295171
 30
0.0
 10
14.2915616693
 20
10.9214503979
 30
0.0
 10
14.2973263928
 20
10.943880736
 30
0.0
 10
14.3032185077
 20
10.9658083192
 30
0.0
 10
14.3092331707
 20
10.9872150331
 30
0.0
 10
14.3153653819
 20
11.0080831766
 30
0.0
 10
14.321610051
 20
11.0283955021
 30
0.0
 10
14.3279620183
 20
11.0481352232
 30
0.0
 10
14.3344159842
 20
11.0672860363
 30
0.0
 10
14.3409666422
 20
11.0858321218
 30
0.0
 10
14.3476085032
 20
11.1037581795
 30
0.0
 10
14.3543361327
 20
11.1210494105
 30
0.0
 10
14.3611438735
 20
11.1376915751
 30
0.0
 10
14.3680261822
 20
11.1536709467
 30
0.0
 10
14.37497726
 20
11.1689744005
 30
0.0
 10
14.3819914746
 20
11.1835893331
 30
0.0
 10
14.3890629193
 20
11.1975037869
 30
0.0
 10
14.3961858962
 20
11.2107063308
 30
0.0
 10
14.4033544355
 20
11.223186223
 30
0.0
 10
14.4105628054
 20
11.2349332523
 30
0.0
 10
14.4178050337
 20
11.2459379342
 30
0.0
 10
14.4250754045
 20
11.2561913175
 30
0.0
 10
14.4323680291
 20
11.2656851977
 30
0.0
 10
14.4396772878
 20
11.2744119005
 30
0.0
 10
14.4469974951
 20
11.2823644762
 30
0.0
 10
14.4543232442
 20
11.2895364753
 30
0.0
 10
14.4616491884
 20
11.2959220615
 30
0.0
 10
14.4689702512
 20
11.3015158026
 30
0.0
 10
14.4762814192
 20
11.3063126086
 30
0.0
 10
14.4835779758
 20
11.3103076373
 30
0.0
 10
14.4908542748
 20
11.3134959228
 30
0.0
 10
14.4969501422
 20
11.3154938871
 30
0.0
 10
14.5017928121
 20
11.3166701457
 30
0.0
 10
14.5053840201
 20
11.3173416032
 30
0.0
 10
14.5089643413
 20
11.3178095465
 30
0.0
 10
14.512533093
 20
11.3180738553
 30
0.0
 10
14.5160892697
 20
11.3181343674
 30
0.0
 10
14.5184527111
 20
11.3180387487
 30
0.0
 10
14.5196299722
 20
11.3179571082
 30
0.0
  0
SPLINE
  5
336
100
AcDbEntity
  8
0
100
AcDbSpline
 62
7
  6
CONTINUOUS
 70
0
 71
3
 72
28
 73
24
 74
0
 42
0.0000001
 43
0.0000001
 44
0.0000000001
 40
0.0
 40
0.0
 40
0.0
 40
0.0
 40
0.0637758941
 40
0.0955879065
 40
0.1273462157
 40
0.1907019646
 40
0.2538545302
 40
0.2853587825
 40
0.3168148204
 40
0.379582186
 40
0.4421719279
 40
0.504596336
 40
0.566869323
 40
0.6290062994
 40
0.6910240361
 40
0.7219962863
 40
0.7529455528
 40
0.8147797337
 40
0.8765514554
 40
0.9074228165
 40
0.9382862783
 40
0.9691444605
 40
1.0
 40
1.0
 40
1.0
 40
1.0
 10
10.1053263543
 20
6.8088859232
 30
0.0
 10
10.1053263543
 20
6.7956017017
 30
0.0
 10
10.1048490112
 20
6.7756867587
 30
0.0
 10
10.1032520879
 20
6.7492073884
 30
0.0
 10
10.1010211135
 20
6.7228612058
 30
0.0
 10
10.0970424855
 20
6.6901220415
 30
0.0
 10
10.0914750001
 20
6.6576687555
 30
0.0
 10
10.0860785653
 20
6.6319579038
 30
0.0
 10
10.0800669098
 20
6.6064664089
 30
0.0
 10
10.0713898664
 20
6.5749614089
 30
0.0
 10
10.059131773
 20
6.5378010401
 30
0.0
 10
10.0450633607
 20
6.5013973434
 30
0.0
 10
10.0292170353
 20
6.4658347072
 30
0.0
 10
10.0116295794
 20
6.4311955396
 30
0.0
 10
9.9955481053
 20
6.4031518439
 30
0.0
 10
9.9818566968
 20
6.3812627054
 30
0.0
 10
9.9676317213
 20
6.3597622692
 30
0.0
 10
9.9488426225
 20
6.3336025867
 30
0.0
 10
9.9287466708
 20
6.3084534907
 30
0.0
 10
9.9119232099
 20
6.2889878545
 30
0.0
 10
9.8989393661
 20
6.2747231098
 30
0.0
 10
9.8855955192
 20
6.2607994567
 30
0.0
 10
9.8764641532
 20
6.25174936
 30
0.0
 10
9.8718414592
 20
6.2472841762
 30
0.0
  0
SPLINE
  5
337
100
AcDbEntity
  8
0
100
AcDbSpline
 62
7
  6
CONTINUOUS
 70
0
 71
3
 72
28
 73
24
 74
0
 42
0.0000001
 43
0.0000001
 44
0.0000000001
 40
0.0
 40
0.0
 40
0.0
 40
0.0
 40
0.0637758941
 40
0.0955879065
 40
0.1273462157
 40
0.1907019646
 40
0.2538545302
 40
0.2853587825
 40
0.3168148204
 40
0.379582186
 40
0.4421719279
 40
0.504596336
 40
0.566869323
 40
0.6290062994
 40
0.6910240361
 40
0.7219962863
 40
0.7529455528
 40
0.8147797337
 40
0.8765514554
 40
0.9074228165
 40
0.9382862783
 40
0.9691444605
 40
1.0
 40
1.0
 40
1.0
 40
1.0
 10
12.0371783517
 20
8.8482447701
 30
0.0
 10
12.0371783517
 20
8.8349605486
 30
0.0
 10
12.0367010086
 20
8.8150456056
 30
0.0
 10
12.0351040852
 20
8.7885662353
 30
0.0
 10
12.0328731108
 20
8.7622200527
 30
0.0
 10
12.0288944828
 20
8.7294808884
 30
0.0
 10
12.0233269975
 20
8.6970276023
 30
0.0
 10
12.0179305626
 20
8.6713167507
 30
0.0
 10
12.0119189072
 20
8.6458252558
 30
0.0
 10
12.0032418637
 20
8.6143202558
 30
0.0
 10
11.9909837703
 20
8.5771598869
 30
0.0
 10
11.976915358
 20
8.5407561903
 30
0.0
 10
11.9610690326
 20
8.5051935541
 30
0.0
 10
11.9434815768
 20
8.4705543865
 30
0.0
 10
11.9274001026
 20
8.4425106907
 30
0.0
 10
11.9137086942
 20
8.4206215523
 30
0.0
 10
11.8994837186
 20
8.399121116
 30
0.0
 10
11.8806946199
 20
8.3729614336
 30
0.0
 10
11.8605986681
 20
8.3478123376
 30
0.0
 10
11.8437752072
 20
8.3283467014
 30
0.0
 10
11.8307913634
 20
8.3140819567
 30
0.0
 10
11.8174475165
 20
8.3001583035
 30
0.0
 10
11.8083161505
 20
8.2911082068
 30
0.0
 10
11.8036934565
 20
8.2866430231
 30
0.0
  0
SPLINE
  5
338
100
AcDbEntity
  8
0
100
AcDbSpline
 62
7
  6
CONTINUOUS
 70
0
 71
3
 72
39
 73
35
 74
0
 42
0.0000001
 43
0.0000001
 44
0.0000000001
 40
0.0
 40
0.0
 40
0.0
 40
0.0
 40
0.0958313223
 40
0.1890999066
 40
0.2792396479
 40
0.3229663115
 40
0.3657099292
 40
0.4074081191
 40
0.4480006754
 40
0.4874302648
 40
0.5256424385
 40
0.5625857699
 40
0.5982125807
 40
0.6324786396
 40
0.665344311
 40
0.6967743203
 40
0.7267388303
 40
0.7552139511
 40
0.7821824427
 40
0.807635341
 40
0.8315726205
 40
0.8540058864
 40
0.8749600023
 40
0.8944766962
 40
0.9126183481
 40
0.9294727137
 40
0.94515911
 40
0.9598336921
 40
0.9668557838
 40
0.973702854
 40
0.9804062715
 40
0.9869997015
 40
0.9935186515
 40
1.0
 40
1.0
 40
1.0
 40
1.0
 10
8.3429928263
 20
11.2053054829
 30
0.0
 10
8.3340330094
 20
11.2059268483
 30
0.0
 10
8.3163658769
 20
11.2073500153
 30
0.0
 10
8.2903344726
 20
11.210066692
 30
0.0
 10
8.2692216625
 20
11.2128065798
 30
0.0
 10
8.2528540445
 20
11.2152729199
 30
0.0
 10
8.2410022768
 20
11.2172309254
 30
0.0
 10
8.2294699248
 20
11.2193124755
 30
0.0
 10
8.2182762384
 20
11.2215141469
 30
0.0
 10
8.2074399132
 20
11.2238322062
 30
0.0
 10
8.1969790313
 20
11.2262627459
 30
0.0
 10
8.1869110429
 20
11.2288017231
 30
0.0
 10
8.1772527217
 20
11.2314447964
 30
0.0
 10
8.1680201547
 20
11.2341876082
 30
0.0
 10
8.1592286804
 20
11.2370254695
 30
0.0
 10
8.1508928935
 20
11.2399536773
 30
0.0
 10
8.1430265874
 20
11.2429673068
 30
0.0
 10
8.13564273
 20
11.2460613077
 30
0.0
 10
8.128753463
 20
11.2492306113
 30
0.0
 10
8.1223699974
 20
11.2524699069
 30
0.0
 10
8.1165027073
 20
11.2557740538
 30
0.0
 10
8.1111609576
 20
11.2591377064
 30
0.0
 10
8.1063532534
 20
11.2625557715
 30
0.0
 10
8.1020871592
 20
11.2660232642
 30
0.0
 10
8.0983694274
 20
11.2695354106
 30
0.0
 10
8.0952062507
 20
11.2730881901
 30
0.0
 10
8.0926036553
 20
11.2766769762
 30
0.0
 10
8.0908822348
 20
11.2797398394
 30
0.0
 10
8.0898090949
 20
11.282192255
 30
0.0
 10
8.0891593741
 20
11.2840093077
 30
0.0
 10
8.0886535642
 20
11.2858299448
 30
0.0
 10
8.0882919409
 20
11.2876534073
 30
0.0
 10
8.0880748246
 20
11.2894786475
 30
0.0
 10
8.0880265281
 20
11.290697583
 30
0.0
 10
8.0880265228
 20
11.2913050167
 30
0.0
  0
SPLINE
  5
339
100
AcDbEntity
  8
0
100
AcDbSpline
 62
7
  6
CONTINUOUS
 70
0
 71
3
 72
39
 73
35
 74
0
 42
0.0000001
 43
0.0000001
 44
0.0000000001
 40
0.0
 40
0.0
 40
0.0
 40
0.0
 40
0.0958313223
 40
0.1890999066
 40
0.2792396479
 40
0.3229663115
 40
0.3657099292
 40
0.4074081191
 40
0.4480006754
 40
0.4874302648
 40
0.5256424385
 40
0.5625857699
 40
0.5982125807
 40
0.6324786396
 40
0.665344311
 40
0.6967743203
 40
0.7267388303
 40
0.7552139511
 40
0.7821824427
 40
0.807635341
 40
0.8315726205
 40
0.8540058864
 40
0.8749600023
 40
0.8944766962
 40
0.9126183481
 40
0.9294727137
 40
0.94515911
 40
0.9598336921
 40
0.9668557838
 40
0.973702854
 40
0.9804062715
 40
0.9869997015
 40
0.9935186515
 40
1.0
 40
1.0
 40
1.0
 40
1.0
 10
12.9311406003
 20
10.887116354
 30
0.0
 10
12.9221807834
 20
10.8877377194
 30
0.0
 10
12.9045136509
 20
10.8891608865
 30
0.0
 10
12.8784822467
 20
10.8918775631
 30
0.0
 10
12.8573694365
 20
10.894617451
 30
0.0
 10
12.8410018185
 20
10.8970837911
 30
0.0
 10
12.8291500508
 20
10.8990417965
 30
0.0
 10
12.8176176988
 20
10.9011233467
 30
0.0
 10
12.8064240124
 20
10.9033250181
 30
0.0
 10
12.7955876872
 20
10.9056430774
 30
0.0
 10
12.7851268053
 20
10.9080736171
 30
0.0
 10
12.775058817
 20
10.9106125942
 30
0.0
 10
12.7654004957
 20
10.9132556676
 30
0.0
 10
12.7561679287
 20
10.9159984794
 30
0.0
 10
12.7473764544
 20
10.9188363406
 30
0.0
 10
12.7390406675
 20
10.9217645485
 30
0.0
 10
12.7311743614
 20
10.924778178
 30
0.0
 10
12.723790504
 20
10.9278721788
 30
0.0
 10
12.7169012371
 20
10.9310414824
 30
0.0
 10
12.7105177714
 20
10.934280778
 30
0.0
 10
12.7046504813
 20
10.937584925
 30
0.0
 10
12.6993087316
 20
10.9409485776
 30
0.0
 10
12.6945010274
 20
10.9443666426
 30
0.0
 10
12.6902349332
 20
10.9478341353
 30
0.0
 10
12.6865172014
 20
10.9513462818
 30
0.0
 10
12.6833540247
 20
10.9548990612
 30
0.0
 10
12.6807514293
 20
10.9584878474
 30
0.0
 10
12.6790300088
 20
10.9615507105
 30
0.0
 10
12.6779568689
 20
10.9640031261
 30
0.0
 10
12.6773071481
 20
10.9658201788
 30
0.0
 10
12.6768013382
 20
10.9676408159
 30
0.0
 10
12.6764397149
 20
10.9694642785
 30
0.0
 10
12.6762225986
 20
10.9712895186
 30
0.0
 10
12.6761743021
 20
10.9725084542
 30
0.0
 10
12.6761742968
 20
10.9731158879
 30
0.0
  0
SPLINE
  5
33A
100
AcDbEntity
  8
0
100
AcDbSpline
 62
7
  6
CONTINUOUS
 70
0
 71
3
 72
18
 73
14
 74
0
 42
0.0000001
 43
0.0000001
 44
0.0000000001
 40
0.0
 40
0.0
 40
0.0
 40
0.0
 40
0.0546214057
 40
0.1094883281
 40
0.1647940089
 40
0.2207284014
 40
0.2774824811
 40
0.3352397745
 40
0.4544014759
 40
0.579508766
 40
0.7116097997
 40
0.8515543702
 40
1.0
 40
1.0
 40
1.0
 40
1.0
 10
11.1926425192
 20
8.9052576355
 30
0.0
 10
11.1933343924
 20
8.9059259337
 30
0.0
 10
11.1946781936
 20
8.9073109362
 30
0.0
 10
11.196561998
 20
8.9095210968
 30
0.0
 10
11.1983153572
 20
8.9118651509
 30
0.0
 10
11.1999371542
 20
8.9143417637
 30
0.0
 10
11.2014270046
 20
8.9169497522
 30
0.0
 10
11.2032559827
 20
8.9206383918
 30
0.0
 10
11.2052067453
 20
8.9255990484
 30
0.0
 10
11.2069899224
 20
8.9319932605
 30
0.0
 10
11.208246535
 20
8.9388825734
 30
0.0
 10
11.2089848341
 20
8.9462576522
 30
0.0
 10
11.2091346554
 20
8.9513384734
 30
0.0
 10
11.2091343693
 20
8.9539527312
 30
0.0
  0
SPLINE
  5
33B
100
AcDbEntity
  8
0
100
AcDbSpline
 62
7
  6
CONTINUOUS
 70
0
 71
3
 72
49
 73
45
 74
0
 42
0.0000001
 43
0.0000001
 44
0.0000000001
 40
0.0
 40
0.0
 40
0.0
 40
0.0
 40
0.0794832187
 40
0.1190175972
 40
0.1583986022
 40
0.2366292821
 40
0.275458643
 40
0.3140587315
 40
0.3904187733
 40
0.4281135782
 40
0.4654096817
 40
0.5022447292
 40
0.5385470441
 40
0.574235086
 40
0.609217589
 40
0.6433942318
 40
0.6766566831
 40
0.7088904808
 40
0.7245866324
 40
0.7399814213
 40
0.7550602558
 40
0.7698088198
 40
0.7842132214
 40
0.7982603019
 40
0.8119375551
 40
0.8252337302
 40
0.8381385413
 40
0.8506434839
 40
0.8627414313
 40
0.8744276081
 40
0.8856991504
 40
0.896556231
 40
0.9070016297
 40
0.9170419853
 40
0.926687418
 40
0.9359528915
 40
0.9448578866
 40
0.9534278641
 40
0.9616938206
 40
0.9696934795
 40
0.9774706488
 40
0.9850762611
 40
0.9925662454
 40
1.0
 40
1.0
 40
1.0
 40
1.0
 10
10.8774169372
 20
9.3230012012
 30
0.0
 10
10.8774169372
 20
9.3071480354
 30
0.0
 10
10.8783543982
 20
9.2833949757
 30
0.0
 10
10.8815045338
 20
9.2519528466
 30
0.0
 10
10.885891983
 20
9.2209111293
 30
0.0
 10
10.8921528436
 20
9.1902997506
 30
0.0
 10
10.9002845069
 20
9.160328529
 30
0.0
 10
10.9095736487
 20
9.1310875459
 30
0.0
 10
10.9206687969
 20
9.102682668
 30
0.0
 10
10.9335361457
 20
9.0753659236
 30
0.0
 10
10.9439629993
 20
9.0556395573
 30
0.0
 10
10.9551660777
 20
9.0366655921
 30
0.0
 10
10.9670963726
 20
9.0185223609
 30
0.0
 10
10.9796939936
 20
9.0012912325
 30
0.0
 10
10.9928875568
 20
8.9850543478
 30
0.0
 10
11.0065936401
 20
8.9698931666
 30
0.0
 10
11.0207158982
 20
8.9558870324
 30
0.0
 10
11.032847728
 20
8.9451451099
 30
0.0
 10
11.042669684
 20
8.9372019205
 30
0.0
 10
11.0500028058
 20
8.9316294014
 30
0.0
 10
11.0573512152
 20
8.9263965866
 30
0.0
 10
11.064697879
 20
8.9215094376
 30
0.0
 10
11.0720258214
 20
8.9169739568
 30
0.0
 10
11.0793173357
 20
8.9127946041
 30
0.0
 10
11.0865550532
 20
8.9089757978
 30
0.0
 10
11.0937211294
 20
8.9055204245
 30
0.0
 10
11.1007981995
 20
8.9024312305
 30
0.0
 10
11.1077687387
 20
8.8997095559
 30
0.0
 10
11.11461582
 20
8.8973565267
 30
0.0
 10
11.1213226503
 20
8.8953720438
 30
0.0
 10
11.1278731509
 20
8.8937557772
 30
0.0
 10
11.1342516295
 20
8.8925063836
 30
0.0
 10
11.140443211
 20
8.8916223291
 30
0.0
 10
11.146433598
 20
8.8911012967
 30
0.0
 10
11.1522093741
 20
8.8909408836
 30
0.0
 10
11.1577578126
 20
8.8911381105
 30
0.0
 10
11.1630670795
 20
8.8916900617
 30
0.0
 10
11.1681260697
 20
8.8925934314
 30
0.0
 10
11.1729244645
 20
8.8938451079
 30
0.0
 10
11.1774526542
 20
8.895441579
 30
0.0
 10
11.1817017135
 20
8.8973795705
 30
0.0
 10
11.1856635637
 20
8.8996555664
 30
0.0
 10
11.1893300072
 20
8.9022654054
 30
0.0
 10
11.1915760915
 20
8.9042275454
 30
0.0
 10
11.1926425192
 20
8.9052576355
 30
0.0
  0
SPLINE
  5
33C
100
AcDbEntity
  8
0
100
AcDbSpline
 62
7
  6
CONTINUOUS
 70
0
 71
3
 72
15
 73
11
 74
0
 42
0.0000001
 43
0.0000001
 44
0.0000000001
 40
0.0
 40
0.0
 40
0.0
 40
0.0
 40
0.1267723109
 40
0.2531155824
 40
0.3789571034
 40
0.5042601287
 40
0.6290131117
 40
0.7532172415
 40
0.8768788718
 40
1.0
 40
1.0
 40
1.0
 40
1.0
 10
10.9282365835
 20
9.5696837181
 30
0.0
 10
10.9240810793
 20
9.5598096273
 30
0.0
 10
10.9162461158
 20
9.5398965184
 30
0.0
 10
10.9059624529
 20
9.509556224
 30
0.0
 10
10.8972065458
 20
9.478868309
 30
0.0
 10
10.8900101006
 20
9.4479155985
 30
0.0
 10
10.8843944979
 20
9.4167778336
 30
0.0
 10
10.8803739022
 20
9.3855336987
 30
0.0
 10
10.8779570902
 20
9.354263806
 30
0.0
 10
10.8774169372
 20
9.3334055423
 30
0.0
 10
10.8774169372
 20
9.3230012012
 30
0.0
  0
SPLINE
  5
33D
100
AcDbEntity
  8
0
100
AcDbSpline
 62
7
  6
CONTINUOUS
 70
0
 71
3
 72
26
 73
22
 74
0
 42
0.0000001
 43
0.0000001
 44
0.0000000001
 40
0.0
 40
0.0
 40
0.0
 40
0.0
 40
0.0637763276
 40
0.127342886
 40
0.1906991341
 40
0.2538523424
 40
0.2853569136
 40
0.3168132539
 40
0.3795812247
 40
0.4421715801
 40
0.5045965951
 40
0.5668701916
 40
0.6290077778
 40
0.6910261223
 40
0.7219986725
 40
0.7529482429
 40
0.8147830252
 40
0.8765553491
 40
0.9074270146
 40
0.9382907765
 40
1.0
 40
1.0
 40
1.0
 40
1.0
 10
10.1014354071
 20
6.8521275566
 30
0.0
 10
10.1014354071
 20
6.8395685142
 30
0.0
 10
10.1008342964
 20
6.814487503
 30
0.0
 10
10.0981210835
 20
6.7770184043
 30
0.0
 10
10.0936037133
 20
6.7398468068
 30
0.0
 10
10.0883401594
 20
6.7091648062
 30
0.0
 10
10.0832382504
 20
6.6848574607
 30
0.0
 10
10.0775547932
 20
6.6607574453
 30
0.0
 10
10.0693513521
 20
6.6309722176
 30
0.0
 10
10.0577623728
 20
6.5958403172
 30
0.0
 10
10.0444618979
 20
6.5614237826
 30
0.0
 10
10.0294805725
 20
6.5278023929
 30
0.0
 10
10.0128531564
 20
6.4950540621
 30
0.0
 10
9.9976494941
 20
6.4685411919
 30
0.0
 10
9.9847054288
 20
6.4478469239
 30
0.0
 10
9.9712569213
 20
6.4275201488
 30
0.0
 10
9.9534934081
 20
6.4027884344
 30
0.0
 10
9.9344945158
 20
6.3790122184
 30
0.0
 10
9.918589201
 20
6.3606090096
 30
0.0
 10
9.902224954
 20
6.3426302126
 30
0.0
 10
9.8894358419
 20
6.3296244568
 30
0.0
 10
9.8806954795
 20
6.3211819028
 30
0.0
  0
SPLINE
  5
33E
100
AcDbEntity
  8
0
100
AcDbSpline
 62
7
  6
CONTINUOUS
 70
0
 71
3
 72
21
 73
17
 74
0
 42
0.0000001
 43
0.0000001
 44
0.0000000001
 40
0.0
 40
0.0
 40
0.0
 40
0.0
 40
0.0632451793
 40
0.1263570498
 40
0.1893411014
 40
0.252203513
 40
0.3775708245
 40
0.5025402828
 40
0.5649075243
 40
0.6272018629
 40
0.6894330042
 40
0.7516109596
 40
0.8137460381
 40
0.8758487568
 40
0.9379298075
 40
1.0
 40
1.0
 40
1.0
 40
1.0
 10
10.0992737331
 20
6.7935527275
 30
0.0
 10
10.0975139031
 20
6.7857670064
 30
0.0
 10
10.0937229281
 20
6.7702726306
 30
0.0
 10
10.0872220631
 20
6.7472723376
 30
0.0
 10
10.0799200893
 20
6.7245637665
 30
0.0
 10
10.0691389315
 20
6.6947415685
 30
0.0
 10
10.0537046994
 20
6.6583110493
 30
0.0
 10
10.0357045244
 20
6.6231472249
 30
0.0
 10
10.0198360153
 20
6.5959227494
 30
0.0
 10
10.0072197367
 20
6.5759862775
 30
0.0
 10
9.9938968908
 20
6.5565441652
 30
0.0
 10
9.979882899
 20
6.5376190661
 30
0.0
 10
9.9651945036
 20
6.5192332624
 30
0.0
 10
9.949848714
 20
6.5014084829
 30
0.0
 10
9.9338641156
 20
6.4841658553
 30
0.0
 10
9.9227932017
 20
6.4730714887
 30
0.0
 10
9.9171586864
 20
6.4676289458
 30
0.0
  0
SPLINE
  5
33F
100
AcDbEntity
  8
0
100
AcDbSpline
 62
7
  6
CONTINUOUS
 70
0
 71
3
 72
25
 73
21
 74
0
 42
0.0000001
 43
0.0000001
 44
0.0000000001
 40
0.0
 40
0.0
 40
0.0
 40
0.0
 40
0.0639570184
 40
0.0958511422
 40
0.127687059
 40
0.1911792725
 40
0.2544419986
 40
0.2859917418
 40
0.3174863476
 40
0.3803088408
 40
0.4429256337
 40
0.5053495615
 40
0.5675957264
 40
0.6296813399
 40
0.6916255341
 40
0.7534491453
 40
0.8151744721
 40
0.8768250119
 40
0.9384251773
 40
1.0
 40
1.0
 40
1.0
 40
1.0
 10
9.3466257587
 20
7.6901080424
 30
0.0
 10
9.3328587149
 20
7.6916139964
 30
0.0
 10
9.3121621326
 20
7.693334363
 30
0.0
 10
9.2845368375
 20
7.6945372452
 30
0.0
 10
9.2569894549
 20
7.6950101685
 30
0.0
 10
9.2226400336
 20
7.694238327
 30
0.0
 10
9.1884419098
 20
7.6916425911
 30
0.0
 10
9.1612725918
 20
7.6884756083
 30
0.0
 10
9.1342928339
 20
7.6845918899
 30
0.0
 10
9.1008631048
 20
7.6783889611
 30
0.0
 10
9.0613098168
 20
7.6687984251
 30
0.0
 10
9.0224594772
 20
7.6570932406
 30
0.0
 10
8.9844206859
 20
7.6433058662
 30
0.0
 10
8.947298879
 20
7.6274744475
 30
0.0
 10
8.9111972168
 20
7.6096428557
 30
0.0
 10
8.8762159437
 20
7.5898604971
 30
0.0
 10
8.8424523295
 20
7.568182321
 30
0.0
 10
8.8099998503
 20
7.5446681669
 30
0.0
 10
8.7789498786
 20
7.519384459
 30
0.0
 10
8.7592380473
 20
7.501391643
 30
0.0
 10
8.7496479963
 20
7.4921283517
 30
0.0
  0
SPLINE
  5
340
100
AcDbEntity
  8
0
100
AcDbSpline
 62
7
  6
CONTINUOUS
 70
0
 71
3
 72
21
 73
17
 74
0
 42
0.0000001
 43
0.0000001
 44
0.0000000001
 40
0.0
 40
0.0
 40
0.0
 40
0.0
 40
0.0632421657
 40
0.1263514621
 40
0.1893334483
 40
0.2521942838
 40
0.3149407654
 40
0.3775802381
 40
0.440120603
 40
0.5025702617
 40
0.6272126849
 40
0.7516036635
 40
0.8137403859
 40
0.8758449023
 40
0.9379278585
 40
1.0
 40
1.0
 40
1.0
 40
1.0
 10
9.2284031617
 20
7.6940328717
 30
0.0
 10
9.2205826521
 20
7.6925369405
 30
0.0
 10
9.2050092885
 20
7.6892727105
 30
0.0
 10
9.1818620916
 20
7.6835581325
 30
0.0
 10
9.1589785743
 20
7.6770371768
 30
0.0
 10
9.1363860128
 20
7.6697173489
 30
0.0
 10
9.1141106952
 20
7.6616074222
 30
0.0
 10
9.0921789404
 20
7.6527167105
 30
0.0
 10
9.070616057
 20
7.6430556309
 30
0.0
 10
9.0424128735
 20
7.6291728375
 30
0.0
 10
9.008190183
 20
7.6099475029
 30
0.0
 10
8.9754928467
 20
7.588299665
 30
0.0
 10
8.9503748664
 20
7.5696089278
 30
0.0
 10
8.9320761849
 20
7.5549214594
 30
0.0
 10
8.9143349668
 20
7.5395786294
 30
0.0
 10
8.9028916415
 20
7.5289240861
 30
0.0
 10
8.8972706839
 20
7.523494639
 30
0.0
  0
SPLINE
  5
341
100
AcDbEntity
  8
0
100
AcDbSpline
 62
7
  6
CONTINUOUS
 70
0
 71
3
 72
26
 73
22
 74
0
 42
0.0000001
 43
0.0000001
 44
0.0000000001
 40
0.0
 40
0.0
 40
0.0
 40
0.0
 40
0.0637763276
 40
0.127342886
 40
0.1906991341
 40
0.2538523424
 40
0.2853569136
 40
0.3168132539
 40
0.3795812247
 40
0.4421715801
 40
0.5045965951
 40
0.5668701916
 40
0.6290077778
 40
0.6910261223
 40
0.7219986725
 40
0.7529482429
 40
0.8147830252
 40
0.8765553491
 40
0.9074270146
 40
0.9382907765
 40
1.0
 40
1.0
 40
1.0
 40
1.0
 10
12.0332874044
 20
8.8914864034
 30
0.0
 10
12.0332874044
 20
8.8789273611
 30
0.0
 10
12.0326862938
 20
8.8538463498
 30
0.0
 10
12.0299730808
 20
8.8163772512
 30
0.0
 10
12.0254557106
 20
8.7792056537
 30
0.0
 10
12.0201921567
 20
8.7485236531
 30
0.0
 10
12.0150902477
 20
8.7242163076
 30
0.0
 10
12.0094067905
 20
8.7001162922
 30
0.0
 10
12.0012033494
 20
8.6703310645
 30
0.0
 10
11.9896143702
 20
8.6351991641
 30
0.0
 10
11.9763138953
 20
8.6007826295
 30
0.0
 10
11.9613325699
 20
8.5671612397
 30
0.0
 10
11.9447051537
 20
8.534412909
 30
0.0
 10
11.9295014914
 20
8.5079000387
 30
0.0
 10
11.9165574261
 20
8.4872057708
 30
0.0
 10
11.9031089187
 20
8.4668789957
 30
0.0
 10
11.8853454054
 20
8.4421472812
 30
0.0
 10
11.8663465131
 20
8.4183710653
 30
0.0
 10
11.8504411983
 20
8.3999678565
 30
0.0
 10
11.8340769513
 20
8.3819890594
 30
0.0
 10
11.8212878393
 20
8.3689833036
 30
0.0
 10
11.8125474768
 20
8.3605407496
 30
0.0
  0
SPLINE
  5
342
100
AcDbEntity
  8
0
100
AcDbSpline
 62
7
  6
CONTINUOUS
 70
0
 71
3
 72
21
 73
17
 74
0
 42
0.0000001
 43
0.0000001
 44
0.0000000001
 40
0.0
 40
0.0
 40
0.0
 40
0.0
 40
0.0632451793
 40
0.1263570498
 40
0.1893411014
 40
0.252203513
 40
0.3775708245
 40
0.5025402828
 40
0.5649075243
 40
0.6272018629
 40
0.6894330042
 40
0.7516109596
 40
0.8137460381
 40
0.8758487568
 40
0.9379298075
 40
1.0
 40
1.0
 40
1.0
 40
1.0
 10
12.0311257304
 20
8.8329115744
 30
0.0
 10
12.0293659005
 20
8.8251258533
 30
0.0
 10
12.0255749255
 20
8.8096314774
 30
0.0
 10
12.0190740604
 20
8.7866311845
 30
0.0
 10
12.0117720867
 20
8.7639226133
 30
0.0
 10
12.0009909288
 20
8.7341004154
 30
0.0
 10
11.9855566967
 20
8.6976698962
 30
0.0
 10
11.9675565217
 20
8.6625060718
 30
0.0
 10
11.9516880126
 20
8.6352815963
 30
0.0
 10
11.939071734
 20
8.6153451244
 30
0.0
 10
11.9257488881
 20
8.595903012
 30
0.0
 10
11.9117348963
 20
8.5769779129
 30
0.0
 10
11.8970465009
 20
8.5585921093
 30
0.0
 10
11.8817007113
 20
8.5407673297
 30
0.0
 10
11.8657161129
 20
8.5235247022
 30
0.0
 10
11.8546451991
 20
8.5124303356
 30
0.0
 10
11.8490106838
 20
8.5069877927
 30
0.0
  0
SPLINE
  5
343
100
AcDbEntity
  8
0
100
AcDbSpline
 62
7
  6
CONTINUOUS
 70
0
 71
3
 72
25
 73
21
 74
0
 42
0.0000001
 43
0.0000001
 44
0.0000000001
 40
0.0
 40
0.0
 40
0.0
 40
0.0
 40
0.0639570184
 40
0.0958511422
 40
0.127687059
 40
0.1911792725
 40
0.2544419986
 40
0.2859917418
 40
0.3174863476
 40
0.3803088408
 40
0.4429256337
 40
0.5053495615
 40
0.5675957264
 40
0.6296813399
 40
0.6916255341
 40
0.7534491453
 40
0.8151744721
 40
0.8768250119
 40
0.9384251773
 40
1.0
 40
1.0
 40
1.0
 40
1.0
 10
11.2784777561
 20
9.7294668892
 30
0.0
 10
11.2647107123
 20
9.7309728433
 30
0.0
 10
11.2440141299
 20
9.7326932099
 30
0.0
 10
11.2163888349
 20
9.7338960921
 30
0.0
 10
11.1888414522
 20
9.7343690153
 30
0.0
 10
11.1544920309
 20
9.7335971738
 30
0.0
 10
11.1202939071
 20
9.731001438
 30
0.0
 10
11.0931245892
 20
9.7278344551
 30
0.0
 10
11.0661448312
 20
9.7239507367
 30
0.0
 10
11.0327151022
 20
9.717747808
 30
0.0
 10
10.9931618141
 20
9.7081572719
 30
0.0
 10
10.9543114745
 20
9.6964520875
 30
0.0
 10
10.9162726832
 20
9.682664713
 30
0.0
 10
10.8791508763
 20
9.6668332943
 30
0.0
 10
10.8430492142
 20
9.6490017026
 30
0.0
 10
10.808067941
 20
9.629219344
 30
0.0
 10
10.7743043269
 20
9.6075411679
 30
0.0
 10
10.7418518476
 20
9.5840270138
 30
0.0
 10
10.7108018759
 20
9.5587433059
 30
0.0
 10
10.6910900446
 20
9.5407504899
 30
0.0
 10
10.6814999936
 20
9.5314871985
 30
0.0
  0
SPLINE
  5
344
100
AcDbEntity
  8
0
100
AcDbSpline
 62
7
  6
CONTINUOUS
 70
0
 71
3
 72
21
 73
17
 74
0
 42
0.0000001
 43
0.0000001
 44
0.0000000001
 40
0.0
 40
0.0
 40
0.0
 40
0.0
 40
0.0632421657
 40
0.1263514621
 40
0.1893334483
 40
0.2521942838
 40
0.3149407654
 40
0.3775802381
 40
0.440120603
 40
0.5025702617
 40
0.6272126849
 40
0.7516036635
 40
0.8137403859
 40
0.8758449023
 40
0.9379278585
 40
1.0
 40
1.0
 40
1.0
 40
1.0
 10
11.1602551591
 20
9.7333917186
 30
0.0
 10
11.1524346494
 20
9.7318957874
 30
0.0
 10
11.1368612859
 20
9.7286315573
 30
0.0
 10
11.1137140889
 20
9.7229169793
 30
0.0
 10
11.0908305717
 20
9.7163960237
 30
0.0
 10
11.0682380102
 20
9.7090761958
 30
0.0
 10
11.0459626926
 20
9.7009662691
 30
0.0
 10
11.0240309377
 20
9.6920755574
 30
0.0
 10
11.0024680543
 20
9.6824144777
 30
0.0
 10
10.9742648708
 20
9.6685316843
 30
0.0
 10
10.9400421803
 20
9.6493063498
 30
0.0
 10
10.9073448441
 20
9.6276585119
 30
0.0
 10
10.8822268638
 20
9.6089677747
 30
0.0
 10
10.8639281823
 20
9.5942803063
 30
0.0
 10
10.8461869641
 20
9.5789374763
 30
0.0
 10
10.8347436388
 20
9.568282933
 30
0.0
 10
10.8291226812
 20
9.5628534858
 30
0.0
  0
SPLINE
  5
345
100
AcDbEntity
  8
0
100
AcDbSpline
 62
7
  6
CONTINUOUS
 70
0
 71
3
 72
52
 73
48
 74
0
 42
0.0000001
 43
0.0000001
 44
0.0000000001
 40
0.0
 40
0.0
 40
0.0
 40
0.0
 40
0.0063158568
 40
0.0126706178
 40
0.0191024266
 40
0.0256479345
 40
0.0323417789
 40
0.0392160908
 40
0.0536138298
 40
0.0611945069
 40
0.0690562056
 40
0.0772172859
 40
0.0856936163
 40
0.094498959
 40
0.1036450353
 40
0.1131417384
 40
0.1229974561
 40
0.1332190303
 40
0.1438120572
 40
0.1547810415
 40
0.1661293353
 40
0.1778594655
 40
0.1899731041
 40
0.2024710934
 40
0.2153537091
 40
0.2286205088
 40
0.2422704818
 40
0.2563021821
 40
0.2707135511
 40
0.3006644045
 40
0.3320995118
 40
0.364988637
 40
0.399296387
 40
0.4349827261
 40
0.4720035166
 40
0.5103109065
 40
0.549853604
 40
0.5905771631
 40
0.632424299
 40
0.6753351168
 40
0.7192472758
 40
0.7640961515
 40
0.8098152405
 40
0.8563361104
 40
0.9035880427
 40
0.9515014724
 40
1.0
 40
1.0
 40
1.0
 40
1.0
 10
14.3834763317
 20
6.2154134909
 30
0.0
 10
14.3818131861
 20
6.2155288263
 30
0.0
 10
14.3784845082
 20
6.2158963229
 30
0.0
 10
14.3735287884
 20
6.2168542407
 30
0.0
 10
14.3686062078
 20
6.2182188442
 30
0.0
 10
14.3637196133
 20
6.2199889466
 30
0.0
 10
14.3588709545
 20
6.2221636262
 30
0.0
 10
14.3523605071
 20
6.2256535506
 30
0.0
 10
14.3460268482
 20
6.2299257379
 30
0.0
 10
14.3398974911
 20
6.2348765529
 30
0.0
 10
14.3352677443
 20
6.2390506671
 30
0.0
 10
14.3306874676
 20
6.243619274
 30
0.0
 10
14.3261577421
 20
6.2485806866
 30
0.0
 10
14.3216804743
 20
6.2539328122
 30
0.0
 10
14.3172573017
 20
6.2596734636
 30
0.0
 10
14.3128898747
 20
6.2658002618
 30
0.0
 10
14.3085799773
 20
6.2723107803
 30
0.0
 10
14.304329236
 20
6.2792023357
 30
0.0
 10
14.3001393364
 20
6.2864721389
 30
0.0
 10
14.2960120206
 20
6.2941172693
 30
0.0
 10
14.2919488649
 20
6.3021345792
 30
0.0
 10
14.2879515647
 20
6.3105208271
 30
0.0
 10
14.2840217596
 20
6.3192725957
 30
0.0
 10
14.2801609887
 20
6.3283862886
 30
0.0
 10
14.2763709073
 20
6.337858203
 30
0.0
 10
14.2726530317
 20
6.3476844473
 30
0.0
 10
14.2690088738
 20
6.3578609849
 30
0.0
 10
14.2654399741
 20
6.3683836727
 30
0.0
 10
14.2607230822
 20
6.3830585003
 30
0.0
 10
14.255039594
 20
6.4022450393
 30
0.0
 10
14.2486267811
 20
6.4262923084
 30
0.0
 10
14.242547412
 20
6.4516101408
 30
0.0
 10
14.2368115938
 20
6.4781568775
 30
0.0
 10
14.2314288561
 20
6.5058890121
 30
0.0
 10
14.2264081636
 20
6.5347609641
 30
0.0
 10
14.2217578978
 20
6.5647252647
 30
0.0
 10
14.217485811
 20
6.5957325952
 30
0.0
 10
14.2135990052
 20
6.6277318824
 30
0.0
 10
14.2101039589
 20
6.6606704048
 30
0.0
 10
14.2070065139
 20
6.694493883
 30
0.0
 10
14.2043118307
 20
6.7291465451
 30
0.0
 10
14.2020243827
 20
6.7645712565
 30
0.0
 10
14.2001479942
 20
6.8007096077
 30
0.0
 10
14.198685827
 20
6.83750186
 30
0.0
 10
14.1976402584
 20
6.8748877298
 30
0.0
 10
14.1970131373
 20
6.9128049759
 30
0.0
 10
14.1968754218
 20
6.9382542067
 30
0.0
 10
14.1968754218
 20
6.9510559273
 30
0.0
  0
SPLINE
  5
346
100
AcDbEntity
  8
0
100
AcDbSpline
 62
7
  6
CONTINUOUS
 70
0
 71
3
 72
47
 73
43
 74
0
 42
0.0000001
 43
0.0000001
 44
0.0000000001
 40
0.0
 40
0.0
 40
0.0
 40
0.0
 40
0.0063396302
 40
0.0128069647
 40
0.0194315909
 40
0.0262408168
 40
0.0332594654
 40
0.0405099648
 40
0.0480123625
 40
0.0557842927
 40
0.0638412849
 40
0.0721969429
 40
0.0808629184
 40
0.0898492317
 40
0.0991645115
 40
0.1088159371
 40
0.1188094478
 40
0.1291500175
 40
0.1398415911
 40
0.1508871409
 40
0.1740472523
 40
0.198641726
 40
0.2246708317
 40
0.2521265758
 40
0.280994309
 40
0.3112534533
 40
0.3428781549
 40
0.3758382068
 40
0.4100991411
 40
0.4456228837
 40
0.4823681101
 40
0.5202902692
 40
0.5593421887
 40
0.5994740431
 40
0.6406336094
 40
0.6827666071
 40
0.7258165351
 40
0.7697252642
 40
0.814433019
 40
0.8598776215
 40
0.9059966372
 40
1.0
 40
1.0
 40
1.0
 40
1.0
 10
14.3385842549
 20
6.5863393468
 30
0.0
 10
14.3375931761
 20
6.5866304057
 30
0.0
 10
14.3356124534
 20
6.5872938974
 30
0.0
 10
14.3326881778
 20
6.5885137895
 30
0.0
 10
14.3297863322
 20
6.5899662091
 30
0.0
 10
14.3269082499
 20
6.591650336
 30
0.0
 10
14.3240548523
 20
6.5935652756
 30
0.0
 10
14.3212271574
 20
6.5957101798
 30
0.0
 10
14.3184261627
 20
6.5980841723
 30
0.0
 10
14.3156527618
 20
6.6006862073
 30
0.0
 10
14.3129078951
 20
6.6035152649
 30
0.0
 10
14.3101925561
 20
6.6065703056
 30
0.0
 10
14.3075076385
 20
6.6098501222
 30
0.0
 10
14.3048540678
 20
6.6133534727
 30
0.0
 10
14.3022328382
 20
6.6170790919
 30
0.0
 10
14.2996448677
 20
6.6210255708
 30
0.0
 10
14.2970910597
 20
6.6251914177
 30
0.0
 10
14.2945723962
 20
6.629575109
 30
0.0
 10
14.2920897803
 20
6.634175021
 30
0.0
 10
14.2887764629
 20
6.6406975843
 30
0.0
 10
14.2847419119
 20
6.6493909006
 30
0.0
 10
14.2801323725
 20
6.6604969484
 30
0.0
 10
14.2756880899
 20
6.6724198337
 30
0.0
 10
14.2714156493
 20
6.6851416674
 30
0.0
 10
14.2673215245
 20
6.6986436127
 30
0.0
 10
14.2634119363
 20
6.7129054824
 30
0.0
 10
14.2596927684
 20
6.7279059017
 30
0.0
 10
14.25616976
 20
6.7436223436
 30
0.0
 10
14.2528482395
 20
6.7600311497
 30
0.0
 10
14.2497332743
 20
6.777107592
 30
0.0
 10
14.24682967
 20
6.794825913
 30
0.0
 10
14.2441417981
 20
6.8131593601
 30
0.0
 10
14.2416738089
 20
6.8320802383
 30
0.0
 10
14.2394294677
 20
6.8515599535
 30
0.0
 10
14.2374121679
 20
6.8715690566
 30
0.0
 10
14.2356250487
 20
6.8920772816
 30
0.0
 10
14.2340707907
 20
6.9130536128
 30
0.0
 10
14.2327517806
 20
6.934466344
 30
0.0
 10
14.2316700824
 20
6.9562829937
 30
0.0
 10
14.2308272515
 20
6.9784705889
 30
0.0
 10
14.2300187629
 20
7.0086951723
 30
0.0
 10
14.2297838561
 20
7.0315268019
 30
0.0
 10
14.2297838561
 20
7.0468430373
 30
0.0
  0
SPLINE
  5
347
100
AcDbEntity
  8
0
100
AcDbSpline
 62
7
  6
CONTINUOUS
 70
0
 71
3
 72
53
 73
49
 74
0
 42
0.0000001
 43
0.0000001
 44
0.0000000001
 40
0.0
 40
0.0
 40
0.0
 40
0.0
 40
0.0054464941
 40
0.0110657912
 40
0.0169073187
 40
0.0230145368
 40
0.0294246605
 40
0.036169071
 40
0.0432737365
 40
0.0507598191
 40
0.0586443763
 40
0.0669407521
 40
0.0756593473
 40
0.0848077465
 40
0.0943914129
 40
0.1044137086
 40
0.1148763737
 40
0.1257796183
 40
0.137122311
 40
0.1489022305
 40
0.161115985
 40
0.1737593978
 40
0.186827272
 40
0.2003137884
 40
0.2142122889
 40
0.2285155382
 40
0.2432156626
 40
0.2583041965
 40
0.273772218
 40
0.289610198
 40
0.3223554715
 40
0.3564560698
 40
0.3918211937
 40
0.4283545022
 40
0.4659547256
 40
0.5045162292
 40
0.5439295413
 40
0.5840818573
 40
0.6248575259
 40
0.6661385243
 40
0.7078049254
 40
0.7497353588
 40
0.7918074896
 40
0.8338983992
 40
0.8758852923
 40
0.9176452071
 40
0.9590573468
 40
1.0
 40
1.0
 40
1.0
 40
1.0
 10
14.4239660751
 20
7.817519526
 30
0.0
 10
14.4224944715
 20
7.8173013595
 30
0.0
 10
14.419526551
 20
7.8166955731
 30
0.0
 10
14.4151120289
 20
7.8153157244
 30
0.0
 10
14.4106811975
 20
7.8134559211
 30
0.0
 10
14.4062380718
 20
7.8111187128
 30
0.0
 10
14.4017853259
 20
7.8083069295
 30
0.0
 10
14.3973259129
 20
7.8050232495
 30
0.0
 10
14.3928626711
 20
7.8012705546
 30
0.0
 10
14.3883985058
 20
7.7970519079
 30
0.0
 10
14.3839365311
 20
7.7923705228
 30
0.0
 10
14.3794797578
 20
7.7872300534
 30
0.0
 10
14.375031528
 20
7.7816342967
 30
0.0
 10
14.3705949691
 20
7.7755875733
 30
0.0
 10
14.3661735156
 20
7.7690943964
 30
0.0
 10
14.3617704136
 20
7.7621597571
 30
0.0
 10
14.3573890738
 20
7.7547889219
 30
0.0
 10
14.353032847
 20
7.7469875459
 30
0.0
 10
14.3487050608
 20
7.7387616316
 30
0.0
 10
14.3444091325
 20
7.7301174941
 30
0.0
 10
14.3401482994
 20
7.7210618322
 30
0.0
 10
14.3359259835
 20
7.7116016167
 30
0.0
 10
14.3317453607
 20
7.701744199
 30
0.0
 10
14.3276097847
 20
7.6914971959
 30
0.0
 10
14.3235224069
 20
7.6808685722
 30
0.0
 10
14.3194864567
 20
7.6698665696
 30
0.0
 10
14.3155050741
 20
7.6584997357
 30
0.0
 10
14.3115813461
 20
7.6467769086
 30
0.0
 10
14.3077183647
 20
7.6347071857
 30
0.0
 10
14.3025957848
 20
7.6179781798
 30
0.0
 10
14.2963774249
 20
7.5962640502
 30
0.0
 10
14.2892844498
 20
7.5692595097
 30
0.0
 10
14.2825024293
 20
7.5411098776
 30
0.0
 10
14.2760526014
 20
7.5119027588
 30
0.0
 10
14.2699551809
 20
7.4817289187
 30
0.0
 10
14.2642292613
 20
7.4506822233
 30
0.0
 10
14.2588927662
 20
7.4188592715
 30
0.0
 10
14.2539623918
 20
7.3863591072
 30
0.0
 10
14.249453557
 20
7.3532829005
 30
0.0
 10
14.2453803557
 20
7.3197336302
 30
0.0
 10
14.2417555113
 20
7.2858157607
 30
0.0
 10
14.2385903377
 20
7.2516349082
 30
0.0
 10
14.2358947138
 20
7.2172975248
 30
0.0
 10
14.233677028
 20
7.1829105107
 30
0.0
 10
14.2319442106
 20
7.1485810426
 30
0.0
 10
14.2307015938
 20
7.1144158226
 30
0.0
 10
14.2299530914
 20
7.0805215568
 30
0.0
 10
14.2297838561
 20
7.0580263538
 30
0.0
 10
14.2297838561
 20
7.0468430373
 30
0.0
  0
SPLINE
  5
348
100
AcDbEntity
  8
0
100
AcDbSpline
 62
7
  6
CONTINUOUS
 70
0
 71
3
 72
52
 73
48
 74
0
 42
0.0000001
 43
0.0000001
 44
0.0000000001
 40
0.0
 40
0.0
 40
0.0
 40
0.0
 40
0.0063158568
 40
0.0126706178
 40
0.0191024266
 40
0.0256479345
 40
0.0323417789
 40
0.0392160908
 40
0.0536138298
 40
0.0611945069
 40
0.0690562056
 40
0.0772172859
 40
0.0856936163
 40
0.094498959
 40
0.1036450353
 40
0.1131417384
 40
0.1229974561
 40
0.1332190303
 40
0.1438120572
 40
0.1547810415
 40
0.1661293353
 40
0.1778594655
 40
0.1899731041
 40
0.2024710934
 40
0.2153537091
 40
0.2286205088
 40
0.2422704818
 40
0.2563021821
 40
0.2707135511
 40
0.3006644045
 40
0.3320995118
 40
0.364988637
 40
0.399296387
 40
0.4349827261
 40
0.4720035166
 40
0.5103109065
 40
0.549853604
 40
0.5905771631
 40
0.632424299
 40
0.6753351168
 40
0.7192472758
 40
0.7640961515
 40
0.8098152405
 40
0.8563361104
 40
0.9035880427
 40
0.9515014724
 40
1.0
 40
1.0
 40
1.0
 40
1.0
 10
14.3834763317
 20
9.3546726123
 30
0.0
 10
14.3818131861
 20
9.3547879478
 30
0.0
 10
14.3784845082
 20
9.3551554443
 30
0.0
 10
14.3735287884
 20
9.3561133622
 30
0.0
 10
14.3686062078
 20
9.3574779656
 30
0.0
 10
14.3637196133
 20
9.3592480681
 30
0.0
 10
14.3588709545
 20
9.3614227477
 30
0.0
 10
14.3523605071
 20
9.3649126721
 30
0.0
 10
14.3460268482
 20
9.3691848593
 30
0.0
 10
14.3398974911
 20
9.3741356743
 30
0.0
 10
14.3352677443
 20
9.3783097885
 30
0.0
 10
14.3306874676
 20
9.3828783954
 30
0.0
 10
14.3261577421
 20
9.3878398081
 30
0.0
 10
14.3216804743
 20
9.3931919337
 30
0.0
 10
14.3172573017
 20
9.3989325851
 30
0.0
 10
14.3128898747
 20
9.4050593833
 30
0.0
 10
14.3085799773
 20
9.4115699017
 30
0.0
 10
14.304329236
 20
9.4184614572
 30
0.0
 10
14.3001393364
 20
9.4257312603
 30
0.0
 10
14.2960120206
 20
9.4333763908
 30
0.0
 10
14.2919488649
 20
9.4413937006
 30
0.0
 10
14.2879515647
 20
9.4497799486
 30
0.0
 10
14.2840217596
 20
9.4585317172
 30
0.0
 10
14.2801609887
 20
9.46764541
 30
0.0
 10
14.2763709073
 20
9.4771173245
 30
0.0
 10
14.2726530317
 20
9.4869435687
 30
0.0
 10
14.2690088738
 20
9.4971201064
 30
0.0
 10
14.2654399741
 20
9.5076427941
 30
0.0
 10
14.2607230822
 20
9.5223176218
 30
0.0
 10
14.255039594
 20
9.5415041608
 30
0.0
 10
14.2486267811
 20
9.5655514298
 30
0.0
 10
14.242547412
 20
9.5908692622
 30
0.0
 10
14.2368115938
 20
9.617415999
 30
0.0
 10
14.2314288561
 20
9.6451481336
 30
0.0
 10
14.2264081636
 20
9.6740200856
 30
0.0
 10
14.2217578978
 20
9.7039843862
 30
0.0
 10
14.217485811
 20
9.7349917166
 30
0.0
 10
14.2135990052
 20
9.7669910039
 30
0.0
 10
14.2101039589
 20
9.7999295262
 30
0.0
 10
14.2070065139
 20
9.8337530044
 30
0.0
 10
14.2043118307
 20
9.8684056665
 30
0.0
 10
14.2020243827
 20
9.903830378
 30
0.0
 10
14.2001479942
 20
9.9399687292
 30
0.0
 10
14.198685827
 20
9.9767609814
 30
0.0
 10
14.1976402584
 20
10.0141468512
 30
0.0
 10
14.1970131373
 20
10.0520640973
 30
0.0
 10
14.1968754218
 20
10.0775133282
 30
0.0
 10
14.1968754218
 20
10.0903150487
 30
0.0
  0
SPLINE
  5
349
100
AcDbEntity
  8
0
100
AcDbSpline
 62
7
  6
CONTINUOUS
 70
0
 71
3
 72
47
 73
43
 74
0
 42
0.0000001
 43
0.0000001
 44
0.0000000001
 40
0.0
 40
0.0
 40
0.0
 40
0.0
 40
0.0063396302
 40
0.0128069647
 40
0.0194315909
 40
0.0262408168
 40
0.0332594654
 40
0.0405099648
 40
0.0480123625
 40
0.0557842927
 40
0.0638412849
 40
0.0721969429
 40
0.0808629184
 40
0.0898492317
 40
0.0991645115
 40
0.1088159371
 40
0.1188094478
 40
0.1291500175
 40
0.1398415911
 40
0.1508871409
 40
0.1740472523
 40
0.198641726
 40
0.2246708317
 40
0.2521265758
 40
0.280994309
 40
0.3112534533
 40
0.3428781549
 40
0.3758382068
 40
0.4100991411
 40
0.4456228837
 40
0.4823681101
 40
0.5202902692
 40
0.5593421887
 40
0.5994740431
 40
0.6406336094
 40
0.6827666071
 40
0.7258165351
 40
0.7697252642
 40
0.814433019
 40
0.8598776215
 40
0.9059966372
 40
1.0
 40
1.0
 40
1.0
 40
1.0
 10
14.3385842549
 20
9.7255984682
 30
0.0
 10
14.3375931761
 20
9.7258895271
 30
0.0
 10
14.3356124534
 20
9.7265530188
 30
0.0
 10
14.3326881778
 20
9.727772911
 30
0.0
 10
14.3297863322
 20
9.7292253305
 30
0.0
 10
14.3269082499
 20
9.7309094574
 30
0.0
 10
14.3240548523
 20
9.732824397
 30
0.0
 10
14.3212271574
 20
9.7349693013
 30
0.0
 10
14.3184261627
 20
9.7373432938
 30
0.0
 10
14.3156527618
 20
9.7399453288
 30
0.0
 10
14.3129078951
 20
9.7427743863
 30
0.0
 10
14.3101925561
 20
9.745829427
 30
0.0
 10
14.3075076385
 20
9.7491092436
 30
0.0
 10
14.3048540678
 20
9.7526125942
 30
0.0
 10
14.3022328382
 20
9.7563382134
 30
0.0
 10
14.2996448677
 20
9.7602846922
 30
0.0
 10
14.2970910597
 20
9.7644505392
 30
0.0
 10
14.2945723962
 20
9.7688342304
 30
0.0
 10
14.2920897803
 20
9.7734341425
 30
0.0
 10
14.2887764629
 20
9.7799567058
 30
0.0
 10
14.2847419119
 20
9.7886500221
 30
0.0
 10
14.2801323725
 20
9.7997560698
 30
0.0
 10
14.2756880899
 20
9.8116789552
 30
0.0
 10
14.2714156493
 20
9.8244007889
 30
0.0
 10
14.2673215245
 20
9.8379027342
 30
0.0
 10
14.2634119363
 20
9.8521646039
 30
0.0
 10
14.2596927684
 20
9.8671650232
 30
0.0
 10
14.25616976
 20
9.8828814651
 30
0.0
 10
14.2528482395
 20
9.8992902712
 30
0.0
 10
14.2497332743
 20
9.9163667135
 30
0.0
 10
14.24682967
 20
9.9340850344
 30
0.0
 10
14.2441417981
 20
9.9524184815
 30
0.0
 10
14.2416738089
 20
9.9713393598
 30
0.0
 10
14.2394294677
 20
9.9908190749
 30
0.0
 10
14.2374121679
 20
10.0108281781
 30
0.0
 10
14.2356250487
 20
10.0313364031
 30
0.0
 10
14.2340707907
 20
10.0523127343
 30
0.0
 10
14.2327517806
 20
10.0737254655
 30
0.0
 10
14.2316700824
 20
10.0955421152
 30
0.0
 10
14.2308272515
 20
10.1177297104
 30
0.0
 10
14.2300187629
 20
10.1479542937
 30
0.0
 10
14.2297838561
 20
10.1707859234
 30
0.0
 10
14.2297838561
 20
10.1861021587
 30
0.0
  0
SPLINE
  5
34A
100
AcDbEntity
  8
0
100
AcDbSpline
 62
7
  6
CONTINUOUS
 70
0
 71
3
 72
53
 73
49
 74
0
 42
0.0000001
 43
0.0000001
 44
0.0000000001
 40
0.0
 40
0.0
 40
0.0
 40
0.0
 40
0.0054464941
 40
0.0110657912
 40
0.0169073187
 40
0.0230145368
 40
0.0294246605
 40
0.036169071
 40
0.0432737365
 40
0.0507598191
 40
0.0586443763
 40
0.0669407521
 40
0.0756593473
 40
0.0848077465
 40
0.0943914129
 40
0.1044137086
 40
0.1148763737
 40
0.1257796183
 40
0.137122311
 40
0.1489022305
 40
0.161115985
 40
0.1737593978
 40
0.186827272
 40
0.2003137884
 40
0.2142122889
 40
0.2285155382
 40
0.2432156626
 40
0.2583041965
 40
0.273772218
 40
0.289610198
 40
0.3223554715
 40
0.3564560698
 40
0.3918211937
 40
0.4283545022
 40
0.4659547256
 40
0.5045162292
 40
0.5439295413
 40
0.5840818573
 40
0.6248575259
 40
0.6661385243
 40
0.7078049254
 40
0.7497353588
 40
0.7918074896
 40
0.8338983992
 40
0.8758852923
 40
0.9176452071
 40
0.9590573468
 40
1.0
 40
1.0
 40
1.0
 40
1.0
 10
14.4239660751
 20
10.9567786475
 30
0.0
 10
14.4224944715
 20
10.956560481
 30
0.0
 10
14.419526551
 20
10.9559546945
 30
0.0
 10
14.4151120289
 20
10.9545748458
 30
0.0
 10
14.4106811975
 20
10.9527150426
 30
0.0
 10
14.4062380718
 20
10.9503778343
 30
0.0
 10
14.4017853259
 20
10.947566051
 30
0.0
 10
14.3973259129
 20
10.944282371
 30
0.0
 10
14.3928626711
 20
10.940529676
 30
0.0
 10
14.3883985058
 20
10.9363110294
 30
0.0
 10
14.3839365311
 20
10.9316296443
 30
0.0
 10
14.3794797578
 20
10.9264891749
 30
0.0
 10
14.375031528
 20
10.9208934182
 30
0.0
 10
14.3705949691
 20
10.9148466947
 30
0.0
 10
14.3661735156
 20
10.9083535179
 30
0.0
 10
14.3617704136
 20
10.9014188785
 30
0.0
 10
14.3573890738
 20
10.8940480433
 30
0.0
 10
14.353032847
 20
10.8862466674
 30
0.0
 10
14.3487050608
 20
10.878020753
 30
0.0
 10
14.3444091325
 20
10.8693766156
 30
0.0
 10
14.3401482994
 20
10.8603209537
 30
0.0
 10
14.3359259835
 20
10.8508607381
 30
0.0
 10
14.3317453607
 20
10.8410033204
 30
0.0
 10
14.3276097847
 20
10.8307563174
 30
0.0
 10
14.3235224069
 20
10.8201276937
 30
0.0
 10
14.3194864567
 20
10.809125691
 30
0.0
 10
14.3155050741
 20
10.7977588571
 30
0.0
 10
14.3115813461
 20
10.7860360301
 30
0.0
 10
14.3077183647
 20
10.7739663072
 30
0.0
 10
14.3025957848
 20
10.7572373012
 30
0.0
 10
14.2963774249
 20
10.7355231716
 30
0.0
 10
14.2892844498
 20
10.7085186312
 30
0.0
 10
14.2825024293
 20
10.680368999
 30
0.0
 10
14.2760526014
 20
10.6511618802
 30
0.0
 10
14.2699551809
 20
10.6209880402
 30
0.0
 10
14.2642292613
 20
10.5899413447
 30
0.0
 10
14.2588927662
 20
10.5581183929
 30
0.0
 10
14.2539623918
 20
10.5256182287
 30
0.0
 10
14.249453557
 20
10.4925420219
 30
0.0
 10
14.2453803557
 20
10.4589927517
 30
0.0
 10
14.2417555113
 20
10.4250748822
 30
0.0
 10
14.2385903377
 20
10.3908940296
 30
0.0
 10
14.2358947138
 20
10.3565566463
 30
0.0
 10
14.233677028
 20
10.3221696322
 30
0.0
 10
14.2319442106
 20
10.287840164
 30
0.0
 10
14.2307015938
 20
10.253674944
 30
0.0
 10
14.2299530914
 20
10.2197806782
 30
0.0
 10
14.2297838561
 20
10.1972854753
 30
0.0
 10
14.2297838561
 20
10.1861021587
 30
0.0
  0
SPLINE
  5
34B
100
AcDbEntity
  8
0
100
AcDbSpline
 62
7
  6
CONTINUOUS
 70
0
 71
3
 72
54
 73
50
 74
0
 42
0.0000001
 43
0.0000001
 44
0.0000000001
 40
0.0
 40
0.0
 40
0.0
 40
0.0
 40
0.0149714207
 40
0.0299459009
 40
0.0449264795
 40
0.0599161607
 40
0.0749178924
 40
0.0899345474
 40
0.1049689109
 40
0.1200236599
 40
0.135101347
 40
0.1502043904
 40
0.1653350555
 40
0.1804954423
 40
0.195687479
 40
0.210912906
 40
0.2261732683
 40
0.2414699124
 40
0.2568039734
 40
0.2721763729
 40
0.2875878193
 40
0.3030387972
 40
0.3185295728
 40
0.3340601946
 40
0.3496304877
 40
0.3652400644
 40
0.3808883259
 40
0.3965744612
 40
0.4122974619
 40
0.4280561242
 40
0.4438490534
 40
0.4596746808
 40
0.4914119437
 40
0.5232571513
 40
0.5551923202
 40
0.587197651
 40
0.6192519366
 40
0.651332993
 40
0.6834181045
 40
0.7154844744
 40
0.7475096792
 40
0.7794721147
 40
0.8113514322
 40
0.8431289588
 40
0.8747880885
 40
0.9063146442
 40
0.9376972366
 40
0.9689272309
 40
1.0
 40
1.0
 40
1.0
 40
1.0
 10
10.6073388754
 20
9.525198454
 30
0.0
 10
10.6144814069
 20
9.5320976162
 30
0.0
 10
10.6290438656
 20
9.5456149401
 30
0.0
 10
10.6516784932
 20
9.5650089833
 30
0.0
 10
10.6750752439
 20
9.5834967589
 30
0.0
 10
10.699201445
 20
9.6010524427
 30
0.0
 10
10.7240240903
 20
9.6176518828
 30
0.0
 10
10.7495089184
 20
9.6332723032
 30
0.0
 10
10.7756208595
 20
9.6478922439
 30
0.0
 10
10.8023240329
 20
9.6614914842
 30
0.0
 10
10.8295816246
 20
9.6740514458
 30
0.0
 10
10.85735614
 20
9.6855548392
 30
0.0
 10
10.8856093901
 20
9.6959857633
 30
0.0
 10
10.9143024467
 20
9.7053300194
 30
0.0
 10
10.9433958545
 20
9.7135747087
 30
0.0
 10
10.9728495939
 20
9.7207084562
 30
0.0
 10
11.0026231122
 20
9.726721601
 30
0.0
 10
11.032675473
 20
9.7316057964
 30
0.0
 10
11.0629653317
 20
9.7353543391
 30
0.0
 10
11.0934510135
 20
9.7379622093
 30
0.0
 10
11.1240905998
 20
9.7394257207
 30
0.0
 10
11.1548419442
 20
9.7397429236
 30
0.0
 10
11.1856627602
 20
9.7389134874
 30
0.0
 10
11.2165106603
 20
9.7369384404
 30
0.0
 10
11.247343228
 20
9.7338206034
 30
0.0
 10
11.278118078
 20
9.7295643294
 30
0.0
 10
11.3087928795
 20
9.7241753592
 30
0.0
 10
11.3393254677
 20
9.7176612406
 30
0.0
 10
11.3696739054
 20
9.7100309356
 30
0.0
 10
11.3997963177
 20
9.7012948991
 30
0.0
 10
11.4296517918
 20
9.6914650751
 30
0.0
 10
11.4690807676
 20
9.6769065235
 30
0.0
 10
11.5174932694
 20
9.6560373193
 30
0.0
 10
11.5738087724
 20
9.6268991354
 30
0.0
 10
11.6281004001
 20
9.5937989214
 30
0.0
 10
11.6800682231
 20
9.5569193005
 30
0.0
 10
11.7294276282
 20
9.5164626962
 30
0.0
 10
11.7759076724
 20
9.4726513953
 30
0.0
 10
11.8192532983
 20
9.4257258787
 30
0.0
 10
11.8592265003
 20
9.3759436535
 30
0.0
 10
11.895607844
 20
9.3235779557
 30
0.0
 10
11.9281974807
 20
9.268916124
 30
0.0
 10
11.9568161989
 20
9.2122580387
 30
0.0
 10
11.9813065912
 20
9.1539146417
 30
0.0
 10
12.0015338316
 20
9.0942060399
 30
0.0
 10
12.0173863217
 20
9.0334602489
 30
0.0
 10
12.0287763038
 20
8.9720096795
 30
0.0
 10
12.0356408499
 20
8.9101961502
 30
0.0
 10
12.0371783517
 20
8.8688551814
 30
0.0
 10
12.0371783517
 20
8.8482447701
 30
0.0
  0
SPLINE
  5
34C
100
AcDbEntity
  8
0
100
AcDbSpline
 62
7
  6
CONTINUOUS
 70
0
 71
3
 72
51
 73
47
 74
0
 42
0.0000001
 43
0.0000001
 44
0.0000000001
 40
0.0
 40
0.0
 40
0.0
 40
0.0
 40
0.0055575483
 40
0.0111779716
 40
0.01692191
 40
0.0228457685
 40
0.029000541
 40
0.0354309187
 40
0.0421753321
 40
0.0492661787
 40
0.0567301751
 40
0.0645892818
 40
0.072860934
 40
0.0815589354
 40
0.0906938799
 40
0.1002734384
 40
0.1103031157
 40
0.1207861166
 40
0.1317239771
 40
0.1431166596
 40
0.1549625852
 40
0.1672591636
 40
0.1800024627
 40
0.1931876894
 40
0.2068091423
 40
0.2208601567
 40
0.2502201891
 40
0.2812020358
 40
0.3137291498
 40
0.3477165256
 40
0.3830717054
 40
0.4196956132
 40
0.4574832856
 40
0.4963245986
 40
0.5361048951
 40
0.5767055669
 40
0.6180046028
 40
0.6598771293
 40
0.7021959705
 40
0.7448321944
 40
0.7876555817
 40
0.8305351627
 40
0.8733399838
 40
0.9159382941
 40
0.9582023666
 40
1.0
 40
1.0
 40
1.0
 40
1.0
 10
13.36417426
 20
10.9731166884
 30
0.0
 10
13.3641742673
 20
10.9722656982
 30
0.0
 10
13.3640790266
 20
10.9705526082
 30
0.0
 10
13.3636514699
 20
10.9679921041
 30
0.0
 10
13.3629398493
 20
10.9654373327
 30
0.0
 10
13.3619457069
 20
10.9628912002
 30
0.0
 10
13.3606704978
 20
10.9603558448
 30
0.0
 10
13.3591160792
 20
10.9578331454
 30
0.0
 10
13.3572841608
 20
10.9553248563
 30
0.0
 10
13.3551765144
 20
10.9528327028
 30
0.0
 10
13.3527951058
 20
10.9503582773
 30
0.0
 10
13.3501418327
 20
10.9479034059
 30
0.0
 10
13.3472189301
 20
10.9454697565
 30
0.0
 10
13.3440287044
 20
10.9430591596
 30
0.0
 10
13.3405736835
 20
10.940673473
 30
0.0
 10
13.3368566629
 20
10.9383144571
 30
0.0
 10
13.3328805595
 20
10.9359840701
 30
0.0
 10
13.3286486027
 20
10.9336840798
 30
0.0
 10
13.3241641788
 20
10.9314163675
 30
0.0
 10
13.3194309013
 20
10.92918279
 30
0.0
 10
13.3144526215
 20
10.9269850892
 30
0.0
 10
13.3092333504
 20
10.9248251471
 30
0.0
 10
13.3037773513
 20
10.9227046512
 30
0.0
 10
13.2980890572
 20
10.9206253764
 30
0.0
 10
13.2921730947
 20
10.9185890209
 30
0.0
 10
13.2838660042
 20
10.9158937788
 30
0.0
 10
13.2729429271
 20
10.9126540272
 30
0.0
 10
13.2591934735
 20
10.9090175617
 30
0.0
 10
13.2446616815
 20
10.9055896617
 30
0.0
 10
13.2293950432
 20
10.9023816555
 30
0.0
 10
13.2134433306
 20
10.89940418
 30
0.0
 10
13.1968586743
 20
10.896667097
 30
0.0
 10
13.1796953096
 20
10.8941794564
 30
0.0
 10
13.162009401
 20
10.8919494847
 30
0.0
 10
13.1438588405
 20
10.8899845555
 30
0.0
 10
13.1253030577
 20
10.8882911674
 30
0.0
 10
13.1064028265
 20
10.8868749213
 30
0.0
 10
13.0872200634
 20
10.8857404872
 30
0.0
 10
13.0678176157
 20
10.8848916077
 30
0.0
 10
13.0482590547
 20
10.8843310866
 30
0.0
 10
13.02860847
 20
10.8840607783
 30
0.0
 10
13.0089302227
 20
10.8840815756
 30
0.0
 10
12.9892889047
 20
10.8843934238
 30
0.0
 10
12.969748601
 20
10.8849952439
 30
0.0
 10
12.9503737142
 20
10.8858851229
 30
0.0
 10
12.937525457
 20
10.8866735627
 30
0.0
 10
12.9311406003
 20
10.887116354
 30
0.0
  0
SPLINE
  5
34D
100
AcDbEntity
  8
0
100
AcDbSpline
 62
7
  6
CONTINUOUS
 70
0
 71
3
 72
51
 73
47
 74
0
 42
0.0000001
 43
0.0000001
 44
0.0000000001
 40
0.0
 40
0.0
 40
0.0
 40
0.0
 40
0.0055575483
 40
0.0111779716
 40
0.01692191
 40
0.0228457685
 40
0.029000541
 40
0.0354309187
 40
0.0421753321
 40
0.0492661787
 40
0.0567301751
 40
0.0645892818
 40
0.072860934
 40
0.0815589354
 40
0.0906938799
 40
0.1002734384
 40
0.1103031157
 40
0.1207861166
 40
0.1317239771
 40
0.1431166596
 40
0.1549625852
 40
0.1672591636
 40
0.1800024627
 40
0.1931876894
 40
0.2068091423
 40
0.2208601567
 40
0.2502201891
 40
0.2812020358
 40
0.3137291498
 40
0.3477165256
 40
0.3830717054
 40
0.4196956132
 40
0.4574832856
 40
0.4963245986
 40
0.5361048951
 40
0.5767055669
 40
0.6180046028
 40
0.6598771293
 40
0.7021959705
 40
0.7448321944
 40
0.7876555817
 40
0.8305351627
 40
0.8733399838
 40
0.9159382941
 40
0.9582023666
 40
1.0
 40
1.0
 40
1.0
 40
1.0
 10
8.7760264859
 20
11.2913058173
 30
0.0
 10
8.7760264933
 20
11.290454827
 30
0.0
 10
8.7759312526
 20
11.288741737
 30
0.0
 10
8.7755036959
 20
11.2861812329
 30
0.0
 10
8.7747920753
 20
11.2836264616
 30
0.0
 10
8.7737979329
 20
11.2810803291
 30
0.0
 10
8.7725227238
 20
11.2785449737
 30
0.0
 10
8.7709683052
 20
11.2760222743
 30
0.0
 10
8.7691363868
 20
11.2735139851
 30
0.0
 10
8.7670287404
 20
11.2710218317
 30
0.0
 10
8.7646473318
 20
11.2685474061
 30
0.0
 10
8.7619940587
 20
11.2660925348
 30
0.0
 10
8.7590711561
 20
11.2636588854
 30
0.0
 10
8.7558809304
 20
11.2612482885
 30
0.0
 10
8.7524259095
 20
11.2588626018
 30
0.0
 10
8.7487088889
 20
11.2565035859
 30
0.0
 10
8.7447327855
 20
11.2541731989
 30
0.0
 10
8.7405008287
 20
11.2518732087
 30
0.0
 10
8.7360164048
 20
11.2496054964
 30
0.0
 10
8.7312831273
 20
11.2473719189
 30
0.0
 10
8.7263048475
 20
11.245174218
 30
0.0
 10
8.7210855764
 20
11.243014276
 30
0.0
 10
8.7156295773
 20
11.2408937801
 30
0.0
 10
8.7099412832
 20
11.2388145052
 30
0.0
 10
8.7040253207
 20
11.2367781498
 30
0.0
 10
8.6957182302
 20
11.2340829076
 30
0.0
 10
8.6847951531
 20
11.230843156
 30
0.0
 10
8.6710456995
 20
11.2272066906
 30
0.0
 10
8.6565139075
 20
11.2237787906
 30
0.0
 10
8.6412472692
 20
11.2205707844
 30
0.0
 10
8.6252955566
 20
11.2175933089
 30
0.0
 10
8.6087109003
 20
11.2148562259
 30
0.0
 10
8.5915475356
 20
11.2123685852
 30
0.0
 10
8.573861627
 20
11.2101386135
 30
0.0
 10
8.5557110665
 20
11.2081736843
 30
0.0
 10
8.5371552837
 20
11.2064802962
 30
0.0
 10
8.5182550525
 20
11.2050640501
 30
0.0
 10
8.4990722894
 20
11.2039296161
 30
0.0
 10
8.4796698417
 20
11.2030807365
 30
0.0
 10
8.4601112807
 20
11.2025202154
 30
0.0
 10
8.440460696
 20
11.2022499071
 30
0.0
 10
8.4207824487
 20
11.2022707044
 30
0.0
 10
8.4011411307
 20
11.2025825527
 30
0.0
 10
8.381600827
 20
11.2031843728
 30
0.0
 10
8.3622259401
 20
11.2040742517
 30
0.0
 10
8.349377683
 20
11.2048626916
 30
0.0
 10
8.3429928263
 20
11.2053054829
 30
0.0
  0
SPLINE
  5
34E
100
AcDbEntity
  8
0
100
AcDbSpline
 62
7
  6
CONTINUOUS
 70
0
 71
3
 72
54
 73
50
 74
0
 42
0.0000001
 43
0.0000001
 44
0.0000000001
 40
0.0
 40
0.0
 40
0.0
 40
0.0
 40
0.0149714207
 40
0.0299459009
 40
0.0449264795
 40
0.0599161607
 40
0.0749178924
 40
0.0899345474
 40
0.1049689109
 40
0.1200236599
 40
0.135101347
 40
0.1502043904
 40
0.1653350555
 40
0.1804954423
 40
0.195687479
 40
0.210912906
 40
0.2261732683
 40
0.2414699124
 40
0.2568039734
 40
0.2721763729
 40
0.2875878193
 40
0.3030387972
 40
0.3185295728
 40
0.3340601946
 40
0.3496304877
 40
0.3652400644
 40
0.3808883259
 40
0.3965744612
 40
0.4122974619
 40
0.4280561242
 40
0.4438490534
 40
0.4596746808
 40
0.4914119437
 40
0.5232571513
 40
0.5551923202
 40
0.587197651
 40
0.6192519366
 40
0.651332993
 40
0.6834181045
 40
0.7154844744
 40
0.7475096792
 40
0.7794721147
 40
0.8113514322
 40
0.8431289588
 40
0.8747880885
 40
0.9063146442
 40
0.9376972366
 40
0.9689272309
 40
1.0
 40
1.0
 40
1.0
 40
1.0
 10
8.675486878
 20
7.4858396072
 30
0.0
 10
8.6826294096
 20
7.4927387693
 30
0.0
 10
8.6971918683
 20
7.5062560932
 30
0.0
 10
8.7198264958
 20
7.5256501365
 30
0.0
 10
8.7432232466
 20
7.544137912
 30
0.0
 10
8.7673494476
 20
7.5616935958
 30
0.0
 10
8.7921720929
 20
7.5782930359
 30
0.0
 10
8.817656921
 20
7.5939134564
 30
0.0
 10
8.8437688622
 20
7.6085333971
 30
0.0
 10
8.8704720355
 20
7.6221326373
 30
0.0
 10
8.8977296273
 20
7.6346925989
 30
0.0
 10
8.9255041426
 20
7.6461959923
 30
0.0
 10
8.9537573927
 20
7.6566269164
 30
0.0
 10
8.9824504494
 20
7.6659711725
 30
0.0
 10
9.0115438572
 20
7.6742158619
 30
0.0
 10
9.0409975966
 20
7.6813496094
 30
0.0
 10
9.0707711149
 20
7.6873627541
 30
0.0
 10
9.1008234756
 20
7.6922469495
 30
0.0
 10
9.1311133344
 20
7.6959954922
 30
0.0
 10
9.1615990161
 20
7.6986033625
 30
0.0
 10
9.1922386024
 20
7.7000668738
 30
0.0
 10
9.2229899469
 20
7.7003840767
 30
0.0
 10
9.2538107628
 20
7.6995546406
 30
0.0
 10
9.284658663
 20
7.6975795935
 30
0.0
 10
9.3154912307
 20
7.6944617565
 30
0.0
 10
9.3462660806
 20
7.6902054825
 30
0.0
 10
9.3769408822
 20
7.6848165123
 30
0.0
 10
9.4074734703
 20
7.6783023937
 30
0.0
 10
9.437821908
 20
7.6706720888
 30
0.0
 10
9.4679443204
 20
7.6619360522
 30
0.0
 10
9.4977997944
 20
7.6521062282
 30
0.0
 10
9.5372287703
 20
7.6375476767
 30
0.0
 10
9.5856412721
 20
7.6166784724
 30
0.0
 10
9.6419567751
 20
7.5875402885
 30
0.0
 10
9.6962484028
 20
7.5544400746
 30
0.0
 10
9.7482162258
 20
7.5175604536
 30
0.0
 10
9.7975756309
 20
7.4771038493
 30
0.0
 10
9.844055675
 20
7.4332925484
 30
0.0
 10
9.8874013009
 20
7.3863670318
 30
0.0
 10
9.927374503
 20
7.3365848066
 30
0.0
 10
9.9637558467
 20
7.2842191088
 30
0.0
 10
9.9963454833
 20
7.2295572771
 30
0.0
 10
10.0249642016
 20
7.1728991918
 30
0.0
 10
10.0494545938
 20
7.1145557948
 30
0.0
 10
10.0696818343
 20
7.054847193
 30
0.0
 10
10.0855343244
 20
6.994101402
 30
0.0
 10
10.0969243065
 20
6.9326508326
 30
0.0
 10
10.1037888525
 20
6.8708373033
 30
0.0
 10
10.1053263543
 20
6.8294963346
 30
0.0
 10
10.1053263543
 20
6.8088859232
 30
0.0
  0
SPLINE
  5
34F
100
AcDbEntity
  8
0
100
AcDbSpline
 62
7
  6
CONTINUOUS
 70
0
 71
3
 72
72
 73
68
 74
0
 42
0.0000001
 43
0.0000001
 44
0.0000000001
 40
0.0
 40
0.0
 40
0.0
 40
0.0
 40
0.015356485
 40
0.0230190262
 40
0.0306711275
 40
0.0459442341
 40
0.0611797292
 40
0.0763807909
 40
0.0915509089
 40
0.1066938545
 40
0.1218136464
 40
0.1369145157
 40
0.1520008687
 40
0.1670772467
 40
0.1821482835
 40
0.1972186618
 40
0.2122930704
 40
0.2273761608
 40
0.2424725045
 40
0.2575865501
 40
0.2727225823
 40
0.2878846828
 40
0.3030766951
 40
0.3183021914
 40
0.3335644407
 40
0.3488663811
 40
0.3642105966
 40
0.379599298
 40
0.395034307
 40
0.4105170429
 40
0.4260485127
 40
0.441629308
 40
0.4572596047
 40
0.4729391651
 40
0.4886673426
 40
0.50444309
 40
0.5202649737
 40
0.536131189
 40
0.5520395766
 40
0.5679876417
 40
0.5839725762
 40
0.5999912849
 40
0.6160404106
 40
0.6321163611
 40
0.6482153366
 40
0.6643333617
 40
0.6804663167
 40
0.6966099685
 40
0.7127600021
 40
0.7289120537
 40
0.7450617452
 40
0.7612047167
 40
0.777336659
 40
0.7934533452
 40
0.809550665
 40
0.8256246566
 40
0.8416715367
 40
0.8576877295
 40
0.8736698961
 40
0.8896149617
 40
0.9055201471
 40
0.9213829765
 40
0.9372013178
 40
0.9529734403
 40
0.9686977178
 40
0.9843737587
 40
1.0
 40
1.0
 40
1.0
 40
1.0
 10
10.0941763836
 20
6.6728383362
 30
0.0
 10
10.0915861393
 20
6.6610082761
 30
0.0
 10
10.0872853057
 20
6.6433628651
 30
0.0
 10
10.0807253766
 20
6.6200800871
 30
0.0
 10
10.0736335457
 20
6.5970221394
 30
0.0
 10
10.063761493
 20
6.568580321
 30
0.0
 10
10.0503198094
 20
6.5351184221
 30
0.0
 10
10.0353181493
 20
6.502415045
 30
0.0
 10
10.0187880502
 20
6.4705392125
 30
0.0
 10
10.00076408
 20
6.439557633
 30
0.0
 10
9.9812839682
 20
6.4095353181
 30
0.0
 10
9.9603885026
 20
6.3805352293
 30
0.0
 10
9.9381214998
 20
6.3526181601
 30
0.0
 10
9.9145296307
 20
6.3258426444
 30
0.0
 10
9.8896623418
 20
6.3002648295
 30
0.0
 10
9.8635717393
 20
6.2759383729
 30
0.0
 10
9.836312534
 20
6.2529142734
 30
0.0
 10
9.8079419065
 20
6.2312407684
 30
0.0
 10
9.7785193479
 20
6.2109632778
 30
0.0
 10
9.7481065477
 20
6.192124299
 30
0.0
 10
9.7167672609
 20
6.1747633305
 30
0.0
 10
9.6845672193
 20
6.1589167032
 30
0.0
 10
9.6515739462
 20
6.144617571
 30
0.0
 10
9.6178566109
 20
6.1318958541
 30
0.0
 10
9.5834858869
 20
6.1207781819
 30
0.0
 10
9.5485338139
 20
6.1112878183
 30
0.0
 10
9.5130736591
 20
6.1034445479
 30
0.0
 10
9.4771797327
 20
6.0972647282
 30
0.0
 10
9.4409272397
 20
6.0927612414
 30
0.0
 10
9.4043921251
 20
6.0899434875
 30
0.0
 10
9.3676509243
 20
6.0888172986
 30
0.0
 10
9.3307805929
 20
6.0893849295
 30
0.0
 10
9.2938583431
 20
6.0916451203
 30
0.0
 10
9.2569614871
 20
6.0955930824
 30
0.0
 10
9.2201672829
 20
6.1012205242
 30
0.0
 10
9.18355276
 20
6.1085155767
 30
0.0
 10
9.1471945607
 20
6.1174628873
 30
0.0
 10
9.1111687867
 20
6.1280436717
 30
0.0
 10
9.0755508453
 20
6.1402357508
 30
0.0
 10
9.040415293
 20
6.1540135833
 30
0.0
 10
9.0058356499
 20
6.1693482521
 30
0.0
 10
8.9718842755
 20
6.1862076132
 30
0.0
 10
8.938632217
 20
6.2045563504
 30
0.0
 10
8.9061490732
 20
6.2243560598
 30
0.0
 10
8.8745028229
 20
6.2455652805
 30
0.0
 10
8.8437596696
 20
6.2681395739
 30
0.0
 10
8.8139839418
 20
6.2920316769
 30
0.0
 10
8.7852379526
 20
6.3171915829
 30
0.0
 10
8.7575818848
 20
6.343566656
 30
0.0
 10
8.7310736046
 20
6.3711016763
 30
0.0
 10
8.7057685723
 20
6.3997389997
 30
0.0
 10
8.68171975
 20
6.4294186961
 30
0.0
 10
8.6589774892
 20
6.4600786665
 30
0.0
 10
8.6375894255
 20
6.4916547672
 30
0.0
 10
8.6176003087
 20
6.5240808992
 30
0.0
 10
8.5990519823
 20
6.5572892024
 30
0.0
 10
8.5819832923
 20
6.5912101874
 30
0.0
 10
8.5664300189
 20
6.6257728827
 30
0.0
 10
8.5524247614
 20
6.6609049605
 30
0.0
 10
8.5399968344
 20
6.6965328839
 30
0.0
 10
8.5291722946
 20
6.7325820897
 30
0.0
 10
8.5199738491
 20
6.768977123
 30
0.0
 10
8.5124208196
 20
6.8056418644
 30
0.0
 10
8.5065291611
 20
6.8424993602
 30
0.0
 10
8.502310987
 20
6.8794730478
 30
0.0
 10
8.4997755849
 20
6.9164841045
 30
0.0
 10
8.4992095904
 20
6.9411731225
 30
0.0
 10
8.4992095904
 20
6.953496169
 30
0.0
  0
SPLINE
  5
350
100
AcDbEntity
  8
0
100
AcDbSpline
 62
7
  6
CONTINUOUS
 70
0
 71
3
 72
48
 73
44
 74
0
 42
0.0000001
 43
0.0000001
 44
0.0000000001
 40
0.0
 40
0.0
 40
0.0
 40
0.0
 40
0.0456675062
 40
0.0908450271
 40
0.1354719952
 40
0.179495314
 40
0.2228607815
 40
0.2655149504
 40
0.3074060915
 40
0.3484837345
 40
0.3886987612
 40
0.4280036575
 40
0.4663526627
 40
0.5037017604
 40
0.5400089319
 40
0.5752343496
 40
0.6093403972
 40
0.6422920154
 40
0.6740569171
 40
0.7046057046
 40
0.7339123627
 40
0.7619545619
 40
0.7887139868
 40
0.8141770953
 40
0.826420191
 40
0.8383366305
 40
0.8499263188
 40
0.8611897246
 40
0.8721277392
 40
0.8827417528
 40
0.8930338602
 40
0.9030067431
 40
0.9126637496
 40
0.9220091294
 40
0.9310479531
 40
0.9397862017
 40
0.9482310303
 40
0.9563907348
 40
0.9642748543
 40
0.9718944528
 40
0.9792621257
 40
0.9863921017
 40
1.0
 40
1.0
 40
1.0
 40
1.0
 10
14.6444116242
 20
7.4473427305
 30
0.0
 10
14.6444116242
 20
7.4589053805
 30
0.0
 10
14.6442991816
 20
7.4819067905
 30
0.0
 10
14.6437877875
 20
7.516203972
 30
0.0
 10
14.6429350891
 20
7.5500779964
 30
0.0
 10
14.6417423001
 20
7.5834826811
 30
0.0
 10
14.6402110643
 20
7.6163735651
 30
0.0
 10
14.6383434304
 20
7.6487063609
 30
0.0
 10
14.6361419238
 20
7.6804375529
 30
0.0
 10
14.6336095684
 20
7.7115245236
 30
0.0
 10
14.630749775
 20
7.7419254887
 30
0.0
 10
14.6275664051
 20
7.7715995922
 30
0.0
 10
14.6240638163
 20
7.800506973
 30
0.0
 10
14.6202467264
 20
7.8286088026
 30
0.0
 10
14.6161203024
 20
7.8558673481
 30
0.0
 10
14.6116901794
 20
7.8822460297
 30
0.0
 10
14.6069623229
 20
7.9077094578
 30
0.0
 10
14.6019431441
 20
7.9322234993
 30
0.0
 10
14.5966394825
 20
7.9557553274
 30
0.0
 10
14.5910584696
 20
7.9782734582
 30
0.0
 10
14.5852076721
 20
7.9997478001
 30
0.0
 10
14.5790950224
 20
8.0201497935
 30
0.0
 10
14.5727287009
 20
8.0394520976
 30
0.0
 10
14.5671486369
 20
8.054794111
 30
0.0
 10
14.5625545008
 20
8.0664886953
 30
0.0
 10
14.5590959606
 20
8.0748538612
 30
0.0
 10
14.5555804957
 20
8.0829254365
 30
0.0
 10
14.5520093099
 20
8.0907007661
 30
0.0
 10
14.5483835935
 20
8.0981772539
 30
0.0
 10
14.5447044951
 20
8.1053523833
 30
0.0
 10
14.5409732898
 20
8.1122237973
 30
0.0
 10
14.5371912078
 20
8.1187892163
 30
0.0
 10
14.533359429
 20
8.125046425
 30
0.0
 10
14.5294792596
 20
8.1309933828
 30
0.0
 10
14.5255519623
 20
8.1366281277
 30
0.0
 10
14.5215787335
 20
8.1419487427
 30
0.0
 10
14.5175608898
 20
8.1469535007
 30
0.0
 10
14.5134997195
 20
8.1516407423
 30
0.0
 10
14.5093963861
 20
8.1560088542
 30
0.0
 10
14.505252329
 20
8.1600563103
 30
0.0
 10
14.5010684001
 20
8.1637820326
 30
0.0
 10
14.4955262719
 20
8.1682481529
 30
0.0
 10
14.4911829814
 20
8.1712240398
 30
0.0
 10
14.4882275068
 20
8.1729949245
 30
0.0
  0
SPLINE
  5
351
100
AcDbEntity
  8
0
100
AcDbSpline
 62
7
  6
CONTINUOUS
 70
0
 71
3
 72
54
 73
50
 74
0
 42
0.0000001
 43
0.0000001
 44
0.0000000001
 40
0.0
 40
0.0
 40
0.0
 40
0.0
 40
0.0398702647
 40
0.0801836316
 40
0.1208317036
 40
0.1617055163
 40
0.2026949808
 40
0.2436897633
 40
0.2845794561
 40
0.3252540296
 40
0.3656041847
 40
0.4055217403
 40
0.4449000119
 40
0.4836341976
 40
0.5216217689
 40
0.5587628687
 40
0.5949607214
 40
0.6301220586
 40
0.664157568
 40
0.6807266428
 40
0.6969828224
 40
0.7129162693
 40
0.7285175168
 40
0.7437774278
 40
0.7586873039
 40
0.773238797
 40
0.7874240723
 40
0.8012356778
 40
0.8146667568
 40
0.8277108874
 40
0.8403623345
 40
0.8526158776
 40
0.8644670891
 40
0.8759121762
 40
0.8869482696
 40
0.8975733078
 40
0.9077863271
 40
0.9175874177
 40
0.9269780126
 40
0.9359609459
 40
0.944540749
 40
0.9527238432
 40
0.9605188623
 40
0.9679370057
 40
0.9749924109
 40
0.9817026706
 40
0.9880892505
 40
0.9941780985
 40
1.0
 40
1.0
 40
1.0
 40
1.0
 10
14.6444116242
 20
7.4473427305
 30
0.0
 10
14.6444116242
 20
7.4302495793
 30
0.0
 10
14.6441633539
 20
7.3958728415
 30
0.0
 10
14.6430644679
 20
7.3440800487
 30
0.0
 10
14.6412397868
 20
7.2918771674
 30
0.0
 10
14.6386945439
 20
7.2394143123
 30
0.0
 10
14.6354360059
 20
7.1868420041
 30
0.0
 10
14.6314735335
 20
7.1343112378
 30
0.0
 10
14.6268185042
 20
7.0819728265
 30
0.0
 10
14.6214843058
 20
7.02997705
 30
0.0
 10
14.6154862857
 20
6.9784731908
 30
0.0
 10
14.6088417125
 20
6.9276091132
 30
0.0
 10
14.6015697251
 20
6.8775308317
 30
0.0
 10
14.593691279
 20
6.8283820905
 30
0.0
 10
14.5852290877
 20
6.7803039408
 30
0.0
 10
14.5762075562
 20
6.7334343492
 30
0.0
 10
14.5666527203
 20
6.6879077253
 30
0.0
 10
14.5565921454
 20
6.6438547737
 30
0.0
 10
14.547733902
 20
6.6081656077
 30
0.0
 10
14.5404060036
 20
6.5804531515
 30
0.0
 10
14.534851126
 20
6.5603005069
 30
0.0
 10
14.5291922034
 20
6.5406081884
 30
0.0
 10
14.5234333198
 20
6.5213903053
 30
0.0
 10
14.5175785752
 20
6.5026606527
 30
0.0
 10
14.5116322424
 20
6.484432655
 30
0.0
 10
14.5055985255
 20
6.4667193909
 30
0.0
 10
14.4994818508
 20
6.4495335449
 30
0.0
 10
14.4932865217
 20
6.4328874449
 30
0.0
 10
14.4870170988
 20
6.4167929948
 30
0.0
 10
14.4806779767
 20
6.4012617346
 30
0.0
 10
14.4742738284
 20
6.3863047498
 30
0.0
 10
14.4678091325
 20
6.371932756
 30
0.0
 10
14.4612886482
 20
6.358155985
 30
0.0
 10
14.4547169297
 20
6.3449842917
 30
0.0
 10
14.4480987919
 20
6.3324270213
 30
0.0
 10
14.4414388527
 20
6.3204931318
 30
0.0
 10
14.4347419462
 20
6.309191053
 30
0.0
 10
14.4280127341
 20
6.2985288108
 30
0.0
 10
14.4212560246
 20
6.2885138969
 30
0.0
 10
14.4144764891
 20
6.2791533753
 30
0.0
 10
14.4076788511
 20
6.2704537913
 30
0.0
 10
14.4008677379
 20
6.2624212332
 30
0.0
 10
14.3940477098
 20
6.2550613237
 30
0.0
 10
14.3872232781
 20
6.2483792061
 30
0.0
 10
14.3803987419
 20
6.2423796709
 30
0.0
 10
14.3735784776
 20
6.2370670599
 30
0.0
 10
14.3667663195
 20
6.2324454816
 30
0.0
 10
14.3599671964
 20
6.2285189912
 30
0.0
 10
14.3553499008
 20
6.2263218426
 30
0.0
 10
14.3530508994
 20
6.2253500319
 30
0.0
  0
SPLINE
  5
352
100
AcDbEntity
  8
0
100
AcDbSpline
 62
7
  6
CONTINUOUS
 70
0
 71
3
 72
39
 73
35
 74
0
 42
0.0000001
 43
0.0000001
 44
0.0000000001
 40
0.0
 40
0.0
 40
0.0
 40
0.0
 40
0.0315206499
 40
0.0629611014
 40
0.0943254206
 40
0.1256182265
 40
0.1568446568
 40
0.1880103398
 40
0.2191213576
 40
0.2501841974
 40
0.2812057044
 40
0.3121930389
 40
0.34315362
 40
0.3740950663
 40
0.4050251417
 40
0.4359516997
 40
0.4668826198
 40
0.4978257455
 40
0.5287888287
 40
0.5597794727
 40
0.5908050697
 40
0.6218727455
 40
0.6529893126
 40
0.6841612191
 40
0.7153944967
 40
0.7466947202
 40
0.7780669819
 40
0.8095158436
 40
0.8410452737
 40
0.8726587846
 40
0.9043591251
 40
0.9361481565
 40
0.9680290551
 40
1.0
 40
1.0
 40
1.0
 40
1.0
 10
9.1092787748
 20
7.6934382432
 30
0.0
 10
9.098499352
 20
7.6914782983
 30
0.0
 10
9.0770483489
 20
7.6871048179
 30
0.0
 10
9.0452235934
 20
7.6791831918
 30
0.0
 10
9.0138444125
 20
7.6699219412
 30
0.0
 10
8.9829653729
 20
7.6593370239
 30
0.0
 10
8.9526392467
 20
7.6474464407
 30
0.0
 10
8.922918082
 20
7.6342705965
 30
0.0
 10
8.8938528121
 20
7.6198320948
 30
0.0
 10
8.8654933103
 20
7.6041556218
 30
0.0
 10
8.837888242
 20
7.5872679998
 30
0.0
 10
8.811084913
 20
7.569198243
 30
0.0
 10
8.7851292944
 20
7.5499773186
 30
0.0
 10
8.7600659596
 20
7.5296381102
 30
0.0
 10
8.735937865
 20
7.5082155383
 30
0.0
 10
8.7127863619
 20
7.4857463686
 30
0.0
 10
8.6906511928
 20
7.4622690931
 30
0.0
 10
8.6695703424
 20
7.43782396
 30
0.0
 10
8.6495798945
 20
7.4124529525
 30
0.0
 10
8.6307141243
 20
7.3861995783
 30
0.0
 10
8.6130054409
 20
7.3591088211
 30
0.0
 10
8.5964841404
 20
7.3312271874
 30
0.0
 10
8.581178498
 20
7.3026025144
 30
0.0
 10
8.5671147863
 20
7.2732838649
 30
0.0
 10
8.5543171095
 20
7.2433215169
 30
0.0
 10
8.5428073027
 20
7.2127668839
 30
0.0
 10
8.5326050769
 20
7.1816723473
 30
0.0
 10
8.5237279707
 20
7.150091205
 30
0.0
 10
8.5161910662
 20
7.1180776134
 30
0.0
 10
8.5100072519
 20
7.0856864372
 30
0.0
 10
8.5051871628
 20
7.0529733565
 30
0.0
 10
8.5017388477
 20
7.0199938467
 30
0.0
 10
8.4996684868
 20
6.9868056781
 30
0.0
 10
8.4992095904
 20
6.9646088409
 30
0.0
 10
8.4992095904
 20
6.953496169
 30
0.0
  0
SPLINE
  5
353
100
AcDbEntity
  8
0
100
AcDbSpline
 62
7
  6
CONTINUOUS
 70
0
 71
3
 72
52
 73
48
 74
0
 42
0.0000001
 43
0.0000001
 44
0.0000000001
 40
0.0
 40
0.0
 40
0.0
 40
0.0
 40
0.0063158568
 40
0.0126706178
 40
0.0191024266
 40
0.0256479345
 40
0.0323417789
 40
0.0392160908
 40
0.0536138298
 40
0.0611945069
 40
0.0690562056
 40
0.0772172859
 40
0.0856936163
 40
0.094498959
 40
0.1036450353
 40
0.1131417384
 40
0.1229974561
 40
0.1332190303
 40
0.1438120572
 40
0.1547810415
 40
0.1661293353
 40
0.1778594655
 40
0.1899731041
 40
0.2024710934
 40
0.2153537091
 40
0.2286205088
 40
0.2422704818
 40
0.2563021821
 40
0.2707135511
 40
0.3006644045
 40
0.3320995118
 40
0.364988637
 40
0.399296387
 40
0.4349827261
 40
0.4720035166
 40
0.5103109065
 40
0.549853604
 40
0.5905771631
 40
0.632424299
 40
0.6753351168
 40
0.7192472758
 40
0.7640961515
 40
0.8098152405
 40
0.8563361104
 40
0.9035880427
 40
0.9515014724
 40
1.0
 40
1.0
 40
1.0
 40
1.0
 10
14.5196299722
 20
8.1786979868
 30
0.0
 10
14.5212931179
 20
8.1785826513
 30
0.0
 10
14.5246217958
 20
8.1782151548
 30
0.0
 10
14.5295775156
 20
8.1772572369
 30
0.0
 10
14.5345000962
 20
8.1758926334
 30
0.0
 10
14.5393866906
 20
8.174122531
 30
0.0
 10
14.5442353494
 20
8.1719478514
 30
0.0
 10
14.5507457969
 20
8.168457927
 30
0.0
 10
14.5570794558
 20
8.1641857398
 30
0.0
 10
14.5632088128
 20
8.1592349248
 30
0.0
 10
14.5678385597
 20
8.1550608105
 30
0.0
 10
14.5724188363
 20
8.1504922037
 30
0.0
 10
14.5769485619
 20
8.145530791
 30
0.0
 10
14.5814258297
 20
8.1401786654
 30
0.0
 10
14.5858490023
 20
8.134438014
 30
0.0
 10
14.5902164292
 20
8.1283112158
 30
0.0
 10
14.5945263267
 20
8.1218006974
 30
0.0
 10
14.598777068
 20
8.1149091419
 30
0.0
 10
14.6029669676
 20
8.1076393387
 30
0.0
 10
14.6070942834
 20
8.0999942083
 30
0.0
 10
14.6111574391
 20
8.0919768985
 30
0.0
 10
14.6151547393
 20
8.0835906505
 30
0.0
 10
14.6190845443
 20
8.0748388819
 30
0.0
 10
14.6229453153
 20
8.0657251891
 30
0.0
 10
14.6267353966
 20
8.0562532746
 30
0.0
 10
14.6304532723
 20
8.0464270304
 30
0.0
 10
14.6340974302
 20
8.0362504927
 30
0.0
 10
14.6376663298
 20
8.025727805
 30
0.0
 10
14.6423832218
 20
8.0110529773
 30
0.0
 10
14.64806671
 20
7.9918664383
 30
0.0
 10
14.6544795229
 20
7.9678191693
 30
0.0
 10
14.6605588919
 20
7.9425013368
 30
0.0
 10
14.6662947101
 20
7.9159546001
 30
0.0
 10
14.6716774479
 20
7.8882224655
 30
0.0
 10
14.6766981404
 20
7.8593505135
 30
0.0
 10
14.6813484061
 20
7.8293862129
 30
0.0
 10
14.6856204929
 20
7.7983788824
 30
0.0
 10
14.6895072988
 20
7.7663795952
 30
0.0
 10
14.6930023451
 20
7.7334410728
 30
0.0
 10
14.6960997901
 20
7.6996175947
 30
0.0
 10
14.6987944732
 20
7.6649649325
 30
0.0
 10
14.7010819213
 20
7.6295402211
 30
0.0
 10
14.7029583098
 20
7.5934018699
 30
0.0
 10
14.704420477
 20
7.5566096177
 30
0.0
 10
14.7054660456
 20
7.5192237479
 30
0.0
 10
14.7060931667
 20
7.4813065017
 30
0.0
 10
14.7062308822
 20
7.4558572709
 30
0.0
 10
14.7062308822
 20
7.4430555504
 30
0.0
  0
SPLINE
  5
354
100
AcDbEntity
  8
0
100
AcDbSpline
 62
7
  6
CONTINUOUS
 70
0
 71
3
 72
59
 73
55
 74
0
 42
0.0000001
 43
0.0000001
 44
0.0000000001
 40
0.0
 40
0.0
 40
0.0
 40
0.0
 40
0.0425878729
 40
0.0856853553
 40
0.1291506137
 40
0.1728413054
 40
0.2166135205
 40
0.2603232768
 40
0.3038267535
 40
0.3469810261
 40
0.3896446254
 40
0.4316781589
 40
0.4729449202
 40
0.513311513
 40
0.5526484879
 40
0.5908310009
 40
0.627739503
 40
0.6632604756
 40
0.680467301
 40
0.697287872
 40
0.7137100038
 40
0.7297221989
 40
0.7453133954
 40
0.7604733087
 40
0.7751921759
 40
0.7894610975
 40
0.8032718281
 40
0.8166170804
 40
0.8294904082
 40
0.8418864465
 40
0.8538009266
 40
0.8652308429
 40
0.8761746322
 40
0.88663228
 40
0.8966056905
 40
0.9060987718
 40
0.915118017
 40
0.9236726397
 40
0.9317753788
 40
0.9394427745
 40
0.9466961799
 40
0.9535622317
 40
0.9600739392
 40
0.9662712022
 40
0.9722015466
 40
0.9779200875
 40
0.9807202545
 40
0.9834913285
 40
0.9862419396
 40
0.9889809332
 40
0.9917172822
 40
0.9944599825
 40
0.9972179633
 40
1.0
 40
1.0
 40
1.0
 40
1.0
 10
14.5496839318
 20
7.3558428006
 30
0.0
 10
14.5496839318
 20
7.3439674993
 30
0.0
 10
14.5494930852
 20
7.3200744012
 30
0.0
 10
14.5486498795
 20
7.284070294
 30
0.0
 10
14.5472505958
 20
7.2477757049
 30
0.0
 10
14.545300148
 20
7.2113181913
 30
0.0
 10
14.5428053366
 20
7.1748255445
 30
0.0
 10
14.5397749287
 20
7.1384258466
 30
0.0
 10
14.5362195633
 20
7.1022467848
 30
0.0
 10
14.5321517469
 20
7.0664152903
 30
0.0
 10
14.5275857948
 20
7.0310570582
 30
0.0
 10
14.5225377883
 20
6.9962961126
 30
0.0
 10
14.5170255162
 20
6.9622543651
 30
0.0
 10
14.5110684159
 20
6.9290511769
 30
0.0
 10
14.5046875024
 20
6.8968029514
 30
0.0
 10
14.497905309
 20
6.8656226485
 30
0.0
 10
14.4907457664
 20
6.8356196168
 30
0.0
 10
14.4844210766
 20
6.8114362577
 30
0.0
 10
14.4791821213
 20
6.792763857
 30
0.0
 10
14.475216213
 20
6.779266606
 30
0.0
 10
14.4711754245
 20
6.7661397186
 30
0.0
 10
14.4670633824
 20
6.7533946756
 30
0.0
 10
14.4628836089
 20
6.7410426556
 30
0.0
 10
14.4586398789
 20
6.7290944605
 30
0.0
 10
14.454335828
 20
6.7175605604
 30
0.0
 10
14.4499753285
 20
6.7064510291
 30
0.0
 10
14.4455621339
 20
6.6957755887
 30
0.0
 10
14.4411001838
 20
6.6855435476
 30
0.0
 10
14.4365933446
 20
6.675763838
 30
0.0
 10
14.4320455935
 20
6.6664449695
 30
0.0
 10
14.4274608985
 20
6.6575950417
 30
0.0
 10
14.4228432429
 20
6.6492217349
 30
0.0
 10
14.4181966738
 20
6.641332274
 30
0.0
 10
14.4135251435
 20
6.633933484
 30
0.0
 10
14.4088327393
 20
6.6270316764
 30
0.0
 10
14.4041233342
 20
6.6206328048
 30
0.0
 10
14.3994009879
 20
6.6147422442
 30
0.0
 10
14.3946694287
 20
6.6093650851
 30
0.0
 10
14.3899325846
 20
6.6045057912
 30
0.0
 10
14.3851939582
 20
6.6001686636
 30
0.0
 10
14.3804572295
 20
6.5963573957
 30
0.0
 10
14.3757256366
 20
6.5930757135
 30
0.0
 10
14.3710026544
 20
6.5903268833
 30
0.0
 10
14.3662914003
 20
6.5881144254
 30
0.0
 10
14.3615960343
 20
6.5864415985
 30
0.0
 10
14.3576711626
 20
6.585493434
 30
0.0
 10
14.3545581716
 20
6.5850151762
 30
0.0
 10
14.3522468618
 20
6.5847944676
 30
0.0
 10
14.3499436895
 20
6.5847095094
 30
0.0
 10
14.3476491636
 20
6.58476036
 30
0.0
 10
14.3453638933
 20
6.5849469761
 30
0.0
 10
14.3430884247
 20
6.5852692943
 30
0.0
 10
14.3408234227
 20
6.5857272009
 30
0.0
 10
14.3393285706
 20
6.586120757
 30
0.0
 10
14.3385842549
 20
6.5863393468
 30
0.0
  0
SPLINE
  5
355
100
AcDbEntity
  8
0
100
AcDbSpline
 62
7
  6
CONTINUOUS
 70
0
 71
3
 72
28
 73
24
 74
0
 42
0.0000001
 43
0.0000001
 44
0.0000000001
 40
0.0
 40
0.0
 40
0.0
 40
0.0
 40
0.066509392
 40
0.1339102665
 40
0.2018945734
 40
0.2701492569
 40
0.3383605162
 40
0.4062145162
 40
0.4733995946
 40
0.5396079962
 40
0.6045377558
 40
0.6678945721
 40
0.7293937314
 40
0.7593612926
 40
0.7887630955
 40
0.8175670928
 40
0.8457423435
 40
0.8732589006
 40
0.9000880014
 40
0.9262021409
 40
0.951575076
 40
0.9761821269
 40
1.0
 40
1.0
 40
1.0
 40
1.0
 10
14.3332447527
 20
7.3587785952
 30
0.0
 10
14.3332447527
 20
7.34574486
 30
0.0
 10
14.3329967064
 20
7.319502091
 30
0.0
 10
14.3319044637
 20
7.2799502182
 30
0.0
 10
14.3300942946
 20
7.2400822247
 30
0.0
 10
14.327574988
 20
7.2000936928
 30
0.0
 10
14.3243589099
 20
7.1601807636
 30
0.0
 10
14.3204618438
 20
7.1205391473
 30
0.0
 10
14.3159029696
 20
7.0813632322
 30
0.0
 10
14.3107047416
 20
7.0428451065
 30
0.0
 10
14.3048928053
 20
7.0051735461
 30
0.0
 10
14.2984958189
 20
6.9685333193
 30
0.0
 10
14.2926547226
 20
6.9387577206
 30
0.0
 10
14.2877037832
 20
6.9155940702
 30
0.0
 10
14.2838967012
 20
6.8987390775
 30
0.0
 10
14.279968447
 20
6.8822727889
 30
0.0
 10
14.2759238791
 20
6.8662153733
 30
0.0
 10
14.2717679496
 20
6.8505865222
 30
0.0
 10
14.2675057787
 20
6.8354053855
 30
0.0
 10
14.2631426317
 20
6.8206905675
 30
0.0
 10
14.2586838297
 20
6.8064600745
 30
0.0
 10
14.254134948
 20
6.7927313847
 30
0.0
 10
14.250993816
 20
6.7837759238
 30
0.0
 10
14.2494073726
 20
6.7793862527
 30
0.0
  0
SPLINE
  5
356
100
AcDbEntity
  8
0
100
AcDbSpline
 62
7
  6
CONTINUOUS
 70
0
 71
3
 72
37
 73
33
 74
0
 42
0.0000001
 43
0.0000001
 44
0.0000000001
 40
0.0
 40
0.0
 40
0.0
 40
0.0
 40
0.030746918
 40
0.0615815023
 40
0.0925011026
 40
0.1235024444
 40
0.1545816684
 40
0.1857343632
 40
0.2169555911
 40
0.2482399297
 40
0.2795815213
 40
0.3109741067
 40
0.3424110691
 40
0.3738854909
 40
0.4053901977
 40
0.436917802
 40
0.4999984781
 40
0.5630792119
 40
0.5946068887
 40
0.6261116954
 40
0.6575862445
 40
0.6890233615
 40
0.7204161266
 40
0.7517579215
 40
0.7830424876
 40
0.8142639635
 40
0.8454169239
 40
0.8764964393
 40
0.9074980723
 40
0.9384179765
 40
0.9692529811
 40
1.0
 40
1.0
 40
1.0
 40
1.0
 10
10.0723732682
 20
7.042343586
 30
0.0
 10
10.0630286032
 20
7.0436747066
 30
0.0
 10
10.044367362
 20
7.0467423559
 30
0.0
 10
10.016559913
 20
7.0525380791
 30
0.0
 10
9.988946364
 20
7.0595242505
 30
0.0
 10
9.9615794552
 20
7.0676875107
 30
0.0
 10
9.9345105876
 20
7.0770124131
 30
0.0
 10
9.9077908604
 20
7.0874813879
 30
0.0
 10
9.8814706548
 20
7.0990747075
 30
0.0
 10
9.8555995628
 20
7.1117704088
 30
0.0
 10
9.8302263536
 20
7.1255445463
 30
0.0
 10
9.8053989111
 20
7.1403711969
 30
0.0
 10
9.7811639782
 20
7.1562223577
 30
0.0
 10
9.7575673287
 20
7.1730679989
 30
0.0
 10
9.7346530847
 20
7.190876807
 30
0.0
 10
9.7050672793
 20
7.215861838
 30
0.0
 10
9.6700088404
 20
7.2493253671
 30
0.0
 10
9.6377748019
 20
7.2855175039
 30
0.0
 10
9.6138253536
 20
7.3159477695
 30
0.0
 10
9.5968176803
 20
7.339462884
 30
0.0
 10
9.5807961073
 20
7.3636267716
 30
0.0
 10
9.5657904244
 20
7.3883942699
 30
0.0
 10
9.5518290861
 20
7.4137186069
 30
0.0
 10
9.5389384354
 20
7.4395520837
 30
0.0
 10
9.5271427296
 20
7.4658459531
 30
0.0
 10
9.5164642381
 20
7.4925506565
 30
0.0
 10
9.5069231975
 20
7.5196158734
 30
0.0
 10
9.4985375624
 20
7.546990559
 30
0.0
 10
9.4913231426
 20
7.5746230433
 30
0.0
 10
9.4852936122
 20
7.6024614559
 30
0.0
 10
9.480460534
 20
7.6304525318
 30
0.0
 10
9.4780383496
 20
7.6492086358
 30
0.0
 10
9.4770303331
 20
7.6585936843
 30
0.0
  0
SPLINE
  5
357
100
AcDbEntity
  8
0
100
AcDbSpline
 62
7
  6
CONTINUOUS
 70
0
 71
3
 72
15
 73
11
 74
0
 42
0.0000001
 43
0.0000001
 44
0.0000000001
 40
0.0
 40
0.0
 40
0.0
 40
0.0
 40
0.1235985365
 40
0.2489286584
 40
0.3753310688
 40
0.5021354778
 40
0.6286707889
 40
0.7542671128
 40
0.8782610418
 40
1.0
 40
1.0
 40
1.0
 40
1.0
 10
14.2549370141
 20
7.3470771326
 30
0.0
 10
14.2549370141
 20
7.3346469186
 30
0.0
 10
14.2546830459
 20
7.3096116966
 30
0.0
 10
14.2535665377
 20
7.27187925
 30
0.0
 10
14.2517173824
 20
7.2338527066
 30
0.0
 10
14.2491459147
 20
7.1957467514
 30
0.0
 10
14.245866675
 20
7.1577765254
 30
0.0
 10
14.241898197
 20
7.1201562467
 30
0.0
 10
14.2372630093
 20
7.0830984415
 30
0.0
 10
14.2337071107
 20
7.0586403708
 30
0.0
 10
14.2318181955
 20
7.0465437643
 30
0.0
  0
SPLINE
  5
358
100
AcDbEntity
  8
0
100
AcDbSpline
 62
7
  6
CONTINUOUS
 70
0
 71
3
 72
44
 73
40
 74
0
 42
0.0000001
 43
0.0000001
 44
0.0000000001
 40
0.0
 40
0.0
 40
0.0
 40
0.0
 40
0.015166805
 40
0.0303618835
 40
0.0455856256
 40
0.0608383248
 40
0.0914284179
 40
0.1221357166
 40
0.1375345482
 40
0.1529622489
 40
0.1839000514
 40
0.2149483963
 40
0.2461023918
 40
0.2773559157
 40
0.3087016987
 40
0.3401314168
 40
0.3716357946
 40
0.4032047167
 40
0.4348273453
 40
0.466492246
 40
0.4981875162
 40
0.5299009188
 40
0.5616200173
 40
0.5933323123
 40
0.6250253796
 40
0.6566870062
 40
0.688305326
 40
0.7198689521
 40
0.7513671059
 40
0.7827897422
 40
0.8141276632
 40
0.8453726433
 40
0.8609593731
 40
0.8765202576
 40
0.9075590327
 40
0.9384866981
 40
0.9539091558
 40
0.9693032561
 40
1.0
 40
1.0
 40
1.0
 40
1.0
 10
10.1010774334
 20
6.8658046217
 30
0.0
 10
10.0949644074
 20
6.8650190166
 30
0.0
 10
10.0827040584
 20
6.8636189994
 30
0.0
 10
10.0642450684
 20
6.8620352406
 30
0.0
 10
10.0457138558
 20
6.8609669025
 30
0.0
 10
10.0209066546
 20
6.8602300153
 30
0.0
 10
9.9897844154
 20
6.8606043323
 30
0.0
 10
9.9586713051
 20
6.8626978777
 30
0.0
 10
9.9338094705
 20
6.8653984563
 30
0.0
 10
9.9089376973
 20
6.8687882649
 30
0.0
 10
9.8779500356
 20
6.8743067938
 30
0.0
 10
9.8410817724
 20
6.8829459692
 30
0.0
 10
9.8046052649
 20
6.8935822237
 30
0.0
 10
9.7686321992
 20
6.906182983
 30
0.0
 10
9.7332718236
 20
6.9207098337
 30
0.0
 10
9.6986317551
 20
6.9371184829
 30
0.0
 10
9.664817349
 20
6.9553589357
 30
0.0
 10
9.6319314635
 20
6.9753756367
 30
0.0
 10
9.6000741259
 20
6.9971076385
 30
0.0
 10
9.5693422312
 20
7.020488781
 30
0.0
 10
9.5398292533
 20
7.0454479014
 30
0.0
 10
9.5116249624
 20
7.0719090482
 30
0.0
 10
9.4848151539
 20
7.0997917118
 30
0.0
 10
9.4594813891
 20
7.1290110678
 30
0.0
 10
9.4357007489
 20
7.1594782325
 30
0.0
 10
9.4135456006
 20
7.1911005337
 30
0.0
 10
9.3930833794
 20
7.2237817841
 30
0.0
 10
9.3743763815
 20
7.2574225939
 30
0.0
 10
9.3574815837
 20
7.2919205885
 30
0.0
 10
9.3424504092
 20
7.3271710114
 30
0.0
 10
9.3293288134
 20
7.3630659636
 30
0.0
 10
9.3200108142
 20
7.3934511668
 30
0.0
 10
9.313550748
 20
7.4179713952
 30
0.0
 10
9.3077669117
 20
7.4425738414
 30
0.0
 10
9.3017908468
 20
7.4735228628
 30
0.0
 10
9.29750062
 20
7.5046936666
 30
0.0
 10
9.2950961007
 20
7.5296719184
 30
0.0
 10
9.2933802766
 20
7.5546121624
 30
0.0
 10
9.2928621214
 20
7.5733472548
 30
0.0
 10
9.2928621214
 20
7.5858214199
 30
0.0
  0
SPLINE
  5
359
100
AcDbEntity
  8
0
100
AcDbSpline
 62
7
  6
CONTINUOUS
 70
0
 71
3
 72
39
 73
35
 74
0
 42
0.0000001
 43
0.0000001
 44
0.0000000001
 40
0.0
 40
0.0
 40
0.0
 40
0.0
 40
0.0958313223
 40
0.1890999066
 40
0.2792396479
 40
0.3229663115
 40
0.3657099292
 40
0.4074081191
 40
0.4480006754
 40
0.4874302648
 40
0.5256424385
 40
0.5625857699
 40
0.5982125807
 40
0.6324786396
 40
0.665344311
 40
0.6967743203
 40
0.7267388303
 40
0.7552139511
 40
0.7821824427
 40
0.807635341
 40
0.8315726205
 40
0.8540058864
 40
0.8749600023
 40
0.8944766962
 40
0.9126183481
 40
0.9294727137
 40
0.94515911
 40
0.9598336921
 40
0.9668557838
 40
0.973702854
 40
0.9804062715
 40
0.9869997015
 40
0.9935186515
 40
1.0
 40
1.0
 40
1.0
 40
1.0
 10
8.5210601824
 20
11.3773053511
 30
0.0
 10
8.5300199993
 20
11.3766839857
 30
0.0
 10
8.5476871319
 20
11.3752608187
 30
0.0
 10
8.5737185361
 20
11.372544142
 30
0.0
 10
8.5948313462
 20
11.3698042542
 30
0.0
 10
8.6111989642
 20
11.3673379141
 30
0.0
 10
8.6230507319
 20
11.3653799086
 30
0.0
 10
8.6345830839
 20
11.3632983585
 30
0.0
 10
8.6457767704
 20
11.3610966871
 30
0.0
 10
8.6566130955
 20
11.3587786278
 30
0.0
 10
8.6670739774
 20
11.3563480881
 30
0.0
 10
8.6771419658
 20
11.3538091109
 30
0.0
 10
8.6868002871
 20
11.3511660376
 30
0.0
 10
8.696032854
 20
11.3484232258
 30
0.0
 10
8.7048243283
 20
11.3455853645
 30
0.0
 10
8.7131601153
 20
11.3426571566
 30
0.0
 10
8.7210264213
 20
11.3396435272
 30
0.0
 10
8.7284102787
 20
11.3365495263
 30
0.0
 10
8.7352995457
 20
11.3333802227
 30
0.0
 10
8.7416830113
 20
11.3301409271
 30
0.0
 10
8.7475503014
 20
11.3268367802
 30
0.0
 10
8.7528920511
 20
11.3234731276
 30
0.0
 10
8.7576997554
 20
11.3200550625
 30
0.0
 10
8.7619658496
 20
11.3165875698
 30
0.0
 10
8.7656835813
 20
11.3130754233
 30
0.0
 10
8.768846758
 20
11.3095226439
 30
0.0
 10
8.7714493534
 20
11.3059338578
 30
0.0
 10
8.773170774
 20
11.3028709946
 30
0.0
 10
8.7742439138
 20
11.300418579
 30
0.0
 10
8.7748936347
 20
11.2986015263
 30
0.0
 10
8.7753994445
 20
11.2967808892
 30
0.0
 10
8.7757610679
 20
11.2949574267
 30
0.0
 10
8.7759781842
 20
11.2931321865
 30
0.0
 10
8.7760264807
 20
11.291913251
 30
0.0
 10
8.7760264859
 20
11.2913058173
 30
0.0
  0
SPLINE
  5
35A
100
AcDbEntity
  8
0
100
AcDbSpline
 62
7
  6
CONTINUOUS
 70
0
 71
3
 72
48
 73
44
 74
0
 42
0.0000001
 43
0.0000001
 44
0.0000000001
 40
0.0
 40
0.0
 40
0.0
 40
0.0
 40
0.0456675062
 40
0.0908450271
 40
0.1354719952
 40
0.179495314
 40
0.2228607815
 40
0.2655149504
 40
0.3074060915
 40
0.3484837345
 40
0.3886987612
 40
0.4280036575
 40
0.4663526627
 40
0.5037017604
 40
0.5400089319
 40
0.5752343496
 40
0.6093403972
 40
0.6422920154
 40
0.6740569171
 40
0.7046057046
 40
0.7339123627
 40
0.7619545619
 40
0.7887139868
 40
0.8141770953
 40
0.826420191
 40
0.8383366305
 40
0.8499263188
 40
0.8611897246
 40
0.8721277392
 40
0.8827417528
 40
0.8930338602
 40
0.9030067431
 40
0.9126637496
 40
0.9220091294
 40
0.9310479531
 40
0.9397862017
 40
0.9482310303
 40
0.9563907348
 40
0.9642748543
 40
0.9718944528
 40
0.9792621257
 40
0.9863921017
 40
1.0
 40
1.0
 40
1.0
 40
1.0
 10
14.6444116242
 20
10.5866018519
 30
0.0
 10
14.6444116242
 20
10.598164502
 30
0.0
 10
14.6442991816
 20
10.621165912
 30
0.0
 10
14.6437877875
 20
10.6554630935
 30
0.0
 10
14.6429350891
 20
10.6893371178
 30
0.0
 10
14.6417423001
 20
10.7227418026
 30
0.0
 10
14.6402110643
 20
10.7556326866
 30
0.0
 10
14.6383434304
 20
10.7879654824
 30
0.0
 10
14.6361419238
 20
10.8196966744
 30
0.0
 10
14.6336095684
 20
10.850783645
 30
0.0
 10
14.630749775
 20
10.8811846101
 30
0.0
 10
14.6275664051
 20
10.9108587136
 30
0.0
 10
14.6240638163
 20
10.9397660944
 30
0.0
 10
14.6202467264
 20
10.967867924
 30
0.0
 10
14.6161203024
 20
10.9951264696
 30
0.0
 10
14.6116901794
 20
11.0215051512
 30
0.0
 10
14.6069623229
 20
11.0469685792
 30
0.0
 10
14.6019431441
 20
11.0714826208
 30
0.0
 10
14.5966394825
 20
11.0950144489
 30
0.0
 10
14.5910584696
 20
11.1175325796
 30
0.0
 10
14.5852076721
 20
11.1390069215
 30
0.0
 10
14.5790950224
 20
11.1594089149
 30
0.0
 10
14.5727287009
 20
11.1787112191
 30
0.0
 10
14.5671486369
 20
11.1940532324
 30
0.0
 10
14.5625545008
 20
11.2057478168
 30
0.0
 10
14.5590959606
 20
11.2141129827
 30
0.0
 10
14.5555804957
 20
11.2221845579
 30
0.0
 10
14.5520093099
 20
11.2299598876
 30
0.0
 10
14.5483835935
 20
11.2374363753
 30
0.0
 10
14.5447044951
 20
11.2446115048
 30
0.0
 10
14.5409732898
 20
11.2514829187
 30
0.0
 10
14.5371912078
 20
11.2580483378
 30
0.0
 10
14.533359429
 20
11.2643055464
 30
0.0
 10
14.5294792596
 20
11.2702525043
 30
0.0
 10
14.5255519623
 20
11.2758872492
 30
0.0
 10
14.5215787335
 20
11.2812078642
 30
0.0
 10
14.5175608898
 20
11.2862126222
 30
0.0
 10
14.5134997195
 20
11.2908998638
 30
0.0
 10
14.5093963861
 20
11.2952679756
 30
0.0
 10
14.505252329
 20
11.2993154317
 30
0.0
 10
14.5010684001
 20
11.3030411541
 30
0.0
 10
14.4955262719
 20
11.3075072743
 30
0.0
 10
14.4911829814
 20
11.3104831612
 30
0.0
 10
14.4882275068
 20
11.312254046
 30
0.0
  0
SPLINE
  5
35B
100
AcDbEntity
  8
0
100
AcDbSpline
 62
7
  6
CONTINUOUS
 70
0
 71
3
 72
54
 73
50
 74
0
 42
0.0000001
 43
0.0000001
 44
0.0000000001
 40
0.0
 40
0.0
 40
0.0
 40
0.0
 40
0.0398702647
 40
0.0801836316
 40
0.1208317036
 40
0.1617055163
 40
0.2026949808
 40
0.2436897633
 40
0.2845794561
 40
0.3252540296
 40
0.3656041847
 40
0.4055217403
 40
0.4449000119
 40
0.4836341976
 40
0.5216217689
 40
0.5587628687
 40
0.5949607214
 40
0.6301220586
 40
0.664157568
 40
0.6807266428
 40
0.6969828224
 40
0.7129162693
 40
0.7285175168
 40
0.7437774278
 40
0.7586873039
 40
0.773238797
 40
0.7874240723
 40
0.8012356778
 40
0.8146667568
 40
0.8277108874
 40
0.8403623345
 40
0.8526158776
 40
0.8644670891
 40
0.8759121762
 40
0.8869482696
 40
0.8975733078
 40
0.9077863271
 40
0.9175874177
 40
0.9269780126
 40
0.9359609459
 40
0.944540749
 40
0.9527238432
 40
0.9605188623
 40
0.9679370057
 40
0.9749924109
 40
0.9817026706
 40
0.9880892505
 40
0.9941780985
 40
1.0
 40
1.0
 40
1.0
 40
1.0
 10
14.6444116242
 20
10.5866018519
 30
0.0
 10
14.6444116242
 20
10.5695087007
 30
0.0
 10
14.6441633539
 20
10.5351319629
 30
0.0
 10
14.6430644679
 20
10.4833391701
 30
0.0
 10
14.6412397868
 20
10.4311362889
 30
0.0
 10
14.6386945439
 20
10.3786734337
 30
0.0
 10
14.6354360059
 20
10.3261011256
 30
0.0
 10
14.6314735335
 20
10.2735703592
 30
0.0
 10
14.6268185042
 20
10.221231948
 30
0.0
 10
14.6214843058
 20
10.1692361714
 30
0.0
 10
14.6154862857
 20
10.1177323122
 30
0.0
 10
14.6088417125
 20
10.0668682346
 30
0.0
 10
14.6015697251
 20
10.0167899531
 30
0.0
 10
14.593691279
 20
9.9676412119
 30
0.0
 10
14.5852290877
 20
9.9195630623
 30
0.0
 10
14.5762075562
 20
9.8726934706
 30
0.0
 10
14.5666527203
 20
9.8271668468
 30
0.0
 10
14.5565921454
 20
9.7831138951
 30
0.0
 10
14.547733902
 20
9.7474247292
 30
0.0
 10
14.5404060036
 20
9.7197122729
 30
0.0
 10
14.534851126
 20
9.6995596283
 30
0.0
 10
14.5291922034
 20
9.6798673099
 30
0.0
 10
14.5234333198
 20
9.6606494268
 30
0.0
 10
14.5175785752
 20
9.6419197742
 30
0.0
 10
14.5116322424
 20
9.6236917764
 30
0.0
 10
14.5055985255
 20
9.6059785123
 30
0.0
 10
14.4994818508
 20
9.5887926664
 30
0.0
 10
14.4932865217
 20
9.5721465664
 30
0.0
 10
14.4870170988
 20
9.5560521162
 30
0.0
 10
14.4806779767
 20
9.540520856
 30
0.0
 10
14.4742738284
 20
9.5255638712
 30
0.0
 10
14.4678091325
 20
9.5111918774
 30
0.0
 10
14.4612886482
 20
9.4974151065
 30
0.0
 10
14.4547169297
 20
9.4842434132
 30
0.0
 10
14.4480987919
 20
9.4716861428
 30
0.0
 10
14.4414388527
 20
9.4597522533
 30
0.0
 10
14.4347419462
 20
9.4484501744
 30
0.0
 10
14.4280127341
 20
9.4377879322
 30
0.0
 10
14.4212560246
 20
9.4277730183
 30
0.0
 10
14.4144764891
 20
9.4184124967
 30
0.0
 10
14.4076788511
 20
9.4097129128
 30
0.0
 10
14.4008677379
 20
9.4016803546
 30
0.0
 10
14.3940477098
 20
9.3943204452
 30
0.0
 10
14.3872232781
 20
9.3876383276
 30
0.0
 10
14.3803987419
 20
9.3816387923
 30
0.0
 10
14.3735784776
 20
9.3763261813
 30
0.0
 10
14.3667663195
 20
9.371704603
 30
0.0
 10
14.3599671964
 20
9.3677781127
 30
0.0
 10
14.3553499008
 20
9.365580964
 30
0.0
 10
14.3530508994
 20
9.3646091534
 30
0.0
  0
SPLINE
  5
35C
100
AcDbEntity
  8
0
100
AcDbSpline
 62
7
  6
CONTINUOUS
 70
0
 71
3
 72
72
 73
68
 74
0
 42
0.0000001
 43
0.0000001
 44
0.0000000001
 40
0.0
 40
0.0
 40
0.0
 40
0.0
 40
0.015356485
 40
0.0230190262
 40
0.0306711275
 40
0.0459442341
 40
0.0611797292
 40
0.0763807909
 40
0.0915509089
 40
0.1066938545
 40
0.1218136464
 40
0.1369145157
 40
0.1520008687
 40
0.1670772467
 40
0.1821482835
 40
0.1972186618
 40
0.2122930704
 40
0.2273761608
 40
0.2424725045
 40
0.2575865501
 40
0.2727225823
 40
0.2878846828
 40
0.3030766951
 40
0.3183021914
 40
0.3335644407
 40
0.3488663811
 40
0.3642105966
 40
0.379599298
 40
0.395034307
 40
0.4105170429
 40
0.4260485127
 40
0.441629308
 40
0.4572596047
 40
0.4729391651
 40
0.4886673426
 40
0.50444309
 40
0.5202649737
 40
0.536131189
 40
0.5520395766
 40
0.5679876417
 40
0.5839725762
 40
0.5999912849
 40
0.6160404106
 40
0.6321163611
 40
0.6482153366
 40
0.6643333617
 40
0.6804663167
 40
0.6966099685
 40
0.7127600021
 40
0.7289120537
 40
0.7450617452
 40
0.7612047167
 40
0.777336659
 40
0.7934533452
 40
0.809550665
 40
0.8256246566
 40
0.8416715367
 40
0.8576877295
 40
0.8736698961
 40
0.8896149617
 40
0.9055201471
 40
0.9213829765
 40
0.9372013178
 40
0.9529734403
 40
0.9686977178
 40
0.9843737587
 40
1.0
 40
1.0
 40
1.0
 40
1.0
 10
12.026028381
 20
8.7121971831
 30
0.0
 10
12.0234381366
 20
8.7003671229
 30
0.0
 10
12.019137303
 20
8.682721712
 30
0.0
 10
12.0125773739
 20
8.6594389339
 30
0.0
 10
12.0054855431
 20
8.6363809863
 30
0.0
 10
11.9956134903
 20
8.6079391678
 30
0.0
 10
11.9821718067
 20
8.574477269
 30
0.0
 10
11.9671701466
 20
8.5417738919
 30
0.0
 10
11.9506400476
 20
8.5098980593
 30
0.0
 10
11.9326160773
 20
8.4789164799
 30
0.0
 10
11.9131359655
 20
8.448894165
 30
0.0
 10
11.8922404999
 20
8.4198940762
 30
0.0
 10
11.8699734971
 20
8.3919770069
 30
0.0
 10
11.846381628
 20
8.3652014912
 30
0.0
 10
11.8215143391
 20
8.3396236764
 30
0.0
 10
11.7954237366
 20
8.3152972198
 30
0.0
 10
11.7681645314
 20
8.2922731202
 30
0.0
 10
11.7397939038
 20
8.2705996152
 30
0.0
 10
11.7103713452
 20
8.2503221247
 30
0.0
 10
11.6799585451
 20
8.2314831458
 30
0.0
 10
11.6486192582
 20
8.2141221773
 30
0.0
 10
11.6164192166
 20
8.19827555
 30
0.0
 10
11.5834259435
 20
8.1839764178
 30
0.0
 10
11.5497086083
 20
8.171254701
 30
0.0
 10
11.5153378842
 20
8.1601370288
 30
0.0
 10
11.4803858112
 20
8.1506466651
 30
0.0
 10
11.4449256565
 20
8.1428033948
 30
0.0
 10
11.4090317301
 20
8.1366235751
 30
0.0
 10
11.372779237
 20
8.1321200883
 30
0.0
 10
11.3362441225
 20
8.1293023343
 30
0.0
 10
11.2995029217
 20
8.1281761454
 30
0.0
 10
11.2626325903
 20
8.1287437764
 30
0.0
 10
11.2257103405
 20
8.1310039672
 30
0.0
 10
11.1888134844
 20
8.1349519293
 30
0.0
 10
11.1520192802
 20
8.1405793711
 30
0.0
 10
11.1154047573
 20
8.1478744235
 30
0.0
 10
11.079046558
 20
8.1568217342
 30
0.0
 10
11.0430207841
 20
8.1674025186
 30
0.0
 10
11.0074028426
 20
8.1795945976
 30
0.0
 10
10.9722672904
 20
8.1933724302
 30
0.0
 10
10.9376876473
 20
8.208707099
 30
0.0
 10
10.9037362728
 20
8.2255664601
 30
0.0
 10
10.8704842143
 20
8.2439151973
 30
0.0
 10
10.8380010705
 20
8.2637149067
 30
0.0
 10
10.8063548203
 20
8.2849241274
 30
0.0
 10
10.7756116669
 20
8.3074984208
 30
0.0
 10
10.7458359391
 20
8.3313905238
 30
0.0
 10
10.71708995
 20
8.3565504298
 30
0.0
 10
10.6894338822
 20
8.3829255029
 30
0.0
 10
10.6629256019
 20
8.4104605232
 30
0.0
 10
10.6376205697
 20
8.4390978466
 30
0.0
 10
10.6135717473
 20
8.4687775429
 30
0.0
 10
10.5908294866
 20
8.4994375134
 30
0.0
 10
10.5694414228
 20
8.531013614
 30
0.0
 10
10.549452306
 20
8.5634397461
 30
0.0
 10
10.5309039797
 20
8.5966480493
 30
0.0
 10
10.5138352897
 20
8.6305690342
 30
0.0
 10
10.4982820162
 20
8.6651317296
 30
0.0
 10
10.4842767587
 20
8.7002638074
 30
0.0
 10
10.4718488317
 20
8.7358917308
 30
0.0
 10
10.4610242919
 20
8.7719409366
 30
0.0
 10
10.4518258464
 20
8.8083359699
 30
0.0
 10
10.4442728169
 20
8.8450007113
 30
0.0
 10
10.4383811585
 20
8.881858207
 30
0.0
 10
10.4341629843
 20
8.9188318947
 30
0.0
 10
10.4316275823
 20
8.9558429513
 30
0.0
 10
10.4310615878
 20
8.9805319694
 30
0.0
 10
10.4310615878
 20
8.9928550159
 30
0.0
  0
SPLINE
  5
35D
100
AcDbEntity
  8
0
100
AcDbSpline
 62
7
  6
CONTINUOUS
 70
0
 71
3
 72
52
 73
48
 74
0
 42
0.0000001
 43
0.0000001
 44
0.0000000001
 40
0.0
 40
0.0
 40
0.0
 40
0.0
 40
0.0063158568
 40
0.0126706178
 40
0.0191024266
 40
0.0256479345
 40
0.0323417789
 40
0.0392160908
 40
0.0536138298
 40
0.0611945069
 40
0.0690562056
 40
0.0772172859
 40
0.0856936163
 40
0.094498959
 40
0.1036450353
 40
0.1131417384
 40
0.1229974561
 40
0.1332190303
 40
0.1438120572
 40
0.1547810415
 40
0.1661293353
 40
0.1778594655
 40
0.1899731041
 40
0.2024710934
 40
0.2153537091
 40
0.2286205088
 40
0.2422704818
 40
0.2563021821
 40
0.2707135511
 40
0.3006644045
 40
0.3320995118
 40
0.364988637
 40
0.399296387
 40
0.4349827261
 40
0.4720035166
 40
0.5103109065
 40
0.549853604
 40
0.5905771631
 40
0.632424299
 40
0.6753351168
 40
0.7192472758
 40
0.7640961515
 40
0.8098152405
 40
0.8563361104
 40
0.9035880427
 40
0.9515014724
 40
1.0
 40
1.0
 40
1.0
 40
1.0
 10
14.5196299722
 20
11.3179571082
 30
0.0
 10
14.5212931179
 20
11.3178417727
 30
0.0
 10
14.5246217958
 20
11.3174742762
 30
0.0
 10
14.5295775156
 20
11.3165163583
 30
0.0
 10
14.5345000962
 20
11.3151517549
 30
0.0
 10
14.5393866906
 20
11.3133816525
 30
0.0
 10
14.5442353494
 20
11.3112069728
 30
0.0
 10
14.5507457969
 20
11.3077170484
 30
0.0
 10
14.5570794558
 20
11.3034448612
 30
0.0
 10
14.5632088128
 20
11.2984940462
 30
0.0
 10
14.5678385597
 20
11.294319932
 30
0.0
 10
14.5724188363
 20
11.2897513251
 30
0.0
 10
14.5769485619
 20
11.2847899124
 30
0.0
 10
14.5814258297
 20
11.2794377869
 30
0.0
 10
14.5858490023
 20
11.2736971354
 30
0.0
 10
14.5902164292
 20
11.2675703372
 30
0.0
 10
14.5945263267
 20
11.2610598188
 30
0.0
 10
14.598777068
 20
11.2541682633
 30
0.0
 10
14.6029669676
 20
11.2468984602
 30
0.0
 10
14.6070942834
 20
11.2392533298
 30
0.0
 10
14.6111574391
 20
11.2312360199
 30
0.0
 10
14.6151547393
 20
11.222849772
 30
0.0
 10
14.6190845443
 20
11.2140980034
 30
0.0
 10
14.6229453153
 20
11.2049843105
 30
0.0
 10
14.6267353966
 20
11.195512396
 30
0.0
 10
14.6304532723
 20
11.1856861518
 30
0.0
 10
14.6340974302
 20
11.1755096141
 30
0.0
 10
14.6376663298
 20
11.1649869264
 30
0.0
 10
14.6423832218
 20
11.1503120988
 30
0.0
 10
14.64806671
 20
11.1311255598
 30
0.0
 10
14.6544795229
 20
11.1070782907
 30
0.0
 10
14.6605588919
 20
11.0817604583
 30
0.0
 10
14.6662947101
 20
11.0552137216
 30
0.0
 10
14.6716774479
 20
11.027481587
 30
0.0
 10
14.6766981404
 20
10.9986096349
 30
0.0
 10
14.6813484061
 20
10.9686453344
 30
0.0
 10
14.6856204929
 20
10.9376380039
 30
0.0
 10
14.6895072988
 20
10.9056387166
 30
0.0
 10
14.6930023451
 20
10.8727001943
 30
0.0
 10
14.6960997901
 20
10.8388767161
 30
0.0
 10
14.6987944732
 20
10.804224054
 30
0.0
 10
14.7010819213
 20
10.7687993426
 30
0.0
 10
14.7029583098
 20
10.7326609913
 30
0.0
 10
14.704420477
 20
10.6958687391
 30
0.0
 10
14.7054660456
 20
10.6584828693
 30
0.0
 10
14.7060931667
 20
10.6205656232
 30
0.0
 10
14.7062308822
 20
10.5951163923
 30
0.0
 10
14.7062308822
 20
10.5823146718
 30
0.0
  0
SPLINE
  5
35E
100
AcDbEntity
  8
0
100
AcDbSpline
 62
7
  6
CONTINUOUS
 70
0
 71
3
 72
39
 73
35
 74
0
 42
0.0000001
 43
0.0000001
 44
0.0000000001
 40
0.0
 40
0.0
 40
0.0
 40
0.0
 40
0.0301591263
 40
0.060330288
 40
0.0905566831
 40
0.1208780509
 40
0.1513307272
 40
0.1819453581
 40
0.2127460029
 40
0.2437491901
 40
0.2749634265
 40
0.306389019
 40
0.3380182266
 40
0.3698357044
 40
0.4018192029
 40
0.4339404818
 40
0.4661663969
 40
0.4984601203
 40
0.5307824546
 40
0.5630932072
 40
0.5953525884
 40
0.6275225992
 40
0.6595683758
 40
0.6914594539
 40
0.7231709171
 40
0.7546843892
 40
0.7859888294
 40
0.8170810914
 40
0.8479661965
 40
0.8786573255
 40
0.9091753653
 40
0.9395484802
 40
0.9698102396
 40
1.0
 40
1.0
 40
1.0
 40
1.0
 10
12.9277518481
 20
5.0872714629
 30
0.0
 10
12.925234196
 20
5.0844456416
 30
0.0
 10
12.9198962391
 20
5.0790535051
 30
0.0
 10
12.9110812673
 20
5.0718499625
 30
0.0
 10
12.9015417967
 20
5.0655982683
 30
0.0
 10
12.8913712198
 20
5.0603600009
 30
0.0
 10
12.8806677751
 20
5.056185171
 30
0.0
 10
12.8695350516
 20
5.0531138624
 30
0.0
 10
12.8580806065
 20
5.0511752658
 30
0.0
 10
12.8464149771
 20
5.0503876308
 30
0.0
 10
12.8346505889
 20
5.0507580762
 30
0.0
 10
12.8229006815
 20
5.0522825853
 30
0.0
 10
12.811278234
 20
5.0549460753
 30
0.0
 10
12.7998949014
 20
5.058722572
 30
0.0
 10
12.7888599678
 20
5.0635754781
 30
0.0
 10
12.7782793237
 20
5.0694579346
 30
0.0
 10
12.7682544742
 20
5.0763132739
 30
0.0
 10
12.7588815879
 20
5.0840755612
 30
0.0
 10
12.7502505937
 20
5.0926702205
 30
0.0
 10
12.7424443332
 20
5.102014738
 30
0.0
 10
12.7355377812
 20
5.1120194428
 30
0.0
 10
12.7295973373
 20
5.122588351
 30
0.0
 10
12.7246801969
 20
5.1336200678
 30
0.0
 10
12.7208338057
 20
5.1450087388
 30
0.0
 10
12.7180954028
 20
5.1566450417
 30
0.0
 10
12.716491656
 20
5.168417211
 30
0.0
 10
12.7160383874
 20
5.1802120842
 30
0.0
 10
12.7167404029
 20
5.1919161683
 30
0.0
 10
12.7185913925
 20
5.2034167066
 30
0.0
 10
12.7215740084
 20
5.2146027803
 30
0.0
 10
12.7256598044
 20
5.2253662837
 30
0.0
 10
12.7308100395
 20
5.2356034002
 30
0.0
 10
12.736974083
 20
5.2452138933
 30
0.0
 10
12.7417259871
 20
5.251148456
 30
0.0
 10
12.7442461965
 20
5.2539771476
 30
0.0
  0
SPLINE
  5
35F
100
AcDbEntity
  8
0
100
AcDbSpline
 62
7
  6
CONTINUOUS
 70
0
 71
3
 72
59
 73
55
 74
0
 42
0.0000001
 43
0.0000001
 44
0.0000000001
 40
0.0
 40
0.0
 40
0.0
 40
0.0
 40
0.0425878729
 40
0.0856853553
 40
0.1291506137
 40
0.1728413054
 40
0.2166135205
 40
0.2603232768
 40
0.3038267535
 40
0.3469810261
 40
0.3896446254
 40
0.4316781589
 40
0.4729449202
 40
0.513311513
 40
0.5526484879
 40
0.5908310009
 40
0.627739503
 40
0.6632604756
 40
0.680467301
 40
0.697287872
 40
0.7137100038
 40
0.7297221989
 40
0.7453133954
 40
0.7604733087
 40
0.7751921759
 40
0.7894610975
 40
0.8032718281
 40
0.8166170804
 40
0.8294904082
 40
0.8418864465
 40
0.8538009266
 40
0.8652308429
 40
0.8761746322
 40
0.88663228
 40
0.8966056905
 40
0.9060987718
 40
0.915118017
 40
0.9236726397
 40
0.9317753788
 40
0.9394427745
 40
0.9466961799
 40
0.9535622317
 40
0.9600739392
 40
0.9662712022
 40
0.9722015466
 40
0.9779200875
 40
0.9807202545
 40
0.9834913285
 40
0.9862419396
 40
0.9889809332
 40
0.9917172822
 40
0.9944599825
 40
0.9972179633
 40
1.0
 40
1.0
 40
1.0
 40
1.0
 10
14.5496839318
 20
10.495101922
 30
0.0
 10
14.5496839318
 20
10.4832266207
 30
0.0
 10
14.5494930852
 20
10.4593335227
 30
0.0
 10
14.5486498795
 20
10.4233294154
 30
0.0
 10
14.5472505958
 20
10.3870348263
 30
0.0
 10
14.545300148
 20
10.3505773127
 30
0.0
 10
14.5428053366
 20
10.3140846659
 30
0.0
 10
14.5397749287
 20
10.277684968
 30
0.0
 10
14.5362195633
 20
10.2415059062
 30
0.0
 10
14.5321517469
 20
10.2056744117
 30
0.0
 10
14.5275857948
 20
10.1703161796
 30
0.0
 10
14.5225377883
 20
10.135555234
 30
0.0
 10
14.5170255162
 20
10.1015134865
 30
0.0
 10
14.5110684159
 20
10.0683102983
 30
0.0
 10
14.5046875024
 20
10.0360620729
 30
0.0
 10
14.497905309
 20
10.00488177
 30
0.0
 10
14.4907457664
 20
9.9748787383
 30
0.0
 10
14.4844210766
 20
9.9506953792
 30
0.0
 10
14.4791821213
 20
9.9320229785
 30
0.0
 10
14.475216213
 20
9.9185257274
 30
0.0
 10
14.4711754245
 20
9.90539884
 30
0.0
 10
14.4670633824
 20
9.892653797
 30
0.0
 10
14.4628836089
 20
9.880301777
 30
0.0
 10
14.4586398789
 20
9.868353582
 30
0.0
 10
14.454335828
 20
9.8568196819
 30
0.0
 10
14.4499753285
 20
9.8457101506
 30
0.0
 10
14.4455621339
 20
9.8350347101
 30
0.0
 10
14.4411001838
 20
9.824802669
 30
0.0
 10
14.4365933446
 20
9.8150229594
 30
0.0
 10
14.4320455935
 20
9.8057040909
 30
0.0
 10
14.4274608985
 20
9.7968541631
 30
0.0
 10
14.4228432429
 20
9.7884808564
 30
0.0
 10
14.4181966738
 20
9.7805913954
 30
0.0
 10
14.4135251435
 20
9.7731926055
 30
0.0
 10
14.4088327393
 20
9.7662907979
 30
0.0
 10
14.4041233342
 20
9.7598919262
 30
0.0
 10
14.3994009879
 20
9.7540013656
 30
0.0
 10
14.3946694287
 20
9.7486242066
 30
0.0
 10
14.3899325846
 20
9.7437649127
 30
0.0
 10
14.3851939582
 20
9.739427785
 30
0.0
 10
14.3804572295
 20
9.7356165172
 30
0.0
 10
14.3757256366
 20
9.732334835
 30
0.0
 10
14.3710026544
 20
9.7295860047
 30
0.0
 10
14.3662914003
 20
9.7273735468
 30
0.0
 10
14.3615960343
 20
9.7257007199
 30
0.0
 10
14.3576711626
 20
9.7247525555
 30
0.0
 10
14.3545581716
 20
9.7242742977
 30
0.0
 10
14.3522468618
 20
9.724053589
 30
0.0
 10
14.3499436895
 20
9.7239686309
 30
0.0
 10
14.3476491636
 20
9.7240194815
 30
0.0
 10
14.3453638933
 20
9.7242060975
 30
0.0
 10
14.3430884247
 20
9.7245284158
 30
0.0
 10
14.3408234227
 20
9.7249863223
 30
0.0
 10
14.3393285706
 20
9.7253798784
 30
0.0
 10
14.3385842549
 20
9.7255984682
 30
0.0
  0
SPLINE
  5
360
100
AcDbEntity
  8
0
100
AcDbSpline
 62
7
  6
CONTINUOUS
 70
0
 71
3
 72
44
 73
40
 74
0
 42
0.0000001
 43
0.0000001
 44
0.0000000001
 40
0.0
 40
0.0
 40
0.0
 40
0.0
 40
0.015166805
 40
0.0303618835
 40
0.0455856256
 40
0.0608383248
 40
0.0914284179
 40
0.1221357166
 40
0.1375345482
 40
0.1529622489
 40
0.1839000514
 40
0.2149483963
 40
0.2461023918
 40
0.2773559157
 40
0.3087016987
 40
0.3401314168
 40
0.3716357946
 40
0.4032047167
 40
0.4348273453
 40
0.466492246
 40
0.4981875162
 40
0.5299009188
 40
0.5616200173
 40
0.5933323123
 40
0.6250253796
 40
0.6566870062
 40
0.688305326
 40
0.7198689521
 40
0.7513671059
 40
0.7827897422
 40
0.8141276632
 40
0.8453726433
 40
0.8609593731
 40
0.8765202576
 40
0.9075590327
 40
0.9384866981
 40
0.9539091558
 40
0.9693032561
 40
1.0
 40
1.0
 40
1.0
 40
1.0
 10
12.0329294307
 20
8.9051634686
 30
0.0
 10
12.0268164048
 20
8.9043778634
 30
0.0
 10
12.0145560557
 20
8.9029778463
 30
0.0
 10
11.9960970657
 20
8.9013940875
 30
0.0
 10
11.9775658531
 20
8.9003257494
 30
0.0
 10
11.9527586519
 20
8.8995888622
 30
0.0
 10
11.9216364127
 20
8.8999631792
 30
0.0
 10
11.8905233024
 20
8.9020567245
 30
0.0
 10
11.8656614679
 20
8.9047573031
 30
0.0
 10
11.8407896946
 20
8.9081471117
 30
0.0
 10
11.8098020329
 20
8.9136656407
 30
0.0
 10
11.7729337698
 20
8.9223048161
 30
0.0
 10
11.7364572623
 20
8.9329410705
 30
0.0
 10
11.7004841965
 20
8.9455418299
 30
0.0
 10
11.6651238209
 20
8.9600686806
 30
0.0
 10
11.6304837525
 20
8.9764773297
 30
0.0
 10
11.5966693464
 20
8.9947177826
 30
0.0
 10
11.5637834609
 20
9.0147344836
 30
0.0
 10
11.5319261232
 20
9.0364664854
 30
0.0
 10
11.5011942285
 20
9.0598476279
 30
0.0
 10
11.4716812506
 20
9.0848067482
 30
0.0
 10
11.4434769598
 20
9.111267895
 30
0.0
 10
11.4166671512
 20
9.1391505587
 30
0.0
 10
11.3913333864
 20
9.1683699147
 30
0.0
 10
11.3675527462
 20
9.1988370794
 30
0.0
 10
11.3453975979
 20
9.2304593806
 30
0.0
 10
11.3249353767
 20
9.2631406309
 30
0.0
 10
11.3062283788
 20
9.2967814407
 30
0.0
 10
11.289333581
 20
9.3312794354
 30
0.0
 10
11.2743024065
 20
9.3665298583
 30
0.0
 10
11.2611808107
 20
9.4024248104
 30
0.0
 10
11.2518628116
 20
9.4328100137
 30
0.0
 10
11.2454027453
 20
9.4573302421
 30
0.0
 10
11.239618909
 20
9.4819326882
 30
0.0
 10
11.2336428442
 20
9.5128817097
 30
0.0
 10
11.2293526174
 20
9.5440525135
 30
0.0
 10
11.226948098
 20
9.5690307653
 30
0.0
 10
11.2252322739
 20
9.5939710093
 30
0.0
 10
11.2247141187
 20
9.6127061016
 30
0.0
 10
11.2247141187
 20
9.6251802668
 30
0.0
  0
SPLINE
  5
361
100
AcDbEntity
  8
0
100
AcDbSpline
 62
7
  6
CONTINUOUS
 70
0
 71
3
 72
28
 73
24
 74
0
 42
0.0000001
 43
0.0000001
 44
0.0000000001
 40
0.0
 40
0.0
 40
0.0
 40
0.0
 40
0.066509392
 40
0.1339102665
 40
0.2018945734
 40
0.2701492569
 40
0.3383605162
 40
0.4062145162
 40
0.4733995946
 40
0.5396079962
 40
0.6045377558
 40
0.6678945721
 40
0.7293937314
 40
0.7593612926
 40
0.7887630955
 40
0.8175670928
 40
0.8457423435
 40
0.8732589006
 40
0.9000880014
 40
0.9262021409
 40
0.951575076
 40
0.9761821269
 40
1.0
 40
1.0
 40
1.0
 40
1.0
 10
14.3332447527
 20
10.4980377166
 30
0.0
 10
14.3332447527
 20
10.4850039815
 30
0.0
 10
14.3329967064
 20
10.4587612125
 30
0.0
 10
14.3319044637
 20
10.4192093396
 30
0.0
 10
14.3300942946
 20
10.3793413462
 30
0.0
 10
14.327574988
 20
10.3393528143
 30
0.0
 10
14.3243589099
 20
10.2994398851
 30
0.0
 10
14.3204618438
 20
10.2597982687
 30
0.0
 10
14.3159029696
 20
10.2206223536
 30
0.0
 10
14.3107047416
 20
10.182104228
 30
0.0
 10
14.3048928053
 20
10.1444326675
 30
0.0
 10
14.2984958189
 20
10.1077924407
 30
0.0
 10
14.2926547226
 20
10.078016842
 30
0.0
 10
14.2877037832
 20
10.0548531916
 30
0.0
 10
14.2838967012
 20
10.037998199
 30
0.0
 10
14.279968447
 20
10.0215319103
 30
0.0
 10
14.2759238791
 20
10.0054744948
 30
0.0
 10
14.2717679496
 20
9.9898456436
 30
0.0
 10
14.2675057787
 20
9.974664507
 30
0.0
 10
14.2631426317
 20
9.9599496889
 30
0.0
 10
14.2586838297
 20
9.945719196
 30
0.0
 10
14.254134948
 20
9.9319905061
 30
0.0
 10
14.250993816
 20
9.9230350452
 30
0.0
 10
14.2494073726
 20
9.9186453742
 30
0.0
  0
SPLINE
  5
362
100
AcDbEntity
  8
0
100
AcDbSpline
 62
7
  6
CONTINUOUS
 70
0
 71
3
 72
37
 73
33
 74
0
 42
0.0000001
 43
0.0000001
 44
0.0000000001
 40
0.0
 40
0.0
 40
0.0
 40
0.0
 40
0.030746918
 40
0.0615815023
 40
0.0925011026
 40
0.1235024444
 40
0.1545816684
 40
0.1857343632
 40
0.2169555911
 40
0.2482399297
 40
0.2795815213
 40
0.3109741067
 40
0.3424110691
 40
0.3738854909
 40
0.4053901977
 40
0.436917802
 40
0.4999984781
 40
0.5630792119
 40
0.5946068887
 40
0.6261116954
 40
0.6575862445
 40
0.6890233615
 40
0.7204161266
 40
0.7517579215
 40
0.7830424876
 40
0.8142639635
 40
0.8454169239
 40
0.8764964393
 40
0.9074980723
 40
0.9384179765
 40
0.9692529811
 40
1.0
 40
1.0
 40
1.0
 40
1.0
 10
12.0042252656
 20
9.0817024329
 30
0.0
 10
11.9948806005
 20
9.0830335535
 30
0.0
 10
11.9762193593
 20
9.0861012028
 30
0.0
 10
11.9484119103
 20
9.091896926
 30
0.0
 10
11.9207983613
 20
9.0988830974
 30
0.0
 10
11.8934314525
 20
9.1070463576
 30
0.0
 10
11.8663625849
 20
9.11637126
 30
0.0
 10
11.8396428577
 20
9.1268402348
 30
0.0
 10
11.8133226522
 20
9.1384335543
 30
0.0
 10
11.7874515601
 20
9.1511292557
 30
0.0
 10
11.762078351
 20
9.1649033931
 30
0.0
 10
11.7372509085
 20
9.1797300437
 30
0.0
 10
11.7130159755
 20
9.1955812046
 30
0.0
 10
11.689419326
 20
9.2124268458
 30
0.0
 10
11.666505082
 20
9.2302356538
 30
0.0
 10
11.6369192767
 20
9.2552206849
 30
0.0
 10
11.6018608377
 20
9.288684214
 30
0.0
 10
11.5696267992
 20
9.3248763508
 30
0.0
 10
11.5456773509
 20
9.3553066164
 30
0.0
 10
11.5286696777
 20
9.3788217309
 30
0.0
 10
11.5126481047
 20
9.4029856185
 30
0.0
 10
11.4976424218
 20
9.4277531168
 30
0.0
 10
11.4836810834
 20
9.4530774538
 30
0.0
 10
11.4707904328
 20
9.4789109306
 30
0.0
 10
11.4589947269
 20
9.5052047999
 30
0.0
 10
11.4483162354
 20
9.5319095034
 30
0.0
 10
11.4387751949
 20
9.5589747203
 30
0.0
 10
11.4303895598
 20
9.5863494058
 30
0.0
 10
11.4231751399
 20
9.6139818902
 30
0.0
 10
11.4171456096
 20
9.6418203028
 30
0.0
 10
11.4123125314
 20
9.6698113787
 30
0.0
 10
11.409890347
 20
9.6885674827
 30
0.0
 10
11.4088823304
 20
9.6979525312
 30
0.0
  0
SPLINE
  5
363
100
AcDbEntity
  8
0
100
AcDbSpline
 62
7
  6
CONTINUOUS
 70
0
 71
3
 72
15
 73
11
 74
0
 42
0.0000001
 43
0.0000001
 44
0.0000000001
 40
0.0
 40
0.0
 40
0.0
 40
0.0
 40
0.1235985365
 40
0.2489286584
 40
0.3753310688
 40
0.5021354778
 40
0.6286707889
 40
0.7542671128
 40
0.8782610418
 40
1.0
 40
1.0
 40
1.0
 40
1.0
 10
14.2549370141
 20
10.486336254
 30
0.0
 10
14.2549370141
 20
10.47390604
 30
0.0
 10
14.2546830459
 20
10.448870818
 30
0.0
 10
14.2535665377
 20
10.4111383714
 30
0.0
 10
14.2517173824
 20
10.3731118281
 30
0.0
 10
14.2491459147
 20
10.3350058729
 30
0.0
 10
14.245866675
 20
10.2970356469
 30
0.0
 10
14.241898197
 20
10.2594153681
 30
0.0
 10
14.2372630093
 20
10.2223575629
 30
0.0
 10
14.2337071107
 20
10.1978994922
 30
0.0
 10
14.2318181955
 20
10.1858028858
 30
0.0
  0
SPLINE
  5
364
100
AcDbEntity
  8
0
100
AcDbSpline
 62
7
  6
CONTINUOUS
 70
0
 71
3
 72
39
 73
35
 74
0
 42
0.0000001
 43
0.0000001
 44
0.0000000001
 40
0.0
 40
0.0
 40
0.0
 40
0.0
 40
0.0315206499
 40
0.0629611014
 40
0.0943254206
 40
0.1256182265
 40
0.1568446568
 40
0.1880103398
 40
0.2191213576
 40
0.2501841974
 40
0.2812057044
 40
0.3121930389
 40
0.34315362
 40
0.3740950663
 40
0.4050251417
 40
0.4359516997
 40
0.4668826198
 40
0.4978257455
 40
0.5287888287
 40
0.5597794727
 40
0.5908050697
 40
0.6218727455
 40
0.6529893126
 40
0.6841612191
 40
0.7153944967
 40
0.7466947202
 40
0.7780669819
 40
0.8095158436
 40
0.8410452737
 40
0.8726587846
 40
0.9043591251
 40
0.9361481565
 40
0.9680290551
 40
1.0
 40
1.0
 40
1.0
 40
1.0
 10
11.0411307721
 20
9.73279709
 30
0.0
 10
11.0303513493
 20
9.7308371452
 30
0.0
 10
11.0089003462
 20
9.7264636648
 30
0.0
 10
10.9770755907
 20
9.7185420386
 30
0.0
 10
10.9456964098
 20
9.709280788
 30
0.0
 10
10.9148173702
 20
9.6986958708
 30
0.0
 10
10.884491244
 20
9.6868052875
 30
0.0
 10
10.8547700793
 20
9.6736294433
 30
0.0
 10
10.8257048095
 20
9.6591909417
 30
0.0
 10
10.7973453076
 20
9.6435144686
 30
0.0
 10
10.7697402393
 20
9.6266268467
 30
0.0
 10
10.7429369103
 20
9.6085570899
 30
0.0
 10
10.7169812918
 20
9.5893361654
 30
0.0
 10
10.6919179569
 20
9.5689969571
 30
0.0
 10
10.6677898624
 20
9.5475743852
 30
0.0
 10
10.6446383592
 20
9.5251052155
 30
0.0
 10
10.6225031901
 20
9.50162794
 30
0.0
 10
10.6014223397
 20
9.4771828068
 30
0.0
 10
10.5814318918
 20
9.4518117994
 30
0.0
 10
10.5625661217
 20
9.4255584252
 30
0.0
 10
10.5448574382
 20
9.398467668
 30
0.0
 10
10.5283361378
 20
9.3705860343
 30
0.0
 10
10.5130304953
 20
9.3419613613
 30
0.0
 10
10.4989667836
 20
9.3126427117
 30
0.0
 10
10.4861691068
 20
9.2826803638
 30
0.0
 10
10.4746593001
 20
9.2521257308
 30
0.0
 10
10.4644570742
 20
9.2210311942
 30
0.0
 10
10.4555799681
 20
9.1894500519
 30
0.0
 10
10.4480430635
 20
9.1574364603
 30
0.0
 10
10.4418592493
 20
9.1250452841
 30
0.0
 10
10.4370391601
 20
9.0923322033
 30
0.0
 10
10.433590845
 20
9.0593526936
 30
0.0
 10
10.4315204842
 20
9.026164525
 30
0.0
 10
10.4310615878
 20
9.0039676878
 30
0.0
 10
10.4310615878
 20
8.9928550159
 30
0.0
  0
SPLINE
  5
365
100
AcDbEntity
  8
0
100
AcDbSpline
 62
7
  6
CONTINUOUS
 70
0
 71
3
 72
28
 73
24
 74
0
 42
0.0000001
 43
0.0000001
 44
0.0000000001
 40
0.0
 40
0.0
 40
0.0
 40
0.0
 40
0.0637758941
 40
0.0955879065
 40
0.1273462157
 40
0.1907019646
 40
0.2538545302
 40
0.2853587825
 40
0.3168148204
 40
0.379582186
 40
0.4421719279
 40
0.504596336
 40
0.566869323
 40
0.6290062994
 40
0.6910240361
 40
0.7219962863
 40
0.7529455528
 40
0.8147797337
 40
0.8765514554
 40
0.9074228165
 40
0.9382862783
 40
0.9691444605
 40
1.0
 40
1.0
 40
1.0
 40
1.0
 10
10.3738539802
 20
8.963596707
 30
0.0
 10
10.3738539802
 20
8.9768809286
 30
0.0
 10
10.3743313233
 20
8.9967958715
 30
0.0
 10
10.3759282466
 20
9.0232752418
 30
0.0
 10
10.3781592211
 20
9.0496214244
 30
0.0
 10
10.3821378491
 20
9.0823605888
 30
0.0
 10
10.3877053344
 20
9.1148138748
 30
0.0
 10
10.3931017693
 20
9.1405247265
 30
0.0
 10
10.3991134247
 20
9.1660162213
 30
0.0
 10
10.4077904682
 20
9.1975212213
 30
0.0
 10
10.4200485615
 20
9.2346815902
 30
0.0
 10
10.4341169739
 20
9.2710852869
 30
0.0
 10
10.4499632992
 20
9.3066479231
 30
0.0
 10
10.4675507551
 20
9.3412870906
 30
0.0
 10
10.4836322293
 20
9.3693307864
 30
0.0
 10
10.4973236377
 20
9.3912199248
 30
0.0
 10
10.5115486133
 20
9.4127203611
 30
0.0
 10
10.530337712
 20
9.4388800436
 30
0.0
 10
10.5504336638
 20
9.4640291395
 30
0.0
 10
10.5672571247
 20
9.4834947757
 30
0.0
 10
10.5802409685
 20
9.4977595204
 30
0.0
 10
10.5935848154
 20
9.5116831736
 30
0.0
 10
10.6027161814
 20
9.5207332703
 30
0.0
 10
10.6073388754
 20
9.525198454
 30
0.0
  0
SPLINE
  5
366
100
AcDbEntity
  8
0
100
AcDbSpline
 62
7
  6
CONTINUOUS
 70
0
 71
3
 72
52
 73
48
 74
0
 42
0.0000001
 43
0.0000001
 44
0.0000000001
 40
0.0
 40
0.0
 40
0.0
 40
0.0
 40
0.0496803595
 40
0.0987338686
 40
0.147073646
 40
0.1946230578
 40
0.2413040542
 40
0.2870404714
 40
0.331758852
 40
0.3753880081
 40
0.4178593856
 40
0.4591072652
 40
0.4990691736
 40
0.5376860846
 40
0.574902638
 40
0.6106677328
 40
0.6449348634
 40
0.677662494
 40
0.7088149182
 40
0.7383629537
 40
0.7525286871
 40
0.7662858928
 40
0.7796331555
 40
0.792569756
 40
0.8050957782
 40
0.8172119213
 40
0.8289198048
 40
0.8402220844
 40
0.851122314
 40
0.8616253027
 40
0.8717372547
 40
0.8814657051
 40
0.8908199386
 40
0.8998111689
 40
0.9084525665
 40
0.9167597282
 40
0.9247508825
 40
0.9324469777
 40
0.9470455748
 40
0.9540140795
 40
0.960803505
 40
0.9674508683
 40
0.9739958094
 40
0.9804800758
 40
0.9869466875
 40
0.9934390465
 40
1.0
 40
1.0
 40
1.0
 40
1.0
 10
14.5496839318
 20
7.3558428006
 30
0.0
 10
14.5496839318
 20
7.364220292
 30
0.0
 10
14.549590048
 20
7.3808697362
 30
0.0
 10
14.5491623713
 20
7.4056673046
 30
0.0
 10
14.5484493324
 20
7.4300988795
 30
0.0
 10
14.5474522907
 20
7.4541201237
 30
0.0
 10
14.5461730569
 20
7.4776883984
 30
0.0
 10
14.5446139472
 20
7.5007613983
 30
0.0
 10
14.5427777706
 20
7.5232977604
 30
0.0
 10
14.5406678736
 20
7.5452571535
 30
0.0
 10
14.5382880911
 20
7.5666002554
 30
0.0
 10
14.5356426995
 20
7.5872888584
 30
0.0
 10
14.5327365128
 20
7.6072859543
 30
0.0
 10
14.529574814
 20
7.62655579
 30
0.0
 10
14.5261632915
 20
7.6450639276
 30
0.0
 10
14.5225081422
 20
7.6627773398
 30
0.0
 10
14.5186160064
 20
7.6796644457
 30
0.0
 10
14.5144938837
 20
7.6956952397
 30
0.0
 10
14.5101492152
 20
7.7108411074
 30
0.0
 10
14.5062975936
 20
7.7228663287
 30
0.0
 10
14.5031022482
 20
7.732016075
 30
0.0
 10
14.5006887406
 20
7.7385439146
 30
0.0
 10
14.4982255694
 20
7.7448311052
 30
0.0
 10
14.4957137949
 20
7.7508748534
 30
0.0
 10
14.493154596
 20
7.7566724954
 30
0.0
 10
14.4905490611
 20
7.7622214428
 30
0.0
 10
14.4878983313
 20
7.7675192317
 30
0.0
 10
14.4852036296
 20
7.77256355
 30
0.0
 10
14.4824660824
 20
7.7773521475
 30
0.0
 10
14.4796868714
 20
7.781882909
 30
0.0
 10
14.4768672499
 20
7.7861538793
 30
0.0
 10
14.4740083597
 20
7.7901631458
 30
0.0
 10
14.4711113979
 20
7.7939089401
 30
0.0
 10
14.4681776288
 20
7.7973896488
 30
0.0
 10
14.4652081519
 20
7.80060369
 30
0.0
 10
14.4622042715
 20
7.8035495364
 30
0.0
 10
14.4591668416
 20
7.8062261183
 30
0.0
 10
14.4551459646
 20
7.8093776982
 30
0.0
 10
14.4509858865
 20
7.8120640958
 30
0.0
 10
14.4467094731
 20
7.8142116022
 30
0.0
 10
14.4435241931
 20
7.8155223001
 30
0.0
 10
14.440313624
 20
7.8165566239
 30
0.0
 10
14.4370792273
 20
7.817313736
 30
0.0
 10
14.4338228793
 20
7.8177930213
 30
0.0
 10
14.4305463899
 20
7.8179941739
 30
0.0
 10
14.4272519697
 20
7.8179169925
 30
0.0
 10
14.4250604733
 20
7.8176817715
 30
0.0
 10
14.4239660751
 20
7.817519526
 30
0.0
  0
SPLINE
  5
367
100
AcDbEntity
  8
0
100
AcDbSpline
 62
7
  6
CONTINUOUS
 70
0
 71
3
 72
11
 73
7
 74
0
 42
0.0000001
 43
0.0000001
 44
0.0000000001
 40
0.0
 40
0.0
 40
0.0
 40
0.0
 40
0.2602132824
 40
0.5146212413
 40
0.7618202029
 40
1.0
 40
1.0
 40
1.0
 40
1.0
 10
11.0867244159
 20
9.5251767125
 30
0.0
 10
11.0867244159
 20
9.5424095098
 30
0.0
 10
11.0877488837
 20
9.576500582
 30
0.0
 10
11.0924114829
 20
9.6267694315
 30
0.0
 10
11.1000365725
 20
9.6751980441
 30
0.0
 10
11.1070771268
 20
9.7065892422
 30
0.0
 10
11.1110375946
 20
9.7218575633
 30
0.0
  0
SPLINE
  5
368
100
AcDbEntity
  8
0
100
AcDbSpline
 62
7
  6
CONTINUOUS
 70
0
 71
3
 72
52
 73
48
 74
0
 42
0.0000001
 43
0.0000001
 44
0.0000000001
 40
0.0
 40
0.0
 40
0.0
 40
0.0
 40
0.0496803595
 40
0.0987338686
 40
0.147073646
 40
0.1946230578
 40
0.2413040542
 40
0.2870404714
 40
0.331758852
 40
0.3753880081
 40
0.4178593856
 40
0.4591072652
 40
0.4990691736
 40
0.5376860846
 40
0.574902638
 40
0.6106677328
 40
0.6449348634
 40
0.677662494
 40
0.7088149182
 40
0.7383629537
 40
0.7525286871
 40
0.7662858928
 40
0.7796331555
 40
0.792569756
 40
0.8050957782
 40
0.8172119213
 40
0.8289198048
 40
0.8402220844
 40
0.851122314
 40
0.8616253027
 40
0.8717372547
 40
0.8814657051
 40
0.8908199386
 40
0.8998111689
 40
0.9084525665
 40
0.9167597282
 40
0.9247508825
 40
0.9324469777
 40
0.9470455748
 40
0.9540140795
 40
0.960803505
 40
0.9674508683
 40
0.9739958094
 40
0.9804800758
 40
0.9869466875
 40
0.9934390465
 40
1.0
 40
1.0
 40
1.0
 40
1.0
 10
14.5496839318
 20
10.495101922
 30
0.0
 10
14.5496839318
 20
10.5034794134
 30
0.0
 10
14.549590048
 20
10.5201288577
 30
0.0
 10
14.5491623713
 20
10.5449264261
 30
0.0
 10
14.5484493324
 20
10.5693580009
 30
0.0
 10
14.5474522907
 20
10.5933792452
 30
0.0
 10
14.5461730569
 20
10.6169475199
 30
0.0
 10
14.5446139472
 20
10.6400205198
 30
0.0
 10
14.5427777706
 20
10.6625568819
 30
0.0
 10
14.5406678736
 20
10.6845162749
 30
0.0
 10
14.5382880911
 20
10.7058593768
 30
0.0
 10
14.5356426995
 20
10.7265479799
 30
0.0
 10
14.5327365128
 20
10.7465450757
 30
0.0
 10
14.529574814
 20
10.7658149114
 30
0.0
 10
14.5261632915
 20
10.784323049
 30
0.0
 10
14.5225081422
 20
10.8020364612
 30
0.0
 10
14.5186160064
 20
10.8189235671
 30
0.0
 10
14.5144938837
 20
10.8349543611
 30
0.0
 10
14.5101492152
 20
10.8501002288
 30
0.0
 10
14.5062975936
 20
10.8621254501
 30
0.0
 10
14.5031022482
 20
10.8712751965
 30
0.0
 10
14.5006887406
 20
10.8778030361
 30
0.0
 10
14.4982255694
 20
10.8840902266
 30
0.0
 10
14.4957137949
 20
10.8901339748
 30
0.0
 10
14.493154596
 20
10.8959316168
 30
0.0
 10
14.4905490611
 20
10.9014805642
 30
0.0
 10
14.4878983313
 20
10.9067783532
 30
0.0
 10
14.4852036296
 20
10.9118226714
 30
0.0
 10
14.4824660824
 20
10.9166112689
 30
0.0
 10
14.4796868714
 20
10.9211420305
 30
0.0
 10
14.4768672499
 20
10.9254130008
 30
0.0
 10
14.4740083597
 20
10.9294222672
 30
0.0
 10
14.4711113979
 20
10.9331680616
 30
0.0
 10
14.4681776288
 20
10.9366487702
 30
0.0
 10
14.4652081519
 20
10.9398628114
 30
0.0
 10
14.4622042715
 20
10.9428086579
 30
0.0
 10
14.4591668416
 20
10.9454852397
 30
0.0
 10
14.4551459646
 20
10.9486368197
 30
0.0
 10
14.4509858865
 20
10.9513232172
 30
0.0
 10
14.4467094731
 20
10.9534707237
 30
0.0
 10
14.4435241931
 20
10.9547814215
 30
0.0
 10
14.440313624
 20
10.9558157453
 30
0.0
 10
14.4370792273
 20
10.9565728574
 30
0.0
 10
14.4338228793
 20
10.9570521427
 30
0.0
 10
14.4305463899
 20
10.9572532954
 30
0.0
 10
14.4272519697
 20
10.957176114
 30
0.0
 10
14.4250604733
 20
10.956940893
 30
0.0
 10
14.4239660751
 20
10.9567786475
 30
0.0
  0
SPLINE
  5
369
100
AcDbEntity
  8
0
100
AcDbSpline
 62
7
  6
CONTINUOUS
 70
0
 71
3
 72
39
 73
35
 74
0
 42
0.0000001
 43
0.0000001
 44
0.0000000001
 40
0.0
 40
0.0
 40
0.0
 40
0.0
 40
0.0958313223
 40
0.1890999066
 40
0.2792396479
 40
0.3229663115
 40
0.3657099292
 40
0.4074081191
 40
0.4480006754
 40
0.4874302648
 40
0.5256424385
 40
0.5625857699
 40
0.5982125807
 40
0.6324786396
 40
0.665344311
 40
0.6967743203
 40
0.7267388303
 40
0.7552139511
 40
0.7821824427
 40
0.807635341
 40
0.8315726205
 40
0.8540058864
 40
0.8749600023
 40
0.8944766962
 40
0.9126183481
 40
0.9294727137
 40
0.94515911
 40
0.9598336921
 40
0.9668557838
 40
0.973702854
 40
0.9804062715
 40
0.9869997015
 40
0.9935186515
 40
1.0
 40
1.0
 40
1.0
 40
1.0
 10
13.1092079564
 20
11.0591162223
 30
0.0
 10
13.1181677734
 20
11.0584948569
 30
0.0
 10
13.1358349059
 20
11.0570716898
 30
0.0
 10
13.1618663101
 20
11.0543550132
 30
0.0
 10
13.1829791202
 20
11.0516151253
 30
0.0
 10
13.1993467382
 20
11.0491487852
 30
0.0
 10
13.2111985059
 20
11.0471907798
 30
0.0
 10
13.2227308579
 20
11.0451092296
 30
0.0
 10
13.2339245444
 20
11.0429075582
 30
0.0
 10
13.2447608695
 20
11.0405894989
 30
0.0
 10
13.2552217514
 20
11.0381589592
 30
0.0
 10
13.2652897398
 20
11.0356199821
 30
0.0
 10
13.2749480611
 20
11.0329769087
 30
0.0
 10
13.284180628
 20
11.0302340969
 30
0.0
 10
13.2929721023
 20
11.0273962357
 30
0.0
 10
13.3013078893
 20
11.0244680278
 30
0.0
 10
13.3091741954
 20
11.0214543983
 30
0.0
 10
13.3165580527
 20
11.0183603975
 30
0.0
 10
13.3234473197
 20
11.0151910939
 30
0.0
 10
13.3298307853
 20
11.0119517983
 30
0.0
 10
13.3356980754
 20
11.0086476513
 30
0.0
 10
13.3410398251
 20
11.0052839987
 30
0.0
 10
13.3458475294
 20
11.0018659337
 30
0.0
 10
13.3501136236
 20
10.998398441
 30
0.0
 10
13.3538313553
 20
10.9948862945
 30
0.0
 10
13.3569945321
 20
10.9913335151
 30
0.0
 10
13.3595971274
 20
10.9877447289
 30
0.0
 10
13.361318548
 20
10.9846818658
 30
0.0
 10
13.3623916878
 20
10.9822294502
 30
0.0
 10
13.3630414087
 20
10.9804123975
 30
0.0
 10
13.3635472185
 20
10.9785917604
 30
0.0
 10
13.3639088419
 20
10.9767682979
 30
0.0
 10
13.3641259582
 20
10.9749430577
 30
0.0
 10
13.3641742547
 20
10.9737241221
 30
0.0
 10
13.36417426
 20
10.9731166884
 30
0.0
  0
SPLINE
  5
36A
100
AcDbEntity
  8
0
100
AcDbSpline
 62
7
  6
CONTINUOUS
 70
0
 71
3
 72
39
 73
35
 74
0
 42
0.0000001
 43
0.0000001
 44
0.0000000001
 40
0.0
 40
0.0
 40
0.0
 40
0.0
 40
0.0301591263
 40
0.060330288
 40
0.0905566831
 40
0.1208780509
 40
0.1513307272
 40
0.1819453581
 40
0.2127460029
 40
0.2437491901
 40
0.2749634265
 40
0.306389019
 40
0.3380182266
 40
0.3698357044
 40
0.4018192029
 40
0.4339404818
 40
0.4661663969
 40
0.4984601203
 40
0.5307824546
 40
0.5630932072
 40
0.5953525884
 40
0.6275225992
 40
0.6595683758
 40
0.6914594539
 40
0.7231709171
 40
0.7546843892
 40
0.7859888294
 40
0.8170810914
 40
0.8479661965
 40
0.8786573255
 40
0.9091753653
 40
0.9395484802
 40
0.9698102396
 40
1.0
 40
1.0
 40
1.0
 40
1.0
 10
12.7442461965
 20
5.2539771476
 30
0.0
 10
12.7467638487
 20
5.2568029688
 30
0.0
 10
12.7521018055
 20
5.2621951053
 30
0.0
 10
12.7609167773
 20
5.2693986479
 30
0.0
 10
12.7704562479
 20
5.2756503421
 30
0.0
 10
12.7806268249
 20
5.2808886095
 30
0.0
 10
12.7913302696
 20
5.2850634395
 30
0.0
 10
12.802462993
 20
5.2881347481
 30
0.0
 10
12.8139174381
 20
5.2900733446
 30
0.0
 10
12.8255830675
 20
5.2908609796
 30
0.0
 10
12.8373474558
 20
5.2904905342
 30
0.0
 10
12.8490973631
 20
5.2889660251
 30
0.0
 10
12.8607198106
 20
5.2863025352
 30
0.0
 10
12.8721031433
 20
5.2825260384
 30
0.0
 10
12.8831380769
 20
5.2776731323
 30
0.0
 10
12.893718721
 20
5.2717906758
 30
0.0
 10
12.9037435704
 20
5.2649353365
 30
0.0
 10
12.9131164567
 20
5.2571730492
 30
0.0
 10
12.9217474509
 20
5.24857839
 30
0.0
 10
12.9295537114
 20
5.2392338725
 30
0.0
 10
12.9364602634
 20
5.2292291676
 30
0.0
 10
12.9424007073
 20
5.2186602594
 30
0.0
 10
12.9473178477
 20
5.2076285426
 30
0.0
 10
12.9511642389
 20
5.1962398717
 30
0.0
 10
12.9539026418
 20
5.1846035687
 30
0.0
 10
12.9555063886
 20
5.1728313994
 30
0.0
 10
12.9559596572
 20
5.1610365262
 30
0.0
 10
12.9552576418
 20
5.1493324422
 30
0.0
 10
12.9534066521
 20
5.1378319039
 30
0.0
 10
12.9504240363
 20
5.1266458301
 30
0.0
 10
12.9463382402
 20
5.1158823267
 30
0.0
 10
12.9411880052
 20
5.1056452102
 30
0.0
 10
12.9350239616
 20
5.0960347171
 30
0.0
 10
12.9302720576
 20
5.0901001544
 30
0.0
 10
12.9277518481
 20
5.0872714629
 30
0.0
  0
SPLINE
  5
36B
100
AcDbEntity
  8
0
100
AcDbSpline
 62
7
  6
CONTINUOUS
 70
0
 71
3
 72
20
 73
16
 74
0
 42
0.0000001
 43
0.0000001
 44
0.0000000001
 40
0.0
 40
0.0
 40
0.0
 40
0.0
 40
0.141117015
 40
0.2788760764
 40
0.4126167478
 40
0.4777806329
 40
0.5417033797
 40
0.6043106124
 40
0.6655299071
 40
0.7252916989
 40
0.7835289453
 40
0.8401775617
 40
0.8951767134
 40
0.9484687312
 40
1.0
 40
1.0
 40
1.0
 40
1.0
 10
14.3332447527
 20
10.4980377166
 30
0.0
 10
14.3332447527
 20
10.5112646785
 30
0.0
 10
14.3329940846
 20
10.5374046852
 30
0.0
 10
14.3318418691
 20
10.5760648226
 30
0.0
 10
14.330229977
 20
10.6075821169
 30
0.0
 10
14.3285483826
 20
10.6321600525
 30
0.0
 10
14.3271099626
 20
10.6500703878
 30
0.0
 10
14.3254854688
 20
10.6675935327
 30
0.0
 10
14.3236769519
 20
10.6847065482
 30
0.0
 10
14.3216868666
 20
10.7013869999
 30
0.0
 10
14.3195178108
 20
10.717613045
 30
0.0
 10
14.3171726514
 20
10.7333634305
 30
0.0
 10
14.3146545197
 20
10.7486175588
 30
0.0
 10
14.3119666903
 20
10.7633553984
 30
0.0
 10
14.3100309389
 20
10.772988641
 30
0.0
 10
14.3090331516
 20
10.7777145056
 30
0.0
  0
SPLINE
  5
36C
100
AcDbEntity
  8
0
100
AcDbSpline
 62
7
  6
CONTINUOUS
 70
0
 71
3
 72
59
 73
55
 74
0
 42
0.0000001
 43
0.0000001
 44
0.0000000001
 40
0.0
 40
0.0
 40
0.0
 40
0.0
 40
0.0417736767
 40
0.0840362765
 40
0.1266574811
 40
0.1695051262
 40
0.2124463914
 40
0.2553479967
 40
0.2980768488
 40
0.3405005256
 40
0.3824878146
 40
0.4239092383
 40
0.464637589
 40
0.5045484688
 40
0.5435208413
 40
0.5814375992
 40
0.6181861539
 40
0.6360888024
 40
0.6536595531
 40
0.6708859017
 40
0.6877557363
 40
0.7042573867
 40
0.720379648
 40
0.7361117919
 40
0.7514436399
 40
0.7663655339
 40
0.7808684645
 40
0.7949440033
 40
0.8085844873
 40
0.8217829218
 40
0.83453322
 40
0.8468300923
 40
0.8586693371
 40
0.8700477415
 40
0.8809634199
 40
0.8914157604
 40
0.9014058112
 40
0.9109363168
 40
0.9200121632
 40
0.9286405545
 40
0.9368315416
 40
0.9445983908
 40
0.9519582219
 40
0.9589325919
 40
0.9655482195
 40
0.9718376843
 40
0.9778400275
 40
0.9836011664
 40
0.9864084736
 40
0.9891757902
 40
0.9919106587
 40
0.9946209114
 40
0.9973146138
 40
1.0
 40
1.0
 40
1.0
 40
1.0
 10
14.7062308822
 20
7.4430555504
 30
0.0
 10
14.7062308822
 20
7.4246981775
 30
0.0
 10
14.7059444877
 20
7.3877679982
 30
0.0
 10
14.7046783897
 20
7.3321210479
 30
0.0
 10
14.7025769779
 20
7.2760270022
 30
0.0
 10
14.6996471411
 20
7.2196715465
 30
0.0
 10
14.6958985612
 20
7.1632411331
 30
0.0
 10
14.6913436286
 20
7.1069224478
 30
0.0
 10
14.6859974326
 20
7.0509018179
 30
0.0
 10
14.6798776954
 20
6.9953645722
 30
0.0
 10
14.6730047214
 20
6.9404944312
 30
0.0
 10
14.6654013274
 20
6.8864728932
 30
0.0
 10
14.6570927702
 20
6.8334786231
 30
0.0
 10
14.6481066621
 20
6.781686875
 30
0.0
 10
14.6384728894
 20
6.7312688277
 30
0.0
 10
14.6282234856
 20
6.6823912806
 30
0.0
 10
14.619120473
 20
6.642741082
 30
0.0
 10
14.6115446346
 20
6.6119202012
 30
0.0
 10
14.6057799112
 20
6.5894898631
 30
0.0
 10
14.5998877963
 20
6.5675622799
 30
0.0
 10
14.5938731333
 20
6.5461555659
 30
0.0
 10
14.5877409221
 20
6.5252874225
 30
0.0
 10
14.581496253
 20
6.504975097
 30
0.0
 10
14.5751442857
 20
6.4852353759
 30
0.0
 10
14.5686903198
 20
6.4660845628
 30
0.0
 10
14.5621396618
 20
6.4475384773
 30
0.0
 10
14.5554978008
 20
6.4296124196
 30
0.0
 10
14.5487701713
 20
6.4123211885
 30
0.0
 10
14.5419624305
 20
6.395679024
 30
0.0
 10
14.5350801218
 20
6.3796996524
 30
0.0
 10
14.528129044
 20
6.3643961986
 30
0.0
 10
14.5211148294
 20
6.349781266
 30
0.0
 10
14.5140433847
 20
6.3358668122
 30
0.0
 10
14.5069204077
 20
6.3226642683
 30
0.0
 10
14.4997518684
 20
6.3101843761
 30
0.0
 10
14.4925434985
 20
6.2984373467
 30
0.0
 10
14.4853012702
 20
6.2874326649
 30
0.0
 10
14.4780308995
 20
6.2771792816
 30
0.0
 10
14.4707382748
 20
6.2676854013
 30
0.0
 10
14.4634290161
 20
6.2589586986
 30
0.0
 10
14.4561088088
 20
6.2510061229
 30
0.0
 10
14.4487830598
 20
6.2438341238
 30
0.0
 10
14.4414571156
 20
6.2374485376
 30
0.0
 10
14.4341360528
 20
6.2318547965
 30
0.0
 10
14.4268248848
 20
6.2270579905
 30
0.0
 10
14.4195283282
 20
6.2230629618
 30
0.0
 10
14.4122520291
 20
6.2198746763
 30
0.0
 10
14.4061561618
 20
6.2178767119
 30
0.0
 10
14.4013134919
 20
6.2167004534
 30
0.0
 10
14.3977222839
 20
6.2160289959
 30
0.0
 10
14.3941419627
 20
6.2155610526
 30
0.0
 10
14.390573211
 20
6.2152967438
 30
0.0
 10
14.3870170343
 20
6.2152362317
 30
0.0
 10
14.3846535928
 20
6.2153318504
 30
0.0
 10
14.3834763317
 20
6.2154134909
 30
0.0
  0
SPLINE
  5
36D
100
AcDbEntity
  8
0
100
AcDbSpline
 62
7
  6
CONTINUOUS
 70
0
 71
3
 72
59
 73
55
 74
0
 42
0.0000001
 43
0.0000001
 44
0.0000000001
 40
0.0
 40
0.0
 40
0.0
 40
0.0
 40
0.0417736767
 40
0.0840362765
 40
0.1266574811
 40
0.1695051262
 40
0.2124463914
 40
0.2553479967
 40
0.2980768488
 40
0.3405005256
 40
0.3824878146
 40
0.4239092383
 40
0.464637589
 40
0.5045484688
 40
0.5435208413
 40
0.5814375992
 40
0.6181861539
 40
0.6360888024
 40
0.6536595531
 40
0.6708859017
 40
0.6877557363
 40
0.7042573867
 40
0.720379648
 40
0.7361117919
 40
0.7514436399
 40
0.7663655339
 40
0.7808684645
 40
0.7949440033
 40
0.8085844873
 40
0.8217829218
 40
0.83453322
 40
0.8468300923
 40
0.8586693371
 40
0.8700477415
 40
0.8809634199
 40
0.8914157604
 40
0.9014058112
 40
0.9109363168
 40
0.9200121632
 40
0.9286405545
 40
0.9368315416
 40
0.9445983908
 40
0.9519582219
 40
0.9589325919
 40
0.9655482195
 40
0.9718376843
 40
0.9778400275
 40
0.9836011664
 40
0.9864084736
 40
0.9891757902
 40
0.9919106587
 40
0.9946209114
 40
0.9973146138
 40
1.0
 40
1.0
 40
1.0
 40
1.0
 10
14.7062308822
 20
10.5823146718
 30
0.0
 10
14.7062308822
 20
10.5639572989
 30
0.0
 10
14.7059444877
 20
10.5270271197
 30
0.0
 10
14.7046783897
 20
10.4713801693
 30
0.0
 10
14.7025769779
 20
10.4152861236
 30
0.0
 10
14.6996471411
 20
10.3589306679
 30
0.0
 10
14.6958985612
 20
10.3025002546
 30
0.0
 10
14.6913436286
 20
10.2461815693
 30
0.0
 10
14.6859974326
 20
10.1901609393
 30
0.0
 10
14.6798776954
 20
10.1346236936
 30
0.0
 10
14.6730047214
 20
10.0797535526
 30
0.0
 10
14.6654013274
 20
10.0257320146
 30
0.0
 10
14.6570927702
 20
9.9727377445
 30
0.0
 10
14.6481066621
 20
9.9209459965
 30
0.0
 10
14.6384728894
 20
9.8705279492
 30
0.0
 10
14.6282234856
 20
9.8216504021
 30
0.0
 10
14.619120473
 20
9.7820002034
 30
0.0
 10
14.6115446346
 20
9.7511793226
 30
0.0
 10
14.6057799112
 20
9.7287489846
 30
0.0
 10
14.5998877963
 20
9.7068214013
 30
0.0
 10
14.5938731333
 20
9.6854146874
 30
0.0
 10
14.5877409221
 20
9.664546544
 30
0.0
 10
14.581496253
 20
9.6442342184
 30
0.0
 10
14.5751442857
 20
9.6244944973
 30
0.0
 10
14.5686903198
 20
9.6053436842
 30
0.0
 10
14.5621396618
 20
9.5867975988
 30
0.0
 10
14.5554978008
 20
9.568871541
 30
0.0
 10
14.5487701713
 20
9.55158031
 30
0.0
 10
14.5419624305
 20
9.5349381455
 30
0.0
 10
14.5350801218
 20
9.5189587739
 30
0.0
 10
14.528129044
 20
9.50365532
 30
0.0
 10
14.5211148294
 20
9.4890403874
 30
0.0
 10
14.5140433847
 20
9.4751259336
 30
0.0
 10
14.5069204077
 20
9.4619233898
 30
0.0
 10
14.4997518684
 20
9.4494434975
 30
0.0
 10
14.4925434985
 20
9.4376964682
 30
0.0
 10
14.4853012702
 20
9.4266917863
 30
0.0
 10
14.4780308995
 20
9.416438403
 30
0.0
 10
14.4707382748
 20
9.4069445228
 30
0.0
 10
14.4634290161
 20
9.39821782
 30
0.0
 10
14.4561088088
 20
9.3902652444
 30
0.0
 10
14.4487830598
 20
9.3830932453
 30
0.0
 10
14.4414571156
 20
9.376707659
 30
0.0
 10
14.4341360528
 20
9.3711139179
 30
0.0
 10
14.4268248848
 20
9.366317112
 30
0.0
 10
14.4195283282
 20
9.3623220833
 30
0.0
 10
14.4122520291
 20
9.3591337977
 30
0.0
 10
14.4061561618
 20
9.3571358334
 30
0.0
 10
14.4013134919
 20
9.3559595748
 30
0.0
 10
14.3977222839
 20
9.3552881174
 30
0.0
 10
14.3941419627
 20
9.3548201741
 30
0.0
 10
14.390573211
 20
9.3545558652
 30
0.0
 10
14.3870170343
 20
9.3544953531
 30
0.0
 10
14.3846535928
 20
9.3545909719
 30
0.0
 10
14.3834763317
 20
9.3546726123
 30
0.0
  0
SPLINE
  5
36E
100
AcDbEntity
  8
0
100
AcDbSpline
 62
7
  6
CONTINUOUS
 70
0
 71
3
 72
23
 73
19
 74
0
 42
0.0000001
 43
0.0000001
 44
0.0000000001
 40
0.0
 40
0.0
 40
0.0
 40
0.0
 40
0.0618603907
 40
0.1239640988
 40
0.1862853195
 40
0.2487942118
 40
0.3114574842
 40
0.3742390306
 40
0.4371006016
 40
0.5000025046
 40
0.5629043217
 40
0.6257656364
 40
0.6885467608
 40
0.7512094533
 40
0.8137176182
 40
0.8760379774
 40
0.9381407091
 40
1.0
 40
1.0
 40
1.0
 40
1.0
 10
11.9478060816
 20
9.2287369863
 30
0.0
 10
11.9359895143
 20
9.2319965347
 30
0.0
 10
11.9125260451
 20
9.2393423293
 30
0.0
 10
11.8781023257
 20
9.2527424166
 30
0.0
 10
11.8445399431
 20
9.2684822332
 30
0.0
 10
11.8120078582
 20
9.2864827251
 30
0.0
 10
11.7806671176
 20
9.306654426
 30
0.0
 10
11.7506735906
 20
9.3288969095
 30
0.0
 10
11.7221762558
 20
9.353099556
 30
0.0
 10
11.6953167231
 20
9.3791420265
 30
0.0
 10
11.6702284702
 20
9.4068948738
 30
0.0
 10
11.6470362019
 20
9.43622018
 30
0.0
 10
11.6258552364
 20
9.4669722181
 30
0.0
 10
11.6067909204
 20
9.4989982373
 30
0.0
 10
11.5899381725
 20
9.5321389564
 30
0.0
 10
11.5753807772
 20
9.5662303043
 30
0.0
 10
11.5631918434
 20
9.6011006609
 30
0.0
 10
11.5566705157
 20
9.6248060864
 30
0.0
 10
11.553825925
 20
9.6367291263
 30
0.0
  0
SPLINE
  5
36F
100
AcDbEntity
  8
0
100
AcDbSpline
 62
7
  6
CONTINUOUS
 70
0
 71
3
 72
26
 73
22
 74
0
 42
0.0000001
 43
0.0000001
 44
0.0000000001
 40
0.0
 40
0.0
 40
0.0
 40
0.0
 40
0.0617092224
 40
0.0925729861
 40
0.1234446505
 40
0.1852169763
 40
0.2470517586
 40
0.2780013275
 40
0.3089738786
 40
0.3709922214
 40
0.4331298083
 40
0.4954034066
 40
0.5578284213
 40
0.6204187786
 40
0.6831867415
 40
0.7146430811
 40
0.7461476607
 40
0.8093008765
 40
0.8726570625
 40
0.9362237834
 40
1.0
 40
1.0
 40
1.0
 40
1.0
 10
10.8291226812
 20
9.5628534858
 30
0.0
 10
10.8212413304
 20
9.5552406589
 30
0.0
 10
10.8097090934
 20
9.5435131488
 30
0.0
 10
10.7949531665
 20
9.527301273
 30
0.0
 10
10.7806109791
 20
9.5107067754
 30
0.0
 10
10.7634793247
 20
9.489267265
 30
0.0
 10
10.7474616415
 20
9.4669661671
 30
0.0
 10
10.7353348055
 20
9.4486371416
 30
0.0
 10
10.7236629388
 20
9.4299766745
 30
0.0
 10
10.709953452
 20
9.4060695175
 30
0.0
 10
10.694960181
 20
9.3765396938
 30
0.0
 10
10.6814512291
 20
9.3462226141
 30
0.0
 10
10.6694579337
 20
9.3151885362
 30
0.0
 10
10.6590079273
 20
9.283509402
 30
0.0
 10
10.6516107016
 20
9.2566514757
 30
0.0
 10
10.6464858303
 20
9.2349200088
 30
0.0
 10
10.6418853187
 20
9.2130015928
 30
0.0
 10
10.6371390849
 20
9.1853350273
 30
0.0
 10
10.6330656704
 20
9.1518166405
 30
0.0
 10
10.6306191257
 20
9.1180300093
 30
0.0
 10
10.630077084
 20
9.0954139536
 30
0.0
 10
10.630077084
 20
9.0840892349
 30
0.0
  0
SPLINE
  5
370
100
AcDbEntity
  8
0
100
AcDbSpline
 62
7
  6
CONTINUOUS
 70
0
 71
3
 72
25
 73
21
 74
0
 42
0.0000001
 43
0.0000001
 44
0.0000000001
 40
0.0
 40
0.0
 40
0.0
 40
0.0
 40
0.0616698585
 40
0.0925221144
 40
0.1233873692
 40
0.1851610503
 40
0.2470116891
 40
0.2779729665
 40
0.308959368
 40
0.3710107408
 40
0.4331841913
 40
0.4954928703
 40
0.5579488032
 40
0.6205628041
 40
0.6833443175
 40
0.7463016016
 40
0.8094414048
 40
0.872768098
 40
0.9362885602
 40
1.0
 40
1.0
 40
1.0
 40
1.0
 10
10.718708324
 20
9.5650605591
 30
0.0
 10
10.7112548959
 20
9.5567888432
 30
0.0
 10
10.7003626781
 20
9.5441129181
 30
0.0
 10
10.6864479624
 20
9.5267138341
 30
0.0
 10
10.6729342305
 20
9.5089773967
 30
0.0
 10
10.656815402
 20
9.4862002196
 30
0.0
 10
10.6417718639
 20
9.4626784119
 30
0.0
 10
10.6303951339
 20
9.4434366988
 30
0.0
 10
10.6194524258
 20
9.4239033712
 30
0.0
 10
10.6066140048
 20
9.3989817342
 30
0.0
 10
10.5925912763
 20
9.3683486524
 30
0.0
 10
10.5799711449
 20
9.3370325043
 30
0.0
 10
10.568778246
 20
9.3050942353
 30
0.0
 10
10.5590340909
 20
9.2725955172
 30
0.0
 10
10.5507574206
 20
9.2395992264
 30
0.0
 10
10.5439642048
 20
9.2061691034
 30
0.0
 10
10.5386676445
 20
9.1723699567
 30
0.0
 10
10.5348776384
 20
9.138266511
 30
0.0
 10
10.5326018534
 20
9.1039260225
 30
0.0
 10
10.5320975068
 20
9.0809512301
 30
0.0
 10
10.5320975068
 20
9.0694482252
 30
0.0
  0
SPLINE
  5
371
100
AcDbEntity
  8
0
100
AcDbSpline
 62
7
  6
CONTINUOUS
 70
0
 71
3
 72
26
 73
22
 74
0
 42
0.0000001
 43
0.0000001
 44
0.0000000001
 40
0.0
 40
0.0
 40
0.0
 40
0.0
 40
0.0617092235
 40
0.0925729854
 40
0.1234446509
 40
0.1852169748
 40
0.2470517571
 40
0.2780013275
 40
0.3089738777
 40
0.3709922222
 40
0.4331298084
 40
0.4954034049
 40
0.5578284199
 40
0.6204187753
 40
0.6831867461
 40
0.7146430864
 40
0.7461476576
 40
0.8093008659
 40
0.872657114
 40
0.9362236724
 40
1.0
 40
1.0
 40
1.0
 40
1.0
 10
10.6814999936
 20
9.5314871985
 30
0.0
 10
10.6727596312
 20
9.5230446445
 30
0.0
 10
10.6599705191
 20
9.5100388887
 30
0.0
 10
10.6436062721
 20
9.4920600917
 30
0.0
 10
10.6277009573
 20
9.4736568829
 30
0.0
 10
10.608702065
 20
9.4498806669
 30
0.0
 10
10.5909385517
 20
9.4251489525
 30
0.0
 10
10.5774900443
 20
9.4048221774
 30
0.0
 10
10.564545979
 20
9.3841279094
 30
0.0
 10
10.5493423167
 20
9.3576150392
 30
0.0
 10
10.5327149006
 20
9.3248667084
 30
0.0
 10
10.5177335752
 20
9.2912453187
 30
0.0
 10
10.5044331003
 20
9.2568287841
 30
0.0
 10
10.492844121
 20
9.2216968837
 30
0.0
 10
10.4846406799
 20
9.191911656
 30
0.0
 10
10.4789572227
 20
9.1678116406
 30
0.0
 10
10.4738553137
 20
9.1435042951
 30
0.0
 10
10.4685917598
 20
9.1128222945
 30
0.0
 10
10.4640743896
 20
9.075650697
 30
0.0
 10
10.4613611767
 20
9.0381815983
 30
0.0
 10
10.460760066
 20
9.0131005871
 30
0.0
 10
10.460760066
 20
9.0005415447
 30
0.0
  0
SPLINE
  5
372
100
AcDbEntity
  8
0
100
AcDbSpline
 62
7
  6
CONTINUOUS
 70
0
 71
3
 72
43
 73
39
 74
0
 42
0.0000001
 43
0.0000001
 44
0.0000000001
 40
0.0
 40
0.0
 40
0.0
 40
0.0
 40
0.0090583118
 40
0.018462489
 40
0.0282187223
 40
0.0383309328
 40
0.0488012455
 40
0.0596297824
 40
0.0708150967
 40
0.0823542082
 40
0.0942425909
 40
0.1064746553
 40
0.1190433863
 40
0.1319408926
 40
0.1451582869
 40
0.1586857606
 40
0.1866285757
 40
0.2156791615
 40
0.2457404974
 40
0.2767120357
 40
0.3084923388
 40
0.340981504
 40
0.3740832107
 40
0.4077059502
 40
0.4417640599
 40
0.4761787357
 40
0.5108778202
 40
0.545796039
 40
0.5808751228
 40
0.6160626723
 40
0.6513123959
 40
0.6865832047
 40
0.7218385138
 40
0.7570460511
 40
0.7921766748
 40
0.8621014544
 40
0.9314307468
 40
1.0
 40
1.0
 40
1.0
 40
1.0
 10
11.2091343693
 20
8.9539527312
 30
0.0
 10
11.2091341754
 20
8.9557250041
 30
0.0
 10
11.2090612204
 20
8.9593375038
 30
0.0
 10
11.208751981
 20
8.9648508758
 30
0.0
 10
11.2082452166
 20
8.9705565827
 30
0.0
 10
11.2075462785
 20
8.9764518882
 30
0.0
 10
11.2066602828
 20
8.9825339734
 30
0.0
 10
11.2055933712
 20
8.9887999149
 30
0.0
 10
11.2043517984
 20
8.9952465938
 30
0.0
 10
11.2029422145
 20
9.0018707065
 30
0.0
 10
11.2013719431
 20
9.0086688688
 30
0.0
 10
11.1996482238
 20
9.0156373951
 30
0.0
 10
11.1977790575
 20
9.0227725647
 30
0.0
 10
11.1957724443
 20
9.0300703964
 30
0.0
 10
11.1936367427
 20
9.0375267854
 30
0.0
 10
11.1905955586
 20
9.047785348
 30
0.0
 10
11.1865150774
 20
9.0609661909
 30
0.0
 10
11.1812963047
 20
9.0771795721
 30
0.0
 10
11.175775534
 20
9.0939176632
 30
0.0
 10
11.1700242413
 20
9.1111418817
 30
0.0
 10
11.1641123769
 20
9.1288132631
 30
0.0
 10
11.1581073606
 20
9.1468929458
 30
0.0
 10
11.1520731833
 20
9.1653426397
 30
0.0
 10
11.1460700655
 20
9.1841250851
 30
0.0
 10
11.1401540432
 20
9.2032043771
 30
0.0
 10
11.1343762303
 20
9.2225459865
 30
0.0
 10
11.1287835081
 20
9.2421171314
 30
0.0
 10
11.1234183001
 20
9.2618867191
 30
0.0
 10
11.1183180714
 20
9.2818251063
 30
0.0
 10
11.1135169033
 20
9.3019044303
 30
0.0
 10
11.1090443754
 20
9.3220980376
 30
0.0
 10
11.1049264671
 20
9.3423805811
 30
0.0
 10
11.101186321
 20
9.3627278513
 30
0.0
 10
11.0978429568
 20
9.3831164836
 30
0.0
 10
11.0939434454
 20
9.4102821496
 30
0.0
 10
11.0901372104
 20
9.4441990537
 30
0.0
 10
11.0873555853
 20
9.4847770736
 30
0.0
 10
11.0867244159
 20
9.5117610307
 30
0.0
 10
11.0867244159
 20
9.5251767125
 30
0.0
  0
SPLINE
  5
373
100
AcDbEntity
  8
0
100
AcDbSpline
 62
7
  6
CONTINUOUS
 70
0
 71
3
 72
25
 73
21
 74
0
 42
0.0000001
 43
0.0000001
 44
0.0000000001
 40
0.0
 40
0.0
 40
0.0
 40
0.0
 40
0.0616739827
 40
0.1233885017
 40
0.1851611334
 40
0.2470089423
 40
0.2779683585
 40
0.3089526602
 40
0.3709992415
 40
0.4331676999
 40
0.49547167
 40
0.5579236192
 40
0.6205347777
 40
0.6833149774
 40
0.7147732343
 40
0.7462768529
 40
0.8094192768
 40
0.8727509238
 40
0.9362784945
 40
1.0
 40
1.0
 40
1.0
 40
1.0
 10
10.6083002544
 20
9.5242836113
 30
0.0
 10
10.6002275736
 20
9.5155000468
 30
0.0
 10
10.5844937906
 20
9.4975387174
 30
0.0
 10
10.5621961969
 20
9.4694932797
 30
0.0
 10
10.5412380819
 20
9.4403912711
 30
0.0
 10
10.5249293568
 20
9.415315218
 30
0.0
 10
10.512593994
 20
9.3947893937
 30
0.0
 10
10.5007282376
 20
9.3739443077
 30
0.0
 10
10.4868045835
 20
9.347334254
 30
0.0
 10
10.4715939188
 20
9.3146042363
 30
0.0
 10
10.4579025855
 20
9.2811251016
 30
0.0
 10
10.4457579289
 20
9.2469636153
 30
0.0
 10
10.4351839999
 20
9.2121879382
 30
0.0
 10
10.4277035779
 20
9.1827727261
 30
0.0
 10
10.4225229539
 20
9.1590063697
 30
0.0
 10
10.4178739507
 20
9.1350589263
 30
0.0
 10
10.4130793325
 20
9.1048677938
 30
0.0
 10
10.4089653904
 20
9.0683337848
 30
0.0
 10
10.4064949579
 20
9.0315401955
 30
0.0
 10
10.4059475148
 20
9.0069225008
 30
0.0
 10
10.4059475148
 20
8.9945966828
 30
0.0
  0
SPLINE
  5
374
100
AcDbEntity
  8
0
100
AcDbSpline
 62
7
  6
CONTINUOUS
 70
0
 71
3
 72
39
 73
35
 74
0
 42
0.0000001
 43
0.0000001
 44
0.0000000001
 40
0.0
 40
0.0
 40
0.0
 40
0.0
 40
0.0307220853
 40
0.0615353935
 40
0.0924373903
 40
0.123424861
 40
0.1544939419
 40
0.1856401473
 40
0.216858407
 40
0.2481431177
 40
0.279488184
 40
0.3108870598
 40
0.3423328045
 40
0.3738181397
 40
0.4053354964
 40
0.4368770697
 40
0.4684348836
 40
0.5000008462
 40
0.5315668019
 40
0.5631245966
 40
0.5946661387
 40
0.6261834514
 40
0.6576687301
 40
0.6891144075
 40
0.7205132048
 40
0.7518581812
 40
0.7831427931
 40
0.8143609439
 40
0.8455070329
 40
0.876575995
 40
0.9075633128
 40
0.9384652097
 40
0.9692784105
 40
1.0
 40
1.0
 40
1.0
 40
1.0
 10
12.0109152888
 20
9.0557752981
 30
0.0
 10
12.0009998881
 20
9.0569887789
 30
0.0
 10
11.9811906537
 20
9.0598588726
 30
0.0
 10
11.9516537764
 20
9.0654715575
 30
0.0
 10
11.92230535
 20
9.0723872569
 30
0.0
 10
11.8932047179
 20
9.0805920006
 30
0.0
 10
11.8644097648
 20
9.0900694171
 30
0.0
 10
11.8359780447
 20
9.1008006078
 30
0.0
 10
11.8079662677
 20
9.1127640522
 30
0.0
 10
11.7804303339
 20
9.1259358257
 30
0.0
 10
11.7534252199
 20
9.140289661
 30
0.0
 10
11.7270048321
 20
9.1557968975
 30
0.0
 10
11.7012218637
 20
9.1724265046
 30
0.0
 10
11.6761277682
 20
9.1901452806
 30
0.0
 10
11.6517726692
 20
9.2089179059
 30
0.0
 10
11.6282051503
 20
9.2287068663
 30
0.0
 10
11.6054722186
 20
9.2494726273
 30
0.0
 10
11.5836192627
 20
9.2711737617
 30
0.0
 10
11.5626899428
 20
9.2937669927
 30
0.0
 10
11.5427259821
 20
9.3172071746
 30
0.0
 10
11.5237672189
 20
9.3414475196
 30
0.0
 10
11.5058515472
 20
9.3664396862
 30
0.0
 10
11.4890147428
 20
9.3921337964
 30
0.0
 10
11.4732903707
 20
9.4184785375
 30
0.0
 10
11.4587098379
 20
9.4454213411
 30
0.0
 10
11.4453023332
 20
9.4729084704
 30
0.0
 10
11.4330945978
 20
9.5008850417
 30
0.0
 10
11.4221109898
 20
9.529295209
 30
0.0
 10
11.4123734953
 20
9.5580822821
 30
0.0
 10
11.4039016427
 20
9.5871888244
 30
0.0
 10
11.3967122846
 20
9.616556671
 30
0.0
 10
11.3908198216
 20
9.6461274153
 30
0.0
 10
11.3862361965
 20
9.6758411482
 30
0.0
 10
11.3840556256
 20
9.6957378932
 30
0.0
 10
11.383187188
 20
9.7056892902
 30
0.0
  0
SPLINE
  5
375
100
AcDbEntity
  8
0
100
AcDbSpline
 62
7
  6
CONTINUOUS
 70
0
 71
3
 72
44
 73
40
 74
0
 42
0.0000001
 43
0.0000001
 44
0.0000000001
 40
0.0
 40
0.0
 40
0.0
 40
0.0
 40
0.0151732875
 40
0.0303748369
 40
0.0456050022
 40
0.060864052
 40
0.0914665415
 40
0.122185615
 40
0.1375900262
 40
0.1530230813
 40
0.1839708813
 40
0.2150281194
 40
0.2461897957
 40
0.277449708
 40
0.3088005338
 40
0.3402339229
 40
0.371740599
 40
0.4033104699
 40
0.4349327437
 40
0.4665960515
 40
0.4982885749
 40
0.5299981766
 40
0.5617125336
 40
0.593419271
 40
0.625106097
 40
0.656760937
 40
0.6883720656
 40
0.7199282364
 40
0.7514188085
 40
0.7828338683
 40
0.8141643422
 40
0.8454021182
 40
0.8609853547
 40
0.8765428438
 40
0.9075751893
 40
0.9384969135
 40
0.953916598
 40
0.9693080715
 40
1.0
 40
1.0
 40
1.0
 40
1.0
 10
12.0324104243
 20
8.9227882651
 30
0.0
 10
12.0264190001
 20
8.9220719579
 30
0.0
 10
12.0144041937
 20
8.9208062102
 30
0.0
 10
11.9963196237
 20
8.9194106124
 30
0.0
 10
11.9781688984
 20
8.9185170552
 30
0.0
 10
11.9538770423
 20
8.9179956283
 30
0.0
 10
11.923412223
 20
8.9186052156
 30
0.0
 10
11.8929693385
 20
8.9208877658
 30
0.0
 10
11.8686504198
 20
8.9237118454
 30
0.0
 10
11.8443269361
 20
8.9272066647
 30
0.0
 10
11.8140311663
 20
8.9328213486
 30
0.0
 10
11.7779985789
 20
8.9415196595
 30
0.0
 10
11.7423607158
 20
8.9521589622
 30
0.0
 10
11.7072256287
 20
8.9647069852
 30
0.0
 10
11.6726989804
 20
8.9791258539
 30
0.0
 10
11.6388848252
 20
8.9953720352
 30
0.0
 10
11.6058850032
 20
9.0133965144
 30
0.0
 10
11.5737989158
 20
9.0331449304
 30
0.0
 10
11.5427232077
 20
9.0545577434
 30
0.0
 10
11.5127514795
 20
9.0775704066
 30
0.0
 10
11.4839740041
 20
9.1021135598
 30
0.0
 10
11.4564774618
 20
9.1281132455
 30
0.0
 10
11.4303446798
 20
9.1554911287
 30
0.0
 10
11.4056543855
 20
9.184164732
 30
0.0
 10
11.3824809698
 20
9.2140476819
 30
0.0
 10
11.3608942652
 20
9.2450499689
 30
0.0
 10
11.3409593369
 20
9.2770782105
 30
0.0
 10
11.3227362842
 20
9.3100359517
 30
0.0
 10
11.3062800737
 20
9.343823876
 30
0.0
 10
11.2916403048
 20
9.378340381
 30
0.0
 10
11.2788612988
 20
9.4134808433
 30
0.0
 10
11.2697871634
 20
9.4432222811
 30
0.0
 10
11.263496385
 20
9.4672205757
 30
0.0
 10
11.2578642143
 20
9.4912980616
 30
0.0
 10
11.2520450504
 20
9.5215843863
 30
0.0
 10
11.247867622
 20
9.5520853389
 30
0.0
 10
11.2455263468
 20
9.5765260733
 30
0.0
 10
11.2438556558
 20
9.6009295218
 30
0.0
 10
11.2433511464
 20
9.6192610029
 30
0.0
 10
11.2433511464
 20
9.6314665255
 30
0.0
  0
SPLINE
  5
376
100
AcDbEntity
  8
0
100
AcDbSpline
 62
7
  6
CONTINUOUS
 70
0
 71
3
 72
28
 73
24
 74
0
 42
0.0000001
 43
0.0000001
 44
0.0000000001
 40
0.0
 40
0.0
 40
0.0
 40
0.0
 40
0.0637758941
 40
0.0955879065
 40
0.1273462157
 40
0.1907019646
 40
0.2538545302
 40
0.2853587825
 40
0.3168148204
 40
0.379582186
 40
0.4421719279
 40
0.504596336
 40
0.566869323
 40
0.6290062994
 40
0.6910240361
 40
0.7219962863
 40
0.7529455528
 40
0.8147797337
 40
0.8765514554
 40
0.9074228165
 40
0.9382862783
 40
0.9691444605
 40
1.0
 40
1.0
 40
1.0
 40
1.0
 10
8.4420019829
 20
6.9242378602
 30
0.0
 10
8.4420019829
 20
6.9375220817
 30
0.0
 10
8.442479326
 20
6.9574370247
 30
0.0
 10
8.4440762493
 20
6.983916395
 30
0.0
 10
8.4463072237
 20
7.0102625776
 30
0.0
 10
8.4502858517
 20
7.0430017419
 30
0.0
 10
8.4558533371
 20
7.0754550279
 30
0.0
 10
8.4612497719
 20
7.1011658796
 30
0.0
 10
8.4672614274
 20
7.1266573745
 30
0.0
 10
8.4759384708
 20
7.1581623744
 30
0.0
 10
8.4881965642
 20
7.1953227433
 30
0.0
 10
8.5022649765
 20
7.23172644
 30
0.0
 10
8.5181113019
 20
7.2672890762
 30
0.0
 10
8.5356987578
 20
7.3019282438
 30
0.0
 10
8.5517802319
 20
7.3299719395
 30
0.0
 10
8.5654716404
 20
7.351861078
 30
0.0
 10
8.5796966159
 20
7.3733615142
 30
0.0
 10
8.5984857147
 20
7.3995211967
 30
0.0
 10
8.6185816665
 20
7.4246702927
 30
0.0
 10
8.6354051274
 20
7.4441359289
 30
0.0
 10
8.6483889711
 20
7.4584006736
 30
0.0
 10
8.661732818
 20
7.4723243267
 30
0.0
 10
8.670864184
 20
7.4813744234
 30
0.0
 10
8.675486878
 20
7.4858396072
 30
0.0
  0
SPLINE
  5
377
100
AcDbEntity
  8
0
100
AcDbSpline
 62
7
  6
CONTINUOUS
 70
0
 71
3
 72
43
 73
39
 74
0
 42
0.0000001
 43
0.0000001
 44
0.0000000001
 40
0.0
 40
0.0
 40
0.0
 40
0.0
 40
0.0303546589
 40
0.0455763053
 40
0.0608269374
 40
0.0914129854
 40
0.1221164404
 40
0.1375134516
 40
0.1529394062
 40
0.1838739518
 40
0.2149194073
 40
0.2460709173
 40
0.2773223873
 40
0.3086665654
 40
0.3400951368
 40
0.3715988265
 40
0.403167512
 40
0.4347903413
 40
0.4664558587
 40
0.4981521342
 40
0.5298668974
 40
0.5615876735
 40
0.5933019214
 40
0.6249971718
 40
0.6566611651
 40
0.6882819878
 40
0.7198482062
 40
0.7513489958
 40
0.7827742672
 40
0.8141147812
 40
0.8453622728
 40
0.8609502244
 40
0.8765122974
 40
0.9075533139
 40
0.9384831009
 40
0.9539065263
 40
0.9693015043
 40
1.0
 40
1.0
 40
1.0
 40
1.0
 10
12.0325637016
 20
8.8651320751
 30
0.0
 10
12.0197326733
 20
8.8634445389
 30
0.0
 10
12.0003899071
 20
8.8614560174
 30
0.0
 10
11.9745016311
 20
8.859890499
 30
0.0
 10
11.9484803721
 20
8.859045844
 30
0.0
 10
11.9158316143
 20
8.8593512631
 30
0.0
 10
11.8831875504
 20
8.86146389
 30
0.0
 10
11.8570997379
 20
8.8642321154
 30
0.0
 10
11.8309996449
 20
8.8677249233
 30
0.0
 10
11.7984784394
 20
8.873437829
 30
0.0
 10
11.759781102
 20
8.8824141575
 30
0.0
 10
11.7214906738
 20
8.8934905257
 30
0.0
 10
11.6837247834
 20
8.9066329221
 30
0.0
 10
11.6465985001
 20
8.9218011424
 30
0.0
 10
11.6102251845
 20
8.9389487823
 30
0.0
 10
11.5747158236
 20
8.9580234186
 30
0.0
 10
11.5401787814
 20
8.9789667593
 30
0.0
 10
11.5067194473
 20
9.0017148235
 30
0.0
 10
11.4744399232
 20
9.0261981362
 30
0.0
 10
11.4434387127
 20
9.052341939
 30
0.0
 10
11.4138104227
 20
9.0800664175
 30
0.0
 10
11.3856454766
 20
9.1092869437
 30
0.0
 10
11.3590298401
 20
9.1399143327
 30
0.0
 10
11.3340447602
 20
9.1718551128
 30
0.0
 10
11.310766519
 20
9.2050118112
 30
0.0
 10
11.2892661982
 20
9.2392832405
 30
0.0
 10
11.2696094609
 20
9.2745648302
 30
0.0
 10
11.2518563715
 20
9.3107488626
 30
0.0
 10
11.2360611439
 20
9.3477251044
 30
0.0
 10
11.2222722354
 20
9.3853800062
 30
0.0
 10
11.2124801354
 20
9.4172568415
 30
0.0
 10
11.2056913297
 20
9.4429816689
 30
0.0
 10
11.1996130938
 20
9.4687931987
 30
0.0
 10
11.1933327959
 20
9.5012640593
 30
0.0
 10
11.1888241069
 20
9.5339684681
 30
0.0
 10
11.1862971413
 20
9.5601759021
 30
0.0
 10
11.1844939239
 20
9.5863434948
 30
0.0
 10
11.1839493834
 20
9.6060007075
 30
0.0
 10
11.1839493834
 20
9.6190888251
 30
0.0
  0
SPLINE
  5
378
100
AcDbEntity
  8
0
100
AcDbSpline
 62
7
  6
CONTINUOUS
 70
0
 71
3
 72
55
 73
51
 74
0
 42
0.0000001
 43
0.0000001
 44
0.0000000001
 40
0.0
 40
0.0
 40
0.0
 40
0.0
 40
0.0149713426
 40
0.029945745
 40
0.0449262466
 40
0.0599158497
 40
0.0749175039
 40
0.0899340815
 40
0.1049683671
 40
0.1200230387
 40
0.1351006478
 40
0.1502036136
 40
0.1653342004
 40
0.1804945089
 40
0.1956864682
 40
0.2109118157
 40
0.2261721
 40
0.2414686657
 40
0.2568026464
 40
0.2721749684
 40
0.2875863346
 40
0.3030372323
 40
0.3185279299
 40
0.3340584699
 40
0.3496286834
 40
0.3652381805
 40
0.3808863595
 40
0.3965724155
 40
0.4122953346
 40
0.4280539148
 40
0.4596672873
 40
0.4914043865
 40
0.5232494291
 40
0.5551844326
 40
0.5871895976
 40
0.619243717
 40
0.651324607
 40
0.6834095519
 40
0.7154757557
 40
0.747500794
 40
0.7794630628
 40
0.8113422149
 40
0.8431195771
 40
0.8747785431
 40
0.8905616191
 40
0.9063099906
 40
0.9220223492
 40
0.9376975737
 40
0.9689273837
 40
1.0
 40
1.0
 40
1.0
 40
1.0
 10
11.8490106838
 20
8.5069877927
 30
0.0
 10
11.8429217062
 20
8.5011062714
 30
0.0
 10
11.8305072002
 20
8.4895828574
 30
0.0
 10
11.8112112904
 20
8.4730494547
 30
0.0
 10
11.7912655923
 20
8.4572887373
 30
0.0
 10
11.770698074
 20
8.4423225867
 30
0.0
 10
11.7495368475
 20
8.4281716167
 30
0.0
 10
11.7278110891
 20
8.4148552966
 30
0.0
 10
11.7055507426
 20
8.4023918432
 30
0.0
 10
11.6827863557
 20
8.3907985663
 30
0.0
 10
11.6595493436
 20
8.3800912427
 30
0.0
 10
11.6358716458
 20
8.3702846634
 30
0.0
 10
11.6117858315
 20
8.3613923583
 30
0.0
 10
11.5873250967
 20
8.3534263915
 30
0.0
 10
11.5625230396
 20
8.3463978881
 30
0.0
 10
11.5374138251
 20
8.3403163735
 30
0.0
 10
11.5120319925
 20
8.3351901926
 30
0.0
 10
11.4864124394
 20
8.3310265042
 30
0.0
 10
11.4605904378
 20
8.3278308253
 30
0.0
 10
11.4346014841
 20
8.3256076888
 30
0.0
 10
11.4084813342
 20
8.3243600772
 30
0.0
 10
11.3822659098
 20
8.3240896049
 30
0.0
 10
11.3559912646
 20
8.3247968015
 30
0.0
 10
11.3296935267
 20
8.3264804871
 30
0.0
 10
11.303408857
 20
8.3291384279
 30
0.0
 10
11.2771734129
 20
8.3327669751
 30
0.0
 10
11.2510232127
 20
8.3373609904
 30
0.0
 10
11.2249943516
 20
8.3429142856
 30
0.0
 10
11.1991221784
 20
8.3494192192
 30
0.0
 10
11.1648504266
 20
8.3593584704
 30
0.0
 10
11.1225799403
 20
8.3741217573
 30
0.0
 10
11.0731079197
 20
8.3954482148
 30
0.0
 10
11.0250977713
 20
8.4202888845
 30
0.0
 10
10.9788147108
 20
8.448506608
 30
0.0
 10
10.934512215
 20
8.479946408
 30
0.0
 10
10.892433514
 20
8.514435535
 30
0.0
 10
10.8528094414
 20
8.5517845562
 30
0.0
 10
10.815857456
 20
8.5917884271
 30
0.0
 10
10.7817804029
 20
8.6342275869
 30
0.0
 10
10.7507654323
 20
8.678869209
 30
0.0
 10
10.7229829404
 20
8.7254681942
 30
0.0
 10
10.6985854928
 20
8.7737693196
 30
0.0
 10
10.6777077726
 20
8.8235057803
 30
0.0
 10
10.6633219558
 20
8.8659718993
 30
0.0
 10
10.6536846127
 20
8.9003858664
 30
0.0
 10
10.6474054532
 20
8.9263580249
 30
0.0
 10
10.6420774282
 20
8.9524796255
 30
0.0
 10
10.6362591667
 20
8.9874126078
 30
0.0
 10
10.6313876083
 20
9.0312767634
 30
0.0
 10
10.630077084
 20
9.0665189204
 30
0.0
 10
10.630077084
 20
9.0840892349
 30
0.0
  0
SPLINE
  5
379
100
AcDbEntity
  8
0
100
AcDbSpline
 62
7
  6
CONTINUOUS
 70
0
 71
3
 72
54
 73
50
 74
0
 42
0.0000001
 43
0.0000001
 44
0.0000000001
 40
0.0
 40
0.0
 40
0.0
 40
0.0
 40
0.0149609029
 40
0.0299299255
 40
0.0449098678
 40
0.0599034639
 40
0.07491337
 40
0.089942152
 40
0.1049922632
 40
0.1200660404
 40
0.135165685
 40
0.1502932511
 40
0.1654506415
 40
0.1806395878
 40
0.1958616507
 40
0.21111821
 40
0.2264104527
 40
0.2417393791
 40
0.2571057873
 40
0.272510277
 40
0.2879532492
 40
0.3034348963
 40
0.3189552159
 40
0.3345140011
 40
0.3501108471
 40
0.3657451596
 40
0.3814161475
 40
0.3971228414
 40
0.4286338034
 40
0.4602716597
 40
0.4920227052
 40
0.5238710432
 40
0.5557989108
 40
0.5877870312
 40
0.6198149876
 40
0.6518616134
 40
0.6839053919
 40
0.7159248594
 40
0.7478990088
 40
0.7798076874
 40
0.8116319828
 40
0.8433545917
 40
0.8749601653
 40
0.8907172686
 40
0.9064404048
 40
0.9221283752
 40
0.9377801437
 40
0.9689664454
 40
1.0
 40
1.0
 40
1.0
 40
1.0
 10
11.8466160897
 20
8.3959139193
 30
0.0
 10
11.8396159599
 20
8.3900497533
 30
0.0
 10
11.8253837771
 20
8.3785874996
 30
0.0
 10
11.8033820444
 20
8.3622259922
 30
0.0
 10
11.7807495085
 20
8.346712752
 30
0.0
 10
11.757515953
 20
8.3320684019
 30
0.0
 10
11.7337115961
 20
8.3183117151
 30
0.0
 10
11.709367332
 20
8.3054607661
 30
0.0
 10
11.6845148733
 20
8.2935321574
 30
0.0
 10
11.6591865557
 20
8.2825413585
 30
0.0
 10
11.6334152635
 20
8.272502794
 30
0.0
 10
11.6072345899
 20
8.2634293063
 30
0.0
 10
11.5806785255
 20
8.2553328342
 30
0.0
 10
11.5537816268
 20
8.248223836
 30
0.0
 10
11.5265788847
 20
8.2421114541
 30
0.0
 10
11.4991056329
 20
8.2370038001
 30
0.0
 10
11.4713976301
 20
8.2329072924
 30
0.0
 10
11.4434908769
 20
8.2298273641
 30
0.0
 10
11.4154216588
 20
8.2277679974
 30
0.0
 10
11.3872264681
 20
8.226731722
 30
0.0
 10
11.3589419496
 20
8.2267200673
 30
0.0
 10
11.3306048694
 20
8.2277328414
 30
0.0
 10
11.3022520534
 20
8.2297687934
 30
0.0
 10
11.2739203674
 20
8.2328253055
 30
0.0
 10
11.2456465785
 20
8.2368982371
 30
0.0
 10
11.2174675715
 20
8.2419824397
 30
0.0
 10
11.1894195157
 20
8.2480712783
 30
0.0
 10
11.152209906
 20
8.257527543
 30
0.0
 10
11.106206336
 20
8.2718254933
 30
0.0
 10
11.052172919
 20
8.292822725
 30
0.0
 10
10.9995226142
 20
8.3175708761
 30
0.0
 10
10.9485303674
 20
8.3459407476
 30
0.0
 10
10.8994601669
 20
8.3777849913
 30
0.0
 10
10.8525666755
 20
8.4129381809
 30
0.0
 10
10.8080930647
 20
8.4512177728
 30
0.0
 10
10.7662700215
 20
8.4924250651
 30
0.0
 10
10.7273145193
 20
8.5363462447
 30
0.0
 10
10.69142873
 20
8.5827534659
 30
0.0
 10
10.6587989465
 20
8.6314060546
 30
0.0
 10
10.629594623
 20
8.6820515051
 30
0.0
 10
10.6039673801
 20
8.7344276173
 30
0.0
 10
10.5820509511
 20
8.78826091
 30
0.0
 10
10.5669575938
 20
8.8341569243
 30
0.0
 10
10.5568491209
 20
8.8713193617
 30
0.0
 10
10.5502641405
 20
8.8993529242
 30
0.0
 10
10.5446774578
 20
8.9275368407
 30
0.0
 10
10.5385773054
 20
8.9652175763
 30
0.0
 10
10.5334708318
 20
9.0125153742
 30
0.0
 10
10.5320975068
 20
9.0505059832
 30
0.0
 10
10.5320975068
 20
9.0694482252
 30
0.0
  0
SPLINE
  5
37A
100
AcDbEntity
  8
0
100
AcDbSpline
 62
7
  6
CONTINUOUS
 70
0
 71
3
 72
51
 73
47
 74
0
 42
0.0000001
 43
0.0000001
 44
0.0000000001
 40
0.0
 40
0.0
 40
0.0
 40
0.0
 40
0.0055575483
 40
0.0111779716
 40
0.01692191
 40
0.0228457685
 40
0.029000541
 40
0.0354309187
 40
0.0421753321
 40
0.0492661787
 40
0.0567301751
 40
0.0645892818
 40
0.072860934
 40
0.0815589354
 40
0.0906938799
 40
0.1002734384
 40
0.1103031157
 40
0.1207861166
 40
0.1317239771
 40
0.1431166596
 40
0.1549625852
 40
0.1672591636
 40
0.1800024627
 40
0.1931876894
 40
0.2068091423
 40
0.2208601567
 40
0.2502201891
 40
0.2812020358
 40
0.3137291498
 40
0.3477165256
 40
0.3830717054
 40
0.4196956132
 40
0.4574832856
 40
0.4963245986
 40
0.5361048951
 40
0.5767055669
 40
0.6180046028
 40
0.6598771293
 40
0.7021959705
 40
0.7448321944
 40
0.7876555817
 40
0.8305351627
 40
0.8733399838
 40
0.9159382941
 40
0.9582023666
 40
1.0
 40
1.0
 40
1.0
 40
1.0
 10
12.6761742968
 20
10.9731158879
 30
0.0
 10
12.6761742894
 20
10.9739668781
 30
0.0
 10
12.6762695301
 20
10.9756799681
 30
0.0
 10
12.6766970869
 20
10.9782404722
 30
0.0
 10
12.6774087074
 20
10.9807952436
 30
0.0
 10
12.6784028499
 20
10.9833413761
 30
0.0
 10
12.679678059
 20
10.9858767315
 30
0.0
 10
12.6812324775
 20
10.9883994309
 30
0.0
 10
12.6830643959
 20
10.99090772
 30
0.0
 10
12.6851720423
 20
10.9933998735
 30
0.0
 10
12.687553451
 20
10.995874299
 30
0.0
 10
12.6902067241
 20
10.9983291704
 30
0.0
 10
12.6931296266
 20
11.0007628198
 30
0.0
 10
12.6963198524
 20
11.0031734167
 30
0.0
 10
12.6997748732
 20
11.0055591033
 30
0.0
 10
12.7034918938
 20
11.0079181192
 30
0.0
 10
12.7074679973
 20
11.0102485062
 30
0.0
 10
12.7116999541
 20
11.0125484965
 30
0.0
 10
12.7161843779
 20
11.0148162088
 30
0.0
 10
12.7209176554
 20
11.0170497863
 30
0.0
 10
12.7258959353
 20
11.0192474871
 30
0.0
 10
12.7311152064
 20
11.0214074292
 30
0.0
 10
12.7365712054
 20
11.0235279251
 30
0.0
 10
12.7422594995
 20
11.0256071999
 30
0.0
 10
12.748175462
 20
11.0276435554
 30
0.0
 10
12.7564825526
 20
11.0303387975
 30
0.0
 10
12.7674056296
 20
11.0335785491
 30
0.0
 10
12.7811550832
 20
11.0372150146
 30
0.0
 10
12.7956868752
 20
11.0406429146
 30
0.0
 10
12.8109535135
 20
11.0438509208
 30
0.0
 10
12.8269052262
 20
11.0468283963
 30
0.0
 10
12.8434898825
 20
11.0495654793
 30
0.0
 10
12.8606532472
 20
11.0520531199
 30
0.0
 10
12.8783391558
 20
11.0542830916
 30
0.0
 10
12.8964897163
 20
11.0562480208
 30
0.0
 10
12.915045499
 20
11.0579414089
 30
0.0
 10
12.9339457303
 20
11.059357655
 30
0.0
 10
12.9531284933
 20
11.0604920891
 30
0.0
 10
12.9725309411
 20
11.0613409686
 30
0.0
 10
12.9920895021
 20
11.0619014897
 30
0.0
 10
13.0117400868
 20
11.062171798
 30
0.0
 10
13.031418334
 20
11.0621510007
 30
0.0
 10
13.051059652
 20
11.0618391525
 30
0.0
 10
13.0705999558
 20
11.0612373324
 30
0.0
 10
13.0899748426
 20
11.0603474534
 30
0.0
 10
13.1028230997
 20
11.0595590136
 30
0.0
 10
13.1092079564
 20
11.0591162223
 30
0.0
  0
SPLINE
  5
37B
100
AcDbEntity
  8
0
100
AcDbSpline
 62
7
  6
CONTINUOUS
 70
0
 71
3
 72
56
 73
52
 74
0
 42
0.0000001
 43
0.0000001
 44
0.0000000001
 40
0.0
 40
0.0
 40
0.0
 40
0.0
 40
0.0149712696
 40
0.0299455975
 40
0.0449260257
 40
0.0599155555
 40
0.0749171349
 40
0.0899336395
 40
0.1049678509
 40
0.1200224476
 40
0.1350999838
 40
0.1502028742
 40
0.1653333868
 40
0.1804936216
 40
0.1956855044
 40
0.2109107785
 40
0.2261709873
 40
0.2414674767
 40
0.2568013838
 40
0.2721736284
 40
0.2875849194
 40
0.303035742
 40
0.3185263613
 40
0.3340568268
 40
0.3496269629
 40
0.3652363825
 40
0.3808844863
 40
0.3965704631
 40
0.412293306
 40
0.4280518089
 40
0.4438445787
 40
0.4596700473
 40
0.4755264713
 40
0.4914119521
 40
0.5232568382
 40
0.5551916851
 40
0.5871966925
 40
0.619250654
 40
0.6513313861
 40
0.6834161731
 40
0.7154822189
 40
0.7475070999
 40
0.7794692115
 40
0.8113482064
 40
0.8431254121
 40
0.874784222
 40
0.9063104541
 40
0.9220227305
 40
0.937697876
 40
0.9689275382
 40
1.0
 40
1.0
 40
1.0
 40
1.0
 10
11.8125474768
 20
8.3605407496
 30
0.0
 10
11.8057948435
 20
8.3540181973
 30
0.0
 10
11.7920272511
 20
8.3412388323
 30
0.0
 10
11.7706282291
 20
8.3229034438
 30
0.0
 10
11.7485086575
 20
8.3054248792
 30
0.0
 10
11.7256993954
 20
8.2888276125
 30
0.0
 10
11.7022318047
 20
8.2731342499
 30
0.0
 10
11.6781381134
 20
8.2583665606
 30
0.0
 10
11.6534515387
 20
8.2445447537
 30
0.0
 10
11.628206067
 20
8.2316878109
 30
0.0
 10
11.602436376
 20
8.2198135489
 30
0.0
 10
11.5761780092
 20
8.2089381216
 30
0.0
 10
11.549467057
 20
8.1990765711
 30
0.0
 10
11.5223402707
 20
8.190242478
 30
0.0
 10
11.4948350185
 20
8.1824478342
 30
0.0
 10
11.4669890955
 20
8.175703515
 30
0.0
 10
11.4388408425
 20
8.1700186727
 30
0.0
 10
11.4104289836
 20
8.1654010707
 30
0.0
 10
11.3817925817
 20
8.1618571919
 30
0.0
 10
11.3529710499
 20
8.1593917061
 30
0.0
 10
11.3240040168
 20
8.1580080794
 30
0.0
 10
11.2949313258
 20
8.1577082279
 30
0.0
 10
11.2657929562
 20
8.1584923924
 30
0.0
 10
11.2366289819
 20
8.160359647
 30
0.0
 10
11.2074795035
 20
8.1633073011
 30
0.0
 10
11.1783845911
 20
8.1673312425
 30
0.0
 10
11.1493842726
 20
8.1724260714
 30
0.0
 10
11.1205183894
 20
8.1785845871
 30
0.0
 10
11.0918266383
 20
8.1857983959
 30
0.0
 10
11.0633484861
 20
8.1940575964
 30
0.0
 10
11.0351230062
 20
8.2033506914
 30
0.0
 10
11.0071891624
 20
8.2136649903
 30
0.0
 10
10.9795849062
 20
8.2249864369
 30
0.0
 10
10.9432441253
 20
8.2414149072
 30
0.0
 10
10.8988339496
 20
8.2643927403
 30
0.0
 10
10.8475074755
 20
8.2956855238
 30
0.0
 10
10.798376092
 20
8.3305521337
 30
0.0
 10
10.751711201
 20
8.3688002216
 30
0.0
 10
10.7077684136
 20
8.4102199981
 30
0.0
 10
10.6667889891
 20
8.4545839772
 30
0.0
 10
10.6289978223
 20
8.5016486741
 30
0.0
 10
10.5946024505
 20
8.5511558166
 30
0.0
 10
10.5637918669
 20
8.602833824
 30
0.0
 10
10.5367354149
 20
8.6563989685
 30
0.0
 10
10.5135818224
 20
8.711557846
 30
0.0
 10
10.4944589696
 20
8.7680058101
 30
0.0
 10
10.4819545925
 20
8.8159232885
 30
0.0
 10
10.4740684188
 20
8.8545873487
 30
0.0
 10
10.4676159012
 20
8.8933280737
 30
0.0
 10
10.4622134448
 20
8.9419728999
 30
0.0
 10
10.460760066
 20
8.9810562106
 30
0.0
 10
10.460760066
 20
9.0005415447
 30
0.0
  0
SPLINE
  5
37C
100
AcDbEntity
  8
0
100
AcDbSpline
 62
7
  6
CONTINUOUS
 70
0
 71
3
 72
55
 73
51
 74
0
 42
0.0000001
 43
0.0000001
 44
0.0000000001
 40
0.0
 40
0.0
 40
0.0
 40
0.0
 40
0.0149619368
 40
0.0299312102
 40
0.0449106607
 40
0.0599030693
 40
0.0749111394
 40
0.0899374877
 40
0.1049846232
 40
0.1200549352
 40
0.1351506842
 40
0.1502739817
 40
0.1654267865
 40
0.1806108923
 40
0.195827914
 40
0.2110792891
 40
0.2263662629
 40
0.2416898848
 40
0.2570510099
 40
0.2724502853
 40
0.2878881575
 40
0.3033648687
 40
0.3188804517
 40
0.3344347417
 40
0.3500273692
 40
0.3656577666
 40
0.3813251774
 40
0.397028651
 40
0.412767059
 40
0.4285390978
 40
0.4443432922
 40
0.4601780138
 40
0.4919270556
 40
0.5237750956
 40
0.5557043255
 40
0.5876953777
 40
0.6197277047
 40
0.6517799743
 40
0.683830476
 40
0.7158575332
 40
0.7478399137
 40
0.7797572342
 40
0.8115903556
 40
0.8433217594
 40
0.8749358986
 40
0.9064195193
 40
0.9221113913
 40
0.9377669155
 40
0.9689601911
 40
1.0
 40
1.0
 40
1.0
 40
1.0
 10
11.8028558201
 20
8.2876725646
 30
0.0
 10
11.7954895806
 20
8.2813581742
 30
0.0
 10
11.7805067465
 20
8.2690109081
 30
0.0
 10
11.757325552
 20
8.2513708537
 30
0.0
 10
11.7334622506
 20
8.2346299072
 30
0.0
 10
11.7089484893
 20
8.2188105783
 30
0.0
 10
11.6838164284
 20
8.2039333793
 30
0.0
 10
11.6580990598
 20
8.1900178949
 30
0.0
 10
11.6318300972
 20
8.1770824516
 30
0.0
 10
11.6050441016
 20
8.1651438557
 30
0.0
 10
11.5777761636
 20
8.1542179084
 30
0.0
 10
11.5500621034
 20
8.1443188755
 30
0.0
 10
11.5219383157
 20
8.1354596548
 30
0.0
 10
11.4934416606
 20
8.1276520223
 30
0.0
 10
11.4646095838
 20
8.120906035
 30
0.0
 10
11.4354798989
 20
8.1152305913
 30
0.0
 10
11.406090822
 20
8.110633184
 30
0.0
 10
11.3764809367
 20
8.1071196599
 30
0.0
 10
11.34668907
 20
8.1046947756
 30
0.0
 10
11.3167543179
 20
8.1033616079
 30
0.0
 10
11.2867159464
 20
8.1031218281
 30
0.0
 10
11.2566133606
 20
8.1039758937
 30
0.0
 10
11.2264860412
 20
8.1059224848
 30
0.0
 10
11.1963735044
 20
8.1089591162
 30
0.0
 10
11.1663152534
 20
8.1130818289
 30
0.0
 10
11.1363506851
 20
8.1182850473
 30
0.0
 10
11.1065191225
 20
8.1245621008
 30
0.0
 10
11.0768596763
 20
8.131904636
 30
0.0
 10
11.0474111951
 20
8.1403029905
 30
0.0
 10
11.0182124509
 20
8.1497462227
 30
0.0
 10
10.989301252
 20
8.1602219715
 30
0.0
 10
10.9511581166
 20
8.1755595382
 30
0.0
 10
10.9043891564
 20
8.1972474156
 30
0.0
 10
10.8500714374
 20
8.2271240591
 30
0.0
 10
10.7977850012
 20
8.2607214415
 30
0.0
 10
10.7478053611
 20
8.2978627125
 30
0.0
 10
10.7003936445
 20
8.3383534624
 30
0.0
 10
10.6557981962
 20
8.3819815685
 30
0.0
 10
10.6142524254
 20
8.4285185423
 30
0.0
 10
10.5759738997
 20
8.4777207387
 30
0.0
 10
10.5411631611
 20
8.5293306063
 30
0.0
 10
10.5100026766
 20
8.5830780558
 30
0.0
 10
10.4826558261
 20
8.6386815857
 30
0.0
 10
10.4592660233
 20
8.6958506513
 30
0.0
 10
10.4399565078
 20
8.7542840435
 30
0.0
 10
10.4273348017
 20
8.8038393971
 30
0.0
 10
10.4193759844
 20
8.8438053259
 30
0.0
 10
10.4128644475
 20
8.8838419279
 30
0.0
 10
10.4074135656
 20
8.934099081
 30
0.0
 10
10.4059475148
 20
8.9744686098
 30
0.0
 10
10.4059475148
 20
8.9945966828
 30
0.0
  0
SPLINE
  5
37D
100
AcDbEntity
  8
0
100
AcDbSpline
 62
7
  6
CONTINUOUS
 70
0
 71
3
 72
54
 73
50
 74
0
 42
0.0000001
 43
0.0000001
 44
0.0000000001
 40
0.0
 40
0.0
 40
0.0
 40
0.0
 40
0.0149714207
 40
0.0299459009
 40
0.0449264795
 40
0.0599161607
 40
0.0749178924
 40
0.0899345474
 40
0.1049689109
 40
0.1200236599
 40
0.135101347
 40
0.1502043904
 40
0.1653350555
 40
0.1804954423
 40
0.195687479
 40
0.210912906
 40
0.2261732683
 40
0.2414699124
 40
0.2568039734
 40
0.2721763729
 40
0.2875878193
 40
0.3030387972
 40
0.3185295728
 40
0.3340601946
 40
0.3496304877
 40
0.3652400644
 40
0.3808883259
 40
0.3965744612
 40
0.4122974619
 40
0.4280561242
 40
0.4438490534
 40
0.4596746808
 40
0.4914119437
 40
0.5232571513
 40
0.5551923202
 40
0.587197651
 40
0.6192519366
 40
0.651332993
 40
0.6834181045
 40
0.7154844744
 40
0.7475096792
 40
0.7794721147
 40
0.8113514322
 40
0.8431289588
 40
0.8747880885
 40
0.9063146442
 40
0.9376972366
 40
0.9689272309
 40
1.0
 40
1.0
 40
1.0
 40
1.0
 10
11.8036934565
 20
8.2866430231
 30
0.0
 10
11.796550925
 20
8.279743861
 30
0.0
 10
11.7819884662
 20
8.266226537
 30
0.0
 10
11.7593538387
 20
8.2468324938
 30
0.0
 10
11.7359570879
 20
8.2283447182
 30
0.0
 10
11.7118308869
 20
8.2107890345
 30
0.0
 10
11.6870082416
 20
8.1941895944
 30
0.0
 10
11.6615234135
 20
8.1785691739
 30
0.0
 10
11.6354114723
 20
8.1639492332
 30
0.0
 10
11.608708299
 20
8.150349993
 30
0.0
 10
11.5814507072
 20
8.1377900314
 30
0.0
 10
11.5536761919
 20
8.126286638
 30
0.0
 10
11.5254229418
 20
8.1158557138
 30
0.0
 10
11.4967298852
 20
8.1065114578
 30
0.0
 10
11.4676364774
 20
8.0982667684
 30
0.0
 10
11.4381827379
 20
8.0911330209
 30
0.0
 10
11.4084092196
 20
8.0851198761
 30
0.0
 10
11.3783568589
 20
8.0802356808
 30
0.0
 10
11.3480670002
 20
8.076487138
 30
0.0
 10
11.3175813184
 20
8.0738792678
 30
0.0
 10
11.2869417321
 20
8.0724157565
 30
0.0
 10
11.2561903876
 20
8.0720985535
 30
0.0
 10
11.2253695717
 20
8.0729279897
 30
0.0
 10
11.1945216716
 20
8.0749030368
 30
0.0
 10
11.1636891038
 20
8.0780208738
 30
0.0
 10
11.1329142539
 20
8.0822771478
 30
0.0
 10
11.1022394524
 20
8.087666118
 30
0.0
 10
11.0717068642
 20
8.0941802366
 30
0.0
 10
11.0413584265
 20
8.1018105415
 30
0.0
 10
11.0112360142
 20
8.110546578
 30
0.0
 10
10.9813805401
 20
8.120376402
 30
0.0
 10
10.9419515643
 20
8.1349349536
 30
0.0
 10
10.8935390625
 20
8.1558041579
 30
0.0
 10
10.8372235595
 20
8.1849423417
 30
0.0
 10
10.7829319317
 20
8.2180425557
 30
0.0
 10
10.7309641087
 20
8.2549221766
 30
0.0
 10
10.6816047037
 20
8.295378781
 30
0.0
 10
10.6351246595
 20
8.3391900818
 30
0.0
 10
10.5917790336
 20
8.3861155984
 30
0.0
 10
10.5518058316
 20
8.4358978236
 30
0.0
 10
10.5154244878
 20
8.4882635215
 30
0.0
 10
10.4828348512
 20
8.5429253532
 30
0.0
 10
10.454216133
 20
8.5995834385
 30
0.0
 10
10.4297257407
 20
8.6579268355
 30
0.0
 10
10.4094985002
 20
8.7176354372
 30
0.0
 10
10.3936460101
 20
8.7783812282
 30
0.0
 10
10.382256028
 20
8.8398317976
 30
0.0
 10
10.375391482
 20
8.9016453269
 30
0.0
 10
10.3738539802
 20
8.9429862957
 30
0.0
 10
10.3738539802
 20
8.963596707
 30
0.0
  0
SPLINE
  5
37E
100
AcDbEntity
  8
0
100
AcDbSpline
 62
7
  6
CONTINUOUS
 70
0
 71
3
 72
51
 73
47
 74
0
 42
0.0000001
 43
0.0000001
 44
0.0000000001
 40
0.0
 40
0.0
 40
0.0
 40
0.0
 40
0.0055575483
 40
0.0111779716
 40
0.01692191
 40
0.0228457685
 40
0.029000541
 40
0.0354309187
 40
0.0421753321
 40
0.0492661787
 40
0.0567301751
 40
0.0645892818
 40
0.072860934
 40
0.0815589354
 40
0.0906938799
 40
0.1002734384
 40
0.1103031157
 40
0.1207861166
 40
0.1317239771
 40
0.1431166596
 40
0.1549625852
 40
0.1672591636
 40
0.1800024627
 40
0.1931876894
 40
0.2068091423
 40
0.2208601567
 40
0.2502201891
 40
0.2812020358
 40
0.3137291498
 40
0.3477165256
 40
0.3830717054
 40
0.4196956132
 40
0.4574832856
 40
0.4963245986
 40
0.5361048951
 40
0.5767055669
 40
0.6180046028
 40
0.6598771293
 40
0.7021959705
 40
0.7448321944
 40
0.7876555817
 40
0.8305351627
 40
0.8733399838
 40
0.9159382941
 40
0.9582023666
 40
1.0
 40
1.0
 40
1.0
 40
1.0
 10
8.0880265228
 20
11.2913050167
 30
0.0
 10
8.0880265154
 20
11.2921560069
 30
0.0
 10
8.0881217561
 20
11.293869097
 30
0.0
 10
8.0885493129
 20
11.2964296011
 30
0.0
 10
8.0892609334
 20
11.2989843724
 30
0.0
 10
8.0902550759
 20
11.3015305049
 30
0.0
 10
8.091530285
 20
11.3040658603
 30
0.0
 10
8.0930847035
 20
11.3065885597
 30
0.0
 10
8.0949166219
 20
11.3090968489
 30
0.0
 10
8.0970242683
 20
11.3115890023
 30
0.0
 10
8.099405677
 20
11.3140634279
 30
0.0
 10
8.1020589501
 20
11.3165182992
 30
0.0
 10
8.1049818526
 20
11.3189519486
 30
0.0
 10
8.1081720784
 20
11.3213625455
 30
0.0
 10
8.1116270992
 20
11.3237482322
 30
0.0
 10
8.1153441198
 20
11.3261072481
 30
0.0
 10
8.1193202233
 20
11.3284376351
 30
0.0
 10
8.12355218
 20
11.3307376253
 30
0.0
 10
8.1280366039
 20
11.3330053376
 30
0.0
 10
8.1327698814
 20
11.3352389151
 30
0.0
 10
8.1377481613
 20
11.3374366159
 30
0.0
 10
8.1429674324
 20
11.339596558
 30
0.0
 10
8.1484234314
 20
11.3417170539
 30
0.0
 10
8.1541117255
 20
11.3437963287
 30
0.0
 10
8.160027688
 20
11.3458326842
 30
0.0
 10
8.1683347786
 20
11.3485279263
 30
0.0
 10
8.1792578556
 20
11.351767678
 30
0.0
 10
8.1930073092
 20
11.3554041434
 30
0.0
 10
8.2075391012
 20
11.3588320434
 30
0.0
 10
8.2228057395
 20
11.3620400496
 30
0.0
 10
8.2387574522
 20
11.3650175251
 30
0.0
 10
8.2553421085
 20
11.3677546081
 30
0.0
 10
8.2725054732
 20
11.3702422488
 30
0.0
 10
8.2901913817
 20
11.3724722204
 30
0.0
 10
8.3083419423
 20
11.3744371497
 30
0.0
 10
8.326897725
 20
11.3761305378
 30
0.0
 10
8.3457979563
 20
11.3775467839
 30
0.0
 10
8.3649807193
 20
11.3786812179
 30
0.0
 10
8.3843831671
 20
11.3795300974
 30
0.0
 10
8.403941728
 20
11.3800906186
 30
0.0
 10
8.4235923128
 20
11.3803609268
 30
0.0
 10
8.44327056
 20
11.3803401295
 30
0.0
 10
8.462911878
 20
11.3800282813
 30
0.0
 10
8.4824521817
 20
11.3794264612
 30
0.0
 10
8.5018270686
 20
11.3785365822
 30
0.0
 10
8.5146753257
 20
11.3777481424
 30
0.0
 10
8.5210601824
 20
11.3773053511
 30
0.0
  0
SPLINE
  5
37F
100
AcDbEntity
  8
0
100
AcDbSpline
 62
7
  6
CONTINUOUS
 70
0
 71
3
 72
54
 73
50
 74
0
 42
0.0000001
 43
0.0000001
 44
0.0000000001
 40
0.0
 40
0.0
 40
0.0
 40
0.0
 40
0.0149714207
 40
0.0299459009
 40
0.0449264795
 40
0.0599161607
 40
0.0749178924
 40
0.0899345474
 40
0.1049689109
 40
0.1200236599
 40
0.135101347
 40
0.1502043904
 40
0.1653350555
 40
0.1804954423
 40
0.195687479
 40
0.210912906
 40
0.2261732683
 40
0.2414699124
 40
0.2568039734
 40
0.2721763729
 40
0.2875878193
 40
0.3030387972
 40
0.3185295728
 40
0.3340601946
 40
0.3496304877
 40
0.3652400644
 40
0.3808883259
 40
0.3965744612
 40
0.4122974619
 40
0.4280561242
 40
0.4438490534
 40
0.4596746808
 40
0.4914119437
 40
0.5232571513
 40
0.5551923202
 40
0.587197651
 40
0.6192519366
 40
0.651332993
 40
0.6834181045
 40
0.7154844744
 40
0.7475096792
 40
0.7794721147
 40
0.8113514322
 40
0.8431289588
 40
0.8747880885
 40
0.9063146442
 40
0.9376972366
 40
0.9689272309
 40
1.0
 40
1.0
 40
1.0
 40
1.0
 10
9.8718414592
 20
6.2472841762
 30
0.0
 10
9.8646989276
 20
6.2403850141
 30
0.0
 10
9.8501364689
 20
6.2268676902
 30
0.0
 10
9.8275018414
 20
6.2074736469
 30
0.0
 10
9.8041050906
 20
6.1889858714
 30
0.0
 10
9.7799788896
 20
6.1714301876
 30
0.0
 10
9.7551562443
 20
6.1548307475
 30
0.0
 10
9.7296714162
 20
6.139210327
 30
0.0
 10
9.703559475
 20
6.1245903863
 30
0.0
 10
9.6768563017
 20
6.1109911461
 30
0.0
 10
9.6495987099
 20
6.0984311845
 30
0.0
 10
9.6218241946
 20
6.0869277911
 30
0.0
 10
9.5935709445
 20
6.0764968669
 30
0.0
 10
9.5648778878
 20
6.0671526109
 30
0.0
 10
9.53578448
 20
6.0589079215
 30
0.0
 10
9.5063307406
 20
6.051774174
 30
0.0
 10
9.4765572223
 20
6.0457610293
 30
0.0
 10
9.4465048616
 20
6.0408768339
 30
0.0
 10
9.4162150028
 20
6.0371282911
 30
0.0
 10
9.3857293211
 20
6.0345204209
 30
0.0
 10
9.3550897348
 20
6.0330569096
 30
0.0
 10
9.3243383903
 20
6.0327397067
 30
0.0
 10
9.2935175744
 20
6.0335691428
 30
0.0
 10
9.2626696742
 20
6.0355441899
 30
0.0
 10
9.2318371065
 20
6.0386620269
 30
0.0
 10
9.2010622566
 20
6.0429183009
 30
0.0
 10
9.170387455
 20
6.0483072711
 30
0.0
 10
9.1398548669
 20
6.0548213897
 30
0.0
 10
9.1095064292
 20
6.0624516946
 30
0.0
 10
9.0793840168
 20
6.0711877312
 30
0.0
 10
9.0495285428
 20
6.0810175552
 30
0.0
 10
9.0100995669
 20
6.0955761067
 30
0.0
 10
8.9616870651
 20
6.116445311
 30
0.0
 10
8.9053715621
 20
6.1455834949
 30
0.0
 10
8.8510799344
 20
6.1786837088
 30
0.0
 10
8.7991121114
 20
6.2155633298
 30
0.0
 10
8.7497527063
 20
6.2560199341
 30
0.0
 10
8.7032726622
 20
6.299831235
 30
0.0
 10
8.6599270363
 20
6.3467567516
 30
0.0
 10
8.6199538342
 20
6.3965389768
 30
0.0
 10
8.5835724905
 20
6.4489046746
 30
0.0
 10
8.5509828539
 20
6.5035665063
 30
0.0
 10
8.5223641356
 20
6.5602245916
 30
0.0
 10
8.4978737434
 20
6.6185679886
 30
0.0
 10
8.4776465029
 20
6.6782765903
 30
0.0
 10
8.4617940128
 20
6.7390223813
 30
0.0
 10
8.4504040307
 20
6.8004729508
 30
0.0
 10
8.4435394847
 20
6.8622864801
 30
0.0
 10
8.4420019829
 20
6.9036274488
 30
0.0
 10
8.4420019829
 20
6.9242378602
 30
0.0
  0
SPLINE
  5
380
100
AcDbEntity
  8
0
100
AcDbSpline
 62
7
  6
CONTINUOUS
 70
0
 71
3
 72
55
 73
51
 74
0
 42
0.0000001
 43
0.0000001
 44
0.0000000001
 40
0.0
 40
0.0
 40
0.0
 40
0.0
 40
0.0149619368
 40
0.0299312102
 40
0.0449106607
 40
0.0599030693
 40
0.0749111394
 40
0.0899374877
 40
0.1049846232
 40
0.1200549352
 40
0.1351506842
 40
0.1502739817
 40
0.1654267865
 40
0.1806108923
 40
0.195827914
 40
0.2110792891
 40
0.2263662629
 40
0.2416898848
 40
0.2570510099
 40
0.2724502853
 40
0.2878881575
 40
0.3033648687
 40
0.3188804517
 40
0.3344347417
 40
0.3500273692
 40
0.3656577666
 40
0.3813251774
 40
0.397028651
 40
0.412767059
 40
0.4285390978
 40
0.4443432922
 40
0.4601780138
 40
0.4919270556
 40
0.5237750956
 40
0.5557043255
 40
0.5876953777
 40
0.6197277047
 40
0.6517799743
 40
0.683830476
 40
0.7158575332
 40
0.7478399137
 40
0.7797572342
 40
0.8115903556
 40
0.8433217594
 40
0.8749358986
 40
0.9064195193
 40
0.9221113913
 40
0.9377669155
 40
0.9689601911
 40
1.0
 40
1.0
 40
1.0
 40
1.0
 10
9.8710038228
 20
6.2483137177
 30
0.0
 10
9.8636375833
 20
6.2419993273
 30
0.0
 10
9.8486547491
 20
6.2296520612
 30
0.0
 10
9.8254735547
 20
6.2120120068
 30
0.0
 10
9.8016102533
 20
6.1952710603
 30
0.0
 10
9.7770964919
 20
6.1794517314
 30
0.0
 10
9.7519644311
 20
6.1645745325
 30
0.0
 10
9.7262470625
 20
6.150659048
 30
0.0
 10
9.6999780999
 20
6.1377236047
 30
0.0
 10
9.6731921042
 20
6.1257850089
 30
0.0
 10
9.6459241663
 20
6.1148590615
 30
0.0
 10
9.6182101061
 20
6.1049600286
 30
0.0
 10
9.5900863184
 20
6.0961008079
 30
0.0
 10
9.5615896633
 20
6.0882931755
 30
0.0
 10
9.5327575864
 20
6.0815471882
 30
0.0
 10
9.5036279016
 20
6.0758717444
 30
0.0
 10
9.4742388247
 20
6.0712743371
 30
0.0
 10
9.4446289394
 20
6.067760813
 30
0.0
 10
9.4148370726
 20
6.0653359288
 30
0.0
 10
9.3849023206
 20
6.064002761
 30
0.0
 10
9.3548639491
 20
6.0637629812
 30
0.0
 10
9.3247613633
 20
6.0646170468
 30
0.0
 10
9.2946340439
 20
6.066563638
 30
0.0
 10
9.264521507
 20
6.0696002693
 30
0.0
 10
9.2344632561
 20
6.0737229821
 30
0.0
 10
9.2044986878
 20
6.0789262004
 30
0.0
 10
9.1746671252
 20
6.085203254
 30
0.0
 10
9.1450076789
 20
6.0925457892
 30
0.0
 10
9.1155591978
 20
6.1009441436
 30
0.0
 10
9.0863604536
 20
6.1103873758
 30
0.0
 10
9.0574492547
 20
6.1208631246
 30
0.0
 10
9.0193061193
 20
6.1362006913
 30
0.0
 10
8.972537159
 20
6.1578885687
 30
0.0
 10
8.91821944
 20
6.1877652122
 30
0.0
 10
8.8659330038
 20
6.2213625946
 30
0.0
 10
8.8159533638
 20
6.2585038656
 30
0.0
 10
8.7685416472
 20
6.2989946155
 30
0.0
 10
8.7239461989
 20
6.3426227217
 30
0.0
 10
8.682400428
 20
6.3891596954
 30
0.0
 10
8.6441219023
 20
6.4383618918
 30
0.0
 10
8.6093111637
 20
6.4899717594
 30
0.0
 10
8.5781506793
 20
6.5437192089
 30
0.0
 10
8.5508038288
 20
6.5993227389
 30
0.0
 10
8.527414026
 20
6.6564918045
 30
0.0
 10
8.5081045105
 20
6.7149251966
 30
0.0
 10
8.4954828044
 20
6.7644805502
 30
0.0
 10
8.487523987
 20
6.804446479
 30
0.0
 10
8.4810124501
 20
6.844483081
 30
0.0
 10
8.4755615683
 20
6.8947402342
 30
0.0
 10
8.4740955175
 20
6.935109763
 30
0.0
 10
8.4740955175
 20
6.9552378359
 30
0.0
  0
SPLINE
  5
381
100
AcDbEntity
  8
0
100
AcDbSpline
 62
7
  6
CONTINUOUS
 70
0
 71
3
 72
56
 73
52
 74
0
 42
0.0000001
 43
0.0000001
 44
0.0000000001
 40
0.0
 40
0.0
 40
0.0
 40
0.0
 40
0.0149712696
 40
0.0299455975
 40
0.0449260257
 40
0.0599155555
 40
0.0749171349
 40
0.0899336395
 40
0.1049678509
 40
0.1200224476
 40
0.1350999838
 40
0.1502028742
 40
0.1653333868
 40
0.1804936216
 40
0.1956855044
 40
0.2109107785
 40
0.2261709873
 40
0.2414674767
 40
0.2568013838
 40
0.2721736284
 40
0.2875849194
 40
0.303035742
 40
0.3185263613
 40
0.3340568268
 40
0.3496269629
 40
0.3652363825
 40
0.3808844863
 40
0.3965704631
 40
0.412293306
 40
0.4280518089
 40
0.4438445787
 40
0.4596700473
 40
0.4755264713
 40
0.4914119521
 40
0.5232568382
 40
0.5551916851
 40
0.5871966925
 40
0.619250654
 40
0.6513313861
 40
0.6834161731
 40
0.7154822189
 40
0.7475070999
 40
0.7794692115
 40
0.8113482064
 40
0.8431254121
 40
0.874784222
 40
0.9063104541
 40
0.9220227305
 40
0.937697876
 40
0.9689275382
 40
1.0
 40
1.0
 40
1.0
 40
1.0
 10
9.8806954795
 20
6.3211819028
 30
0.0
 10
9.8739428461
 20
6.3146593504
 30
0.0
 10
9.8601752537
 20
6.3018799854
 30
0.0
 10
9.8387762318
 20
6.2835445969
 30
0.0
 10
9.8166566602
 20
6.2660660323
 30
0.0
 10
9.793847398
 20
6.2494687656
 30
0.0
 10
9.7703798074
 20
6.2337754031
 30
0.0
 10
9.746286116
 20
6.2190077137
 30
0.0
 10
9.7215995414
 20
6.2051859068
 30
0.0
 10
9.6963540696
 20
6.192328964
 30
0.0
 10
9.6705843786
 20
6.180454702
 30
0.0
 10
9.6443260119
 20
6.1695792747
 30
0.0
 10
9.6176150596
 20
6.1597177242
 30
0.0
 10
9.5904882734
 20
6.1508836311
 30
0.0
 10
9.5629830212
 20
6.1430889873
 30
0.0
 10
9.5351370981
 20
6.1363446681
 30
0.0
 10
9.5069888451
 20
6.1306598258
 30
0.0
 10
9.4785769862
 20
6.1260422239
 30
0.0
 10
9.4499405843
 20
6.122498345
 30
0.0
 10
9.4211190526
 20
6.1200328592
 30
0.0
 10
9.3921520195
 20
6.1186492325
 30
0.0
 10
9.3630793284
 20
6.118349381
 30
0.0
 10
9.3339409588
 20
6.1191335455
 30
0.0
 10
9.3047769846
 20
6.1210008001
 30
0.0
 10
9.2756275062
 20
6.1239484542
 30
0.0
 10
9.2465325938
 20
6.1279723956
 30
0.0
 10
9.2175322753
 20
6.1330672246
 30
0.0
 10
9.188666392
 20
6.1392257403
 30
0.0
 10
9.159974641
 20
6.146439549
 30
0.0
 10
9.1314964887
 20
6.1546987496
 30
0.0
 10
9.1032710088
 20
6.1639918445
 30
0.0
 10
9.0753371651
 20
6.1743061434
 30
0.0
 10
9.0477329088
 20
6.18562759
 30
0.0
 10
9.0113921279
 20
6.2020560603
 30
0.0
 10
8.9669819522
 20
6.2250338935
 30
0.0
 10
8.9156554781
 20
6.256326677
 30
0.0
 10
8.8665240947
 20
6.2911932868
 30
0.0
 10
8.8198592037
 20
6.3294413748
 30
0.0
 10
8.7759164162
 20
6.3708611512
 30
0.0
 10
8.7349369917
 20
6.4152251303
 30
0.0
 10
8.697145825
 20
6.4622898273
 30
0.0
 10
8.6627504532
 20
6.5117969698
 30
0.0
 10
8.6319398696
 20
6.5634749771
 30
0.0
 10
8.6048834176
 20
6.6170401216
 30
0.0
 10
8.5817298251
 20
6.6721989991
 30
0.0
 10
8.5626069723
 20
6.7286469632
 30
0.0
 10
8.5501025952
 20
6.7765644416
 30
0.0
 10
8.5422164214
 20
6.8152285019
 30
0.0
 10
8.5357639039
 20
6.8539692269
 30
0.0
 10
8.5303614475
 20
6.902614053
 30
0.0
 10
8.5289080687
 20
6.9416973637
 30
0.0
 10
8.5289080687
 20
6.9611826979
 30
0.0
  0
SPLINE
  5
382
100
AcDbEntity
  8
0
100
AcDbSpline
 62
7
  6
CONTINUOUS
 70
0
 71
3
 72
54
 73
50
 74
0
 42
0.0000001
 43
0.0000001
 44
0.0000000001
 40
0.0
 40
0.0
 40
0.0
 40
0.0
 40
0.0149609029
 40
0.0299299255
 40
0.0449098678
 40
0.0599034639
 40
0.07491337
 40
0.089942152
 40
0.1049922632
 40
0.1200660404
 40
0.135165685
 40
0.1502932511
 40
0.1654506415
 40
0.1806395878
 40
0.1958616507
 40
0.21111821
 40
0.2264104527
 40
0.2417393791
 40
0.2571057873
 40
0.272510277
 40
0.2879532492
 40
0.3034348963
 40
0.3189552159
 40
0.3345140011
 40
0.3501108471
 40
0.3657451596
 40
0.3814161475
 40
0.3971228414
 40
0.4286338034
 40
0.4602716597
 40
0.4920227052
 40
0.5238710432
 40
0.5557989108
 40
0.5877870312
 40
0.6198149876
 40
0.6518616134
 40
0.6839053919
 40
0.7159248594
 40
0.7478990088
 40
0.7798076874
 40
0.8116319828
 40
0.8433545917
 40
0.8749601653
 40
0.8907172686
 40
0.9064404048
 40
0.9221283752
 40
0.9377801437
 40
0.9689664454
 40
1.0
 40
1.0
 40
1.0
 40
1.0
 10
9.9147640924
 20
6.3565550724
 30
0.0
 10
9.9077639626
 20
6.3506909064
 30
0.0
 10
9.8935317798
 20
6.3392286527
 30
0.0
 10
9.8715300471
 20
6.3228671454
 30
0.0
 10
9.8488975112
 20
6.3073539052
 30
0.0
 10
9.8256639557
 20
6.2927095551
 30
0.0
 10
9.8018595988
 20
6.2789528682
 30
0.0
 10
9.7775153347
 20
6.2661019192
 30
0.0
 10
9.7526628759
 20
6.2541733106
 30
0.0
 10
9.7273345584
 20
6.2431825117
 30
0.0
 10
9.7015632662
 20
6.2331439471
 30
0.0
 10
9.6753825925
 20
6.2240704595
 30
0.0
 10
9.6488265282
 20
6.2159739874
 30
0.0
 10
9.6219296294
 20
6.2088649892
 30
0.0
 10
9.5947268873
 20
6.2027526073
 30
0.0
 10
9.5672536355
 20
6.1976449533
 30
0.0
 10
9.5395456328
 20
6.1935484455
 30
0.0
 10
9.5116388796
 20
6.1904685172
 30
0.0
 10
9.4835696614
 20
6.1884091505
 30
0.0
 10
9.4553744708
 20
6.1873728751
 30
0.0
 10
9.4270899522
 20
6.1873612204
 30
0.0
 10
9.398752872
 20
6.1883739946
 30
0.0
 10
9.3704000561
 20
6.1904099465
 30
0.0
 10
9.34206837
 20
6.1934664587
 30
0.0
 10
9.3137945811
 20
6.1975393902
 30
0.0
 10
9.2856155741
 20
6.2026235929
 30
0.0
 10
9.2575675183
 20
6.2087124315
 30
0.0
 10
9.2203579087
 20
6.2181686961
 30
0.0
 10
9.1743543387
 20
6.2324666464
 30
0.0
 10
9.1203209217
 20
6.2534638782
 30
0.0
 10
9.0676706169
 20
6.2782120293
 30
0.0
 10
9.0166783701
 20
6.3065819007
 30
0.0
 10
8.9676081696
 20
6.3384261444
 30
0.0
 10
8.9207146782
 20
6.373579334
 30
0.0
 10
8.8762410674
 20
6.4118589259
 30
0.0
 10
8.8344180241
 20
6.4530662182
 30
0.0
 10
8.795462522
 20
6.4969873979
 30
0.0
 10
8.7595767326
 20
6.543394619
 30
0.0
 10
8.7269469491
 20
6.5920472078
 30
0.0
 10
8.6977426257
 20
6.6426926583
 30
0.0
 10
8.6721153827
 20
6.6950687704
 30
0.0
 10
8.6501989538
 20
6.7489020631
 30
0.0
 10
8.6351055965
 20
6.7947980774
 30
0.0
 10
8.6249971235
 20
6.8319605148
 30
0.0
 10
8.6184121432
 20
6.8599940773
 30
0.0
 10
8.6128254605
 20
6.8881779938
 30
0.0
 10
8.6067253081
 20
6.9258587294
 30
0.0
 10
8.6016188345
 20
6.9731565274
 30
0.0
 10
8.6002455094
 20
7.0111471363
 30
0.0
 10
8.6002455094
 20
7.0300893784
 30
0.0
  0
SPLINE
  5
383
100
AcDbEntity
  8
0
100
AcDbSpline
 62
7
  6
CONTINUOUS
 70
0
 71
3
 72
55
 73
51
 74
0
 42
0.0000001
 43
0.0000001
 44
0.0000000001
 40
0.0
 40
0.0
 40
0.0
 40
0.0
 40
0.0149713426
 40
0.029945745
 40
0.0449262466
 40
0.0599158497
 40
0.0749175039
 40
0.0899340815
 40
0.1049683671
 40
0.1200230387
 40
0.1351006478
 40
0.1502036136
 40
0.1653342004
 40
0.1804945089
 40
0.1956864682
 40
0.2109118157
 40
0.2261721
 40
0.2414686657
 40
0.2568026464
 40
0.2721749684
 40
0.2875863346
 40
0.3030372323
 40
0.3185279299
 40
0.3340584699
 40
0.3496286834
 40
0.3652381805
 40
0.3808863595
 40
0.3965724155
 40
0.4122953346
 40
0.4280539148
 40
0.4596672873
 40
0.4914043865
 40
0.5232494291
 40
0.5551844326
 40
0.5871895976
 40
0.619243717
 40
0.651324607
 40
0.6834095519
 40
0.7154757557
 40
0.747500794
 40
0.7794630628
 40
0.8113422149
 40
0.8431195771
 40
0.8747785431
 40
0.8905616191
 40
0.9063099906
 40
0.9220223492
 40
0.9376975737
 40
0.9689273837
 40
1.0
 40
1.0
 40
1.0
 40
1.0
 10
9.9171586864
 20
6.4676289458
 30
0.0
 10
9.9110697089
 20
6.4617474245
 30
0.0
 10
9.8986552028
 20
6.4502240106
 30
0.0
 10
9.8793592931
 20
6.4336906078
 30
0.0
 10
9.8594135949
 20
6.4179298904
 30
0.0
 10
9.8388460766
 20
6.4029637399
 30
0.0
 10
9.8176848501
 20
6.3888127699
 30
0.0
 10
9.7959590917
 20
6.3754964497
 30
0.0
 10
9.7736987452
 20
6.3630329963
 30
0.0
 10
9.7509343584
 20
6.3514397195
 30
0.0
 10
9.7276973463
 20
6.3407323958
 30
0.0
 10
9.7040196485
 20
6.3309258165
 30
0.0
 10
9.6799338341
 20
6.3220335114
 30
0.0
 10
9.6554730994
 20
6.3140675447
 30
0.0
 10
9.6306710422
 20
6.3070390413
 30
0.0
 10
9.6055618277
 20
6.3009575266
 30
0.0
 10
9.5801799951
 20
6.2958313457
 30
0.0
 10
9.5545604421
 20
6.2916676573
 30
0.0
 10
9.5287384404
 20
6.2884719785
 30
0.0
 10
9.5027494867
 20
6.286248842
 30
0.0
 10
9.4766293368
 20
6.2850012303
 30
0.0
 10
9.4504139124
 20
6.284730758
 30
0.0
 10
9.4241392673
 20
6.2854379547
 30
0.0
 10
9.3978415293
 20
6.2871216402
 30
0.0
 10
9.3715568597
 20
6.2897795811
 30
0.0
 10
9.3453214156
 20
6.2934081282
 30
0.0
 10
9.3191712154
 20
6.2980021435
 30
0.0
 10
9.2931423543
 20
6.3035554387
 30
0.0
 10
9.2672701811
 20
6.3100603723
 30
0.0
 10
9.2329984293
 20
6.3199996236
 30
0.0
 10
9.190727943
 20
6.3347629104
 30
0.0
 10
9.1412559223
 20
6.3560893679
 30
0.0
 10
9.093245774
 20
6.3809300377
 30
0.0
 10
9.0469627134
 20
6.4091477611
 30
0.0
 10
9.0026602177
 20
6.4405875612
 30
0.0
 10
8.9605815166
 20
6.4750766881
 30
0.0
 10
8.9209574441
 20
6.5124257093
 30
0.0
 10
8.8840054586
 20
6.5524295802
 30
0.0
 10
8.8499284056
 20
6.59486874
 30
0.0
 10
8.818913435
 20
6.6395103622
 30
0.0
 10
8.791130943
 20
6.6861093474
 30
0.0
 10
8.7667334955
 20
6.7344104727
 30
0.0
 10
8.7458557752
 20
6.7841469335
 30
0.0
 10
8.7314699585
 20
6.8266130525
 30
0.0
 10
8.7218326153
 20
6.8610270195
 30
0.0
 10
8.7155534559
 20
6.886999178
 30
0.0
 10
8.7102254309
 20
6.9131207787
 30
0.0
 10
8.7044071694
 20
6.9480537609
 30
0.0
 10
8.699535611
 20
6.9919179165
 30
0.0
 10
8.6982250866
 20
7.0271600736
 30
0.0
 10
8.6982250866
 20
7.044730388
 30
0.0
  0
SPLINE
  5
384
100
AcDbEntity
  8
0
100
AcDbSpline
 62
7
  6
CONTINUOUS
 70
0
 71
3
 72
43
 73
39
 74
0
 42
0.0000001
 43
0.0000001
 44
0.0000000001
 40
0.0
 40
0.0
 40
0.0
 40
0.0
 40
0.0303546589
 40
0.0455763053
 40
0.0608269374
 40
0.0914129854
 40
0.1221164404
 40
0.1375134516
 40
0.1529394062
 40
0.1838739518
 40
0.2149194073
 40
0.2460709173
 40
0.2773223873
 40
0.3086665654
 40
0.3400951368
 40
0.3715988265
 40
0.403167512
 40
0.4347903413
 40
0.4664558587
 40
0.4981521342
 40
0.5298668974
 40
0.5615876735
 40
0.5933019214
 40
0.6249971718
 40
0.6566611651
 40
0.6882819878
 40
0.7198482062
 40
0.7513489958
 40
0.7827742672
 40
0.8141147812
 40
0.8453622728
 40
0.8609502244
 40
0.8765122974
 40
0.9075533139
 40
0.9384831009
 40
0.9539065263
 40
0.9693015043
 40
1.0
 40
1.0
 40
1.0
 40
1.0
 10
10.1007117043
 20
6.8257732282
 30
0.0
 10
10.0878806759
 20
6.824085692
 30
0.0
 10
10.0685379098
 20
6.8220971706
 30
0.0
 10
10.0426496338
 20
6.8205316522
 30
0.0
 10
10.0166283747
 20
6.8196869972
 30
0.0
 10
9.983979617
 20
6.8199924162
 30
0.0
 10
9.9513355531
 20
6.8221050431
 30
0.0
 10
9.9252477405
 20
6.8248732685
 30
0.0
 10
9.8991476475
 20
6.8283660765
 30
0.0
 10
9.8666264421
 20
6.8340789822
 30
0.0
 10
9.8279291047
 20
6.8430553106
 30
0.0
 10
9.7896386765
 20
6.8541316789
 30
0.0
 10
9.7518727861
 20
6.8672740752
 30
0.0
 10
9.7147465027
 20
6.8824422955
 30
0.0
 10
9.6783731871
 20
6.8995899354
 30
0.0
 10
9.6428638263
 20
6.9186645718
 30
0.0
 10
9.6083267841
 20
6.9396079124
 30
0.0
 10
9.5748674499
 20
6.9623559767
 30
0.0
 10
9.5425879259
 20
6.9868392893
 30
0.0
 10
9.5115867153
 20
7.0129830921
 30
0.0
 10
9.4819584253
 20
7.0407075706
 30
0.0
 10
9.4537934792
 20
7.0699280968
 30
0.0
 10
9.4271778427
 20
7.1005554858
 30
0.0
 10
9.4021927629
 20
7.1324962659
 30
0.0
 10
9.3789145217
 20
7.1656529644
 30
0.0
 10
9.3574142009
 20
7.1999243936
 30
0.0
 10
9.3377574635
 20
7.2352059833
 30
0.0
 10
9.3200043742
 20
7.2713900158
 30
0.0
 10
9.3042091465
 20
7.3083662575
 30
0.0
 10
9.290420238
 20
7.3460211593
 30
0.0
 10
9.280628138
 20
7.3778979946
 30
0.0
 10
9.2738393324
 20
7.403622822
 30
0.0
 10
9.2677610964
 20
7.4294343518
 30
0.0
 10
9.2614807985
 20
7.4619052124
 30
0.0
 10
9.2569721095
 20
7.4946096213
 30
0.0
 10
9.254445144
 20
7.5208170553
 30
0.0
 10
9.2526419266
 20
7.546984648
 30
0.0
 10
9.252097386
 20
7.5666418606
 30
0.0
 10
9.252097386
 20
7.5797299782
 30
0.0
  0
SPLINE
  5
385
100
AcDbEntity
  8
0
100
AcDbSpline
 62
7
  6
CONTINUOUS
 70
0
 71
3
 72
23
 73
19
 74
0
 42
0.0000001
 43
0.0000001
 44
0.0000000001
 40
0.0
 40
0.0
 40
0.0
 40
0.0
 40
0.0618603907
 40
0.1239640988
 40
0.1862853195
 40
0.2487942118
 40
0.3114574842
 40
0.3742390306
 40
0.4371006016
 40
0.5000025046
 40
0.5629043217
 40
0.6257656364
 40
0.6885467608
 40
0.7512094533
 40
0.8137176182
 40
0.8760379774
 40
0.9381407091
 40
1.0
 40
1.0
 40
1.0
 40
1.0
 10
10.0159540843
 20
7.1893781394
 30
0.0
 10
10.004137517
 20
7.1926376878
 30
0.0
 10
9.9806740478
 20
7.1999834825
 30
0.0
 10
9.9462503284
 20
7.2133835697
 30
0.0
 10
9.9126879458
 20
7.2291233863
 30
0.0
 10
9.8801558608
 20
7.2471238782
 30
0.0
 10
9.8488151202
 20
7.2672955791
 30
0.0
 10
9.8188215933
 20
7.2895380626
 30
0.0
 10
9.7903242584
 20
7.3137407092
 30
0.0
 10
9.7634647258
 20
7.3397831796
 30
0.0
 10
9.7383764728
 20
7.3675360269
 30
0.0
 10
9.7151842046
 20
7.3968613331
 30
0.0
 10
9.694003239
 20
7.4276133712
 30
0.0
 10
9.674938923
 20
7.4596393905
 30
0.0
 10
9.6580861751
 20
7.4927801095
 30
0.0
 10
9.6435287798
 20
7.5268714574
 30
0.0
 10
9.6313398461
 20
7.561741814
 30
0.0
 10
9.6248185183
 20
7.5854472395
 30
0.0
 10
9.6219739276
 20
7.5973702794
 30
0.0
  0
SPLINE
  5
386
100
AcDbEntity
  8
0
100
AcDbSpline
 62
7
  6
CONTINUOUS
 70
0
 71
3
 72
44
 73
40
 74
0
 42
0.0000001
 43
0.0000001
 44
0.0000000001
 40
0.0
 40
0.0
 40
0.0
 40
0.0
 40
0.0151732875
 40
0.0303748369
 40
0.0456050022
 40
0.060864052
 40
0.0914665415
 40
0.122185615
 40
0.1375900262
 40
0.1530230813
 40
0.1839708813
 40
0.2150281194
 40
0.2461897957
 40
0.277449708
 40
0.3088005338
 40
0.3402339229
 40
0.371740599
 40
0.4033104699
 40
0.4349327437
 40
0.4665960515
 40
0.4982885749
 40
0.5299981766
 40
0.5617125336
 40
0.593419271
 40
0.625106097
 40
0.656760937
 40
0.6883720656
 40
0.7199282364
 40
0.7514188085
 40
0.7828338683
 40
0.8141643422
 40
0.8454021182
 40
0.8609853547
 40
0.8765428438
 40
0.9075751893
 40
0.9384969135
 40
0.953916598
 40
0.9693080715
 40
1.0
 40
1.0
 40
1.0
 40
1.0
 10
10.1005584269
 20
6.8834294182
 30
0.0
 10
10.0945670027
 20
6.882713111
 30
0.0
 10
10.0825521963
 20
6.8814473633
 30
0.0
 10
10.0644676263
 20
6.8800517655
 30
0.0
 10
10.0463169011
 20
6.8791582083
 30
0.0
 10
10.022025045
 20
6.8786367815
 30
0.0
 10
9.9915602257
 20
6.8792463688
 30
0.0
 10
9.9611173411
 20
6.881528919
 30
0.0
 10
9.9367984225
 20
6.8843529985
 30
0.0
 10
9.9124749388
 20
6.8878478179
 30
0.0
 10
9.882179169
 20
6.8934625017
 30
0.0
 10
9.8461465815
 20
6.9021608127
 30
0.0
 10
9.8105087185
 20
6.9128001153
 30
0.0
 10
9.7753736314
 20
6.9253481383
 30
0.0
 10
9.7408469831
 20
6.939767007
 30
0.0
 10
9.7070328278
 20
6.9560131883
 30
0.0
 10
9.6740330059
 20
6.9740376676
 30
0.0
 10
9.6419469185
 20
6.9937860836
 30
0.0
 10
9.6108712103
 20
7.0151988966
 30
0.0
 10
9.5808994822
 20
7.0382115597
 30
0.0
 10
9.5521220068
 20
7.062754713
 30
0.0
 10
9.5246254644
 20
7.0887543987
 30
0.0
 10
9.4984926825
 20
7.1161322819
 30
0.0
 10
9.4738023881
 20
7.1448058851
 30
0.0
 10
9.4506289725
 20
7.1746888351
 30
0.0
 10
9.4290422678
 20
7.205691122
 30
0.0
 10
9.4091073395
 20
7.2377193636
 30
0.0
 10
9.3908842869
 20
7.2706771049
 30
0.0
 10
9.3744280763
 20
7.3044650291
 30
0.0
 10
9.3597883074
 20
7.3389815342
 30
0.0
 10
9.3470093015
 20
7.3741219964
 30
0.0
 10
9.3379351661
 20
7.4038634342
 30
0.0
 10
9.3316443877
 20
7.4278617288
 30
0.0
 10
9.326012217
 20
7.4519392147
 30
0.0
 10
9.3201930531
 20
7.4822255395
 30
0.0
 10
9.3160156247
 20
7.512726492
 30
0.0
 10
9.3136743495
 20
7.5371672265
 30
0.0
 10
9.3120036585
 20
7.5615706749
 30
0.0
 10
9.311499149
 20
7.579902156
 30
0.0
 10
9.311499149
 20
7.5921076786
 30
0.0
  0
SPLINE
  5
387
100
AcDbEntity
  8
0
100
AcDbSpline
 62
7
  6
CONTINUOUS
 70
0
 71
3
 72
39
 73
35
 74
0
 42
0.0000001
 43
0.0000001
 44
0.0000000001
 40
0.0
 40
0.0
 40
0.0
 40
0.0
 40
0.0307220853
 40
0.0615353935
 40
0.0924373903
 40
0.123424861
 40
0.1544939419
 40
0.1856401473
 40
0.216858407
 40
0.2481431177
 40
0.279488184
 40
0.3108870598
 40
0.3423328045
 40
0.3738181397
 40
0.4053354964
 40
0.4368770697
 40
0.4684348836
 40
0.5000008462
 40
0.5315668019
 40
0.5631245966
 40
0.5946661387
 40
0.6261834514
 40
0.6576687301
 40
0.6891144075
 40
0.7205132048
 40
0.7518581812
 40
0.7831427931
 40
0.8143609439
 40
0.8455070329
 40
0.876575995
 40
0.9075633128
 40
0.9384652097
 40
0.9692784105
 40
1.0
 40
1.0
 40
1.0
 40
1.0
 10
10.0790632915
 20
7.0164164512
 30
0.0
 10
10.0691478908
 20
7.017629932
 30
0.0
 10
10.0493386564
 20
7.0205000258
 30
0.0
 10
10.019801779
 20
7.0261127106
 30
0.0
 10
9.9904533526
 20
7.03302841
 30
0.0
 10
9.9613527206
 20
7.0412331537
 30
0.0
 10
9.9325577675
 20
7.0507105703
 30
0.0
 10
9.9041260474
 20
7.0614417609
 30
0.0
 10
9.8761142704
 20
7.0734052053
 30
0.0
 10
9.8485783366
 20
7.0865769789
 30
0.0
 10
9.8215732225
 20
7.1009308141
 30
0.0
 10
9.7951528348
 20
7.1164380507
 30
0.0
 10
9.7693698664
 20
7.1330676577
 30
0.0
 10
9.7442757709
 20
7.1507864337
 30
0.0
 10
9.7199206719
 20
7.1695590591
 30
0.0
 10
9.6963531529
 20
7.1893480195
 30
0.0
 10
9.6736202212
 20
7.2101137804
 30
0.0
 10
9.6517672654
 20
7.2318149148
 30
0.0
 10
9.6308379455
 20
7.2544081458
 30
0.0
 10
9.6108739848
 20
7.2778483278
 30
0.0
 10
9.5919152216
 20
7.3020886727
 30
0.0
 10
9.5739995499
 20
7.3270808393
 30
0.0
 10
9.5571627454
 20
7.3527749495
 30
0.0
 10
9.5414383733
 20
7.3791196906
 30
0.0
 10
9.5268578406
 20
7.4060624942
 30
0.0
 10
9.5134503359
 20
7.4335496235
 30
0.0
 10
9.5012426005
 20
7.4615261949
 30
0.0
 10
9.4902589925
 20
7.4899363621
 30
0.0
 10
9.480521498
 20
7.5187234352
 30
0.0
 10
9.4720496453
 20
7.5478299775
 30
0.0
 10
9.4648602873
 20
7.5771978241
 30
0.0
 10
9.4589678242
 20
7.6067685685
 30
0.0
 10
9.4543841992
 20
7.6364823013
 30
0.0
 10
9.4522036282
 20
7.6563790463
 30
0.0
 10
9.4513351907
 20
7.6663304433
 30
0.0
  0
SPLINE
  5
388
100
AcDbEntity
  8
0
100
AcDbSpline
 62
7
  6
CONTINUOUS
 70
0
 71
3
 72
20
 73
16
 74
0
 42
0.0000001
 43
0.0000001
 44
0.0000000001
 40
0.0
 40
0.0
 40
0.0
 40
0.0
 40
0.141117015
 40
0.2788760764
 40
0.4126167478
 40
0.4777806329
 40
0.5417033797
 40
0.6043106124
 40
0.6655299071
 40
0.7252916989
 40
0.7835289453
 40
0.8401775617
 40
0.8951767134
 40
0.9484687312
 40
1.0
 40
1.0
 40
1.0
 40
1.0
 10
14.3332447527
 20
7.3587785952
 30
0.0
 10
14.3332447527
 20
7.3720055571
 30
0.0
 10
14.3329940846
 20
7.3981455637
 30
0.0
 10
14.3318418691
 20
7.4368057012
 30
0.0
 10
14.330229977
 20
7.4683229955
 30
0.0
 10
14.3285483826
 20
7.4929009311
 30
0.0
 10
14.3271099626
 20
7.5108112663
 30
0.0
 10
14.3254854688
 20
7.5283344112
 30
0.0
 10
14.3236769519
 20
7.5454474267
 30
0.0
 10
14.3216868666
 20
7.5621278784
 30
0.0
 10
14.3195178108
 20
7.5783539235
 30
0.0
 10
14.3171726514
 20
7.5941043091
 30
0.0
 10
14.3146545197
 20
7.6093584374
 30
0.0
 10
14.3119666903
 20
7.624096277
 30
0.0
 10
14.3100309389
 20
7.6337295196
 30
0.0
 10
14.3090331516
 20
7.6384553842
 30
0.0
  0
SPLINE
  5
389
100
AcDbEntity
  8
0
100
AcDbSpline
 62
7
  6
CONTINUOUS
 70
0
 71
3
 72
25
 73
21
 74
0
 42
0.0000001
 43
0.0000001
 44
0.0000000001
 40
0.0
 40
0.0
 40
0.0
 40
0.0
 40
0.0616739827
 40
0.1233885017
 40
0.1851611334
 40
0.2470089423
 40
0.2779683585
 40
0.3089526602
 40
0.3709992415
 40
0.4331676999
 40
0.49547167
 40
0.5579236192
 40
0.6205347777
 40
0.6833149774
 40
0.7147732343
 40
0.7462768529
 40
0.8094192768
 40
0.8727509238
 40
0.9362784945
 40
1.0
 40
1.0
 40
1.0
 40
1.0
 10
8.6764482571
 20
7.4849247644
 30
0.0
 10
8.6683755762
 20
7.4761411999
 30
0.0
 10
8.6526417932
 20
7.4581798705
 30
0.0
 10
8.6303441996
 20
7.4301344329
 30
0.0
 10
8.6093860845
 20
7.4010324242
 30
0.0
 10
8.5930773595
 20
7.3759563711
 30
0.0
 10
8.5807419967
 20
7.3554305469
 30
0.0
 10
8.5688762403
 20
7.3345854608
 30
0.0
 10
8.5549525862
 20
7.3079754071
 30
0.0
 10
8.5397419215
 20
7.2752453894
 30
0.0
 10
8.5260505881
 20
7.2417662547
 30
0.0
 10
8.5139059315
 20
7.2076047684
 30
0.0
 10
8.5033320026
 20
7.1728290914
 30
0.0
 10
8.4958515805
 20
7.1434138793
 30
0.0
 10
8.4906709565
 20
7.1196475228
 30
0.0
 10
8.4860219533
 20
7.0957000795
 30
0.0
 10
8.4812273351
 20
7.0655089469
 30
0.0
 10
8.477113393
 20
7.0289749379
 30
0.0
 10
8.4746429605
 20
6.9921813486
 30
0.0
 10
8.4740955175
 20
6.967563654
 30
0.0
 10
8.4740955175
 20
6.9552378359
 30
0.0
  0
SPLINE
  5
38A
100
AcDbEntity
  8
0
100
AcDbSpline
 62
7
  6
CONTINUOUS
 70
0
 71
3
 72
26
 73
22
 74
0
 42
0.0000001
 43
0.0000001
 44
0.0000000001
 40
0.0
 40
0.0
 40
0.0
 40
0.0
 40
0.0617092235
 40
0.0925729854
 40
0.1234446509
 40
0.1852169748
 40
0.2470517571
 40
0.2780013275
 40
0.3089738777
 40
0.3709922222
 40
0.4331298084
 40
0.4954034049
 40
0.5578284199
 40
0.6204187753
 40
0.6831867461
 40
0.7146430864
 40
0.7461476576
 40
0.8093008659
 40
0.872657114
 40
0.9362236724
 40
1.0
 40
1.0
 40
1.0
 40
1.0
 10
8.7496479963
 20
7.4921283517
 30
0.0
 10
8.7409076338
 20
7.4836857977
 30
0.0
 10
8.7281185217
 20
7.4706800419
 30
0.0
 10
8.7117542748
 20
7.4527012448
 30
0.0
 10
8.6958489599
 20
7.434298036
 30
0.0
 10
8.6768500677
 20
7.4105218201
 30
0.0
 10
8.6590865544
 20
7.3857901056
 30
0.0
 10
8.6456380469
 20
7.3654633305
 30
0.0
 10
8.6326939817
 20
7.3447690626
 30
0.0
 10
8.6174903194
 20
7.3182561923
 30
0.0
 10
8.6008629032
 20
7.2855078616
 30
0.0
 10
8.5858815778
 20
7.2518864718
 30
0.0
 10
8.5725811029
 20
7.2174699372
 30
0.0
 10
8.5609921237
 20
7.1823380368
 30
0.0
 10
8.5527886826
 20
7.1525528091
 30
0.0
 10
8.5471052253
 20
7.1284527937
 30
0.0
 10
8.5420033164
 20
7.1041454482
 30
0.0
 10
8.5367397624
 20
7.0734634476
 30
0.0
 10
8.5322223923
 20
7.0362918501
 30
0.0
 10
8.5295091793
 20
6.9988227515
 30
0.0
 10
8.5289080687
 20
6.9737417402
 30
0.0
 10
8.5289080687
 20
6.9611826979
 30
0.0
  0
SPLINE
  5
38B
100
AcDbEntity
  8
0
100
AcDbSpline
 62
7
  6
CONTINUOUS
 70
0
 71
3
 72
25
 73
21
 74
0
 42
0.0000001
 43
0.0000001
 44
0.0000000001
 40
0.0
 40
0.0
 40
0.0
 40
0.0
 40
0.0616698585
 40
0.0925221144
 40
0.1233873692
 40
0.1851610503
 40
0.2470116891
 40
0.2779729665
 40
0.308959368
 40
0.3710107408
 40
0.4331841913
 40
0.4954928703
 40
0.5579488032
 40
0.6205628041
 40
0.6833443175
 40
0.7463016016
 40
0.8094414048
 40
0.872768098
 40
0.9362885602
 40
1.0
 40
1.0
 40
1.0
 40
1.0
 10
8.7868563267
 20
7.5257017122
 30
0.0
 10
8.7794028986
 20
7.5174299964
 30
0.0
 10
8.7685106808
 20
7.5047540712
 30
0.0
 10
8.7545959651
 20
7.4873549872
 30
0.0
 10
8.7410822332
 20
7.4696185498
 30
0.0
 10
8.7249634047
 20
7.4468413728
 30
0.0
 10
8.7099198666
 20
7.423319565
 30
0.0
 10
8.6985431366
 20
7.4040778519
 30
0.0
 10
8.6876004284
 20
7.3845445243
 30
0.0
 10
8.6747620075
 20
7.3596228873
 30
0.0
 10
8.660739279
 20
7.3289898056
 30
0.0
 10
8.6481191476
 20
7.2976736575
 30
0.0
 10
8.6369262487
 20
7.2657353884
 30
0.0
 10
8.6271820935
 20
7.2332366704
 30
0.0
 10
8.6189054232
 20
7.2002403795
 30
0.0
 10
8.6121122075
 20
7.1668102565
 30
0.0
 10
8.6068156471
 20
7.1330111098
 30
0.0
 10
8.6030256411
 20
7.0989076642
 30
0.0
 10
8.600749856
 20
7.0645671756
 30
0.0
 10
8.6002455094
 20
7.0415923833
 30
0.0
 10
8.6002455094
 20
7.0300893784
 30
0.0
  0
SPLINE
  5
38C
100
AcDbEntity
  8
0
100
AcDbSpline
 62
7
  6
CONTINUOUS
 70
0
 71
3
 72
26
 73
22
 74
0
 42
0.0000001
 43
0.0000001
 44
0.0000000001
 40
0.0
 40
0.0
 40
0.0
 40
0.0
 40
0.0617092224
 40
0.0925729861
 40
0.1234446505
 40
0.1852169763
 40
0.2470517586
 40
0.2780013275
 40
0.3089738786
 40
0.3709922214
 40
0.4331298083
 40
0.4954034066
 40
0.5578284213
 40
0.6204187786
 40
0.6831867415
 40
0.7146430811
 40
0.7461476607
 40
0.8093008765
 40
0.8726570625
 40
0.9362237834
 40
1.0
 40
1.0
 40
1.0
 40
1.0
 10
8.8972706839
 20
7.523494639
 30
0.0
 10
8.8893893331
 20
7.515881812
 30
0.0
 10
8.877857096
 20
7.5041543019
 30
0.0
 10
8.8631011692
 20
7.4879424261
 30
0.0
 10
8.8487589817
 20
7.4713479285
 30
0.0
 10
8.8316273273
 20
7.4499084182
 30
0.0
 10
8.8156096442
 20
7.4276073202
 30
0.0
 10
8.8034828082
 20
7.4092782947
 30
0.0
 10
8.7918109414
 20
7.3906178276
 30
0.0
 10
8.7781014547
 20
7.3667106706
 30
0.0
 10
8.7631081836
 20
7.3371808469
 30
0.0
 10
8.7495992318
 20
7.3068637673
 30
0.0
 10
8.7376059364
 20
7.2758296894
 30
0.0
 10
8.72715593
 20
7.2441505551
 30
0.0
 10
8.7197587043
 20
7.2172926289
 30
0.0
 10
8.7146338329
 20
7.1955611619
 30
0.0
 10
8.7100333213
 20
7.173642746
 30
0.0
 10
8.7052870876
 20
7.1459761804
 30
0.0
 10
8.7012136731
 20
7.1124577936
 30
0.0
 10
8.6987671283
 20
7.0786711625
 30
0.0
 10
8.6982250866
 20
7.0560551067
 30
0.0
 10
8.6982250866
 20
7.044730388
 30
0.0
  0
SPLINE
  5
38D
100
AcDbEntity
  8
0
100
AcDbSpline
 62
4
  6
CONTINUOUS
 70
0
 71
3
 72
403
 73
399
 74
0
 42
0.0000001
 43
0.0000001
 44
0.0000000001
 40
0.0
 40
0.0
 40
0.0
 40
0.0
 40
0.015625
 40
0.0234375
 40
0.03125
 40
0.0390625
 40
0.04296875
 40
0.046875
 40
0.05078125
 40
0.0546875
 40
0.056640625
 40
0.05859375
 40
0.0595703125
 40
0.060546875
 40
0.0615234375
 40
0.0620117188
 40
0.0622558594
 40
0.0625
 40
0.0627441406
 40
0.0629882812
 40
0.0634765625
 40
0.064453125
 40
0.0654296875
 40
0.06640625
 40
0.068359375
 40
0.0703125
 40
0.07421875
 40
0.078125
 40
0.08203125
 40
0.0859375
 40
0.09375
 40
0.1015625
 40
0.10546875
 40
0.109375
 40
0.11328125
 40
0.1171875
 40
0.119140625
 40
0.12109375
 40
0.1220703125
 40
0.123046875
 40
0.1240234375
 40
0.1245117188
 40
0.1247558594
 40
0.125
 40
0.1252441406
 40
0.1254882812
 40
0.1259765625
 40
0.126953125
 40
0.1279296875
 40
0.12890625
 40
0.130859375
 40
0.1328125
 40
0.13671875
 40
0.140625
 40
0.14453125
 40
0.1484375
 40
0.15625
 40
0.1640625
 40
0.16796875
 40
0.171875
 40
0.17578125
 40
0.1796875
 40
0.181640625
 40
0.18359375
 40
0.1845703125
 40
0.185546875
 40
0.1865234375
 40
0.1870117188
 40
0.1872558594
 40
0.1875
 40
0.1877441406
 40
0.1879882812
 40
0.1884765625
 40
0.189453125
 40
0.1904296875
 40
0.19140625
 40
0.193359375
 40
0.1953125
 40
0.19921875
 40
0.203125
 40
0.20703125
 40
0.2109375
 40
0.21875
 40
0.2265625
 40
0.23046875
 40
0.234375
 40
0.23828125
 40
0.2421875
 40
0.244140625
 40
0.24609375
 40
0.2470703125
 40
0.248046875
 40
0.2490234375
 40
0.2495117188
 40
0.2497558594
 40
0.25
 40
0.2502441406
 40
0.2504882812
 40
0.2509765625
 40
0.251953125
 40
0.2529296875
 40
0.25390625
 40
0.255859375
 40
0.2578125
 40
0.26171875
 40
0.265625
 40
0.26953125
 40
0.2734375
 40
0.28125
 40
0.2890625
 40
0.29296875
 40
0.296875
 40
0.30078125
 40
0.3046875
 40
0.306640625
 40
0.30859375
 40
0.3095703125
 40
0.310546875
 40
0.3115234375
 40
0.3120117188
 40
0.3122558594
 40
0.3125
 40
0.3127441406
 40
0.3129882812
 40
0.3134765625
 40
0.314453125
 40
0.3154296875
 40
0.31640625
 40
0.318359375
 40
0.3203125
 40
0.32421875
 40
0.328125
 40
0.33203125
 40
0.3359375
 40
0.34375
 40
0.3515625
 40
0.35546875
 40
0.359375
 40
0.36328125
 40
0.3671875
 40
0.369140625
 40
0.37109375
 40
0.3720703125
 40
0.373046875
 40
0.3740234375
 40
0.3745117188
 40
0.3747558594
 40
0.375
 40
0.3752441406
 40
0.3754882812
 40
0.3759765625
 40
0.376953125
 40
0.3779296875
 40
0.37890625
 40
0.380859375
 40
0.3828125
 40
0.38671875
 40
0.390625
 40
0.39453125
 40
0.3984375
 40
0.40625
 40
0.4140625
 40
0.41796875
 40
0.421875
 40
0.42578125
 40
0.4296875
 40
0.431640625
 40
0.43359375
 40
0.4345703125
 40
0.435546875
 40
0.4365234375
 40
0.4370117188
 40
0.4372558594
 40
0.4375
 40
0.4377441406
 40
0.4379882812
 40
0.4384765625
 40
0.439453125
 40
0.4404296875
 40
0.44140625
 40
0.443359375
 40
0.4453125
 40
0.44921875
 40
0.453125
 40
0.45703125
 40
0.4609375
 40
0.46875
 40
0.4765625
 40
0.48046875
 40
0.484375
 40
0.48828125
 40
0.4921875
 40
0.494140625
 40
0.49609375
 40
0.4970703125
 40
0.498046875
 40
0.4990234375
 40
0.4995117188
 40
0.4997558594
 40
0.5
 40
0.5002441406
 40
0.5004882812
 40
0.5009765625
 40
0.501953125
 40
0.5029296875
 40
0.50390625
 40
0.505859375
 40
0.5078125
 40
0.51171875
 40
0.515625
 40
0.51953125
 40
0.5234375
 40
0.53125
 40
0.5390625
 40
0.54296875
 40
0.546875
 40
0.55078125
 40
0.5546875
 40
0.556640625
 40
0.55859375
 40
0.5595703125
 40
0.560546875
 40
0.5615234375
 40
0.5620117188
 40
0.5622558594
 40
0.5625
 40
0.5627441406
 40
0.5629882812
 40
0.5634765625
 40
0.564453125
 40
0.5654296875
 40
0.56640625
 40
0.568359375
 40
0.5703125
 40
0.57421875
 40
0.578125
 40
0.58203125
 40
0.5859375
 40
0.59375
 40
0.6015625
 40
0.60546875
 40
0.609375
 40
0.61328125
 40
0.6171875
 40
0.619140625
 40
0.62109375
 40
0.6220703125
 40
0.623046875
 40
0.6240234375
 40
0.6245117188
 40
0.6247558594
 40
0.625
 40
0.6252441406
 40
0.6254882812
 40
0.6259765625
 40
0.626953125
 40
0.6279296875
 40
0.62890625
 40
0.630859375
 40
0.6328125
 40
0.63671875
 40
0.640625
 40
0.64453125
 40
0.6484375
 40
0.65625
 40
0.6640625
 40
0.66796875
 40
0.671875
 40
0.67578125
 40
0.6796875
 40
0.681640625
 40
0.68359375
 40
0.6845703125
 40
0.685546875
 40
0.6865234375
 40
0.6870117188
 40
0.6872558594
 40
0.6875
 40
0.6877441406
 40
0.6879882812
 40
0.6884765625
 40
0.689453125
 40
0.6904296875
 40
0.69140625
 40
0.693359375
 40
0.6953125
 40
0.69921875
 40
0.703125
 40
0.70703125
 40
0.7109375
 40
0.71875
 40
0.7265625
 40
0.73046875
 40
0.734375
 40
0.73828125
 40
0.7421875
 40
0.744140625
 40
0.74609375
 40
0.7470703125
 40
0.748046875
 40
0.7490234375
 40
0.7495117188
 40
0.7497558594
 40
0.75
 40
0.7502441406
 40
0.7504882812
 40
0.7509765625
 40
0.751953125
 40
0.7529296875
 40
0.75390625
 40
0.755859375
 40
0.7578125
 40
0.76171875
 40
0.765625
 40
0.76953125
 40
0.7734375
 40
0.78125
 40
0.7890625
 40
0.79296875
 40
0.796875
 40
0.80078125
 40
0.8046875
 40
0.806640625
 40
0.80859375
 40
0.8095703125
 40
0.810546875
 40
0.8115234375
 40
0.8120117188
 40
0.8122558594
 40
0.8125
 40
0.8127441406
 40
0.8129882812
 40
0.8134765625
 40
0.814453125
 40
0.8154296875
 40
0.81640625
 40
0.818359375
 40
0.8203125
 40
0.82421875
 40
0.828125
 40
0.83203125
 40
0.8359375
 40
0.84375
 40
0.8515625
 40
0.85546875
 40
0.859375
 40
0.86328125
 40
0.8671875
 40
0.869140625
 40
0.87109375
 40
0.8720703125
 40
0.873046875
 40
0.8740234375
 40
0.8745117188
 40
0.8747558594
 40
0.875
 40
0.8752441406
 40
0.8754882812
 40
0.8759765625
 40
0.876953125
 40
0.8779296875
 40
0.87890625
 40
0.880859375
 40
0.8828125
 40
0.88671875
 40
0.890625
 40
0.89453125
 40
0.8984375
 40
0.90625
 40
0.9140625
 40
0.91796875
 40
0.921875
 40
0.92578125
 40
0.9296875
 40
0.931640625
 40
0.93359375
 40
0.9345703125
 40
0.935546875
 40
0.9365234375
 40
0.9370117188
 40
0.9372558594
 40
0.9375
 40
0.9377441406
 40
0.9379882812
 40
0.9384765625
 40
0.939453125
 40
0.9404296875
 40
0.94140625
 40
0.943359375
 40
0.9453125
 40
0.94921875
 40
0.953125
 40
0.95703125
 40
0.9609375
 40
0.96875
 40
0.9765625
 40
0.984375
 40
1.0
 40
1.0
 40
1.0
 40
1.0
 10
8.0635524913
 20
8.9781550449
 30
0.0
 10
8.0698188651
 20
8.9783348937
 30
0.0
 10
8.0792184259
 20
8.978604667
 30
0.0
 10
8.0917511736
 20
8.9789643646
 30
0.0
 10
8.1011507343
 20
8.9792341379
 30
0.0
 10
8.1089837017
 20
8.9794589486
 30
0.0
 10
8.1152500754
 20
8.9796387981
 30
0.0
 10
8.1199498561
 20
8.9797736827
 30
0.0
 10
8.1246496351
 20
8.9799085768
 30
0.0
 10
8.1285661232
 20
8.9800209591
 30
0.0
 10
8.1316993009
 20
8.9801109309
 30
0.0
 10
8.1336575663
 20
8.9801670131
 30
0.0
 10
8.1352241114
 20
8.9802122228
 30
0.0
 10
8.1363992042
 20
8.9802451883
 30
0.0
 10
8.137377863
 20
8.9802756555
 30
0.0
 10
8.1380640725
 20
8.9802911031
 30
0.0
 10
8.1384543992
 20
8.9803091105
 30
0.0
 10
8.1387521953
 20
8.9802967555
 30
0.0
 10
8.1390306834
 20
8.9803832524
 30
0.0
 10
8.1394087357
 20
8.9804641009
 30
0.0
 10
8.1400671894
 20
8.980621651
 30
0.0
 10
8.141009478
 20
8.9808383235
 30
0.0
 10
8.1421395221
 20
8.9811019256
 30
0.0
 10
8.1436464928
 20
8.9814521394
 30
0.0
 10
8.1455301223
 20
8.9818903366
 30
0.0
 10
8.1485439763
 20
8.9825912117
 30
0.0
 10
8.1523112778
 20
8.9834673881
 30
0.0
 10
8.1568320465
 20
8.9845187645
 30
0.0
 10
8.1613528133
 20
8.9855701503
 30
0.0
 10
8.167380503
 20
8.9869719947
 30
0.0
 10
8.1749151149
 20
8.9887243015
 30
0.0
 10
8.1824497271
 20
8.9904766075
 30
0.0
 10
8.1884774164
 20
8.9918784532
 30
0.0
 10
8.1929981844
 20
8.9929298351
 30
0.0
 10
8.1975189487
 20
8.9939812261
 30
0.0
 10
8.2012862636
 20
8.994857357
 30
0.0
 10
8.2043000903
 20
8.9955583249
 30
0.0
 10
8.2061837895
 20
8.9959962862
 30
0.0
 10
8.207690617
 20
8.9963469841
 30
0.0
 10
8.2088210986
 20
8.996609107
 30
0.0
 10
8.2097620185
 20
8.9968304077
 30
0.0
 10
8.2104229155
 20
8.9969796957
 30
0.0
 10
8.210797053
 20
8.9970737822
 30
0.0
 10
8.211087566
 20
8.9971196165
 30
0.0
 10
8.2113401984
 20
8.9972599833
 30
0.0
 10
8.2116902548
 20
8.997414165
 30
0.0
 10
8.2122966971
 20
8.9976993463
 30
0.0
 10
8.2131662619
 20
8.998098716
 30
0.0
 10
8.214208362
 20
8.9985813976
 30
0.0
 10
8.21559831
 20
8.9992237723
 30
0.0
 10
8.2173355802
 20
9.0000271518
 30
0.0
 10
8.2201153046
 20
9.0013123293
 30
0.0
 10
8.2235899286
 20
9.00291888
 30
0.0
 10
8.2277594908
 20
9.004846707
 30
0.0
 10
8.2319290495
 20
9.006774543
 30
0.0
 10
8.2374884623
 20
9.0093449879
 30
0.0
 10
8.2444377278
 20
9.0125580452
 30
0.0
 10
8.2513869937
 20
9.0157711017
 30
0.0
 10
8.2569464059
 20
9.0183415478
 30
0.0
 10
8.2611159663
 20
9.0202693801
 30
0.0
 10
8.265285522
 20
9.0221972212
 30
0.0
 10
8.2687601663
 20
9.0238037279
 30
0.0
 10
8.2715398493
 20
9.025088995
 30
0.0
 10
8.2732772249
 20
9.0258921463
 30
0.0
 10
8.2746669565
 20
9.0265349895
 30
0.0
 10
8.2757097178
 20
9.0270162398
 30
0.0
 10
8.2765772139
 20
9.0274200879
 30
0.0
 10
8.2771873492
 20
9.0276972744
 30
0.0
 10
8.2775314885
 20
9.0278642658
 30
0.0
 10
8.2778022961
 20
9.0279652856
 30
0.0
 10
8.2780245461
 20
9.0281589006
 30
0.0
 10
8.2783378168
 20
9.0283847558
 30
0.0
 10
8.2788781492
 20
9.0287950506
 30
0.0
 10
8.2796541784
 20
9.0293733187
 30
0.0
 10
8.2805836474
 20
9.0300706079
 30
0.0
 10
8.2818235563
 20
9.0309991507
 30
0.0
 10
8.2833732311
 20
9.0321602319
 30
0.0
 10
8.2858528289
 20
9.0340177367
 30
0.0
 10
8.2889522857
 20
9.0363396949
 30
0.0
 10
8.2926716512
 20
9.0391260117
 30
0.0
 10
8.2963910121
 20
9.0419123373
 30
0.0
 10
8.3013501615
 20
9.045627435
 30
0.0
 10
8.3075490976
 20
9.0502713083
 30
0.0
 10
8.3137480343
 20
9.0549151809
 30
0.0
 10
8.3187071829
 20
9.0586302798
 30
0.0
 10
8.3224265463
 20
9.0614166021
 30
0.0
 10
8.3261459022
 20
9.0642029312
 30
0.0
 10
8.3292453887
 20
9.0665248511
 30
0.0
 10
8.3317249259
 20
9.0683824341
 30
0.0
 10
8.333274755
 20
9.0695433162
 30
0.0
 10
8.3345143473
 20
9.0704722676
 30
0.0
 10
8.3354447834
 20
9.0711683082
 30
0.0
 10
8.3362177868
 20
9.0717504828
 30
0.0
 10
8.3367635206
 20
9.0721538039
 30
0.0
 10
8.337068137
 20
9.0723908329
 30
0.0
 10
8.3373169706
 20
9.0725501255
 30
0.0
 10
8.3374879346
 20
9.0727800546
 30
0.0
 10
8.3377430483
 20
9.0730619879
 30
0.0
 10
8.3381768422
 20
9.0735668508
 30
0.0
 10
8.338803164
 20
9.0742820818
 30
0.0
 10
8.3395519182
 20
9.075142928
 30
0.0
 10
8.3405512463
 20
9.0762898256
 30
0.0
 10
8.3418000678
 20
9.0777237548
 30
0.0
 10
8.3437983713
 20
9.0800178699
 30
0.0
 10
8.3462961859
 20
9.0828855727
 30
0.0
 10
8.3492935912
 20
9.0863267907
 30
0.0
 10
8.352290989
 20
9.0897680155
 30
0.0
 10
8.356287522
 20
9.0943563129
 30
0.0
 10
8.3612831874
 20
9.1000916855
 30
0.0
 10
8.3662788534
 20
9.1058270576
 30
0.0
 10
8.3702753854
 20
9.1104153559
 30
0.0
 10
8.3732727864
 20
9.113856578
 30
0.0
 10
8.3762701796
 20
9.117297806
 30
0.0
 10
8.3787680318
 20
9.1201654779
 30
0.0
 10
8.3807662585
 20
9.122459656
 30
0.0
 10
8.3820152757
 20
9.1238934247
 30
0.0
 10
8.383014202
 20
9.125040652
 30
0.0
 10
8.3837641837
 20
9.125900491
 30
0.0
 10
8.384386665
 20
9.1266188731
 30
0.0
 10
8.3848273149
 20
9.1271181108
 30
0.0
 10
8.3850714436
 20
9.127409057
 30
0.0
 10
8.3852761502
 20
9.1276113013
 30
0.0
 10
8.385398252
 20
9.1278745734
 30
0.0
 10
8.3855898678
 20
9.1282043156
 30
0.0
 10
8.3859117709
 20
9.1287912826
 30
0.0
 10
8.3863786509
 20
9.1296246216
 30
0.0
 10
8.3869359028
 20
9.1306268478
 30
0.0
 10
8.3876799547
 20
9.1319623743
 30
0.0
 10
8.3886096602
 20
9.1336320478
 30
0.0
 10
8.3900973898
 20
9.1363033771
 30
0.0
 10
8.3919569829
 20
9.1396425896
 30
0.0
 10
8.3941885242
 20
9.1436496227
 30
0.0
 10
8.3964200575
 20
9.1476566617
 30
0.0
 10
8.3993954381
 20
9.1529993783
 30
0.0
 10
8.4031146628
 20
9.1596777749
 30
0.0
 10
8.4068338883
 20
9.166356171
 30
0.0
 10
8.4098092677
 20
9.1716988883
 30
0.0
 10
8.4120408046
 20
9.1757059252
 30
0.0
 10
8.4142723327
 20
9.1797129663
 30
0.0
 10
8.4161319668
 20
9.183052154
 30
0.0
 10
8.4176196128
 20
9.1857235339
 30
0.0
 10
8.418549531
 20
9.1873930786
 30
0.0
 10
8.4192931463
 20
9.1887288694
 30
0.0
 10
8.419851732
 20
9.189730288
 30
0.0
 10
8.4203144388
 20
9.1905661541
 30
0.0
 10
8.4206437919
 20
9.1911486097
 30
0.0
 10
8.4208234709
 20
9.1914855802
 30
0.0
 10
8.4209822387
 20
9.1917266494
 30
0.0
 10
8.4210492339
 20
9.1920122842
 30
0.0
 10
8.4211705721
 20
9.1923775856
 30
0.0
 10
8.4213679993
 20
9.1930241058
 30
0.0
 10
8.4216578357
 20
9.1939439195
 30
0.0
 10
8.4220023017
 20
9.1950493167
 30
0.0
 10
8.4224627556
 20
9.1965226136
 30
0.0
 10
8.4230379237
 20
9.1983644285
 30
0.0
 10
8.4239584158
 20
9.201311224
 30
0.0
 10
8.4251089544
 20
9.2049947556
 30
0.0
 10
8.4264896335
 20
9.2094149776
 30
0.0
 10
8.4278703039
 20
9.2138352038
 30
0.0
 10
8.4297112008
 20
9.2197288373
 30
0.0
 10
8.4320123207
 20
9.2270958797
 30
0.0
 10
8.4343134414
 20
9.2344629217
 30
0.0
 10
8.436154337
 20
9.2403565557
 30
0.0
 10
8.4375350112
 20
9.2447767804
 30
0.0
 10
8.438915676
 20
9.2491970084
 30
0.0
 10
8.4400662591
 20
9.2528805211
 30
0.0
 10
8.4409866605
 20
9.255827355
 30
0.0
 10
8.4415620595
 20
9.2576690723
 30
0.0
 10
8.4420220396
 20
9.2591425696
 30
0.0
 10
8.4423679529
 20
9.2602473543
 30
0.0
 10
8.4426532612
 20
9.2611690845
 30
0.0
 10
8.4428587717
 20
9.2618121834
 30
0.0
 10
8.4429671584
 20
9.2621829667
 30
0.0
 10
8.4430739366
 20
9.2624517631
 30
0.0
 10
8.4430832859
 20
9.2627560744
 30
0.0
 10
8.4431297359
 20
9.2631494349
 30
0.0
 10
8.4431951894
 20
9.2638435875
 30
0.0
 10
8.4432969727
 20
9.2648322165
 30
0.0
 10
8.4434155693
 20
9.2660198629
 30
0.0
 10
8.4435749357
 20
9.2676029403
 30
0.0
 10
8.4437737199
 20
9.2695819415
 30
0.0
 10
8.4440920116
 20
9.2727482572
 30
0.0
 10
8.4444897948
 20
9.2767061813
 30
0.0
 10
8.4449671696
 20
9.2814556777
 30
0.0
 10
8.445444535
 20
9.2862051774
 30
0.0
 10
8.4460810255
 20
9.2925378425
 30
0.0
 10
8.4468766374
 20
9.3004536742
 30
0.0
 10
8.4476722502
 20
9.3083695059
 30
0.0
 10
8.4483087394
 20
9.3147021712
 30
0.0
 10
8.4487861088
 20
9.3194516702
 30
0.0
 10
8.4492634685
 20
9.3242011691
 30
0.0
 10
8.4496612985
 20
9.3281590854
 30
0.0
 10
8.4499794949
 20
9.3313254171
 30
0.0
 10
8.4501785214
 20
9.3333043774
 30
0.0
 10
8.4503373905
 20
9.3348875389
 30
0.0
 10
8.4504575064
 20
9.3360749283
 30
0.0
 10
8.4505545362
 20
9.3370643614
 30
0.0
 10
8.4506284755
 20
9.3377570785
 30
0.0
 10
8.4506613292
 20
9.338152739
 30
0.0
 10
8.4507124419
 20
9.3384499855
 30
0.0
 10
8.4506623636
 20
9.3387453163
 30
0.0
 10
8.4506308891
 20
9.339139759
 30
0.0
 10
8.4505593633
 20
9.3398297223
 30
0.0
 10
8.4504657814
 20
9.3408155469
 30
0.0
 10
8.450349803
 20
9.3419984668
 30
0.0
 10
8.4501964505
 20
9.3435757176
 30
0.0
 10
8.4500043198
 20
9.3455472729
 30
0.0
 10
8.4496971566
 20
9.3487017659
 30
0.0
 10
8.4493131182
 20
9.3526448806
 30
0.0
 10
8.4488523084
 20
9.3573766189
 30
0.0
 10
8.4483914889
 20
9.3621083571
 30
0.0
 10
8.4477770662
 20
9.3684173413
 30
0.0
 10
8.4470090366
 20
9.3763035716
 30
0.0
 10
8.4462410079
 20
9.384189802
 30
0.0
 10
8.4456265839
 20
9.3904987861
 30
0.0
 10
8.4451657684
 20
9.3952305245
 30
0.0
 10
8.4447049435
 20
9.3999622618
 30
0.0
 10
8.4443209519
 20
9.4039053799
 30
0.0
 10
8.4440136935
 20
9.407059866
 30
0.0
 10
8.4438218051
 20
9.4090314389
 30
0.0
 10
8.4436679551
 20
9.4106086535
 30
0.0
 10
8.4435534967
 20
9.411791684
 30
0.0
 10
8.4434551593
 20
9.4127771626
 30
0.0
 10
8.4433921228
 20
9.4134677437
 30
0.0
 10
8.4433470462
 20
9.4138611964
 30
0.0
 10
8.443338749
 20
9.414159568
 30
0.0
 10
8.4432329389
 20
9.414445394
 30
0.0
 10
8.4431258723
 20
9.4148308714
 30
0.0
 10
8.4429226583
 20
9.415503418
 30
0.0
 10
8.4426406379
 20
9.4164652648
 30
0.0
 10
8.4422986669
 20
9.4176190246
 30
0.0
 10
8.4418439444
 20
9.4191575305
 30
0.0
 10
8.4412751171
 20
9.4210806083
 30
0.0
 10
8.4403652304
 20
9.4241575632
 30
0.0
 10
8.4392277908
 20
9.4280037463
 30
0.0
 10
8.437862898
 20
9.4326191706
 30
0.0
 10
8.436497996
 20
9.4372345937
 30
0.0
 10
8.4346781299
 20
9.4433884916
 30
0.0
 10
8.432403296
 20
9.4510808638
 30
0.0
 10
8.4301284629
 20
9.4587732361
 30
0.0
 10
8.4283085955
 20
9.4649271337
 30
0.0
 10
8.4269436972
 20
9.4695425577
 30
0.0
 10
8.4255787902
 20
9.4741579787
 30
0.0
 10
8.4244413951
 20
9.4780041722
 30
0.0
 10
8.4235314176
 20
9.481081106
 30
0.0
 10
8.4229628213
 20
9.4830042375
 30
0.0
 10
8.4225076245
 20
9.484542633
 30
0.0
 10
8.4221671025
 20
9.4856967299
 30
0.0
 10
8.4218805488
 20
9.4866575224
 30
0.0
 10
8.4216854274
 20
9.487331951
 30
0.0
 10
8.4215653945
 20
9.4877144129
 30
0.0
 10
8.421499413
 20
9.4880095018
 30
0.0
 10
8.4213415261
 20
9.4882730836
 30
0.0
 10
8.4211630678
 20
9.4886355161
 30
0.0
 10
8.4208358297
 20
9.4892646525
 30
0.0
 10
8.4203761554
 20
9.4901660958
 30
0.0
 10
8.4198212039
 20
9.4912466819
 30
0.0
 10
8.419082436
 20
9.4926878636
 30
0.0
 10
8.4181585764
 20
9.4944892037
 30
0.0
 10
8.4166806244
 20
9.4973714245
 30
0.0
 10
8.4148331077
 20
9.5009741741
 30
0.0
 10
8.4126161206
 20
9.505297485
 30
0.0
 10
8.4103991247
 20
9.5096207928
 30
0.0
 10
8.4074431332
 20
9.5153852043
 30
0.0
 10
8.4037481427
 20
9.5225907183
 30
0.0
 10
8.400053153
 20
9.5297962326
 30
0.0
 10
8.3970971603
 20
9.5355606436
 30
0.0
 10
8.3948801681
 20
9.5398839529
 30
0.0
 10
8.3926631673
 20
9.5442072582
 30
0.0
 10
8.3908156932
 20
9.5478100252
 30
0.0
 10
8.3893376544
 20
9.5506922105
 30
0.0
 10
8.3884140157
 20
9.5524936407
 30
0.0
 10
8.3876747942
 20
9.5539346375
 30
0.0
 10
8.3871212283
 20
9.5550157887
 30
0.0
 10
8.386657219
 20
9.555915464
 30
0.0
 10
8.3863377195
 20
9.5565477566
 30
0.0
 10
8.3861468621
 20
9.556905132
 30
0.0
 10
8.3860270617
 20
9.5571842477
 30
0.0
 10
8.3858180335
 20
9.5574209939
 30
0.0
 10
8.385570453
 20
9.5577514344
 30
0.0
 10
8.3851226859
 20
9.5583228195
 30
0.0
 10
8.3844906
 20
9.559142684
 30
0.0
 10
8.3837288519
 20
9.5601249804
 30
0.0
 10
8.3827143212
 20
9.5614352472
 30
0.0
 10
8.3814457697
 20
9.5630728964
 30
0.0
 10
8.3794163042
 20
9.5656932382
 30
0.0
 10
8.3768793979
 20
9.56896863
 30
0.0
 10
8.3738351423
 20
9.5728991153
 30
0.0
 10
8.3707908781
 20
9.5768295966
 30
0.0
 10
8.3667318622
 20
9.5820702398
 30
0.0
 10
8.3616580912
 20
9.5886210431
 30
0.0
 10
8.3565843209
 20
9.595171847
 30
0.0
 10
8.3525253039
 20
9.6004124893
 30
0.0
 10
8.3494810429
 20
9.6043429729
 30
0.0
 10
8.3464367756
 20
9.6082734495
 30
0.0
 10
8.3438999056
 20
9.6115488685
 30
0.0
 10
8.3418703661
 20
9.6141691548
 30
0.0
 10
8.340602003
 20
9.6158069452
 30
0.0
 10
8.3395870855
 20
9.6171169222
 30
0.0
 10
8.3388265189
 20
9.6181001038
 30
0.0
 10
8.3381907363
 20
9.6189171989
 30
0.0
 10
8.3377495685
 20
9.6194935278
 30
0.0
 10
8.3374914143
 20
9.6198160472
 30
0.0
 10
8.337314865
 20
9.6200771246
 30
0.0
 10
8.3370730796
 20
9.6202648564
 30
0.0
 10
8.3367734541
 20
9.6205407492
 30
0.0
 10
8.3362385075
 20
9.6210116418
 30
0.0
 10
8.3354798409
 20
9.6216905773
 30
0.0
 10
8.3345670684
 20
9.6225026325
 30
0.0
 10
8.3333508672
 20
9.6235863045
 30
0.0
 10
8.3318303319
 20
9.6249405754
 30
0.0
 10
8.329397634
 20
9.6271075871
 30
0.0
 10
8.3263567072
 20
9.6298162907
 30
0.0
 10
8.3227076184
 20
9.6330667611
 30
0.0
 10
8.3190585233
 20
9.6363172245
 30
0.0
 10
8.3141930654
 20
9.6406511783
 30
0.0
 10
8.3081112422
 20
9.6460686195
 30
0.0
 10
8.3020294195
 20
9.6514860613
 30
0.0
 10
8.2971639608
 20
9.655820014
 30
0.0
 10
8.2935148682
 20
9.6590704805
 30
0.0
 10
8.2898657703
 20
9.6623209394
 30
0.0
 10
8.2868248718
 20
9.6650296787
 30
0.0
 10
8.2843921161
 20
9.6671966176
 30
0.0
 10
8.2828717279
 20
9.668551074
 30
0.0
 10
8.2816552248
 20
9.6696343651
 30
0.0
 10
8.2807433744
 20
9.6704475839
 30
0.0
 10
8.2799818231
 20
9.6711228789
 30
0.0
 10
8.2794520261
 20
9.6716002704
 30
0.0
 10
8.2791441496
 20
9.6718657503
 30
0.0
 10
8.2789277088
 20
9.6720854672
 30
0.0
 10
8.278655969
 20
9.6722264142
 30
0.0
 10
8.2783129382
 20
9.6724418193
 30
0.0
 10
8.2777036471
 20
9.6728059768
 30
0.0
 10
8.2768379299
 20
9.6733328946
 30
0.0
 10
8.2757970581
 20
9.6739623312
 30
0.0
 10
8.2744099314
 20
9.6748025806
 30
0.0
 10
8.2726757826
 20
9.6758525497
 30
0.0
 10
8.269901279
 20
9.6775326918
 30
0.0
 10
8.2664331033
 20
9.6796328037
 30
0.0
 10
8.2622713122
 20
9.6821529662
 30
0.0
 10
8.2581095158
 20
9.6846731211
 30
0.0
 10
8.2525604558
 20
9.6880333303
 30
0.0
 10
8.2456241302
 20
9.6922335909
 30
0.0
 10
8.238687805
 20
9.6964338521
 30
0.0
 10
8.2331387444
 20
9.6997940602
 30
0.0
 10
8.2289769499
 20
9.7023142185
 30
0.0
 10
8.2248151517
 20
9.7048343683
 30
0.0
 10
8.221346998
 20
9.7069345197
 30
0.0
 10
8.2185724495
 20
9.7086145813
 30
0.0
 10
8.2168384148
 20
9.7096647552
 30
0.0
 10
8.215451054
 20
9.7105045842
 30
0.0
 10
8.2144108974
 20
9.7111353051
 30
0.0
 10
8.2135429425
 20
9.7116582048
 30
0.0
 10
8.2129376461
 20
9.7120295352
 30
0.0
 10
8.2125882148
 20
9.7122334475
 30
0.0
 10
8.2123361351
 20
9.712409697
 30
0.0
 10
8.2120458542
 20
9.7124968232
 30
0.0
 10
8.2116721379
 20
9.7126440788
 30
0.0
 10
8.2110119261
 20
9.7128872918
 30
0.0
 10
8.2100720122
 20
9.7132423114
 30
0.0
 10
8.2089427261
 20
9.7136650937
 30
0.0
 10
8.2074374967
 20
9.7142299356
 30
0.0
 10
8.2055557937
 20
9.7149356003
 30
0.0
 10
8.2025451619
 20
9.7160648804
 30
0.0
 10
8.1987818402
 20
9.7174764063
 30
0.0
 10
8.1942658678
 20
9.7191702691
 30
0.0
 10
8.1897498917
 20
9.7208641235
 30
0.0
 10
8.1837285916
 20
9.723122599
 30
0.0
 10
8.176201966
 20
9.7259456922
 30
0.0
 10
8.1686753407
 20
9.7287687861
 30
0.0
 10
8.1626540402
 20
9.7310272603
 30
0.0
 10
8.1581380655
 20
9.7327211184
 30
0.0
 10
8.153622088
 20
9.7344149673
 30
0.0
 10
8.1498587821
 20
9.7358265366
 30
0.0
 10
8.1468481181
 20
9.7369557283
 30
0.0
 10
8.1449664968
 20
9.7376616181
 30
0.0
 10
8.1434610997
 20
9.7382259978
 30
0.0
 10
8.1423323259
 20
9.7386501919
 30
0.0
 10
8.1413908094
 20
9.7390007946
 30
0.0
 10
8.1407334584
 20
9.7392518926
 30
0.0
 10
8.1403551585
 20
9.7393865144
 30
0.0
 10
8.140078957
 20
9.7395124472
 30
0.0
 10
8.1397739971
 20
9.7395429455
 30
0.0
 10
8.1393774152
 20
9.7396168986
 30
0.0
 10
8.138678723
 20
9.7397308066
 30
0.0
 10
8.1376830349
 20
9.7399016411
 30
0.0
 10
8.1364871633
 20
9.7401031717
 30
0.0
 10
8.1348930331
 20
9.7403730914
 30
0.0
 10
8.1329002452
 20
9.7407100759
 30
0.0
 10
8.1297118545
 20
9.7412494832
 30
0.0
 10
8.1257263422
 20
9.7419236627
 30
0.0
 10
8.1209437378
 20
9.7427327122
 30
0.0
 10
8.1161611305
 20
9.7435417525
 30
0.0
 10
8.1097843218
 20
9.7446204762
 30
0.0
 10
8.1018133107
 20
9.7459688797
 30
0.0
 10
8.0922480974
 20
9.7475869644
 30
0.0
 10
8.0794944796
 20
9.7497444105
 30
0.0
 10
8.0699292663
 20
9.7513624951
 30
0.0
 10
8.0635524575
 20
9.7524412182
 30
0.0
  0
SPLINE
  5
38E
100
AcDbEntity
  8
0
100
AcDbSpline
 62
4
  6
CONTINUOUS
 70
0
 71
3
 72
403
 73
399
 74
0
 42
0.0000001
 43
0.0000001
 44
0.0000000001
 40
0.0
 40
0.0
 40
0.0
 40
0.0
 40
0.015625
 40
0.0234375
 40
0.03125
 40
0.0390625
 40
0.04296875
 40
0.046875
 40
0.05078125
 40
0.0546875
 40
0.056640625
 40
0.05859375
 40
0.0595703125
 40
0.060546875
 40
0.0615234375
 40
0.0620117188
 40
0.0622558594
 40
0.0625
 40
0.0627441406
 40
0.0629882812
 40
0.0634765625
 40
0.064453125
 40
0.0654296875
 40
0.06640625
 40
0.068359375
 40
0.0703125
 40
0.07421875
 40
0.078125
 40
0.08203125
 40
0.0859375
 40
0.09375
 40
0.1015625
 40
0.10546875
 40
0.109375
 40
0.11328125
 40
0.1171875
 40
0.119140625
 40
0.12109375
 40
0.1220703125
 40
0.123046875
 40
0.1240234375
 40
0.1245117188
 40
0.1247558594
 40
0.125
 40
0.1252441406
 40
0.1254882812
 40
0.1259765625
 40
0.126953125
 40
0.1279296875
 40
0.12890625
 40
0.130859375
 40
0.1328125
 40
0.13671875
 40
0.140625
 40
0.14453125
 40
0.1484375
 40
0.15625
 40
0.1640625
 40
0.16796875
 40
0.171875
 40
0.17578125
 40
0.1796875
 40
0.181640625
 40
0.18359375
 40
0.1845703125
 40
0.185546875
 40
0.1865234375
 40
0.1870117188
 40
0.1872558594
 40
0.1875
 40
0.1877441406
 40
0.1879882812
 40
0.1884765625
 40
0.189453125
 40
0.1904296875
 40
0.19140625
 40
0.193359375
 40
0.1953125
 40
0.19921875
 40
0.203125
 40
0.20703125
 40
0.2109375
 40
0.21875
 40
0.2265625
 40
0.23046875
 40
0.234375
 40
0.23828125
 40
0.2421875
 40
0.244140625
 40
0.24609375
 40
0.2470703125
 40
0.248046875
 40
0.2490234375
 40
0.2495117188
 40
0.2497558594
 40
0.25
 40
0.2502441406
 40
0.2504882812
 40
0.2509765625
 40
0.251953125
 40
0.2529296875
 40
0.25390625
 40
0.255859375
 40
0.2578125
 40
0.26171875
 40
0.265625
 40
0.26953125
 40
0.2734375
 40
0.28125
 40
0.2890625
 40
0.29296875
 40
0.296875
 40
0.30078125
 40
0.3046875
 40
0.306640625
 40
0.30859375
 40
0.3095703125
 40
0.310546875
 40
0.3115234375
 40
0.3120117188
 40
0.3122558594
 40
0.3125
 40
0.3127441406
 40
0.3129882812
 40
0.3134765625
 40
0.314453125
 40
0.3154296875
 40
0.31640625
 40
0.318359375
 40
0.3203125
 40
0.32421875
 40
0.328125
 40
0.33203125
 40
0.3359375
 40
0.34375
 40
0.3515625
 40
0.35546875
 40
0.359375
 40
0.36328125
 40
0.3671875
 40
0.369140625
 40
0.37109375
 40
0.3720703125
 40
0.373046875
 40
0.3740234375
 40
0.3745117188
 40
0.3747558594
 40
0.375
 40
0.3752441406
 40
0.3754882812
 40
0.3759765625
 40
0.376953125
 40
0.3779296875
 40
0.37890625
 40
0.380859375
 40
0.3828125
 40
0.38671875
 40
0.390625
 40
0.39453125
 40
0.3984375
 40
0.40625
 40
0.4140625
 40
0.41796875
 40
0.421875
 40
0.42578125
 40
0.4296875
 40
0.431640625
 40
0.43359375
 40
0.4345703125
 40
0.435546875
 40
0.4365234375
 40
0.4370117188
 40
0.4372558594
 40
0.4375
 40
0.4377441406
 40
0.4379882812
 40
0.4384765625
 40
0.439453125
 40
0.4404296875
 40
0.44140625
 40
0.443359375
 40
0.4453125
 40
0.44921875
 40
0.453125
 40
0.45703125
 40
0.4609375
 40
0.46875
 40
0.4765625
 40
0.48046875
 40
0.484375
 40
0.48828125
 40
0.4921875
 40
0.494140625
 40
0.49609375
 40
0.4970703125
 40
0.498046875
 40
0.4990234375
 40
0.4995117188
 40
0.4997558594
 40
0.5
 40
0.5002441406
 40
0.5004882812
 40
0.5009765625
 40
0.501953125
 40
0.5029296875
 40
0.50390625
 40
0.505859375
 40
0.5078125
 40
0.51171875
 40
0.515625
 40
0.51953125
 40
0.5234375
 40
0.53125
 40
0.5390625
 40
0.54296875
 40
0.546875
 40
0.55078125
 40
0.5546875
 40
0.556640625
 40
0.55859375
 40
0.5595703125
 40
0.560546875
 40
0.5615234375
 40
0.5620117188
 40
0.5622558594
 40
0.5625
 40
0.5627441406
 40
0.5629882812
 40
0.5634765625
 40
0.564453125
 40
0.5654296875
 40
0.56640625
 40
0.568359375
 40
0.5703125
 40
0.57421875
 40
0.578125
 40
0.58203125
 40
0.5859375
 40
0.59375
 40
0.6015625
 40
0.60546875
 40
0.609375
 40
0.61328125
 40
0.6171875
 40
0.619140625
 40
0.62109375
 40
0.6220703125
 40
0.623046875
 40
0.6240234375
 40
0.6245117188
 40
0.6247558594
 40
0.625
 40
0.6252441406
 40
0.6254882812
 40
0.6259765625
 40
0.626953125
 40
0.6279296875
 40
0.62890625
 40
0.630859375
 40
0.6328125
 40
0.63671875
 40
0.640625
 40
0.64453125
 40
0.6484375
 40
0.65625
 40
0.6640625
 40
0.66796875
 40
0.671875
 40
0.67578125
 40
0.6796875
 40
0.681640625
 40
0.68359375
 40
0.6845703125
 40
0.685546875
 40
0.6865234375
 40
0.6870117188
 40
0.6872558594
 40
0.6875
 40
0.6877441406
 40
0.6879882812
 40
0.6884765625
 40
0.689453125
 40
0.6904296875
 40
0.69140625
 40
0.693359375
 40
0.6953125
 40
0.69921875
 40
0.703125
 40
0.70703125
 40
0.7109375
 40
0.71875
 40
0.7265625
 40
0.73046875
 40
0.734375
 40
0.73828125
 40
0.7421875
 40
0.744140625
 40
0.74609375
 40
0.7470703125
 40
0.748046875
 40
0.7490234375
 40
0.7495117188
 40
0.7497558594
 40
0.75
 40
0.7502441406
 40
0.7504882812
 40
0.7509765625
 40
0.751953125
 40
0.7529296875
 40
0.75390625
 40
0.755859375
 40
0.7578125
 40
0.76171875
 40
0.765625
 40
0.76953125
 40
0.7734375
 40
0.78125
 40
0.7890625
 40
0.79296875
 40
0.796875
 40
0.80078125
 40
0.8046875
 40
0.806640625
 40
0.80859375
 40
0.8095703125
 40
0.810546875
 40
0.8115234375
 40
0.8120117188
 40
0.8122558594
 40
0.8125
 40
0.8127441406
 40
0.8129882812
 40
0.8134765625
 40
0.814453125
 40
0.8154296875
 40
0.81640625
 40
0.818359375
 40
0.8203125
 40
0.82421875
 40
0.828125
 40
0.83203125
 40
0.8359375
 40
0.84375
 40
0.8515625
 40
0.85546875
 40
0.859375
 40
0.86328125
 40
0.8671875
 40
0.869140625
 40
0.87109375
 40
0.8720703125
 40
0.873046875
 40
0.8740234375
 40
0.8745117188
 40
0.8747558594
 40
0.875
 40
0.8752441406
 40
0.8754882812
 40
0.8759765625
 40
0.876953125
 40
0.8779296875
 40
0.87890625
 40
0.880859375
 40
0.8828125
 40
0.88671875
 40
0.890625
 40
0.89453125
 40
0.8984375
 40
0.90625
 40
0.9140625
 40
0.91796875
 40
0.921875
 40
0.92578125
 40
0.9296875
 40
0.931640625
 40
0.93359375
 40
0.9345703125
 40
0.935546875
 40
0.9365234375
 40
0.9370117188
 40
0.9372558594
 40
0.9375
 40
0.9377441406
 40
0.9379882812
 40
0.9384765625
 40
0.939453125
 40
0.9404296875
 40
0.94140625
 40
0.943359375
 40
0.9453125
 40
0.94921875
 40
0.953125
 40
0.95703125
 40
0.9609375
 40
0.96875
 40
0.9765625
 40
0.984375
 40
1.0
 40
1.0
 40
1.0
 40
1.0
 10
8.0635524913
 20
9.7524412158
 30
0.0
 10
8.0572861175
 20
9.752261367
 30
0.0
 10
8.0478865567
 20
9.7519915937
 30
0.0
 10
8.035353809
 20
9.7516318961
 30
0.0
 10
8.0259542483
 20
9.7513621228
 30
0.0
 10
8.0181212809
 20
9.7511373121
 30
0.0
 10
8.0118549072
 20
9.7509574626
 30
0.0
 10
8.0071551265
 20
9.750822578
 30
0.0
 10
8.0024553475
 20
9.7506876839
 30
0.0
 10
7.9985388594
 20
9.7505753016
 30
0.0
 10
7.9954056817
 20
9.7504853298
 30
0.0
 10
7.9934474163
 20
9.7504292476
 30
0.0
 10
7.9918808712
 20
9.7503840379
 30
0.0
 10
7.9907057784
 20
9.7503510724
 30
0.0
 10
7.9897271196
 20
9.7503206053
 30
0.0
 10
7.9890409101
 20
9.7503051576
 30
0.0
 10
7.9886505834
 20
9.7502871503
 30
0.0
 10
7.9883527873
 20
9.7502995052
 30
0.0
 10
7.9880742992
 20
9.7502130084
 30
0.0
 10
7.9876962469
 20
9.7501321598
 30
0.0
 10
7.9870377932
 20
9.7499746097
 30
0.0
 10
7.9860955046
 20
9.7497579372
 30
0.0
 10
7.9849654605
 20
9.7494943351
 30
0.0
 10
7.9834584898
 20
9.7491441213
 30
0.0
 10
7.9815748603
 20
9.7487059242
 30
0.0
 10
7.9785610063
 20
9.748005049
 30
0.0
 10
7.9747937048
 20
9.7471288726
 30
0.0
 10
7.9702729361
 20
9.7460774962
 30
0.0
 10
7.9657521693
 20
9.7450261104
 30
0.0
 10
7.9597244796
 20
9.743624266
 30
0.0
 10
7.9521898677
 20
9.7418719592
 30
0.0
 10
7.9446552555
 20
9.7401196532
 30
0.0
 10
7.9386275662
 20
9.7387178075
 30
0.0
 10
7.9341067982
 20
9.7376664256
 30
0.0
 10
7.9295860339
 20
9.7366150346
 30
0.0
 10
7.925818719
 20
9.7357389037
 30
0.0
 10
7.9228048923
 20
9.7350379358
 30
0.0
 10
7.9209211931
 20
9.7345999745
 30
0.0
 10
7.9194143656
 20
9.7342492766
 30
0.0
 10
7.918283884
 20
9.7339871537
 30
0.0
 10
7.9173429641
 20
9.733765853
 30
0.0
 10
7.9166820671
 20
9.733616565
 30
0.0
 10
7.9163079296
 20
9.7335224785
 30
0.0
 10
7.9160174166
 20
9.7334766442
 30
0.0
 10
7.9157647842
 20
9.7333362774
 30
0.0
 10
7.9154147279
 20
9.7331820957
 30
0.0
 10
7.9148082855
 20
9.7328969145
 30
0.0
 10
7.9139387207
 20
9.7324975447
 30
0.0
 10
7.9128966206
 20
9.7320148631
 30
0.0
 10
7.9115066726
 20
9.7313724884
 30
0.0
 10
7.9097694024
 20
9.7305691089
 30
0.0
 10
7.906989678
 20
9.7292839314
 30
0.0
 10
7.903515054
 20
9.7276773808
 30
0.0
 10
7.8993454918
 20
9.7257495538
 30
0.0
 10
7.8951759331
 20
9.7238217177
 30
0.0
 10
7.8896165203
 20
9.7212512728
 30
0.0
 10
7.8826672548
 20
9.7180382156
 30
0.0
 10
7.8757179889
 20
9.714825159
 30
0.0
 10
7.8701585767
 20
9.7122547129
 30
0.0
 10
7.8659890163
 20
9.7103268806
 30
0.0
 10
7.8618194606
 20
9.7083990395
 30
0.0
 10
7.8583448163
 20
9.7067925328
 30
0.0
 10
7.8555651333
 20
9.7055072657
 30
0.0
 10
7.8538277577
 20
9.7047041144
 30
0.0
 10
7.8524380261
 20
9.7040612712
 30
0.0
 10
7.8513952648
 20
9.7035800209
 30
0.0
 10
7.8505277687
 20
9.7031761728
 30
0.0
 10
7.8499176334
 20
9.7028989863
 30
0.0
 10
7.8495734941
 20
9.702731995
 30
0.0
 10
7.8493026865
 20
9.7026309752
 30
0.0
 10
7.8490804365
 20
9.7024373601
 30
0.0
 10
7.8487671658
 20
9.7022115049
 30
0.0
 10
7.8482268334
 20
9.7018012101
 30
0.0
 10
7.8474508042
 20
9.701222942
 30
0.0
 10
7.8465213352
 20
9.7005256528
 30
0.0
 10
7.8452814263
 20
9.69959711
 30
0.0
 10
7.8437317515
 20
9.6984360288
 30
0.0
 10
7.8412521537
 20
9.696578524
 30
0.0
 10
7.8381526969
 20
9.6942565658
 30
0.0
 10
7.8344333314
 20
9.6914702491
 30
0.0
 10
7.8307139705
 20
9.6886839234
 30
0.0
 10
7.8257548211
 20
9.6849688257
 30
0.0
 10
7.819555885
 20
9.6803249524
 30
0.0
 10
7.8133569483
 20
9.6756810798
 30
0.0
 10
7.8083977997
 20
9.671965981
 30
0.0
 10
7.8046784363
 20
9.6691796586
 30
0.0
 10
7.8009590804
 20
9.6663933295
 30
0.0
 10
7.7978595939
 20
9.6640714097
 30
0.0
 10
7.7953800567
 20
9.6622138266
 30
0.0
 10
7.7938302276
 20
9.6610529446
 30
0.0
 10
7.7925906353
 20
9.6601239931
 30
0.0
 10
7.7916601992
 20
9.6594279525
 30
0.0
 10
7.7908871958
 20
9.6588457779
 30
0.0
 10
7.790341462
 20
9.6584424568
 30
0.0
 10
7.7900368456
 20
9.6582054278
 30
0.0
 10
7.789788012
 20
9.6580461352
 30
0.0
 10
7.789617048
 20
9.6578162061
 30
0.0
 10
7.7893619343
 20
9.6575342729
 30
0.0
 10
7.7889281404
 20
9.6570294099
 30
0.0
 10
7.7883018186
 20
9.6563141789
 30
0.0
 10
7.7875530644
 20
9.6554533327
 30
0.0
 10
7.7865537363
 20
9.6543064351
 30
0.0
 10
7.7853049148
 20
9.6528725059
 30
0.0
 10
7.7833066113
 20
9.6505783908
 30
0.0
 10
7.7808087967
 20
9.6477106881
 30
0.0
 10
7.7778113914
 20
9.64426947
 30
0.0
 10
7.7748139936
 20
9.6408282452
 30
0.0
 10
7.7708174606
 20
9.6362399478
 30
0.0
 10
7.7658217952
 20
9.6305045752
 30
0.0
 10
7.7608261292
 20
9.6247692031
 30
0.0
 10
7.7568295972
 20
9.6201809048
 30
0.0
 10
7.7538321962
 20
9.6167396827
 30
0.0
 10
7.750834803
 20
9.6132984547
 30
0.0
 10
7.7483369508
 20
9.6104307828
 30
0.0
 10
7.7463387241
 20
9.6081366047
 30
0.0
 10
7.7450897069
 20
9.606702836
 30
0.0
 10
7.7440907806
 20
9.6055556088
 30
0.0
 10
7.7433407989
 20
9.6046957697
 30
0.0
 10
7.7427183176
 20
9.6039773876
 30
0.0
 10
7.7422776677
 20
9.6034781499
 30
0.0
 10
7.742033539
 20
9.6031872037
 30
0.0
 10
7.7418288324
 20
9.6029849594
 30
0.0
 10
7.7417067306
 20
9.6027216874
 30
0.0
 10
7.7415151148
 20
9.6023919451
 30
0.0
 10
7.7411932118
 20
9.6018049781
 30
0.0
 10
7.7407263317
 20
9.6009716391
 30
0.0
 10
7.7401690798
 20
9.5999694129
 30
0.0
 10
7.7394250279
 20
9.5986338864
 30
0.0
 10
7.7384953224
 20
9.5969642129
 30
0.0
 10
7.7370075928
 20
9.5942928836
 30
0.0
 10
7.7351479997
 20
9.5909536712
 30
0.0
 10
7.7329164584
 20
9.586946638
 30
0.0
 10
7.7306849251
 20
9.582939599
 30
0.0
 10
7.7277095445
 20
9.5775968824
 30
0.0
 10
7.7239903198
 20
9.5709184858
 30
0.0
 10
7.7202710943
 20
9.5642400898
 30
0.0
 10
7.7172957149
 20
9.5588973724
 30
0.0
 10
7.715064178
 20
9.5548903355
 30
0.0
 10
7.7128326499
 20
9.5508832944
 30
0.0
 10
7.7109730158
 20
9.5475441067
 30
0.0
 10
7.7094853698
 20
9.5448727269
 30
0.0
 10
7.7085554516
 20
9.5432031821
 30
0.0
 10
7.7078118363
 20
9.5418673913
 30
0.0
 10
7.7072532506
 20
9.5408659728
 30
0.0
 10
7.7067905438
 20
9.5400301066
 30
0.0
 10
7.7064611907
 20
9.539447651
 30
0.0
 10
7.7062815117
 20
9.5391106805
 30
0.0
 10
7.7061227439
 20
9.5388696114
 30
0.0
 10
7.7060557487
 20
9.5385839765
 30
0.0
 10
7.7059344105
 20
9.5382186751
 30
0.0
 10
7.7057369833
 20
9.5375721549
 30
0.0
 10
7.705447147
 20
9.5366523412
 30
0.0
 10
7.7051026809
 20
9.535546944
 30
0.0
 10
7.7046422271
 20
9.5340736471
 30
0.0
 10
7.7040670589
 20
9.5322318322
 30
0.0
 10
7.7031465668
 20
9.5292850367
 30
0.0
 10
7.7019960282
 20
9.5256015051
 30
0.0
 10
7.7006153491
 20
9.5211812831
 30
0.0
 10
7.6992346787
 20
9.5167610569
 30
0.0
 10
7.6973937818
 20
9.5108674234
 30
0.0
 10
7.6950926619
 20
9.503500381
 30
0.0
 10
7.6927915412
 20
9.496133339
 30
0.0
 10
7.6909506456
 20
9.490239705
 30
0.0
 10
7.6895699714
 20
9.4858194804
 30
0.0
 10
7.6881893066
 20
9.4813992524
 30
0.0
 10
7.6870387235
 20
9.4777157396
 30
0.0
 10
7.6861183221
 20
9.4747689057
 30
0.0
 10
7.6855429231
 20
9.4729271884
 30
0.0
 10
7.685082943
 20
9.4714536911
 30
0.0
 10
7.6847370297
 20
9.4703489064
 30
0.0
 10
7.6844517214
 20
9.4694271762
 30
0.0
 10
7.6842462109
 20
9.4687840773
 30
0.0
 10
7.6841378242
 20
9.4684132941
 30
0.0
 10
7.684031046
 20
9.4681444976
 30
0.0
 10
7.6840216967
 20
9.4678401863
 30
0.0
 10
7.6839752467
 20
9.4674468258
 30
0.0
 10
7.6839097932
 20
9.4667526733
 30
0.0
 10
7.6838080099
 20
9.4657640443
 30
0.0
 10
7.6836894133
 20
9.4645763978
 30
0.0
 10
7.6835300469
 20
9.4629933204
 30
0.0
 10
7.6833312627
 20
9.4610143192
 30
0.0
 10
7.6830129711
 20
9.4578480036
 30
0.0
 10
7.6826151878
 20
9.4538900794
 30
0.0
 10
7.682137813
 20
9.4491405831
 30
0.0
 10
7.6816604476
 20
9.4443910833
 30
0.0
 10
7.6810239571
 20
9.4380584183
 30
0.0
 10
7.6802283452
 20
9.4301425865
 30
0.0
 10
7.6794327324
 20
9.4222267548
 30
0.0
 10
7.6787962432
 20
9.4158940895
 30
0.0
 10
7.6783188738
 20
9.4111445905
 30
0.0
 10
7.6778415141
 20
9.4063950916
 30
0.0
 10
7.6774436841
 20
9.4024371753
 30
0.0
 10
7.6771254877
 20
9.3992708436
 30
0.0
 10
7.6769264612
 20
9.3972918834
 30
0.0
 10
7.6767675921
 20
9.3957087218
 30
0.0
 10
7.6766474762
 20
9.3945213324
 30
0.0
 10
7.6765504464
 20
9.3935318993
 30
0.0
 10
7.6764765071
 20
9.3928391822
 30
0.0
 10
7.6764436534
 20
9.3924435217
 30
0.0
 10
7.6763925407
 20
9.3921462752
 30
0.0
 10
7.676442619
 20
9.3918509444
 30
0.0
 10
7.6764740936
 20
9.3914565018
 30
0.0
 10
7.6765456193
 20
9.3907665385
 30
0.0
 10
7.6766392012
 20
9.3897807138
 30
0.0
 10
7.6767551796
 20
9.3885977939
 30
0.0
 10
7.6769085321
 20
9.3870205431
 30
0.0
 10
7.6771006628
 20
9.3850489878
 30
0.0
 10
7.677407826
 20
9.3818944948
 30
0.0
 10
7.6777918644
 20
9.3779513801
 30
0.0
 10
7.6782526742
 20
9.3732196418
 30
0.0
 10
7.6787134937
 20
9.3684879036
 30
0.0
 10
7.6793279164
 20
9.3621789194
 30
0.0
 10
7.680095946
 20
9.3542926891
 30
0.0
 10
7.6808639747
 20
9.3464064588
 30
0.0
 10
7.6814783987
 20
9.3400974746
 30
0.0
 10
7.6819392142
 20
9.3353657362
 30
0.0
 10
7.6824000391
 20
9.3306339989
 30
0.0
 10
7.6827840307
 20
9.3266908808
 30
0.0
 10
7.6830912891
 20
9.3235363947
 30
0.0
 10
7.6832831775
 20
9.3215648219
 30
0.0
 10
7.6834370275
 20
9.3199876072
 30
0.0
 10
7.683551486
 20
9.3188045767
 30
0.0
 10
7.6836498233
 20
9.3178190982
 30
0.0
 10
7.6837128598
 20
9.317128517
 30
0.0
 10
7.6837579364
 20
9.3167350643
 30
0.0
 10
7.6837662336
 20
9.3164366927
 30
0.0
 10
7.6838720437
 20
9.3161508667
 30
0.0
 10
7.6839791103
 20
9.3157653893
 30
0.0
 10
7.6841823243
 20
9.3150928427
 30
0.0
 10
7.6844643447
 20
9.3141309959
 30
0.0
 10
7.6848063157
 20
9.3129772361
 30
0.0
 10
7.6852610382
 20
9.3114387302
 30
0.0
 10
7.6858298655
 20
9.3095156525
 30
0.0
 10
7.6867397522
 20
9.3064386975
 30
0.0
 10
7.6878771918
 20
9.3025925144
 30
0.0
 10
7.6892420846
 20
9.2979770901
 30
0.0
 10
7.6906069866
 20
9.293361667
 30
0.0
 10
7.6924268527
 20
9.2872077691
 30
0.0
 10
7.6947016866
 20
9.2795153969
 30
0.0
 10
7.6969765197
 20
9.2718230246
 30
0.0
 10
7.6987963871
 20
9.265669127
 30
0.0
 10
7.7001612854
 20
9.261053703
 30
0.0
 10
7.7015261924
 20
9.256438282
 30
0.0
 10
7.7026635875
 20
9.2525920885
 30
0.0
 10
7.703573565
 20
9.2495151547
 30
0.0
 10
7.7041421613
 20
9.2475920232
 30
0.0
 10
7.7045973581
 20
9.2460536277
 30
0.0
 10
7.7049378801
 20
9.2448995308
 30
0.0
 10
7.7052244338
 20
9.2439387383
 30
0.0
 10
7.7054195552
 20
9.2432643097
 30
0.0
 10
7.7055395881
 20
9.2428818478
 30
0.0
 10
7.7056055696
 20
9.242586759
 30
0.0
 10
7.7057634565
 20
9.2423231771
 30
0.0
 10
7.7059419148
 20
9.2419607446
 30
0.0
 10
7.7062691529
 20
9.2413316082
 30
0.0
 10
7.7067288272
 20
9.2404301649
 30
0.0
 10
7.7072837787
 20
9.2393495788
 30
0.0
 10
7.7080225466
 20
9.2379083971
 30
0.0
 10
7.7089464062
 20
9.236107057
 30
0.0
 10
7.7104243582
 20
9.2332248363
 30
0.0
 10
7.7122718749
 20
9.2296220866
 30
0.0
 10
7.714488862
 20
9.2252987757
 30
0.0
 10
7.7167058579
 20
9.2209754679
 30
0.0
 10
7.7196618494
 20
9.2152110564
 30
0.0
 10
7.7233568399
 20
9.2080055424
 30
0.0
 10
7.7270518296
 20
9.2008000281
 30
0.0
 10
7.7300078223
 20
9.1950356171
 30
0.0
 10
7.7322248145
 20
9.1907123078
 30
0.0
 10
7.7344418154
 20
9.1863890025
 30
0.0
 10
7.7362892894
 20
9.1827862355
 30
0.0
 10
7.7377673282
 20
9.1799040502
 30
0.0
 10
7.7386909669
 20
9.17810262
 30
0.0
 10
7.7394301884
 20
9.1766616232
 30
0.0
 10
7.7399837544
 20
9.175580472
 30
0.0
 10
7.7404477636
 20
9.1746807968
 30
0.0
 10
7.7407672631
 20
9.1740485041
 30
0.0
 10
7.7409581206
 20
9.1736911288
 30
0.0
 10
7.7410779209
 20
9.173412013
 30
0.0
 10
7.7412869491
 20
9.1731752668
 30
0.0
 10
7.7415345296
 20
9.1728448263
 30
0.0
 10
7.7419822967
 20
9.1722734412
 30
0.0
 10
7.7426143826
 20
9.1714535767
 30
0.0
 10
7.7433761307
 20
9.1704712803
 30
0.0
 10
7.7443906614
 20
9.1691610135
 30
0.0
 10
7.7456592129
 20
9.1675233643
 30
0.0
 10
7.7476886784
 20
9.1649030225
 30
0.0
 10
7.7502255847
 20
9.1616276307
 30
0.0
 10
7.7532698403
 20
9.1576971454
 30
0.0
 10
7.7563141045
 20
9.1537666641
 30
0.0
 10
7.7603731204
 20
9.148526021
 30
0.0
 10
7.7654468914
 20
9.1419752176
 30
0.0
 10
7.7705206617
 20
9.1354244138
 30
0.0
 10
7.7745796787
 20
9.1301837714
 30
0.0
 10
7.7776239397
 20
9.1262532878
 30
0.0
 10
7.780668207
 20
9.1223228112
 30
0.0
 10
7.783205077
 20
9.1190473922
 30
0.0
 10
7.7852346165
 20
9.1164271059
 30
0.0
 10
7.7865029796
 20
9.1147893156
 30
0.0
 10
7.7875178971
 20
9.1134793385
 30
0.0
 10
7.7882784637
 20
9.1124961569
 30
0.0
 10
7.7889142463
 20
9.1116790618
 30
0.0
 10
7.7893554141
 20
9.1111027329
 30
0.0
 10
7.7896135683
 20
9.1107802135
 30
0.0
 10
7.7897901176
 20
9.1105191362
 30
0.0
 10
7.790031903
 20
9.1103314043
 30
0.0
 10
7.7903315285
 20
9.1100555115
 30
0.0
 10
7.7908664751
 20
9.1095846189
 30
0.0
 10
7.7916251417
 20
9.1089056834
 30
0.0
 10
7.7925379142
 20
9.1080936282
 30
0.0
 10
7.7937541154
 20
9.1070099563
 30
0.0
 10
7.7952746507
 20
9.1056556853
 30
0.0
 10
7.7977073486
 20
9.1034886736
 30
0.0
 10
7.8007482754
 20
9.1007799701
 30
0.0
 10
7.8043973642
 20
9.0975294996
 30
0.0
 10
7.8080464593
 20
9.0942790362
 30
0.0
 10
7.8129119172
 20
9.0899450825
 30
0.0
 10
7.8189937404
 20
9.0845276413
 30
0.0
 10
7.8250755631
 20
9.0791101994
 30
0.0
 10
7.8299410218
 20
9.0747762467
 30
0.0
 10
7.8335901144
 20
9.0715257802
 30
0.0
 10
7.8372392123
 20
9.0682753213
 30
0.0
 10
7.8402801108
 20
9.065566582
 30
0.0
 10
7.8427128665
 20
9.0633996432
 30
0.0
 10
7.8442332547
 20
9.0620451867
 30
0.0
 10
7.8454497578
 20
9.0609618956
 30
0.0
 10
7.8463616082
 20
9.0601486769
 30
0.0
 10
7.8471231595
 20
9.0594733818
 30
0.0
 10
7.8476529565
 20
9.0589959904
 30
0.0
 10
7.847960833
 20
9.0587305104
 30
0.0
 10
7.8481772738
 20
9.0585107935
 30
0.0
 10
7.8484490136
 20
9.0583698465
 30
0.0
 10
7.8487920444
 20
9.0581544414
 30
0.0
 10
7.8494013355
 20
9.0577902839
 30
0.0
 10
7.8502670527
 20
9.0572633661
 30
0.0
 10
7.8513079245
 20
9.0566339295
 30
0.0
 10
7.8526950512
 20
9.0557936801
 30
0.0
 10
7.8544292
 20
9.054743711
 30
0.0
 10
7.8572037036
 20
9.0530635689
 30
0.0
 10
7.8606718793
 20
9.050963457
 30
0.0
 10
7.8648336704
 20
9.0484432945
 30
0.0
 10
7.8689954668
 20
9.0459231396
 30
0.0
 10
7.8745445268
 20
9.0425629304
 30
0.0
 10
7.8814808524
 20
9.0383626699
 30
0.0
 10
7.8884171776
 20
9.0341624086
 30
0.0
 10
7.8939662382
 20
9.0308022005
 30
0.0
 10
7.8981280327
 20
9.0282820422
 30
0.0
 10
7.9022898309
 20
9.0257618924
 30
0.0
 10
7.9057579846
 20
9.0236617411
 30
0.0
 10
7.9085325331
 20
9.0219816794
 30
0.0
 10
7.9102665678
 20
9.0209315055
 30
0.0
 10
7.9116539286
 20
9.0200916765
 30
0.0
 10
7.9126940852
 20
9.0194609556
 30
0.0
 10
7.9135620401
 20
9.018938056
 30
0.0
 10
7.9141673365
 20
9.0185667255
 30
0.0
 10
7.9145167678
 20
9.0183628133
 30
0.0
 10
7.9147688475
 20
9.0181865637
 30
0.0
 10
7.9150591284
 20
9.0180994375
 30
0.0
 10
7.9154328447
 20
9.017952182
 30
0.0
 10
7.9160930565
 20
9.0177089689
 30
0.0
 10
7.9170329704
 20
9.0173539493
 30
0.0
 10
7.9181622565
 20
9.016931167
 30
0.0
 10
7.9196674859
 20
9.0163663251
 30
0.0
 10
7.9215491889
 20
9.0156606604
 30
0.0
 10
7.9245598207
 20
9.0145313803
 30
0.0
 10
7.9283231424
 20
9.0131198544
 30
0.0
 10
7.9328391148
 20
9.0114259916
 30
0.0
 10
7.9373550909
 20
9.0097321372
 30
0.0
 10
7.943376391
 20
9.0074736618
 30
0.0
 10
7.9509030166
 20
9.0046505686
 30
0.0
 10
7.9584296419
 20
9.0018274746
 30
0.0
 10
7.9644509425
 20
8.9995690004
 30
0.0
 10
7.9689669171
 20
8.9978751423
 30
0.0
 10
7.9734828946
 20
8.9961812934
 30
0.0
 10
7.9772462006
 20
8.9947697242
 30
0.0
 10
7.9802568645
 20
8.9936405325
 30
0.0
 10
7.9821384858
 20
8.9929346427
 30
0.0
 10
7.9836438829
 20
8.9923702629
 30
0.0
 10
7.9847726567
 20
8.9919460689
 30
0.0
 10
7.9857141732
 20
8.9915954661
 30
0.0
 10
7.9863715242
 20
8.9913443682
 30
0.0
 10
7.9867498241
 20
8.9912097463
 30
0.0
 10
7.9870260256
 20
8.9910838135
 30
0.0
 10
7.9873309855
 20
8.9910533152
 30
0.0
 10
7.9877275674
 20
8.9909793621
 30
0.0
 10
7.9884262596
 20
8.9908654541
 30
0.0
 10
7.9894219477
 20
8.9906946196
 30
0.0
 10
7.9906178193
 20
8.9904930891
 30
0.0
 10
7.9922119496
 20
8.9902231694
 30
0.0
 10
7.9942047374
 20
8.9898861848
 30
0.0
 10
7.9973931281
 20
8.9893467775
 30
0.0
 10
8.0013786404
 20
8.9886725981
 30
0.0
 10
8.0061612448
 20
8.9878635486
 30
0.0
 10
8.0109438521
 20
8.9870545082
 30
0.0
 10
8.0173206608
 20
8.9859757845
 30
0.0
 10
8.0252916719
 20
8.984627381
 30
0.0
 10
8.0348568852
 20
8.9830092963
 30
0.0
 10
8.047610503
 20
8.9808518502
 30
0.0
 10
8.0571757163
 20
8.9792337656
 30
0.0
 10
8.0635525251
 20
8.9781550425
 30
0.0
  0
ENDSEC
  0
SECTION
  2
OBJECTS
  0
DICTIONARY
  5
C
100
AcDbDictionary
280
0
281
1
  3
ACAD_GROUP
350
D
  3
ACAD_MLINESTYLE
350
17
  3
ACAD_LAYOUT
350
1A
  3
ACAD_PLOTSETTINGS
350
19
  3
ACAD_PLOTSTYLENAME
350
E
  3
ACAD_IMAGE_DICT
350
       390
  3
ACAD_IMAGE_VARS
350
       391
  3
ACAD_TABLESTYLE
350
       392
  0
IMAGEDEF_REACTOR
  5
38F
100
AcDbRasterImageDefReactor
 90
2
330
27F
  0
DICTIONARY
  5
D
102
{ACAD_REACTORS
330
C
102
}
100
AcDbDictionary
280
0
281
1
  0
ACDBDICTIONARYWDFLT
  5
E
102
{ACAD_REACTORS
330
C
102
}
100
AcDbDictionary
281
1
  3
Normal
350
F
100
AcDbDictionaryWithDefault
340
F
  0
DICTIONARY
  5
390
330
C
100
AcDbDictionary
281
1
  3
FMI_assy_2_img_1
350
       395
  0
RASTERVARIABLES
  5
391
330
C
100
AcDbRasterVariables
 90
0
 70
0
 71
1
 72
5
  0
DICTIONARY
  5
17
102
{ACAD_REACTORS
330
C
102
}
100
AcDbDictionary
280
0
281
1
  3
Standard
350
18
  0
DICTIONARY
  5
392
330
C
100
AcDbDictionary
281
1
  3
Standard
350
       396
  3
Standard1
350
       397
  0
DICTIONARY
  5
19
102
{ACAD_REACTORS
330
C
102
}
100
AcDbDictionary
281
1
  0
DICTIONARY
  5
1A
102
{ACAD_REACTORS
330
C
102
}
100
AcDbDictionary
281
1
  3
Model
350
393
  3
Layout1
350
394
  0
ACDBPLACEHOLDER
  5
F
102
{ACAD_REACTORS
330
E
102
}
  0
MLINESTYLE
  5
18
102
{ACAD_REACTORS
330
17
102
}
100
AcDbMlineStyle
  2
STANDARD
 70
0
  3

 62
256
 51
90.0
 52
90.0
 71
2
 49
0.5
 62
256
  6
BYLAYER
 49
-0.5
 62
256
  6
BYLAYER
  0
LAYOUT
  5
393
102
{ACAD_REACTORS
330
1A
102
}
100
AcDbPlotSettings
  1

  2
none_device
  4
ANSI_C_(22.00_x_17.00_Inches)
  6

 40
0.0
 41
0.0
 42
0.0
 43
0.0
 44
558.8
 45
431.8
 46
0.0
 47
0.0
 48
0.0
 49
0.0
140
0.0
141
0.0
142
1.0
143
1.0
 70
1024
 72
0
 73
0
 74
0
  7

 75
0
147
1.0
148
0.0
149
0.0
100
AcDbLayout
  1
Model
 70
0
 71
0
 10
0.0
 20
0.0
 11
22.0
 21
17.0
 12
0.0
 22
0.0
 32
0.0
 14
0.0
 24
0.0
 34
0.0
 15
0.0
 25
0.0
 35
0.0
146
0.0
 13
0.0
 23
0.0
 33
0.0
 16
1.0
 26
0.0
 36
0.0
 17
0.0
 27
1.0
 37
0.0
 76
0
330
204
345
0
346
0
  0
LAYOUT
  5
394
102
{ACAD_REACTORS
330
1A
102
}
100
AcDbPlotSettings
  1

  2
none_device
  4
ANSI_C_(22.00_x_17.00_Inches)
  6

 40
0.0
 41
0.0
 42
0.0
 43
0.0
 44
558.8
 45
431.8
 46
0.0
 47
0.0
 48
0.0
 49
0.0
140
0.0
141
0.0
142
1.0
143
1.0
 70
0
 72
0
 73
0
 74
0
  7

 75
0
147
1.0
148
0.0
149
0.0
100
AcDbLayout
  1
Layout1
 70
0
 71
1
 10
0.0
 20
0.0
 11
22.0
 21
17.0
 12
0.0
 22
0.0
 32
0.0
 14
0.0
 24
0.0
 34
0.0
 15
0.0
 25
0.0
 35
0.0
146
0.0
 13
0.0
 23
0.0
 33
0.0
 16
1.0
 26
0.0
 36
0.0
 17
0.0
 27
1.0
 37
0.0
 76
0
330
205
345
0
346
0
  0
IMAGEDEF
  5
395
102
{ACAD_REACTORS
330
390
330
38F
102
}
100
AcDbRasterImageDef
 90
0
  1
FMI_assy_2_img_1.png
 10
369.0
 20
92.0
 11
0.0066666667
 21
0.0066666667
280
1
281
0
  0
TABLESTYLE
  5
396
102
{ACAD_REACTORS
330
392
330
282
330
283
102
}
330
392
100
AcDbTableStyle
  3
Standard
 70
0
 71
0
 40
0.06
 41
0.06
280
1
281
1
  7
Standard
140
0.18
170
1
 62
0
 63
7
283
0
  7
Standard
140
0.18
170
1
 62
0
 63
7
283
0
  7
Standard
140
0.18
170
1
 62
0
 63
7
283
0
  0
TABLESTYLE
  5
397
102
{ACAD_REACTORS
330
392
330
281
102
}
330
392
100
AcDbTableStyle
  3
Standard1
 70
1
 71
0
 40
0.06
 41
0.06
280
1
281
1
  7
Standard
140
0.18
170
1
 62
0
 63
7
283
0
  7
Standard
140
0.18
170
1
 62
0
 63
7
283
0
  7
Standard
140
0.18
170
1
 62
0
 63
7
283
0
  0
ENDSEC
  0
EOF
