999
DXF file: FJ6_assy_2.dxf
999
Pro/ENGINEER 2014200 by Parametric Technology Corporation
  0
SECTION
  2
HEADER
  9
$ACADVER
  1
AC1021
  9
$DWGCODEPAGE
  3
ANSI_1252
  9
$EXTMAX
 10
22.0
 20
17.0
 30
0.0
  9
$EXTMIN
 10
0.0
 20
0.0
 30
0.0
  9
$LIMMIN
 10
0.0
 20
0.0
  9
$LIMMAX
 10
22.0
 20
17.0
  9
$VIEWCTR
 10
11.0
 20
8.5
  9
$VIEWSIZE
 40
17.0
  9
$CLAYER
  8
0
  9
$LTSCALE
 40
1.21
  9
$CELTYPE
  6
BYLAYER
  9
$DIMSCALE
 40
1.0
  9
$DIMASZ
 40
0.1875
  9
$DIMEXO
 40
0.0625
  9
$DIMDLI
 40
0.836
  9
$DIMEXE
 40
0.125
  9
$DIMCEN
 40
0.198
  9
$DIMLFAC
 40
1.0
  9
$DIMBLK
  1
_FILLED
  9
$DIMTXT
 40
0.1
  9
$DIMTOL
 70
0
  9
$DIMLIM
 70
0
  9
$DIMTFAC
 40
1.0
  9
$DIMGAP
 40
0.09
  9
$DIMDSEP
 70
46
  9
$AUNITS
 70
0
  9
$PDMODE
 70
3
  9
$PDSIZE
 40
0.3125
  9
$HANDSEED
  5
332
  9
$TILEMODE
 70
1
  9
$MEASUREMENT
 70
0
  9
$INSUNITS
 70
1
  0
ENDSEC
  0
SECTION
  2
CLASSES
  0
CLASS
  1
ACDBDICTIONARYWDFLT
  2
AcDbDictionaryWithDefault
  3
AutoCAD 2000
 90
0
 91
1
280
0
281
0
  0
CLASS
  1
ACDBPLACEHOLDER
  2
AcDbPlaceHolder
  3
AutoCAD 2000
 90
0
 91
1
280
0
281
0
  0
CLASS
  1
LAYOUT
  2
AcDbLayout
  3
AutoCAD 2000
 90
0
 91
0
280
0
281
0
  0
CLASS
  1
RASTERVARIABLES
  2
AcDbRasterVariables
  3
ISM
 90
0
 91
1
280
0
281
0
  0
CLASS
  1
IMAGEDEF
  2
AcDbRasterImageDef
  3
ISM
 90
0
 91
1
280
0
281
0
  0
CLASS
  1
IMAGEDEF_REACTOR
  2
AcDbRasterImageDefReactor
  3
ISM
 90
0
 91
1
280
0
281
0
  0
CLASS
  1
IMAGE
  2
AcDbRasterImage
  3
ISM
 90
127
 91
1
280
0
281
1
  0
CLASS
  1
TABLESTYLE
  2
AcDbTableStyle
  3
ObjectDBX Classes
 90
2047
 91
1
280
0
281
0
  0
CLASS
  1
ACAD_TABLE
  2
AcDbTable
  3
ObjectDBX Classes
 90
1025
 91
2
280
0
281
1
  0
ENDSEC
  0
SECTION
  2
TABLES
  0
TABLE
  2
VPORT
  5
8
100
AcDbSymbolTable
 70
2
  0
VPORT
  5
1F4
100
AcDbSymbolTableRecord
100
AcDbViewportTableRecord
  2
*ACTIVE
 70
0
 10
0.0
 20
0.0
 11
1.0
 21
1.0
 12
11.0
 22
8.5
 13
0.0
 23
0.0
 14
1.0
 24
1.0
 15
0.0
 25
0.0
 16
0.0
 26
0.0
 36
1.0
 17
0.0
 27
0.0
 37
0.0
 40
17.0
 41
1.2941176471
 42
50.0
 43
0.0
 44
0.0
 50
0.0
 51
0.0
 71
0
 72
100
 73
1
 74
1
 75
0
 76
0
 77
0
 78
0
  0
ENDTAB
  0
TABLE
  2
LTYPE
  5
5
100
AcDbSymbolTable
 70
6
  0
LTYPE
  5
14
100
AcDbSymbolTableRecord
100
AcDbLinetypeTableRecord
  2
BYBLOCK
 70
0
  3

 72
65
 73
0
 40
0.0
  0
LTYPE
  5
15
100
AcDbSymbolTableRecord
100
AcDbLinetypeTableRecord
  2
BYLAYER
 70
0
  3

 72
65
 73
0
 40
0.0
  0
LTYPE
  5
16
100
AcDbSymbolTableRecord
100
AcDbLinetypeTableRecord
  2
CONTINUOUS
 70
64
  3
Solid line
 72
65
 73
0
 40
0.0
  0
LTYPE
  5
1F5
100
AcDbSymbolTableRecord
100
AcDbLinetypeTableRecord
  2
CENTER
 70
64
  3
____ _ ____ _ ____ _ ____ _ ____ _ ____ _ ____
 72
65
 73
4
 40
0.6
 49
0.375
 74
0
 49
-0.075
 74
0
 49
0.075
 74
0
 49
-0.075
 74
0
  0
LTYPE
  5
1F6
100
AcDbSymbolTableRecord
100
AcDbLinetypeTableRecord
  2
HIDDEN
 70
64
  3
- - - - - - - - - - - - - - - - - - - -
 72
65
 73
2
 40
0.2
 49
0.1
 74
0
 49
-0.1
 74
0
  0
LTYPE
  5
1F7
100
AcDbSymbolTableRecord
100
AcDbLinetypeTableRecord
  2
PHANTOM
 70
64
  3
_____ _ _ _____ _ _ _____ _ _ _____
 72
65
 73
6
 40
0.8
 49
0.45
 74
0
 49
-0.05
 74
0
 49
0.1
 74
0
 49
-0.05
 74
0
 49
0.1
 74
0
 49
-0.05
 74
0
  0
LTYPE
  5
1F8
100
AcDbSymbolTableRecord
100
AcDbLinetypeTableRecord
  2
DOT
 70
64
  3
. . . . . . . . . . . . . . . . . . . .
 72
65
 73
2
 40
0.2
 49
0.1
 74
0
 49
-0.1
 74
0
  0
LTYPE
  5
1F9
100
AcDbSymbolTableRecord
100
AcDbLinetypeTableRecord
  2
DASHED
 70
64
  3
- - - - - - - - - - - - - - - - - - - -
 72
65
 73
2
 40
0.2
 49
0.1
 74
0
 49
-0.1
 74
0
  0
ENDTAB
  0
TABLE
  2
LAYER
  5
2
100
AcDbSymbolTable
 70
36
  0
LAYER
  5
10
100
AcDbSymbolTableRecord
100
AcDbLayerTableRecord
  2
0
 70
0
 62
7
  6
CONTINUOUS
370
-3
390
F
  0
LAYER
  5
1FA
100
AcDbSymbolTableRecord
100
AcDbLayerTableRecord
  2
DEFAULT_1
 70
0
 62
7
  6
CENTER
370
-3
390
F
  0
LAYER
  5
1FB
100
AcDbSymbolTableRecord
100
AcDbLayerTableRecord
  2
DEFAULT_2
 70
0
 62
8
  6
HIDDEN
370
-3
390
F
  0
LAYER
  5
1FC
100
AcDbSymbolTableRecord
100
AcDbLayerTableRecord
  2
DEFAULT_3
 70
0
 62
7
  6
PHANTOM
370
-3
390
F
  0
LAYER
  5
1FD
100
AcDbSymbolTableRecord
100
AcDbLayerTableRecord
  2
DATUM_PLANES
 70
0
 62
7
  6
CONTINUOUS
370
-3
390
F
  0
LAYER
  5
1FE
100
AcDbSymbolTableRecord
100
AcDbLayerTableRecord
  2
DIMENSIONS
 70
0
 62
7
  6
CONTINUOUS
370
-3
390
F
  0
LAYER
  5
1FF
100
AcDbSymbolTableRecord
100
AcDbLayerTableRecord
  2
DTM_500001
 70
0
 62
7
  6
CONTINUOUS
370
-3
390
F
  0
LAYER
  5
200
100
AcDbSymbolTableRecord
100
AcDbLayerTableRecord
  2
PARAMETERDIMENSIONS
 70
0
 62
7
  6
CONTINUOUS
370
-3
390
F
  0
LAYER
  5
201
100
AcDbSymbolTableRecord
100
AcDbLayerTableRecord
  2
PLANE
 70
0
 62
7
  6
CONTINUOUS
370
-3
390
F
  0
LAYER
  5
202
100
AcDbSymbolTableRecord
100
AcDbLayerTableRecord
  2
PORT_AREAS
 70
0
 62
7
  6
CONTINUOUS
370
-3
390
F
  0
LAYER
  5
203
100
AcDbSymbolTableRecord
100
AcDbLayerTableRecord
  2
SUNNBOMCOSMETIC
 70
0
 62
7
  6
CONTINUOUS
370
-3
390
F
  0
LAYER
  5
204
100
AcDbSymbolTableRecord
100
AcDbLayerTableRecord
  2
SUNNBOMSTAMPING
 70
0
 62
7
  6
CONTINUOUS
370
-3
390
F
  0
LAYER
  5
205
100
AcDbSymbolTableRecord
100
AcDbLayerTableRecord
  2
THREADS
 70
0
 62
7
  6
CONTINUOUS
370
-3
390
F
  0
ENDTAB
  0
TABLE
  2
STYLE
  5
3
100
AcDbSymbolTable
 70
1
  0
STYLE
  5
11
100
AcDbSymbolTableRecord
100
AcDbTextStyleTableRecord
  2
STANDARD
 70
0
 40
0.0
 41
0.8
 50
0.0
 71
0
 42
0.2
  3
txt
  4

  0
STYLE
  5
206
100
AcDbSymbolTableRecord
100
AcDbTextStyleTableRecord
  2
TEXTSTYLE_1
 70
0
 40
0.0
 41
0.8
 50
0.0
 71
0
 42
0.2
  3
gdt
  4

  0
ENDTAB
  0
TABLE
  2
VIEW
  5
6
100
AcDbSymbolTable
 70
0
  0
ENDTAB
  0
TABLE
  2
UCS
  5
7
100
AcDbSymbolTable
 70
0
  0
ENDTAB
  0
TABLE
  2
APPID
  5
9
100
AcDbSymbolTable
 70
1
  0
APPID
  5
207
100
AcDbSymbolTableRecord
100
AcDbRegAppTableRecord
  2
ACAD
 70
0
  0
ENDTAB
  0
TABLE
  2
BLOCK_RECORD
  5
1
100
AcDbSymbolTable
 70
0
  0
BLOCK_RECORD
  5
208
100
AcDbSymbolTableRecord
100
AcDbBlockTableRecord
  2
*Model_Space
  0
BLOCK_RECORD
  5
209
100
AcDbSymbolTableRecord
100
AcDbBlockTableRecord
  2
*Paper_Space
  0
BLOCK_RECORD
  5
20A
100
AcDbSymbolTableRecord
100
AcDbBlockTableRecord
  2
SUN_FIRST_THIRD_ANGLE_BL0
  0
BLOCK_RECORD
  5
20B
100
AcDbSymbolTableRecord
100
AcDbBlockTableRecord
  2
*T1
  0
BLOCK_RECORD
  5
20C
100
AcDbSymbolTableRecord
100
AcDbBlockTableRecord
  2
*T2
  0
ENDTAB
  0
TABLE
  2
DIMSTYLE
  5
A
100
AcDbSymbolTable
 70
1
100
AcDbDimStyleTable
 71
0
  0
DIMSTYLE
105
20D
100
AcDbSymbolTableRecord
100
AcDbDimStyleTableRecord
  2
STANDARD
 70
0
  3

  4

 40
1.0
 41
0.1875
 42
0.0625
 43
0.38
 44
0.125
 45
0.0
 46
0.0
 47
0.001
 48
0.001
140
0.1
141
0.09
142
0.0
143
25.4
144
1.0
145
0.0
146
1.0
147
0.09
 71
0.0
 72
0.0
 73
1
 74
1
 75
0
 76
0
 77
0
 78
4
170
0
171
2
172
0
173
0
174
0
175
0
176
0
177
0
178
0
270
2
271
3
272
3
273
2
274
2
275
0
280
0
281
0
282
0
283
1
284
4
285
0
286
0
287
3
288
0
340
11
278
46
  0
ENDTAB
  0
ENDSEC
  0
SECTION
  2
BLOCKS
  0
BLOCK
  5
20
100
AcDbEntity
  8
0
100
AcDbBlockBegin
  2
*Model_Space
 70
0
 10
0.0
 20
0.0
 30
0.0
  3
*Model_Space
  1

  0
ENDBLK
  5
21
100
AcDbEntity
  8
0
100
AcDbBlockEnd
  0
BLOCK
  5
1C
100
AcDbEntity
  8
0
100
AcDbBlockBegin
  2
*Paper_Space
 70
0
 10
0.0
 20
0.0
 30
0.0
  3
*Paper_Space
  1

  0
ENDBLK
  5
1D
100
AcDbEntity
  8
0
100
AcDbBlockEnd
  0
BLOCK
  5
20E
100
AcDbEntity
  8
0
100
AcDbBlockBegin
 62
2
  6
CONTINUOUS
  2
SUN_FIRST_THIRD_ANGLE_BL0
 70
64
 10
20.4816717061
 20
1.2289683772
  3
SUN_FIRST_THIRD_ANGLE_BL0
  1

  0
TEXT
  5
20F
100
AcDbEntity
  8
0
100
AcDbText
 62
2
  6
CONTINUOUS
 10
19.4750896608
 20
1.4136269581
  7
STANDARD
 40
0.08
  1
FIRST ANGLE
 41
0.8
 72
0
100
AcDbText
  0
TEXT
  5
210
100
AcDbEntity
  8
0
100
AcDbText
 62
2
  6
CONTINUOUS
 10
20.7842537513
 20
1.4047600029
  7
STANDARD
 40
0.08
  1
THIRD ANGLE
 41
0.8
 72
0
100
AcDbText
  0
LINE
  5
211
100
AcDbEntity
  8
0
100
AcDbLine
 62
7
  6
CONTINUOUS
 10
19.4767170086
 20
1.1727031207
 11
19.6334271527
 21
1.1717972817
  0
LINE
  5
212
100
AcDbEntity
  8
0
100
AcDbLine
 62
7
  6
CONTINUOUS
 10
19.6596964832
 20
1.1717972817
 11
19.6950230232
 21
1.171593082
  0
LINE
  5
213
100
AcDbEntity
  8
0
100
AcDbLine
 62
7
  6
CONTINUOUS
 10
19.7194818561
 20
1.1708914427
 11
19.8852396156
 21
1.1699333054
  0
LINE
  5
214
100
AcDbEntity
  8
0
100
AcDbLine
 62
7
  6
CONTINUOUS
 10
19.4758111696
 20
1.2723454088
 11
19.88525039
 21
1.3511534004
  0
LINE
  5
215
100
AcDbEntity
  8
0
100
AcDbLine
 62
7
  6
CONTINUOUS
 10
19.88525039
 20
1.3511534004
 11
19.8831348489
 21
0.9851647912
  0
LINE
  5
216
100
AcDbEntity
  8
0
100
AcDbLine
 62
7
  6
CONTINUOUS
 10
19.8831348489
 20
0.9851647912
 11
19.4767170086
 21
1.0658141206
  0
LINE
  5
217
100
AcDbEntity
  8
0
100
AcDbLine
 62
7
  6
CONTINUOUS
 10
19.4767170086
 20
1.0658141206
 11
19.4779056764
 21
1.2714536432
  0
CIRCLE
  5
218
100
AcDbEntity
  8
0
100
AcDbCircle
 62
7
  6
CONTINUOUS
 10
20.2068232291
 20
1.1717972817
 40
0.175742101
  0
CIRCLE
  5
219
100
AcDbEntity
  8
0
100
AcDbCircle
 62
7
  6
CONTINUOUS
 10
20.2068232291
 20
1.1717972817
 40
0.1005522074
  0
LINE
  5
21A
100
AcDbEntity
  8
0
100
AcDbLine
 62
7
  6
CONTINUOUS
 10
20.2077290681
 20
1.3756110529
 11
20.2071171714
 21
1.2379342989
  0
LINE
  5
21B
100
AcDbEntity
  8
0
100
AcDbLine
 62
7
  6
CONTINUOUS
 10
20.2077290681
 20
1.2016899681
 11
20.2074674401
 21
1.1428236749
  0
LINE
  5
21C
100
AcDbEntity
  8
0
100
AcDbLine
 62
7
  6
CONTINUOUS
 10
20.208634907
 20
1.101141841
 11
20.2080230104
 21
0.963465087
  0
LINE
  5
21D
100
AcDbEntity
  8
0
100
AcDbLine
 62
7
  6
CONTINUOUS
 10
20.0066328138
 20
1.1745147986
 11
20.1443095678
 21
1.1739029019
  0
LINE
  5
21E
100
AcDbEntity
  8
0
100
AcDbLine
 62
7
  6
CONTINUOUS
 10
20.1832714155
 20
1.1727031207
 11
20.238153505
 21
1.172335442
  0
LINE
  5
21F
100
AcDbEntity
  8
0
100
AcDbLine
 62
7
  6
CONTINUOUS
 10
20.2756669918
 20
1.1717972817
 11
20.407916871
 21
1.1712095044
  0
CIRCLE
  5
220
100
AcDbEntity
  8
0
100
AcDbCircle
 62
7
  6
CONTINUOUS
 10
20.7509457401
 20
1.1693297793
 40
0.1722024983
  0
CIRCLE
  5
221
100
AcDbEntity
  8
0
100
AcDbCircle
 62
7
  6
CONTINUOUS
 10
20.7509457401
 20
1.1693297793
 40
0.0985164967
  0
LINE
  5
222
100
AcDbEntity
  8
0
100
AcDbLine
 62
7
  6
CONTINUOUS
 10
20.7169767782
 20
1.170462078
 11
20.7825395137
 21
1.1682766535
  0
LINE
  5
223
100
AcDbEntity
  8
0
100
AcDbLine
 62
7
  6
CONTINUOUS
 10
20.8177513651
 20
1.1693297793
 11
20.947965719
 21
1.1693297793
  0
LINE
  5
224
100
AcDbEntity
  8
0
100
AcDbLine
 62
7
  6
CONTINUOUS
 10
20.6875370113
 20
1.170462078
 11
20.5573226574
 21
1.170462078
  0
LINE
  5
225
100
AcDbEntity
  8
0
100
AcDbLine
 62
7
  6
CONTINUOUS
 10
20.7486811426
 20
1.1987695462
 11
20.7486811426
 21
1.1432869085
  0
LINE
  5
226
100
AcDbEntity
  8
0
100
AcDbLine
 62
7
  6
CONTINUOUS
 10
20.7498134414
 20
1.1059210505
 11
20.7498134414
 21
0.9757066966
  0
LINE
  5
227
100
AcDbEntity
  8
0
100
AcDbLine
 62
7
  6
CONTINUOUS
 10
20.7486811426
 20
1.2338708068
 11
20.7486811426
 21
1.3640851607
  0
LINE
  5
228
100
AcDbEntity
  8
0
100
AcDbLine
 62
7
  6
CONTINUOUS
 10
21.0702539817
 20
1.2701043662
 11
21.4790138229
 21
1.3448360823
  0
LINE
  5
229
100
AcDbEntity
  8
0
100
AcDbLine
 62
7
  6
CONTINUOUS
 10
21.4790138229
 20
1.3448360823
 11
21.4790138229
 21
0.9779712941
  0
LINE
  5
22A
100
AcDbEntity
  8
0
100
AcDbLine
 62
7
  6
CONTINUOUS
 10
21.4790138229
 20
0.9779712941
 11
21.069121683
 21
1.0617614
  0
LINE
  5
22B
100
AcDbEntity
  8
0
100
AcDbLine
 62
7
  6
CONTINUOUS
 10
21.0702539817
 20
1.2701043662
 11
21.069121683
 21
1.0617614
  0
LINE
  5
22C
100
AcDbEntity
  8
0
100
AcDbLine
 62
7
  6
CONTINUOUS
 10
21.4790138229
 20
1.1693297793
 11
21.3159628059
 21
1.1693297793
  0
LINE
  5
22D
100
AcDbEntity
  8
0
100
AcDbLine
 62
7
  6
CONTINUOUS
 10
21.2876553377
 20
1.1693297793
 11
21.2502894796
 21
1.1693297793
  0
LINE
  5
22E
100
AcDbEntity
  8
0
100
AcDbLine
 62
7
  6
CONTINUOUS
 10
21.2208497126
 20
1.1659328831
 11
21.0713862804
 21
1.1659328831
  0
LINE
  5
22F
100
AcDbEntity
  8
0
100
AcDbLine
 62
7
  6
CONTINUOUS
 10
20.4796138713
 20
1.5284908897
 11
20.4766766948
 21
0.9294458646
  0
ENDBLK
  5
230
100
AcDbEntity
  8
0
  6
BYBLOCK
 62
0
100
AcDbBlockEnd
  0
BLOCK
  5
231
100
AcDbEntity
  8
0
100
AcDbBlockBegin
  2
*T1
 70
1
 10
0.0
 20
0.0
  3
*T1
  1

  0
LINE
  5
232
100
AcDbEntity
  8
0
100
AcDbLine
 62
2
  6
CONTINUOUS
 10
9.275
 20
0.0
 11
-0.0
 21
0.0
  0
LINE
  5
233
100
AcDbEntity
  8
0
100
AcDbLine
 62
2
  6
CONTINUOUS
 10
9.275
 20
0.0
 11
9.275
 21
1.25
  0
LINE
  5
234
100
AcDbEntity
  8
0
100
AcDbLine
 62
2
  6
CONTINUOUS
 10
9.275
 20
0.625
 11
-0.0
 21
0.625
  0
LINE
  5
235
100
AcDbEntity
  8
0
100
AcDbLine
 62
2
  6
CONTINUOUS
 10
9.275
 20
1.25
 11
-0.0
 21
1.25
  0
LINE
  5
236
100
AcDbEntity
  8
0
100
AcDbLine
 62
2
  6
CONTINUOUS
 10
6.8
 20
0.0
 11
6.8
 21
1.25
  0
LINE
  5
237
100
AcDbEntity
  8
0
100
AcDbLine
 62
2
  6
CONTINUOUS
 10
6.4
 20
0.0
 11
6.4
 21
0.625
  0
LINE
  5
238
100
AcDbEntity
  8
0
100
AcDbLine
 62
2
  6
CONTINUOUS
 10
5.9
 20
0.0
 11
5.9
 21
0.625
  0
LINE
  5
239
100
AcDbEntity
  8
0
100
AcDbLine
 62
2
  6
CONTINUOUS
 10
5.2
 20
0.0
 11
5.2
 21
0.625
  0
LINE
  5
23A
100
AcDbEntity
  8
0
100
AcDbLine
 62
2
  6
CONTINUOUS
 10
4.1
 20
0.0
 11
4.1
 21
1.25
  0
LINE
  5
23B
100
AcDbEntity
  8
0
100
AcDbLine
 62
2
  6
CONTINUOUS
 10
-0.0
 20
0.0
 11
-0.0
 21
1.25
  0
MTEXT
  5
23C
100
AcDbEntity
  8
0
100
AcDbMText
 62
2
  6
CONTINUOUS
  7
STANDARD
 71
2
 72
1
 10
6.6
 20
0.325
 30
0.0
 11
1.0
 21
0.0
 31
0.0
 44
0.9
  1
2
 40
0.125
 41
0.2
  0
MTEXT
  5
23D
100
AcDbEntity
  8
0
100
AcDbMText
 62
2
  6
CONTINUOUS
  7
STANDARD
 71
2
 72
1
 10
6.15
 20
0.325
 30
0.0
 11
1.0
 21
0.0
 31
0.0
 44
0.9
  1
C
 40
0.125
 41
0.2
  0
MTEXT
  5
23E
100
AcDbEntity
  8
0
100
AcDbMText
 62
2
  6
CONTINUOUS
  7
STANDARD
 71
2
 72
1
 10
5.55
 20
0.325
 30
0.0
 11
1.0
 21
0.0
 31
0.0
 44
0.9
  1
2.000
 40
0.125
 41
1.0
  0
MTEXT
  5
23F
100
AcDbEntity
  8
0
100
AcDbMText
 62
2
  6
CONTINUOUS
  7
STANDARD
 71
2
 72
1
 10
4.65
 20
0.325
 30
0.0
 11
1.0
 21
0.0
 31
0.0
 44
0.9
  1
Dec-03-19
 40
0.125
 41
1.8
  0
MTEXT
  5
240
100
AcDbEntity
  8
0
100
AcDbMText
 62
2
  6
CONTINUOUS
  7
STANDARD
 71
2
 72
1
 10
2.05
 20
0.4625
 30
0.0
 11
1.0
 21
0.0
 31
0.0
 44
0.9
  1
T-162A Sandwich ISO 03\PA and B to T
 40
0.125
 41
4.4
  0
MTEXT
  5
241
100
AcDbEntity
  8
0
100
AcDbMText
 62
2
  6
CONTINUOUS
  7
STANDARD
 71
1
 72
1
 10
6.45
 20
0.5625
 30
0.0
 11
1.0
 21
0.0
 31
0.0
 44
0.9
  1
SHEET
 40
0.06
 41
0.48
  0
MTEXT
  5
242
100
AcDbEntity
  8
0
100
AcDbMText
 62
2
  6
CONTINUOUS
  7
STANDARD
 71
1
 72
1
 10
5.95
 20
0.5625
 30
0.0
 11
1.0
 21
0.0
 31
0.0
 44
0.9
  1
DWG SIZE
 40
0.06
 41
0.768
  0
MTEXT
  5
243
100
AcDbEntity
  8
0
100
AcDbMText
 62
2
  6
CONTINUOUS
  7
STANDARD
 71
1
 72
1
 10
5.25
 20
0.5625
 30
0.0
 11
1.0
 21
0.0
 31
0.0
 44
0.9
  1
SCALE
 40
0.06
 41
0.48
  0
MTEXT
  5
244
100
AcDbEntity
  8
0
100
AcDbMText
 62
2
  6
CONTINUOUS
  7
STANDARD
 71
1
 72
1
 10
4.15
 20
0.5625
 30
0.0
 11
1.0
 21
0.0
 31
0.0
 44
0.9
  1
DATE
 40
0.06
 41
0.384
  0
MTEXT
  5
245
100
AcDbEntity
  8
0
100
AcDbMText
 62
2
  6
CONTINUOUS
  7
STANDARD
 71
1
 72
1
 10
0.05
 20
0.5625
 30
0.0
 11
1.0
 21
0.0
 31
0.0
 44
0.9
  1
DESCRIPTION
 40
0.06
 41
1.056
  0
MTEXT
  5
246
100
AcDbEntity
  8
0
100
AcDbMText
 62
2
  6
CONTINUOUS
  7
STANDARD
 71
2
 72
1
 10
5.45
 20
1.0375
 30
0.0
 11
1.0
 21
0.0
 31
0.0
 44
0.9
  1
ALL DIMENSIONS IN INCH\PVIEWS ARE THIRD ANGLE
 40
0.12
 41
4.224
  0
MTEXT
  5
247
100
AcDbEntity
  8
0
100
AcDbMText
 62
2
  6
CONTINUOUS
  7
STANDARD
 71
2
 72
1
 10
2.05
 20
0.95
 30
0.0
 11
1.0
 21
0.0
 31
0.0
 44
0.9
  1
FJ6
 40
0.125
 41
0.6
  0
MTEXT
  5
248
100
AcDbEntity
  8
0
100
AcDbMText
 62
2
  6
CONTINUOUS
  7
STANDARD
 71
1
 72
1
 10
0.05
 20
1.1875
 30
0.0
 11
1.0
 21
0.0
 31
0.0
 44
0.9
  1
MODEL
 40
0.06
 41
0.48
  0
ENDBLK
  5
249
100
AcDbEntity
  8
0
  6
BYBLOCK
 62
0
100
AcDbBlockEnd
  0
BLOCK
  5
24A
100
AcDbEntity
  8
0
100
AcDbBlockBegin
  2
*T2
 70
1
 10
0.0
 20
0.0
  3
*T2
  1

  0
LINE
  5
24B
100
AcDbEntity
  8
0
100
AcDbLine
 62
2
  6
CONTINUOUS
 10
0.0
 20
0.0
 11
9.055
 21
0.0
  0
LINE
  5
24C
100
AcDbEntity
  8
0
100
AcDbLine
 62
2
  6
CONTINUOUS
 10
0.0
 20
0.0
 11
0.0
 21
-2.844
  0
LINE
  5
24D
100
AcDbEntity
  8
0
100
AcDbLine
 62
2
  6
CONTINUOUS
 10
0.0
 20
-0.344
 11
9.055
 21
-0.344
  0
LINE
  5
24E
100
AcDbEntity
  8
0
100
AcDbLine
 62
2
  6
CONTINUOUS
 10
0.0
 20
-0.594
 11
9.055
 21
-0.594
  0
LINE
  5
24F
100
AcDbEntity
  8
0
100
AcDbLine
 62
2
  6
CONTINUOUS
 10
0.0
 20
-0.844
 11
9.055
 21
-0.844
  0
LINE
  5
250
100
AcDbEntity
  8
0
100
AcDbLine
 62
2
  6
CONTINUOUS
 10
0.0
 20
-1.094
 11
9.055
 21
-1.094
  0
LINE
  5
251
100
AcDbEntity
  8
0
100
AcDbLine
 62
2
  6
CONTINUOUS
 10
0.0
 20
-1.344
 11
9.055
 21
-1.344
  0
LINE
  5
252
100
AcDbEntity
  8
0
100
AcDbLine
 62
2
  6
CONTINUOUS
 10
0.0
 20
-1.594
 11
9.055
 21
-1.594
  0
LINE
  5
253
100
AcDbEntity
  8
0
100
AcDbLine
 62
2
  6
CONTINUOUS
 10
0.0
 20
-1.844
 11
9.055
 21
-1.844
  0
LINE
  5
254
100
AcDbEntity
  8
0
100
AcDbLine
 62
2
  6
CONTINUOUS
 10
0.0
 20
-2.094
 11
9.055
 21
-2.094
  0
LINE
  5
255
100
AcDbEntity
  8
0
100
AcDbLine
 62
2
  6
CONTINUOUS
 10
0.0
 20
-2.344
 11
9.055
 21
-2.344
  0
LINE
  5
256
100
AcDbEntity
  8
0
100
AcDbLine
 62
2
  6
CONTINUOUS
 10
0.0
 20
-2.594
 11
9.055
 21
-2.594
  0
LINE
  5
257
100
AcDbEntity
  8
0
100
AcDbLine
 62
2
  6
CONTINUOUS
 10
0.0
 20
-2.844
 11
9.055
 21
-2.844
  0
LINE
  5
258
100
AcDbEntity
  8
0
100
AcDbLine
 62
2
  6
CONTINUOUS
 10
3.055
 20
0.0
 11
3.055
 21
-2.844
  0
LINE
  5
259
100
AcDbEntity
  8
0
100
AcDbLine
 62
2
  6
CONTINUOUS
 10
9.055
 20
0.0
 11
9.055
 21
-2.844
  0
MTEXT
  5
25A
100
AcDbEntity
  8
0
100
AcDbMText
 62
2
  6
CONTINUOUS
  7
STANDARD
 71
2
 72
1
 10
1.5275
 20
-0.0995
 30
0.0
 11
1.0
 21
0.0
 31
0.0
 44
0.9
  1
Technical Data
 40
0.145
 41
3.248
  0
MTEXT
  5
25B
100
AcDbEntity
  8
0
100
AcDbMText
 62
2
  6
CONTINUOUS
  7
STANDARD
 71
2
 72
1
 10
4.555
 20
-0.0995
 30
0.0
 11
1.0
 21
0.0
 31
0.0
 44
0.9
  1
U.S. Units
 40
0.145
 41
2.32
  0
MTEXT
  5
25C
100
AcDbEntity
  8
0
100
AcDbMText
 62
2
  6
CONTINUOUS
  7
STANDARD
 71
2
 72
1
 10
7.555
 20
-0.0995
 30
0.0
 11
1.0
 21
0.0
 31
0.0
 44
0.9
  1
Metric Units
 40
0.145
 41
2.784
  0
MTEXT
  5
25D
100
AcDbEntity
  8
0
100
AcDbMText
 62
2
  6
CONTINUOUS
  7
STANDARD
 71
2
 72
1
 10
1.5275
 20
-0.4065
 30
0.0
 11
1.0
 21
0.0
 31
0.0
 44
0.9
  1
Cavity
 40
0.125
 41
1.2
  0
MTEXT
  5
25E
100
AcDbEntity
  8
0
100
AcDbMText
 62
2
  6
CONTINUOUS
  7
STANDARD
 71
2
 72
1
 10
6.055
 20
-0.4065
 30
0.0
 11
1.0
 21
0.0
 31
0.0
 44
0.9
  1
T-162A
 40
0.125
 41
1.2
  0
MTEXT
  5
25F
100
AcDbEntity
  8
0
100
AcDbMText
 62
2
  6
CONTINUOUS
  7
STANDARD
 71
2
 72
1
 10
1.5275
 20
-0.6565
 30
0.0
 11
1.0
 21
0.0
 31
0.0
 44
0.9
  1
Body Features
 40
0.125
 41
2.6
  0
MTEXT
  5
260
100
AcDbEntity
  8
0
100
AcDbMText
 62
2
  6
CONTINUOUS
  7
STANDARD
 71
2
 72
1
 10
6.055
 20
-0.6565
 30
0.0
 11
1.0
 21
0.0
 31
0.0
 44
0.9
  1
A and B to T
 40
0.125
 41
2.4
  0
MTEXT
  5
261
100
AcDbEntity
  8
0
100
AcDbMText
 62
2
  6
CONTINUOUS
  7
STANDARD
 71
2
 72
1
 10
1.5275
 20
-0.9065
 30
0.0
 11
1.0
 21
0.0
 31
0.0
 44
0.9
  1
Body Type
 40
0.125
 41
1.8
  0
MTEXT
  5
262
100
AcDbEntity
  8
0
100
AcDbMText
 62
2
  6
CONTINUOUS
  7
STANDARD
 71
2
 72
1
 10
6.055
 20
-0.9065
 30
0.0
 11
1.0
 21
0.0
 31
0.0
 44
0.9
  1
Sandwich
 40
0.125
 41
1.6
  0
MTEXT
  5
263
100
AcDbEntity
  8
0
100
AcDbMText
 62
2
  6
CONTINUOUS
  7
STANDARD
 71
2
 72
1
 10
1.5275
 20
-1.1565
 30
0.0
 11
1.0
 21
0.0
 31
0.0
 44
0.9
  1
Interface
 40
0.125
 41
1.8
  0
MTEXT
  5
264
100
AcDbEntity
  8
0
100
AcDbMText
 62
2
  6
CONTINUOUS
  7
STANDARD
 71
2
 72
1
 10
6.055
 20
-1.1565
 30
0.0
 11
1.0
 21
0.0
 31
0.0
 44
0.9
  1
ISO 03
 40
0.125
 41
1.2
  0
MTEXT
  5
265
100
AcDbEntity
  8
0
100
AcDbMText
 62
2
  6
CONTINUOUS
  7
STANDARD
 71
2
 72
1
 10
1.5275
 20
-1.4065
 30
0.0
 11
1.0
 21
0.0
 31
0.0
 44
0.9
  1
Open Cavity Quantity
 40
0.125
 41
4.0
  0
MTEXT
  5
266
100
AcDbEntity
  8
0
100
AcDbMText
 62
2
  6
CONTINUOUS
  7
STANDARD
 71
2
 72
1
 10
6.055
 20
-1.4065
 30
0.0
 11
1.0
 21
0.0
 31
0.0
 44
0.9
  1
2
 40
0.125
 41
0.2
  0
MTEXT
  5
267
100
AcDbEntity
  8
0
100
AcDbMText
 62
2
  6
CONTINUOUS
  7
STANDARD
 71
2
 72
1
 10
1.5275
 20
-1.6565
 30
0.0
 11
1.0
 21
0.0
 31
0.0
 44
0.9
  1
Stack Height
 40
0.125
 41
2.4
  0
MTEXT
  5
268
100
AcDbEntity
  8
0
100
AcDbMText
 62
2
  6
CONTINUOUS
  7
STANDARD
 71
2
 72
1
 10
4.555
 20
-1.6565
 30
0.0
 11
1.0
 21
0.0
 31
0.0
 44
0.9
  1
1.77 in.
 40
0.125
 41
1.6
  0
MTEXT
  5
269
100
AcDbEntity
  8
0
100
AcDbMText
 62
2
  6
CONTINUOUS
  7
STANDARD
 71
2
 72
1
 10
7.555
 20
-1.6565
 30
0.0
 11
1.0
 21
0.0
 31
0.0
 44
0.9
  1
45 mm
 40
0.125
 41
1.0
  0
MTEXT
  5
26A
100
AcDbEntity
  8
0
100
AcDbMText
 62
2
  6
CONTINUOUS
  7
STANDARD
 71
2
 72
1
 10
1.5275
 20
-1.9065
 30
0.0
 11
1.0
 21
0.0
 31
0.0
 44
0.9
  1
Weight
 40
0.125
 41
1.2
  0
MTEXT
  5
26B
100
AcDbEntity
  8
0
100
AcDbMText
 62
2
  6
CONTINUOUS
  7
STANDARD
 71
2
 72
1
 10
4.555
 20
-1.9065
 30
0.0
 11
1.0
 21
0.0
 31
0.0
 44
0.9
  1
0.748 lb.
 40
0.125
 41
1.8
  0
MTEXT
  5
26C
100
AcDbEntity
  8
0
100
AcDbMText
 62
2
  6
CONTINUOUS
  7
STANDARD
 71
2
 72
1
 10
7.555
 20
-1.9065
 30
0.0
 11
1.0
 21
0.0
 31
0.0
 44
0.9
  1
0,339 kg.
 40
0.125
 41
1.8
  0
MTEXT
  5
26D
100
AcDbEntity
  8
0
100
AcDbMText
 62
2
  6
CONTINUOUS
  7
STANDARD
 71
2
 72
1
 10
1.5275
 20
-2.1565
 30
0.0
 11
1.0
 21
0.0
 31
0.0
 44
0.9
  1
Maximum Operating Pressure - 6061-T651 Aluminum
 40
0.125
 41
9.4
  0
MTEXT
  5
26E
100
AcDbEntity
  8
0
100
AcDbMText
 62
2
  6
CONTINUOUS
  7
STANDARD
 71
2
 72
1
 10
4.555
 20
-2.1565
 30
0.0
 11
1.0
 21
0.0
 31
0.0
 44
0.9
  1
3000 psi
 40
0.125
 41
1.6
  0
MTEXT
  5
26F
100
AcDbEntity
  8
0
100
AcDbMText
 62
2
  6
CONTINUOUS
  7
STANDARD
 71
2
 72
1
 10
7.555
 20
-2.1565
 30
0.0
 11
1.0
 21
0.0
 31
0.0
 44
0.9
  1
210 bar
 40
0.125
 41
1.4
  0
MTEXT
  5
270
100
AcDbEntity
  8
0
100
AcDbMText
 62
2
  6
CONTINUOUS
  7
STANDARD
 71
2
 72
1
 10
1.5275
 20
-2.4065
 30
0.0
 11
1.0
 21
0.0
 31
0.0
 44
0.9
  1
Maximum Operating Pressure - 65-45-12 Ductile Iron
 40
0.125
 41
10.0
  0
MTEXT
  5
271
100
AcDbEntity
  8
0
100
AcDbMText
 62
2
  6
CONTINUOUS
  7
STANDARD
 71
2
 72
1
 10
4.555
 20
-2.4065
 30
0.0
 11
1.0
 21
0.0
 31
0.0
 44
0.9
  1
5000 psi
 40
0.125
 41
1.6
  0
MTEXT
  5
272
100
AcDbEntity
  8
0
100
AcDbMText
 62
2
  6
CONTINUOUS
  7
STANDARD
 71
2
 72
1
 10
7.555
 20
-2.4065
 30
0.0
 11
1.0
 21
0.0
 31
0.0
 44
0.9
  1
350 bar
 40
0.125
 41
1.4
  0
MTEXT
  5
273
100
AcDbEntity
  8
0
100
AcDbMText
 62
2
  6
CONTINUOUS
  7
STANDARD
 71
2
 72
1
 10
1.5275
 20
-2.6565
 30
0.0
 11
1.0
 21
0.0
 31
0.0
 44
0.9
  1
Seal Plate Included (see notes)
 40
0.125
 41
6.2
  0
MTEXT
  5
274
100
AcDbEntity
  8
0
100
AcDbMText
 62
2
  6
CONTINUOUS
  7
STANDARD
 71
2
 72
1
 10
6.055
 20
-2.6565
 30
0.0
 11
1.0
 21
0.0
 31
0.0
 44
0.9
  1
No
 40
0.125
 41
0.4
  0
ENDBLK
  5
275
100
AcDbEntity
  8
0
  6
BYBLOCK
 62
0
100
AcDbBlockEnd
  0
ENDSEC
  0
SECTION
  2
ENTITIES
  0
IMAGE
  5
276
100
AcDbEntity
  8
0
100
AcDbRasterImage
 62
7
  6
CONTINUOUS
 10
19.2297077316
 20
0.3094318264
 30
0.0
 11
0.0066666667
 21
0.0
 31
0.0
 12
0.0
 22
0.0066666667
 32
0.0
 13
369.0
 23
92.0
340
       32F
 70
9
280
0
281
50
282
50
283
0
360
       329
 71
1
 91
2
 14
-0.5
 24
-0.5
 14
368.5
 24
91.5
  0
INSERT
  5
277
100
AcDbEntity
  8
0
100
AcDbBlockReference
 62
2
  6
CONTINUOUS
  2
SUN_FIRST_THIRD_ANGLE_BL0
 10
20.4816717061
 20
1.2289683772
  0
ACAD_TABLE
  5
278
100
AcDbEntity
  8
0
 62
2
  6
CONTINUOUS
100
AcDbBlockReference
  2
*T1
 10
12.42375
 20
0.30125
 30
0.0
100
AcDbTable
342
       331
343
20B
 11
1.0
 21
0.0
 31
0.0
 90
6
 91
4
 92
6
 93
20
 94
0
 95
0
 96
0
 70
1
 41
0.0
141
0.525
141
0.1
141
0.525
141
0.1
142
4.1
142
1.1
142
0.7
142
0.5
142
0.4
142
2.475
171
1
172
0
173
0
174
0
175
1
176
1
 91
33
178
0
145
0.0
301
CELL_VALUE
 90
4
  1
T-162A Sandwich ISO 03\PA and B to T
304
ACVALUE_END
170
2
140
0.125
171
1
172
0
173
0
174
0
175
1
176
1
 91
33
178
0
145
0.0
301
CELL_VALUE
 90
4
  1
Dec-03-19
304
ACVALUE_END
170
5
140
0.125
171
1
172
0
173
0
174
0
175
1
176
1
 91
33
178
0
145
0.0
301
CELL_VALUE
 90
4
  1
2.000
304
ACVALUE_END
170
5
140
0.125
171
1
172
0
173
0
174
0
175
1
176
1
 91
33
178
0
145
0.0
301
CELL_VALUE
 90
4
  1
C
304
ACVALUE_END
170
5
140
0.125
171
1
172
0
173
0
174
0
175
1
176
1
 91
33
178
0
145
0.0
301
CELL_VALUE
 90
4
  1
2
304
ACVALUE_END
170
5
140
0.125
171
1
172
0
173
0
174
0
175
1
176
1
 91
33
178
0
145
0.0
301
CELL_VALUE
 90
4
  1
 
304
ACVALUE_END
170
1
140
0.125
171
1
172
0
173
0
174
0
175
1
176
1
 91
33
178
0
145
0.0
301
CELL_VALUE
 90
4
  1
DESCRIPTION
304
ACVALUE_END
170
1
140
0.06
171
1
172
0
173
0
174
0
175
1
176
1
 91
33
178
0
145
0.0
301
CELL_VALUE
 90
4
  1
DATE
304
ACVALUE_END
170
1
140
0.06
171
1
172
0
173
0
174
0
175
1
176
1
 91
33
178
0
145
0.0
301
CELL_VALUE
 90
4
  1
SCALE
304
ACVALUE_END
170
1
140
0.06
171
1
172
0
173
0
174
0
175
1
176
1
 91
33
178
0
145
0.0
301
CELL_VALUE
 90
4
  1
DWG SIZE
304
ACVALUE_END
170
1
140
0.06
171
1
172
0
173
0
174
0
175
1
176
1
 91
33
178
0
145
0.0
301
CELL_VALUE
 90
4
  1
SHEET
304
ACVALUE_END
170
1
140
0.06
171
1
172
0
173
0
174
0
175
1
176
1
 91
33
178
0
145
0.0
301
CELL_VALUE
 90
4
  1
 
304
ACVALUE_END
170
1
140
0.125
171
1
172
0
173
0
174
0
175
1
176
1
 91
33
178
0
145
0.0
301
CELL_VALUE
 90
4
  1
FJ6
304
ACVALUE_END
170
5
140
0.125
171
1
172
0
173
0
174
0
175
4
176
1
 91
33
178
0
145
0.0
301
CELL_VALUE
 90
4
  1
ALL DIMENSIONS IN INCH\PVIEWS ARE THIRD ANGLE
304
ACVALUE_END
170
5
140
0.12
171
1
172
0
173
1
174
0
175
1
176
1
 91
1
178
0
145
0.0
170
1
171
1
172
0
173
1
174
0
175
1
176
1
 91
1
178
0
145
0.0
170
1
171
1
172
0
173
1
174
0
175
1
176
1
 91
1
178
0
145
0.0
170
5
171
1
172
0
173
0
174
0
175
1
176
1
 91
33
178
0
145
0.0
301
CELL_VALUE
 90
4
  1
 
304
ACVALUE_END
170
1
140
0.125
171
1
172
0
173
0
174
0
175
1
176
1
 91
33
178
0
145
0.0
301
CELL_VALUE
 90
4
  1
MODEL
304
ACVALUE_END
170
1
140
0.06
171
1
172
0
173
0
174
0
175
1
176
1
 91
33
178
0
145
0.0
301
CELL_VALUE
 90
4
  1
 
304
ACVALUE_END
170
1
140
0.125
171
1
172
0
173
0
174
0
175
1
176
1
 91
33
178
0
145
0.0
301
CELL_VALUE
 90
4
  1
 
304
ACVALUE_END
170
1
140
0.125
171
1
172
0
173
0
174
0
175
1
176
1
 91
33
178
0
145
0.0
301
CELL_VALUE
 90
4
  1
 
304
ACVALUE_END
170
1
140
0.125
171
1
172
0
173
0
174
0
175
1
176
1
 91
33
178
0
145
0.0
301
CELL_VALUE
 90
4
  1
 
304
ACVALUE_END
170
1
140
0.125
171
1
172
0
173
0
174
0
175
1
176
1
 91
33
178
0
145
0.0
301
CELL_VALUE
 90
4
  1
 
304
ACVALUE_END
170
1
140
0.125
  0
ACAD_TABLE
  5
279
100
AcDbEntity
  8
0
 62
2
  6
CONTINUOUS
100
AcDbBlockReference
  2
*T2
 10
12.4237499994
 20
16.47875
 30
0.0
100
AcDbTable
342
       330
343
20C
 11
1.0
 21
0.0
 31
0.0
 90
22
 91
11
 92
3
 93
16
 94
0
 95
0
 96
0
 41
0.028
141
0.344
141
0.25
141
0.25
141
0.25
141
0.25
141
0.25
141
0.25
141
0.25
141
0.25
141
0.25
141
0.25
142
3.055
142
3.0
142
3.0
171
1
172
0
173
0
174
0
175
1
176
1
 91
33
178
0
145
0.0
301
CELL_VALUE
 90
4
  1
Technical Data
304
ACVALUE_END
170
5
140
0.145
171
1
172
0
173
0
174
0
175
1
176
1
 91
33
178
0
145
0.0
301
CELL_VALUE
 90
4
  1
U.S. Units
304
ACVALUE_END
170
5
140
0.145
171
1
172
0
173
0
174
0
175
1
176
1
 91
33
178
0
145
0.0
301
CELL_VALUE
 90
4
  1
Metric Units
304
ACVALUE_END
170
5
140
0.145
171
1
172
0
173
0
174
0
175
1
176
1
 91
33
178
0
145
0.0
301
CELL_VALUE
 90
4
  1
Cavity
304
ACVALUE_END
170
5
140
0.125
171
1
172
0
173
0
174
0
175
2
176
1
 91
33
178
0
145
0.0
301
CELL_VALUE
 90
4
  1
T-162A
304
ACVALUE_END
170
5
140
0.125
171
1
172
0
173
1
174
0
175
1
176
1
 91
1
178
0
145
0.0
170
1
171
1
172
0
173
0
174
0
175
1
176
1
 91
33
178
0
145
0.0
301
CELL_VALUE
 90
4
  1
Body Features
304
ACVALUE_END
170
5
140
0.125
171
1
172
0
173
0
174
0
175
2
176
1
 91
33
178
0
145
0.0
301
CELL_VALUE
 90
4
  1
A and B to T
304
ACVALUE_END
170
5
140
0.125
171
1
172
0
173
1
174
0
175
1
176
1
 91
1
178
0
145
0.0
170
1
171
1
172
0
173
0
174
0
175
1
176
1
 91
33
178
0
145
0.0
301
CELL_VALUE
 90
4
  1
Body Type
304
ACVALUE_END
170
5
140
0.125
171
1
172
0
173
0
174
0
175
2
176
1
 91
33
178
0
145
0.0
301
CELL_VALUE
 90
4
  1
Sandwich
304
ACVALUE_END
170
5
140
0.125
171
1
172
0
173
1
174
0
175
1
176
1
 91
1
178
0
145
0.0
170
1
171
1
172
0
173
0
174
0
175
1
176
1
 91
33
178
0
145
0.0
301
CELL_VALUE
 90
4
  1
Interface
304
ACVALUE_END
170
5
140
0.125
171
1
172
0
173
0
174
0
175
2
176
1
 91
33
178
0
145
0.0
301
CELL_VALUE
 90
4
  1
ISO 03
304
ACVALUE_END
170
5
140
0.125
171
1
172
0
173
1
174
0
175
1
176
1
 91
1
178
0
145
0.0
170
1
171
1
172
0
173
0
174
0
175
1
176
1
 91
33
178
0
145
0.0
301
CELL_VALUE
 90
4
  1
Open Cavity Quantity
304
ACVALUE_END
170
5
140
0.125
171
1
172
0
173
0
174
0
175
2
176
1
 91
33
178
0
145
0.0
301
CELL_VALUE
 90
4
  1
2
304
ACVALUE_END
170
5
140
0.125
171
1
172
0
173
1
174
0
175
1
176
1
 91
1
178
0
145
0.0
170
1
171
1
172
0
173
0
174
0
175
1
176
1
 91
33
178
0
145
0.0
301
CELL_VALUE
 90
4
  1
Stack Height
304
ACVALUE_END
170
5
140
0.125
171
1
172
0
173
0
174
0
175
1
176
1
 91
33
178
0
145
0.0
301
CELL_VALUE
 90
4
  1
1.77 in.
304
ACVALUE_END
170
5
140
0.125
171
1
172
0
173
0
174
0
175
1
176
1
 91
33
178
0
145
0.0
301
CELL_VALUE
 90
4
  1
45 mm
304
ACVALUE_END
170
5
140
0.125
171
1
172
0
173
0
174
0
175
1
176
1
 91
33
178
0
145
0.0
301
CELL_VALUE
 90
4
  1
Weight
304
ACVALUE_END
170
5
140
0.125
171
1
172
0
173
0
174
0
175
1
176
1
 91
33
178
0
145
0.0
301
CELL_VALUE
 90
4
  1
0.748 lb.
304
ACVALUE_END
170
5
140
0.125
171
1
172
0
173
0
174
0
175
1
176
1
 91
33
178
0
145
0.0
301
CELL_VALUE
 90
4
  1
0,339 kg.
304
ACVALUE_END
170
5
140
0.125
171
1
172
0
173
0
174
0
175
1
176
1
 91
33
178
0
145
0.0
301
CELL_VALUE
 90
4
  1
Maximum Operating Pressure - 6061-T651 Aluminum
304
ACVALUE_END
170
5
140
0.125
171
1
172
0
173
0
174
0
175
1
176
1
 91
33
178
0
145
0.0
301
CELL_VALUE
 90
4
  1
3000 psi
304
ACVALUE_END
170
5
140
0.125
171
1
172
0
173
0
174
0
175
1
176
1
 91
33
178
0
145
0.0
301
CELL_VALUE
 90
4
  1
210 bar
304
ACVALUE_END
170
5
140
0.125
171
1
172
0
173
0
174
0
175
1
176
1
 91
33
178
0
145
0.0
301
CELL_VALUE
 90
4
  1
Maximum Operating Pressure - 65-45-12 Ductile Iron
304
ACVALUE_END
170
5
140
0.125
171
1
172
0
173
0
174
0
175
1
176
1
 91
33
178
0
145
0.0
301
CELL_VALUE
 90
4
  1
5000 psi
304
ACVALUE_END
170
5
140
0.125
171
1
172
0
173
0
174
0
175
1
176
1
 91
33
178
0
145
0.0
301
CELL_VALUE
 90
4
  1
350 bar
304
ACVALUE_END
170
5
140
0.125
171
1
172
0
173
0
174
0
175
1
176
1
 91
33
178
0
145
0.0
301
CELL_VALUE
 90
4
  1
Seal Plate Included (see notes)
304
ACVALUE_END
170
5
140
0.125
171
1
172
0
173
0
174
0
175
2
176
1
 91
33
178
0
145
0.0
301
CELL_VALUE
 90
4
  1
No
304
ACVALUE_END
170
5
140
0.125
171
1
172
0
173
1
174
0
175
1
176
1
 91
1
178
0
145
0.0
170
1
  0
MTEXT
  5
27A
100
AcDbEntity
  8
0
100
AcDbMText
 62
2
  6
CONTINUOUS
  7
STANDARD
 71
1
 72
1
 10
0.52125
 20
5.75995
 30
0.0
 11
1.0
 21
0.0
 31
0.0
 44
0.6
  3
Notes\P \P1. Important: Carefully consider\P   the maximum system pressure. The\P   pressure rating of the manifold is\P   dependent on the manifold material,\P   with the port type/size a secondary\P   consideration. Manifolds\P   constructed of alu
  1
minum are not\P   rated for pressures higher than\P   3000 psi (210 bar), regardless of\P   the port type/size specified.\P2. Seal retainer plate is not\P   required for this model.
 40
0.1
 41
3.04
  0
LINE
  5
27B
100
AcDbEntity
  8
0
100
AcDbLine
 62
7
  6
CONTINUOUS
 10
0.30125
 20
0.30125
 11
0.30125
 21
16.69875
  0
LINE
  5
27C
100
AcDbEntity
  8
0
100
AcDbLine
 62
7
  6
CONTINUOUS
 10
0.30125
 20
0.30125
 11
21.69875
 21
0.30125
  0
LINE
  5
27D
100
AcDbEntity
  8
0
100
AcDbLine
 62
7
  6
CONTINUOUS
 10
0.30125
 20
16.69875
 11
21.69875
 21
16.69875
  0
LINE
  5
27E
100
AcDbEntity
  8
0
100
AcDbLine
 62
7
  6
CONTINUOUS
 10
21.69875
 20
0.30125
 11
21.69875
 21
16.69875
  0
LINE
  5
27F
100
AcDbEntity
  8
0
100
AcDbLine
 62
7
  6
CONTINUOUS
 10
7.8460912729
 20
6.8809945929
 11
7.7943403213
 21
6.9446250925
  0
LINE
  5
280
100
AcDbEntity
  8
0
100
AcDbLine
 62
7
  6
CONTINUOUS
 10
7.7065613487
 20
9.1230016212
 11
7.7065613487
 21
7.4326313251
  0
LINE
  5
281
100
AcDbEntity
  8
0
100
AcDbLine
 62
7
  6
CONTINUOUS
 10
7.7504019859
 20
9.1033484275
 11
7.7504019859
 21
7.4129781313
  0
LINE
  5
282
100
AcDbEntity
  8
0
100
AcDbLine
 62
7
  6
CONTINUOUS
 10
8.3970899911
 20
10.4545581181
 11
7.8846287047
 21
9.9595584973
  0
LINE
  5
283
100
AcDbEntity
  8
0
100
AcDbLine
 62
7
  6
CONTINUOUS
 10
8.4569773959
 20
10.5102923173
 11
7.9445161095
 21
10.0152926965
  0
LINE
  5
284
100
AcDbEntity
  8
0
100
AcDbLine
 62
7
  6
CONTINUOUS
 10
8.458809802
 20
10.5120300073
 11
8.4569773959
 21
10.5102923173
  0
LINE
  5
285
100
AcDbEntity
  8
0
100
AcDbLine
 62
7
  6
CONTINUOUS
 10
8.3987723763
 20
10.456153317
 11
8.3970899911
 21
10.4545581181
  0
LINE
  5
286
100
AcDbEntity
  8
0
100
AcDbLine
 62
7
  6
CONTINUOUS
 10
8.3970899911
 20
10.4545581181
 11
8.4569612974
 21
10.5103096145
  0
LINE
  5
287
100
AcDbEntity
  8
0
100
AcDbLine
 62
7
  6
CONTINUOUS
 10
7.8846287047
 20
9.9595584973
 11
7.9445161095
 21
10.0152926965
  0
LINE
  5
288
100
AcDbEntity
  8
0
100
AcDbLine
 62
7
  6
CONTINUOUS
 10
9.1693825517
 20
10.7921295844
 11
8.252128636
 21
9.9061302855
  0
LINE
  5
289
100
AcDbEntity
  8
0
100
AcDbLine
 62
7
  6
CONTINUOUS
 10
8.252128636
 20
6.5253896932
 11
8.252128636
 21
9.9061302855
  0
LINE
  5
28A
100
AcDbEntity
  8
0
100
AcDbLine
 62
7
  6
CONTINUOUS
 10
8.252128636
 20
6.5253896932
 11
12.8306174483
 21
6.2078704156
  0
LINE
  5
28B
100
AcDbEntity
  8
0
100
AcDbLine
 62
7
  6
CONTINUOUS
 10
7.7065613487
 20
7.4326313251
 11
7.7504019859
 21
7.4129781313
  0
LINE
  5
28C
100
AcDbEntity
  8
0
100
AcDbLine
 62
7
  6
CONTINUOUS
 10
8.252128636
 20
6.8273436041
 11
7.8926280598
 21
6.8522750538
  0
LINE
  5
28D
100
AcDbEntity
  8
0
100
AcDbLine
 62
7
  6
CONTINUOUS
 10
12.9811257132
 20
6.5013183947
 11
13.4911345544
 21
6.4659491614
  0
LINE
  5
28E
100
AcDbEntity
  8
0
100
AcDbLine
 62
7
  6
CONTINUOUS
 10
13.4248426528
 20
7.0379990215
 11
13.3489084805
 21
7.026652239
  0
LINE
  5
28F
100
AcDbEntity
  8
0
100
AcDbLine
 62
7
  6
CONTINUOUS
 10
7.7504019859
 20
7.4129781313
 11
8.252128636
 21
7.3781832699
  0
LINE
  5
290
100
AcDbEntity
  8
0
100
AcDbLine
 62
7
  6
CONTINUOUS
 10
13.3489084805
 20
7.026652239
 11
12.8388996393
 21
7.0620214722
  0
LINE
  5
291
100
AcDbEntity
  8
0
100
AcDbLine
 62
7
  6
CONTINUOUS
 10
7.7065613487
 20
9.1230016212
 11
7.7504019859
 21
9.1033484275
  0
LINE
  5
292
100
AcDbEntity
  8
0
100
AcDbLine
 62
7
  6
CONTINUOUS
 10
13.4248426528
 20
8.7283693176
 11
13.3489084805
 21
8.7170225351
  0
LINE
  5
293
100
AcDbEntity
  8
0
100
AcDbLine
 62
7
  6
CONTINUOUS
 10
9.6089208854
 20
6.993726441
 11
9.5339504301
 21
6.9213105376
  0
LINE
  5
294
100
AcDbEntity
  8
0
100
AcDbLine
 62
7
  6
CONTINUOUS
 10
10.5807604413
 20
8.6205502752
 11
10.5725328828
 21
8.6209756665
  0
LINE
  5
295
100
AcDbEntity
  8
0
100
AcDbLine
 62
7
  6
CONTINUOUS
 10
9.7826569099
 20
6.8139604861
 11
9.707637083
 21
6.7414968936
  0
LINE
  5
296
100
AcDbEntity
  8
0
100
AcDbLine
 62
7
  6
CONTINUOUS
 10
13.747871364
 20
10.4746103068
 11
12.8306174483
 21
9.5886110079
  0
LINE
  5
297
100
AcDbEntity
  8
0
100
AcDbLine
 62
7
  6
CONTINUOUS
 10
7.7504019859
 20
9.1033484275
 11
8.252128636
 21
9.0685535661
  0
LINE
  5
298
100
AcDbEntity
  8
0
100
AcDbLine
 62
7
  6
CONTINUOUS
 10
13.3489084805
 20
8.7170225351
 11
12.8388996393
 21
8.7523917684
  0
LINE
  5
299
100
AcDbEntity
  8
0
100
AcDbLine
 62
7
  6
CONTINUOUS
 10
13.0330137629
 20
9.6643360374
 11
13.5454750493
 21
10.1593356582
  0
LINE
  5
29A
100
AcDbEntity
  8
0
100
AcDbLine
 62
7
  6
CONTINUOUS
 10
10.5643053244
 20
9.1214010874
 11
10.5725328828
 21
9.1209756961
  0
LINE
  5
29B
100
AcDbEntity
  8
0
100
AcDbLine
 62
7
  6
CONTINUOUS
 10
13.5430226041
 20
9.6289668041
 11
14.0554838905
 21
10.123966425
  0
LINE
  5
29C
100
AcDbEntity
  8
0
100
AcDbLine
 62
7
  6
CONTINUOUS
 10
13.6029100089
 20
9.5649261937
 11
14.1153712953
 21
10.0599258146
  0
LINE
  5
29D
100
AcDbEntity
  8
0
100
AcDbLine
 62
7
  6
CONTINUOUS
 10
8.252128636
 20
9.9061302855
 11
12.8306174483
 21
9.5886110079
  0
LINE
  5
29E
100
AcDbEntity
  8
0
100
AcDbLine
 62
7
  6
CONTINUOUS
 10
7.9445161095
 20
10.0152926965
 11
8.3369653363
 21
9.9880762502
  0
LINE
  5
29F
100
AcDbEntity
  8
0
100
AcDbLine
 62
7
  6
CONTINUOUS
 10
13.5430226041
 20
9.6289668041
 11
13.0330137629
 21
9.6643360374
  0
LINE
  5
2A0
100
AcDbEntity
  8
0
100
AcDbLine
 62
7
  6
CONTINUOUS
 10
12.8306174483
 20
6.2078704156
 11
12.8306174483
 21
9.5886110079
  0
LINE
  5
2A1
100
AcDbEntity
  8
0
100
AcDbLine
 62
7
  6
CONTINUOUS
 10
12.8388996393
 20
7.0620214722
 11
12.8388996393
 21
8.7523917684
  0
LINE
  5
2A2
100
AcDbEntity
  8
0
100
AcDbLine
 62
7
  6
CONTINUOUS
 10
8.4569773959
 20
10.5102923173
 11
8.8494266227
 21
10.483075871
  0
LINE
  5
2A3
100
AcDbEntity
  8
0
100
AcDbLine
 62
7
  6
CONTINUOUS
 10
14.0554838905
 20
10.123966425
 11
13.5454750493
 21
10.1593356582
  0
LINE
  5
2A4
100
AcDbEntity
  8
0
100
AcDbLine
 62
7
  6
CONTINUOUS
 10
8.8758514278
 20
10.5086002742
 11
8.5088654456
 21
10.5340508386
  0
LINE
  5
2A5
100
AcDbEntity
  8
0
100
AcDbLine
 62
7
  6
CONTINUOUS
 10
13.597363099
 20
10.1830941795
 11
14.1073719402
 21
10.1477249462
  0
LINE
  5
2A6
100
AcDbEntity
  8
0
100
AcDbLine
 62
7
  6
CONTINUOUS
 10
13.747871364
 20
10.4746103068
 11
9.1693825517
 21
10.7921295844
  0
LINE
  5
2A7
100
AcDbEntity
  8
0
100
AcDbLine
 62
7
  6
CONTINUOUS
 10
13.3489084805
 20
7.026652239
 11
13.3489084805
 21
8.7170225351
  0
LINE
  5
2A8
100
AcDbEntity
  8
0
100
AcDbLine
 62
7
  6
CONTINUOUS
 10
13.4248426528
 20
7.0379990215
 11
13.4248426528
 21
8.7283693176
  0
LINE
  5
2A9
100
AcDbEntity
  8
0
100
AcDbLine
 62
7
  6
CONTINUOUS
 10
13.6029100089
 20
9.5649261937
 11
13.5430226041
 21
9.6289668041
  0
LINE
  5
2AA
100
AcDbEntity
  8
0
100
AcDbLine
 62
7
  6
CONTINUOUS
 10
13.747871364
 20
10.1726563959
 11
13.747871364
 21
10.4746103068
  0
LINE
  5
2AB
100
AcDbEntity
  8
0
100
AcDbLine
 62
7
  6
CONTINUOUS
 10
13.1241485722
 20
6.4913997258
 11
12.8306174483
 21
6.2078704156
  0
LINE
  5
2AC
100
AcDbEntity
  8
0
100
AcDbLine
 62
7
  6
CONTINUOUS
 10
14.1153712953
 20
7.0404415027
 11
13.6029100089
 21
6.5454418819
  0
LINE
  5
2AD
100
AcDbEntity
  8
0
100
AcDbLine
 62
7
  6
CONTINUOUS
 10
13.6029100089
 20
6.5454418819
 11
13.6012276237
 21
6.543846683
  0
LINE
  5
2AE
100
AcDbEntity
  8
0
100
AcDbLine
 62
7
  6
CONTINUOUS
 10
13.541190198
 20
6.4879699927
 11
13.6012290817
 21
6.5438478409
  0
LINE
  5
2AF
100
AcDbEntity
  8
0
100
AcDbLine
 62
7
  6
CONTINUOUS
 10
14.2934386513
 20
9.5673686749
 11
14.2934386513
 21
7.8769983788
  0
LINE
  5
2B0
100
AcDbEntity
  8
0
100
AcDbLine
 62
7
  6
CONTINUOUS
 10
14.1153712953
 20
10.0599258146
 11
14.0554838905
 21
10.123966425
  0
LINE
  5
2B1
100
AcDbEntity
  8
0
100
AcDbLine
 62
7
  6
CONTINUOUS
 10
14.1539087271
 20
10.1190054071
 11
14.2056596787
 21
10.0553749075
  0
ARC
  5
2B2
100
AcDbEntity
  8
0
100
AcDbCircle
 62
7
  6
CONTINUOUS
 10
9.8671077565
 20
8.1732476141
 40
0.4355999872
100
AcDbArc
 50
136.4287513739
 51
138.6403531057
  0
ARC
  5
2B3
100
AcDbEntity
  8
0
100
AcDbCircle
 62
7
  6
CONTINUOUS
 10
11.1981536442
 20
8.0809392683
 40
0.4355999872
100
AcDbArc
 50
136.4287513739
 51
138.6403531057
  0
ARC
  5
2B4
100
AcDbEntity
  8
0
100
AcDbCircle
 62
7
  6
CONTINUOUS
 10
10.5278010756
 20
7.3353691592
 40
0.4355999872
100
AcDbArc
 50
136.4287513739
 51
138.6403531057
  0
ARC
  5
2B5
100
AcDbEntity
  8
0
100
AcDbCircle
 62
7
  6
CONTINUOUS
 10
10.5278010755
 20
8.9175558251
 40
0.4355999872
100
AcDbArc
 50
136.4287513739
 51
138.6403531057
  0
ARC
  5
2B6
100
AcDbEntity
  8
0
100
AcDbCircle
 62
7
  6
CONTINUOUS
 10
9.9566119553
 20
8.0805834679
 40
0.4355687219
100
AcDbArc
 50
309.3740788223
 51
311.7167202841
  0
ARC
  5
2B7
100
AcDbEntity
  8
0
100
AcDbCircle
 62
7
  6
CONTINUOUS
 10
11.2876578431
 20
7.9882751221
 40
0.4355687219
100
AcDbArc
 50
309.3740788223
 51
311.7167202841
  0
ARC
  5
2B8
100
AcDbEntity
  8
0
100
AcDbCircle
 62
7
  6
CONTINUOUS
 10
10.6173052744
 20
8.8248916789
 40
0.4355687219
100
AcDbArc
 50
309.3740788223
 51
311.7167202841
  0
ARC
  5
2B9
100
AcDbEntity
  8
0
100
AcDbCircle
 62
7
  6
CONTINUOUS
 10
10.6173052744
 20
7.242705013
 40
0.4355687219
100
AcDbArc
 50
309.3740788223
 51
311.7167202841
  0
ARC
  5
2BA
100
AcDbEntity
  8
0
100
AcDbCircle
 62
7
  6
CONTINUOUS
 10
11.0208897052
 20
8.8744611789
 40
0.2438578465
100
AcDbArc
 50
159.6871322946
 51
169.8220248556
  0
ARC
  5
2BB
100
AcDbEntity
  8
0
100
AcDbCircle
 62
7
  6
CONTINUOUS
 10
9.6607593943
 20
6.8926381259
 40
0.1137233235
100
AcDbArc
 50
134.0268871346
 51
150.9343740754
  0
ARC
  5
2BC
100
AcDbEntity
  8
0
100
AcDbCircle
 62
7
  6
CONTINUOUS
 10
9.6833780097
 20
6.8692212095
 40
0.1137206658
100
AcDbArc
 50
297.1129110855
 51
313.9878073649
  0
SPLINE
  5
2BD
100
AcDbEntity
  8
0
100
AcDbSpline
 62
7
  6
CONTINUOUS
 70
0
 71
3
 72
39
 73
35
 74
0
 42
0.0000001
 43
0.0000001
 44
0.0000000001
 40
0.0
 40
0.0
 40
0.0
 40
0.0
 40
0.0299422331
 40
0.0599092575
 40
0.0899241853
 40
0.1200100237
 40
0.1501875599
 40
0.1804752385
 40
0.2108897545
 40
0.2414436546
 40
0.2721471403
 40
0.3030068828
 40
0.334025345
 40
0.3652026833
 40
0.3965345645
 40
0.4280135898
 40
0.4596299292
 40
0.4913697388
 40
0.5232175329
 40
0.5551555029
 40
0.587163356
 40
0.6192204168
 40
0.6513042093
 40
0.6833916162
 40
0.7154605923
 40
0.7474887634
 40
0.7794547541
 40
0.8113371941
 40
0.843114759
 40
0.8747724449
 40
0.9063035463
 40
0.9377027577
 40
0.968947027
 40
1.0
 40
1.0
 40
1.0
 40
1.0
 10
9.7076370577
 20
6.7414969198
 30
0.0
 10
9.7055634456
 20
6.7394938132
 30
0.0
 10
9.7012526026
 20
6.7356497814
 30
0.0
 10
9.6943465633
 20
6.7304125171
 30
0.0
 10
9.6870359114
 20
6.7257299037
 30
0.0
 10
9.6793601433
 20
6.7216307163
 30
0.0
 10
9.6713631711
 20
6.7181342176
 30
0.0
 10
9.6630880292
 20
6.7152615952
 30
0.0
 10
9.6545805109
 20
6.7130288545
 30
0.0
 10
9.6458879355
 20
6.7114456884
 30
0.0
 10
9.6370575469
 20
6.7105241512
 30
0.0
 10
9.6281383856
 20
6.7102667178
 30
0.0
 10
9.6191792263
 20
6.710674722
 30
0.0
 10
9.6102296274
 20
6.7117482231
 30
0.0
 10
9.6013383372
 20
6.7134778117
 30
0.0
 10
9.5925545113
 20
6.7158563847
 30
0.0
 10
9.5839265392
 20
6.7188704596
 30
0.0
 10
9.5755008948
 20
6.7225014832
 30
0.0
 10
9.5673251921
 20
6.7267325395
 30
0.0
 10
9.5594431654
 20
6.7315378657
 30
0.0
 10
9.5518981117
 20
6.736891596
 30
0.0
 10
9.5447327479
 20
6.7427658221
 30
0.0
 10
9.537984286
 20
6.7491257437
 30
0.0
 10
9.5316914936
 20
6.7559384782
 30
0.0
 10
9.5258885566
 20
6.7631660815
 30
0.0
 10
9.5206059028
 20
6.770768099
 30
0.0
 10
9.5158754097
 20
6.7787046123
 30
0.0
 10
9.5117204788
 20
6.7869299958
 30
0.0
 10
9.5081644214
 20
6.7953994181
 30
0.0
 10
9.5052283626
 20
6.804067582
 30
0.0
 10
9.5029258937
 20
6.8128875646
 30
0.0
 10
9.5012731669
 20
6.8218118504
 30
0.0
 10
9.5002773202
 20
6.8307862603
 30
0.0
 10
9.5000530211
 20
6.8367870556
 30
0.0
 10
9.5000530211
 20
6.8397771141
 30
0.0
  0
SPLINE
  5
2BE
100
AcDbEntity
  8
0
100
AcDbSpline
 62
7
  6
CONTINUOUS
 70
0
 71
3
 72
15
 73
11
 74
0
 42
0.0000001
 43
0.0000001
 44
0.0000000001
 40
0.0
 40
0.0
 40
0.0
 40
0.0
 40
0.1234389364
 40
0.2470473381
 40
0.370987441
 40
0.4953935886
 40
0.620395394
 40
0.7461421851
 40
0.8727199755
 40
1.0
 40
1.0
 40
1.0
 40
1.0
 10
9.5339504554
 20
6.9213105114
 30
0.0
 10
9.5312666106
 20
6.9187179207
 30
0.0
 10
9.5261588172
 20
6.9132482151
 30
0.0
 10
9.5193736067
 20
6.9042951099
 30
0.0
 10
9.5135255903
 20
6.8946681758
 30
0.0
 10
9.5086646945
 20
6.8844609558
 30
0.0
 10
9.5048396455
 20
6.873764352
 30
0.0
 10
9.5020819932
 20
6.8626765653
 30
0.0
 10
9.50042235
 20
6.8513040944
 30
0.0
 10
9.5000530211
 20
6.8436247915
 30
0.0
 10
9.5000530211
 20
6.8397771141
 30
0.0
  0
SPLINE
  5
2BF
100
AcDbEntity
  8
0
100
AcDbSpline
 62
7
  6
CONTINUOUS
 70
0
 71
3
 72
39
 73
35
 74
0
 42
0.0000001
 43
0.0000001
 44
0.0000000001
 40
0.0
 40
0.0
 40
0.0
 40
0.0
 40
0.031052973
 40
0.0622972423
 40
0.0936964537
 40
0.1252275551
 40
0.156885241
 40
0.1886628059
 40
0.2205452459
 40
0.2525112366
 40
0.2845394077
 40
0.3166083838
 40
0.3486957907
 40
0.3807795832
 40
0.412836644
 40
0.4448444971
 40
0.4767824671
 40
0.5086302612
 40
0.5403700708
 40
0.5719864102
 40
0.6034654355
 40
0.6347973167
 40
0.665974655
 40
0.6969931172
 40
0.7278528597
 40
0.7585563454
 40
0.7891102455
 40
0.8195247615
 40
0.8498124401
 40
0.8799899763
 40
0.9100758147
 40
0.9400907425
 40
0.9700577669
 40
1.0
 40
1.0
 40
1.0
 40
1.0
 10
9.741534492
 20
6.8230303172
 30
0.0
 10
9.741534492
 20
6.8260203757
 30
0.0
 10
9.7413101929
 20
6.8320211709
 30
0.0
 10
9.7403143462
 20
6.8409955809
 30
0.0
 10
9.7386616194
 20
6.8499198667
 30
0.0
 10
9.7363591505
 20
6.8587398492
 30
0.0
 10
9.7334230917
 20
6.8674080132
 30
0.0
 10
9.7298670343
 20
6.8758774355
 30
0.0
 10
9.7257121034
 20
6.8841028189
 30
0.0
 10
9.7209816102
 20
6.8920393322
 30
0.0
 10
9.7156989565
 20
6.8996413497
 30
0.0
 10
9.7098960194
 20
6.9068689531
 30
0.0
 10
9.7036032271
 20
6.9136816876
 30
0.0
 10
9.6968547652
 20
6.9200416091
 30
0.0
 10
9.6896894014
 20
6.9259158353
 30
0.0
 10
9.6821443477
 20
6.9312695655
 30
0.0
 10
9.674262321
 20
6.9360748917
 30
0.0
 10
9.6660866183
 20
6.9403059481
 30
0.0
 10
9.6576609739
 20
6.9439369717
 30
0.0
 10
9.6490330018
 20
6.9469510466
 30
0.0
 10
9.6402491759
 20
6.9493296195
 30
0.0
 10
9.6313578857
 20
6.9510592081
 30
0.0
 10
9.6224082867
 20
6.9521327092
 30
0.0
 10
9.6134491275
 20
6.9525407134
 30
0.0
 10
9.6045299662
 20
6.95228328
 30
0.0
 10
9.5956995776
 20
6.9513617429
 30
0.0
 10
9.5870070022
 20
6.9497785767
 30
0.0
 10
9.5784994839
 20
6.947545836
 30
0.0
 10
9.570224342
 20
6.9446732136
 30
0.0
 10
9.5622273698
 20
6.9411767149
 30
0.0
 10
9.5545516017
 20
6.9370775275
 30
0.0
 10
9.5472409498
 20
6.9323949141
 30
0.0
 10
9.5403349105
 20
6.9271576498
 30
0.0
 10
9.5360240675
 20
6.923313618
 30
0.0
 10
9.5339504554
 20
6.9213105114
 30
0.0
  0
SPLINE
  5
2C0
100
AcDbEntity
  8
0
100
AcDbSpline
 62
7
  6
CONTINUOUS
 70
0
 71
3
 72
53
 73
49
 74
0
 42
0.0000001
 43
0.0000001
 44
0.0000000001
 40
0.0
 40
0.0
 40
0.0
 40
0.0
 40
0.0313041153
 40
0.0470567589
 40
0.0628625042
 40
0.0945982077
 40
0.1264996374
 40
0.1585539205
 40
0.1907323133
 40
0.2068600129
 40
0.2230041193
 40
0.2391599002
 40
0.2553223468
 40
0.2714864126
 40
0.2876472596
 40
0.3038000459
 40
0.319939713
 40
0.3360612399
 40
0.3521599324
 40
0.3842632888
 40
0.4162252851
 40
0.4480185945
 40
0.4796216269
 40
0.5110196976
 40
0.5422062894
 40
0.5731821078
 40
0.6039571965
 40
0.6192792312
 40
0.6345582438
 40
0.6649908279
 40
0.6801620739
 40
0.6953058919
 40
0.7104271196
 40
0.7255305534
 40
0.7406211915
 40
0.755704483
 40
0.770786026
 40
0.7858711759
 40
0.800965253
 40
0.816073731
 40
0.8463431443
 40
0.8615227459
 40
0.8767341965
 40
0.907262381
 40
0.922599162
 40
0.9379872792
 40
0.9689083072
 40
1.0
 40
1.0
 40
1.0
 40
1.0
 10
9.7116091347
 20
6.8165312812
 30
0.0
 10
9.7116091347
 20
6.8197819061
 30
0.0
 10
9.7113668721
 20
6.8246724731
 30
0.0
 10
9.7105742893
 20
6.8311535736
 30
0.0
 10
9.7094642942
 20
6.8376339865
 30
0.0
 10
9.7074862261
 20
6.845656587
 30
0.0
 10
9.7042040872
 20
6.8550507237
 30
0.0
 10
9.7000389355
 20
6.8641384547
 30
0.0
 10
9.695869742
 20
6.8713817753
 30
0.0
 10
9.6921381059
 20
6.8769397122
 30
0.0
 10
9.6891443881
 20
6.8809825442
 30
0.0
 10
9.6859664027
 20
6.8848866786
 30
0.0
 10
9.682611847
 20
6.8886430022
 30
0.0
 10
9.679088594
 20
6.8922423147
 30
0.0
 10
9.6754044535
 20
6.8956753004
 30
0.0
 10
9.6715688726
 20
6.8989342962
 30
0.0
 10
9.6675913556
 20
6.9020117504
 30
0.0
 10
9.6634812726
 20
6.9049002499
 30
0.0
 10
9.6578431953
 20
6.9084852269
 30
0.0
 10
9.6505148489
 20
6.9124607482
 30
0.0
 10
9.6413491818
 20
6.9163794343
 30
0.0
 10
9.6319041092
 20
6.9194018674
 30
0.0
 10
9.6222721071
 20
6.9215030687
 30
0.0
 10
9.6125445483
 20
6.9226573377
 30
0.0
 10
9.6028155223
 20
6.9228587712
 30
0.0
 10
9.5931790864
 20
6.9220995915
 30
0.0
 10
9.5852888326
 20
6.9206737964
 30
0.0
 10
9.5791196321
 20
6.9190639137
 30
0.0
 10
9.573075083
 20
6.9171513748
 30
0.0
 10
9.5671992945
 20
6.9147820506
 30
0.0
 10
9.56154861
 20
6.911973368
 30
0.0
 10
9.5574370281
 20
6.9096545296
 30
0.0
 10
9.5534581195
 20
6.9071282046
 30
0.0
 10
9.5496211773
 20
6.9044004933
 30
0.0
 10
9.5459357402
 20
6.9014776317
 30
0.0
 10
9.5424112751
 20
6.8983659849
 30
0.0
 10
9.5390556259
 20
6.8950738088
 30
0.0
 10
9.5358766808
 20
6.8916092469
 30
0.0
 10
9.5328821141
 20
6.8879802628
 30
0.0
 10
9.529144622
 20
6.8829315109
 30
0.0
 10
9.5258045271
 20
6.8775875679
 30
0.0
 10
9.522890247
 20
6.872000729
 30
0.0
 10
9.5202582886
 20
6.8662458193
 30
0.0
 10
9.518070978
 20
6.8602786507
 30
0.0
 10
9.5163433459
 20
6.8541550307
 30
0.0
 10
9.5149199673
 20
6.8479113456
 30
0.0
 10
9.5137310214
 20
6.8399483861
 30
0.0
 10
9.5134139732
 20
6.8335047292
 30
0.0
 10
9.5134139732
 20
6.8302761623
 30
0.0
  0
SPLINE
  5
2C1
100
AcDbEntity
  8
0
100
AcDbSpline
 62
7
  6
CONTINUOUS
 70
0
 71
3
 72
15
 73
11
 74
0
 42
0.0000001
 43
0.0000001
 44
0.0000000001
 40
0.0
 40
0.0
 40
0.0
 40
0.0
 40
0.1272800245
 40
0.2538578149
 40
0.379604606
 40
0.5046064114
 40
0.629012559
 40
0.7529526619
 40
0.8765610636
 40
1.0
 40
1.0
 40
1.0
 40
1.0
 10
9.741534492
 20
6.8230303172
 30
0.0
 10
9.741534492
 20
6.8191826398
 30
0.0
 10
9.7411651631
 20
6.8115033369
 30
0.0
 10
9.7395055199
 20
6.8001308659
 30
0.0
 10
9.7367478675
 20
6.7890430793
 30
0.0
 10
9.7329228186
 20
6.7783464754
 30
0.0
 10
9.7280619228
 20
6.7681392555
 30
0.0
 10
9.7222139064
 20
6.7585123214
 30
0.0
 10
9.7154286959
 20
6.7495592161
 30
0.0
 10
9.7103209025
 20
6.7440895105
 30
0.0
 10
9.7076370577
 20
6.7414969198
 30
0.0
  0
SPLINE
  5
2C2
100
AcDbEntity
  8
0
100
AcDbSpline
 62
7
  6
CONTINUOUS
 70
0
 71
3
 72
53
 73
49
 74
0
 42
0.0000001
 43
0.0000001
 44
0.0000000001
 40
0.0
 40
0.0
 40
0.0
 40
0.0
 40
0.0310916928
 40
0.0620127208
 40
0.077400838
 40
0.092737619
 40
0.1232658035
 40
0.1384772541
 40
0.1536568557
 40
0.183926269
 40
0.199034747
 40
0.2141288241
 40
0.229213974
 40
0.244295517
 40
0.2593788085
 40
0.2744694466
 40
0.2895728804
 40
0.3046941081
 40
0.3198379261
 40
0.3350091721
 40
0.3654417562
 40
0.3807207688
 40
0.3960428035
 40
0.4268178922
 40
0.4577937106
 40
0.4889803024
 40
0.5203783731
 40
0.5519814055
 40
0.5837747149
 40
0.6157367112
 40
0.6478400676
 40
0.6639387601
 40
0.680060287
 40
0.6961999541
 40
0.7123527404
 40
0.7285135874
 40
0.7446776532
 40
0.7608400998
 40
0.7769958807
 40
0.7931399871
 40
0.8092676867
 40
0.8414460795
 40
0.8735003626
 40
0.9054017923
 40
0.9371374958
 40
0.9529432411
 40
0.9686958847
 40
1.0
 40
1.0
 40
1.0
 40
1.0
 10
9.7116091347
 20
6.8165312812
 30
0.0
 10
9.7116091347
 20
6.8133027143
 30
0.0
 10
9.7112920865
 20
6.8068590574
 30
0.0
 10
9.7101031406
 20
6.7988960979
 30
0.0
 10
9.708679762
 20
6.7926524128
 30
0.0
 10
9.7069521299
 20
6.7865287928
 30
0.0
 10
9.7047648192
 20
6.7805616242
 30
0.0
 10
9.7021328609
 20
6.7748067145
 30
0.0
 10
9.6992185808
 20
6.7692198756
 30
0.0
 10
9.6958784859
 20
6.7638759326
 30
0.0
 10
9.6921409937
 20
6.7588271807
 30
0.0
 10
9.689146427
 20
6.7551981966
 30
0.0
 10
9.685967482
 20
6.7517336347
 30
0.0
 10
9.6826118328
 20
6.7484414586
 30
0.0
 10
9.6790873676
 20
6.7453298118
 30
0.0
 10
9.6754019305
 20
6.7424069502
 30
0.0
 10
9.6715649884
 20
6.7396792389
 30
0.0
 10
9.6675860798
 20
6.7371529139
 30
0.0
 10
9.6634744979
 20
6.7348340755
 30
0.0
 10
9.6578238134
 20
6.7320253929
 30
0.0
 10
9.6519480249
 20
6.7296560687
 30
0.0
 10
9.6459034757
 20
6.7277435298
 30
0.0
 10
9.6397342753
 20
6.726133647
 30
0.0
 10
9.6318440215
 20
6.724707852
 30
0.0
 10
9.6222075856
 20
6.7239486723
 30
0.0
 10
9.6124785595
 20
6.7241501058
 30
0.0
 10
9.6027510008
 20
6.7253043748
 30
0.0
 10
9.5931189986
 20
6.7274055761
 30
0.0
 10
9.5836739261
 20
6.7304280092
 30
0.0
 10
9.5745082589
 20
6.7343466953
 30
0.0
 10
9.5671799125
 20
6.7383222165
 30
0.0
 10
9.5615418352
 20
6.7419071936
 30
0.0
 10
9.5574317522
 20
6.7447956931
 30
0.0
 10
9.5534542353
 20
6.7478731472
 30
0.0
 10
9.5496186543
 20
6.7511321431
 30
0.0
 10
9.5459345138
 20
6.7545651288
 30
0.0
 10
9.5424112609
 20
6.7581644413
 30
0.0
 10
9.5390567052
 20
6.7619207649
 30
0.0
 10
9.5358787198
 20
6.7658248993
 30
0.0
 10
9.532885002
 20
6.7698677313
 30
0.0
 10
9.5291533659
 20
6.7754256682
 30
0.0
 10
9.5249841723
 20
6.7826689888
 30
0.0
 10
9.5208190207
 20
6.7917567198
 30
0.0
 10
9.5175368818
 20
6.8011508565
 30
0.0
 10
9.5155588136
 20
6.809173457
 30
0.0
 10
9.5144488186
 20
6.8156538699
 30
0.0
 10
9.5136562358
 20
6.8221349704
 30
0.0
 10
9.5134139732
 20
6.8270255374
 30
0.0
 10
9.5134139732
 20
6.8302761623
 30
0.0
  0
SPLINE
  5
2C3
100
AcDbEntity
  8
0
100
AcDbSpline
 62
7
  6
CONTINUOUS
 70
0
 71
3
 72
69
 73
65
 74
0
 42
0.0000001
 43
0.0000001
 44
0.0000000001
 40
0.0
 40
0.0
 40
0.0
 40
0.0
 40
0.0312903904
 40
0.0470006528
 40
0.0627445756
 40
0.0785223279
 40
0.0943340764
 40
0.110178696
 40
0.1260536366
 40
0.1419560695
 40
0.1578832983
 40
0.1738324715
 40
0.1898005575
 40
0.2217715317
 40
0.2377758121
 40
0.2537849262
 40
0.2697951068
 40
0.2858026717
 40
0.3018039038
 40
0.3177951149
 40
0.3337728137
 40
0.3497335585
 40
0.3656740791
 40
0.3815913812
 40
0.3974825997
 40
0.4133451737
 40
0.4291768584
 40
0.4449756206
 40
0.4607398374
 40
0.4764681958
 40
0.4921596776
 40
0.5078137322
 40
0.5234300822
 40
0.5390088225
 40
0.5545505019
 40
0.5700558957
 40
0.585526204
 40
0.6009629954
 40
0.616368028
 40
0.6317434933
 40
0.6470918197
 40
0.6624156028
 40
0.6777178217
 40
0.6930015504
 40
0.7082700017
 40
0.7235266723
 40
0.7387750315
 40
0.7540186351
 40
0.7692612099
 40
0.784506353
 40
0.7997576804
 40
0.8150188192
 40
0.8302931417
 40
0.8455840027
 40
0.860894753
 40
0.8762284425
 40
0.8915878651
 40
0.9069752245
 40
0.9223923275
 40
0.9378418307
 40
0.9533270851
 40
0.9688506846
 40
0.9844102313
 40
1.0
 40
1.0
 40
1.0
 40
1.0
 10
11.0127177567
 20
7.2446104339
 30
0.0
 10
11.0127175645
 20
7.2596374055
 30
0.0
 10
11.0116039466
 20
7.2822289366
 30
0.0
 10
11.0079421704
 20
7.3121459598
 30
0.0
 10
11.0041018976
 20
7.3345109882
 30
0.0
 10
10.9991852821
 20
7.3567130514
 30
0.0
 10
10.9932036301
 20
7.3787025158
 30
0.0
 10
10.9861724693
 20
7.4004280991
 30
0.0
 10
10.9781110769
 20
7.4218393327
 30
0.0
 10
10.969037135
 20
7.4428847088
 30
0.0
 10
10.9589740979
 20
7.4635148407
 30
0.0
 10
10.9479469023
 20
7.4836828189
 30
0.0
 10
10.9319886604
 20
7.5098976168
 30
0.0
 10
10.914209872
 20
7.5350002052
 30
0.0
 10
10.8947528969
 20
7.5587937885
 30
0.0
 10
10.8793415385
 20
7.5759632724
 30
0.0
 10
10.863155492
 20
7.5924057398
 30
0.0
 10
10.8462314378
 20
7.6080822402
 30
0.0
 10
10.8286108367
 20
7.6229573262
 30
0.0
 10
10.8103338325
 20
7.6369946567
 30
0.0
 10
10.7914431074
 20
7.6501605236
 30
0.0
 10
10.7719839485
 20
7.6624251875
 30
0.0
 10
10.7520006571
 20
7.6737573757
 30
0.0
 10
10.7315404346
 20
7.684130291
 30
0.0
 10
10.7106516797
 20
7.6935199333
 30
0.0
 10
10.6893823262
 20
7.7019009747
 30
0.0
 10
10.6677829861
 20
7.7092541376
 30
0.0
 10
10.6459044335
 20
7.7155613487
 30
0.0
 10
10.6237976296
 20
7.7208041903
 30
0.0
 10
10.6015153927
 20
7.7249711993
 30
0.0
 10
10.5791102553
 20
7.728050444
 30
0.0
 10
10.5566353721
 20
7.7300314955
 30
0.0
 10
10.5341445932
 20
7.7309106443
 30
0.0
 10
10.5116916343
 20
7.7306825292
 30
0.0
 10
10.4893306729
 20
7.729345622
 30
0.0
 10
10.4671155595
 20
7.7269037741
 30
0.0
 10
10.4451004839
 20
7.72335882
 30
0.0
 10
10.4233391787
 20
7.7187187051
 30
0.0
 10
10.4018845827
 20
7.7129945981
 30
0.0
 10
10.3807903226
 20
7.7061963306
 30
0.0
 10
10.3601080358
 20
7.698341359
 30
0.0
 10
10.3398888937
 20
7.6894479054
 30
0.0
 10
10.3201843892
 20
7.6795346583
 30
0.0
 10
10.3010425108
 20
7.6686278793
 30
0.0
 10
10.282511727
 20
7.656752692
 30
0.0
 10
10.2646393245
 20
7.6439370777
 30
0.0
 10
10.2474684665
 20
7.6302148189
 30
0.0
 10
10.231043672
 20
7.6156179119
 30
0.0
 10
10.2154059103
 20
7.6001830735
 30
0.0
 10
10.2005927235
 20
7.5839501782
 30
0.0
 10
10.1866431538
 20
7.5669578575
 30
0.0
 10
10.1735902419
 20
7.5492501217
 30
0.0
 10
10.1614654092
 20
7.5308716938
 30
0.0
 10
10.1503004382
 20
7.5118672421
 30
0.0
 10
10.1401198204
 20
7.4922857599
 30
0.0
 10
10.1309485502
 20
7.4721755392
 30
0.0
 10
10.1228096708
 20
7.4515863376
 30
0.0
 10
10.1157192069
 20
7.4305707955
 30
0.0
 10
10.1096948418
 20
7.4091802913
 30
0.0
 10
10.1047501205
 20
7.387466621
 30
0.0
 10
10.1008937195
 20
7.3654816809
 30
0.0
 10
10.098136374
 20
7.3432787157
 30
0.0
 10
10.0964811654
 20
7.3209168801
 30
0.0
 10
10.0961134604
 20
7.3059550337
 30
0.0
 10
10.0961133717
 20
7.298468166
 30
0.0
  0
SPLINE
  5
2C4
100
AcDbEntity
  8
0
100
AcDbSpline
 62
7
  6
CONTINUOUS
 70
0
 71
3
 72
65
 73
61
 74
0
 42
0.0000001
 43
0.0000001
 44
0.0000000001
 40
0.0
 40
0.0
 40
0.0
 40
0.0
 40
0.0310480611
 40
0.0464649297
 40
0.061800731
 40
0.0922348386
 40
0.1223994853
 40
0.1373982455
 40
0.1523450299
 40
0.1672467782
 40
0.1821108888
 40
0.1969449792
 40
0.2117572313
 40
0.2265559693
 40
0.2413496102
 40
0.2561467317
 40
0.2709558122
 40
0.285785298
 40
0.3006433284
 40
0.3155375101
 40
0.3304753132
 40
0.3454636469
 40
0.3605084676
 40
0.375615484
 40
0.3907897569
 40
0.4060350815
 40
0.4213548945
 40
0.4367520193
 40
0.4522278892
 40
0.4677834893
 40
0.4834192846
 40
0.4991344067
 40
0.5149274953
 40
0.5307967742
 40
0.5467393053
 40
0.5627516644
 40
0.578830121
 40
0.6111574611
 40
0.6274047431
 40
0.643697115
 40
0.6600282616
 40
0.6763917887
 40
0.7091799725
 40
0.7255990827
 40
0.7420225216
 40
0.7584429775
 40
0.774853285
 40
0.7912463688
 40
0.8076151028
 40
0.8239526467
 40
0.8402526445
 40
0.8565088447
 40
0.8727152748
 40
0.8888661881
 40
0.9049558805
 40
0.9369254242
 40
0.952810249
 40
0.9686226856
 40
0.9843555469
 40
1.0
 40
1.0
 40
1.0
 40
1.0
 10
10.2361133812
 20
7.2984679061
 30
0.0
 10
10.2361135972
 20
7.3088267703
 30
0.0
 10
10.2368734591
 20
7.3243439958
 30
0.0
 10
10.2394177297
 20
7.3448119066
 30
0.0
 10
10.2429521318
 20
7.3649258665
 30
0.0
 10
10.2492196045
 20
7.3895207415
 30
0.0
 10
10.2579336261
 20
7.4132409254
 30
0.0
 10
10.2662934011
 20
7.4314789787
 30
0.0
 10
10.273231637
 20
7.4447439573
 30
0.0
 10
10.280830527
 20
7.4575892619
 30
0.0
 10
10.2890714369
 20
7.4699874788
 30
0.0
 10
10.2979362389
 20
7.4819103897
 30
0.0
 10
10.3074036155
 20
7.4933323655
 30
0.0
 10
10.3174514609
 20
7.5042288778
 30
0.0
 10
10.3280583421
 20
7.5145748075
 30
0.0
 10
10.3392001873
 20
7.5243474665
 30
0.0
 10
10.3508517458
 20
7.5335257719
 30
0.0
 10
10.3629882995
 20
7.5420877558
 30
0.0
 10
10.3755829901
 20
7.5500136692
 30
0.0
 10
10.3886074427
 20
7.5572859435
 30
0.0
 10
10.4020335895
 20
7.563885912
 30
0.0
 10
10.4158316101
 20
7.5697969291
 30
0.0
 10
10.4299700012
 20
7.5750053752
 30
0.0
 10
10.4444173243
 20
7.5794964335
 30
0.0
 10
10.4591407349
 20
7.5832570746
 30
0.0
 10
10.4741058406
 20
7.586278252
 30
0.0
 10
10.4892780933
 20
7.5885497543
 30
0.0
 10
10.5046218576
 20
7.5900628889
 30
0.0
 10
10.5201004317
 20
7.5908138419
 30
0.0
 10
10.5356768081
 20
7.5907977839
 30
0.0
 10
10.5513131685
 20
7.5900111198
 30
0.0
 10
10.5669714004
 20
7.5884557723
 30
0.0
 10
10.5826130136
 20
7.5861328679
 30
0.0
 10
10.5981989764
 20
7.5830444931
 30
0.0
 10
10.6136906889
 20
7.5791986402
 30
0.0
 10
10.6290499256
 20
7.5746023944
 30
0.0
 10
10.6493319462
 20
7.5674733738
 30
0.0
 10
10.669163577
 20
7.5588926938
 30
0.0
 10
10.688385738
 20
7.5489356916
 30
0.0
 10
10.702507839
 20
7.5407732884
 30
0.0
 10
10.7162723743
 20
7.5319493455
 30
0.0
 10
10.7341089363
 20
7.5193227894
 30
0.0
 10
10.7510851829
 20
7.505466052
 30
0.0
 10
10.7670661593
 20
7.4904882235
 30
0.0
 10
10.7785390611
 20
7.4787104212
 30
0.0
 10
10.7894619214
 20
7.4664253241
 30
0.0
 10
10.7998063053
 20
7.4536621797
 30
0.0
 10
10.8095479161
 20
7.4404547325
 30
0.0
 10
10.8186627715
 20
7.4268363383
 30
0.0
 10
10.8271267536
 20
7.4128404064
 30
0.0
 10
10.8349209709
 20
7.3985034604
 30
0.0
 10
10.8420268216
 20
7.3838616625
 30
0.0
 10
10.8484254278
 20
7.3689514934
 30
0.0
 10
10.8541039654
 20
7.3538112382
 30
0.0
 10
10.8606831221
 20
7.3334173759
 30
0.0
 10
10.8657939219
 20
7.3126647618
 30
0.0
 10
10.8693842701
 20
7.2917223712
 30
0.0
 10
10.8713052533
 20
7.2760081655
 30
0.0
 10
10.8724591031
 20
7.2603003752
 30
0.0
 10
10.8727176278
 20
7.2498298844
 30
0.0
 10
10.8727177457
 20
7.2446102746
 30
0.0
  0
SPLINE
  5
2C5
100
AcDbEntity
  8
0
100
AcDbSpline
 62
7
  6
CONTINUOUS
 70
0
 71
3
 72
69
 73
65
 74
0
 42
0.0000001
 43
0.0000001
 44
0.0000000001
 40
0.0
 40
0.0
 40
0.0
 40
0.0
 40
0.0312903911
 40
0.0470006543
 40
0.0627445771
 40
0.0785223289
 40
0.0943340764
 40
0.1101786947
 40
0.126053634
 40
0.1419560655
 40
0.157883293
 40
0.1738324649
 40
0.1898005499
 40
0.2217715222
 40
0.2377758016
 40
0.253784915
 40
0.2697950952
 40
0.2858026601
 40
0.3018038922
 40
0.3177951034
 40
0.333772802
 40
0.3497335464
 40
0.3656740664
 40
0.3815913678
 40
0.3974825851
 40
0.4133451574
 40
0.4291768396
 40
0.4449755982
 40
0.4607398103
 40
0.4764681644
 40
0.4921596439
 40
0.5078136996
 40
0.5234300536
 40
0.5390088005
 40
0.5545504881
 40
0.5700558896
 40
0.5855262037
 40
0.6009629988
 40
0.6163680341
 40
0.631743502
 40
0.6470918309
 40
0.6624156163
 40
0.6777178363
 40
0.6930015641
 40
0.7082700105
 40
0.7235266729
 40
0.7387750246
 40
0.7540186258
 40
0.7692612029
 40
0.7845063491
 40
0.7997576767
 40
0.8150188128
 40
0.8302931311
 40
0.8455839876
 40
0.8608947335
 40
0.876228419
 40
0.8915878381
 40
0.906975194
 40
0.9223922944
 40
0.9378417982
 40
0.9533270585
 40
0.9688506682
 40
0.9844102238
 40
1.0
 40
1.0
 40
1.0
 40
1.0
 10
10.0961133738
 20
7.2984679696
 30
0.0
 10
10.0961135661
 20
7.2834409976
 30
0.0
 10
10.0972271843
 20
7.2608494659
 30
0.0
 10
10.1008889603
 20
7.230932442
 30
0.0
 10
10.1047292332
 20
7.2085674135
 30
0.0
 10
10.1096458488
 20
7.186365351
 30
0.0
 10
10.1156275004
 20
7.1643758879
 30
0.0
 10
10.1226586605
 20
7.1426503062
 30
0.0
 10
10.1307200521
 20
7.1212390744
 30
0.0
 10
10.1397939932
 20
7.1001937
 30
0.0
 10
10.1498570289
 20
7.0795635697
 30
0.0
 10
10.1608842234
 20
7.0593955929
 30
0.0
 10
10.1768424639
 20
7.0331807965
 30
0.0
 10
10.1946212503
 20
7.008078209
 30
0.0
 10
10.2140782239
 20
6.9842846266
 30
0.0
 10
10.2294895806
 20
6.9671151425
 30
0.0
 10
10.2456756266
 20
6.9506726755
 30
0.0
 10
10.26259968
 20
6.9349961747
 30
0.0
 10
10.2802202803
 20
6.9201210876
 30
0.0
 10
10.2984972844
 20
6.9060837571
 30
0.0
 10
10.3173880086
 20
6.8929178894
 30
0.0
 10
10.3368471665
 20
6.8806532248
 30
0.0
 10
10.3568304572
 20
6.8693210369
 30
0.0
 10
10.3772906778
 20
6.8589481208
 30
0.0
 10
10.3981794308
 20
6.8495584782
 30
0.0
 10
10.4194487817
 20
6.8411774376
 30
0.0
 10
10.4410481175
 20
6.8338242737
 30
0.0
 10
10.462926665
 20
6.8275170634
 30
0.0
 10
10.4850334624
 20
6.8222742214
 30
0.0
 10
10.5073156933
 20
6.8181072096
 30
0.0
 10
10.5297208281
 20
6.8150279656
 30
0.0
 10
10.5521957124
 20
6.8130469115
 30
0.0
 10
10.5746864968
 20
6.8121677583
 30
0.0
 10
10.5971394647
 20
6.8123958739
 30
0.0
 10
10.6195004369
 20
6.8137327805
 30
0.0
 10
10.6417155609
 20
6.8161746277
 30
0.0
 10
10.6637306448
 20
6.8197195827
 30
0.0
 10
10.6854919556
 20
6.8243596992
 30
0.0
 10
10.7069465557
 20
6.8300838076
 30
0.0
 10
10.7280408192
 20
6.8368820765
 30
0.0
 10
10.7487231088
 20
6.8447370506
 30
0.0
 10
10.7689422535
 20
6.8536305055
 30
0.0
 10
10.7886467584
 20
6.8635437543
 30
0.0
 10
10.8077886338
 20
6.874450534
 30
0.0
 10
10.8263194125
 20
6.8863257168
 30
0.0
 10
10.8441918077
 20
6.8991413245
 30
0.0
 10
10.8613626585
 20
6.9128635783
 30
0.0
 10
10.8777874489
 20
6.9274604844
 30
0.0
 10
10.893425212
 20
6.9428953232
 30
0.0
 10
10.908238402
 20
6.9591282192
 30
0.0
 10
10.9221879725
 20
6.9761205396
 30
0.0
 10
10.9352408832
 20
6.9938282723
 30
0.0
 10
10.9473657125
 20
7.0122066959
 30
0.0
 10
10.9585306812
 20
7.0312111415
 30
0.0
 10
10.9687112984
 20
7.050792617
 30
0.0
 10
10.9778825659
 20
7.0709028327
 30
0.0
 10
10.9860214458
 20
7.0914920284
 30
0.0
 10
10.9931119119
 20
7.1125075649
 30
0.0
 10
10.9991362765
 20
7.1338980665
 30
0.0
 10
11.004081002
 20
7.1556117377
 30
0.0
 10
11.0079374064
 20
7.1775966854
 30
0.0
 10
11.0106947516
 20
7.1997996627
 30
0.0
 10
11.0123499637
 20
7.2221615108
 30
0.0
 10
11.0127176701
 20
7.2371233651
 30
0.0
 10
11.0127177589
 20
7.2446102364
 30
0.0
  0
SPLINE
  5
2C6
100
AcDbEntity
  8
0
100
AcDbSpline
 62
7
  6
CONTINUOUS
 70
0
 71
3
 72
65
 73
61
 74
0
 42
0.0000001
 43
0.0000001
 44
0.0000000001
 40
0.0
 40
0.0
 40
0.0
 40
0.0
 40
0.0310480609
 40
0.0464649293
 40
0.0618007306
 40
0.0922348384
 40
0.1223994854
 40
0.1373982457
 40
0.1523450303
 40
0.1672467788
 40
0.1821108896
 40
0.1969449801
 40
0.2117572324
 40
0.2265559705
 40
0.2413496115
 40
0.2561467331
 40
0.2709558136
 40
0.2857852993
 40
0.3006433297
 40
0.3155375112
 40
0.3304753141
 40
0.3454636475
 40
0.3605084679
 40
0.3756154841
 40
0.3907897567
 40
0.4060350812
 40
0.4213548941
 40
0.4367520191
 40
0.4522278894
 40
0.4677834902
 40
0.4834192865
 40
0.4991344099
 40
0.5149274995
 40
0.5307967793
 40
0.5467393109
 40
0.5627516699
 40
0.5788301256
 40
0.6111574632
 40
0.6274047439
 40
0.6436971146
 40
0.6600282604
 40
0.676391787
 40
0.7091799709
 40
0.7255990813
 40
0.7420225206
 40
0.7584429769
 40
0.7748532848
 40
0.7912463688
 40
0.8076151029
 40
0.8239526465
 40
0.8402526437
 40
0.8565088432
 40
0.8727152724
 40
0.8888661846
 40
0.9049558761
 40
0.9369254192
 40
0.9528102449
 40
0.9686226826
 40
0.984355545
 40
1.0
 40
1.0
 40
1.0
 40
1.0
 10
10.8727177494
 20
7.2446104972
 30
0.0
 10
10.8727175334
 20
7.2342516331
 30
0.0
 10
10.8719576716
 20
7.2187344077
 30
0.0
 10
10.869413401
 20
7.1982664971
 30
0.0
 10
10.8658789989
 20
7.1781525372
 30
0.0
 10
10.8596115261
 20
7.1535576621
 30
0.0
 10
10.8508975045
 20
7.1298374779
 30
0.0
 10
10.8425377294
 20
7.1115994245
 30
0.0
 10
10.8355994934
 20
7.0983344457
 30
0.0
 10
10.8280006033
 20
7.085489141
 30
0.0
 10
10.8197596932
 20
7.0730909239
 30
0.0
 10
10.8108948911
 20
7.0611680129
 30
0.0
 10
10.8014275144
 20
7.049746037
 30
0.0
 10
10.7913796689
 20
7.0388495248
 30
0.0
 10
10.7807727875
 20
7.028503595
 30
0.0
 10
10.7696309422
 20
7.018730936
 30
0.0
 10
10.7579793837
 20
7.0095526307
 30
0.0
 10
10.7458428301
 20
7.0009906469
 30
0.0
 10
10.7332481395
 20
6.9930647336
 30
0.0
 10
10.720223687
 20
6.9857924594
 30
0.0
 10
10.7067975404
 20
6.979192491
 30
0.0
 10
10.69299952
 20
6.9732814741
 30
0.0
 10
10.6788611292
 20
6.9680730281
 30
0.0
 10
10.6644138063
 20
6.9635819699
 30
0.0
 10
10.6496903959
 20
6.9598213288
 30
0.0
 10
10.6347252903
 20
6.9568001514
 30
0.0
 10
10.6195530377
 20
6.9545286491
 30
0.0
 10
10.6042092732
 20
6.9530155145
 30
0.0
 10
10.5887306987
 20
6.9522645614
 30
0.0
 10
10.5731543216
 20
6.9522806195
 30
0.0
 10
10.5575179603
 20
6.9530672837
 30
0.0
 10
10.5418597273
 20
6.9546226315
 30
0.0
 10
10.526218113
 20
6.956945536
 30
0.0
 10
10.5106321495
 20
6.9600339113
 30
0.0
 10
10.4951404367
 20
6.9638797647
 30
0.0
 10
10.4797812002
 20
6.9684760105
 30
0.0
 10
10.4594991806
 20
6.9756050308
 30
0.0
 10
10.4396675515
 20
6.9841857106
 30
0.0
 10
10.4204453919
 20
6.994142712
 30
0.0
 10
10.4063232919
 20
7.0023051146
 30
0.0
 10
10.3925587573
 20
7.0111290571
 30
0.0
 10
10.3747221957
 20
7.023755613
 30
0.0
 10
10.3577459489
 20
7.0376123501
 30
0.0
 10
10.3417649724
 20
7.0525901788
 30
0.0
 10
10.3302920702
 20
7.0643679813
 30
0.0
 10
10.3193692097
 20
7.0766530787
 30
0.0
 10
10.3090248256
 20
7.0894162233
 30
0.0
 10
10.2992832147
 20
7.1026236706
 30
0.0
 10
10.2901683592
 20
7.1162420648
 30
0.0
 10
10.2817043773
 20
7.1302379965
 30
0.0
 10
10.2739101601
 20
7.144574942
 30
0.0
 10
10.2668043098
 20
7.1592167392
 30
0.0
 10
10.2604057038
 20
7.1741269074
 30
0.0
 10
10.2547271663
 20
7.1892671616
 30
0.0
 10
10.2481480097
 20
7.2096610231
 30
0.0
 10
10.2430372096
 20
7.2304136369
 30
0.0
 10
10.2394468612
 20
7.2513560279
 30
0.0
 10
10.2375258779
 20
7.2670702346
 30
0.0
 10
10.2363720276
 20
7.2827780262
 30
0.0
 10
10.2361135028
 20
7.293248518
 30
0.0
 10
10.2361133849
 20
7.2984681285
 30
0.0
  0
SPLINE
  5
2C7
100
AcDbEntity
  8
0
100
AcDbSpline
 62
7
  6
CONTINUOUS
 70
0
 71
3
 72
69
 73
65
 74
0
 42
0.0000001
 43
0.0000001
 44
0.0000000001
 40
0.0
 40
0.0
 40
0.0
 40
0.0
 40
0.0312903904
 40
0.0470006528
 40
0.0627445756
 40
0.0785223279
 40
0.0943340764
 40
0.110178696
 40
0.1260536366
 40
0.1419560695
 40
0.1578832983
 40
0.1738324715
 40
0.1898005575
 40
0.2217715317
 40
0.2377758121
 40
0.2537849262
 40
0.2697951068
 40
0.2858026717
 40
0.3018039038
 40
0.3177951149
 40
0.3337728137
 40
0.3497335585
 40
0.3656740791
 40
0.3815913812
 40
0.3974825997
 40
0.4133451737
 40
0.4291768584
 40
0.4449756206
 40
0.4607398374
 40
0.4764681958
 40
0.4921596776
 40
0.5078137322
 40
0.5234300822
 40
0.5390088225
 40
0.5545505019
 40
0.5700558957
 40
0.585526204
 40
0.6009629954
 40
0.616368028
 40
0.6317434933
 40
0.6470918197
 40
0.6624156028
 40
0.6777178217
 40
0.6930015504
 40
0.7082700017
 40
0.7235266723
 40
0.7387750315
 40
0.7540186351
 40
0.7692612099
 40
0.784506353
 40
0.7997576804
 40
0.8150188192
 40
0.8302931417
 40
0.8455840027
 40
0.860894753
 40
0.8762284425
 40
0.8915878651
 40
0.9069752245
 40
0.9223923275
 40
0.9378418307
 40
0.9533270851
 40
0.9688506846
 40
0.9844102313
 40
1.0
 40
1.0
 40
1.0
 40
1.0
 10
10.3520244377
 20
8.0824888888
 30
0.0
 10
10.3520242454
 20
8.0975158604
 30
0.0
 10
10.3509106275
 20
8.1201073915
 30
0.0
 10
10.3472488514
 20
8.1500244147
 30
0.0
 10
10.3434085786
 20
8.1723894431
 30
0.0
 10
10.338491963
 20
8.1945915063
 30
0.0
 10
10.3325103111
 20
8.2165809707
 30
0.0
 10
10.3254791502
 20
8.238306554
 30
0.0
 10
10.3174177579
 20
8.2597177876
 30
0.0
 10
10.3083438159
 20
8.2807631637
 30
0.0
 10
10.2982807788
 20
8.3013932955
 30
0.0
 10
10.2872535832
 20
8.3215612738
 30
0.0
 10
10.2712953413
 20
8.3477760716
 30
0.0
 10
10.253516553
 20
8.3728786601
 30
0.0
 10
10.2340595778
 20
8.3966722434
 30
0.0
 10
10.2186482194
 20
8.4138417273
 30
0.0
 10
10.202462173
 20
8.4302841947
 30
0.0
 10
10.1855381188
 20
8.445960695
 30
0.0
 10
10.1679175177
 20
8.460835781
 30
0.0
 10
10.1496405134
 20
8.4748731116
 30
0.0
 10
10.1307497883
 20
8.4880389784
 30
0.0
 10
10.1112906294
 20
8.5003036424
 30
0.0
 10
10.091307338
 20
8.5116358306
 30
0.0
 10
10.0708471155
 20
8.5220087459
 30
0.0
 10
10.0499583606
 20
8.5313983882
 30
0.0
 10
10.0286890072
 20
8.5397794296
 30
0.0
 10
10.0070896671
 20
8.5471325925
 30
0.0
 10
9.9852111144
 20
8.5534398036
 30
0.0
 10
9.9631043106
 20
8.5586826452
 30
0.0
 10
9.9408220736
 20
8.5628496542
 30
0.0
 10
9.9184169362
 20
8.5659288989
 30
0.0
 10
9.895942053
 20
8.5679099504
 30
0.0
 10
9.8734512741
 20
8.5687890992
 30
0.0
 10
9.8509983152
 20
8.5685609841
 30
0.0
 10
9.8286373539
 20
8.5672240769
 30
0.0
 10
9.8064222404
 20
8.5647822289
 30
0.0
 10
9.7844071648
 20
8.5612372749
 30
0.0
 10
9.7626458597
 20
8.5565971599
 30
0.0
 10
9.7411912637
 20
8.5508730529
 30
0.0
 10
9.7200970036
 20
8.5440747855
 30
0.0
 10
9.6994147168
 20
8.5362198139
 30
0.0
 10
9.6791955746
 20
8.5273263603
 30
0.0
 10
9.6594910701
 20
8.5174131132
 30
0.0
 10
9.6403491917
 20
8.5065063342
 30
0.0
 10
9.6218184079
 20
8.4946311468
 30
0.0
 10
9.6039460054
 20
8.4818155325
 30
0.0
 10
9.5867751475
 20
8.4680932737
 30
0.0
 10
9.5703503529
 20
8.4534963667
 30
0.0
 10
9.5547125913
 20
8.4380615284
 30
0.0
 10
9.5398994044
 20
8.4218286331
 30
0.0
 10
9.5259498348
 20
8.4048363124
 30
0.0
 10
9.5128969228
 20
8.3871285766
 30
0.0
 10
9.5007720902
 20
8.3687501487
 30
0.0
 10
9.4896071191
 20
8.349745697
 30
0.0
 10
9.4794265013
 20
8.3301642148
 30
0.0
 10
9.4702552311
 20
8.3100539941
 30
0.0
 10
9.4621163517
 20
8.2894647924
 30
0.0
 10
9.4550258878
 20
8.2684492504
 30
0.0
 10
9.4490015227
 20
8.2470587462
 30
0.0
 10
9.4440568014
 20
8.2253450759
 30
0.0
 10
9.4402004004
 20
8.2033601358
 30
0.0
 10
9.4374430549
 20
8.1811571706
 30
0.0
 10
9.4357878464
 20
8.158795335
 30
0.0
 10
9.4354201413
 20
8.1438334885
 30
0.0
 10
9.4354200526
 20
8.1363466209
 30
0.0
  0
SPLINE
  5
2C8
100
AcDbEntity
  8
0
100
AcDbSpline
 62
7
  6
CONTINUOUS
 70
0
 71
3
 72
65
 73
61
 74
0
 42
0.0000001
 43
0.0000001
 44
0.0000000001
 40
0.0
 40
0.0
 40
0.0
 40
0.0
 40
0.0310480611
 40
0.0464649297
 40
0.061800731
 40
0.0922348386
 40
0.1223994853
 40
0.1373982455
 40
0.1523450299
 40
0.1672467782
 40
0.1821108888
 40
0.1969449792
 40
0.2117572313
 40
0.2265559693
 40
0.2413496102
 40
0.2561467317
 40
0.2709558122
 40
0.285785298
 40
0.3006433284
 40
0.3155375101
 40
0.3304753132
 40
0.3454636469
 40
0.3605084676
 40
0.375615484
 40
0.3907897569
 40
0.4060350815
 40
0.4213548945
 40
0.4367520193
 40
0.4522278892
 40
0.4677834893
 40
0.4834192846
 40
0.4991344067
 40
0.5149274953
 40
0.5307967742
 40
0.5467393053
 40
0.5627516644
 40
0.578830121
 40
0.6111574611
 40
0.6274047431
 40
0.643697115
 40
0.6600282616
 40
0.6763917887
 40
0.7091799725
 40
0.7255990827
 40
0.7420225216
 40
0.7584429775
 40
0.774853285
 40
0.7912463688
 40
0.8076151028
 40
0.8239526467
 40
0.8402526445
 40
0.8565088447
 40
0.8727152748
 40
0.8888661881
 40
0.9049558805
 40
0.9369254242
 40
0.952810249
 40
0.9686226856
 40
0.9843555469
 40
1.0
 40
1.0
 40
1.0
 40
1.0
 10
9.5754200621
 20
8.136346361
 30
0.0
 10
9.5754202781
 20
8.1467052252
 30
0.0
 10
9.57618014
 20
8.1622224507
 30
0.0
 10
9.5787244106
 20
8.1826903614
 30
0.0
 10
9.5822588127
 20
8.2028043214
 30
0.0
 10
9.5885262855
 20
8.2273991964
 30
0.0
 10
9.597240307
 20
8.2511193803
 30
0.0
 10
9.605600082
 20
8.2693574336
 30
0.0
 10
9.6125383179
 20
8.2826224122
 30
0.0
 10
9.6201372079
 20
8.2954677167
 30
0.0
 10
9.6283781179
 20
8.3078659337
 30
0.0
 10
9.6372429199
 20
8.3197888446
 30
0.0
 10
9.6467102964
 20
8.3312108204
 30
0.0
 10
9.6567581418
 20
8.3421073326
 30
0.0
 10
9.6673650231
 20
8.3524532624
 30
0.0
 10
9.6785068683
 20
8.3622259214
 30
0.0
 10
9.6901584268
 20
8.3714042268
 30
0.0
 10
9.7022949804
 20
8.3799662106
 30
0.0
 10
9.714889671
 20
8.387892124
 30
0.0
 10
9.7279141236
 20
8.3951643983
 30
0.0
 10
9.7413402704
 20
8.4017643669
 30
0.0
 10
9.755138291
 20
8.4076753839
 30
0.0
 10
9.7692766821
 20
8.4128838301
 30
0.0
 10
9.7837240052
 20
8.4173748883
 30
0.0
 10
9.7984474158
 20
8.4211355295
 30
0.0
 10
9.8134125215
 20
8.4241567069
 30
0.0
 10
9.8285847742
 20
8.4264282092
 30
0.0
 10
9.8439285385
 20
8.4279413437
 30
0.0
 10
9.8594071126
 20
8.4286922968
 30
0.0
 10
9.874983489
 20
8.4286762388
 30
0.0
 10
9.8906198494
 20
8.4278895747
 30
0.0
 10
9.9062780813
 20
8.4263342272
 30
0.0
 10
9.9219196945
 20
8.4240113228
 30
0.0
 10
9.9375056573
 20
8.420922948
 30
0.0
 10
9.9529973698
 20
8.4170770951
 30
0.0
 10
9.9683566065
 20
8.4124808493
 30
0.0
 10
9.9886386272
 20
8.4053518286
 30
0.0
 10
10.008470258
 20
8.3967711487
 30
0.0
 10
10.027692419
 20
8.3868141464
 30
0.0
 10
10.0418145199
 20
8.3786517433
 30
0.0
 10
10.0555790552
 20
8.3698278004
 30
0.0
 10
10.0734156172
 20
8.3572012443
 30
0.0
 10
10.0903918639
 20
8.3433445069
 30
0.0
 10
10.1063728402
 20
8.3283666784
 30
0.0
 10
10.1178457421
 20
8.3165888761
 30
0.0
 10
10.1287686023
 20
8.304303779
 30
0.0
 10
10.1391129862
 20
8.2915406346
 30
0.0
 10
10.148854597
 20
8.2783331874
 30
0.0
 10
10.1579694525
 20
8.2647147932
 30
0.0
 10
10.1664334345
 20
8.2507188613
 30
0.0
 10
10.1742276518
 20
8.2363819153
 30
0.0
 10
10.1813335025
 20
8.2217401174
 30
0.0
 10
10.1877321088
 20
8.2068299483
 30
0.0
 10
10.1934106463
 20
8.1916896931
 30
0.0
 10
10.199989803
 20
8.1712958307
 30
0.0
 10
10.2051006028
 20
8.1505432166
 30
0.0
 10
10.208690951
 20
8.129600826
 30
0.0
 10
10.2106119342
 20
8.1138866204
 30
0.0
 10
10.2117657841
 20
8.0981788301
 30
0.0
 10
10.2120243087
 20
8.0877083393
 30
0.0
 10
10.2120244266
 20
8.0824887294
 30
0.0
  0
SPLINE
  5
2C9
100
AcDbEntity
  8
0
100
AcDbSpline
 62
7
  6
CONTINUOUS
 70
0
 71
3
 72
69
 73
65
 74
0
 42
0.0000001
 43
0.0000001
 44
0.0000000001
 40
0.0
 40
0.0
 40
0.0
 40
0.0
 40
0.0312903911
 40
0.0470006543
 40
0.0627445771
 40
0.0785223289
 40
0.0943340764
 40
0.1101786947
 40
0.126053634
 40
0.1419560655
 40
0.157883293
 40
0.1738324649
 40
0.1898005499
 40
0.2217715222
 40
0.2377758016
 40
0.253784915
 40
0.2697950952
 40
0.2858026601
 40
0.3018038922
 40
0.3177951034
 40
0.333772802
 40
0.3497335464
 40
0.3656740664
 40
0.3815913678
 40
0.3974825851
 40
0.4133451574
 40
0.4291768396
 40
0.4449755982
 40
0.4607398103
 40
0.4764681644
 40
0.4921596439
 40
0.5078136996
 40
0.5234300536
 40
0.5390088005
 40
0.5545504881
 40
0.5700558896
 40
0.5855262037
 40
0.6009629988
 40
0.6163680341
 40
0.631743502
 40
0.6470918309
 40
0.6624156163
 40
0.6777178363
 40
0.6930015641
 40
0.7082700105
 40
0.7235266729
 40
0.7387750246
 40
0.7540186258
 40
0.7692612029
 40
0.7845063491
 40
0.7997576767
 40
0.8150188128
 40
0.8302931311
 40
0.8455839876
 40
0.8608947335
 40
0.876228419
 40
0.8915878381
 40
0.906975194
 40
0.9223922944
 40
0.9378417982
 40
0.9533270585
 40
0.9688506682
 40
0.9844102238
 40
1.0
 40
1.0
 40
1.0
 40
1.0
 10
9.4354200548
 20
8.1363464245
 30
0.0
 10
9.4354202471
 20
8.1213194525
 30
0.0
 10
9.4365338652
 20
8.0987279208
 30
0.0
 10
9.4401956412
 20
8.0688108968
 30
0.0
 10
9.4440359141
 20
8.0464458683
 30
0.0
 10
9.4489525297
 20
8.0242438059
 30
0.0
 10
9.4549341813
 20
8.0022543428
 30
0.0
 10
9.4619653414
 20
7.9805287611
 30
0.0
 10
9.470026733
 20
7.9591175292
 30
0.0
 10
9.4791006742
 20
7.9380721549
 30
0.0
 10
9.4891637098
 20
7.9174420246
 30
0.0
 10
9.5001909044
 20
7.8972740478
 30
0.0
 10
9.5161491448
 20
7.8710592514
 30
0.0
 10
9.5339279313
 20
7.8459566639
 30
0.0
 10
9.5533849048
 20
7.8221630815
 30
0.0
 10
9.5687962615
 20
7.8049935974
 30
0.0
 10
9.5849823076
 20
7.7885511304
 30
0.0
 10
9.601906361
 20
7.7728746295
 30
0.0
 10
9.6195269612
 20
7.7579995425
 30
0.0
 10
9.6378039654
 20
7.7439622119
 30
0.0
 10
9.6566946896
 20
7.7307963443
 30
0.0
 10
9.6761538474
 20
7.7185316797
 30
0.0
 10
9.6961371381
 20
7.7071994918
 30
0.0
 10
9.7165973587
 20
7.6968265757
 30
0.0
 10
9.7374861117
 20
7.6874369331
 30
0.0
 10
9.7587554626
 20
7.6790558925
 30
0.0
 10
9.7803547984
 20
7.6717027286
 30
0.0
 10
9.8022333459
 20
7.6653955182
 30
0.0
 10
9.8243401434
 20
7.6601526763
 30
0.0
 10
9.8466223743
 20
7.6559856645
 30
0.0
 10
9.8690275091
 20
7.6529064205
 30
0.0
 10
9.8915023934
 20
7.6509253664
 30
0.0
 10
9.9139931777
 20
7.6500462132
 30
0.0
 10
9.9364461456
 20
7.6502743288
 30
0.0
 10
9.9588071178
 20
7.6516112354
 30
0.0
 10
9.9810222418
 20
7.6540530826
 30
0.0
 10
10.0030373257
 20
7.6575980376
 30
0.0
 10
10.0247986365
 20
7.6622381541
 30
0.0
 10
10.0462532366
 20
7.6679622625
 30
0.0
 10
10.0673475002
 20
7.6747605314
 30
0.0
 10
10.0880297898
 20
7.6826155055
 30
0.0
 10
10.1082489345
 20
7.6915089603
 30
0.0
 10
10.1279534393
 20
7.7014222092
 30
0.0
 10
10.1470953147
 20
7.7123289889
 30
0.0
 10
10.1656260935
 20
7.7242041717
 30
0.0
 10
10.1834984886
 20
7.7370197794
 30
0.0
 10
10.2006693394
 20
7.7507420332
 30
0.0
 10
10.2170941299
 20
7.7653389393
 30
0.0
 10
10.232731893
 20
7.7807737781
 30
0.0
 10
10.2475450829
 20
7.7970066741
 30
0.0
 10
10.2614946535
 20
7.8139989945
 30
0.0
 10
10.2745475641
 20
7.8317067272
 30
0.0
 10
10.2866723934
 20
7.8500851508
 30
0.0
 10
10.2978373621
 20
7.8690895964
 30
0.0
 10
10.3080179794
 20
7.8886710719
 30
0.0
 10
10.3171892468
 20
7.9087812875
 30
0.0
 10
10.3253281267
 20
7.9293704833
 30
0.0
 10
10.3324185929
 20
7.9503860198
 30
0.0
 10
10.3384429575
 20
7.9717765214
 30
0.0
 10
10.3433876829
 20
7.9934901926
 30
0.0
 10
10.3472440874
 20
8.0154751403
 30
0.0
 10
10.3500014326
 20
8.0376781176
 30
0.0
 10
10.3516566446
 20
8.0600399657
 30
0.0
 10
10.352024351
 20
8.07500182
 30
0.0
 10
10.3520244398
 20
8.0824886913
 30
0.0
  0
SPLINE
  5
2CA
100
AcDbEntity
  8
0
100
AcDbSpline
 62
7
  6
CONTINUOUS
 70
0
 71
3
 72
65
 73
61
 74
0
 42
0.0000001
 43
0.0000001
 44
0.0000000001
 40
0.0
 40
0.0
 40
0.0
 40
0.0
 40
0.0310480609
 40
0.0464649293
 40
0.0618007306
 40
0.0922348384
 40
0.1223994854
 40
0.1373982457
 40
0.1523450303
 40
0.1672467788
 40
0.1821108896
 40
0.1969449801
 40
0.2117572324
 40
0.2265559705
 40
0.2413496115
 40
0.2561467331
 40
0.2709558136
 40
0.2857852993
 40
0.3006433297
 40
0.3155375112
 40
0.3304753141
 40
0.3454636475
 40
0.3605084679
 40
0.3756154841
 40
0.3907897567
 40
0.4060350812
 40
0.4213548941
 40
0.4367520191
 40
0.4522278894
 40
0.4677834902
 40
0.4834192865
 40
0.4991344099
 40
0.5149274995
 40
0.5307967793
 40
0.5467393109
 40
0.5627516699
 40
0.5788301256
 40
0.6111574632
 40
0.6274047439
 40
0.6436971146
 40
0.6600282604
 40
0.676391787
 40
0.7091799709
 40
0.7255990813
 40
0.7420225206
 40
0.7584429769
 40
0.7748532848
 40
0.7912463688
 40
0.8076151029
 40
0.8239526465
 40
0.8402526437
 40
0.8565088432
 40
0.8727152724
 40
0.8888661846
 40
0.9049558761
 40
0.9369254192
 40
0.9528102449
 40
0.9686226826
 40
0.984355545
 40
1.0
 40
1.0
 40
1.0
 40
1.0
 10
10.2120244303
 20
8.0824889521
 30
0.0
 10
10.2120242143
 20
8.072130088
 30
0.0
 10
10.2112643525
 20
8.0566128626
 30
0.0
 10
10.2087200819
 20
8.036144952
 30
0.0
 10
10.2051856798
 20
8.016030992
 30
0.0
 10
10.1989182071
 20
7.9914361169
 30
0.0
 10
10.1902041854
 20
7.9677159328
 30
0.0
 10
10.1818444103
 20
7.9494778793
 30
0.0
 10
10.1749061744
 20
7.9362129006
 30
0.0
 10
10.1673072842
 20
7.9233675959
 30
0.0
 10
10.1590663741
 20
7.9109693788
 30
0.0
 10
10.150201572
 20
7.8990464678
 30
0.0
 10
10.1407341954
 20
7.8876244919
 30
0.0
 10
10.1306863498
 20
7.8767279796
 30
0.0
 10
10.1200794685
 20
7.8663820498
 30
0.0
 10
10.1089376231
 20
7.8566093909
 30
0.0
 10
10.0972860646
 20
7.8474310856
 30
0.0
 10
10.085149511
 20
7.8388691017
 30
0.0
 10
10.0725548204
 20
7.8309431885
 30
0.0
 10
10.0595303679
 20
7.8236709143
 30
0.0
 10
10.0461042213
 20
7.8170709459
 30
0.0
 10
10.032306201
 20
7.811159929
 30
0.0
 10
10.0181678102
 20
7.805951483
 30
0.0
 10
10.0037204872
 20
7.8014604248
 30
0.0
 10
9.9889970769
 20
7.7976997837
 30
0.0
 10
9.9740319713
 20
7.7946786063
 30
0.0
 10
9.9588597186
 20
7.792407104
 30
0.0
 10
9.9435159541
 20
7.7908939694
 30
0.0
 10
9.9280373797
 20
7.7901430163
 30
0.0
 10
9.9124610025
 20
7.7901590743
 30
0.0
 10
9.8968246412
 20
7.7909457386
 30
0.0
 10
9.8811664082
 20
7.7925010864
 30
0.0
 10
9.865524794
 20
7.7948239909
 30
0.0
 10
9.8499388304
 20
7.7979123662
 30
0.0
 10
9.8344471176
 20
7.8017582196
 30
0.0
 10
9.8190878811
 20
7.8063544654
 30
0.0
 10
9.7988058616
 20
7.8134834857
 30
0.0
 10
9.7789742324
 20
7.8220641655
 30
0.0
 10
9.7597520729
 20
7.8320211669
 30
0.0
 10
9.7456299728
 20
7.8401835695
 30
0.0
 10
9.7318654383
 20
7.849007512
 30
0.0
 10
9.7140288766
 20
7.8616340679
 30
0.0
 10
9.6970526299
 20
7.875490805
 30
0.0
 10
9.6810716534
 20
7.8904686337
 30
0.0
 10
9.6695987512
 20
7.9022464362
 30
0.0
 10
9.6586758906
 20
7.9145315335
 30
0.0
 10
9.6483315065
 20
7.9272946782
 30
0.0
 10
9.6385898956
 20
7.9405021255
 30
0.0
 10
9.6294750401
 20
7.9541205197
 30
0.0
 10
9.6210110582
 20
7.9681164514
 30
0.0
 10
9.613216841
 20
7.9824533968
 30
0.0
 10
9.6061109907
 20
7.9970951941
 30
0.0
 10
9.5997123847
 20
8.0120053623
 30
0.0
 10
9.5940338472
 20
8.0271456164
 30
0.0
 10
9.5874546907
 20
8.047539478
 30
0.0
 10
9.5823438905
 20
8.0682920918
 30
0.0
 10
9.5787535421
 20
8.0892344828
 30
0.0
 10
9.5768325588
 20
8.1049486895
 30
0.0
 10
9.5756787085
 20
8.1206564811
 30
0.0
 10
9.5754201838
 20
8.1311269729
 30
0.0
 10
9.5754200658
 20
8.1363465834
 30
0.0
  0
SPLINE
  5
2CB
100
AcDbEntity
  8
0
100
AcDbSpline
 62
7
  6
CONTINUOUS
 70
0
 71
3
 72
69
 73
65
 74
0
 42
0.0000001
 43
0.0000001
 44
0.0000000001
 40
0.0
 40
0.0
 40
0.0
 40
0.0
 40
0.0312903904
 40
0.0470006528
 40
0.0627445756
 40
0.0785223279
 40
0.0943340764
 40
0.110178696
 40
0.1260536366
 40
0.1419560695
 40
0.1578832983
 40
0.1738324715
 40
0.1898005575
 40
0.2217715317
 40
0.2377758121
 40
0.2537849262
 40
0.2697951068
 40
0.2858026717
 40
0.3018039038
 40
0.3177951149
 40
0.3337728137
 40
0.3497335585
 40
0.3656740791
 40
0.3815913812
 40
0.3974825997
 40
0.4133451737
 40
0.4291768584
 40
0.4449756206
 40
0.4607398374
 40
0.4764681958
 40
0.4921596776
 40
0.5078137322
 40
0.5234300822
 40
0.5390088225
 40
0.5545505019
 40
0.5700558957
 40
0.585526204
 40
0.6009629954
 40
0.616368028
 40
0.6317434933
 40
0.6470918197
 40
0.6624156028
 40
0.6777178217
 40
0.6930015504
 40
0.7082700017
 40
0.7235266723
 40
0.7387750315
 40
0.7540186351
 40
0.7692612099
 40
0.784506353
 40
0.7997576804
 40
0.8150188192
 40
0.8302931417
 40
0.8455840027
 40
0.860894753
 40
0.8762284425
 40
0.8915878651
 40
0.9069752245
 40
0.9223923275
 40
0.9378418307
 40
0.9533270851
 40
0.9688506846
 40
0.9844102313
 40
1.0
 40
1.0
 40
1.0
 40
1.0
 10
11.6830703254
 20
7.9901805429
 30
0.0
 10
11.6830701332
 20
8.0052075146
 30
0.0
 10
11.6819565153
 20
8.0277990456
 30
0.0
 10
11.6782947391
 20
8.0577160688
 30
0.0
 10
11.6744544663
 20
8.0800810973
 30
0.0
 10
11.6695378508
 20
8.1022831604
 30
0.0
 10
11.6635561988
 20
8.1242726249
 30
0.0
 10
11.656525038
 20
8.1459982081
 30
0.0
 10
11.6484636456
 20
8.1674094417
 30
0.0
 10
11.6393897036
 20
8.1884548179
 30
0.0
 10
11.6293266666
 20
8.2090849497
 30
0.0
 10
11.618299471
 20
8.2292529279
 30
0.0
 10
11.602341229
 20
8.2554677258
 30
0.0
 10
11.5845624407
 20
8.2805703143
 30
0.0
 10
11.5651054656
 20
8.3043638976
 30
0.0
 10
11.5496941072
 20
8.3215333814
 30
0.0
 10
11.5335080607
 20
8.3379758488
 30
0.0
 10
11.5165840065
 20
8.3536523492
 30
0.0
 10
11.4989634054
 20
8.3685274352
 30
0.0
 10
11.4806864012
 20
8.3825647658
 30
0.0
 10
11.4617956761
 20
8.3957306326
 30
0.0
 10
11.4423365172
 20
8.4079952965
 30
0.0
 10
11.4223532258
 20
8.4193274848
 30
0.0
 10
11.4018930033
 20
8.4297004
 30
0.0
 10
11.3810042483
 20
8.4390900424
 30
0.0
 10
11.3597348949
 20
8.4474710837
 30
0.0
 10
11.3381355548
 20
8.4548242466
 30
0.0
 10
11.3162570022
 20
8.4611314577
 30
0.0
 10
11.2941501983
 20
8.4663742993
 30
0.0
 10
11.2718679614
 20
8.4705413083
 30
0.0
 10
11.249462824
 20
8.4736205531
 30
0.0
 10
11.2269879408
 20
8.4756016046
 30
0.0
 10
11.2044971619
 20
8.4764807534
 30
0.0
 10
11.182044203
 20
8.4762526383
 30
0.0
 10
11.1596832416
 20
8.474915731
 30
0.0
 10
11.1374681282
 20
8.4724738831
 30
0.0
 10
11.1154530526
 20
8.4689289291
 30
0.0
 10
11.0936917474
 20
8.4642888141
 30
0.0
 10
11.0722371514
 20
8.4585647071
 30
0.0
 10
11.0511428913
 20
8.4517664397
 30
0.0
 10
11.0304606045
 20
8.4439114681
 30
0.0
 10
11.0102414623
 20
8.4350180144
 30
0.0
 10
10.9905369579
 20
8.4251047674
 30
0.0
 10
10.9713950795
 20
8.4141979884
 30
0.0
 10
10.9528642956
 20
8.402322801
 30
0.0
 10
10.9349918932
 20
8.3895071867
 30
0.0
 10
10.9178210352
 20
8.3757849279
 30
0.0
 10
10.9013962407
 20
8.3611880209
 30
0.0
 10
10.885758479
 20
8.3457531825
 30
0.0
 10
10.8709452922
 20
8.3295202873
 30
0.0
 10
10.8569957225
 20
8.3125279665
 30
0.0
 10
10.8439428106
 20
8.2948202308
 30
0.0
 10
10.8318179779
 20
8.2764418028
 30
0.0
 10
10.8206530069
 20
8.2574373512
 30
0.0
 10
10.8104723891
 20
8.2378558689
 30
0.0
 10
10.8013011189
 20
8.2177456483
 30
0.0
 10
10.7931622395
 20
8.1971564466
 30
0.0
 10
10.7860717756
 20
8.1761409045
 30
0.0
 10
10.7800474105
 20
8.1547504003
 30
0.0
 10
10.7751026892
 20
8.13303673
 30
0.0
 10
10.7712462882
 20
8.1110517899
 30
0.0
 10
10.7684889427
 20
8.0888488247
 30
0.0
 10
10.7668337341
 20
8.0664869891
 30
0.0
 10
10.7664660291
 20
8.0515251427
 30
0.0
 10
10.7664659403
 20
8.044038275
 30
0.0
  0
SPLINE
  5
2CC
100
AcDbEntity
  8
0
100
AcDbSpline
 62
7
  6
CONTINUOUS
 70
0
 71
3
 72
65
 73
61
 74
0
 42
0.0000001
 43
0.0000001
 44
0.0000000001
 40
0.0
 40
0.0
 40
0.0
 40
0.0
 40
0.0310480611
 40
0.0464649297
 40
0.061800731
 40
0.0922348386
 40
0.1223994853
 40
0.1373982455
 40
0.1523450299
 40
0.1672467782
 40
0.1821108888
 40
0.1969449792
 40
0.2117572313
 40
0.2265559693
 40
0.2413496102
 40
0.2561467317
 40
0.2709558122
 40
0.285785298
 40
0.3006433284
 40
0.3155375101
 40
0.3304753132
 40
0.3454636469
 40
0.3605084676
 40
0.375615484
 40
0.3907897569
 40
0.4060350815
 40
0.4213548945
 40
0.4367520193
 40
0.4522278892
 40
0.4677834893
 40
0.4834192846
 40
0.4991344067
 40
0.5149274953
 40
0.5307967742
 40
0.5467393053
 40
0.5627516644
 40
0.578830121
 40
0.6111574611
 40
0.6274047431
 40
0.643697115
 40
0.6600282616
 40
0.6763917887
 40
0.7091799725
 40
0.7255990827
 40
0.7420225216
 40
0.7584429775
 40
0.774853285
 40
0.7912463688
 40
0.8076151028
 40
0.8239526467
 40
0.8402526445
 40
0.8565088447
 40
0.8727152748
 40
0.8888661881
 40
0.9049558805
 40
0.9369254242
 40
0.952810249
 40
0.9686226856
 40
0.9843555469
 40
1.0
 40
1.0
 40
1.0
 40
1.0
 10
10.9064659499
 20
8.0440380152
 30
0.0
 10
10.9064661659
 20
8.0543968793
 30
0.0
 10
10.9072260278
 20
8.0699141049
 30
0.0
 10
10.9097702983
 20
8.0903820156
 30
0.0
 10
10.9133047004
 20
8.1104959756
 30
0.0
 10
10.9195721732
 20
8.1350908505
 30
0.0
 10
10.9282861948
 20
8.1588110345
 30
0.0
 10
10.9366459698
 20
8.1770490877
 30
0.0
 10
10.9435842056
 20
8.1903140664
 30
0.0
 10
10.9511830957
 20
8.2031593709
 30
0.0
 10
10.9594240056
 20
8.2155575879
 30
0.0
 10
10.9682888076
 20
8.2274804988
 30
0.0
 10
10.9777561841
 20
8.2389024746
 30
0.0
 10
10.9878040296
 20
8.2497989868
 30
0.0
 10
10.9984109108
 20
8.2601449166
 30
0.0
 10
11.009552756
 20
8.2699175756
 30
0.0
 10
11.0212043145
 20
8.279095881
 30
0.0
 10
11.0333408682
 20
8.2876578648
 30
0.0
 10
11.0459355588
 20
8.2955837782
 30
0.0
 10
11.0589600114
 20
8.3028560525
 30
0.0
 10
11.0723861582
 20
8.3094560211
 30
0.0
 10
11.0861841788
 20
8.3153670381
 30
0.0
 10
11.1003225698
 20
8.3205754842
 30
0.0
 10
11.114769893
 20
8.3250665425
 30
0.0
 10
11.1294933036
 20
8.3288271836
 30
0.0
 10
11.1444584093
 20
8.3318483611
 30
0.0
 10
11.159630662
 20
8.3341198634
 30
0.0
 10
11.1749744263
 20
8.3356329979
 30
0.0
 10
11.1904530004
 20
8.3363839509
 30
0.0
 10
11.2060293768
 20
8.3363678929
 30
0.0
 10
11.2216657371
 20
8.3355812289
 30
0.0
 10
11.2373239691
 20
8.3340258814
 30
0.0
 10
11.2529655823
 20
8.331702977
 30
0.0
 10
11.2685515451
 20
8.3286146021
 30
0.0
 10
11.2840432576
 20
8.3247687492
 30
0.0
 10
11.2994024943
 20
8.3201725034
 30
0.0
 10
11.3196845149
 20
8.3130434828
 30
0.0
 10
11.3395161457
 20
8.3044628029
 30
0.0
 10
11.3587383067
 20
8.2945058006
 30
0.0
 10
11.3728604077
 20
8.2863433975
 30
0.0
 10
11.386624943
 20
8.2775194546
 30
0.0
 10
11.404461505
 20
8.2648928984
 30
0.0
 10
11.4214377516
 20
8.2510361611
 30
0.0
 10
11.437418728
 20
8.2360583326
 30
0.0
 10
11.4488916298
 20
8.2242805302
 30
0.0
 10
11.4598144901
 20
8.2119954331
 30
0.0
 10
11.470158874
 20
8.1992322888
 30
0.0
 10
11.4799004847
 20
8.1860248416
 30
0.0
 10
11.4890153402
 20
8.1724064474
 30
0.0
 10
11.4974793222
 20
8.1584105154
 30
0.0
 10
11.5052735396
 20
8.1440735695
 30
0.0
 10
11.5123793903
 20
8.1294317715
 30
0.0
 10
11.5187779965
 20
8.1145216024
 30
0.0
 10
11.5244565341
 20
8.0993813473
 30
0.0
 10
11.5310356908
 20
8.0789874849
 30
0.0
 10
11.5361464906
 20
8.0582348708
 30
0.0
 10
11.5397368387
 20
8.0372924802
 30
0.0
 10
11.541657822
 20
8.0215782745
 30
0.0
 10
11.5428116718
 20
8.0058704842
 30
0.0
 10
11.5430701965
 20
7.9953999934
 30
0.0
 10
11.5430703144
 20
7.9901803836
 30
0.0
  0
SPLINE
  5
2CD
100
AcDbEntity
  8
0
100
AcDbSpline
 62
7
  6
CONTINUOUS
 70
0
 71
3
 72
69
 73
65
 74
0
 42
0.0000001
 43
0.0000001
 44
0.0000000001
 40
0.0
 40
0.0
 40
0.0
 40
0.0
 40
0.0312903911
 40
0.0470006543
 40
0.0627445771
 40
0.0785223289
 40
0.0943340764
 40
0.1101786947
 40
0.126053634
 40
0.1419560655
 40
0.157883293
 40
0.1738324649
 40
0.1898005499
 40
0.2217715222
 40
0.2377758016
 40
0.253784915
 40
0.2697950952
 40
0.2858026601
 40
0.3018038922
 40
0.3177951034
 40
0.333772802
 40
0.3497335464
 40
0.3656740664
 40
0.3815913678
 40
0.3974825851
 40
0.4133451574
 40
0.4291768396
 40
0.4449755982
 40
0.4607398103
 40
0.4764681644
 40
0.4921596439
 40
0.5078136996
 40
0.5234300536
 40
0.5390088005
 40
0.5545504881
 40
0.5700558896
 40
0.5855262037
 40
0.6009629988
 40
0.6163680341
 40
0.631743502
 40
0.6470918309
 40
0.6624156163
 40
0.6777178363
 40
0.6930015641
 40
0.7082700105
 40
0.7235266729
 40
0.7387750246
 40
0.7540186258
 40
0.7692612029
 40
0.7845063491
 40
0.7997576767
 40
0.8150188128
 40
0.8302931311
 40
0.8455839876
 40
0.8608947335
 40
0.876228419
 40
0.8915878381
 40
0.906975194
 40
0.9223922944
 40
0.9378417982
 40
0.9533270585
 40
0.9688506682
 40
0.9844102238
 40
1.0
 40
1.0
 40
1.0
 40
1.0
 10
10.7664659425
 20
8.0440380786
 30
0.0
 10
10.7664661348
 20
8.0290111066
 30
0.0
 10
10.767579753
 20
8.006419575
 30
0.0
 10
10.771241529
 20
7.976502551
 30
0.0
 10
10.7750818019
 20
7.9541375225
 30
0.0
 10
10.7799984175
 20
7.9319354601
 30
0.0
 10
10.785980069
 20
7.9099459969
 30
0.0
 10
10.7930112292
 20
7.8882204153
 30
0.0
 10
10.8010726208
 20
7.8668091834
 30
0.0
 10
10.8101465619
 20
7.8457638091
 30
0.0
 10
10.8202095976
 20
7.8251336787
 30
0.0
 10
10.8312367921
 20
7.8049657019
 30
0.0
 10
10.8471950326
 20
7.7787509056
 30
0.0
 10
10.864973819
 20
7.753648318
 30
0.0
 10
10.8844307926
 20
7.7298547356
 30
0.0
 10
10.8998421493
 20
7.7126852516
 30
0.0
 10
10.9160281953
 20
7.6962427846
 30
0.0
 10
10.9329522487
 20
7.6805662837
 30
0.0
 10
10.950572849
 20
7.6656911966
 30
0.0
 10
10.9688498531
 20
7.6516538661
 30
0.0
 10
10.9877405773
 20
7.6384879984
 30
0.0
 10
11.0071997352
 20
7.6262233338
 30
0.0
 10
11.0271830258
 20
7.614891146
 30
0.0
 10
11.0476432465
 20
7.6045182298
 30
0.0
 10
11.0685319994
 20
7.5951285873
 30
0.0
 10
11.0898013504
 20
7.5867475466
 30
0.0
 10
11.1114006862
 20
7.5793943828
 30
0.0
 10
11.1332792337
 20
7.5730871724
 30
0.0
 10
11.1553860311
 20
7.5678443304
 30
0.0
 10
11.177668262
 20
7.5636773186
 30
0.0
 10
11.2000733968
 20
7.5605980747
 30
0.0
 10
11.2225482811
 20
7.5586170205
 30
0.0
 10
11.2450390655
 20
7.5577378673
 30
0.0
 10
11.2674920334
 20
7.557965983
 30
0.0
 10
11.2898530056
 20
7.5593028895
 30
0.0
 10
11.3120681296
 20
7.5617447368
 30
0.0
 10
11.3340832135
 20
7.5652896918
 30
0.0
 10
11.3558445243
 20
7.5699298082
 30
0.0
 10
11.3772991243
 20
7.5756539167
 30
0.0
 10
11.3983933879
 20
7.5824521855
 30
0.0
 10
11.4190756775
 20
7.5903071596
 30
0.0
 10
11.4392948222
 20
7.5992006145
 30
0.0
 10
11.4589993271
 20
7.6091138633
 30
0.0
 10
11.4781412025
 20
7.6200206431
 30
0.0
 10
11.4966719812
 20
7.6318958258
 30
0.0
 10
11.5145443763
 20
7.6447114335
 30
0.0
 10
11.5317152272
 20
7.6584336874
 30
0.0
 10
11.5481400176
 20
7.6730305935
 30
0.0
 10
11.5637777807
 20
7.6884654322
 30
0.0
 10
11.5785909707
 20
7.7046983283
 30
0.0
 10
11.5925405412
 20
7.7216906487
 30
0.0
 10
11.6055934519
 20
7.7393983814
 30
0.0
 10
11.6177182812
 20
7.757776805
 30
0.0
 10
11.6288832499
 20
7.7767812506
 30
0.0
 10
11.6390638671
 20
7.7963627261
 30
0.0
 10
11.6482351346
 20
7.8164729417
 30
0.0
 10
11.6563740145
 20
7.8370621374
 30
0.0
 10
11.6634644806
 20
7.858077674
 30
0.0
 10
11.6694888452
 20
7.8794681756
 30
0.0
 10
11.6744335706
 20
7.9011818468
 30
0.0
 10
11.6782899751
 20
7.9231667945
 30
0.0
 10
11.6810473203
 20
7.9453697718
 30
0.0
 10
11.6827025324
 20
7.9677316198
 30
0.0
 10
11.6830702388
 20
7.9826934742
 30
0.0
 10
11.6830703276
 20
7.9901803454
 30
0.0
  0
SPLINE
  5
2CE
100
AcDbEntity
  8
0
100
AcDbSpline
 62
7
  6
CONTINUOUS
 70
0
 71
3
 72
65
 73
61
 74
0
 42
0.0000001
 43
0.0000001
 44
0.0000000001
 40
0.0
 40
0.0
 40
0.0
 40
0.0
 40
0.0310480609
 40
0.0464649293
 40
0.0618007306
 40
0.0922348384
 40
0.1223994854
 40
0.1373982457
 40
0.1523450303
 40
0.1672467788
 40
0.1821108896
 40
0.1969449801
 40
0.2117572324
 40
0.2265559705
 40
0.2413496115
 40
0.2561467331
 40
0.2709558136
 40
0.2857852993
 40
0.3006433297
 40
0.3155375112
 40
0.3304753141
 40
0.3454636475
 40
0.3605084679
 40
0.3756154841
 40
0.3907897567
 40
0.4060350812
 40
0.4213548941
 40
0.4367520191
 40
0.4522278894
 40
0.4677834902
 40
0.4834192865
 40
0.4991344099
 40
0.5149274995
 40
0.5307967793
 40
0.5467393109
 40
0.5627516699
 40
0.5788301256
 40
0.6111574632
 40
0.6274047439
 40
0.6436971146
 40
0.6600282604
 40
0.676391787
 40
0.7091799709
 40
0.7255990813
 40
0.7420225206
 40
0.7584429769
 40
0.7748532848
 40
0.7912463688
 40
0.8076151029
 40
0.8239526465
 40
0.8402526437
 40
0.8565088432
 40
0.8727152724
 40
0.8888661846
 40
0.9049558761
 40
0.9369254192
 40
0.9528102449
 40
0.9686226826
 40
0.984355545
 40
1.0
 40
1.0
 40
1.0
 40
1.0
 10
11.5430703181
 20
7.9901806062
 30
0.0
 10
11.5430701021
 20
7.9798217421
 30
0.0
 10
11.5423102402
 20
7.9643045167
 30
0.0
 10
11.5397659697
 20
7.9438366061
 30
0.0
 10
11.5362315676
 20
7.9237226462
 30
0.0
 10
11.5299640948
 20
7.8991277711
 30
0.0
 10
11.5212500732
 20
7.8754075869
 30
0.0
 10
11.5128902981
 20
7.8571695335
 30
0.0
 10
11.5059520621
 20
7.8439045547
 30
0.0
 10
11.498353172
 20
7.8310592501
 30
0.0
 10
11.4901122619
 20
7.8186610329
 30
0.0
 10
11.4812474598
 20
7.8067381219
 30
0.0
 10
11.4717800831
 20
7.7953161461
 30
0.0
 10
11.4617322376
 20
7.7844196338
 30
0.0
 10
11.4511253562
 20
7.774073704
 30
0.0
 10
11.4399835109
 20
7.764301045
 30
0.0
 10
11.4283319524
 20
7.7551227397
 30
0.0
 10
11.4161953987
 20
7.7465607559
 30
0.0
 10
11.4036007081
 20
7.7386348426
 30
0.0
 10
11.3905762557
 20
7.7313625685
 30
0.0
 10
11.3771501091
 20
7.7247626
 30
0.0
 10
11.3633520887
 20
7.7188515831
 30
0.0
 10
11.3492136979
 20
7.7136431371
 30
0.0
 10
11.334766375
 20
7.709152079
 30
0.0
 10
11.3200429646
 20
7.7053914379
 30
0.0
 10
11.305077859
 20
7.7023702604
 30
0.0
 10
11.2899056064
 20
7.7000987581
 30
0.0
 10
11.2745618419
 20
7.6985856235
 30
0.0
 10
11.2590832674
 20
7.6978346705
 30
0.0
 10
11.2435068903
 20
7.6978507285
 30
0.0
 10
11.227870529
 20
7.6986373928
 30
0.0
 10
11.212212296
 20
7.7001927406
 30
0.0
 10
11.1965706817
 20
7.7025156451
 30
0.0
 10
11.1809847181
 20
7.7056040203
 30
0.0
 10
11.1654930054
 20
7.7094498738
 30
0.0
 10
11.1501337689
 20
7.7140461195
 30
0.0
 10
11.1298517493
 20
7.7211751399
 30
0.0
 10
11.1100201202
 20
7.7297558197
 30
0.0
 10
11.0907979606
 20
7.7397128211
 30
0.0
 10
11.0766758606
 20
7.7478752237
 30
0.0
 10
11.062911326
 20
7.7566991662
 30
0.0
 10
11.0450747644
 20
7.769325722
 30
0.0
 10
11.0280985176
 20
7.7831824592
 30
0.0
 10
11.0121175411
 20
7.7981602878
 30
0.0
 10
11.0006446389
 20
7.8099380903
 30
0.0
 10
10.9897217784
 20
7.8222231877
 30
0.0
 10
10.9793773943
 20
7.8349863323
 30
0.0
 10
10.9696357834
 20
7.8481937797
 30
0.0
 10
10.9605209279
 20
7.8618121739
 30
0.0
 10
10.952056946
 20
7.8758081056
 30
0.0
 10
10.9442627288
 20
7.890145051
 30
0.0
 10
10.9371568785
 20
7.9047868483
 30
0.0
 10
10.9307582725
 20
7.9196970165
 30
0.0
 10
10.925079735
 20
7.9348372706
 30
0.0
 10
10.9185005784
 20
7.9552311321
 30
0.0
 10
10.9133897783
 20
7.9759837459
 30
0.0
 10
10.9097994299
 20
7.996926137
 30
0.0
 10
10.9078784466
 20
8.0126403436
 30
0.0
 10
10.9067245963
 20
8.0283481353
 30
0.0
 10
10.9064660715
 20
8.0388186271
 30
0.0
 10
10.9064659536
 20
8.0440382375
 30
0.0
  0
SPLINE
  5
2CF
100
AcDbEntity
  8
0
100
AcDbSpline
 62
7
  6
CONTINUOUS
 70
0
 71
3
 72
69
 73
65
 74
0
 42
0.0000001
 43
0.0000001
 44
0.0000000001
 40
0.0
 40
0.0
 40
0.0
 40
0.0
 40
0.0312903904
 40
0.0470006528
 40
0.0627445756
 40
0.0785223279
 40
0.0943340764
 40
0.110178696
 40
0.1260536366
 40
0.1419560695
 40
0.1578832983
 40
0.1738324715
 40
0.1898005575
 40
0.2217715317
 40
0.2377758121
 40
0.2537849262
 40
0.2697951068
 40
0.2858026717
 40
0.3018039038
 40
0.3177951149
 40
0.3337728137
 40
0.3497335585
 40
0.3656740791
 40
0.3815913812
 40
0.3974825997
 40
0.4133451737
 40
0.4291768584
 40
0.4449756206
 40
0.4607398374
 40
0.4764681958
 40
0.4921596776
 40
0.5078137322
 40
0.5234300822
 40
0.5390088225
 40
0.5545505019
 40
0.5700558957
 40
0.585526204
 40
0.6009629954
 40
0.616368028
 40
0.6317434933
 40
0.6470918197
 40
0.6624156028
 40
0.6777178217
 40
0.6930015504
 40
0.7082700017
 40
0.7235266723
 40
0.7387750315
 40
0.7540186351
 40
0.7692612099
 40
0.784506353
 40
0.7997576804
 40
0.8150188192
 40
0.8302931417
 40
0.8455840027
 40
0.860894753
 40
0.8762284425
 40
0.8915878651
 40
0.9069752245
 40
0.9223923275
 40
0.9378418307
 40
0.9533270851
 40
0.9688506846
 40
0.9844102313
 40
1.0
 40
1.0
 40
1.0
 40
1.0
 10
11.0127177567
 20
8.8267970997
 30
0.0
 10
11.0127175645
 20
8.8418240714
 30
0.0
 10
11.0116039466
 20
8.8644156024
 30
0.0
 10
11.0079421704
 20
8.8943326256
 30
0.0
 10
11.0041018976
 20
8.916697654
 30
0.0
 10
10.9991852821
 20
8.9388997172
 30
0.0
 10
10.9932036301
 20
8.9608891816
 30
0.0
 10
10.9861724693
 20
8.9826147649
 30
0.0
 10
10.9781110769
 20
9.0040259985
 30
0.0
 10
10.969037135
 20
9.0250713747
 30
0.0
 10
10.9589740979
 20
9.0457015065
 30
0.0
 10
10.9479469023
 20
9.0658694847
 30
0.0
 10
10.9319886604
 20
9.0920842826
 30
0.0
 10
10.914209872
 20
9.1171868711
 30
0.0
 10
10.8947528969
 20
9.1409804544
 30
0.0
 10
10.8793415385
 20
9.1581499382
 30
0.0
 10
10.863155492
 20
9.1745924056
 30
0.0
 10
10.8462314378
 20
9.190268906
 30
0.0
 10
10.8286108367
 20
9.205143992
 30
0.0
 10
10.8103338325
 20
9.2191813226
 30
0.0
 10
10.7914431074
 20
9.2323471894
 30
0.0
 10
10.7719839485
 20
9.2446118533
 30
0.0
 10
10.7520006571
 20
9.2559440416
 30
0.0
 10
10.7315404346
 20
9.2663169568
 30
0.0
 10
10.7106516797
 20
9.2757065992
 30
0.0
 10
10.6893823262
 20
9.2840876405
 30
0.0
 10
10.6677829861
 20
9.2914408034
 30
0.0
 10
10.6459044335
 20
9.2977480145
 30
0.0
 10
10.6237976296
 20
9.3029908561
 30
0.0
 10
10.6015153927
 20
9.3071578651
 30
0.0
 10
10.5791102553
 20
9.3102371099
 30
0.0
 10
10.5566353721
 20
9.3122181613
 30
0.0
 10
10.5341445932
 20
9.3130973102
 30
0.0
 10
10.5116916343
 20
9.3128691951
 30
0.0
 10
10.4893306729
 20
9.3115322878
 30
0.0
 10
10.4671155595
 20
9.3090904399
 30
0.0
 10
10.4451004839
 20
9.3055454859
 30
0.0
 10
10.4233391787
 20
9.3009053709
 30
0.0
 10
10.4018845827
 20
9.2951812639
 30
0.0
 10
10.3807903226
 20
9.2883829965
 30
0.0
 10
10.3601080358
 20
9.2805280249
 30
0.0
 10
10.3398888937
 20
9.2716345712
 30
0.0
 10
10.3201843892
 20
9.2617213242
 30
0.0
 10
10.3010425108
 20
9.2508145452
 30
0.0
 10
10.282511727
 20
9.2389393578
 30
0.0
 10
10.2646393245
 20
9.2261237435
 30
0.0
 10
10.2474684665
 20
9.2124014847
 30
0.0
 10
10.231043672
 20
9.1978045777
 30
0.0
 10
10.2154059103
 20
9.1823697393
 30
0.0
 10
10.2005927235
 20
9.1661368441
 30
0.0
 10
10.1866431538
 20
9.1491445233
 30
0.0
 10
10.1735902419
 20
9.1314367876
 30
0.0
 10
10.1614654092
 20
9.1130583596
 30
0.0
 10
10.1503004382
 20
9.094053908
 30
0.0
 10
10.1401198204
 20
9.0744724257
 30
0.0
 10
10.1309485502
 20
9.0543622051
 30
0.0
 10
10.1228096708
 20
9.0337730034
 30
0.0
 10
10.1157192069
 20
9.0127574613
 30
0.0
 10
10.1096948418
 20
8.9913669571
 30
0.0
 10
10.1047501205
 20
8.9696532868
 30
0.0
 10
10.1008937195
 20
8.9476683467
 30
0.0
 10
10.098136374
 20
8.9254653815
 30
0.0
 10
10.0964811654
 20
8.9031035459
 30
0.0
 10
10.0961134604
 20
8.8881416995
 30
0.0
 10
10.0961133717
 20
8.8806548318
 30
0.0
  0
SPLINE
  5
2D0
100
AcDbEntity
  8
0
100
AcDbSpline
 62
7
  6
CONTINUOUS
 70
0
 71
3
 72
65
 73
61
 74
0
 42
0.0000001
 43
0.0000001
 44
0.0000000001
 40
0.0
 40
0.0
 40
0.0
 40
0.0
 40
0.0310480611
 40
0.0464649297
 40
0.061800731
 40
0.0922348386
 40
0.1223994853
 40
0.1373982455
 40
0.1523450299
 40
0.1672467782
 40
0.1821108888
 40
0.1969449792
 40
0.2117572313
 40
0.2265559693
 40
0.2413496102
 40
0.2561467317
 40
0.2709558122
 40
0.285785298
 40
0.3006433284
 40
0.3155375101
 40
0.3304753132
 40
0.3454636469
 40
0.3605084676
 40
0.375615484
 40
0.3907897569
 40
0.4060350815
 40
0.4213548945
 40
0.4367520193
 40
0.4522278892
 40
0.4677834893
 40
0.4834192846
 40
0.4991344067
 40
0.5149274953
 40
0.5307967742
 40
0.5467393053
 40
0.5627516644
 40
0.578830121
 40
0.6111574611
 40
0.6274047431
 40
0.643697115
 40
0.6600282616
 40
0.6763917887
 40
0.7091799725
 40
0.7255990827
 40
0.7420225216
 40
0.7584429775
 40
0.774853285
 40
0.7912463688
 40
0.8076151028
 40
0.8239526467
 40
0.8402526445
 40
0.8565088447
 40
0.8727152748
 40
0.8888661881
 40
0.9049558805
 40
0.9369254242
 40
0.952810249
 40
0.9686226856
 40
0.9843555469
 40
1.0
 40
1.0
 40
1.0
 40
1.0
 10
10.2361133812
 20
8.880654572
 30
0.0
 10
10.2361135972
 20
8.8910134361
 30
0.0
 10
10.2368734591
 20
8.9065306617
 30
0.0
 10
10.2394177297
 20
8.9269985724
 30
0.0
 10
10.2429521318
 20
8.9471125324
 30
0.0
 10
10.2492196045
 20
8.9717074073
 30
0.0
 10
10.2579336261
 20
8.9954275913
 30
0.0
 10
10.2662934011
 20
9.0136656445
 30
0.0
 10
10.273231637
 20
9.0269306231
 30
0.0
 10
10.280830527
 20
9.0397759277
 30
0.0
 10
10.2890714369
 20
9.0521741447
 30
0.0
 10
10.2979362389
 20
9.0640970556
 30
0.0
 10
10.3074036155
 20
9.0755190314
 30
0.0
 10
10.3174514609
 20
9.0864155436
 30
0.0
 10
10.3280583421
 20
9.0967614734
 30
0.0
 10
10.3392001873
 20
9.1065341324
 30
0.0
 10
10.3508517458
 20
9.1157124378
 30
0.0
 10
10.3629882995
 20
9.1242744216
 30
0.0
 10
10.3755829901
 20
9.132200335
 30
0.0
 10
10.3886074427
 20
9.1394726093
 30
0.0
 10
10.4020335895
 20
9.1460725779
 30
0.0
 10
10.4158316101
 20
9.1519835949
 30
0.0
 10
10.4299700012
 20
9.157192041
 30
0.0
 10
10.4444173243
 20
9.1616830993
 30
0.0
 10
10.4591407349
 20
9.1654437404
 30
0.0
 10
10.4741058406
 20
9.1684649179
 30
0.0
 10
10.4892780933
 20
9.1707364202
 30
0.0
 10
10.5046218576
 20
9.1722495547
 30
0.0
 10
10.5201004317
 20
9.1730005077
 30
0.0
 10
10.5356768081
 20
9.1729844497
 30
0.0
 10
10.5513131685
 20
9.1721977857
 30
0.0
 10
10.5669714004
 20
9.1706424382
 30
0.0
 10
10.5826130136
 20
9.1683195338
 30
0.0
 10
10.5981989764
 20
9.1652311589
 30
0.0
 10
10.6136906889
 20
9.161385306
 30
0.0
 10
10.6290499256
 20
9.1567890602
 30
0.0
 10
10.6493319462
 20
9.1496600396
 30
0.0
 10
10.669163577
 20
9.1410793597
 30
0.0
 10
10.688385738
 20
9.1311223574
 30
0.0
 10
10.702507839
 20
9.1229599543
 30
0.0
 10
10.7162723743
 20
9.1141360114
 30
0.0
 10
10.7341089363
 20
9.1015094552
 30
0.0
 10
10.7510851829
 20
9.0876527179
 30
0.0
 10
10.7670661593
 20
9.0726748894
 30
0.0
 10
10.7785390611
 20
9.060897087
 30
0.0
 10
10.7894619214
 20
9.0486119899
 30
0.0
 10
10.7998063053
 20
9.0358488456
 30
0.0
 10
10.8095479161
 20
9.0226413984
 30
0.0
 10
10.8186627715
 20
9.0090230042
 30
0.0
 10
10.8271267536
 20
8.9950270722
 30
0.0
 10
10.8349209709
 20
8.9806901263
 30
0.0
 10
10.8420268216
 20
8.9660483283
 30
0.0
 10
10.8484254278
 20
8.9511381592
 30
0.0
 10
10.8541039654
 20
8.9359979041
 30
0.0
 10
10.8606831221
 20
8.9156040417
 30
0.0
 10
10.8657939219
 20
8.8948514276
 30
0.0
 10
10.8693842701
 20
8.873909037
 30
0.0
 10
10.8713052533
 20
8.8581948313
 30
0.0
 10
10.8724591031
 20
8.842487041
 30
0.0
 10
10.8727176278
 20
8.8320165502
 30
0.0
 10
10.8727177457
 20
8.8267969404
 30
0.0
  0
SPLINE
  5
2D1
100
AcDbEntity
  8
0
100
AcDbSpline
 62
7
  6
CONTINUOUS
 70
0
 71
3
 72
69
 73
65
 74
0
 42
0.0000001
 43
0.0000001
 44
0.0000000001
 40
0.0
 40
0.0
 40
0.0
 40
0.0
 40
0.0312903911
 40
0.0470006543
 40
0.0627445771
 40
0.0785223289
 40
0.0943340764
 40
0.1101786947
 40
0.126053634
 40
0.1419560655
 40
0.157883293
 40
0.1738324649
 40
0.1898005499
 40
0.2217715222
 40
0.2377758016
 40
0.253784915
 40
0.2697950952
 40
0.2858026601
 40
0.3018038922
 40
0.3177951034
 40
0.333772802
 40
0.3497335464
 40
0.3656740664
 40
0.3815913678
 40
0.3974825851
 40
0.4133451574
 40
0.4291768396
 40
0.4449755982
 40
0.4607398103
 40
0.4764681644
 40
0.4921596439
 40
0.5078136996
 40
0.5234300536
 40
0.5390088005
 40
0.5545504881
 40
0.5700558896
 40
0.5855262037
 40
0.6009629988
 40
0.6163680341
 40
0.631743502
 40
0.6470918309
 40
0.6624156163
 40
0.6777178363
 40
0.6930015641
 40
0.7082700105
 40
0.7235266729
 40
0.7387750246
 40
0.7540186258
 40
0.7692612029
 40
0.7845063491
 40
0.7997576767
 40
0.8150188128
 40
0.8302931311
 40
0.8455839876
 40
0.8608947335
 40
0.876228419
 40
0.8915878381
 40
0.906975194
 40
0.9223922944
 40
0.9378417982
 40
0.9533270585
 40
0.9688506682
 40
0.9844102238
 40
1.0
 40
1.0
 40
1.0
 40
1.0
 10
10.0961133738
 20
8.8806546354
 30
0.0
 10
10.0961135661
 20
8.8656276634
 30
0.0
 10
10.0972271843
 20
8.8430361317
 30
0.0
 10
10.1008889603
 20
8.8131191078
 30
0.0
 10
10.1047292332
 20
8.7907540793
 30
0.0
 10
10.1096458488
 20
8.7685520169
 30
0.0
 10
10.1156275004
 20
8.7465625537
 30
0.0
 10
10.1226586605
 20
8.7248369721
 30
0.0
 10
10.1307200521
 20
8.7034257402
 30
0.0
 10
10.1397939932
 20
8.6823803659
 30
0.0
 10
10.1498570289
 20
8.6617502355
 30
0.0
 10
10.1608842234
 20
8.6415822587
 30
0.0
 10
10.1768424639
 20
8.6153674624
 30
0.0
 10
10.1946212503
 20
8.5902648748
 30
0.0
 10
10.2140782239
 20
8.5664712924
 30
0.0
 10
10.2294895806
 20
8.5493018084
 30
0.0
 10
10.2456756266
 20
8.5328593414
 30
0.0
 10
10.26259968
 20
8.5171828405
 30
0.0
 10
10.2802202803
 20
8.5023077534
 30
0.0
 10
10.2984972844
 20
8.4882704229
 30
0.0
 10
10.3173880086
 20
8.4751045552
 30
0.0
 10
10.3368471665
 20
8.4628398906
 30
0.0
 10
10.3568304572
 20
8.4515077028
 30
0.0
 10
10.3772906778
 20
8.4411347866
 30
0.0
 10
10.3981794308
 20
8.4317451441
 30
0.0
 10
10.4194487817
 20
8.4233641034
 30
0.0
 10
10.4410481175
 20
8.4160109396
 30
0.0
 10
10.462926665
 20
8.4097037292
 30
0.0
 10
10.4850334624
 20
8.4044608872
 30
0.0
 10
10.5073156933
 20
8.4002938754
 30
0.0
 10
10.5297208281
 20
8.3972146315
 30
0.0
 10
10.5521957124
 20
8.3952335773
 30
0.0
 10
10.5746864968
 20
8.3943544241
 30
0.0
 10
10.5971394647
 20
8.3945825398
 30
0.0
 10
10.6195004369
 20
8.3959194463
 30
0.0
 10
10.6417155609
 20
8.3983612936
 30
0.0
 10
10.6637306448
 20
8.4019062486
 30
0.0
 10
10.6854919556
 20
8.406546365
 30
0.0
 10
10.7069465557
 20
8.4122704734
 30
0.0
 10
10.7280408192
 20
8.4190687423
 30
0.0
 10
10.7487231088
 20
8.4269237164
 30
0.0
 10
10.7689422535
 20
8.4358171713
 30
0.0
 10
10.7886467584
 20
8.4457304201
 30
0.0
 10
10.8077886338
 20
8.4566371999
 30
0.0
 10
10.8263194125
 20
8.4685123826
 30
0.0
 10
10.8441918077
 20
8.4813279903
 30
0.0
 10
10.8613626585
 20
8.4950502442
 30
0.0
 10
10.8777874489
 20
8.5096471503
 30
0.0
 10
10.893425212
 20
8.525081989
 30
0.0
 10
10.908238402
 20
8.5413148851
 30
0.0
 10
10.9221879725
 20
8.5583072055
 30
0.0
 10
10.9352408832
 20
8.5760149382
 30
0.0
 10
10.9473657125
 20
8.5943933618
 30
0.0
 10
10.9585306812
 20
8.6133978074
 30
0.0
 10
10.9687112984
 20
8.6329792829
 30
0.0
 10
10.9778825659
 20
8.6530894985
 30
0.0
 10
10.9860214458
 20
8.6736786942
 30
0.0
 10
10.9931119119
 20
8.6946942307
 30
0.0
 10
10.9991362765
 20
8.7160847324
 30
0.0
 10
11.004081002
 20
8.7377984036
 30
0.0
 10
11.0079374064
 20
8.7597833513
 30
0.0
 10
11.0106947516
 20
8.7819863285
 30
0.0
 10
11.0123499637
 20
8.8043481766
 30
0.0
 10
11.0127176701
 20
8.819310031
 30
0.0
 10
11.0127177589
 20
8.8267969022
 30
0.0
  0
SPLINE
  5
2D2
100
AcDbEntity
  8
0
100
AcDbSpline
 62
7
  6
CONTINUOUS
 70
0
 71
3
 72
65
 73
61
 74
0
 42
0.0000001
 43
0.0000001
 44
0.0000000001
 40
0.0
 40
0.0
 40
0.0
 40
0.0
 40
0.0310480609
 40
0.0464649293
 40
0.0618007306
 40
0.0922348384
 40
0.1223994854
 40
0.1373982457
 40
0.1523450303
 40
0.1672467788
 40
0.1821108896
 40
0.1969449801
 40
0.2117572324
 40
0.2265559705
 40
0.2413496115
 40
0.2561467331
 40
0.2709558136
 40
0.2857852993
 40
0.3006433297
 40
0.3155375112
 40
0.3304753141
 40
0.3454636475
 40
0.3605084679
 40
0.3756154841
 40
0.3907897567
 40
0.4060350812
 40
0.4213548941
 40
0.4367520191
 40
0.4522278894
 40
0.4677834902
 40
0.4834192865
 40
0.4991344099
 40
0.5149274995
 40
0.5307967793
 40
0.5467393109
 40
0.5627516699
 40
0.5788301256
 40
0.6111574632
 40
0.6274047439
 40
0.6436971146
 40
0.6600282604
 40
0.676391787
 40
0.7091799709
 40
0.7255990813
 40
0.7420225206
 40
0.7584429769
 40
0.7748532848
 40
0.7912463688
 40
0.8076151029
 40
0.8239526465
 40
0.8402526437
 40
0.8565088432
 40
0.8727152724
 40
0.8888661846
 40
0.9049558761
 40
0.9369254192
 40
0.9528102449
 40
0.9686226826
 40
0.984355545
 40
1.0
 40
1.0
 40
1.0
 40
1.0
 10
10.8727177494
 20
8.826797163
 30
0.0
 10
10.8727175334
 20
8.8164382989
 30
0.0
 10
10.8719576716
 20
8.8009210735
 30
0.0
 10
10.869413401
 20
8.7804531629
 30
0.0
 10
10.8658789989
 20
8.760339203
 30
0.0
 10
10.8596115261
 20
8.7357443279
 30
0.0
 10
10.8508975045
 20
8.7120241437
 30
0.0
 10
10.8425377294
 20
8.6937860903
 30
0.0
 10
10.8355994934
 20
8.6805211115
 30
0.0
 10
10.8280006033
 20
8.6676758069
 30
0.0
 10
10.8197596932
 20
8.6552775897
 30
0.0
 10
10.8108948911
 20
8.6433546787
 30
0.0
 10
10.8014275144
 20
8.6319327029
 30
0.0
 10
10.7913796689
 20
8.6210361906
 30
0.0
 10
10.7807727875
 20
8.6106902608
 30
0.0
 10
10.7696309422
 20
8.6009176018
 30
0.0
 10
10.7579793837
 20
8.5917392965
 30
0.0
 10
10.7458428301
 20
8.5831773127
 30
0.0
 10
10.7332481395
 20
8.5752513994
 30
0.0
 10
10.720223687
 20
8.5679791253
 30
0.0
 10
10.7067975404
 20
8.5613791568
 30
0.0
 10
10.69299952
 20
8.5554681399
 30
0.0
 10
10.6788611292
 20
8.5502596939
 30
0.0
 10
10.6644138063
 20
8.5457686358
 30
0.0
 10
10.6496903959
 20
8.5420079947
 30
0.0
 10
10.6347252903
 20
8.5389868172
 30
0.0
 10
10.6195530377
 20
8.5367153149
 30
0.0
 10
10.6042092732
 20
8.5352021803
 30
0.0
 10
10.5887306987
 20
8.5344512273
 30
0.0
 10
10.5731543216
 20
8.5344672853
 30
0.0
 10
10.5575179603
 20
8.5352539496
 30
0.0
 10
10.5418597273
 20
8.5368092974
 30
0.0
 10
10.526218113
 20
8.5391322019
 30
0.0
 10
10.5106321495
 20
8.5422205771
 30
0.0
 10
10.4951404367
 20
8.5460664306
 30
0.0
 10
10.4797812002
 20
8.5506626763
 30
0.0
 10
10.4594991806
 20
8.5577916967
 30
0.0
 10
10.4396675515
 20
8.5663723765
 30
0.0
 10
10.4204453919
 20
8.5763293779
 30
0.0
 10
10.4063232919
 20
8.5844917805
 30
0.0
 10
10.3925587573
 20
8.593315723
 30
0.0
 10
10.3747221957
 20
8.6059422788
 30
0.0
 10
10.3577459489
 20
8.619799016
 30
0.0
 10
10.3417649724
 20
8.6347768446
 30
0.0
 10
10.3302920702
 20
8.6465546471
 30
0.0
 10
10.3193692097
 20
8.6588397445
 30
0.0
 10
10.3090248256
 20
8.6716028891
 30
0.0
 10
10.2992832147
 20
8.6848103365
 30
0.0
 10
10.2901683592
 20
8.6984287307
 30
0.0
 10
10.2817043773
 20
8.7124246623
 30
0.0
 10
10.2739101601
 20
8.7267616078
 30
0.0
 10
10.2668043098
 20
8.7414034051
 30
0.0
 10
10.2604057038
 20
8.7563135733
 30
0.0
 10
10.2547271663
 20
8.7714538274
 30
0.0
 10
10.2481480097
 20
8.7918476889
 30
0.0
 10
10.2430372096
 20
8.8126003027
 30
0.0
 10
10.2394468612
 20
8.8335426938
 30
0.0
 10
10.2375258779
 20
8.8492569004
 30
0.0
 10
10.2363720276
 20
8.8649646921
 30
0.0
 10
10.2361135028
 20
8.8754351839
 30
0.0
 10
10.2361133849
 20
8.8806547943
 30
0.0
  0
SPLINE
  5
2D3
100
AcDbEntity
  8
0
100
AcDbSpline
 62
7
  6
CONTINUOUS
 70
0
 71
3
 72
23
 73
19
 74
0
 42
0.0000001
 43
0.0000001
 44
0.0000000001
 40
0.0
 40
0.0
 40
0.0
 40
0.0
 40
0.0637751697
 40
0.127345371
 40
0.1907022537
 40
0.2538558573
 40
0.3168132315
 40
0.3795821093
 40
0.4421733555
 40
0.5045993354
 40
0.5668738704
 40
0.6290123786
 40
0.6910316578
 40
0.7529496568
 40
0.8147853611
 40
0.8765586146
 40
0.9382898649
 40
1.0
 40
1.0
 40
1.0
 40
1.0
 10
12.3891893034
 20
9.1072834631
 30
0.0
 10
12.3891893034
 20
9.1039972647
 30
0.0
 10
12.3890319658
 20
9.0974343173
 30
0.0
 10
12.3883220815
 20
9.087629837
 30
0.0
 10
12.3871400148
 20
9.0779030075
 30
0.0
 10
12.3854885926
 20
9.0682768481
 30
0.0
 10
12.3833716746
 20
9.058773221
 30
0.0
 10
12.3807940004
 20
9.0494141036
 30
0.0
 10
12.3777615091
 20
9.0402211029
 30
0.0
 10
12.3742812542
 20
9.0312153712
 30
0.0
 10
12.3703611424
 20
9.0224177136
 30
0.0
 10
12.3660102306
 20
9.0138484156
 30
0.0
 10
12.3612385896
 20
9.005527213
 30
0.0
 10
12.3560571103
 20
8.9974733535
 30
0.0
 10
12.3504778174
 20
8.9897053968
 30
0.0
 10
12.3445135186
 20
8.9822411861
 30
0.0
 10
12.3381781189
 20
8.9750982472
 30
0.0
 10
12.3337160906
 20
8.9705605507
 30
0.0
 10
12.3314290184
 20
8.9683513935
 30
0.0
  0
SPLINE
  5
2D4
100
AcDbEntity
  8
0
100
AcDbSpline
 62
7
  6
CONTINUOUS
 70
0
 71
3
 72
23
 73
19
 74
0
 42
0.0000001
 43
0.0000001
 44
0.0000000001
 40
0.0
 40
0.0
 40
0.0
 40
0.0
 40
0.0637751697
 40
0.127345371
 40
0.1907022537
 40
0.2538558573
 40
0.3168132315
 40
0.3795821093
 40
0.4421733555
 40
0.5045993354
 40
0.5668738704
 40
0.6290123786
 40
0.6910316578
 40
0.7529496568
 40
0.8147853611
 40
0.8765586146
 40
0.9382898649
 40
1.0
 40
1.0
 40
1.0
 40
1.0
 10
9.3098176217
 20
9.3787941123
 30
0.0
 10
9.3098176217
 20
9.3755079139
 30
0.0
 10
9.3096602842
 20
9.3689449665
 30
0.0
 10
9.3089503998
 20
9.3591404862
 30
0.0
 10
9.3077683331
 20
9.3494136567
 30
0.0
 10
9.3061169109
 20
9.3397874973
 30
0.0
 10
9.3039999929
 20
9.3302838702
 30
0.0
 10
9.3014223187
 20
9.3209247528
 30
0.0
 10
9.2983898274
 20
9.3117317521
 30
0.0
 10
9.2949095725
 20
9.3027260204
 30
0.0
 10
9.2909894608
 20
9.2939283628
 30
0.0
 10
9.286638549
 20
9.2853590648
 30
0.0
 10
9.2818669079
 20
9.2770378622
 30
0.0
 10
9.2766854286
 20
9.2689840027
 30
0.0
 10
9.2711061357
 20
9.261216046
 30
0.0
 10
9.265141837
 20
9.2537518353
 30
0.0
 10
9.2588064372
 20
9.2466088964
 30
0.0
 10
9.2543444089
 20
9.2420711999
 30
0.0
 10
9.2520573368
 20
9.2398620427
 30
0.0
  0
SPLINE
  5
2D5
100
AcDbEntity
  8
0
100
AcDbSpline
 62
7
  6
CONTINUOUS
 70
0
 71
3
 72
23
 73
19
 74
0
 42
0.0000001
 43
0.0000001
 44
0.0000000001
 40
0.0
 40
0.0
 40
0.0
 40
0.0
 40
0.0637751697
 40
0.127345371
 40
0.1907022537
 40
0.2538558573
 40
0.3168132315
 40
0.3795821093
 40
0.4421733555
 40
0.5045993354
 40
0.5668738704
 40
0.6290123786
 40
0.6910316578
 40
0.7529496568
 40
0.8147853611
 40
0.8765586146
 40
0.9382898649
 40
1.0
 40
1.0
 40
1.0
 40
1.0
 10
9.3098176217
 20
6.906023877
 30
0.0
 10
9.3098176217
 20
6.9027376785
 30
0.0
 10
9.3096602842
 20
6.8961747312
 30
0.0
 10
9.3089503998
 20
6.8863702509
 30
0.0
 10
9.3077683331
 20
6.8766434214
 30
0.0
 10
9.3061169109
 20
6.867017262
 30
0.0
 10
9.3039999929
 20
6.8575136349
 30
0.0
 10
9.3014223187
 20
6.8481545175
 30
0.0
 10
9.2983898274
 20
6.8389615168
 30
0.0
 10
9.2949095725
 20
6.8299557851
 30
0.0
 10
9.2909894608
 20
6.8211581275
 30
0.0
 10
9.286638549
 20
6.8125888294
 30
0.0
 10
9.2818669079
 20
6.8042676269
 30
0.0
 10
9.2766854286
 20
6.7962137674
 30
0.0
 10
9.2711061357
 20
6.7884458106
 30
0.0
 10
9.265141837
 20
6.7809816
 30
0.0
 10
9.2588064372
 20
6.7738386611
 30
0.0
 10
9.2543444089
 20
6.7693009646
 30
0.0
 10
9.2520573368
 20
6.7670918074
 30
0.0
  0
SPLINE
  5
2D6
100
AcDbEntity
  8
0
100
AcDbSpline
 62
7
  6
CONTINUOUS
 70
0
 71
3
 72
23
 73
19
 74
0
 42
0.0000001
 43
0.0000001
 44
0.0000000001
 40
0.0
 40
0.0
 40
0.0
 40
0.0
 40
0.0637751697
 40
0.127345371
 40
0.1907022537
 40
0.2538558573
 40
0.3168132315
 40
0.3795821093
 40
0.4421733555
 40
0.5045993354
 40
0.5668738704
 40
0.6290123786
 40
0.6910316578
 40
0.7529496568
 40
0.8147853611
 40
0.8765586146
 40
0.9382898649
 40
1.0
 40
1.0
 40
1.0
 40
1.0
 10
12.3891893034
 20
6.7484924252
 30
0.0
 10
12.3891893034
 20
6.7452062267
 30
0.0
 10
12.3890319658
 20
6.7386432794
 30
0.0
 10
12.3883220815
 20
6.7288387991
 30
0.0
 10
12.3871400148
 20
6.7191119696
 30
0.0
 10
12.3854885926
 20
6.7094858101
 30
0.0
 10
12.3833716746
 20
6.699982183
 30
0.0
 10
12.3807940004
 20
6.6906230656
 30
0.0
 10
12.3777615091
 20
6.681430065
 30
0.0
 10
12.3742812542
 20
6.6724243333
 30
0.0
 10
12.3703611424
 20
6.6636266757
 30
0.0
 10
12.3660102306
 20
6.6550573776
 30
0.0
 10
12.3612385896
 20
6.6467361751
 30
0.0
 10
12.3560571103
 20
6.6386823156
 30
0.0
 10
12.3504778174
 20
6.6309143588
 30
0.0
 10
12.3445135186
 20
6.6234501482
 30
0.0
 10
12.3381781189
 20
6.6163072093
 30
0.0
 10
12.3337160906
 20
6.6117695128
 30
0.0
 10
12.3314290184
 20
6.6095603555
 30
0.0
  0
SPLINE
  5
2D7
100
AcDbEntity
  8
0
100
AcDbSpline
 62
7
  6
CONTINUOUS
 70
0
 71
3
 72
15
 73
11
 74
0
 42
0.0000001
 43
0.0000001
 44
0.0000000001
 40
0.0
 40
0.0
 40
0.0
 40
0.0
 40
0.1273482228
 40
0.253860527
 40
0.3795879206
 40
0.5046050801
 40
0.6290174363
 40
0.7529533709
 40
0.8765605784
 40
1.0
 40
1.0
 40
1.0
 40
1.0
 10
9.79761025
 20
6.8721953433
 30
0.0
 10
9.79761025
 20
6.8681916261
 30
0.0
 10
9.7972279793
 20
6.8602049369
 30
0.0
 10
9.7954991882
 20
6.8483785081
 30
0.0
 10
9.7926325594
 20
6.8368492308
 30
0.0
 10
9.7886539796
 20
6.8257249301
 30
0.0
 10
9.7835999777
 20
6.815108187
 30
0.0
 10
9.7775166052
 20
6.8050970359
 30
0.0
 10
9.7704610615
 20
6.7957852824
 30
0.0
 10
9.7651485956
 20
6.7900971231
 30
0.0
 10
9.7623572982
 20
6.787400925
 30
0.0
  0
SPLINE
  5
2D8
100
AcDbEntity
  8
0
100
AcDbSpline
 62
7
  6
CONTINUOUS
 70
0
 71
3
 72
25
 73
21
 74
0
 42
0.0000001
 43
0.0000001
 44
0.0000000001
 40
0.0
 40
0.0
 40
0.0
 40
0.0
 40
0.0637765419
 40
0.127343586
 40
0.1907000935
 40
0.2538536288
 40
0.2853583676
 40
0.3168148659
 40
0.3795831452
 40
0.4421738174
 40
0.504599146
 40
0.5668730571
 40
0.6290109564
 40
0.691029611
 40
0.752946989
 40
0.8147820834
 40
0.8765547217
 40
0.9074265426
 40
0.9382904632
 40
1.0
 40
1.0
 40
1.0
 40
1.0
 10
11.0301315798
 20
8.8132322791
 30
0.0
 10
11.0301315798
 20
8.8055178609
 30
0.0
 10
11.0297623385
 20
8.7901117643
 30
0.0
 10
11.028095741
 20
8.7670962528
 30
0.0
 10
11.0253209123
 20
8.7442634711
 30
0.0
 10
11.0220877562
 20
8.7254169613
 30
0.0
 10
11.0189538667
 20
8.7104861014
 30
0.0
 10
11.0154627811
 20
8.6956825924
 30
0.0
 10
11.0104237568
 20
8.677386932
 30
0.0
 10
11.003305168
 20
8.6558070652
 30
0.0
 10
10.9951352719
 20
8.6346665973
 30
0.0
 10
10.9859329495
 20
8.6140146198
 30
0.0
 10
10.975719335
 20
8.5938986802
 30
0.0
 10
10.9645179599
 20
8.5743652342
 30
0.0
 10
10.9523545867
 20
8.5554592542
 30
0.0
 10
10.9392574775
 20
8.5372246288
 30
0.0
 10
10.9275872184
 20
8.5226198586
 30
0.0
 10
10.9178172746
 20
8.5113157106
 30
0.0
 10
10.9077654732
 20
8.5002721788
 30
0.0
 10
10.8999096679
 20
8.4922834067
 30
0.0
 10
10.8945408602
 20
8.4870975542
 30
0.0
  0
SPLINE
  5
2D9
100
AcDbEntity
  8
0
100
AcDbSpline
 62
7
  6
CONTINUOUS
 70
0
 71
3
 72
25
 73
21
 74
0
 42
0.0000001
 43
0.0000001
 44
0.0000000001
 40
0.0
 40
0.0
 40
0.0
 40
0.0
 40
0.0637765419
 40
0.127343586
 40
0.1907000935
 40
0.2538536288
 40
0.2853583676
 40
0.3168148659
 40
0.3795831452
 40
0.4421738174
 40
0.504599146
 40
0.5668730571
 40
0.6290109564
 40
0.691029611
 40
0.752946989
 40
0.8147820834
 40
0.8765547217
 40
0.9074265426
 40
0.9382904632
 40
1.0
 40
1.0
 40
1.0
 40
1.0
 10
11.0301315798
 20
7.2310456133
 30
0.0
 10
11.0301315798
 20
7.2233311951
 30
0.0
 10
11.0297623385
 20
7.2079250985
 30
0.0
 10
11.028095741
 20
7.184909587
 30
0.0
 10
11.0253209123
 20
7.1620768053
 30
0.0
 10
11.0220877562
 20
7.1432302954
 30
0.0
 10
11.0189538667
 20
7.1282994355
 30
0.0
 10
11.0154627811
 20
7.1134959266
 30
0.0
 10
11.0104237568
 20
7.0952002661
 30
0.0
 10
11.003305168
 20
7.0736203994
 30
0.0
 10
10.9951352719
 20
7.0524799315
 30
0.0
 10
10.9859329495
 20
7.0318279539
 30
0.0
 10
10.975719335
 20
7.0117120144
 30
0.0
 10
10.9645179599
 20
6.9921785684
 30
0.0
 10
10.9523545867
 20
6.9732725884
 30
0.0
 10
10.9392574775
 20
6.9550379629
 30
0.0
 10
10.9275872184
 20
6.9404331928
 30
0.0
 10
10.9178172746
 20
6.9291290448
 30
0.0
 10
10.9077654732
 20
6.918085513
 30
0.0
 10
10.8999096679
 20
6.9100967409
 30
0.0
 10
10.8945408602
 20
6.9049108883
 30
0.0
  0
SPLINE
  5
2DA
100
AcDbEntity
  8
0
100
AcDbSpline
 62
7
  6
CONTINUOUS
 70
0
 71
3
 72
25
 73
21
 74
0
 42
0.0000001
 43
0.0000001
 44
0.0000000001
 40
0.0
 40
0.0
 40
0.0
 40
0.0
 40
0.0637765419
 40
0.127343586
 40
0.1907000935
 40
0.2538536288
 40
0.2853583676
 40
0.3168148659
 40
0.3795831452
 40
0.4421738174
 40
0.504599146
 40
0.5668730571
 40
0.6290109564
 40
0.691029611
 40
0.752946989
 40
0.8147820834
 40
0.8765547217
 40
0.9074265426
 40
0.9382904632
 40
1.0
 40
1.0
 40
1.0
 40
1.0
 10
11.7004841485
 20
7.9766157223
 30
0.0
 10
11.7004841485
 20
7.9689013041
 30
0.0
 10
11.7001149072
 20
7.9534952075
 30
0.0
 10
11.6984483096
 20
7.930479696
 30
0.0
 10
11.695673481
 20
7.9076469143
 30
0.0
 10
11.6924403249
 20
7.8888004045
 30
0.0
 10
11.6893064354
 20
7.8738695446
 30
0.0
 10
11.6858153498
 20
7.8590660356
 30
0.0
 10
11.6807763255
 20
7.8407703752
 30
0.0
 10
11.6736577367
 20
7.8191905084
 30
0.0
 10
11.6654878406
 20
7.7980500405
 30
0.0
 10
11.6562855182
 20
7.777398063
 30
0.0
 10
11.6460719037
 20
7.7572821234
 30
0.0
 10
11.6348705286
 20
7.7377486774
 30
0.0
 10
11.6227071554
 20
7.7188426974
 30
0.0
 10
11.6096100461
 20
7.700608072
 30
0.0
 10
11.5979397871
 20
7.6860033018
 30
0.0
 10
11.5881698433
 20
7.6746991538
 30
0.0
 10
11.5781180419
 20
7.663655622
 30
0.0
 10
11.5702622366
 20
7.6556668499
 30
0.0
 10
11.5648934289
 20
7.6504809974
 30
0.0
  0
SPLINE
  5
2DB
100
AcDbEntity
  8
0
100
AcDbSpline
 62
7
  6
CONTINUOUS
 70
0
 71
3
 72
25
 73
21
 74
0
 42
0.0000001
 43
0.0000001
 44
0.0000000001
 40
0.0
 40
0.0
 40
0.0
 40
0.0
 40
0.0637765419
 40
0.127343586
 40
0.1907000935
 40
0.2538536288
 40
0.2853583676
 40
0.3168148659
 40
0.3795831452
 40
0.4421738174
 40
0.504599146
 40
0.5668730571
 40
0.6290109564
 40
0.691029611
 40
0.752946989
 40
0.8147820834
 40
0.8765547217
 40
0.9074265426
 40
0.9382904632
 40
1.0
 40
1.0
 40
1.0
 40
1.0
 10
10.3694382607
 20
8.0689240681
 30
0.0
 10
10.3694382607
 20
8.06120965
 30
0.0
 10
10.3690690194
 20
8.0458035534
 30
0.0
 10
10.3674024219
 20
8.0227880419
 30
0.0
 10
10.3646275933
 20
7.9999552601
 30
0.0
 10
10.3613944371
 20
7.9811087503
 30
0.0
 10
10.3582605476
 20
7.9661778904
 30
0.0
 10
10.3547694621
 20
7.9513743815
 30
0.0
 10
10.3497304378
 20
7.933078721
 30
0.0
 10
10.3426118489
 20
7.9114988542
 30
0.0
 10
10.3344419529
 20
7.8903583864
 30
0.0
 10
10.3252396304
 20
7.8697064088
 30
0.0
 10
10.315026016
 20
7.8495904693
 30
0.0
 10
10.3038246408
 20
7.8300570233
 30
0.0
 10
10.2916612676
 20
7.8111510433
 30
0.0
 10
10.2785641584
 20
7.7929164178
 30
0.0
 10
10.2668938994
 20
7.7783116477
 30
0.0
 10
10.2571239555
 20
7.7670074996
 30
0.0
 10
10.2470721542
 20
7.7559639678
 30
0.0
 10
10.2392163489
 20
7.7479751957
 30
0.0
 10
10.2338475411
 20
7.7427893432
 30
0.0
  0
SPLINE
  5
2DC
100
AcDbEntity
  8
0
100
AcDbSpline
 62
7
  6
CONTINUOUS
 70
0
 71
3
 72
59
 73
55
 74
0
 42
0.0000001
 43
0.0000001
 44
0.0000000001
 40
0.0
 40
0.0
 40
0.0
 40
0.0
 40
0.0417736767
 40
0.0840362765
 40
0.1266574811
 40
0.1695051262
 40
0.2124463914
 40
0.2553479967
 40
0.2980768488
 40
0.3405005256
 40
0.3824878146
 40
0.4239092383
 40
0.464637589
 40
0.5045484688
 40
0.5435208413
 40
0.5814375992
 40
0.6181861539
 40
0.6360888024
 40
0.6536595531
 40
0.6708859017
 40
0.6877557363
 40
0.7042573867
 40
0.720379648
 40
0.7361117919
 40
0.7514436399
 40
0.7663655339
 40
0.7808684645
 40
0.7949440033
 40
0.8085844873
 40
0.8217829218
 40
0.83453322
 40
0.8468300923
 40
0.8586693371
 40
0.8700477415
 40
0.8809634199
 40
0.8914157604
 40
0.9014058112
 40
0.9109363168
 40
0.9200121632
 40
0.9286405545
 40
0.9368315416
 40
0.9445983908
 40
0.9519582219
 40
0.9589325919
 40
0.9655482195
 40
0.9718376843
 40
0.9778400275
 40
0.9836011664
 40
0.9864084736
 40
0.9891757902
 40
0.9919106587
 40
0.9946209114
 40
0.9973146138
 40
1.0
 40
1.0
 40
1.0
 40
1.0
 10
13.6766733759
 20
8.1254680573
 30
0.0
 10
13.6766733759
 20
8.1386204434
 30
0.0
 10
13.676878567
 20
8.1650795657
 30
0.0
 10
13.6777856799
 20
8.2049485698
 30
0.0
 10
13.6792912646
 20
8.2451379013
 30
0.0
 10
13.6813903855
 20
8.2855145235
 30
0.0
 10
13.6840761059
 20
8.3259448502
 30
0.0
 10
13.6873395484
 20
8.3662951277
 30
0.0
 10
13.6911699023
 20
8.4064318596
 30
0.0
 10
13.69555447
 20
8.4462222643
 30
0.0
 10
13.7004787045
 20
8.4855347129
 30
0.0
 10
13.7059262581
 20
8.5242391684
 30
0.0
 10
13.7118790353
 20
8.5622076241
 30
0.0
 10
13.7183172531
 20
8.5993145168
 30
0.0
 10
13.7252194988
 20
8.6354372031
 30
0.0
 10
13.7325628216
 20
8.6704561774
 30
0.0
 10
13.7390847971
 20
8.6988640942
 30
0.0
 10
13.7445126081
 20
8.7209461276
 30
0.0
 10
13.7486428215
 20
8.7370166442
 30
0.0
 10
13.7528643063
 20
8.7527269554
 30
0.0
 10
13.7571735923
 20
8.7680640828
 30
0.0
 10
13.7615670973
 20
8.7830153441
 30
0.0
 10
13.7660411742
 20
8.7975683822
 30
0.0
 10
13.7705921264
 20
8.8117111702
 30
0.0
 10
13.7752161568
 20
8.8254320271
 30
0.0
 10
13.7799094636
 20
8.8387196188
 30
0.0
 10
13.7846681141
 20
8.8515629834
 30
0.0
 10
13.7894882145
 20
8.8639515178
 30
0.0
 10
13.7943657117
 20
8.8758750198
 30
0.0
 10
13.7992966341
 20
8.887323655
 30
0.0
 10
13.804276827
 20
8.8982880198
 30
0.0
 10
13.8093022551
 20
8.9087590843
 30
0.0
 10
13.8143686865
 20
8.9187282814
 30
0.0
 10
13.819472039
 20
8.928187421
 30
0.0
 10
13.8246080351
 20
8.9371288072
 30
0.0
 10
13.8297725684
 20
8.945545124
 30
0.0
 10
13.83496136
 20
8.9534295759
 30
0.0
 10
13.8401703147
 20
8.9607757499
 30
0.0
 10
13.8453952134
 20
8.9675777678
 30
0.0
 10
13.8506320299
 20
8.973830131
 30
0.0
 10
13.8558766906
 20
8.9795278605
 30
0.0
 10
13.8611253218
 20
8.9846663355
 30
0.0
 10
13.8663740928
 20
8.9892413744
 30
0.0
 10
13.8716193664
 20
8.9932490853
 30
0.0
 10
13.8768575508
 20
8.9966858212
 30
0.0
 10
13.8820852667
 20
8.9995481132
 30
0.0
 10
13.8872984687
 20
9.0018324031
 30
0.0
 10
13.8916659347
 20
9.0032638715
 30
0.0
 10
13.8951355305
 20
9.0041066177
 30
0.0
 10
13.8977084997
 20
9.0045876924
 30
0.0
 10
13.9002736688
 20
9.0049229566
 30
0.0
 10
13.9028305488
 20
9.0051123243
 30
0.0
 10
13.9053784193
 20
9.005155679
 30
0.0
 10
13.9070717387
 20
9.0050871716
 30
0.0
 10
13.9079152032
 20
9.0050286792
 30
0.0
  0
SPLINE
  5
2DD
100
AcDbEntity
  8
0
100
AcDbSpline
 62
7
  6
CONTINUOUS
 70
0
 71
3
 72
11
 73
7
 74
0
 42
0.0000001
 43
0.0000001
 44
0.0000000001
 40
0.0
 40
0.0
 40
0.0
 40
0.0
 40
0.2701367304
 40
0.5266412674
 40
0.7697815265
 40
1.0
 40
1.0
 40
1.0
 40
1.0
 10
10.7667683122
 20
8.9083405812
 30
0.0
 10
10.7679328279
 20
8.909318502
 30
0.0
 10
10.7702558064
 20
8.9111635086
 30
0.0
 10
10.7738070009
 20
8.9136515541
 30
0.0
 10
10.7773206072
 20
8.9157868335
 30
0.0
 10
10.7796929473
 20
8.9170067333
 30
0.0
 10
10.7808683367
 20
8.9175525934
 30
0.0
  0
SPLINE
  5
2DE
100
AcDbEntity
  8
0
100
AcDbSpline
 62
7
  6
CONTINUOUS
 70
0
 71
3
 72
14
 73
10
 74
0
 42
0.0000001
 43
0.0000001
 44
0.0000000001
 40
0.0
 40
0.0
 40
0.0
 40
0.0
 40
0.2646929963
 40
0.3903350981
 40
0.5129432782
 40
0.6338076527
 40
0.7543172012
 40
0.8759031498
 40
1.0
 40
1.0
 40
1.0
 40
1.0
 10
10.7808683367
 20
8.9175525934
 30
0.0
 10
10.7818021534
 20
8.9182253307
 30
0.0
 10
10.7832463727
 20
8.9191325463
 30
0.0
 10
10.7852689956
 20
8.920077553
 30
0.0
 10
10.7867789567
 20
8.9206281242
 30
0.0
 10
10.7883117552
 20
8.9210312874
 30
0.0
 10
10.789871684
 20
8.9212862026
 30
0.0
 10
10.7914626716
 20
8.921392167
 30
0.0
 10
10.7925322707
 20
8.9213636159
 30
0.0
 10
10.7930705222
 20
8.9213257211
 30
0.0
  0
SPLINE
  5
2DF
100
AcDbEntity
  8
0
100
AcDbSpline
 62
7
  6
CONTINUOUS
 70
0
 71
3
 72
36
 73
32
 74
0
 42
0.0000001
 43
0.0000001
 44
0.0000000001
 40
0.0
 40
0.0
 40
0.0
 40
0.0
 40
0.0190040674
 40
0.0388671086
 40
0.059585457
 40
0.0811533862
 40
0.1035647661
 40
0.1268117591
 40
0.1508849353
 40
0.1757756191
 40
0.2014742131
 40
0.2279731775
 40
0.2833283447
 40
0.341800748
 40
0.4033517562
 40
0.4352801387
 40
0.4679680615
 40
0.5014106778
 40
0.5356042966
 40
0.5705423756
 40
0.6062177606
 40
0.6426209069
 40
0.6797391975
 40
0.7175582799
 40
0.7560595931
 40
0.7952219132
 40
0.8350210748
 40
0.8754293202
 40
0.9164168704
 40
0.9579517447
 40
1.0
 40
1.0
 40
1.0
 40
1.0
 10
10.7667683122
 20
8.9083405812
 30
0.0
 10
10.7656375149
 20
8.9073909758
 30
0.0
 10
10.7633759649
 20
8.9053872028
 30
0.0
 10
10.7600642782
 20
8.9021493555
 30
0.0
 10
10.7567718342
 20
8.8986143403
 30
0.0
 10
10.7535138053
 20
8.8947837756
 30
0.0
 10
10.7503057216
 20
8.8906593737
 30
0.0
 10
10.7471639042
 20
8.8862430877
 30
0.0
 10
10.7441057623
 20
8.8815369291
 30
0.0
 10
10.7411491483
 20
8.8765436098
 30
0.0
 10
10.7383130409
 20
8.8712657164
 30
0.0
 10
10.7346651605
 20
8.8637447452
 30
0.0
 10
10.7305325566
 20
8.8536394866
 30
0.0
 10
10.7264561905
 20
8.8406197045
 30
0.0
 10
10.7239188036
 20
8.8290713918
 30
0.0
 10
10.7224569454
 20
8.8193749129
 30
0.0
 10
10.7216665046
 20
8.8117938931
 30
0.0
 10
10.7212192466
 20
8.8040086183
 30
0.0
 10
10.7211386606
 20
8.7960358673
 30
0.0
 10
10.7214474064
 20
8.7878949271
 30
0.0
 10
10.72216716
 20
8.7796074814
 30
0.0
 10
10.7233183203
 20
8.7711977024
 30
0.0
 10
10.7249190641
 20
8.7626921006
 30
0.0
 10
10.7269858119
 20
8.7541196238
 30
0.0
 10
10.7295319117
 20
8.7455112128
 30
0.0
 10
10.7325677865
 20
8.7368996496
 30
0.0
 10
10.7361008395
 20
8.7283192672
 30
0.0
 10
10.7401344899
 20
8.7198052517
 30
0.0
 10
10.7446688393
 20
8.7113933172
 30
0.0
 10
10.7497002627
 20
8.7031196651
 30
0.0
 10
10.7533599829
 20
8.6977503381
 30
0.0
 10
10.7552690296
 20
8.6950989062
 30
0.0
  0
SPLINE
  5
2E0
100
AcDbEntity
  8
0
100
AcDbSpline
 62
7
  6
CONTINUOUS
 70
0
 71
3
 72
49
 73
45
 74
0
 42
0.0000001
 43
0.0000001
 44
0.0000000001
 40
0.0
 40
0.0
 40
0.0
 40
0.0
 40
0.0378127845
 40
0.0760191223
 40
0.114531607
 40
0.1532645858
 40
0.1921302413
 40
0.2310409706
 40
0.2699088597
 40
0.3086461572
 40
0.3471654842
 40
0.3853800876
 40
0.4232040959
 40
0.4605527702
 40
0.4973427611
 40
0.533492372
 40
0.5689218309
 40
0.6035535573
 40
0.637312442
 40
0.6701261391
 40
0.7019253763
 40
0.7326442909
 40
0.7622208088
 40
0.7905970516
 40
0.80431852
 40
0.8177203446
 40
0.8307967508
 40
0.843542237
 40
0.8559517495
 40
0.8680206515
 40
0.8797447052
 40
0.8911202579
 40
0.9021440651
 40
0.9128135674
 40
0.9231267538
 40
0.9330823402
 40
0.9426798495
 40
0.9519195568
 40
0.960802764
 40
0.9693317342
 40
0.977510198
 40
0.9853432953
 40
0.992837349
 40
1.0
 40
1.0
 40
1.0
 40
1.0
 10
14.2934386513
 20
7.8769983788
 30
0.0
 10
14.2934386513
 20
7.8660597535
 30
0.0
 10
14.2932932584
 20
7.8440684009
 30
0.0
 10
14.292648859
 20
7.8109416857
 30
0.0
 10
14.2915783157
 20
7.7775596286
 30
0.0
 10
14.2900842647
 20
7.7440029548
 30
0.0
 10
14.2881702399
 20
7.710352226
 30
0.0
 10
14.2858408703
 20
7.6766885786
 30
0.0
 10
14.283101751
 20
7.6430930437
 30
0.0
 10
14.2799594873
 20
7.6096465301
 30
0.0
 10
14.2764216594
 20
7.576429575
 30
0.0
 10
14.2724968039
 20
7.5435221604
 30
0.0
 10
14.2681943944
 20
7.5110035197
 30
0.0
 10
14.2635248186
 20
7.4789519464
 30
0.0
 10
14.2584993531
 20
7.4474446045
 30
0.0
 10
14.2531301384
 20
7.4165573387
 30
0.0
 10
14.2474301557
 20
7.3863644871
 30
0.0
 10
14.2414131878
 20
7.3569387012
 30
0.0
 10
14.2350937882
 20
7.3283507708
 30
0.0
 10
14.2284872461
 20
7.3006694465
 30
0.0
 10
14.2216095503
 20
7.2739612853
 30
0.0
 10
14.214477349
 20
7.2482904221
 30
0.0
 10
14.2071079144
 20
7.2237186096
 30
0.0
 10
14.2007145102
 20
7.2039925922
 30
0.0
 10
14.1954864281
 20
7.1888121673
 30
0.0
 10
14.1915610647
 20
7.1778652165
 30
0.0
 10
14.1875899667
 20
7.1672356467
 30
0.0
 10
14.1835754612
 20
7.1569298423
 30
0.0
 10
14.1795199892
 20
7.1469539932
 30
0.0
 10
14.1754260143
 20
7.1373140809
 30
0.0
 10
14.1712959478
 20
7.1280159027
 30
0.0
 10
14.167132352
 20
7.1190650115
 30
0.0
 10
14.1629376491
 20
7.1104667912
 30
0.0
 10
14.158714427
 20
7.1022263672
 30
0.0
 10
14.154465186
 20
7.0943486718
 30
0.0
 10
14.1501924588
 20
7.0868384065
 30
0.0
 10
14.145898839
 20
7.0797000204
 30
0.0
 10
14.1415868028
 20
7.0729378015
 30
0.0
 10
14.1372590233
 20
7.0665557297
 30
0.0
 10
14.1329179597
 20
7.0605576038
 30
0.0
 10
14.1285661457
 20
7.054946896
 30
0.0
 10
14.1242059954
 20
7.0497268647
 30
0.0
 10
14.1198402716
 20
7.0449008895
 30
0.0
 10
14.1168616186
 20
7.0418810446
 30
0.0
 10
14.1153712953
 20
7.0404415027
 30
0.0
  0
SPLINE
  5
2E1
100
AcDbEntity
  8
0
100
AcDbSpline
 62
7
  6
CONTINUOUS
 70
0
 71
3
 72
49
 73
45
 74
0
 42
0.0000001
 43
0.0000001
 44
0.0000000001
 40
0.0
 40
0.0
 40
0.0
 40
0.0
 40
0.007162651
 40
0.0146567047
 40
0.022489802
 40
0.0306682658
 40
0.039197236
 40
0.0480804432
 40
0.0573201505
 40
0.0669176598
 40
0.0768732462
 40
0.0871864326
 40
0.0978559349
 40
0.1088797421
 40
0.1202552948
 40
0.1319793485
 40
0.1440482505
 40
0.156457763
 40
0.1692032492
 40
0.1822796554
 40
0.19568148
 40
0.2094029484
 40
0.2377791912
 40
0.2673557091
 40
0.2980746237
 40
0.3298738609
 40
0.362687558
 40
0.3964464427
 40
0.4310781691
 40
0.466507628
 40
0.5026572389
 40
0.5394472298
 40
0.5767959041
 40
0.6146199124
 40
0.6528345158
 40
0.6913538428
 40
0.7300911403
 40
0.7689590294
 40
0.8078697587
 40
0.8467354142
 40
0.885468393
 40
0.9239808777
 40
0.9621872155
 40
1.0
 40
1.0
 40
1.0
 40
1.0
 10
7.8846287047
 20
9.9595584973
 30
0.0
 10
7.8831383814
 20
9.9581189554
 30
0.0
 10
7.8801597284
 20
9.9550991105
 30
0.0
 10
7.8757940046
 20
9.9502731353
 30
0.0
 10
7.8714338543
 20
9.945053104
 30
0.0
 10
7.8670820403
 20
9.9394423962
 30
0.0
 10
7.8627409767
 20
9.9334442703
 30
0.0
 10
7.8584131972
 20
9.9270621985
 30
0.0
 10
7.854101161
 20
9.9202999796
 30
0.0
 10
7.8498075412
 20
9.9131615935
 30
0.0
 10
7.845534814
 20
9.9056513282
 30
0.0
 10
7.841285573
 20
9.8977736328
 30
0.0
 10
7.8370623509
 20
9.8895332088
 30
0.0
 10
7.832867648
 20
9.8809349885
 30
0.0
 10
7.8287040522
 20
9.8719840973
 30
0.0
 10
7.8245739857
 20
9.8626859191
 30
0.0
 10
7.8204800108
 20
9.8530460068
 30
0.0
 10
7.8164245388
 20
9.8430701577
 30
0.0
 10
7.8124100333
 20
9.8327643533
 30
0.0
 10
7.8084389353
 20
9.8221347835
 30
0.0
 10
7.8045135719
 20
9.8111878327
 30
0.0
 10
7.7992854898
 20
9.7960074078
 30
0.0
 10
7.7928920856
 20
9.7762813904
 30
0.0
 10
7.785522651
 20
9.7517095779
 30
0.0
 10
7.7783904497
 20
9.7260387147
 30
0.0
 10
7.7715127539
 20
9.6993305535
 30
0.0
 10
7.7649062118
 20
9.6716492292
 30
0.0
 10
7.7585868122
 20
9.6430612988
 30
0.0
 10
7.7525698443
 20
9.6136355129
 30
0.0
 10
7.7468698616
 20
9.5834426613
 30
0.0
 10
7.7415006469
 20
9.5525553955
 30
0.0
 10
7.7364751814
 20
9.5210480536
 30
0.0
 10
7.7318056056
 20
9.4889964803
 30
0.0
 10
7.7275031961
 20
9.4564778396
 30
0.0
 10
7.7235783406
 20
9.423570425
 30
0.0
 10
7.7200405127
 20
9.3903534699
 30
0.0
 10
7.716898249
 20
9.3569069563
 30
0.0
 10
7.7141591297
 20
9.3233114214
 30
0.0
 10
7.7118297601
 20
9.289647774
 30
0.0
 10
7.7099157353
 20
9.2559970452
 30
0.0
 10
7.7084216843
 20
9.2224403714
 30
0.0
 10
7.707351141
 20
9.1890583143
 30
0.0
 10
7.7067067416
 20
9.1559315991
 30
0.0
 10
7.7065613487
 20
9.1339402465
 30
0.0
 10
7.7065613487
 20
9.1230016212
 30
0.0
  0
SPLINE
  5
2E2
100
AcDbEntity
  8
0
100
AcDbSpline
 62
7
  6
CONTINUOUS
 70
0
 71
3
 72
36
 73
32
 74
0
 42
0.0000001
 43
0.0000001
 44
0.0000000001
 40
0.0
 40
0.0
 40
0.0
 40
0.0
 40
0.0851785676
 40
0.1685799412
 40
0.2498822288
 40
0.2896484595
 40
0.3287737794
 40
0.3672213323
 40
0.4049550248
 40
0.4419399621
 40
0.4781422097
 40
0.5135290828
 40
0.5480690991
 40
0.5817320933
 40
0.6144894081
 40
0.6463137811
 40
0.6771797808
 40
0.7070635563
 40
0.7359433837
 40
0.7637994846
 40
0.7906144915
 40
0.8163735534
 40
0.8410646067
 40
0.8646788865
 40
0.8872110453
 40
0.9086600689
 40
0.9290294673
 40
0.9483284919
 40
0.9665727628
 40
0.9837857144
 40
1.0
 40
1.0
 40
1.0
 40
1.0
 10
7.7065613487
 20
7.4326313251
 30
0.0
 10
7.7065613487
 20
7.4183761809
 30
0.0
 10
7.7068042527
 20
7.3901626107
 30
0.0
 10
7.7079183981
 20
7.3483559798
 30
0.0
 10
7.7094758835
 20
7.3141697747
 30
0.0
 10
7.7111001212
 20
7.2874092305
 30
0.0
 10
7.7124921023
 20
7.2678208499
 30
0.0
 10
7.714065255
 20
7.2485874578
 30
0.0
 10
7.715817993
 20
7.2297292935
 30
0.0
 10
7.7177483904
 20
7.2112662352
 30
0.0
 10
7.7198544503
 20
7.1932177224
 30
0.0
 10
7.7221339071
 20
7.1756027624
 30
0.0
 10
7.7245843515
 20
7.1584399009
 30
0.0
 10
7.7272032012
 20
7.141747202
 30
0.0
 10
7.7299876368
 20
7.1255422318
 30
0.0
 10
7.7329347676
 20
7.1098420337
 30
0.0
 10
7.7360413924
 20
7.0946631136
 30
0.0
 10
7.7393042969
 20
7.0800214204
 30
0.0
 10
7.7427199511
 20
7.0659323225
 30
0.0
 10
7.7462847916
 20
7.0524105983
 30
0.0
 10
7.7499950187
 20
7.0394704093
 30
0.0
 10
7.7538467097
 20
7.0271252854
 30
0.0
 10
7.7578358424
 20
7.0153881147
 30
0.0
 10
7.7619581591
 20
7.0042710994
 30
0.0
 10
7.7662094463
 20
6.9937857879
 30
0.0
 10
7.7705851864
 20
6.9839429837
 30
0.0
 10
7.7750810037
 20
6.9747528154
 30
0.0
 10
7.7796922388
 20
6.9662246679
 30
0.0
 10
7.7844144941
 20
6.9583670902
 30
0.0
 10
7.7892428907
 20
6.9511883937
 30
0.0
 10
7.7926285836
 20
6.9467297564
 30
0.0
 10
7.7943407588
 20
6.9446245598
 30
0.0
  0
SPLINE
  5
2E3
100
AcDbEntity
  8
0
100
AcDbSpline
 62
7
  6
CONTINUOUS
 70
0
 71
3
 72
52
 73
48
 74
0
 42
0.0000001
 43
0.0000001
 44
0.0000000001
 40
0.0
 40
0.0
 40
0.0
 40
0.0
 40
0.0063158568
 40
0.0126706178
 40
0.0191024266
 40
0.0256479345
 40
0.0323417789
 40
0.0392160908
 40
0.0536138298
 40
0.0611945069
 40
0.0690562056
 40
0.0772172859
 40
0.0856936163
 40
0.094498959
 40
0.1036450353
 40
0.1131417384
 40
0.1229974561
 40
0.1332190303
 40
0.1438120572
 40
0.1547810415
 40
0.1661293353
 40
0.1778594655
 40
0.1899731041
 40
0.2024710934
 40
0.2153537091
 40
0.2286205088
 40
0.2422704818
 40
0.2563021821
 40
0.2707135511
 40
0.3006644045
 40
0.3320995118
 40
0.364988637
 40
0.399296387
 40
0.4349827261
 40
0.4720035166
 40
0.5103109065
 40
0.549853604
 40
0.5905771631
 40
0.632424299
 40
0.6753351168
 40
0.7192472758
 40
0.7640961515
 40
0.8098152405
 40
0.8563361104
 40
0.9035880427
 40
0.9515014724
 40
1.0
 40
1.0
 40
1.0
 40
1.0
 10
13.810366101
 20
7.5984071654
 30
0.0
 10
13.809174518
 20
7.598489799
 30
0.0
 10
13.806789642
 20
7.5987530969
 30
0.0
 10
13.8032390501
 20
7.59943941
 30
0.0
 10
13.7997122012
 20
7.6004170984
 30
0.0
 10
13.7962111351
 20
7.601685312
 30
0.0
 10
13.7927372484
 20
7.6032433904
 30
0.0
 10
13.788072751
 20
7.6057437936
 30
0.0
 10
13.7835349161
 20
7.6088046594
 30
0.0
 10
13.779143456
 20
7.6123517373
 30
0.0
 10
13.7758264118
 20
7.6153423374
 30
0.0
 10
13.7725448111
 20
7.6186155771
 30
0.0
 10
13.7692994285
 20
7.6221702477
 30
0.0
 10
13.7660916299
 20
7.6260048499
 30
0.0
 10
13.7629225886
 20
7.6301178166
 30
0.0
 10
13.759793487
 20
7.6345074434
 30
0.0
 10
13.7567056031
 20
7.6391719916
 30
0.0
 10
13.7536601025
 20
7.644109539
 30
0.0
 10
13.7506581927
 20
7.649318087
 30
0.0
 10
13.747701122
 20
7.6547955433
 30
0.0
 10
13.7447900195
 20
7.6605396525
 30
0.0
 10
13.7419261002
 20
7.6665480923
 30
0.0
 10
13.7391105386
 20
7.6728184143
 30
0.0
 10
13.7363444375
 20
7.6793480418
 30
0.0
 10
13.7336289829
 20
7.686134322
 30
0.0
 10
13.730965261
 20
7.6931744665
 30
0.0
 10
13.7283543552
 20
7.7004655834
 30
0.0
 10
13.7257973692
 20
7.7080047042
 30
0.0
 10
13.7224178886
 20
7.7185186813
 30
0.0
 10
13.7183458773
 20
7.7322651346
 30
0.0
 10
13.7137513315
 20
7.7494941231
 30
0.0
 10
13.709395686
 20
7.7676334237
 30
0.0
 10
13.7052861821
 20
7.7866531894
 30
0.0
 10
13.7014296474
 20
7.8065222492
 30
0.0
 10
13.6978325049
 20
7.8272079466
 30
0.0
 10
13.6945007596
 20
7.8486762717
 30
0.0
 10
13.6914399657
 20
7.8708918895
 30
0.0
 10
13.6886552115
 20
7.8938182081
 30
0.0
 10
13.6861511387
 20
7.9174174543
 30
0.0
 10
13.6839319327
 20
7.941650739
 30
0.0
 10
13.6820012908
 20
7.9664781036
 30
0.0
 10
13.680362418
 20
7.9918586134
 30
0.0
 10
13.6790180542
 20
8.0177504199
 30
0.0
 10
13.677970465
 20
8.0441107225
 30
0.0
 10
13.6772213533
 20
8.0708963305
 30
0.0
 10
13.676772044
 20
8.0980626501
 30
0.0
 10
13.6766733759
 20
8.1162960929
 30
0.0
 10
13.6766733759
 20
8.1254680573
 30
0.0
  0
SPLINE
  5
2E4
100
AcDbEntity
  8
0
100
AcDbSpline
 62
7
  6
CONTINUOUS
 70
0
 71
3
 72
22
 73
18
 74
0
 42
0.0000001
 43
0.0000001
 44
0.0000000001
 40
0.0
 40
0.0
 40
0.0
 40
0.0
 40
0.0544247541
 40
0.1090663284
 40
0.164138675
 40
0.2198503819
 40
0.2764024548
 40
0.3339859508
 40
0.3927808219
 40
0.4529552254
 40
0.514664436
 40
0.5780505852
 40
0.6432434982
 40
0.7103608664
 40
0.7795079629
 40
0.8507792288
 40
1.0
 40
1.0
 40
1.0
 40
1.0
 10
14.1073719397
 20
10.1477249393
 30
0.0
 10
14.1083901373
 20
10.1476543329
 30
0.0
 10
14.1104265827
 20
10.1474460301
 30
0.0
 10
14.1134638743
 20
10.1469337657
 30
0.0
 10
14.1164855123
 20
10.1462217031
 30
0.0
 10
14.1194904108
 20
10.1453101254
 30
0.0
 10
14.1224777129
 20
10.1441993282
 30
0.0
 10
14.1254465773
 20
10.1428897903
 30
0.0
 10
14.12839621
 20
10.1413819969
 30
0.0
 10
14.1313258107
 20
10.1396764131
 30
0.0
 10
14.1342346287
 20
10.1377735994
 30
0.0
 10
14.137121958
 20
10.1356741877
 30
0.0
 10
14.1399870781
 20
10.1333787755
 30
0.0
 10
14.1428292362
 20
10.130888002
 30
0.0
 10
14.1456478365
 20
10.1282025542
 30
0.0
 10
14.1494312879
 20
10.1243038776
 30
0.0
 10
14.1521430366
 20
10.1211763956
 30
0.0
 10
14.1539087246
 20
10.1190053886
 30
0.0
  0
SPLINE
  5
2E5
100
AcDbEntity
  8
0
100
AcDbSpline
 62
7
  6
CONTINUOUS
 70
0
 71
3
 72
22
 73
18
 74
0
 42
0.0000001
 43
0.0000001
 44
0.0000000001
 40
0.0
 40
0.0
 40
0.0
 40
0.0
 40
0.1492211409
 40
0.2204956624
 40
0.2896434584
 40
0.3567599937
 40
0.4219519367
 40
0.4853372437
 40
0.5470459503
 40
0.6072203975
 40
0.6660153819
 40
0.7235986022
 40
0.7801503907
 40
0.8358619542
 40
0.8909340655
 40
0.945575415
 40
1.0
 40
1.0
 40
1.0
 40
1.0
 10
13.541190198
 20
6.4879700048
 30
0.0
 10
13.5391417179
 20
6.4860635179
 30
0.0
 10
13.5360241448
 20
6.4833402838
 30
0.0
 10
13.5317387341
 20
6.4800010751
 30
0.0
 10
13.5285763664
 20
6.4777303859
 30
0.0
 10
13.525417597
 20
6.4756558191
 30
0.0
 10
13.5222631058
 20
6.4737778821
 30
0.0
 10
13.5191136518
 20
6.4720971582
 30
0.0
 10
13.5159700261
 20
6.4706141324
 30
0.0
 10
13.5128330498
 20
6.4693292581
 30
0.0
 10
13.5097035368
 20
6.4682430211
 30
0.0
 10
13.5065823264
 20
6.4673558672
 30
0.0
 10
13.5034702998
 20
6.4666680886
 30
0.0
 10
13.5003683554
 20
6.4661799812
 30
0.0
 10
13.4972773611
 20
6.4658918466
 30
0.0
 10
13.4941984455
 20
6.4658037829
 30
0.0
 10
13.4921527492
 20
6.4658785623
 30
0.0
 10
13.4911345549
 20
6.4659491684
 30
0.0
  0
SPLINE
  5
2E6
100
AcDbEntity
  8
0
100
AcDbSpline
 62
7
  6
CONTINUOUS
 70
0
 71
3
 72
36
 73
32
 74
0
 42
0.0000001
 43
0.0000001
 44
0.0000000001
 40
0.0
 40
0.0
 40
0.0
 40
0.0
 40
0.0162142856
 40
0.0334272372
 40
0.0516715081
 40
0.0709705327
 40
0.0913399311
 40
0.1127889547
 40
0.1353211135
 40
0.1589353933
 40
0.1836264466
 40
0.2093855085
 40
0.2362005154
 40
0.2640566163
 40
0.2929364437
 40
0.3228202192
 40
0.3536862189
 40
0.3855105919
 40
0.4182679067
 40
0.4519309009
 40
0.4864709172
 40
0.5218577903
 40
0.5580600379
 40
0.5950449752
 40
0.6327786677
 40
0.6712262206
 40
0.7103515405
 40
0.7501177712
 40
0.8314200588
 40
0.9148214324
 40
1.0
 40
1.0
 40
1.0
 40
1.0
 10
14.2056592412
 20
10.0553754402
 30
0.0
 10
14.2073714164
 20
10.0532702436
 30
0.0
 10
14.2107571093
 20
10.0488116063
 30
0.0
 10
14.2155855059
 20
10.0416329098
 30
0.0
 10
14.2203077612
 20
10.0337753321
 30
0.0
 10
14.2249189963
 20
10.0252471846
 30
0.0
 10
14.2294148136
 20
10.0160570163
 30
0.0
 10
14.2337905537
 20
10.0062142121
 30
0.0
 10
14.2380418409
 20
9.9957289006
 30
0.0
 10
14.2421641576
 20
9.9846118853
 30
0.0
 10
14.2461532903
 20
9.9728747146
 30
0.0
 10
14.2500049813
 20
9.9605295907
 30
0.0
 10
14.2537152084
 20
9.9475894017
 30
0.0
 10
14.2572800489
 20
9.9340676775
 30
0.0
 10
14.2606957031
 20
9.9199785796
 30
0.0
 10
14.2639586076
 20
9.9053368864
 30
0.0
 10
14.2670652324
 20
9.8901579663
 30
0.0
 10
14.2700123632
 20
9.8744577682
 30
0.0
 10
14.2727967988
 20
9.858252798
 30
0.0
 10
14.2754156485
 20
9.8415600991
 30
0.0
 10
14.2778660929
 20
9.8243972376
 30
0.0
 10
14.2801455497
 20
9.8067822776
 30
0.0
 10
14.2822516096
 20
9.7887337648
 30
0.0
 10
14.284182007
 20
9.7702707065
 30
0.0
 10
14.285934745
 20
9.7514125422
 30
0.0
 10
14.2875078977
 20
9.7321791501
 30
0.0
 10
14.2888998788
 20
9.7125907695
 30
0.0
 10
14.2905241165
 20
9.6858302253
 30
0.0
 10
14.2920816019
 20
9.6516440202
 30
0.0
 10
14.2931957473
 20
9.6098373893
 30
0.0
 10
14.2934386513
 20
9.5816238191
 30
0.0
 10
14.2934386513
 20
9.5673686749
 30
0.0
  0
SPLINE
  5
2E7
100
AcDbEntity
  8
0
100
AcDbSpline
 62
7
  6
CONTINUOUS
 70
0
 71
3
 72
39
 73
35
 74
0
 42
0.0000001
 43
0.0000001
 44
0.0000000001
 40
0.0
 40
0.0
 40
0.0
 40
0.0
 40
0.0299424725
 40
0.0599093195
 40
0.0899243237
 40
0.1200100993
 40
0.1501875534
 40
0.1804753997
 40
0.2108897381
 40
0.2414437083
 40
0.2721472261
 40
0.3030068024
 40
0.3340254485
 40
0.3652026624
 40
0.3965344927
 40
0.4280136743
 40
0.4596298287
 40
0.4913697214
 40
0.5232175685
 40
0.5551553859
 40
0.5871633717
 40
0.6192203171
 40
0.6513040363
 40
0.6833918115
 40
0.7154608445
 40
0.747488709
 40
0.7794537991
 40
0.8113357648
 40
0.8431159318
 40
0.87477769
 40
0.9063068705
 40
0.9376920244
 40
0.9689248101
 40
1.0
 40
1.0
 40
1.0
 40
1.0
 10
12.035465162
 20
9.2747520747
 30
0.0
 10
12.0389987587
 20
9.2781652904
 30
0.0
 10
12.0463437697
 20
9.2847163048
 30
0.0
 10
12.0581116676
 20
9.2936408808
 30
0.0
 10
12.0705697553
 20
9.3016188884
 30
0.0
 10
12.0836484335
 20
9.3086055615
 30
0.0
 10
12.097275793
 20
9.3145627329
 30
0.0
 10
12.1113766264
 20
9.319457655
 30
0.0
 10
12.1258732291
 20
9.3232635456
 30
0.0
 10
12.1406857346
 20
9.3259596259
 30
0.0
 10
12.1557325875
 20
9.3275312509
 30
0.0
 10
12.1709309874
 20
9.3279699713
 30
0.0
 10
12.1861973464
 20
9.3272735707
 30
0.0
 10
12.2014477458
 20
9.3254460675
 30
0.0
 10
12.2165983934
 20
9.3224976837
 30
0.0
 10
12.2315660784
 20
9.3184447824
 30
0.0
 10
12.2462686223
 20
9.3133097719
 30
0.0
 10
12.2606253235
 20
9.3071209796
 30
0.0
 10
12.2745573944
 20
9.299912494
 30
0.0
 10
12.2879883876
 20
9.2917239768
 30
0.0
 10
12.3008446095
 20
9.2826004454
 30
0.0
 10
12.3130555199
 20
9.2725920269
 30
0.0
 10
12.3245541145
 20
9.2617536849
 30
0.0
 10
12.335277288
 20
9.2501449203
 30
0.0
 10
12.3451661771
 20
9.2378294479
 30
0.0
 10
12.3541664806
 20
9.22487485
 30
0.0
 10
12.3622287542
 20
9.2113522103
 30
0.0
 10
12.3693086812
 20
9.1973357261
 30
0.0
 10
12.3753673121
 20
9.1829023151
 30
0.0
 10
12.380371283
 20
9.1681311636
 30
0.0
 10
12.3842929888
 20
9.1531034309
 30
0.0
 10
12.3871107571
 20
9.1379013164
 30
0.0
 10
12.3888089384
 20
9.1226094299
 30
0.0
 10
12.3891893034
 20
9.1123821918
 30
0.0
 10
12.3891893034
 20
9.1072834631
 30
0.0
  0
SPLINE
  5
2E8
100
AcDbEntity
  8
0
100
AcDbSpline
 62
7
  6
CONTINUOUS
 70
0
 71
3
 72
39
 73
35
 74
0
 42
0.0000001
 43
0.0000001
 44
0.0000000001
 40
0.0
 40
0.0
 40
0.0
 40
0.0
 40
0.0299424725
 40
0.0599093195
 40
0.0899243237
 40
0.1200100993
 40
0.1501875534
 40
0.1804753997
 40
0.2108897381
 40
0.2414437083
 40
0.2721472261
 40
0.3030068024
 40
0.3340254485
 40
0.3652026624
 40
0.3965344927
 40
0.4280136743
 40
0.4596298287
 40
0.4913697214
 40
0.5232175685
 40
0.5551553859
 40
0.5871633717
 40
0.6192203171
 40
0.6513040363
 40
0.6833918115
 40
0.7154608445
 40
0.747488709
 40
0.7794537991
 40
0.8113357648
 40
0.8431159318
 40
0.87477769
 40
0.9063068705
 40
0.9376920244
 40
0.9689248101
 40
1.0
 40
1.0
 40
1.0
 40
1.0
 10
8.9560934803
 20
9.5462627238
 30
0.0
 10
8.959627077
 20
9.5496759396
 30
0.0
 10
8.966972088
 20
9.556226954
 30
0.0
 10
8.9787399859
 20
9.56515153
 30
0.0
 10
8.9911980737
 20
9.5731295376
 30
0.0
 10
9.0042767518
 20
9.5801162107
 30
0.0
 10
9.0179041113
 20
9.5860733821
 30
0.0
 10
9.0320049448
 20
9.5909683042
 30
0.0
 10
9.0465015475
 20
9.5947741948
 30
0.0
 10
9.061314053
 20
9.5974702751
 30
0.0
 10
9.0763609059
 20
9.5990419001
 30
0.0
 10
9.0915593057
 20
9.5994806205
 30
0.0
 10
9.1068256647
 20
9.5987842199
 30
0.0
 10
9.1220760641
 20
9.5969567167
 30
0.0
 10
9.1372267118
 20
9.5940083329
 30
0.0
 10
9.1521943968
 20
9.5899554316
 30
0.0
 10
9.1668969406
 20
9.5848204211
 30
0.0
 10
9.1812536418
 20
9.5786316288
 30
0.0
 10
9.1951857127
 20
9.5714231432
 30
0.0
 10
9.2086167059
 20
9.563234626
 30
0.0
 10
9.2214729278
 20
9.5541110946
 30
0.0
 10
9.2336838383
 20
9.5441026761
 30
0.0
 10
9.2451824328
 20
9.5332643341
 30
0.0
 10
9.2559056063
 20
9.5216555695
 30
0.0
 10
9.2657944954
 20
9.5093400971
 30
0.0
 10
9.2747947989
 20
9.4963854992
 30
0.0
 10
9.2828570725
 20
9.4828628595
 30
0.0
 10
9.2899369996
 20
9.4688463753
 30
0.0
 10
9.2959956305
 20
9.4544129643
 30
0.0
 10
9.3009996013
 20
9.4396418128
 30
0.0
 10
9.3049213071
 20
9.4246140801
 30
0.0
 10
9.3077390755
 20
9.4094119656
 30
0.0
 10
9.3094372568
 20
9.394120079
 30
0.0
 10
9.3098176217
 20
9.383892841
 30
0.0
 10
9.3098176217
 20
9.3787941123
 30
0.0
  0
SPLINE
  5
2E9
100
AcDbEntity
  8
0
100
AcDbSpline
 62
7
  6
CONTINUOUS
 70
0
 71
3
 72
39
 73
35
 74
0
 42
0.0000001
 43
0.0000001
 44
0.0000000001
 40
0.0
 40
0.0
 40
0.0
 40
0.0
 40
0.0299424725
 40
0.0599093195
 40
0.0899243237
 40
0.1200100993
 40
0.1501875534
 40
0.1804753997
 40
0.2108897381
 40
0.2414437083
 40
0.2721472261
 40
0.3030068024
 40
0.3340254485
 40
0.3652026624
 40
0.3965344927
 40
0.4280136743
 40
0.4596298287
 40
0.4913697214
 40
0.5232175685
 40
0.5551553859
 40
0.5871633717
 40
0.6192203171
 40
0.6513040363
 40
0.6833918115
 40
0.7154608445
 40
0.747488709
 40
0.7794537991
 40
0.8113357648
 40
0.8431159318
 40
0.87477769
 40
0.9063068705
 40
0.9376920244
 40
0.9689248101
 40
1.0
 40
1.0
 40
1.0
 40
1.0
 10
8.9560934803
 20
7.0734924885
 30
0.0
 10
8.959627077
 20
7.0769057042
 30
0.0
 10
8.966972088
 20
7.0834567187
 30
0.0
 10
8.9787399859
 20
7.0923812947
 30
0.0
 10
8.9911980737
 20
7.1003593023
 30
0.0
 10
9.0042767518
 20
7.1073459754
 30
0.0
 10
9.0179041113
 20
7.1133031468
 30
0.0
 10
9.0320049448
 20
7.1181980688
 30
0.0
 10
9.0465015475
 20
7.1220039594
 30
0.0
 10
9.061314053
 20
7.1247000397
 30
0.0
 10
9.0763609059
 20
7.1262716648
 30
0.0
 10
9.0915593057
 20
7.1267103851
 30
0.0
 10
9.1068256647
 20
7.1260139846
 30
0.0
 10
9.1220760641
 20
7.1241864814
 30
0.0
 10
9.1372267118
 20
7.1212380976
 30
0.0
 10
9.1521943968
 20
7.1171851962
 30
0.0
 10
9.1668969406
 20
7.1120501857
 30
0.0
 10
9.1812536418
 20
7.1058613934
 30
0.0
 10
9.1951857127
 20
7.0986529078
 30
0.0
 10
9.2086167059
 20
7.0904643906
 30
0.0
 10
9.2214729278
 20
7.0813408592
 30
0.0
 10
9.2336838383
 20
7.0713324407
 30
0.0
 10
9.2451824328
 20
7.0604940987
 30
0.0
 10
9.2559056063
 20
7.0488853341
 30
0.0
 10
9.2657944954
 20
7.0365698617
 30
0.0
 10
9.2747947989
 20
7.0236152638
 30
0.0
 10
9.2828570725
 20
7.0100926242
 30
0.0
 10
9.2899369996
 20
6.99607614
 30
0.0
 10
9.2959956305
 20
6.981642729
 30
0.0
 10
9.3009996013
 20
6.9668715775
 30
0.0
 10
9.3049213071
 20
6.9518438448
 30
0.0
 10
9.3077390755
 20
6.9366417303
 30
0.0
 10
9.3094372568
 20
6.9213498437
 30
0.0
 10
9.3098176217
 20
6.9111226057
 30
0.0
 10
9.3098176217
 20
6.906023877
 30
0.0
  0
SPLINE
  5
2EA
100
AcDbEntity
  8
0
100
AcDbSpline
 62
7
  6
CONTINUOUS
 70
0
 71
3
 72
39
 73
35
 74
0
 42
0.0000001
 43
0.0000001
 44
0.0000000001
 40
0.0
 40
0.0
 40
0.0
 40
0.0
 40
0.0299424725
 40
0.0599093195
 40
0.0899243237
 40
0.1200100993
 40
0.1501875534
 40
0.1804753997
 40
0.2108897381
 40
0.2414437083
 40
0.2721472261
 40
0.3030068024
 40
0.3340254485
 40
0.3652026624
 40
0.3965344927
 40
0.4280136743
 40
0.4596298287
 40
0.4913697214
 40
0.5232175685
 40
0.5551553859
 40
0.5871633717
 40
0.6192203171
 40
0.6513040363
 40
0.6833918115
 40
0.7154608445
 40
0.747488709
 40
0.7794537991
 40
0.8113357648
 40
0.8431159318
 40
0.87477769
 40
0.9063068705
 40
0.9376920244
 40
0.9689248101
 40
1.0
 40
1.0
 40
1.0
 40
1.0
 10
12.035465162
 20
6.9159610367
 30
0.0
 10
12.0389987587
 20
6.9193742524
 30
0.0
 10
12.0463437697
 20
6.9259252669
 30
0.0
 10
12.0581116676
 20
6.9348498428
 30
0.0
 10
12.0705697553
 20
6.9428278505
 30
0.0
 10
12.0836484335
 20
6.9498145235
 30
0.0
 10
12.097275793
 20
6.9557716949
 30
0.0
 10
12.1113766264
 20
6.960666617
 30
0.0
 10
12.1258732291
 20
6.9644725076
 30
0.0
 10
12.1406857346
 20
6.9671685879
 30
0.0
 10
12.1557325875
 20
6.9687402129
 30
0.0
 10
12.1709309874
 20
6.9691789333
 30
0.0
 10
12.1861973464
 20
6.9684825328
 30
0.0
 10
12.2014477458
 20
6.9666550295
 30
0.0
 10
12.2165983934
 20
6.9637066458
 30
0.0
 10
12.2315660784
 20
6.9596537444
 30
0.0
 10
12.2462686223
 20
6.9545187339
 30
0.0
 10
12.2606253235
 20
6.9483299416
 30
0.0
 10
12.2745573944
 20
6.941121456
 30
0.0
 10
12.2879883876
 20
6.9329329388
 30
0.0
 10
12.3008446095
 20
6.9238094074
 30
0.0
 10
12.3130555199
 20
6.9138009889
 30
0.0
 10
12.3245541145
 20
6.9029626469
 30
0.0
 10
12.335277288
 20
6.8913538823
 30
0.0
 10
12.3451661771
 20
6.8790384099
 30
0.0
 10
12.3541664806
 20
6.866083812
 30
0.0
 10
12.3622287542
 20
6.8525611724
 30
0.0
 10
12.3693086812
 20
6.8385446881
 30
0.0
 10
12.3753673121
 20
6.8241112771
 30
0.0
 10
12.380371283
 20
6.8093401256
 30
0.0
 10
12.3842929888
 20
6.794312393
 30
0.0
 10
12.3871107571
 20
6.7791102784
 30
0.0
 10
12.3888089384
 20
6.7638183919
 30
0.0
 10
12.3891893034
 20
6.7535911539
 30
0.0
 10
12.3891893034
 20
6.7484924252
 30
0.0
  0
SPLINE
  5
2EB
100
AcDbEntity
  8
0
100
AcDbSpline
 62
7
  6
CONTINUOUS
 70
0
 71
3
 72
49
 73
45
 74
0
 42
0.0000001
 43
0.0000001
 44
0.0000000001
 40
0.0
 40
0.0
 40
0.0
 40
0.0
 40
0.014971806
 40
0.0299466721
 40
0.0449276378
 40
0.0599177056
 40
0.0749198251
 40
0.0899368686
 40
0.1049716209
 40
0.1200267599
 40
0.1351048373
 40
0.1502082725
 40
0.1653393295
 40
0.1805001092
 40
0.1956925408
 40
0.2109183618
 40
0.2261791206
 40
0.2414761621
 40
0.2568106197
 40
0.2721834197
 40
0.2875952652
 40
0.3030466433
 40
0.3340635283
 40
0.3652389711
 40
0.3965690196
 40
0.4280464092
 40
0.459660763
 40
0.4913988468
 40
0.5232448768
 40
0.55518087
 40
0.5871870264
 40
0.6192421383
 40
0.6513240212
 40
0.6834099587
 40
0.7154771543
 40
0.7475031829
 40
0.77946644
 40
0.8113465777
 40
0.8431249224
 40
0.8747848672
 40
0.9063122265
 40
0.9376956464
 40
0.9689264223
 40
1.0
 40
1.0
 40
1.0
 40
1.0
 10
9.5391030968
 20
8.4620459806
 30
0.0
 10
9.5432509098
 20
8.4660524469
 30
0.0
 10
9.5517076733
 20
8.4739021446
 30
0.0
 10
9.5648520463
 20
8.4851646215
 30
0.0
 10
9.5784390518
 20
8.4959007462
 30
0.0
 10
9.5924496377
 20
8.506095613
 30
0.0
 10
9.6068646544
 20
8.5157351802
 30
0.0
 10
9.6216642269
 20
8.5248061852
 30
0.0
 10
9.6368279577
 20
8.5332962191
 30
0.0
 10
9.6523350376
 20
8.5411934903
 30
0.0
 10
9.6681640669
 20
8.548487252
 30
0.0
 10
9.6842932883
 20
8.5551674286
 30
0.0
 10
9.7007005159
 20
8.5612248037
 30
0.0
 10
9.7173631365
 20
8.5666511592
 30
0.0
 10
9.7342582634
 20
8.5714389169
 30
0.0
 10
9.7513626231
 20
8.5755815883
 30
0.0
 10
9.768652689
 20
8.5790734886
 30
0.0
 10
9.7861046832
 20
8.581909742
 30
0.0
 10
9.8036946007
 20
8.5840865885
 30
0.0
 10
9.8213981783
 20
8.5856009471
 30
0.0
 10
9.8391913707
 20
8.5864507611
 30
0.0
 10
9.86302953
 20
8.5866967412
 30
0.0
 10
9.8929350037
 20
8.5853325414
 30
0.0
 10
9.9287330752
 20
8.5810423911
 30
0.0
 10
9.9642980312
 20
8.5741211346
 30
0.0
 10
9.9994332046
 20
8.5646071411
 30
0.0
 10
10.0339460446
 20
8.5525529951
 30
0.0
 10
10.0676470149
 20
8.5380251958
 30
0.0
 10
10.1003512068
 20
8.5211037876
 30
0.0
 10
10.1318791642
 20
8.5018818722
 30
0.0
 10
10.1620578945
 20
8.4804651086
 30
0.0
 10
10.190721798
 20
8.4569711497
 30
0.0
 10
10.2177136084
 20
8.4315290423
 30
0.0
 10
10.2428851998
 20
8.4042784623
 30
0.0
 10
10.2660983948
 20
8.3753689678
 30
0.0
 10
10.287225702
 20
8.3449591827
 30
0.0
 10
10.3061510711
 20
8.3132159814
 30
0.0
 10
10.3227704892
 20
8.2803135419
 30
0.0
 10
10.3369925308
 20
8.2464324179
 30
0.0
 10
10.3487388445
 20
8.2117584843
 30
0.0
 10
10.3579446588
 20
8.1764822313
 30
0.0
 10
10.3645590314
 20
8.1407967152
 30
0.0
 10
10.3685454109
 20
8.1049004163
 30
0.0
 10
10.3694382607
 20
8.080892931
 30
0.0
 10
10.3694382607
 20
8.0689240681
 30
0.0
  0
SPLINE
  5
2EC
100
AcDbEntity
  8
0
100
AcDbSpline
 62
7
  6
CONTINUOUS
 70
0
 71
3
 72
49
 73
45
 74
0
 42
0.0000001
 43
0.0000001
 44
0.0000000001
 40
0.0
 40
0.0
 40
0.0
 40
0.0
 40
0.014971806
 40
0.0299466721
 40
0.0449276378
 40
0.0599177056
 40
0.0749198251
 40
0.0899368686
 40
0.1049716209
 40
0.1200267599
 40
0.1351048373
 40
0.1502082725
 40
0.1653393295
 40
0.1805001092
 40
0.1956925408
 40
0.2109183618
 40
0.2261791206
 40
0.2414761621
 40
0.2568106197
 40
0.2721834197
 40
0.2875952652
 40
0.3030466433
 40
0.3340635283
 40
0.3652389711
 40
0.3965690196
 40
0.4280464092
 40
0.459660763
 40
0.4913988468
 40
0.5232448768
 40
0.55518087
 40
0.5871870264
 40
0.6192421383
 40
0.6513240212
 40
0.6834099587
 40
0.7154771543
 40
0.7475031829
 40
0.77946644
 40
0.8113465777
 40
0.8431249224
 40
0.8747848672
 40
0.9063122265
 40
0.9376956464
 40
0.9689264223
 40
1.0
 40
1.0
 40
1.0
 40
1.0
 10
10.8701489845
 20
8.3697376348
 30
0.0
 10
10.8742967976
 20
8.373744101
 30
0.0
 10
10.8827535611
 20
8.3815937988
 30
0.0
 10
10.8958979341
 20
8.3928562757
 30
0.0
 10
10.9094849395
 20
8.4035924003
 30
0.0
 10
10.9234955255
 20
8.4137872672
 30
0.0
 10
10.9379105421
 20
8.4234268343
 30
0.0
 10
10.9527101147
 20
8.4324978394
 30
0.0
 10
10.9678738454
 20
8.4409878733
 30
0.0
 10
10.9833809254
 20
8.4488851445
 30
0.0
 10
10.9992099546
 20
8.4561789062
 30
0.0
 10
11.015339176
 20
8.4628590828
 30
0.0
 10
11.0317464037
 20
8.4689164578
 30
0.0
 10
11.0484090243
 20
8.4743428133
 30
0.0
 10
11.0653041512
 20
8.4791305711
 30
0.0
 10
11.0824085108
 20
8.4832732424
 30
0.0
 10
11.0996985768
 20
8.4867651428
 30
0.0
 10
11.1171505709
 20
8.4896013962
 30
0.0
 10
11.1347404885
 20
8.4917782426
 30
0.0
 10
11.152444066
 20
8.4932926013
 30
0.0
 10
11.1702372585
 20
8.4941424153
 30
0.0
 10
11.1940754178
 20
8.4943883954
 30
0.0
 10
11.2239808914
 20
8.4930241956
 30
0.0
 10
11.259778963
 20
8.4887340453
 30
0.0
 10
11.295343919
 20
8.4818127888
 30
0.0
 10
11.3304790923
 20
8.4722987953
 30
0.0
 10
11.3649919324
 20
8.4602446493
 30
0.0
 10
11.3986929027
 20
8.44571685
 30
0.0
 10
11.4313970946
 20
8.4287954418
 30
0.0
 10
11.4629250519
 20
8.4095735264
 30
0.0
 10
11.4931037822
 20
8.3881567628
 30
0.0
 10
11.5217676858
 20
8.3646628039
 30
0.0
 10
11.5487594962
 20
8.3392206965
 30
0.0
 10
11.5739310876
 20
8.3119701165
 30
0.0
 10
11.5971442826
 20
8.283060622
 30
0.0
 10
11.6182715897
 20
8.2526508368
 30
0.0
 10
11.6371969589
 20
8.2209076355
 30
0.0
 10
11.6538163769
 20
8.188005196
 30
0.0
 10
11.6680384186
 20
8.154124072
 30
0.0
 10
11.6797847322
 20
8.1194501385
 30
0.0
 10
11.6889905465
 20
8.0841738855
 30
0.0
 10
11.6956049191
 20
8.0484883694
 30
0.0
 10
11.6995912986
 20
8.0125920705
 30
0.0
 10
11.7004841485
 20
7.9885845852
 30
0.0
 10
11.7004841485
 20
7.9766157223
 30
0.0
  0
SPLINE
  5
2ED
100
AcDbEntity
  8
0
100
AcDbSpline
 62
7
  6
CONTINUOUS
 70
0
 71
3
 72
22
 73
18
 74
0
 42
0.0000001
 43
0.0000001
 44
0.0000000001
 40
0.0
 40
0.0
 40
0.0
 40
0.0
 40
0.0544245595
 40
0.1090658641
 40
0.1641379805
 40
0.2198495251
 40
0.2764012756
 40
0.333984556
 40
0.3927796259
 40
0.4529539641
 40
0.5146624686
 40
0.5780476197
 40
0.6432395097
 40
0.7103561657
 40
0.7795043596
 40
0.8507792947
 40
1.0
 40
1.0
 40
1.0
 40
1.0
 10
8.5088654442
 20
10.5340508191
 30
0.0
 10
8.5078472505
 20
10.5341214262
 30
0.0
 10
8.5058015563
 20
10.5341962166
 30
0.0
 10
8.5027226407
 20
10.5341081691
 30
0.0
 10
8.4996316499
 20
10.5338200074
 30
0.0
 10
8.4965297064
 20
10.5333319056
 30
0.0
 10
8.4934176763
 20
10.5326441415
 30
0.0
 10
8.4902964655
 20
10.5317569802
 30
0.0
 10
8.487166957
 20
10.5306707291
 30
0.0
 10
8.4840299804
 20
10.5293858678
 30
0.0
 10
8.4808863579
 20
10.5279028551
 30
0.0
 10
8.4777369144
 20
10.5262221277
 30
0.0
 10
8.4745824237
 20
10.5243441934
 30
0.0
 10
8.4714236448
 20
10.5222696251
 30
0.0
 10
8.4682612651
 20
10.5199989225
 30
0.0
 10
8.4639758543
 20
10.5166597026
 30
0.0
 10
8.4608582772
 20
10.5139364743
 30
0.0
 10
8.458809802
 20
10.5120299941
 30
0.0
  0
SPLINE
  5
2EE
100
AcDbEntity
  8
0
100
AcDbSpline
 62
7
  6
CONTINUOUS
 70
0
 71
3
 72
22
 73
18
 74
0
 42
0.0000001
 43
0.0000001
 44
0.0000000001
 40
0.0
 40
0.0
 40
0.0
 40
0.0
 40
0.149220422
 40
0.2204919265
 40
0.28963916
 40
0.3567562663
 40
0.4219492235
 40
0.4853355709
 40
0.5470447143
 40
0.6072190027
 40
0.6660139928
 40
0.7235975559
 40
0.7801495316
 40
0.8358612601
 40
0.8909336626
 40
0.9455752389
 40
1.0
 40
1.0
 40
1.0
 40
1.0
 10
7.8460912736
 20
6.8809945979
 30
0.0
 10
7.8478569516
 20
6.8788235919
 30
0.0
 10
7.8505687341
 20
6.8756961431
 30
0.0
 10
7.8543521613
 20
6.8717974452
 30
0.0
 10
7.8571707498
 20
6.8691119818
 30
0.0
 10
7.8600129324
 20
6.8666212394
 30
0.0
 10
7.8628780476
 20
6.8643258242
 30
0.0
 10
7.8657653618
 20
6.8622263868
 30
0.0
 10
7.8686741869
 20
6.8603235832
 30
0.0
 10
7.8716037993
 20
6.8586180242
 30
0.0
 10
7.8745534207
 20
6.857110209
 30
0.0
 10
7.8775222793
 20
6.8558006524
 30
0.0
 10
7.8805095944
 20
6.8546898917
 30
0.0
 10
7.883514489
 20
6.8537783083
 30
0.0
 10
7.8865361225
 20
6.8530662211
 30
0.0
 10
7.8895734171
 20
6.8525539656
 30
0.0
 10
7.8916098637
 20
6.8523456806
 30
0.0
 10
7.8926280612
 20
6.8522750732
 30
0.0
  0
SPLINE
  5
2EF
100
AcDbEntity
  8
0
100
AcDbSpline
 62
7
  6
CONTINUOUS
 70
0
 71
3
 72
41
 73
37
 74
0
 42
0.0000001
 43
0.0000001
 44
0.0000000001
 40
0.0
 40
0.0
 40
0.0
 40
0.0
 40
0.0299421261
 40
0.0449237712
 40
0.0599145221
 40
0.0899291772
 40
0.1200146013
 40
0.1350933596
 40
0.1501974793
 40
0.1804849718
 40
0.2108989568
 40
0.2414525746
 40
0.27215574
 40
0.3030149616
 40
0.3340332486
 40
0.3652100987
 40
0.3965415618
 40
0.4280203745
 40
0.4596361601
 40
0.4913756848
 40
0.5232231637
 40
0.55516061
 40
0.587168221
 40
0.6192247883
 40
0.6513081285
 40
0.6833955259
 40
0.7154641834
 40
0.747491675
 40
0.7794563926
 40
0.8113379819
 40
0.8431177834
 40
0.8747791281
 40
0.9063080575
 40
0.9376925183
 40
0.9689255783
 40
1.0
 40
1.0
 40
1.0
 40
1.0
 10
9.5817224721
 20
6.9744064304
 30
0.0
 10
9.5838791281
 20
6.9764896093
 30
0.0
 10
9.5872412067
 20
6.9794881836
 30
0.0
 10
9.5919497693
 20
6.9832087204
 30
0.0
 10
9.5968082527
 20
6.986744151
 30
0.0
 10
9.6031477971
 20
6.9908039592
 30
0.0
 10
9.6097955889
 20
6.9943550982
 30
0.0
 10
9.6152782612
 20
6.9968814676
 30
0.0
 10
9.6208742439
 20
6.999199172
 30
0.0
 10
9.6280535948
 20
7.0016914646
 30
0.0
 10
9.6369010829
 20
7.0040142
 30
0.0
 10
9.6459416271
 20
7.0056597088
 30
0.0
 10
9.6551251327
 20
7.0066188906
 30
0.0
 10
9.6644011483
 20
7.0068866335
 30
0.0
 10
9.6737186341
 20
7.0064615792
 30
0.0
 10
9.6830263789
 20
7.0053461859
 30
0.0
 10
9.6922732413
 20
7.003546693
 30
0.0
 10
9.701408437
 20
7.0010730868
 30
0.0
 10
9.7103818103
 20
6.9979390414
 30
0.0
 10
9.7191441061
 20
6.9941618423
 30
0.0
 10
9.7276472345
 20
6.9897622892
 30
0.0
 10
9.7358445381
 20
6.9847645933
 30
0.0
 10
9.7436910418
 20
6.9791962342
 30
0.0
 10
9.7511436951
 20
6.9730878079
 30
0.0
 10
9.7581616048
 20
6.9664728604
 30
0.0
 10
9.7647062565
 20
6.9593877054
 30
0.0
 10
9.770741723
 20
6.9518712279
 30
0.0
 10
9.7762348601
 20
6.9439646728
 30
0.0
 10
9.7811554839
 20
6.9357114222
 30
0.0
 10
9.7854765539
 20
6.9271567643
 30
0.0
 10
9.7891742902
 20
6.9183476472
 30
0.0
 10
9.7922283648
 20
6.909332394
 30
0.0
 10
9.7946218573
 20
6.9001605654
 30
0.0
 10
9.7963416768
 20
6.8908822551
 30
0.0
 10
9.7973780795
 20
6.8815491916
 30
0.0
 10
9.79761025
 20
6.8753071998
 30
0.0
 10
9.79761025
 20
6.8721953433
 30
0.0
  0
SPLINE
  5
2F0
100
AcDbEntity
  8
0
100
AcDbSpline
 62
7
  6
CONTINUOUS
 70
0
 71
3
 72
49
 73
45
 74
0
 42
0.0000001
 43
0.0000001
 44
0.0000000001
 40
0.0
 40
0.0
 40
0.0
 40
0.0
 40
0.014971806
 40
0.0299466721
 40
0.0449276378
 40
0.0599177056
 40
0.0749198251
 40
0.0899368686
 40
0.1049716209
 40
0.1200267599
 40
0.1351048373
 40
0.1502082725
 40
0.1653393295
 40
0.1805001092
 40
0.1956925408
 40
0.2109183618
 40
0.2261791206
 40
0.2414761621
 40
0.2568106197
 40
0.2721834197
 40
0.2875952652
 40
0.3030466433
 40
0.3340635283
 40
0.3652389711
 40
0.3965690196
 40
0.4280464092
 40
0.459660763
 40
0.4913988468
 40
0.5232448768
 40
0.55518087
 40
0.5871870264
 40
0.6192421383
 40
0.6513240212
 40
0.6834099587
 40
0.7154771543
 40
0.7475031829
 40
0.77946644
 40
0.8113465777
 40
0.8431249224
 40
0.8747848672
 40
0.9063122265
 40
0.9376956464
 40
0.9689264223
 40
1.0
 40
1.0
 40
1.0
 40
1.0
 10
10.1997964158
 20
7.6241675258
 30
0.0
 10
10.2039442289
 20
7.628173992
 30
0.0
 10
10.2124009924
 20
7.6360236897
 30
0.0
 10
10.2255453654
 20
7.6472861666
 30
0.0
 10
10.2391323709
 20
7.6580222913
 30
0.0
 10
10.2531429568
 20
7.6682171581
 30
0.0
 10
10.2675579735
 20
7.6778567253
 30
0.0
 10
10.282357546
 20
7.6869277304
 30
0.0
 10
10.2975212767
 20
7.6954177642
 30
0.0
 10
10.3130283567
 20
7.7033150354
 30
0.0
 10
10.328857386
 20
7.7106087971
 30
0.0
 10
10.3449866074
 20
7.7172889737
 30
0.0
 10
10.361393835
 20
7.7233463488
 30
0.0
 10
10.3780564556
 20
7.7287727043
 30
0.0
 10
10.3949515825
 20
7.733560462
 30
0.0
 10
10.4120559421
 20
7.7377031334
 30
0.0
 10
10.4293460081
 20
7.7411950338
 30
0.0
 10
10.4467980023
 20
7.7440312871
 30
0.0
 10
10.4643879198
 20
7.7462081336
 30
0.0
 10
10.4820914973
 20
7.7477224922
 30
0.0
 10
10.4998846898
 20
7.7485723062
 30
0.0
 10
10.5237228491
 20
7.7488182863
 30
0.0
 10
10.5536283227
 20
7.7474540865
 30
0.0
 10
10.5894263943
 20
7.7431639362
 30
0.0
 10
10.6249913503
 20
7.7362426797
 30
0.0
 10
10.6601265236
 20
7.7267286862
 30
0.0
 10
10.6946393637
 20
7.7146745402
 30
0.0
 10
10.728340334
 20
7.700146741
 30
0.0
 10
10.7610445259
 20
7.6832253327
 30
0.0
 10
10.7925724832
 20
7.6640034173
 30
0.0
 10
10.8227512135
 20
7.6425866538
 30
0.0
 10
10.8514151171
 20
7.6190926948
 30
0.0
 10
10.8784069275
 20
7.5936505875
 30
0.0
 10
10.9035785189
 20
7.5664000074
 30
0.0
 10
10.9267917139
 20
7.5374905129
 30
0.0
 10
10.947919021
 20
7.5070807278
 30
0.0
 10
10.9668443902
 20
7.4753375265
 30
0.0
 10
10.9834638082
 20
7.442435087
 30
0.0
 10
10.9976858499
 20
7.408553963
 30
0.0
 10
11.0094321635
 20
7.3738800294
 30
0.0
 10
11.0186379778
 20
7.3386037764
 30
0.0
 10
11.0252523504
 20
7.3029182603
 30
0.0
 10
11.0292387299
 20
7.2670219614
 30
0.0
 10
11.0301315798
 20
7.2430144761
 30
0.0
 10
11.0301315798
 20
7.2310456133
 30
0.0
  0
SPLINE
  5
2F1
100
AcDbEntity
  8
0
100
AcDbSpline
 62
7
  6
CONTINUOUS
 70
0
 71
3
 72
49
 73
45
 74
0
 42
0.0000001
 43
0.0000001
 44
0.0000000001
 40
0.0
 40
0.0
 40
0.0
 40
0.0
 40
0.014971806
 40
0.0299466721
 40
0.0449276378
 40
0.0599177056
 40
0.0749198251
 40
0.0899368686
 40
0.1049716209
 40
0.1200267599
 40
0.1351048373
 40
0.1502082725
 40
0.1653393295
 40
0.1805001092
 40
0.1956925408
 40
0.2109183618
 40
0.2261791206
 40
0.2414761621
 40
0.2568106197
 40
0.2721834197
 40
0.2875952652
 40
0.3030466433
 40
0.3340635283
 40
0.3652389711
 40
0.3965690196
 40
0.4280464092
 40
0.459660763
 40
0.4913988468
 40
0.5232448768
 40
0.55518087
 40
0.5871870264
 40
0.6192421383
 40
0.6513240212
 40
0.6834099587
 40
0.7154771543
 40
0.7475031829
 40
0.77946644
 40
0.8113465777
 40
0.8431249224
 40
0.8747848672
 40
0.9063122265
 40
0.9376956464
 40
0.9689264223
 40
1.0
 40
1.0
 40
1.0
 40
1.0
 10
10.1997964158
 20
9.2063541916
 30
0.0
 10
10.2039442289
 20
9.2103606578
 30
0.0
 10
10.2124009924
 20
9.2182103556
 30
0.0
 10
10.2255453654
 20
9.2294728325
 30
0.0
 10
10.2391323709
 20
9.2402089571
 30
0.0
 10
10.2531429568
 20
9.250403824
 30
0.0
 10
10.2675579735
 20
9.2600433911
 30
0.0
 10
10.282357546
 20
9.2691143962
 30
0.0
 10
10.2975212767
 20
9.27760443
 30
0.0
 10
10.3130283567
 20
9.2855017013
 30
0.0
 10
10.328857386
 20
9.292795463
 30
0.0
 10
10.3449866074
 20
9.2994756396
 30
0.0
 10
10.361393835
 20
9.3055330146
 30
0.0
 10
10.3780564556
 20
9.3109593701
 30
0.0
 10
10.3949515825
 20
9.3157471279
 30
0.0
 10
10.4120559421
 20
9.3198897992
 30
0.0
 10
10.4293460081
 20
9.3233816996
 30
0.0
 10
10.4467980023
 20
9.3262179529
 30
0.0
 10
10.4643879198
 20
9.3283947994
 30
0.0
 10
10.4820914973
 20
9.3299091581
 30
0.0
 10
10.4998846898
 20
9.3307589721
 30
0.0
 10
10.5237228491
 20
9.3310049522
 30
0.0
 10
10.5536283227
 20
9.3296407524
 30
0.0
 10
10.5894263943
 20
9.3253506021
 30
0.0
 10
10.6249913503
 20
9.3184293456
 30
0.0
 10
10.6601265236
 20
9.3089153521
 30
0.0
 10
10.6946393637
 20
9.2968612061
 30
0.0
 10
10.728340334
 20
9.2823334068
 30
0.0
 10
10.7610445259
 20
9.2654119986
 30
0.0
 10
10.7925724832
 20
9.2461900832
 30
0.0
 10
10.8227512135
 20
9.2247733196
 30
0.0
 10
10.8514151171
 20
9.2012793607
 30
0.0
 10
10.8784069275
 20
9.1758372533
 30
0.0
 10
10.9035785189
 20
9.1485866733
 30
0.0
 10
10.9267917139
 20
9.1196771788
 30
0.0
 10
10.947919021
 20
9.0892673936
 30
0.0
 10
10.9668443902
 20
9.0575241923
 30
0.0
 10
10.9834638082
 20
9.0246217528
 30
0.0
 10
10.9976858499
 20
8.9907406288
 30
0.0
 10
11.0094321635
 20
8.9560666953
 30
0.0
 10
11.0186379778
 20
8.9207904423
 30
0.0
 10
11.0252523504
 20
8.8851049262
 30
0.0
 10
11.0292387299
 20
8.8492086273
 30
0.0
 10
11.0301315798
 20
8.825201142
 30
0.0
 10
11.0301315798
 20
8.8132322791
 30
0.0
  0
SPLINE
  5
2F2
100
AcDbEntity
  8
0
100
AcDbSpline
 62
7
  6
CONTINUOUS
 70
0
 71
3
 72
25
 73
21
 74
0
 42
0.0000001
 43
0.0000001
 44
0.0000000001
 40
0.0
 40
0.0
 40
0.0
 40
0.0
 40
0.0637765419
 40
0.127343586
 40
0.1907000935
 40
0.2538536288
 40
0.2853583676
 40
0.3168148659
 40
0.3795831452
 40
0.4421738174
 40
0.504599146
 40
0.5668730571
 40
0.6290109564
 40
0.691029611
 40
0.752946989
 40
0.8147820834
 40
0.8765547217
 40
0.9074265426
 40
0.9382904632
 40
1.0
 40
1.0
 40
1.0
 40
1.0
 10
10.0642056962
 20
8.8802194666
 30
0.0
 10
10.0642056962
 20
8.8879338848
 30
0.0
 10
10.0645749375
 20
8.9033399814
 30
0.0
 10
10.0662415351
 20
8.9263554929
 30
0.0
 10
10.0690163637
 20
8.9491882747
 30
0.0
 10
10.0722495198
 20
8.9680347845
 30
0.0
 10
10.0753834093
 20
8.9829656444
 30
0.0
 10
10.0788744949
 20
8.9977691533
 30
0.0
 10
10.0839135192
 20
9.0160648138
 30
0.0
 10
10.091032108
 20
9.0376446806
 30
0.0
 10
10.0992020041
 20
9.0587851484
 30
0.0
 10
10.1084043265
 20
9.079437126
 30
0.0
 10
10.118617941
 20
9.0995530655
 30
0.0
 10
10.1298193161
 20
9.1190865115
 30
0.0
 10
10.1419826893
 20
9.1379924915
 30
0.0
 10
10.1550797986
 20
9.156227117
 30
0.0
 10
10.1667500576
 20
9.1708318871
 30
0.0
 10
10.1765200014
 20
9.1821360351
 30
0.0
 10
10.1865718028
 20
9.193179567
 30
0.0
 10
10.1944276081
 20
9.2011683391
 30
0.0
 10
10.1997964158
 20
9.2063541916
 30
0.0
  0
SPLINE
  5
2F3
100
AcDbEntity
  8
0
100
AcDbSpline
 62
7
  6
CONTINUOUS
 70
0
 71
3
 72
25
 73
21
 74
0
 42
0.0000001
 43
0.0000001
 44
0.0000000001
 40
0.0
 40
0.0
 40
0.0
 40
0.0
 40
0.0637765419
 40
0.127343586
 40
0.1907000935
 40
0.2538536288
 40
0.2853583676
 40
0.3168148659
 40
0.3795831452
 40
0.4421738174
 40
0.504599146
 40
0.5668730571
 40
0.6290109564
 40
0.691029611
 40
0.752946989
 40
0.8147820834
 40
0.8765547217
 40
0.9074265426
 40
0.9382904632
 40
1.0
 40
1.0
 40
1.0
 40
1.0
 10
10.0642056962
 20
7.2980328008
 30
0.0
 10
10.0642056962
 20
7.305747219
 30
0.0
 10
10.0645749375
 20
7.3211533156
 30
0.0
 10
10.0662415351
 20
7.3441688271
 30
0.0
 10
10.0690163637
 20
7.3670016088
 30
0.0
 10
10.0722495198
 20
7.3858481187
 30
0.0
 10
10.0753834093
 20
7.4007789785
 30
0.0
 10
10.0788744949
 20
7.4155824875
 30
0.0
 10
10.0839135192
 20
7.4338781479
 30
0.0
 10
10.091032108
 20
7.4554580147
 30
0.0
 10
10.0992020041
 20
7.4765984826
 30
0.0
 10
10.1084043265
 20
7.4972504601
 30
0.0
 10
10.118617941
 20
7.5173663997
 30
0.0
 10
10.1298193161
 20
7.5368998457
 30
0.0
 10
10.1419826893
 20
7.5558058257
 30
0.0
 10
10.1550797986
 20
7.5740404512
 30
0.0
 10
10.1667500576
 20
7.5886452213
 30
0.0
 10
10.1765200014
 20
7.5999493693
 30
0.0
 10
10.1865718028
 20
7.6109929011
 30
0.0
 10
10.1944276081
 20
7.6189816732
 30
0.0
 10
10.1997964158
 20
7.6241675258
 30
0.0
  0
SPLINE
  5
2F4
100
AcDbEntity
  8
0
100
AcDbSpline
 62
7
  6
CONTINUOUS
 70
0
 71
3
 72
22
 73
18
 74
0
 42
0.0000001
 43
0.0000001
 44
0.0000000001
 40
0.0
 40
0.0
 40
0.0
 40
0.0
 40
0.0764231594
 40
0.1504694273
 40
0.2222091687
 40
0.2917227003
 40
0.3591050047
 40
0.4244648692
 40
0.5495744344
 40
0.6096451912
 40
0.6682571001
 40
0.7255854133
 40
0.7818195891
 40
0.837161402
 40
0.8918233905
 40
0.946027062
 40
1.0
 40
1.0
 40
1.0
 40
1.0
 10
14.0554838905
 20
10.123966425
 30
0.0
 10
14.0565609564
 20
10.1250067908
 30
0.0
 10
14.0587146899
 20
10.1270212921
 30
0.0
 10
14.0619966461
 20
10.129883906
 30
0.0
 10
14.0652771695
 20
10.1325380276
 30
0.0
 10
14.0685551946
 20
10.1349826349
 30
0.0
 10
14.0718300068
 20
10.1372170906
 30
0.0
 10
14.0761274681
 20
10.1398761178
 30
0.0
 10
14.0804817734
 20
10.1421648555
 30
0.0
 10
14.0848776023
 20
10.1440397957
 30
0.0
 10
14.0881224911
 20
10.1452140166
 30
0.0
 10
14.091358634
 20
10.1461745223
 30
0.0
 10
14.0945851527
 20
10.1469210094
 30
0.0
 10
14.0978010182
 20
10.14745313
 30
0.0
 10
14.1010052702
 20
10.1477705359
 30
0.0
 10
14.1041966441
 20
10.1478730878
 30
0.0
 10
14.1063168994
 20
10.1477981004
 30
0.0
 10
14.1073719397
 20
10.1477249393
 30
0.0
  0
SPLINE
  5
2F5
100
AcDbEntity
  8
0
100
AcDbSpline
 62
7
  6
CONTINUOUS
 70
0
 71
3
 72
23
 73
19
 74
0
 42
0.0000001
 43
0.0000001
 44
0.0000000001
 40
0.0
 40
0.0
 40
0.0
 40
0.0
 40
0.0637751697
 40
0.127345371
 40
0.1907022537
 40
0.2538558573
 40
0.3168132315
 40
0.3795821093
 40
0.4421733555
 40
0.5045993354
 40
0.5668738704
 40
0.6290123786
 40
0.6910316578
 40
0.7529496568
 40
0.8147853611
 40
0.8765586146
 40
0.9382898649
 40
1.0
 40
1.0
 40
1.0
 40
1.0
 10
8.8983331954
 20
6.9345604189
 30
0.0
 10
8.8983331954
 20
6.9378466173
 30
0.0
 10
8.8984905329
 20
6.9444095647
 30
0.0
 10
8.8992004173
 20
6.954214045
 30
0.0
 10
8.900382484
 20
6.9639408745
 30
0.0
 10
8.9020339062
 20
6.9735670339
 30
0.0
 10
8.9041508242
 20
6.983070661
 30
0.0
 10
8.9067284984
 20
6.9924297784
 30
0.0
 10
8.9097609897
 20
7.0016227791
 30
0.0
 10
8.9132412446
 20
7.0106285108
 30
0.0
 10
8.9171613564
 20
7.0194261684
 30
0.0
 10
8.9215122681
 20
7.0279954664
 30
0.0
 10
8.9262839092
 20
7.036316669
 30
0.0
 10
8.9314653885
 20
7.0443705285
 30
0.0
 10
8.9370446814
 20
7.0521384852
 30
0.0
 10
8.9430089801
 20
7.0596026959
 30
0.0
 10
8.9493443799
 20
7.0667456348
 30
0.0
 10
8.9538064082
 20
7.0712833313
 30
0.0
 10
8.9560934803
 20
7.0734924885
 30
0.0
  0
SPLINE
  5
2F6
100
AcDbEntity
  8
0
100
AcDbSpline
 62
7
  6
CONTINUOUS
 70
0
 71
3
 72
25
 73
21
 74
0
 42
0.0000001
 43
0.0000001
 44
0.0000000001
 40
0.0
 40
0.0
 40
0.0
 40
0.0
 40
0.0637765419
 40
0.127343586
 40
0.1907000935
 40
0.2538536288
 40
0.2853583676
 40
0.3168148659
 40
0.3795831452
 40
0.4421738174
 40
0.504599146
 40
0.5668730571
 40
0.6290109564
 40
0.691029611
 40
0.752946989
 40
0.8147820834
 40
0.8765547217
 40
0.9074265426
 40
0.9382904632
 40
1.0
 40
1.0
 40
1.0
 40
1.0
 10
10.7345582649
 20
8.0436029099
 30
0.0
 10
10.7345582649
 20
8.051317328
 30
0.0
 10
10.7349275062
 20
8.0667234246
 30
0.0
 10
10.7365941038
 20
8.0897389361
 30
0.0
 10
10.7393689324
 20
8.1125717179
 30
0.0
 10
10.7426020885
 20
8.1314182277
 30
0.0
 10
10.745735978
 20
8.1463490876
 30
0.0
 10
10.7492270636
 20
8.1611525965
 30
0.0
 10
10.7542660879
 20
8.179448257
 30
0.0
 10
10.7613846767
 20
8.2010281238
 30
0.0
 10
10.7695545728
 20
8.2221685916
 30
0.0
 10
10.7787568952
 20
8.2428205692
 30
0.0
 10
10.7889705097
 20
8.2629365087
 30
0.0
 10
10.8001718848
 20
8.2824699547
 30
0.0
 10
10.812335258
 20
8.3013759347
 30
0.0
 10
10.8254323672
 20
8.3196105602
 30
0.0
 10
10.8371026263
 20
8.3342153303
 30
0.0
 10
10.8468725701
 20
8.3455194784
 30
0.0
 10
10.8569243715
 20
8.3565630102
 30
0.0
 10
10.8647801768
 20
8.3645517823
 30
0.0
 10
10.8701489845
 20
8.3697376348
 30
0.0
  0
SPLINE
  5
2F7
100
AcDbEntity
  8
0
100
AcDbSpline
 62
7
  6
CONTINUOUS
 70
0
 71
3
 72
15
 73
11
 74
0
 42
0.0000001
 43
0.0000001
 44
0.0000000001
 40
0.0
 40
0.0
 40
0.0
 40
0.0
 40
0.1063483239
 40
0.2165387536
 40
0.3314026256
 40
0.4517034855
 40
0.5781303469
 40
0.7112998223
 40
0.8517606456
 40
1.0
 40
1.0
 40
1.0
 40
1.0
 10
10.7930705222
 20
8.9213257211
 30
0.0
 10
10.793572546
 20
8.921290377
 30
0.0
 10
10.7945921833
 20
8.9211768112
 30
0.0
 10
10.7961346617
 20
8.9208865082
 30
0.0
 10
10.7977171926
 20
8.9204735883
 30
0.0
 10
10.7993434588
 20
8.9199381486
 30
0.0
 10
10.8010174257
 20
8.9192802317
 30
0.0
 10
10.8027430193
 20
8.9184997882
 30
0.0
 10
10.8045242263
 20
8.917596965
 30
0.0
 10
10.8057181861
 20
8.9169321948
 30
0.0
 10
10.806325367
 20
8.9165808536
 30
0.0
  0
SPLINE
  5
2F8
100
AcDbEntity
  8
0
100
AcDbSpline
 62
7
  6
CONTINUOUS
 70
0
 71
3
 72
52
 73
48
 74
0
 42
0.0000001
 43
0.0000001
 44
0.0000000001
 40
0.0
 40
0.0
 40
0.0
 40
0.0
 40
0.0063158568
 40
0.0126706178
 40
0.0191024266
 40
0.0256479345
 40
0.0323417789
 40
0.0392160908
 40
0.0536138298
 40
0.0611945069
 40
0.0690562056
 40
0.0772172859
 40
0.0856936163
 40
0.094498959
 40
0.1036450353
 40
0.1131417384
 40
0.1229974561
 40
0.1332190303
 40
0.1438120572
 40
0.1547810415
 40
0.1661293353
 40
0.1778594655
 40
0.1899731041
 40
0.2024710934
 40
0.2153537091
 40
0.2286205088
 40
0.2422704818
 40
0.2563021821
 40
0.2707135511
 40
0.3006644045
 40
0.3320995118
 40
0.364988637
 40
0.399296387
 40
0.4349827261
 40
0.4720035166
 40
0.5103109065
 40
0.549853604
 40
0.5905771631
 40
0.632424299
 40
0.6753351168
 40
0.7192472758
 40
0.7640961515
 40
0.8098152405
 40
0.8563361104
 40
0.9035880427
 40
0.9515014724
 40
1.0
 40
1.0
 40
1.0
 40
1.0
 10
13.9079152032
 20
9.0050286792
 30
0.0
 10
13.9091067862
 20
9.0049460456
 30
0.0
 10
13.9114916621
 20
9.0046827478
 30
0.0
 10
13.915042254
 20
9.0039964347
 30
0.0
 10
13.9185691029
 20
9.0030187462
 30
0.0
 10
13.9220701691
 20
9.0017505326
 30
0.0
 10
13.9255440557
 20
9.0001924542
 30
0.0
 10
13.9302085532
 20
8.997692051
 30
0.0
 10
13.934746388
 20
8.9946311852
 30
0.0
 10
13.9391378481
 20
8.9910841074
 30
0.0
 10
13.9424548923
 20
8.9880935072
 30
0.0
 10
13.945736493
 20
8.9848202676
 30
0.0
 10
13.9489818757
 20
8.9812655969
 30
0.0
 10
13.9521896742
 20
8.9774309947
 30
0.0
 10
13.9553587155
 20
8.973318028
 30
0.0
 10
13.9584878172
 20
8.9689284013
 30
0.0
 10
13.961575701
 20
8.964263853
 30
0.0
 10
13.9646212017
 20
8.9593263056
 30
0.0
 10
13.9676231114
 20
8.9541177576
 30
0.0
 10
13.9705801822
 20
8.9486403014
 30
0.0
 10
13.9734912846
 20
8.9428961922
 30
0.0
 10
13.976355204
 20
8.9368877523
 30
0.0
 10
13.9791707655
 20
8.9306174303
 30
0.0
 10
13.9819368666
 20
8.9240878028
 30
0.0
 10
13.9846523213
 20
8.9173015227
 30
0.0
 10
13.9873160431
 20
8.9102613782
 30
0.0
 10
13.989926949
 20
8.9029702612
 30
0.0
 10
13.992483935
 20
8.8954311405
 30
0.0
 10
13.9958634155
 20
8.8849171633
 30
0.0
 10
13.9999354268
 20
8.8711707101
 30
0.0
 10
14.0045299727
 20
8.8539417216
 30
0.0
 10
14.0088856182
 20
8.8358024209
 30
0.0
 10
14.0129951221
 20
8.8167826553
 30
0.0
 10
14.0168516567
 20
8.7969135954
 30
0.0
 10
14.0204487992
 20
8.7762278981
 30
0.0
 10
14.0237805445
 20
8.754759573
 30
0.0
 10
14.0268413384
 20
8.7325439551
 30
0.0
 10
14.0296260926
 20
8.7096176365
 30
0.0
 10
14.0321301654
 20
8.6860183903
 30
0.0
 10
14.0343493714
 20
8.6617851056
 30
0.0
 10
14.0362800133
 20
8.636957741
 30
0.0
 10
14.0379188862
 20
8.6115772313
 30
0.0
 10
14.0392632499
 20
8.5856854248
 30
0.0
 10
14.0403108392
 20
8.5593251221
 30
0.0
 10
14.0410599509
 20
8.5325395142
 30
0.0
 10
14.0415092602
 20
8.5053731945
 30
0.0
 10
14.0416079283
 20
8.4871397517
 30
0.0
 10
14.0416079283
 20
8.4779677873
 30
0.0
  0
SPLINE
  5
2F9
100
AcDbEntity
  8
0
100
AcDbSpline
 62
7
  6
CONTINUOUS
 70
0
 71
3
 72
25
 73
21
 74
0
 42
0.0000001
 43
0.0000001
 44
0.0000000001
 40
0.0
 40
0.0
 40
0.0
 40
0.0
 40
0.0637765419
 40
0.127343586
 40
0.1907000935
 40
0.2538536288
 40
0.2853583676
 40
0.3168148659
 40
0.3795831452
 40
0.4421738174
 40
0.504599146
 40
0.5668730571
 40
0.6290109564
 40
0.691029611
 40
0.752946989
 40
0.8147820834
 40
0.8765547217
 40
0.9074265426
 40
0.9382904632
 40
1.0
 40
1.0
 40
1.0
 40
1.0
 10
9.4035123772
 20
8.1359112557
 30
0.0
 10
9.4035123772
 20
8.1436256739
 30
0.0
 10
9.4038816185
 20
8.1590317705
 30
0.0
 10
9.405548216
 20
8.182047282
 30
0.0
 10
9.4083230446
 20
8.2048800637
 30
0.0
 10
9.4115562008
 20
8.2237265735
 30
0.0
 10
9.4146900902
 20
8.2386574334
 30
0.0
 10
9.4181811758
 20
8.2534609424
 30
0.0
 10
9.4232202001
 20
8.2717566028
 30
0.0
 10
9.430338789
 20
8.2933364696
 30
0.0
 10
9.438508685
 20
8.3144769375
 30
0.0
 10
9.4477110075
 20
8.335128915
 30
0.0
 10
9.4579246219
 20
8.3552448546
 30
0.0
 10
9.469125997
 20
8.3747783006
 30
0.0
 10
9.4812893702
 20
8.3936842806
 30
0.0
 10
9.4943864795
 20
8.411918906
 30
0.0
 10
9.5060567385
 20
8.4265236762
 30
0.0
 10
9.5158266823
 20
8.4378278242
 30
0.0
 10
9.5258784837
 20
8.448871356
 30
0.0
 10
9.533734289
 20
8.4568601281
 30
0.0
 10
9.5391030968
 20
8.4620459806
 30
0.0
  0
SPLINE
  5
2FA
100
AcDbEntity
  8
0
100
AcDbSpline
 62
7
  6
CONTINUOUS
 70
0
 71
3
 72
53
 73
49
 74
0
 42
0.0000001
 43
0.0000001
 44
0.0000000001
 40
0.0
 40
0.0
 40
0.0
 40
0.0
 40
0.0063158453
 40
0.0126706042
 40
0.0191024045
 40
0.0256479299
 40
0.0323417859
 40
0.0392161006
 40
0.0536138955
 40
0.0611945924
 40
0.0690563441
 40
0.0772174269
 40
0.0856937979
 40
0.0944991832
 40
0.1036452597
 40
0.11314202
 40
0.1229977594
 40
0.1332193388
 40
0.1438124264
 40
0.1547814124
 40
0.1661297233
 40
0.1778599004
 40
0.1899735286
 40
0.2024715483
 40
0.215354187
 40
0.228620972
 40
0.2422709821
 40
0.2563026805
 40
0.2707140376
 40
0.2855026779
 40
0.3006656825
 40
0.3321007985
 40
0.3649898971
 40
0.3992976059
 40
0.4349839202
 40
0.4720046721
 40
0.5103119941
 40
0.5498546252
 40
0.5905781203
 40
0.632425176
 40
0.6753358984
 40
0.7192479643
 40
0.7640967369
 40
0.809815732
 40
0.8563364699
 40
0.9035882635
 40
0.9515016805
 40
1.0
 40
1.0
 40
1.0
 40
1.0
 10
12.981125196
 20
6.5013184376
 30
0.0
 10
12.9798575581
 20
6.5014063553
 30
0.0
 10
12.9773204646
 20
6.5016865167
 30
0.0
 10
12.9735432655
 20
6.5024167264
 30
0.0
 10
12.969791296
 20
6.503456812
 30
0.0
 10
12.9660667921
 20
6.504806082
 30
0.0
 10
12.9623711832
 20
6.5064636516
 30
0.0
 10
12.9574089537
 20
6.5091236858
 30
0.0
 10
12.9525815189
 20
6.5123800217
 30
0.0
 10
12.9479097511
 20
6.5161535435
 30
0.0
 10
12.9443810322
 20
6.5193351094
 30
0.0
 10
12.9408899487
 20
6.5228172833
 30
0.0
 10
12.9374374465
 20
6.5265988994
 30
0.0
 10
12.9340249252
 20
6.5306783061
 30
0.0
 10
12.9306535881
 20
6.5350538124
 30
0.0
 10
12.9273248048
 20
6.5397236794
 30
0.0
 10
12.9240398303
 20
6.5446859863
 30
0.0
 10
12.9207999323
 20
6.549938712
 30
0.0
 10
12.9176064616
 20
6.5554797618
 30
0.0
 10
12.9144606349
 20
6.5613068535
 30
0.0
 10
12.9113637317
 20
6.5674176271
 30
0.0
 10
12.9083170478
 20
6.5738096109
 30
0.0
 10
12.9053217589
 20
6.5804801725
 30
0.0
 10
12.902379128
 20
6.5874266032
 30
0.0
 10
12.899490368
 20
6.5946460633
 30
0.0
 10
12.896656616
 20
6.6021355819
 30
0.0
 10
12.8938790912
 20
6.609892105
 30
0.0
 10
12.8911589128
 20
6.6179124427
 30
0.0
 10
12.8884971828
 20
6.626193294
 30
0.0
 10
12.8858950348
 20
6.6347312795
 30
0.0
 10
12.8824651151
 20
6.6465962053
 30
0.0
 10
12.8783440528
 20
6.6620502101
 30
0.0
 10
12.8737104003
 20
6.6813472163
 30
0.0
 10
12.8693386088
 20
6.7015810151
 30
0.0
 10
12.8652359417
 20
6.7227182786
 30
0.0
 10
12.8614092206
 20
6.7447243093
 30
0.0
 10
12.8578648251
 20
6.7675629087
 30
0.0
 10
12.8546086803
 20
6.7911964963
 30
0.0
 10
12.8516461975
 20
6.8155861455
 30
0.0
 10
12.8489823071
 20
6.8406916683
 30
0.0
 10
12.846621459
 20
6.8664716931
 30
0.0
 10
12.8445675993
 20
6.8928837133
 30
0.0
 10
12.8428241292
 20
6.9198841854
 30
0.0
 10
12.841393964
 20
6.947428582
 30
0.0
 10
12.840279512
 20
6.9754713711
 30
0.0
 10
12.8394825898
 20
7.0039666287
 30
0.0
 10
12.8390046063
 20
7.0328668833
 30
0.0
 10
12.8388996393
 20
7.0522641096
 30
0.0
 10
12.8388996393
 20
7.0620214722
 30
0.0
  0
SPLINE
  5
2FB
100
AcDbEntity
  8
0
100
AcDbSpline
 62
7
  6
CONTINUOUS
 70
0
 71
3
 72
53
 73
49
 74
0
 42
0.0000001
 43
0.0000001
 44
0.0000000001
 40
0.0
 40
0.0
 40
0.0
 40
0.0
 40
0.0063158507
 40
0.0126706099
 40
0.0191024059
 40
0.0256479227
 40
0.0323417663
 40
0.0392160653
 40
0.0536138211
 40
0.0611944956
 40
0.0690562236
 40
0.0772172816
 40
0.0856936274
 40
0.0944989871
 40
0.1036450381
 40
0.113141773
 40
0.1229974875
 40
0.1332190426
 40
0.1438121066
 40
0.1547810699
 40
0.1661293591
 40
0.1778595157
 40
0.1899731245
 40
0.2024711261
 40
0.215353748
 40
0.2286205176
 40
0.2422705136
 40
0.2563021995
 40
0.2707135455
 40
0.2855021761
 40
0.3006651726
 40
0.3321002769
 40
0.3649893698
 40
0.399297079
 40
0.4349833995
 40
0.4720041635
 40
0.5103115033
 40
0.5498541576
 40
0.590577681
 40
0.63242477
 40
0.6753355304
 40
0.7192476386
 40
0.7640964575
 40
0.8098155027
 40
0.8563362939
 40
0.9035881437
 40
0.9515016196
 40
1.0
 40
1.0
 40
1.0
 40
1.0
 10
13.4911345549
 20
6.4659491684
 30
0.0
 10
13.4898669138
 20
6.4660370722
 30
0.0
 10
13.4873298139
 20
6.4663172061
 30
0.0
 10
13.4835526034
 20
6.4670473762
 30
0.0
 10
13.4798006224
 20
6.4680874234
 30
0.0
 10
13.4760761069
 20
6.4694366565
 30
0.0
 10
13.4723804864
 20
6.4710941907
 30
0.0
 10
13.4674182418
 20
6.4737541786
 30
0.0
 10
13.4625907908
 20
6.4770104722
 30
0.0
 10
13.4579190072
 20
6.4807839554
 30
0.0
 10
13.4543902765
 20
6.4839654932
 30
0.0
 10
13.4508991813
 20
6.4874476404
 30
0.0
 10
13.4474466674
 20
6.4912292311
 30
0.0
 10
13.4440341344
 20
6.495308614
 30
0.0
 10
13.4406627855
 20
6.4996840979
 30
0.0
 10
13.4373339907
 20
6.5043539439
 30
0.0
 10
13.4340490046
 20
6.5093162314
 30
0.0
 10
13.430809095
 20
6.514568939
 30
0.0
 10
13.4276156129
 20
6.5201099721
 30
0.0
 10
13.4244697748
 20
6.5259370487
 30
0.0
 10
13.4213728604
 20
6.5320478085
 30
0.0
 10
13.4183261652
 20
6.5384397801
 30
0.0
 10
13.4153308652
 20
6.5451103307
 30
0.0
 10
13.4123882234
 20
6.552056752
 30
0.0
 10
13.4094994526
 20
6.5592762041
 30
0.0
 10
13.4066656899
 20
6.566765716
 30
0.0
 10
13.4038881546
 20
6.5745222339
 30
0.0
 10
13.4011679657
 20
6.5825425677
 30
0.0
 10
13.3985062254
 20
6.5908234166
 30
0.0
 10
13.3959040674
 20
6.599361401
 30
0.0
 10
13.3924741341
 20
6.6112263277
 30
0.0
 10
13.3883530555
 20
6.6266803371
 30
0.0
 10
13.3837193847
 20
6.6459773529
 30
0.0
 10
13.3793475758
 20
6.6662111663
 30
0.0
 10
13.3752448921
 20
6.6873484493
 30
0.0
 10
13.3714181554
 20
6.7093545042
 30
0.0
 10
13.3678737455
 20
6.7321931322
 30
0.0
 10
13.3646175873
 20
6.7558267528
 30
0.0
 10
13.3616550922
 20
6.780216439
 30
0.0
 10
13.3589911907
 20
6.8053220025
 30
0.0
 10
13.3566303328
 20
6.8311020717
 30
0.0
 10
13.3545764644
 20
6.8575141396
 30
0.0
 10
13.352832987
 20
6.8845146625
 30
0.0
 10
13.3514028157
 20
6.9120591127
 30
0.0
 10
13.350288359
 20
6.9401019579
 30
0.0
 10
13.3494914335
 20
6.9685972738
 30
0.0
 10
13.3490134479
 20
6.9974975886
 30
0.0
 10
13.3489084805
 20
7.0168948557
 30
0.0
 10
13.3489084805
 20
7.026652239
 30
0.0
  0
SPLINE
  5
2FC
100
AcDbEntity
  8
0
100
AcDbSpline
 62
7
  6
CONTINUOUS
 70
0
 71
3
 72
51
 73
47
 74
0
 42
0.0000001
 43
0.0000001
 44
0.0000000001
 40
0.0
 40
0.0
 40
0.0
 40
0.0
 40
0.047200237
 40
0.0938604863
 40
0.1399114382
 40
0.1852916502
 40
0.2299383753
 40
0.2737902718
 40
0.3167879162
 40
0.358873431
 40
0.3999907905
 40
0.4400859209
 40
0.4791069459
 40
0.5170043574
 40
0.5537311118
 40
0.5892429642
 40
0.6234987265
 40
0.6564604191
 40
0.6880937082
 40
0.7183683515
 40
0.7472585132
 40
0.7747434324
 40
0.7879545209
 40
0.8008092112
 40
0.8133067439
 40
0.8254468267
 40
0.83722961
 40
0.8486559504
 40
0.8597273069
 40
0.8704457613
 40
0.8808142984
 40
0.8908367135
 40
0.9005176873
 40
0.909863086
 40
0.9188798969
 40
0.9275763663
 40
0.9359623175
 40
0.9440491255
 40
0.9518499125
 40
0.9593798565
 40
0.9666561874
 40
0.9736983789
 40
0.9805283596
 40
0.9871704299
 40
0.9936512961
 40
1.0
 40
1.0
 40
1.0
 40
1.0
 10
13.9744735972
 20
8.4751209982
 30
0.0
 10
13.9744735972
 20
8.4835368586
 30
0.0
 10
13.9743870539
 20
8.500272438
 30
0.0
 10
13.9739931962
 20
8.5252161684
 30
0.0
 10
13.9733365042
 20
8.5498297838
 30
0.0
 10
13.9724180289
 20
8.5740757686
 30
0.0
 10
13.9712391644
 20
8.5979179512
 30
0.0
 10
13.9698017051
 20
8.6213203698
 30
0.0
 10
13.9681078252
 20
8.644247775
 30
0.0
 10
13.966160108
 20
8.6666656844
 30
0.0
 10
13.9639615268
 20
8.688540361
 30
0.0
 10
13.9615153999
 20
8.709838892
 30
0.0
 10
13.9588254507
 20
8.7305292469
 30
0.0
 10
13.9558957854
 20
8.7505803215
 30
0.0
 10
13.9527308334
 20
8.7699619784
 30
0.0
 10
13.9493354029
 20
8.7886451084
 30
0.0
 10
13.9457146766
 20
8.806601677
 30
0.0
 10
13.9418741332
 20
8.8238047609
 30
0.0
 10
13.9378195925
 20
8.8402285878
 30
0.0
 10
13.9335572279
 20
8.8558486601
 30
0.0
 10
13.929093479
 20
8.8706415398
 30
0.0
 10
13.9251613596
 20
8.8824116029
 30
0.0
 10
13.9219126029
 20
8.8913904879
 30
0.0
 10
13.9194620273
 20
8.8978152493
 30
0.0
 10
13.9169662482
 20
8.904017223
 30
0.0
 10
13.9144261986
 20
8.9099941075
 30
0.0
 10
13.9118427847
 20
8.915743648
 30
0.0
 10
13.9092170022
 20
8.9212637137
 30
0.0
 10
13.9065498416
 20
8.9265522558
 30
0.0
 10
13.9038422395
 20
8.9316072812
 30
0.0
 10
13.9010952342
 20
8.9364269314
 30
0.0
 10
13.8983098418
 20
8.9410094259
 30
0.0
 10
13.8954870234
 20
8.945353034
 30
0.0
 10
13.8926278449
 20
8.9494561744
 30
0.0
 10
13.889733332
 20
8.9533173325
 30
0.0
 10
13.8868044562
 20
8.9569350333
 30
0.0
 10
13.8838422932
 20
8.9603079647
 30
0.0
 10
13.8808478609
 20
8.9634348578
 30
0.0
 10
13.8778221326
 20
8.9663144661
 30
0.0
 10
13.8747661841
 20
8.968945714
 30
0.0
 10
13.8716810326
 20
8.9713275289
 30
0.0
 10
13.8685676748
 20
8.9734588414
 30
0.0
 10
13.8654272486
 20
8.9753387538
 30
0.0
 10
13.8622607777
 20
8.9769663575
 30
0.0
 10
13.859069651
 20
8.9783406638
 30
0.0
 10
13.8569072841
 20
8.9790942586
 30
0.0
 10
13.8558252096
 20
8.9794266701
 30
0.0
  0
SPLINE
  5
2FD
100
AcDbEntity
  8
0
100
AcDbSpline
 62
7
  6
CONTINUOUS
 70
0
 71
3
 72
60
 73
56
 74
0
 42
0.0000001
 43
0.0000001
 44
0.0000000001
 40
0.0
 40
0.0
 40
0.0
 40
0.0
 40
0.0095822002
 40
0.0187369924
 40
0.0274867135
 40
0.0358591658
 40
0.0438870963
 40
0.0516083429
 40
0.0590660196
 40
0.0663086121
 40
0.0733896747
 40
0.0803668217
 40
0.0873005313
 40
0.0942524971
 40
0.1012839011
 40
0.1084536914
 40
0.115817217
 40
0.123425094
 40
0.1313227642
 40
0.1395501611
 40
0.1481419045
 40
0.1571276302
 40
0.1665322814
 40
0.1763768182
 40
0.1866783986
 40
0.1974510881
 40
0.20870609
 40
0.2204521222
 40
0.2326958587
 40
0.2454419251
 40
0.2586934556
 40
0.2724519705
 40
0.2867177534
 40
0.3014899277
 40
0.3167664669
 40
0.3325445437
 40
0.3488202857
 40
0.365589175
 40
0.3828458756
 40
0.400584382
 40
0.4187981383
 40
0.4374798679
 40
0.4566219099
 40
0.4762159462
 40
0.5167240395
 40
0.5589296956
 40
0.6027512093
 40
0.648101029
 40
0.6948863323
 40
0.7430095268
 40
0.7923686515
 40
0.8428581366
 40
0.894368089
 40
0.9467878086
 40
1.0
 40
1.0
 40
1.0
 40
1.0
 10
13.6012276232
 20
6.5438464956
 30
0.0
 10
13.5998123921
 20
6.542529408
 30
0.0
 10
13.5969831306
 20
6.5400192822
 30
0.0
 10
13.5926422164
 20
6.5365636104
 30
0.0
 10
13.5883057599
 20
6.5335079051
 30
0.0
 10
13.583976285
 20
6.5308542701
 30
0.0
 10
13.5796558779
 20
6.5286046107
 30
0.0
 10
13.5753468217
 20
6.526760706
 30
0.0
 10
13.5710515382
 20
6.5253243033
 30
0.0
 10
13.5667726492
 20
6.5242971905
 30
0.0
 10
13.5625131323
 20
6.52368061
 30
0.0
 10
13.5582761919
 20
6.5234757839
 30
0.0
 10
13.5540653228
 20
6.5236830791
 30
0.0
 10
13.5498840853
 20
6.5243024629
 30
0.0
 10
13.5457359657
 20
6.5253331962
 30
0.0
 10
13.5416241283
 20
6.5267738773
 30
0.0
 10
13.5375514903
 20
6.5286229646
 30
0.0
 10
13.5335204819
 20
6.5308783594
 30
0.0
 10
13.5295334142
 20
6.5335381419
 30
0.0
 10
13.5255922968
 20
6.5366001077
 30
0.0
 10
13.5216990885
 20
6.5400620833
 30
0.0
 10
13.5178557692
 20
6.5439218386
 30
0.0
 10
13.5140641736
 20
6.5481769041
 30
0.0
 10
13.5103263669
 20
6.5528248218
 30
0.0
 10
13.5066442173
 20
6.5578627889
 30
0.0
 10
13.5030197851
 20
6.5632879219
 30
0.0
 10
13.4994550573
 20
6.5690970605
 30
0.0
 10
13.4959520001
 20
6.5752868217
 30
0.0
 10
13.4925126929
 20
6.5818536395
 30
0.0
 10
13.4891390164
 20
6.5887936475
 30
0.0
 10
13.4858330295
 20
6.5961028227
 30
0.0
 10
13.4825965995
 20
6.6037768577
 30
0.0
 10
13.4794316543
 20
6.6118112527
 30
0.0
 10
13.476340087
 20
6.6202012808
 30
0.0
 10
13.4733236659
 20
6.6289419827
 30
0.0
 10
13.4703842668
 20
6.6380282111
 30
0.0
 10
13.4675235529
 20
6.6474545782
 30
0.0
 10
13.4647432899
 20
6.6572155135
 30
0.0
 10
13.4620451073
 20
6.6673052291
 30
0.0
 10
13.4594306013
 20
6.677717743
 30
0.0
 10
13.4569013785
 20
6.6884468821
 30
0.0
 10
13.4544588837
 20
6.6994862715
 30
0.0
 10
13.4521046293
 20
6.710829372
 30
0.0
 10
13.4490512763
 20
6.7265236166
 30
0.0
 10
13.4454757912
 20
6.7468550437
 30
0.0
 10
13.4416042228
 20
6.7720911185
 30
0.0
 10
13.4381149678
 20
6.798368546
 30
0.0
 10
13.4350164189
 20
6.8256248551
 30
0.0
 10
13.4323160642
 20
6.8537953672
 30
0.0
 10
13.4300204249
 20
6.8828131404
 30
0.0
 10
13.4281350289
 20
6.9126092447
 30
0.0
 10
13.4266644594
 20
6.9431127379
 30
0.0
 10
13.4256122191
 20
6.974251336
 30
0.0
 10
13.4249809429
 20
7.0059506423
 30
0.0
 10
13.4248426528
 20
7.0272630276
 30
0.0
 10
13.4248426528
 20
7.0379990215
 30
0.0
  0
SPLINE
  5
2FE
100
AcDbEntity
  8
0
100
AcDbSpline
 62
7
  6
CONTINUOUS
 70
0
 71
3
 72
45
 73
41
 74
0
 42
0.0000001
 43
0.0000001
 44
0.0000000001
 40
0.0
 40
0.0
 40
0.0
 40
0.0
 40
0.0898129439
 40
0.1339522404
 40
0.1775099663
 40
0.2204348766
 40
0.2626760014
 40
0.3041841279
 40
0.3449112213
 40
0.3848104072
 40
0.4238363924
 40
0.4619453907
 40
0.4990952397
 40
0.5352456912
 40
0.5703583336
 40
0.6043968987
 40
0.6373274463
 40
0.6691183847
 40
0.6997409465
 40
0.7291692888
 40
0.7573807748
 40
0.7843565734
 40
0.8100818489
 40
0.8345464799
 40
0.8577458261
 40
0.8688717424
 40
0.8796825481
 40
0.8901795886
 40
0.9003647399
 40
0.9102405877
 40
0.919810313
 40
0.9290777776
 40
0.9380477581
 40
0.9467258788
 40
0.9551186778
 40
0.9632338692
 40
0.9710803487
 40
0.9786682458
 40
0.9860091799
 40
1.0
 40
1.0
 40
1.0
 40
1.0
 10
13.9368024922
 20
8.4725084936
 30
0.0
 10
13.9368024922
 20
8.4875710597
 30
0.0
 10
13.9365887551
 20
8.5100371512
 30
0.0
 10
13.9358551329
 20
8.5397987434
 30
0.0
 10
13.9350897786
 20
8.5616924554
 30
0.0
 10
13.9341072251
 20
8.5832588077
 30
0.0
 10
13.9329086878
 20
8.6044699871
 30
0.0
 10
13.9314957507
 20
8.6252985559
 30
0.0
 10
13.9298702723
 20
8.6457176574
 30
0.0
 10
13.9280343289
 20
8.6657009448
 30
0.0
 10
13.9259903413
 20
8.6852226315
 30
0.0
 10
13.9237409659
 20
8.7042575363
 30
0.0
 10
13.9212891027
 20
8.7227811107
 30
0.0
 10
13.9186379822
 20
8.7407694732
 30
0.0
 10
13.9157910253
 20
8.7581994394
 30
0.0
 10
13.9127519353
 20
8.7750485558
 30
0.0
 10
13.9095246976
 20
8.7912951323
 30
0.0
 10
13.9061134645
 20
8.8069182642
 30
0.0
 10
13.9025227005
 20
8.8218978771
 30
0.0
 10
13.8987570767
 20
8.8362147453
 30
0.0
 10
13.894821435
 20
8.8498505209
 30
0.0
 10
13.8907209226
 20
8.8627877676
 30
0.0
 10
13.8864607961
 20
8.8750100387
 30
0.0
 10
13.8820465255
 20
8.8865016459
 30
0.0
 10
13.8781923791
 20
8.8955795174
 30
0.0
 10
13.8750295782
 20
8.9024573915
 30
0.0
 10
13.8726556138
 20
8.9073519569
 30
0.0
 10
13.8702474455
 20
8.9120532095
 30
0.0
 10
13.867805787
 20
8.9165596388
 30
0.0
 10
13.8653314556
 20
8.9208698269
 30
0.0
 10
13.8628252289
 20
8.9249824016
 30
0.0
 10
13.860287853
 20
8.928896026
 30
0.0
 10
13.8577201538
 20
8.9326094766
 30
0.0
 10
13.8551229335
 20
8.9361215825
 30
0.0
 10
13.8524969508
 20
8.9394311846
 30
0.0
 10
13.84984301
 20
8.9425372563
 30
0.0
 10
13.8471619936
 20
8.945438766
 30
0.0
 10
13.8444544347
 20
8.9481349227
 30
0.0
 10
13.840868364
 20
8.951401756
 30
0.0
 10
13.8380553277
 20
8.953625062
 30
0.0
 10
13.8361367734
 20
8.9549759031
 30
0.0
  0
SPLINE
  5
2FF
100
AcDbEntity
  8
0
100
AcDbSpline
 62
7
  6
CONTINUOUS
 70
0
 71
3
 72
39
 73
35
 74
0
 42
0.0000001
 43
0.0000001
 44
0.0000000001
 40
0.0
 40
0.0
 40
0.0
 40
0.0
 40
0.0299424725
 40
0.0599093195
 40
0.0899243237
 40
0.1200100993
 40
0.1501875534
 40
0.1804753997
 40
0.2108897381
 40
0.2414437083
 40
0.2721472261
 40
0.3030068024
 40
0.3340254485
 40
0.3652026624
 40
0.3965344927
 40
0.4280136743
 40
0.4596298287
 40
0.4913697214
 40
0.5232175685
 40
0.5551553859
 40
0.5871633717
 40
0.6192203171
 40
0.6513040363
 40
0.6833918115
 40
0.7154608445
 40
0.747488709
 40
0.7794537991
 40
0.8113357648
 40
0.8431159318
 40
0.87477769
 40
0.9063068705
 40
0.9376920244
 40
0.9689248101
 40
1.0
 40
1.0
 40
1.0
 40
1.0
 10
12.3314290184
 20
8.9683513935
 30
0.0
 10
12.3278954217
 20
8.9649381778
 30
0.0
 10
12.3205504107
 20
8.9583871633
 30
0.0
 10
12.3087825129
 20
8.9494625873
 30
0.0
 10
12.2963244251
 20
8.9414845797
 30
0.0
 10
12.283245747
 20
8.9344979066
 30
0.0
 10
12.2696183874
 20
8.9285407352
 30
0.0
 10
12.255517554
 20
8.9236458132
 30
0.0
 10
12.2410209513
 20
8.9198399226
 30
0.0
 10
12.2262084458
 20
8.9171438423
 30
0.0
 10
12.2111615929
 20
8.9155722173
 30
0.0
 10
12.195963193
 20
8.9151334969
 30
0.0
 10
12.1806968341
 20
8.9158298974
 30
0.0
 10
12.1654464347
 20
8.9176574007
 30
0.0
 10
12.150295787
 20
8.9206057844
 30
0.0
 10
12.135328102
 20
8.9246586858
 30
0.0
 10
12.1206255582
 20
8.9297936963
 30
0.0
 10
12.106268857
 20
8.9359824886
 30
0.0
 10
12.092336786
 20
8.9431909742
 30
0.0
 10
12.0789057929
 20
8.9513794914
 30
0.0
 10
12.066049571
 20
8.9605030228
 30
0.0
 10
12.0538386605
 20
8.9705114413
 30
0.0
 10
12.042340066
 20
8.9813497833
 30
0.0
 10
12.0316168925
 20
8.9929585479
 30
0.0
 10
12.0217280034
 20
9.0052740203
 30
0.0
 10
12.0127276999
 20
9.0182286182
 30
0.0
 10
12.0046654262
 20
9.0317512578
 30
0.0
 10
11.9975854992
 20
9.045767742
 30
0.0
 10
11.9915268683
 20
9.060201153
 30
0.0
 10
11.9865228974
 20
9.0749723045
 30
0.0
 10
11.9826011917
 20
9.0900000372
 30
0.0
 10
11.9797834233
 20
9.1052021517
 30
0.0
 10
11.978085242
 20
9.1204940383
 30
0.0
 10
11.977704877
 20
9.1307212763
 30
0.0
 10
11.977704877
 20
9.135820005
 30
0.0
  0
SPLINE
  5
300
100
AcDbEntity
  8
0
100
AcDbSpline
 62
7
  6
CONTINUOUS
 70
0
 71
3
 72
39
 73
35
 74
0
 42
0.0000001
 43
0.0000001
 44
0.0000000001
 40
0.0
 40
0.0
 40
0.0
 40
0.0
 40
0.0299424725
 40
0.0599093195
 40
0.0899243237
 40
0.1200100993
 40
0.1501875534
 40
0.1804753997
 40
0.2108897381
 40
0.2414437083
 40
0.2721472261
 40
0.3030068024
 40
0.3340254485
 40
0.3652026624
 40
0.3965344927
 40
0.4280136743
 40
0.4596298287
 40
0.4913697214
 40
0.5232175685
 40
0.5551553859
 40
0.5871633717
 40
0.6192203171
 40
0.6513040363
 40
0.6833918115
 40
0.7154608445
 40
0.747488709
 40
0.7794537991
 40
0.8113357648
 40
0.8431159318
 40
0.87477769
 40
0.9063068705
 40
0.9376920244
 40
0.9689248101
 40
1.0
 40
1.0
 40
1.0
 40
1.0
 10
9.2520573368
 20
9.2398620427
 30
0.0
 10
9.2485237401
 20
9.236448827
 30
0.0
 10
9.2411787291
 20
9.2298978125
 30
0.0
 10
9.2294108312
 20
9.2209732365
 30
0.0
 10
9.2169527434
 20
9.2129952289
 30
0.0
 10
9.2038740653
 20
9.2060085558
 30
0.0
 10
9.1902467058
 20
9.2000513844
 30
0.0
 10
9.1761458723
 20
9.1951564624
 30
0.0
 10
9.1616492697
 20
9.1913505718
 30
0.0
 10
9.1468367641
 20
9.1886544915
 30
0.0
 10
9.1317899113
 20
9.1870828664
 30
0.0
 10
9.1165915114
 20
9.1866441461
 30
0.0
 10
9.1013251524
 20
9.1873405466
 30
0.0
 10
9.086074753
 20
9.1891680499
 30
0.0
 10
9.0709241053
 20
9.1921164336
 30
0.0
 10
9.0559564203
 20
9.196169335
 30
0.0
 10
9.0412538765
 20
9.2013043455
 30
0.0
 10
9.0268971753
 20
9.2074931378
 30
0.0
 10
9.0129651044
 20
9.2147016234
 30
0.0
 10
8.9995341112
 20
9.2228901406
 30
0.0
 10
8.9866778893
 20
9.232013672
 30
0.0
 10
8.9744669788
 20
9.2420220905
 30
0.0
 10
8.9629683843
 20
9.2528604325
 30
0.0
 10
8.9522452108
 20
9.2644691971
 30
0.0
 10
8.9423563217
 20
9.2767846695
 30
0.0
 10
8.9333560182
 20
9.2897392674
 30
0.0
 10
8.9252937446
 20
9.303261907
 30
0.0
 10
8.9182138175
 20
9.3172783912
 30
0.0
 10
8.9121551867
 20
9.3317118022
 30
0.0
 10
8.9071512158
 20
9.3464829537
 30
0.0
 10
8.90322951
 20
9.3615106864
 30
0.0
 10
8.9004117416
 20
9.3767128009
 30
0.0
 10
8.8987135603
 20
9.3920046875
 30
0.0
 10
8.8983331954
 20
9.4022319255
 30
0.0
 10
8.8983331954
 20
9.4073306542
 30
0.0
  0
SPLINE
  5
301
100
AcDbEntity
  8
0
100
AcDbSpline
 62
7
  6
CONTINUOUS
 70
0
 71
3
 72
39
 73
35
 74
0
 42
0.0000001
 43
0.0000001
 44
0.0000000001
 40
0.0
 40
0.0
 40
0.0
 40
0.0
 40
0.0299424725
 40
0.0599093195
 40
0.0899243237
 40
0.1200100993
 40
0.1501875534
 40
0.1804753997
 40
0.2108897381
 40
0.2414437083
 40
0.2721472261
 40
0.3030068024
 40
0.3340254485
 40
0.3652026624
 40
0.3965344927
 40
0.4280136743
 40
0.4596298287
 40
0.4913697214
 40
0.5232175685
 40
0.5551553859
 40
0.5871633717
 40
0.6192203171
 40
0.6513040363
 40
0.6833918115
 40
0.7154608445
 40
0.747488709
 40
0.7794537991
 40
0.8113357648
 40
0.8431159318
 40
0.87477769
 40
0.9063068705
 40
0.9376920244
 40
0.9689248101
 40
1.0
 40
1.0
 40
1.0
 40
1.0
 10
9.2520573368
 20
6.7670918074
 30
0.0
 10
9.2485237401
 20
6.7636785916
 30
0.0
 10
9.2411787291
 20
6.7571275772
 30
0.0
 10
9.2294108312
 20
6.7482030012
 30
0.0
 10
9.2169527434
 20
6.7402249936
 30
0.0
 10
9.2038740653
 20
6.7332383205
 30
0.0
 10
9.1902467058
 20
6.7272811491
 30
0.0
 10
9.1761458723
 20
6.722386227
 30
0.0
 10
9.1616492697
 20
6.7185803364
 30
0.0
 10
9.1468367641
 20
6.7158842561
 30
0.0
 10
9.1317899113
 20
6.7143126311
 30
0.0
 10
9.1165915114
 20
6.7138739107
 30
0.0
 10
9.1013251524
 20
6.7145703113
 30
0.0
 10
9.086074753
 20
6.7163978145
 30
0.0
 10
9.0709241053
 20
6.7193461983
 30
0.0
 10
9.0559564203
 20
6.7233990996
 30
0.0
 10
9.0412538765
 20
6.7285341101
 30
0.0
 10
9.0268971753
 20
6.7347229024
 30
0.0
 10
9.0129651044
 20
6.741931388
 30
0.0
 10
8.9995341112
 20
6.7501199052
 30
0.0
 10
8.9866778893
 20
6.7592434367
 30
0.0
 10
8.9744669788
 20
6.7692518552
 30
0.0
 10
8.9629683843
 20
6.7800901971
 30
0.0
 10
8.9522452108
 20
6.7916989617
 30
0.0
 10
8.9423563217
 20
6.8040144341
 30
0.0
 10
8.9333560182
 20
6.816969032
 30
0.0
 10
8.9252937446
 20
6.8304916717
 30
0.0
 10
8.9182138175
 20
6.8445081559
 30
0.0
 10
8.9121551867
 20
6.8589415669
 30
0.0
 10
8.9071512158
 20
6.8737127184
 30
0.0
 10
8.90322951
 20
6.8887404511
 30
0.0
 10
8.9004117416
 20
6.9039425656
 30
0.0
 10
8.8987135603
 20
6.9192344522
 30
0.0
 10
8.8983331954
 20
6.9294616902
 30
0.0
 10
8.8983331954
 20
6.9345604189
 30
0.0
  0
SPLINE
  5
302
100
AcDbEntity
  8
0
100
AcDbSpline
 62
7
  6
CONTINUOUS
 70
0
 71
3
 72
39
 73
35
 74
0
 42
0.0000001
 43
0.0000001
 44
0.0000000001
 40
0.0
 40
0.0
 40
0.0
 40
0.0
 40
0.0299424725
 40
0.0599093195
 40
0.0899243237
 40
0.1200100993
 40
0.1501875534
 40
0.1804753997
 40
0.2108897381
 40
0.2414437083
 40
0.2721472261
 40
0.3030068024
 40
0.3340254485
 40
0.3652026624
 40
0.3965344927
 40
0.4280136743
 40
0.4596298287
 40
0.4913697214
 40
0.5232175685
 40
0.5551553859
 40
0.5871633717
 40
0.6192203171
 40
0.6513040363
 40
0.6833918115
 40
0.7154608445
 40
0.747488709
 40
0.7794537991
 40
0.8113357648
 40
0.8431159318
 40
0.87477769
 40
0.9063068705
 40
0.9376920244
 40
0.9689248101
 40
1.0
 40
1.0
 40
1.0
 40
1.0
 10
12.3314290184
 20
6.6095603555
 30
0.0
 10
12.3278954217
 20
6.6061471398
 30
0.0
 10
12.3205504107
 20
6.5995961254
 30
0.0
 10
12.3087825129
 20
6.5906715494
 30
0.0
 10
12.2963244251
 20
6.5826935417
 30
0.0
 10
12.283245747
 20
6.5757068687
 30
0.0
 10
12.2696183874
 20
6.5697496973
 30
0.0
 10
12.255517554
 20
6.5648547752
 30
0.0
 10
12.2410209513
 20
6.5610488846
 30
0.0
 10
12.2262084458
 20
6.5583528043
 30
0.0
 10
12.2111615929
 20
6.5567811793
 30
0.0
 10
12.195963193
 20
6.5563424589
 30
0.0
 10
12.1806968341
 20
6.5570388595
 30
0.0
 10
12.1654464347
 20
6.5588663627
 30
0.0
 10
12.150295787
 20
6.5618147464
 30
0.0
 10
12.135328102
 20
6.5658676478
 30
0.0
 10
12.1206255582
 20
6.5710026583
 30
0.0
 10
12.106268857
 20
6.5771914506
 30
0.0
 10
12.092336786
 20
6.5843999362
 30
0.0
 10
12.0789057929
 20
6.5925884534
 30
0.0
 10
12.066049571
 20
6.6017119848
 30
0.0
 10
12.0538386605
 20
6.6117204033
 30
0.0
 10
12.042340066
 20
6.6225587453
 30
0.0
 10
12.0316168925
 20
6.6341675099
 30
0.0
 10
12.0217280034
 20
6.6464829823
 30
0.0
 10
12.0127276999
 20
6.6594375802
 30
0.0
 10
12.0046654262
 20
6.6729602198
 30
0.0
 10
11.9975854992
 20
6.6869767041
 30
0.0
 10
11.9915268683
 20
6.7014101151
 30
0.0
 10
11.9865228974
 20
6.7161812666
 30
0.0
 10
11.9826011917
 20
6.7312089993
 30
0.0
 10
11.9797834233
 20
6.7464111138
 30
0.0
 10
11.978085242
 20
6.7617030003
 30
0.0
 10
11.977704877
 20
6.7719302383
 30
0.0
 10
11.977704877
 20
6.7770289671
 30
0.0
  0
SPLINE
  5
303
100
AcDbEntity
  8
0
100
AcDbSpline
 62
7
  6
CONTINUOUS
 70
0
 71
3
 72
23
 73
19
 74
0
 42
0.0000001
 43
0.0000001
 44
0.0000000001
 40
0.0
 40
0.0
 40
0.0
 40
0.0
 40
0.0637751697
 40
0.127345371
 40
0.1907022537
 40
0.2538558573
 40
0.3168132315
 40
0.3795821093
 40
0.4421733555
 40
0.5045993354
 40
0.5668738704
 40
0.6290123786
 40
0.6910316578
 40
0.7529496568
 40
0.8147853611
 40
0.8765586146
 40
0.9382898649
 40
1.0
 40
1.0
 40
1.0
 40
1.0
 10
8.8983331954
 20
9.4073306542
 30
0.0
 10
8.8983331954
 20
9.4106168527
 30
0.0
 10
8.8984905329
 20
9.4171798
 30
0.0
 10
8.8992004173
 20
9.4269842803
 30
0.0
 10
8.900382484
 20
9.4367111098
 30
0.0
 10
8.9020339062
 20
9.4463372692
 30
0.0
 10
8.9041508242
 20
9.4558408964
 30
0.0
 10
8.9067284984
 20
9.4652000137
 30
0.0
 10
8.9097609897
 20
9.4743930144
 30
0.0
 10
8.9132412446
 20
9.4833987461
 30
0.0
 10
8.9171613564
 20
9.4921964037
 30
0.0
 10
8.9215122681
 20
9.5007657018
 30
0.0
 10
8.9262839092
 20
9.5090869043
 30
0.0
 10
8.9314653885
 20
9.5171407638
 30
0.0
 10
8.9370446814
 20
9.5249087206
 30
0.0
 10
8.9430089801
 20
9.5323729312
 30
0.0
 10
8.9493443799
 20
9.5395158701
 30
0.0
 10
8.9538064082
 20
9.5440535666
 30
0.0
 10
8.9560934803
 20
9.5462627238
 30
0.0
  0
SPLINE
  5
304
100
AcDbEntity
  8
0
100
AcDbSpline
 62
7
  6
CONTINUOUS
 70
0
 71
3
 72
59
 73
55
 74
0
 42
0.0000001
 43
0.0000001
 44
0.0000000001
 40
0.0
 40
0.0
 40
0.0
 40
0.0
 40
0.0417736767
 40
0.0840362765
 40
0.1266574811
 40
0.1695051262
 40
0.2124463914
 40
0.2553479967
 40
0.2980768488
 40
0.3405005256
 40
0.3824878146
 40
0.4239092383
 40
0.464637589
 40
0.5045484688
 40
0.5435208413
 40
0.5814375992
 40
0.6181861539
 40
0.6360888024
 40
0.6536595531
 40
0.6708859017
 40
0.6877557363
 40
0.7042573867
 40
0.720379648
 40
0.7361117919
 40
0.7514436399
 40
0.7663655339
 40
0.7808684645
 40
0.7949440033
 40
0.8085844873
 40
0.8217829218
 40
0.83453322
 40
0.8468300923
 40
0.8586693371
 40
0.8700477415
 40
0.8809634199
 40
0.8914157604
 40
0.9014058112
 40
0.9109363168
 40
0.9200121632
 40
0.9286405545
 40
0.9368315416
 40
0.9445983908
 40
0.9519582219
 40
0.9589325919
 40
0.9655482195
 40
0.9718376843
 40
0.9778400275
 40
0.9836011664
 40
0.9864084736
 40
0.9891757902
 40
0.9919106587
 40
0.9946209114
 40
0.9973146138
 40
1.0
 40
1.0
 40
1.0
 40
1.0
 10
14.0416079283
 20
8.4779677873
 30
0.0
 10
14.0416079283
 20
8.4648154012
 30
0.0
 10
14.0414027371
 20
8.4383562789
 30
0.0
 10
14.0404956242
 20
8.3984872748
 30
0.0
 10
14.0389900396
 20
8.3582979433
 30
0.0
 10
14.0368909187
 20
8.3179213211
 30
0.0
 10
14.0342051983
 20
8.2774909945
 30
0.0
 10
14.0309417558
 20
8.2371407169
 30
0.0
 10
14.0271114019
 20
8.1970039851
 30
0.0
 10
14.0227268341
 20
8.1572135804
 30
0.0
 10
14.0178025997
 20
8.1179011318
 30
0.0
 10
14.012355046
 20
8.0791966762
 30
0.0
 10
14.0064022688
 20
8.0412282205
 30
0.0
 10
13.9999640511
 20
8.0041213279
 30
0.0
 10
13.9930618054
 20
7.9679986415
 30
0.0
 10
13.9857184825
 20
7.9329796672
 30
0.0
 10
13.9791965071
 20
7.9045717505
 30
0.0
 10
13.973768696
 20
7.882489717
 30
0.0
 10
13.9696384826
 20
7.8664192004
 30
0.0
 10
13.9654169979
 20
7.8507088892
 30
0.0
 10
13.9611077119
 20
7.8353717619
 30
0.0
 10
13.9567142069
 20
7.8204205006
 30
0.0
 10
13.9522401299
 20
7.8058674625
 30
0.0
 10
13.9476891778
 20
7.7917246745
 30
0.0
 10
13.9430651473
 20
7.7780038175
 30
0.0
 10
13.9383718405
 20
7.7647162258
 30
0.0
 10
13.9336131901
 20
7.7518728613
 30
0.0
 10
13.9287930897
 20
7.7394843269
 30
0.0
 10
13.9239155925
 20
7.7275608248
 30
0.0
 10
13.9189846701
 20
7.7161121897
 30
0.0
 10
13.9140044772
 20
7.7051478249
 30
0.0
 10
13.908979049
 20
7.6946767604
 30
0.0
 10
13.9039126176
 20
7.6847075633
 30
0.0
 10
13.8988092652
 20
7.6752484236
 30
0.0
 10
13.893673269
 20
7.6663070374
 30
0.0
 10
13.8885087357
 20
7.6578907207
 30
0.0
 10
13.8833199441
 20
7.6500062688
 30
0.0
 10
13.8781109895
 20
7.6426600947
 30
0.0
 10
13.8728860907
 20
7.6358580769
 30
0.0
 10
13.8676492743
 20
7.6296057136
 30
0.0
 10
13.8624046135
 20
7.6239079841
 30
0.0
 10
13.8571559823
 20
7.6187695091
 30
0.0
 10
13.8519072114
 20
7.6141944702
 30
0.0
 10
13.8466619377
 20
7.6101867594
 30
0.0
 10
13.8414237533
 20
7.6067500234
 30
0.0
 10
13.8361960374
 20
7.6038877315
 30
0.0
 10
13.8309828354
 20
7.6016034415
 30
0.0
 10
13.8266153694
 20
7.6001719732
 30
0.0
 10
13.8231457737
 20
7.599329227
 30
0.0
 10
13.8205728045
 20
7.5988481523
 30
0.0
 10
13.8180076354
 20
7.598512888
 30
0.0
 10
13.8154507553
 20
7.5983235204
 30
0.0
 10
13.8129028848
 20
7.5982801657
 30
0.0
 10
13.8112095655
 20
7.598348673
 30
0.0
 10
13.810366101
 20
7.5984071654
 30
0.0
  0
SPLINE
  5
305
100
AcDbEntity
  8
0
100
AcDbSpline
 62
7
  6
CONTINUOUS
 70
0
 71
3
 72
49
 73
45
 74
0
 42
0.0000001
 43
0.0000001
 44
0.0000000001
 40
0.0
 40
0.0
 40
0.0
 40
0.0
 40
0.007162651
 40
0.0146567047
 40
0.022489802
 40
0.0306682658
 40
0.039197236
 40
0.0480804432
 40
0.0573201505
 40
0.0669176598
 40
0.0768732462
 40
0.0871864326
 40
0.0978559349
 40
0.1088797421
 40
0.1202552948
 40
0.1319793485
 40
0.1440482505
 40
0.156457763
 40
0.1692032492
 40
0.1822796554
 40
0.19568148
 40
0.2094029484
 40
0.2377791912
 40
0.2673557091
 40
0.2980746237
 40
0.3298738609
 40
0.362687558
 40
0.3964464427
 40
0.4310781691
 40
0.466507628
 40
0.5026572389
 40
0.5394472298
 40
0.5767959041
 40
0.6146199124
 40
0.6528345158
 40
0.6913538428
 40
0.7300911403
 40
0.7689590294
 40
0.8078697587
 40
0.8467354142
 40
0.885468393
 40
0.9239808777
 40
0.9621872155
 40
1.0
 40
1.0
 40
1.0
 40
1.0
 10
7.9445161095
 20
10.0152926965
 30
0.0
 10
7.9428914837
 20
10.0137234284
 30
0.0
 10
7.9396444057
 20
10.0104314463
 30
0.0
 10
7.9348852591
 20
10.0051705722
 30
0.0
 10
7.9301321883
 20
9.999480131
 30
0.0
 10
7.925388205
 20
9.9933638072
 30
0.0
 10
7.9206559409
 20
9.9868251525
 30
0.0
 10
7.915938158
 20
9.9798679521
 30
0.0
 10
7.9112375371
 20
9.9724963473
 30
0.0
 10
7.9065569923
 20
9.9647146763
 30
0.0
 10
7.9018992228
 20
9.9565276138
 30
0.0
 10
7.8972670561
 20
9.9479400098
 30
0.0
 10
7.8926632529
 20
9.9389569895
 30
0.0
 10
7.888090539
 20
9.9295839296
 30
0.0
 10
7.8835517354
 20
9.9198264174
 30
0.0
 10
7.8790494826
 20
9.909690322
 30
0.0
 10
7.874586574
 20
9.8991816966
 30
0.0
 10
7.870165638
 20
9.8883068611
 30
0.0
 10
7.8657893602
 20
9.877072336
 30
0.0
 10
7.8614604015
 20
9.8654848689
 30
0.0
 10
7.857181299
 20
9.8535514196
 30
0.0
 10
7.8514820816
 20
9.8370029914
 30
0.0
 10
7.8445125276
 20
9.8154993386
 30
0.0
 10
7.836478987
 20
9.7887132058
 30
0.0
 10
7.8287040582
 20
9.7607289799
 30
0.0
 10
7.8212065701
 20
9.7316139787
 30
0.0
 10
7.814004671
 20
9.7014381164
 30
0.0
 10
7.8071157906
 20
9.6702739481
 30
0.0
 10
7.800556596
 20
9.6381964198
 30
0.0
 10
7.794342952
 20
9.6052827008
 30
0.0
 10
7.7884898837
 20
9.5716119895
 30
0.0
 10
7.7830115419
 20
9.5372653232
 30
0.0
 10
7.7779211613
 20
9.5023253814
 30
0.0
 10
7.7732310347
 20
9.4668762818
 30
0.0
 10
7.7689524859
 20
9.4310033734
 30
0.0
 10
7.7650958421
 20
9.3947930299
 30
0.0
 10
7.7616704093
 20
9.358332441
 30
0.0
 10
7.7586844506
 20
9.3217094015
 30
0.0
 10
7.756145167
 20
9.2850121114
 30
0.0
 10
7.7540586574
 20
9.2483289042
 30
0.0
 10
7.7524299681
 20
9.2117482278
 30
0.0
 10
7.7512629514
 20
9.1753579039
 30
0.0
 10
7.7505604811
 20
9.1392459324
 30
0.0
 10
7.7504019859
 20
9.115272801
 30
0.0
 10
7.7504019859
 20
9.1033484275
 30
0.0
  0
SPLINE
  5
306
100
AcDbEntity
  8
0
100
AcDbSpline
 62
7
  6
CONTINUOUS
 70
0
 71
3
 72
45
 73
41
 74
0
 42
0.0000001
 43
0.0000001
 44
0.0000000001
 40
0.0
 40
0.0
 40
0.0
 40
0.0
 40
0.0888870103
 40
0.1325879947
 40
0.1757271009
 40
0.2182554437
 40
0.2601243677
 40
0.3012868652
 40
0.3416970182
 40
0.3813099792
 40
0.4200823651
 40
0.4579721815
 40
0.4949389335
 40
0.5309438884
 40
0.5659499986
 40
0.5999221885
 40
0.6328275095
 40
0.6646351562
 40
0.6953169003
 40
0.7248471576
 40
0.7532032436
 40
0.7803658955
 40
0.8063194107
 40
0.8310522815
 40
0.8545578258
 40
0.865850166
 40
0.8768357442
 40
0.8875154012
 40
0.8978904249
 40
0.9079627228
 40
0.9177347094
 40
0.9272093663
 40
0.9363904602
 40
0.9452824765
 40
0.9538906595
 40
0.9622212493
 40
0.97028149
 40
0.978079655
 40
0.9856252816
 40
1.0
 40
1.0
 40
1.0
 40
1.0
 10
13.9817205245
 20
8.4821209929
 30
0.0
 10
13.9817205245
 20
8.4979731631
 30
0.0
 10
13.9814996971
 20
8.5216199126
 30
0.0
 10
13.9807421999
 20
8.5529504145
 30
0.0
 10
13.9799518082
 20
8.5760089588
 30
0.0
 10
13.9789370499
 20
8.5987316469
 30
0.0
 10
13.9776991328
 20
8.6210902595
 30
0.0
 10
13.9762396326
 20
8.6430569438
 30
0.0
 10
13.9745603971
 20
8.6646044236
 30
0.0
 10
13.9726634911
 20
8.6857059239
 30
0.0
 10
13.9705513235
 20
8.7063352219
 30
0.0
 10
13.9682265358
 20
8.7264666908
 30
0.0
 10
13.9656920143
 20
8.7460753266
 30
0.0
 10
13.962950974
 20
8.7651367817
 30
0.0
 10
13.9600068186
 20
8.7836273943
 30
0.0
 10
13.9568632371
 20
8.8015242216
 30
0.0
 10
13.953524197
 20
8.8188050711
 30
0.0
 10
13.9499938344
 20
8.8354485227
 30
0.0
 10
13.9462766005
 20
8.8514339722
 30
0.0
 10
13.9423771493
 20
8.8667416488
 30
0.0
 10
13.9383003134
 20
8.8813526444
 30
0.0
 10
13.9340512308
 20
8.8952489457
 30
0.0
 10
13.929635153
 20
8.9084135069
 30
0.0
 10
13.9250575543
 20
8.9208300385
 30
0.0
 10
13.9210614314
 20
8.9306685437
 30
0.0
 10
13.917781424
 20
8.9381462763
 30
0.0
 10
13.9153175022
 20
8.9434830133
 30
0.0
 10
13.9128175323
 20
8.9486216489
 30
0.0
 10
13.91028223
 20
8.9535605916
 30
0.0
 10
13.9077124142
 20
8.9582983396
 30
0.0
 10
13.9051088694
 20
8.9628334396
 30
0.0
 10
13.902472347
 20
8.9671644734
 30
0.0
 10
13.8998036763
 20
8.971290131
 30
0.0
 10
13.8971036705
 20
8.9752091598
 30
0.0
 10
13.8943730978
 20
8.9789203219
 30
0.0
 10
13.8916127718
 20
8.9824225054
 30
0.0
 10
13.8888235792
 20
8.9857145998
 30
0.0
 10
13.8860061044
 20
8.9887957437
 30
0.0
 10
13.8822738417
 20
8.9925598672
 30
0.0
 10
13.8793449773
 20
8.9951600638
 30
0.0
 10
13.8773444272
 20
8.9967631326
 30
0.0
  0
SPLINE
  5
307
100
AcDbEntity
  8
0
100
AcDbSpline
 62
7
  6
CONTINUOUS
 70
0
 71
3
 72
52
 73
48
 74
0
 42
0.0000001
 43
0.0000001
 44
0.0000000001
 40
0.0
 40
0.0
 40
0.0
 40
0.0
 40
0.0392011841
 40
0.0788294155
 40
0.1187834715
 40
0.1589620324
 40
0.1992624667
 40
0.239581998
 40
0.2798176958
 40
0.3198669326
 40
0.3596276752
 40
0.3989988334
 40
0.4378805913
 40
0.4761747485
 40
0.5137850627
 40
0.5506175997
 40
0.5865810914
 40
0.621587307
 40
0.6555514408
 40
0.6883925234
 40
0.7200338668
 40
0.7353822121
 40
0.7504040585
 40
0.7650912891
 40
0.7794360853
 40
0.7934311138
 40
0.8070693634
 40
0.8203443776
 40
0.8332500768
 40
0.8457809979
 40
0.857932148
 40
0.8696992111
 40
0.8810784776
 40
0.8920669897
 40
0.9026625777
 40
0.9128639347
 40
0.9226707783
 40
0.9320838644
 40
0.9411052783
 40
0.9497384232
 40
0.9579884296
 40
0.9658621754
 40
0.9733687912
 40
0.9805197803
 40
0.9873295852
 40
0.9938158522
 40
1.0
 40
1.0
 40
1.0
 40
1.0
 10
13.9817205245
 20
8.4821209929
 30
0.0
 10
13.9817205245
 20
8.4702005534
 30
0.0
 10
13.9815520064
 20
8.4462295057
 30
0.0
 10
13.9808057937
 20
8.4101160638
 30
0.0
 10
13.97956653
 20
8.3737187526
 30
0.0
 10
13.9778375977
 20
8.3371368156
 30
0.0
 10
13.9756236645
 20
8.300469691
 30
0.0
 10
13.9729307635
 20
8.2638172101
 30
0.0
 10
13.9697662188
 20
8.2272790989
 30
0.0
 10
13.9661386557
 20
8.1909547937
 30
0.0
 10
13.9620579637
 20
8.1549431382
 30
0.0
 10
13.957535275
 20
8.1193421227
 30
0.0
 10
13.9525829328
 20
8.084248613
 30
0.0
 10
13.9472144589
 20
8.0497580854
 30
0.0
 10
13.9414445169
 20
8.0159643638
 30
0.0
 10
13.9352888734
 20
7.9829593627
 30
0.0
 10
13.9287643557
 20
7.9508328283
 30
0.0
 10
13.9218888063
 20
7.9196721048
 30
0.0
 10
13.9146810389
 20
7.8895618337
 30
0.0
 10
13.9071607729
 20
7.8605839156
 30
0.0
 10
13.900585806
 20
7.8372139679
 30
0.0
 10
13.8951768515
 20
7.8191493293
 30
0.0
 10
13.8910960649
 20
7.8060695865
 30
0.0
 10
13.8869529326
 20
7.7933299668
 30
0.0
 10
13.8827501981
 20
7.7809391251
 30
0.0
 10
13.8784908021
 20
7.7689054731
 30
0.0
 10
13.874177571
 20
7.7572371943
 30
0.0
 10
13.8698135221
 20
7.7459421978
 30
0.0
 10
13.8654015542
 20
7.7350281609
 30
0.0
 10
13.8609447404
 20
7.7245024718
 30
0.0
 10
13.8564460565
 20
7.7143722748
 30
0.0
 10
13.8519086075
 20
7.7046444189
 30
0.0
 10
13.8473354476
 20
7.6953254893
 30
0.0
 10
13.842729691
 20
7.6864217783
 30
0.0
 10
13.8380944652
 20
7.6779392861
 30
0.0
 10
13.8334328727
 20
7.6698837336
 30
0.0
 10
13.8287480995
 20
7.6622605107
 30
0.0
 10
13.8240432171
 20
7.6550747539
 30
0.0
 10
13.8193214414
 20
7.6483312227
 30
0.0
 10
13.814585793
 20
7.6420344596
 30
0.0
 10
13.8098394699
 20
7.6361885862
 30
0.0
 10
13.8050854222
 20
7.6307975504
 30
0.0
 10
13.8003267545
 20
7.6258648538
 30
0.0
 10
13.7955663473
 20
7.6213938872
 30
0.0
 10
13.7908070489
 20
7.6173875591
 30
0.0
 10
13.7860519765
 20
7.6138489591
 30
0.0
 10
13.7828128429
 20
7.6117558569
 30
0.0
 10
13.7811966275
 20
7.6107945443
 30
0.0
  0
SPLINE
  5
308
100
AcDbEntity
  8
0
100
AcDbSpline
 62
7
  6
CONTINUOUS
 70
0
 71
3
 72
36
 73
32
 74
0
 42
0.0000001
 43
0.0000001
 44
0.0000000001
 40
0.0
 40
0.0
 40
0.0
 40
0.0
 40
0.0851784539
 40
0.1685797221
 40
0.2498819146
 40
0.2896481023
 40
0.3287733825
 40
0.3672208992
 40
0.4049545595
 40
0.4419394685
 40
0.478141692
 40
0.5135285455
 40
0.5480685466
 40
0.5817315304
 40
0.6144888397
 40
0.6463132122
 40
0.6771792164
 40
0.7070630016
 40
0.7359428439
 40
0.7637989648
 40
0.790613997
 40
0.8163730895
 40
0.8410641782
 40
0.8646784984
 40
0.8872107022
 40
0.9086597752
 40
0.9290292269
 40
0.9483283084
 40
0.9665726389
 40
0.983785652
 40
1.0
 40
1.0
 40
1.0
 40
1.0
 10
7.7504019859
 20
7.4129781313
 30
0.0
 10
7.7504019859
 20
7.3974384087
 30
0.0
 10
7.7506667781
 20
7.3666824189
 30
0.0
 10
7.7518813196
 20
7.3211084501
 30
0.0
 10
7.7535791504
 20
7.283841607
 30
0.0
 10
7.7553497488
 20
7.2546695745
 30
0.0
 10
7.7568671618
 20
7.2333160126
 30
0.0
 10
7.7585820719
 20
7.2123494269
 30
0.0
 10
7.7604927498
 20
7.1917918804
 30
0.0
 10
7.7625970962
 20
7.1716650424
 30
0.0
 10
7.7648929341
 20
7.151990104
 30
0.0
 10
7.7673777939
 20
7.1327877854
 30
0.0
 10
7.770049049
 20
7.1140783034
 30
0.0
 10
7.7729038847
 20
7.0958813497
 30
0.0
 10
7.7759392274
 20
7.0782160732
 30
0.0
 10
7.7791519259
 20
7.0611010533
 30
0.0
 10
7.7825384907
 20
7.0445542831
 30
0.0
 10
7.7860954178
 20
7.0285931485
 30
0.0
 10
7.7898188591
 20
7.0132344029
 30
0.0
 10
7.7937049301
 20
6.9984941565
 30
0.0
 10
7.7977494888
 20
6.9843878467
 30
0.0
 10
7.801948259
 20
6.9709302226
 30
0.0
 10
7.8062968561
 20
6.9581353337
 30
0.0
 10
7.8107906388
 20
6.9460164818
 30
0.0
 10
7.8154250139
 20
6.9345862558
 30
0.0
 10
7.8201950566
 20
6.9238564329
 30
0.0
 10
7.8250959973
 20
6.9138380544
 30
0.0
 10
7.8301227563
 20
6.9045413507
 30
0.0
 10
7.8352705401
 20
6.8959756415
 30
0.0
 10
7.8405340299
 20
6.8881499869
 30
0.0
 10
7.844224812
 20
6.8832895233
 30
0.0
 10
7.8460912736
 20
6.8809945979
 30
0.0
  0
SPLINE
  5
309
100
AcDbEntity
  8
0
100
AcDbSpline
 62
7
  6
CONTINUOUS
 70
0
 71
3
 72
54
 73
50
 74
0
 42
0.0000001
 43
0.0000001
 44
0.0000000001
 40
0.0
 40
0.0
 40
0.0
 40
0.0
 40
0.0408856398
 40
0.0822388087
 40
0.1239395793
 40
0.1658670571
 40
0.2078993156
 40
0.2499141238
 40
0.2917892845
 40
0.3334031268
 40
0.3746349436
 40
0.415365451
 40
0.455477244
 40
0.4948552598
 40
0.5333872489
 40
0.5709642566
 40
0.6074811223
 40
0.6428370023
 40
0.6769359261
 40
0.6934857911
 40
0.7096879422
 40
0.7255320822
 40
0.7410082529
 40
0.7561070548
 40
0.7708194737
 40
0.7851371267
 40
0.7990520782
 40
0.8125571085
 40
0.8256455304
 40
0.8383114761
 40
0.8505497273
 40
0.8623560194
 40
0.8737268998
 40
0.8846600511
 40
0.8951541984
 40
0.9052094562
 40
0.914827311
 40
0.9240110072
 40
0.9327656347
 40
0.941098578
 40
0.949019747
 40
0.9565421156
 40
0.9636821252
 40
0.9704603193
 40
0.9769018924
 40
0.9830373292
 40
0.9889029011
 40
0.9945409835
 40
1.0
 40
1.0
 40
1.0
 40
1.0
 10
13.9744735972
 20
8.4751209982
 30
0.0
 10
13.9744735972
 20
8.4628959716
 30
0.0
 10
13.9742890003
 20
8.4383057636
 30
0.0
 10
13.9734724776
 20
8.4012549493
 30
0.0
 10
13.972116964
 20
8.3639081599
 30
0.0
 10
13.9702266475
 20
8.3263813508
 30
0.0
 10
13.9678073658
 20
8.2887908365
 30
0.0
 10
13.964866622
 20
8.2512532094
 30
0.0
 10
13.9614135407
 20
8.2138848684
 30
0.0
 10
13.9574588498
 20
8.1768016939
 30
0.0
 10
13.9530148434
 20
8.1401186731
 30
0.0
 10
13.9480953452
 20
8.1039495453
 30
0.0
 10
13.9427156662
 20
8.0684064443
 30
0.0
 10
13.9368925577
 20
8.0335995489
 30
0.0
 10
13.9306441607
 20
7.999636732
 30
0.0
 10
13.9239899499
 20
7.9666232366
 30
0.0
 10
13.9169506784
 20
7.9346612836
 30
0.0
 10
13.9095482979
 20
7.9038499549
 30
0.0
 10
13.9030332593
 20
7.8789708653
 30
0.0
 10
13.897648417
 20
7.8597206754
 30
0.0
 10
13.8935737349
 20
7.845772818
 30
0.0
 10
13.8894260854
 20
7.8321817874
 30
0.0
 10
13.8852086008
 20
7.8189581064
 30
0.0
 10
13.8809246391
 20
7.8061120108
 30
0.0
 10
13.8765774498
 20
7.7936534545
 30
0.0
 10
13.8721704923
 20
7.7815920677
 30
0.0
 10
13.8677071069
 20
7.7699371927
 30
0.0
 10
13.8631908452
 20
7.7586978247
 30
0.0
 10
13.8586251269
 20
7.7478826623
 30
0.0
 10
13.8540135813
 20
7.7375000344
 30
0.0
 10
13.8493596954
 20
7.7275579663
 30
0.0
 10
13.8446671591
 20
7.7180640903
 30
0.0
 10
13.839939512
 20
7.709025729
 30
0.0
 10
13.835180483
 20
7.7004497898
 30
0.0
 10
13.8303936456
 20
7.692342865
 30
0.0
 10
13.825582739
 20
7.6847111108
 30
0.0
 10
13.8207513425
 20
7.6775603653
 30
0.0
 10
13.815903166
 20
7.6708960147
 30
0.0
 10
13.8110417523
 20
7.6647231278
 30
0.0
 10
13.8061707246
 20
7.6590463207
 30
0.0
 10
13.8012935288
 20
7.6538699057
 30
0.0
 10
13.7964136267
 20
7.6491977739
 30
0.0
 10
13.791534297
 20
7.6450335583
 30
0.0
 10
13.7866587861
 20
7.641380567
 30
0.0
 10
13.7817901836
 20
7.6382419476
 30
0.0
 10
13.7769316611
 20
7.6356207055
 30
0.0
 10
13.7720861899
 20
7.6335197576
 30
0.0
 10
13.767257985
 20
7.6319421317
 30
0.0
 10
13.7640096439
 20
7.6312316346
 30
0.0
 10
13.7623986257
 20
7.6309690644
 30
0.0
  0
SPLINE
  5
30A
100
AcDbEntity
  8
0
100
AcDbSpline
 62
7
  6
CONTINUOUS
 70
0
 71
3
 72
52
 73
48
 74
0
 42
0.0000001
 43
0.0000001
 44
0.0000000001
 40
0.0
 40
0.0
 40
0.0
 40
0.0
 40
0.0395145193
 40
0.0794637068
 40
0.1197428265
 40
0.1602471314
 40
0.2008704654
 40
0.2415065589
 40
0.2820489966
 40
0.3223917089
 40
0.3624292799
 40
0.4020573167
 40
0.4411728023
 40
0.4796744566
 40
0.5174631015
 40
0.5544420328
 40
0.5905174025
 40
0.6255986151
 40
0.6595987421
 40
0.6924349647
 40
0.7240290552
 40
0.7393375126
 40
0.7543084492
 40
0.768933683
 40
0.7832053282
 40
0.7971160352
 40
0.8106588094
 40
0.8238272352
 40
0.8366153493
 40
0.849017805
 40
0.861029842
 40
0.8726473662
 40
0.8838670402
 40
0.8946862747
 40
0.9051034472
 40
0.9151178261
 40
0.9247299044
 40
0.9339413065
 40
0.9427552052
 40
0.9511762861
 40
0.9592112091
 40
0.9668687113
 40
0.974160086
 40
0.9810994781
 40
0.9877043645
 40
0.9939960311
 40
1.0
 40
1.0
 40
1.0
 40
1.0
 10
13.9368024922
 20
8.4725084936
 30
0.0
 10
13.9368024922
 20
8.461247807
 30
0.0
 10
13.9366412419
 20
8.4386022632
 30
0.0
 10
13.9359273645
 20
8.4044849036
 30
0.0
 10
13.9347418801
 20
8.3700983939
 30
0.0
 10
13.933088111
 20
8.3355389225
 30
0.0
 10
13.9309706352
 20
8.3009028452
 30
0.0
 10
13.9283953731
 20
8.2662868992
 30
0.0
 10
13.9253695099
 20
8.2317876972
 30
0.0
 10
13.9219015064
 20
8.1975015483
 30
0.0
 10
13.9180010619
 20
8.1635241557
 30
0.0
 10
13.9136790927
 20
8.1299503581
 30
0.0
 10
13.9089476998
 20
8.0968738604
 30
0.0
 10
13.9038201367
 20
8.0643869703
 30
0.0
 10
13.8983107726
 20
8.032580338
 30
0.0
 10
13.8924350525
 20
8.0015427005
 30
0.0
 10
13.8862094565
 20
7.9713606253
 30
0.0
 10
13.8796514526
 20
7.9421182785
 30
0.0
 10
13.872779452
 20
7.9138971271
 30
0.0
 10
13.8656127458
 20
7.8867759037
 30
0.0
 10
13.8593477098
 20
7.8649309067
 30
0.0
 10
13.854195275
 20
7.8480676912
 30
0.0
 10
13.8503105067
 20
7.8358745209
 30
0.0
 10
13.8463674858
 20
7.8240110154
 30
0.0
 10
13.8423688782
 20
7.8124854421
 30
0.0
 10
13.8383175559
 20
7.801305825
 30
0.0
 10
13.834216286
 20
7.7904799593
 30
0.0
 10
13.83006799
 20
7.7800153733
 30
0.0
 10
13.8258755264
 20
7.7699193546
 30
0.0
 10
13.8216418474
 20
7.7601989187
 30
0.0
 10
13.8173699026
 20
7.7508608183
 30
0.0
 10
13.8130626569
 20
7.7419115385
 30
0.0
 10
13.8087231439
 20
7.733357271
 30
0.0
 10
13.804354327
 20
7.7252039533
 30
0.0
 10
13.7999593069
 20
7.7174571921
 30
0.0
 10
13.7955410356
 20
7.7101223598
 30
0.0
 10
13.7911026498
 20
7.7032044588
 30
0.0
 10
13.786647084
 20
7.6967082777
 30
0.0
 10
13.7821774627
 20
7.6906382061
 30
0.0
 10
13.7776966942
 20
7.6849984312
 30
0.0
 10
13.7732078269
 20
7.6797927408
 30
0.0
 10
13.7687137231
 20
7.6750247181
 30
0.0
 10
13.7642172781
 20
7.6706975913
 30
0.0
 10
13.7597213029
 20
7.6668143901
 30
0.0
 10
13.7552283893
 20
7.6633778444
 30
0.0
 10
13.7507416431
 20
7.6603907137
 30
0.0
 10
13.747688912
 20
7.6586625211
 30
0.0
 10
13.7461671135
 20
7.6578804697
 30
0.0
  0
SPLINE
  5
30B
100
AcDbEntity
  8
0
100
AcDbSpline
 62
7
  6
CONTINUOUS
 70
0
 71
3
 72
23
 73
19
 74
0
 42
0.0000001
 43
0.0000001
 44
0.0000000001
 40
0.0
 40
0.0
 40
0.0
 40
0.0
 40
0.0637751697
 40
0.127345371
 40
0.1907022537
 40
0.2538558573
 40
0.3168132315
 40
0.3795821093
 40
0.4421733555
 40
0.5045993354
 40
0.5668738704
 40
0.6290123786
 40
0.6910316578
 40
0.7529496568
 40
0.8147853611
 40
0.8765586146
 40
0.9382898649
 40
1.0
 40
1.0
 40
1.0
 40
1.0
 10
11.977704877
 20
6.7770289671
 30
0.0
 10
11.977704877
 20
6.7803151655
 30
0.0
 10
11.9778622146
 20
6.7868781128
 30
0.0
 10
11.978572099
 20
6.7966825932
 30
0.0
 10
11.9797541657
 20
6.8064094227
 30
0.0
 10
11.9814055878
 20
6.8160355821
 30
0.0
 10
11.9835225058
 20
6.8255392092
 30
0.0
 10
11.9861001801
 20
6.8348983266
 30
0.0
 10
11.9891326714
 20
6.8440913273
 30
0.0
 10
11.9926129263
 20
6.853097059
 30
0.0
 10
11.996533038
 20
6.8618947165
 30
0.0
 10
12.0008839498
 20
6.8704640146
 30
0.0
 10
12.0056555909
 20
6.8787852172
 30
0.0
 10
12.0108370701
 20
6.8868390767
 30
0.0
 10
12.0164163631
 20
6.8946070334
 30
0.0
 10
12.0223806618
 20
6.902071244
 30
0.0
 10
12.0287160616
 20
6.909214183
 30
0.0
 10
12.0331780898
 20
6.9137518795
 30
0.0
 10
12.035465162
 20
6.9159610367
 30
0.0
  0
SPLINE
  5
30C
100
AcDbEntity
  8
0
100
AcDbSpline
 62
7
  6
CONTINUOUS
 70
0
 71
3
 72
49
 73
45
 74
0
 42
0.0000001
 43
0.0000001
 44
0.0000000001
 40
0.0
 40
0.0
 40
0.0
 40
0.0
 40
0.0378127845
 40
0.0760191223
 40
0.114531607
 40
0.1532645858
 40
0.1921302413
 40
0.2310409706
 40
0.2699088597
 40
0.3086461572
 40
0.3471654842
 40
0.3853800876
 40
0.4232040959
 40
0.4605527702
 40
0.4973427611
 40
0.533492372
 40
0.5689218309
 40
0.6035535573
 40
0.637312442
 40
0.6701261391
 40
0.7019253763
 40
0.7326442909
 40
0.7622208088
 40
0.7905970516
 40
0.80431852
 40
0.8177203446
 40
0.8307967508
 40
0.843542237
 40
0.8559517495
 40
0.8680206515
 40
0.8797447052
 40
0.8911202579
 40
0.9021440651
 40
0.9128135674
 40
0.9231267538
 40
0.9330823402
 40
0.9426798495
 40
0.9519195568
 40
0.960802764
 40
0.9693317342
 40
0.977510198
 40
0.9853432953
 40
0.992837349
 40
1.0
 40
1.0
 40
1.0
 40
1.0
 10
13.4248426528
 20
8.7283693176
 30
0.0
 10
13.4248426528
 20
8.739307943
 30
0.0
 10
13.4249880458
 20
8.7612992955
 30
0.0
 10
13.4256324452
 20
8.7944260107
 30
0.0
 10
13.4267029884
 20
8.8278080678
 30
0.0
 10
13.4281970395
 20
8.8613647416
 30
0.0
 10
13.4301110642
 20
8.8950154704
 30
0.0
 10
13.4324404338
 20
8.9286791178
 30
0.0
 10
13.4351795532
 20
8.9622746527
 30
0.0
 10
13.4383218169
 20
8.9957211663
 30
0.0
 10
13.4418596448
 20
9.0289381214
 30
0.0
 10
13.4457845003
 20
9.061845536
 30
0.0
 10
13.4500869097
 20
9.0943641767
 30
0.0
 10
13.4547564855
 20
9.12641575
 30
0.0
 10
13.459781951
 20
9.1579230919
 30
0.0
 10
13.4651511657
 20
9.1888103577
 30
0.0
 10
13.4708511485
 20
9.2190032093
 30
0.0
 10
13.4768681163
 20
9.2484289952
 30
0.0
 10
13.4831875159
 20
9.2770169256
 30
0.0
 10
13.489794058
 20
9.3046982499
 30
0.0
 10
13.4966717539
 20
9.3314064111
 30
0.0
 10
13.5038039552
 20
9.3570772743
 30
0.0
 10
13.5111733897
 20
9.3816490868
 30
0.0
 10
13.5175667939
 20
9.4013751042
 30
0.0
 10
13.522794876
 20
9.4165555291
 30
0.0
 10
13.5267202394
 20
9.4275024799
 30
0.0
 10
13.5306913375
 20
9.4381320497
 30
0.0
 10
13.534705843
 20
9.4484378541
 30
0.0
 10
13.538761315
 20
9.4584137032
 30
0.0
 10
13.5428552898
 20
9.4680536155
 30
0.0
 10
13.5469853563
 20
9.4773517937
 30
0.0
 10
13.5511489522
 20
9.4863026849
 30
0.0
 10
13.5553436551
 20
9.4949009052
 30
0.0
 10
13.5595668772
 20
9.5031413292
 30
0.0
 10
13.5638161181
 20
9.5110190246
 30
0.0
 10
13.5680888454
 20
9.5185292899
 30
0.0
 10
13.5723824651
 20
9.525667676
 30
0.0
 10
13.5766945014
 20
9.5324298949
 30
0.0
 10
13.5810222809
 20
9.5388119667
 30
0.0
 10
13.5853633445
 20
9.5448100927
 30
0.0
 10
13.5897151585
 20
9.5504208004
 30
0.0
 10
13.5940753088
 20
9.5556408317
 30
0.0
 10
13.5984410326
 20
9.5604668069
 30
0.0
 10
13.6014196855
 20
9.5634866518
 30
0.0
 10
13.6029100089
 20
9.5649261937
 30
0.0
  0
SPLINE
  5
30D
100
AcDbEntity
  8
0
100
AcDbSpline
 62
7
  6
CONTINUOUS
 70
0
 71
3
 72
50
 73
46
 74
0
 42
0.0000001
 43
0.0000001
 44
0.0000000001
 40
0.0
 40
0.0
 40
0.0
 40
0.0
 40
0.0378128611
 40
0.0760190334
 40
0.1145315696
 40
0.1532645103
 40
0.1921301506
 40
0.2310408617
 40
0.269908731
 40
0.3086460126
 40
0.347165323
 40
0.3853799084
 40
0.4232038959
 40
0.4605525481
 40
0.4973425198
 40
0.5334921181
 40
0.5689215678
 40
0.6035532829
 40
0.637312149
 40
0.6701258217
 40
0.7019250349
 40
0.7326439348
 40
0.7622204463
 40
0.7765622752
 40
0.7905971572
 40
0.8043186022
 40
0.8177204426
 40
0.8307968217
 40
0.84354232
 40
0.8559518158
 40
0.868020713
 40
0.8797447678
 40
0.8911203013
 40
0.9021441194
 40
0.912813603
 40
0.9231267987
 40
0.9330823728
 40
0.9426798717
 40
0.951919577
 40
0.960802784
 40
0.9693317719
 40
0.9775102131
 40
0.9853432686
 40
0.9928373107
 40
1.0
 40
1.0
 40
1.0
 40
1.0
 10
13.3489084805
 20
8.7170225351
 30
0.0
 10
13.3489084805
 20
8.7289469385
 30
0.0
 10
13.3490669725
 20
8.7529200532
 30
0.0
 10
13.3497694481
 20
8.7890320299
 30
0.0
 10
13.3509364587
 20
8.8254223232
 30
0.0
 10
13.3525651528
 20
8.8620030162
 30
0.0
 10
13.3546516631
 20
8.8986862181
 30
0.0
 10
13.3571909482
 20
8.9353835087
 30
0.0
 10
13.3601769045
 20
8.9720065488
 30
0.0
 10
13.363602333
 20
9.0084671389
 30
0.0
 10
13.3674589759
 20
9.0446774838
 30
0.0
 10
13.3717375265
 20
9.0805503917
 30
0.0
 10
13.3764276564
 20
9.1159994885
 30
0.0
 10
13.3815180404
 20
9.1509394269
 30
0.0
 10
13.3869963829
 20
9.1852860925
 30
0.0
 10
13.3928494473
 20
9.2189568077
 30
0.0
 10
13.3990630871
 20
9.2518705331
 30
0.0
 10
13.4056222798
 20
9.2839480644
 30
0.0
 10
13.4125111621
 20
9.3151122323
 30
0.0
 10
13.4197130655
 20
9.3452880794
 30
0.0
 10
13.4272105562
 20
9.3744031011
 30
0.0
 10
13.4349854884
 20
9.40238723
 30
0.0
 10
13.4417475137
 20
9.4249341089
 30
0.0
 10
13.447289673
 20
9.4423495921
 30
0.0
 10
13.4514612344
 20
9.4549532798
 30
0.0
 10
13.4556878181
 20
9.4672255303
 30
0.0
 10
13.4599668775
 20
9.4791589791
 30
0.0
 10
13.4642958694
 20
9.4907464432
 30
0.0
 10
13.4686721218
 20
9.5019809728
 30
0.0
 10
13.4730930723
 20
9.5128558055
 30
0.0
 10
13.4775559799
 20
9.5233644299
 30
0.0
 10
13.4820582219
 20
9.5335005281
 30
0.0
 10
13.4865970452
 20
9.5432580341
 30
0.0
 10
13.4911697345
 20
9.5526311022
 30
0.0
 10
13.4957735613
 20
9.5616141163
 30
0.0
 10
13.5004057111
 20
9.5702017267
 30
0.0
 10
13.5050634896
 20
9.5783887845
 30
0.0
 10
13.5097440311
 20
9.5861704532
 30
0.0
 10
13.5144446449
 20
9.593542063
 30
0.0
 10
13.5191624455
 20
9.6004992619
 30
0.0
 10
13.5238947026
 20
9.6070379245
 30
0.0
 10
13.5286386853
 20
9.6131542347
 30
0.0
 10
13.5333917344
 20
9.6188446672
 30
0.0
 10
13.5381508808
 20
9.6241055399
 30
0.0
 10
13.5413979689
 20
9.6273975269
 30
0.0
 10
13.5430226041
 20
9.6289668041
 30
0.0
  0
SPLINE
  5
30E
100
AcDbEntity
  8
0
100
AcDbSpline
 62
7
  6
CONTINUOUS
 70
0
 71
3
 72
23
 73
19
 74
0
 42
0.0000001
 43
0.0000001
 44
0.0000000001
 40
0.0
 40
0.0
 40
0.0
 40
0.0
 40
0.0616661748
 40
0.1233789635
 40
0.1851547894
 40
0.2470095448
 40
0.3089584741
 40
0.3710160583
 40
0.4331958838
 40
0.4955105318
 40
0.5579715241
 40
0.6205891962
 40
0.6833725614
 40
0.7463296147
 40
0.8094665494
 40
0.8727876971
 40
0.9363002571
 40
1.0
 40
1.0
 40
1.0
 40
1.0
 10
9.5401565809
 20
8.4610848557
 30
0.0
 10
9.5357058723
 20
8.4560293914
 30
0.0
 10
9.5270343495
 20
8.4457065137
 30
0.0
 10
9.5147530142
 20
8.4296305959
 30
0.0
 10
9.5032156014
 20
8.4129871103
 30
0.0
 10
9.4924441057
 20
8.3958077131
 30
0.0
 10
9.4824585591
 20
8.3781245399
 30
0.0
 10
9.4732777114
 20
8.3599707716
 30
0.0
 10
9.4649188003
 20
8.3413804223
 30
0.0
 10
9.4573974119
 20
8.3223883859
 30
0.0
 10
9.4507276129
 20
8.3030302707
 30
0.0
 10
9.4449219478
 20
8.2833423545
 30
0.0
 10
9.4399912168
 20
8.2633615502
 30
0.0
 10
9.4359446249
 20
8.2431253098
 30
0.0
 10
9.4327897699
 20
8.2226716686
 30
0.0
 10
9.4305324322
 20
8.2020385372
 30
0.0
 10
9.4291770285
 20
8.1812654547
 30
0.0
 10
9.428876622
 20
8.1673688198
 30
0.0
 10
9.428876622
 20
8.1604112363
 30
0.0
  0
SPLINE
  5
30F
100
AcDbEntity
  8
0
100
AcDbSpline
 62
7
  6
CONTINUOUS
 70
0
 71
3
 72
30
 73
26
 74
0
 42
0.0000001
 43
0.0000001
 44
0.0000000001
 40
0.0
 40
0.0
 40
0.0
 40
0.0
 40
0.0609564022
 40
0.1219974993
 40
0.1831608984
 40
0.244481811
 40
0.3059923849
 40
0.3677211109
 40
0.4296923155
 40
0.4607797919
 40
0.4919348882
 40
0.5231593063
 40
0.5544544322
 40
0.5858213193
 40
0.6172607093
 40
0.6487729985
 40
0.6803582772
 40
0.7120162894
 40
0.7437464788
 40
0.8074109889
 40
0.8713497015
 40
0.9034213994
 40
0.9355554671
 40
0.9677492923
 40
1.0
 40
1.0
 40
1.0
 40
1.0
 10
10.2329284139
 20
7.7438798502
 30
0.0
 10
10.2248958477
 20
7.7372878285
 30
0.0
 10
10.2083412873
 20
7.7246653877
 30
0.0
 10
10.1822040233
 20
7.7075391378
 30
0.0
 10
10.154860153
 20
7.6922827055
 30
0.0
 10
10.1264335707
 20
7.6789654145
 30
0.0
 10
10.0970505929
 20
7.6676461572
 30
0.0
 10
10.0668435366
 20
7.6583754844
 30
0.0
 10
10.0411197472
 20
7.6523969601
 30
0.0
 10
10.0202718098
 20
7.6486725126
 30
0.0
 10
10.0044968598
 20
7.646409035
 30
0.0
 10
9.9886189055
 20
7.6446812022
 30
0.0
 10
9.9726553879
 20
7.6434910141
 30
0.0
 10
9.9566241801
 20
7.6428396249
 30
0.0
 10
9.9405431322
 20
7.642727947
 30
0.0
 10
9.9244301605
 20
7.6431558975
 30
0.0
 10
9.9083032827
 20
7.64412317
 30
0.0
 10
9.8921802655
 20
7.645628556
 30
0.0
 10
9.8706905021
 20
7.6483537891
 30
0.0
 10
9.8439259801
 20
7.653100621
 30
0.0
 10
9.8174715953
 20
7.6595954587
 30
0.0
 10
9.7965310342
 20
7.6658260539
 30
0.0
 10
9.780936472
 20
7.6710180738
 30
0.0
 10
9.7654882258
 20
7.6767182061
 30
0.0
 10
9.7553063838
 20
7.680849399
 30
0.0
 10
9.7502455451
 20
7.6829972371
 30
0.0
  0
SPLINE
  5
310
100
AcDbEntity
  8
0
100
AcDbSpline
 62
7
  6
CONTINUOUS
 70
0
 71
3
 72
15
 73
11
 74
0
 42
0.0000001
 43
0.0000001
 44
0.0000000001
 40
0.0
 40
0.0
 40
0.0
 40
0.0
 40
0.1262802154
 40
0.252233897
 40
0.3778372072
 40
0.5030695061
 40
0.627914043
 40
0.7523552513
 40
0.8763885444
 40
1.0
 40
1.0
 40
1.0
 40
1.0
 10
9.4655926399
 20
7.9731574444
 30
0.0
 10
9.4625763022
 20
7.9806539702
 30
0.0
 10
9.4569000162
 20
7.9957706811
 30
0.0
 10
9.4494701357
 20
8.0187873047
 30
0.0
 10
9.4431522065
 20
8.0420648151
 30
0.0
 10
9.4379617129
 20
8.0655466448
 30
0.0
 10
9.4339111789
 20
8.0891763597
 30
0.0
 10
9.4310102074
 20
8.1128975135
 30
0.0
 10
9.429266115
 20
8.1366520538
 30
0.0
 10
9.428876622
 20
8.1525014029
 30
0.0
 10
9.428876622
 20
8.1604112363
 30
0.0
  0
SPLINE
  5
311
100
AcDbEntity
  8
0
100
AcDbSpline
 62
7
  6
CONTINUOUS
 70
0
 71
3
 72
49
 73
45
 74
0
 42
0.0000001
 43
0.0000001
 44
0.0000000001
 40
0.0
 40
0.0
 40
0.0
 40
0.0
 40
0.014971806
 40
0.0299466721
 40
0.0449276378
 40
0.0599177056
 40
0.0749198251
 40
0.0899368686
 40
0.1049716209
 40
0.1200267599
 40
0.1351048373
 40
0.1502082725
 40
0.1653393295
 40
0.1805001092
 40
0.1956925408
 40
0.2109183618
 40
0.2261791206
 40
0.2414761621
 40
0.2568106197
 40
0.2721834197
 40
0.2875952652
 40
0.3030466433
 40
0.3340635283
 40
0.3652389711
 40
0.3965690196
 40
0.4280464092
 40
0.459660763
 40
0.4913988468
 40
0.5232448768
 40
0.55518087
 40
0.5871870264
 40
0.6192421383
 40
0.6513240212
 40
0.6834099587
 40
0.7154771543
 40
0.7475031829
 40
0.77946644
 40
0.8113465777
 40
0.8431249224
 40
0.8747848672
 40
0.9063122265
 40
0.9376956464
 40
0.9689264223
 40
1.0
 40
1.0
 40
1.0
 40
1.0
 10
10.2338475411
 20
7.7427893432
 30
0.0
 10
10.2296997281
 20
7.738782877
 30
0.0
 10
10.2212429646
 20
7.7309331792
 30
0.0
 10
10.2080985916
 20
7.7196707023
 30
0.0
 10
10.1945115861
 20
7.7089345777
 30
0.0
 10
10.1805010001
 20
7.6987397108
 30
0.0
 10
10.1660859835
 20
7.6891001437
 30
0.0
 10
10.151286411
 20
7.6800291386
 30
0.0
 10
10.1361226802
 20
7.6715391048
 30
0.0
 10
10.1206156003
 20
7.6636418335
 30
0.0
 10
10.104786571
 20
7.6563480718
 30
0.0
 10
10.0886573496
 20
7.6496678952
 30
0.0
 10
10.072250122
 20
7.6436105202
 30
0.0
 10
10.0555875014
 20
7.6381841647
 30
0.0
 10
10.0386923744
 20
7.6333964069
 30
0.0
 10
10.0215880148
 20
7.6292537356
 30
0.0
 10
10.0042979489
 20
7.6257618352
 30
0.0
 10
9.9868459547
 20
7.6229255819
 30
0.0
 10
9.9692560372
 20
7.6207487354
 30
0.0
 10
9.9515524596
 20
7.6192343767
 30
0.0
 10
9.9337592671
 20
7.6183845627
 30
0.0
 10
9.9099211078
 20
7.6181385826
 30
0.0
 10
9.8800156342
 20
7.6195027824
 30
0.0
 10
9.8442175626
 20
7.6237929327
 30
0.0
 10
9.8086526066
 20
7.6307141892
 30
0.0
 10
9.7735174333
 20
7.6402281827
 30
0.0
 10
9.7390045933
 20
7.6522823287
 30
0.0
 10
9.705303623
 20
7.666810128
 30
0.0
 10
9.672599431
 20
7.6837315362
 30
0.0
 10
9.6410714737
 20
7.7029534516
 30
0.0
 10
9.6108927434
 20
7.7243702152
 30
0.0
 10
9.5822288399
 20
7.7478641741
 30
0.0
 10
9.5552370294
 20
7.7733062815
 30
0.0
 10
9.5300654381
 20
7.8005568615
 30
0.0
 10
9.5068522431
 20
7.829466356
 30
0.0
 10
9.4857249359
 20
7.8598761412
 30
0.0
 10
9.4667995667
 20
7.8916193425
 30
0.0
 10
9.4501801487
 20
7.924521782
 30
0.0
 10
9.4359581071
 20
7.958402906
 30
0.0
 10
9.4242117934
 20
7.9930768395
 30
0.0
 10
9.4150059791
 20
8.0283530925
 30
0.0
 10
9.4083916065
 20
8.0640386086
 30
0.0
 10
9.404405227
 20
8.0999349075
 30
0.0
 10
9.4035123772
 20
8.1239423928
 30
0.0
 10
9.4035123772
 20
8.1359112557
 30
0.0
  0
SPLINE
  5
312
100
AcDbEntity
  8
0
100
AcDbSpline
 62
7
  6
CONTINUOUS
 70
0
 71
3
 72
23
 73
19
 74
0
 42
0.0000001
 43
0.0000001
 44
0.0000000001
 40
0.0
 40
0.0
 40
0.0
 40
0.0
 40
0.0637751697
 40
0.127345371
 40
0.1907022537
 40
0.2538558573
 40
0.3168132315
 40
0.3795821093
 40
0.4421733555
 40
0.5045993354
 40
0.5668738704
 40
0.6290123786
 40
0.6910316578
 40
0.7529496568
 40
0.8147853611
 40
0.8765586146
 40
0.9382898649
 40
1.0
 40
1.0
 40
1.0
 40
1.0
 10
11.977704877
 20
9.135820005
 30
0.0
 10
11.977704877
 20
9.1391062035
 30
0.0
 10
11.9778622146
 20
9.1456691508
 30
0.0
 10
11.978572099
 20
9.1554736311
 30
0.0
 10
11.9797541657
 20
9.1652004606
 30
0.0
 10
11.9814055878
 20
9.17482662
 30
0.0
 10
11.9835225058
 20
9.1843302472
 30
0.0
 10
11.9861001801
 20
9.1936893645
 30
0.0
 10
11.9891326714
 20
9.2028823652
 30
0.0
 10
11.9926129263
 20
9.2118880969
 30
0.0
 10
11.996533038
 20
9.2206857545
 30
0.0
 10
12.0008839498
 20
9.2292550526
 30
0.0
 10
12.0056555909
 20
9.2375762551
 30
0.0
 10
12.0108370701
 20
9.2456301146
 30
0.0
 10
12.0164163631
 20
9.2533980714
 30
0.0
 10
12.0223806618
 20
9.260862282
 30
0.0
 10
12.0287160616
 20
9.2680052209
 30
0.0
 10
12.0331780898
 20
9.2725429174
 30
0.0
 10
12.035465162
 20
9.2747520747
 30
0.0
  0
SPLINE
  5
313
100
AcDbEntity
  8
0
100
AcDbSpline
 62
7
  6
CONTINUOUS
 70
0
 71
3
 72
23
 73
19
 74
0
 42
0.0000001
 43
0.0000001
 44
0.0000000001
 40
0.0
 40
0.0
 40
0.0
 40
0.0
 40
0.0616661748
 40
0.1233789635
 40
0.1851547894
 40
0.2470095448
 40
0.3089584741
 40
0.3710160583
 40
0.4331958838
 40
0.4955105318
 40
0.5579715241
 40
0.6205891962
 40
0.6833725614
 40
0.7463296147
 40
0.8094665494
 40
0.8727876971
 40
0.9363002571
 40
1.0
 40
1.0
 40
1.0
 40
1.0
 10
10.8712024686
 20
8.3687765098
 30
0.0
 10
10.86675176
 20
8.3637210456
 30
0.0
 10
10.8580802373
 20
8.3533981679
 30
0.0
 10
10.8457989019
 20
8.3373222501
 30
0.0
 10
10.8342614891
 20
8.3206787644
 30
0.0
 10
10.8234899934
 20
8.3034993672
 30
0.0
 10
10.8135044468
 20
8.2858161941
 30
0.0
 10
10.8043235992
 20
8.2676624258
 30
0.0
 10
10.7959646881
 20
8.2490720765
 30
0.0
 10
10.7884432996
 20
8.2300800401
 30
0.0
 10
10.7817735006
 20
8.2107219249
 30
0.0
 10
10.7759678356
 20
8.1910340086
 30
0.0
 10
10.7710371046
 20
8.1710532043
 30
0.0
 10
10.7669905127
 20
8.1508169639
 30
0.0
 10
10.7638356576
 20
8.1303633227
 30
0.0
 10
10.7615783199
 20
8.1097301914
 30
0.0
 10
10.7602229163
 20
8.0889571089
 30
0.0
 10
10.7599225098
 20
8.075060474
 30
0.0
 10
10.7599225098
 20
8.0681028904
 30
0.0
  0
SPLINE
  5
314
100
AcDbEntity
  8
0
100
AcDbSpline
 62
7
  6
CONTINUOUS
 70
0
 71
3
 72
30
 73
26
 74
0
 42
0.0000001
 43
0.0000001
 44
0.0000000001
 40
0.0
 40
0.0
 40
0.0
 40
0.0
 40
0.0609564022
 40
0.1219974993
 40
0.1831608984
 40
0.244481811
 40
0.3059923849
 40
0.3677211109
 40
0.4296923155
 40
0.4607797919
 40
0.4919348882
 40
0.5231593063
 40
0.5544544322
 40
0.5858213193
 40
0.6172607093
 40
0.6487729985
 40
0.6803582772
 40
0.7120162894
 40
0.7437464788
 40
0.8074109889
 40
0.8713497015
 40
0.9034213994
 40
0.9355554671
 40
0.9677492923
 40
1.0
 40
1.0
 40
1.0
 40
1.0
 10
11.5639743017
 20
7.6515715044
 30
0.0
 10
11.5559417355
 20
7.6449794827
 30
0.0
 10
11.5393871751
 20
7.6323570419
 30
0.0
 10
11.513249911
 20
7.615230792
 30
0.0
 10
11.4859060408
 20
7.5999743596
 30
0.0
 10
11.4574794585
 20
7.5866570687
 30
0.0
 10
11.4280964806
 20
7.5753378113
 30
0.0
 10
11.3978894243
 20
7.5660671385
 30
0.0
 10
11.372165635
 20
7.5600886142
 30
0.0
 10
11.3513176976
 20
7.5563641668
 30
0.0
 10
11.3355427475
 20
7.5541006892
 30
0.0
 10
11.3196647933
 20
7.5523728564
 30
0.0
 10
11.3037012757
 20
7.5511826682
 30
0.0
 10
11.2876700678
 20
7.550531279
 30
0.0
 10
11.27158902
 20
7.5504196011
 30
0.0
 10
11.2554760483
 20
7.5508475517
 30
0.0
 10
11.2393491705
 20
7.5518148242
 30
0.0
 10
11.2232261533
 20
7.5533202101
 30
0.0
 10
11.2017363899
 20
7.5560454433
 30
0.0
 10
11.1749718679
 20
7.5607922752
 30
0.0
 10
11.1485174831
 20
7.5672871129
 30
0.0
 10
11.1275769219
 20
7.5735177081
 30
0.0
 10
11.1119823597
 20
7.578709728
 30
0.0
 10
11.0965341136
 20
7.5844098602
 30
0.0
 10
11.0863522716
 20
7.5885410531
 30
0.0
 10
11.0812914328
 20
7.5906888912
 30
0.0
  0
SPLINE
  5
315
100
AcDbEntity
  8
0
100
AcDbSpline
 62
7
  6
CONTINUOUS
 70
0
 71
3
 72
15
 73
11
 74
0
 42
0.0000001
 43
0.0000001
 44
0.0000000001
 40
0.0
 40
0.0
 40
0.0
 40
0.0
 40
0.1262802154
 40
0.252233897
 40
0.3778372072
 40
0.5030695061
 40
0.627914043
 40
0.7523552513
 40
0.8763885444
 40
1.0
 40
1.0
 40
1.0
 40
1.0
 10
10.7966385276
 20
7.8808490985
 30
0.0
 10
10.79362219
 20
7.8883456243
 30
0.0
 10
10.7879459039
 20
7.9034623353
 30
0.0
 10
10.7805160234
 20
7.9264789588
 30
0.0
 10
10.7741980942
 20
7.9497564693
 30
0.0
 10
10.7690076007
 20
7.973238299
 30
0.0
 10
10.7649570666
 20
7.9968680138
 30
0.0
 10
10.7620560951
 20
8.0205891677
 30
0.0
 10
10.7603120028
 20
8.044343708
 30
0.0
 10
10.7599225098
 20
8.0601930571
 30
0.0
 10
10.7599225098
 20
8.0681028904
 30
0.0
  0
SPLINE
  5
316
100
AcDbEntity
  8
0
100
AcDbSpline
 62
7
  6
CONTINUOUS
 70
0
 71
3
 72
49
 73
45
 74
0
 42
0.0000001
 43
0.0000001
 44
0.0000000001
 40
0.0
 40
0.0
 40
0.0
 40
0.0
 40
0.014971806
 40
0.0299466721
 40
0.0449276378
 40
0.0599177056
 40
0.0749198251
 40
0.0899368686
 40
0.1049716209
 40
0.1200267599
 40
0.1351048373
 40
0.1502082725
 40
0.1653393295
 40
0.1805001092
 40
0.1956925408
 40
0.2109183618
 40
0.2261791206
 40
0.2414761621
 40
0.2568106197
 40
0.2721834197
 40
0.2875952652
 40
0.3030466433
 40
0.3340635283
 40
0.3652389711
 40
0.3965690196
 40
0.4280464092
 40
0.459660763
 40
0.4913988468
 40
0.5232448768
 40
0.55518087
 40
0.5871870264
 40
0.6192421383
 40
0.6513240212
 40
0.6834099587
 40
0.7154771543
 40
0.7475031829
 40
0.77946644
 40
0.8113465777
 40
0.8431249224
 40
0.8747848672
 40
0.9063122265
 40
0.9376956464
 40
0.9689264223
 40
1.0
 40
1.0
 40
1.0
 40
1.0
 10
11.5648934289
 20
7.6504809974
 30
0.0
 10
11.5607456158
 20
7.6464745311
 30
0.0
 10
11.5522888523
 20
7.6386248334
 30
0.0
 10
11.5391444793
 20
7.6273623565
 30
0.0
 10
11.5255574739
 20
7.6166262318
 30
0.0
 10
11.5115468879
 20
7.606431365
 30
0.0
 10
11.4971318713
 20
7.5967917978
 30
0.0
 10
11.4823322987
 20
7.5877207928
 30
0.0
 10
11.467168568
 20
7.5792307589
 30
0.0
 10
11.451661488
 20
7.5713334877
 30
0.0
 10
11.4358324588
 20
7.564039726
 30
0.0
 10
11.4197032373
 20
7.5573595494
 30
0.0
 10
11.4032960097
 20
7.5513021743
 30
0.0
 10
11.3866333891
 20
7.5458758188
 30
0.0
 10
11.3697382622
 20
7.5410880611
 30
0.0
 10
11.3526339026
 20
7.5369453897
 30
0.0
 10
11.3353438366
 20
7.5334534894
 30
0.0
 10
11.3178918424
 20
7.530617236
 30
0.0
 10
11.3003019249
 20
7.5284403895
 30
0.0
 10
11.2825983474
 20
7.5269260309
 30
0.0
 10
11.2648051549
 20
7.5260762169
 30
0.0
 10
11.2409669956
 20
7.5258302368
 30
0.0
 10
11.211061522
 20
7.5271944366
 30
0.0
 10
11.1752634504
 20
7.5314845869
 30
0.0
 10
11.1396984944
 20
7.5384058434
 30
0.0
 10
11.1045633211
 20
7.5479198369
 30
0.0
 10
11.070050481
 20
7.5599739829
 30
0.0
 10
11.0363495107
 20
7.5745017822
 30
0.0
 10
11.0036453188
 20
7.5914231904
 30
0.0
 10
10.9721173615
 20
7.6106451058
 30
0.0
 10
10.9419386312
 20
7.6320618694
 30
0.0
 10
10.9132747276
 20
7.6555558283
 30
0.0
 10
10.8862829172
 20
7.6809979357
 30
0.0
 10
10.8611113258
 20
7.7082485157
 30
0.0
 10
10.8378981308
 20
7.7371580102
 30
0.0
 10
10.8167708237
 20
7.7675677953
 30
0.0
 10
10.7978454545
 20
7.7993109966
 30
0.0
 10
10.7812260365
 20
7.8322134361
 30
0.0
 10
10.7670039948
 20
7.8660945601
 30
0.0
 10
10.7552576812
 20
7.9007684937
 30
0.0
 10
10.7460518669
 20
7.9360447467
 30
0.0
 10
10.7394374943
 20
7.9717302628
 30
0.0
 10
10.7354511148
 20
8.0076265617
 30
0.0
 10
10.7345582649
 20
8.031634047
 30
0.0
 10
10.7345582649
 20
8.0436029099
 30
0.0
  0
SPLINE
  5
317
100
AcDbEntity
  8
0
100
AcDbSpline
 62
7
  6
CONTINUOUS
 70
0
 71
3
 72
50
 73
46
 74
0
 42
0.0000001
 43
0.0000001
 44
0.0000000001
 40
0.0
 40
0.0
 40
0.0
 40
0.0
 40
0.0378128611
 40
0.0760190334
 40
0.1145315696
 40
0.1532645103
 40
0.1921301506
 40
0.2310408617
 40
0.269908731
 40
0.3086460126
 40
0.347165323
 40
0.3853799084
 40
0.4232038959
 40
0.4605525481
 40
0.4973425198
 40
0.5334921181
 40
0.5689215678
 40
0.6035532829
 40
0.637312149
 40
0.6701258217
 40
0.7019250349
 40
0.7326439348
 40
0.7622204463
 40
0.7765622752
 40
0.7905971572
 40
0.8043186022
 40
0.8177204426
 40
0.8307968217
 40
0.84354232
 40
0.8559518158
 40
0.868020713
 40
0.8797447678
 40
0.8911203013
 40
0.9021441194
 40
0.912813603
 40
0.9231267987
 40
0.9330823728
 40
0.9426798717
 40
0.951919577
 40
0.960802784
 40
0.9693317719
 40
0.9775102131
 40
0.9853432686
 40
0.9928373107
 40
1.0
 40
1.0
 40
1.0
 40
1.0
 10
12.8388996393
 20
8.7523917684
 30
0.0
 10
12.8388996393
 20
8.7643161717
 30
0.0
 10
12.8390581313
 20
8.7882892865
 30
0.0
 10
12.839760607
 20
8.8244012632
 30
0.0
 10
12.8409276175
 20
8.8607915564
 30
0.0
 10
12.8425563116
 20
8.8973722494
 30
0.0
 10
12.8446428219
 20
8.9340554514
 30
0.0
 10
12.847182107
 20
8.9707527419
 30
0.0
 10
12.8501680634
 20
9.007375782
 30
0.0
 10
12.8535934918
 20
9.0438363722
 30
0.0
 10
12.8574501348
 20
9.0800467171
 30
0.0
 10
12.8617286853
 20
9.1159196249
 30
0.0
 10
12.8664188152
 20
9.1513687218
 30
0.0
 10
12.8715091992
 20
9.1863086602
 30
0.0
 10
12.8769875417
 20
9.2206553258
 30
0.0
 10
12.8828406061
 20
9.2543260409
 30
0.0
 10
12.889054246
 20
9.2872397664
 30
0.0
 10
12.8956134386
 20
9.3193172977
 30
0.0
 10
12.902502321
 20
9.3504814656
 30
0.0
 10
12.9097042243
 20
9.3806573127
 30
0.0
 10
12.917201715
 20
9.4097723344
 30
0.0
 10
12.9249766472
 20
9.4377564633
 30
0.0
 10
12.9317386725
 20
9.4603033421
 30
0.0
 10
12.9372808318
 20
9.4777188254
 30
0.0
 10
12.9414523932
 20
9.4903225131
 30
0.0
 10
12.9456789769
 20
9.5025947636
 30
0.0
 10
12.9499580363
 20
9.5145282124
 30
0.0
 10
12.9542870283
 20
9.5261156764
 30
0.0
 10
12.9586632806
 20
9.537350206
 30
0.0
 10
12.9630842311
 20
9.5482250388
 30
0.0
 10
12.9675471387
 20
9.5587336632
 30
0.0
 10
12.9720493807
 20
9.5688697614
 30
0.0
 10
12.976588204
 20
9.5786272674
 30
0.0
 10
12.9811608934
 20
9.5880003354
 30
0.0
 10
12.9857647201
 20
9.5969833495
 30
0.0
 10
12.99039687
 20
9.60557096
 30
0.0
 10
12.9950546485
 20
9.6137580178
 30
0.0
 10
12.99973519
 20
9.6215396864
 30
0.0
 10
13.0044358037
 20
9.6289112963
 30
0.0
 10
13.0091536043
 20
9.6358684952
 30
0.0
 10
13.0138858614
 20
9.6424071578
 30
0.0
 10
13.0186298442
 20
9.648523468
 30
0.0
 10
13.0233828933
 20
9.6542139005
 30
0.0
 10
13.0281420396
 20
9.6594747732
 30
0.0
 10
13.0313891277
 20
9.6627667602
 30
0.0
 10
13.0330137629
 20
9.6643360374
 30
0.0
  0
SPLINE
  5
318
100
AcDbEntity
  8
0
100
AcDbSpline
 62
7
  6
CONTINUOUS
 70
0
 71
3
 72
23
 73
19
 74
0
 42
0.0000001
 43
0.0000001
 44
0.0000000001
 40
0.0
 40
0.0
 40
0.0
 40
0.0
 40
0.0616661748
 40
0.1233789635
 40
0.1851547894
 40
0.2470095448
 40
0.3089584741
 40
0.3710160583
 40
0.4331958838
 40
0.4955105318
 40
0.5579715241
 40
0.6205891962
 40
0.6833725614
 40
0.7463296147
 40
0.8094665494
 40
0.8727876971
 40
0.9363002571
 40
1.0
 40
1.0
 40
1.0
 40
1.0
 10
10.2008498999
 20
7.6232064008
 30
0.0
 10
10.1963991913
 20
7.6181509365
 30
0.0
 10
10.1877276686
 20
7.6078280588
 30
0.0
 10
10.1754463332
 20
7.591752141
 30
0.0
 10
10.1639089205
 20
7.5751086554
 30
0.0
 10
10.1531374248
 20
7.5579292582
 30
0.0
 10
10.1431518782
 20
7.540246085
 30
0.0
 10
10.1339710305
 20
7.5220923167
 30
0.0
 10
10.1256121194
 20
7.5035019675
 30
0.0
 10
10.1180907309
 20
7.484509931
 30
0.0
 10
10.111420932
 20
7.4651518158
 30
0.0
 10
10.1056152669
 20
7.4454638996
 30
0.0
 10
10.1006845359
 20
7.4254830953
 30
0.0
 10
10.096637944
 20
7.4052468549
 30
0.0
 10
10.0934830889
 20
7.3847932137
 30
0.0
 10
10.0912257512
 20
7.3641600823
 30
0.0
 10
10.0898703476
 20
7.3433869998
 30
0.0
 10
10.0895699411
 20
7.3294903649
 30
0.0
 10
10.0895699411
 20
7.3225327814
 30
0.0
  0
SPLINE
  5
319
100
AcDbEntity
  8
0
100
AcDbSpline
 62
7
  6
CONTINUOUS
 70
0
 71
3
 72
49
 73
45
 74
0
 42
0.0000001
 43
0.0000001
 44
0.0000000001
 40
0.0
 40
0.0
 40
0.0
 40
0.0
 40
0.014971806
 40
0.0299466721
 40
0.0449276378
 40
0.0599177056
 40
0.0749198251
 40
0.0899368686
 40
0.1049716209
 40
0.1200267599
 40
0.1351048373
 40
0.1502082725
 40
0.1653393295
 40
0.1805001092
 40
0.1956925408
 40
0.2109183618
 40
0.2261791206
 40
0.2414761621
 40
0.2568106197
 40
0.2721834197
 40
0.2875952652
 40
0.3030466433
 40
0.3340635283
 40
0.3652389711
 40
0.3965690196
 40
0.4280464092
 40
0.459660763
 40
0.4913988468
 40
0.5232448768
 40
0.55518087
 40
0.5871870264
 40
0.6192421383
 40
0.6513240212
 40
0.6834099587
 40
0.7154771543
 40
0.7475031829
 40
0.77946644
 40
0.8113465777
 40
0.8431249224
 40
0.8747848672
 40
0.9063122265
 40
0.9376956464
 40
0.9689264223
 40
1.0
 40
1.0
 40
1.0
 40
1.0
 10
10.8945408602
 20
8.4870975542
 30
0.0
 10
10.8903930471
 20
8.4830910879
 30
0.0
 10
10.8819362836
 20
8.4752413902
 30
0.0
 10
10.8687919106
 20
8.4639789133
 30
0.0
 10
10.8552049052
 20
8.4532427886
 30
0.0
 10
10.8411943192
 20
8.4430479218
 30
0.0
 10
10.8267793026
 20
8.4334083546
 30
0.0
 10
10.81197973
 20
8.4243373496
 30
0.0
 10
10.7968159993
 20
8.4158473157
 30
0.0
 10
10.7813089193
 20
8.4079500445
 30
0.0
 10
10.7654798901
 20
8.4006562828
 30
0.0
 10
10.7493506687
 20
8.3939761062
 30
0.0
 10
10.732943441
 20
8.3879187311
 30
0.0
 10
10.7162808204
 20
8.3824923756
 30
0.0
 10
10.6993856935
 20
8.3777046179
 30
0.0
 10
10.6822813339
 20
8.3735619465
 30
0.0
 10
10.6649912679
 20
8.3700700462
 30
0.0
 10
10.6475392738
 20
8.3672337928
 30
0.0
 10
10.6299493562
 20
8.3650569463
 30
0.0
 10
10.6122457787
 20
8.3635425877
 30
0.0
 10
10.5944525862
 20
8.3626927737
 30
0.0
 10
10.5706144269
 20
8.3624467936
 30
0.0
 10
10.5407089533
 20
8.3638109934
 30
0.0
 10
10.5049108817
 20
8.3681011437
 30
0.0
 10
10.4693459257
 20
8.3750224002
 30
0.0
 10
10.4342107524
 20
8.3845363937
 30
0.0
 10
10.3996979123
 20
8.3965905397
 30
0.0
 10
10.365996942
 20
8.411118339
 30
0.0
 10
10.3332927501
 20
8.4280397472
 30
0.0
 10
10.3017647928
 20
8.4472616626
 30
0.0
 10
10.2715860625
 20
8.4686784262
 30
0.0
 10
10.2429221589
 20
8.4921723851
 30
0.0
 10
10.2159303485
 20
8.5176144925
 30
0.0
 10
10.1907587571
 20
8.5448650725
 30
0.0
 10
10.1675455621
 20
8.573774567
 30
0.0
 10
10.146418255
 20
8.6041843521
 30
0.0
 10
10.1274928858
 20
8.6359275534
 30
0.0
 10
10.1108734678
 20
8.6688299929
 30
0.0
 10
10.0966514261
 20
8.7027111169
 30
0.0
 10
10.0849051125
 20
8.7373850505
 30
0.0
 10
10.0756992982
 20
8.7726613035
 30
0.0
 10
10.0690849256
 20
8.8083468196
 30
0.0
 10
10.0650985461
 20
8.8442431185
 30
0.0
 10
10.0642056962
 20
8.8682506038
 30
0.0
 10
10.0642056962
 20
8.8802194666
 30
0.0
  0
SPLINE
  5
31A
100
AcDbEntity
  8
0
100
AcDbSpline
 62
7
  6
CONTINUOUS
 70
0
 71
3
 72
30
 73
26
 74
0
 42
0.0000001
 43
0.0000001
 44
0.0000000001
 40
0.0
 40
0.0
 40
0.0
 40
0.0
 40
0.0609564022
 40
0.1219974993
 40
0.1831608984
 40
0.244481811
 40
0.3059923849
 40
0.3677211109
 40
0.4296923155
 40
0.4607797919
 40
0.4919348882
 40
0.5231593063
 40
0.5544544322
 40
0.5858213193
 40
0.6172607093
 40
0.6487729985
 40
0.6803582772
 40
0.7120162894
 40
0.7437464788
 40
0.8074109889
 40
0.8713497015
 40
0.9034213994
 40
0.9355554671
 40
0.9677492923
 40
1.0
 40
1.0
 40
1.0
 40
1.0
 10
10.893621733
 20
8.4881880612
 30
0.0
 10
10.8855891668
 20
8.4815960395
 30
0.0
 10
10.8690346064
 20
8.4689735987
 30
0.0
 10
10.8428973423
 20
8.4518473488
 30
0.0
 10
10.8155534721
 20
8.4365909164
 30
0.0
 10
10.7871268898
 20
8.4232736255
 30
0.0
 10
10.7577439119
 20
8.4119543681
 30
0.0
 10
10.7275368556
 20
8.4026836953
 30
0.0
 10
10.7018130663
 20
8.396705171
 30
0.0
 10
10.6809651289
 20
8.3929807236
 30
0.0
 10
10.6651901788
 20
8.390717246
 30
0.0
 10
10.6493122246
 20
8.3889894132
 30
0.0
 10
10.633348707
 20
8.387799225
 30
0.0
 10
10.6173174991
 20
8.3871478358
 30
0.0
 10
10.6012364513
 20
8.3870361579
 30
0.0
 10
10.5851234796
 20
8.3874641085
 30
0.0
 10
10.5689966018
 20
8.388431381
 30
0.0
 10
10.5528735846
 20
8.3899367669
 30
0.0
 10
10.5313838212
 20
8.3926620001
 30
0.0
 10
10.5046192992
 20
8.397408832
 30
0.0
 10
10.4781649144
 20
8.4039036697
 30
0.0
 10
10.4572243533
 20
8.4101342649
 30
0.0
 10
10.441629791
 20
8.4153262848
 30
0.0
 10
10.4261815449
 20
8.421026417
 30
0.0
 10
10.4159997029
 20
8.4251576099
 30
0.0
 10
10.4109388642
 20
8.427305448
 30
0.0
  0
SPLINE
  5
31B
100
AcDbEntity
  8
0
100
AcDbSpline
 62
7
  6
CONTINUOUS
 70
0
 71
3
 72
15
 73
11
 74
0
 42
0.0000001
 43
0.0000001
 44
0.0000000001
 40
0.0
 40
0.0
 40
0.0
 40
0.0
 40
0.1262802154
 40
0.252233897
 40
0.3778372072
 40
0.5030695061
 40
0.627914043
 40
0.7523552513
 40
0.8763885444
 40
1.0
 40
1.0
 40
1.0
 40
1.0
 10
10.126285959
 20
8.7174656553
 30
0.0
 10
10.1232696213
 20
8.7249621811
 30
0.0
 10
10.1175933352
 20
8.7400788921
 30
0.0
 10
10.1101634547
 20
8.7630955156
 30
0.0
 10
10.1038455255
 20
8.7863730261
 30
0.0
 10
10.098655032
 20
8.8098548558
 30
0.0
 10
10.0946044979
 20
8.8334845706
 30
0.0
 10
10.0917035265
 20
8.8572057245
 30
0.0
 10
10.0899594341
 20
8.8809602648
 30
0.0
 10
10.0895699411
 20
8.8968096139
 30
0.0
 10
10.0895699411
 20
8.9047194472
 30
0.0
  0
SPLINE
  5
31C
100
AcDbEntity
  8
0
100
AcDbSpline
 62
7
  6
CONTINUOUS
 70
0
 71
3
 72
30
 73
26
 74
0
 42
0.0000001
 43
0.0000001
 44
0.0000000001
 40
0.0
 40
0.0
 40
0.0
 40
0.0
 40
0.0755826241
 40
0.1466115403
 40
0.2134243746
 40
0.2764613841
 40
0.3362624424
 40
0.3651589666
 40
0.3934971803
 40
0.421373822
 40
0.4488908758
 40
0.4761547572
 40
0.5032752115
 40
0.5303638187
 40
0.5575326004
 40
0.5848925312
 40
0.6125520106
 40
0.6406156966
 40
0.6691834594
 40
0.6983492709
 40
0.7282008388
 40
0.7902595762
 40
0.8559510674
 40
0.9257407962
 40
1.0
 40
1.0
 40
1.0
 40
1.0
 10
14.1153712953
 20
10.0599258146
 30
0.0
 10
14.117283439
 20
10.0617728037
 30
0.0
 10
14.1211051643
 20
10.0652420071
 30
0.0
 10
14.1270196299
 20
10.0698766048
 30
0.0
 10
14.132927289
 20
10.0737690665
 30
0.0
 10
14.1388220832
 20
10.0769133326
 30
0.0
 10
14.1437768583
 20
10.0789283487
 30
0.0
 10
14.1477122105
 20
10.0801432866
 30
0.0
 10
14.1506220574
 20
10.0808547598
 30
0.0
 10
14.1535225865
 20
10.0813764388
 30
0.0
 10
14.1564129988
 20
10.0817080984
 30
0.0
 10
14.1592923631
 20
10.0818494854
 30
0.0
 10
14.1621597426
 20
10.081800567
 30
0.0
 10
14.1650141965
 20
10.0815613534
 30
0.0
 10
14.1678547773
 20
10.0811318712
 30
0.0
 10
14.170680551
 20
10.0805122978
 30
0.0
 10
14.1734906289
 20
10.0797029526
 30
0.0
 10
14.176284151
 20
10.0787041485
 30
0.0
 10
14.1790602513
 20
10.0775162397
 30
0.0
 10
14.1818182198
 20
10.0761396957
 30
0.0
 10
14.1855177435
 20
10.0740264275
 30
0.0
 10
14.1901012388
 20
10.0708898338
 30
0.0
 10
14.1954408492
 20
10.066429783
 30
0.0
 10
14.2006865678
 20
10.0612316793
 30
0.0
 10
14.2040111725
 20
10.057401815
 30
0.0
 10
14.2056592412
 20
10.0553754402
 30
0.0
  0
SPLINE
  5
31D
100
AcDbEntity
  8
0
100
AcDbSpline
 62
7
  6
CONTINUOUS
 70
0
 71
3
 72
23
 73
19
 74
0
 42
0.0000001
 43
0.0000001
 44
0.0000000001
 40
0.0
 40
0.0
 40
0.0
 40
0.0
 40
0.0616661748
 40
0.1233789635
 40
0.1851547894
 40
0.2470095448
 40
0.3089584741
 40
0.3710160583
 40
0.4331958838
 40
0.4955105318
 40
0.5579715241
 40
0.6205891962
 40
0.6833725614
 40
0.7463296147
 40
0.8094665494
 40
0.8727876971
 40
0.9363002571
 40
1.0
 40
1.0
 40
1.0
 40
1.0
 10
10.2008498999
 20
9.2053930666
 30
0.0
 10
10.1963991913
 20
9.2003376024
 30
0.0
 10
10.1877276686
 20
9.1900147247
 30
0.0
 10
10.1754463332
 20
9.1739388069
 30
0.0
 10
10.1639089205
 20
9.1572953212
 30
0.0
 10
10.1531374248
 20
9.140115924
 30
0.0
 10
10.1431518782
 20
9.1224327509
 30
0.0
 10
10.1339710305
 20
9.1042789826
 30
0.0
 10
10.1256121194
 20
9.0856886333
 30
0.0
 10
10.1180907309
 20
9.0666965969
 30
0.0
 10
10.111420932
 20
9.0473384817
 30
0.0
 10
10.1056152669
 20
9.0276505654
 30
0.0
 10
10.1006845359
 20
9.0076697611
 30
0.0
 10
10.096637944
 20
8.9874335207
 30
0.0
 10
10.0934830889
 20
8.9669798795
 30
0.0
 10
10.0912257512
 20
8.9463467481
 30
0.0
 10
10.0898703476
 20
8.9255736657
 30
0.0
 10
10.0895699411
 20
8.9116770308
 30
0.0
 10
10.0895699411
 20
8.9047194472
 30
0.0
  0
SPLINE
  5
31E
100
AcDbEntity
  8
0
100
AcDbSpline
 62
7
  6
CONTINUOUS
 70
0
 71
3
 72
30
 73
26
 74
0
 42
0.0000001
 43
0.0000001
 44
0.0000000001
 40
0.0
 40
0.0
 40
0.0
 40
0.0
 40
0.0609564022
 40
0.1219974993
 40
0.1831608984
 40
0.244481811
 40
0.3059923849
 40
0.3677211109
 40
0.4296923155
 40
0.4607797919
 40
0.4919348882
 40
0.5231593063
 40
0.5544544322
 40
0.5858213193
 40
0.6172607093
 40
0.6487729985
 40
0.6803582772
 40
0.7120162894
 40
0.7437464788
 40
0.8074109889
 40
0.8713497015
 40
0.9034213994
 40
0.9355554671
 40
0.9677492923
 40
1.0
 40
1.0
 40
1.0
 40
1.0
 10
10.893621733
 20
6.9060013953
 30
0.0
 10
10.8855891668
 20
6.8994093737
 30
0.0
 10
10.8690346064
 20
6.8867869328
 30
0.0
 10
10.8428973423
 20
6.8696606829
 30
0.0
 10
10.8155534721
 20
6.8544042506
 30
0.0
 10
10.7871268898
 20
6.8410869596
 30
0.0
 10
10.7577439119
 20
6.8297677023
 30
0.0
 10
10.7275368556
 20
6.8204970295
 30
0.0
 10
10.7018130663
 20
6.8145185052
 30
0.0
 10
10.6809651289
 20
6.8107940577
 30
0.0
 10
10.6651901788
 20
6.8085305801
 30
0.0
 10
10.6493122246
 20
6.8068027474
 30
0.0
 10
10.633348707
 20
6.8056125592
 30
0.0
 10
10.6173174991
 20
6.80496117
 30
0.0
 10
10.6012364513
 20
6.8048494921
 30
0.0
 10
10.5851234796
 20
6.8052774427
 30
0.0
 10
10.5689966018
 20
6.8062447152
 30
0.0
 10
10.5528735846
 20
6.8077501011
 30
0.0
 10
10.5313838212
 20
6.8104753342
 30
0.0
 10
10.5046192992
 20
6.8152221661
 30
0.0
 10
10.4781649144
 20
6.8217170039
 30
0.0
 10
10.4572243533
 20
6.827947599
 30
0.0
 10
10.441629791
 20
6.833139619
 30
0.0
 10
10.4261815449
 20
6.8388397512
 30
0.0
 10
10.4159997029
 20
6.8429709441
 30
0.0
 10
10.4109388642
 20
6.8451187822
 30
0.0
  0
SPLINE
  5
31F
100
AcDbEntity
  8
0
100
AcDbSpline
 62
7
  6
CONTINUOUS
 70
0
 71
3
 72
15
 73
11
 74
0
 42
0.0000001
 43
0.0000001
 44
0.0000000001
 40
0.0
 40
0.0
 40
0.0
 40
0.0
 40
0.1262802154
 40
0.252233897
 40
0.3778372072
 40
0.5030695061
 40
0.627914043
 40
0.7523552513
 40
0.8763885444
 40
1.0
 40
1.0
 40
1.0
 40
1.0
 10
10.126285959
 20
7.1352789895
 30
0.0
 10
10.1232696213
 20
7.1427755153
 30
0.0
 10
10.1175933352
 20
7.1578922262
 30
0.0
 10
10.1101634547
 20
7.1809088498
 30
0.0
 10
10.1038455255
 20
7.2041863602
 30
0.0
 10
10.098655032
 20
7.2276681899
 30
0.0
 10
10.0946044979
 20
7.2512979048
 30
0.0
 10
10.0917035265
 20
7.2750190586
 30
0.0
 10
10.0899594341
 20
7.298773599
 30
0.0
 10
10.0895699411
 20
7.314622948
 30
0.0
 10
10.0895699411
 20
7.3225327814
 30
0.0
  0
SPLINE
  5
320
100
AcDbEntity
  8
0
100
AcDbSpline
 62
7
  6
CONTINUOUS
 70
0
 71
3
 72
49
 73
45
 74
0
 42
0.0000001
 43
0.0000001
 44
0.0000000001
 40
0.0
 40
0.0
 40
0.0
 40
0.0
 40
0.014971806
 40
0.0299466721
 40
0.0449276378
 40
0.0599177056
 40
0.0749198251
 40
0.0899368686
 40
0.1049716209
 40
0.1200267599
 40
0.1351048373
 40
0.1502082725
 40
0.1653393295
 40
0.1805001092
 40
0.1956925408
 40
0.2109183618
 40
0.2261791206
 40
0.2414761621
 40
0.2568106197
 40
0.2721834197
 40
0.2875952652
 40
0.3030466433
 40
0.3340635283
 40
0.3652389711
 40
0.3965690196
 40
0.4280464092
 40
0.459660763
 40
0.4913988468
 40
0.5232448768
 40
0.55518087
 40
0.5871870264
 40
0.6192421383
 40
0.6513240212
 40
0.6834099587
 40
0.7154771543
 40
0.7475031829
 40
0.77946644
 40
0.8113465777
 40
0.8431249224
 40
0.8747848672
 40
0.9063122265
 40
0.9376956464
 40
0.9689264223
 40
1.0
 40
1.0
 40
1.0
 40
1.0
 10
10.8945408602
 20
6.9049108883
 30
0.0
 10
10.8903930471
 20
6.9009044221
 30
0.0
 10
10.8819362836
 20
6.8930547243
 30
0.0
 10
10.8687919106
 20
6.8817922475
 30
0.0
 10
10.8552049052
 20
6.8710561228
 30
0.0
 10
10.8411943192
 20
6.8608612559
 30
0.0
 10
10.8267793026
 20
6.8512216888
 30
0.0
 10
10.81197973
 20
6.8421506837
 30
0.0
 10
10.7968159993
 20
6.8336606499
 30
0.0
 10
10.7813089193
 20
6.8257633787
 30
0.0
 10
10.7654798901
 20
6.8184696169
 30
0.0
 10
10.7493506687
 20
6.8117894403
 30
0.0
 10
10.732943441
 20
6.8057320653
 30
0.0
 10
10.7162808204
 20
6.8003057098
 30
0.0
 10
10.6993856935
 20
6.7955179521
 30
0.0
 10
10.6822813339
 20
6.7913752807
 30
0.0
 10
10.6649912679
 20
6.7878833803
 30
0.0
 10
10.6475392738
 20
6.785047127
 30
0.0
 10
10.6299493562
 20
6.7828702805
 30
0.0
 10
10.6122457787
 20
6.7813559219
 30
0.0
 10
10.5944525862
 20
6.7805061078
 30
0.0
 10
10.5706144269
 20
6.7802601277
 30
0.0
 10
10.5407089533
 20
6.7816243275
 30
0.0
 10
10.5049108817
 20
6.7859144779
 30
0.0
 10
10.4693459257
 20
6.7928357343
 30
0.0
 10
10.4342107524
 20
6.8023497279
 30
0.0
 10
10.3996979123
 20
6.8144038738
 30
0.0
 10
10.365996942
 20
6.8289316731
 30
0.0
 10
10.3332927501
 20
6.8458530814
 30
0.0
 10
10.3017647928
 20
6.8650749967
 30
0.0
 10
10.2715860625
 20
6.8864917603
 30
0.0
 10
10.2429221589
 20
6.9099857193
 30
0.0
 10
10.2159303485
 20
6.9354278266
 30
0.0
 10
10.1907587571
 20
6.9626784067
 30
0.0
 10
10.1675455621
 20
6.9915879011
 30
0.0
 10
10.146418255
 20
7.0219976863
 30
0.0
 10
10.1274928858
 20
7.0537408876
 30
0.0
 10
10.1108734678
 20
7.0866433271
 30
0.0
 10
10.0966514261
 20
7.1205244511
 30
0.0
 10
10.0849051125
 20
7.1551983846
 30
0.0
 10
10.0756992982
 20
7.1904746377
 30
0.0
 10
10.0690849256
 20
7.2261601537
 30
0.0
 10
10.0650985461
 20
7.2620564527
 30
0.0
 10
10.0642056962
 20
7.2860639379
 30
0.0
 10
10.0642056962
 20
7.2980328008
 30
0.0
  0
SPLINE
  5
321
100
AcDbEntity
  8
0
100
AcDbSpline
 62
7
  6
CONTINUOUS
 70
0
 71
3
 72
22
 73
18
 74
0
 42
0.0000001
 43
0.0000001
 44
0.0000000001
 40
0.0
 40
0.0
 40
0.0
 40
0.0
 40
0.0764232545
 40
0.1504695904
 40
0.2222093747
 40
0.2917229258
 40
0.3591052293
 40
0.4244650752
 40
0.5495745629
 40
0.6096452701
 40
0.6682571278
 40
0.7255853937
 40
0.7818195315
 40
0.8371613214
 40
0.8918233081
 40
0.9460270045
 40
1.0
 40
1.0
 40
1.0
 40
1.0
 10
13.5454750493
 20
10.1593356582
 30
0.0
 10
13.5465521261
 20
10.1603760345
 30
0.0
 10
13.5487058812
 20
10.1623905555
 30
0.0
 10
13.551987871
 20
10.1652531955
 30
0.0
 10
13.5552684279
 20
10.167907339
 30
0.0
 10
13.5585464865
 20
10.1703519639
 30
0.0
 10
13.561821332
 20
10.1725864328
 30
0.0
 10
13.5661188365
 20
10.1752454714
 30
0.0
 10
13.570473186
 20
10.1775342127
 30
0.0
 10
13.5748690593
 20
10.1794091473
 30
0.0
 10
13.5781139807
 20
10.1805833595
 30
0.0
 10
13.5813501558
 20
10.1815438521
 30
0.0
 10
13.5845767064
 20
10.1822903218
 30
0.0
 10
13.5877926035
 20
10.1828224204
 30
0.0
 10
13.5909968868
 20
10.1831397999
 30
0.0
 10
13.5941882914
 20
10.183242321
 30
0.0
 10
13.5963085663
 20
10.1831673102
 30
0.0
 10
13.5973636162
 20
10.1830941366
 30
0.0
  0
SPLINE
  5
322
100
AcDbEntity
  8
0
100
AcDbSpline
 62
4
  6
CONTINUOUS
 70
0
 71
3
 72
99
 73
95
 74
0
 42
0.0000001
 43
0.0000001
 44
0.0000000001
 40
0.0
 40
0.0
 40
0.0
 40
0.0
 40
0.03125
 40
0.046875
 40
0.0546875
 40
0.0625
 40
0.0703125
 40
0.078125
 40
0.09375
 40
0.109375
 40
0.1171875
 40
0.125
 40
0.1328125
 40
0.140625
 40
0.15625
 40
0.171875
 40
0.1796875
 40
0.1875
 40
0.1953125
 40
0.203125
 40
0.21875
 40
0.234375
 40
0.2421875
 40
0.25
 40
0.2578125
 40
0.265625
 40
0.28125
 40
0.296875
 40
0.3046875
 40
0.3125
 40
0.3203125
 40
0.328125
 40
0.34375
 40
0.359375
 40
0.3671875
 40
0.375
 40
0.3828125
 40
0.390625
 40
0.40625
 40
0.421875
 40
0.4296875
 40
0.4375
 40
0.4453125
 40
0.453125
 40
0.46875
 40
0.484375
 40
0.4921875
 40
0.5
 40
0.5078125
 40
0.515625
 40
0.53125
 40
0.546875
 40
0.5546875
 40
0.5625
 40
0.5703125
 40
0.578125
 40
0.59375
 40
0.609375
 40
0.6171875
 40
0.625
 40
0.6328125
 40
0.640625
 40
0.65625
 40
0.671875
 40
0.6796875
 40
0.6875
 40
0.6953125
 40
0.703125
 40
0.71875
 40
0.734375
 40
0.7421875
 40
0.75
 40
0.7578125
 40
0.765625
 40
0.78125
 40
0.796875
 40
0.8046875
 40
0.8125
 40
0.8203125
 40
0.828125
 40
0.84375
 40
0.859375
 40
0.8671875
 40
0.875
 40
0.8828125
 40
0.890625
 40
0.90625
 40
0.921875
 40
0.9296875
 40
0.9375
 40
0.9453125
 40
0.953125
 40
0.96875
 40
1.0
 40
1.0
 40
1.0
 40
1.0
 10
12.1834470902
 20
9.1118924752
 30
0.0
 10
12.1837597835
 20
9.1119014497
 30
0.0
 10
12.1842285351
 20
9.1119163873
 30
0.0
 10
12.1847764213
 20
9.111928649
 30
0.0
 10
12.1850880573
 20
9.111943035
 30
0.0
 10
12.1853258214
 20
9.1119331623
 30
0.0
 10
12.1855481578
 20
9.1120022489
 30
0.0
 10
12.1858500422
 20
9.1120666646
 30
0.0
 10
12.186225198
 20
9.1121575345
 30
0.0
 10
12.186602358
 20
9.112241628
 30
0.0
 10
12.1869010357
 20
9.112316886
 30
0.0
 10
12.1871329924
 20
9.1123534458
 30
0.0
 10
12.1873346803
 20
9.1124655486
 30
0.0
 10
12.1876142311
 20
9.1125885151
 30
0.0
 10
12.1879595891
 20
9.1127521452
 30
0.0
 10
12.1883079768
 20
9.112909217
 30
0.0
 10
12.1885826801
 20
9.1130426769
 30
0.0
 10
12.1887989104
 20
9.1131232993
 30
0.0
 10
12.1889763328
 20
9.1132779107
 30
0.0
 10
12.1892265484
 20
9.1134581249
 30
0.0
 10
12.1895339438
 20
9.1136929274
 30
0.0
 10
12.1898457703
 20
9.113922009
 30
0.0
 10
12.1900888962
 20
9.1141113768
 30
0.0
 10
12.1902875877
 20
9.1142385274
 30
0.0
 10
12.1904240588
 20
9.1144221278
 30
0.0
 10
12.1906278577
 20
9.1146471332
 30
0.0
 10
12.1908743761
 20
9.1149357296
 30
0.0
 10
12.1911265188
 20
9.1152197113
 30
0.0
 10
12.1913213189
 20
9.1154521002
 30
0.0
 10
12.1914847863
 20
9.1156135499
 30
0.0
 10
12.1915822417
 20
9.115823766
 30
0.0
 10
12.1917353555
 20
9.1160869631
 30
0.0
 10
12.1919179781
 20
9.1164222258
 30
0.0
 10
12.1921067125
 20
9.1167537874
 30
0.0
 10
12.1922500475
 20
9.1170229061
 30
0.0
 10
12.1923768393
 20
9.1172153577
 30
0.0
 10
12.1924302951
 20
9.1174434243
 30
0.0
 10
12.1925273084
 20
9.1177350277
 30
0.0
 10
12.1926388737
 20
9.1181041353
 30
0.0
 10
12.1927570703
 20
9.1184704364
 30
0.0
 10
12.1928434735
 20
9.1187665303
 30
0.0
 10
12.1929287593
 20
9.1189811257
 30
0.0
 10
12.1929361886
 20
9.1192240943
 30
0.0
 10
12.192973417
 20
9.1195381424
 30
0.0
 10
12.1930096739
 20
9.1199340939
 30
0.0
 10
12.193052892
 20
9.1203288678
 30
0.0
 10
12.1930789823
 20
9.1206448001
 30
0.0
 10
12.193119826
 20
9.1208821162
 30
0.0
 10
12.1930798082
 20
9.1211179084
 30
0.0
 10
12.1930548191
 20
9.1214328458
 30
0.0
 10
12.1930129767
 20
9.1218262196
 30
0.0
 10
12.1929780985
 20
9.1222201001
 30
0.0
 10
12.1929419666
 20
9.1225342268
 30
0.0
 10
12.1929353772
 20
9.1227724509
 30
0.0
 10
12.1928508643
 20
9.1230006475
 30
0.0
 10
12.1927655152
 20
9.1233084512
 30
0.0
 10
12.192648627
 20
9.1236917131
 30
0.0
 10
12.1925383777
 20
9.1240765189
 30
0.0
 10
12.1924424064
 20
9.1243818522
 30
0.0
 10
12.1923897603
 20
9.12461746
 30
0.0
 10
12.1922636704
 20
9.1248278922
 30
0.0
 10
12.192121317
 20
9.1251173152
 30
0.0
 10
12.1919337362
 20
9.125475682
 30
0.0
 10
12.1917525037
 20
9.1258366383
 30
0.0
 10
12.191599993
 20
9.1261219182
 30
0.0
 10
12.191504375
 20
9.1263447797
 30
0.0
 10
12.1913374593
 20
9.1265337777
 30
0.0
 10
12.1911398926
 20
9.1267976946
 30
0.0
 10
12.1908837721
 20
9.127122852
 30
0.0
 10
12.1906330654
 20
9.1274520651
 30
0.0
 10
12.1904268367
 20
9.127709493
 30
0.0
 10
12.1902859068
 20
9.127917958
 30
0.0
 10
12.190092842
 20
9.1280678182
 30
0.0
 10
12.1898537032
 20
9.1282882015
 30
0.0
 10
12.1895480107
 20
9.1285559197
 30
0.0
 10
12.1892465429
 20
9.1288289692
 30
0.0
 10
12.1890006445
 20
9.1290408225
 30
0.0
 10
12.1888278583
 20
9.1292162726
 30
0.0
 10
12.1886108837
 20
9.1293287752
 30
0.0
 10
12.188337068
 20
9.1295008782
 30
0.0
 10
12.1879891405
 20
9.1297076297
 30
0.0
 10
12.18764449
 20
9.1299202657
 30
0.0
 10
12.187365431
 20
9.1300829535
 30
0.0
 10
12.1871641864
 20
9.1302237017
 30
0.0
 10
12.1869324126
 20
9.1302932311
 30
0.0
 10
12.1866340813
 20
9.1304109336
 30
0.0
 10
12.1862572366
 20
9.1305486335
 30
0.0
 10
12.1858827385
 20
9.1306928005
 30
0.0
 10
12.1855806526
 20
9.1308001558
 30
0.0
 10
12.1853601426
 20
9.1309007268
 30
0.0
 10
12.1851166586
 20
9.1309250687
 30
0.0
 10
12.1848000291
 20
9.1309841216
 30
0.0
 10
12.1842421701
 20
9.1310749969
 30
0.0
 10
12.1837652934
 20
9.1311571645
 30
0.0
 10
12.1834470894
 20
9.131210993
 30
0.0
  0
SPLINE
  5
323
100
AcDbEntity
  8
0
100
AcDbSpline
 62
4
  6
CONTINUOUS
 70
0
 71
3
 72
99
 73
95
 74
0
 42
0.0000001
 43
0.0000001
 44
0.0000000001
 40
0.0
 40
0.0
 40
0.0
 40
0.0
 40
0.03125
 40
0.046875
 40
0.0546875
 40
0.0625
 40
0.0703125
 40
0.078125
 40
0.09375
 40
0.109375
 40
0.1171875
 40
0.125
 40
0.1328125
 40
0.140625
 40
0.15625
 40
0.171875
 40
0.1796875
 40
0.1875
 40
0.1953125
 40
0.203125
 40
0.21875
 40
0.234375
 40
0.2421875
 40
0.25
 40
0.2578125
 40
0.265625
 40
0.28125
 40
0.296875
 40
0.3046875
 40
0.3125
 40
0.3203125
 40
0.328125
 40
0.34375
 40
0.359375
 40
0.3671875
 40
0.375
 40
0.3828125
 40
0.390625
 40
0.40625
 40
0.421875
 40
0.4296875
 40
0.4375
 40
0.4453125
 40
0.453125
 40
0.46875
 40
0.484375
 40
0.4921875
 40
0.5
 40
0.5078125
 40
0.515625
 40
0.53125
 40
0.546875
 40
0.5546875
 40
0.5625
 40
0.5703125
 40
0.578125
 40
0.59375
 40
0.609375
 40
0.6171875
 40
0.625
 40
0.6328125
 40
0.640625
 40
0.65625
 40
0.671875
 40
0.6796875
 40
0.6875
 40
0.6953125
 40
0.703125
 40
0.71875
 40
0.734375
 40
0.7421875
 40
0.75
 40
0.7578125
 40
0.765625
 40
0.78125
 40
0.796875
 40
0.8046875
 40
0.8125
 40
0.8203125
 40
0.828125
 40
0.84375
 40
0.859375
 40
0.8671875
 40
0.875
 40
0.8828125
 40
0.890625
 40
0.90625
 40
0.921875
 40
0.9296875
 40
0.9375
 40
0.9453125
 40
0.953125
 40
0.96875
 40
1.0
 40
1.0
 40
1.0
 40
1.0
 10
12.1834470902
 20
9.1312109929
 30
0.0
 10
12.1831343969
 20
9.1312020184
 30
0.0
 10
12.1826656453
 20
9.1311870808
 30
0.0
 10
12.1821177592
 20
9.1311748191
 30
0.0
 10
12.1818061232
 20
9.1311604331
 30
0.0
 10
12.1815683591
 20
9.1311703058
 30
0.0
 10
12.1813460226
 20
9.1311012192
 30
0.0
 10
12.1810441382
 20
9.1310368035
 30
0.0
 10
12.1806689824
 20
9.1309459336
 30
0.0
 10
12.1802918224
 20
9.1308618401
 30
0.0
 10
12.1799931448
 20
9.1307865822
 30
0.0
 10
12.179761188
 20
9.1307500223
 30
0.0
 10
12.1795595002
 20
9.1306379195
 30
0.0
 10
12.1792799494
 20
9.1305149531
 30
0.0
 10
12.1789345914
 20
9.1303513229
 30
0.0
 10
12.1785862036
 20
9.1301942512
 30
0.0
 10
12.1783115003
 20
9.1300607912
 30
0.0
 10
12.17809527
 20
9.1299801689
 30
0.0
 10
12.1779178477
 20
9.1298255575
 30
0.0
 10
12.177667632
 20
9.1296453432
 30
0.0
 10
12.1773602366
 20
9.1294105407
 30
0.0
 10
12.1770484102
 20
9.1291814592
 30
0.0
 10
12.1768052842
 20
9.1289920913
 30
0.0
 10
12.1766065927
 20
9.1288649408
 30
0.0
 10
12.1764701217
 20
9.1286813403
 30
0.0
 10
12.1762663227
 20
9.1284563349
 30
0.0
 10
12.1760198043
 20
9.1281677385
 30
0.0
 10
12.1757676617
 20
9.1278837569
 30
0.0
 10
12.1755728615
 20
9.1276513679
 30
0.0
 10
12.1754093941
 20
9.1274899183
 30
0.0
 10
12.1753119388
 20
9.1272797022
 30
0.0
 10
12.175158825
 20
9.127016505
 30
0.0
 10
12.1749762023
 20
9.1266812424
 30
0.0
 10
12.1747874679
 20
9.1263496807
 30
0.0
 10
12.1746441329
 20
9.126080562
 30
0.0
 10
12.1745173411
 20
9.1258881105
 30
0.0
 10
12.1744638853
 20
9.1256600438
 30
0.0
 10
12.1743668721
 20
9.1253684404
 30
0.0
 10
12.1742553067
 20
9.1249993328
 30
0.0
 10
12.1741371102
 20
9.1246330317
 30
0.0
 10
12.1740507069
 20
9.1243369379
 30
0.0
 10
12.1739654211
 20
9.1241223424
 30
0.0
 10
12.1739579918
 20
9.1238793739
 30
0.0
 10
12.1739207634
 20
9.1235653257
 30
0.0
 10
12.1738845066
 20
9.1231693742
 30
0.0
 10
12.1738412884
 20
9.1227746004
 30
0.0
 10
12.1738151981
 20
9.122458668
 30
0.0
 10
12.1737743545
 20
9.122221352
 30
0.0
 10
12.1738143723
 20
9.1219855597
 30
0.0
 10
12.1738393614
 20
9.1216706224
 30
0.0
 10
12.1738812038
 20
9.1212772485
 30
0.0
 10
12.1739160819
 20
9.120883368
 30
0.0
 10
12.1739522138
 20
9.1205692413
 30
0.0
 10
12.1739588032
 20
9.1203310172
 30
0.0
 10
12.1740433161
 20
9.1201028206
 30
0.0
 10
12.1741286652
 20
9.1197950169
 30
0.0
 10
12.1742455534
 20
9.1194117551
 30
0.0
 10
12.1743558027
 20
9.1190269492
 30
0.0
 10
12.1744517741
 20
9.1187216159
 30
0.0
 10
12.1745044201
 20
9.1184860081
 30
0.0
 10
12.17463051
 20
9.1182755759
 30
0.0
 10
12.1747728634
 20
9.1179861529
 30
0.0
 10
12.1749604442
 20
9.1176277861
 30
0.0
 10
12.1751416767
 20
9.1172668299
 30
0.0
 10
12.1752941874
 20
9.1169815499
 30
0.0
 10
12.1753898054
 20
9.1167586885
 30
0.0
 10
12.1755567211
 20
9.1165696905
 30
0.0
 10
12.1757542879
 20
9.1163057735
 30
0.0
 10
12.1760104083
 20
9.1159806161
 30
0.0
 10
12.1762611151
 20
9.1156514031
 30
0.0
 10
12.1764673438
 20
9.1153939751
 30
0.0
 10
12.1766082737
 20
9.1151855101
 30
0.0
 10
12.1768013384
 20
9.11503565
 30
0.0
 10
12.1770404773
 20
9.1148152667
 30
0.0
 10
12.1773461698
 20
9.1145475484
 30
0.0
 10
12.1776476376
 20
9.1142744989
 30
0.0
 10
12.177893536
 20
9.1140626457
 30
0.0
 10
12.1780663221
 20
9.1138871955
 30
0.0
 10
12.1782832968
 20
9.1137746929
 30
0.0
 10
12.1785571124
 20
9.1136025899
 30
0.0
 10
12.17890504
 20
9.1133958384
 30
0.0
 10
12.1792496904
 20
9.1131832024
 30
0.0
 10
12.1795287494
 20
9.1130205146
 30
0.0
 10
12.179729994
 20
9.1128797665
 30
0.0
 10
12.1799617679
 20
9.1128102371
 30
0.0
 10
12.1802600992
 20
9.1126925346
 30
0.0
 10
12.1806369438
 20
9.1125548346
 30
0.0
 10
12.1810114419
 20
9.1124106677
 30
0.0
 10
12.1813135278
 20
9.1123033124
 30
0.0
 10
12.1815340378
 20
9.1122027413
 30
0.0
 10
12.1817775218
 20
9.1121783994
 30
0.0
 10
12.1820941513
 20
9.1121193465
 30
0.0
 10
12.1826520104
 20
9.1120284713
 30
0.0
 10
12.183128887
 20
9.1119463037
 30
0.0
 10
12.1834470911
 20
9.1118924752
 30
0.0
  0
ELLIPSE
  5
324
100
AcDbEntity
  8
0
100
AcDbEllipse
 62
7
  6
CONTINUOUS
 10
10.5725328828
 20
8.8709756813
 30
0.0
 11
-0.1297312048
 21
0.2198557736
 31
0.0
 40
0.9263984221
 41
-3.6746649087
 42
-0.567150036
  0
ELLIPSE
  5
325
100
AcDbEntity
  8
0
100
AcDbEllipse
 62
7
  6
CONTINUOUS
 10
10.5725328828
 20
8.8709756813
 30
0.0
 11
-0.1297312048
 21
0.2198557736
 31
0.0
 40
0.9263984221
 41
-0.5330722551
 42
2.5744426176
  0
ELLIPSE
  5
326
100
AcDbEntity
  8
0
100
AcDbEllipse
 62
7
  6
CONTINUOUS
 10
9.9073115839
 20
8.1252132932
 30
0.0
 11
0.2598229298
 21
-0.1565204364
 31
0.0
 40
0.7737205194
 41
0.0
 42
6.2831853072
  0
ELLIPSE
  5
327
100
AcDbEntity
  8
0
100
AcDbEllipse
 62
7
  6
CONTINUOUS
 10
11.2454817196
 20
8.0324108791
 30
0.0
 11
0.2812466645
 21
0.0648876746
 31
0.0
 40
0.854487015
 41
0.5084503377
 42
6.2284951135
  0
ELLIPSE
  5
328
100
AcDbEntity
  8
0
100
AcDbEllipse
 62
7
  6
CONTINUOUS
 10
10.5725328828
 20
7.2824198643
 30
0.0
 11
-0.1707038681
 21
0.1830579245
 31
0.0
 40
0.9330515968
 41
0.0
 42
6.2831853072
  0
ENDSEC
  0
SECTION
  2
OBJECTS
  0
DICTIONARY
  5
C
100
AcDbDictionary
280
0
281
1
  3
ACAD_GROUP
350
D
  3
ACAD_MLINESTYLE
350
17
  3
ACAD_LAYOUT
350
1A
  3
ACAD_PLOTSETTINGS
350
19
  3
ACAD_PLOTSTYLENAME
350
E
  3
ACAD_IMAGE_DICT
350
       32A
  3
ACAD_IMAGE_VARS
350
       32B
  3
ACAD_TABLESTYLE
350
       32C
  0
IMAGEDEF_REACTOR
  5
329
100
AcDbRasterImageDefReactor
 90
2
330
276
  0
DICTIONARY
  5
D
102
{ACAD_REACTORS
330
C
102
}
100
AcDbDictionary
280
0
281
1
  0
ACDBDICTIONARYWDFLT
  5
E
102
{ACAD_REACTORS
330
C
102
}
100
AcDbDictionary
281
1
  3
Normal
350
F
100
AcDbDictionaryWithDefault
340
F
  0
DICTIONARY
  5
32A
330
C
100
AcDbDictionary
281
1
  3
FJ6_assy_2_img_1
350
       32F
  0
RASTERVARIABLES
  5
32B
330
C
100
AcDbRasterVariables
 90
0
 70
0
 71
1
 72
5
  0
DICTIONARY
  5
17
102
{ACAD_REACTORS
330
C
102
}
100
AcDbDictionary
280
0
281
1
  3
Standard
350
18
  0
DICTIONARY
  5
32C
330
C
100
AcDbDictionary
281
1
  3
Standard
350
       330
  3
Standard1
350
       331
  0
DICTIONARY
  5
19
102
{ACAD_REACTORS
330
C
102
}
100
AcDbDictionary
281
1
  0
DICTIONARY
  5
1A
102
{ACAD_REACTORS
330
C
102
}
100
AcDbDictionary
281
1
  3
Model
350
32D
  3
Layout1
350
32E
  0
ACDBPLACEHOLDER
  5
F
102
{ACAD_REACTORS
330
E
102
}
  0
MLINESTYLE
  5
18
102
{ACAD_REACTORS
330
17
102
}
100
AcDbMlineStyle
  2
STANDARD
 70
0
  3

 62
256
 51
90.0
 52
90.0
 71
2
 49
0.5
 62
256
  6
BYLAYER
 49
-0.5
 62
256
  6
BYLAYER
  0
LAYOUT
  5
32D
102
{ACAD_REACTORS
330
1A
102
}
100
AcDbPlotSettings
  1

  2
none_device
  4
ANSI_C_(22.00_x_17.00_Inches)
  6

 40
0.0
 41
0.0
 42
0.0
 43
0.0
 44
558.8
 45
431.8
 46
0.0
 47
0.0
 48
0.0
 49
0.0
140
0.0
141
0.0
142
1.0
143
1.0
 70
1024
 72
0
 73
0
 74
0
  7

 75
0
147
1.0
148
0.0
149
0.0
100
AcDbLayout
  1
Model
 70
0
 71
0
 10
0.0
 20
0.0
 11
22.0
 21
17.0
 12
0.0
 22
0.0
 32
0.0
 14
0.0
 24
0.0
 34
0.0
 15
0.0
 25
0.0
 35
0.0
146
0.0
 13
0.0
 23
0.0
 33
0.0
 16
1.0
 26
0.0
 36
0.0
 17
0.0
 27
1.0
 37
0.0
 76
0
330
208
345
0
346
0
  0
LAYOUT
  5
32E
102
{ACAD_REACTORS
330
1A
102
}
100
AcDbPlotSettings
  1

  2
none_device
  4
ANSI_C_(22.00_x_17.00_Inches)
  6

 40
0.0
 41
0.0
 42
0.0
 43
0.0
 44
558.8
 45
431.8
 46
0.0
 47
0.0
 48
0.0
 49
0.0
140
0.0
141
0.0
142
1.0
143
1.0
 70
0
 72
0
 73
0
 74
0
  7

 75
0
147
1.0
148
0.0
149
0.0
100
AcDbLayout
  1
Layout1
 70
0
 71
1
 10
0.0
 20
0.0
 11
22.0
 21
17.0
 12
0.0
 22
0.0
 32
0.0
 14
0.0
 24
0.0
 34
0.0
 15
0.0
 25
0.0
 35
0.0
146
0.0
 13
0.0
 23
0.0
 33
0.0
 16
1.0
 26
0.0
 36
0.0
 17
0.0
 27
1.0
 37
0.0
 76
0
330
209
345
0
346
0
  0
IMAGEDEF
  5
32F
102
{ACAD_REACTORS
330
32A
330
329
102
}
100
AcDbRasterImageDef
 90
0
  1
FJ6_assy_2_img_1.png
 10
369.0
 20
92.0
 11
0.0066666667
 21
0.0066666667
280
1
281
0
  0
TABLESTYLE
  5
330
102
{ACAD_REACTORS
330
32C
330
279
102
}
330
32C
100
AcDbTableStyle
  3
Standard
 70
0
 71
0
 40
0.06
 41
0.06
280
1
281
1
  7
Standard
140
0.18
170
1
 62
0
 63
7
283
0
  7
Standard
140
0.18
170
1
 62
0
 63
7
283
0
  7
Standard
140
0.18
170
1
 62
0
 63
7
283
0
  0
TABLESTYLE
  5
331
102
{ACAD_REACTORS
330
32C
330
278
102
}
330
32C
100
AcDbTableStyle
  3
Standard1
 70
1
 71
0
 40
0.06
 41
0.06
280
1
281
1
  7
Standard
140
0.18
170
1
 62
0
 63
7
283
0
  7
Standard
140
0.18
170
1
 62
0
 63
7
283
0
  7
Standard
140
0.18
170
1
 62
0
 63
7
283
0
  0
ENDSEC
  0
EOF
