999
DXF file: FHI_assy_2.dxf
999
Pro/ENGINEER 2014200 by Parametric Technology Corporation
  0
SECTION
  2
HEADER
  9
$ACADVER
  1
AC1021
  9
$DWGCODEPAGE
  3
ANSI_1252
  9
$EXTMAX
 10
22.0
 20
17.0
 30
0.0
  9
$EXTMIN
 10
0.0
 20
0.0
 30
0.0
  9
$LIMMIN
 10
0.0
 20
0.0
  9
$LIMMAX
 10
22.0
 20
17.0
  9
$VIEWCTR
 10
11.0
 20
8.5
  9
$VIEWSIZE
 40
17.0
  9
$CLAYER
  8
0
  9
$LTSCALE
 40
1.21
  9
$CELTYPE
  6
BYLAYER
  9
$DIMSCALE
 40
1.0
  9
$DIMASZ
 40
0.1875
  9
$DIMEXO
 40
0.0625
  9
$DIMDLI
 40
0.836
  9
$DIMEXE
 40
0.125
  9
$DIMCEN
 40
0.198
  9
$DIMLFAC
 40
1.0
  9
$DIMBLK
  1
_FILLED
  9
$DIMTXT
 40
0.1
  9
$DIMTOL
 70
0
  9
$DIMLIM
 70
0
  9
$DIMTFAC
 40
1.0
  9
$DIMGAP
 40
0.09
  9
$DIMDSEP
 70
46
  9
$AUNITS
 70
0
  9
$PDMODE
 70
3
  9
$PDSIZE
 40
0.3125
  9
$HANDSEED
  5
396
  9
$TILEMODE
 70
1
  9
$MEASUREMENT
 70
0
  9
$INSUNITS
 70
1
  0
ENDSEC
  0
SECTION
  2
CLASSES
  0
CLASS
  1
ACDBDICTIONARYWDFLT
  2
AcDbDictionaryWithDefault
  3
AutoCAD 2000
 90
0
 91
1
280
0
281
0
  0
CLASS
  1
ACDBPLACEHOLDER
  2
AcDbPlaceHolder
  3
AutoCAD 2000
 90
0
 91
1
280
0
281
0
  0
CLASS
  1
LAYOUT
  2
AcDbLayout
  3
AutoCAD 2000
 90
0
 91
0
280
0
281
0
  0
CLASS
  1
RASTERVARIABLES
  2
AcDbRasterVariables
  3
ISM
 90
0
 91
1
280
0
281
0
  0
CLASS
  1
IMAGEDEF
  2
AcDbRasterImageDef
  3
ISM
 90
0
 91
1
280
0
281
0
  0
CLASS
  1
IMAGEDEF_REACTOR
  2
AcDbRasterImageDefReactor
  3
ISM
 90
0
 91
1
280
0
281
0
  0
CLASS
  1
IMAGE
  2
AcDbRasterImage
  3
ISM
 90
127
 91
1
280
0
281
1
  0
CLASS
  1
TABLESTYLE
  2
AcDbTableStyle
  3
ObjectDBX Classes
 90
2047
 91
1
280
0
281
0
  0
CLASS
  1
ACAD_TABLE
  2
AcDbTable
  3
ObjectDBX Classes
 90
1025
 91
3
280
0
281
1
  0
ENDSEC
  0
SECTION
  2
TABLES
  0
TABLE
  2
VPORT
  5
8
100
AcDbSymbolTable
 70
2
  0
VPORT
  5
1F4
100
AcDbSymbolTableRecord
100
AcDbViewportTableRecord
  2
*ACTIVE
 70
0
 10
0.0
 20
0.0
 11
1.0
 21
1.0
 12
11.0
 22
8.5
 13
0.0
 23
0.0
 14
1.0
 24
1.0
 15
0.0
 25
0.0
 16
0.0
 26
0.0
 36
1.0
 17
0.0
 27
0.0
 37
0.0
 40
17.0
 41
1.2941176471
 42
50.0
 43
0.0
 44
0.0
 50
0.0
 51
0.0
 71
0
 72
100
 73
1
 74
1
 75
0
 76
0
 77
0
 78
0
  0
ENDTAB
  0
TABLE
  2
LTYPE
  5
5
100
AcDbSymbolTable
 70
6
  0
LTYPE
  5
14
100
AcDbSymbolTableRecord
100
AcDbLinetypeTableRecord
  2
BYBLOCK
 70
0
  3

 72
65
 73
0
 40
0.0
  0
LTYPE
  5
15
100
AcDbSymbolTableRecord
100
AcDbLinetypeTableRecord
  2
BYLAYER
 70
0
  3

 72
65
 73
0
 40
0.0
  0
LTYPE
  5
16
100
AcDbSymbolTableRecord
100
AcDbLinetypeTableRecord
  2
CONTINUOUS
 70
64
  3
Solid line
 72
65
 73
0
 40
0.0
  0
LTYPE
  5
1F5
100
AcDbSymbolTableRecord
100
AcDbLinetypeTableRecord
  2
CENTER
 70
64
  3
____ _ ____ _ ____ _ ____ _ ____ _ ____ _ ____
 72
65
 73
4
 40
0.6
 49
0.375
 74
0
 49
-0.075
 74
0
 49
0.075
 74
0
 49
-0.075
 74
0
  0
LTYPE
  5
1F6
100
AcDbSymbolTableRecord
100
AcDbLinetypeTableRecord
  2
HIDDEN
 70
64
  3
- - - - - - - - - - - - - - - - - - - -
 72
65
 73
2
 40
0.2
 49
0.1
 74
0
 49
-0.1
 74
0
  0
LTYPE
  5
1F7
100
AcDbSymbolTableRecord
100
AcDbLinetypeTableRecord
  2
PHANTOM
 70
64
  3
_____ _ _ _____ _ _ _____ _ _ _____
 72
65
 73
6
 40
0.8
 49
0.45
 74
0
 49
-0.05
 74
0
 49
0.1
 74
0
 49
-0.05
 74
0
 49
0.1
 74
0
 49
-0.05
 74
0
  0
LTYPE
  5
1F8
100
AcDbSymbolTableRecord
100
AcDbLinetypeTableRecord
  2
DOT
 70
64
  3
. . . . . . . . . . . . . . . . . . . .
 72
65
 73
2
 40
0.2
 49
0.1
 74
0
 49
-0.1
 74
0
  0
LTYPE
  5
1F9
100
AcDbSymbolTableRecord
100
AcDbLinetypeTableRecord
  2
DASHED
 70
64
  3
- - - - - - - - - - - - - - - - - - - -
 72
65
 73
2
 40
0.2
 49
0.1
 74
0
 49
-0.1
 74
0
  0
ENDTAB
  0
TABLE
  2
LAYER
  5
2
100
AcDbSymbolTable
 70
36
  0
LAYER
  5
10
100
AcDbSymbolTableRecord
100
AcDbLayerTableRecord
  2
0
 70
0
 62
7
  6
CONTINUOUS
370
-3
390
F
  0
LAYER
  5
1FA
100
AcDbSymbolTableRecord
100
AcDbLayerTableRecord
  2
DEFAULT_1
 70
0
 62
7
  6
CENTER
370
-3
390
F
  0
LAYER
  5
1FB
100
AcDbSymbolTableRecord
100
AcDbLayerTableRecord
  2
DEFAULT_2
 70
0
 62
8
  6
HIDDEN
370
-3
390
F
  0
LAYER
  5
1FC
100
AcDbSymbolTableRecord
100
AcDbLayerTableRecord
  2
DEFAULT_3
 70
0
 62
7
  6
PHANTOM
370
-3
390
F
  0
LAYER
  5
1FD
100
AcDbSymbolTableRecord
100
AcDbLayerTableRecord
  2
DATUM_PLANES
 70
0
 62
7
  6
CONTINUOUS
370
-3
390
F
  0
LAYER
  5
1FE
100
AcDbSymbolTableRecord
100
AcDbLayerTableRecord
  2
PORT_AREAS
 70
0
 62
7
  6
CONTINUOUS
370
-3
390
F
  0
LAYER
  5
1FF
100
AcDbSymbolTableRecord
100
AcDbLayerTableRecord
  2
SUNNBOMCOSMETIC
 70
0
 62
7
  6
CONTINUOUS
370
-3
390
F
  0
LAYER
  5
200
100
AcDbSymbolTableRecord
100
AcDbLayerTableRecord
  2
SUNNBOMSTAMPING
 70
0
 62
7
  6
CONTINUOUS
370
-3
390
F
  0
LAYER
  5
201
100
AcDbSymbolTableRecord
100
AcDbLayerTableRecord
  2
THREADS
 70
0
 62
7
  6
CONTINUOUS
370
-3
390
F
  0
ENDTAB
  0
TABLE
  2
STYLE
  5
3
100
AcDbSymbolTable
 70
1
  0
STYLE
  5
11
100
AcDbSymbolTableRecord
100
AcDbTextStyleTableRecord
  2
STANDARD
 70
0
 40
0.0
 41
0.8
 50
0.0
 71
0
 42
0.2
  3
txt
  4

  0
STYLE
  5
202
100
AcDbSymbolTableRecord
100
AcDbTextStyleTableRecord
  2
TEXTSTYLE_1
 70
0
 40
0.0
 41
0.8
 50
0.0
 71
0
 42
0.2
  3
gdt
  4

  0
ENDTAB
  0
TABLE
  2
VIEW
  5
6
100
AcDbSymbolTable
 70
0
  0
ENDTAB
  0
TABLE
  2
UCS
  5
7
100
AcDbSymbolTable
 70
0
  0
ENDTAB
  0
TABLE
  2
APPID
  5
9
100
AcDbSymbolTable
 70
1
  0
APPID
  5
203
100
AcDbSymbolTableRecord
100
AcDbRegAppTableRecord
  2
ACAD
 70
0
  0
ENDTAB
  0
TABLE
  2
BLOCK_RECORD
  5
1
100
AcDbSymbolTable
 70
0
  0
BLOCK_RECORD
  5
204
100
AcDbSymbolTableRecord
100
AcDbBlockTableRecord
  2
*Model_Space
  0
BLOCK_RECORD
  5
205
100
AcDbSymbolTableRecord
100
AcDbBlockTableRecord
  2
*Paper_Space
  0
BLOCK_RECORD
  5
206
100
AcDbSymbolTableRecord
100
AcDbBlockTableRecord
  2
SUN_FIRST_THIRD_ANGLE_BL0
  0
BLOCK_RECORD
  5
207
100
AcDbSymbolTableRecord
100
AcDbBlockTableRecord
  2
*T1
  0
BLOCK_RECORD
  5
208
100
AcDbSymbolTableRecord
100
AcDbBlockTableRecord
  2
*T2
  0
BLOCK_RECORD
  5
209
100
AcDbSymbolTableRecord
100
AcDbBlockTableRecord
  2
*T3
  0
ENDTAB
  0
TABLE
  2
DIMSTYLE
  5
A
100
AcDbSymbolTable
 70
1
100
AcDbDimStyleTable
 71
0
  0
DIMSTYLE
105
20A
100
AcDbSymbolTableRecord
100
AcDbDimStyleTableRecord
  2
STANDARD
 70
0
  3

  4

 40
1.0
 41
0.1875
 42
0.0625
 43
0.38
 44
0.125
 45
0.0
 46
0.0
 47
0.001
 48
0.001
140
0.1
141
0.09
142
0.0
143
25.4
144
1.0
145
0.0
146
1.0
147
0.09
 71
0.0
 72
0.0
 73
1
 74
1
 75
0
 76
0
 77
0
 78
4
170
0
171
2
172
0
173
0
174
0
175
0
176
0
177
0
178
0
270
2
271
3
272
3
273
2
274
2
275
0
280
0
281
0
282
0
283
1
284
4
285
0
286
0
287
3
288
0
340
11
278
46
  0
ENDTAB
  0
ENDSEC
  0
SECTION
  2
BLOCKS
  0
BLOCK
  5
20
100
AcDbEntity
  8
0
100
AcDbBlockBegin
  2
*Model_Space
 70
0
 10
0.0
 20
0.0
 30
0.0
  3
*Model_Space
  1

  0
ENDBLK
  5
21
100
AcDbEntity
  8
0
100
AcDbBlockEnd
  0
BLOCK
  5
1C
100
AcDbEntity
  8
0
100
AcDbBlockBegin
  2
*Paper_Space
 70
0
 10
0.0
 20
0.0
 30
0.0
  3
*Paper_Space
  1

  0
ENDBLK
  5
1D
100
AcDbEntity
  8
0
100
AcDbBlockEnd
  0
BLOCK
  5
20B
100
AcDbEntity
  8
0
100
AcDbBlockBegin
 62
2
  6
CONTINUOUS
  2
SUN_FIRST_THIRD_ANGLE_BL0
 70
64
 10
20.4816717061
 20
1.2289683772
  3
SUN_FIRST_THIRD_ANGLE_BL0
  1

  0
TEXT
  5
20C
100
AcDbEntity
  8
0
100
AcDbText
 62
2
  6
CONTINUOUS
 10
19.4750896608
 20
1.4136269581
  7
STANDARD
 40
0.08
  1
FIRST ANGLE
 41
0.8
 72
0
100
AcDbText
  0
TEXT
  5
20D
100
AcDbEntity
  8
0
100
AcDbText
 62
2
  6
CONTINUOUS
 10
20.7842537513
 20
1.4047600029
  7
STANDARD
 40
0.08
  1
THIRD ANGLE
 41
0.8
 72
0
100
AcDbText
  0
LINE
  5
20E
100
AcDbEntity
  8
0
100
AcDbLine
 62
7
  6
CONTINUOUS
 10
19.4767170086
 20
1.1727031207
 11
19.6334271527
 21
1.1717972817
  0
LINE
  5
20F
100
AcDbEntity
  8
0
100
AcDbLine
 62
7
  6
CONTINUOUS
 10
19.6596964832
 20
1.1717972817
 11
19.6950230232
 21
1.171593082
  0
LINE
  5
210
100
AcDbEntity
  8
0
100
AcDbLine
 62
7
  6
CONTINUOUS
 10
19.7194818561
 20
1.1708914427
 11
19.8852396156
 21
1.1699333054
  0
LINE
  5
211
100
AcDbEntity
  8
0
100
AcDbLine
 62
7
  6
CONTINUOUS
 10
19.4758111696
 20
1.2723454088
 11
19.88525039
 21
1.3511534004
  0
LINE
  5
212
100
AcDbEntity
  8
0
100
AcDbLine
 62
7
  6
CONTINUOUS
 10
19.88525039
 20
1.3511534004
 11
19.8831348489
 21
0.9851647912
  0
LINE
  5
213
100
AcDbEntity
  8
0
100
AcDbLine
 62
7
  6
CONTINUOUS
 10
19.8831348489
 20
0.9851647912
 11
19.4767170086
 21
1.0658141206
  0
LINE
  5
214
100
AcDbEntity
  8
0
100
AcDbLine
 62
7
  6
CONTINUOUS
 10
19.4767170086
 20
1.0658141206
 11
19.4779056764
 21
1.2714536432
  0
CIRCLE
  5
215
100
AcDbEntity
  8
0
100
AcDbCircle
 62
7
  6
CONTINUOUS
 10
20.2068232291
 20
1.1717972817
 40
0.175742101
  0
CIRCLE
  5
216
100
AcDbEntity
  8
0
100
AcDbCircle
 62
7
  6
CONTINUOUS
 10
20.2068232291
 20
1.1717972817
 40
0.1005522074
  0
LINE
  5
217
100
AcDbEntity
  8
0
100
AcDbLine
 62
7
  6
CONTINUOUS
 10
20.2077290681
 20
1.3756110529
 11
20.2071171714
 21
1.2379342989
  0
LINE
  5
218
100
AcDbEntity
  8
0
100
AcDbLine
 62
7
  6
CONTINUOUS
 10
20.2077290681
 20
1.2016899681
 11
20.2074674401
 21
1.1428236749
  0
LINE
  5
219
100
AcDbEntity
  8
0
100
AcDbLine
 62
7
  6
CONTINUOUS
 10
20.208634907
 20
1.101141841
 11
20.2080230104
 21
0.963465087
  0
LINE
  5
21A
100
AcDbEntity
  8
0
100
AcDbLine
 62
7
  6
CONTINUOUS
 10
20.0066328138
 20
1.1745147986
 11
20.1443095678
 21
1.1739029019
  0
LINE
  5
21B
100
AcDbEntity
  8
0
100
AcDbLine
 62
7
  6
CONTINUOUS
 10
20.1832714155
 20
1.1727031207
 11
20.238153505
 21
1.172335442
  0
LINE
  5
21C
100
AcDbEntity
  8
0
100
AcDbLine
 62
7
  6
CONTINUOUS
 10
20.2756669918
 20
1.1717972817
 11
20.407916871
 21
1.1712095044
  0
CIRCLE
  5
21D
100
AcDbEntity
  8
0
100
AcDbCircle
 62
7
  6
CONTINUOUS
 10
20.7509457401
 20
1.1693297793
 40
0.1722024983
  0
CIRCLE
  5
21E
100
AcDbEntity
  8
0
100
AcDbCircle
 62
7
  6
CONTINUOUS
 10
20.7509457401
 20
1.1693297793
 40
0.0985164967
  0
LINE
  5
21F
100
AcDbEntity
  8
0
100
AcDbLine
 62
7
  6
CONTINUOUS
 10
20.7169767782
 20
1.170462078
 11
20.7825395137
 21
1.1682766535
  0
LINE
  5
220
100
AcDbEntity
  8
0
100
AcDbLine
 62
7
  6
CONTINUOUS
 10
20.8177513651
 20
1.1693297793
 11
20.947965719
 21
1.1693297793
  0
LINE
  5
221
100
AcDbEntity
  8
0
100
AcDbLine
 62
7
  6
CONTINUOUS
 10
20.6875370113
 20
1.170462078
 11
20.5573226574
 21
1.170462078
  0
LINE
  5
222
100
AcDbEntity
  8
0
100
AcDbLine
 62
7
  6
CONTINUOUS
 10
20.7486811426
 20
1.1987695462
 11
20.7486811426
 21
1.1432869085
  0
LINE
  5
223
100
AcDbEntity
  8
0
100
AcDbLine
 62
7
  6
CONTINUOUS
 10
20.7498134414
 20
1.1059210505
 11
20.7498134414
 21
0.9757066966
  0
LINE
  5
224
100
AcDbEntity
  8
0
100
AcDbLine
 62
7
  6
CONTINUOUS
 10
20.7486811426
 20
1.2338708068
 11
20.7486811426
 21
1.3640851607
  0
LINE
  5
225
100
AcDbEntity
  8
0
100
AcDbLine
 62
7
  6
CONTINUOUS
 10
21.0702539817
 20
1.2701043662
 11
21.4790138229
 21
1.3448360823
  0
LINE
  5
226
100
AcDbEntity
  8
0
100
AcDbLine
 62
7
  6
CONTINUOUS
 10
21.4790138229
 20
1.3448360823
 11
21.4790138229
 21
0.9779712941
  0
LINE
  5
227
100
AcDbEntity
  8
0
100
AcDbLine
 62
7
  6
CONTINUOUS
 10
21.4790138229
 20
0.9779712941
 11
21.069121683
 21
1.0617614
  0
LINE
  5
228
100
AcDbEntity
  8
0
100
AcDbLine
 62
7
  6
CONTINUOUS
 10
21.0702539817
 20
1.2701043662
 11
21.069121683
 21
1.0617614
  0
LINE
  5
229
100
AcDbEntity
  8
0
100
AcDbLine
 62
7
  6
CONTINUOUS
 10
21.4790138229
 20
1.1693297793
 11
21.3159628059
 21
1.1693297793
  0
LINE
  5
22A
100
AcDbEntity
  8
0
100
AcDbLine
 62
7
  6
CONTINUOUS
 10
21.2876553377
 20
1.1693297793
 11
21.2502894796
 21
1.1693297793
  0
LINE
  5
22B
100
AcDbEntity
  8
0
100
AcDbLine
 62
7
  6
CONTINUOUS
 10
21.2208497126
 20
1.1659328831
 11
21.0713862804
 21
1.1659328831
  0
LINE
  5
22C
100
AcDbEntity
  8
0
100
AcDbLine
 62
7
  6
CONTINUOUS
 10
20.4796138713
 20
1.5284908897
 11
20.4766766948
 21
0.9294458646
  0
ENDBLK
  5
22D
100
AcDbEntity
  8
0
  6
BYBLOCK
 62
0
100
AcDbBlockEnd
  0
BLOCK
  5
22E
100
AcDbEntity
  8
0
100
AcDbBlockBegin
  2
*T1
 70
1
 10
0.0
 20
0.0
  3
*T1
  1

  0
LINE
  5
22F
100
AcDbEntity
  8
0
100
AcDbLine
 62
2
  6
CONTINUOUS
 10
9.275
 20
0.0
 11
-0.0
 21
0.0
  0
LINE
  5
230
100
AcDbEntity
  8
0
100
AcDbLine
 62
2
  6
CONTINUOUS
 10
9.275
 20
0.0
 11
9.275
 21
1.25
  0
LINE
  5
231
100
AcDbEntity
  8
0
100
AcDbLine
 62
2
  6
CONTINUOUS
 10
9.275
 20
0.625
 11
-0.0
 21
0.625
  0
LINE
  5
232
100
AcDbEntity
  8
0
100
AcDbLine
 62
2
  6
CONTINUOUS
 10
9.275
 20
1.25
 11
-0.0
 21
1.25
  0
LINE
  5
233
100
AcDbEntity
  8
0
100
AcDbLine
 62
2
  6
CONTINUOUS
 10
6.8
 20
0.0
 11
6.8
 21
1.25
  0
LINE
  5
234
100
AcDbEntity
  8
0
100
AcDbLine
 62
2
  6
CONTINUOUS
 10
6.4
 20
0.0
 11
6.4
 21
0.625
  0
LINE
  5
235
100
AcDbEntity
  8
0
100
AcDbLine
 62
2
  6
CONTINUOUS
 10
5.9
 20
0.0
 11
5.9
 21
0.625
  0
LINE
  5
236
100
AcDbEntity
  8
0
100
AcDbLine
 62
2
  6
CONTINUOUS
 10
5.2
 20
0.0
 11
5.2
 21
0.625
  0
LINE
  5
237
100
AcDbEntity
  8
0
100
AcDbLine
 62
2
  6
CONTINUOUS
 10
4.1
 20
0.0
 11
4.1
 21
1.25
  0
LINE
  5
238
100
AcDbEntity
  8
0
100
AcDbLine
 62
2
  6
CONTINUOUS
 10
-0.0
 20
0.0
 11
-0.0
 21
1.25
  0
MTEXT
  5
239
100
AcDbEntity
  8
0
100
AcDbMText
 62
2
  6
CONTINUOUS
  7
STANDARD
 71
2
 72
1
 10
6.6
 20
0.325
 30
0.0
 11
1.0
 21
0.0
 31
0.0
 44
0.9
  1
2
 40
0.125
 41
0.2
  0
MTEXT
  5
23A
100
AcDbEntity
  8
0
100
AcDbMText
 62
2
  6
CONTINUOUS
  7
STANDARD
 71
2
 72
1
 10
6.15
 20
0.325
 30
0.0
 11
1.0
 21
0.0
 31
0.0
 44
0.9
  1
C
 40
0.125
 41
0.2
  0
MTEXT
  5
23B
100
AcDbEntity
  8
0
100
AcDbMText
 62
2
  6
CONTINUOUS
  7
STANDARD
 71
2
 72
1
 10
5.55
 20
0.325
 30
0.0
 11
1.0
 21
0.0
 31
0.0
 44
0.9
  1
2.000
 40
0.125
 41
1.0
  0
MTEXT
  5
23C
100
AcDbEntity
  8
0
100
AcDbMText
 62
2
  6
CONTINUOUS
  7
STANDARD
 71
2
 72
1
 10
4.65
 20
0.325
 30
0.0
 11
1.0
 21
0.0
 31
0.0
 44
0.9
  1
Nov-30-20
 40
0.125
 41
1.8
  0
MTEXT
  5
23D
100
AcDbEntity
  8
0
100
AcDbMText
 62
2
  6
CONTINUOUS
  7
STANDARD
 71
2
 72
1
 10
2.05
 20
0.4625
 30
0.0
 11
1.0
 21
0.0
 31
0.0
 44
0.9
  1
T-10A Line mount\PCross port with make up checks
 40
0.125
 41
6.0
  0
MTEXT
  5
23E
100
AcDbEntity
  8
0
100
AcDbMText
 62
2
  6
CONTINUOUS
  7
STANDARD
 71
1
 72
1
 10
6.45
 20
0.5625
 30
0.0
 11
1.0
 21
0.0
 31
0.0
 44
0.9
  1
SHEET
 40
0.06
 41
0.48
  0
MTEXT
  5
23F
100
AcDbEntity
  8
0
100
AcDbMText
 62
2
  6
CONTINUOUS
  7
STANDARD
 71
1
 72
1
 10
5.95
 20
0.5625
 30
0.0
 11
1.0
 21
0.0
 31
0.0
 44
0.9
  1
DWG SIZE
 40
0.06
 41
0.768
  0
MTEXT
  5
240
100
AcDbEntity
  8
0
100
AcDbMText
 62
2
  6
CONTINUOUS
  7
STANDARD
 71
1
 72
1
 10
5.25
 20
0.5625
 30
0.0
 11
1.0
 21
0.0
 31
0.0
 44
0.9
  1
SCALE
 40
0.06
 41
0.48
  0
MTEXT
  5
241
100
AcDbEntity
  8
0
100
AcDbMText
 62
2
  6
CONTINUOUS
  7
STANDARD
 71
1
 72
1
 10
4.15
 20
0.5625
 30
0.0
 11
1.0
 21
0.0
 31
0.0
 44
0.9
  1
DATE
 40
0.06
 41
0.384
  0
MTEXT
  5
242
100
AcDbEntity
  8
0
100
AcDbMText
 62
2
  6
CONTINUOUS
  7
STANDARD
 71
1
 72
1
 10
0.05
 20
0.5625
 30
0.0
 11
1.0
 21
0.0
 31
0.0
 44
0.9
  1
DESCRIPTION
 40
0.06
 41
1.056
  0
MTEXT
  5
243
100
AcDbEntity
  8
0
100
AcDbMText
 62
2
  6
CONTINUOUS
  7
STANDARD
 71
2
 72
1
 10
5.45
 20
1.0375
 30
0.0
 11
1.0
 21
0.0
 31
0.0
 44
0.9
  1
ALL DIMENSIONS IN INCH\PVIEWS ARE THIRD ANGLE
 40
0.12
 41
4.224
  0
MTEXT
  5
244
100
AcDbEntity
  8
0
100
AcDbMText
 62
2
  6
CONTINUOUS
  7
STANDARD
 71
2
 72
1
 10
2.05
 20
0.95
 30
0.0
 11
1.0
 21
0.0
 31
0.0
 44
0.9
  1
FHI
 40
0.125
 41
0.6
  0
MTEXT
  5
245
100
AcDbEntity
  8
0
100
AcDbMText
 62
2
  6
CONTINUOUS
  7
STANDARD
 71
1
 72
1
 10
0.05
 20
1.1875
 30
0.0
 11
1.0
 21
0.0
 31
0.0
 44
0.9
  1
MODEL
 40
0.06
 41
0.48
  0
ENDBLK
  5
246
100
AcDbEntity
  8
0
  6
BYBLOCK
 62
0
100
AcDbBlockEnd
  0
BLOCK
  5
247
100
AcDbEntity
  8
0
100
AcDbBlockBegin
  2
*T2
 70
1
 10
0.0
 20
0.0
  3
*T2
  1

  0
LINE
  5
248
100
AcDbEntity
  8
0
100
AcDbLine
 62
2
  6
CONTINUOUS
 10
0.0
 20
0.0
 11
9.055
 21
0.0
  0
LINE
  5
249
100
AcDbEntity
  8
0
100
AcDbLine
 62
2
  6
CONTINUOUS
 10
0.0
 20
0.0
 11
0.0
 21
-2.594
  0
LINE
  5
24A
100
AcDbEntity
  8
0
100
AcDbLine
 62
2
  6
CONTINUOUS
 10
0.0
 20
-0.344
 11
9.055
 21
-0.344
  0
LINE
  5
24B
100
AcDbEntity
  8
0
100
AcDbLine
 62
2
  6
CONTINUOUS
 10
0.0
 20
-0.594
 11
9.055
 21
-0.594
  0
LINE
  5
24C
100
AcDbEntity
  8
0
100
AcDbLine
 62
2
  6
CONTINUOUS
 10
0.0
 20
-0.844
 11
9.055
 21
-0.844
  0
LINE
  5
24D
100
AcDbEntity
  8
0
100
AcDbLine
 62
2
  6
CONTINUOUS
 10
0.0
 20
-1.094
 11
9.055
 21
-1.094
  0
LINE
  5
24E
100
AcDbEntity
  8
0
100
AcDbLine
 62
2
  6
CONTINUOUS
 10
0.0
 20
-1.344
 11
9.055
 21
-1.344
  0
LINE
  5
24F
100
AcDbEntity
  8
0
100
AcDbLine
 62
2
  6
CONTINUOUS
 10
0.0
 20
-1.594
 11
9.055
 21
-1.594
  0
LINE
  5
250
100
AcDbEntity
  8
0
100
AcDbLine
 62
2
  6
CONTINUOUS
 10
0.0
 20
-1.844
 11
9.055
 21
-1.844
  0
LINE
  5
251
100
AcDbEntity
  8
0
100
AcDbLine
 62
2
  6
CONTINUOUS
 10
0.0
 20
-2.094
 11
9.055
 21
-2.094
  0
LINE
  5
252
100
AcDbEntity
  8
0
100
AcDbLine
 62
2
  6
CONTINUOUS
 10
0.0
 20
-2.344
 11
9.055
 21
-2.344
  0
LINE
  5
253
100
AcDbEntity
  8
0
100
AcDbLine
 62
2
  6
CONTINUOUS
 10
0.0
 20
-2.594
 11
9.055
 21
-2.594
  0
LINE
  5
254
100
AcDbEntity
  8
0
100
AcDbLine
 62
2
  6
CONTINUOUS
 10
3.055
 20
0.0
 11
3.055
 21
-2.594
  0
LINE
  5
255
100
AcDbEntity
  8
0
100
AcDbLine
 62
2
  6
CONTINUOUS
 10
9.055
 20
0.0
 11
9.055
 21
-2.594
  0
MTEXT
  5
256
100
AcDbEntity
  8
0
100
AcDbMText
 62
2
  6
CONTINUOUS
  7
STANDARD
 71
2
 72
1
 10
1.5275
 20
-0.0995
 30
0.0
 11
1.0
 21
0.0
 31
0.0
 44
0.9
  1
Technical Data
 40
0.145
 41
3.248
  0
MTEXT
  5
257
100
AcDbEntity
  8
0
100
AcDbMText
 62
2
  6
CONTINUOUS
  7
STANDARD
 71
2
 72
1
 10
4.555
 20
-0.0995
 30
0.0
 11
1.0
 21
0.0
 31
0.0
 44
0.9
  1
U.S. Units
 40
0.145
 41
2.32
  0
MTEXT
  5
258
100
AcDbEntity
  8
0
100
AcDbMText
 62
2
  6
CONTINUOUS
  7
STANDARD
 71
2
 72
1
 10
7.555
 20
-0.0995
 30
0.0
 11
1.0
 21
0.0
 31
0.0
 44
0.9
  1
Metric Units
 40
0.145
 41
2.784
  0
MTEXT
  5
259
100
AcDbEntity
  8
0
100
AcDbMText
 62
2
  6
CONTINUOUS
  7
STANDARD
 71
2
 72
1
 10
1.5275
 20
-0.4065
 30
0.0
 11
1.0
 21
0.0
 31
0.0
 44
0.9
  1
Cavity
 40
0.125
 41
1.2
  0
MTEXT
  5
25A
100
AcDbEntity
  8
0
100
AcDbMText
 62
2
  6
CONTINUOUS
  7
STANDARD
 71
2
 72
1
 10
6.055
 20
-0.4065
 30
0.0
 11
1.0
 21
0.0
 31
0.0
 44
0.9
  1
T-10A
 40
0.125
 41
1.0
  0
MTEXT
  5
25B
100
AcDbEntity
  8
0
100
AcDbMText
 62
2
  6
CONTINUOUS
  7
STANDARD
 71
2
 72
1
 10
1.5275
 20
-0.6565
 30
0.0
 11
1.0
 21
0.0
 31
0.0
 44
0.9
  1
Body Features
 40
0.125
 41
2.6
  0
MTEXT
  5
25C
100
AcDbEntity
  8
0
100
AcDbMText
 62
2
  6
CONTINUOUS
  7
STANDARD
 71
2
 72
1
 10
6.055
 20
-0.6565
 30
0.0
 11
1.0
 21
0.0
 31
0.0
 44
0.9
  1
Cross port with make up checks
 40
0.125
 41
6.0
  0
MTEXT
  5
25D
100
AcDbEntity
  8
0
100
AcDbMText
 62
2
  6
CONTINUOUS
  7
STANDARD
 71
2
 72
1
 10
1.5275
 20
-0.9065
 30
0.0
 11
1.0
 21
0.0
 31
0.0
 44
0.9
  1
Body Type
 40
0.125
 41
1.8
  0
MTEXT
  5
25E
100
AcDbEntity
  8
0
100
AcDbMText
 62
2
  6
CONTINUOUS
  7
STANDARD
 71
2
 72
1
 10
6.055
 20
-0.9065
 30
0.0
 11
1.0
 21
0.0
 31
0.0
 44
0.9
  1
Line mount
 40
0.125
 41
2.0
  0
MTEXT
  5
25F
100
AcDbEntity
  8
0
100
AcDbMText
 62
2
  6
CONTINUOUS
  7
STANDARD
 71
2
 72
1
 10
1.5275
 20
-1.1565
 30
0.0
 11
1.0
 21
0.0
 31
0.0
 44
0.9
  1
Interface
 40
0.125
 41
1.8
  0
MTEXT
  5
260
100
AcDbEntity
  8
0
100
AcDbMText
 62
2
  6
CONTINUOUS
  7
STANDARD
 71
2
 72
1
 10
6.055
 20
-1.1565
 30
0.0
 11
1.0
 21
0.0
 31
0.0
 44
0.9
  1
None
 40
0.125
 41
0.8
  0
MTEXT
  5
261
100
AcDbEntity
  8
0
100
AcDbMText
 62
2
  6
CONTINUOUS
  7
STANDARD
 71
2
 72
1
 10
1.5275
 20
-1.4065
 30
0.0
 11
1.0
 21
0.0
 31
0.0
 44
0.9
  1
Open Cavity Quantity
 40
0.125
 41
4.0
  0
MTEXT
  5
262
100
AcDbEntity
  8
0
100
AcDbMText
 62
2
  6
CONTINUOUS
  7
STANDARD
 71
2
 72
1
 10
6.055
 20
-1.4065
 30
0.0
 11
1.0
 21
0.0
 31
0.0
 44
0.9
  1
2
 40
0.125
 41
0.2
  0
MTEXT
  5
263
100
AcDbEntity
  8
0
100
AcDbMText
 62
2
  6
CONTINUOUS
  7
STANDARD
 71
2
 72
1
 10
1.5275
 20
-1.6565
 30
0.0
 11
1.0
 21
0.0
 31
0.0
 44
0.9
  1
Weight
 40
0.125
 41
1.2
  0
MTEXT
  5
264
100
AcDbEntity
  8
0
100
AcDbMText
 62
2
  6
CONTINUOUS
  7
STANDARD
 71
2
 72
1
 10
4.555
 20
-1.6565
 30
0.0
 11
1.0
 21
0.0
 31
0.0
 44
0.9
  1
3.010 lb.
 40
0.125
 41
1.8
  0
MTEXT
  5
265
100
AcDbEntity
  8
0
100
AcDbMText
 62
2
  6
CONTINUOUS
  7
STANDARD
 71
2
 72
1
 10
7.555
 20
-1.6565
 30
0.0
 11
1.0
 21
0.0
 31
0.0
 44
0.9
  1
1,365 kg.
 40
0.125
 41
1.8
  0
MTEXT
  5
266
100
AcDbEntity
  8
0
100
AcDbMText
 62
2
  6
CONTINUOUS
  7
STANDARD
 71
2
 72
1
 10
1.5275
 20
-1.9065
 30
0.0
 11
1.0
 21
0.0
 31
0.0
 44
0.9
  1
Mounting Hole Diameter
 40
0.125
 41
4.4
  0
MTEXT
  5
267
100
AcDbEntity
  8
0
100
AcDbMText
 62
2
  6
CONTINUOUS
  7
STANDARD
 71
2
 72
1
 10
4.555
 20
-1.9065
 30
0.0
 11
1.0
 21
0.0
 31
0.0
 44
0.9
  1
.34 in.
 40
0.125
 41
1.4
  0
MTEXT
  5
268
100
AcDbEntity
  8
0
100
AcDbMText
 62
2
  6
CONTINUOUS
  7
STANDARD
 71
2
 72
1
 10
7.555
 20
-1.9065
 30
0.0
 11
1.0
 21
0.0
 31
0.0
 44
0.9
  1
8.6 mm
 40
0.125
 41
1.2
  0
MTEXT
  5
269
100
AcDbEntity
  8
0
100
AcDbMText
 62
2
  6
CONTINUOUS
  7
STANDARD
 71
2
 72
1
 10
1.5275
 20
-2.1565
 30
0.0
 11
1.0
 21
0.0
 31
0.0
 44
0.9
  1
Mounting Hole Depth
 40
0.125
 41
3.8
  0
MTEXT
  5
26A
100
AcDbEntity
  8
0
100
AcDbMText
 62
2
  6
CONTINUOUS
  7
STANDARD
 71
2
 72
1
 10
6.055
 20
-2.1565
 30
0.0
 11
1.0
 21
0.0
 31
0.0
 44
0.9
  1
Through
 40
0.125
 41
1.4
  0
MTEXT
  5
26B
100
AcDbEntity
  8
0
100
AcDbMText
 62
2
  6
CONTINUOUS
  7
STANDARD
 71
2
 72
1
 10
1.5275
 20
-2.4065
 30
0.0
 11
1.0
 21
0.0
 31
0.0
 44
0.9
  1
Mounting Hole Quantity
 40
0.125
 41
4.4
  0
MTEXT
  5
26C
100
AcDbEntity
  8
0
100
AcDbMText
 62
2
  6
CONTINUOUS
  7
STANDARD
 71
2
 72
1
 10
6.055
 20
-2.4065
 30
0.0
 11
1.0
 21
0.0
 31
0.0
 44
0.9
  1
2
 40
0.125
 41
0.2
  0
ENDBLK
  5
26D
100
AcDbEntity
  8
0
  6
BYBLOCK
 62
0
100
AcDbBlockEnd
  0
BLOCK
  5
26E
100
AcDbEntity
  8
0
100
AcDbBlockBegin
  2
*T3
 70
1
 10
0.0
 20
0.0
  3
*T3
  1

  0
LINE
  5
26F
100
AcDbEntity
  8
0
100
AcDbLine
 62
2
  6
CONTINUOUS
 10
0.0
 20
0.0
 11
4.6
 21
0.0
  0
LINE
  5
270
100
AcDbEntity
  8
0
100
AcDbLine
 62
2
  6
CONTINUOUS
 10
0.0
 20
0.0
 11
0.0
 21
-1.18775
  0
LINE
  5
271
100
AcDbEntity
  8
0
100
AcDbLine
 62
2
  6
CONTINUOUS
 10
0.0
 20
-0.34375
 11
4.6
 21
-0.34375
  0
LINE
  5
272
100
AcDbEntity
  8
0
100
AcDbLine
 62
2
  6
CONTINUOUS
 10
0.0
 20
-0.68775
 11
4.6
 21
-0.68775
  0
LINE
  5
273
100
AcDbEntity
  8
0
100
AcDbLine
 62
2
  6
CONTINUOUS
 10
0.0
 20
-0.93775
 11
4.6
 21
-0.93775
  0
LINE
  5
274
100
AcDbEntity
  8
0
100
AcDbLine
 62
2
  6
CONTINUOUS
 10
0.0
 20
-1.18775
 11
4.6
 21
-1.18775
  0
LINE
  5
275
100
AcDbEntity
  8
0
100
AcDbLine
 62
2
  6
CONTINUOUS
 10
1.3
 20
-0.34375
 11
1.3
 21
-1.18775
  0
LINE
  5
276
100
AcDbEntity
  8
0
100
AcDbLine
 62
2
  6
CONTINUOUS
 10
3.3
 20
-0.34375
 11
3.3
 21
-1.18775
  0
LINE
  5
277
100
AcDbEntity
  8
0
100
AcDbLine
 62
2
  6
CONTINUOUS
 10
4.6
 20
0.0
 11
4.6
 21
-1.18775
  0
MTEXT
  5
278
100
AcDbEntity
  8
0
100
AcDbMText
 62
2
  6
CONTINUOUS
  7
STANDARD
 71
2
 72
1
 10
2.3
 20
-0.099375
 30
0.0
 11
1.0
 21
0.0
 31
0.0
 44
0.9
  1
Port Headings
 40
0.145
 41
3.016
  0
MTEXT
  5
279
100
AcDbEntity
  8
0
100
AcDbMText
 62
2
  6
CONTINUOUS
  7
STANDARD
 71
2
 72
1
 10
0.65
 20
-0.44325
 30
0.0
 11
1.0
 21
0.0
 31
0.0
 44
0.9
  1
Product
 40
0.145
 41
1.624
  0
MTEXT
  5
27A
100
AcDbEntity
  8
0
100
AcDbMText
 62
2
  6
CONTINUOUS
  7
STANDARD
 71
2
 72
1
 10
2.3
 20
-0.44325
 30
0.0
 11
1.0
 21
0.0
 31
0.0
 44
0.9
  1
Port
 40
0.145
 41
0.928
  0
MTEXT
  5
27B
100
AcDbEntity
  8
0
100
AcDbMText
 62
2
  6
CONTINUOUS
  7
STANDARD
 71
2
 72
1
 10
3.95
 20
-0.44325
 30
0.0
 11
1.0
 21
0.0
 31
0.0
 44
0.9
  1
Size
 40
0.145
 41
0.928
  0
MTEXT
  5
27C
100
AcDbEntity
  8
0
100
AcDbMText
 62
2
  6
CONTINUOUS
  7
STANDARD
 71
2
 72
1
 10
0.65
 20
-0.75025
 30
0.0
 11
1.0
 21
0.0
 31
0.0
 44
0.9
  1
FHI
 40
0.125
 41
0.6
  0
MTEXT
  5
27D
100
AcDbEntity
  8
0
100
AcDbMText
 62
2
  6
CONTINUOUS
  7
STANDARD
 71
2
 72
1
 10
2.3
 20
-0.75025
 30
0.0
 11
1.0
 21
0.0
 31
0.0
 44
0.9
  1
All Other Ports
 40
0.125
 41
3.0
  0
MTEXT
  5
27E
100
AcDbEntity
  8
0
100
AcDbMText
 62
2
  6
CONTINUOUS
  7
STANDARD
 71
2
 72
1
 10
3.95
 20
-0.75025
 30
0.0
 11
1.0
 21
0.0
 31
0.0
 44
0.9
  1
1/2" BSPP
 40
0.125
 41
1.8
  0
MTEXT
  5
27F
100
AcDbEntity
  8
0
100
AcDbMText
 62
2
  6
CONTINUOUS
  7
STANDARD
 71
2
 72
1
 10
0.65
 20
-1.00025
 30
0.0
 11
1.0
 21
0.0
 31
0.0
 44
0.9
  1
FHI
 40
0.125
 41
0.6
  0
MTEXT
  5
280
100
AcDbEntity
  8
0
100
AcDbMText
 62
2
  6
CONTINUOUS
  7
STANDARD
 71
2
 72
1
 10
2.3
 20
-1.00025
 30
0.0
 11
1.0
 21
0.0
 31
0.0
 44
0.9
  1
Port 5
 40
0.125
 41
1.2
  0
MTEXT
  5
281
100
AcDbEntity
  8
0
100
AcDbMText
 62
2
  6
CONTINUOUS
  7
STANDARD
 71
2
 72
1
 10
3.95
 20
-1.00025
 30
0.0
 11
1.0
 21
0.0
 31
0.0
 44
0.9
  1
1/4" BSPP
 40
0.125
 41
1.8
  0
ENDBLK
  5
282
100
AcDbEntity
  8
0
  6
BYBLOCK
 62
0
100
AcDbBlockEnd
  0
ENDSEC
  0
SECTION
  2
ENTITIES
  0
IMAGE
  5
283
100
AcDbEntity
  8
0
100
AcDbRasterImage
 62
7
  6
CONTINUOUS
 10
19.2297077316
 20
0.3094318264
 30
0.0
 11
0.0066666667
 21
0.0
 31
0.0
 12
0.0
 22
0.0066666667
 32
0.0
 13
369.0
 23
92.0
340
       393
 70
9
280
0
281
50
282
50
283
0
360
       38D
 71
1
 91
2
 14
-0.5
 24
-0.5
 14
368.5
 24
91.5
  0
INSERT
  5
284
100
AcDbEntity
  8
0
100
AcDbBlockReference
 62
2
  6
CONTINUOUS
  2
SUN_FIRST_THIRD_ANGLE_BL0
 10
20.4816717061
 20
1.2289683772
  0
ACAD_TABLE
  5
285
100
AcDbEntity
  8
0
 62
2
  6
CONTINUOUS
100
AcDbBlockReference
  2
*T1
 10
12.42375
 20
0.30125
 30
0.0
100
AcDbTable
342
       395
343
207
 11
1.0
 21
0.0
 31
0.0
 90
6
 91
4
 92
6
 93
20
 94
0
 95
0
 96
0
 70
1
 41
0.0
141
0.525
141
0.1
141
0.525
141
0.1
142
4.1
142
1.1
142
0.7
142
0.5
142
0.4
142
2.475
171
1
172
0
173
0
174
0
175
1
176
1
 91
33
178
0
145
0.0
301
CELL_VALUE
 90
4
  1
T-10A Line mount\PCross port with make up checks
304
ACVALUE_END
170
2
140
0.125
171
1
172
0
173
0
174
0
175
1
176
1
 91
33
178
0
145
0.0
301
CELL_VALUE
 90
4
  1
Nov-30-20
304
ACVALUE_END
170
5
140
0.125
171
1
172
0
173
0
174
0
175
1
176
1
 91
33
178
0
145
0.0
301
CELL_VALUE
 90
4
  1
2.000
304
ACVALUE_END
170
5
140
0.125
171
1
172
0
173
0
174
0
175
1
176
1
 91
33
178
0
145
0.0
301
CELL_VALUE
 90
4
  1
C
304
ACVALUE_END
170
5
140
0.125
171
1
172
0
173
0
174
0
175
1
176
1
 91
33
178
0
145
0.0
301
CELL_VALUE
 90
4
  1
2
304
ACVALUE_END
170
5
140
0.125
171
1
172
0
173
0
174
0
175
1
176
1
 91
33
178
0
145
0.0
301
CELL_VALUE
 90
4
  1
 
304
ACVALUE_END
170
1
140
0.125
171
1
172
0
173
0
174
0
175
1
176
1
 91
33
178
0
145
0.0
301
CELL_VALUE
 90
4
  1
DESCRIPTION
304
ACVALUE_END
170
1
140
0.06
171
1
172
0
173
0
174
0
175
1
176
1
 91
33
178
0
145
0.0
301
CELL_VALUE
 90
4
  1
DATE
304
ACVALUE_END
170
1
140
0.06
171
1
172
0
173
0
174
0
175
1
176
1
 91
33
178
0
145
0.0
301
CELL_VALUE
 90
4
  1
SCALE
304
ACVALUE_END
170
1
140
0.06
171
1
172
0
173
0
174
0
175
1
176
1
 91
33
178
0
145
0.0
301
CELL_VALUE
 90
4
  1
DWG SIZE
304
ACVALUE_END
170
1
140
0.06
171
1
172
0
173
0
174
0
175
1
176
1
 91
33
178
0
145
0.0
301
CELL_VALUE
 90
4
  1
SHEET
304
ACVALUE_END
170
1
140
0.06
171
1
172
0
173
0
174
0
175
1
176
1
 91
33
178
0
145
0.0
301
CELL_VALUE
 90
4
  1
 
304
ACVALUE_END
170
1
140
0.125
171
1
172
0
173
0
174
0
175
1
176
1
 91
33
178
0
145
0.0
301
CELL_VALUE
 90
4
  1
FHI
304
ACVALUE_END
170
5
140
0.125
171
1
172
0
173
0
174
0
175
4
176
1
 91
33
178
0
145
0.0
301
CELL_VALUE
 90
4
  1
ALL DIMENSIONS IN INCH\PVIEWS ARE THIRD ANGLE
304
ACVALUE_END
170
5
140
0.12
171
1
172
0
173
1
174
0
175
1
176
1
 91
1
178
0
145
0.0
170
1
171
1
172
0
173
1
174
0
175
1
176
1
 91
1
178
0
145
0.0
170
1
171
1
172
0
173
1
174
0
175
1
176
1
 91
1
178
0
145
0.0
170
5
171
1
172
0
173
0
174
0
175
1
176
1
 91
33
178
0
145
0.0
301
CELL_VALUE
 90
4
  1
 
304
ACVALUE_END
170
1
140
0.125
171
1
172
0
173
0
174
0
175
1
176
1
 91
33
178
0
145
0.0
301
CELL_VALUE
 90
4
  1
MODEL
304
ACVALUE_END
170
1
140
0.06
171
1
172
0
173
0
174
0
175
1
176
1
 91
33
178
0
145
0.0
301
CELL_VALUE
 90
4
  1
 
304
ACVALUE_END
170
1
140
0.125
171
1
172
0
173
0
174
0
175
1
176
1
 91
33
178
0
145
0.0
301
CELL_VALUE
 90
4
  1
 
304
ACVALUE_END
170
1
140
0.125
171
1
172
0
173
0
174
0
175
1
176
1
 91
33
178
0
145
0.0
301
CELL_VALUE
 90
4
  1
 
304
ACVALUE_END
170
1
140
0.125
171
1
172
0
173
0
174
0
175
1
176
1
 91
33
178
0
145
0.0
301
CELL_VALUE
 90
4
  1
 
304
ACVALUE_END
170
1
140
0.125
171
1
172
0
173
0
174
0
175
1
176
1
 91
33
178
0
145
0.0
301
CELL_VALUE
 90
4
  1
 
304
ACVALUE_END
170
1
140
0.125
  0
ACAD_TABLE
  5
286
100
AcDbEntity
  8
0
 62
2
  6
CONTINUOUS
100
AcDbBlockReference
  2
*T2
 10
12.4237499994
 20
16.47875
 30
0.0
100
AcDbTable
342
       394
343
208
 11
1.0
 21
0.0
 31
0.0
 90
22
 91
10
 92
3
 93
16
 94
0
 95
0
 96
0
 41
0.028
141
0.344
141
0.25
141
0.25
141
0.25
141
0.25
141
0.25
141
0.25
141
0.25
141
0.25
141
0.25
142
3.055
142
3.0
142
3.0
171
1
172
0
173
0
174
0
175
1
176
1
 91
33
178
0
145
0.0
301
CELL_VALUE
 90
4
  1
Technical Data
304
ACVALUE_END
170
5
140
0.145
171
1
172
0
173
0
174
0
175
1
176
1
 91
33
178
0
145
0.0
301
CELL_VALUE
 90
4
  1
U.S. Units
304
ACVALUE_END
170
5
140
0.145
171
1
172
0
173
0
174
0
175
1
176
1
 91
33
178
0
145
0.0
301
CELL_VALUE
 90
4
  1
Metric Units
304
ACVALUE_END
170
5
140
0.145
171
1
172
0
173
0
174
0
175
1
176
1
 91
33
178
0
145
0.0
301
CELL_VALUE
 90
4
  1
Cavity
304
ACVALUE_END
170
5
140
0.125
171
1
172
0
173
0
174
0
175
2
176
1
 91
33
178
0
145
0.0
301
CELL_VALUE
 90
4
  1
T-10A
304
ACVALUE_END
170
5
140
0.125
171
1
172
0
173
1
174
0
175
1
176
1
 91
1
178
0
145
0.0
170
1
171
1
172
0
173
0
174
0
175
1
176
1
 91
33
178
0
145
0.0
301
CELL_VALUE
 90
4
  1
Body Features
304
ACVALUE_END
170
5
140
0.125
171
1
172
0
173
0
174
0
175
2
176
1
 91
33
178
0
145
0.0
301
CELL_VALUE
 90
4
  1
Cross port with make up checks
304
ACVALUE_END
170
5
140
0.125
171
1
172
0
173
1
174
0
175
1
176
1
 91
1
178
0
145
0.0
170
1
171
1
172
0
173
0
174
0
175
1
176
1
 91
33
178
0
145
0.0
301
CELL_VALUE
 90
4
  1
Body Type
304
ACVALUE_END
170
5
140
0.125
171
1
172
0
173
0
174
0
175
2
176
1
 91
33
178
0
145
0.0
301
CELL_VALUE
 90
4
  1
Line mount
304
ACVALUE_END
170
5
140
0.125
171
1
172
0
173
1
174
0
175
1
176
1
 91
1
178
0
145
0.0
170
1
171
1
172
0
173
0
174
0
175
1
176
1
 91
33
178
0
145
0.0
301
CELL_VALUE
 90
4
  1
Interface
304
ACVALUE_END
170
5
140
0.125
171
1
172
0
173
0
174
0
175
2
176
1
 91
33
178
0
145
0.0
301
CELL_VALUE
 90
4
  1
None
304
ACVALUE_END
170
5
140
0.125
171
1
172
0
173
1
174
0
175
1
176
1
 91
1
178
0
145
0.0
170
1
171
1
172
0
173
0
174
0
175
1
176
1
 91
33
178
0
145
0.0
301
CELL_VALUE
 90
4
  1
Open Cavity Quantity
304
ACVALUE_END
170
5
140
0.125
171
1
172
0
173
0
174
0
175
2
176
1
 91
33
178
0
145
0.0
301
CELL_VALUE
 90
4
  1
2
304
ACVALUE_END
170
5
140
0.125
171
1
172
0
173
1
174
0
175
1
176
1
 91
1
178
0
145
0.0
170
1
171
1
172
0
173
0
174
0
175
1
176
1
 91
33
178
0
145
0.0
301
CELL_VALUE
 90
4
  1
Weight
304
ACVALUE_END
170
5
140
0.125
171
1
172
0
173
0
174
0
175
1
176
1
 91
33
178
0
145
0.0
301
CELL_VALUE
 90
4
  1
3.010 lb.
304
ACVALUE_END
170
5
140
0.125
171
1
172
0
173
0
174
0
175
1
176
1
 91
33
178
0
145
0.0
301
CELL_VALUE
 90
4
  1
1,365 kg.
304
ACVALUE_END
170
5
140
0.125
171
1
172
0
173
0
174
0
175
1
176
1
 91
33
178
0
145
0.0
301
CELL_VALUE
 90
4
  1
Mounting Hole Diameter
304
ACVALUE_END
170
5
140
0.125
171
1
172
0
173
0
174
0
175
1
176
1
 91
33
178
0
145
0.0
301
CELL_VALUE
 90
4
  1
.34 in.
304
ACVALUE_END
170
5
140
0.125
171
1
172
0
173
0
174
0
175
1
176
1
 91
33
178
0
145
0.0
301
CELL_VALUE
 90
4
  1
8.6 mm
304
ACVALUE_END
170
5
140
0.125
171
1
172
0
173
0
174
0
175
1
176
1
 91
33
178
0
145
0.0
301
CELL_VALUE
 90
4
  1
Mounting Hole Depth
304
ACVALUE_END
170
5
140
0.125
171
1
172
0
173
0
174
0
175
2
176
1
 91
33
178
0
145
0.0
301
CELL_VALUE
 90
4
  1
Through
304
ACVALUE_END
170
5
140
0.125
171
1
172
0
173
1
174
0
175
1
176
1
 91
1
178
0
145
0.0
170
1
171
1
172
0
173
0
174
0
175
1
176
1
 91
33
178
0
145
0.0
301
CELL_VALUE
 90
4
  1
Mounting Hole Quantity
304
ACVALUE_END
170
5
140
0.125
171
1
172
0
173
0
174
0
175
2
176
1
 91
33
178
0
145
0.0
301
CELL_VALUE
 90
4
  1
2
304
ACVALUE_END
170
5
140
0.125
171
1
172
0
173
1
174
0
175
1
176
1
 91
1
178
0
145
0.0
170
1
  0
ACAD_TABLE
  5
287
100
AcDbEntity
  8
0
 62
2
  6
CONTINUOUS
100
AcDbBlockReference
  2
*T3
 10
0.52125
 20
1.709
 30
0.0
100
AcDbTable
342
       394
343
209
 11
1.0
 21
0.0
 31
0.0
 90
22
 91
4
 92
3
 93
16
 94
0
 95
0
 96
0
 41
0.05
141
0.34375
141
0.344
141
0.25
141
0.25
142
1.3
142
2.0
142
1.3
171
1
172
0
173
0
174
0
175
3
176
1
 91
33
178
0
145
0.0
301
CELL_VALUE
 90
4
  1
Port Headings
304
ACVALUE_END
170
5
140
0.145
171
1
172
0
173
1
174
0
175
1
176
1
 91
1
178
0
145
0.0
170
1
171
1
172
0
173
1
174
0
175
1
176
1
 91
1
178
0
145
0.0
170
1
171
1
172
0
173
0
174
0
175
1
176
1
 91
33
178
0
145
0.0
301
CELL_VALUE
 90
4
  1
Product
304
ACVALUE_END
170
5
140
0.145
171
1
172
0
173
0
174
0
175
1
176
1
 91
33
178
0
145
0.0
301
CELL_VALUE
 90
4
  1
Port
304
ACVALUE_END
170
5
140
0.145
171
1
172
0
173
0
174
0
175
1
176
1
 91
33
178
0
145
0.0
301
CELL_VALUE
 90
4
  1
Size
304
ACVALUE_END
170
5
140
0.145
171
1
172
0
173
0
174
0
175
1
176
1
 91
33
178
0
145
0.0
301
CELL_VALUE
 90
4
  1
FHI
304
ACVALUE_END
170
5
140
0.125
171
1
172
0
173
0
174
0
175
1
176
1
 91
33
178
0
145
0.0
301
CELL_VALUE
 90
4
  1
All Other Ports
304
ACVALUE_END
170
5
140
0.125
171
1
172
0
173
0
174
0
175
1
176
1
 91
33
178
0
145
0.0
301
CELL_VALUE
 90
4
  1
1/2" BSPP
304
ACVALUE_END
170
5
140
0.125
171
1
172
0
173
0
174
0
175
1
176
1
 91
33
178
0
145
0.0
301
CELL_VALUE
 90
4
  1
FHI
304
ACVALUE_END
170
5
140
0.125
171
1
172
0
173
0
174
0
175
1
176
1
 91
33
178
0
145
0.0
301
CELL_VALUE
 90
4
  1
Port 5
304
ACVALUE_END
170
5
140
0.125
171
1
172
0
173
0
174
0
175
1
176
1
 91
33
178
0
145
0.0
301
CELL_VALUE
 90
4
  1
1/4" BSPP
304
ACVALUE_END
170
5
140
0.125
  0
MTEXT
  5
288
100
AcDbEntity
  8
0
100
AcDbMText
 62
2
  6
CONTINUOUS
  7
STANDARD
 71
1
 72
1
 10
0.52125
 20
5.75995
 30
0.0
 11
1.0
 21
0.0
 31
0.0
 44
0.6
  3
Notes\P \P1. Important: Carefully consider\P   the maximum system pressure. The\P   pressure rating of the manifold is\P   dependent on the manifold material,\P   with the port type/size a secondary\P   consideration. Manifolds\P   constructed of alu
  1
minum are not\P   rated for pressures higher than\P   3000 psi (210 bar), regardless of\P   the port type/size specified.
 40
0.1
 41
3.04
  0
LINE
  5
289
100
AcDbEntity
  8
0
100
AcDbLine
 62
7
  6
CONTINUOUS
 10
0.30125
 20
0.30125
 11
0.30125
 21
16.69875
  0
LINE
  5
28A
100
AcDbEntity
  8
0
100
AcDbLine
 62
7
  6
CONTINUOUS
 10
0.30125
 20
0.30125
 11
21.69875
 21
0.30125
  0
LINE
  5
28B
100
AcDbEntity
  8
0
100
AcDbLine
 62
7
  6
CONTINUOUS
 10
0.30125
 20
16.69875
 11
21.69875
 21
16.69875
  0
LINE
  5
28C
100
AcDbEntity
  8
0
100
AcDbLine
 62
7
  6
CONTINUOUS
 10
21.69875
 20
0.30125
 11
21.69875
 21
16.69875
  0
LINE
  5
28D
100
AcDbEntity
  8
0
100
AcDbLine
 62
7
  6
CONTINUOUS
 10
8.1980750942
 20
12.3793258241
 11
6.677255659
 21
10.9103269675
  0
LINE
  5
28E
100
AcDbEntity
  8
0
100
AcDbLine
 62
7
  6
CONTINUOUS
 10
6.677255659
 20
5.1147716664
 11
6.677255659
 21
10.9103269675
  0
LINE
  5
28F
100
AcDbEntity
  8
0
100
AcDbLine
 62
7
  6
CONTINUOUS
 10
6.677255659
 20
5.1147716664
 11
13.8019249058
 21
4.6206741759
  0
LINE
  5
290
100
AcDbEntity
  8
0
100
AcDbLine
 62
4
  6
CONTINUOUS
 10
8.1754065982
 20
10.1302819128
 11
8.1319399344
 21
9.9014741293
  0
LINE
  5
291
100
AcDbEntity
  8
0
100
AcDbLine
 62
4
  6
CONTINUOUS
 10
9.8464584751
 20
5.5324977699
 11
9.8174806993
 21
5.5538258981
  0
LINE
  5
292
100
AcDbEntity
  8
0
100
AcDbLine
 62
4
  6
CONTINUOUS
 10
8.2623399257
 20
10.124253066
 11
8.2188732619
 21
9.8954452825
  0
LINE
  5
293
100
AcDbEntity
  8
0
100
AcDbLine
 62
4
  6
CONTINUOUS
 10
8.5231399085
 20
10.1061665258
 11
8.4506954688
 21
9.8793683579
  0
LINE
  5
294
100
AcDbEntity
  8
0
100
AcDbLine
 62
4
  6
CONTINUOUS
 10
8.624562124
 20
10.0604958356
 11
8.6390510119
 21
10.0788095456
  0
LINE
  5
295
100
AcDbEntity
  8
0
100
AcDbLine
 62
7
  6
CONTINUOUS
 10
7.7886285286
 20
9.2059430169
 11
7.5401804689
 21
8.9659606053
  0
LINE
  5
296
100
AcDbEntity
  8
0
100
AcDbLine
 62
4
  6
CONTINUOUS
 10
10.6143695354
 20
5.4792429569
 11
10.4694806561
 21
5.4892910349
  0
LINE
  5
297
100
AcDbEntity
  8
0
100
AcDbLine
 62
4
  6
CONTINUOUS
 10
10.3535695527
 20
5.6132406006
 11
10.2666362251
 21
5.6192694474
  0
LINE
  5
298
100
AcDbEntity
  8
0
100
AcDbLine
 62
4
  6
CONTINUOUS
 10
9.4262807252
 20
5.6775482992
 11
9.3393473976
 21
5.683577146
  0
LINE
  5
299
100
AcDbEntity
  8
0
100
AcDbLine
 62
4
  6
CONTINUOUS
 10
9.6581029321
 20
5.7001084067
 11
9.5711696045
 21
5.7061372535
  0
LINE
  5
29A
100
AcDbEntity
  8
0
100
AcDbLine
 62
4
  6
CONTINUOUS
 10
9.8464584751
 20
5.7643199767
 11
9.875436251
 21
5.7429918433
  0
LINE
  5
29B
100
AcDbEntity
  8
0
100
AcDbLine
 62
4
  6
CONTINUOUS
 10
9.8174806993
 20
5.5538258981
 11
9.8029918114
 21
5.5741492323
  0
LINE
  5
29C
100
AcDbEntity
  8
0
100
AcDbLine
 62
4
  6
CONTINUOUS
 10
8.624562124
 20
10.0218588
 11
8.624562124
 21
10.0604958356
  0
LINE
  5
29D
100
AcDbEntity
  8
0
100
AcDbLine
 62
4
  6
CONTINUOUS
 10
9.0012732101
 20
9.9570967653
 11
8.9867843222
 21
9.9001460213
  0
LINE
  5
29E
100
AcDbEntity
  8
0
100
AcDbLine
 62
4
  6
CONTINUOUS
 10
8.7259843395
 20
9.8795955225
 11
8.7404732274
 21
9.8979092411
  0
LINE
  5
29F
100
AcDbEntity
  8
0
100
AcDbLine
 62
4
  6
CONTINUOUS
 10
8.8563843308
 20
10.044418911
 11
8.8708732188
 21
10.062732621
  0
LINE
  5
2A0
100
AcDbEntity
  8
0
100
AcDbLine
 62
4
  6
CONTINUOUS
 10
8.9867843222
 20
9.9001460213
 11
8.9578065463
 21
9.8635185978
  0
LINE
  5
2A1
100
AcDbEntity
  8
0
100
AcDbLine
 62
7
  6
CONTINUOUS
 10
8.4507712502
 20
9.5423115417
 11
8.2023231904
 21
9.3023291301
  0
LINE
  5
2A2
100
AcDbEntity
  8
0
100
AcDbLine
 62
7
  6
CONTINUOUS
 10
8.5130516906
 20
9.5379923785
 11
8.2646036308
 21
9.2980099669
  0
LINE
  5
2A3
100
AcDbEntity
  8
0
100
AcDbLine
 62
4
  6
CONTINUOUS
 10
8.6390510119
 20
10.0788095456
 11
8.6680287877
 21
10.0961184479
  0
LINE
  5
2A4
100
AcDbEntity
  8
0
100
AcDbLine
 62
4
  6
CONTINUOUS
 10
8.8708732188
 20
10.062732621
 11
8.8998509946
 21
10.0800415232
  0
LINE
  5
2A5
100
AcDbEntity
  8
0
100
AcDbLine
 62
4
  6
CONTINUOUS
 10
8.6970065636
 20
9.8622866254
 11
8.7259843395
 21
9.8795955225
  0
LINE
  5
2A6
100
AcDbEntity
  8
0
100
AcDbLine
 62
4
  6
CONTINUOUS
 10
9.875436251
 20
5.7429918433
 11
9.8899251389
 21
5.7226685177
  0
LINE
  5
2A7
100
AcDbEntity
  8
0
100
AcDbLine
 62
4
  6
CONTINUOUS
 10
8.2188732619
 20
9.8954452825
 11
8.1754065982
 21
10.1302819128
  0
LINE
  5
2A8
100
AcDbEntity
  8
0
100
AcDbLine
 62
4
  6
CONTINUOUS
 10
8.3058065895
 20
9.8894164358
 11
8.2623399257
 21
10.124253066
  0
LINE
  5
2A9
100
AcDbEntity
  8
0
100
AcDbLine
 62
4
  6
CONTINUOUS
 10
8.7404732274
 20
9.8979092411
 11
8.7404732274
 21
9.9172277538
  0
LINE
  5
2AA
100
AcDbEntity
  8
0
100
AcDbLine
 62
4
  6
CONTINUOUS
 10
8.9578065463
 20
9.8635185978
 11
8.9288287705
 21
9.8462097008
  0
LINE
  5
2AB
100
AcDbEntity
  8
0
100
AcDbLine
 62
4
  6
CONTINUOUS
 10
9.8029918114
 20
5.5741492323
 11
9.7885029234
 21
5.6137910654
  0
LINE
  5
2AC
100
AcDbEntity
  8
0
100
AcDbLine
 62
4
  6
CONTINUOUS
 10
9.8899251389
 20
5.7226685177
 11
9.9044140269
 21
5.6830266743
  0
LINE
  5
2AD
100
AcDbEntity
  8
0
100
AcDbLine
 62
4
  6
CONTINUOUS
 10
9.6146362683
 20
5.5485746945
 11
9.5421918286
 21
5.7854209403
  0
LINE
  5
2AE
100
AcDbEntity
  8
0
100
AcDbLine
 62
4
  6
CONTINUOUS
 10
8.4506954688
 20
9.8793683579
 11
8.3782510292
 21
10.1162146037
  0
LINE
  5
2AF
100
AcDbEntity
  8
0
100
AcDbLine
 62
4
  6
CONTINUOUS
 10
9.1509918546
 20
5.5807285438
 11
9.1509918546
 21
5.8125507507
  0
LINE
  5
2B0
100
AcDbEntity
  8
0
100
AcDbLine
 62
7
  6
CONTINUOUS
 10
9.1751944121
 20
9.1097843463
 11
8.9267463524
 21
8.8698019347
  0
LINE
  5
2B1
100
AcDbEntity
  8
0
100
AcDbLine
 62
7
  6
CONTINUOUS
 10
9.2063346323
 20
9.0536883211
 11
8.9578865726
 21
8.8137059095
  0
LINE
  5
2B2
100
AcDbEntity
  8
0
100
AcDbLine
 62
4
  6
CONTINUOUS
 10
8.9867843222
 20
10.0160571248
 11
9.0012732101
 21
9.9570967653
  0
LINE
  5
2B3
100
AcDbEntity
  8
0
100
AcDbLine
 62
4
  6
CONTINUOUS
 10
9.7885029234
 20
5.6137910654
 11
9.7885029234
 21
5.6910651366
  0
LINE
  5
2B4
100
AcDbEntity
  8
0
100
AcDbLine
 62
4
  6
CONTINUOUS
 10
8.624562124
 20
9.9059477035
 11
8.6390510119
 21
9.8856243692
  0
LINE
  5
2B5
100
AcDbEntity
  8
0
100
AcDbLine
 62
4
  6
CONTINUOUS
 10
9.9044140269
 20
5.6830266743
 11
9.9044140269
 21
5.605752603
  0
LINE
  5
2B6
100
AcDbEntity
  8
0
100
AcDbLine
 62
4
  6
CONTINUOUS
 10
10.078280682
 20
5.5164208452
 11
10.078280682
 21
5.7482430521
  0
LINE
  5
2B7
100
AcDbEntity
  8
0
100
AcDbLine
 62
7
  6
CONTINUOUS
 10
9.2063346323
 20
8.2891117641
 11
8.9578865726
 21
8.0491293524
  0
LINE
  5
2B8
100
AcDbEntity
  8
0
100
AcDbLine
 62
7
  6
CONTINUOUS
 10
9.1751944121
 20
8.2373349021
 11
8.9267463524
 21
7.9973524905
  0
LINE
  5
2B9
100
AcDbEntity
  8
0
100
AcDbLine
 62
4
  6
CONTINUOUS
 10
12.5462213024
 20
7.4703054565
 11
12.4013324231
 21
7.4803535344
  0
LINE
  5
2BA
100
AcDbEntity
  8
0
100
AcDbLine
 62
4
  6
CONTINUOUS
 10
11.0973325095
 20
7.5707862356
 11
11.0683547337
 21
7.5727958512
  0
LINE
  5
2BB
100
AcDbEntity
  8
0
100
AcDbLine
 62
4
  6
CONTINUOUS
 10
12.2854213197
 20
7.6043031002
 11
12.1984879921
 21
7.6103319469
  0
LINE
  5
2BC
100
AcDbEntity
  8
0
100
AcDbLine
 62
4
  6
CONTINUOUS
 10
11.3581324922
 20
7.6686107988
 11
11.2711991647
 21
7.6746396455
  0
LINE
  5
2BD
100
AcDbEntity
  8
0
100
AcDbLine
 62
4
  6
CONTINUOUS
 10
11.5899546991
 20
7.6911709063
 11
11.5030213715
 21
7.6971997531
  0
LINE
  5
2BE
100
AcDbEntity
  8
0
100
AcDbLine
 62
4
  6
CONTINUOUS
 10
8.6390510119
 20
10.0015354796
 11
8.624562124
 21
10.0218588
  0
LINE
  5
2BF
100
AcDbEntity
  8
0
100
AcDbLine
 62
4
  6
CONTINUOUS
 10
8.7404732274
 20
9.9172277538
 11
8.7259843395
 21
9.9375510742
  0
LINE
  5
2C0
100
AcDbEntity
  8
0
100
AcDbLine
 62
4
  6
CONTINUOUS
 10
8.8708732188
 20
9.8695474446
 11
8.8563843308
 21
9.8898707788
  0
LINE
  5
2C1
100
AcDbEntity
  8
0
100
AcDbLine
 62
4
  6
CONTINUOUS
 10
8.7259843395
 20
10.0727806989
 11
8.7549621153
 21
10.0321340494
  0
LINE
  5
2C2
100
AcDbEntity
  8
0
100
AcDbLine
 62
4
  6
CONTINUOUS
 10
8.9578065463
 20
10.0567037742
 11
8.9867843222
 21
10.0160571248
  0
LINE
  5
2C3
100
AcDbEntity
  8
0
100
AcDbLine
 62
4
  6
CONTINUOUS
 10
10.5419250957
 20
5.4842669959
 11
10.5419250957
 21
5.7160892028
  0
LINE
  5
2C4
100
AcDbEntity
  8
0
100
AcDbLine
 62
4
  6
CONTINUOUS
 10
9.6870807079
 20
5.7753728624
 11
9.6146362683
 21
5.5485746945
  0
LINE
  5
2C5
100
AcDbEntity
  8
0
100
AcDbLine
 62
4
  6
CONTINUOUS
 10
11.1407991733
 20
7.7995940191
 11
11.0248880699
 21
7.8076324814
  0
LINE
  5
2C6
100
AcDbEntity
  8
0
100
AcDbLine
 62
4
  6
CONTINUOUS
 10
11.0683547337
 20
7.5727958512
 11
11.0393769578
 21
7.5941239794
  0
LINE
  5
2C7
100
AcDbEntity
  8
0
100
AcDbLine
 62
4
  6
CONTINUOUS
 10
11.0393769578
 20
7.5941239794
 11
11.0248880699
 21
7.6144473136
  0
LINE
  5
2C8
100
AcDbEntity
  8
0
100
AcDbLine
 62
4
  6
CONTINUOUS
 10
11.0248880699
 20
7.6144473136
 11
11.0248880699
 21
7.6530843389
  0
LINE
  5
2C9
100
AcDbEntity
  8
0
100
AcDbLine
 62
4
  6
CONTINUOUS
 10
9.7885029234
 20
5.6910651366
 11
9.8029918114
 21
5.7286973645
  0
LINE
  5
2CA
100
AcDbEntity
  8
0
100
AcDbLine
 62
4
  6
CONTINUOUS
 10
9.9044140269
 20
5.605752603
 11
9.8899251389
 21
5.5681203856
  0
LINE
  5
2CB
100
AcDbEntity
  8
0
100
AcDbLine
 62
4
  6
CONTINUOUS
 10
11.7783102422
 20
7.5235602694
 11
11.7493324663
 21
7.5448883976
  0
LINE
  5
2CC
100
AcDbEntity
  8
0
100
AcDbLine
 62
4
  6
CONTINUOUS
 10
8.6390510119
 20
9.8856243692
 11
8.6680287877
 21
9.864296241
  0
LINE
  5
2CD
100
AcDbEntity
  8
0
100
AcDbLine
 62
4
  6
CONTINUOUS
 10
8.7259843395
 20
9.9375510742
 11
8.6390510119
 21
10.0015354796
  0
LINE
  5
2CE
100
AcDbEntity
  8
0
100
AcDbLine
 62
4
  6
CONTINUOUS
 10
8.8998509946
 20
9.8482193164
 11
8.8708732188
 21
9.8695474446
  0
LINE
  5
2CF
100
AcDbEntity
  8
0
100
AcDbLine
 62
4
  6
CONTINUOUS
 10
11.7783102422
 20
7.7553824763
 11
11.807288018
 21
7.7340543429
  0
LINE
  5
2D0
100
AcDbEntity
  8
0
100
AcDbLine
 62
4
  6
CONTINUOUS
 10
8.6970065636
 20
10.0941088323
 11
8.7259843395
 21
10.0727806989
  0
LINE
  5
2D1
100
AcDbEntity
  8
0
100
AcDbLine
 62
4
  6
CONTINUOUS
 10
8.9288287705
 20
10.0780319076
 11
8.9578065463
 21
10.0567037742
  0
LINE
  5
2D2
100
AcDbEntity
  8
0
100
AcDbLine
 62
4
  6
CONTINUOUS
 10
11.1263102854
 20
7.7426432752
 11
11.1407991733
 21
7.7995940191
  0
LINE
  5
2D3
100
AcDbEntity
  8
0
100
AcDbLine
 62
4
  6
CONTINUOUS
 10
11.7493324663
 20
7.5448883976
 11
11.7348435784
 21
7.5652117319
  0
LINE
  5
2D4
100
AcDbEntity
  8
0
100
AcDbLine
 62
4
  6
CONTINUOUS
 10
11.807288018
 20
7.7340543429
 11
11.821776906
 21
7.7137310173
  0
LINE
  5
2D5
100
AcDbEntity
  8
0
100
AcDbLine
 62
4
  6
CONTINUOUS
 10
11.7348435784
 20
7.5652117319
 11
11.7203546905
 21
7.6048535649
  0
LINE
  5
2D6
100
AcDbEntity
  8
0
100
AcDbLine
 62
4
  6
CONTINUOUS
 10
11.5464880353
 20
7.5396371941
 11
11.4740435957
 21
7.7764834399
  0
LINE
  5
2D7
100
AcDbEntity
  8
0
100
AcDbLine
 62
4
  6
CONTINUOUS
 10
11.7203546905
 20
7.6048535649
 11
11.7203546905
 21
7.6821276362
  0
LINE
  5
2D8
100
AcDbEntity
  8
0
100
AcDbLine
 62
4
  6
CONTINUOUS
 10
11.618932475
 20
7.766435362
 11
11.5464880353
 21
7.5396371941
  0
LINE
  5
2D9
100
AcDbEntity
  8
0
100
AcDbLine
 62
4
  6
CONTINUOUS
 10
11.0248880699
 20
7.6530843389
 11
11.0393769578
 21
7.6713980576
  0
LINE
  5
2DA
100
AcDbEntity
  8
0
100
AcDbLine
 62
4
  6
CONTINUOUS
 10
11.0973325095
 20
7.7060158586
 11
11.1263102854
 21
7.7426432752
  0
LINE
  5
2DB
100
AcDbEntity
  8
0
100
AcDbLine
 62
4
  6
CONTINUOUS
 10
11.1407991733
 20
7.6064088513
 11
11.1263102854
 21
7.5880951326
  0
LINE
  5
2DC
100
AcDbEntity
  8
0
100
AcDbLine
 62
4
  6
CONTINUOUS
 10
9.8029918114
 20
5.7286973645
 11
9.8174806993
 21
5.7470110745
  0
LINE
  5
2DD
100
AcDbEntity
  8
0
100
AcDbLine
 62
7
  6
CONTINUOUS
 10
13.8019249058
 20
10.416229477
 11
15.322744341
 21
11.8852283336
  0
LINE
  5
2DE
100
AcDbEntity
  8
0
100
AcDbLine
 62
4
  6
CONTINUOUS
 10
11.0393769578
 20
7.6713980576
 11
11.0973325095
 21
7.7060158586
  0
LINE
  5
2DF
100
AcDbEntity
  8
0
100
AcDbLine
 62
4
  6
CONTINUOUS
 10
11.821776906
 20
7.7137310173
 11
11.8362657939
 21
7.6740891739
  0
LINE
  5
2E0
100
AcDbEntity
  8
0
100
AcDbLine
 62
4
  6
CONTINUOUS
 10
11.8362657939
 20
7.6740891739
 11
11.8362657939
 21
7.5968151026
  0
LINE
  5
2E1
100
AcDbEntity
  8
0
100
AcDbLine
 62
4
  6
CONTINUOUS
 10
12.0101324491
 20
7.5074833448
 11
12.0101324491
 21
7.7393055516
  0
LINE
  5
2E2
100
AcDbEntity
  8
0
100
AcDbLine
 62
4
  6
CONTINUOUS
 10
11.7203546905
 20
7.6821276362
 11
11.7348435784
 21
7.719759864
  0
LINE
  5
2E3
100
AcDbEntity
  8
0
100
AcDbLine
 62
4
  6
CONTINUOUS
 10
11.8362657939
 20
7.5968151026
 11
11.821776906
 21
7.5591828851
  0
LINE
  5
2E4
100
AcDbEntity
  8
0
100
AcDbLine
 62
4
  6
CONTINUOUS
 10
9.8899251389
 20
5.5681203856
 11
9.875436251
 21
5.5498066669
  0
LINE
  5
2E5
100
AcDbEntity
  8
0
100
AcDbLine
 62
4
  6
CONTINUOUS
 10
11.7348435784
 20
7.719759864
 11
11.7493324663
 21
7.7380735741
  0
LINE
  5
2E6
100
AcDbEntity
  8
0
100
AcDbLine
 62
4
  6
CONTINUOUS
 10
11.1263102854
 20
7.5880951326
 11
11.0973325095
 21
7.5707862356
  0
LINE
  5
2E7
100
AcDbEntity
  8
0
100
AcDbLine
 62
4
  6
CONTINUOUS
 10
11.7493324663
 20
7.7380735741
 11
11.7783102422
 21
7.7553824763
  0
LINE
  5
2E8
100
AcDbEntity
  8
0
100
AcDbLine
 62
4
  6
CONTINUOUS
 10
8.9288287705
 20
9.8462097008
 11
8.8998509946
 21
9.8482193164
  0
LINE
  5
2E9
100
AcDbEntity
  8
0
100
AcDbLine
 62
4
  6
CONTINUOUS
 10
8.6680287877
 20
9.864296241
 11
8.6970065636
 21
9.8622866254
  0
LINE
  5
2EA
100
AcDbEntity
  8
0
100
AcDbLine
 62
4
  6
CONTINUOUS
 10
12.4737768628
 20
7.4753294955
 11
12.4737768628
 21
7.7071517023
  0
LINE
  5
2EB
100
AcDbEntity
  8
0
100
AcDbLine
 62
4
  6
CONTINUOUS
 10
11.821776906
 20
7.5591828851
 11
11.807288018
 21
7.5408691665
  0
LINE
  5
2EC
100
AcDbEntity
  8
0
100
AcDbLine
 62
4
  6
CONTINUOUS
 10
11.807288018
 20
7.5408691665
 11
11.7783102422
 21
7.5235602694
  0
LINE
  5
2ED
100
AcDbEntity
  8
0
100
AcDbLine
 62
4
  6
CONTINUOUS
 10
8.4941621326
 20
10.0309020701
 11
8.407228805
 21
10.0369309168
  0
LINE
  5
2EE
100
AcDbEntity
  8
0
100
AcDbLine
 62
4
  6
CONTINUOUS
 10
8.6680287877
 20
10.0961184479
 11
8.6970065636
 21
10.0941088323
  0
LINE
  5
2EF
100
AcDbEntity
  8
0
100
AcDbLine
 62
4
  6
CONTINUOUS
 10
8.8998509946
 20
10.0800415232
 11
8.9288287705
 21
10.0780319076
  0
LINE
  5
2F0
100
AcDbEntity
  8
0
100
AcDbLine
 62
4
  6
CONTINUOUS
 10
9.8174806993
 20
5.7470110745
 11
9.8464584751
 21
5.7643199767
  0
LINE
  5
2F1
100
AcDbEntity
  8
0
100
AcDbLine
 62
4
  6
CONTINUOUS
 10
9.875436251
 20
5.5498066669
 11
9.8464584751
 21
5.5324977699
  0
LINE
  5
2F2
100
AcDbEntity
  8
0
100
AcDbLine
 62
7
  6
CONTINUOUS
 10
6.677255659
 20
10.9103269675
 11
13.8019249058
 21
10.416229477
  0
LINE
  5
2F3
100
AcDbEntity
  8
0
100
AcDbLine
 62
7
  6
CONTINUOUS
 10
13.8019249058
 20
4.6206741759
 11
13.8019249058
 21
10.416229477
  0
LINE
  5
2F4
100
AcDbEntity
  8
0
100
AcDbLine
 62
7
  6
CONTINUOUS
 10
15.322744341
 20
11.8852283336
 11
8.1980750942
 21
12.3793258241
  0
LINE
  5
2F5
100
AcDbEntity
  8
0
100
AcDbLine
 62
7
  6
CONTINUOUS
 10
15.322744341
 20
6.0896730325
 11
15.322744341
 21
11.8852283336
  0
LINE
  5
2F6
100
AcDbEntity
  8
0
100
AcDbLine
 62
7
  6
CONTINUOUS
 10
13.8019249058
 20
4.6206741759
 11
15.322744341
 21
6.0896730325
  0
ARC
  5
2F7
100
AcDbEntity
  8
0
100
AcDbCircle
 62
7
  6
CONTINUOUS
 10
12.8265246864
 20
8.5673694288
 40
1.7363198675
100
AcDbArc
 50
142.1014220677
 51
148.6241569405
  0
ARC
  5
2F8
100
AcDbEntity
  8
0
100
AcDbCircle
 62
7
  6
CONTINUOUS
 10
8.4083351334
 20
8.6473914155
 40
0.8954777361
100
AcDbArc
 50
26.9826606318
 51
31.0887050487
  0
ARC
  5
2F9
100
AcDbEntity
  8
0
100
AcDbCircle
 62
7
  6
CONTINUOUS
 10
8.3070397476
 20
8.555904092
 40
0.8954777361
100
AcDbArc
 50
206.9826606318
 51
211.0887050487
  0
ARC
  5
2FA
100
AcDbEntity
  8
0
100
AcDbCircle
 62
7
  6
CONTINUOUS
 10
8.1598870736
 20
8.4074090038
 40
0.8954777361
100
AcDbArc
 50
26.9826606318
 51
31.0887050487
  0
ARC
  5
2FB
100
AcDbEntity
  8
0
100
AcDbCircle
 62
7
  6
CONTINUOUS
 10
8.4245405114
 20
8.7139236056
 40
0.8288085252
100
AcDbArc
 50
83.8695051668
 51
86.0307544453
  0
ARC
  5
2FC
100
AcDbEntity
  8
0
100
AcDbCircle
 62
7
  6
CONTINUOUS
 10
8.2908343696
 20
8.4893719018
 40
0.8288085252
100
AcDbArc
 50
263.8695051668
 51
266.0307544453
  0
ARC
  5
2FD
100
AcDbEntity
  8
0
100
AcDbCircle
 62
7
  6
CONTINUOUS
 10
8.1760924516
 20
8.4739411939
 40
0.8288085252
100
AcDbArc
 50
83.8695051668
 51
86.0307544453
  0
ARC
  5
2FE
100
AcDbEntity
  8
0
100
AcDbCircle
 62
7
  6
CONTINUOUS
 10
8.2903647286
 20
8.4828955522
 40
0.8223152013
100
AcDbArc
 50
266.0321629527
 51
268.2047714632
  0
ARC
  5
2FF
100
AcDbEntity
  8
0
100
AcDbCircle
 62
7
  6
CONTINUOUS
 10
8.1765620926
 20
8.4804175435
 40
0.8223152013
100
AcDbArc
 50
86.0321629527
 51
88.2047714632
  0
ARC
  5
300
100
AcDbEntity
  8
0
100
AcDbCircle
 62
7
  6
CONTINUOUS
 10
8.4250645381
 20
8.7214804383
 40
0.8212335449
100
AcDbArc
 50
86.0307319968
 51
88.2062024191
  0
ARC
  5
301
100
AcDbEntity
  8
0
100
AcDbCircle
 62
7
  6
CONTINUOUS
 10
11.7238214818
 20
8.8579145699
 40
0.7924288683
100
AcDbArc
 50
0.0056570498
 51
4.239305365
  0
ARC
  5
302
100
AcDbEntity
  8
0
100
AcDbCircle
 62
7
  6
CONTINUOUS
 10
9.7919694844
 20
6.818555723
 40
0.7924288683
100
AcDbArc
 50
0.0056570498
 51
4.239305365
  0
ARC
  5
303
100
AcDbEntity
  8
0
100
AcDbCircle
 62
7
  6
CONTINUOUS
 10
9.8659527779
 20
6.7841250172
 40
0.7498437952
100
AcDbArc
 50
310.5981785287
 51
312.4157633705
  0
ARC
  5
304
100
AcDbEntity
  8
0
100
AcDbCircle
 62
7
  6
CONTINUOUS
 10
11.7978047753
 20
8.823483864
 40
0.7498437952
100
AcDbArc
 50
310.5981785287
 51
312.4157633705
  0
ARC
  5
305
100
AcDbEntity
  8
0
100
AcDbCircle
 62
7
  6
CONTINUOUS
 10
9.7114760133
 20
6.9440486149
 40
0.7498084012
100
AcDbArc
 50
135.5422736849
 51
137.4164016546
  0
ARC
  5
306
100
AcDbEntity
  8
0
100
AcDbCircle
 62
7
  6
CONTINUOUS
 10
11.6433280107
 20
8.9834074617
 40
0.7498084012
100
AcDbArc
 50
135.5422736849
 51
137.4164016546
  0
ARC
  5
307
100
AcDbEntity
  8
0
100
AcDbCircle
 62
7
  6
CONTINUOUS
 10
8.5503748959
 20
8.6483736345
 40
0.7478985676
100
AcDbArc
 50
326.6610039569
 51
331.2909683674
  0
ARC
  5
308
100
AcDbEntity
  8
0
100
AcDbCircle
 62
7
  6
CONTINUOUS
 10
8.1649999851
 20
8.5549218729
 40
0.7478985676
100
AcDbArc
 50
146.6610039569
 51
151.2909683674
  0
ARC
  5
309
100
AcDbEntity
  8
0
100
AcDbCircle
 62
7
  6
CONTINUOUS
 10
8.3019268361
 20
8.4083912228
 40
0.7478985676
100
AcDbArc
 50
326.6610039569
 51
331.2909683674
  0
ARC
  5
30A
100
AcDbEntity
  8
0
100
AcDbCircle
 62
7
  6
CONTINUOUS
 10
10.4321215433
 20
7.5465858819
 40
0.6970592523
100
AcDbArc
 50
170.5472801334
 51
180.0287273565
  0
ARC
  5
30B
100
AcDbEntity
  8
0
100
AcDbCircle
 62
7
  6
CONTINUOUS
 10
12.3639735406
 20
9.5859447287
 40
0.6970592523
100
AcDbArc
 50
170.5472801334
 51
180.0287273565
  0
ARC
  5
30C
100
AcDbEntity
  8
0
100
AcDbCircle
 62
7
  6
CONTINUOUS
 10
10.4414704926
 20
7.5526501649
 40
0.6656436477
100
AcDbArc
 50
170.7130630571
 51
180.0277454756
  0
ARC
  5
30D
100
AcDbEntity
  8
0
100
AcDbCircle
 62
7
  6
CONTINUOUS
 10
12.37332249
 20
9.5920090118
 40
0.6656436477
100
AcDbArc
 50
170.7130630571
 51
180.0277454756
  0
ARC
  5
30E
100
AcDbEntity
  8
0
100
AcDbCircle
 62
7
  6
CONTINUOUS
 10
10.449565506
 20
7.5588979448
 40
0.6551019243
100
AcDbArc
 50
171.2237309855
 51
180.0248265782
  0
ARC
  5
30F
100
AcDbEntity
  8
0
100
AcDbCircle
 62
7
  6
CONTINUOUS
 10
12.3814175034
 20
9.5982567916
 40
0.6551019243
100
AcDbArc
 50
171.2237309855
 51
180.0248265782
  0
ARC
  5
310
100
AcDbEntity
  8
0
100
AcDbCircle
 62
7
  6
CONTINUOUS
 10
8.5519879769
 20
8.9001907287
 40
0.6255310451
100
AcDbArc
 50
110.8482165818
 51
120.9651561256
  0
ARC
  5
311
100
AcDbEntity
  8
0
100
AcDbCircle
 62
7
  6
CONTINUOUS
 10
8.6117499548
 20
8.8725127913
 40
0.2967644983
100
AcDbArc
 50
171.2964268282
 51
180.0216176032
  0
SPLINE
  5
312
100
AcDbEntity
  8
0
100
AcDbSpline
 62
7
  6
CONTINUOUS
 70
0
 71
3
 72
20
 73
16
 74
0
 42
0.0000001
 43
0.0000001
 44
0.0000000001
 40
0.0
 40
0.0
 40
0.0
 40
0.0
 40
0.130903728
 40
0.2613625692
 40
0.3262506506
 40
0.3907943963
 40
0.4548971867
 40
0.5184613269
 40
0.5813946704
 40
0.6436173185
 40
0.7050670825
 40
0.765702744
 40
0.8255049269
 40
0.8844743251
 40
1.0
 40
1.0
 40
1.0
 40
1.0
 10
7.5090402487
 20
8.9141837433
 30
0.0
 10
7.5067914942
 20
8.8808658297
 30
0.0
 10
7.5027000555
 20
8.8143154243
 30
0.0
 10
7.4987984385
 20
8.7311761523
 30
0.0
 10
7.4965409988
 20
8.6649153561
 30
0.0
 10
7.4953107771
 20
8.6155590012
 30
0.0
 10
7.4945622469
 20
8.566530721
 30
0.0
 10
7.4943094289
 20
8.5179081441
 30
0.0
 10
7.4945572782
 20
8.4697651497
 30
0.0
 10
7.4953011561
 20
8.4221667117
 30
0.0
 10
7.4965273017
 20
8.3751646169
 30
0.0
 10
7.4982140911
 20
8.3287947308
 30
0.0
 10
7.500333953
 20
8.2830760495
 30
0.0
 10
7.5036727286
 20
8.2233991831
 30
0.0
 10
7.5067597708
 20
8.1789895749
 30
0.0
 10
7.5090402487
 20
8.1496071863
 30
0.0
  0
SPLINE
  5
313
100
AcDbEntity
  8
0
100
AcDbSpline
 62
7
  6
CONTINUOUS
 70
0
 71
3
 72
21
 73
17
 74
0
 42
0.0000001
 43
0.0000001
 44
0.0000000001
 40
0.0
 40
0.0
 40
0.0
 40
0.0
 40
0.1208889578
 40
0.1820501544
 40
0.243680402
 40
0.3057553376
 40
0.3682347446
 40
0.4310624944
 40
0.4941688643
 40
0.5574746635
 40
0.6208967835
 40
0.6843541476
 40
0.74777292
 40
0.8110903649
 40
0.8742564801
 40
1.0
 40
1.0
 40
1.0
 40
1.0
 10
7.5401804689
 20
8.0935111611
 30
0.0
 10
7.5651137657
 20
8.0737297283
 30
0.0
 10
7.6029455691
 20
8.0442946758
 30
0.0
 10
7.6542202401
 20
8.005733571
 30
0.0
 10
7.6934598723
 20
7.9769370133
 30
0.0
 10
7.7333356506
 20
7.9484269783
 30
0.0
 10
7.7738361085
 20
7.920255459
 30
0.0
 10
7.8149340848
 20
7.8924750199
 30
0.0
 10
7.8565871843
 20
7.865135445
 30
0.0
 10
7.8987398888
 20
7.838280299
 30
0.0
 10
7.9413271838
 20
7.8119438004
 30
0.0
 10
7.9842791334
 20
7.7861486697
 30
0.0
 10
8.0275255384
 20
7.7609052225
 30
0.0
 10
8.0710000499
 20
7.7362117186
 30
0.0
 10
8.1291007035
 20
7.7040536788
 30
0.0
 10
8.1729828682
 20
7.6806364201
 30
0.0
 10
8.2023231904
 20
7.6653031289
 30
0.0
  0
SPLINE
  5
314
100
AcDbEntity
  8
0
100
AcDbSpline
 62
7
  6
CONTINUOUS
 70
0
 71
3
 72
15
 73
11
 74
0
 42
0.0000001
 43
0.0000001
 44
0.0000000001
 40
0.0
 40
0.0
 40
0.0
 40
0.0
 40
0.1121788873
 40
0.2284766138
 40
0.3490756499
 40
0.4737991563
 40
0.6020824398
 40
0.7330999558
 40
0.865983511
 40
1.0
 40
1.0
 40
1.0
 40
1.0
 10
8.2646036308
 20
7.6609839657
 30
0.0
 10
8.2897765836
 20
7.6727233768
 30
0.0
 10
8.3409599481
 20
7.6968199901
 30
0.0
 10
8.4188611038
 20
7.7342639498
 30
0.0
 10
8.4992210375
 20
7.7737549672
 30
0.0
 10
8.5818752997
 20
7.8152975534
 30
0.0
 10
8.6664590654
 20
7.8587372033
 30
0.0
 10
8.7524826762
 20
7.9037886262
 30
0.0
 10
8.8394430088
 20
7.9501054923
 30
0.0
 10
8.8975882383
 20
7.9815126488
 30
0.0
 10
8.9267463524
 20
7.9973524905
 30
0.0
  0
SPLINE
  5
315
100
AcDbEntity
  8
0
100
AcDbSpline
 62
7
  6
CONTINUOUS
 70
0
 71
3
 72
20
 73
16
 74
0
 42
0.0000001
 43
0.0000001
 44
0.0000000001
 40
0.0
 40
0.0
 40
0.0
 40
0.0
 40
0.130903728
 40
0.2613625692
 40
0.3262506506
 40
0.3907943963
 40
0.4548971867
 40
0.5184613269
 40
0.5813946704
 40
0.6436173185
 40
0.7050670825
 40
0.765702744
 40
0.8255049269
 40
0.8844743251
 40
1.0
 40
1.0
 40
1.0
 40
1.0
 10
9.2063346323
 20
8.2891117641
 30
0.0
 10
9.2085833868
 20
8.3224296777
 30
0.0
 10
9.2126748255
 20
8.3889800831
 30
0.0
 10
9.2165764425
 20
8.4721193551
 30
0.0
 10
9.2188338822
 20
8.5383801513
 30
0.0
 10
9.2200641039
 20
8.5877365062
 30
0.0
 10
9.2208126341
 20
8.6367647864
 30
0.0
 10
9.2210654521
 20
8.6853873633
 30
0.0
 10
9.2208176028
 20
8.7335303577
 30
0.0
 10
9.2200737249
 20
8.7811287957
 30
0.0
 10
9.2188475793
 20
8.8281308905
 30
0.0
 10
9.2171607899
 20
8.8745007766
 30
0.0
 10
9.215040928
 20
8.9202194579
 30
0.0
 10
9.2117021524
 20
8.9798963243
 30
0.0
 10
9.2086151102
 20
9.0243059325
 30
0.0
 10
9.2063346323
 20
9.0536883211
 30
0.0
  0
SPLINE
  5
316
100
AcDbEntity
  8
0
100
AcDbSpline
 62
7
  6
CONTINUOUS
 70
0
 71
3
 72
21
 73
17
 74
0
 42
0.0000001
 43
0.0000001
 44
0.0000000001
 40
0.0
 40
0.0
 40
0.0
 40
0.0
 40
0.1208889578
 40
0.1820501544
 40
0.243680402
 40
0.3057553376
 40
0.3682347446
 40
0.4310624944
 40
0.4941688643
 40
0.5574746635
 40
0.6208967835
 40
0.6843541476
 40
0.74777292
 40
0.8110903649
 40
0.8742564801
 40
1.0
 40
1.0
 40
1.0
 40
1.0
 10
9.1751944121
 20
9.1097843463
 30
0.0
 10
9.1502611153
 20
9.1295657791
 30
0.0
 10
9.1124293119
 20
9.1590008316
 30
0.0
 10
9.0611546409
 20
9.1975619364
 30
0.0
 10
9.0219150087
 20
9.2263584941
 30
0.0
 10
8.9820392304
 20
9.2548685291
 30
0.0
 10
8.9415387725
 20
9.2830400484
 30
0.0
 10
8.9004407962
 20
9.3108204875
 30
0.0
 10
8.8587876967
 20
9.3381600624
 30
0.0
 10
8.8166349922
 20
9.3650152084
 30
0.0
 10
8.7740476972
 20
9.391351707
 30
0.0
 10
8.7310957476
 20
9.4171468377
 30
0.0
 10
8.6878493426
 20
9.4423902849
 30
0.0
 10
8.6443748311
 20
9.4670837889
 30
0.0
 10
8.5862741775
 20
9.4992418286
 30
0.0
 10
8.5423920128
 20
9.5226590873
 30
0.0
 10
8.5130516906
 20
9.5379923785
 30
0.0
  0
SPLINE
  5
317
100
AcDbEntity
  8
0
100
AcDbSpline
 62
7
  6
CONTINUOUS
 70
0
 71
3
 72
15
 73
11
 74
0
 42
0.0000001
 43
0.0000001
 44
0.0000000001
 40
0.0
 40
0.0
 40
0.0
 40
0.0
 40
0.1121788873
 40
0.2284766138
 40
0.3490756499
 40
0.4737991563
 40
0.6020824398
 40
0.7330999558
 40
0.865983511
 40
1.0
 40
1.0
 40
1.0
 40
1.0
 10
8.4507712502
 20
9.5423115417
 30
0.0
 10
8.4255982974
 20
9.5305721306
 30
0.0
 10
8.3744149329
 20
9.5064755173
 30
0.0
 10
8.2965137772
 20
9.4690315576
 30
0.0
 10
8.2161538435
 20
9.4295405402
 30
0.0
 10
8.1334995813
 20
9.387997954
 30
0.0
 10
8.0489158156
 20
9.3445583041
 30
0.0
 10
7.9628922048
 20
9.2995068812
 30
0.0
 10
7.8759318722
 20
9.2531900151
 30
0.0
 10
7.8177866427
 20
9.2217828586
 30
0.0
 10
7.7886285286
 20
9.2059430169
 30
0.0
  0
SPLINE
  5
318
100
AcDbEntity
  8
0
100
AcDbSpline
 62
7
  6
CONTINUOUS
 70
0
 71
3
 72
22
 73
18
 74
0
 42
0.0000001
 43
0.0000001
 44
0.0000000001
 40
0.0
 40
0.0
 40
0.0
 40
0.0
 40
0.0616506642
 40
0.1233243646
 40
0.1850438835
 40
0.2468315023
 40
0.3087086176
 40
0.3706958102
 40
0.4328124421
 40
0.495076291
 40
0.5575035118
 40
0.6201089705
 40
0.6829056126
 40
0.7459025404
 40
0.8091073912
 40
0.8725320829
 40
1.0
 40
1.0
 40
1.0
 40
1.0
 10
7.9110232329
 20
8.8167058446
 30
0.0
 10
7.9162414428
 20
8.8217462802
 30
0.0
 10
7.9269534224
 20
8.8315501175
 30
0.0
 10
7.9437914584
 20
8.8453742616
 30
0.0
 10
7.9613609298
 20
8.8582843325
 30
0.0
 10
7.9796164601
 20
8.8702479106
 30
0.0
 10
7.9985126656
 20
8.8812343129
 30
0.0
 10
8.0180014346
 20
8.8912166321
 30
0.0
 10
8.0380341119
 20
8.9001688967
 30
0.0
 10
8.0585597697
 20
8.9080695545
 30
0.0
 10
8.0795270982
 20
8.9148977685
 30
0.0
 10
8.1008829939
 20
8.9206374248
 30
0.0
 10
8.1225739807
 20
8.9252729109
 30
0.0
 10
8.1445445591
 20
8.9287939656
 30
0.0
 10
8.1667413219
 20
8.9311906986
 30
0.0
 10
8.1966043503
 20
8.9328830097
 30
0.0
 10
8.2191144639
 20
8.9324444286
 30
0.0
 10
8.2340789392
 20
8.9314066387
 30
0.0
  0
SPLINE
  5
319
100
AcDbEntity
  8
0
100
AcDbSpline
 62
7
  6
CONTINUOUS
 70
0
 71
3
 72
42
 73
38
 74
0
 42
0.0000001
 43
0.0000001
 44
0.0000000001
 40
0.0
 40
0.0
 40
0.0
 40
0.0
 40
0.0299388229
 40
0.0599012856
 40
0.0749015006
 40
0.0899162332
 40
0.1049481811
 40
0.1199999368
 40
0.150167152
 40
0.1804418905
 40
0.1956273759
 40
0.2108454565
 40
0.2413799265
 40
0.2720607995
 40
0.3028947834
 40
0.3338852663
 40
0.3650323046
 40
0.3963326271
 40
0.4277797198
 40
0.4593640989
 40
0.4910734902
 40
0.5228930812
 40
0.5548059152
 40
0.58679315
 40
0.6188345328
 40
0.6509087877
 40
0.6829938979
 40
0.7150677415
 40
0.7471084015
 40
0.7790945236
 40
0.8110059181
 40
0.8428237218
 40
0.8745311173
 40
0.9061134204
 40
0.9375571819
 40
0.9688570591
 40
1.0
 40
1.0
 40
1.0
 40
1.0
 10
8.5571346454
 20
8.1477963611
 30
0.0
 10
8.5647362125
 20
8.1551389574
 30
0.0
 10
8.5793759598
 20
8.1704320124
 30
0.0
 10
8.5961267879
 20
8.1909263475
 30
0.0
 10
8.608546702
 20
8.2080791846
 30
0.0
 10
8.6173658264
 20
8.2213165741
 30
0.0
 10
8.6256732654
 20
8.2349022609
 30
0.0
 10
8.6360588924
 20
8.2534685482
 30
0.0
 10
8.647709584
 20
8.2774684224
 30
0.0
 10
8.6574983766
 20
8.3023360604
 30
0.0
 10
8.6641944483
 20
8.322687344
 30
0.0
 10
8.6701378129
 20
8.3433664065
 30
0.0
 10
8.6761134935
 20
8.3697066152
 30
0.0
 10
8.6809133598
 20
8.4018742425
 30
0.0
 10
8.6833269364
 20
8.4344702029
 30
0.0
 10
8.6833415476
 20
8.4673192587
 30
0.0
 10
8.6809576119
 20
8.5002463801
 30
0.0
 10
8.6761879377
 20
8.5330757624
 30
0.0
 10
8.6690583757
 20
8.5656322971
 30
0.0
 10
8.6596074581
 20
8.5977424252
 30
0.0
 10
8.6478858435
 20
8.6292350026
 30
0.0
 10
8.6339560083
 20
8.6599420914
 30
0.0
 10
8.6178925038
 20
8.6897000662
 30
0.0
 10
8.5997812831
 20
8.7183504678
 30
0.0
 10
8.579718934
 20
8.7457406356
 30
0.0
 10
8.5578122634
 20
8.7717244541
 30
0.0
 10
8.5341781943
 20
8.7961635351
 30
0.0
 10
8.5089427918
 20
8.8189277151
 30
0.0
 10
8.4822405052
 20
8.8398956263
 30
0.0
 10
8.4542134459
 20
8.8589552196
 30
0.0
 10
8.4250110683
 20
8.876004885
 30
0.0
 10
8.3947890535
 20
8.8909538072
 30
0.0
 10
8.3637082636
 20
8.9037220052
 30
0.0
 10
8.3319347323
 20
8.9142406257
 30
0.0
 10
8.2996364711
 20
8.9224545971
 30
0.0
 10
8.2669889376
 20
8.9283178943
 30
0.0
 10
8.2450463687
 20
8.9306460449
 30
0.0
 10
8.2340789392
 20
8.9314066387
 30
0.0
  0
SPLINE
  5
31A
100
AcDbEntity
  8
0
100
AcDbSpline
 62
7
  6
CONTINUOUS
 70
0
 71
3
 72
20
 73
16
 74
0
 42
0.0000001
 43
0.0000001
 44
0.0000000001
 40
0.0
 40
0.0
 40
0.0
 40
0.0
 40
0.1155256749
 40
0.1744950731
 40
0.234297256
 40
0.2949329175
 40
0.3563826815
 40
0.4186053296
 40
0.4815386731
 40
0.5451028134
 40
0.6092056037
 40
0.6737493494
 40
0.7386374308
 40
0.869096272
 40
1.0
 40
1.0
 40
1.0
 40
1.0
 10
8.9578865726
 20
8.0491293524
 30
0.0
 10
8.9556060947
 20
8.0785117411
 30
0.0
 10
8.9525190525
 20
8.1229213493
 30
0.0
 10
8.9491802769
 20
8.1825982157
 30
0.0
 10
8.947060415
 20
8.228316897
 30
0.0
 10
8.9453736256
 20
8.2746867831
 30
0.0
 10
8.94414748
 20
8.3216888779
 30
0.0
 10
8.9434036021
 20
8.3692873159
 30
0.0
 10
8.9431557529
 20
8.4174303103
 30
0.0
 10
8.9434085709
 20
8.4660528872
 30
0.0
 10
8.944157101
 20
8.5150811674
 30
0.0
 10
8.9453873228
 20
8.5644375223
 30
0.0
 10
8.9476447624
 20
8.6306983185
 30
0.0
 10
8.9515463794
 20
8.7138375905
 30
0.0
 10
8.9556378182
 20
8.7803879959
 30
0.0
 10
8.9578865726
 20
8.8137059095
 30
0.0
  0
SPLINE
  5
31B
100
AcDbEntity
  8
0
100
AcDbSpline
 62
7
  6
CONTINUOUS
 70
0
 71
3
 72
21
 73
17
 74
0
 42
0.0000001
 43
0.0000001
 44
0.0000000001
 40
0.0
 40
0.0
 40
0.0
 40
0.0
 40
0.1257435199
 40
0.1889096351
 40
0.25222708
 40
0.3156458524
 40
0.3791032165
 40
0.4425253365
 40
0.5058311357
 40
0.5689375056
 40
0.6317652554
 40
0.6942446624
 40
0.756319598
 40
0.8179498457
 40
0.8791110422
 40
1.0
 40
1.0
 40
1.0
 40
1.0
 10
8.9267463524
 20
8.8698019347
 30
0.0
 10
8.8974060301
 20
8.8851352259
 30
0.0
 10
8.8535238654
 20
8.9085524846
 30
0.0
 10
8.7954232118
 20
8.9407105243
 30
0.0
 10
8.7519487003
 20
8.9654040283
 30
0.0
 10
8.7087022953
 20
8.9906474755
 30
0.0
 10
8.6657503457
 20
9.0164426062
 30
0.0
 10
8.6231630507
 20
9.0427791048
 30
0.0
 10
8.5810103462
 20
9.0696342508
 30
0.0
 10
8.5393572467
 20
9.0969738257
 30
0.0
 10
8.4982592704
 20
9.1247542648
 30
0.0
 10
8.4577588126
 20
9.1529257841
 30
0.0
 10
8.4178830342
 20
9.1814358191
 30
0.0
 10
8.378643402
 20
9.2102323768
 30
0.0
 10
8.327368731
 20
9.2487934816
 30
0.0
 10
8.2895369277
 20
9.278228534
 30
0.0
 10
8.2646036308
 20
9.2980099669
 30
0.0
  0
SPLINE
  5
31C
100
AcDbEntity
  8
0
100
AcDbSpline
 62
7
  6
CONTINUOUS
 70
0
 71
3
 72
15
 73
11
 74
0
 42
0.0000001
 43
0.0000001
 44
0.0000000001
 40
0.0
 40
0.0
 40
0.0
 40
0.0
 40
0.134016489
 40
0.2669000442
 40
0.3979175602
 40
0.5262008437
 40
0.6509243501
 40
0.7715233862
 40
0.8878211127
 40
1.0
 40
1.0
 40
1.0
 40
1.0
 10
8.2023231904
 20
9.3023291301
 30
0.0
 10
8.1731650763
 20
9.2864892884
 30
0.0
 10
8.1150198468
 20
9.2550821319
 30
0.0
 10
8.0280595142
 20
9.2087652658
 30
0.0
 10
7.9420359035
 20
9.1637138429
 30
0.0
 10
7.8574521377
 20
9.120274193
 30
0.0
 10
7.7747978755
 20
9.0787316068
 30
0.0
 10
7.6944379418
 20
9.0392405894
 30
0.0
 10
7.6165367861
 20
9.0017966297
 30
0.0
 10
7.5653534217
 20
8.9777000164
 30
0.0
 10
7.5401804689
 20
8.9659606053
 30
0.0
  0
SPLINE
  5
31D
100
AcDbEntity
  8
0
100
AcDbSpline
 62
7
  6
CONTINUOUS
 70
0
 71
3
 72
27
 73
23
 74
0
 42
0.0000001
 43
0.0000001
 44
0.0000000001
 40
0.0
 40
0.0
 40
0.0
 40
0.0
 40
0.0614914126
 40
0.1234366384
 40
0.185803795
 40
0.2485408524
 40
0.3115795301
 40
0.3748379804
 40
0.4382247686
 40
0.5016428535
 40
0.5649938412
 40
0.62818225
 40
0.6911196946
 40
0.753728847
 40
0.7849010124
 40
0.8159690261
 40
0.8469278805
 40
0.8777737897
 40
0.9085043396
 40
0.9391184313
 40
0.9696164184
 40
1.0
 40
1.0
 40
1.0
 40
1.0
 10
8.3149854777
 20
8.8724008225
 30
0.0
 10
8.3149854777
 20
8.8613444948
 30
0.0
 10
8.3162091284
 20
8.839131931
 30
0.0
 10
8.3216440791
 20
8.8061072616
 30
0.0
 10
8.3306182961
 20
8.7736286329
 30
0.0
 10
8.343022893
 20
8.7420903576
 30
0.0
 10
8.3587080373
 20
8.7118685238
 30
0.0
 10
8.3774851045
 20
8.6833251261
 30
0.0
 10
8.3991287204
 20
8.6568015672
 30
0.0
 10
8.4233795856
 20
8.6326152861
 30
0.0
 10
8.4499471968
 20
8.611055956
 30
0.0
 10
8.4785143253
 20
8.5923818344
 30
0.0
 10
8.5087367595
 20
8.5768178521
 30
0.0
 10
8.5350494301
 20
8.5665773722
 30
0.0
 10
8.5565570277
 20
8.5601169261
 30
0.0
 10
8.5728475342
 20
8.5561533296
 30
0.0
 10
8.5892688323
 20
8.5530783425
 30
0.0
 10
8.60577201
 20
8.5509004401
 30
0.0
 10
8.6223073334
 20
8.5496268504
 30
0.0
 10
8.6388252677
 20
8.5492609284
 30
0.0
 10
8.6552754554
 20
8.5498043005
 30
0.0
 10
8.6661859148
 20
8.550773251
 30
0.0
 10
8.6716118442
 20
8.5514090474
 30
0.0
  0
SPLINE
  5
31E
100
AcDbEntity
  8
0
100
AcDbSpline
 62
7
  6
CONTINUOUS
 70
0
 71
3
 72
43
 73
39
 74
0
 42
0.0000001
 43
0.0000001
 44
0.0000000001
 40
0.0
 40
0.0
 40
0.0
 40
0.0
 40
0.0308047404
 40
0.061745019
 40
0.0928072394
 40
0.1239906507
 40
0.1552899337
 40
0.1866959443
 40
0.2181992347
 40
0.2497891575
 40
0.2814534852
 40
0.3131791375
 40
0.3449522441
 40
0.3767581776
 40
0.4085819473
 40
0.4404083021
 40
0.4722219815
 40
0.504007838
 40
0.535751131
 40
0.5674377317
 40
0.5990542054
 40
0.6305881369
 40
0.6620281794
 40
0.693364351
 40
0.7089924565
 40
0.7245915192
 40
0.7556958217
 40
0.7866754546
 40
0.8175269378
 40
0.8329058322
 40
0.8482522202
 40
0.8635662301
 40
0.878848088
 40
0.9093131306
 40
0.939655181
 40
0.9547837496
 40
0.9698840035
 40
1.0
 40
1.0
 40
1.0
 40
1.0
 10
8.1176294018
 20
8.7917694806
 30
0.0
 10
8.1176294018
 20
8.7834718511
 30
0.0
 10
8.1181380076
 20
8.7668357676
 30
0.0
 10
8.1204100314
 20
8.7419260817
 30
0.0
 10
8.1241863999
 20
8.7170957189
 30
0.0
 10
8.1294520831
 20
8.6924396047
 30
0.0
 10
8.1361867554
 20
8.6680476068
 30
0.0
 10
8.1443666099
 20
8.6440106518
 30
0.0
 10
8.1539602205
 20
8.6204178079
 30
0.0
 10
8.1649323168
 20
8.5973566609
 30
0.0
 10
8.1772422227
 20
8.574912803
 30
0.0
 10
8.1908437166
 20
8.5531691911
 30
0.0
 10
8.2056870406
 20
8.5322069429
 30
0.0
 10
8.2217163975
 20
8.5121033232
 30
0.0
 10
8.238872686
 20
8.4929331685
 30
0.0
 10
8.2570923086
 20
8.4747676804
 30
0.0
 10
8.2763072571
 20
8.4576737875
 30
0.0
 10
8.2964468603
 20
8.4417156078
 30
0.0
 10
8.3174358865
 20
8.4269517263
 30
0.0
 10
8.3391967706
 20
8.4134372602
 30
0.0
 10
8.3616488215
 20
8.4012225619
 30
0.0
 10
8.3847086081
 20
8.3903523665
 30
0.0
 10
8.4082904696
 20
8.3808681162
 30
0.0
 10
8.4283236809
 20
8.374141589
 30
0.0
 10
8.4445228757
 20
8.3694881866
 30
0.0
 10
8.4607917966
 20
8.3653303618
 30
0.0
 10
8.4812885519
 20
8.3610527089
 30
0.0
 10
8.5060696952
 20
8.3574089495
 30
0.0
 10
8.5268047513
 20
8.3556278201
 30
0.0
 10
8.5433799785
 20
8.354963033
 30
0.0
 10
8.5557826584
 20
8.3548446104
 30
0.0
 10
8.5681570137
 20
8.3551057753
 30
0.0
 10
8.5845845635
 20
8.3559584248
 30
0.0
 10
8.6049952592
 20
8.357969098
 30
0.0
 10
8.625200521
 20
8.3612402585
 30
0.0
 10
8.6411678155
 20
8.3646051083
 30
0.0
 10
8.6569614431
 20
8.3684567288
 30
0.0
 10
8.6686544316
 20
8.3719032142
 30
0.0
 10
8.6763583646
 20
8.3744440233
 30
0.0
  0
SPLINE
  5
31F
100
AcDbEntity
  8
0
100
AcDbSpline
 62
7
  6
CONTINUOUS
 70
0
 71
3
 72
14
 73
10
 74
0
 42
0.0000001
 43
0.0000001
 44
0.0000000001
 40
0.0
 40
0.0
 40
0.0
 40
0.0
 40
0.2525992956
 40
0.3782359844
 40
0.5034040275
 40
0.628137716
 40
0.7524613514
 40
0.8764029737
 40
1.0
 40
1.0
 40
1.0
 40
1.0
 10
8.2403184524
 20
8.8002780102
 30
0.0
 10
8.2403184524
 20
8.811340103
 30
0.0
 10
8.241233033
 20
8.8279244419
 30
0.0
 10
8.2442994991
 20
8.8497637793
 30
0.0
 10
8.2475046806
 20
8.8659041666
 30
0.0
 10
8.2516097872
 20
8.8817791563
 30
0.0
 10
8.2566014458
 20
8.8973421966
 30
0.0
 10
8.2624654423
 20
8.9125440305
 30
0.0
 10
8.2669500605
 20
8.9224213465
 30
0.0
 10
8.2693309606
 20
8.9272822653
 30
0.0
  0
SPLINE
  5
320
100
AcDbEntity
  8
0
100
AcDbSpline
 62
7
  6
CONTINUOUS
 70
0
 71
3
 72
14
 73
10
 74
0
 42
0.0000001
 43
0.0000001
 44
0.0000000001
 40
0.0
 40
0.0
 40
0.0
 40
0.0
 40
0.2521063665
 40
0.3776413195
 40
0.5027967364
 40
0.6275935315
 40
0.7520505933
 40
0.8761809698
 40
1.0
 40
1.0
 40
1.0
 40
1.0
 10
8.1176294018
 20
8.7917694806
 30
0.0
 10
8.1176294018
 20
8.8034800364
 30
0.0
 10
8.1183868708
 20
8.8210347619
 30
0.0
 10
8.120924406
 20
8.8442569602
 30
0.0
 10
8.1235811508
 20
8.8615013567
 30
0.0
 10
8.1269885812
 20
8.8785616023
 30
0.0
 10
8.1311408404
 20
8.8954072917
 30
0.0
 10
8.1360292497
 20
8.912006558
 30
0.0
 10
8.1397785231
 20
8.9229015817
 30
0.0
 10
8.1417725971
 20
8.92829634
 30
0.0
  0
SPLINE
  5
321
100
AcDbEntity
  8
0
100
AcDbSpline
 62
7
  6
CONTINUOUS
 70
0
 71
3
 72
14
 73
10
 74
0
 42
0.0000001
 43
0.0000001
 44
0.0000000001
 40
0.0
 40
0.0
 40
0.0
 40
0.0
 40
0.2524626898
 40
0.3780778061
 40
0.5032553478
 40
0.6280190458
 40
0.7523841052
 40
0.8763690395
 40
1.0
 40
1.0
 40
1.0
 40
1.0
 10
8.5151111717
 20
8.3460866875
 30
0.0
 10
8.5287730582
 20
8.3451392324
 30
0.0
 10
8.5493242441
 20
8.3447449406
 30
0.0
 10
8.5765862269
 20
8.3463106998
 30
0.0
 10
8.5968476856
 20
8.3485204991
 30
0.0
 10
8.6169001509
 20
8.3517627463
 30
0.0
 10
8.6366944523
 20
8.3560283605
 30
0.0
 10
8.6561786339
 20
8.3613074811
 30
0.0
 10
8.6689474032
 20
8.3654991185
 30
0.0
 10
8.6752614748
 20
8.3677589578
 30
0.0
  0
SPLINE
  5
322
100
AcDbEntity
  8
0
100
AcDbSpline
 62
7
  6
CONTINUOUS
 70
0
 71
3
 72
14
 73
10
 74
0
 42
0.0000001
 43
0.0000001
 44
0.0000000001
 40
0.0
 40
0.0
 40
0.0
 40
0.0
 40
0.2521505723
 40
0.3776994589
 40
0.5028638075
 40
0.6276623938
 40
0.7521103576
 40
0.876218186
 40
1.0
 40
1.0
 40
1.0
 40
1.0
 10
8.5086857194
 20
8.2983453638
 30
0.0
 10
8.5216372368
 20
8.2974471731
 30
0.0
 10
8.5411098144
 20
8.2969374521
 30
0.0
 10
8.5669865026
 20
8.2979597932
 30
0.0
 10
8.586260189
 20
8.2995720874
 30
0.0
 10
8.605386841
 20
8.3020279751
 30
0.0
 10
8.6243320754
 20
8.3053228355
 30
0.0
 10
8.643059563
 20
8.3094500098
 30
0.0
 10
8.6553924294
 20
8.3127563049
 30
0.0
 10
8.661509382
 20
8.3145454149
 30
0.0
  0
SPLINE
  5
323
100
AcDbEntity
  8
0
100
AcDbSpline
 62
7
  6
CONTINUOUS
 70
0
 71
3
 72
22
 73
18
 74
0
 42
0.0000001
 43
0.0000001
 44
0.0000000001
 40
0.0
 40
0.0
 40
0.0
 40
0.0
 40
0.1274679171
 40
0.1908926088
 40
0.2540974596
 40
0.3170943874
 40
0.3798910295
 40
0.4424964882
 40
0.504923709
 40
0.5671875579
 40
0.6293041898
 40
0.6912913824
 40
0.7531684977
 40
0.8149561165
 40
0.8766756354
 40
0.9383493358
 40
1.0
 40
1.0
 40
1.0
 40
1.0
 10
8.2340789392
 20
8.033095567
 30
0.0
 10
8.2490434145
 20
8.0320577771
 30
0.0
 10
8.2715535281
 20
8.031619196
 30
0.0
 10
8.3014165564
 20
8.0333115071
 30
0.0
 10
8.3236133193
 20
8.0357082401
 30
0.0
 10
8.3455838977
 20
8.0392292948
 30
0.0
 10
8.3672748845
 20
8.0438647809
 30
0.0
 10
8.3886307801
 20
8.0496044373
 30
0.0
 10
8.4095981087
 20
8.0564326512
 30
0.0
 10
8.4301237665
 20
8.064333309
 30
0.0
 10
8.4501564437
 20
8.0732855737
 30
0.0
 10
8.4696452128
 20
8.0832678928
 30
0.0
 10
8.4885414183
 20
8.0942542951
 30
0.0
 10
8.5067969485
 20
8.1062178732
 30
0.0
 10
8.52436642
 20
8.1191279441
 30
0.0
 10
8.541204456
 20
8.1329520882
 30
0.0
 10
8.5519164356
 20
8.1427559256
 30
0.0
 10
8.5571346454
 20
8.1477963611
 30
0.0
  0
SPLINE
  5
324
100
AcDbEntity
  8
0
100
AcDbSpline
 62
7
  6
CONTINUOUS
 70
0
 71
3
 72
23
 73
19
 74
0
 42
0.0000001
 43
0.0000001
 44
0.0000000001
 40
0.0
 40
0.0
 40
0.0
 40
0.0
 40
0.0613028236
 40
0.1230130137
 40
0.1851073539
 40
0.2475483091
 40
0.3102858929
 40
0.3732593398
 40
0.4363996894
 40
0.4996320156
 40
0.5628782539
 40
0.6260598565
 40
0.6891004582
 40
0.7519287399
 40
0.8144807171
 40
0.8767024113
 40
0.9385516346
 40
1.0
 40
1.0
 40
1.0
 40
1.0
 10
8.1074904488
 20
8.7819760035
 30
0.0
 10
8.1074904488
 20
8.768596683
 30
0.0
 10
8.1088142745
 20
8.7417312945
 30
0.0
 10
8.1147045947
 20
8.7017035365
 30
0.0
 10
8.1244481233
 20
8.6621766819
 30
0.0
 10
8.1379500707
 20
8.6235354796
 30
0.0
 10
8.1550797663
 20
8.5861494604
 30
0.0
 10
8.1756719778
 20
8.5503777107
 30
0.0
 10
8.1995284702
 20
8.51656332
 30
0.0
 10
8.2264199206
 20
8.4850307226
 30
0.0
 10
8.2560880691
 20
8.4560825121
 30
0.0
 10
8.2882481767
 20
8.429996626
 30
0.0
 10
8.322591673
 20
8.4070237073
 30
0.0
 10
8.3587891939
 20
8.3873847452
 30
0.0
 10
8.3964931164
 20
8.371268989
 30
0.0
 10
8.4353429831
 20
8.3588320164
 30
0.0
 10
8.4749607212
 20
8.350194754
 30
0.0
 10
8.5017322209
 20
8.3470145209
 30
0.0
 10
8.5151111717
 20
8.3460866875
 30
0.0
  0
SPLINE
  5
325
100
AcDbEntity
  8
0
100
AcDbSpline
 62
7
  6
CONTINUOUS
 70
0
 71
3
 72
42
 73
38
 74
0
 42
0.0000001
 43
0.0000001
 44
0.0000000001
 40
0.0
 40
0.0
 40
0.0
 40
0.0
 40
0.0308473939
 40
0.0618241075
 40
0.0929164611
 40
0.124122956
 40
0.1554380242
 40
0.1868525536
 40
0.2183572465
 40
0.2499418075
 40
0.2815945584
 40
0.3133031011
 40
0.3450543687
 40
0.3768346576
 40
0.3927328148
 40
0.4086329564
 40
0.440429089
 40
0.4722118515
 40
0.5039671435
 40
0.5356812952
 40
0.5673411539
 40
0.598934149
 40
0.6304486709
 40
0.6618740665
 40
0.6932008256
 40
0.7244207183
 40
0.7555269146
 40
0.7865141375
 40
0.8173786088
 40
0.8481182916
 40
0.863442828
 40
0.8787361928
 40
0.9092269725
 40
0.9395971372
 40
0.9547401403
 40
0.9698549485
 40
1.0
 40
1.0
 40
1.0
 40
1.0
 10
8.5086857194
 20
8.2983453638
 30
0.0
 10
8.499863331
 20
8.2989571986
 30
0.0
 10
8.4822133371
 20
8.3007029244
 30
0.0
 10
8.455887383
 20
8.3048599403
 30
0.0
 10
8.4297432412
 20
8.3105486467
 30
0.0
 10
8.4038739517
 20
8.3177482101
 30
0.0
 10
8.3783672608
 20
8.3264331242
 30
0.0
 10
8.3533117695
 20
8.3365745025
 30
0.0
 10
8.3287938817
 20
8.3481362479
 30
0.0
 10
8.3048984105
 20
8.361078801
 30
0.0
 10
8.281707931
 20
8.3753573691
 30
0.0
 10
8.2593021771
 20
8.3909222598
 30
0.0
 10
8.2377594321
 20
8.4077200211
 30
0.0
 10
8.2205886341
 20
8.4226958085
 30
0.0
 10
8.2073555557
 20
8.4352333162
 30
0.0
 10
8.194467964
 20
8.4481321191
 30
0.0
 10
8.1790317794
 20
8.4649094427
 30
0.0
 10
8.1616488696
 20
8.486017766
 30
0.0
 10
8.1454658533
 20
8.5080308586
 30
0.0
 10
8.1305382894
 20
8.5308717562
 30
0.0
 10
8.1169181635
 20
8.5544620093
 30
0.0
 10
8.1046525507
 20
8.5787200321
 30
0.0
 10
8.0937834688
 20
8.6035618615
 30
0.0
 10
8.0843493128
 20
8.6289020099
 30
0.0
 10
8.0763819195
 20
8.6546526055
 30
0.0
 10
8.069909494
 20
8.6807248971
 30
0.0
 10
8.0649544122
 20
8.7070286901
 30
0.0
 10
8.0615334568
 20
8.7334731854
 30
0.0
 10
8.0596594452
 20
8.7599664762
 30
0.0
 10
8.0593912664
 20
8.7820331887
 30
0.0
 10
8.0599565471
 20
8.7996168064
 30
0.0
 10
8.0610371443
 20
8.8171048182
 30
0.0
 10
8.0633543567
 20
8.8388278604
 30
0.0
 10
8.0669610739
 20
8.860330851
 30
0.0
 10
8.0706111199
 20
8.8773270986
 30
0.0
 10
8.0747587914
 20
8.8941417357
 30
0.0
 10
8.0784401322
 20
8.90659509
 30
0.0
 10
8.081143407
 20
8.9148036443
 30
0.0
  0
SPLINE
  5
326
100
AcDbEntity
  8
0
100
AcDbSpline
 62
7
  6
CONTINUOUS
 70
0
 71
3
 72
42
 73
38
 74
0
 42
0.0000001
 43
0.0000001
 44
0.0000000001
 40
0.0
 40
0.0
 40
0.0
 40
0.0
 40
0.0311429409
 40
0.0624428181
 40
0.0938865796
 40
0.1254688827
 40
0.1571762782
 40
0.1889940819
 40
0.2209054764
 40
0.2528915985
 40
0.2849322585
 40
0.3170061021
 40
0.3490912123
 40
0.3811654672
 40
0.41320685
 40
0.4451940848
 40
0.4771069188
 40
0.5089265098
 40
0.5406359011
 40
0.5722202802
 40
0.6036673729
 40
0.6349676954
 40
0.6661147337
 40
0.6971052166
 40
0.7279392005
 40
0.7586200735
 40
0.7891545435
 40
0.8043726241
 40
0.8195581095
 40
0.849832848
 40
0.8800000632
 40
0.8950518189
 40
0.9100837668
 40
0.9250984994
 40
0.9400987144
 40
0.9700611771
 40
1.0
 40
1.0
 40
1.0
 40
1.0
 10
8.2340789392
 20
8.033095567
 30
0.0
 10
8.2231115096
 20
8.0338561608
 30
0.0
 10
8.2011689408
 20
8.0361843114
 30
0.0
 10
8.1685214073
 20
8.0420476086
 30
0.0
 10
8.136223146
 20
8.05026158
 30
0.0
 10
8.1044496148
 20
8.0607802005
 30
0.0
 10
8.0733688249
 20
8.0735483986
 30
0.0
 10
8.0431468101
 20
8.0884973207
 30
0.0
 10
8.0139444325
 20
8.1055469861
 30
0.0
 10
7.9859173732
 20
8.1246065794
 30
0.0
 10
7.9592150865
 20
8.1455744906
 30
0.0
 10
7.9339796841
 20
8.1683386706
 30
0.0
 10
7.910345615
 20
8.1927777516
 30
0.0
 10
7.8884389444
 20
8.2187615701
 30
0.0
 10
7.8683765952
 20
8.2461517379
 30
0.0
 10
7.8502653745
 20
8.2748021396
 30
0.0
 10
7.8342018701
 20
8.3045601143
 30
0.0
 10
7.8202720349
 20
8.3352672032
 30
0.0
 10
7.8085504203
 20
8.3667597805
 30
0.0
 10
7.7990995027
 20
8.3988699086
 30
0.0
 10
7.7919699407
 20
8.4314264433
 30
0.0
 10
7.7872002664
 20
8.4642558256
 30
0.0
 10
7.7848163308
 20
8.497182947
 30
0.0
 10
7.784830942
 20
8.5300320028
 30
0.0
 10
7.7872445186
 20
8.5626279632
 30
0.0
 10
7.7920443849
 20
8.5947955906
 30
0.0
 10
7.7980200654
 20
8.6211357992
 30
0.0
 10
7.8039634301
 20
8.6418148617
 30
0.0
 10
7.8106595018
 20
8.6621661453
 30
0.0
 10
7.8204482943
 20
8.6870337834
 30
0.0
 10
7.832098986
 20
8.7110336575
 30
0.0
 10
7.842484613
 20
8.7295999448
 30
0.0
 10
7.850792052
 20
8.7431856316
 30
0.0
 10
7.8596111764
 20
8.7564230212
 30
0.0
 10
7.8720310905
 20
8.7735758582
 30
0.0
 10
7.8887819186
 20
8.7940701933
 30
0.0
 10
7.9034216659
 20
8.8093632483
 30
0.0
 10
7.9110232329
 20
8.8167058446
 30
0.0
  0
SPLINE
  5
327
100
AcDbEntity
  8
0
100
AcDbSpline
 62
7
  6
CONTINUOUS
 70
0
 71
3
 72
69
 73
65
 74
0
 42
0.0000001
 43
0.0000001
 44
0.0000000001
 40
0.0
 40
0.0
 40
0.0
 40
0.0
 40
0.0156208673
 40
0.0311914202
 40
0.0467077879
 40
0.0621720248
 40
0.0775863327
 40
0.0929522332
 40
0.1082720662
 40
0.1235488169
 40
0.1387858206
 40
0.1539867798
 40
0.1691558208
 40
0.184297404
 40
0.1994162482
 40
0.2145173409
 40
0.2296058439
 40
0.2446870661
 40
0.2597663812
 40
0.2748491842
 40
0.2899408441
 40
0.3050466235
 40
0.320171649
 40
0.3353208163
 40
0.350498791
 40
0.3657099356
 40
0.3809582448
 40
0.3962473448
 40
0.4115804312
 40
0.4269602742
 40
0.4423891325
 40
0.4578688014
 40
0.4734005671
 40
0.4889851969
 40
0.5046229558
 40
0.5203135725
 40
0.5360563048
 40
0.5518498917
 40
0.5676926193
 40
0.5835822898
 40
0.5995162981
 40
0.6154916393
 40
0.631504911
 40
0.6475523878
 40
0.6636300325
 40
0.6797335608
 40
0.695858424
 40
0.7119999155
 40
0.7443047543
 40
0.7766167008
 40
0.7927670119
 40
0.8089041149
 40
0.8250231958
 40
0.8411195678
 40
0.8571887855
 40
0.8732266234
 40
0.8892291135
 40
0.9051926122
 40
0.9211139521
 40
0.9369901415
 40
0.9528182837
 40
0.9685971032
 40
0.9843261307
 40
1.0
 40
1.0
 40
1.0
 40
1.0
 10
8.2177733528
 20
7.7488181835
 30
0.0
 10
8.2294943573
 20
7.7480053291
 30
0.0
 10
8.2529423328
 20
7.7469532438
 30
0.0
 10
8.2880866101
 20
7.7471047818
 30
0.0
 10
8.3230636466
 20
7.7489903444
 30
0.0
 10
8.3577862568
 20
7.7526045354
 30
0.0
 10
8.3921722533
 20
7.7579385033
 30
0.0
 10
8.4261387899
 20
7.7649800668
 30
0.0
 10
8.4596038431
 20
7.7737117427
 30
0.0
 10
8.4924865126
 20
7.7841133623
 30
0.0
 10
8.524707908
 20
7.7961588729
 30
0.0
 10
8.5561899048
 20
7.8098203975
 30
0.0
 10
8.586856928
 20
7.8250641593
 30
0.0
 10
8.6166347551
 20
7.8418540239
 30
0.0
 10
8.6454516303
 20
7.860149344
 30
0.0
 10
8.673238169
 20
7.8799058577
 30
0.0
 10
8.6999269505
 20
7.9010764482
 30
0.0
 10
8.7254542023
 20
7.9236093246
 30
0.0
 10
8.7497575775
 20
7.9474510008
 30
0.0
 10
8.7727792553
 20
7.9725431407
 30
0.0
 10
8.7944630181
 20
7.9988258778
 30
0.0
 10
8.814757064
 20
8.0262353831
 30
0.0
 10
8.8336123121
 20
8.054705679
 30
0.0
 10
8.8509831253
 20
8.0841681753
 30
0.0
 10
8.8668282157
 20
8.1145515001
 30
0.0
 10
8.8811085748
 20
8.1457827903
 30
0.0
 10
8.893790872
 20
8.1777862492
 30
0.0
 10
8.9048435445
 20
8.2104851102
 30
0.0
 10
8.9142409269
 20
8.2438002136
 30
0.0
 10
8.9219598519
 20
8.2776514284
 30
0.0
 10
8.9279820122
 20
8.3119570782
 30
0.0
 10
8.9322931934
 20
8.3466344673
 30
0.0
 10
8.9348824793
 20
8.3816000864
 30
0.0
 10
8.9357446521
 20
8.4167696435
 30
0.0
 10
8.934876608
 20
8.4520584268
 30
0.0
 10
8.9322816319
 20
8.4873814635
 30
0.0
 10
8.9279651261
 20
8.5226536257
 30
0.0
 10
8.9219381742
 20
8.5577900396
 30
0.0
 10
8.9142151482
 20
8.592706086
 30
0.0
 10
8.9048145134
 20
8.6273176326
 30
0.0
 10
8.8937595368
 20
8.6615415387
 30
0.0
 10
8.8810760275
 20
8.6952951278
 30
0.0
 10
8.8667955808
 20
8.7284975448
 30
0.0
 10
8.8509516379
 20
8.7610684291
 30
0.0
 10
8.8335831559
 20
8.7929298317
 30
0.0
 10
8.8147316
 20
8.8240046133
 30
0.0
 10
8.7944419869
 20
8.8542187694
 30
0.0
 10
8.7655347718
 20
8.8932636406
 30
0.0
 10
8.726061883
 20
8.9395507187
 30
0.0
 10
8.6825163007
 20
8.9820381293
 30
0.0
 10
8.6454801044
 20
9.0135104158
 30
0.0
 10
8.6166730174
 20
9.0357975984
 30
0.0
 10
8.5869056157
 20
9.0567133088
 30
0.0
 10
8.556248784
 20
9.0762076242
 30
0.0
 10
8.5247767767
 20
9.0942339323
 30
0.0
 10
8.4925648501
 20
9.1107480452
 30
0.0
 10
8.4596910686
 20
9.12571114
 30
0.0
 10
8.4262340409
 20
9.1390862065
 30
0.0
 10
8.3922746057
 20
9.1508417198
 30
0.0
 10
8.3578945762
 20
9.1609487323
 30
0.0
 10
8.3231767611
 20
9.1693834102
 30
0.0
 10
8.2882032431
 20
9.1761253674
 30
0.0
 10
8.2530609924
 20
9.1811569629
 30
0.0
 10
8.2295341269
 20
9.1833684339
 30
0.0
 10
8.2177733528
 20
9.1841840464
 30
0.0
  0
SPLINE
  5
328
100
AcDbEntity
  8
0
100
AcDbSpline
 62
7
  6
CONTINUOUS
 70
0
 71
3
 72
69
 73
65
 74
0
 42
0.0000001
 43
0.0000001
 44
0.0000000001
 40
0.0
 40
0.0
 40
0.0
 40
0.0
 40
0.0156208673
 40
0.0311914202
 40
0.0467077879
 40
0.0621720248
 40
0.0775863327
 40
0.0929522332
 40
0.1082720662
 40
0.1235488169
 40
0.1387858206
 40
0.1539867798
 40
0.1691558208
 40
0.184297404
 40
0.1994162482
 40
0.2145173409
 40
0.2296058439
 40
0.2446870661
 40
0.2597663812
 40
0.2748491842
 40
0.2899408441
 40
0.3050466235
 40
0.320171649
 40
0.3353208163
 40
0.350498791
 40
0.3657099356
 40
0.3809582448
 40
0.3962473448
 40
0.4115804312
 40
0.4269602742
 40
0.4423891325
 40
0.4578688014
 40
0.4734005671
 40
0.4889851969
 40
0.5046229558
 40
0.5203135725
 40
0.5360563048
 40
0.5518498917
 40
0.5676926193
 40
0.5835822898
 40
0.5995162981
 40
0.6154916393
 40
0.631504911
 40
0.6475523878
 40
0.6636300325
 40
0.6797335608
 40
0.695858424
 40
0.7119999155
 40
0.7443047543
 40
0.7766167008
 40
0.7927670119
 40
0.8089041149
 40
0.8250231958
 40
0.8411195678
 40
0.8571887855
 40
0.8732266234
 40
0.8892291135
 40
0.9051926122
 40
0.9211139521
 40
0.9369901415
 40
0.9528182837
 40
0.9685971032
 40
0.9843261307
 40
1.0
 40
1.0
 40
1.0
 40
1.0
 10
8.2177733528
 20
9.1841840464
 30
0.0
 10
8.2060523483
 20
9.1849969008
 30
0.0
 10
8.1826043728
 20
9.1860489861
 30
0.0
 10
8.1474600955
 20
9.1858974481
 30
0.0
 10
8.112483059
 20
9.1840118854
 30
0.0
 10
8.0777604488
 20
9.1803976945
 30
0.0
 10
8.0433744523
 20
9.1750637265
 30
0.0
 10
8.0094079157
 20
9.1680221631
 30
0.0
 10
7.9759428625
 20
9.1592904871
 30
0.0
 10
7.943060193
 20
9.1488888676
 30
0.0
 10
7.9108387976
 20
9.136843357
 30
0.0
 10
7.8793568008
 20
9.1231818324
 30
0.0
 10
7.8486897776
 20
9.1079380706
 30
0.0
 10
7.8189119505
 20
9.091148206
 30
0.0
 10
7.7900950753
 20
9.0728528859
 30
0.0
 10
7.7623085366
 20
9.0530963722
 30
0.0
 10
7.7356197551
 20
9.0319257816
 30
0.0
 10
7.7100925033
 20
9.0093929053
 30
0.0
 10
7.6857891281
 20
8.985551229
 30
0.0
 10
7.6627674503
 20
8.9604590891
 30
0.0
 10
7.6410836875
 20
8.934176352
 30
0.0
 10
7.6207896416
 20
8.9067668467
 30
0.0
 10
7.6019343935
 20
8.8782965509
 30
0.0
 10
7.5845635803
 20
8.8488340546
 30
0.0
 10
7.5687184899
 20
8.8184507298
 30
0.0
 10
7.5544381308
 20
8.7872194395
 30
0.0
 10
7.5417558336
 20
8.7552159807
 30
0.0
 10
7.5307031611
 20
8.7225171196
 30
0.0
 10
7.5213057787
 20
8.6892020163
 30
0.0
 10
7.5135868537
 20
8.6553508015
 30
0.0
 10
7.5075646934
 20
8.6210451517
 30
0.0
 10
7.5032535122
 20
8.5863677626
 30
0.0
 10
7.5006642263
 20
8.5514021435
 30
0.0
 10
7.4998020535
 20
8.5162325863
 30
0.0
 10
7.5006700976
 20
8.4809438031
 30
0.0
 10
7.5032650737
 20
8.4456207663
 30
0.0
 10
7.5075815795
 20
8.4103486042
 30
0.0
 10
7.5136085314
 20
8.3752121903
 30
0.0
 10
7.5213315574
 20
8.3402961438
 30
0.0
 10
7.5307321922
 20
8.3056845973
 30
0.0
 10
7.5417871688
 20
8.2714606912
 30
0.0
 10
7.5544706782
 20
8.237707102
 30
0.0
 10
7.5687511248
 20
8.2045046851
 30
0.0
 10
7.5845950678
 20
8.1719338008
 30
0.0
 10
7.6019635497
 20
8.1400723982
 30
0.0
 10
7.6208151056
 20
8.1089976166
 30
0.0
 10
7.6411047187
 20
8.0787834605
 30
0.0
 10
7.6700119339
 20
8.0397385893
 30
0.0
 10
7.7094848226
 20
7.9934515111
 30
0.0
 10
7.7530304049
 20
7.9509641006
 30
0.0
 10
7.7900666012
 20
7.919491814
 30
0.0
 10
7.8188736882
 20
7.8972046314
 30
0.0
 10
7.8486410899
 20
7.8762889211
 30
0.0
 10
7.8792979216
 20
7.8567946057
 30
0.0
 10
7.9107699289
 20
7.8387682975
 30
0.0
 10
7.9429818555
 20
7.8222541846
 30
0.0
 10
7.975855637
 20
7.8072910899
 30
0.0
 10
8.0093126647
 20
7.7939160234
 30
0.0
 10
8.0432720999
 20
7.7821605101
 30
0.0
 10
8.0776521294
 20
7.7720534975
 30
0.0
 10
8.1123699445
 20
7.7636188196
 30
0.0
 10
8.1473434625
 20
7.7568768625
 30
0.0
 10
8.1824857132
 20
7.7518452669
 30
0.0
 10
8.2060125787
 20
7.7496337959
 30
0.0
 10
8.2177733528
 20
7.7488181835
 30
0.0
  0
SPLINE
  5
329
100
AcDbEntity
  8
0
100
AcDbSpline
 62
7
  6
CONTINUOUS
 70
0
 71
3
 72
64
 73
60
 74
0
 42
0.0000001
 43
0.0000001
 44
0.0000000001
 40
0.0
 40
0.0
 40
0.0
 40
0.0
 40
0.0311832764
 40
0.046700692
 40
0.0621654872
 40
0.0775803702
 40
0.0929470441
 40
0.1082676058
 40
0.123545028
 40
0.1387827189
 40
0.1539843841
 40
0.1691541216
 40
0.1842963821
 40
0.1994159208
 40
0.2145177014
 40
0.229606902
 40
0.2446888043
 40
0.2597688053
 40
0.2748522967
 40
0.2899446543
 40
0.3050511211
 40
0.3201768287
 40
0.3353266883
 40
0.3505053651
 40
0.3657171991
 40
0.3809662014
 40
0.3962559967
 40
0.4115897867
 40
0.4269703302
 40
0.4423998934
 40
0.4578802703
 40
0.4734127373
 40
0.4889980886
 40
0.5046365555
 40
0.5203278952
 40
0.5360713351
 40
0.5518656531
 40
0.5677090957
 40
0.5835994995
 40
0.5995342309
 40
0.6155102986
 40
0.6315242962
 40
0.6475725153
 40
0.6636508941
 40
0.6797551498
 40
0.6958807453
 40
0.7120229844
 40
0.7281769773
 40
0.7443377753
 40
0.7605003467
 40
0.776659672
 40
0.7928107193
 40
0.8089485642
 40
0.8411569203
 40
0.8732568025
 40
0.9052154939
 40
0.9370055189
 40
0.9686050492
 40
1.0
 40
1.0
 40
1.0
 40
1.0
 10
8.2177733528
 20
7.9564922484
 30
0.0
 10
8.2344000776
 20
7.9553391811
 30
0.0
 10
8.2594084441
 20
7.9548251416
 30
0.0
 10
8.2925953986
 20
7.9566146591
 30
0.0
 10
8.3172713854
 20
7.9591828102
 30
0.0
 10
8.3417067769
 20
7.9629736872
 30
0.0
 10
8.3658446459
 20
7.9679772125
 30
0.0
 10
8.3896259191
 20
7.9741826373
 30
0.0
 10
8.412993544
 20
7.9815739639
 30
0.0
 10
8.4358909535
 20
7.990134299
 30
0.0
 10
8.4582632384
 20
7.9998422731
 30
0.0
 10
8.4800561044
 20
8.0106752397
 30
0.0
 10
8.5012172762
 20
8.0226065082
 30
0.0
 10
8.5216954489
 20
8.0356078159
 30
0.0
 10
8.5414414457
 20
8.0496474714
 30
0.0
 10
8.5604074453
 20
8.0646918839
 30
0.0
 10
8.5785478084
 20
8.0807046248
 30
0.0
 10
8.5958187358
 20
8.0976471283
 30
0.0
 10
8.6121785259
 20
8.1154785754
 30
0.0
 10
8.6275878673
 20
8.1341558196
 30
0.0
 10
8.642009361
 20
8.1536339942
 30
0.0
 10
8.6554085904
 20
8.1738658539
 30
0.0
 10
8.6677528111
 20
8.1948028926
 30
0.0
 10
8.6790128631
 20
8.2163942666
 30
0.0
 10
8.6891609463
 20
8.2385882408
 30
0.0
 10
8.698173426
 20
8.2613309261
 30
0.0
 10
8.7060277354
 20
8.2845678239
 30
0.0
 10
8.7127059832
 20
8.3082425792
 30
0.0
 10
8.7181910545
 20
8.3322984083
 30
0.0
 10
8.7224709393
 20
8.3566770642
 30
0.0
 10
8.7255341775
 20
8.3813199927
 30
0.0
 10
8.7273747005
 20
8.4061676678
 30
0.0
 10
8.7279868549
 20
8.4311603108
 30
0.0
 10
8.7273705265
 20
8.4562376869
 30
0.0
 10
8.7255259644
 20
8.4813393482
 30
0.0
 10
8.7224589359
 20
8.5064049461
 30
0.0
 10
8.7181756531
 20
8.5313739677
 30
0.0
 10
8.7126876612
 20
8.5561865017
 30
0.0
 10
8.7060071067
 20
8.5807825523
 30
0.0
 10
8.6981511576
 20
8.6051031964
 30
0.0
 10
8.6891378169
 20
8.6290895815
 30
0.0
 10
8.6789896727
 20
8.6526843012
 30
0.0
 10
8.6677304319
 20
8.675830233
 30
0.0
 10
8.6553878842
 20
8.6984719875
 30
0.0
 10
8.641991213
 20
8.7205547676
 30
0.0
 10
8.6275731225
 20
8.7420257004
 30
0.0
 10
8.612168001
 20
8.7628328841
 30
0.0
 10
8.5958131756
 20
8.7829264126
 30
0.0
 10
8.5785478949
 20
8.8022577985
 30
0.0
 10
8.5604137189
 20
8.8207805848
 30
0.0
 10
8.5414545054
 20
8.8384501218
 30
0.0
 10
8.5217151518
 20
8.8552241393
 30
0.0
 10
8.4944426499
 20
8.8763243362
 30
0.0
 10
8.4586497215
 20
8.9002673548
 30
0.0
 10
8.4133613217
 20
8.924838214
 30
0.0
 10
8.3661863744
 20
8.9450023485
 30
0.0
 10
8.3175781407
 20
8.9605631523
 30
0.0
 10
8.2680090114
 20
8.9713700631
 30
0.0
 10
8.2345129411
 20
8.975349087
 30
0.0
 10
8.2177733528
 20
8.9765099814
 30
0.0
  0
SPLINE
  5
32A
100
AcDbEntity
  8
0
100
AcDbSpline
 62
7
  6
CONTINUOUS
 70
0
 71
3
 72
64
 73
60
 74
0
 42
0.0000001
 43
0.0000001
 44
0.0000000001
 40
0.0
 40
0.0
 40
0.0
 40
0.0
 40
0.0311832764
 40
0.046700692
 40
0.0621654872
 40
0.0775803702
 40
0.0929470441
 40
0.1082676058
 40
0.123545028
 40
0.1387827189
 40
0.1539843841
 40
0.1691541216
 40
0.1842963821
 40
0.1994159208
 40
0.2145177014
 40
0.229606902
 40
0.2446888043
 40
0.2597688053
 40
0.2748522967
 40
0.2899446543
 40
0.3050511211
 40
0.3201768287
 40
0.3353266883
 40
0.3505053651
 40
0.3657171991
 40
0.3809662014
 40
0.3962559967
 40
0.4115897867
 40
0.4269703302
 40
0.4423998934
 40
0.4578802703
 40
0.4734127373
 40
0.4889980886
 40
0.5046365555
 40
0.5203278952
 40
0.5360713351
 40
0.5518656531
 40
0.5677090957
 40
0.5835994995
 40
0.5995342309
 40
0.6155102986
 40
0.6315242962
 40
0.6475725153
 40
0.6636508941
 40
0.6797551498
 40
0.6958807453
 40
0.7120229844
 40
0.7281769773
 40
0.7443377753
 40
0.7605003467
 40
0.776659672
 40
0.7928107193
 40
0.8089485642
 40
0.8411569203
 40
0.8732568025
 40
0.9052154939
 40
0.9370055189
 40
0.9686050492
 40
1.0
 40
1.0
 40
1.0
 40
1.0
 10
8.2177733528
 20
8.9765099814
 30
0.0
 10
8.201146628
 20
8.9776630487
 30
0.0
 10
8.1761382615
 20
8.9781770883
 30
0.0
 10
8.142951307
 20
8.9763875708
 30
0.0
 10
8.1182753202
 20
8.9738194197
 30
0.0
 10
8.0938399287
 20
8.9700285427
 30
0.0
 10
8.0697020597
 20
8.9650250173
 30
0.0
 10
8.0459207865
 20
8.9588195926
 30
0.0
 10
8.0225531616
 20
8.951428266
 30
0.0
 10
7.9996557521
 20
8.9428679309
 30
0.0
 10
7.9772834672
 20
8.9331599567
 30
0.0
 10
7.9554906012
 20
8.9223269902
 30
0.0
 10
7.9343294294
 20
8.9103957216
 30
0.0
 10
7.9138512567
 20
8.8973944139
 30
0.0
 10
7.8941052599
 20
8.8833547584
 30
0.0
 10
7.8751392603
 20
8.868310346
 30
0.0
 10
7.8569988972
 20
8.8522976051
 30
0.0
 10
7.8397279698
 20
8.8353551016
 30
0.0
 10
7.8233681797
 20
8.8175236544
 30
0.0
 10
7.8079588383
 20
8.7988464103
 30
0.0
 10
7.7935373446
 20
8.7793682357
 30
0.0
 10
7.7801381152
 20
8.7591363759
 30
0.0
 10
7.7677938945
 20
8.7381993373
 30
0.0
 10
7.7565338425
 20
8.7166079633
 30
0.0
 10
7.7463857593
 20
8.694413989
 30
0.0
 10
7.7373732796
 20
8.6716713037
 30
0.0
 10
7.7295189702
 20
8.648434406
 30
0.0
 10
7.7228407224
 20
8.6247596507
 30
0.0
 10
7.7173556511
 20
8.6007038216
 30
0.0
 10
7.7130757663
 20
8.5763251656
 30
0.0
 10
7.7100125281
 20
8.5516822372
 30
0.0
 10
7.7081720051
 20
8.5268345621
 30
0.0
 10
7.7075598507
 20
8.501841919
 30
0.0
 10
7.7081761791
 20
8.476764543
 30
0.0
 10
7.7100207412
 20
8.4516628816
 30
0.0
 10
7.7130877697
 20
8.4265972838
 30
0.0
 10
7.7173710525
 20
8.4016282622
 30
0.0
 10
7.7228590444
 20
8.3768157282
 30
0.0
 10
7.7295395989
 20
8.3522196776
 30
0.0
 10
7.737395548
 20
8.3278990335
 30
0.0
 10
7.7464088887
 20
8.3039126483
 30
0.0
 10
7.7565570329
 20
8.2803179286
 30
0.0
 10
7.7678162738
 20
8.2571719968
 30
0.0
 10
7.7801588214
 20
8.2345302424
 30
0.0
 10
7.7935554926
 20
8.2124474622
 30
0.0
 10
7.8079735831
 20
8.1909765294
 30
0.0
 10
7.8233787046
 20
8.1701693458
 30
0.0
 10
7.83973353
 20
8.1500758173
 30
0.0
 10
7.8569988107
 20
8.1307444313
 30
0.0
 10
7.8751329867
 20
8.1122216451
 30
0.0
 10
7.8940922002
 20
8.0945521081
 30
0.0
 10
7.9138315538
 20
8.0777780906
 30
0.0
 10
7.9411040557
 20
8.0566778936
 30
0.0
 10
7.9768969841
 20
8.032734875
 30
0.0
 10
8.0221853839
 20
8.0081640159
 30
0.0
 10
8.0693603312
 20
7.9879998814
 30
0.0
 10
8.1179685649
 20
7.9724390776
 30
0.0
 10
8.1675376942
 20
7.9616321668
 30
0.0
 10
8.2010337645
 20
7.9576531428
 30
0.0
 10
8.2177733528
 20
7.9564922484
 30
0.0
  0
SPLINE
  5
32B
100
AcDbEntity
  8
0
100
AcDbSpline
 62
7
  6
CONTINUOUS
 70
0
 71
3
 72
13
 73
9
 74
0
 42
0.0000001
 43
0.0000001
 44
0.0000000001
 40
0.0
 40
0.0
 40
0.0
 40
0.0
 40
0.1237687389
 40
0.2478596666
 40
0.3722937461
 40
0.4970859999
 40
0.7477516324
 40
1.0
 40
1.0
 40
1.0
 40
1.0
 10
8.1348791274
 20
8.926971828
 30
0.0
 10
8.1326201247
 20
8.9212810463
 30
0.0
 10
8.128371055
 20
8.9097733756
 30
0.0
 10
8.1228273357
 20
8.8922034678
 30
0.0
 10
8.1181167841
 20
8.8743389881
 30
0.0
 10
8.1129526467
 20
8.850146814
 30
0.0
 10
8.1086342902
 20
8.8193481084
 30
0.0
 10
8.1074904488
 20
8.7944545513
 30
0.0
 10
8.1074904488
 20
8.7819760035
 30
0.0
  0
SPLINE
  5
32C
100
AcDbEntity
  8
0
100
AcDbSpline
 62
7
  6
CONTINUOUS
 70
0
 71
3
 72
40
 73
36
 74
0
 42
0.0000001
 43
0.0000001
 44
0.0000000001
 40
0.0
 40
0.0
 40
0.0
 40
0.0
 40
0.0300222716
 40
0.0601429009
 40
0.0903734641
 40
0.1207235291
 40
0.1359478724
 40
0.1512047486
 40
0.1818144548
 40
0.212559794
 40
0.2434417509
 40
0.2744590387
 40
0.3056081672
 40
0.3368835389
 40
0.3682775685
 40
0.3997809206
 40
0.4313824158
 40
0.4630694907
 40
0.4948282697
 40
0.526643778
 40
0.558500243
 40
0.5903811769
 40
0.6222698616
 40
0.6541494
 40
0.6860030176
 40
0.7178143201
 40
0.7495676054
 40
0.7812480106
 40
0.8128415765
 40
0.8443361546
 40
0.8757208012
 40
0.9069849518
 40
0.9381227588
 40
0.9691330372
 40
1.0
 40
1.0
 40
1.0
 40
1.0
 10
8.6801209293
 20
8.5020850019
 30
0.0
 10
8.6744025039
 20
8.499524423
 30
0.0
 10
8.6627695882
 20
8.4947810193
 30
0.0
 10
8.6448536457
 20
8.488843865
 30
0.0
 10
8.6265153287
 20
8.4840965369
 30
0.0
 10
8.6109590105
 20
8.4811516194
 30
0.0
 10
8.5983823776
 20
8.4794059353
 30
0.0
 10
8.585701513
 20
8.4780663904
 30
0.0
 10
8.5697260943
 20
8.4771652158
 30
0.0
 10
8.5504642979
 20
8.4773224357
 30
0.0
 10
8.5311668439
 20
8.4787164842
 30
0.0
 10
8.5119132788
 20
8.4813417285
 30
0.0
 10
8.4927821294
 20
8.4851866484
 30
0.0
 10
8.4738519033
 20
8.4902363219
 30
0.0
 10
8.4551997837
 20
8.49646909
 30
0.0
 10
8.436902212
 20
8.503859949
 30
0.0
 10
8.4190339906
 20
8.5123784579
 30
0.0
 10
8.4016679745
 20
8.5219893654
 30
0.0
 10
8.3848755624
 20
8.5326540043
 30
0.0
 10
8.3687248909
 20
8.5443279243
 30
0.0
 10
8.3532824335
 20
8.5569639992
 30
0.0
 10
8.3386111024
 20
8.5705102148
 30
0.0
 10
8.3247707637
 20
8.5849110977
 30
0.0
 10
8.3118184822
 20
8.6001081773
 30
0.0
 10
8.2998065344
 20
8.616038727
 30
0.0
 10
8.2887847742
 20
8.6326381732
 30
0.0
 10
8.278797825
 20
8.6498383051
 30
0.0
 10
8.2698866519
 20
8.6675688716
 30
0.0
 10
8.2620880772
 20
8.6857575481
 30
0.0
 10
8.2554334096
 20
8.7043297483
 30
0.0
 10
8.2499509548
 20
8.7232096785
 30
0.0
 10
8.2456620628
 20
8.742319759
 30
0.0
 10
8.2425849431
 20
8.761583266
 30
0.0
 10
8.240733221
 20
8.7809189529
 30
0.0
 10
8.2403184524
 20
8.7938361893
 30
0.0
 10
8.2403184524
 20
8.8002780102
 30
0.0
  0
SPLINE
  5
32D
100
AcDbEntity
  8
0
100
AcDbSpline
 62
7
  6
CONTINUOUS
 70
0
 71
3
 72
39
 73
35
 74
0
 42
0.0000001
 43
0.0000001
 44
0.0000000001
 40
0.0
 40
0.0
 40
0.0
 40
0.0
 40
0.0958316475
 40
0.1891006073
 40
0.279240642
 40
0.3229674356
 40
0.365711151
 40
0.4074094627
 40
0.4480020772
 40
0.4874317741
 40
0.5256439547
 40
0.5625873626
 40
0.5982141631
 40
0.6324802323
 40
0.6653459096
 40
0.6967758341
 40
0.7267403598
 40
0.7552153214
 40
0.7821838024
 40
0.8076365273
 40
0.831573723
 40
0.8540068598
 40
0.8749607899
 40
0.8944774057
 40
0.9126188108
 40
0.9294731124
 40
0.9451592998
 40
0.9598338063
 40
0.9668558128
 40
0.9737028706
 40
0.9804062828
 40
0.9869996808
 40
0.9935186293
 40
1.0
 40
1.0
 40
1.0
 40
1.0
 10
7.8600298846
 20
11.2387990766
 30
0.0
 10
7.8510700128
 20
11.2394204459
 30
0.0
 10
7.8334027669
 20
11.2408436234
 30
0.0
 10
7.8073711996
 20
11.243560322
 30
0.0
 10
7.7862582589
 20
11.2463002364
 30
0.0
 10
7.7698905496
 20
11.2487666005
 30
0.0
 10
7.7580387193
 20
11.2507246284
 30
0.0
 10
7.7465063104
 20
11.25280619
 30
0.0
 10
7.735312572
 20
11.2550078972
 30
0.0
 10
7.7244762005
 20
11.2573259619
 30
0.0
 10
7.7140152805
 20
11.2597565459
 30
0.0
 10
7.7039472578
 20
11.2622955304
 30
0.0
 10
7.6942889114
 20
11.2649386428
 30
0.0
 10
7.685056324
 20
11.2676814788
 30
0.0
 10
7.6762648354
 20
11.270519358
 30
0.0
 10
7.6679290478
 20
11.2734476175
 30
0.0
 10
7.6600627379
 20
11.2764612426
 30
0.0
 10
7.6526789023
 20
11.2795553139
 30
0.0
 10
7.6457896433
 20
11.2827246074
 30
0.0
 10
7.6394062157
 20
11.2859639664
 30
0.0
 10
7.6335389541
 20
11.2892681259
 30
0.0
 10
7.6281972432
 20
11.2926318053
 30
0.0
 10
7.6233896074
 20
11.2960499276
 30
0.0
 10
7.6191235379
 20
11.2995174029
 30
0.0
 10
7.615405927
 20
11.303029641
 30
0.0
 10
7.6122427616
 20
11.3065823866
 30
0.0
 10
7.6096403263
 20
11.3101712609
 30
0.0
 10
7.6079189123
 20
11.3132341013
 30
0.0
 10
7.6068459054
 20
11.3156865662
 30
0.0
 10
7.6061962072
 20
11.3175036201
 30
0.0
 10
7.6056904133
 20
11.319324264
 30
0.0
 10
7.6053288936
 20
11.3211477499
 30
0.0
 10
7.6051118572
 20
11.3229730013
 30
0.0
 10
7.6050635601
 20
11.3241919417
 30
0.0
 10
7.605063565
 20
11.3247993791
 30
0.0
  0
SPLINE
  5
32E
100
AcDbEntity
  8
0
100
AcDbSpline
 62
7
  6
CONTINUOUS
 70
0
 71
3
 72
39
 73
35
 74
0
 42
0.0000001
 43
0.0000001
 44
0.0000000001
 40
0.0
 40
0.0
 40
0.0
 40
0.0
 40
0.0958316475
 40
0.1891006073
 40
0.279240642
 40
0.3229674356
 40
0.365711151
 40
0.4074094627
 40
0.4480020772
 40
0.4874317741
 40
0.5256439547
 40
0.5625873626
 40
0.5982141631
 40
0.6324802323
 40
0.6653459096
 40
0.6967758341
 40
0.7267403598
 40
0.7552153214
 40
0.7821838024
 40
0.8076365273
 40
0.831573723
 40
0.8540068598
 40
0.8749607899
 40
0.8944774057
 40
0.9126188108
 40
0.9294731124
 40
0.9451592998
 40
0.9598338063
 40
0.9668558128
 40
0.9737028706
 40
0.9804062828
 40
0.9869996808
 40
0.9935186293
 40
1.0
 40
1.0
 40
1.0
 40
1.0
 10
13.4141035421
 20
10.8536227603
 30
0.0
 10
13.4051436704
 20
10.8542441295
 30
0.0
 10
13.3874764244
 20
10.855667307
 30
0.0
 10
13.3614448571
 20
10.8583840056
 30
0.0
 10
13.3403319165
 20
10.86112392
 30
0.0
 10
13.3239642071
 20
10.8635902841
 30
0.0
 10
13.3121123768
 20
10.865548312
 30
0.0
 10
13.3005799679
 20
10.8676298736
 30
0.0
 10
13.2893862295
 20
10.8698315808
 30
0.0
 10
13.2785498581
 20
10.8721496455
 30
0.0
 10
13.2680889381
 20
10.8745802295
 30
0.0
 10
13.2580209154
 20
10.877119214
 30
0.0
 10
13.2483625689
 20
10.8797623264
 30
0.0
 10
13.2391299815
 20
10.8825051624
 30
0.0
 10
13.2303384929
 20
10.8853430416
 30
0.0
 10
13.2220027053
 20
10.8882713011
 30
0.0
 10
13.2141363954
 20
10.8912849263
 30
0.0
 10
13.2067525598
 20
10.8943789975
 30
0.0
 10
13.1998633008
 20
10.897548291
 30
0.0
 10
13.1934798732
 20
10.9007876501
 30
0.0
 10
13.1876126116
 20
10.9040918095
 30
0.0
 10
13.1822709007
 20
10.9074554889
 30
0.0
 10
13.1774632649
 20
10.9108736112
 30
0.0
 10
13.1731971955
 20
10.9143410865
 30
0.0
 10
13.1694795846
 20
10.9178533247
 30
0.0
 10
13.1663164192
 20
10.9214060702
 30
0.0
 10
13.1637139838
 20
10.9249949445
 30
0.0
 10
13.1619925699
 20
10.9280577849
 30
0.0
 10
13.160919563
 20
10.9305102498
 30
0.0
 10
13.1602698648
 20
10.9323273037
 30
0.0
 10
13.1597640709
 20
10.9341479476
 30
0.0
 10
13.1594025511
 20
10.9359714335
 30
0.0
 10
13.1591855147
 20
10.9377966849
 30
0.0
 10
13.1591372177
 20
10.9390156253
 30
0.0
 10
13.1591372225
 20
10.9396230627
 30
0.0
  0
SPLINE
  5
32F
100
AcDbEntity
  8
0
100
AcDbSpline
 62
7
  6
CONTINUOUS
 70
0
 71
3
 72
27
 73
23
 74
0
 42
0.0000001
 43
0.0000001
 44
0.0000000001
 40
0.0
 40
0.0
 40
0.0
 40
0.0
 40
0.0637761271
 40
0.0955883976
 40
0.1273469085
 40
0.1907029206
 40
0.2538558223
 40
0.2853602401
 40
0.3168164357
 40
0.3795841196
 40
0.4421741829
 40
0.5045989092
 40
0.5668722156
 40
0.6290095116
 40
0.6910275677
 40
0.7219999748
 40
0.7529494013
 40
0.8147838969
 40
0.8765559321
 40
0.907427452
 40
0.9382910693
 40
1.0
 40
1.0
 40
1.0
 40
1.0
 10
12.5201412934
 20
8.8147511763
 30
0.0
 10
12.5201412934
 20
8.801467014
 30
0.0
 10
12.5196639442
 20
8.7815521305
 30
0.0
 10
12.5180670436
 20
8.7550728297
 30
0.0
 10
12.5158360764
 20
8.7287267103
 30
0.0
 10
12.5118574656
 20
8.6959876457
 30
0.0
 10
12.5062900341
 20
8.6635344591
 30
0.0
 10
12.5008936095
 20
8.6378236826
 30
0.0
 10
12.4948820159
 20
8.6123322541
 30
0.0
 10
12.486205007
 20
8.5808273465
 30
0.0
 10
12.473946982
 20
8.5436670794
 30
0.0
 10
12.4598786523
 20
8.507263476
 30
0.0
 10
12.4440324292
 20
8.4717009214
 30
0.0
 10
12.4264450804
 20
8.4370618291
 30
0.0
 10
12.4103637188
 20
8.4090181793
 30
0.0
 10
12.396672354
 20
8.3871291029
 30
0.0
 10
12.3824474831
 20
8.3656286958
 30
0.0
 10
12.363658445
 20
8.3394690455
 30
0.0
 10
12.3435626858
 20
8.3143200745
 30
0.0
 10
12.3267391769
 20
8.2948542617
 30
0.0
 10
12.309430132
 20
8.2758374596
 30
0.0
 10
12.2959027353
 20
8.2620807182
 30
0.0
 10
12.2866577552
 20
8.2531507225
 30
0.0
  0
SPLINE
  5
330
100
AcDbEntity
  8
0
100
AcDbSpline
 62
7
  6
CONTINUOUS
 70
0
 71
3
 72
27
 73
23
 74
0
 42
0.0000001
 43
0.0000001
 44
0.0000000001
 40
0.0
 40
0.0
 40
0.0
 40
0.0
 40
0.0637761271
 40
0.0955883976
 40
0.1273469085
 40
0.1907029206
 40
0.2538558223
 40
0.2853602401
 40
0.3168164357
 40
0.3795841196
 40
0.4421741829
 40
0.5045989092
 40
0.5668722156
 40
0.6290095116
 40
0.6910275677
 40
0.7219999748
 40
0.7529494013
 40
0.8147838969
 40
0.8765559321
 40
0.907427452
 40
0.9382910693
 40
1.0
 40
1.0
 40
1.0
 40
1.0
 10
10.5882892961
 20
6.7753923295
 30
0.0
 10
10.5882892961
 20
6.7621081671
 30
0.0
 10
10.5878119468
 20
6.7421932836
 30
0.0
 10
10.5862150463
 20
6.7157139829
 30
0.0
 10
10.5839840791
 20
6.6893678634
 30
0.0
 10
10.5800054683
 20
6.6566287988
 30
0.0
 10
10.5744380368
 20
6.6241756122
 30
0.0
 10
10.5690416122
 20
6.5984648358
 30
0.0
 10
10.5630300186
 20
6.5729734073
 30
0.0
 10
10.5543530097
 20
6.5414684996
 30
0.0
 10
10.5420949846
 20
6.5043082326
 30
0.0
 10
10.5280266549
 20
6.4679046291
 30
0.0
 10
10.5121804319
 20
6.4323420745
 30
0.0
 10
10.494593083
 20
6.3977029822
 30
0.0
 10
10.4785117214
 20
6.3696593325
 30
0.0
 10
10.4648203567
 20
6.347770256
 30
0.0
 10
10.4505954858
 20
6.326269849
 30
0.0
 10
10.4318064477
 20
6.3001101986
 30
0.0
 10
10.4117106885
 20
6.2749612277
 30
0.0
 10
10.3948871796
 20
6.2554954149
 30
0.0
 10
10.3775781346
 20
6.2364786127
 30
0.0
 10
10.364050738
 20
6.2227218713
 30
0.0
 10
10.3548057579
 20
6.2137918756
 30
0.0
  0
SPLINE
  5
331
100
AcDbEntity
  8
0
100
AcDbSpline
 62
7
  6
CONTINUOUS
 70
0
 71
3
 72
15
 73
11
 74
0
 42
0.0000001
 43
0.0000001
 44
0.0000000001
 40
0.0
 40
0.0
 40
0.0
 40
0.0
 40
0.1266479504
 40
0.2527877456
 40
0.3784288389
 40
0.5035893148
 40
0.6282929851
 40
0.7525705808
 40
0.8764587899
 40
1.0
 40
1.0
 40
1.0
 40
1.0
 10
9.2900851739
 20
8.7972748582
 30
0.0
 10
9.2900851739
 20
8.7840860519
 30
0.0
 10
9.2893199787
 20
8.7577547514
 30
0.0
 10
9.2858641258
 20
8.7184761007
 30
0.0
 10
9.2801139756
 20
8.6796221663
 30
0.0
 10
9.2720888949
 20
8.6413264802
 30
0.0
 10
9.2618159153
 20
8.6037185641
 30
0.0
 10
9.249329489
 20
8.5669257099
 30
0.0
 10
9.2346727035
 20
8.5310744584
 30
0.0
 10
9.2234711269
 20
8.5078486824
 30
0.0
 10
9.2175277644
 20
8.4964385194
 30
0.0
  0
SPLINE
  5
332
100
AcDbEntity
  8
0
100
AcDbSpline
 62
7
  6
CONTINUOUS
 70
0
 71
3
 72
60
 73
56
 74
0
 42
0.0000001
 43
0.0000001
 44
0.0000000001
 40
0.0
 40
0.0
 40
0.0
 40
0.0
 40
0.0417737215
 40
0.0840362954
 40
0.1266575307
 40
0.1695051874
 40
0.2124464681
 40
0.2553480875
 40
0.2980769527
 40
0.3405006415
 40
0.3824879411
 40
0.4239093736
 40
0.4646377307
 40
0.5045486136
 40
0.543520985
 40
0.5814377367
 40
0.599965091
 40
0.6181867239
 40
0.6360893624
 40
0.6536601077
 40
0.6708864507
 40
0.6877562714
 40
0.7042579206
 40
0.7203801597
 40
0.7361123056
 40
0.7514441249
 40
0.7663660213
 40
0.7808689196
 40
0.7949444585
 40
0.8085849095
 40
0.8217833396
 40
0.8345336065
 40
0.8468304684
 40
0.8586696849
 40
0.8700480724
 40
0.8809637257
 40
0.8914160437
 40
0.9014060712
 40
0.9109365509
 40
0.9200123738
 40
0.9286407389
 40
0.9368317014
 40
0.9445985263
 40
0.9519583321
 40
0.9589326812
 40
0.9655482848
 40
0.9718377328
 40
0.9778400566
 40
0.9836011837
 40
0.9864084827
 40
0.9891757961
 40
0.9919106627
 40
0.9946209124
 40
0.9973146132
 40
1.0
 40
1.0
 40
1.0
 40
1.0
 10
14.6265216843
 20
9.8855466148
 30
0.0
 10
14.6265216843
 20
9.9077471392
 30
0.0
 10
14.626868035
 20
9.9524086849
 30
0.0
 10
14.6283991979
 20
10.0197053857
 30
0.0
 10
14.6309405434
 20
10.0875427639
 30
0.0
 10
14.6344837509
 20
10.1556963003
 30
0.0
 10
14.6390171048
 20
10.2239404779
 30
0.0
 10
14.6445256233
 20
10.2920495377
 30
0.0
 10
14.6509910575
 20
10.359798142
 30
0.0
 10
14.6583919749
 20
10.4269621636
 30
0.0
 10
14.6667038208
 20
10.493319418
 30
0.0
 10
14.6758990012
 20
10.5586504145
 30
0.0
 10
14.6859469742
 20
10.6227390653
 30
0.0
 10
14.6968143388
 20
10.6853734908
 30
0.0
 10
14.7084649823
 20
10.7463464386
 30
0.0
 10
14.7188725734
 20
10.7959789677
 30
0.0
 10
14.7275729094
 20
10.8346948472
 30
0.0
 10
14.7342190656
 20
10.8629691762
 30
0.0
 10
14.7410307358
 20
10.8906808483
 30
0.0
 10
14.7480022927
 20
10.9178069663
 30
0.0
 10
14.7551279353
 20
10.9443250914
 30
0.0
 10
14.7624017909
 20
10.9702132963
 30
0.0
 10
14.7698177727
 20
10.995450182
 30
0.0
 10
14.7773698034
 20
11.0200148826
 30
0.0
 10
14.785051533
 20
11.043887108
 30
0.0
 10
14.7928566879
 20
11.0670471263
 30
0.0
 10
14.8007786965
 20
11.0894758255
 30
0.0
 10
14.8088110864
 20
11.1111546788
 30
0.0
 10
14.8169471146
 20
11.1320658165
 30
0.0
 10
14.8251801084
 20
11.1521919875
 30
0.0
 10
14.833503203
 20
11.1715166238
 30
0.0
 10
14.8419095331
 20
11.1900238204
 30
0.0
 10
14.8503921576
 20
11.2076983669
 30
0.0
 10
14.8589440414
 20
11.2245257733
 30
0.0
 10
14.8675582095
 20
11.2404922402
 30
0.0
 10
14.8762275016
 20
11.2555847581
 30
0.0
 10
14.8849449507
 20
11.2697909896
 30
0.0
 10
14.8937033484
 20
11.2830994602
 30
0.0
 10
14.9024957841
 20
11.2954993426
 30
0.0
 10
14.9113151249
 20
11.3069807216
 30
0.0
 10
14.9201545889
 20
11.3175343076
 30
0.0
 10
14.9290072889
 20
11.3271517031
 30
0.0
 10
14.9378666896
 20
11.3358251074
 30
0.0
 10
14.9467263328
 20
11.3435474536
 30
0.0
 10
14.9555800592
 20
11.3503121947
 30
0.0
 10
14.9644218372
 20
11.3561131355
 30
0.0
 10
14.9732459228
 20
11.3609444795
 30
0.0
 10
14.9820455325
 20
11.3648001393
 30
0.0
 10
14.9894175613
 20
11.3672163524
 30
0.0
 10
14.9952740552
 20
11.3686387769
 30
0.0
 10
14.9996170812
 20
11.3694507817
 30
0.0
 10
15.0039469434
 20
11.370016671
 30
0.0
 10
15.0082628163
 20
11.3703362649
 30
0.0
 10
15.0125634793
 20
11.3704093818
 30
0.0
 10
15.0154217073
 20
11.3702937361
 30
0.0
 10
15.0168454286
 20
11.3701949979
 30
0.0
  0
SPLINE
  5
333
100
AcDbEntity
  8
0
100
AcDbSpline
 62
7
  6
CONTINUOUS
 70
0
 71
3
 72
60
 73
56
 74
0
 42
0.0000001
 43
0.0000001
 44
0.0000000001
 40
0.0
 40
0.0
 40
0.0
 40
0.0
 40
0.0417737215
 40
0.0840362954
 40
0.1266575307
 40
0.1695051874
 40
0.2124464681
 40
0.2553480875
 40
0.2980769527
 40
0.3405006415
 40
0.3824879411
 40
0.4239093736
 40
0.4646377307
 40
0.5045486136
 40
0.543520985
 40
0.5814377367
 40
0.599965091
 40
0.6181867239
 40
0.6360893624
 40
0.6536601077
 40
0.6708864507
 40
0.6877562714
 40
0.7042579206
 40
0.7203801597
 40
0.7361123056
 40
0.7514441249
 40
0.7663660213
 40
0.7808689196
 40
0.7949444585
 40
0.8085849095
 40
0.8217833396
 40
0.8345336065
 40
0.8468304684
 40
0.8586696849
 40
0.8700480724
 40
0.8809637257
 40
0.8914160437
 40
0.9014060712
 40
0.9109365509
 40
0.9200123738
 40
0.9286407389
 40
0.9368317014
 40
0.9445985263
 40
0.9519583321
 40
0.9589326812
 40
0.9655482848
 40
0.9718377328
 40
0.9778400566
 40
0.9836011837
 40
0.9864084827
 40
0.9891757961
 40
0.9919106627
 40
0.9946209124
 40
0.9973146132
 40
1.0
 40
1.0
 40
1.0
 40
1.0
 10
14.6265216843
 20
6.8660623729
 30
0.0
 10
14.6265216843
 20
6.8882628973
 30
0.0
 10
14.626868035
 20
6.932924443
 30
0.0
 10
14.6283991979
 20
7.0002211438
 30
0.0
 10
14.6309405434
 20
7.0680585221
 30
0.0
 10
14.6344837509
 20
7.1362120584
 30
0.0
 10
14.6390171048
 20
7.204456236
 30
0.0
 10
14.6445256233
 20
7.2725652958
 30
0.0
 10
14.6509910575
 20
7.3403139002
 30
0.0
 10
14.6583919749
 20
7.4074779217
 30
0.0
 10
14.6667038208
 20
7.4738351761
 30
0.0
 10
14.6758990012
 20
7.5391661726
 30
0.0
 10
14.6859469742
 20
7.6032548235
 30
0.0
 10
14.6968143388
 20
7.6658892489
 30
0.0
 10
14.7084649823
 20
7.7268621967
 30
0.0
 10
14.7188725734
 20
7.7764947258
 30
0.0
 10
14.7275729094
 20
7.8152106053
 30
0.0
 10
14.7342190656
 20
7.8434849343
 30
0.0
 10
14.7410307358
 20
7.8711966065
 30
0.0
 10
14.7480022927
 20
7.8983227244
 30
0.0
 10
14.7551279353
 20
7.9248408495
 30
0.0
 10
14.7624017909
 20
7.9507290544
 30
0.0
 10
14.7698177727
 20
7.9759659401
 30
0.0
 10
14.7773698034
 20
8.0005306408
 30
0.0
 10
14.785051533
 20
8.0244028661
 30
0.0
 10
14.7928566879
 20
8.0475628844
 30
0.0
 10
14.8007786965
 20
8.0699915836
 30
0.0
 10
14.8088110864
 20
8.091670437
 30
0.0
 10
14.8169471146
 20
8.1125815746
 30
0.0
 10
14.8251801084
 20
8.1327077456
 30
0.0
 10
14.833503203
 20
8.1520323819
 30
0.0
 10
14.8419095331
 20
8.1705395785
 30
0.0
 10
14.8503921576
 20
8.188214125
 30
0.0
 10
14.8589440414
 20
8.2050415315
 30
0.0
 10
14.8675582095
 20
8.2210079983
 30
0.0
 10
14.8762275016
 20
8.2361005162
 30
0.0
 10
14.8849449507
 20
8.2503067477
 30
0.0
 10
14.8937033484
 20
8.2636152183
 30
0.0
 10
14.9024957841
 20
8.2760151007
 30
0.0
 10
14.9113151249
 20
8.2874964797
 30
0.0
 10
14.9201545889
 20
8.2980500658
 30
0.0
 10
14.9290072889
 20
8.3076674613
 30
0.0
 10
14.9378666896
 20
8.3163408655
 30
0.0
 10
14.9467263328
 20
8.3240632117
 30
0.0
 10
14.9555800592
 20
8.3308279529
 30
0.0
 10
14.9644218372
 20
8.3366288936
 30
0.0
 10
14.9732459228
 20
8.3414602376
 30
0.0
 10
14.9820455325
 20
8.3453158974
 30
0.0
 10
14.9894175613
 20
8.3477321105
 30
0.0
 10
14.9952740552
 20
8.349154535
 30
0.0
 10
14.9996170812
 20
8.3499665399
 30
0.0
 10
15.0039469434
 20
8.3505324291
 30
0.0
 10
15.0082628163
 20
8.350852023
 30
0.0
 10
15.0125634793
 20
8.35092514
 30
0.0
 10
15.0154217073
 20
8.3508094942
 30
0.0
 10
15.0168454286
 20
8.350710756
 30
0.0
  0
SPLINE
  5
334
100
AcDbEntity
  8
0
100
AcDbSpline
 62
7
  6
CONTINUOUS
 70
0
 71
3
 72
26
 73
22
 74
0
 42
0.0000001
 43
0.0000001
 44
0.0000000001
 40
0.0
 40
0.0
 40
0.0
 40
0.0
 40
0.0637763276
 40
0.127342886
 40
0.1906991341
 40
0.2538523424
 40
0.2853569136
 40
0.3168132539
 40
0.3795812247
 40
0.4421715801
 40
0.5045965951
 40
0.5668701916
 40
0.6290077778
 40
0.6910261223
 40
0.7219986725
 40
0.7529482429
 40
0.8147830252
 40
0.8765553491
 40
0.9074270146
 40
0.9382907765
 40
1.0
 40
1.0
 40
1.0
 40
1.0
 10
12.5162503462
 20
8.8579928097
 30
0.0
 10
12.5162503462
 20
8.8454337673
 30
0.0
 10
12.5156492355
 20
8.8203527561
 30
0.0
 10
12.5129360226
 20
8.7828836574
 30
0.0
 10
12.5084186524
 20
8.7457120599
 30
0.0
 10
12.5031550985
 20
8.7150300593
 30
0.0
 10
12.4980531895
 20
8.6907227138
 30
0.0
 10
12.4923697323
 20
8.6666226984
 30
0.0
 10
12.4841662912
 20
8.6368374707
 30
0.0
 10
12.4725773119
 20
8.6017055703
 30
0.0
 10
12.459276837
 20
8.5672890357
 30
0.0
 10
12.4442955116
 20
8.533667646
 30
0.0
 10
12.4276680955
 20
8.5009193152
 30
0.0
 10
12.4124644332
 20
8.474406445
 30
0.0
 10
12.3995203679
 20
8.453712177
 30
0.0
 10
12.3860718604
 20
8.4333854019
 30
0.0
 10
12.3683083472
 20
8.4086536875
 30
0.0
 10
12.3493094549
 20
8.3848774715
 30
0.0
 10
12.3334041401
 20
8.3664742627
 30
0.0
 10
12.3170398931
 20
8.3484954657
 30
0.0
 10
12.304250781
 20
8.3354897099
 30
0.0
 10
12.2955104186
 20
8.3270471559
 30
0.0
  0
SPLINE
  5
335
100
AcDbEntity
  8
0
100
AcDbSpline
 62
7
  6
CONTINUOUS
 70
0
 71
3
 72
21
 73
17
 74
0
 42
0.0000001
 43
0.0000001
 44
0.0000000001
 40
0.0
 40
0.0
 40
0.0
 40
0.0
 40
0.0632459501
 40
0.1263584636
 40
0.1893430514
 40
0.2522058752
 40
0.3149537381
 40
0.3775940398
 40
0.5025635422
 40
0.6272040778
 40
0.6894349602
 40
0.7516125986
 40
0.8137473124
 40
0.8758496252
 40
0.9379302514
 40
1.0
 40
1.0
 40
1.0
 40
1.0
 10
12.5141377936
 20
8.7996354824
 30
0.0
 10
12.5123794637
 20
8.7918445077
 30
0.0
 10
12.5085911979
 20
8.7763396323
 30
0.0
 10
12.5020932756
 20
8.753323572
 30
0.0
 10
12.4947934443
 20
8.7305995798
 30
0.0
 10
12.4867003435
 20
8.7081949646
 30
0.0
 10
12.477823303
 20
8.6861357228
 30
0.0
 10
12.4649679685
 20
8.6572449348
 30
0.0
 10
12.4469907763
 20
8.6221077707
 30
0.0
 10
12.4265304605
 20
8.5884160173
 30
0.0
 10
12.4087517544
 20
8.5624652706
 30
0.0
 10
12.3947313529
 20
8.5435275518
 30
0.0
 10
12.3800357524
 20
8.5251300219
 30
0.0
 10
12.3646820007
 20
8.5072940076
 30
0.0
 10
12.3486886521
 20
8.4900408441
 30
0.0
 10
12.3376114198
 20
8.478939901
 30
0.0
 10
12.3319736184
 20
8.4734942063
 30
0.0
  0
SPLINE
  5
336
100
AcDbEntity
  8
0
100
AcDbSpline
 62
7
  6
CONTINUOUS
 70
0
 71
3
 72
57
 73
53
 74
0
 42
0.0000001
 43
0.0000001
 44
0.0000000001
 40
0.0
 40
0.0
 40
0.0
 40
0.0
 40
0.007372134
 40
0.0149688466
 40
0.0228188668
 40
0.030947102
 40
0.0393751332
 40
0.0481202634
 40
0.0571967841
 40
0.0666158476
 40
0.0763863654
 40
0.0865147742
 40
0.0970057502
 40
0.1078620864
 40
0.1190852078
 40
0.1306750519
 40
0.1426304501
 40
0.1549490185
 40
0.1676274582
 40
0.1806614102
 40
0.1940457513
 40
0.2077743464
 40
0.2362321652
 40
0.2659747395
 40
0.296926536
 40
0.3290019263
 40
0.3621070435
 40
0.3961421008
 40
0.4310043662
 40
0.4487160727
 40
0.4665963254
 40
0.4846328568
 40
0.5028137023
 40
0.521127443
 40
0.5395630431
 40
0.5581101579
 40
0.5767588476
 40
0.5954999712
 40
0.614324785
 40
0.6332253974
 40
0.6521942749
 40
0.6712247368
 40
0.6903104047
 40
0.728621043
 40
0.7670917019
 40
0.7863791602
 40
0.8056953998
 40
0.8443994916
 40
0.8831907712
 40
0.9220574874
 40
0.9609943696
 40
1.0
 40
1.0
 40
1.0
 40
1.0
 10
11.8871432294
 20
8.7129654833
 30
0.0
 10
11.8854962161
 20
8.7113745904
 30
0.0
 10
11.8820255715
 20
8.7082729131
 30
0.0
 10
11.8764086679
 20
8.7039409534
 30
0.0
 10
11.8703149838
 20
8.6998705334
 30
0.0
 10
11.8637509022
 20
8.6960683927
 30
0.0
 10
11.8567229997
 20
8.6925411726
 30
0.0
 10
11.8492382297
 20
8.6892971396
 30
0.0
 10
11.8413045314
 20
8.6863452732
 30
0.0
 10
11.8329303762
 20
8.6836958477
 30
0.0
 10
11.8241252172
 20
8.6813597871
 30
0.0
 10
11.8148992348
 20
8.6793491288
 30
0.0
 10
11.805263664
 20
8.6776765988
 30
0.0
 10
11.7952306739
 20
8.6763557531
 30
0.0
 10
11.7848135657
 20
8.6754007889
 30
0.0
 10
11.7740267444
 20
8.674826445
 30
0.0
 10
11.7628858619
 20
8.6746479903
 30
0.0
 10
11.7514078149
 20
8.6748809189
 30
0.0
 10
11.7396108542
 20
8.675541058
 30
0.0
 10
11.727514618
 20
8.6766441064
 30
0.0
 10
11.7151400213
 20
8.6782058456
 30
0.0
 10
11.6980960988
 20
8.6809528948
 30
0.0
 10
11.6762329662
 20
8.6856446037
 30
0.0
 10
11.6495903611
 20
8.6932695352
 30
0.0
 10
11.6224610372
 20
8.7030470209
 30
0.0
 10
11.5950923442
 20
8.7150436426
 30
0.0
 10
11.5677420904
 20
8.7292965448
 30
0.0
 10
11.5406740164
 20
8.7458084191
 30
0.0
 10
11.5186838514
 20
8.7613434623
 30
0.0
 10
11.5014613032
 20
8.774850549
 30
0.0
 10
11.4887025217
 20
8.7855651806
 30
0.0
 10
11.4761994569
 20
8.796796094
 30
0.0
 10
11.4639790747
 20
8.8085292985
 30
0.0
 10
11.4520660699
 20
8.8207481626
 30
0.0
 10
11.4404844239
 20
8.8334360039
 30
0.0
 10
11.4292552965
 20
8.8465740103
 30
0.0
 10
11.4183992363
 20
8.8601436438
 30
0.0
 10
11.4079339244
 20
8.8741247248
 30
0.0
 10
11.3978764677
 20
8.8884975831
 30
0.0
 10
11.3882412556
 20
8.9032414079
 30
0.0
 10
11.3790421949
 20
8.9183359951
 30
0.0
 10
11.3702906449
 20
8.9337606234
 30
0.0
 10
11.359220385
 20
8.9547642349
 30
0.0
 10
11.3465590069
 20
8.9817379114
 30
0.0
 10
11.3355323404
 20
9.009486676
 30
0.0
 10
11.3276955699
 20
9.0321113295
 30
0.0
 10
11.3205125802
 20
9.0550279172
 30
0.0
 10
11.3127936138
 20
9.0841109022
 30
0.0
 10
11.3055732486
 20
9.119546285
 30
0.0
 10
11.3004050248
 20
9.1554123288
 30
0.0
 10
11.2973006472
 20
9.1915808313
 30
0.0
 10
11.2966117506
 20
9.2157966199
 30
0.0
 10
11.2966117506
 20
9.2279123217
 30
0.0
  0
SPLINE
  5
337
100
AcDbEntity
  8
0
100
AcDbSpline
 62
7
  6
CONTINUOUS
 70
0
 71
3
 72
25
 73
21
 74
0
 42
0.0000001
 43
0.0000001
 44
0.0000000001
 40
0.0
 40
0.0
 40
0.0
 40
0.0
 40
0.0639299665
 40
0.0958115537
 40
0.1276357335
 40
0.1911072158
 40
0.2543530047
 40
0.285895724
 40
0.3173843502
 40
0.3801982316
 40
0.4428107232
 40
0.5052346109
 40
0.5674848398
 40
0.6295783614
 40
0.6915339532
 40
0.7533720112
 40
0.8151143192
 40
0.876783797
 40
0.9384042327
 40
1.0
 40
1.0
 40
1.0
 40
1.0
 10
11.7524384473
 20
9.6969063931
 30
0.0
 10
11.7388529152
 20
9.6982366422
 30
0.0
 10
11.7184358461
 20
9.6997071807
 30
0.0
 10
11.691195309
 20
9.7006052458
 30
0.0
 10
11.6640379265
 20
9.7007935146
 30
0.0
 10
11.6301869013
 20
9.6997024679
 30
0.0
 10
11.5964996885
 20
9.6968371255
 30
0.0
 10
11.5697430087
 20
9.6934849956
 30
0.0
 10
11.5431761752
 20
9.6894365294
 30
0.0
 10
11.5102648168
 20
9.6830656743
 30
0.0
 10
11.4713332663
 20
9.6733345773
 30
0.0
 10
11.4330986493
 20
9.6615495222
 30
0.0
 10
11.3956649651
 20
9.647742298
 30
0.0
 10
11.3591331702
 20
9.6319500792
 30
0.0
 10
11.3236020412
 20
9.6142154547
 30
0.0
 10
11.2891675708
 20
9.5945862402
 30
0.0
 10
11.2559229192
 20
9.5731154899
 30
0.0
 10
11.2239576359
 20
9.5498608726
 30
0.0
 10
11.1933592901
 20
9.5248863018
 30
0.0
 10
11.1739226363
 20
9.5071309874
 30
0.0
 10
11.1644629354
 20
9.4979936048
 30
0.0
  0
SPLINE
  5
338
100
AcDbEntity
  8
0
100
AcDbSpline
 62
7
  6
CONTINUOUS
 70
0
 71
3
 72
15
 73
11
 74
0
 42
0.0000001
 43
0.0000001
 44
0.0000000001
 40
0.0
 40
0.0
 40
0.0
 40
0.0
 40
0.1240214622
 40
0.2482617956
 40
0.3727435494
 40
0.4975014648
 40
0.6225706594
 40
0.7479874725
 40
0.87378872
 40
1.0
 40
1.0
 40
1.0
 40
1.0
 10
11.2966117506
 20
9.2279123217
 30
0.0
 10
11.2966117506
 20
9.2382290035
 30
0.0
 10
11.297112083
 20
9.2588840285
 30
0.0
 10
11.2993582716
 20
9.2898205485
 30
0.0
 10
11.3030979356
 20
9.3206746695
 30
0.0
 10
11.3083254192
 20
9.3513815347
 30
0.0
 10
11.3150326071
 20
9.3818790807
 30
0.0
 10
11.3232077321
 20
9.4121063451
 30
0.0
 10
11.3328346602
 20
9.4420020016
 30
0.0
 10
11.3401947865
 20
9.4616407229
 30
0.0
 10
11.3441067863
 20
9.4713835111
 30
0.0
  0
SPLINE
  5
339
100
AcDbEntity
  8
0
100
AcDbSpline
 62
7
  6
CONTINUOUS
 70
0
 71
3
 72
23
 73
19
 74
0
 42
0.0000001
 43
0.0000001
 44
0.0000000001
 40
0.0
 40
0.0
 40
0.0
 40
0.0
 40
0.0632418096
 40
0.1263503941
 40
0.1893312938
 40
0.2521907038
 40
0.3149354004
 40
0.3775727704
 40
0.4401107124
 40
0.5025576587
 40
0.5649224889
 40
0.6272145121
 40
0.6894434168
 40
0.7516192049
 40
0.8137521739
 40
0.8758528217
 40
0.9379318353
 40
1.0
 40
1.0
 40
1.0
 40
1.0
 10
11.643881394
 20
9.7000246457
 30
0.0
 10
11.6360451327
 20
9.6985338134
 30
0.0
 10
11.6204402555
 20
9.6952787076
 30
0.0
 10
11.5972457753
 20
9.6895748337
 30
0.0
 10
11.5743152616
 20
9.6830614693
 30
0.0
 10
11.5516760646
 20
9.6757463744
 30
0.0
 10
11.529354762
 20
9.6676380021
 30
0.0
 10
11.507377574
 20
9.6587460814
 30
0.0
 10
11.4857704559
 20
9.6490808146
 30
0.0
 10
11.464558719
 20
9.6386538303
 30
0.0
 10
11.443767446
 20
9.6274771391
 30
0.0
 10
11.4234210004
 20
9.6155640864
 30
0.0
 10
11.4035434018
 20
9.6029285536
 30
0.0
 10
11.384158013
 20
9.5895854466
 30
0.0
 10
11.3652876406
 20
9.5755505194
 30
0.0
 10
11.346954502
 20
9.5608400932
 30
0.0
 10
11.3291803299
 20
9.5454719412
 30
0.0
 10
11.3177165181
 20
9.5347989016
 30
0.0
 10
11.3120856301
 20
9.5293598847
 30
0.0
  0
SPLINE
  5
33A
100
AcDbEntity
  8
0
100
AcDbSpline
 62
7
  6
CONTINUOUS
 70
0
 71
3
 72
26
 73
22
 74
0
 42
0.0000001
 43
0.0000001
 44
0.0000000001
 40
0.0
 40
0.0
 40
0.0
 40
0.0
 40
0.0637763276
 40
0.127342886
 40
0.1906991341
 40
0.2538523424
 40
0.2853569136
 40
0.3168132539
 40
0.3795812247
 40
0.4421715801
 40
0.5045965951
 40
0.5668701916
 40
0.6290077778
 40
0.6910261223
 40
0.7219986725
 40
0.7529482429
 40
0.8147830252
 40
0.8765553491
 40
0.9074270146
 40
0.9382907765
 40
1.0
 40
1.0
 40
1.0
 40
1.0
 10
10.5843983488
 20
6.8186339628
 30
0.0
 10
10.5843983488
 20
6.8060749204
 30
0.0
 10
10.5837972382
 20
6.7809939092
 30
0.0
 10
10.5810840252
 20
6.7435248105
 30
0.0
 10
10.5765666551
 20
6.706353213
 30
0.0
 10
10.5713031011
 20
6.6756712124
 30
0.0
 10
10.5662011922
 20
6.6513638669
 30
0.0
 10
10.5605177349
 20
6.6272638515
 30
0.0
 10
10.5523142938
 20
6.5974786238
 30
0.0
 10
10.5407253146
 20
6.5623467235
 30
0.0
 10
10.5274248397
 20
6.5279301889
 30
0.0
 10
10.5124435143
 20
6.4943087991
 30
0.0
 10
10.4958160981
 20
6.4615604683
 30
0.0
 10
10.4806124358
 20
6.4350475981
 30
0.0
 10
10.4676683706
 20
6.4143533301
 30
0.0
 10
10.4542198631
 20
6.394026555
 30
0.0
 10
10.4364563498
 20
6.3692948406
 30
0.0
 10
10.4174574576
 20
6.3455186246
 30
0.0
 10
10.4015521427
 20
6.3271154159
 30
0.0
 10
10.3851878958
 20
6.3091366188
 30
0.0
 10
10.3723987837
 20
6.296130863
 30
0.0
 10
10.3636584212
 20
6.287688309
 30
0.0
  0
SPLINE
  5
33B
100
AcDbEntity
  8
0
100
AcDbSpline
 62
7
  6
CONTINUOUS
 70
0
 71
3
 72
21
 73
17
 74
0
 42
0.0000001
 43
0.0000001
 44
0.0000000001
 40
0.0
 40
0.0
 40
0.0
 40
0.0
 40
0.0632459501
 40
0.1263584636
 40
0.1893430514
 40
0.2522058752
 40
0.3149537381
 40
0.3775940398
 40
0.5025635422
 40
0.6272040778
 40
0.6894349602
 40
0.7516125986
 40
0.8137473124
 40
0.8758496252
 40
0.9379302514
 40
1.0
 40
1.0
 40
1.0
 40
1.0
 10
10.5822857963
 20
6.7602766355
 30
0.0
 10
10.5805274664
 20
6.7524856609
 30
0.0
 10
10.5767392005
 20
6.7369807854
 30
0.0
 10
10.5702412782
 20
6.7139647251
 30
0.0
 10
10.562941447
 20
6.691240733
 30
0.0
 10
10.5548483462
 20
6.6688361177
 30
0.0
 10
10.5459713057
 20
6.646776876
 30
0.0
 10
10.5331159712
 20
6.6178860879
 30
0.0
 10
10.5151387789
 20
6.5827489239
 30
0.0
 10
10.4946784631
 20
6.5490571705
 30
0.0
 10
10.476899757
 20
6.5231064237
 30
0.0
 10
10.4628793556
 20
6.5041687049
 30
0.0
 10
10.4481837551
 20
6.485771175
 30
0.0
 10
10.4328300034
 20
6.4679351607
 30
0.0
 10
10.4168366548
 20
6.4506819972
 30
0.0
 10
10.4057594224
 20
6.4395810541
 30
0.0
 10
10.400121621
 20
6.4341353594
 30
0.0
  0
SPLINE
  5
33C
100
AcDbEntity
  8
0
100
AcDbSpline
 62
7
  6
CONTINUOUS
 70
0
 71
3
 72
25
 73
21
 74
0
 42
0.0000001
 43
0.0000001
 44
0.0000000001
 40
0.0
 40
0.0
 40
0.0
 40
0.0
 40
0.0639299665
 40
0.0958115537
 40
0.1276357335
 40
0.1911072158
 40
0.2543530047
 40
0.285895724
 40
0.3173843502
 40
0.3801982316
 40
0.4428107232
 40
0.5052346109
 40
0.5674848398
 40
0.6295783614
 40
0.6915339532
 40
0.7533720112
 40
0.8151143192
 40
0.876783797
 40
0.9384042327
 40
1.0
 40
1.0
 40
1.0
 40
1.0
 10
9.82058645
 20
7.6575475463
 30
0.0
 10
9.8070009179
 20
7.6588777954
 30
0.0
 10
9.7865838487
 20
7.6603483338
 30
0.0
 10
9.7593433117
 20
7.6612463989
 30
0.0
 10
9.7321859292
 20
7.6614346678
 30
0.0
 10
9.698334904
 20
7.660343621
 30
0.0
 10
9.6646476912
 20
7.6574782786
 30
0.0
 10
9.6378910114
 20
7.6541261487
 30
0.0
 10
9.6113241779
 20
7.6500776825
 30
0.0
 10
9.5784128195
 20
7.6437068275
 30
0.0
 10
9.539481269
 20
7.6339757304
 30
0.0
 10
9.501246652
 20
7.6221906753
 30
0.0
 10
9.4638129678
 20
7.6083834511
 30
0.0
 10
9.4272811729
 20
7.5925912323
 30
0.0
 10
9.3917500439
 20
7.5748566079
 30
0.0
 10
9.3573155735
 20
7.5552273933
 30
0.0
 10
9.3240709218
 20
7.533756643
 30
0.0
 10
9.2921056386
 20
7.5105020258
 30
0.0
 10
9.2615072928
 20
7.4855274549
 30
0.0
 10
9.2420706389
 20
7.4677721405
 30
0.0
 10
9.232610938
 20
7.4586347579
 30
0.0
  0
SPLINE
  5
33D
100
AcDbEntity
  8
0
100
AcDbSpline
 62
7
  6
CONTINUOUS
 70
0
 71
3
 72
23
 73
19
 74
0
 42
0.0000001
 43
0.0000001
 44
0.0000000001
 40
0.0
 40
0.0
 40
0.0
 40
0.0
 40
0.0632418096
 40
0.1263503941
 40
0.1893312938
 40
0.2521907038
 40
0.3149354004
 40
0.3775727704
 40
0.4401107124
 40
0.5025576587
 40
0.5649224889
 40
0.6272145121
 40
0.6894434168
 40
0.7516192049
 40
0.8137521739
 40
0.8758528217
 40
0.9379318353
 40
1.0
 40
1.0
 40
1.0
 40
1.0
 10
9.7120293966
 20
7.6606657988
 30
0.0
 10
9.7041931353
 20
7.6591749665
 30
0.0
 10
9.6885882581
 20
7.6559198608
 30
0.0
 10
9.665393778
 20
7.6502159868
 30
0.0
 10
9.6424632642
 20
7.6437026225
 30
0.0
 10
9.6198240672
 20
7.6363875275
 30
0.0
 10
9.5975027647
 20
7.6282791553
 30
0.0
 10
9.5755255767
 20
7.6193872345
 30
0.0
 10
9.5539184586
 20
7.6097219677
 30
0.0
 10
9.5327067217
 20
7.5992949835
 30
0.0
 10
9.5119154486
 20
7.5881182922
 30
0.0
 10
9.4915690031
 20
7.5762052395
 30
0.0
 10
9.4716914045
 20
7.5635697067
 30
0.0
 10
9.4523060157
 20
7.5502265997
 30
0.0
 10
9.4334356432
 20
7.5361916726
 30
0.0
 10
9.4151025047
 20
7.5214812463
 30
0.0
 10
9.3973283326
 20
7.5061130943
 30
0.0
 10
9.3858645207
 20
7.4954400547
 30
0.0
 10
9.3802336327
 20
7.4900010378
 30
0.0
  0
SPLINE
  5
33E
100
AcDbEntity
  8
0
100
AcDbSpline
 62
7
  6
CONTINUOUS
 70
0
 71
3
 72
50
 73
46
 74
0
 42
0.0000001
 43
0.0000001
 44
0.0000000001
 40
0.0
 40
0.0
 40
0.0
 40
0.0
 40
0.0055575484
 40
0.0111779922
 40
0.016921945
 40
0.0228458833
 40
0.0290006815
 40
0.0354311436
 40
0.0421756504
 40
0.0492665308
 40
0.0567306759
 40
0.0645898217
 40
0.0728615778
 40
0.0815596977
 40
0.0906946685
 40
0.100274387
 40
0.1103041016
 40
0.1207871917
 40
0.1317251696
 40
0.1431178633
 40
0.1549639321
 40
0.16726054
 40
0.1800039018
 40
0.1931892317
 40
0.2208607128
 40
0.2502207991
 40
0.2812027127
 40
0.3137299142
 40
0.3477173552
 40
0.383072554
 40
0.4196964471
 40
0.4574841188
 40
0.4963254304
 40
0.5361057043
 40
0.5767063272
 40
0.6180053027
 40
0.6598777724
 40
0.7021965482
 40
0.7448326997
 40
0.7876559964
 40
0.8305355066
 40
0.8733402465
 40
0.9159384006
 40
0.9582025777
 40
1.0
 40
1.0
 40
1.0
 40
1.0
 10
8.2930635602
 20
11.3247986424
 30
0.0
 10
8.2930635534
 20
11.3239476545
 30
0.0
 10
8.2929682126
 20
11.3222345691
 30
0.0
 10
8.2925405612
 20
11.3196740884
 30
0.0
 10
8.2918289337
 20
11.3171193051
 30
0.0
 10
8.2908346208
 20
11.3145732278
 30
0.0
 10
8.2895594183
 20
11.3120378486
 30
0.0
 10
8.2880048952
 20
11.3095151823
 30
0.0
 10
8.2861728965
 20
11.3070069265
 30
0.0
 10
8.2840652357
 20
11.30451474
 30
0.0
 10
8.2816837092
 20
11.3020403935
 30
0.0
 10
8.279030422
 20
11.2995854891
 30
0.0
 10
8.2761074502
 20
11.2971518737
 30
0.0
 10
8.2729171629
 20
11.2947413161
 30
0.0
 10
8.2694621221
 20
11.2923555955
 30
0.0
 10
8.2657450266
 20
11.2899966562
 30
0.0
 10
8.2617689021
 20
11.2876662453
 30
0.0
 10
8.2575369022
 20
11.2853662822
 30
0.0
 10
8.2530524359
 20
11.2830986122
 30
0.0
 10
8.2483191416
 20
11.2808650067
 30
0.0
 10
8.2433408173
 20
11.2786673721
 30
0.0
 10
8.2381215311
 20
11.2765074212
 30
0.0
 10
8.2326655043
 20
11.27438693
 30
0.0
 10
8.2249564586
 20
11.2715691419
 30
0.0
 10
8.2147536463
 20
11.2681693428
 30
0.0
 10
8.2018311185
 20
11.2643363984
 30
0.0
 10
8.1880815404
 20
11.260699983
 30
0.0
 10
8.1735497823
 20
11.2572721188
 30
0.0
 10
8.1582831431
 20
11.2540641522
 30
0.0
 10
8.1423314628
 20
11.2510867064
 30
0.0
 10
8.1257468491
 20
11.2483496429
 30
0.0
 10
8.1085835315
 20
11.2458620313
 30
0.0
 10
8.0908976726
 20
11.2436320906
 30
0.0
 10
8.0727471713
 20
11.2416671887
 30
0.0
 10
8.0541914589
 20
11.2399738199
 30
0.0
 10
8.0352913048
 20
11.2385575862
 30
0.0
 10
8.016108622
 20
11.2374231713
 30
0.0
 10
7.9967062572
 20
11.2365743089
 30
0.0
 10
7.977147785
 20
11.2360138013
 30
0.0
 10
7.9574972905
 20
11.2357434986
 30
0.0
 10
7.9378191349
 20
11.2357643
 30
0.0
 10
7.9181779186
 20
11.2360761541
 30
0.0
 10
7.8986376894
 20
11.2366779734
 30
0.0
 10
7.8792628967
 20
11.2375678543
 30
0.0
 10
7.8664146913
 20
11.2383562888
 30
0.0
 10
7.8600298846
 20
11.2387990766
 30
0.0
  0
SPLINE
  5
33F
100
AcDbEntity
  8
0
100
AcDbSpline
 62
7
  6
CONTINUOUS
 70
0
 71
3
 72
50
 73
46
 74
0
 42
0.0000001
 43
0.0000001
 44
0.0000000001
 40
0.0
 40
0.0
 40
0.0
 40
0.0
 40
0.0055575484
 40
0.0111779922
 40
0.016921945
 40
0.0228458833
 40
0.0290006815
 40
0.0354311436
 40
0.0421756504
 40
0.0492665308
 40
0.0567306759
 40
0.0645898217
 40
0.0728615778
 40
0.0815596977
 40
0.0906946685
 40
0.100274387
 40
0.1103041016
 40
0.1207871917
 40
0.1317251696
 40
0.1431178633
 40
0.1549639321
 40
0.16726054
 40
0.1800039018
 40
0.1931892317
 40
0.2208607128
 40
0.2502207991
 40
0.2812027127
 40
0.3137299142
 40
0.3477173552
 40
0.383072554
 40
0.4196964471
 40
0.4574841188
 40
0.4963254304
 40
0.5361057043
 40
0.5767063272
 40
0.6180053027
 40
0.6598777724
 40
0.7021965482
 40
0.7448326997
 40
0.7876559964
 40
0.8305355066
 40
0.8733402465
 40
0.9159384006
 40
0.9582025777
 40
1.0
 40
1.0
 40
1.0
 40
1.0
 10
13.8471372178
 20
10.939622326
 30
0.0
 10
13.847137211
 20
10.9387713382
 30
0.0
 10
13.8470418701
 20
10.9370582527
 30
0.0
 10
13.8466142187
 20
10.9344977721
 30
0.0
 10
13.8459025912
 20
10.9319429887
 30
0.0
 10
13.8449082783
 20
10.9293969114
 30
0.0
 10
13.8436330758
 20
10.9268615322
 30
0.0
 10
13.8420785527
 20
10.9243388659
 30
0.0
 10
13.8402465541
 20
10.9218306101
 30
0.0
 10
13.8381388932
 20
10.9193384236
 30
0.0
 10
13.8357573667
 20
10.9168640771
 30
0.0
 10
13.8331040795
 20
10.9144091727
 30
0.0
 10
13.8301811077
 20
10.9119755573
 30
0.0
 10
13.8269908204
 20
10.9095649997
 30
0.0
 10
13.8235357797
 20
10.9071792791
 30
0.0
 10
13.8198186841
 20
10.9048203398
 30
0.0
 10
13.8158425597
 20
10.9024899289
 30
0.0
 10
13.8116105598
 20
10.9001899658
 30
0.0
 10
13.8071260935
 20
10.8979222959
 30
0.0
 10
13.8023927992
 20
10.8956886903
 30
0.0
 10
13.7974144748
 20
10.8934910557
 30
0.0
 10
13.7921951887
 20
10.8913311048
 30
0.0
 10
13.7867391618
 20
10.8892106136
 30
0.0
 10
13.7790301161
 20
10.8863928255
 30
0.0
 10
13.7688273038
 20
10.8829930264
 30
0.0
 10
13.755904776
 20
10.879160082
 30
0.0
 10
13.7421551979
 20
10.8755236666
 30
0.0
 10
13.7276234399
 20
10.8720958024
 30
0.0
 10
13.7123568007
 20
10.8688878358
 30
0.0
 10
13.6964051203
 20
10.8659103901
 30
0.0
 10
13.6798205067
 20
10.8631733265
 30
0.0
 10
13.662657189
 20
10.8606857149
 30
0.0
 10
13.6449713301
 20
10.8584557742
 30
0.0
 10
13.6268208288
 20
10.8564908723
 30
0.0
 10
13.6082651164
 20
10.8547975035
 30
0.0
 10
13.5893649624
 20
10.8533812698
 30
0.0
 10
13.5701822795
 20
10.8522468549
 30
0.0
 10
13.5507799147
 20
10.8513979925
 30
0.0
 10
13.5312214425
 20
10.8508374849
 30
0.0
 10
13.511570948
 20
10.8505671822
 30
0.0
 10
13.4918927924
 20
10.8505879837
 30
0.0
 10
13.4722515761
 20
10.8508998377
 30
0.0
 10
13.4527113469
 20
10.8515016571
 30
0.0
 10
13.4333365542
 20
10.8523915379
 30
0.0
 10
13.4204883488
 20
10.8531799724
 30
0.0
 10
13.4141035421
 20
10.8536227603
 30
0.0
  0
SPLINE
  5
340
100
AcDbEntity
  8
0
100
AcDbSpline
 62
7
  6
CONTINUOUS
 70
0
 71
3
 72
56
 73
52
 74
0
 42
0.0000001
 43
0.0000001
 44
0.0000000001
 40
0.0
 40
0.0
 40
0.0
 40
0.0
 40
0.014971274
 40
0.029945606
 40
0.0449260369
 40
0.0599155706
 40
0.0749171531
 40
0.0899336598
 40
0.104967875
 40
0.1200224737
 40
0.1351000117
 40
0.1502029057
 40
0.1653334193
 40
0.1804936563
 40
0.1956855421
 40
0.2109108165
 40
0.2261710283
 40
0.2414675198
 40
0.2568014272
 40
0.2721736755
 40
0.2875849674
 40
0.3030357913
 40
0.3185264144
 40
0.3340568802
 40
0.3496270191
 40
0.3652364417
 40
0.3808845461
 40
0.3965705269
 40
0.4122933718
 40
0.4280518765
 40
0.4438446507
 40
0.4596701209
 40
0.4755265482
 40
0.4914120331
 40
0.5073245245
 40
0.5232618381
 40
0.5551966919
 40
0.5872017075
 40
0.6192556772
 40
0.6513364178
 40
0.6834212138
 40
0.7154872687
 40
0.7475121591
 40
0.7794742806
 40
0.811353285
 40
0.8431305
 40
0.8747893191
 40
0.9063155631
 40
0.9376978538
 40
0.9689275324
 40
1.0
 40
1.0
 40
1.0
 40
1.0
 10
11.0903004602
 20
9.4917035671
 30
0.0
 10
11.0974429903
 20
9.4986027452
 30
0.0
 10
11.1120054299
 20
9.5121201181
 30
0.0
 10
11.1346400492
 20
9.5315142138
 30
0.0
 10
11.1580367362
 20
9.5500021166
 30
0.0
 10
11.1821629588
 20
9.5675578197
 30
0.0
 10
11.2069855791
 20
9.5841573439
 30
0.0
 10
11.2324703678
 20
9.5997778843
 30
0.0
 10
11.2585823415
 20
9.6143978225
 30
0.0
 10
11.2852854863
 20
9.6279971752
 30
0.0
 10
11.3125430657
 20
9.6405572322
 30
0.0
 10
11.3403176123
 20
9.6520606179
 30
0.0
 10
11.3685708397
 20
9.6624916779
 30
0.0
 10
11.3972639078
 20
9.6718359901
 30
0.0
 10
11.4263573399
 20
9.6800806852
 30
0.0
 10
11.4558110709
 20
9.6872145798
 30
0.0
 10
11.4855846151
 20
9.6932277369
 30
0.0
 10
11.5156369954
 20
9.698111965
 30
0.0
 10
11.5459268642
 20
9.7018606488
 30
0.0
 10
11.5764125755
 20
9.7044684941
 30
0.0
 10
11.6070521835
 20
9.7059320719
 30
0.0
 10
11.6378035551
 20
9.7062493887
 30
0.0
 10
11.6686243966
 20
9.7054199081
 30
0.0
 10
11.6994723288
 20
9.7034449582
 30
0.0
 10
11.7303049327
 20
9.700327192
 30
0.0
 10
11.7610798039
 20
9.6960708744
 30
0.0
 10
11.7917546517
 20
9.6906820212
 30
0.0
 10
11.8222872804
 20
9.6841679229
 30
0.0
 10
11.8526357185
 20
9.6765376007
 30
0.0
 10
11.8827582708
 20
9.667801647
 30
0.0
 10
11.9126134847
 20
9.6579719352
 30
0.0
 10
11.9421603472
 20
9.6470621175
 30
0.0
 10
11.9713582812
 20
9.6350871926
 30
0.0
 10
12.0001669872
 20
9.6220635903
 30
0.0
 10
12.0285473533
 20
9.6080091024
 30
0.0
 10
12.0657850354
 20
9.5879101701
 30
0.0
 10
12.1110634446
 20
9.5603053687
 30
0.0
 10
12.1630302755
 20
9.5234262969
 30
0.0
 10
12.2123900702
 20
9.4829695747
 30
0.0
 10
12.2588701316
 20
9.4391583202
 30
0.0
 10
12.3022158171
 20
9.3922327434
 30
0.0
 10
12.3421890963
 20
9.342450508
 30
0.0
 10
12.3785705309
 20
9.2900847933
 30
0.0
 10
12.4111602132
 20
9.2354229145
 30
0.0
 10
12.4397789703
 20
9.1787647784
 30
0.0
 10
12.4642694276
 20
9.1204213401
 30
0.0
 10
12.4844967125
 20
9.0607126872
 30
0.0
 10
12.5003492182
 20
8.9999668324
 30
0.0
 10
12.5117392234
 20
8.9385162074
 30
0.0
 10
12.5186037918
 20
8.8767026172
 30
0.0
 10
12.5201412934
 20
8.8353616106
 30
0.0
 10
12.5201412934
 20
8.8147511763
 30
0.0
  0
SPLINE
  5
341
100
AcDbEntity
  8
0
100
AcDbSpline
 62
7
  6
CONTINUOUS
 70
0
 71
3
 72
28
 73
24
 74
0
 42
0.0000001
 43
0.0000001
 44
0.0000000001
 40
0.0
 40
0.0
 40
0.0
 40
0.0
 40
0.1007590389
 40
0.1948654655
 40
0.2824372978
 40
0.3636238025
 40
0.438621231
 40
0.5076814048
 40
0.5711222634
 40
0.6293564663
 40
0.6829014449
 40
0.7324203657
 40
0.7559365242
 40
0.778766436
 40
0.8010391064
 40
0.8228918652
 40
0.8444682151
 40
0.8659154867
 40
0.8873834096
 40
0.909021367
 40
0.9309736033
 40
0.9533766071
 40
1.0
 40
1.0
 40
1.0
 40
1.0
 10
10.5041532269
 20
6.5656795883
 30
0.0
 10
10.5023796022
 20
6.5651529702
 30
0.0
 10
10.4989255415
 20
6.5642124167
 30
0.0
 10
10.4938563552
 20
6.5631060771
 30
0.0
 10
10.4890879026
 20
6.5623404536
 30
0.0
 10
10.4846303013
 20
6.5619031657
 30
0.0
 10
10.4804924985
 20
6.5617817806
 30
0.0
 10
10.476682454
 20
6.5619637941
 30
0.0
 10
10.4732071483
 20
6.5624371026
 30
0.0
 10
10.4700726378
 20
6.5631901666
 30
0.0
 10
10.4672849658
 20
6.5642118813
 30
0.0
 10
10.4652202246
 20
6.5652980796
 30
0.0
 10
10.4637654177
 20
6.5662919337
 30
0.0
 10
10.4627837445
 20
6.5670840817
 30
0.0
 10
10.4618936004
 20
6.5679342662
 30
0.0
 10
10.4610955295
 20
6.5688410777
 30
0.0
 10
10.46039013
 20
6.5698030293
 30
0.0
 10
10.459777955
 20
6.5708186126
 30
0.0
 10
10.4592594767
 20
6.5718863249
 30
0.0
 10
10.4588350165
 20
6.5730046217
 30
0.0
 10
10.4585048265
 20
6.5741721697
 30
0.0
 10
10.4581863102
 20
6.5758135709
 30
0.0
 10
10.4580977515
 20
6.5770844732
 30
0.0
 10
10.4580973637
 20
6.5779405797
 30
0.0
  0
SPLINE
  5
342
100
AcDbEntity
  8
0
100
AcDbSpline
 62
7
  6
CONTINUOUS
 70
0
 71
3
 72
56
 73
52
 74
0
 42
0.0000001
 43
0.0000001
 44
0.0000000001
 40
0.0
 40
0.0
 40
0.0
 40
0.0
 40
0.014971274
 40
0.029945606
 40
0.0449260369
 40
0.0599155706
 40
0.0749171531
 40
0.0899336598
 40
0.104967875
 40
0.1200224737
 40
0.1351000117
 40
0.1502029057
 40
0.1653334193
 40
0.1804936563
 40
0.1956855421
 40
0.2109108165
 40
0.2261710283
 40
0.2414675198
 40
0.2568014272
 40
0.2721736755
 40
0.2875849674
 40
0.3030357913
 40
0.3185264144
 40
0.3340568802
 40
0.3496270191
 40
0.3652364417
 40
0.3808845461
 40
0.3965705269
 40
0.4122933718
 40
0.4280518765
 40
0.4438446507
 40
0.4596701209
 40
0.4755265482
 40
0.4914120331
 40
0.5073245245
 40
0.5232618381
 40
0.5551966919
 40
0.5872017075
 40
0.6192556772
 40
0.6513364178
 40
0.6834212138
 40
0.7154872687
 40
0.7475121591
 40
0.7794742806
 40
0.811353285
 40
0.8431305
 40
0.8747893191
 40
0.9063155631
 40
0.9376978538
 40
0.9689275324
 40
1.0
 40
1.0
 40
1.0
 40
1.0
 10
9.1584484628
 20
7.4523447202
 30
0.0
 10
9.165590993
 20
7.4592438983
 30
0.0
 10
9.1801534325
 20
7.4727612713
 30
0.0
 10
9.2027880519
 20
7.492155367
 30
0.0
 10
9.2261847389
 20
7.5106432697
 30
0.0
 10
9.2503109615
 20
7.5281989728
 30
0.0
 10
9.2751335818
 20
7.5447984971
 30
0.0
 10
9.3006183704
 20
7.5604190374
 30
0.0
 10
9.3267303442
 20
7.5750389757
 30
0.0
 10
9.3534334889
 20
7.5886383284
 30
0.0
 10
9.3806910683
 20
7.6011983854
 30
0.0
 10
9.4084656149
 20
7.612701771
 30
0.0
 10
9.4367188423
 20
7.6231328311
 30
0.0
 10
9.4654119104
 20
7.6324771432
 30
0.0
 10
9.4945053426
 20
7.6407218383
 30
0.0
 10
9.5239590736
 20
7.6478557329
 30
0.0
 10
9.5537326177
 20
7.65386889
 30
0.0
 10
9.5837849981
 20
7.6587531181
 30
0.0
 10
9.6140748669
 20
7.6625018019
 30
0.0
 10
9.6445605782
 20
7.6651096472
 30
0.0
 10
9.6752001862
 20
7.666573225
 30
0.0
 10
9.7059515577
 20
7.6668905418
 30
0.0
 10
9.7367723993
 20
7.6660610612
 30
0.0
 10
9.7676203315
 20
7.6640861114
 30
0.0
 10
9.7984529354
 20
7.6609683451
 30
0.0
 10
9.8292278065
 20
7.6567120275
 30
0.0
 10
9.8599026544
 20
7.6513231743
 30
0.0
 10
9.890435283
 20
7.644809076
 30
0.0
 10
9.9207837212
 20
7.6371787538
 30
0.0
 10
9.9509062734
 20
7.6284428001
 30
0.0
 10
9.9807614874
 20
7.6186130884
 30
0.0
 10
10.0103083499
 20
7.6077032706
 30
0.0
 10
10.0395062839
 20
7.5957283458
 30
0.0
 10
10.0683149898
 20
7.5827047434
 30
0.0
 10
10.0966953559
 20
7.5686502555
 30
0.0
 10
10.133933038
 20
7.5485513232
 30
0.0
 10
10.1792114473
 20
7.5209465218
 30
0.0
 10
10.2311782781
 20
7.48406745
 30
0.0
 10
10.2805380728
 20
7.4436107278
 30
0.0
 10
10.3270181343
 20
7.3997994734
 30
0.0
 10
10.3703638198
 20
7.3528738965
 30
0.0
 10
10.4103370989
 20
7.3030916611
 30
0.0
 10
10.4467185336
 20
7.2507259464
 30
0.0
 10
10.4793082159
 20
7.1960640676
 30
0.0
 10
10.5079269729
 20
7.1394059315
 30
0.0
 10
10.5324174302
 20
7.0810624933
 30
0.0
 10
10.5526447151
 20
7.0213538403
 30
0.0
 10
10.5684972208
 20
6.9606079855
 30
0.0
 10
10.5798872261
 20
6.8991573606
 30
0.0
 10
10.5867517944
 20
6.8373437704
 30
0.0
 10
10.5882892961
 20
6.7960027637
 30
0.0
 10
10.5882892961
 20
6.7753923295
 30
0.0
  0
SPLINE
  5
343
100
AcDbEntity
  8
0
100
AcDbSpline
 62
7
  6
CONTINUOUS
 70
0
 71
3
 72
41
 73
37
 74
0
 42
0.0000001
 43
0.0000001
 44
0.0000000001
 40
0.0
 40
0.0
 40
0.0
 40
0.0
 40
0.0304934002
 40
0.0457831099
 40
0.0611006619
 40
0.0918164202
 40
0.1226419908
 40
0.1535748686
 40
0.1846113989
 40
0.215746828
 40
0.2469753629
 40
0.2626237
 40
0.2782926986
 40
0.3096862659
 40
0.3411500611
 40
0.3726749089
 40
0.4042510172
 40
0.4358680783
 40
0.4675153744
 40
0.4991818856
 40
0.5308564001
 40
0.5625276257
 40
0.5941843034
 40
0.6258153196
 40
0.6574098168
 40
0.6889573032
 40
0.7204477586
 40
0.7518717382
 40
0.783220471
 40
0.8144859532
 40
0.8456610477
 40
0.8767395148
 40
0.9077162722
 40
0.9385868685
 40
0.969349082
 40
1.0
 40
1.0
 40
1.0
 40
1.0
 10
8.5349669825
 20
9.5265722242
 30
0.0
 10
8.546832596
 20
9.5270488963
 30
0.0
 10
8.5646714013
 20
9.5272912956
 30
0.0
 10
8.5884600716
 20
9.5266755628
 30
0.0
 10
8.6123114444
 20
9.5254317969
 30
0.0
 10
8.6421327869
 20
9.5227001807
 30
0.0
 10
8.6777921355
 20
9.517556987
 30
0.0
 10
8.7132620591
 20
9.5105596602
 30
0.0
 10
8.7484444374
 20
9.5017275564
 30
0.0
 10
8.7832420403
 20
9.4910852789
 30
0.0
 10
8.8118216213
 20
9.4807391649
 30
0.0
 10
8.8343982219
 20
9.4715907841
 30
0.0
 10
8.8567975741
 20
9.4618542029
 30
0.0
 10
8.8843789355
 20
9.4486140291
 30
0.0
 10
8.916695594
 20
9.4310727022
 30
0.0
 10
8.9481651623
 20
9.411915698
 30
0.0
 10
8.9787005055
 20
9.3911960334
 30
0.0
 10
9.008217729
 20
9.3689707122
 30
0.0
 10
9.0366355574
 20
9.3453009526
 30
0.0
 10
9.0638757849
 20
9.3202519173
 30
0.0
 10
9.0898634261
 20
9.2938925621
 30
0.0
 10
9.1145269429
 20
9.2662954444
 30
0.0
 10
9.1377984459
 20
9.2375365336
 30
0.0
 10
9.1596138673
 20
9.2076949874
 30
0.0
 10
9.1799131385
 20
9.1768529387
 30
0.0
 10
9.1986403535
 20
9.1450952706
 30
0.0
 10
9.2157439215
 20
9.1125093847
 30
0.0
 10
9.2311767099
 20
9.0791849629
 30
0.0
 10
9.2448961679
 20
9.0452137227
 30
0.0
 10
9.2568644697
 20
9.0106891681
 30
0.0
 10
9.2670485829
 20
8.9757063488
 30
0.0
 10
9.2754204405
 20
8.9403615181
 30
0.0
 10
9.2819567932
 20
8.9047521571
 30
0.0
 10
9.2866397528
 20
8.8689757764
 30
0.0
 10
9.2894560321
 20
8.8331324242
 30
0.0
 10
9.2900851739
 20
8.8092113853
 30
0.0
 10
9.2900851739
 20
8.7972748582
 30
0.0
  0
SPLINE
  5
344
100
AcDbEntity
  8
0
100
AcDbSpline
 62
7
  6
CONTINUOUS
 70
0
 71
3
 72
54
 73
50
 74
0
 42
0.0000001
 43
0.0000001
 44
0.0000000001
 40
0.0
 40
0.0
 40
0.0
 40
0.0
 40
0.0063158427
 40
0.0126705974
 40
0.0191023953
 40
0.0256479035
 40
0.0323417516
 40
0.0392160545
 40
0.0536138127
 40
0.061194488
 40
0.0690562166
 40
0.0772172825
 40
0.0856936302
 40
0.0944989909
 40
0.1036450473
 40
0.113141787
 40
0.1229974971
 40
0.1332190617
 40
0.1438121259
 40
0.1547810799
 40
0.1661293869
 40
0.1778595312
 40
0.189973133
 40
0.2024711534
 40
0.2153537503
 40
0.2286205275
 40
0.2422705277
 40
0.256302183
 40
0.2707135528
 40
0.2855021644
 40
0.300665138
 40
0.316199276
 40
0.3321009043
 40
0.3649900029
 40
0.3992976831
 40
0.4349839512
 40
0.472004695
 40
0.5103120262
 40
0.5498546333
 40
0.5905781015
 40
0.6324251619
 40
0.6753358913
 40
0.7192479428
 40
0.7640967229
 40
0.8098156864
 40
0.8563364658
 40
0.9035883331
 40
0.9515014468
 40
1.0
 40
1.0
 40
1.0
 40
1.0
 10
14.8521867589
 20
8.995897776
 30
0.0
 10
14.8501754379
 20
8.9960372656
 30
0.0
 10
14.8461499066
 20
8.9964817186
 30
0.0
 10
14.8401567366
 20
8.9976402847
 30
0.0
 10
14.8342036148
 20
8.9992905579
 30
0.0
 10
14.8282940356
 20
9.0014313049
 30
0.0
 10
14.8224303377
 20
9.0040613127
 30
0.0
 10
14.814556918
 20
9.0082818538
 30
0.0
 10
14.8068973704
 20
9.0134485288
 30
0.0
 10
14.7994848153
 20
9.0194358062
 30
0.0
 10
14.793885898
 20
9.0244838571
 30
0.0
 10
14.7883467081
 20
9.0300088873
 30
0.0
 10
14.7828687225
 20
9.0360090225
 30
0.0
 10
14.7774541747
 20
9.0424816548
 30
0.0
 10
14.7721049767
 20
9.0494241046
 30
0.0
 10
14.7668233
 20
9.0568336077
 30
0.0
 10
14.7616111172
 20
9.0647071086
 30
0.0
 10
14.7564704786
 20
9.0730414221
 30
0.0
 10
14.7514034933
 20
9.0818332024
 30
0.0
 10
14.7464120869
 20
9.0910788329
 30
0.0
 10
14.741498348
 20
9.1007745912
 30
0.0
 10
14.7366642486
 20
9.1109165183
 30
0.0
 10
14.7319117047
 20
9.121500463
 30
0.0
 10
14.7272427475
 20
9.1325221328
 30
0.0
 10
14.7226592059
 20
9.1439769918
 30
0.0
 10
14.7181629909
 20
9.1558603598
 30
0.0
 10
14.7137559848
 20
9.1681673727
 30
0.0
 10
14.7094399253
 20
9.1808929635
 30
0.0
 10
14.7052166696
 20
9.1940319235
 30
0.0
 10
14.7010879183
 20
9.2075788447
 30
0.0
 10
14.6970553635
 20
9.2215281513
 30
0.0
 10
14.6931207117
 20
9.2358741314
 30
0.0
 10
14.6879490671
 20
9.2557465773
 30
0.0
 10
14.6817549269
 20
9.28154294
 30
0.0
 10
14.6748183127
 20
9.3136471031
 30
0.0
 10
14.6683087164
 20
9.347184944
 30
0.0
 10
14.6622369748
 20
9.3821011959
 30
0.0
 10
14.6566132044
 20
9.418338482
 30
0.0
 10
14.6514467645
 20
9.4558371367
 30
0.0
 10
14.6467462667
 20
9.4945354107
 30
0.0
 10
14.6425195571
 20
9.5343695509
 30
0.0
 10
14.6387736803
 20
9.5752739067
 30
0.0
 10
14.6355148696
 20
9.6171810288
 30
0.0
 10
14.6327485535
 20
9.6600218177
 30
0.0
 10
14.6304793544
 20
9.7037256526
 30
0.0
 10
14.6287110907
 20
9.7482202926
 30
0.0
 10
14.6274466378
 20
9.7934327634
 30
0.0
 10
14.6266882255
 20
9.8392878913
 30
0.0
 10
14.6265216843
 20
9.8700648392
 30
0.0
 10
14.6265216843
 20
9.8855466148
 30
0.0
  0
SPLINE
  5
345
100
AcDbEntity
  8
0
100
AcDbSpline
 62
7
  6
CONTINUOUS
 70
0
 71
3
 72
35
 73
31
 74
0
 42
0.0000001
 43
0.0000001
 44
0.0000000001
 40
0.0
 40
0.0
 40
0.0
 40
0.0
 40
0.0162143111
 40
0.0334273662
 40
0.0516716855
 40
0.0709707842
 40
0.0913402599
 40
0.1127893229
 40
0.1353215779
 40
0.1589358742
 40
0.1836270239
 40
0.209386099
 40
0.2362011871
 40
0.264057313
 40
0.2929371952
 40
0.3228210131
 40
0.3536870391
 40
0.3855114635
 40
0.4182687869
 40
0.45193183
 40
0.4864718499
 40
0.5218587619
 40
0.5580610152
 40
0.5950459771
 40
0.6327796835
 40
0.6712272462
 40
0.7501177592
 40
0.8314200507
 40
0.91482146
 40
1.0
 40
1.0
 40
1.0
 40
1.0
 10
14.7946830748
 20
9.3889615977
 30
0.0
 10
14.7926175219
 20
9.3915013003
 30
0.0
 10
14.7885330257
 20
9.3968801853
 30
0.0
 10
14.782708136
 20
9.4055405913
 30
0.0
 10
14.7770112231
 20
9.4150199563
 30
0.0
 10
14.7714482798
 20
9.4253083071
 30
0.0
 10
14.7660245797
 20
9.4363953112
 30
0.0
 10
14.7607457
 20
9.4482696372
 30
0.0
 10
14.7556170263
 20
9.4609190927
 30
0.0
 10
14.7506438578
 20
9.4743306102
 30
0.0
 10
14.7458314503
 20
9.4884902922
 30
0.0
 10
14.7411847671
 20
9.5033833896
 30
0.0
 10
14.7367088168
 20
9.5189943759
 30
0.0
 10
14.7324082062
 20
9.5353069149
 30
0.0
 10
14.7282876045
 20
9.5523039296
 30
0.0
 10
14.7243512695
 20
9.5699675887
 30
0.0
 10
14.7206034576
 20
9.5882793511
 30
0.0
 10
14.7170480847
 20
9.6072199774
 30
0.0
 10
14.7136889485
 20
9.626769555
 30
0.0
 10
14.710529615
 20
9.6469075216
 30
0.0
 10
14.7075734034
 20
9.6676126888
 30
0.0
 10
14.7048235061
 20
9.6888632602
 30
0.0
 10
14.702282763
 20
9.7106368681
 30
0.0
 10
14.6999539622
 20
9.7329105732
 30
0.0
 10
14.6978394598
 20
9.7556609488
 30
0.0
 10
14.6952872008
 20
9.7868658141
 30
0.0
 10
14.6926625169
 20
9.8268878879
 30
0.0
 10
14.6904239373
 20
9.8760208787
 30
0.0
 10
14.6890798788
 20
9.9264562228
 30
0.0
 10
14.6887868339
 20
9.9604928399
 30
0.0
 10
14.6887868339
 20
9.977690136
 30
0.0
  0
SPLINE
  5
346
100
AcDbEntity
  8
0
100
AcDbSpline
 62
7
  6
CONTINUOUS
 70
0
 71
3
 72
11
 73
7
 74
0
 42
0.0000001
 43
0.0000001
 44
0.0000000001
 40
0.0
 40
0.0
 40
0.0
 40
0.0
 40
0.2475501303
 40
0.4960876409
 40
0.7465877102
 40
1.0
 40
1.0
 40
1.0
 40
1.0
 10
14.7744443454
 20
9.442346044
 30
0.0
 10
14.773425439
 20
9.4424167062
 30
0.0
 10
14.7713875783
 20
9.4426251919
 30
0.0
 10
14.768348147
 20
9.443137983
 30
0.0
 10
14.765324521
 20
9.443850899
 30
0.0
 10
14.7633335786
 20
9.4444552392
 30
0.0
 10
14.7623428412
 20
9.4447892955
 30
0.0
  0
SPLINE
  5
347
100
AcDbEntity
  8
0
100
AcDbSpline
 62
7
  6
CONTINUOUS
 70
0
 71
3
 72
49
 73
45
 74
0
 42
0.0000001
 43
0.0000001
 44
0.0000000001
 40
0.0
 40
0.0
 40
0.0
 40
0.0
 40
0.0070628478
 40
0.0144558389
 40
0.0221882
 40
0.0302671636
 40
0.0386983802
 40
0.0474858928
 40
0.0566325596
 40
0.0661400283
 40
0.076008935
 40
0.0862390754
 40
0.0968293237
 40
0.1077779531
 40
0.119082462
 40
0.1307398108
 40
0.1427464058
 40
0.1550980826
 40
0.1677903131
 40
0.1808180062
 40
0.1941757683
 40
0.2078577635
 40
0.236168908
 40
0.2656986092
 40
0.2963886497
 40
0.3281764789
 40
0.3609956379
 40
0.3947761306
 40
0.4294447854
 40
0.4649255803
 40
0.5011399449
 40
0.5380070482
 40
0.5754440756
 40
0.6133664978
 40
0.6516883476
 40
0.6903224871
 40
0.729180864
 40
0.768174777
 40
0.8072151285
 40
0.8462126505
 40
0.8850783864
 40
0.9237231156
 40
0.9620599679
 40
1.0
 40
1.0
 40
1.0
 40
1.0
 10
14.9056348604
 20
10.9888319797
 30
0.0
 10
14.9038257117
 20
10.9871482237
 30
0.0
 10
14.9002092833
 20
10.9836082037
 30
0.0
 10
14.8949090869
 20
10.9779315487
 30
0.0
 10
14.8896146488
 20
10.9717725626
 30
0.0
 10
14.8843291172
 20
10.9651351469
 30
0.0
 10
14.8790556355
 20
10.9580231284
 30
0.0
 10
14.8737971984
 20
10.9504408394
 30
0.0
 10
14.8685570189
 20
10.942392757
 30
0.0
 10
14.8633381904
 20
10.9338837315
 30
0.0
 10
14.8581438282
 20
10.924918881
 30
0.0
 10
14.8529771421
 20
10.915503576
 30
0.0
 10
14.8478411524
 20
10.9056435365
 30
0.0
 10
14.8427390835
 20
10.8953446832
 30
0.0
 10
14.8376739538
 20
10.8846132773
 30
0.0
 10
14.8326488797
 20
10.8734558085
 30
0.0
 10
14.8276669408
 20
10.8618790403
 30
0.0
 10
14.8227311084
 20
10.8498900137
 30
0.0
 10
14.8178444838
 20
10.8374959883
 30
0.0
 10
14.8130099598
 20
10.8247045198
 30
0.0
 10
14.8082305318
 20
10.8115233591
 30
0.0
 10
14.8018627867
 20
10.7932310566
 30
0.0
 10
14.7940745927
 20
10.7694435762
 30
0.0
 10
14.7850969266
 20
10.7397916347
 30
0.0
 10
14.7764063108
 20
10.7087890221
 30
0.0
 10
14.7680240387
 20
10.6765112069
 30
0.0
 10
14.7599706591
 20
10.6430366146
 30
0.0
 10
14.7522658945
 20
10.6084466963
 30
0.0
 10
14.7449286108
 20
10.5728256387
 30
0.0
 10
14.737976769
 20
10.5362601685
 30
0.0
 10
14.731427382
 20
10.4988393297
 30
0.0
 10
14.7252964743
 20
10.4606542666
 30
0.0
 10
14.7195990442
 20
10.4217980016
 30
0.0
 10
14.7143490153
 20
10.3823652075
 30
0.0
 10
14.7095592148
 20
10.3424519699
 30
0.0
 10
14.705241343
 20
10.3021555493
 30
0.0
 10
14.7014059442
 20
10.2615741428
 30
0.0
 10
14.6980623819
 20
10.2208066451
 30
0.0
 10
14.6952188202
 20
10.1799524198
 30
0.0
 10
14.6928821712
 20
10.1391109899
 30
0.0
 10
14.6910581545
 20
10.0983820267
 30
0.0
 10
14.6897511309
 20
10.0578644608
 30
0.0
 10
14.6889643666
 20
10.0176574885
 30
0.0
 10
14.6887868339
 20
9.9909661978
 30
0.0
 10
14.6887868339
 20
9.977690136
 30
0.0
  0
SPLINE
  5
348
100
AcDbEntity
  8
0
100
AcDbSpline
 62
7
  6
CONTINUOUS
 70
0
 71
3
 72
11
 73
7
 74
0
 42
0.0000001
 43
0.0000001
 44
0.0000000001
 40
0.0
 40
0.0
 40
0.0
 40
0.0
 40
0.2475567361
 40
0.4960982093
 40
0.7465969315
 40
1.0
 40
1.0
 40
1.0
 40
1.0
 10
14.8782204412
 20
10.93875186
 30
0.0
 10
14.8772029403
 20
10.9388224248
 30
0.0
 10
14.8751586521
 20
10.9388972269
 30
0.0
 10
14.8720818212
 20
10.9388094272
 30
0.0
 10
14.86899305
 20
10.9385217963
 30
0.0
 10
14.8669405843
 20
10.9381991506
 30
0.0
 10
14.8659146352
 20
10.9380056789
 30
0.0
  0
SPLINE
  5
349
100
AcDbEntity
  8
0
100
AcDbSpline
 62
7
  6
CONTINUOUS
 70
0
 71
3
 72
54
 73
50
 74
0
 42
0.0000001
 43
0.0000001
 44
0.0000000001
 40
0.0
 40
0.0
 40
0.0
 40
0.0
 40
0.0063158427
 40
0.0126705974
 40
0.0191023953
 40
0.0256479035
 40
0.0323417516
 40
0.0392160545
 40
0.0536138127
 40
0.061194488
 40
0.0690562166
 40
0.0772172825
 40
0.0856936302
 40
0.0944989909
 40
0.1036450473
 40
0.113141787
 40
0.1229974971
 40
0.1332190617
 40
0.1438121259
 40
0.1547810799
 40
0.1661293869
 40
0.1778595312
 40
0.189973133
 40
0.2024711534
 40
0.2153537503
 40
0.2286205275
 40
0.2422705277
 40
0.256302183
 40
0.2707135528
 40
0.2855021644
 40
0.300665138
 40
0.316199276
 40
0.3321009043
 40
0.3649900029
 40
0.3992976831
 40
0.4349839512
 40
0.472004695
 40
0.5103120262
 40
0.5498546333
 40
0.5905781015
 40
0.6324251619
 40
0.6753358913
 40
0.7192479428
 40
0.7640967229
 40
0.8098156864
 40
0.8563364658
 40
0.9035883331
 40
0.9515014468
 40
1.0
 40
1.0
 40
1.0
 40
1.0
 10
14.8521867589
 20
5.9764135341
 30
0.0
 10
14.8501754379
 20
5.9765530237
 30
0.0
 10
14.8461499066
 20
5.9769974767
 30
0.0
 10
14.8401567366
 20
5.9781560428
 30
0.0
 10
14.8342036148
 20
5.979806316
 30
0.0
 10
14.8282940356
 20
5.981947063
 30
0.0
 10
14.8224303377
 20
5.9845770709
 30
0.0
 10
14.814556918
 20
5.9887976119
 30
0.0
 10
14.8068973704
 20
5.9939642869
 30
0.0
 10
14.7994848153
 20
5.9999515643
 30
0.0
 10
14.793885898
 20
6.0049996152
 30
0.0
 10
14.7883467081
 20
6.0105246455
 30
0.0
 10
14.7828687225
 20
6.0165247806
 30
0.0
 10
14.7774541747
 20
6.0229974129
 30
0.0
 10
14.7721049767
 20
6.0299398627
 30
0.0
 10
14.7668233
 20
6.0373493658
 30
0.0
 10
14.7616111172
 20
6.0452228667
 30
0.0
 10
14.7564704786
 20
6.0535571802
 30
0.0
 10
14.7514034933
 20
6.0623489605
 30
0.0
 10
14.7464120869
 20
6.071594591
 30
0.0
 10
14.741498348
 20
6.0812903493
 30
0.0
 10
14.7366642486
 20
6.0914322764
 30
0.0
 10
14.7319117047
 20
6.1020162211
 30
0.0
 10
14.7272427475
 20
6.1130378909
 30
0.0
 10
14.7226592059
 20
6.1244927499
 30
0.0
 10
14.7181629909
 20
6.1363761179
 30
0.0
 10
14.7137559848
 20
6.1486831309
 30
0.0
 10
14.7094399253
 20
6.1614087216
 30
0.0
 10
14.7052166696
 20
6.1745476817
 30
0.0
 10
14.7010879183
 20
6.1880946028
 30
0.0
 10
14.6970553635
 20
6.2020439094
 30
0.0
 10
14.6931207117
 20
6.2163898895
 30
0.0
 10
14.6879490671
 20
6.2362623354
 30
0.0
 10
14.6817549269
 20
6.2620586981
 30
0.0
 10
14.6748183127
 20
6.2941628613
 30
0.0
 10
14.6683087164
 20
6.3277007021
 30
0.0
 10
14.6622369748
 20
6.362616954
 30
0.0
 10
14.6566132044
 20
6.3988542401
 30
0.0
 10
14.6514467645
 20
6.4363528949
 30
0.0
 10
14.6467462667
 20
6.4750511688
 30
0.0
 10
14.6425195571
 20
6.514885309
 30
0.0
 10
14.6387736803
 20
6.5557896648
 30
0.0
 10
14.6355148696
 20
6.5976967869
 30
0.0
 10
14.6327485535
 20
6.6405375758
 30
0.0
 10
14.6304793544
 20
6.6842414108
 30
0.0
 10
14.6287110907
 20
6.7287360508
 30
0.0
 10
14.6274466378
 20
6.7739485215
 30
0.0
 10
14.6266882255
 20
6.8198036494
 30
0.0
 10
14.6265216843
 20
6.8505805974
 30
0.0
 10
14.6265216843
 20
6.8660623729
 30
0.0
  0
SPLINE
  5
34A
100
AcDbEntity
  8
0
100
AcDbSpline
 62
7
  6
CONTINUOUS
 70
0
 71
3
 72
35
 73
31
 74
0
 42
0.0000001
 43
0.0000001
 44
0.0000000001
 40
0.0
 40
0.0
 40
0.0
 40
0.0
 40
0.0162143111
 40
0.0334273662
 40
0.0516716855
 40
0.0709707842
 40
0.0913402599
 40
0.1127893229
 40
0.1353215779
 40
0.1589358742
 40
0.1836270239
 40
0.209386099
 40
0.2362011871
 40
0.264057313
 40
0.2929371952
 40
0.3228210131
 40
0.3536870391
 40
0.3855114635
 40
0.4182687869
 40
0.45193183
 40
0.4864718499
 40
0.5218587619
 40
0.5580610152
 40
0.5950459771
 40
0.6327796835
 40
0.6712272462
 40
0.7501177592
 40
0.8314200507
 40
0.91482146
 40
1.0
 40
1.0
 40
1.0
 40
1.0
 10
14.7946830748
 20
6.3694773558
 30
0.0
 10
14.7926175219
 20
6.3720170585
 30
0.0
 10
14.7885330257
 20
6.3773959435
 30
0.0
 10
14.782708136
 20
6.3860563494
 30
0.0
 10
14.7770112231
 20
6.3955357144
 30
0.0
 10
14.7714482798
 20
6.4058240652
 30
0.0
 10
14.7660245797
 20
6.4169110693
 30
0.0
 10
14.7607457
 20
6.4287853953
 30
0.0
 10
14.7556170263
 20
6.4414348508
 30
0.0
 10
14.7506438578
 20
6.4548463683
 30
0.0
 10
14.7458314503
 20
6.4690060503
 30
0.0
 10
14.7411847671
 20
6.4838991477
 30
0.0
 10
14.7367088168
 20
6.4995101341
 30
0.0
 10
14.7324082062
 20
6.515822673
 30
0.0
 10
14.7282876045
 20
6.5328196877
 30
0.0
 10
14.7243512695
 20
6.5504833468
 30
0.0
 10
14.7206034576
 20
6.5687951093
 30
0.0
 10
14.7170480847
 20
6.5877357355
 30
0.0
 10
14.7136889485
 20
6.6072853131
 30
0.0
 10
14.710529615
 20
6.6274232797
 30
0.0
 10
14.7075734034
 20
6.6481284469
 30
0.0
 10
14.7048235061
 20
6.6693790183
 30
0.0
 10
14.702282763
 20
6.6911526262
 30
0.0
 10
14.6999539622
 20
6.7134263313
 30
0.0
 10
14.6978394598
 20
6.7361767069
 30
0.0
 10
14.6952872008
 20
6.7673815722
 30
0.0
 10
14.6926625169
 20
6.807403646
 30
0.0
 10
14.6904239373
 20
6.8565366368
 30
0.0
 10
14.6890798788
 20
6.9069719809
 30
0.0
 10
14.6887868339
 20
6.941008598
 30
0.0
 10
14.6887868339
 20
6.9582058941
 30
0.0
  0
SPLINE
  5
34B
100
AcDbEntity
  8
0
100
AcDbSpline
 62
7
  6
CONTINUOUS
 70
0
 71
3
 72
11
 73
7
 74
0
 42
0.0000001
 43
0.0000001
 44
0.0000000001
 40
0.0
 40
0.0
 40
0.0
 40
0.0
 40
0.2475501303
 40
0.4960876409
 40
0.7465877102
 40
1.0
 40
1.0
 40
1.0
 40
1.0
 10
14.7744443454
 20
6.4228618021
 30
0.0
 10
14.773425439
 20
6.4229324643
 30
0.0
 10
14.7713875783
 20
6.4231409501
 30
0.0
 10
14.768348147
 20
6.4236537412
 30
0.0
 10
14.765324521
 20
6.4243666571
 30
0.0
 10
14.7633335786
 20
6.4249709974
 30
0.0
 10
14.7623428412
 20
6.4253050536
 30
0.0
  0
SPLINE
  5
34C
100
AcDbEntity
  8
0
100
AcDbSpline
 62
7
  6
CONTINUOUS
 70
0
 71
3
 72
49
 73
45
 74
0
 42
0.0000001
 43
0.0000001
 44
0.0000000001
 40
0.0
 40
0.0
 40
0.0
 40
0.0
 40
0.0070628478
 40
0.0144558389
 40
0.0221882
 40
0.0302671636
 40
0.0386983802
 40
0.0474858928
 40
0.0566325596
 40
0.0661400283
 40
0.076008935
 40
0.0862390754
 40
0.0968293237
 40
0.1077779531
 40
0.119082462
 40
0.1307398108
 40
0.1427464058
 40
0.1550980826
 40
0.1677903131
 40
0.1808180062
 40
0.1941757683
 40
0.2078577635
 40
0.236168908
 40
0.2656986092
 40
0.2963886497
 40
0.3281764789
 40
0.3609956379
 40
0.3947761306
 40
0.4294447854
 40
0.4649255803
 40
0.5011399449
 40
0.5380070482
 40
0.5754440756
 40
0.6133664978
 40
0.6516883476
 40
0.6903224871
 40
0.729180864
 40
0.768174777
 40
0.8072151285
 40
0.8462126505
 40
0.8850783864
 40
0.9237231156
 40
0.9620599679
 40
1.0
 40
1.0
 40
1.0
 40
1.0
 10
14.9056348604
 20
7.9693477378
 30
0.0
 10
14.9038257117
 20
7.9676639818
 30
0.0
 10
14.9002092833
 20
7.9641239618
 30
0.0
 10
14.8949090869
 20
7.9584473068
 30
0.0
 10
14.8896146488
 20
7.9522883207
 30
0.0
 10
14.8843291172
 20
7.945650905
 30
0.0
 10
14.8790556355
 20
7.9385388865
 30
0.0
 10
14.8737971984
 20
7.9309565975
 30
0.0
 10
14.8685570189
 20
7.9229085152
 30
0.0
 10
14.8633381904
 20
7.9143994897
 30
0.0
 10
14.8581438282
 20
7.9054346391
 30
0.0
 10
14.8529771421
 20
7.8960193341
 30
0.0
 10
14.8478411524
 20
7.8861592946
 30
0.0
 10
14.8427390835
 20
7.8758604413
 30
0.0
 10
14.8376739538
 20
7.8651290354
 30
0.0
 10
14.8326488797
 20
7.8539715666
 30
0.0
 10
14.8276669408
 20
7.8423947984
 30
0.0
 10
14.8227311084
 20
7.8304057718
 30
0.0
 10
14.8178444838
 20
7.8180117464
 30
0.0
 10
14.8130099598
 20
7.805220278
 30
0.0
 10
14.8082305318
 20
7.7920391172
 30
0.0
 10
14.8018627867
 20
7.7737468147
 30
0.0
 10
14.7940745927
 20
7.7499593344
 30
0.0
 10
14.7850969266
 20
7.7203073929
 30
0.0
 10
14.7764063108
 20
7.6893047802
 30
0.0
 10
14.7680240387
 20
7.657026965
 30
0.0
 10
14.7599706591
 20
7.6235523727
 30
0.0
 10
14.7522658945
 20
7.5889624544
 30
0.0
 10
14.7449286108
 20
7.5533413968
 30
0.0
 10
14.737976769
 20
7.5167759267
 30
0.0
 10
14.731427382
 20
7.4793550878
 30
0.0
 10
14.7252964743
 20
7.4411700247
 30
0.0
 10
14.7195990442
 20
7.4023137598
 30
0.0
 10
14.7143490153
 20
7.3628809656
 30
0.0
 10
14.7095592148
 20
7.322967728
 30
0.0
 10
14.705241343
 20
7.2826713074
 30
0.0
 10
14.7014059442
 20
7.2420899009
 30
0.0
 10
14.6980623819
 20
7.2013224032
 30
0.0
 10
14.6952188202
 20
7.1604681779
 30
0.0
 10
14.6928821712
 20
7.119626748
 30
0.0
 10
14.6910581545
 20
7.0788977848
 30
0.0
 10
14.6897511309
 20
7.038380219
 30
0.0
 10
14.6889643666
 20
6.9981732466
 30
0.0
 10
14.6887868339
 20
6.9714819559
 30
0.0
 10
14.6887868339
 20
6.9582058941
 30
0.0
  0
SPLINE
  5
34D
100
AcDbEntity
  8
0
100
AcDbSpline
 62
7
  6
CONTINUOUS
 70
0
 71
3
 72
11
 73
7
 74
0
 42
0.0000001
 43
0.0000001
 44
0.0000000001
 40
0.0
 40
0.0
 40
0.0
 40
0.0
 40
0.2475567361
 40
0.4960982093
 40
0.7465969315
 40
1.0
 40
1.0
 40
1.0
 40
1.0
 10
14.8782204412
 20
7.9192676182
 30
0.0
 10
14.8772029403
 20
7.9193381829
 30
0.0
 10
14.8751586521
 20
7.9194129851
 30
0.0
 10
14.8720818212
 20
7.9193251853
 30
0.0
 10
14.86899305
 20
7.9190375544
 30
0.0
 10
14.8669405843
 20
7.9187149087
 30
0.0
 10
14.8659146352
 20
7.918521437
 30
0.0
  0
SPLINE
  5
34E
100
AcDbEntity
  8
0
100
AcDbSpline
 62
7
  6
CONTINUOUS
 70
0
 71
3
 72
21
 73
17
 74
0
 42
0.0000001
 43
0.0000001
 44
0.0000000001
 40
0.0
 40
0.0
 40
0.0
 40
0.0
 40
0.1323039654
 40
0.1966162024
 40
0.2598991321
 40
0.3223151983
 40
0.384033272
 40
0.4452252492
 40
0.5060620258
 40
0.5667162171
 40
0.6273606191
 40
0.6881628106
 40
0.7492864015
 40
0.8108914468
 40
0.8731277663
 40
1.0
 40
1.0
 40
1.0
 40
1.0
 10
11.9110973039
 20
8.7708176472
 30
0.0
 10
11.9110978537
 20
8.7679758001
 30
0.0
 10
11.9109214031
 20
8.7637487014
 30
0.0
 10
11.9102950222
 20
8.7581998259
 30
0.0
 10
11.9096414998
 20
8.7541693398
 30
0.0
 10
11.9087996392
 20
8.7502309687
 30
0.0
 10
11.9077692394
 20
8.7463840513
 30
0.0
 10
11.9065502455
 20
8.7426282854
 30
0.0
 10
11.9051428553
 20
8.7389634171
 30
0.0
 10
11.9035472867
 20
8.7353893363
 30
0.0
 10
11.9017638479
 20
8.7319060379
 30
0.0
 10
11.8997929746
 20
8.7285136028
 30
0.0
 10
11.8976352189
 20
8.72521227
 30
0.0
 10
11.8952910441
 20
8.722002233
 30
0.0
 10
11.8918973062
 20
8.7178188034
 30
0.0
 10
11.8891033242
 20
8.7148587896
 30
0.0
 10
11.8871432294
 20
8.7129654833
 30
0.0
  0
SPLINE
  5
34F
100
AcDbEntity
  8
0
100
AcDbSpline
 62
7
  6
CONTINUOUS
 70
0
 71
3
 72
23
 73
19
 74
0
 42
0.0000001
 43
0.0000001
 44
0.0000000001
 40
0.0
 40
0.0
 40
0.0
 40
0.0
 40
0.0618581116
 40
0.1239597293
 40
0.1862790896
 40
0.2487863893
 40
0.3114483707
 40
0.3742289558
 40
0.4370899175
 40
0.4999915789
 40
0.5628935311
 40
0.6257553595
 40
0.6885373713
 40
0.7512013129
 40
0.8137110704
 40
0.8760333395
 40
0.9381382706
 40
1.0
 40
1.0
 40
1.0
 40
1.0
 10
12.4310771764
 20
9.1951584737
 30
0.0
 10
12.4192599443
 20
9.1984106758
 30
0.0
 10
12.3957945655
 20
9.2057416838
 30
0.0
 10
12.3613664481
 20
9.2191199192
 30
0.0
 10
12.3277980413
 20
9.2348381638
 30
0.0
 10
12.2952583187
 20
9.2528175123
 30
0.0
 10
12.2639083395
 20
9.2729686088
 30
0.0
 10
12.2339039983
 20
9.2951911492
 30
0.0
 10
12.2053943072
 20
9.3193746295
 30
0.0
 10
12.1785209187
 20
9.3453988246
 30
0.0
 10
12.1534173613
 20
9.3731343968
 30
0.0
 10
12.1302083993
 20
9.4024435335
 30
0.0
 10
12.1090094176
 20
9.4331806083
 30
0.0
 10
12.0899258377
 20
9.4651929656
 30
0.0
 10
12.0730526584
 20
9.4983214129
 30
0.0
 10
12.0584737462
 20
9.5324019608
 30
0.0
 10
12.0462623094
 20
9.5672630684
 30
0.0
 10
12.0397253711
 20
9.5909633536
 30
0.0
 10
12.0368728391
 20
9.6028841097
 30
0.0
  0
SPLINE
  5
350
100
AcDbEntity
  8
0
100
AcDbSpline
 62
7
  6
CONTINUOUS
 70
0
 71
3
 72
53
 73
49
 74
0
 42
0.0000001
 43
0.0000001
 44
0.0000000001
 40
0.0
 40
0.0
 40
0.0
 40
0.0
 40
0.0472711802
 40
0.0939994118
 40
0.1401159156
 40
0.1855585531
 40
0.2302639557
 40
0.2741705959
 40
0.3172186594
 40
0.3593498586
 40
0.4005078474
 40
0.440638291
 40
0.4796889944
 40
0.5176101414
 40
0.5543545285
 40
0.5898777131
 40
0.6241382622
 40
0.6570981309
 40
0.6887229514
 40
0.7189823813
 40
0.7335921615
 40
0.7478513574
 40
0.7617575711
 40
0.7753087065
 40
0.7885031773
 40
0.8013397448
 40
0.8138176137
 40
0.8259365842
 40
0.8376968979
 40
0.8490994289
 40
0.8601457578
 40
0.8708380792
 40
0.8811794652
 40
0.8911738679
 40
0.9008261318
 40
0.9101422947
 40
0.9191295547
 40
0.9277964115
 40
0.9361529593
 40
0.9442108701
 40
0.9519836464
 40
0.9594868516
 40
0.9667381295
 40
0.9737574708
 40
0.980567295
 40
0.9871924204
 40
0.9936601375
 40
1.0
 40
1.0
 40
1.0
 40
1.0
 10
15.2116008735
 20
7.4632055073
 30
0.0
 10
15.2116008735
 20
7.4780358771
 30
0.0
 10
15.2114479946
 20
7.5075265245
 30
0.0
 10
15.2107521794
 20
7.551480343
 30
0.0
 10
15.2095920403
 20
7.5948505703
 30
0.0
 10
15.2079694558
 20
7.6375709138
 30
0.0
 10
15.2058868544
 20
7.6795772163
 30
0.0
 10
15.2033474484
 20
7.7208057857
 30
0.0
 10
15.2003551282
 20
7.7611942485
 30
0.0
 10
15.1969144333
 20
7.8006815289
 30
0.0
 10
15.1930306418
 20
7.8392079019
 30
0.0
 10
15.1887096967
 20
7.8767151221
 30
0.0
 10
15.1839581805
 20
7.9131464867
 30
0.0
 10
15.1787833401
 20
7.9484469428
 30
0.0
 10
15.1731931042
 20
7.9825631817
 30
0.0
 10
15.1671960109
 20
8.0154437093
 30
0.0
 10
15.1608011873
 20
8.0470389058
 30
0.0
 10
15.1540184148
 20
8.0773012222
 30
0.0
 10
15.1468580439
 20
8.1061849468
 30
0.0
 10
15.1405136097
 20
8.1293326133
 30
0.0
 10
15.1352461592
 20
8.147119909
 30
0.0
 10
15.1312542078
 20
8.1599327726
 30
0.0
 10
15.1271762364
 20
8.172369475
 30
0.0
 10
15.1230136905
 20
8.1844253241
 30
0.0
 10
15.1187682206
 20
8.1960957933
 30
0.0
 10
15.1144414092
 20
8.2073764874
 30
0.0
 10
15.1100348402
 20
8.218263146
 30
0.0
 10
15.1055502509
 20
8.2287517049
 30
0.0
 10
15.1009892733
 20
8.2388382108
 30
0.0
 10
15.0963536033
 20
8.2485188747
 30
0.0
 10
15.0916450427
 20
8.2577901025
 30
0.0
 10
15.0868652626
 20
8.2666483938
 30
0.0
 10
15.0820160629
 20
8.2750904532
 30
0.0
 10
15.0770992734
 20
8.2831131595
 30
0.0
 10
15.0721165978
 20
8.2907134725
 30
0.0
 10
15.067069913
 20
8.2978886024
 30
0.0
 10
15.0619610342
 20
8.3046358849
 30
0.0
 10
15.0567916941
 20
8.3109527391
 30
0.0
 10
15.0515637993
 20
8.3168368618
 30
0.0
 10
15.0462791176
 20
8.3222859946
 30
0.0
 10
15.0409394156
 20
8.3272979875
 30
0.0
 10
15.0355465918
 20
8.3318709492
 30
0.0
 10
15.0301023952
 20
8.3360029265
 30
0.0
 10
15.0246086744
 20
8.3396921359
 30
0.0
 10
15.0190674191
 20
8.3429369679
 30
0.0
 10
15.0134804085
 20
8.345735724
 30
0.0
 10
15.0078502174
 20
8.3480868504
 30
0.0
 10
15.0040366151
 20
8.3493659391
 30
0.0
 10
15.0021284243
 20
8.3499271338
 30
0.0
  0
SPLINE
  5
351
100
AcDbEntity
  8
0
100
AcDbSpline
 62
7
  6
CONTINUOUS
 70
0
 71
3
 72
56
 73
52
 74
0
 42
0.0000001
 43
0.0000001
 44
0.0000000001
 40
0.0
 40
0.0
 40
0.0
 40
0.0
 40
0.0409386318
 40
0.0823458817
 40
0.1241015609
 40
0.166083887
 40
0.2081704026
 40
0.2502381988
 40
0.2921644585
 40
0.3338268822
 40
0.3751041531
 40
0.4158763931
 40
0.4560256254
 40
0.4954362414
 40
0.5339954759
 40
0.5715938942
 40
0.6081258959
 40
0.6434902431
 40
0.6607044836
 40
0.6775911059
 40
0.694138981
 40
0.7103372915
 40
0.7261757091
 40
0.7416442663
 40
0.7567335357
 40
0.7714345123
 40
0.7857387902
 40
0.7996384641
 40
0.8131262989
 40
0.8261956617
 40
0.8388406813
 40
0.851056222
 40
0.8628380337
 40
0.8741827805
 40
0.8850881875
 40
0.8955531389
 40
0.9055778341
 40
0.9151639756
 40
0.924314955
 40
0.933036157
 40
0.9413352066
 40
0.9492224187
 40
0.9567111436
 40
0.96381838
 40
0.9705652333
 40
0.9769776477
 40
0.9830868863
 40
0.9889301569
 40
0.9945507755
 40
0.9972937159
 40
1.0
 40
1.0
 40
1.0
 40
1.0
 10
15.2116008735
 20
7.4632055073
 30
0.0
 10
15.2116008735
 20
7.4416744905
 30
0.0
 10
15.2112751187
 20
7.3983653562
 30
0.0
 10
15.2098342387
 20
7.3331099003
 30
0.0
 10
15.2074422799
 20
7.2673330037
 30
0.0
 10
15.2041066259
 20
7.2012395775
 30
0.0
 10
15.1998376445
 20
7.1350353771
 30
0.0
 10
15.1946486128
 20
7.068926507
 30
0.0
 10
15.1885557016
 20
7.0031187812
 30
0.0
 10
15.1815779121
 20
6.9378170658
 30
0.0
 10
15.1737370226
 20
6.8732246433
 30
0.0
 10
15.1650575194
 20
6.8095425726
 30
0.0
 10
15.1555665221
 20
6.7469690601
 30
0.0
 10
15.1452937009
 20
6.6856988288
 30
0.0
 10
15.1342711843
 20
6.6259225297
 30
0.0
 10
15.1225334681
 20
6.5678260476
 30
0.0
 10
15.1101172832
 20
6.5115902313
 30
0.0
 10
15.0991414593
 20
6.466023835
 30
0.0
 10
15.0900374233
 20
6.4306416407
 30
0.0
 10
15.0831256093
 20
6.40491553
 30
0.0
 10
15.0760743088
 20
6.3797817944
 30
0.0
 10
15.0688888933
 20
6.3552599739
 30
0.0
 10
15.0615750774
 20
6.3313691391
 30
0.0
 10
15.0541384664
 20
6.308127877
 30
0.0
 10
15.04658496
 20
6.2855542459
 30
0.0
 10
15.0389203576
 20
6.2636658014
 30
0.0
 10
15.0311507275
 20
6.2424795354
 30
0.0
 10
15.0232820454
 20
6.2220119119
 30
0.0
 10
15.0153205242
 20
6.2022788006
 30
0.0
 10
15.007272298
 20
6.1832955176
 30
0.0
 10
14.9991436971
 20
6.1650767567
 30
0.0
 10
14.9909409931
 20
6.1476366301
 30
0.0
 10
14.9826706027
 20
6.1309886052
 30
0.0
 10
14.9743389085
 20
6.1151455361
 30
0.0
 10
14.9659523758
 20
6.1001196157
 30
0.0
 10
14.9575174625
 20
6.0859223879
 30
0.0
 10
14.9490406327
 20
6.0725647293
 30
0.0
 10
14.940528367
 20
6.0600568266
 30
0.0
 10
14.9319870582
 20
6.0484082121
 30
0.0
 10
14.9234231304
 20
6.0376276864
 30
0.0
 10
14.9148428052
 20
6.027723444
 30
0.0
 10
14.9062523349
 20
6.0187029213
 30
0.0
 10
14.8976576423
 20
6.0105730666
 30
0.0
 10
14.8890646813
 20
6.0033400964
 30
0.0
 10
14.8804789743
 20
5.9970099766
 30
0.0
 10
14.8719062172
 20
5.9915880733
 30
0.0
 10
14.8633515522
 20
5.9870798381
 30
0.0
 10
14.85482152
 20
5.9834903834
 30
0.0
 10
14.8476792145
 20
5.9812509844
 30
0.0
 10
14.8420048318
 20
5.9799389566
 30
0.0
 10
14.8391811194
 20
5.9794393685
 30
0.0
 10
14.8377734033
 20
5.9792291441
 30
0.0
  0
SPLINE
  5
352
100
AcDbEntity
  8
0
100
AcDbSpline
 62
7
  6
CONTINUOUS
 70
0
 71
3
 72
66
 73
62
 74
0
 42
0.0000001
 43
0.0000001
 44
0.0000000001
 40
0.0
 40
0.0
 40
0.0
 40
0.0
 40
0.0452100958
 40
0.091000882
 40
0.1371884425
 40
0.1835858056
 40
0.2300054417
 40
0.2762595347
 40
0.322161166
 40
0.3675252211
 40
0.4121693755
 40
0.4559150727
 40
0.4985885253
 40
0.5400217374
 40
0.5602229025
 40
0.580054177
 40
0.5994967084
 40
0.6185321414
 40
0.6371428251
 40
0.6553116735
 40
0.67302239
 40
0.6902593674
 40
0.7070078472
 40
0.7232539396
 40
0.7389846648
 40
0.7541881316
 40
0.7688534651
 40
0.7829711258
 40
0.7965327978
 40
0.809531773
 40
0.82196293
 40
0.8338231007
 40
0.8451112681
 40
0.8558288934
 40
0.8659804206
 40
0.8755736355
 40
0.8846205219
 40
0.8931378177
 40
0.9011482117
 40
0.9086812776
 40
0.9157748844
 40
0.9224764009
 40
0.9288437812
 40
0.9319246359
 40
0.9349487804
 40
0.9379264614
 40
0.9408684794
 40
0.9437860667
 40
0.9466907584
 40
0.9495942622
 40
0.9525083005
 40
0.9554444551
 40
0.958414034
 40
0.9614279302
 40
0.9644965064
 40
0.9676295366
 40
0.9708361521
 40
0.9775010352
 40
0.9845526494
 40
0.9920393727
 40
1.0
 40
1.0
 40
1.0
 40
1.0
 10
15.1184260942
 20
7.3732055762
 30
0.0
 10
15.1184260942
 20
7.3555093423
 30
0.0
 10
15.1181104925
 20
7.3198888628
 30
0.0
 10
15.1167188504
 20
7.2662058928
 30
0.0
 10
15.1144112478
 20
7.2120892313
 30
0.0
 10
15.1111975318
 20
7.1577723159
 30
0.0
 10
15.107091566
 20
7.1034894271
 30
0.0
 10
15.1021110574
 20
7.0494746207
 30
0.0
 10
15.0962775403
 20
6.9959608195
 30
0.0
 10
15.0896162588
 20
6.9431787536
 30
0.0
 10
15.0821560667
 20
6.8913559892
 30
0.0
 10
15.073929313
 20
6.8407158487
 30
0.0
 10
15.0649716686
 20
6.7914767307
 30
0.0
 10
15.0568636025
 20
6.7514582535
 30
0.0
 10
15.0500293288
 20
6.7203112274
 30
0.0
 10
15.044789017
 20
6.6976283503
 30
0.0
 10
15.039396721
 20
6.675450429
 30
0.0
 10
15.0338581623
 20
6.6538013567
 30
0.0
 10
15.028179428
 20
6.6327044682
 30
0.0
 10
15.0223665721
 20
6.6121825043
 30
0.0
 10
15.0164259566
 20
6.5922575682
 30
0.0
 10
15.0103639567
 20
6.5729511246
 30
0.0
 10
15.0041871523
 20
6.5542839559
 30
0.0
 10
14.9979022354
 20
6.5362761472
 30
0.0
 10
14.9915159586
 20
6.5189470699
 30
0.0
 10
14.9850353017
 20
6.5023153312
 30
0.0
 10
14.9784671674
 20
6.4863988027
 30
0.0
 10
14.9718187599
 20
6.4712145228
 30
0.0
 10
14.9650971336
 20
6.4567787692
 30
0.0
 10
14.9583096212
 20
6.4431069327
 30
0.0
 10
14.9514634311
 20
6.4302135962
 30
0.0
 10
14.9445659134
 20
6.4181124361
 30
0.0
 10
14.9376243957
 20
6.4068162392
 30
0.0
 10
14.930646128
 20
6.3963369117
 30
0.0
 10
14.9236384467
 20
6.3866853628
 30
0.0
 10
14.9166083629
 20
6.3778717008
 30
0.0
 10
14.9095629958
 20
6.3699049587
 30
0.0
 10
14.9025089425
 20
6.3627935124
 30
0.0
 10
14.8954527561
 20
6.3565447562
 30
0.0
 10
14.8884005048
 20
6.3511657002
 30
0.0
 10
14.8813578117
 20
6.3466628018
 30
0.0
 10
14.8743311828
 20
6.3430427417
 30
0.0
 10
14.8684282895
 20
6.3407421343
 30
0.0
 10
14.8637407652
 20
6.3393693737
 30
0.0
 10
14.8602733542
 20
6.3385742851
 30
0.0
 10
14.8568171558
 20
6.3380030742
 30
0.0
 10
14.8533731295
 20
6.3376559225
 30
0.0
 10
14.8499423676
 20
6.3375329835
 30
0.0
 10
14.8465259474
 20
6.3376343807
 30
0.0
 10
14.8431249778
 20
6.3379601669
 30
0.0
 10
14.8397405476
 20
6.3385101391
 30
0.0
 10
14.8363737195
 20
6.3392840655
 30
0.0
 10
14.8330255492
 20
6.3402816991
 30
0.0
 10
14.8296970367
 20
6.3415026344
 30
0.0
 10
14.8263891359
 20
6.3429463262
 30
0.0
 10
14.8231026903
 20
6.3446123115
 30
0.0
 10
14.8186943957
 20
6.347161802
 30
0.0
 10
14.813232727
 20
6.3509315147
 30
0.0
 10
14.8068685263
 20
6.3562749355
 30
0.0
 10
14.8006148319
 20
6.3624881655
 30
0.0
 10
14.7966491519
 20
6.3670599637
 30
0.0
 10
14.7946830748
 20
6.3694773558
 30
0.0
  0
SPLINE
  5
353
100
AcDbEntity
  8
0
100
AcDbSpline
 62
7
  6
CONTINUOUS
 70
0
 71
3
 72
56
 73
52
 74
0
 42
0.0000001
 43
0.0000001
 44
0.0000000001
 40
0.0
 40
0.0
 40
0.0
 40
0.0
 40
0.014971274
 40
0.029945606
 40
0.0449260369
 40
0.0599155706
 40
0.0749171531
 40
0.0899336598
 40
0.104967875
 40
0.1200224737
 40
0.1351000117
 40
0.1502029057
 40
0.1653334193
 40
0.1804936563
 40
0.1956855421
 40
0.2109108165
 40
0.2261710283
 40
0.2414675198
 40
0.2568014272
 40
0.2721736755
 40
0.2875849674
 40
0.3030357913
 40
0.3185264144
 40
0.3340568802
 40
0.3496270191
 40
0.3652364417
 40
0.3808845461
 40
0.3965705269
 40
0.4122933718
 40
0.4280518765
 40
0.4438446507
 40
0.4596701209
 40
0.4755265482
 40
0.4914120331
 40
0.5073245245
 40
0.5232618381
 40
0.5551966919
 40
0.5872017075
 40
0.6192556772
 40
0.6513364178
 40
0.6834212138
 40
0.7154872687
 40
0.7475121591
 40
0.7794742806
 40
0.811353285
 40
0.8431305
 40
0.8747893191
 40
0.9063155631
 40
0.9376978538
 40
0.9689275324
 40
1.0
 40
1.0
 40
1.0
 40
1.0
 10
10.3548057579
 20
6.2137918756
 30
0.0
 10
10.3476632278
 20
6.2068926976
 30
0.0
 10
10.3331007882
 20
6.1933753246
 30
0.0
 10
10.3104661688
 20
6.1739812289
 30
0.0
 10
10.2870694819
 20
6.1554933261
 30
0.0
 10
10.2629432592
 20
6.137937623
 30
0.0
 10
10.2381206389
 20
6.1213380988
 30
0.0
 10
10.2126358503
 20
6.1057175585
 30
0.0
 10
10.1865238765
 20
6.0910976202
 30
0.0
 10
10.1598207318
 20
6.0774982675
 30
0.0
 10
10.1325631524
 20
6.0649382105
 30
0.0
 10
10.1047886058
 20
6.0534348248
 30
0.0
 10
10.0765353784
 20
6.0430037648
 30
0.0
 10
10.0478423103
 20
6.0336594526
 30
0.0
 10
10.0187488781
 20
6.0254147575
 30
0.0
 10
9.9892951471
 20
6.0182808629
 30
0.0
 10
9.959521603
 20
6.0122677058
 30
0.0
 10
9.9294692227
 20
6.0073834777
 30
0.0
 10
9.8991793538
 20
6.003634794
 30
0.0
 10
9.8686936425
 20
6.0010269486
 30
0.0
 10
9.8380540345
 20
5.9995633709
 30
0.0
 10
9.807302663
 20
5.999246054
 30
0.0
 10
9.7764818214
 20
6.0000755346
 30
0.0
 10
9.7456338893
 20
6.0020504845
 30
0.0
 10
9.7148012854
 20
6.0051682507
 30
0.0
 10
9.6840264142
 20
6.0094245683
 30
0.0
 10
9.6533515663
 20
6.0148134216
 30
0.0
 10
9.6228189377
 20
6.0213275198
 30
0.0
 10
9.5924704995
 20
6.028957842
 30
0.0
 10
9.5623479473
 20
6.0376937957
 30
0.0
 10
9.5324927333
 20
6.0475235075
 30
0.0
 10
9.5029458708
 20
6.0584333252
 30
0.0
 10
9.4737479368
 20
6.0704082501
 30
0.0
 10
9.4449392309
 20
6.0834318524
 30
0.0
 10
9.4165588648
 20
6.0974863403
 30
0.0
 10
9.3793211827
 20
6.1175852726
 30
0.0
 10
9.3340427734
 20
6.145190074
 30
0.0
 10
9.2820759426
 20
6.1820691458
 30
0.0
 10
9.2327161479
 20
6.222525868
 30
0.0
 10
9.1862360865
 20
6.2663371225
 30
0.0
 10
9.1428904009
 20
6.3132626993
 30
0.0
 10
9.1029171218
 20
6.3630449347
 30
0.0
 10
9.0665356872
 20
6.4154106495
 30
0.0
 10
9.0339460048
 20
6.4700725282
 30
0.0
 10
9.0053272478
 20
6.5267306643
 30
0.0
 10
8.9808367905
 20
6.5850741026
 30
0.0
 10
8.9606095056
 20
6.6447827555
 30
0.0
 10
8.9447569999
 20
6.7055286104
 30
0.0
 10
8.9333669946
 20
6.7669792353
 30
0.0
 10
8.9265024263
 20
6.8287928255
 30
0.0
 10
8.9249649246
 20
6.8701338321
 30
0.0
 10
8.9249649246
 20
6.8907442664
 30
0.0
  0
SPLINE
  5
354
100
AcDbEntity
  8
0
100
AcDbSpline
 62
7
  6
CONTINUOUS
 70
0
 71
3
 72
54
 73
50
 74
0
 42
0.0000001
 43
0.0000001
 44
0.0000000001
 40
0.0
 40
0.0
 40
0.0
 40
0.0
 40
0.0149619973
 40
0.0299313383
 40
0.0449108634
 40
0.0599033506
 40
0.0749115064
 40
0.0899379452
 40
0.1049851744
 40
0.1200555867
 40
0.1351514376
 40
0.1502748408
 40
0.1654277556
 40
0.1806119708
 40
0.1958291065
 40
0.211080596
 40
0.2263676837
 40
0.2416914232
 40
0.2570526627
 40
0.2724520537
 40
0.2878900417
 40
0.3033668646
 40
0.3188825615
 40
0.3344369612
 40
0.3500296963
 40
0.3656602015
 40
0.3813277139
 40
0.3970312893
 40
0.4285371084
 40
0.4601714439
 40
0.4919206529
 40
0.5237688454
 40
0.5556982147
 40
0.5876893943
 40
0.619721837
 40
0.6517742116
 40
0.6838248094
 40
0.7158519556
 40
0.7478344192
 40
0.7797518193
 40
0.8115850187
 40
0.8433165
 40
0.8749307183
 40
0.8906920254
 40
0.9064192472
 40
0.9221111659
 40
0.9377667345
 40
0.968960095
 40
1.0
 40
1.0
 40
1.0
 40
1.0
 10
10.353913687
 20
6.2147746256
 30
0.0
 10
10.3465471476
 20
6.2084611312
 30
0.0
 10
10.3315636624
 20
6.196115767
 30
0.0
 10
10.3083817683
 20
6.1784783737
 30
0.0
 10
10.2845177722
 20
6.1617402314
 30
0.0
 10
10.2600035132
 20
6.1459235815
 30
0.0
 10
10.2348710686
 20
6.1310490359
 30
0.0
 10
10.209153376
 20
6.117136285
 30
0.0
 10
10.1828842891
 20
6.1042033753
 30
0.0
 10
10.1560982158
 20
6.0922674099
 30
0.0
 10
10.1288303323
 20
6.0813440097
 30
0.0
 10
10.1011164633
 20
6.0714473853
 30
0.0
 10
10.0729929129
 20
6.0625907032
 30
0.0
 10
10.0444966521
 20
6.0547853697
 30
0.0
 10
10.0156650425
 20
6.0480417038
 30
0.0
 10
9.9865359126
 20
6.0423685751
 30
0.0
 10
9.9571475092
 20
6.0377732416
 30
0.0
 10
9.9275383571
 20
6.0342619228
 30
0.0
 10
9.8977473238
 20
6.0318390402
 30
0.0
 10
9.8678134808
 20
6.0305077818
 30
0.0
 10
9.8377760942
 20
6.0302699836
 30
0.0
 10
9.8076745618
 20
6.0311257358
 30
0.0
 10
9.7775483663
 20
6.0330740912
 30
0.0
 10
9.7474370249
 20
6.0361123667
 30
0.0
 10
9.7173799838
 20
6.0402365288
 30
0.0
 10
9.6874168073
 20
6.045441273
 30
0.0
 10
9.657586295
 20
6.0517196992
 30
0.0
 10
9.6180032627
 20
6.061520947
 30
0.0
 10
9.5690503036
 20
6.0764216362
 30
0.0
 10
9.5115323343
 20
6.0984098527
 30
0.0
 10
9.4554678038
 20
6.1244115147
 30
0.0
 10
9.4011521537
 20
6.1542896358
 30
0.0
 10
9.3488691316
 20
6.1878875981
 30
0.0
 10
9.2988925391
 20
6.2250292686
 30
0.0
 10
9.2514839116
 20
6.2655200397
 30
0.0
 10
9.2068913863
 20
6.3091477998
 30
0.0
 10
9.1653484048
 20
6.3556841111
 30
0.0
 10
9.1270725184
 20
6.4048853567
 30
0.0
 10
9.0922642469
 20
6.4564940612
 30
0.0
 10
9.0611060038
 20
6.5102399388
 30
0.0
 10
9.0337610172
 20
6.5658422027
 30
0.0
 10
9.0103732823
 20
6.6230078844
 30
0.0
 10
8.99426529
 20
6.6717562758
 30
0.0
 10
8.983476815
 20
6.711233482
 30
0.0
 10
8.9764486614
 20
6.7410153308
 30
0.0
 10
8.970485857
 20
6.7709587343
 30
0.0
 10
8.9639749144
 20
6.8109935288
 30
0.0
 10
8.9585243825
 20
6.8612489657
 30
0.0
 10
8.9570584592
 20
6.9016169255
 30
0.0
 10
8.9570584592
 20
6.9217442421
 30
0.0
  0
SPLINE
  5
355
100
AcDbEntity
  8
0
100
AcDbSpline
 62
7
  6
CONTINUOUS
 70
0
 71
3
 72
57
 73
53
 74
0
 42
0.0000001
 43
0.0000001
 44
0.0000000001
 40
0.0
 40
0.0
 40
0.0
 40
0.0
 40
0.0417736534
 40
0.0840366016
 40
0.1266578211
 40
0.1695056346
 40
0.21244701
 40
0.2553487447
 40
0.2980777184
 40
0.3405015169
 40
0.3824889248
 40
0.4239104649
 40
0.4646389286
 40
0.5045499179
 40
0.5435223959
 40
0.5814392547
 40
0.6181879055
 40
0.6536609025
 40
0.670887291
 40
0.6877571705
 40
0.7042588558
 40
0.7203811606
 40
0.7361133347
 40
0.7514452242
 40
0.7663671439
 40
0.7808701133
 40
0.794945674
 40
0.8085861929
 40
0.8217846464
 40
0.8345349745
 40
0.8468318643
 40
0.858671133
 40
0.8700495541
 40
0.8809652503
 40
0.8914176071
 40
0.9014076696
 40
0.9109381913
 40
0.9200140439
 40
0.9286424511
 40
0.9368334399
 40
0.9446003045
 40
0.9519601344
 40
0.9589345191
 40
0.9655501451
 40
0.9718396237
 40
0.9778419676
 40
0.9836031197
 40
0.9891757627
 40
0.9919106391
 40
0.994620898
 40
0.9973146063
 40
1.0
 40
1.0
 40
1.0
 40
1.0
 10
15.020446517
 20
7.3585645665
 30
0.0
 10
15.020446517
 20
7.3445727058
 30
0.0
 10
15.0202282232
 20
7.316424658
 30
0.0
 10
15.0192632202
 20
7.2740108055
 30
0.0
 10
15.0176615194
 20
7.2312561165
 30
0.0
 10
15.0154284169
 20
7.1883022616
 30
0.0
 10
15.0125712592
 20
7.1452912369
 30
0.0
 10
15.009099509
 20
7.102365386
 30
0.0
 10
15.0050246581
 20
7.0596667076
 30
0.0
 10
15.0003602186
 20
7.017336465
 30
0.0
 10
14.9951216645
 20
6.9755146876
 30
0.0
 10
14.9893263876
 20
6.9343397122
 30
0.0
 10
14.982993638
 20
6.8939477199
 30
0.0
 10
14.976144463
 20
6.8544722758
 30
0.0
 10
14.9688016365
 20
6.8160438988
 30
0.0
 10
14.9609895943
 20
6.7787895532
 30
0.0
 10
14.9527343214
 20
6.7428324612
 30
0.0
 10
14.9454391991
 20
6.7137715187
 30
0.0
 10
14.9393922435
 20
6.6912675153
 30
0.0
 10
14.9348078854
 20
6.6749514113
 30
0.0
 10
14.9301339333
 20
6.6590458165
 30
0.0
 10
14.9253742814
 20
6.643563859
 30
0.0
 10
14.9205328266
 20
6.6285183423
 30
0.0
 10
14.9156136524
 20
6.6139216857
 30
0.0
 10
14.9106207549
 20
6.5997859545
 30
0.0
 10
14.9055583688
 20
6.586122802
 30
0.0
 10
14.9004305845
 20
6.5729435169
 30
0.0
 10
14.8952417649
 20
6.5602589432
 30
0.0
 10
14.8899960866
 20
6.5480795532
 30
0.0
 10
14.8846980138
 20
6.5364153404
 30
0.0
 10
14.879351801
 20
6.5252759206
 30
0.0
 10
14.873961981
 20
6.5146703997
 30
0.0
 10
14.868532875
 20
6.5046074964
 30
0.0
 10
14.8630690449
 20
6.4950953949
 30
0.0
 10
14.8575748588
 20
6.4861418772
 30
0.0
 10
14.8520548576
 20
6.4777541787
 30
0.0
 10
14.846513421
 20
6.469939109
 30
0.0
 10
14.8409550021
 20
6.4627029422
 30
0.0
 10
14.8353839315
 20
6.4560514977
 30
0.0
 10
14.8298044838
 20
6.4499901136
 30
0.0
 10
14.8242208501
 20
6.4445236517
 30
0.0
 10
14.8186370238
 20
6.4396566284
 30
0.0
 10
14.8130569732
 20
6.4353931016
 30
0.0
 10
14.8074843796
 20
6.4317370462
 30
0.0
 10
14.8019231076
 20
6.4286920547
 30
0.0
 10
14.7963767415
 20
6.4262619769
 30
0.0
 10
14.7908500774
 20
6.4244502556
 30
0.0
 10
14.7862345114
 20
6.4234526281
 30
0.0
 10
14.7825736785
 20
6.422974238
 30
0.0
 10
14.7798535431
 20
6.4227727717
 30
0.0
 10
14.7771430547
 20
6.4227266884
 30
0.0
 10
14.7753416484
 20
6.4227995733
 30
0.0
 10
14.7744443454
 20
6.4228618021
 30
0.0
  0
SPLINE
  5
356
100
AcDbEntity
  8
0
100
AcDbSpline
 62
7
  6
CONTINUOUS
 70
0
 71
3
 72
54
 73
50
 74
0
 42
0.0000001
 43
0.0000001
 44
0.0000000001
 40
0.0
 40
0.0
 40
0.0
 40
0.0
 40
0.0149714207
 40
0.0299458999
 40
0.0449264793
 40
0.0599161604
 40
0.0749178913
 40
0.0899345475
 40
0.1049689107
 40
0.1200236594
 40
0.1351013478
 40
0.1502043907
 40
0.1653350561
 40
0.180495444
 40
0.1956874801
 40
0.2109129079
 40
0.2261732709
 40
0.2414699147
 40
0.2568039766
 40
0.2721763764
 40
0.287587823
 40
0.3030388016
 40
0.3185295773
 40
0.3340601996
 40
0.3496304929
 40
0.3652400701
 40
0.3808883319
 40
0.3965744671
 40
0.4122974687
 40
0.4280561307
 40
0.4438490599
 40
0.4596746883
 40
0.4914119508
 40
0.5232571585
 40
0.5551923278
 40
0.5871976583
 40
0.6192519434
 40
0.6513329994
 40
0.6834181104
 40
0.71548448
 40
0.7475096843
 40
0.7794721186
 40
0.8113514354
 40
0.8431289619
 40
0.8747880915
 40
0.9063146418
 40
0.937697247
 40
0.9689272244
 40
1.0
 40
1.0
 40
1.0
 40
1.0
 10
10.3636584212
 20
6.287688309
 30
0.0
 10
10.3569057879
 20
6.2811657566
 30
0.0
 10
10.3431381955
 20
6.2683863917
 30
0.0
 10
10.3217391735
 20
6.2500510032
 30
0.0
 10
10.2996196019
 20
6.2325724385
 30
0.0
 10
10.2768103398
 20
6.2159751719
 30
0.0
 10
10.2533427491
 20
6.2002818093
 30
0.0
 10
10.2292490578
 20
6.18551412
 30
0.0
 10
10.2045624831
 20
6.1716923131
 30
0.0
 10
10.1793170114
 20
6.1588353703
 30
0.0
 10
10.1535473204
 20
6.1469611082
 30
0.0
 10
10.1272889537
 20
6.1360856809
 30
0.0
 10
10.1005780014
 20
6.1262241305
 30
0.0
 10
10.0734512151
 20
6.1173900374
 30
0.0
 10
10.045945963
 20
6.1095953935
 30
0.0
 10
10.0181000399
 20
6.1028510744
 30
0.0
 10
9.9899517869
 20
6.097166232
 30
0.0
 10
9.961539928
 20
6.0925486301
 30
0.0
 10
9.9329035261
 20
6.0890047513
 30
0.0
 10
9.9040819944
 20
6.0865392655
 30
0.0
 10
9.8751149613
 20
6.0851556387
 30
0.0
 10
9.8460422702
 20
6.0848557872
 30
0.0
 10
9.8169039006
 20
6.0856399517
 30
0.0
 10
9.7877399264
 20
6.0875072063
 30
0.0
 10
9.7585904479
 20
6.0904548605
 30
0.0
 10
9.7294955358
 20
6.0944788017
 30
0.0
 10
9.700495216
 20
6.0995736313
 30
0.0
 10
9.6716293376
 20
6.1057321448
 30
0.0
 10
9.6429375686
 20
6.1129459618
 30
0.0
 10
9.6144594836
 20
6.1212051313
 30
0.0
 10
9.5862337517
 20
6.1304983423
 30
0.0
 10
9.5489571526
 20
6.1442622477
 30
0.0
 10
9.5031873765
 20
6.1639922022
 30
0.0
 10
9.4499460379
 20
6.1915398228
 30
0.0
 10
9.3986181123
 20
6.2228332114
 30
0.0
 10
9.3494871191
 20
6.2576996586
 30
0.0
 10
9.3028221233
 20
6.2959477903
 30
0.0
 10
9.2588793639
 20
6.3373675549
 30
0.0
 10
9.2178999318
 20
6.3817315376
 30
0.0
 10
9.1801087674
 20
6.4287962319
 30
0.0
 10
9.1457133939
 20
6.4783033813
 30
0.0
 10
9.1149028147
 20
6.5299813639
 30
0.0
 10
9.087846347
 20
6.5835466001
 30
0.0
 10
9.0646928127
 20
6.638705137
 30
0.0
 10
9.0455697438
 20
6.6951543652
 30
0.0
 10
9.0305826395
 20
6.752584177
 30
0.0
 10
9.019814414
 20
6.8106802758
 30
0.0
 10
9.0133245767
 20
6.8691195282
 30
0.0
 10
9.0118710104
 20
6.90820377
 30
0.0
 10
9.0118710104
 20
6.9276891041
 30
0.0
  0
SPLINE
  5
357
100
AcDbEntity
  8
0
100
AcDbSpline
 62
7
  6
CONTINUOUS
 70
0
 71
3
 72
52
 73
48
 74
0
 42
0.0000001
 43
0.0000001
 44
0.0000000001
 40
0.0
 40
0.0
 40
0.0
 40
0.0
 40
0.0149610471
 40
0.029930214
 40
0.0449103006
 40
0.0599040411
 40
0.074914092
 40
0.0899430187
 40
0.104993275
 40
0.1200671974
 40
0.1351669876
 40
0.1502946995
 40
0.1654522359
 40
0.1806413286
 40
0.1958635382
 40
0.2111202446
 40
0.2264126346
 40
0.2417417088
 40
0.2571082651
 40
0.2725129032
 40
0.2879560242
 40
0.3034378205
 40
0.3189582897
 40
0.3345172248
 40
0.3501142212
 40
0.3657486843
 40
0.3814198232
 40
0.3971266686
 40
0.4286379342
 40
0.4602760954
 40
0.4920274469
 40
0.5238760918
 40
0.5558042671
 40
0.5877926958
 40
0.6198209608
 40
0.6518678955
 40
0.6839119828
 40
0.7159317588
 40
0.7479062163
 40
0.7798152025
 40
0.8116398046
 40
0.8433627191
 40
0.8749685974
 40
0.9064443544
 40
0.9377795441
 40
0.9689661463
 40
1.0
 40
1.0
 40
1.0
 40
1.0
 10
10.3977270341
 20
6.3230614787
 30
0.0
 10
10.3907269043
 20
6.3171973127
 30
0.0
 10
10.3764947215
 20
6.305735059
 30
0.0
 10
10.3544929888
 20
6.2893735516
 30
0.0
 10
10.3318604529
 20
6.2738603114
 30
0.0
 10
10.3086268974
 20
6.2592159613
 30
0.0
 10
10.2848225405
 20
6.2454592745
 30
0.0
 10
10.2604782765
 20
6.2326083255
 30
0.0
 10
10.2356258177
 20
6.2206797168
 30
0.0
 10
10.2102975001
 20
6.2096889179
 30
0.0
 10
10.1845262079
 20
6.1996503533
 30
0.0
 10
10.1583455343
 20
6.1905768657
 30
0.0
 10
10.1317894699
 20
6.1824803936
 30
0.0
 10
10.1048925712
 20
6.1753713954
 30
0.0
 10
10.0776898291
 20
6.1692590135
 30
0.0
 10
10.0502165773
 20
6.1641513595
 30
0.0
 10
10.0225085745
 20
6.1600548518
 30
0.0
 10
9.9946018213
 20
6.1569749234
 30
0.0
 10
9.9665326032
 20
6.1549155567
 30
0.0
 10
9.9383374125
 20
6.1538792813
 30
0.0
 10
9.910052894
 20
6.1538676267
 30
0.0
 10
9.8817158138
 20
6.1548804008
 30
0.0
 10
9.8533629978
 20
6.1569163528
 30
0.0
 10
9.8250313118
 20
6.1599728649
 30
0.0
 10
9.7967575229
 20
6.1640457964
 30
0.0
 10
9.7685785159
 20
6.1691299991
 30
0.0
 10
9.7405304601
 20
6.1752188377
 30
0.0
 10
9.7033208504
 20
6.1846751024
 30
0.0
 10
9.6573172804
 20
6.1989730526
 30
0.0
 10
9.6032838634
 20
6.2199702844
 30
0.0
 10
9.5506335587
 20
6.2447184355
 30
0.0
 10
9.4996413118
 20
6.273088307
 30
0.0
 10
9.4505711114
 20
6.3049325507
 30
0.0
 10
9.4036776199
 20
6.3400857402
 30
0.0
 10
9.3592040091
 20
6.3783653321
 30
0.0
 10
9.3173809658
 20
6.4195726248
 30
0.0
 10
9.2784254641
 20
6.4634938028
 30
0.0
 10
9.2425396732
 20
6.5099010298
 30
0.0
 10
9.2099098953
 20
6.5585535969
 30
0.0
 10
9.1807055511
 20
6.6091991279
 30
0.0
 10
9.1550783854
 20
6.6615749409
 30
0.0
 10
9.1331616693
 20
6.7154093449
 30
0.0
 10
9.1150695444
 20
6.7704231544
 30
0.0
 10
9.1008962846
 20
6.8263306678
 30
0.0
 10
9.0907160361
 20
6.8828426628
 30
0.0
 10
9.0845819585
 20
6.9396620355
 30
0.0
 10
9.0832084512
 20
6.9776535425
 30
0.0
 10
9.0832084512
 20
6.9965957846
 30
0.0
  0
SPLINE
  5
358
100
AcDbEntity
  8
0
100
AcDbSpline
 62
7
  6
CONTINUOUS
 70
0
 71
3
 72
51
 73
47
 74
0
 42
0.0000001
 43
0.0000001
 44
0.0000000001
 40
0.0
 40
0.0
 40
0.0
 40
0.0
 40
0.0149716491
 40
0.0299463579
 40
0.0449271649
 40
0.0599170755
 40
0.0749190358
 40
0.0899359201
 40
0.1049705142
 40
0.1200254921
 40
0.1351034104
 40
0.150206685
 40
0.16533758
 40
0.1804982002
 40
0.1956904684
 40
0.2109161278
 40
0.2261767248
 40
0.2414736015
 40
0.2568078978
 40
0.2721805325
 40
0.2875922139
 40
0.3030434288
 40
0.3185344409
 40
0.3340653005
 40
0.3496358313
 40
0.365245647
 40
0.396575363
 40
0.4280524198
 40
0.4596664386
 40
0.4914041857
 40
0.523249879
 40
0.5551855359
 40
0.5871913555
 40
0.61924613
 40
0.6513276757
 40
0.6834132767
 40
0.7154801359
 40
0.7475058287
 40
0.7794687512
 40
0.8113485552
 40
0.843126567
 40
0.8747861806
 40
0.9063132067
 40
0.9376963039
 40
0.9689267485
 40
1.0
 40
1.0
 40
1.0
 40
1.0
 10
10.400121621
 20
6.4341353594
 30
0.0
 10
10.3940326313
 20
6.4282538504
 30
0.0
 10
10.381618182
 20
6.4167303744
 30
0.0
 10
10.3623222026
 20
6.4001970518
 30
0.0
 10
10.3423765496
 20
6.3844362797
 30
0.0
 10
10.3218090224
 20
6.3694701384
 30
0.0
 10
10.300647771
 20
6.3553192087
 30
0.0
 10
10.2789220596
 20
6.3420028102
 30
0.0
 10
10.2566616642
 20
6.3295394436
 30
0.0
 10
10.2338973055
 20
6.3179461147
 30
0.0
 10
10.2106602962
 20
6.3072387805
 30
0.0
 10
10.1869825717
 20
6.2974322701
 30
0.0
 10
10.1628967936
 20
6.2885398648
 30
0.0
 10
10.1384360286
 20
6.2805739891
 30
0.0
 10
10.1136339841
 20
6.2735454475
 30
0.0
 10
10.0885247763
 20
6.2674638968
 30
0.0
 10
10.0631429261
 20
6.2623378108
 30
0.0
 10
10.037523391
 20
6.2581740103
 30
0.0
 10
10.0117013783
 20
6.2549784129
 30
0.0
 10
9.985712428
 20
6.2527552623
 30
0.0
 10
9.9595922778
 20
6.2515075892
 30
0.0
 10
9.9333768586
 20
6.2512372269
 30
0.0
 10
9.9071021914
 20
6.2519443173
 30
0.0
 10
9.8808045282
 20
6.2536280482
 30
0.0
 10
9.854519592
 20
6.2562860621
 30
0.0
 10
9.8195002192
 20
6.261129267
 30
0.0
 10
9.7759343583
 20
6.2696072832
 30
0.0
 10
9.7243569315
 20
6.2835736488
 30
0.0
 10
9.6736916981
 20
6.3012691133
 30
0.0
 10
9.6242186441
 20
6.3225958306
 30
0.0
 10
9.5762087598
 20
6.3474364017
 30
0.0
 10
9.5299256375
 20
6.3756541684
 30
0.0
 10
9.4856231811
 20
6.4070939893
 30
0.0
 10
9.4435444645
 20
6.4415831037
 30
0.0
 10
9.4039203772
 20
6.4789321077
 30
0.0
 10
9.3669683841
 20
6.5189359711
 30
0.0
 10
9.3328913553
 20
6.5613751573
 30
0.0
 10
9.3018763963
 20
6.6060167612
 30
0.0
 10
9.2740938697
 20
6.6526158169
 30
0.0
 10
9.2496964895
 20
6.7009166443
 30
0.0
 10
9.2288184791
 20
6.7506541934
 30
0.0
 10
9.2115748649
 20
6.8015555953
 30
0.0
 10
9.1980606845
 20
6.8533412007
 30
0.0
 10
9.1883507582
 20
6.9057276072
 30
0.0
 10
9.1824987332
 20
6.9584234457
 30
0.0
 10
9.1811880284
 20
6.9936664799
 30
0.0
 10
9.1811880284
 20
7.0112367943
 30
0.0
  0
SPLINE
  5
359
100
AcDbEntity
  8
0
100
AcDbSpline
 62
7
  6
CONTINUOUS
 70
0
 71
3
 72
43
 73
39
 74
0
 42
0.0000001
 43
0.0000001
 44
0.0000000001
 40
0.0
 40
0.0
 40
0.0
 40
0.0
 40
0.0303546533
 40
0.0455762998
 40
0.0608269262
 40
0.0914129705
 40
0.1221164224
 40
0.1375134317
 40
0.1529393846
 40
0.1838739266
 40
0.214919378
 40
0.2460708837
 40
0.2773223494
 40
0.308666524
 40
0.3400950931
 40
0.3715987822
 40
0.4031674683
 40
0.4347902991
 40
0.4664558181
 40
0.498152095
 40
0.5298668594
 40
0.5615876366
 40
0.5933018857
 40
0.6249971377
 40
0.6566611335
 40
0.6882819595
 40
0.7198481816
 40
0.751348975
 40
0.7827742499
 40
0.8141147668
 40
0.8453622619
 40
0.8609502127
 40
0.8765122856
 40
0.9075533163
 40
0.9384830736
 40
0.953906511
 40
0.9693015419
 40
1.0
 40
1.0
 40
1.0
 40
1.0
 10
10.5836771035
 20
6.792279959
 30
0.0
 10
10.570846053
 20
6.7905924174
 30
0.0
 10
10.5515032693
 20
6.7886037191
 30
0.0
 10
10.5256149465
 20
6.7870382161
 30
0.0
 10
10.4995936481
 20
6.786193361
 30
0.0
 10
10.46694483
 20
6.7864987317
 30
0.0
 10
10.4343006976
 20
6.7886112231
 30
0.0
 10
10.4082128364
 20
6.7913794441
 30
0.0
 10
10.3821126791
 20
6.7948721299
 30
0.0
 10
10.3495914039
 20
6.8005849941
 30
0.0
 10
10.3108939733
 20
6.809561234
 30
0.0
 10
10.272603449
 20
6.8206375294
 30
0.0
 10
10.2348374562
 20
6.8337798507
 30
0.0
 10
10.1977110644
 20
6.8489479996
 30
0.0
 10
10.1613376357
 20
6.866095576
 30
0.0
 10
10.1258281597
 20
6.8851701613
 30
0.0
 10
10.0912910049
 20
6.9061134689
 30
0.0
 10
10.0578315635
 20
6.9288615179
 30
0.0
 10
10.0255519363
 20
6.9533448279
 30
0.0
 10
9.9945506265
 20
6.9794886376
 30
0.0
 10
9.9649222398
 20
7.0072131302
 30
0.0
 10
9.9367571987
 20
7.036433676
 30
0.0
 10
9.9101414679
 20
7.0670610893
 30
0.0
 10
9.8851562938
 20
7.0990018983
 30
0.0
 10
9.8618779582
 20
7.1321586302
 30
0.0
 10
9.8403775468
 20
7.1664301001
 30
0.0
 10
9.8207207306
 20
7.2017117409
 30
0.0
 10
9.8029675738
 20
7.2378958326
 30
0.0
 10
9.7871722896
 20
7.2748721395
 30
0.0
 10
9.7733833281
 20
7.3125271095
 30
0.0
 10
9.7635912037
 20
7.3444040069
 30
0.0
 10
9.7568023522
 20
7.3701288768
 30
0.0
 10
9.7507241111
 20
7.3959404641
 30
0.0
 10
9.7444437866
 20
7.4284113776
 30
0.0
 10
9.7399350736
 20
7.4611158462
 30
0.0
 10
9.7374080915
 20
7.4873233451
 30
0.0
 10
9.735604879
 20
7.5134910007
 30
0.0
 10
9.7350603278
 20
7.5331482575
 30
0.0
 10
9.7350603278
 20
7.5462363844
 30
0.0
  0
SPLINE
  5
35A
100
AcDbEntity
  8
0
100
AcDbSpline
 62
7
  6
CONTINUOUS
 70
0
 71
3
 72
43
 73
39
 74
0
 42
0.0000001
 43
0.0000001
 44
0.0000000001
 40
0.0
 40
0.0
 40
0.0
 40
0.0
 40
0.0303720674
 40
0.0456023289
 40
0.0608614746
 40
0.0914641528
 40
0.1221834091
 40
0.1375879069
 40
0.1530210521
 40
0.183969021
 40
0.2150264207
 40
0.2461882512
 40
0.2774483092
 40
0.3087992706
 40
0.3402327842
 40
0.3717395734
 40
0.4033095463
 40
0.4349319123
 40
0.4665953037
 40
0.4982879033
 40
0.529997574
 40
0.5617119927
 40
0.5934187849
 40
0.6251056597
 40
0.6567605436
 40
0.688371713
 40
0.719927923
 40
0.7356833926
 40
0.7514211919
 40
0.7828362907
 40
0.8141668042
 40
0.8454046212
 40
0.8765426362
 40
0.9075750392
 40
0.938496777
 40
0.9539165033
 40
0.9693080603
 40
1.0
 40
1.0
 40
1.0
 40
1.0
 10
10.5834782992
 20
6.8499306519
 30
0.0
 10
10.5714857605
 20
6.8484977001
 30
0.0
 10
10.5534137913
 20
6.8468516324
 30
0.0
 10
10.5292384554
 20
6.8456632042
 30
0.0
 10
10.504947102
 20
6.8451432371
 30
0.0
 10
10.4744834681
 20
6.8457547024
 30
0.0
 10
10.4440417056
 20
6.8480390115
 30
0.0
 10
10.4197237523
 20
6.850864241
 30
0.0
 10
10.3954013005
 20
6.8543604115
 30
0.0
 10
10.3651068509
 20
6.8599764458
 30
0.0
 10
10.3290759396
 20
6.8686763001
 30
0.0
 10
10.2934398196
 20
6.8793169525
 30
0.0
 10
10.2583065388
 20
6.8918661744
 30
0.0
 10
10.2237817458
 20
6.9062860749
 30
0.0
 10
10.1899694801
 20
6.9225331153
 30
0.0
 10
10.1569715663
 20
6.9405582755
 30
0.0
 10
10.1248873891
 20
6.960307193
 30
0.0
 10
10.0938135763
 20
6.9817203276
 30
0.0
 10
10.0638437156
 20
7.0047331404
 30
0.0
 10
10.0350680739
 20
7.0292762853
 30
0.0
 10
10.0075733286
 20
7.0552758202
 30
0.0
 10
9.981442295
 20
7.0826534082
 30
0.0
 10
9.9567536798
 20
7.1113265846
 30
0.0
 10
9.9335818816
 20
7.1412089404
 30
0.0
 10
9.9119966402
 20
7.1722106236
 30
0.0
 10
9.8920633054
 20
7.2042376985
 30
0.0
 10
9.876870008
 20
7.2317171368
 30
0.0
 10
9.8656000866
 20
7.2541166557
 30
0.0
 10
9.8549396926
 20
7.2767505614
 30
0.0
 10
9.8427475567
 20
7.3054972842
 30
0.0
 10
9.8299695588
 20
7.3406366253
 30
0.0
 10
9.8190904815
 20
7.3762949203
 30
0.0
 10
9.8101433849
 20
7.4123643778
 30
0.0
 10
9.8031554377
 20
7.4487357435
 30
0.0
 10
9.798978221
 20
7.4792359008
 30
0.0
 10
9.796637126
 20
7.5036756902
 30
0.0
 10
9.7949665708
 20
7.5280782473
 30
0.0
 10
9.7944620908
 20
7.5464090387
 30
0.0
 10
9.7944620908
 20
7.5586140848
 30
0.0
  0
SPLINE
  5
35B
100
AcDbEntity
  8
0
100
AcDbSpline
 62
7
  6
CONTINUOUS
 70
0
 71
3
 72
39
 73
35
 74
0
 42
0.0000001
 43
0.0000001
 44
0.0000000001
 40
0.0
 40
0.0
 40
0.0
 40
0.0
 40
0.0307219217
 40
0.0615350692
 40
0.0924369177
 40
0.1234242547
 40
0.1544932092
 40
0.1856392984
 40
0.2168574598
 40
0.2481420849
 40
0.2794870753
 40
0.3108858912
 40
0.3423315924
 40
0.3738168946
 40
0.4053342312
 40
0.4368758009
 40
0.4684336224
 40
0.4999996026
 40
0.5315655899
 40
0.5631234274
 40
0.5946650197
 40
0.6261823925
 40
0.6576677414
 40
0.6891134943
 40
0.7205123724
 40
0.7518574371
 40
0.7831421408
 40
0.8143603846
 40
0.8455065714
 40
0.876575631
 40
0.9075630434
 40
0.9384650515
 40
0.9692783283
 40
1.0
 40
1.0
 40
1.0
 40
1.0
 10
10.5620881137
 20
6.9829152737
 30
0.0
 10
10.5521722382
 20
6.9841278555
 30
0.0
 10
10.532362037
 20
6.9869963571
 30
0.0
 10
10.5028235788
 20
6.9926065837
 30
0.0
 10
10.4734734646
 20
6.9995199694
 30
0.0
 10
10.4443710747
 20
7.0077226269
 30
0.0
 10
10.4155742793
 20
7.0171980848
 30
0.0
 10
10.3871406078
 20
7.0279273706
 30
0.0
 10
10.3591268315
 20
7.0398891151
 30
0.0
 10
10.3315888644
 20
7.0530593845
 30
0.0
 10
10.3045816399
 20
7.067411804
 30
0.0
 10
10.2781590772
 20
7.0829177387
 30
0.0
 10
10.2523739485
 20
7.0995462713
 30
0.0
 10
10.2272776701
 20
7.1172641149
 30
0.0
 10
10.202920322
 20
7.1360358867
 30
0.0
 10
10.179350573
 20
7.1558241755
 30
0.0
 10
10.1566154455
 20
7.1765894422
 30
0.0
 10
10.1347602782
 20
7.1982901926
 30
0.0
 10
10.1138287271
 20
7.2208831442
 30
0.0
 10
10.093862618
 20
7.2443232332
 30
0.0
 10
10.0749017421
 20
7.2685636132
 30
0.0
 10
10.0569839501
 20
7.2935559055
 30
0.0
 10
10.0401450927
 20
7.319250279
 30
0.0
 10
10.0244187548
 20
7.345595419
 30
0.0
 10
10.0098363001
 20
7.3725387211
 30
0.0
 10
9.9964269049
 20
7.4000264382
 30
0.0
 10
9.9842174005
 20
7.4280037206
 30
0.0
 10
9.9732321022
 20
7.4564146909
 30
0.0
 10
9.9634929741
 20
7.4852026447
 30
0.0
 10
9.9550195862
 20
7.514310152
 30
0.0
 10
9.9478288039
 20
7.5436790465
 30
0.0
 10
9.9419350137
 20
7.5732508984
 30
0.0
 10
9.9373501357
 20
7.6029657922
 30
0.0
 10
9.935168822
 20
7.6228633455
 30
0.0
 10
9.9343000251
 20
7.6328151548
 30
0.0
  0
SPLINE
  5
35C
100
AcDbEntity
  8
0
100
AcDbSpline
 62
7
  6
CONTINUOUS
 70
0
 71
3
 72
60
 73
56
 74
0
 42
0.0000001
 43
0.0000001
 44
0.0000000001
 40
0.0
 40
0.0
 40
0.0
 40
0.0
 40
0.0532122143
 40
0.1056321538
 40
0.1571421459
 40
0.2076317293
 40
0.2569909326
 40
0.3051141858
 40
0.3518995392
 40
0.3972494003
 40
0.4410709497
 40
0.4832766305
 40
0.523784729
 40
0.5433787454
 40
0.5625207824
 40
0.581202509
 40
0.5994162291
 40
0.6171547456
 40
0.634411397
 40
0.6511802779
 40
0.6674559847
 40
0.6832340122
 40
0.6985105431
 40
0.7132826427
 40
0.7275484149
 40
0.7413068606
 40
0.7545583405
 40
0.767304371
 40
0.7795480187
 40
0.7912940336
 40
0.8025489416
 40
0.8133215884
 40
0.823623106
 40
0.8334675601
 40
0.8428721834
 40
0.8518578147
 40
0.8604495297
 40
0.868676859
 40
0.8765744793
 40
0.8841823291
 40
0.8915458047
 40
0.8987155894
 40
0.9057469747
 40
0.9126989443
 40
0.9196326688
 40
0.9266098549
 40
0.933690958
 40
0.9409336246
 40
0.9483913291
 40
0.9561126614
 40
0.9641407784
 40
0.9725134197
 40
0.9812631496
 40
0.9904175638
 40
1.0
 40
1.0
 40
1.0
 40
1.0
 10
15.1184260942
 20
7.3732055762
 30
0.0
 10
15.1184260942
 20
7.3861574646
 30
0.0
 10
15.118259258
 20
7.4118687452
 30
0.0
 10
15.1174976864
 20
7.4501107975
 30
0.0
 10
15.1162282544
 20
7.4876764304
 30
0.0
 10
15.1144541541
 20
7.5244758398
 30
0.0
 10
15.112179603
 20
7.5604218606
 30
0.0
 10
15.1094101288
 20
7.5954288918
 30
0.0
 10
15.1061524036
 20
7.6294137793
 30
0.0
 10
15.1024142974
 20
7.662295768
 30
0.0
 10
15.0982048442
 20
7.6939968292
 30
0.0
 10
15.0935341649
 20
7.7244415944
 30
0.0
 10
15.0892206871
 20
7.748969389
 30
0.0
 10
15.0855370949
 20
7.767902885
 30
0.0
 10
15.0826969108
 20
7.7815871698
 30
0.0
 10
15.0797502846
 20
7.7949050564
 30
0.0
 10
15.0766989937
 20
7.8078486525
 30
0.0
 10
15.0735448717
 20
7.8204102742
 30
0.0
 10
15.0702897425
 20
7.8325824637
 30
0.0
 10
15.0669356383
 20
7.8443580139
 30
0.0
 10
15.0634844577
 20
7.855729936
 30
0.0
 10
15.0599383338
 20
7.8666915083
 30
0.0
 10
15.0562993447
 20
7.8772362462
 30
0.0
 10
15.0525696218
 20
7.8873579131
 30
0.0
 10
15.0487514569
 20
7.8970505591
 30
0.0
 10
15.0448469901
 20
7.906308448
 30
0.0
 10
15.0408586314
 20
7.9151261709
 30
0.0
 10
15.0367886412
 20
7.9234985402
 30
0.0
 10
15.0326393986
 20
7.9314206612
 30
0.0
 10
15.0284133536
 20
7.9388879425
 30
0.0
 10
15.0241128024
 20
7.94589599
 30
0.0
 10
15.0197403001
 20
7.9524408045
 30
0.0
 10
15.015298145
 20
7.9585185316
 30
0.0
 10
15.0107888039
 20
7.9641256678
 30
0.0
 10
15.0062146693
 20
7.9692589408
 30
0.0
 10
15.0015780096
 20
7.9739152041
 30
0.0
 10
14.9968812837
 20
7.9780916914
 30
0.0
 10
14.9921266783
 20
7.9817855249
 30
0.0
 10
14.9873166623
 20
7.9849941743
 30
0.0
 10
14.9824536715
 20
7.987715041
 30
0.0
 10
14.9775403848
 20
7.9899455818
 30
0.0
 10
14.9725798932
 20
7.9916836235
 30
0.0
 10
14.9675755625
 20
7.9929269002
 30
0.0
 10
14.9625313203
 20
7.9936740582
 30
0.0
 10
14.9574513118
 20
7.993924043
 30
0.0
 10
14.9523398649
 20
7.993676747
 30
0.0
 10
14.9472011544
 20
7.9929328933
 30
0.0
 10
14.9420391306
 20
7.991693551
 30
0.0
 10
14.9368572712
 20
7.9899606569
 30
0.0
 10
14.9316588213
 20
7.9877360061
 30
0.0
 10
14.9264466617
 20
7.9850218397
 30
0.0
 10
14.9212235437
 20
7.9818203954
 30
0.0
 10
14.9159921879
 20
7.9781338821
 30
0.0
 10
14.910755318
 20
7.9739650193
 30
0.0
 10
14.9073422025
 20
7.9709367435
 30
0.0
 10
14.9056348604
 20
7.9693477378
 30
0.0
  0
SPLINE
  5
35D
100
AcDbEntity
  8
0
100
AcDbSpline
 62
7
  6
CONTINUOUS
 70
0
 71
3
 72
39
 73
35
 74
0
 42
0.0000001
 43
0.0000001
 44
0.0000000001
 40
0.0
 40
0.0
 40
0.0
 40
0.0
 40
0.0958316475
 40
0.1891006073
 40
0.279240642
 40
0.3229674356
 40
0.365711151
 40
0.4074094627
 40
0.4480020772
 40
0.4874317741
 40
0.5256439547
 40
0.5625873626
 40
0.5982141631
 40
0.6324802323
 40
0.6653459096
 40
0.6967758341
 40
0.7267403598
 40
0.7552153214
 40
0.7821838024
 40
0.8076365273
 40
0.831573723
 40
0.8540068598
 40
0.8749607899
 40
0.8944774057
 40
0.9126188108
 40
0.9294731124
 40
0.9451592998
 40
0.9598338063
 40
0.9668558128
 40
0.9737028706
 40
0.9804062828
 40
0.9869996808
 40
0.9935186293
 40
1.0
 40
1.0
 40
1.0
 40
1.0
 10
8.0380972406
 20
11.4107989449
 30
0.0
 10
8.0470571124
 20
11.4101775757
 30
0.0
 10
8.0647243583
 20
11.4087543982
 30
0.0
 10
8.0907559256
 20
11.4060376995
 30
0.0
 10
8.1118688663
 20
11.4032977852
 30
0.0
 10
8.1282365756
 20
11.400831421
 30
0.0
 10
8.1400884059
 20
11.3988733932
 30
0.0
 10
8.1516208148
 20
11.3967918316
 30
0.0
 10
8.1628145532
 20
11.3945901243
 30
0.0
 10
8.1736509247
 20
11.3922720597
 30
0.0
 10
8.1841118447
 20
11.3898414756
 30
0.0
 10
8.1941798674
 20
11.3873024911
 30
0.0
 10
8.2038382138
 20
11.3846593787
 30
0.0
 10
8.2130708012
 20
11.3819165427
 30
0.0
 10
8.2218622898
 20
11.3790786635
 30
0.0
 10
8.2301980775
 20
11.376150404
 30
0.0
 10
8.2380643873
 20
11.3731367789
 30
0.0
 10
8.2454482229
 20
11.3700427077
 30
0.0
 10
8.2523374819
 20
11.3668734141
 30
0.0
 10
8.2587209095
 20
11.3636340551
 30
0.0
 10
8.2645881712
 20
11.3603298956
 30
0.0
 10
8.269929882
 20
11.3569662162
 30
0.0
 10
8.2747375178
 20
11.353548094
 30
0.0
 10
8.2790035873
 20
11.3500806186
 30
0.0
 10
8.2827211982
 20
11.3465683805
 30
0.0
 10
8.2858843636
 20
11.3430156349
 30
0.0
 10
8.2884867989
 20
11.3394267606
 30
0.0
 10
8.2902082129
 20
11.3363639202
 30
0.0
 10
8.2912812198
 20
11.3339114553
 30
0.0
 10
8.291930918
 20
11.3320944014
 30
0.0
 10
8.2924367119
 20
11.3302737575
 30
0.0
 10
8.2927982316
 20
11.3284502717
 30
0.0
 10
8.293015268
 20
11.3266250203
 30
0.0
 10
8.2930635651
 20
11.3254060798
 30
0.0
 10
8.2930635602
 20
11.3247986424
 30
0.0
  0
LINE
  5
35E
100
AcDbEntity
  8
0
100
AcDbLine
 62
7
  6
CONTINUOUS
 10
9.1593989697
 20
7.4514178851
 11
9.1587271896
 21
7.4506859379
  0
SPLINE
  5
35F
100
AcDbEntity
  8
0
100
AcDbSpline
 62
7
  6
CONTINUOUS
 70
0
 71
3
 72
24
 73
20
 74
0
 42
0.0000001
 43
0.0000001
 44
0.0000000001
 40
0.0
 40
0.0
 40
0.0
 40
0.0
 40
0.0616736451
 40
0.1233882225
 40
0.1851612343
 40
0.2470096737
 40
0.2779694707
 40
0.3089541844
 40
0.3710016773
 40
0.4331710774
 40
0.4954759531
 40
0.557928715
 40
0.6205405336
 40
0.683321176
 40
0.7462791532
 40
0.8094214825
 40
0.8727526855
 40
0.9362796991
 40
1.0
 40
1.0
 40
1.0
 40
1.0
 10
9.1587271896
 20
7.4506859379
 30
0.0
 10
9.1506805016
 20
7.4419068911
 30
0.0
 10
9.1349976737
 20
7.4239565273
 30
0.0
 10
9.112773253
 20
7.3959329381
 30
0.0
 10
9.091884624
 20
7.3668579262
 30
0.0
 10
9.075630433
 20
7.3418084872
 30
0.0
 10
9.0633366695
 20
7.3213061688
 30
0.0
 10
9.0515109704
 20
7.3004861343
 30
0.0
 10
9.0376347223
 20
7.273910051
 30
0.0
 10
9.0224761628
 20
7.2412248248
 30
0.0
 10
9.0088319943
 20
7.2077941489
 30
0.0
 10
8.9967294457
 20
7.173684562
 30
0.0
 10
8.9861922817
 20
7.1389634297
 30
0.0
 10
8.9772412541
 20
7.1036994461
 30
0.0
 10
8.9698940217
 20
7.0679622741
 30
0.0
 10
8.9641651811
 20
7.0318227647
 30
0.0
 10
8.960065678
 20
6.9953517162
 30
0.0
 10
8.9576039863
 20
6.958622653
 30
0.0
 10
8.9570584592
 20
6.9340482965
 30
0.0
 10
8.9570584592
 20
6.9217442421
 30
0.0
  0
SPLINE
  5
360
100
AcDbEntity
  8
0
100
AcDbSpline
 62
7
  6
CONTINUOUS
 70
0
 71
3
 72
26
 73
22
 74
0
 42
0.0000001
 43
0.0000001
 44
0.0000000001
 40
0.0
 40
0.0
 40
0.0
 40
0.0
 40
0.0617092235
 40
0.0925729854
 40
0.1234446509
 40
0.1852169748
 40
0.2470517571
 40
0.2780013275
 40
0.3089738777
 40
0.3709922222
 40
0.4331298084
 40
0.4954034049
 40
0.5578284199
 40
0.6204187753
 40
0.6831867461
 40
0.7146430864
 40
0.7461476576
 40
0.8093008659
 40
0.872657114
 40
0.9362236724
 40
1.0
 40
1.0
 40
1.0
 40
1.0
 10
9.232610938
 20
7.4586347579
 30
0.0
 10
9.2238705756
 20
7.4501922039
 30
0.0
 10
9.2110814635
 20
7.4371864481
 30
0.0
 10
9.1947172165
 20
7.419207651
 30
0.0
 10
9.1788119017
 20
7.4008044422
 30
0.0
 10
9.1598130094
 20
7.3770282263
 30
0.0
 10
9.1420494962
 20
7.3522965118
 30
0.0
 10
9.1286009887
 20
7.3319697368
 30
0.0
 10
9.1156569234
 20
7.3112754688
 30
0.0
 10
9.1004532611
 20
7.2847625986
 30
0.0
 10
9.083825845
 20
7.2520142678
 30
0.0
 10
9.0688445196
 20
7.218392878
 30
0.0
 10
9.0555440447
 20
7.1839763434
 30
0.0
 10
9.0439550654
 20
7.1488444431
 30
0.0
 10
9.0357516243
 20
7.1190592153
 30
0.0
 10
9.0300681671
 20
7.0949592
 30
0.0
 10
9.0249662581
 20
7.0706518545
 30
0.0
 10
9.0197027042
 20
7.0399698538
 30
0.0
 10
9.015185334
 20
7.0027982564
 30
0.0
 10
9.0124721211
 20
6.9653291577
 30
0.0
 10
9.0118710104
 20
6.9402481465
 30
0.0
 10
9.0118710104
 20
6.9276891041
 30
0.0
  0
SPLINE
  5
361
100
AcDbEntity
  8
0
100
AcDbSpline
 62
7
  6
CONTINUOUS
 70
0
 71
3
 72
24
 73
20
 74
0
 42
0.0000001
 43
0.0000001
 44
0.0000000001
 40
0.0
 40
0.0
 40
0.0
 40
0.0
 40
0.0616701213
 40
0.1233836347
 40
0.185157579
 40
0.2470084812
 40
0.2779698906
 40
0.3089564241
 40
0.3710080612
 40
0.4331817766
 40
0.4954907211
 40
0.55794692
 40
0.6205611877
 40
0.6833429685
 40
0.7463005208
 40
0.809440593
 40
0.872767556
 40
0.9362882888
 40
1.0
 40
1.0
 40
1.0
 40
1.0
 10
9.2698192685
 20
7.4922081184
 30
0.0
 10
9.2623658403
 20
7.4839364026
 30
0.0
 10
9.2478411916
 20
7.4670332667
 30
0.0
 10
9.2272633297
 20
7.4406725017
 30
0.0
 10
9.2079264569
 20
7.4133479244
 30
0.0
 10
9.1928827947
 20
7.3898259532
 30
0.0
 10
9.1815060809
 20
7.3705842615
 30
0.0
 10
9.1705633687
 20
7.3510509286
 30
0.0
 10
9.1577249497
 20
7.3261292942
 30
0.0
 10
9.1437022206
 20
7.2954962116
 30
0.0
 10
9.1310820894
 20
7.2641800638
 30
0.0
 10
9.1198891905
 20
7.2322417946
 30
0.0
 10
9.1101450353
 20
7.1997430766
 30
0.0
 10
9.101868365
 20
7.1667467858
 30
0.0
 10
9.0950751492
 20
7.1333166628
 30
0.0
 10
9.0897785889
 20
7.0995175161
 30
0.0
 10
9.0859885829
 20
7.0654140704
 30
0.0
 10
9.0837127978
 20
7.0310735819
 30
0.0
 10
9.0832084512
 20
7.0080987895
 30
0.0
 10
9.0832084512
 20
6.9965957846
 30
0.0
  0
SPLINE
  5
362
100
AcDbEntity
  8
0
100
AcDbSpline
 62
7
  6
CONTINUOUS
 70
0
 71
3
 72
25
 73
21
 74
0
 42
0.0000001
 43
0.0000001
 44
0.0000000001
 40
0.0
 40
0.0
 40
0.0
 40
0.0
 40
0.0617095319
 40
0.0925734525
 40
0.1234452711
 40
0.1852179107
 40
0.2470530079
 40
0.3089703872
 40
0.3709890414
 40
0.4331269412
 40
0.4954008557
 40
0.5578261871
 40
0.6204168633
 40
0.6831851338
 40
0.7146416333
 40
0.746146383
 40
0.80929992
 40
0.8726563647
 40
0.9362235836
 40
1.0
 40
1.0
 40
1.0
 40
1.0
 10
9.3802336327
 20
7.4900010378
 30
0.0
 10
9.3723522667
 20
7.4823882273
 30
0.0
 10
9.3608200725
 20
7.4706606806
 30
0.0
 10
9.3460640956
 20
7.4544488389
 30
0.0
 10
9.3317219475
 20
7.437854357
 30
0.0
 10
9.3145901134
 20
7.4164146149
 30
0.0
 10
9.2953637267
 20
7.3896462279
 30
0.0
 10
9.277508048
 20
7.3618923123
 30
0.0
 10
9.2610645634
 20
7.3332172941
 30
0.0
 10
9.246071074
 20
7.3036871983
 30
0.0
 10
9.2325621769
 20
7.2733701934
 30
0.0
 10
9.2205688773
 20
7.2423360901
 30
0.0
 10
9.2101188848
 20
7.2106569596
 30
0.0
 10
9.2027216468
 20
7.1837990363
 30
0.0
 10
9.1975967794
 20
7.1620675682
 30
0.0
 10
9.1929962546
 20
7.1401491525
 30
0.0
 10
9.1882500339
 20
7.1124825935
 30
0.0
 10
9.1841766098
 20
7.078964187
 30
0.0
 10
9.1817300792
 20
7.0451775561
 30
0.0
 10
9.1811880284
 20
7.0225614912
 30
0.0
 10
9.1811880284
 20
7.0112367943
 30
0.0
  0
SPLINE
  5
363
100
AcDbEntity
  8
0
100
AcDbSpline
 62
7
  6
CONTINUOUS
 70
0
 71
3
 72
50
 73
46
 74
0
 42
0.0000001
 43
0.0000001
 44
0.0000000001
 40
0.0
 40
0.0
 40
0.0
 40
0.0
 40
0.0484981071
 40
0.0964122279
 40
0.1436641743
 40
0.1901849511
 40
0.2359042066
 40
0.2807531579
 40
0.3246653514
 40
0.3675762377
 40
0.4094234714
 40
0.450147086
 40
0.4896898312
 40
0.5279973132
 40
0.5650181719
 40
0.6007045649
 40
0.6350123927
 40
0.6679015811
 40
0.6993367542
 40
0.7292876931
 40
0.7577298951
 40
0.7846456554
 40
0.7975283127
 40
0.8100263614
 40
0.8221399902
 40
0.8338701763
 40
0.8452185186
 40
0.85618749
 40
0.8667805838
 40
0.8770021922
 40
0.8868579035
 40
0.8963546744
 40
0.9055007717
 40
0.9143061207
 40
0.9227825097
 40
0.9309436026
 40
0.9388053189
 40
0.9463860399
 40
0.9607838117
 40
0.9676581522
 40
0.9743520108
 40
0.9808975346
 40
0.9873293599
 40
0.9936841335
 40
1.0
 40
1.0
 40
1.0
 40
1.0
 10
15.020446517
 20
7.3585645665
 30
0.0
 10
15.020446517
 20
7.3683218677
 30
0.0
 10
15.0203415417
 20
7.3877191557
 30
0.0
 10
15.0198635671
 20
7.4166194847
 30
0.0
 10
15.0190666444
 20
7.4451148681
 30
0.0
 10
15.0179521708
 20
7.4731576936
 30
0.0
 10
15.0165220099
 20
7.5007021337
 30
0.0
 10
15.0147785421
 20
7.5277026684
 30
0.0
 10
15.0127246568
 20
7.5541147307
 30
0.0
 10
15.0103637997
 20
7.5798947996
 30
0.0
 10
15.0076999159
 20
7.6050003679
 30
0.0
 10
15.0047374084
 20
7.6293900504
 30
0.0
 10
15.0014812393
 20
7.6530236681
 30
0.0
 10
14.9979368508
 20
7.6758623019
 30
0.0
 10
14.9941101081
 20
7.6978683544
 30
0.0
 10
14.9900074107
 20
7.7190056389
 30
0.0
 10
14.9856356144
 20
7.7392394322
 30
0.0
 10
14.9810019517
 20
7.7585365325
 30
0.0
 10
14.9761141482
 20
7.7768653254
 30
0.0
 10
14.9709803402
 20
7.7941959453
 30
0.0
 10
14.9656089773
 20
7.8104999449
 30
0.0
 10
14.9608756759
 20
7.8233909718
 30
0.0
 10
14.9569667841
 20
7.8331600434
 30
0.0
 10
14.9540241341
 20
7.8401064765
 30
0.0
 10
14.9510288304
 20
7.8467770206
 30
0.0
 10
14.9479821287
 20
7.8531689909
 30
0.0
 10
14.944885234
 20
7.8592797598
 30
0.0
 10
14.9417393783
 20
7.8651068271
 30
0.0
 10
14.9385458933
 20
7.8706478587
 30
0.0
 10
14.9353060093
 20
7.8759005812
 30
0.0
 10
14.9320209943
 20
7.8808628509
 30
0.0
 10
14.9286922061
 20
7.8855327006
 30
0.0
 10
14.9253208821
 20
7.8899082034
 30
0.0
 10
14.9219083108
 20
7.8939875559
 30
0.0
 10
14.9184558167
 20
7.8977691621
 30
0.0
 10
14.914964739
 20
7.901251329
 30
0.0
 10
14.9114359652
 20
7.9044328183
 30
0.0
 10
14.9067642344
 20
7.9082063579
 30
0.0
 10
14.9019367277
 20
7.911462577
 30
0.0
 10
14.8969745217
 20
7.9141226305
 30
0.0
 10
14.8932788943
 20
7.9157801605
 30
0.0
 10
14.889554362
 20
7.9171293387
 30
0.0
 10
14.885802402
 20
7.9181694571
 30
0.0
 10
14.8820251816
 20
7.9188995987
 30
0.0
 10
14.8794880814
 20
7.919179706
 30
0.0
 10
14.8782204412
 20
7.9192676182
 30
0.0
  0
SPLINE
  5
364
100
AcDbEntity
  8
0
100
AcDbSpline
 62
7
  6
CONTINUOUS
 70
0
 71
3
 72
23
 73
19
 74
0
 42
0.0000001
 43
0.0000001
 44
0.0000000001
 40
0.0
 40
0.0
 40
0.0
 40
0.0
 40
0.0618581116
 40
0.1239597293
 40
0.1862790896
 40
0.2487863893
 40
0.3114483707
 40
0.3742289558
 40
0.4370899175
 40
0.4999915789
 40
0.5628935311
 40
0.6257553595
 40
0.6885373713
 40
0.7512013129
 40
0.8137110704
 40
0.8760333395
 40
0.9381382706
 40
1.0
 40
1.0
 40
1.0
 40
1.0
 10
10.499225179
 20
7.1557996269
 30
0.0
 10
10.487407947
 20
7.1590518289
 30
0.0
 10
10.4639425682
 20
7.1663828369
 30
0.0
 10
10.4295144508
 20
7.1797610723
 30
0.0
 10
10.395946044
 20
7.1954793169
 30
0.0
 10
10.3634063214
 20
7.2134586654
 30
0.0
 10
10.3320563421
 20
7.233609762
 30
0.0
 10
10.302052001
 20
7.2558323023
 30
0.0
 10
10.2735423098
 20
7.2800157827
 30
0.0
 10
10.2466689214
 20
7.3060399777
 30
0.0
 10
10.221565364
 20
7.3337755499
 30
0.0
 10
10.198356402
 20
7.3630846867
 30
0.0
 10
10.1771574203
 20
7.3938217614
 30
0.0
 10
10.1580738404
 20
7.4258341188
 30
0.0
 10
10.1412006611
 20
7.458962566
 30
0.0
 10
10.1266217488
 20
7.493043114
 30
0.0
 10
10.114410312
 20
7.5279042216
 30
0.0
 10
10.1078733737
 20
7.5516045068
 30
0.0
 10
10.1050208418
 20
7.5635252629
 30
0.0
  0
SPLINE
  5
365
100
AcDbEntity
  8
0
100
AcDbSpline
 62
7
  6
CONTINUOUS
 70
0
 71
3
 72
72
 73
68
 74
0
 42
0.0000001
 43
0.0000001
 44
0.0000000001
 40
0.0
 40
0.0
 40
0.0
 40
0.0
 40
0.0153559685
 40
0.0230182634
 40
0.0306701279
 40
0.0459427865
 40
0.0611778706
 40
0.0763785616
 40
0.091548351
 40
0.1066910111
 40
0.1218105607
 40
0.1369112319
 40
0.1519974315
 40
0.1670737003
 40
0.1821446705
 40
0.1972150231
 40
0.2122894456
 40
0.2273725881
 40
0.2424690196
 40
0.2575831853
 40
0.2727193661
 40
0.2878816417
 40
0.3030738534
 40
0.3182995693
 40
0.3335620536
 40
0.3488642409
 40
0.3642087132
 40
0.3795976788
 40
0.3950329547
 40
0.4105159555
 40
0.4260476864
 40
0.441628738
 40
0.4572592834
 40
0.4729390803
 40
0.4886674798
 40
0.504443435
 40
0.5202655115
 40
0.5361319017
 40
0.5520404441
 40
0.5679886442
 40
0.5839736951
 40
0.5999925008
 40
0.6160417026
 40
0.6321177086
 40
0.6482167212
 40
0.664334766
 40
0.6804677226
 40
0.6966113589
 40
0.7127613621
 40
0.7289133705
 40
0.7450630065
 40
0.7612059112
 40
0.7773377774
 40
0.7934543812
 40
0.8095516132
 40
0.8256255125
 40
0.8416722977
 40
0.8576883956
 40
0.8736704685
 40
0.8896154424
 40
0.9055205403
 40
0.9213832847
 40
0.9372015524
 40
0.9529736044
 40
0.9686978062
 40
0.984373832
 40
1.0
 40
1.0
 40
1.0
 40
1.0
 10
12.5089067978
 20
8.6783180411
 30
0.0
 10
12.506311025
 20
8.6664916776
 30
0.0
 10
12.5020021008
 20
8.6488519801
 30
0.0
 10
12.4954317076
 20
8.6255771645
 30
0.0
 10
12.4883297379
 20
8.6025273169
 30
0.0
 10
12.4784454335
 20
8.5740959874
 30
0.0
 10
12.4649898842
 20
8.5406471945
 30
0.0
 10
12.4499752016
 20
8.5079573656
 30
0.0
 10
12.4334329341
 20
8.4760954736
 30
0.0
 10
12.4153976457
 20
8.4451281851
 30
0.0
 10
12.3959070624
 20
8.4151204725
 30
0.0
 10
12.3750020377
 20
8.3861352074
 30
0.0
 10
12.3527263723
 20
8.3582331416
 30
0.0
 10
12.329126728
 20
8.3314727657
 30
0.0
 10
12.3042525196
 20
8.3059102092
 30
0.0
 10
12.2781558907
 20
8.2815990444
 30
0.0
 10
12.2508915656
 20
8.2585901939
 30
0.0
 10
12.2225166917
 20
8.2369318697
 30
0.0
 10
12.1930907291
 20
8.2166694728
 30
0.0
 10
12.1626753494
 20
8.1978454709
 30
0.0
 10
12.1313343399
 20
8.1804992396
 30
0.0
 10
12.0991333978
 20
8.1646670827
 30
0.0
 10
12.0661400082
 20
8.1503821415
 30
0.0
 10
12.0324233016
 20
8.1376743449
 30
0.0
 10
11.9980539529
 20
8.1265702281
 30
0.0
 10
11.9631039862
 20
8.117092969
 30
0.0
 10
11.9276466223
 20
8.109262358
 30
0.0
 10
11.8917561298
 20
8.1030947728
 30
0.0
 10
11.855507688
 20
8.0986030655
 30
0.0
 10
11.8189772191
 20
8.0957965282
 30
0.0
 10
11.7822412163
 20
8.0946809649
 30
0.0
 10
11.7453765927
 20
8.0952586646
 30
0.0
 10
11.7084605281
 20
8.0975283906
 30
0.0
 10
11.6715702975
 20
8.1014852764
 30
0.0
 10
11.6347831103
 20
8.1071209625
 30
0.0
 10
11.5981759532
 20
8.1144236
 30
0.0
 10
11.5618254422
 20
8.1233778961
 30
0.0
 10
11.5258076383
 20
8.1339650354
 30
0.0
 10
11.4901978927
 20
8.146162781
 30
0.0
 10
11.4550707052
 20
8.1599455639
 30
0.0
 10
11.4204995761
 20
8.1752845348
 30
0.0
 10
11.3865568396
 20
8.1921475782
 30
0.0
 10
11.3533134821
 20
8.210499334
 30
0.0
 10
11.3208390398
 20
8.2303013729
 30
0.0
 10
11.2892014503
 20
8.2515122542
 30
0.0
 10
11.2584669236
 20
8.2740876186
 30
0.0
 10
11.2286997311
 20
8.2979801846
 30
0.0
 10
11.1999621295
 20
8.3231399387
 30
0.0
 10
11.1723142374
 20
8.34951424
 30
0.0
 10
11.1458139269
 20
8.3770479374
 30
0.0
 10
11.1205166403
 20
8.4056834196
 30
0.0
 10
11.0964752773
 20
8.4353607527
 30
0.0
 10
11.0737401403
 20
8.4660178528
 30
0.0
 10
11.0523588263
 20
8.4975906032
 30
0.0
 10
11.0323761152
 20
8.5300129729
 30
0.0
 10
11.0138337947
 20
8.5632171105
 30
0.0
 10
10.996770673
 20
8.5971335532
 30
0.0
 10
10.9812224867
 20
8.6316913559
 30
0.0
 10
10.9672218483
 20
8.6668182423
 30
0.0
 10
10.9547980616
 20
8.7024407124
 30
0.0
 10
10.9439771463
 20
8.7384842297
 30
0.0
 10
10.9347817814
 20
8.7748733788
 30
0.0
 10
10.927231285
 20
8.8115320786
 30
0.0
 10
10.9213416234
 20
8.8483834092
 30
0.0
 10
10.9171248701
 20
8.8853508795
 30
0.0
 10
10.9145903402
 20
8.92235566
 30
0.0
 10
10.9140245295
 20
8.9470404888
 30
0.0
 10
10.9140245295
 20
8.9593614221
 30
0.0
  0
SPLINE
  5
366
100
AcDbEntity
  8
0
100
AcDbSpline
 62
7
  6
CONTINUOUS
 70
0
 71
3
 72
50
 73
46
 74
0
 42
0.0000001
 43
0.0000001
 44
0.0000000001
 40
0.0
 40
0.0
 40
0.0
 40
0.0
 40
0.0367817707
 40
0.0738183532
 40
0.1110813779
 40
0.1485454649
 40
0.186180619
 40
0.2239538709
 40
0.2618272275
 40
0.2997564426
 40
0.3376898041
 40
0.3755668853
 40
0.4133174584
 40
0.4508606205
 40
0.4881044695
 40
0.524946181
 40
0.5612727418
 40
0.5969624951
 40
0.6318874809
 40
0.6659165395
 40
0.6989191933
 40
0.7307698502
 40
0.7462263222
 40
0.7613520783
 40
0.7761347316
 40
0.7905628205
 40
0.8046263447
 40
0.8183161781
 40
0.8316250142
 40
0.8445464606
 40
0.8570760927
 40
0.8692106321
 40
0.8809486595
 40
0.8922902863
 40
0.9032372702
 40
0.9137932756
 40
0.9239635168
 40
0.9337553381
 40
0.9431777966
 40
0.9522420903
 40
0.9609614707
 40
0.9693513515
 40
0.97742945
 40
0.9852158454
 40
1.0
 40
1.0
 40
1.0
 40
1.0
 10
11.6334554861
 20
9.5532784044
 30
0.0
 10
11.6334554861
 20
9.5429697597
 30
0.0
 10
11.6338574564
 20
9.5222789309
 30
0.0
 10
11.6356470649
 20
9.4911911555
 30
0.0
 10
11.6386160787
 20
9.4600014273
 30
0.0
 10
11.6427477123
 20
9.4287754937
 30
0.0
 10
11.6480187441
 20
9.3975768101
 30
0.0
 10
11.6543982318
 20
9.3664690319
 30
0.0
 10
11.6618473442
 20
9.3355155117
 30
0.0
 10
11.670318821
 20
9.3047799014
 30
0.0
 10
11.6797562783
 20
9.2743263727
 30
0.0
 10
11.6900935425
 20
9.2442198129
 30
0.0
 10
11.7012538837
 20
9.2145258756
 30
0.0
 10
11.7131494322
 20
9.1853108246
 30
0.0
 10
11.7256809142
 20
9.156641193
 30
0.0
 10
11.7387375643
 20
9.1285831042
 30
0.0
 10
11.7521975057
 20
9.1012013289
 30
0.0
 10
11.7659286587
 20
9.0745580425
 30
0.0
 10
11.7797902563
 20
9.0487113423
 30
0.0
 10
11.7936350297
 20
9.0237136275
 30
0.0
 10
11.8073118197
 20
8.9996099067
 30
0.0
 10
11.8185520204
 20
8.9801093275
 30
0.0
 10
11.8273217548
 20
8.9649678919
 30
0.0
 10
11.8336969128
 20
8.9539675272
 30
0.0
 10
11.8399179727
 20
8.9432109821
 30
0.0
 10
11.8459676411
 20
8.9326992425
 30
0.0
 10
11.8518293376
 20
8.9224327618
 30
0.0
 10
11.8574869922
 20
8.9124111246
 30
0.0
 10
11.8629256052
 20
8.9026336146
 30
0.0
 10
11.8681305442
 20
8.89309855
 30
0.0
 10
11.8730885196
 20
8.8838041238
 30
0.0
 10
11.8777865954
 20
8.8747476544
 30
0.0
 10
11.8822131215
 20
8.865926323
 30
0.0
 10
11.8863570848
 20
8.8573367706
 30
0.0
 10
11.8902083099
 20
8.8489753141
 30
0.0
 10
11.8937577996
 20
8.8408381942
 30
0.0
 10
11.8969967451
 20
8.8329211245
 30
0.0
 10
11.8999179891
 20
8.8252200965
 30
0.0
 10
11.902514198
 20
8.8177305969
 30
0.0
 10
11.9047795846
 20
8.810448461
 30
0.0
 10
11.9067085017
 20
8.8033692791
 30
0.0
 10
11.9082960426
 20
8.796489045
 30
0.0
 10
11.9095382621
 20
8.7898031271
 30
0.0
 10
11.9107083677
 20
8.7812917925
 30
0.0
 10
11.9110965022
 20
8.7749611289
 30
0.0
 10
11.9110973039
 20
8.7708176472
 30
0.0
  0
SPLINE
  5
367
100
AcDbEntity
  8
0
100
AcDbSpline
 62
7
  6
CONTINUOUS
 70
0
 71
3
 72
54
 73
50
 74
0
 42
0.0000001
 43
0.0000001
 44
0.0000000001
 40
0.0
 40
0.0
 40
0.0
 40
0.0
 40
0.0063158427
 40
0.0126705974
 40
0.0191023953
 40
0.0256479035
 40
0.0323417516
 40
0.0392160545
 40
0.0536138127
 40
0.061194488
 40
0.0690562166
 40
0.0772172825
 40
0.0856936302
 40
0.0944989909
 40
0.1036450473
 40
0.113141787
 40
0.1229974971
 40
0.1332190617
 40
0.1438121259
 40
0.1547810799
 40
0.1661293869
 40
0.1778595312
 40
0.189973133
 40
0.2024711534
 40
0.2153537503
 40
0.2286205275
 40
0.2422705277
 40
0.256302183
 40
0.2707135528
 40
0.2855021644
 40
0.300665138
 40
0.316199276
 40
0.3321009043
 40
0.3649900029
 40
0.3992976831
 40
0.4349839512
 40
0.472004695
 40
0.5103120262
 40
0.5498546333
 40
0.5905781015
 40
0.6324251619
 40
0.6753358913
 40
0.7192479428
 40
0.7640967229
 40
0.8098156864
 40
0.8563364658
 40
0.9035883331
 40
0.9515014468
 40
1.0
 40
1.0
 40
1.0
 40
1.0
 10
15.0168454286
 20
11.3701949979
 30
0.0
 10
15.0188567496
 20
11.3700555082
 30
0.0
 10
15.0228822809
 20
11.3696110553
 30
0.0
 10
15.0288754509
 20
11.3684524891
 30
0.0
 10
15.0348285727
 20
11.366802216
 30
0.0
 10
15.0407381519
 20
11.364661469
 30
0.0
 10
15.0466018498
 20
11.3620314611
 30
0.0
 10
15.0544752695
 20
11.3578109201
 30
0.0
 10
15.0621348171
 20
11.3526442451
 30
0.0
 10
15.0695473722
 20
11.3466569676
 30
0.0
 10
15.0751462895
 20
11.3416089168
 30
0.0
 10
15.0806854794
 20
11.3360838865
 30
0.0
 10
15.086163465
 20
11.3300837514
 30
0.0
 10
15.0915780128
 20
11.3236111191
 30
0.0
 10
15.0969272108
 20
11.3166686693
 30
0.0
 10
15.1022088876
 20
11.3092591662
 30
0.0
 10
15.1074210703
 20
11.3013856653
 30
0.0
 10
15.1125617089
 20
11.2930513517
 30
0.0
 10
15.1176286942
 20
11.2842595715
 30
0.0
 10
15.1226201006
 20
11.275013941
 30
0.0
 10
15.1275338395
 20
11.2653181827
 30
0.0
 10
15.1323679389
 20
11.2551762556
 30
0.0
 10
15.1371204828
 20
11.2445923108
 30
0.0
 10
15.14178944
 20
11.233570641
 30
0.0
 10
15.1463729816
 20
11.222115782
 30
0.0
 10
15.1508691966
 20
11.2102324141
 30
0.0
 10
15.1552762027
 20
11.1979254011
 30
0.0
 10
15.1595922622
 20
11.1851998104
 30
0.0
 10
15.1638155179
 20
11.1720608503
 30
0.0
 10
15.1679442692
 20
11.1585139292
 30
0.0
 10
15.171976824
 20
11.1445646226
 30
0.0
 10
15.1759114758
 20
11.1302186424
 30
0.0
 10
15.1810831204
 20
11.1103461966
 30
0.0
 10
15.1872772606
 20
11.0845498338
 30
0.0
 10
15.1942138748
 20
11.0524456707
 30
0.0
 10
15.2007234711
 20
11.0189078299
 30
0.0
 10
15.2067952127
 20
10.983991578
 30
0.0
 10
15.2124189831
 20
10.9477542919
 30
0.0
 10
15.217585423
 20
10.9102556371
 30
0.0
 10
15.2222859208
 20
10.8715573631
 30
0.0
 10
15.2265126304
 20
10.8317232229
 30
0.0
 10
15.2302585072
 20
10.7908188672
 30
0.0
 10
15.2335173179
 20
10.748911745
 30
0.0
 10
15.236283634
 20
10.7060709562
 30
0.0
 10
15.2385528331
 20
10.6623671212
 30
0.0
 10
15.2403210968
 20
10.6178724812
 30
0.0
 10
15.2415855497
 20
10.5726600105
 30
0.0
 10
15.242343962
 20
10.5268048826
 30
0.0
 10
15.2425105032
 20
10.4960279346
 30
0.0
 10
15.2425105032
 20
10.480546159
 30
0.0
  0
SPLINE
  5
368
100
AcDbEntity
  8
0
100
AcDbSpline
 62
7
  6
CONTINUOUS
 70
0
 71
3
 72
60
 73
56
 74
0
 42
0.0000001
 43
0.0000001
 44
0.0000000001
 40
0.0
 40
0.0
 40
0.0
 40
0.0
 40
0.0417737215
 40
0.0840362954
 40
0.1266575307
 40
0.1695051874
 40
0.2124464681
 40
0.2553480875
 40
0.2980769527
 40
0.3405006415
 40
0.3824879411
 40
0.4239093736
 40
0.4646377307
 40
0.5045486136
 40
0.543520985
 40
0.5814377367
 40
0.599965091
 40
0.6181867239
 40
0.6360893624
 40
0.6536601077
 40
0.6708864507
 40
0.6877562714
 40
0.7042579206
 40
0.7203801597
 40
0.7361123056
 40
0.7514441249
 40
0.7663660213
 40
0.7808689196
 40
0.7949444585
 40
0.8085849095
 40
0.8217833396
 40
0.8345336065
 40
0.8468304684
 40
0.8586696849
 40
0.8700480724
 40
0.8809637257
 40
0.8914160437
 40
0.9014060712
 40
0.9109365509
 40
0.9200123738
 40
0.9286407389
 40
0.9368317014
 40
0.9445985263
 40
0.9519583321
 40
0.9589326812
 40
0.9655482848
 40
0.9718377328
 40
0.9778400566
 40
0.9836011837
 40
0.9864084827
 40
0.9891757961
 40
0.9919106627
 40
0.9946209124
 40
0.9973146132
 40
1.0
 40
1.0
 40
1.0
 40
1.0
 10
15.2425105032
 20
7.4610619172
 30
0.0
 10
15.2425105032
 20
7.4388613928
 30
0.0
 10
15.2421641525
 20
7.394199847
 30
0.0
 10
15.2406329896
 20
7.3269031463
 30
0.0
 10
15.2380916441
 20
7.259065768
 30
0.0
 10
15.2345484366
 20
7.1909122316
 30
0.0
 10
15.2300150827
 20
7.1226680541
 30
0.0
 10
15.2245065642
 20
7.0545589943
 30
0.0
 10
15.21804113
 20
6.9868103899
 30
0.0
 10
15.2106402126
 20
6.9196463684
 30
0.0
 10
15.2023283667
 20
6.853289114
 30
0.0
 10
15.1931331863
 20
6.7879581175
 30
0.0
 10
15.1830852133
 20
6.7238694666
 30
0.0
 10
15.1722178487
 20
6.6612350412
 30
0.0
 10
15.1605672052
 20
6.6002620933
 30
0.0
 10
15.1501596141
 20
6.5506295642
 30
0.0
 10
15.1414592781
 20
6.5119136848
 30
0.0
 10
15.1348131219
 20
6.4836393558
 30
0.0
 10
15.1280014517
 20
6.4559276836
 30
0.0
 10
15.1210298948
 20
6.4288015657
 30
0.0
 10
15.1139042522
 20
6.4022834406
 30
0.0
 10
15.1066303966
 20
6.3763952357
 30
0.0
 10
15.0992144148
 20
6.35115835
 30
0.0
 10
15.0916623841
 20
6.3265936493
 30
0.0
 10
15.0839806545
 20
6.302721424
 30
0.0
 10
15.0761754996
 20
6.2795614057
 30
0.0
 10
15.068253491
 20
6.2571327065
 30
0.0
 10
15.0602211011
 20
6.2354538531
 30
0.0
 10
15.0520850729
 20
6.2145427155
 30
0.0
 10
15.0438520791
 20
6.1944165445
 30
0.0
 10
15.0355289845
 20
6.1750919082
 30
0.0
 10
15.0271226544
 20
6.1565847115
 30
0.0
 10
15.0186400299
 20
6.1389101651
 30
0.0
 10
15.0100881461
 20
6.1220827586
 30
0.0
 10
15.001473978
 20
6.1061162918
 30
0.0
 10
14.9928046859
 20
6.0910237739
 30
0.0
 10
14.9840872368
 20
6.0768175424
 30
0.0
 10
14.9753288391
 20
6.0635090718
 30
0.0
 10
14.9665364034
 20
6.0511091894
 30
0.0
 10
14.9577170626
 20
6.0396278104
 30
0.0
 10
14.9488775986
 20
6.0290742243
 30
0.0
 10
14.9400248986
 20
6.0194568288
 30
0.0
 10
14.9311654979
 20
6.0107834246
 30
0.0
 10
14.9223058547
 20
6.0030610784
 30
0.0
 10
14.9134521283
 20
5.9962963372
 30
0.0
 10
14.9046103503
 20
5.9904953965
 30
0.0
 10
14.8957862647
 20
5.9856640525
 30
0.0
 10
14.886986655
 20
5.9818083927
 30
0.0
 10
14.8796146262
 20
5.9793921795
 30
0.0
 10
14.8737581323
 20
5.977969755
 30
0.0
 10
14.8694151063
 20
5.9771577502
 30
0.0
 10
14.8650852441
 20
5.976591861
 30
0.0
 10
14.8607693712
 20
5.9762722671
 30
0.0
 10
14.8564687082
 20
5.9761991501
 30
0.0
 10
14.8536104802
 20
5.9763147958
 30
0.0
 10
14.8521867589
 20
5.9764135341
 30
0.0
  0
SPLINE
  5
369
100
AcDbEntity
  8
0
100
AcDbSpline
 62
7
  6
CONTINUOUS
 70
0
 71
3
 72
54
 73
50
 74
0
 42
0.0000001
 43
0.0000001
 44
0.0000000001
 40
0.0
 40
0.0
 40
0.0
 40
0.0
 40
0.0063158427
 40
0.0126705974
 40
0.0191023953
 40
0.0256479035
 40
0.0323417516
 40
0.0392160545
 40
0.0536138127
 40
0.061194488
 40
0.0690562166
 40
0.0772172825
 40
0.0856936302
 40
0.0944989909
 40
0.1036450473
 40
0.113141787
 40
0.1229974971
 40
0.1332190617
 40
0.1438121259
 40
0.1547810799
 40
0.1661293869
 40
0.1778595312
 40
0.189973133
 40
0.2024711534
 40
0.2153537503
 40
0.2286205275
 40
0.2422705277
 40
0.256302183
 40
0.2707135528
 40
0.2855021644
 40
0.300665138
 40
0.316199276
 40
0.3321009043
 40
0.3649900029
 40
0.3992976831
 40
0.4349839512
 40
0.472004695
 40
0.5103120262
 40
0.5498546333
 40
0.5905781015
 40
0.6324251619
 40
0.6753358913
 40
0.7192479428
 40
0.7640967229
 40
0.8098156864
 40
0.8563364658
 40
0.9035883331
 40
0.9515014468
 40
1.0
 40
1.0
 40
1.0
 40
1.0
 10
15.0168454286
 20
8.350710756
 30
0.0
 10
15.0188567496
 20
8.3505712663
 30
0.0
 10
15.0228822809
 20
8.3501268134
 30
0.0
 10
15.0288754509
 20
8.3489682472
 30
0.0
 10
15.0348285727
 20
8.3473179741
 30
0.0
 10
15.0407381519
 20
8.3451772271
 30
0.0
 10
15.0466018498
 20
8.3425472192
 30
0.0
 10
15.0544752695
 20
8.3383266782
 30
0.0
 10
15.0621348171
 20
8.3331600032
 30
0.0
 10
15.0695473722
 20
8.3271727258
 30
0.0
 10
15.0751462895
 20
8.3221246749
 30
0.0
 10
15.0806854794
 20
8.3165996446
 30
0.0
 10
15.086163465
 20
8.3105995095
 30
0.0
 10
15.0915780128
 20
8.3041268772
 30
0.0
 10
15.0969272108
 20
8.2971844274
 30
0.0
 10
15.1022088876
 20
8.2897749243
 30
0.0
 10
15.1074210703
 20
8.2819014234
 30
0.0
 10
15.1125617089
 20
8.2735671098
 30
0.0
 10
15.1176286942
 20
8.2647753296
 30
0.0
 10
15.1226201006
 20
8.2555296991
 30
0.0
 10
15.1275338395
 20
8.2458339408
 30
0.0
 10
15.1323679389
 20
8.2356920137
 30
0.0
 10
15.1371204828
 20
8.2251080689
 30
0.0
 10
15.14178944
 20
8.2140863992
 30
0.0
 10
15.1463729816
 20
8.2026315402
 30
0.0
 10
15.1508691966
 20
8.1907481722
 30
0.0
 10
15.1552762027
 20
8.1784411592
 30
0.0
 10
15.1595922622
 20
8.1657155685
 30
0.0
 10
15.1638155179
 20
8.1525766084
 30
0.0
 10
15.1679442692
 20
8.1390296873
 30
0.0
 10
15.171976824
 20
8.1250803807
 30
0.0
 10
15.1759114758
 20
8.1107344005
 30
0.0
 10
15.1810831204
 20
8.0908619547
 30
0.0
 10
15.1872772606
 20
8.065065592
 30
0.0
 10
15.1942138748
 20
8.0329614288
 30
0.0
 10
15.2007234711
 20
7.999423588
 30
0.0
 10
15.2067952127
 20
7.9645073361
 30
0.0
 10
15.2124189831
 20
7.92827005
 30
0.0
 10
15.217585423
 20
7.8907713952
 30
0.0
 10
15.2222859208
 20
7.8520731213
 30
0.0
 10
15.2265126304
 20
7.8122389811
 30
0.0
 10
15.2302585072
 20
7.7713346253
 30
0.0
 10
15.2335173179
 20
7.7294275032
 30
0.0
 10
15.236283634
 20
7.6865867143
 30
0.0
 10
15.2385528331
 20
7.6428828793
 30
0.0
 10
15.2403210968
 20
7.5983882393
 30
0.0
 10
15.2415855497
 20
7.5531757686
 30
0.0
 10
15.242343962
 20
7.5073206407
 30
0.0
 10
15.2425105032
 20
7.4765436927
 30
0.0
 10
15.2425105032
 20
7.4610619172
 30
0.0
  0
SPLINE
  5
36A
100
AcDbEntity
  8
0
100
AcDbSpline
 62
7
  6
CONTINUOUS
 70
0
 71
3
 72
43
 73
39
 74
0
 42
0.0000001
 43
0.0000001
 44
0.0000000001
 40
0.0
 40
0.0
 40
0.0
 40
0.0
 40
0.0303589764
 40
0.0455827641
 40
0.060835509
 40
0.0914256939
 40
0.1221330847
 40
0.1375319624
 40
0.1529597093
 40
0.1838976046
 40
0.2149460427
 40
0.2461001315
 40
0.2773537492
 40
0.3086996261
 40
0.3401294384
 40
0.3716339107
 40
0.4032029274
 40
0.4348256509
 40
0.4664906464
 40
0.4981860117
 40
0.5298995094
 40
0.561618703
 40
0.5933310931
 40
0.6250242554
 40
0.6566859769
 40
0.6883043915
 40
0.7198681122
 40
0.7513663605
 40
0.782789091
 40
0.8141271059
 40
0.8453721797
 40
0.8609589562
 40
0.8765198874
 40
0.9075587555
 40
0.9384865137
 40
0.9539090176
 40
0.969303164
 40
1.0
 40
1.0
 40
1.0
 40
1.0
 10
12.5158923725
 20
8.8716698748
 30
0.0
 10
12.5036561332
 20
8.8700973553
 30
0.0
 10
12.4852117579
 20
8.8682550721
 30
0.0
 10
12.460528973
 20
8.8668321797
 30
0.0
 10
12.4357214904
 20
8.8660952545
 30
0.0
 10
12.4045993905
 20
8.8664695903
 30
0.0
 10
12.3734862397
 20
8.8685631302
 30
0.0
 10
12.3486244105
 20
8.8712637095
 30
0.0
 10
12.3237526359
 20
8.8746535179
 30
0.0
 10
12.2927649748
 20
8.8801720469
 30
0.0
 10
12.2558967115
 20
8.8888112223
 30
0.0
 10
12.219420204
 20
8.8994474768
 30
0.0
 10
12.1834471383
 20
8.9120482361
 30
0.0
 10
12.1480867627
 20
8.9265750868
 30
0.0
 10
12.1134466942
 20
8.942983736
 30
0.0
 10
12.0796322881
 20
8.9612241888
 30
0.0
 10
12.0467464026
 20
8.9812408898
 30
0.0
 10
12.014889065
 20
9.0029728916
 30
0.0
 10
11.9841571703
 20
9.0263540341
 30
0.0
 10
11.9546441924
 20
9.0513131545
 30
0.0
 10
11.9264399015
 20
9.0777743013
 30
0.0
 10
11.899630093
 20
9.1056569649
 30
0.0
 10
11.8742963282
 20
9.1348763209
 30
0.0
 10
11.850515688
 20
9.1653434856
 30
0.0
 10
11.8283605397
 20
9.1969657868
 30
0.0
 10
11.8078983185
 20
9.2296470372
 30
0.0
 10
11.7891913206
 20
9.263287847
 30
0.0
 10
11.7722965228
 20
9.2977858416
 30
0.0
 10
11.7572653483
 20
9.3330362645
 30
0.0
 10
11.7441437525
 20
9.3689312167
 30
0.0
 10
11.7348257533
 20
9.3993164199
 30
0.0
 10
11.7283656871
 20
9.4238366483
 30
0.0
 10
11.7225818508
 20
9.4484390945
 30
0.0
 10
11.7166057859
 20
9.4793881159
 30
0.0
 10
11.7123155591
 20
9.5105589197
 30
0.0
 10
11.7099110398
 20
9.5355371715
 30
0.0
 10
11.7081952157
 20
9.5604774155
 30
0.0
 10
11.7076770605
 20
9.5792125079
 30
0.0
 10
11.7076770605
 20
9.591686673
 30
0.0
  0
SPLINE
  5
36B
100
AcDbEntity
  8
0
100
AcDbSpline
 62
7
  6
CONTINUOUS
 70
0
 71
3
 72
39
 73
35
 74
0
 42
0.0000001
 43
0.0000001
 44
0.0000000001
 40
0.0
 40
0.0
 40
0.0
 40
0.0
 40
0.0307462577
 40
0.0615801569
 40
0.0924990413
 40
0.1234996452
 40
0.1545781092
 40
0.1857300146
 40
0.2169504305
 40
0.24823394
 40
0.2795746788
 40
0.3109663923
 40
0.3424024717
 40
0.3738759956
 40
0.4053797921
 40
0.4369064823
 40
0.4684485246
 40
0.4999982777
 40
0.5315480495
 40
0.5630901413
 40
0.5946169108
 40
0.6261208231
 40
0.6575944927
 40
0.6890307441
 40
0.7204226634
 40
0.7517636353
 40
0.7830473994
 40
0.8142680972
 40
0.8454203083
 40
0.8764990998
 40
0.9075000298
 40
0.9384192726
 40
0.9692536372
 40
1.0
 40
1.0
 40
1.0
 40
1.0
 10
12.4871116867
 20
9.0482197336
 30
0.0
 10
12.4777688554
 20
9.0495517408
 30
0.0
 10
12.4591113002
 20
9.0526208711
 30
0.0
 10
12.4313094776
 20
9.0584185364
 30
0.0
 10
12.4037015807
 20
9.0654060443
 30
0.0
 10
12.3763403383
 20
9.0735701695
 30
0.0
 10
12.3492771601
 20
9.0828955687
 30
0.0
 10
12.3225630687
 20
9.0933645288
 30
0.0
 10
12.2962483983
 20
9.104957311
 30
0.0
 10
12.2703827865
 20
9.1176521289
 30
0.0
 10
12.2450149372
 20
9.1314249458
 30
0.0
 10
12.2201926423
 20
9.1462497713
 30
0.0
 10
12.195962733
 20
9.1620987386
 30
0.0
 10
12.1723708412
 20
9.1789419118
 30
0.0
 10
12.1494613899
 20
9.1967474938
 30
0.0
 10
12.1272776055
 20
9.2154819903
 30
0.0
 10
12.105861295
 20
9.2351100803
 30
0.0
 10
12.08525276
 20
9.2555947056
 30
0.0
 10
12.0654908803
 20
9.2768973031
 30
0.0
 10
12.0466129427
 20
9.2989777561
 30
0.0
 10
12.0286544516
 20
9.3217943838
 30
0.0
 10
12.0116492743
 20
9.3453042066
 30
0.0
 10
11.9956295455
 20
9.3694629712
 30
0.0
 10
11.9806253864
 20
9.394225093
 30
0.0
 10
11.9666650755
 20
9.4195439069
 30
0.0
 10
11.9537750335
 20
9.4453717494
 30
0.0
 10
11.9419795157
 20
9.4716599133
 30
0.0
 10
11.9313007279
 20
9.4983588418
 30
0.0
 10
11.9217589082
 20
9.5254182522
 30
0.0
 10
11.9133720629
 20
9.5527871456
 30
0.0
 10
11.9061559418
 20
9.580413867
 30
0.0
 10
11.900124216
 20
9.6082465775
 30
0.0
 10
11.8952884957
 20
9.6362320407
 30
0.0
 10
11.8928642186
 20
9.6549844646
 30
0.0
 10
11.8918550792
 20
9.6643676936
 30
0.0
  0
SPLINE
  5
36C
100
AcDbEntity
  8
0
100
AcDbSpline
 62
7
  6
CONTINUOUS
 70
0
 71
3
 72
72
 73
68
 74
0
 42
0.0000001
 43
0.0000001
 44
0.0000000001
 40
0.0
 40
0.0
 40
0.0
 40
0.0
 40
0.0153559685
 40
0.0230182634
 40
0.0306701279
 40
0.0459427865
 40
0.0611778706
 40
0.0763785616
 40
0.091548351
 40
0.1066910111
 40
0.1218105607
 40
0.1369112319
 40
0.1519974315
 40
0.1670737003
 40
0.1821446705
 40
0.1972150231
 40
0.2122894456
 40
0.2273725881
 40
0.2424690196
 40
0.2575831853
 40
0.2727193661
 40
0.2878816417
 40
0.3030738534
 40
0.3182995693
 40
0.3335620536
 40
0.3488642409
 40
0.3642087132
 40
0.3795976788
 40
0.3950329547
 40
0.4105159555
 40
0.4260476864
 40
0.441628738
 40
0.4572592834
 40
0.4729390803
 40
0.4886674798
 40
0.504443435
 40
0.5202655115
 40
0.5361319017
 40
0.5520404441
 40
0.5679886442
 40
0.5839736951
 40
0.5999925008
 40
0.6160417026
 40
0.6321177086
 40
0.6482167212
 40
0.664334766
 40
0.6804677226
 40
0.6966113589
 40
0.7127613621
 40
0.7289133705
 40
0.7450630065
 40
0.7612059112
 40
0.7773377774
 40
0.7934543812
 40
0.8095516132
 40
0.8256255125
 40
0.8416722977
 40
0.8576883956
 40
0.8736704685
 40
0.8896154424
 40
0.9055205403
 40
0.9213832847
 40
0.9372015524
 40
0.9529736044
 40
0.9686978062
 40
0.984373832
 40
1.0
 40
1.0
 40
1.0
 40
1.0
 10
10.5770548005
 20
6.6389591942
 30
0.0
 10
10.5744590277
 20
6.6271328308
 30
0.0
 10
10.5701501034
 20
6.6094931332
 30
0.0
 10
10.5635797103
 20
6.5862183177
 30
0.0
 10
10.5564777406
 20
6.56316847
 30
0.0
 10
10.5465934362
 20
6.5347371405
 30
0.0
 10
10.5331378868
 20
6.5012883476
 30
0.0
 10
10.5181232043
 20
6.4685985187
 30
0.0
 10
10.5015809368
 20
6.4367366268
 30
0.0
 10
10.4835456484
 20
6.4057693383
 30
0.0
 10
10.4640550651
 20
6.3757616257
 30
0.0
 10
10.4431500404
 20
6.3467763606
 30
0.0
 10
10.4208743749
 20
6.3188742947
 30
0.0
 10
10.3972747307
 20
6.2921139188
 30
0.0
 10
10.3724005222
 20
6.2665513623
 30
0.0
 10
10.3463038934
 20
6.2422401975
 30
0.0
 10
10.3190395682
 20
6.2192313471
 30
0.0
 10
10.2906646944
 20
6.1975730229
 30
0.0
 10
10.2612387317
 20
6.1773106259
 30
0.0
 10
10.2308233521
 20
6.158486624
 30
0.0
 10
10.1994823426
 20
6.1411403927
 30
0.0
 10
10.1672814004
 20
6.1253082359
 30
0.0
 10
10.1342880108
 20
6.1110232946
 30
0.0
 10
10.1005713043
 20
6.0983154981
 30
0.0
 10
10.0662019555
 20
6.0872113813
 30
0.0
 10
10.0312519889
 20
6.0777341221
 30
0.0
 10
9.995794625
 20
6.0699035111
 30
0.0
 10
9.9599041324
 20
6.0637359259
 30
0.0
 10
9.9236556906
 20
6.0592442186
 30
0.0
 10
9.8871252218
 20
6.0564376813
 30
0.0
 10
9.850389219
 20
6.055322118
 30
0.0
 10
9.8135245954
 20
6.0558998177
 30
0.0
 10
9.7766085308
 20
6.0581695438
 30
0.0
 10
9.7397183002
 20
6.0621264296
 30
0.0
 10
9.7029311129
 20
6.0677621156
 30
0.0
 10
9.6663239558
 20
6.0750647531
 30
0.0
 10
9.6299734449
 20
6.0840190493
 30
0.0
 10
9.5939556409
 20
6.0946061886
 30
0.0
 10
9.5583458954
 20
6.1068039341
 30
0.0
 10
9.5232187078
 20
6.120586717
 30
0.0
 10
9.4886475787
 20
6.1359256879
 30
0.0
 10
9.4547048423
 20
6.1527887313
 30
0.0
 10
9.4214614847
 20
6.1711404871
 30
0.0
 10
9.3889870424
 20
6.1909425261
 30
0.0
 10
9.357349453
 20
6.2121534073
 30
0.0
 10
9.3266149262
 20
6.2347287717
 30
0.0
 10
9.2968477338
 20
6.2586213377
 30
0.0
 10
9.2681101322
 20
6.2837810918
 30
0.0
 10
9.2404622401
 20
6.3101553931
 30
0.0
 10
9.2139619295
 20
6.3376890905
 30
0.0
 10
9.188664643
 20
6.3663245728
 30
0.0
 10
9.1646232799
 20
6.3960019058
 30
0.0
 10
9.141888143
 20
6.426659006
 30
0.0
 10
9.120506829
 20
6.4582317563
 30
0.0
 10
9.1005241179
 20
6.490654126
 30
0.0
 10
9.0819817973
 20
6.5238582636
 30
0.0
 10
9.0649186756
 20
6.5577747063
 30
0.0
 10
9.0493704893
 20
6.592332509
 30
0.0
 10
9.035369851
 20
6.6274593955
 30
0.0
 10
9.0229460642
 20
6.6630818655
 30
0.0
 10
9.012125149
 20
6.6991253828
 30
0.0
 10
9.0029297841
 20
6.7355145319
 30
0.0
 10
8.9953792876
 20
6.7721732317
 30
0.0
 10
8.9894896261
 20
6.8090245624
 30
0.0
 10
8.9852728727
 20
6.8459920327
 30
0.0
 10
8.9827383429
 20
6.8829968131
 30
0.0
 10
8.9821725322
 20
6.9076816419
 30
0.0
 10
8.9821725322
 20
6.9200025753
 30
0.0
  0
SPLINE
  5
36D
100
AcDbEntity
  8
0
100
AcDbSpline
 62
7
  6
CONTINUOUS
 70
0
 71
3
 72
27
 73
23
 74
0
 42
0.0000001
 43
0.0000001
 44
0.0000000001
 40
0.0
 40
0.0
 40
0.0
 40
0.0
 40
0.0637761271
 40
0.0955883976
 40
0.1273469085
 40
0.1907029206
 40
0.2538558223
 40
0.2853602401
 40
0.3168164357
 40
0.3795841196
 40
0.4421741829
 40
0.5045989092
 40
0.5668722156
 40
0.6290095116
 40
0.6910275677
 40
0.7219999748
 40
0.7529494013
 40
0.8147838969
 40
0.8765559321
 40
0.907427452
 40
0.9382910693
 40
1.0
 40
1.0
 40
1.0
 40
1.0
 10
10.856816922
 20
8.9301031133
 30
0.0
 10
10.856816922
 20
8.9433872756
 30
0.0
 10
10.8572942712
 20
8.9633021591
 30
0.0
 10
10.8588911718
 20
8.9897814599
 30
0.0
 10
10.861122139
 20
9.0161275793
 30
0.0
 10
10.8651007498
 20
9.0488666439
 30
0.0
 10
10.8706681813
 20
9.0813198305
 30
0.0
 10
10.8760646059
 20
9.1070306069
 30
0.0
 10
10.8820761995
 20
9.1325220354
 30
0.0
 10
10.8907532084
 20
9.1640269431
 30
0.0
 10
10.9030112334
 20
9.2011872102
 30
0.0
 10
10.9170795631
 20
9.2375908136
 30
0.0
 10
10.9329257862
 20
9.2731533682
 30
0.0
 10
10.950513135
 20
9.3077924605
 30
0.0
 10
10.9665944966
 20
9.3358361103
 30
0.0
 10
10.9802858614
 20
9.3577251867
 30
0.0
 10
10.9945107323
 20
9.3792255938
 30
0.0
 10
11.0132997704
 20
9.4053852441
 30
0.0
 10
11.0333955296
 20
9.4305342151
 30
0.0
 10
11.0502190385
 20
9.4500000279
 30
0.0
 10
11.0675280834
 20
9.46901683
 30
0.0
 10
11.0810554801
 20
9.4827735714
 30
0.0
 10
11.0903004602
 20
9.4917035671
 30
0.0
  0
SPLINE
  5
36E
100
AcDbEntity
  8
0
100
AcDbSpline
 62
7
  6
CONTINUOUS
 70
0
 71
3
 72
39
 73
35
 74
0
 42
0.0000001
 43
0.0000001
 44
0.0000000001
 40
0.0
 40
0.0
 40
0.0
 40
0.0
 40
0.0958316475
 40
0.1891006073
 40
0.279240642
 40
0.3229674356
 40
0.365711151
 40
0.4074094627
 40
0.4480020772
 40
0.4874317741
 40
0.5256439547
 40
0.5625873626
 40
0.5982141631
 40
0.6324802323
 40
0.6653459096
 40
0.6967758341
 40
0.7267403598
 40
0.7552153214
 40
0.7821838024
 40
0.8076365273
 40
0.831573723
 40
0.8540068598
 40
0.8749607899
 40
0.8944774057
 40
0.9126188108
 40
0.9294731124
 40
0.9451592998
 40
0.9598338063
 40
0.9668558128
 40
0.9737028706
 40
0.9804062828
 40
0.9869996808
 40
0.9935186293
 40
1.0
 40
1.0
 40
1.0
 40
1.0
 10
13.5921708982
 20
11.0256226285
 30
0.0
 10
13.6011307699
 20
11.0250012593
 30
0.0
 10
13.6187980159
 20
11.0235780818
 30
0.0
 10
13.6448295832
 20
11.0208613832
 30
0.0
 10
13.6659425238
 20
11.0181214688
 30
0.0
 10
13.6823102332
 20
11.0156551046
 30
0.0
 10
13.6941620635
 20
11.0136970768
 30
0.0
 10
13.7056944723
 20
11.0116155152
 30
0.0
 10
13.7168882108
 20
11.0094138079
 30
0.0
 10
13.7277245822
 20
11.0070957433
 30
0.0
 10
13.7381855022
 20
11.0046651592
 30
0.0
 10
13.7482535249
 20
11.0021261747
 30
0.0
 10
13.7579118713
 20
10.9994830623
 30
0.0
 10
13.7671444588
 20
10.9967402263
 30
0.0
 10
13.7759359473
 20
10.9939023471
 30
0.0
 10
13.784271735
 20
10.9909740876
 30
0.0
 10
13.7921380448
 20
10.9879604625
 30
0.0
 10
13.7995218804
 20
10.9848663913
 30
0.0
 10
13.8064111395
 20
10.9816970978
 30
0.0
 10
13.812794567
 20
10.9784577387
 30
0.0
 10
13.8186618287
 20
10.9751535792
 30
0.0
 10
13.8240035396
 20
10.9717898998
 30
0.0
 10
13.8288111754
 20
10.9683717776
 30
0.0
 10
13.8330772448
 20
10.9649043023
 30
0.0
 10
13.8367948557
 20
10.9613920641
 30
0.0
 10
13.8399580211
 20
10.9578393185
 30
0.0
 10
13.8425604565
 20
10.9542504442
 30
0.0
 10
13.8442818704
 20
10.9511876039
 30
0.0
 10
13.8453548773
 20
10.948735139
 30
0.0
 10
13.8460045755
 20
10.946918085
 30
0.0
 10
13.8465103694
 20
10.9450974411
 30
0.0
 10
13.8468718891
 20
10.9432739553
 30
0.0
 10
13.8470889255
 20
10.9414487039
 30
0.0
 10
13.8471372226
 20
10.9402297635
 30
0.0
 10
13.8471372178
 20
10.939622326
 30
0.0
  0
SPLINE
  5
36F
100
AcDbEntity
  8
0
100
AcDbSpline
 62
7
  6
CONTINUOUS
 70
0
 71
3
 72
27
 73
23
 74
0
 42
0.0000001
 43
0.0000001
 44
0.0000000001
 40
0.0
 40
0.0
 40
0.0
 40
0.0
 40
0.0637761271
 40
0.0955883976
 40
0.1273469085
 40
0.1907029206
 40
0.2538558223
 40
0.2853602401
 40
0.3168164357
 40
0.3795841196
 40
0.4421741829
 40
0.5045989092
 40
0.5668722156
 40
0.6290095116
 40
0.6910275677
 40
0.7219999748
 40
0.7529494013
 40
0.8147838969
 40
0.8765559321
 40
0.907427452
 40
0.9382910693
 40
1.0
 40
1.0
 40
1.0
 40
1.0
 10
8.9249649246
 20
6.8907442664
 30
0.0
 10
8.9249649246
 20
6.9040284288
 30
0.0
 10
8.9254422739
 20
6.9239433122
 30
0.0
 10
8.9270391745
 20
6.950422613
 30
0.0
 10
8.9292701417
 20
6.9767687324
 30
0.0
 10
8.9332487524
 20
7.009507797
 30
0.0
 10
8.938816184
 20
7.0419609836
 30
0.0
 10
8.9442126085
 20
7.0676717601
 30
0.0
 10
8.9502242021
 20
7.0931631886
 30
0.0
 10
8.9589012111
 20
7.1246680962
 30
0.0
 10
8.9711592361
 20
7.1618283633
 30
0.0
 10
8.9852275658
 20
7.1982319668
 30
0.0
 10
9.0010737889
 20
7.2337945214
 30
0.0
 10
9.0186611377
 20
7.2684336136
 30
0.0
 10
9.0347424993
 20
7.2964772634
 30
0.0
 10
9.048433864
 20
7.3183663398
 30
0.0
 10
9.0626587349
 20
7.3398667469
 30
0.0
 10
9.081447773
 20
7.3660263972
 30
0.0
 10
9.1015435322
 20
7.3911753682
 30
0.0
 10
9.1183670412
 20
7.410641181
 30
0.0
 10
9.1356760861
 20
7.4296579831
 30
0.0
 10
9.1492034828
 20
7.4434147245
 30
0.0
 10
9.1584484628
 20
7.4523447202
 30
0.0
  0
SPLINE
  5
370
100
AcDbEntity
  8
0
100
AcDbSpline
 62
7
  6
CONTINUOUS
 70
0
 71
3
 72
15
 73
11
 74
0
 42
0.0000001
 43
0.0000001
 44
0.0000000001
 40
0.0
 40
0.0
 40
0.0
 40
0.0
 40
0.0986755134
 40
0.2048881387
 40
0.3186423969
 40
0.439940382
 40
0.5687659594
 40
0.7050850729
 40
0.848850042
 40
1.0
 40
1.0
 40
1.0
 40
1.0
 10
10.4836529207
 20
6.6187231488
 30
0.0
 10
10.4857949455
 20
6.620792186
 30
0.0
 10
10.4903348065
 20
6.6249934238
 30
0.0
 10
10.4976195473
 20
6.6312741519
 30
0.0
 10
10.5056212587
 20
6.6377614286
 30
0.0
 10
10.5143295636
 20
6.6444544302
 30
0.0
 10
10.523733595
 20
6.6513546842
 30
0.0
 10
10.5338209787
 20
6.658465735
 30
0.0
 10
10.5445774747
 20
6.6657938146
 30
0.0
 10
10.5519998696
 20
6.6707067338
 30
0.0
 10
10.555817115
 20
6.6732045457
 30
0.0
  0
SPLINE
  5
371
100
AcDbEntity
  8
0
100
AcDbSpline
 62
7
  6
CONTINUOUS
 70
0
 71
3
 72
39
 73
35
 74
0
 42
0.0000001
 43
0.0000001
 44
0.0000000001
 40
0.0
 40
0.0
 40
0.0
 40
0.0
 40
0.0315055161
 40
0.0629321575
 40
0.0942840469
 40
0.1255658407
 40
0.156782709
 40
0.1879402923
 40
0.2190446601
 40
0.2501022789
 40
0.2811199621
 40
0.3121048154
 40
0.3430641902
 40
0.3740056322
 40
0.4049368192
 40
0.4358655031
 40
0.4667994587
 40
0.4977464217
 40
0.528714026
 40
0.5597097525
 40
0.5907408753
 40
0.621814402
 40
0.6529370224
 40
0.6841150698
 40
0.7153544693
 40
0.7466606899
 40
0.7780387284
 40
0.8094930554
 40
0.8410275668
 40
0.8726457254
 40
0.9043501609
 40
0.9361427574
 40
0.9680267493
 40
1.0
 40
1.0
 40
1.0
 40
1.0
 10
11.5171801103
 20
9.6980139067
 30
0.0
 10
11.5064966769
 20
9.6959707345
 30
0.0
 10
11.4852401238
 20
9.6914373235
 30
0.0
 10
11.4537139456
 20
9.6832964751
 30
0.0
 10
11.4226381328
 20
9.6738367039
 30
0.0
 10
11.392066019
 20
9.6630741171
 30
0.0
 10
11.362049096
 20
9.6510269363
 30
0.0
 10
11.3326382159
 20
9.6377154854
 30
0.0
 10
11.3038831711
 20
9.6231621788
 30
0.0
 10
11.2758325799
 20
9.6073917116
 30
0.0
 10
11.2485339051
 20
9.5904307435
 30
0.0
 10
11.2220334059
 20
9.5723078645
 30
0.0
 10
11.1963758903
 20
9.5530537943
 30
0.0
 10
11.1716047503
 20
9.5327011332
 30
0.0
 10
11.1477619696
 20
9.5112842373
 30
0.0
 10
11.1248878853
 20
9.4888393647
 30
0.0
 10
11.1030211447
 20
9.4654045517
 30
0.0
 10
11.0821987937
 20
9.4410194065
 30
0.0
 10
11.0624560948
 20
9.4157251744
 30
0.0
 10
11.0438263609
 20
9.3895647285
 30
0.0
 10
11.0263411197
 20
9.3625823209
 30
0.0
 10
11.0100300175
 20
9.3348235696
 30
0.0
 10
10.9949205406
 20
9.3063355078
 30
0.0
 10
10.9810382138
 20
9.2771663434
 30
0.0
 10
10.9684065929
 20
9.2473653906
 30
0.0
 10
10.9570469507
 20
9.2169831046
 30
0.0
 10
10.9469784229
 20
9.1860709014
 30
0.0
 10
10.9382180954
 20
9.1546810541
 30
0.0
 10
10.9307807129
 20
9.1228666518
 30
0.0
 10
10.924678783
 20
9.0906815191
 30
0.0
 10
10.9199226269
 20
9.0581802425
 30
0.0
 10
10.9165201451
 20
9.0254171569
 30
0.0
 10
10.9144773387
 20
8.9924489503
 30
0.0
 10
10.9140245295
 20
8.9703999581
 30
0.0
 10
10.9140245295
 20
8.9593614221
 30
0.0
  0
SPLINE
  5
372
100
AcDbEntity
  8
0
100
AcDbSpline
 62
7
  6
CONTINUOUS
 70
0
 71
3
 72
53
 73
49
 74
0
 42
0.0000001
 43
0.0000001
 44
0.0000000001
 40
0.0
 40
0.0
 40
0.0
 40
0.0
 40
0.0472711802
 40
0.0939994118
 40
0.1401159156
 40
0.1855585531
 40
0.2302639557
 40
0.2741705959
 40
0.3172186594
 40
0.3593498586
 40
0.4005078474
 40
0.440638291
 40
0.4796889944
 40
0.5176101414
 40
0.5543545285
 40
0.5898777131
 40
0.6241382622
 40
0.6570981309
 40
0.6887229514
 40
0.7189823813
 40
0.7335921615
 40
0.7478513574
 40
0.7617575711
 40
0.7753087065
 40
0.7885031773
 40
0.8013397448
 40
0.8138176137
 40
0.8259365842
 40
0.8376968979
 40
0.8490994289
 40
0.8601457578
 40
0.8708380792
 40
0.8811794652
 40
0.8911738679
 40
0.9008261318
 40
0.9101422947
 40
0.9191295547
 40
0.9277964115
 40
0.9361529593
 40
0.9442108701
 40
0.9519836464
 40
0.9594868516
 40
0.9667381295
 40
0.9737574708
 40
0.980567295
 40
0.9871924204
 40
0.9936601375
 40
1.0
 40
1.0
 40
1.0
 40
1.0
 10
15.2116008735
 20
10.4826897491
 30
0.0
 10
15.2116008735
 20
10.497520119
 30
0.0
 10
15.2114479946
 20
10.5270107663
 30
0.0
 10
15.2107521794
 20
10.5709645849
 30
0.0
 10
15.2095920403
 20
10.6143348122
 30
0.0
 10
15.2079694558
 20
10.6570551557
 30
0.0
 10
15.2058868544
 20
10.6990614582
 30
0.0
 10
15.2033474484
 20
10.7402900276
 30
0.0
 10
15.2003551282
 20
10.7806784904
 30
0.0
 10
15.1969144333
 20
10.8201657708
 30
0.0
 10
15.1930306418
 20
10.8586921438
 30
0.0
 10
15.1887096967
 20
10.896199364
 30
0.0
 10
15.1839581805
 20
10.9326307286
 30
0.0
 10
15.1787833401
 20
10.9679311847
 30
0.0
 10
15.1731931042
 20
11.0020474236
 30
0.0
 10
15.1671960109
 20
11.0349279512
 30
0.0
 10
15.1608011873
 20
11.0665231476
 30
0.0
 10
15.1540184148
 20
11.096785464
 30
0.0
 10
15.1468580439
 20
11.1256691886
 30
0.0
 10
15.1405136097
 20
11.1488168552
 30
0.0
 10
15.1352461592
 20
11.1666041509
 30
0.0
 10
15.1312542078
 20
11.1794170145
 30
0.0
 10
15.1271762364
 20
11.1918537169
 30
0.0
 10
15.1230136905
 20
11.203909566
 30
0.0
 10
15.1187682206
 20
11.2155800352
 30
0.0
 10
15.1144414092
 20
11.2268607293
 30
0.0
 10
15.1100348402
 20
11.2377473879
 30
0.0
 10
15.1055502509
 20
11.2482359468
 30
0.0
 10
15.1009892733
 20
11.2583224527
 30
0.0
 10
15.0963536033
 20
11.2680031166
 30
0.0
 10
15.0916450427
 20
11.2772743444
 30
0.0
 10
15.0868652626
 20
11.2861326357
 30
0.0
 10
15.0820160629
 20
11.294574695
 30
0.0
 10
15.0770992734
 20
11.3025974013
 30
0.0
 10
15.0721165978
 20
11.3101977144
 30
0.0
 10
15.067069913
 20
11.3173728443
 30
0.0
 10
15.0619610342
 20
11.3241201268
 30
0.0
 10
15.0567916941
 20
11.330436981
 30
0.0
 10
15.0515637993
 20
11.3363211037
 30
0.0
 10
15.0462791176
 20
11.3417702365
 30
0.0
 10
15.0409394156
 20
11.3467822294
 30
0.0
 10
15.0355465918
 20
11.3513551911
 30
0.0
 10
15.0301023952
 20
11.3554871684
 30
0.0
 10
15.0246086744
 20
11.3591763778
 30
0.0
 10
15.0190674191
 20
11.3624212098
 30
0.0
 10
15.0134804085
 20
11.3652199658
 30
0.0
 10
15.0078502174
 20
11.3675710922
 30
0.0
 10
15.0040366151
 20
11.3688501809
 30
0.0
 10
15.0021284243
 20
11.3694113757
 30
0.0
  0
SPLINE
  5
373
100
AcDbEntity
  8
0
100
AcDbSpline
 62
7
  6
CONTINUOUS
 70
0
 71
3
 72
43
 73
39
 74
0
 42
0.0000001
 43
0.0000001
 44
0.0000000001
 40
0.0
 40
0.0
 40
0.0
 40
0.0
 40
0.0303589764
 40
0.0455827641
 40
0.060835509
 40
0.0914256939
 40
0.1221330847
 40
0.1375319624
 40
0.1529597093
 40
0.1838976046
 40
0.2149460427
 40
0.2461001315
 40
0.2773537492
 40
0.3086996261
 40
0.3401294384
 40
0.3716339107
 40
0.4032029274
 40
0.4348256509
 40
0.4664906464
 40
0.4981860117
 40
0.5298995094
 40
0.561618703
 40
0.5933310931
 40
0.6250242554
 40
0.6566859769
 40
0.6883043915
 40
0.7198681122
 40
0.7513663605
 40
0.782789091
 40
0.8141271059
 40
0.8453721797
 40
0.8609589562
 40
0.8765198874
 40
0.9075587555
 40
0.9384865137
 40
0.9539090176
 40
0.969303164
 40
1.0
 40
1.0
 40
1.0
 40
1.0
 10
10.5840403752
 20
6.832311028
 30
0.0
 10
10.5718041359
 20
6.8307385084
 30
0.0
 10
10.5533597605
 20
6.8288962253
 30
0.0
 10
10.5286769756
 20
6.8274733328
 30
0.0
 10
10.503869493
 20
6.8267364076
 30
0.0
 10
10.4727473932
 20
6.8271107434
 30
0.0
 10
10.4416342424
 20
6.8292042833
 30
0.0
 10
10.4167724131
 20
6.8319048626
 30
0.0
 10
10.3919006385
 20
6.835294671
 30
0.0
 10
10.3609129775
 20
6.8408132001
 30
0.0
 10
10.3240447141
 20
6.8494523754
 30
0.0
 10
10.2875682067
 20
6.8600886299
 30
0.0
 10
10.2515951409
 20
6.8726893892
 30
0.0
 10
10.2162347653
 20
6.8872162399
 30
0.0
 10
10.1815946969
 20
6.9036248891
 30
0.0
 10
10.1477802908
 20
6.9218653419
 30
0.0
 10
10.1148944053
 20
6.9418820429
 30
0.0
 10
10.0830370676
 20
6.9636140448
 30
0.0
 10
10.0523051729
 20
6.9869951873
 30
0.0
 10
10.0227921951
 20
7.0119543076
 30
0.0
 10
9.9945879042
 20
7.0384154544
 30
0.0
 10
9.9677780957
 20
7.0662981181
 30
0.0
 10
9.9424443308
 20
7.095517474
 30
0.0
 10
9.9186636907
 20
7.1259846388
 30
0.0
 10
9.8965085423
 20
7.15760694
 30
0.0
 10
9.8760463211
 20
7.1902881903
 30
0.0
 10
9.8573393232
 20
7.2239290001
 30
0.0
 10
9.8404445255
 20
7.2584269948
 30
0.0
 10
9.825413351
 20
7.2936774176
 30
0.0
 10
9.8122917551
 20
7.3295723698
 30
0.0
 10
9.802973756
 20
7.3599575731
 30
0.0
 10
9.7965136898
 20
7.3844778014
 30
0.0
 10
9.7907298534
 20
7.4090802476
 30
0.0
 10
9.7847537886
 20
7.440029269
 30
0.0
 10
9.7804635618
 20
7.4712000728
 30
0.0
 10
9.7780590424
 20
7.4961783247
 30
0.0
 10
9.7763432183
 20
7.5211185686
 30
0.0
 10
9.7758250631
 20
7.539853661
 30
0.0
 10
9.7758250631
 20
7.5523278262
 30
0.0
  0
SPLINE
  5
374
100
AcDbEntity
  8
0
100
AcDbSpline
 62
7
  6
CONTINUOUS
 70
0
 71
3
 72
56
 73
52
 74
0
 42
0.0000001
 43
0.0000001
 44
0.0000000001
 40
0.0
 40
0.0
 40
0.0
 40
0.0
 40
0.0409386318
 40
0.0823458817
 40
0.1241015609
 40
0.166083887
 40
0.2081704026
 40
0.2502381988
 40
0.2921644585
 40
0.3338268822
 40
0.3751041531
 40
0.4158763931
 40
0.4560256254
 40
0.4954362414
 40
0.5339954759
 40
0.5715938942
 40
0.6081258959
 40
0.6434902431
 40
0.6607044836
 40
0.6775911059
 40
0.694138981
 40
0.7103372915
 40
0.7261757091
 40
0.7416442663
 40
0.7567335357
 40
0.7714345123
 40
0.7857387902
 40
0.7996384641
 40
0.8131262989
 40
0.8261956617
 40
0.8388406813
 40
0.851056222
 40
0.8628380337
 40
0.8741827805
 40
0.8850881875
 40
0.8955531389
 40
0.9055778341
 40
0.9151639756
 40
0.924314955
 40
0.933036157
 40
0.9413352066
 40
0.9492224187
 40
0.9567111436
 40
0.96381838
 40
0.9705652333
 40
0.9769776477
 40
0.9830868863
 40
0.9889301569
 40
0.9945507755
 40
0.9972937159
 40
1.0
 40
1.0
 40
1.0
 40
1.0
 10
15.2116008735
 20
10.4826897491
 30
0.0
 10
15.2116008735
 20
10.4611587323
 30
0.0
 10
15.2112751187
 20
10.4178495981
 30
0.0
 10
15.2098342387
 20
10.3525941421
 30
0.0
 10
15.2074422799
 20
10.2868172455
 30
0.0
 10
15.2041066259
 20
10.2207238194
 30
0.0
 10
15.1998376445
 20
10.1545196189
 30
0.0
 10
15.1946486128
 20
10.0884107489
 30
0.0
 10
15.1885557016
 20
10.0226030231
 30
0.0
 10
15.1815779121
 20
9.9573013077
 30
0.0
 10
15.1737370226
 20
9.8927088852
 30
0.0
 10
15.1650575194
 20
9.8290268145
 30
0.0
 10
15.1555665221
 20
9.766453302
 30
0.0
 10
15.1452937009
 20
9.7051830707
 30
0.0
 10
15.1342711843
 20
9.6454067716
 30
0.0
 10
15.1225334681
 20
9.5873102895
 30
0.0
 10
15.1101172832
 20
9.5310744732
 30
0.0
 10
15.0991414593
 20
9.4855080769
 30
0.0
 10
15.0900374233
 20
9.4501258825
 30
0.0
 10
15.0831256093
 20
9.4243997719
 30
0.0
 10
15.0760743088
 20
9.3992660363
 30
0.0
 10
15.0688888933
 20
9.3747442158
 30
0.0
 10
15.0615750774
 20
9.3508533809
 30
0.0
 10
15.0541384664
 20
9.3276121189
 30
0.0
 10
15.04658496
 20
9.3050384878
 30
0.0
 10
15.0389203576
 20
9.2831500433
 30
0.0
 10
15.0311507275
 20
9.2619637772
 30
0.0
 10
15.0232820454
 20
9.2414961537
 30
0.0
 10
15.0153205242
 20
9.2217630425
 30
0.0
 10
15.007272298
 20
9.2027797595
 30
0.0
 10
14.9991436971
 20
9.1845609985
 30
0.0
 10
14.9909409931
 20
9.167120872
 30
0.0
 10
14.9826706027
 20
9.1504728471
 30
0.0
 10
14.9743389085
 20
9.134629778
 30
0.0
 10
14.9659523758
 20
9.1196038576
 30
0.0
 10
14.9575174625
 20
9.1054066297
 30
0.0
 10
14.9490406327
 20
9.0920489712
 30
0.0
 10
14.940528367
 20
9.0795410685
 30
0.0
 10
14.9319870582
 20
9.067892454
 30
0.0
 10
14.9234231304
 20
9.0571119282
 30
0.0
 10
14.9148428052
 20
9.0472076859
 30
0.0
 10
14.9062523349
 20
9.0381871632
 30
0.0
 10
14.8976576423
 20
9.0300573085
 30
0.0
 10
14.8890646813
 20
9.0228243383
 30
0.0
 10
14.8804789743
 20
9.0164942185
 30
0.0
 10
14.8719062172
 20
9.0110723151
 30
0.0
 10
14.8633515522
 20
9.00656408
 30
0.0
 10
14.85482152
 20
9.0029746253
 30
0.0
 10
14.8476792145
 20
9.0007352263
 30
0.0
 10
14.8420048318
 20
8.9994231984
 30
0.0
 10
14.8391811194
 20
8.9989236104
 30
0.0
 10
14.8377734033
 20
8.998713386
 30
0.0
  0
SPLINE
  5
375
100
AcDbEntity
  8
0
100
AcDbSpline
 62
7
  6
CONTINUOUS
 70
0
 71
3
 72
66
 73
62
 74
0
 42
0.0000001
 43
0.0000001
 44
0.0000000001
 40
0.0
 40
0.0
 40
0.0
 40
0.0
 40
0.0452100958
 40
0.091000882
 40
0.1371884425
 40
0.1835858056
 40
0.2300054417
 40
0.2762595347
 40
0.322161166
 40
0.3675252211
 40
0.4121693755
 40
0.4559150727
 40
0.4985885253
 40
0.5400217374
 40
0.5602229025
 40
0.580054177
 40
0.5994967084
 40
0.6185321414
 40
0.6371428251
 40
0.6553116735
 40
0.67302239
 40
0.6902593674
 40
0.7070078472
 40
0.7232539396
 40
0.7389846648
 40
0.7541881316
 40
0.7688534651
 40
0.7829711258
 40
0.7965327978
 40
0.809531773
 40
0.82196293
 40
0.8338231007
 40
0.8451112681
 40
0.8558288934
 40
0.8659804206
 40
0.8755736355
 40
0.8846205219
 40
0.8931378177
 40
0.9011482117
 40
0.9086812776
 40
0.9157748844
 40
0.9224764009
 40
0.9288437812
 40
0.9319246359
 40
0.9349487804
 40
0.9379264614
 40
0.9408684794
 40
0.9437860667
 40
0.9466907584
 40
0.9495942622
 40
0.9525083005
 40
0.9554444551
 40
0.958414034
 40
0.9614279302
 40
0.9644965064
 40
0.9676295366
 40
0.9708361521
 40
0.9775010352
 40
0.9845526494
 40
0.9920393727
 40
1.0
 40
1.0
 40
1.0
 40
1.0
 10
15.1184260942
 20
10.3926898181
 30
0.0
 10
15.1184260942
 20
10.3749935841
 30
0.0
 10
15.1181104925
 20
10.3393731047
 30
0.0
 10
15.1167188504
 20
10.2856901346
 30
0.0
 10
15.1144112478
 20
10.2315734732
 30
0.0
 10
15.1111975318
 20
10.1772565578
 30
0.0
 10
15.107091566
 20
10.122973669
 30
0.0
 10
15.1021110574
 20
10.0689588625
 30
0.0
 10
15.0962775403
 20
10.0154450614
 30
0.0
 10
15.0896162588
 20
9.9626629955
 30
0.0
 10
15.0821560667
 20
9.9108402311
 30
0.0
 10
15.073929313
 20
9.8602000906
 30
0.0
 10
15.0649716686
 20
9.8109609726
 30
0.0
 10
15.0568636025
 20
9.7709424954
 30
0.0
 10
15.0500293288
 20
9.7397954693
 30
0.0
 10
15.044789017
 20
9.7171125922
 30
0.0
 10
15.039396721
 20
9.6949346709
 30
0.0
 10
15.0338581623
 20
9.6732855986
 30
0.0
 10
15.028179428
 20
9.6521887101
 30
0.0
 10
15.0223665721
 20
9.6316667462
 30
0.0
 10
15.0164259566
 20
9.6117418101
 30
0.0
 10
15.0103639567
 20
9.5924353665
 30
0.0
 10
15.0041871523
 20
9.5737681978
 30
0.0
 10
14.9979022354
 20
9.5557603891
 30
0.0
 10
14.9915159586
 20
9.5384313118
 30
0.0
 10
14.9850353017
 20
9.5217995731
 30
0.0
 10
14.9784671674
 20
9.5058830446
 30
0.0
 10
14.9718187599
 20
9.4906987647
 30
0.0
 10
14.9650971336
 20
9.4762630111
 30
0.0
 10
14.9583096212
 20
9.4625911745
 30
0.0
 10
14.9514634311
 20
9.4496978381
 30
0.0
 10
14.9445659134
 20
9.437596678
 30
0.0
 10
14.9376243957
 20
9.4263004811
 30
0.0
 10
14.930646128
 20
9.4158211536
 30
0.0
 10
14.9236384467
 20
9.4061696047
 30
0.0
 10
14.9166083629
 20
9.3973559427
 30
0.0
 10
14.9095629958
 20
9.3893892006
 30
0.0
 10
14.9025089425
 20
9.3822777542
 30
0.0
 10
14.8954527561
 20
9.3760289981
 30
0.0
 10
14.8884005048
 20
9.3706499421
 30
0.0
 10
14.8813578117
 20
9.3661470437
 30
0.0
 10
14.8743311828
 20
9.3625269836
 30
0.0
 10
14.8684282895
 20
9.3602263762
 30
0.0
 10
14.8637407652
 20
9.3588536156
 30
0.0
 10
14.8602733542
 20
9.3580585269
 30
0.0
 10
14.8568171558
 20
9.3574873161
 30
0.0
 10
14.8533731295
 20
9.3571401644
 30
0.0
 10
14.8499423676
 20
9.3570172254
 30
0.0
 10
14.8465259474
 20
9.3571186226
 30
0.0
 10
14.8431249778
 20
9.3574444088
 30
0.0
 10
14.8397405476
 20
9.357994381
 30
0.0
 10
14.8363737195
 20
9.3587683074
 30
0.0
 10
14.8330255492
 20
9.359765941
 30
0.0
 10
14.8296970367
 20
9.3609868762
 30
0.0
 10
14.8263891359
 20
9.3624305681
 30
0.0
 10
14.8231026903
 20
9.3640965534
 30
0.0
 10
14.8186943957
 20
9.3666460439
 30
0.0
 10
14.813232727
 20
9.3704157565
 30
0.0
 10
14.8068685263
 20
9.3757591774
 30
0.0
 10
14.8006148319
 20
9.3819724074
 30
0.0
 10
14.7966491519
 20
9.3865442055
 30
0.0
 10
14.7946830748
 20
9.3889615977
 30
0.0
  0
SPLINE
  5
376
100
AcDbEntity
  8
0
100
AcDbSpline
 62
7
  6
CONTINUOUS
 70
0
 71
3
 72
39
 73
35
 74
0
 42
0.0000001
 43
0.0000001
 44
0.0000000001
 40
0.0
 40
0.0
 40
0.0
 40
0.0
 40
0.0307462577
 40
0.0615801569
 40
0.0924990413
 40
0.1234996452
 40
0.1545781092
 40
0.1857300146
 40
0.2169504305
 40
0.24823394
 40
0.2795746788
 40
0.3109663923
 40
0.3424024717
 40
0.3738759956
 40
0.4053797921
 40
0.4369064823
 40
0.4684485246
 40
0.4999982777
 40
0.5315480495
 40
0.5630901413
 40
0.5946169108
 40
0.6261208231
 40
0.6575944927
 40
0.6890307441
 40
0.7204226634
 40
0.7517636353
 40
0.7830473994
 40
0.8142680972
 40
0.8454203083
 40
0.8764990998
 40
0.9075000298
 40
0.9384192726
 40
0.9692536372
 40
1.0
 40
1.0
 40
1.0
 40
1.0
 10
10.5552596893
 20
7.0088608868
 30
0.0
 10
10.545916858
 20
7.0101928939
 30
0.0
 10
10.5272593028
 20
7.0132620242
 30
0.0
 10
10.4994574803
 20
7.0190596895
 30
0.0
 10
10.4718495834
 20
7.0260471974
 30
0.0
 10
10.444488341
 20
7.0342113226
 30
0.0
 10
10.4174251628
 20
7.0435367218
 30
0.0
 10
10.3907110714
 20
7.054005682
 30
0.0
 10
10.3643964009
 20
7.0655984641
 30
0.0
 10
10.3385307892
 20
7.078293282
 30
0.0
 10
10.3131629399
 20
7.0920660989
 30
0.0
 10
10.2883406449
 20
7.1068909245
 30
0.0
 10
10.2641107357
 20
7.1227398917
 30
0.0
 10
10.2405188439
 20
7.1395830649
 30
0.0
 10
10.2176093926
 20
7.157388647
 30
0.0
 10
10.1954256082
 20
7.1761231434
 30
0.0
 10
10.1740092977
 20
7.1957512334
 30
0.0
 10
10.1534007627
 20
7.2162358588
 30
0.0
 10
10.1336388829
 20
7.2375384563
 30
0.0
 10
10.1147609454
 20
7.2596189092
 30
0.0
 10
10.0968024543
 20
7.282435537
 30
0.0
 10
10.079797277
 20
7.3059453597
 30
0.0
 10
10.0637775481
 20
7.3301041243
 30
0.0
 10
10.0487733891
 20
7.3548662461
 30
0.0
 10
10.0348130781
 20
7.38018506
 30
0.0
 10
10.0219230361
 20
7.4060129026
 30
0.0
 10
10.0101275183
 20
7.4323010664
 30
0.0
 10
9.9994487305
 20
7.458999995
 30
0.0
 10
9.9899069109
 20
7.4860594053
 30
0.0
 10
9.9815200656
 20
7.5134282987
 30
0.0
 10
9.9743039444
 20
7.5410550201
 30
0.0
 10
9.9682722187
 20
7.5688877306
 30
0.0
 10
9.9634364984
 20
7.5968731938
 30
0.0
 10
9.9610122213
 20
7.6156256177
 30
0.0
 10
9.9600030819
 20
7.6250088467
 30
0.0
  0
SPLINE
  5
377
100
AcDbEntity
  8
0
100
AcDbSpline
 62
7
  6
CONTINUOUS
 70
0
 71
3
 72
57
 73
53
 74
0
 42
0.0000001
 43
0.0000001
 44
0.0000000001
 40
0.0
 40
0.0
 40
0.0
 40
0.0
 40
0.0417736534
 40
0.0840366016
 40
0.1266578211
 40
0.1695056346
 40
0.21244701
 40
0.2553487447
 40
0.2980777184
 40
0.3405015169
 40
0.3824889248
 40
0.4239104649
 40
0.4646389286
 40
0.5045499179
 40
0.5435223959
 40
0.5814392547
 40
0.6181879055
 40
0.6536609025
 40
0.670887291
 40
0.6877571705
 40
0.7042588558
 40
0.7203811606
 40
0.7361133347
 40
0.7514452242
 40
0.7663671439
 40
0.7808701133
 40
0.794945674
 40
0.8085861929
 40
0.8217846464
 40
0.8345349745
 40
0.8468318643
 40
0.858671133
 40
0.8700495541
 40
0.8809652503
 40
0.8914176071
 40
0.9014076696
 40
0.9109381913
 40
0.9200140439
 40
0.9286424511
 40
0.9368334399
 40
0.9446003045
 40
0.9519601344
 40
0.9589345191
 40
0.9655501451
 40
0.9718396237
 40
0.9778419676
 40
0.9836031197
 40
0.9891757627
 40
0.9919106391
 40
0.994620898
 40
0.9973146063
 40
1.0
 40
1.0
 40
1.0
 40
1.0
 10
15.020446517
 20
10.3780488084
 30
0.0
 10
15.020446517
 20
10.3640569477
 30
0.0
 10
15.0202282232
 20
10.3359088999
 30
0.0
 10
15.0192632202
 20
10.2934950474
 30
0.0
 10
15.0176615194
 20
10.2507403584
 30
0.0
 10
15.0154284169
 20
10.2077865035
 30
0.0
 10
15.0125712592
 20
10.1647754787
 30
0.0
 10
15.009099509
 20
10.1218496279
 30
0.0
 10
15.0050246581
 20
10.0791509494
 30
0.0
 10
15.0003602186
 20
10.0368207069
 30
0.0
 10
14.9951216645
 20
9.9949989294
 30
0.0
 10
14.9893263876
 20
9.953823954
 30
0.0
 10
14.982993638
 20
9.9134319618
 30
0.0
 10
14.976144463
 20
9.8739565176
 30
0.0
 10
14.9688016365
 20
9.8355281406
 30
0.0
 10
14.9609895943
 20
9.7982737951
 30
0.0
 10
14.9527343214
 20
9.7623167031
 30
0.0
 10
14.9454391991
 20
9.7332557606
 30
0.0
 10
14.9393922435
 20
9.7107517572
 30
0.0
 10
14.9348078854
 20
9.6944356532
 30
0.0
 10
14.9301339333
 20
9.6785300584
 30
0.0
 10
14.9253742814
 20
9.6630481009
 30
0.0
 10
14.9205328266
 20
9.6480025842
 30
0.0
 10
14.9156136524
 20
9.6334059276
 30
0.0
 10
14.9106207549
 20
9.6192701964
 30
0.0
 10
14.9055583688
 20
9.6056070438
 30
0.0
 10
14.9004305845
 20
9.5924277588
 30
0.0
 10
14.8952417649
 20
9.5797431851
 30
0.0
 10
14.8899960866
 20
9.567563795
 30
0.0
 10
14.8846980138
 20
9.5558995823
 30
0.0
 10
14.879351801
 20
9.5447601625
 30
0.0
 10
14.873961981
 20
9.5341546416
 30
0.0
 10
14.868532875
 20
9.5240917382
 30
0.0
 10
14.8630690449
 20
9.5145796368
 30
0.0
 10
14.8575748588
 20
9.5056261191
 30
0.0
 10
14.8520548576
 20
9.4972384206
 30
0.0
 10
14.846513421
 20
9.4894233509
 30
0.0
 10
14.8409550021
 20
9.4821871841
 30
0.0
 10
14.8353839315
 20
9.4755357396
 30
0.0
 10
14.8298044838
 20
9.4694743554
 30
0.0
 10
14.8242208501
 20
9.4640078935
 30
0.0
 10
14.8186370238
 20
9.4591408703
 30
0.0
 10
14.8130569732
 20
9.4548773435
 30
0.0
 10
14.8074843796
 20
9.4512212881
 30
0.0
 10
14.8019231076
 20
9.4481762966
 30
0.0
 10
14.7963767415
 20
9.4457462188
 30
0.0
 10
14.7908500774
 20
9.4439344975
 30
0.0
 10
14.7862345114
 20
9.44293687
 30
0.0
 10
14.7825736785
 20
9.4424584799
 30
0.0
 10
14.7798535431
 20
9.4422570136
 30
0.0
 10
14.7771430547
 20
9.4422109302
 30
0.0
 10
14.7753416484
 20
9.4422838152
 30
0.0
 10
14.7744443454
 20
9.442346044
 30
0.0
  0
SPLINE
  5
378
100
AcDbEntity
  8
0
100
AcDbSpline
 62
7
  6
CONTINUOUS
 70
0
 71
3
 72
50
 73
46
 74
0
 42
0.0000001
 43
0.0000001
 44
0.0000000001
 40
0.0
 40
0.0
 40
0.0
 40
0.0
 40
0.0055575484
 40
0.0111779922
 40
0.016921945
 40
0.0228458833
 40
0.0290006815
 40
0.0354311436
 40
0.0421756504
 40
0.0492665308
 40
0.0567306759
 40
0.0645898217
 40
0.0728615778
 40
0.0815596977
 40
0.0906946685
 40
0.100274387
 40
0.1103041016
 40
0.1207871917
 40
0.1317251696
 40
0.1431178633
 40
0.1549639321
 40
0.16726054
 40
0.1800039018
 40
0.1931892317
 40
0.2208607128
 40
0.2502207991
 40
0.2812027127
 40
0.3137299142
 40
0.3477173552
 40
0.383072554
 40
0.4196964471
 40
0.4574841188
 40
0.4963254304
 40
0.5361057043
 40
0.5767063272
 40
0.6180053027
 40
0.6598777724
 40
0.7021965482
 40
0.7448326997
 40
0.7876559964
 40
0.8305355066
 40
0.8733402465
 40
0.9159384006
 40
0.9582025777
 40
1.0
 40
1.0
 40
1.0
 40
1.0
 10
7.605063565
 20
11.3247993791
 30
0.0
 10
7.6050635718
 20
11.325650367
 30
0.0
 10
7.6051589127
 20
11.3273634524
 30
0.0
 10
7.605586564
 20
11.3299239331
 30
0.0
 10
7.6062981915
 20
11.3324787165
 30
0.0
 10
7.6072925044
 20
11.3350247938
 30
0.0
 10
7.6085677069
 20
11.3375601729
 30
0.0
 10
7.6101222301
 20
11.3400828393
 30
0.0
 10
7.6119542287
 20
11.342591095
 30
0.0
 10
7.6140618895
 20
11.3450832816
 30
0.0
 10
7.616443416
 20
11.347557628
 30
0.0
 10
7.6190967033
 20
11.3500125324
 30
0.0
 10
7.6220196751
 20
11.3524461479
 30
0.0
 10
7.6252099623
 20
11.3548567054
 30
0.0
 10
7.6286650031
 20
11.357242426
 30
0.0
 10
7.6323820986
 20
11.3596013654
 30
0.0
 10
7.6363582231
 20
11.3619317762
 30
0.0
 10
7.640590223
 20
11.3642317394
 30
0.0
 10
7.6450746893
 20
11.3664994093
 30
0.0
 10
7.6498079836
 20
11.3687330148
 30
0.0
 10
7.6547863079
 20
11.3709306494
 30
0.0
 10
7.6600055941
 20
11.3730906004
 30
0.0
 10
7.665461621
 20
11.3752110915
 30
0.0
 10
7.6731706666
 20
11.3780288796
 30
0.0
 10
7.6833734789
 20
11.3814286787
 30
0.0
 10
7.6962960068
 20
11.3852616231
 30
0.0
 10
7.7100455848
 20
11.3888980386
 30
0.0
 10
7.7245773429
 20
11.3923259027
 30
0.0
 10
7.7398439821
 20
11.3955338694
 30
0.0
 10
7.7557956624
 20
11.3985113151
 30
0.0
 10
7.7723802761
 20
11.4012483786
 30
0.0
 10
7.7895435937
 20
11.4037359903
 30
0.0
 10
7.8072294526
 20
11.405965931
 30
0.0
 10
7.825379954
 20
11.4079308329
 30
0.0
 10
7.8439356663
 20
11.4096242017
 30
0.0
 10
7.8628358204
 20
11.4110404353
 30
0.0
 10
7.8820185032
 20
11.4121748502
 30
0.0
 10
7.9014208681
 20
11.4130237127
 30
0.0
 10
7.9209793402
 20
11.4135842203
 30
0.0
 10
7.9406298347
 20
11.413854523
 30
0.0
 10
7.9603079903
 20
11.4138337215
 30
0.0
 10
7.9799492066
 20
11.4135218675
 30
0.0
 10
7.9994894358
 20
11.4129200481
 30
0.0
 10
8.0188642285
 20
11.4120301673
 30
0.0
 10
8.0317124339
 20
11.4112417327
 30
0.0
 10
8.0380972406
 20
11.4107989449
 30
0.0
  0
SPLINE
  5
379
100
AcDbEntity
  8
0
100
AcDbSpline
 62
7
  6
CONTINUOUS
 70
0
 71
3
 72
50
 73
46
 74
0
 42
0.0000001
 43
0.0000001
 44
0.0000000001
 40
0.0
 40
0.0
 40
0.0
 40
0.0
 40
0.0055575484
 40
0.0111779922
 40
0.016921945
 40
0.0228458833
 40
0.0290006815
 40
0.0354311436
 40
0.0421756504
 40
0.0492665308
 40
0.0567306759
 40
0.0645898217
 40
0.0728615778
 40
0.0815596977
 40
0.0906946685
 40
0.100274387
 40
0.1103041016
 40
0.1207871917
 40
0.1317251696
 40
0.1431178633
 40
0.1549639321
 40
0.16726054
 40
0.1800039018
 40
0.1931892317
 40
0.2208607128
 40
0.2502207991
 40
0.2812027127
 40
0.3137299142
 40
0.3477173552
 40
0.383072554
 40
0.4196964471
 40
0.4574841188
 40
0.4963254304
 40
0.5361057043
 40
0.5767063272
 40
0.6180053027
 40
0.6598777724
 40
0.7021965482
 40
0.7448326997
 40
0.7876559964
 40
0.8305355066
 40
0.8733402465
 40
0.9159384006
 40
0.9582025777
 40
1.0
 40
1.0
 40
1.0
 40
1.0
 10
13.1591372225
 20
10.9396230627
 30
0.0
 10
13.1591372293
 20
10.9404740506
 30
0.0
 10
13.1592325702
 20
10.942187136
 30
0.0
 10
13.1596602216
 20
10.9447476167
 30
0.0
 10
13.160371849
 20
10.9473024001
 30
0.0
 10
13.161366162
 20
10.9498484774
 30
0.0
 10
13.1626413645
 20
10.9523838565
 30
0.0
 10
13.1641958876
 20
10.9549065229
 30
0.0
 10
13.1660278862
 20
10.9574147786
 30
0.0
 10
13.1681355471
 20
10.9599069652
 30
0.0
 10
13.1705170735
 20
10.9623813116
 30
0.0
 10
13.1731703608
 20
10.9648362161
 30
0.0
 10
13.1760933326
 20
10.9672698315
 30
0.0
 10
13.1792836199
 20
10.9696803891
 30
0.0
 10
13.1827386606
 20
10.9720661097
 30
0.0
 10
13.1864557562
 20
10.974425049
 30
0.0
 10
13.1904318806
 20
10.9767554599
 30
0.0
 10
13.1946638805
 20
10.979055423
 30
0.0
 10
13.1991483468
 20
10.9813230929
 30
0.0
 10
13.2038816411
 20
10.9835566985
 30
0.0
 10
13.2088599654
 20
10.985754333
 30
0.0
 10
13.2140792516
 20
10.987914284
 30
0.0
 10
13.2195352785
 20
10.9900347751
 30
0.0
 10
13.2272443241
 20
10.9928525632
 30
0.0
 10
13.2374471364
 20
10.9962523624
 30
0.0
 10
13.2503696643
 20
11.0000853067
 30
0.0
 10
13.2641192423
 20
11.0037217222
 30
0.0
 10
13.2786510004
 20
11.0071495863
 30
0.0
 10
13.2939176396
 20
11.010357553
 30
0.0
 10
13.30986932
 20
11.0133349987
 30
0.0
 10
13.3264539336
 20
11.0160720622
 30
0.0
 10
13.3436172512
 20
11.0185596739
 30
0.0
 10
13.3613031102
 20
11.0207896146
 30
0.0
 10
13.3794536115
 20
11.0227545165
 30
0.0
 10
13.3980093239
 20
11.0244478853
 30
0.0
 10
13.4169094779
 20
11.025864119
 30
0.0
 10
13.4360921608
 20
11.0269985338
 30
0.0
 10
13.4554945256
 20
11.0278473963
 30
0.0
 10
13.4750529977
 20
11.0284079039
 30
0.0
 10
13.4947034922
 20
11.0286782066
 30
0.0
 10
13.5143816478
 20
11.0286574051
 30
0.0
 10
13.5340228642
 20
11.0283455511
 30
0.0
 10
13.5535630933
 20
11.0277437317
 30
0.0
 10
13.5729378861
 20
11.0268538509
 30
0.0
 10
13.5857860914
 20
11.0260654164
 30
0.0
 10
13.5921708982
 20
11.0256226285
 30
0.0
  0
SPLINE
  5
37A
100
AcDbEntity
  8
0
100
AcDbSpline
 62
7
  6
CONTINUOUS
 70
0
 71
3
 72
60
 73
56
 74
0
 42
0.0000001
 43
0.0000001
 44
0.0000000001
 40
0.0
 40
0.0
 40
0.0
 40
0.0
 40
0.0532122143
 40
0.1056321538
 40
0.1571421459
 40
0.2076317293
 40
0.2569909326
 40
0.3051141858
 40
0.3518995392
 40
0.3972494003
 40
0.4410709497
 40
0.4832766305
 40
0.523784729
 40
0.5433787454
 40
0.5625207824
 40
0.581202509
 40
0.5994162291
 40
0.6171547456
 40
0.634411397
 40
0.6511802779
 40
0.6674559847
 40
0.6832340122
 40
0.6985105431
 40
0.7132826427
 40
0.7275484149
 40
0.7413068606
 40
0.7545583405
 40
0.767304371
 40
0.7795480187
 40
0.7912940336
 40
0.8025489416
 40
0.8133215884
 40
0.823623106
 40
0.8334675601
 40
0.8428721834
 40
0.8518578147
 40
0.8604495297
 40
0.868676859
 40
0.8765744793
 40
0.8841823291
 40
0.8915458047
 40
0.8987155894
 40
0.9057469747
 40
0.9126989443
 40
0.9196326688
 40
0.9266098549
 40
0.933690958
 40
0.9409336246
 40
0.9483913291
 40
0.9561126614
 40
0.9641407784
 40
0.9725134197
 40
0.9812631496
 40
0.9904175638
 40
1.0
 40
1.0
 40
1.0
 40
1.0
 10
15.1184260942
 20
10.3926898181
 30
0.0
 10
15.1184260942
 20
10.4056417065
 30
0.0
 10
15.118259258
 20
10.4313529871
 30
0.0
 10
15.1174976864
 20
10.4695950394
 30
0.0
 10
15.1162282544
 20
10.5071606723
 30
0.0
 10
15.1144541541
 20
10.5439600816
 30
0.0
 10
15.112179603
 20
10.5799061025
 30
0.0
 10
15.1094101288
 20
10.6149131337
 30
0.0
 10
15.1061524036
 20
10.6488980212
 30
0.0
 10
15.1024142974
 20
10.6817800098
 30
0.0
 10
15.0982048442
 20
10.7134810711
 30
0.0
 10
15.0935341649
 20
10.7439258362
 30
0.0
 10
15.0892206871
 20
10.7684536309
 30
0.0
 10
15.0855370949
 20
10.7873871269
 30
0.0
 10
15.0826969108
 20
10.8010714116
 30
0.0
 10
15.0797502846
 20
10.8143892982
 30
0.0
 10
15.0766989937
 20
10.8273328943
 30
0.0
 10
15.0735448717
 20
10.8398945161
 30
0.0
 10
15.0702897425
 20
10.8520667056
 30
0.0
 10
15.0669356383
 20
10.8638422558
 30
0.0
 10
15.0634844577
 20
10.8752141779
 30
0.0
 10
15.0599383338
 20
10.8861757502
 30
0.0
 10
15.0562993447
 20
10.8967204881
 30
0.0
 10
15.0525696218
 20
10.906842155
 30
0.0
 10
15.0487514569
 20
10.916534801
 30
0.0
 10
15.0448469901
 20
10.9257926899
 30
0.0
 10
15.0408586314
 20
10.9346104128
 30
0.0
 10
15.0367886412
 20
10.9429827821
 30
0.0
 10
15.0326393986
 20
10.950904903
 30
0.0
 10
15.0284133536
 20
10.9583721844
 30
0.0
 10
15.0241128024
 20
10.9653802319
 30
0.0
 10
15.0197403001
 20
10.9719250464
 30
0.0
 10
15.015298145
 20
10.9780027735
 30
0.0
 10
15.0107888039
 20
10.9836099096
 30
0.0
 10
15.0062146693
 20
10.9887431827
 30
0.0
 10
15.0015780096
 20
10.993399446
 30
0.0
 10
14.9968812837
 20
10.9975759333
 30
0.0
 10
14.9921266783
 20
11.0012697668
 30
0.0
 10
14.9873166623
 20
11.0044784162
 30
0.0
 10
14.9824536715
 20
11.0071992829
 30
0.0
 10
14.9775403848
 20
11.0094298237
 30
0.0
 10
14.9725798932
 20
11.0111678653
 30
0.0
 10
14.9675755625
 20
11.0124111421
 30
0.0
 10
14.9625313203
 20
11.0131583001
 30
0.0
 10
14.9574513118
 20
11.0134082849
 30
0.0
 10
14.9523398649
 20
11.0131609889
 30
0.0
 10
14.9472011544
 20
11.0124171352
 30
0.0
 10
14.9420391306
 20
11.0111777928
 30
0.0
 10
14.9368572712
 20
11.0094448988
 30
0.0
 10
14.9316588213
 20
11.0072202479
 30
0.0
 10
14.9264466617
 20
11.0045060816
 30
0.0
 10
14.9212235437
 20
11.0013046372
 30
0.0
 10
14.9159921879
 20
10.997618124
 30
0.0
 10
14.910755318
 20
10.9934492612
 30
0.0
 10
14.9073422025
 20
10.9904209854
 30
0.0
 10
14.9056348604
 20
10.9888319797
 30
0.0
  0
SPLINE
  5
37B
100
AcDbEntity
  8
0
100
AcDbSpline
 62
7
  6
CONTINUOUS
 70
0
 71
3
 72
56
 73
52
 74
0
 42
0.0000001
 43
0.0000001
 44
0.0000000001
 40
0.0
 40
0.0
 40
0.0
 40
0.0
 40
0.014971274
 40
0.029945606
 40
0.0449260369
 40
0.0599155706
 40
0.0749171531
 40
0.0899336598
 40
0.104967875
 40
0.1200224737
 40
0.1351000117
 40
0.1502029057
 40
0.1653334193
 40
0.1804936563
 40
0.1956855421
 40
0.2109108165
 40
0.2261710283
 40
0.2414675198
 40
0.2568014272
 40
0.2721736755
 40
0.2875849674
 40
0.3030357913
 40
0.3185264144
 40
0.3340568802
 40
0.3496270191
 40
0.3652364417
 40
0.3808845461
 40
0.3965705269
 40
0.4122933718
 40
0.4280518765
 40
0.4438446507
 40
0.4596701209
 40
0.4755265482
 40
0.4914120331
 40
0.5073245245
 40
0.5232618381
 40
0.5551966919
 40
0.5872017075
 40
0.6192556772
 40
0.6513364178
 40
0.6834212138
 40
0.7154872687
 40
0.7475121591
 40
0.7794742806
 40
0.811353285
 40
0.8431305
 40
0.8747893191
 40
0.9063155631
 40
0.9376978538
 40
0.9689275324
 40
1.0
 40
1.0
 40
1.0
 40
1.0
 10
12.2866577552
 20
8.2531507225
 30
0.0
 10
12.2795152251
 20
8.2462515444
 30
0.0
 10
12.2649527855
 20
8.2327341714
 30
0.0
 10
12.2423181662
 20
8.2133400758
 30
0.0
 10
12.2189214792
 20
8.194852173
 30
0.0
 10
12.1947952566
 20
8.1772964699
 30
0.0
 10
12.1699726363
 20
8.1606969456
 30
0.0
 10
12.1444878476
 20
8.1450764053
 30
0.0
 10
12.1183758739
 20
8.1304564671
 30
0.0
 10
12.0916727291
 20
8.1168571143
 30
0.0
 10
12.0644151497
 20
8.1042970574
 30
0.0
 10
12.0366406031
 20
8.0927936717
 30
0.0
 10
12.0083873757
 20
8.0823626117
 30
0.0
 10
11.9796943076
 20
8.0730182995
 30
0.0
 10
11.9506008755
 20
8.0647736044
 30
0.0
 10
11.9211471445
 20
8.0576397098
 30
0.0
 10
11.8913736003
 20
8.0516265527
 30
0.0
 10
11.86132122
 20
8.0467423246
 30
0.0
 10
11.8310313512
 20
8.0429936408
 30
0.0
 10
11.8005456399
 20
8.0403857955
 30
0.0
 10
11.7699060319
 20
8.0389222177
 30
0.0
 10
11.7391546603
 20
8.0386049009
 30
0.0
 10
11.7083338188
 20
8.0394343815
 30
0.0
 10
11.6774858866
 20
8.0414093314
 30
0.0
 10
11.6466532827
 20
8.0445270976
 30
0.0
 10
11.6158784115
 20
8.0487834152
 30
0.0
 10
11.5852035637
 20
8.0541722684
 30
0.0
 10
11.554670935
 20
8.0606863667
 30
0.0
 10
11.5243224969
 20
8.0683166889
 30
0.0
 10
11.4941999446
 20
8.0770526426
 30
0.0
 10
11.4643447307
 20
8.0868823543
 30
0.0
 10
11.4347978682
 20
8.0977921721
 30
0.0
 10
11.4055999342
 20
8.109767097
 30
0.0
 10
11.3767912282
 20
8.1227906993
 30
0.0
 10
11.3484108622
 20
8.1368451872
 30
0.0
 10
11.31117318
 20
8.1569441195
 30
0.0
 10
11.2658947708
 20
8.1845489209
 30
0.0
 10
11.2139279399
 20
8.2214279927
 30
0.0
 10
11.1645681452
 20
8.2618847149
 30
0.0
 10
11.1180880838
 20
8.3056959693
 30
0.0
 10
11.0747423983
 20
8.3526215462
 30
0.0
 10
11.0347691191
 20
8.4024037816
 30
0.0
 10
10.9983876845
 20
8.4547694963
 30
0.0
 10
10.9657980022
 20
8.5094313751
 30
0.0
 10
10.9371792451
 20
8.5660895112
 30
0.0
 10
10.9126887878
 20
8.6244329495
 30
0.0
 10
10.8924615029
 20
8.6841416024
 30
0.0
 10
10.8766089972
 20
8.7448874572
 30
0.0
 10
10.865218992
 20
8.8063380822
 30
0.0
 10
10.8583544236
 20
8.8681516723
 30
0.0
 10
10.856816922
 20
8.909492679
 30
0.0
 10
10.856816922
 20
8.9301031133
 30
0.0
  0
SPLINE
  5
37C
100
AcDbEntity
  8
0
100
AcDbSpline
 62
7
  6
CONTINUOUS
 70
0
 71
3
 72
54
 73
50
 74
0
 42
0.0000001
 43
0.0000001
 44
0.0000000001
 40
0.0
 40
0.0
 40
0.0
 40
0.0
 40
0.0149619973
 40
0.0299313383
 40
0.0449108634
 40
0.0599033506
 40
0.0749115064
 40
0.0899379452
 40
0.1049851744
 40
0.1200555867
 40
0.1351514376
 40
0.1502748408
 40
0.1654277556
 40
0.1806119708
 40
0.1958291065
 40
0.211080596
 40
0.2263676837
 40
0.2416914232
 40
0.2570526627
 40
0.2724520537
 40
0.2878900417
 40
0.3033668646
 40
0.3188825615
 40
0.3344369612
 40
0.3500296963
 40
0.3656602015
 40
0.3813277139
 40
0.3970312893
 40
0.4285371084
 40
0.4601714439
 40
0.4919206529
 40
0.5237688454
 40
0.5556982147
 40
0.5876893943
 40
0.619721837
 40
0.6517742116
 40
0.6838248094
 40
0.7158519556
 40
0.7478344192
 40
0.7797518193
 40
0.8115850187
 40
0.8433165
 40
0.8749307183
 40
0.8906920254
 40
0.9064192472
 40
0.9221111659
 40
0.9377667345
 40
0.968960095
 40
1.0
 40
1.0
 40
1.0
 40
1.0
 10
12.2857656844
 20
8.2541334725
 30
0.0
 10
12.278399145
 20
8.247819978
 30
0.0
 10
12.2634156597
 20
8.2354746139
 30
0.0
 10
12.2402337657
 20
8.2178372206
 30
0.0
 10
12.2163697696
 20
8.2010990783
 30
0.0
 10
12.1918555106
 20
8.1852824284
 30
0.0
 10
12.166723066
 20
8.1704078828
 30
0.0
 10
12.1410053734
 20
8.1564951319
 30
0.0
 10
12.1147362864
 20
8.1435622222
 30
0.0
 10
12.0879502131
 20
8.1316262567
 30
0.0
 10
12.0606823297
 20
8.1207028565
 30
0.0
 10
12.0329684607
 20
8.1108062322
 30
0.0
 10
12.0048449103
 20
8.10194955
 30
0.0
 10
11.9763486494
 20
8.0941442166
 30
0.0
 10
11.9475170398
 20
8.0874005506
 30
0.0
 10
11.91838791
 20
8.081727422
 30
0.0
 10
11.8889995065
 20
8.0771320885
 30
0.0
 10
11.8593903545
 20
8.0736207697
 30
0.0
 10
11.8295993211
 20
8.0711978871
 30
0.0
 10
11.7996654782
 20
8.0698666287
 30
0.0
 10
11.7696280915
 20
8.0696288305
 30
0.0
 10
11.7395265592
 20
8.0704845827
 30
0.0
 10
11.7094003637
 20
8.0724329381
 30
0.0
 10
11.6792890222
 20
8.0754712136
 30
0.0
 10
11.6492319812
 20
8.0795953757
 30
0.0
 10
11.6192688047
 20
8.0848001198
 30
0.0
 10
11.5894382923
 20
8.0910785461
 30
0.0
 10
11.5498552601
 20
8.1008797939
 30
0.0
 10
11.5009023009
 20
8.1157804831
 30
0.0
 10
11.4433843316
 20
8.1377686996
 30
0.0
 10
11.3873198012
 20
8.1637703616
 30
0.0
 10
11.3330041511
 20
8.1936484827
 30
0.0
 10
11.2807211289
 20
8.2272464449
 30
0.0
 10
11.2307445365
 20
8.2643881154
 30
0.0
 10
11.1833359089
 20
8.3048788866
 30
0.0
 10
11.1387433836
 20
8.3485066467
 30
0.0
 10
11.0972004022
 20
8.395042958
 30
0.0
 10
11.0589245158
 20
8.4442442036
 30
0.0
 10
11.0241162442
 20
8.4958529081
 30
0.0
 10
10.9929580011
 20
8.5495987857
 30
0.0
 10
10.9656130146
 20
8.6052010496
 30
0.0
 10
10.9422252796
 20
8.6623667313
 30
0.0
 10
10.9261172874
 20
8.7111151227
 30
0.0
 10
10.9153288123
 20
8.7505923289
 30
0.0
 10
10.9083006587
 20
8.7803741777
 30
0.0
 10
10.9023378543
 20
8.8103175811
 30
0.0
 10
10.8958269117
 20
8.8503523757
 30
0.0
 10
10.8903763799
 20
8.9006078126
 30
0.0
 10
10.8889104566
 20
8.9409757724
 30
0.0
 10
10.8889104566
 20
8.961103089
 30
0.0
  0
SPLINE
  5
37D
100
AcDbEntity
  8
0
100
AcDbSpline
 62
7
  6
CONTINUOUS
 70
0
 71
3
 72
54
 73
50
 74
0
 42
0.0000001
 43
0.0000001
 44
0.0000000001
 40
0.0
 40
0.0
 40
0.0
 40
0.0
 40
0.0149714207
 40
0.0299458999
 40
0.0449264793
 40
0.0599161604
 40
0.0749178913
 40
0.0899345475
 40
0.1049689107
 40
0.1200236594
 40
0.1351013478
 40
0.1502043907
 40
0.1653350561
 40
0.180495444
 40
0.1956874801
 40
0.2109129079
 40
0.2261732709
 40
0.2414699147
 40
0.2568039766
 40
0.2721763764
 40
0.287587823
 40
0.3030388016
 40
0.3185295773
 40
0.3340601996
 40
0.3496304929
 40
0.3652400701
 40
0.3808883319
 40
0.3965744671
 40
0.4122974687
 40
0.4280561307
 40
0.4438490599
 40
0.4596746883
 40
0.4914119508
 40
0.5232571585
 40
0.5551923278
 40
0.5871976583
 40
0.6192519434
 40
0.6513329994
 40
0.6834181104
 40
0.71548448
 40
0.7475096843
 40
0.7794721186
 40
0.8113514354
 40
0.8431289619
 40
0.8747880915
 40
0.9063146418
 40
0.937697247
 40
0.9689272244
 40
1.0
 40
1.0
 40
1.0
 40
1.0
 10
12.2955104186
 20
8.3270471559
 30
0.0
 10
12.2887577852
 20
8.3205246035
 30
0.0
 10
12.2749901928
 20
8.3077452385
 30
0.0
 10
12.2535911709
 20
8.28940985
 30
0.0
 10
12.2314715993
 20
8.2719312854
 30
0.0
 10
12.2086623371
 20
8.2553340187
 30
0.0
 10
12.1851947465
 20
8.2396406562
 30
0.0
 10
12.1611010551
 20
8.2248729668
 30
0.0
 10
12.1364144805
 20
8.2110511599
 30
0.0
 10
12.1111690087
 20
8.1981942171
 30
0.0
 10
12.0853993177
 20
8.1863199551
 30
0.0
 10
12.059140951
 20
8.1754445278
 30
0.0
 10
12.0324299987
 20
8.1655829773
 30
0.0
 10
12.0053032125
 20
8.1567488842
 30
0.0
 10
11.9777979603
 20
8.1489542404
 30
0.0
 10
11.9499520372
 20
8.1422099212
 30
0.0
 10
11.9218037842
 20
8.1365250789
 30
0.0
 10
11.8933919253
 20
8.131907477
 30
0.0
 10
11.8647555234
 20
8.1283635981
 30
0.0
 10
11.8359339917
 20
8.1258981123
 30
0.0
 10
11.8069669586
 20
8.1245144856
 30
0.0
 10
11.7778942675
 20
8.1242146341
 30
0.0
 10
11.7487558979
 20
8.1249987986
 30
0.0
 10
11.7195919237
 20
8.1268660532
 30
0.0
 10
11.6904424452
 20
8.1298137073
 30
0.0
 10
11.6613475332
 20
8.1338376486
 30
0.0
 10
11.6323472134
 20
8.1389324781
 30
0.0
 10
11.6034813349
 20
8.1450909916
 30
0.0
 10
11.5747895659
 20
8.1523048086
 30
0.0
 10
11.5463114809
 20
8.1605639782
 30
0.0
 10
11.5180857491
 20
8.1698571891
 30
0.0
 10
11.48080915
 20
8.1836210946
 30
0.0
 10
11.4350393739
 20
8.203351049
 30
0.0
 10
11.3817980352
 20
8.2308986697
 30
0.0
 10
11.3304701096
 20
8.2621920583
 30
0.0
 10
11.2813391164
 20
8.2970585054
 30
0.0
 10
11.2346741206
 20
8.3353066371
 30
0.0
 10
11.1907313613
 20
8.3767264017
 30
0.0
 10
11.1497519292
 20
8.4210903845
 30
0.0
 10
11.1119607648
 20
8.4681550788
 30
0.0
 10
11.0775653913
 20
8.5176622281
 30
0.0
 10
11.0467548121
 20
8.5693402107
 30
0.0
 10
11.0196983443
 20
8.622905447
 30
0.0
 10
10.99654481
 20
8.6780639839
 30
0.0
 10
10.9774217412
 20
8.7345132121
 30
0.0
 10
10.9624346368
 20
8.7919430239
 30
0.0
 10
10.9516664113
 20
8.8500391226
 30
0.0
 10
10.945176574
 20
8.9084783751
 30
0.0
 10
10.9437230078
 20
8.9475626168
 30
0.0
 10
10.9437230078
 20
8.967047951
 30
0.0
  0
SPLINE
  5
37E
100
AcDbEntity
  8
0
100
AcDbSpline
 62
7
  6
CONTINUOUS
 70
0
 71
3
 72
52
 73
48
 74
0
 42
0.0000001
 43
0.0000001
 44
0.0000000001
 40
0.0
 40
0.0
 40
0.0
 40
0.0
 40
0.0149610471
 40
0.029930214
 40
0.0449103006
 40
0.0599040411
 40
0.074914092
 40
0.0899430187
 40
0.104993275
 40
0.1200671974
 40
0.1351669876
 40
0.1502946995
 40
0.1654522359
 40
0.1806413286
 40
0.1958635382
 40
0.2111202446
 40
0.2264126346
 40
0.2417417088
 40
0.2571082651
 40
0.2725129032
 40
0.2879560242
 40
0.3034378205
 40
0.3189582897
 40
0.3345172248
 40
0.3501142212
 40
0.3657486843
 40
0.3814198232
 40
0.3971266686
 40
0.4286379342
 40
0.4602760954
 40
0.4920274469
 40
0.5238760918
 40
0.5558042671
 40
0.5877926958
 40
0.6198209608
 40
0.6518678955
 40
0.6839119828
 40
0.7159317588
 40
0.7479062163
 40
0.7798152025
 40
0.8116398046
 40
0.8433627191
 40
0.8749685974
 40
0.9064443544
 40
0.9377795441
 40
0.9689661463
 40
1.0
 40
1.0
 40
1.0
 40
1.0
 10
12.3295790315
 20
8.3624203255
 30
0.0
 10
12.3225789017
 20
8.3565561595
 30
0.0
 10
12.3083467189
 20
8.3450939058
 30
0.0
 10
12.2863449862
 20
8.3287323985
 30
0.0
 10
12.2637124503
 20
8.3132191583
 30
0.0
 10
12.2404788948
 20
8.2985748082
 30
0.0
 10
12.2166745379
 20
8.2848181213
 30
0.0
 10
12.1923302738
 20
8.2719671723
 30
0.0
 10
12.167477815
 20
8.2600385637
 30
0.0
 10
12.1421494975
 20
8.2490477648
 30
0.0
 10
12.1163782053
 20
8.2390092002
 30
0.0
 10
12.0901975316
 20
8.2299357126
 30
0.0
 10
12.0636414673
 20
8.2218392405
 30
0.0
 10
12.0367445685
 20
8.2147302423
 30
0.0
 10
12.0095418264
 20
8.2086178604
 30
0.0
 10
11.9820685746
 20
8.2035102064
 30
0.0
 10
11.9543605719
 20
8.1994136986
 30
0.0
 10
11.9264538187
 20
8.1963337703
 30
0.0
 10
11.8983846005
 20
8.1942744036
 30
0.0
 10
11.8701894099
 20
8.1932381282
 30
0.0
 10
11.8419048913
 20
8.1932264735
 30
0.0
 10
11.8135678111
 20
8.1942392477
 30
0.0
 10
11.7852149952
 20
8.1962751996
 30
0.0
 10
11.7568833091
 20
8.1993317118
 30
0.0
 10
11.7286095202
 20
8.2034046433
 30
0.0
 10
11.7004305132
 20
8.208488846
 30
0.0
 10
11.6723824574
 20
8.2145776846
 30
0.0
 10
11.6351728478
 20
8.2240339492
 30
0.0
 10
11.5891692778
 20
8.2383318995
 30
0.0
 10
11.5351358608
 20
8.2593291313
 30
0.0
 10
11.482485556
 20
8.2840772824
 30
0.0
 10
11.4314933092
 20
8.3124471538
 30
0.0
 10
11.3824231087
 20
8.3442913975
 30
0.0
 10
11.3355296173
 20
8.3794445871
 30
0.0
 10
11.2910560065
 20
8.4177241789
 30
0.0
 10
11.2492329632
 20
8.4589314716
 30
0.0
 10
11.2102774614
 20
8.5028526497
 30
0.0
 10
11.1743916706
 20
8.5492598767
 30
0.0
 10
11.1417618926
 20
8.5979124438
 30
0.0
 10
11.1125575484
 20
8.6485579748
 30
0.0
 10
11.0869303828
 20
8.7009337877
 30
0.0
 10
11.0650136666
 20
8.7547681918
 30
0.0
 10
11.0469215417
 20
8.8097820013
 30
0.0
 10
11.032748282
 20
8.8656895147
 30
0.0
 10
11.0225680334
 20
8.9222015097
 30
0.0
 10
11.0164339559
 20
8.9790208824
 30
0.0
 10
11.0150604485
 20
9.0170123894
 30
0.0
 10
11.0150604485
 20
9.0359546315
 30
0.0
  0
SPLINE
  5
37F
100
AcDbEntity
  8
0
100
AcDbSpline
 62
7
  6
CONTINUOUS
 70
0
 71
3
 72
39
 73
35
 74
0
 42
0.0000001
 43
0.0000001
 44
0.0000000001
 40
0.0
 40
0.0
 40
0.0
 40
0.0
 40
0.0315055161
 40
0.0629321575
 40
0.0942840469
 40
0.1255658407
 40
0.156782709
 40
0.1879402923
 40
0.2190446601
 40
0.2501022789
 40
0.2811199621
 40
0.3121048154
 40
0.3430641902
 40
0.3740056322
 40
0.4049368192
 40
0.4358655031
 40
0.4667994587
 40
0.4977464217
 40
0.528714026
 40
0.5597097525
 40
0.5907408753
 40
0.621814402
 40
0.6529370224
 40
0.6841150698
 40
0.7153544693
 40
0.7466606899
 40
0.7780387284
 40
0.8094930554
 40
0.8410275668
 40
0.8726457254
 40
0.9043501609
 40
0.9361427574
 40
0.9680267493
 40
1.0
 40
1.0
 40
1.0
 40
1.0
 10
9.5853281129
 20
7.6586550598
 30
0.0
 10
9.5746446796
 20
7.6566118876
 30
0.0
 10
9.5533881264
 20
7.6520784766
 30
0.0
 10
9.5218619483
 20
7.6439376282
 30
0.0
 10
9.4907861355
 20
7.634477857
 30
0.0
 10
9.4602140216
 20
7.6237152702
 30
0.0
 10
9.4301970987
 20
7.6116680894
 30
0.0
 10
9.4007862186
 20
7.5983566386
 30
0.0
 10
9.3720311737
 20
7.5838033319
 30
0.0
 10
9.3439805826
 20
7.5680328647
 30
0.0
 10
9.3166819078
 20
7.5510718967
 30
0.0
 10
9.2901814086
 20
7.5329490176
 30
0.0
 10
9.2645238929
 20
7.5136949474
 30
0.0
 10
9.239752753
 20
7.4933422863
 30
0.0
 10
9.2159099722
 20
7.4719253904
 30
0.0
 10
9.1930358879
 20
7.4494805179
 30
0.0
 10
9.1711691474
 20
7.4260457049
 30
0.0
 10
9.1503467964
 20
7.4016605597
 30
0.0
 10
9.1306040975
 20
7.3763663275
 30
0.0
 10
9.1119743635
 20
7.3502058816
 30
0.0
 10
9.0944891223
 20
7.3232234741
 30
0.0
 10
9.0781780202
 20
7.2954647228
 30
0.0
 10
9.0630685432
 20
7.2669766609
 30
0.0
 10
9.0491862165
 20
7.2378074965
 30
0.0
 10
9.0365545955
 20
7.2080065438
 30
0.0
 10
9.0251949533
 20
7.1776242577
 30
0.0
 10
9.0151264256
 20
7.1467120546
 30
0.0
 10
9.0063660981
 20
7.1153222072
 30
0.0
 10
8.9989287156
 20
7.083507805
 30
0.0
 10
8.9928267857
 20
7.0513226723
 30
0.0
 10
8.9880706296
 20
7.0188213956
 30
0.0
 10
8.9846681478
 20
6.9860583101
 30
0.0
 10
8.9826253414
 20
6.9530901034
 30
0.0
 10
8.9821725322
 20
6.9310411112
 30
0.0
 10
8.9821725322
 20
6.9200025753
 30
0.0
  0
SPLINE
  5
380
100
AcDbEntity
  8
0
100
AcDbSpline
 62
7
  6
CONTINUOUS
 70
0
 71
3
 72
51
 73
47
 74
0
 42
0.0000001
 43
0.0000001
 44
0.0000000001
 40
0.0
 40
0.0
 40
0.0
 40
0.0
 40
0.0149716491
 40
0.0299463579
 40
0.0449271649
 40
0.0599170755
 40
0.0749190358
 40
0.0899359201
 40
0.1049705142
 40
0.1200254921
 40
0.1351034104
 40
0.150206685
 40
0.16533758
 40
0.1804982002
 40
0.1956904684
 40
0.2109161278
 40
0.2261767248
 40
0.2414736015
 40
0.2568078978
 40
0.2721805325
 40
0.2875922139
 40
0.3030434288
 40
0.3185344409
 40
0.3340653005
 40
0.3496358313
 40
0.365245647
 40
0.396575363
 40
0.4280524198
 40
0.4596664386
 40
0.4914041857
 40
0.523249879
 40
0.5551855359
 40
0.5871913555
 40
0.61924613
 40
0.6513276757
 40
0.6834132767
 40
0.7154801359
 40
0.7475058287
 40
0.7794687512
 40
0.8113485552
 40
0.843126567
 40
0.8747861806
 40
0.9063132067
 40
0.9376963039
 40
0.9689267485
 40
1.0
 40
1.0
 40
1.0
 40
1.0
 10
12.3319736184
 20
8.4734942063
 30
0.0
 10
12.3258846286
 20
8.4676126973
 30
0.0
 10
12.3134701793
 20
8.4560892212
 30
0.0
 10
12.2941742
 20
8.4395558987
 30
0.0
 10
12.2742285469
 20
8.4237951266
 30
0.0
 10
12.2536610198
 20
8.4088289852
 30
0.0
 10
12.2324997684
 20
8.3946780555
 30
0.0
 10
12.2107740569
 20
8.3813616571
 30
0.0
 10
12.1885136615
 20
8.3688982905
 30
0.0
 10
12.1657493028
 20
8.3573049616
 30
0.0
 10
12.1425122936
 20
8.3465976274
 30
0.0
 10
12.118834569
 20
8.336791117
 30
0.0
 10
12.0947487909
 20
8.3278987117
 30
0.0
 10
12.070288026
 20
8.319932836
 30
0.0
 10
12.0454859814
 20
8.3129042944
 30
0.0
 10
12.0203767737
 20
8.3068227437
 30
0.0
 10
11.9949949235
 20
8.3016966577
 30
0.0
 10
11.9693753883
 20
8.2975328572
 30
0.0
 10
11.9435533756
 20
8.2943372598
 30
0.0
 10
11.9175644254
 20
8.2921141092
 30
0.0
 10
11.8914442752
 20
8.2908664361
 30
0.0
 10
11.865228856
 20
8.2905960738
 30
0.0
 10
11.8389541887
 20
8.2913031642
 30
0.0
 10
11.8126565256
 20
8.2929868951
 30
0.0
 10
11.7863715893
 20
8.295644909
 30
0.0
 10
11.7513522165
 20
8.3004881138
 30
0.0
 10
11.7077863556
 20
8.30896613
 30
0.0
 10
11.6562089288
 20
8.3229324956
 30
0.0
 10
11.6055436954
 20
8.3406279602
 30
0.0
 10
11.5560706415
 20
8.3619546775
 30
0.0
 10
11.5080607572
 20
8.3867952486
 30
0.0
 10
11.4617776348
 20
8.4150130152
 30
0.0
 10
11.4174751784
 20
8.4464528362
 30
0.0
 10
11.3753964618
 20
8.4809419506
 30
0.0
 10
11.3357723745
 20
8.5182909546
 30
0.0
 10
11.2988203814
 20
8.558294818
 30
0.0
 10
11.2647433526
 20
8.6007340041
 30
0.0
 10
11.2337283936
 20
8.6453756081
 30
0.0
 10
11.2059458671
 20
8.6919746638
 30
0.0
 10
11.1815484868
 20
8.7402754911
 30
0.0
 10
11.1606704764
 20
8.7900130402
 30
0.0
 10
11.1434268622
 20
8.8409144422
 30
0.0
 10
11.1299126819
 20
8.8927000475
 30
0.0
 10
11.1202027556
 20
8.945086454
 30
0.0
 10
11.1143507306
 20
8.9977822926
 30
0.0
 10
11.1130400257
 20
9.0330253267
 30
0.0
 10
11.1130400257
 20
9.0505956411
 30
0.0
  0
SPLINE
  5
381
100
AcDbEntity
  8
0
100
AcDbSpline
 62
7
  6
CONTINUOUS
 70
0
 71
3
 72
43
 73
39
 74
0
 42
0.0000001
 43
0.0000001
 44
0.0000000001
 40
0.0
 40
0.0
 40
0.0
 40
0.0
 40
0.0303546533
 40
0.0455762998
 40
0.0608269262
 40
0.0914129705
 40
0.1221164224
 40
0.1375134317
 40
0.1529393846
 40
0.1838739266
 40
0.214919378
 40
0.2460708837
 40
0.2773223494
 40
0.308666524
 40
0.3400950931
 40
0.3715987822
 40
0.4031674683
 40
0.4347902991
 40
0.4664558181
 40
0.498152095
 40
0.5298668594
 40
0.5615876366
 40
0.5933018857
 40
0.6249971377
 40
0.6566611335
 40
0.6882819595
 40
0.7198481816
 40
0.751348975
 40
0.7827742499
 40
0.8141147668
 40
0.8453622619
 40
0.8609502127
 40
0.8765122856
 40
0.9075533163
 40
0.9384830736
 40
0.953906511
 40
0.9693015419
 40
1.0
 40
1.0
 40
1.0
 40
1.0
 10
12.5155291008
 20
8.8316388059
 30
0.0
 10
12.5026980503
 20
8.8299512643
 30
0.0
 10
12.4833552666
 20
8.827962566
 30
0.0
 10
12.4574669438
 20
8.826397063
 30
0.0
 10
12.4314456454
 20
8.8255522079
 30
0.0
 10
12.3987968273
 20
8.8258575786
 30
0.0
 10
12.3661526949
 20
8.8279700699
 30
0.0
 10
12.3400648337
 20
8.830738291
 30
0.0
 10
12.3139646764
 20
8.8342309768
 30
0.0
 10
12.2814434013
 20
8.8399438409
 30
0.0
 10
12.2427459706
 20
8.8489200808
 30
0.0
 10
12.2044554463
 20
8.8599963762
 30
0.0
 10
12.1666894535
 20
8.8731386975
 30
0.0
 10
12.1295630617
 20
8.8883068465
 30
0.0
 10
12.093189633
 20
8.9054544229
 30
0.0
 10
12.057680157
 20
8.9245290082
 30
0.0
 10
12.0231430023
 20
8.9454723158
 30
0.0
 10
11.9896835608
 20
8.9682203647
 30
0.0
 10
11.9574039337
 20
8.9927036748
 30
0.0
 10
11.9264026238
 20
9.0188474845
 30
0.0
 10
11.8967742372
 20
9.0465719771
 30
0.0
 10
11.868609196
 20
9.0757925229
 30
0.0
 10
11.8419934652
 20
9.1064199362
 30
0.0
 10
11.8170082912
 20
9.1383607452
 30
0.0
 10
11.7937299555
 20
9.171517477
 30
0.0
 10
11.7722295441
 20
9.205788947
 30
0.0
 10
11.7525727279
 20
9.2410705877
 30
0.0
 10
11.7348195712
 20
9.2772546795
 30
0.0
 10
11.719024287
 20
9.3142309864
 30
0.0
 10
11.7052353254
 20
9.3518859564
 30
0.0
 10
11.695443201
 20
9.3837628538
 30
0.0
 10
11.6886543495
 20
9.4094877237
 30
0.0
 10
11.6825761084
 20
9.435299311
 30
0.0
 10
11.6762957839
 20
9.4677702244
 30
0.0
 10
11.6717870709
 20
9.5004746931
 30
0.0
 10
11.6692600889
 20
9.526682192
 30
0.0
 10
11.6674568763
 20
9.5528498476
 30
0.0
 10
11.6669123251
 20
9.5725071044
 30
0.0
 10
11.6669123251
 20
9.5855952313
 30
0.0
  0
SPLINE
  5
382
100
AcDbEntity
  8
0
100
AcDbSpline
 62
7
  6
CONTINUOUS
 70
0
 71
3
 72
43
 73
39
 74
0
 42
0.0000001
 43
0.0000001
 44
0.0000000001
 40
0.0
 40
0.0
 40
0.0
 40
0.0
 40
0.0303720674
 40
0.0456023289
 40
0.0608614746
 40
0.0914641528
 40
0.1221834091
 40
0.1375879069
 40
0.1530210521
 40
0.183969021
 40
0.2150264207
 40
0.2461882512
 40
0.2774483092
 40
0.3087992706
 40
0.3402327842
 40
0.3717395734
 40
0.4033095463
 40
0.4349319123
 40
0.4665953037
 40
0.4982879033
 40
0.529997574
 40
0.5617119927
 40
0.5934187849
 40
0.6251056597
 40
0.6567605436
 40
0.688371713
 40
0.719927923
 40
0.7356833926
 40
0.7514211919
 40
0.7828362907
 40
0.8141668042
 40
0.8454046212
 40
0.8765426362
 40
0.9075750392
 40
0.938496777
 40
0.9539165033
 40
0.9693080603
 40
1.0
 40
1.0
 40
1.0
 40
1.0
 10
12.5153302965
 20
8.8892894987
 30
0.0
 10
12.5033377579
 20
8.887856547
 30
0.0
 10
12.4852657887
 20
8.8862104792
 30
0.0
 10
12.4610904527
 20
8.8850220511
 30
0.0
 10
12.4367990993
 20
8.8845020839
 30
0.0
 10
12.4063354654
 20
8.8851135493
 30
0.0
 10
12.375893703
 20
8.8873978584
 30
0.0
 10
12.3515757496
 20
8.8902230879
 30
0.0
 10
12.3272532979
 20
8.8937192584
 30
0.0
 10
12.2969588482
 20
8.8993352927
 30
0.0
 10
12.2609279369
 20
8.9080351469
 30
0.0
 10
12.225291817
 20
8.9186757994
 30
0.0
 10
12.1901585361
 20
8.9312250213
 30
0.0
 10
12.1556337431
 20
8.9456449218
 30
0.0
 10
12.1218214775
 20
8.9618919621
 30
0.0
 10
12.0888235636
 20
8.9799171224
 30
0.0
 10
12.0567393864
 20
8.9996660398
 30
0.0
 10
12.0256655736
 20
9.0210791745
 30
0.0
 10
11.9956957129
 20
9.0440919872
 30
0.0
 10
11.9669200713
 20
9.0686351322
 30
0.0
 10
11.9394253259
 20
9.0946346671
 30
0.0
 10
11.9132942923
 20
9.1220122551
 30
0.0
 10
11.8886056771
 20
9.1506854315
 30
0.0
 10
11.8654338789
 20
9.1805677872
 30
0.0
 10
11.8438486375
 20
9.2115694705
 30
0.0
 10
11.8239153028
 20
9.2435965453
 30
0.0
 10
11.8087220053
 20
9.2710759836
 30
0.0
 10
11.7974520839
 20
9.2934755025
 30
0.0
 10
11.7867916899
 20
9.3161094083
 30
0.0
 10
11.7745995541
 20
9.3448561311
 30
0.0
 10
11.7618215561
 20
9.3799954721
 30
0.0
 10
11.7509424788
 20
9.4156537672
 30
0.0
 10
11.7419953823
 20
9.4517232246
 30
0.0
 10
11.7350074351
 20
9.4880945904
 30
0.0
 10
11.7308302183
 20
9.5185947477
 30
0.0
 10
11.7284891233
 20
9.5430345371
 30
0.0
 10
11.7268185681
 20
9.5674370942
 30
0.0
 10
11.7263140881
 20
9.5857678856
 30
0.0
 10
11.7263140881
 20
9.5979729317
 30
0.0
  0
SPLINE
  5
383
100
AcDbEntity
  8
0
100
AcDbSpline
 62
7
  6
CONTINUOUS
 70
0
 71
3
 72
50
 73
46
 74
0
 42
0.0000001
 43
0.0000001
 44
0.0000000001
 40
0.0
 40
0.0
 40
0.0
 40
0.0
 40
0.0484981071
 40
0.0964122279
 40
0.1436641743
 40
0.1901849511
 40
0.2359042066
 40
0.2807531579
 40
0.3246653514
 40
0.3675762377
 40
0.4094234714
 40
0.450147086
 40
0.4896898312
 40
0.5279973132
 40
0.5650181719
 40
0.6007045649
 40
0.6350123927
 40
0.6679015811
 40
0.6993367542
 40
0.7292876931
 40
0.7577298951
 40
0.7846456554
 40
0.7975283127
 40
0.8100263614
 40
0.8221399902
 40
0.8338701763
 40
0.8452185186
 40
0.85618749
 40
0.8667805838
 40
0.8770021922
 40
0.8868579035
 40
0.8963546744
 40
0.9055007717
 40
0.9143061207
 40
0.9227825097
 40
0.9309436026
 40
0.9388053189
 40
0.9463860399
 40
0.9607838117
 40
0.9676581522
 40
0.9743520108
 40
0.9808975346
 40
0.9873293599
 40
0.9936841335
 40
1.0
 40
1.0
 40
1.0
 40
1.0
 10
15.020446517
 20
10.3780488084
 30
0.0
 10
15.020446517
 20
10.3878061096
 30
0.0
 10
15.0203415417
 20
10.4072033976
 30
0.0
 10
15.0198635671
 20
10.4361037266
 30
0.0
 10
15.0190666444
 20
10.46459911
 30
0.0
 10
15.0179521708
 20
10.4926419355
 30
0.0
 10
15.0165220099
 20
10.5201863756
 30
0.0
 10
15.0147785421
 20
10.5471869103
 30
0.0
 10
15.0127246568
 20
10.5735989726
 30
0.0
 10
15.0103637997
 20
10.5993790415
 30
0.0
 10
15.0076999159
 20
10.6244846098
 30
0.0
 10
15.0047374084
 20
10.6488742922
 30
0.0
 10
15.0014812393
 20
10.67250791
 30
0.0
 10
14.9979368508
 20
10.6953465438
 30
0.0
 10
14.9941101081
 20
10.7173525962
 30
0.0
 10
14.9900074107
 20
10.7384898808
 30
0.0
 10
14.9856356144
 20
10.758723674
 30
0.0
 10
14.9810019517
 20
10.7780207744
 30
0.0
 10
14.9761141482
 20
10.7963495672
 30
0.0
 10
14.9709803402
 20
10.8136801872
 30
0.0
 10
14.9656089773
 20
10.8299841867
 30
0.0
 10
14.9608756759
 20
10.8428752137
 30
0.0
 10
14.9569667841
 20
10.8526442853
 30
0.0
 10
14.9540241341
 20
10.8595907184
 30
0.0
 10
14.9510288304
 20
10.8662612625
 30
0.0
 10
14.9479821287
 20
10.8726532328
 30
0.0
 10
14.944885234
 20
10.8787640016
 30
0.0
 10
14.9417393783
 20
10.8845910689
 30
0.0
 10
14.9385458933
 20
10.8901321005
 30
0.0
 10
14.9353060093
 20
10.8953848231
 30
0.0
 10
14.9320209943
 20
10.9003470928
 30
0.0
 10
14.9286922061
 20
10.9050169425
 30
0.0
 10
14.9253208821
 20
10.9093924452
 30
0.0
 10
14.9219083108
 20
10.9134717978
 30
0.0
 10
14.9184558167
 20
10.917253404
 30
0.0
 10
14.914964739
 20
10.9207355709
 30
0.0
 10
14.9114359652
 20
10.9239170602
 30
0.0
 10
14.9067642344
 20
10.9276905998
 30
0.0
 10
14.9019367277
 20
10.9309468189
 30
0.0
 10
14.8969745217
 20
10.9336068723
 30
0.0
 10
14.8932788943
 20
10.9352644023
 30
0.0
 10
14.889554362
 20
10.9366135806
 30
0.0
 10
14.885802402
 20
10.937653699
 30
0.0
 10
14.8820251816
 20
10.9383838406
 30
0.0
 10
14.8794880814
 20
10.9386639479
 30
0.0
 10
14.8782204412
 20
10.93875186
 30
0.0
  0
SPLINE
  5
384
100
AcDbEntity
  8
0
100
AcDbSpline
 62
7
  6
CONTINUOUS
 70
0
 71
3
 72
39
 73
35
 74
0
 42
0.0000001
 43
0.0000001
 44
0.0000000001
 40
0.0
 40
0.0
 40
0.0
 40
0.0
 40
0.0307219217
 40
0.0615350692
 40
0.0924369177
 40
0.1234242547
 40
0.1544932092
 40
0.1856392984
 40
0.2168574598
 40
0.2481420849
 40
0.2794870753
 40
0.3108858912
 40
0.3423315924
 40
0.3738168946
 40
0.4053342312
 40
0.4368758009
 40
0.4684336224
 40
0.4999996026
 40
0.5315655899
 40
0.5631234274
 40
0.5946650197
 40
0.6261823925
 40
0.6576677414
 40
0.6891134943
 40
0.7205123724
 40
0.7518574371
 40
0.7831421408
 40
0.8143603846
 40
0.8455065714
 40
0.876575631
 40
0.9075630434
 40
0.9384650515
 40
0.9692783283
 40
1.0
 40
1.0
 40
1.0
 40
1.0
 10
12.493940111
 20
9.0222741206
 30
0.0
 10
12.4840242356
 20
9.0234867024
 30
0.0
 10
12.4642140344
 20
9.026355204
 30
0.0
 10
12.4346755762
 20
9.0319654306
 30
0.0
 10
12.4053254619
 20
9.0388788163
 30
0.0
 10
12.376223072
 20
9.0470814738
 30
0.0
 10
12.3474262766
 20
9.0565569317
 30
0.0
 10
12.3189926052
 20
9.0672862175
 30
0.0
 10
12.2909788288
 20
9.079247962
 30
0.0
 10
12.2634408617
 20
9.0924182313
 30
0.0
 10
12.2364336373
 20
9.1067706509
 30
0.0
 10
12.2100110745
 20
9.1222765856
 30
0.0
 10
12.1842259459
 20
9.1389051182
 30
0.0
 10
12.1591296675
 20
9.1566229617
 30
0.0
 10
12.1347723193
 20
9.1753947335
 30
0.0
 10
12.1112025704
 20
9.1951830223
 30
0.0
 10
12.0884674429
 20
9.2159482891
 30
0.0
 10
12.0666122756
 20
9.2376490395
 30
0.0
 10
12.0456807244
 20
9.2602419911
 30
0.0
 10
12.0257146154
 20
9.2836820801
 30
0.0
 10
12.0067537394
 20
9.30792246
 30
0.0
 10
11.9888359475
 20
9.3329147523
 30
0.0
 10
11.97199709
 20
9.3586091259
 30
0.0
 10
11.9562707522
 20
9.3849542659
 30
0.0
 10
11.9416882975
 20
9.411897568
 30
0.0
 10
11.9282789023
 20
9.4393852851
 30
0.0
 10
11.9160693978
 20
9.4673625675
 30
0.0
 10
11.9050840995
 20
9.4957735378
 30
0.0
 10
11.8953449714
 20
9.5245614916
 30
0.0
 10
11.8868715835
 20
9.5536689988
 30
0.0
 10
11.8796808012
 20
9.5830378934
 30
0.0
 10
11.873787011
 20
9.6126097453
 30
0.0
 10
11.869202133
 20
9.642324639
 30
0.0
 10
11.8670208193
 20
9.6622221923
 30
0.0
 10
11.8661520225
 20
9.6721740016
 30
0.0
  0
SPLINE
  5
385
100
AcDbEntity
  8
0
100
AcDbSpline
 62
7
  6
CONTINUOUS
 70
0
 71
3
 72
22
 73
18
 74
0
 42
0.0000001
 43
0.0000001
 44
0.0000000001
 40
0.0
 40
0.0
 40
0.0
 40
0.0
 40
0.0824216682
 40
0.1272710162
 40
0.1748291513
 40
0.2252813051
 40
0.2787774756
 40
0.3354409854
 40
0.3953746871
 40
0.4586613511
 40
0.5253679734
 40
0.595552736
 40
0.66926362
 40
0.7465385944
 40
0.8274067622
 40
0.9118890929
 40
1.0
 40
1.0
 40
1.0
 40
1.0
 10
10.4580973637
 20
6.5779405797
 30
0.0
 10
10.4580967516
 20
6.5792921198
 30
0.0
 10
10.4583230631
 20
6.5813828142
 30
0.0
 10
10.4589779385
 20
6.5841749846
 30
0.0
 10
10.4596832206
 20
6.5864113948
 30
0.0
 10
10.4605884287
 20
6.5887266558
 30
0.0
 10
10.4616936803
 20
6.5911188139
 30
0.0
 10
10.4629989001
 20
6.5935850996
 30
0.0
 10
10.4645037366
 20
6.5961232878
 30
0.0
 10
10.4662079543
 20
6.5987311012
 30
0.0
 10
10.4681113966
 20
6.6014063151
 30
0.0
 10
10.4702135524
 20
6.6041470739
 30
0.0
 10
10.4725139182
 20
6.6069516669
 30
0.0
 10
10.4750120635
 20
6.609818327
 30
0.0
 10
10.4777072853
 20
6.6127454788
 30
0.0
 10
10.4805985468
 20
6.6157317862
 30
0.0
 10
10.4826137189
 20
6.6177193569
 30
0.0
 10
10.4836529207
 20
6.6187231488
 30
0.0
  0
LINE
  5
386
100
AcDbEntity
  8
0
100
AcDbLine
 62
7
  6
CONTINUOUS
 10
11.091250967
 20
9.490776732
 11
11.0905791869
 21
9.4900447848
  0
SPLINE
  5
387
100
AcDbEntity
  8
0
100
AcDbSpline
 62
7
  6
CONTINUOUS
 70
0
 71
3
 72
24
 73
20
 74
0
 42
0.0000001
 43
0.0000001
 44
0.0000000001
 40
0.0
 40
0.0
 40
0.0
 40
0.0
 40
0.0616736451
 40
0.1233882225
 40
0.1851612343
 40
0.2470096737
 40
0.2779694707
 40
0.3089541844
 40
0.3710016773
 40
0.4331710774
 40
0.4954759531
 40
0.557928715
 40
0.6205405336
 40
0.683321176
 40
0.7462791532
 40
0.8094214825
 40
0.8727526855
 40
0.9362796991
 40
1.0
 40
1.0
 40
1.0
 40
1.0
 10
11.0905791869
 20
9.4900447848
 30
0.0
 10
11.082532499
 20
9.4812657379
 30
0.0
 10
11.066849671
 20
9.4633153741
 30
0.0
 10
11.0446252504
 20
9.435291785
 30
0.0
 10
11.0237366213
 20
9.4062167731
 30
0.0
 10
11.0074824303
 20
9.3811673341
 30
0.0
 10
10.9951886668
 20
9.3606650157
 30
0.0
 10
10.9833629677
 20
9.3398449812
 30
0.0
 10
10.9694867197
 20
9.3132688979
 30
0.0
 10
10.9543281601
 20
9.2805836717
 30
0.0
 10
10.9406839916
 20
9.2471529958
 30
0.0
 10
10.928581443
 20
9.2130434089
 30
0.0
 10
10.9180442791
 20
9.1783222765
 30
0.0
 10
10.9090932515
 20
9.1430582929
 30
0.0
 10
10.901746019
 20
9.1073211209
 30
0.0
 10
10.8960171784
 20
9.0711816116
 30
0.0
 10
10.8919176753
 20
9.0347105631
 30
0.0
 10
10.8894559836
 20
8.9979814999
 30
0.0
 10
10.8889104566
 20
8.9734071434
 30
0.0
 10
10.8889104566
 20
8.961103089
 30
0.0
  0
SPLINE
  5
388
100
AcDbEntity
  8
0
100
AcDbSpline
 62
7
  6
CONTINUOUS
 70
0
 71
3
 72
26
 73
22
 74
0
 42
0.0000001
 43
0.0000001
 44
0.0000000001
 40
0.0
 40
0.0
 40
0.0
 40
0.0
 40
0.0617092235
 40
0.0925729854
 40
0.1234446509
 40
0.1852169748
 40
0.2470517571
 40
0.2780013275
 40
0.3089738777
 40
0.3709922222
 40
0.4331298084
 40
0.4954034049
 40
0.5578284199
 40
0.6204187753
 40
0.6831867461
 40
0.7146430864
 40
0.7461476576
 40
0.8093008659
 40
0.872657114
 40
0.9362236724
 40
1.0
 40
1.0
 40
1.0
 40
1.0
 10
11.1644629354
 20
9.4979936048
 30
0.0
 10
11.1557225729
 20
9.4895510508
 30
0.0
 10
11.1429334608
 20
9.476545295
 30
0.0
 10
11.1265692139
 20
9.4585664979
 30
0.0
 10
11.110663899
 20
9.4401632891
 30
0.0
 10
11.0916650068
 20
9.4163870732
 30
0.0
 10
11.0739014935
 20
9.3916553587
 30
0.0
 10
11.060452986
 20
9.3713285836
 30
0.0
 10
11.0475089208
 20
9.3506343157
 30
0.0
 10
11.0323052585
 20
9.3241214454
 30
0.0
 10
11.0156778423
 20
9.2913731147
 30
0.0
 10
11.0006965169
 20
9.2577517249
 30
0.0
 10
10.987396042
 20
9.2233351903
 30
0.0
 10
10.9758070628
 20
9.1882032899
 30
0.0
 10
10.9676036217
 20
9.1584180622
 30
0.0
 10
10.9619201644
 20
9.1343180468
 30
0.0
 10
10.9568182555
 20
9.1100107013
 30
0.0
 10
10.9515547015
 20
9.0793287007
 30
0.0
 10
10.9470373314
 20
9.0421571032
 30
0.0
 10
10.9443241184
 20
9.0046880046
 30
0.0
 10
10.9437230078
 20
8.9796069933
 30
0.0
 10
10.9437230078
 20
8.967047951
 30
0.0
  0
SPLINE
  5
389
100
AcDbEntity
  8
0
100
AcDbSpline
 62
7
  6
CONTINUOUS
 70
0
 71
3
 72
60
 73
56
 74
0
 42
0.0000001
 43
0.0000001
 44
0.0000000001
 40
0.0
 40
0.0
 40
0.0
 40
0.0
 40
0.0417737215
 40
0.0840362954
 40
0.1266575307
 40
0.1695051874
 40
0.2124464681
 40
0.2553480875
 40
0.2980769527
 40
0.3405006415
 40
0.3824879411
 40
0.4239093736
 40
0.4646377307
 40
0.5045486136
 40
0.543520985
 40
0.5814377367
 40
0.599965091
 40
0.6181867239
 40
0.6360893624
 40
0.6536601077
 40
0.6708864507
 40
0.6877562714
 40
0.7042579206
 40
0.7203801597
 40
0.7361123056
 40
0.7514441249
 40
0.7663660213
 40
0.7808689196
 40
0.7949444585
 40
0.8085849095
 40
0.8217833396
 40
0.8345336065
 40
0.8468304684
 40
0.8586696849
 40
0.8700480724
 40
0.8809637257
 40
0.8914160437
 40
0.9014060712
 40
0.9109365509
 40
0.9200123738
 40
0.9286407389
 40
0.9368317014
 40
0.9445985263
 40
0.9519583321
 40
0.9589326812
 40
0.9655482848
 40
0.9718377328
 40
0.9778400566
 40
0.9836011837
 40
0.9864084827
 40
0.9891757961
 40
0.9919106627
 40
0.9946209124
 40
0.9973146132
 40
1.0
 40
1.0
 40
1.0
 40
1.0
 10
15.2425105032
 20
10.480546159
 30
0.0
 10
15.2425105032
 20
10.4583456347
 30
0.0
 10
15.2421641525
 20
10.4136840889
 30
0.0
 10
15.2406329896
 20
10.3463873881
 30
0.0
 10
15.2380916441
 20
10.2785500099
 30
0.0
 10
15.2345484366
 20
10.2103964735
 30
0.0
 10
15.2300150827
 20
10.1421522959
 30
0.0
 10
15.2245065642
 20
10.0740432361
 30
0.0
 10
15.21804113
 20
10.0062946318
 30
0.0
 10
15.2106402126
 20
9.9391306103
 30
0.0
 10
15.2023283667
 20
9.8727733558
 30
0.0
 10
15.1931331863
 20
9.8074423594
 30
0.0
 10
15.1830852133
 20
9.7433537085
 30
0.0
 10
15.1722178487
 20
9.6807192831
 30
0.0
 10
15.1605672052
 20
9.6197463352
 30
0.0
 10
15.1501596141
 20
9.5701138061
 30
0.0
 10
15.1414592781
 20
9.5313979267
 30
0.0
 10
15.1348131219
 20
9.5031235977
 30
0.0
 10
15.1280014517
 20
9.4754119255
 30
0.0
 10
15.1210298948
 20
9.4482858076
 30
0.0
 10
15.1139042522
 20
9.4217676824
 30
0.0
 10
15.1066303966
 20
9.3958794775
 30
0.0
 10
15.0992144148
 20
9.3706425918
 30
0.0
 10
15.0916623841
 20
9.3460778912
 30
0.0
 10
15.0839806545
 20
9.3222056658
 30
0.0
 10
15.0761754996
 20
9.2990456475
 30
0.0
 10
15.068253491
 20
9.2766169484
 30
0.0
 10
15.0602211011
 20
9.254938095
 30
0.0
 10
15.0520850729
 20
9.2340269574
 30
0.0
 10
15.0438520791
 20
9.2139007863
 30
0.0
 10
15.0355289845
 20
9.1945761501
 30
0.0
 10
15.0271226544
 20
9.1760689534
 30
0.0
 10
15.0186400299
 20
9.158394407
 30
0.0
 10
15.0100881461
 20
9.1415670005
 30
0.0
 10
15.001473978
 20
9.1256005337
 30
0.0
 10
14.9928046859
 20
9.1105080158
 30
0.0
 10
14.9840872368
 20
9.0963017842
 30
0.0
 10
14.9753288391
 20
9.0829933137
 30
0.0
 10
14.9665364034
 20
9.0705934313
 30
0.0
 10
14.9577170626
 20
9.0591120523
 30
0.0
 10
14.9488775986
 20
9.0485584662
 30
0.0
 10
14.9400248986
 20
9.0389410707
 30
0.0
 10
14.9311654979
 20
9.0302676664
 30
0.0
 10
14.9223058547
 20
9.0225453203
 30
0.0
 10
14.9134521283
 20
9.0157805791
 30
0.0
 10
14.9046103503
 20
9.0099796384
 30
0.0
 10
14.8957862647
 20
9.0051482944
 30
0.0
 10
14.886986655
 20
9.0012926346
 30
0.0
 10
14.8796146262
 20
8.9988764214
 30
0.0
 10
14.8737581323
 20
8.9974539969
 30
0.0
 10
14.8694151063
 20
8.9966419921
 30
0.0
 10
14.8650852441
 20
8.9960761029
 30
0.0
 10
14.8607693712
 20
8.995756509
 30
0.0
 10
14.8564687082
 20
8.995683392
 30
0.0
 10
14.8536104802
 20
8.9957990377
 30
0.0
 10
14.8521867589
 20
8.995897776
 30
0.0
  0
SPLINE
  5
38A
100
AcDbEntity
  8
0
100
AcDbSpline
 62
7
  6
CONTINUOUS
 70
0
 71
3
 72
24
 73
20
 74
0
 42
0.0000001
 43
0.0000001
 44
0.0000000001
 40
0.0
 40
0.0
 40
0.0
 40
0.0
 40
0.0616701213
 40
0.1233836347
 40
0.185157579
 40
0.2470084812
 40
0.2779698906
 40
0.3089564241
 40
0.3710080612
 40
0.4331817766
 40
0.4954907211
 40
0.55794692
 40
0.6205611877
 40
0.6833429685
 40
0.7463005208
 40
0.809440593
 40
0.872767556
 40
0.9362882888
 40
1.0
 40
1.0
 40
1.0
 40
1.0
 10
11.2016712658
 20
9.5315669653
 30
0.0
 10
11.1942178377
 20
9.5232952495
 30
0.0
 10
11.179693189
 20
9.5063921135
 30
0.0
 10
11.159115327
 20
9.4800313485
 30
0.0
 10
11.1397784543
 20
9.4527067712
 30
0.0
 10
11.124734792
 20
9.4291848001
 30
0.0
 10
11.1133580782
 20
9.4099431083
 30
0.0
 10
11.102415366
 20
9.3904097755
 30
0.0
 10
11.0895769471
 20
9.3654881411
 30
0.0
 10
11.075554218
 20
9.3348550585
 30
0.0
 10
11.0629340867
 20
9.3035389106
 30
0.0
 10
11.0517411878
 20
9.2716006415
 30
0.0
 10
11.0419970326
 20
9.2391019235
 30
0.0
 10
11.0337203623
 20
9.2061056326
 30
0.0
 10
11.0269271466
 20
9.1726755096
 30
0.0
 10
11.0216305862
 20
9.1388763629
 30
0.0
 10
11.0178405802
 20
9.1047729173
 30
0.0
 10
11.0155647951
 20
9.0704324287
 30
0.0
 10
11.0150604485
 20
9.0474576364
 30
0.0
 10
11.0150604485
 20
9.0359546315
 30
0.0
  0
SPLINE
  5
38B
100
AcDbEntity
  8
0
100
AcDbSpline
 62
7
  6
CONTINUOUS
 70
0
 71
3
 72
25
 73
21
 74
0
 42
0.0000001
 43
0.0000001
 44
0.0000000001
 40
0.0
 40
0.0
 40
0.0
 40
0.0
 40
0.0617095319
 40
0.0925734525
 40
0.1234452711
 40
0.1852179107
 40
0.2470530079
 40
0.3089703872
 40
0.3709890414
 40
0.4331269412
 40
0.4954008557
 40
0.5578261871
 40
0.6204168633
 40
0.6831851338
 40
0.7146416333
 40
0.746146383
 40
0.80929992
 40
0.8726563647
 40
0.9362235836
 40
1.0
 40
1.0
 40
1.0
 40
1.0
 10
11.3120856301
 20
9.5293598847
 30
0.0
 10
11.304204264
 20
9.5217470742
 30
0.0
 10
11.2926720698
 20
9.5100195275
 30
0.0
 10
11.2779160929
 20
9.4938076858
 30
0.0
 10
11.2635739449
 20
9.4772132038
 30
0.0
 10
11.2464421107
 20
9.4557734618
 30
0.0
 10
11.2272157241
 20
9.4290050747
 30
0.0
 10
11.2093600453
 20
9.4012511592
 30
0.0
 10
11.1929165608
 20
9.372576141
 30
0.0
 10
11.1779230714
 20
9.3430460452
 30
0.0
 10
11.1644141742
 20
9.3127290402
 30
0.0
 10
11.1524208747
 20
9.2816949369
 30
0.0
 10
11.1419708821
 20
9.2500158065
 30
0.0
 10
11.1345736442
 20
9.2231578831
 30
0.0
 10
11.1294487768
 20
9.2014264151
 30
0.0
 10
11.1248482519
 20
9.1795079994
 30
0.0
 10
11.1201020313
 20
9.1518414403
 30
0.0
 10
11.1160286071
 20
9.1183230339
 30
0.0
 10
11.1135820766
 20
9.084536403
 30
0.0
 10
11.1130400257
 20
9.0619203381
 30
0.0
 10
11.1130400257
 20
9.0505956411
 30
0.0
  0
SPLINE
  5
38C
100
AcDbEntity
  8
0
100
AcDbSpline
 62
7
  6
CONTINUOUS
 70
0
 71
3
 72
11
 73
7
 74
0
 42
0.0000001
 43
0.0000001
 44
0.0000000001
 40
0.0
 40
0.0
 40
0.0
 40
0.0
 40
0.2453567578
 40
0.4940355926
 40
0.7456854445
 40
1.0
 40
1.0
 40
1.0
 40
1.0
 10
11.6475958549
 20
9.6999701145
 30
0.0
 10
11.6452486047
 20
9.6881296086
 30
0.0
 10
11.6411258446
 20
9.6641644069
 30
0.0
 10
11.6367060229
 20
9.6277314248
 30
0.0
 10
11.6340424461
 20
9.5906864011
 30
0.0
 10
11.6334554861
 20
9.5657900272
 30
0.0
 10
11.6334554861
 20
9.5532784044
 30
0.0
  0
ENDSEC
  0
SECTION
  2
OBJECTS
  0
DICTIONARY
  5
C
100
AcDbDictionary
280
0
281
1
  3
ACAD_GROUP
350
D
  3
ACAD_MLINESTYLE
350
17
  3
ACAD_LAYOUT
350
1A
  3
ACAD_PLOTSETTINGS
350
19
  3
ACAD_PLOTSTYLENAME
350
E
  3
ACAD_IMAGE_DICT
350
       38E
  3
ACAD_IMAGE_VARS
350
       38F
  3
ACAD_TABLESTYLE
350
       390
  0
IMAGEDEF_REACTOR
  5
38D
100
AcDbRasterImageDefReactor
 90
2
330
283
  0
DICTIONARY
  5
D
102
{ACAD_REACTORS
330
C
102
}
100
AcDbDictionary
280
0
281
1
  0
ACDBDICTIONARYWDFLT
  5
E
102
{ACAD_REACTORS
330
C
102
}
100
AcDbDictionary
281
1
  3
Normal
350
F
100
AcDbDictionaryWithDefault
340
F
  0
DICTIONARY
  5
38E
330
C
100
AcDbDictionary
281
1
  3
FHI_assy_2_img_1
350
       393
  0
RASTERVARIABLES
  5
38F
330
C
100
AcDbRasterVariables
 90
0
 70
0
 71
1
 72
5
  0
DICTIONARY
  5
17
102
{ACAD_REACTORS
330
C
102
}
100
AcDbDictionary
280
0
281
1
  3
Standard
350
18
  0
DICTIONARY
  5
390
330
C
100
AcDbDictionary
281
1
  3
Standard
350
       394
  3
Standard1
350
       395
  0
DICTIONARY
  5
19
102
{ACAD_REACTORS
330
C
102
}
100
AcDbDictionary
281
1
  0
DICTIONARY
  5
1A
102
{ACAD_REACTORS
330
C
102
}
100
AcDbDictionary
281
1
  3
Model
350
391
  3
Layout1
350
392
  0
ACDBPLACEHOLDER
  5
F
102
{ACAD_REACTORS
330
E
102
}
  0
MLINESTYLE
  5
18
102
{ACAD_REACTORS
330
17
102
}
100
AcDbMlineStyle
  2
STANDARD
 70
0
  3

 62
256
 51
90.0
 52
90.0
 71
2
 49
0.5
 62
256
  6
BYLAYER
 49
-0.5
 62
256
  6
BYLAYER
  0
LAYOUT
  5
391
102
{ACAD_REACTORS
330
1A
102
}
100
AcDbPlotSettings
  1

  2
none_device
  4
ANSI_C_(22.00_x_17.00_Inches)
  6

 40
0.0
 41
0.0
 42
0.0
 43
0.0
 44
558.8
 45
431.8
 46
0.0
 47
0.0
 48
0.0
 49
0.0
140
0.0
141
0.0
142
1.0
143
1.0
 70
1024
 72
0
 73
0
 74
0
  7

 75
0
147
1.0
148
0.0
149
0.0
100
AcDbLayout
  1
Model
 70
0
 71
0
 10
0.0
 20
0.0
 11
22.0
 21
17.0
 12
0.0
 22
0.0
 32
0.0
 14
0.0
 24
0.0
 34
0.0
 15
0.0
 25
0.0
 35
0.0
146
0.0
 13
0.0
 23
0.0
 33
0.0
 16
1.0
 26
0.0
 36
0.0
 17
0.0
 27
1.0
 37
0.0
 76
0
330
204
345
0
346
0
  0
LAYOUT
  5
392
102
{ACAD_REACTORS
330
1A
102
}
100
AcDbPlotSettings
  1

  2
none_device
  4
ANSI_C_(22.00_x_17.00_Inches)
  6

 40
0.0
 41
0.0
 42
0.0
 43
0.0
 44
558.8
 45
431.8
 46
0.0
 47
0.0
 48
0.0
 49
0.0
140
0.0
141
0.0
142
1.0
143
1.0
 70
0
 72
0
 73
0
 74
0
  7

 75
0
147
1.0
148
0.0
149
0.0
100
AcDbLayout
  1
Layout1
 70
0
 71
1
 10
0.0
 20
0.0
 11
22.0
 21
17.0
 12
0.0
 22
0.0
 32
0.0
 14
0.0
 24
0.0
 34
0.0
 15
0.0
 25
0.0
 35
0.0
146
0.0
 13
0.0
 23
0.0
 33
0.0
 16
1.0
 26
0.0
 36
0.0
 17
0.0
 27
1.0
 37
0.0
 76
0
330
205
345
0
346
0
  0
IMAGEDEF
  5
393
102
{ACAD_REACTORS
330
38E
330
38D
102
}
100
AcDbRasterImageDef
 90
0
  1
FHI_assy_2_img_1.png
 10
369.0
 20
92.0
 11
0.0066666667
 21
0.0066666667
280
1
281
0
  0
TABLESTYLE
  5
394
102
{ACAD_REACTORS
330
390
330
286
330
287
102
}
330
390
100
AcDbTableStyle
  3
Standard
 70
0
 71
0
 40
0.06
 41
0.06
280
1
281
1
  7
Standard
140
0.18
170
1
 62
0
 63
7
283
0
  7
Standard
140
0.18
170
1
 62
0
 63
7
283
0
  7
Standard
140
0.18
170
1
 62
0
 63
7
283
0
  0
TABLESTYLE
  5
395
102
{ACAD_REACTORS
330
390
330
285
102
}
330
390
100
AcDbTableStyle
  3
Standard1
 70
1
 71
0
 40
0.06
 41
0.06
280
1
281
1
  7
Standard
140
0.18
170
1
 62
0
 63
7
283
0
  7
Standard
140
0.18
170
1
 62
0
 63
7
283
0
  7
Standard
140
0.18
170
1
 62
0
 63
7
283
0
  0
ENDSEC
  0
EOF
