999
DXF file: FHF_assy_2.dxf
999
Pro/ENGINEER 2014200 by Parametric Technology Corporation
  0
SECTION
  2
HEADER
  9
$ACADVER
  1
AC1021
  9
$DWGCODEPAGE
  3
ANSI_1252
  9
$EXTMAX
 10
22.0
 20
17.0
 30
0.0
  9
$EXTMIN
 10
0.0
 20
0.0
 30
0.0
  9
$LIMMIN
 10
0.0
 20
0.0
  9
$LIMMAX
 10
22.0
 20
17.0
  9
$VIEWCTR
 10
11.0
 20
8.5
  9
$VIEWSIZE
 40
17.0
  9
$CLAYER
  8
0
  9
$LTSCALE
 40
1.21
  9
$CELTYPE
  6
BYLAYER
  9
$DIMSCALE
 40
1.0
  9
$DIMASZ
 40
0.1875
  9
$DIMEXO
 40
0.0625
  9
$DIMDLI
 40
0.836
  9
$DIMEXE
 40
0.125
  9
$DIMCEN
 40
0.198
  9
$DIMLFAC
 40
1.0
  9
$DIMBLK
  1
_FILLED
  9
$DIMTXT
 40
0.1
  9
$DIMTOL
 70
0
  9
$DIMLIM
 70
0
  9
$DIMTFAC
 40
1.0
  9
$DIMGAP
 40
0.09
  9
$DIMDSEP
 70
46
  9
$AUNITS
 70
0
  9
$PDMODE
 70
3
  9
$PDSIZE
 40
0.3125
  9
$HANDSEED
  5
39A
  9
$TILEMODE
 70
1
  9
$MEASUREMENT
 70
0
  9
$INSUNITS
 70
1
  0
ENDSEC
  0
SECTION
  2
CLASSES
  0
CLASS
  1
ACDBDICTIONARYWDFLT
  2
AcDbDictionaryWithDefault
  3
AutoCAD 2000
 90
0
 91
1
280
0
281
0
  0
CLASS
  1
ACDBPLACEHOLDER
  2
AcDbPlaceHolder
  3
AutoCAD 2000
 90
0
 91
1
280
0
281
0
  0
CLASS
  1
LAYOUT
  2
AcDbLayout
  3
AutoCAD 2000
 90
0
 91
0
280
0
281
0
  0
CLASS
  1
RASTERVARIABLES
  2
AcDbRasterVariables
  3
ISM
 90
0
 91
1
280
0
281
0
  0
CLASS
  1
IMAGEDEF
  2
AcDbRasterImageDef
  3
ISM
 90
0
 91
1
280
0
281
0
  0
CLASS
  1
IMAGEDEF_REACTOR
  2
AcDbRasterImageDefReactor
  3
ISM
 90
0
 91
1
280
0
281
0
  0
CLASS
  1
IMAGE
  2
AcDbRasterImage
  3
ISM
 90
127
 91
1
280
0
281
1
  0
CLASS
  1
TABLESTYLE
  2
AcDbTableStyle
  3
ObjectDBX Classes
 90
2047
 91
1
280
0
281
0
  0
CLASS
  1
ACAD_TABLE
  2
AcDbTable
  3
ObjectDBX Classes
 90
1025
 91
3
280
0
281
1
  0
ENDSEC
  0
SECTION
  2
TABLES
  0
TABLE
  2
VPORT
  5
8
100
AcDbSymbolTable
 70
2
  0
VPORT
  5
1F4
100
AcDbSymbolTableRecord
100
AcDbViewportTableRecord
  2
*ACTIVE
 70
0
 10
0.0
 20
0.0
 11
1.0
 21
1.0
 12
11.0
 22
8.5
 13
0.0
 23
0.0
 14
1.0
 24
1.0
 15
0.0
 25
0.0
 16
0.0
 26
0.0
 36
1.0
 17
0.0
 27
0.0
 37
0.0
 40
17.0
 41
1.2941176471
 42
50.0
 43
0.0
 44
0.0
 50
0.0
 51
0.0
 71
0
 72
100
 73
1
 74
1
 75
0
 76
0
 77
0
 78
0
  0
ENDTAB
  0
TABLE
  2
LTYPE
  5
5
100
AcDbSymbolTable
 70
6
  0
LTYPE
  5
14
100
AcDbSymbolTableRecord
100
AcDbLinetypeTableRecord
  2
BYBLOCK
 70
0
  3

 72
65
 73
0
 40
0.0
  0
LTYPE
  5
15
100
AcDbSymbolTableRecord
100
AcDbLinetypeTableRecord
  2
BYLAYER
 70
0
  3

 72
65
 73
0
 40
0.0
  0
LTYPE
  5
16
100
AcDbSymbolTableRecord
100
AcDbLinetypeTableRecord
  2
CONTINUOUS
 70
64
  3
Solid line
 72
65
 73
0
 40
0.0
  0
LTYPE
  5
1F5
100
AcDbSymbolTableRecord
100
AcDbLinetypeTableRecord
  2
CENTER
 70
64
  3
____ _ ____ _ ____ _ ____ _ ____ _ ____ _ ____
 72
65
 73
4
 40
0.6
 49
0.375
 74
0
 49
-0.075
 74
0
 49
0.075
 74
0
 49
-0.075
 74
0
  0
LTYPE
  5
1F6
100
AcDbSymbolTableRecord
100
AcDbLinetypeTableRecord
  2
HIDDEN
 70
64
  3
- - - - - - - - - - - - - - - - - - - -
 72
65
 73
2
 40
0.2
 49
0.1
 74
0
 49
-0.1
 74
0
  0
LTYPE
  5
1F7
100
AcDbSymbolTableRecord
100
AcDbLinetypeTableRecord
  2
PHANTOM
 70
64
  3
_____ _ _ _____ _ _ _____ _ _ _____
 72
65
 73
6
 40
0.8
 49
0.45
 74
0
 49
-0.05
 74
0
 49
0.1
 74
0
 49
-0.05
 74
0
 49
0.1
 74
0
 49
-0.05
 74
0
  0
LTYPE
  5
1F8
100
AcDbSymbolTableRecord
100
AcDbLinetypeTableRecord
  2
DOT
 70
64
  3
. . . . . . . . . . . . . . . . . . . .
 72
65
 73
2
 40
0.2
 49
0.1
 74
0
 49
-0.1
 74
0
  0
LTYPE
  5
1F9
100
AcDbSymbolTableRecord
100
AcDbLinetypeTableRecord
  2
DASHED
 70
64
  3
- - - - - - - - - - - - - - - - - - - -
 72
65
 73
2
 40
0.2
 49
0.1
 74
0
 49
-0.1
 74
0
  0
ENDTAB
  0
TABLE
  2
LAYER
  5
2
100
AcDbSymbolTable
 70
36
  0
LAYER
  5
10
100
AcDbSymbolTableRecord
100
AcDbLayerTableRecord
  2
0
 70
0
 62
7
  6
CONTINUOUS
370
-3
390
F
  0
LAYER
  5
1FA
100
AcDbSymbolTableRecord
100
AcDbLayerTableRecord
  2
DEFAULT_1
 70
0
 62
7
  6
CENTER
370
-3
390
F
  0
LAYER
  5
1FB
100
AcDbSymbolTableRecord
100
AcDbLayerTableRecord
  2
DEFAULT_2
 70
0
 62
8
  6
HIDDEN
370
-3
390
F
  0
LAYER
  5
1FC
100
AcDbSymbolTableRecord
100
AcDbLayerTableRecord
  2
DEFAULT_3
 70
0
 62
7
  6
PHANTOM
370
-3
390
F
  0
LAYER
  5
1FD
100
AcDbSymbolTableRecord
100
AcDbLayerTableRecord
  2
01___PRT_ALL_DTM_PLN
 70
0
 62
7
  6
CONTINUOUS
370
-3
390
F
  0
LAYER
  5
1FE
100
AcDbSymbolTableRecord
100
AcDbLayerTableRecord
  2
01___PRT_DEF_DTM_PLN
 70
0
 62
7
  6
CONTINUOUS
370
-3
390
F
  0
LAYER
  5
1FF
100
AcDbSymbolTableRecord
100
AcDbLayerTableRecord
  2
02___PRT_ALL_AXES
 70
0
 62
7
  6
CONTINUOUS
370
-3
390
F
  0
LAYER
  5
200
100
AcDbSymbolTableRecord
100
AcDbLayerTableRecord
  2
03___PRT_ALL_CURVES
 70
0
 62
7
  6
CONTINUOUS
370
-3
390
F
  0
LAYER
  5
201
100
AcDbSymbolTableRecord
100
AcDbLayerTableRecord
  2
04___PRT_ALL_DTM_PNT
 70
0
 62
7
  6
CONTINUOUS
370
-3
390
F
  0
LAYER
  5
202
100
AcDbSymbolTableRecord
100
AcDbLayerTableRecord
  2
05___PRT_ALL_DTM_CSYS
 70
0
 62
7
  6
CONTINUOUS
370
-3
390
F
  0
LAYER
  5
203
100
AcDbSymbolTableRecord
100
AcDbLayerTableRecord
  2
05___PRT_DEF_DTM_CSYS
 70
0
 62
7
  6
CONTINUOUS
370
-3
390
F
  0
LAYER
  5
204
100
AcDbSymbolTableRecord
100
AcDbLayerTableRecord
  2
06___PRT_ALL_SURFS
 70
0
 62
7
  6
CONTINUOUS
370
-3
390
F
  0
LAYER
  5
205
100
AcDbSymbolTableRecord
100
AcDbLayerTableRecord
  2
DATUM_PLANES
 70
0
 62
7
  6
CONTINUOUS
370
-3
390
F
  0
LAYER
  5
206
100
AcDbSymbolTableRecord
100
AcDbLayerTableRecord
  2
PORT_AREAS
 70
0
 62
7
  6
CONTINUOUS
370
-3
390
F
  0
LAYER
  5
207
100
AcDbSymbolTableRecord
100
AcDbLayerTableRecord
  2
SUNNBOMCOSMETIC
 70
0
 62
7
  6
CONTINUOUS
370
-3
390
F
  0
LAYER
  5
208
100
AcDbSymbolTableRecord
100
AcDbLayerTableRecord
  2
SUNNBOMSTAMPING
 70
0
 62
7
  6
CONTINUOUS
370
-3
390
F
  0
LAYER
  5
209
100
AcDbSymbolTableRecord
100
AcDbLayerTableRecord
  2
THREADS
 70
0
 62
7
  6
CONTINUOUS
370
-3
390
F
  0
ENDTAB
  0
TABLE
  2
STYLE
  5
3
100
AcDbSymbolTable
 70
1
  0
STYLE
  5
11
100
AcDbSymbolTableRecord
100
AcDbTextStyleTableRecord
  2
STANDARD
 70
0
 40
0.0
 41
0.8
 50
0.0
 71
0
 42
0.2
  3
txt
  4

  0
STYLE
  5
20A
100
AcDbSymbolTableRecord
100
AcDbTextStyleTableRecord
  2
TEXTSTYLE_1
 70
0
 40
0.0
 41
0.8
 50
0.0
 71
0
 42
0.2
  3
gdt
  4

  0
ENDTAB
  0
TABLE
  2
VIEW
  5
6
100
AcDbSymbolTable
 70
0
  0
ENDTAB
  0
TABLE
  2
UCS
  5
7
100
AcDbSymbolTable
 70
0
  0
ENDTAB
  0
TABLE
  2
APPID
  5
9
100
AcDbSymbolTable
 70
1
  0
APPID
  5
20B
100
AcDbSymbolTableRecord
100
AcDbRegAppTableRecord
  2
ACAD
 70
0
  0
ENDTAB
  0
TABLE
  2
BLOCK_RECORD
  5
1
100
AcDbSymbolTable
 70
0
  0
BLOCK_RECORD
  5
20C
100
AcDbSymbolTableRecord
100
AcDbBlockTableRecord
  2
*Model_Space
  0
BLOCK_RECORD
  5
20D
100
AcDbSymbolTableRecord
100
AcDbBlockTableRecord
  2
*Paper_Space
  0
BLOCK_RECORD
  5
20E
100
AcDbSymbolTableRecord
100
AcDbBlockTableRecord
  2
SUN_FIRST_THIRD_ANGLE_BL0
  0
BLOCK_RECORD
  5
20F
100
AcDbSymbolTableRecord
100
AcDbBlockTableRecord
  2
*T1
  0
BLOCK_RECORD
  5
210
100
AcDbSymbolTableRecord
100
AcDbBlockTableRecord
  2
*T2
  0
BLOCK_RECORD
  5
211
100
AcDbSymbolTableRecord
100
AcDbBlockTableRecord
  2
*T3
  0
ENDTAB
  0
TABLE
  2
DIMSTYLE
  5
A
100
AcDbSymbolTable
 70
1
100
AcDbDimStyleTable
 71
0
  0
DIMSTYLE
105
212
100
AcDbSymbolTableRecord
100
AcDbDimStyleTableRecord
  2
STANDARD
 70
0
  3

  4

 40
1.0
 41
0.1875
 42
0.0625
 43
0.38
 44
0.125
 45
0.0
 46
0.0
 47
0.001
 48
0.001
140
0.1
141
0.09
142
0.0
143
25.4
144
1.0
145
0.0
146
1.0
147
0.09
 71
0.0
 72
0.0
 73
1
 74
1
 75
0
 76
0
 77
0
 78
4
170
0
171
2
172
0
173
0
174
0
175
0
176
0
177
0
178
0
270
2
271
3
272
3
273
2
274
2
275
0
280
0
281
0
282
0
283
1
284
4
285
0
286
0
287
3
288
0
340
11
278
46
  0
ENDTAB
  0
ENDSEC
  0
SECTION
  2
BLOCKS
  0
BLOCK
  5
20
100
AcDbEntity
  8
0
100
AcDbBlockBegin
  2
*Model_Space
 70
0
 10
0.0
 20
0.0
 30
0.0
  3
*Model_Space
  1

  0
ENDBLK
  5
21
100
AcDbEntity
  8
0
100
AcDbBlockEnd
  0
BLOCK
  5
1C
100
AcDbEntity
  8
0
100
AcDbBlockBegin
  2
*Paper_Space
 70
0
 10
0.0
 20
0.0
 30
0.0
  3
*Paper_Space
  1

  0
ENDBLK
  5
1D
100
AcDbEntity
  8
0
100
AcDbBlockEnd
  0
BLOCK
  5
213
100
AcDbEntity
  8
0
100
AcDbBlockBegin
 62
2
  6
CONTINUOUS
  2
SUN_FIRST_THIRD_ANGLE_BL0
 70
64
 10
20.4816717061
 20
1.2289683772
  3
SUN_FIRST_THIRD_ANGLE_BL0
  1

  0
TEXT
  5
214
100
AcDbEntity
  8
0
100
AcDbText
 62
2
  6
CONTINUOUS
 10
19.4750896608
 20
1.4136269581
  7
STANDARD
 40
0.08
  1
FIRST ANGLE
 41
0.8
 72
0
100
AcDbText
  0
TEXT
  5
215
100
AcDbEntity
  8
0
100
AcDbText
 62
2
  6
CONTINUOUS
 10
20.7842537513
 20
1.4047600029
  7
STANDARD
 40
0.08
  1
THIRD ANGLE
 41
0.8
 72
0
100
AcDbText
  0
LINE
  5
216
100
AcDbEntity
  8
0
100
AcDbLine
 62
7
  6
CONTINUOUS
 10
19.4767170086
 20
1.1727031207
 11
19.6334271527
 21
1.1717972817
  0
LINE
  5
217
100
AcDbEntity
  8
0
100
AcDbLine
 62
7
  6
CONTINUOUS
 10
19.6596964832
 20
1.1717972817
 11
19.6950230232
 21
1.171593082
  0
LINE
  5
218
100
AcDbEntity
  8
0
100
AcDbLine
 62
7
  6
CONTINUOUS
 10
19.7194818561
 20
1.1708914427
 11
19.8852396156
 21
1.1699333054
  0
LINE
  5
219
100
AcDbEntity
  8
0
100
AcDbLine
 62
7
  6
CONTINUOUS
 10
19.4758111696
 20
1.2723454088
 11
19.88525039
 21
1.3511534004
  0
LINE
  5
21A
100
AcDbEntity
  8
0
100
AcDbLine
 62
7
  6
CONTINUOUS
 10
19.88525039
 20
1.3511534004
 11
19.8831348489
 21
0.9851647912
  0
LINE
  5
21B
100
AcDbEntity
  8
0
100
AcDbLine
 62
7
  6
CONTINUOUS
 10
19.8831348489
 20
0.9851647912
 11
19.4767170086
 21
1.0658141206
  0
LINE
  5
21C
100
AcDbEntity
  8
0
100
AcDbLine
 62
7
  6
CONTINUOUS
 10
19.4767170086
 20
1.0658141206
 11
19.4779056764
 21
1.2714536432
  0
CIRCLE
  5
21D
100
AcDbEntity
  8
0
100
AcDbCircle
 62
7
  6
CONTINUOUS
 10
20.2068232291
 20
1.1717972817
 40
0.175742101
  0
CIRCLE
  5
21E
100
AcDbEntity
  8
0
100
AcDbCircle
 62
7
  6
CONTINUOUS
 10
20.2068232291
 20
1.1717972817
 40
0.1005522074
  0
LINE
  5
21F
100
AcDbEntity
  8
0
100
AcDbLine
 62
7
  6
CONTINUOUS
 10
20.2077290681
 20
1.3756110529
 11
20.2071171714
 21
1.2379342989
  0
LINE
  5
220
100
AcDbEntity
  8
0
100
AcDbLine
 62
7
  6
CONTINUOUS
 10
20.2077290681
 20
1.2016899681
 11
20.2074674401
 21
1.1428236749
  0
LINE
  5
221
100
AcDbEntity
  8
0
100
AcDbLine
 62
7
  6
CONTINUOUS
 10
20.208634907
 20
1.101141841
 11
20.2080230104
 21
0.963465087
  0
LINE
  5
222
100
AcDbEntity
  8
0
100
AcDbLine
 62
7
  6
CONTINUOUS
 10
20.0066328138
 20
1.1745147986
 11
20.1443095678
 21
1.1739029019
  0
LINE
  5
223
100
AcDbEntity
  8
0
100
AcDbLine
 62
7
  6
CONTINUOUS
 10
20.1832714155
 20
1.1727031207
 11
20.238153505
 21
1.172335442
  0
LINE
  5
224
100
AcDbEntity
  8
0
100
AcDbLine
 62
7
  6
CONTINUOUS
 10
20.2756669918
 20
1.1717972817
 11
20.407916871
 21
1.1712095044
  0
CIRCLE
  5
225
100
AcDbEntity
  8
0
100
AcDbCircle
 62
7
  6
CONTINUOUS
 10
20.7509457401
 20
1.1693297793
 40
0.1722024983
  0
CIRCLE
  5
226
100
AcDbEntity
  8
0
100
AcDbCircle
 62
7
  6
CONTINUOUS
 10
20.7509457401
 20
1.1693297793
 40
0.0985164967
  0
LINE
  5
227
100
AcDbEntity
  8
0
100
AcDbLine
 62
7
  6
CONTINUOUS
 10
20.7169767782
 20
1.170462078
 11
20.7825395137
 21
1.1682766535
  0
LINE
  5
228
100
AcDbEntity
  8
0
100
AcDbLine
 62
7
  6
CONTINUOUS
 10
20.8177513651
 20
1.1693297793
 11
20.947965719
 21
1.1693297793
  0
LINE
  5
229
100
AcDbEntity
  8
0
100
AcDbLine
 62
7
  6
CONTINUOUS
 10
20.6875370113
 20
1.170462078
 11
20.5573226574
 21
1.170462078
  0
LINE
  5
22A
100
AcDbEntity
  8
0
100
AcDbLine
 62
7
  6
CONTINUOUS
 10
20.7486811426
 20
1.1987695462
 11
20.7486811426
 21
1.1432869085
  0
LINE
  5
22B
100
AcDbEntity
  8
0
100
AcDbLine
 62
7
  6
CONTINUOUS
 10
20.7498134414
 20
1.1059210505
 11
20.7498134414
 21
0.9757066966
  0
LINE
  5
22C
100
AcDbEntity
  8
0
100
AcDbLine
 62
7
  6
CONTINUOUS
 10
20.7486811426
 20
1.2338708068
 11
20.7486811426
 21
1.3640851607
  0
LINE
  5
22D
100
AcDbEntity
  8
0
100
AcDbLine
 62
7
  6
CONTINUOUS
 10
21.0702539817
 20
1.2701043662
 11
21.4790138229
 21
1.3448360823
  0
LINE
  5
22E
100
AcDbEntity
  8
0
100
AcDbLine
 62
7
  6
CONTINUOUS
 10
21.4790138229
 20
1.3448360823
 11
21.4790138229
 21
0.9779712941
  0
LINE
  5
22F
100
AcDbEntity
  8
0
100
AcDbLine
 62
7
  6
CONTINUOUS
 10
21.4790138229
 20
0.9779712941
 11
21.069121683
 21
1.0617614
  0
LINE
  5
230
100
AcDbEntity
  8
0
100
AcDbLine
 62
7
  6
CONTINUOUS
 10
21.0702539817
 20
1.2701043662
 11
21.069121683
 21
1.0617614
  0
LINE
  5
231
100
AcDbEntity
  8
0
100
AcDbLine
 62
7
  6
CONTINUOUS
 10
21.4790138229
 20
1.1693297793
 11
21.3159628059
 21
1.1693297793
  0
LINE
  5
232
100
AcDbEntity
  8
0
100
AcDbLine
 62
7
  6
CONTINUOUS
 10
21.2876553377
 20
1.1693297793
 11
21.2502894796
 21
1.1693297793
  0
LINE
  5
233
100
AcDbEntity
  8
0
100
AcDbLine
 62
7
  6
CONTINUOUS
 10
21.2208497126
 20
1.1659328831
 11
21.0713862804
 21
1.1659328831
  0
LINE
  5
234
100
AcDbEntity
  8
0
100
AcDbLine
 62
7
  6
CONTINUOUS
 10
20.4796138713
 20
1.5284908897
 11
20.4766766948
 21
0.9294458646
  0
ENDBLK
  5
235
100
AcDbEntity
  8
0
  6
BYBLOCK
 62
0
100
AcDbBlockEnd
  0
BLOCK
  5
236
100
AcDbEntity
  8
0
100
AcDbBlockBegin
  2
*T1
 70
1
 10
0.0
 20
0.0
  3
*T1
  1

  0
LINE
  5
237
100
AcDbEntity
  8
0
100
AcDbLine
 62
2
  6
CONTINUOUS
 10
9.275
 20
0.0
 11
-0.0
 21
0.0
  0
LINE
  5
238
100
AcDbEntity
  8
0
100
AcDbLine
 62
2
  6
CONTINUOUS
 10
9.275
 20
0.0
 11
9.275
 21
1.25
  0
LINE
  5
239
100
AcDbEntity
  8
0
100
AcDbLine
 62
2
  6
CONTINUOUS
 10
9.275
 20
0.625
 11
-0.0
 21
0.625
  0
LINE
  5
23A
100
AcDbEntity
  8
0
100
AcDbLine
 62
2
  6
CONTINUOUS
 10
9.275
 20
1.25
 11
-0.0
 21
1.25
  0
LINE
  5
23B
100
AcDbEntity
  8
0
100
AcDbLine
 62
2
  6
CONTINUOUS
 10
6.8
 20
0.0
 11
6.8
 21
1.25
  0
LINE
  5
23C
100
AcDbEntity
  8
0
100
AcDbLine
 62
2
  6
CONTINUOUS
 10
6.4
 20
0.0
 11
6.4
 21
0.625
  0
LINE
  5
23D
100
AcDbEntity
  8
0
100
AcDbLine
 62
2
  6
CONTINUOUS
 10
5.9
 20
0.0
 11
5.9
 21
0.625
  0
LINE
  5
23E
100
AcDbEntity
  8
0
100
AcDbLine
 62
2
  6
CONTINUOUS
 10
5.2
 20
0.0
 11
5.2
 21
0.625
  0
LINE
  5
23F
100
AcDbEntity
  8
0
100
AcDbLine
 62
2
  6
CONTINUOUS
 10
4.1
 20
0.0
 11
4.1
 21
1.25
  0
LINE
  5
240
100
AcDbEntity
  8
0
100
AcDbLine
 62
2
  6
CONTINUOUS
 10
-0.0
 20
0.0
 11
-0.0
 21
1.25
  0
MTEXT
  5
241
100
AcDbEntity
  8
0
100
AcDbMText
 62
2
  6
CONTINUOUS
  7
STANDARD
 71
2
 72
1
 10
6.6
 20
0.325
 30
0.0
 11
1.0
 21
0.0
 31
0.0
 44
0.9
  1
2
 40
0.125
 41
0.2
  0
MTEXT
  5
242
100
AcDbEntity
  8
0
100
AcDbMText
 62
2
  6
CONTINUOUS
  7
STANDARD
 71
2
 72
1
 10
6.15
 20
0.325
 30
0.0
 11
1.0
 21
0.0
 31
0.0
 44
0.9
  1
C
 40
0.125
 41
0.2
  0
MTEXT
  5
243
100
AcDbEntity
  8
0
100
AcDbMText
 62
2
  6
CONTINUOUS
  7
STANDARD
 71
2
 72
1
 10
5.55
 20
0.325
 30
0.0
 11
1.0
 21
0.0
 31
0.0
 44
0.9
  1
2.000
 40
0.125
 41
1.0
  0
MTEXT
  5
244
100
AcDbEntity
  8
0
100
AcDbMText
 62
2
  6
CONTINUOUS
  7
STANDARD
 71
2
 72
1
 10
4.65
 20
0.325
 30
0.0
 11
1.0
 21
0.0
 31
0.0
 44
0.9
  1
Nov-10-21
 40
0.125
 41
1.8
  0
MTEXT
  5
245
100
AcDbEntity
  8
0
100
AcDbMText
 62
2
  6
CONTINUOUS
  7
STANDARD
 71
2
 72
1
 10
2.05
 20
0.4625
 30
0.0
 11
1.0
 21
0.0
 31
0.0
 44
0.9
  1
T-10A Line mount\PCross port with make up checks
 40
0.125
 41
6.0
  0
MTEXT
  5
246
100
AcDbEntity
  8
0
100
AcDbMText
 62
2
  6
CONTINUOUS
  7
STANDARD
 71
1
 72
1
 10
6.45
 20
0.5625
 30
0.0
 11
1.0
 21
0.0
 31
0.0
 44
0.9
  1
SHEET
 40
0.06
 41
0.48
  0
MTEXT
  5
247
100
AcDbEntity
  8
0
100
AcDbMText
 62
2
  6
CONTINUOUS
  7
STANDARD
 71
1
 72
1
 10
5.95
 20
0.5625
 30
0.0
 11
1.0
 21
0.0
 31
0.0
 44
0.9
  1
DWG SIZE
 40
0.06
 41
0.768
  0
MTEXT
  5
248
100
AcDbEntity
  8
0
100
AcDbMText
 62
2
  6
CONTINUOUS
  7
STANDARD
 71
1
 72
1
 10
5.25
 20
0.5625
 30
0.0
 11
1.0
 21
0.0
 31
0.0
 44
0.9
  1
SCALE
 40
0.06
 41
0.48
  0
MTEXT
  5
249
100
AcDbEntity
  8
0
100
AcDbMText
 62
2
  6
CONTINUOUS
  7
STANDARD
 71
1
 72
1
 10
4.15
 20
0.5625
 30
0.0
 11
1.0
 21
0.0
 31
0.0
 44
0.9
  1
DATE
 40
0.06
 41
0.384
  0
MTEXT
  5
24A
100
AcDbEntity
  8
0
100
AcDbMText
 62
2
  6
CONTINUOUS
  7
STANDARD
 71
1
 72
1
 10
0.05
 20
0.5625
 30
0.0
 11
1.0
 21
0.0
 31
0.0
 44
0.9
  1
DESCRIPTION
 40
0.06
 41
1.056
  0
MTEXT
  5
24B
100
AcDbEntity
  8
0
100
AcDbMText
 62
2
  6
CONTINUOUS
  7
STANDARD
 71
2
 72
1
 10
5.45
 20
1.0375
 30
0.0
 11
1.0
 21
0.0
 31
0.0
 44
0.9
  1
ALL DIMENSIONS IN INCH\PVIEWS ARE THIRD ANGLE
 40
0.12
 41
4.224
  0
MTEXT
  5
24C
100
AcDbEntity
  8
0
100
AcDbMText
 62
2
  6
CONTINUOUS
  7
STANDARD
 71
2
 72
1
 10
2.05
 20
0.95
 30
0.0
 11
1.0
 21
0.0
 31
0.0
 44
0.9
  1
FHF
 40
0.125
 41
0.6
  0
MTEXT
  5
24D
100
AcDbEntity
  8
0
100
AcDbMText
 62
2
  6
CONTINUOUS
  7
STANDARD
 71
1
 72
1
 10
0.05
 20
1.1875
 30
0.0
 11
1.0
 21
0.0
 31
0.0
 44
0.9
  1
MODEL
 40
0.06
 41
0.48
  0
ENDBLK
  5
24E
100
AcDbEntity
  8
0
  6
BYBLOCK
 62
0
100
AcDbBlockEnd
  0
BLOCK
  5
24F
100
AcDbEntity
  8
0
100
AcDbBlockBegin
  2
*T2
 70
1
 10
0.0
 20
0.0
  3
*T2
  1

  0
LINE
  5
250
100
AcDbEntity
  8
0
100
AcDbLine
 62
2
  6
CONTINUOUS
 10
0.0
 20
0.0
 11
9.055
 21
0.0
  0
LINE
  5
251
100
AcDbEntity
  8
0
100
AcDbLine
 62
2
  6
CONTINUOUS
 10
0.0
 20
0.0
 11
0.0
 21
-2.594
  0
LINE
  5
252
100
AcDbEntity
  8
0
100
AcDbLine
 62
2
  6
CONTINUOUS
 10
0.0
 20
-0.344
 11
9.055
 21
-0.344
  0
LINE
  5
253
100
AcDbEntity
  8
0
100
AcDbLine
 62
2
  6
CONTINUOUS
 10
0.0
 20
-0.594
 11
9.055
 21
-0.594
  0
LINE
  5
254
100
AcDbEntity
  8
0
100
AcDbLine
 62
2
  6
CONTINUOUS
 10
0.0
 20
-0.844
 11
9.055
 21
-0.844
  0
LINE
  5
255
100
AcDbEntity
  8
0
100
AcDbLine
 62
2
  6
CONTINUOUS
 10
0.0
 20
-1.094
 11
9.055
 21
-1.094
  0
LINE
  5
256
100
AcDbEntity
  8
0
100
AcDbLine
 62
2
  6
CONTINUOUS
 10
0.0
 20
-1.344
 11
9.055
 21
-1.344
  0
LINE
  5
257
100
AcDbEntity
  8
0
100
AcDbLine
 62
2
  6
CONTINUOUS
 10
0.0
 20
-1.594
 11
9.055
 21
-1.594
  0
LINE
  5
258
100
AcDbEntity
  8
0
100
AcDbLine
 62
2
  6
CONTINUOUS
 10
0.0
 20
-1.844
 11
9.055
 21
-1.844
  0
LINE
  5
259
100
AcDbEntity
  8
0
100
AcDbLine
 62
2
  6
CONTINUOUS
 10
0.0
 20
-2.094
 11
9.055
 21
-2.094
  0
LINE
  5
25A
100
AcDbEntity
  8
0
100
AcDbLine
 62
2
  6
CONTINUOUS
 10
0.0
 20
-2.344
 11
9.055
 21
-2.344
  0
LINE
  5
25B
100
AcDbEntity
  8
0
100
AcDbLine
 62
2
  6
CONTINUOUS
 10
0.0
 20
-2.594
 11
9.055
 21
-2.594
  0
LINE
  5
25C
100
AcDbEntity
  8
0
100
AcDbLine
 62
2
  6
CONTINUOUS
 10
3.055
 20
0.0
 11
3.055
 21
-2.594
  0
LINE
  5
25D
100
AcDbEntity
  8
0
100
AcDbLine
 62
2
  6
CONTINUOUS
 10
9.055
 20
0.0
 11
9.055
 21
-2.594
  0
MTEXT
  5
25E
100
AcDbEntity
  8
0
100
AcDbMText
 62
2
  6
CONTINUOUS
  7
STANDARD
 71
2
 72
1
 10
1.5275
 20
-0.0995
 30
0.0
 11
1.0
 21
0.0
 31
0.0
 44
0.9
  1
Technical Data
 40
0.145
 41
3.248
  0
MTEXT
  5
25F
100
AcDbEntity
  8
0
100
AcDbMText
 62
2
  6
CONTINUOUS
  7
STANDARD
 71
2
 72
1
 10
4.555
 20
-0.0995
 30
0.0
 11
1.0
 21
0.0
 31
0.0
 44
0.9
  1
U.S. Units
 40
0.145
 41
2.32
  0
MTEXT
  5
260
100
AcDbEntity
  8
0
100
AcDbMText
 62
2
  6
CONTINUOUS
  7
STANDARD
 71
2
 72
1
 10
7.555
 20
-0.0995
 30
0.0
 11
1.0
 21
0.0
 31
0.0
 44
0.9
  1
Metric Units
 40
0.145
 41
2.784
  0
MTEXT
  5
261
100
AcDbEntity
  8
0
100
AcDbMText
 62
2
  6
CONTINUOUS
  7
STANDARD
 71
2
 72
1
 10
1.5275
 20
-0.4065
 30
0.0
 11
1.0
 21
0.0
 31
0.0
 44
0.9
  1
Cavity
 40
0.125
 41
1.2
  0
MTEXT
  5
262
100
AcDbEntity
  8
0
100
AcDbMText
 62
2
  6
CONTINUOUS
  7
STANDARD
 71
2
 72
1
 10
6.055
 20
-0.4065
 30
0.0
 11
1.0
 21
0.0
 31
0.0
 44
0.9
  1
T-10A
 40
0.125
 41
1.0
  0
MTEXT
  5
263
100
AcDbEntity
  8
0
100
AcDbMText
 62
2
  6
CONTINUOUS
  7
STANDARD
 71
2
 72
1
 10
1.5275
 20
-0.6565
 30
0.0
 11
1.0
 21
0.0
 31
0.0
 44
0.9
  1
Body Features
 40
0.125
 41
2.6
  0
MTEXT
  5
264
100
AcDbEntity
  8
0
100
AcDbMText
 62
2
  6
CONTINUOUS
  7
STANDARD
 71
2
 72
1
 10
6.055
 20
-0.6565
 30
0.0
 11
1.0
 21
0.0
 31
0.0
 44
0.9
  1
Cross port with make up checks
 40
0.125
 41
6.0
  0
MTEXT
  5
265
100
AcDbEntity
  8
0
100
AcDbMText
 62
2
  6
CONTINUOUS
  7
STANDARD
 71
2
 72
1
 10
1.5275
 20
-0.9065
 30
0.0
 11
1.0
 21
0.0
 31
0.0
 44
0.9
  1
Body Type
 40
0.125
 41
1.8
  0
MTEXT
  5
266
100
AcDbEntity
  8
0
100
AcDbMText
 62
2
  6
CONTINUOUS
  7
STANDARD
 71
2
 72
1
 10
6.055
 20
-0.9065
 30
0.0
 11
1.0
 21
0.0
 31
0.0
 44
0.9
  1
Line mount
 40
0.125
 41
2.0
  0
MTEXT
  5
267
100
AcDbEntity
  8
0
100
AcDbMText
 62
2
  6
CONTINUOUS
  7
STANDARD
 71
2
 72
1
 10
1.5275
 20
-1.1565
 30
0.0
 11
1.0
 21
0.0
 31
0.0
 44
0.9
  1
Interface
 40
0.125
 41
1.8
  0
MTEXT
  5
268
100
AcDbEntity
  8
0
100
AcDbMText
 62
2
  6
CONTINUOUS
  7
STANDARD
 71
2
 72
1
 10
6.055
 20
-1.1565
 30
0.0
 11
1.0
 21
0.0
 31
0.0
 44
0.9
  1
None
 40
0.125
 41
0.8
  0
MTEXT
  5
269
100
AcDbEntity
  8
0
100
AcDbMText
 62
2
  6
CONTINUOUS
  7
STANDARD
 71
2
 72
1
 10
1.5275
 20
-1.4065
 30
0.0
 11
1.0
 21
0.0
 31
0.0
 44
0.9
  1
Open Cavity Quantity
 40
0.125
 41
4.0
  0
MTEXT
  5
26A
100
AcDbEntity
  8
0
100
AcDbMText
 62
2
  6
CONTINUOUS
  7
STANDARD
 71
2
 72
1
 10
6.055
 20
-1.4065
 30
0.0
 11
1.0
 21
0.0
 31
0.0
 44
0.9
  1
2
 40
0.125
 41
0.2
  0
MTEXT
  5
26B
100
AcDbEntity
  8
0
100
AcDbMText
 62
2
  6
CONTINUOUS
  7
STANDARD
 71
2
 72
1
 10
1.5275
 20
-1.6565
 30
0.0
 11
1.0
 21
0.0
 31
0.0
 44
0.9
  1
Weight
 40
0.125
 41
1.2
  0
MTEXT
  5
26C
100
AcDbEntity
  8
0
100
AcDbMText
 62
2
  6
CONTINUOUS
  7
STANDARD
 71
2
 72
1
 10
4.555
 20
-1.6565
 30
0.0
 11
1.0
 21
0.0
 31
0.0
 44
0.9
  1
2.974 lb.
 40
0.125
 41
1.8
  0
MTEXT
  5
26D
100
AcDbEntity
  8
0
100
AcDbMText
 62
2
  6
CONTINUOUS
  7
STANDARD
 71
2
 72
1
 10
7.555
 20
-1.6565
 30
0.0
 11
1.0
 21
0.0
 31
0.0
 44
0.9
  1
1,349 kg.
 40
0.125
 41
1.8
  0
MTEXT
  5
26E
100
AcDbEntity
  8
0
100
AcDbMText
 62
2
  6
CONTINUOUS
  7
STANDARD
 71
2
 72
1
 10
1.5275
 20
-1.9065
 30
0.0
 11
1.0
 21
0.0
 31
0.0
 44
0.9
  1
Mounting Hole Diameter
 40
0.125
 41
4.4
  0
MTEXT
  5
26F
100
AcDbEntity
  8
0
100
AcDbMText
 62
2
  6
CONTINUOUS
  7
STANDARD
 71
2
 72
1
 10
4.555
 20
-1.9065
 30
0.0
 11
1.0
 21
0.0
 31
0.0
 44
0.9
  1
.34 in.
 40
0.125
 41
1.4
  0
MTEXT
  5
270
100
AcDbEntity
  8
0
100
AcDbMText
 62
2
  6
CONTINUOUS
  7
STANDARD
 71
2
 72
1
 10
7.555
 20
-1.9065
 30
0.0
 11
1.0
 21
0.0
 31
0.0
 44
0.9
  1
8.6 mm
 40
0.125
 41
1.2
  0
MTEXT
  5
271
100
AcDbEntity
  8
0
100
AcDbMText
 62
2
  6
CONTINUOUS
  7
STANDARD
 71
2
 72
1
 10
1.5275
 20
-2.1565
 30
0.0
 11
1.0
 21
0.0
 31
0.0
 44
0.9
  1
Mounting Hole Depth
 40
0.125
 41
3.8
  0
MTEXT
  5
272
100
AcDbEntity
  8
0
100
AcDbMText
 62
2
  6
CONTINUOUS
  7
STANDARD
 71
2
 72
1
 10
6.055
 20
-2.1565
 30
0.0
 11
1.0
 21
0.0
 31
0.0
 44
0.9
  1
Through
 40
0.125
 41
1.4
  0
MTEXT
  5
273
100
AcDbEntity
  8
0
100
AcDbMText
 62
2
  6
CONTINUOUS
  7
STANDARD
 71
2
 72
1
 10
1.5275
 20
-2.4065
 30
0.0
 11
1.0
 21
0.0
 31
0.0
 44
0.9
  1
Mounting Hole Quantity
 40
0.125
 41
4.4
  0
MTEXT
  5
274
100
AcDbEntity
  8
0
100
AcDbMText
 62
2
  6
CONTINUOUS
  7
STANDARD
 71
2
 72
1
 10
6.055
 20
-2.4065
 30
0.0
 11
1.0
 21
0.0
 31
0.0
 44
0.9
  1
2
 40
0.125
 41
0.2
  0
ENDBLK
  5
275
100
AcDbEntity
  8
0
  6
BYBLOCK
 62
0
100
AcDbBlockEnd
  0
BLOCK
  5
276
100
AcDbEntity
  8
0
100
AcDbBlockBegin
  2
*T3
 70
1
 10
0.0
 20
0.0
  3
*T3
  1

  0
LINE
  5
277
100
AcDbEntity
  8
0
100
AcDbLine
 62
2
  6
CONTINUOUS
 10
0.0
 20
0.0
 11
4.6
 21
0.0
  0
LINE
  5
278
100
AcDbEntity
  8
0
100
AcDbLine
 62
2
  6
CONTINUOUS
 10
0.0
 20
0.0
 11
0.0
 21
-1.18775
  0
LINE
  5
279
100
AcDbEntity
  8
0
100
AcDbLine
 62
2
  6
CONTINUOUS
 10
0.0
 20
-0.34375
 11
4.6
 21
-0.34375
  0
LINE
  5
27A
100
AcDbEntity
  8
0
100
AcDbLine
 62
2
  6
CONTINUOUS
 10
0.0
 20
-0.68775
 11
4.6
 21
-0.68775
  0
LINE
  5
27B
100
AcDbEntity
  8
0
100
AcDbLine
 62
2
  6
CONTINUOUS
 10
0.0
 20
-0.93775
 11
4.6
 21
-0.93775
  0
LINE
  5
27C
100
AcDbEntity
  8
0
100
AcDbLine
 62
2
  6
CONTINUOUS
 10
0.0
 20
-1.18775
 11
4.6
 21
-1.18775
  0
LINE
  5
27D
100
AcDbEntity
  8
0
100
AcDbLine
 62
2
  6
CONTINUOUS
 10
1.3
 20
-0.34375
 11
1.3
 21
-1.18775
  0
LINE
  5
27E
100
AcDbEntity
  8
0
100
AcDbLine
 62
2
  6
CONTINUOUS
 10
3.3
 20
-0.34375
 11
3.3
 21
-1.18775
  0
LINE
  5
27F
100
AcDbEntity
  8
0
100
AcDbLine
 62
2
  6
CONTINUOUS
 10
4.6
 20
0.0
 11
4.6
 21
-1.18775
  0
MTEXT
  5
280
100
AcDbEntity
  8
0
100
AcDbMText
 62
2
  6
CONTINUOUS
  7
STANDARD
 71
2
 72
1
 10
2.3
 20
-0.099375
 30
0.0
 11
1.0
 21
0.0
 31
0.0
 44
0.9
  1
Port Headings
 40
0.145
 41
3.016
  0
MTEXT
  5
281
100
AcDbEntity
  8
0
100
AcDbMText
 62
2
  6
CONTINUOUS
  7
STANDARD
 71
2
 72
1
 10
0.65
 20
-0.44325
 30
0.0
 11
1.0
 21
0.0
 31
0.0
 44
0.9
  1
Product
 40
0.145
 41
1.624
  0
MTEXT
  5
282
100
AcDbEntity
  8
0
100
AcDbMText
 62
2
  6
CONTINUOUS
  7
STANDARD
 71
2
 72
1
 10
2.3
 20
-0.44325
 30
0.0
 11
1.0
 21
0.0
 31
0.0
 44
0.9
  1
Port
 40
0.145
 41
0.928
  0
MTEXT
  5
283
100
AcDbEntity
  8
0
100
AcDbMText
 62
2
  6
CONTINUOUS
  7
STANDARD
 71
2
 72
1
 10
3.95
 20
-0.44325
 30
0.0
 11
1.0
 21
0.0
 31
0.0
 44
0.9
  1
Size
 40
0.145
 41
0.928
  0
MTEXT
  5
284
100
AcDbEntity
  8
0
100
AcDbMText
 62
2
  6
CONTINUOUS
  7
STANDARD
 71
2
 72
1
 10
0.65
 20
-0.75025
 30
0.0
 11
1.0
 21
0.0
 31
0.0
 44
0.9
  1
FHF
 40
0.125
 41
0.6
  0
MTEXT
  5
285
100
AcDbEntity
  8
0
100
AcDbMText
 62
2
  6
CONTINUOUS
  7
STANDARD
 71
2
 72
1
 10
2.3
 20
-0.75025
 30
0.0
 11
1.0
 21
0.0
 31
0.0
 44
0.9
  1
All Other Ports
 40
0.125
 41
3.0
  0
MTEXT
  5
286
100
AcDbEntity
  8
0
100
AcDbMText
 62
2
  6
CONTINUOUS
  7
STANDARD
 71
2
 72
1
 10
3.95
 20
-0.75025
 30
0.0
 11
1.0
 21
0.0
 31
0.0
 44
0.9
  1
SAE 10
 40
0.125
 41
1.2
  0
MTEXT
  5
287
100
AcDbEntity
  8
0
100
AcDbMText
 62
2
  6
CONTINUOUS
  7
STANDARD
 71
2
 72
1
 10
0.65
 20
-1.00025
 30
0.0
 11
1.0
 21
0.0
 31
0.0
 44
0.9
  1
FHF
 40
0.125
 41
0.6
  0
MTEXT
  5
288
100
AcDbEntity
  8
0
100
AcDbMText
 62
2
  6
CONTINUOUS
  7
STANDARD
 71
2
 72
1
 10
2.3
 20
-1.00025
 30
0.0
 11
1.0
 21
0.0
 31
0.0
 44
0.9
  1
Port 5
 40
0.125
 41
1.2
  0
MTEXT
  5
289
100
AcDbEntity
  8
0
100
AcDbMText
 62
2
  6
CONTINUOUS
  7
STANDARD
 71
2
 72
1
 10
3.95
 20
-1.00025
 30
0.0
 11
1.0
 21
0.0
 31
0.0
 44
0.9
  1
SAE 4
 40
0.125
 41
1.0
  0
ENDBLK
  5
28A
100
AcDbEntity
  8
0
  6
BYBLOCK
 62
0
100
AcDbBlockEnd
  0
ENDSEC
  0
SECTION
  2
ENTITIES
  0
IMAGE
  5
28B
100
AcDbEntity
  8
0
100
AcDbRasterImage
 62
7
  6
CONTINUOUS
 10
19.2297077316
 20
0.3094318264
 30
0.0
 11
0.0066666667
 21
0.0
 31
0.0
 12
0.0
 22
0.0066666667
 32
0.0
 13
369.0
 23
92.0
340
       397
 70
9
280
0
281
50
282
50
283
0
360
       391
 71
1
 91
2
 14
-0.5
 24
-0.5
 14
368.5
 24
91.5
  0
INSERT
  5
28C
100
AcDbEntity
  8
0
100
AcDbBlockReference
 62
2
  6
CONTINUOUS
  2
SUN_FIRST_THIRD_ANGLE_BL0
 10
20.4816717061
 20
1.2289683772
  0
ACAD_TABLE
  5
28D
100
AcDbEntity
  8
0
 62
2
  6
CONTINUOUS
100
AcDbBlockReference
  2
*T1
 10
12.42375
 20
0.30125
 30
0.0
100
AcDbTable
342
       399
343
20F
 11
1.0
 21
0.0
 31
0.0
 90
6
 91
4
 92
6
 93
20
 94
0
 95
0
 96
0
 70
1
 41
0.0
141
0.525
141
0.1
141
0.525
141
0.1
142
4.1
142
1.1
142
0.7
142
0.5
142
0.4
142
2.475
171
1
172
0
173
0
174
0
175
1
176
1
 91
33
178
0
145
0.0
301
CELL_VALUE
 90
4
  1
T-10A Line mount\PCross port with make up checks
304
ACVALUE_END
170
2
140
0.125
171
1
172
0
173
0
174
0
175
1
176
1
 91
33
178
0
145
0.0
301
CELL_VALUE
 90
4
  1
Nov-10-21
304
ACVALUE_END
170
5
140
0.125
171
1
172
0
173
0
174
0
175
1
176
1
 91
33
178
0
145
0.0
301
CELL_VALUE
 90
4
  1
2.000
304
ACVALUE_END
170
5
140
0.125
171
1
172
0
173
0
174
0
175
1
176
1
 91
33
178
0
145
0.0
301
CELL_VALUE
 90
4
  1
C
304
ACVALUE_END
170
5
140
0.125
171
1
172
0
173
0
174
0
175
1
176
1
 91
33
178
0
145
0.0
301
CELL_VALUE
 90
4
  1
2
304
ACVALUE_END
170
5
140
0.125
171
1
172
0
173
0
174
0
175
1
176
1
 91
33
178
0
145
0.0
301
CELL_VALUE
 90
4
  1
 
304
ACVALUE_END
170
1
140
0.125
171
1
172
0
173
0
174
0
175
1
176
1
 91
33
178
0
145
0.0
301
CELL_VALUE
 90
4
  1
DESCRIPTION
304
ACVALUE_END
170
1
140
0.06
171
1
172
0
173
0
174
0
175
1
176
1
 91
33
178
0
145
0.0
301
CELL_VALUE
 90
4
  1
DATE
304
ACVALUE_END
170
1
140
0.06
171
1
172
0
173
0
174
0
175
1
176
1
 91
33
178
0
145
0.0
301
CELL_VALUE
 90
4
  1
SCALE
304
ACVALUE_END
170
1
140
0.06
171
1
172
0
173
0
174
0
175
1
176
1
 91
33
178
0
145
0.0
301
CELL_VALUE
 90
4
  1
DWG SIZE
304
ACVALUE_END
170
1
140
0.06
171
1
172
0
173
0
174
0
175
1
176
1
 91
33
178
0
145
0.0
301
CELL_VALUE
 90
4
  1
SHEET
304
ACVALUE_END
170
1
140
0.06
171
1
172
0
173
0
174
0
175
1
176
1
 91
33
178
0
145
0.0
301
CELL_VALUE
 90
4
  1
 
304
ACVALUE_END
170
1
140
0.125
171
1
172
0
173
0
174
0
175
1
176
1
 91
33
178
0
145
0.0
301
CELL_VALUE
 90
4
  1
FHF
304
ACVALUE_END
170
5
140
0.125
171
1
172
0
173
0
174
0
175
4
176
1
 91
33
178
0
145
0.0
301
CELL_VALUE
 90
4
  1
ALL DIMENSIONS IN INCH\PVIEWS ARE THIRD ANGLE
304
ACVALUE_END
170
5
140
0.12
171
1
172
0
173
1
174
0
175
1
176
1
 91
1
178
0
145
0.0
170
1
171
1
172
0
173
1
174
0
175
1
176
1
 91
1
178
0
145
0.0
170
1
171
1
172
0
173
1
174
0
175
1
176
1
 91
1
178
0
145
0.0
170
5
171
1
172
0
173
0
174
0
175
1
176
1
 91
33
178
0
145
0.0
301
CELL_VALUE
 90
4
  1
 
304
ACVALUE_END
170
1
140
0.125
171
1
172
0
173
0
174
0
175
1
176
1
 91
33
178
0
145
0.0
301
CELL_VALUE
 90
4
  1
MODEL
304
ACVALUE_END
170
1
140
0.06
171
1
172
0
173
0
174
0
175
1
176
1
 91
33
178
0
145
0.0
301
CELL_VALUE
 90
4
  1
 
304
ACVALUE_END
170
1
140
0.125
171
1
172
0
173
0
174
0
175
1
176
1
 91
33
178
0
145
0.0
301
CELL_VALUE
 90
4
  1
 
304
ACVALUE_END
170
1
140
0.125
171
1
172
0
173
0
174
0
175
1
176
1
 91
33
178
0
145
0.0
301
CELL_VALUE
 90
4
  1
 
304
ACVALUE_END
170
1
140
0.125
171
1
172
0
173
0
174
0
175
1
176
1
 91
33
178
0
145
0.0
301
CELL_VALUE
 90
4
  1
 
304
ACVALUE_END
170
1
140
0.125
171
1
172
0
173
0
174
0
175
1
176
1
 91
33
178
0
145
0.0
301
CELL_VALUE
 90
4
  1
 
304
ACVALUE_END
170
1
140
0.125
  0
ACAD_TABLE
  5
28E
100
AcDbEntity
  8
0
 62
2
  6
CONTINUOUS
100
AcDbBlockReference
  2
*T2
 10
12.4237499994
 20
16.47875
 30
0.0
100
AcDbTable
342
       398
343
210
 11
1.0
 21
0.0
 31
0.0
 90
22
 91
10
 92
3
 93
16
 94
0
 95
0
 96
0
 41
0.028
141
0.344
141
0.25
141
0.25
141
0.25
141
0.25
141
0.25
141
0.25
141
0.25
141
0.25
141
0.25
142
3.055
142
3.0
142
3.0
171
1
172
0
173
0
174
0
175
1
176
1
 91
33
178
0
145
0.0
301
CELL_VALUE
 90
4
  1
Technical Data
304
ACVALUE_END
170
5
140
0.145
171
1
172
0
173
0
174
0
175
1
176
1
 91
33
178
0
145
0.0
301
CELL_VALUE
 90
4
  1
U.S. Units
304
ACVALUE_END
170
5
140
0.145
171
1
172
0
173
0
174
0
175
1
176
1
 91
33
178
0
145
0.0
301
CELL_VALUE
 90
4
  1
Metric Units
304
ACVALUE_END
170
5
140
0.145
171
1
172
0
173
0
174
0
175
1
176
1
 91
33
178
0
145
0.0
301
CELL_VALUE
 90
4
  1
Cavity
304
ACVALUE_END
170
5
140
0.125
171
1
172
0
173
0
174
0
175
2
176
1
 91
33
178
0
145
0.0
301
CELL_VALUE
 90
4
  1
T-10A
304
ACVALUE_END
170
5
140
0.125
171
1
172
0
173
1
174
0
175
1
176
1
 91
1
178
0
145
0.0
170
1
171
1
172
0
173
0
174
0
175
1
176
1
 91
33
178
0
145
0.0
301
CELL_VALUE
 90
4
  1
Body Features
304
ACVALUE_END
170
5
140
0.125
171
1
172
0
173
0
174
0
175
2
176
1
 91
33
178
0
145
0.0
301
CELL_VALUE
 90
4
  1
Cross port with make up checks
304
ACVALUE_END
170
5
140
0.125
171
1
172
0
173
1
174
0
175
1
176
1
 91
1
178
0
145
0.0
170
1
171
1
172
0
173
0
174
0
175
1
176
1
 91
33
178
0
145
0.0
301
CELL_VALUE
 90
4
  1
Body Type
304
ACVALUE_END
170
5
140
0.125
171
1
172
0
173
0
174
0
175
2
176
1
 91
33
178
0
145
0.0
301
CELL_VALUE
 90
4
  1
Line mount
304
ACVALUE_END
170
5
140
0.125
171
1
172
0
173
1
174
0
175
1
176
1
 91
1
178
0
145
0.0
170
1
171
1
172
0
173
0
174
0
175
1
176
1
 91
33
178
0
145
0.0
301
CELL_VALUE
 90
4
  1
Interface
304
ACVALUE_END
170
5
140
0.125
171
1
172
0
173
0
174
0
175
2
176
1
 91
33
178
0
145
0.0
301
CELL_VALUE
 90
4
  1
None
304
ACVALUE_END
170
5
140
0.125
171
1
172
0
173
1
174
0
175
1
176
1
 91
1
178
0
145
0.0
170
1
171
1
172
0
173
0
174
0
175
1
176
1
 91
33
178
0
145
0.0
301
CELL_VALUE
 90
4
  1
Open Cavity Quantity
304
ACVALUE_END
170
5
140
0.125
171
1
172
0
173
0
174
0
175
2
176
1
 91
33
178
0
145
0.0
301
CELL_VALUE
 90
4
  1
2
304
ACVALUE_END
170
5
140
0.125
171
1
172
0
173
1
174
0
175
1
176
1
 91
1
178
0
145
0.0
170
1
171
1
172
0
173
0
174
0
175
1
176
1
 91
33
178
0
145
0.0
301
CELL_VALUE
 90
4
  1
Weight
304
ACVALUE_END
170
5
140
0.125
171
1
172
0
173
0
174
0
175
1
176
1
 91
33
178
0
145
0.0
301
CELL_VALUE
 90
4
  1
2.974 lb.
304
ACVALUE_END
170
5
140
0.125
171
1
172
0
173
0
174
0
175
1
176
1
 91
33
178
0
145
0.0
301
CELL_VALUE
 90
4
  1
1,349 kg.
304
ACVALUE_END
170
5
140
0.125
171
1
172
0
173
0
174
0
175
1
176
1
 91
33
178
0
145
0.0
301
CELL_VALUE
 90
4
  1
Mounting Hole Diameter
304
ACVALUE_END
170
5
140
0.125
171
1
172
0
173
0
174
0
175
1
176
1
 91
33
178
0
145
0.0
301
CELL_VALUE
 90
4
  1
.34 in.
304
ACVALUE_END
170
5
140
0.125
171
1
172
0
173
0
174
0
175
1
176
1
 91
33
178
0
145
0.0
301
CELL_VALUE
 90
4
  1
8.6 mm
304
ACVALUE_END
170
5
140
0.125
171
1
172
0
173
0
174
0
175
1
176
1
 91
33
178
0
145
0.0
301
CELL_VALUE
 90
4
  1
Mounting Hole Depth
304
ACVALUE_END
170
5
140
0.125
171
1
172
0
173
0
174
0
175
2
176
1
 91
33
178
0
145
0.0
301
CELL_VALUE
 90
4
  1
Through
304
ACVALUE_END
170
5
140
0.125
171
1
172
0
173
1
174
0
175
1
176
1
 91
1
178
0
145
0.0
170
1
171
1
172
0
173
0
174
0
175
1
176
1
 91
33
178
0
145
0.0
301
CELL_VALUE
 90
4
  1
Mounting Hole Quantity
304
ACVALUE_END
170
5
140
0.125
171
1
172
0
173
0
174
0
175
2
176
1
 91
33
178
0
145
0.0
301
CELL_VALUE
 90
4
  1
2
304
ACVALUE_END
170
5
140
0.125
171
1
172
0
173
1
174
0
175
1
176
1
 91
1
178
0
145
0.0
170
1
  0
ACAD_TABLE
  5
28F
100
AcDbEntity
  8
0
 62
2
  6
CONTINUOUS
100
AcDbBlockReference
  2
*T3
 10
0.52125
 20
1.709
 30
0.0
100
AcDbTable
342
       398
343
211
 11
1.0
 21
0.0
 31
0.0
 90
22
 91
4
 92
3
 93
16
 94
0
 95
0
 96
0
 41
0.05
141
0.34375
141
0.344
141
0.25
141
0.25
142
1.3
142
2.0
142
1.3
171
1
172
0
173
0
174
0
175
3
176
1
 91
33
178
0
145
0.0
301
CELL_VALUE
 90
4
  1
Port Headings
304
ACVALUE_END
170
5
140
0.145
171
1
172
0
173
1
174
0
175
1
176
1
 91
1
178
0
145
0.0
170
1
171
1
172
0
173
1
174
0
175
1
176
1
 91
1
178
0
145
0.0
170
1
171
1
172
0
173
0
174
0
175
1
176
1
 91
33
178
0
145
0.0
301
CELL_VALUE
 90
4
  1
Product
304
ACVALUE_END
170
5
140
0.145
171
1
172
0
173
0
174
0
175
1
176
1
 91
33
178
0
145
0.0
301
CELL_VALUE
 90
4
  1
Port
304
ACVALUE_END
170
5
140
0.145
171
1
172
0
173
0
174
0
175
1
176
1
 91
33
178
0
145
0.0
301
CELL_VALUE
 90
4
  1
Size
304
ACVALUE_END
170
5
140
0.145
171
1
172
0
173
0
174
0
175
1
176
1
 91
33
178
0
145
0.0
301
CELL_VALUE
 90
4
  1
FHF
304
ACVALUE_END
170
5
140
0.125
171
1
172
0
173
0
174
0
175
1
176
1
 91
33
178
0
145
0.0
301
CELL_VALUE
 90
4
  1
All Other Ports
304
ACVALUE_END
170
5
140
0.125
171
1
172
0
173
0
174
0
175
1
176
1
 91
33
178
0
145
0.0
301
CELL_VALUE
 90
4
  1
SAE 10
304
ACVALUE_END
170
5
140
0.125
171
1
172
0
173
0
174
0
175
1
176
1
 91
33
178
0
145
0.0
301
CELL_VALUE
 90
4
  1
FHF
304
ACVALUE_END
170
5
140
0.125
171
1
172
0
173
0
174
0
175
1
176
1
 91
33
178
0
145
0.0
301
CELL_VALUE
 90
4
  1
Port 5
304
ACVALUE_END
170
5
140
0.125
171
1
172
0
173
0
174
0
175
1
176
1
 91
33
178
0
145
0.0
301
CELL_VALUE
 90
4
  1
SAE 4
304
ACVALUE_END
170
5
140
0.125
  0
MTEXT
  5
290
100
AcDbEntity
  8
0
100
AcDbMText
 62
2
  6
CONTINUOUS
  7
STANDARD
 71
1
 72
1
 10
0.52125
 20
5.75995
 30
0.0
 11
1.0
 21
0.0
 31
0.0
 44
0.6
  3
Notes\P \P1. Important: Carefully consider\P   the maximum system pressure. The\P   pressure rating of the manifold is\P   dependent on the manifold material,\P   with the port type/size a secondary\P   consideration. Manifolds\P   constructed of alu
  1
minum are not\P   rated for pressures higher than\P   3000 psi (210 bar), regardless of\P   the port type/size specified.
 40
0.1
 41
3.04
  0
LINE
  5
291
100
AcDbEntity
  8
0
100
AcDbLine
 62
7
  6
CONTINUOUS
 10
0.30125
 20
0.30125
 11
0.30125
 21
16.69875
  0
LINE
  5
292
100
AcDbEntity
  8
0
100
AcDbLine
 62
7
  6
CONTINUOUS
 10
0.30125
 20
0.30125
 11
21.69875
 21
0.30125
  0
LINE
  5
293
100
AcDbEntity
  8
0
100
AcDbLine
 62
7
  6
CONTINUOUS
 10
0.30125
 20
16.69875
 11
21.69875
 21
16.69875
  0
LINE
  5
294
100
AcDbEntity
  8
0
100
AcDbLine
 62
7
  6
CONTINUOUS
 10
21.69875
 20
0.30125
 11
21.69875
 21
16.69875
  0
LINE
  5
295
100
AcDbEntity
  8
0
100
AcDbLine
 62
7
  6
CONTINUOUS
 10
8.1980750942
 20
12.3793258241
 11
6.677255659
 21
10.9103269675
  0
LINE
  5
296
100
AcDbEntity
  8
0
100
AcDbLine
 62
7
  6
CONTINUOUS
 10
6.677255659
 20
5.1147716664
 11
6.677255659
 21
10.9103269675
  0
LINE
  5
297
100
AcDbEntity
  8
0
100
AcDbLine
 62
4
  6
CONTINUOUS
 10
7.4751103339
 20
8.9328030548
 11
7.4895992218
 21
9.0283908378
  0
LINE
  5
298
100
AcDbEntity
  8
0
100
AcDbLine
 62
4
  6
CONTINUOUS
 10
7.3736881184
 20
9.094384845
 11
7.3881770063
 21
9.1320170728
  0
LINE
  5
299
100
AcDbEntity
  8
0
100
AcDbLine
 62
7
  6
CONTINUOUS
 10
6.677255659
 20
5.1147716664
 11
13.8019249058
 21
4.6206741759
  0
LINE
  5
29A
100
AcDbEntity
  8
0
100
AcDbLine
 62
4
  6
CONTINUOUS
 10
8.1754065982
 20
10.1302819128
 11
8.1319399344
 21
9.9014741293
  0
LINE
  5
29B
100
AcDbEntity
  8
0
100
AcDbLine
 62
4
  6
CONTINUOUS
 10
7.3881770063
 20
9.1320170728
 11
7.4026658942
 21
9.1503307828
  0
LINE
  5
29C
100
AcDbEntity
  8
0
100
AcDbLine
 62
4
  6
CONTINUOUS
 10
9.8464584751
 20
5.5324977699
 11
9.8174806993
 21
5.5538258981
  0
LINE
  5
29D
100
AcDbEntity
  8
0
100
AcDbLine
 62
4
  6
CONTINUOUS
 10
7.3881770063
 20
9.054743005
 11
7.3736881184
 21
9.094384845
  0
LINE
  5
29E
100
AcDbEntity
  8
0
100
AcDbLine
 62
4
  6
CONTINUOUS
 10
8.2623399257
 20
10.124253066
 11
8.2188732619
 21
9.8954452825
  0
LINE
  5
29F
100
AcDbEntity
  8
0
100
AcDbLine
 62
4
  6
CONTINUOUS
 10
8.5231399085
 20
10.1061665258
 11
8.4506954688
 21
9.8793683579
  0
LINE
  5
2A0
100
AcDbEntity
  8
0
100
AcDbLine
 62
4
  6
CONTINUOUS
 10
8.624562124
 20
10.0604958356
 11
8.6390510119
 21
10.0788095456
  0
LINE
  5
2A1
100
AcDbEntity
  8
0
100
AcDbLine
 62
7
  6
CONTINUOUS
 10
7.7887779577
 20
9.2060873544
 11
7.5401804689
 21
8.9659606053
  0
LINE
  5
2A2
100
AcDbEntity
  8
0
100
AcDbLine
 62
4
  6
CONTINUOUS
 10
10.6143695354
 20
5.4792429569
 11
10.4694806561
 21
5.4892910349
  0
LINE
  5
2A3
100
AcDbEntity
  8
0
100
AcDbLine
 62
4
  6
CONTINUOUS
 10
10.3535695527
 20
5.6132406006
 11
10.2666362251
 21
5.6192694474
  0
LINE
  5
2A4
100
AcDbEntity
  8
0
100
AcDbLine
 62
4
  6
CONTINUOUS
 10
9.4262807252
 20
5.6775482992
 11
9.3393473976
 21
5.683577146
  0
LINE
  5
2A5
100
AcDbEntity
  8
0
100
AcDbLine
 62
4
  6
CONTINUOUS
 10
9.6581029321
 20
5.7001084067
 11
9.5711696045
 21
5.7061372535
  0
LINE
  5
2A6
100
AcDbEntity
  8
0
100
AcDbLine
 62
4
  6
CONTINUOUS
 10
9.8464584751
 20
5.7643199767
 11
9.875436251
 21
5.7429918433
  0
LINE
  5
2A7
100
AcDbEntity
  8
0
100
AcDbLine
 62
4
  6
CONTINUOUS
 10
9.8174806993
 20
5.5538258981
 11
9.8029918114
 21
5.5741492323
  0
LINE
  5
2A8
100
AcDbEntity
  8
0
100
AcDbLine
 62
4
  6
CONTINUOUS
 10
8.624562124
 20
10.0218588
 11
8.624562124
 21
10.0604958356
  0
LINE
  5
2A9
100
AcDbEntity
  8
0
100
AcDbLine
 62
4
  6
CONTINUOUS
 10
9.0012732101
 20
9.9570967653
 11
8.9867843222
 21
9.9001460213
  0
LINE
  5
2AA
100
AcDbEntity
  8
0
100
AcDbLine
 62
4
  6
CONTINUOUS
 10
8.7259843395
 20
9.8795955225
 11
8.7404732274
 21
9.8979092411
  0
LINE
  5
2AB
100
AcDbEntity
  8
0
100
AcDbLine
 62
4
  6
CONTINUOUS
 10
8.8563843308
 20
10.044418911
 11
8.8708732188
 21
10.062732621
  0
LINE
  5
2AC
100
AcDbEntity
  8
0
100
AcDbLine
 62
4
  6
CONTINUOUS
 10
8.9867843222
 20
9.9001460213
 11
8.9578065463
 21
9.8635185978
  0
LINE
  5
2AD
100
AcDbEntity
  8
0
100
AcDbLine
 62
7
  6
CONTINUOUS
 10
8.4509206793
 20
9.5424558792
 11
8.2023231904
 21
9.3023291301
  0
LINE
  5
2AE
100
AcDbEntity
  8
0
100
AcDbLine
 62
7
  6
CONTINUOUS
 10
8.5132011197
 20
9.538136716
 11
8.2646036308
 21
9.2980099669
  0
LINE
  5
2AF
100
AcDbEntity
  8
0
100
AcDbLine
 62
4
  6
CONTINUOUS
 10
8.6390510119
 20
10.0788095456
 11
8.6680287877
 21
10.0961184479
  0
LINE
  5
2B0
100
AcDbEntity
  8
0
100
AcDbLine
 62
4
  6
CONTINUOUS
 10
8.8708732188
 20
10.062732621
 11
8.8998509946
 21
10.0800415232
  0
LINE
  5
2B1
100
AcDbEntity
  8
0
100
AcDbLine
 62
4
  6
CONTINUOUS
 10
7.4026658942
 20
9.1503307828
 11
7.4316436701
 21
9.1676396851
  0
LINE
  5
2B2
100
AcDbEntity
  8
0
100
AcDbLine
 62
4
  6
CONTINUOUS
 10
8.6970065636
 20
9.8622866254
 11
8.7259843395
 21
9.8795955225
  0
LINE
  5
2B3
100
AcDbEntity
  8
0
100
AcDbLine
 62
4
  6
CONTINUOUS
 10
7.4026658942
 20
9.0344196846
 11
7.3881770063
 21
9.054743005
  0
LINE
  5
2B4
100
AcDbEntity
  8
0
100
AcDbLine
 62
4
  6
CONTINUOUS
 10
9.875436251
 20
5.7429918433
 11
9.8899251389
 21
5.7226685177
  0
LINE
  5
2B5
100
AcDbEntity
  8
0
100
AcDbLine
 62
4
  6
CONTINUOUS
 10
7.4895992218
 20
9.1443019361
 11
7.5040881097
 21
9.1239786105
  0
LINE
  5
2B6
100
AcDbEntity
  8
0
100
AcDbLine
 62
4
  6
CONTINUOUS
 10
8.2188732619
 20
9.8954452825
 11
8.1754065982
 21
10.1302819128
  0
LINE
  5
2B7
100
AcDbEntity
  8
0
100
AcDbLine
 62
4
  6
CONTINUOUS
 10
8.3058065895
 20
9.8894164358
 11
8.2623399257
 21
10.124253066
  0
LINE
  5
2B8
100
AcDbEntity
  8
0
100
AcDbLine
 62
4
  6
CONTINUOUS
 10
8.7404732274
 20
9.8979092411
 11
8.7404732274
 21
9.9172277538
  0
LINE
  5
2B9
100
AcDbEntity
  8
0
100
AcDbLine
 62
4
  6
CONTINUOUS
 10
7.4895992218
 20
9.0283908378
 11
7.4606214459
 21
9.011081927
  0
LINE
  5
2BA
100
AcDbEntity
  8
0
100
AcDbLine
 62
4
  6
CONTINUOUS
 10
8.9578065463
 20
9.8635185978
 11
8.9288287705
 21
9.8462097008
  0
LINE
  5
2BB
100
AcDbEntity
  8
0
100
AcDbLine
 62
4
  6
CONTINUOUS
 10
9.8029918114
 20
5.5741492323
 11
9.7885029234
 21
5.6137910654
  0
LINE
  5
2BC
100
AcDbEntity
  8
0
100
AcDbLine
 62
4
  6
CONTINUOUS
 10
9.8899251389
 20
5.7226685177
 11
9.9044140269
 21
5.6830266743
  0
LINE
  5
2BD
100
AcDbEntity
  8
0
100
AcDbLine
 62
4
  6
CONTINUOUS
 10
9.6146362683
 20
5.5485746945
 11
9.5421918286
 21
5.7854209403
  0
LINE
  5
2BE
100
AcDbEntity
  8
0
100
AcDbLine
 62
4
  6
CONTINUOUS
 10
8.4506954688
 20
9.8793683579
 11
8.3782510292
 21
10.1162146037
  0
LINE
  5
2BF
100
AcDbEntity
  8
0
100
AcDbLine
 62
4
  6
CONTINUOUS
 10
9.1509918546
 20
5.5807285438
 11
9.1509918546
 21
5.8125507507
  0
LINE
  5
2C0
100
AcDbEntity
  8
0
100
AcDbLine
 62
7
  6
CONTINUOUS
 10
9.1753438413
 20
9.1099286838
 11
8.9267463524
 21
8.8698019347
  0
LINE
  5
2C1
100
AcDbEntity
  8
0
100
AcDbLine
 62
7
  6
CONTINUOUS
 10
9.2064840615
 20
9.0538326586
 11
8.9578865726
 21
8.8137059095
  0
LINE
  5
2C2
100
AcDbEntity
  8
0
100
AcDbLine
 62
4
  6
CONTINUOUS
 10
7.4316436701
 20
9.0130915426
 11
7.4026658942
 21
9.0344196846
  0
LINE
  5
2C3
100
AcDbEntity
  8
0
100
AcDbLine
 62
4
  6
CONTINUOUS
 10
7.4606214459
 20
9.1656300695
 11
7.4895992218
 21
9.1443019361
  0
LINE
  5
2C4
100
AcDbEntity
  8
0
100
AcDbLine
 62
4
  6
CONTINUOUS
 10
8.9867843222
 20
10.0160571248
 11
9.0012732101
 21
9.9570967653
  0
LINE
  5
2C5
100
AcDbEntity
  8
0
100
AcDbLine
 62
4
  6
CONTINUOUS
 10
9.7885029234
 20
5.6137910654
 11
9.7885029234
 21
5.6910651366
  0
LINE
  5
2C6
100
AcDbEntity
  8
0
100
AcDbLine
 62
4
  6
CONTINUOUS
 10
8.624562124
 20
9.9059477035
 11
8.6390510119
 21
9.8856243692
  0
LINE
  5
2C7
100
AcDbEntity
  8
0
100
AcDbLine
 62
4
  6
CONTINUOUS
 10
9.9044140269
 20
5.6830266743
 11
9.9044140269
 21
5.605752603
  0
LINE
  5
2C8
100
AcDbEntity
  8
0
100
AcDbLine
 62
4
  6
CONTINUOUS
 10
10.078280682
 20
5.5164208452
 11
10.078280682
 21
5.7482430521
  0
LINE
  5
2C9
100
AcDbEntity
  8
0
100
AcDbLine
 62
7
  6
CONTINUOUS
 10
9.2064840615
 20
8.2892561015
 11
8.9578865726
 21
8.0491293524
  0
LINE
  5
2CA
100
AcDbEntity
  8
0
100
AcDbLine
 62
7
  6
CONTINUOUS
 10
9.1753438413
 20
8.2374792396
 11
8.9267463524
 21
7.9973524905
  0
LINE
  5
2CB
100
AcDbEntity
  8
0
100
AcDbLine
 62
4
  6
CONTINUOUS
 10
12.5462213024
 20
7.4703054565
 11
12.4013324231
 21
7.4803535344
  0
LINE
  5
2CC
100
AcDbEntity
  8
0
100
AcDbLine
 62
4
  6
CONTINUOUS
 10
11.0973325095
 20
7.5707862356
 11
11.0683547337
 21
7.5727958512
  0
LINE
  5
2CD
100
AcDbEntity
  8
0
100
AcDbLine
 62
4
  6
CONTINUOUS
 10
12.2854213197
 20
7.6043031002
 11
12.1984879921
 21
7.6103319469
  0
LINE
  5
2CE
100
AcDbEntity
  8
0
100
AcDbLine
 62
4
  6
CONTINUOUS
 10
11.3581324922
 20
7.6686107988
 11
11.2711991647
 21
7.6746396455
  0
LINE
  5
2CF
100
AcDbEntity
  8
0
100
AcDbLine
 62
4
  6
CONTINUOUS
 10
11.5899546991
 20
7.6911709063
 11
11.5030213715
 21
7.6971997531
  0
LINE
  5
2D0
100
AcDbEntity
  8
0
100
AcDbLine
 62
4
  6
CONTINUOUS
 10
8.6390510119
 20
10.0015354796
 11
8.624562124
 21
10.0218588
  0
LINE
  5
2D1
100
AcDbEntity
  8
0
100
AcDbLine
 62
4
  6
CONTINUOUS
 10
8.7404732274
 20
9.9172277538
 11
8.7259843395
 21
9.9375510742
  0
LINE
  5
2D2
100
AcDbEntity
  8
0
100
AcDbLine
 62
4
  6
CONTINUOUS
 10
8.8708732188
 20
9.8695474446
 11
8.8563843308
 21
9.8898707788
  0
LINE
  5
2D3
100
AcDbEntity
  8
0
100
AcDbLine
 62
4
  6
CONTINUOUS
 10
8.7259843395
 20
10.0727806989
 11
8.7549621153
 21
10.0321340494
  0
LINE
  5
2D4
100
AcDbEntity
  8
0
100
AcDbLine
 62
4
  6
CONTINUOUS
 10
8.9578065463
 20
10.0567037742
 11
8.9867843222
 21
10.0160571248
  0
LINE
  5
2D5
100
AcDbEntity
  8
0
100
AcDbLine
 62
4
  6
CONTINUOUS
 10
10.5419250957
 20
5.4842669959
 11
10.5419250957
 21
5.7160892028
  0
LINE
  5
2D6
100
AcDbEntity
  8
0
100
AcDbLine
 62
4
  6
CONTINUOUS
 10
9.6870807079
 20
5.7753728624
 11
9.6146362683
 21
5.5485746945
  0
LINE
  5
2D7
100
AcDbEntity
  8
0
100
AcDbLine
 62
4
  6
CONTINUOUS
 10
11.1407991733
 20
7.7995940191
 11
11.0248880699
 21
7.8076324814
  0
LINE
  5
2D8
100
AcDbEntity
  8
0
100
AcDbLine
 62
4
  6
CONTINUOUS
 10
11.0683547337
 20
7.5727958512
 11
11.0393769578
 21
7.5941239794
  0
LINE
  5
2D9
100
AcDbEntity
  8
0
100
AcDbLine
 62
4
  6
CONTINUOUS
 10
11.0393769578
 20
7.5941239794
 11
11.0248880699
 21
7.6144473136
  0
LINE
  5
2DA
100
AcDbEntity
  8
0
100
AcDbLine
 62
4
  6
CONTINUOUS
 10
11.0248880699
 20
7.6144473136
 11
11.0248880699
 21
7.6530843389
  0
LINE
  5
2DB
100
AcDbEntity
  8
0
100
AcDbLine
 62
4
  6
CONTINUOUS
 10
9.7885029234
 20
5.6910651366
 11
9.8029918114
 21
5.7286973645
  0
LINE
  5
2DC
100
AcDbEntity
  8
0
100
AcDbLine
 62
4
  6
CONTINUOUS
 10
9.9044140269
 20
5.605752603
 11
9.8899251389
 21
5.5681203856
  0
LINE
  5
2DD
100
AcDbEntity
  8
0
100
AcDbLine
 62
4
  6
CONTINUOUS
 10
11.7783102422
 20
7.5235602694
 11
11.7493324663
 21
7.5448883976
  0
LINE
  5
2DE
100
AcDbEntity
  8
0
100
AcDbLine
 62
4
  6
CONTINUOUS
 10
8.6390510119
 20
9.8856243692
 11
8.6680287877
 21
9.864296241
  0
LINE
  5
2DF
100
AcDbEntity
  8
0
100
AcDbLine
 62
4
  6
CONTINUOUS
 10
8.7259843395
 20
9.9375510742
 11
8.6390510119
 21
10.0015354796
  0
LINE
  5
2E0
100
AcDbEntity
  8
0
100
AcDbLine
 62
4
  6
CONTINUOUS
 10
8.8998509946
 20
9.8482193164
 11
8.8708732188
 21
9.8695474446
  0
LINE
  5
2E1
100
AcDbEntity
  8
0
100
AcDbLine
 62
4
  6
CONTINUOUS
 10
11.7783102422
 20
7.7553824763
 11
11.807288018
 21
7.7340543429
  0
LINE
  5
2E2
100
AcDbEntity
  8
0
100
AcDbLine
 62
4
  6
CONTINUOUS
 10
8.6970065636
 20
10.0941088323
 11
8.7259843395
 21
10.0727806989
  0
LINE
  5
2E3
100
AcDbEntity
  8
0
100
AcDbLine
 62
4
  6
CONTINUOUS
 10
8.9288287705
 20
10.0780319076
 11
8.9578065463
 21
10.0567037742
  0
LINE
  5
2E4
100
AcDbEntity
  8
0
100
AcDbLine
 62
4
  6
CONTINUOUS
 10
11.1263102854
 20
7.7426432752
 11
11.1407991733
 21
7.7995940191
  0
LINE
  5
2E5
100
AcDbEntity
  8
0
100
AcDbLine
 62
4
  6
CONTINUOUS
 10
7.3881770063
 20
8.9388319016
 11
7.4751103339
 21
8.9328030548
  0
LINE
  5
2E6
100
AcDbEntity
  8
0
100
AcDbLine
 62
4
  6
CONTINUOUS
 10
7.4606214459
 20
9.011081927
 11
7.4316436701
 21
9.0130915426
  0
LINE
  5
2E7
100
AcDbEntity
  8
0
100
AcDbLine
 62
4
  6
CONTINUOUS
 10
7.4316436701
 20
9.1676396851
 11
7.4606214459
 21
9.1656300695
  0
LINE
  5
2E8
100
AcDbEntity
  8
0
100
AcDbLine
 62
4
  6
CONTINUOUS
 10
11.7493324663
 20
7.5448883976
 11
11.7348435784
 21
7.5652117319
  0
LINE
  5
2E9
100
AcDbEntity
  8
0
100
AcDbLine
 62
4
  6
CONTINUOUS
 10
11.807288018
 20
7.7340543429
 11
11.821776906
 21
7.7137310173
  0
LINE
  5
2EA
100
AcDbEntity
  8
0
100
AcDbLine
 62
4
  6
CONTINUOUS
 10
11.7348435784
 20
7.5652117319
 11
11.7203546905
 21
7.6048535649
  0
LINE
  5
2EB
100
AcDbEntity
  8
0
100
AcDbLine
 62
4
  6
CONTINUOUS
 10
11.5464880353
 20
7.5396371941
 11
11.4740435957
 21
7.7764834399
  0
LINE
  5
2EC
100
AcDbEntity
  8
0
100
AcDbLine
 62
4
  6
CONTINUOUS
 10
11.7203546905
 20
7.6048535649
 11
11.7203546905
 21
7.6821276362
  0
LINE
  5
2ED
100
AcDbEntity
  8
0
100
AcDbLine
 62
4
  6
CONTINUOUS
 10
11.618932475
 20
7.766435362
 11
11.5464880353
 21
7.5396371941
  0
LINE
  5
2EE
100
AcDbEntity
  8
0
100
AcDbLine
 62
4
  6
CONTINUOUS
 10
11.0248880699
 20
7.6530843389
 11
11.0393769578
 21
7.6713980576
  0
LINE
  5
2EF
100
AcDbEntity
  8
0
100
AcDbLine
 62
4
  6
CONTINUOUS
 10
11.0973325095
 20
7.7060158586
 11
11.1263102854
 21
7.7426432752
  0
LINE
  5
2F0
100
AcDbEntity
  8
0
100
AcDbLine
 62
4
  6
CONTINUOUS
 10
11.1407991733
 20
7.6064088513
 11
11.1263102854
 21
7.5880951326
  0
LINE
  5
2F1
100
AcDbEntity
  8
0
100
AcDbLine
 62
4
  6
CONTINUOUS
 10
9.8029918114
 20
5.7286973645
 11
9.8174806993
 21
5.7470110745
  0
LINE
  5
2F2
100
AcDbEntity
  8
0
100
AcDbLine
 62
7
  6
CONTINUOUS
 10
13.8019249058
 20
10.416229477
 11
15.322744341
 21
11.8852283336
  0
LINE
  5
2F3
100
AcDbEntity
  8
0
100
AcDbLine
 62
4
  6
CONTINUOUS
 10
11.0393769578
 20
7.6713980576
 11
11.0973325095
 21
7.7060158586
  0
LINE
  5
2F4
100
AcDbEntity
  8
0
100
AcDbLine
 62
4
  6
CONTINUOUS
 10
11.821776906
 20
7.7137310173
 11
11.8362657939
 21
7.6740891739
  0
LINE
  5
2F5
100
AcDbEntity
  8
0
100
AcDbLine
 62
4
  6
CONTINUOUS
 10
11.8362657939
 20
7.6740891739
 11
11.8362657939
 21
7.5968151026
  0
LINE
  5
2F6
100
AcDbEntity
  8
0
100
AcDbLine
 62
4
  6
CONTINUOUS
 10
12.0101324491
 20
7.5074833448
 11
12.0101324491
 21
7.7393055516
  0
LINE
  5
2F7
100
AcDbEntity
  8
0
100
AcDbLine
 62
4
  6
CONTINUOUS
 10
11.7203546905
 20
7.6821276362
 11
11.7348435784
 21
7.719759864
  0
LINE
  5
2F8
100
AcDbEntity
  8
0
100
AcDbLine
 62
4
  6
CONTINUOUS
 10
11.8362657939
 20
7.5968151026
 11
11.821776906
 21
7.5591828851
  0
LINE
  5
2F9
100
AcDbEntity
  8
0
100
AcDbLine
 62
4
  6
CONTINUOUS
 10
9.8899251389
 20
5.5681203856
 11
9.875436251
 21
5.5498066669
  0
LINE
  5
2FA
100
AcDbEntity
  8
0
100
AcDbLine
 62
4
  6
CONTINUOUS
 10
11.7348435784
 20
7.719759864
 11
11.7493324663
 21
7.7380735741
  0
LINE
  5
2FB
100
AcDbEntity
  8
0
100
AcDbLine
 62
4
  6
CONTINUOUS
 10
11.1263102854
 20
7.5880951326
 11
11.0973325095
 21
7.5707862356
  0
LINE
  5
2FC
100
AcDbEntity
  8
0
100
AcDbLine
 62
4
  6
CONTINUOUS
 10
11.7493324663
 20
7.7380735741
 11
11.7783102422
 21
7.7553824763
  0
LINE
  5
2FD
100
AcDbEntity
  8
0
100
AcDbLine
 62
4
  6
CONTINUOUS
 10
8.9288287705
 20
9.8462097008
 11
8.8998509946
 21
9.8482193164
  0
LINE
  5
2FE
100
AcDbEntity
  8
0
100
AcDbLine
 62
4
  6
CONTINUOUS
 10
8.6680287877
 20
9.864296241
 11
8.6970065636
 21
9.8622866254
  0
LINE
  5
2FF
100
AcDbEntity
  8
0
100
AcDbLine
 62
4
  6
CONTINUOUS
 10
12.4737768628
 20
7.4753294955
 11
12.4737768628
 21
7.7071517023
  0
LINE
  5
300
100
AcDbEntity
  8
0
100
AcDbLine
 62
4
  6
CONTINUOUS
 10
11.821776906
 20
7.5591828851
 11
11.807288018
 21
7.5408691665
  0
LINE
  5
301
100
AcDbEntity
  8
0
100
AcDbLine
 62
4
  6
CONTINUOUS
 10
11.807288018
 20
7.5408691665
 11
11.7783102422
 21
7.5235602694
  0
LINE
  5
302
100
AcDbEntity
  8
0
100
AcDbLine
 62
4
  6
CONTINUOUS
 10
8.4941621326
 20
10.0309020701
 11
8.407228805
 21
10.0369309168
  0
LINE
  5
303
100
AcDbEntity
  8
0
100
AcDbLine
 62
4
  6
CONTINUOUS
 10
8.6680287877
 20
10.0961184479
 11
8.6970065636
 21
10.0941088323
  0
LINE
  5
304
100
AcDbEntity
  8
0
100
AcDbLine
 62
4
  6
CONTINUOUS
 10
8.8998509946
 20
10.0800415232
 11
8.9288287705
 21
10.0780319076
  0
LINE
  5
305
100
AcDbEntity
  8
0
100
AcDbLine
 62
4
  6
CONTINUOUS
 10
9.8174806993
 20
5.7470110745
 11
9.8464584751
 21
5.7643199767
  0
LINE
  5
306
100
AcDbEntity
  8
0
100
AcDbLine
 62
4
  6
CONTINUOUS
 10
9.875436251
 20
5.5498066669
 11
9.8464584751
 21
5.5324977699
  0
LINE
  5
307
100
AcDbEntity
  8
0
100
AcDbLine
 62
7
  6
CONTINUOUS
 10
6.677255659
 20
10.9103269675
 11
13.8019249058
 21
10.416229477
  0
LINE
  5
308
100
AcDbEntity
  8
0
100
AcDbLine
 62
7
  6
CONTINUOUS
 10
13.8019249058
 20
4.6206741759
 11
13.8019249058
 21
10.416229477
  0
LINE
  5
309
100
AcDbEntity
  8
0
100
AcDbLine
 62
7
  6
CONTINUOUS
 10
15.322744341
 20
11.8852283336
 11
8.1980750942
 21
12.3793258241
  0
LINE
  5
30A
100
AcDbEntity
  8
0
100
AcDbLine
 62
7
  6
CONTINUOUS
 10
15.322744341
 20
6.0896730325
 11
15.322744341
 21
11.8852283336
  0
LINE
  5
30B
100
AcDbEntity
  8
0
100
AcDbLine
 62
7
  6
CONTINUOUS
 10
13.8019249058
 20
4.6206741759
 11
15.322744341
 21
6.0896730325
  0
ARC
  5
30C
100
AcDbEntity
  8
0
100
AcDbCircle
 62
7
  6
CONTINUOUS
 10
12.8370340127
 20
8.5326087611
 40
1.7711998542
100
AcDbArc
 50
141.8137711452
 51
148.8084020823
  0
ARC
  5
30D
100
AcDbEntity
  8
0
100
AcDbCircle
 62
7
  6
CONTINUOUS
 10
8.4084845625
 20
8.6475357529
 40
0.8954777361
100
AcDbArc
 50
26.9826606318
 51
31.0887050487
  0
ARC
  5
30E
100
AcDbEntity
  8
0
100
AcDbCircle
 62
7
  6
CONTINUOUS
 10
8.3070397476
 20
8.555904092
 40
0.8954777361
100
AcDbArc
 50
206.9826606318
 51
211.0887050487
  0
ARC
  5
30F
100
AcDbEntity
  8
0
100
AcDbCircle
 62
7
  6
CONTINUOUS
 10
8.1598870736
 20
8.4074090038
 40
0.8954777361
100
AcDbArc
 50
26.9826606318
 51
31.0887050487
  0
ARC
  5
310
100
AcDbEntity
  8
0
100
AcDbCircle
 62
7
  6
CONTINUOUS
 10
8.4246899405
 20
8.714067943
 40
0.8288085252
100
AcDbArc
 50
83.8695051668
 51
86.0307544453
  0
ARC
  5
311
100
AcDbEntity
  8
0
100
AcDbCircle
 62
7
  6
CONTINUOUS
 10
8.2908343696
 20
8.4893719018
 40
0.8288085252
100
AcDbArc
 50
263.8695051668
 51
266.0307544453
  0
ARC
  5
312
100
AcDbEntity
  8
0
100
AcDbCircle
 62
7
  6
CONTINUOUS
 10
8.1760924516
 20
8.4739411939
 40
0.8288085252
100
AcDbArc
 50
83.8695051668
 51
86.0307544453
  0
ARC
  5
313
100
AcDbEntity
  8
0
100
AcDbCircle
 62
7
  6
CONTINUOUS
 10
8.2903647286
 20
8.4828955522
 40
0.8223152013
100
AcDbArc
 50
266.0321629527
 51
268.2047714632
  0
ARC
  5
314
100
AcDbEntity
  8
0
100
AcDbCircle
 62
7
  6
CONTINUOUS
 10
8.1765620926
 20
8.4804175435
 40
0.8223152013
100
AcDbArc
 50
86.0321629527
 51
88.2047714632
  0
ARC
  5
315
100
AcDbEntity
  8
0
100
AcDbCircle
 62
7
  6
CONTINUOUS
 10
8.4252139673
 20
8.7216247758
 40
0.8212335449
100
AcDbArc
 50
86.0307319968
 51
88.2062024191
  0
ARC
  5
316
100
AcDbEntity
  8
0
100
AcDbCircle
 62
7
  6
CONTINUOUS
 10
11.7238214818
 20
8.8579145699
 40
0.7924288683
100
AcDbArc
 50
0.0056570498
 51
4.239305365
  0
ARC
  5
317
100
AcDbEntity
  8
0
100
AcDbCircle
 62
7
  6
CONTINUOUS
 10
9.7919694844
 20
6.818555723
 40
0.7924288683
100
AcDbArc
 50
0.0056570498
 51
4.239305365
  0
ARC
  5
318
100
AcDbEntity
  8
0
100
AcDbCircle
 62
7
  6
CONTINUOUS
 10
9.8659527779
 20
6.7841250172
 40
0.7498437952
100
AcDbArc
 50
310.5981785287
 51
312.4157633705
  0
ARC
  5
319
100
AcDbEntity
  8
0
100
AcDbCircle
 62
7
  6
CONTINUOUS
 10
11.7978047753
 20
8.823483864
 40
0.7498437952
100
AcDbArc
 50
310.5981785287
 51
312.4157633705
  0
ARC
  5
31A
100
AcDbEntity
  8
0
100
AcDbCircle
 62
7
  6
CONTINUOUS
 10
11.6433280107
 20
8.9834074617
 40
0.7498084012
100
AcDbArc
 50
135.5422736849
 51
137.4164016546
  0
ARC
  5
31B
100
AcDbEntity
  8
0
100
AcDbCircle
 62
7
  6
CONTINUOUS
 10
9.7114760133
 20
6.9440486149
 40
0.7498084012
100
AcDbArc
 50
135.5422736849
 51
137.4164016546
  0
ARC
  5
31C
100
AcDbEntity
  8
0
100
AcDbCircle
 62
7
  6
CONTINUOUS
 10
8.550524325
 20
8.6485179719
 40
0.7478985676
100
AcDbArc
 50
326.6610039569
 51
331.2909683674
  0
ARC
  5
31D
100
AcDbEntity
  8
0
100
AcDbCircle
 62
7
  6
CONTINUOUS
 10
8.1649999851
 20
8.5549218729
 40
0.7478985676
100
AcDbArc
 50
146.6610039569
 51
151.2909683674
  0
ARC
  5
31E
100
AcDbEntity
  8
0
100
AcDbCircle
 62
7
  6
CONTINUOUS
 10
8.3019268361
 20
8.4083912228
 40
0.7478985676
100
AcDbArc
 50
326.6610039569
 51
331.2909683674
  0
ARC
  5
31F
100
AcDbEntity
  8
0
100
AcDbCircle
 62
7
  6
CONTINUOUS
 10
12.3639735406
 20
9.5859447287
 40
0.6970592523
100
AcDbArc
 50
170.5472801334
 51
180.0287273565
  0
ARC
  5
320
100
AcDbEntity
  8
0
100
AcDbCircle
 62
7
  6
CONTINUOUS
 10
10.4321215433
 20
7.5465858819
 40
0.6970592523
100
AcDbArc
 50
170.5472801334
 51
180.0287273565
  0
ARC
  5
321
100
AcDbEntity
  8
0
100
AcDbCircle
 62
7
  6
CONTINUOUS
 10
12.37332249
 20
9.5920090118
 40
0.6656436477
100
AcDbArc
 50
170.7130630571
 51
180.0277454756
  0
ARC
  5
322
100
AcDbEntity
  8
0
100
AcDbCircle
 62
7
  6
CONTINUOUS
 10
10.4414704926
 20
7.5526501649
 40
0.6656436477
100
AcDbArc
 50
170.7130630571
 51
180.0277454756
  0
ARC
  5
323
100
AcDbEntity
  8
0
100
AcDbCircle
 62
7
  6
CONTINUOUS
 10
12.3814175034
 20
9.5982567916
 40
0.6551019243
100
AcDbArc
 50
171.2237309855
 51
180.0248265782
  0
ARC
  5
324
100
AcDbEntity
  8
0
100
AcDbCircle
 62
7
  6
CONTINUOUS
 10
10.449565506
 20
7.5588979448
 40
0.6551019243
100
AcDbArc
 50
171.2237309855
 51
180.0248265782
  0
ARC
  5
325
100
AcDbEntity
  8
0
100
AcDbCircle
 62
7
  6
CONTINUOUS
 10
8.5519726386
 20
8.9002169145
 40
0.6255008198
100
AcDbArc
 50
110.9429853768
 51
120.9123552162
  0
SPLINE
  5
326
100
AcDbEntity
  8
0
100
AcDbSpline
 62
7
  6
CONTINUOUS
 70
0
 71
3
 72
20
 73
16
 74
0
 42
0.0000001
 43
0.0000001
 44
0.0000000001
 40
0.0
 40
0.0
 40
0.0
 40
0.0
 40
0.1309034495
 40
0.2613620579
 40
0.326250201
 40
0.39079409
 40
0.4548970145
 40
0.518461259
 40
0.5813947556
 40
0.6436176256
 40
0.7050675602
 40
0.7657032334
 40
0.825505336
 40
0.8844745681
 40
1.0
 40
1.0
 40
1.0
 40
1.0
 10
7.5090402487
 20
8.9141837433
 30
0.0
 10
7.506791499
 20
8.8808659007
 30
0.0
 10
7.5027000702
 20
8.8143156253
 30
0.0
 10
7.4987984572
 20
8.7311764683
 30
0.0
 10
7.4965409796
 20
8.6649156805
 30
0.0
 10
7.4953107719
 20
8.6155592386
 30
0.0
 10
7.4945622844
 20
8.5665308604
 30
0.0
 10
7.4943094908
 20
8.5179081837
 30
0.0
 10
7.4945573164
 20
8.4697650671
 30
0.0
 10
7.4953011508
 20
8.4221664892
 30
0.0
 10
7.4965272815
 20
8.3751642908
 30
0.0
 10
7.4982141005
 20
8.3287943797
 30
0.0
 10
7.5003339777
 20
8.2830757591
 30
0.0
 10
7.5036727395
 20
8.2233990171
 30
0.0
 10
7.5067597756
 20
8.1789895131
 30
0.0
 10
7.5090402487
 20
8.1496071863
 30
0.0
  0
SPLINE
  5
327
100
AcDbEntity
  8
0
100
AcDbSpline
 62
7
  6
CONTINUOUS
 70
0
 71
3
 72
21
 73
17
 74
0
 42
0.0000001
 43
0.0000001
 44
0.0000000001
 40
0.0
 40
0.0
 40
0.0
 40
0.0
 40
0.1208887025
 40
0.1820497262
 40
0.2436799055
 40
0.3057548706
 40
0.3682344385
 40
0.4310623797
 40
0.4941688858
 40
0.5574748058
 40
0.6208970894
 40
0.6843546058
 40
0.7477734234
 40
0.8110908105
 40
0.8742567466
 40
1.0
 40
1.0
 40
1.0
 40
1.0
 10
7.5401804689
 20
8.0935111611
 30
0.0
 10
7.565113713
 20
8.0737297701
 30
0.0
 10
7.6029454264
 20
8.0442947856
 30
0.0
 10
7.6542199983
 20
8.0057337667
 30
0.0
 10
7.6934595714
 20
7.9769372231
 30
0.0
 10
7.7333353538
 20
7.9484271384
 30
0.0
 10
7.7738359074
 20
7.9202555805
 30
0.0
 10
7.8149340245
 20
7.8924751201
 30
0.0
 10
7.8565872406
 20
7.8651355083
 30
0.0
 10
7.8987400203
 20
7.8382802748
 30
0.0
 10
7.9413273811
 20
7.8119436643
 30
0.0
 10
7.984279401
 20
7.7861484655
 30
0.0
 10
8.0275258566
 20
7.7609050321
 30
0.0
 10
8.0710003353
 20
7.7362115729
 30
0.0
 10
8.1291008684
 20
7.7040535896
 30
0.0
 10
8.1729829304
 20
7.6806363876
 30
0.0
 10
8.2023231904
 20
7.6653031289
 30
0.0
  0
SPLINE
  5
328
100
AcDbEntity
  8
0
100
AcDbSpline
 62
7
  6
CONTINUOUS
 70
0
 71
3
 72
15
 73
11
 74
0
 42
0.0000001
 43
0.0000001
 44
0.0000000001
 40
0.0
 40
0.0
 40
0.0
 40
0.0
 40
0.1121786521
 40
0.2284761286
 40
0.3490753419
 40
0.4737992527
 40
0.6020827469
 40
0.7331004723
 40
0.8659837967
 40
1.0
 40
1.0
 40
1.0
 40
1.0
 10
8.2646036308
 20
7.6609839657
 30
0.0
 10
8.2897765308
 20
7.6727233522
 30
0.0
 10
8.3409597857
 20
7.6968199162
 30
0.0
 10
8.4188608755
 20
7.7342638366
 30
0.0
 10
8.4992208886
 20
7.773754879
 30
0.0
 10
8.5818753033
 20
7.8152975985
 30
0.0
 10
8.6664592738
 20
7.8587372963
 30
0.0
 10
8.7524829196
 20
7.9037887538
 30
0.0
 10
8.8394431827
 20
7.9501055883
 30
0.0
 10
8.8975883004
 20
7.9815126826
 30
0.0
 10
8.9267463524
 20
7.9973524905
 30
0.0
  0
SPLINE
  5
329
100
AcDbEntity
  8
0
100
AcDbSpline
 62
7
  6
CONTINUOUS
 70
0
 71
3
 72
20
 73
16
 74
0
 42
0.0000001
 43
0.0000001
 44
0.0000000001
 40
0.0
 40
0.0
 40
0.0
 40
0.0
 40
0.1309034495
 40
0.2613620579
 40
0.326250201
 40
0.39079409
 40
0.4548970145
 40
0.518461259
 40
0.5813947556
 40
0.6436176256
 40
0.7050675602
 40
0.7657032334
 40
0.825505336
 40
0.8844745681
 40
1.0
 40
1.0
 40
1.0
 40
1.0
 10
9.2064840615
 20
8.2892561015
 30
0.0
 10
9.2087328111
 20
8.3225739442
 30
0.0
 10
9.2128242399
 20
8.3891242196
 30
0.0
 10
9.2167258529
 20
8.4722633766
 30
0.0
 10
9.2189833306
 20
8.5385241643
 30
0.0
 10
9.2202135382
 20
8.5878806063
 30
0.0
 10
9.2209620257
 20
8.6369089845
 30
0.0
 10
9.2212148193
 20
8.6855316612
 30
0.0
 10
9.2209669937
 20
8.7336747778
 30
0.0
 10
9.2202231593
 20
8.7812733557
 30
0.0
 10
9.2189970286
 20
8.8282755541
 30
0.0
 10
9.2173102096
 20
8.8746454652
 30
0.0
 10
9.2151903324
 20
8.9203640857
 30
0.0
 10
9.2118515707
 20
8.9800408278
 30
0.0
 10
9.2087645346
 20
9.0244503318
 30
0.0
 10
9.2064840615
 20
9.0538326586
 30
0.0
  0
SPLINE
  5
32A
100
AcDbEntity
  8
0
100
AcDbSpline
 62
7
  6
CONTINUOUS
 70
0
 71
3
 72
21
 73
17
 74
0
 42
0.0000001
 43
0.0000001
 44
0.0000000001
 40
0.0
 40
0.0
 40
0.0
 40
0.0
 40
0.1208887025
 40
0.1820497262
 40
0.2436799055
 40
0.3057548706
 40
0.3682344385
 40
0.4310623797
 40
0.4941688858
 40
0.5574748058
 40
0.6208970894
 40
0.6843546058
 40
0.7477734234
 40
0.8110908105
 40
0.8742567466
 40
1.0
 40
1.0
 40
1.0
 40
1.0
 10
9.1753438413
 20
9.1099286838
 30
0.0
 10
9.1504105971
 20
9.1297100748
 30
0.0
 10
9.1125788838
 20
9.1591450593
 30
0.0
 10
9.0613043118
 20
9.1977060782
 30
0.0
 10
9.0220647387
 20
9.2265026217
 30
0.0
 10
8.9821889563
 20
9.2550127064
 30
0.0
 10
8.9416884027
 20
9.2831842644
 30
0.0
 10
8.9005902856
 20
9.3109647248
 30
0.0
 10
8.8589370695
 20
9.3383043365
 30
0.0
 10
8.8167842898
 20
9.3651595701
 30
0.0
 10
8.774196929
 20
9.3914961806
 30
0.0
 10
8.7312449091
 20
9.4172913794
 30
0.0
 10
8.6879984535
 20
9.4425348128
 30
0.0
 10
8.6445239748
 20
9.467228272
 30
0.0
 10
8.5864234417
 20
9.4993862553
 30
0.0
 10
8.5425413797
 20
9.5228034572
 30
0.0
 10
8.5132011197
 20
9.538136716
 30
0.0
  0
SPLINE
  5
32B
100
AcDbEntity
  8
0
100
AcDbSpline
 62
7
  6
CONTINUOUS
 70
0
 71
3
 72
15
 73
11
 74
0
 42
0.0000001
 43
0.0000001
 44
0.0000000001
 40
0.0
 40
0.0
 40
0.0
 40
0.0
 40
0.1121786521
 40
0.2284761286
 40
0.3490753419
 40
0.4737992527
 40
0.6020827469
 40
0.7331004723
 40
0.8659837967
 40
1.0
 40
1.0
 40
1.0
 40
1.0
 10
8.4509206793
 20
9.5424558792
 30
0.0
 10
8.4257477793
 20
9.5307164927
 30
0.0
 10
8.3745645244
 20
9.5066199286
 30
0.0
 10
8.2966634346
 20
9.4691760082
 30
0.0
 10
8.2163034215
 20
9.4296849659
 30
0.0
 10
8.1336490069
 20
9.3881422464
 30
0.0
 10
8.0490650363
 20
9.3447025486
 30
0.0
 10
7.9630413906
 20
9.2996510911
 30
0.0
 10
7.8760811275
 20
9.2533342566
 30
0.0
 10
7.8179360097
 20
9.2219271623
 30
0.0
 10
7.7887779577
 20
9.2060873544
 30
0.0
  0
SPLINE
  5
32C
100
AcDbEntity
  8
0
100
AcDbSpline
 62
7
  6
CONTINUOUS
 70
0
 71
3
 72
69
 73
65
 74
0
 42
0.0000001
 43
0.0000001
 44
0.0000000001
 40
0.0
 40
0.0
 40
0.0
 40
0.0
 40
0.0156205714
 40
0.0311913852
 40
0.0467079772
 40
0.06217213
 40
0.0775863871
 40
0.0929523587
 40
0.1082722279
 40
0.1235489783
 40
0.1387860012
 40
0.153986987
 40
0.1691560547
 40
0.1842976444
 40
0.1994165132
 40
0.2145176268
 40
0.2296061576
 40
0.2446873943
 40
0.2597667245
 40
0.2748495549
 40
0.2899412358
 40
0.3050470393
 40
0.3201720728
 40
0.3353212665
 40
0.3504992628
 40
0.3657104298
 40
0.3809587547
 40
0.3962478734
 40
0.4115809858
 40
0.4269608476
 40
0.4423897281
 40
0.4578694146
 40
0.4734012032
 40
0.4889858535
 40
0.5046236349
 40
0.5203142721
 40
0.5360570259
 40
0.5518506307
 40
0.5676933837
 40
0.5835830748
 40
0.5995171091
 40
0.6154924614
 40
0.6315057604
 40
0.6475532582
 40
0.6636309306
 40
0.6797344691
 40
0.6958593554
 40
0.712000872
 40
0.7281541559
 40
0.7443142354
 40
0.760476094
 40
0.7766347006
 40
0.7927850368
 40
0.8089221633
 40
0.825041253
 40
0.841137653
 40
0.8572068966
 40
0.8732447586
 40
0.8892472438
 40
0.905210786
 40
0.9211321918
 40
0.9370083369
 40
0.9686063743
 40
1.0
 40
1.0
 40
1.0
 40
1.0
 10
8.2177733528
 20
7.7488181835
 30
0.0
 10
8.2294941192
 20
7.7480053456
 30
0.0
 10
8.2529420391
 20
7.7469533738
 30
0.0
 10
8.2880864121
 20
7.7471047311
 30
0.0
 10
8.3230636962
 20
7.7489903954
 30
0.0
 10
8.3577863488
 20
7.7526044128
 30
0.0
 10
8.3921721916
 20
7.7579387213
 30
0.0
 10
8.4261388042
 20
7.7649798975
 30
0.0
 10
8.459603803
 20
7.7737119197
 30
0.0
 10
8.492486557
 20
7.7841132444
 30
0.0
 10
8.5247078544
 20
7.7961589933
 30
0.0
 10
8.5561899102
 20
7.8098203839
 30
0.0
 10
8.5868569512
 20
7.8250641247
 30
0.0
 10
8.6166346717
 20
7.8418541544
 30
0.0
 10
8.6454517459
 20
7.8601491623
 30
0.0
 10
8.6732379813
 20
7.8799061055
 30
0.0
 10
8.6999271666
 20
7.901076196
 30
0.0
 10
8.7254539458
 20
7.9236096003
 30
0.0
 10
8.7497578134
 20
7.947450767
 30
0.0
 10
8.7727790213
 20
7.972543346
 30
0.0
 10
8.794463191
 20
7.9988257488
 30
0.0
 10
8.8147569409
 20
8.0262354754
 30
0.0
 10
8.833612344
 20
8.0547056551
 30
0.0
 10
8.8509831353
 20
8.0841681685
 30
0.0
 10
8.8668281034
 20
8.1145515562
 30
0.0
 10
8.8811086969
 20
8.1457827424
 30
0.0
 10
8.8937906832
 20
8.177786317
 30
0.0
 10
8.9048437002
 20
8.2104850602
 30
0.0
 10
8.914240751
 20
8.2438002589
 30
0.0
 10
8.9219599786
 20
8.2776514054
 30
0.0
 10
8.9279818939
 20
8.3119570975
 30
0.0
 10
8.9322932608
 20
8.3466344603
 30
0.0
 10
8.9348824079
 20
8.3816000896
 30
0.0
 10
8.9357446876
 20
8.4167696449
 30
0.0
 10
8.9348765373
 20
8.4520584246
 30
0.0
 10
8.9322816978
 20
8.487381473
 30
0.0
 10
8.9279650105
 20
8.5226536072
 30
0.0
 10
8.9219382968
 20
8.5577900644
 30
0.0
 10
8.9142149779
 20
8.5927060435
 30
0.0
 10
8.9048146625
 20
8.627317683
 30
0.0
 10
8.8937593549
 20
8.6615414767
 30
0.0
 10
8.8810761433
 20
8.6952951749
 30
0.0
 10
8.8667954738
 20
8.7284974926
 30
0.0
 10
8.8509516414
 20
8.7610684443
 30
0.0
 10
8.8335832062
 20
8.7929298291
 30
0.0
 10
8.8147314047
 20
8.8240046235
 30
0.0
 10
8.7944424399
 20
8.8542185403
 30
0.0
 10
8.7727642123
 20
8.8834982083
 30
0.0
 10
8.74974999
 20
8.911773951
 30
0.0
 10
8.725454059
 20
8.9389767886
 30
0.0
 10
8.6999360282
 20
8.965042254
 30
0.0
 10
8.6732562396
 20
8.9899065524
 30
0.0
 10
8.6454799048
 20
9.0135108835
 30
0.0
 10
8.6166730145
 20
9.0357974018
 30
0.0
 10
8.5869056181
 20
9.05671336
 30
0.0
 10
8.5562487997
 20
9.0762076296
 30
0.0
 10
8.5247767093
 20
9.0942338261
 30
0.0
 10
8.492564918
 20
9.1107481481
 30
0.0
 10
8.4596909783
 20
9.1257109827
 30
0.0
 10
8.4262341968
 20
9.1390863408
 30
0.0
 10
8.3922740779
 20
9.1508416103
 30
0.0
 10
8.3465130202
 20
9.16429513
 30
0.0
 10
8.2884628868
 20
9.1769518039
 30
0.0
 10
8.2413292999
 20
9.1825504359
 30
0.0
 10
8.2177733528
 20
9.1841840464
 30
0.0
  0
SPLINE
  5
32D
100
AcDbEntity
  8
0
100
AcDbSpline
 62
7
  6
CONTINUOUS
 70
0
 71
3
 72
69
 73
65
 74
0
 42
0.0000001
 43
0.0000001
 44
0.0000000001
 40
0.0
 40
0.0
 40
0.0
 40
0.0
 40
0.0156205714
 40
0.0311913852
 40
0.0467079772
 40
0.06217213
 40
0.0775863871
 40
0.0929523587
 40
0.1082722279
 40
0.1235489783
 40
0.1387860012
 40
0.153986987
 40
0.1691560547
 40
0.1842976444
 40
0.1994165132
 40
0.2145176268
 40
0.2296061576
 40
0.2446873943
 40
0.2597667245
 40
0.2748495549
 40
0.2899412358
 40
0.3050470393
 40
0.3201720728
 40
0.3353212665
 40
0.3504992628
 40
0.3657104298
 40
0.3809587547
 40
0.3962478734
 40
0.4115809858
 40
0.4269608476
 40
0.4423897281
 40
0.4578694146
 40
0.4734012032
 40
0.4889858535
 40
0.5046236349
 40
0.5203142721
 40
0.5360570259
 40
0.5518506307
 40
0.5676933837
 40
0.5835830748
 40
0.5995171091
 40
0.6154924614
 40
0.6315057604
 40
0.6475532582
 40
0.6636309306
 40
0.6797344691
 40
0.6958593554
 40
0.712000872
 40
0.7281541559
 40
0.7443142354
 40
0.760476094
 40
0.7766347006
 40
0.7927850368
 40
0.8089221633
 40
0.825041253
 40
0.841137653
 40
0.8572068966
 40
0.8732447586
 40
0.8892472438
 40
0.905210786
 40
0.9211321918
 40
0.9370083369
 40
0.9686063743
 40
1.0
 40
1.0
 40
1.0
 40
1.0
 10
8.2177733528
 20
9.1841840464
 30
0.0
 10
8.2060525864
 20
9.1849968843
 30
0.0
 10
8.1826046665
 20
9.1860488561
 30
0.0
 10
8.1474602935
 20
9.1858974988
 30
0.0
 10
8.1124830094
 20
9.1840118344
 30
0.0
 10
8.0777603568
 20
9.180397817
 30
0.0
 10
8.043374514
 20
9.1750635086
 30
0.0
 10
8.0094079014
 20
9.1680223324
 30
0.0
 10
7.9759429026
 20
9.1592903101
 30
0.0
 10
7.9430601486
 20
9.1488889854
 30
0.0
 10
7.9108388512
 20
9.1368432366
 30
0.0
 10
7.8793567954
 20
9.123181846
 30
0.0
 10
7.8486897544
 20
9.1079381052
 30
0.0
 10
7.8189120339
 20
9.0911480755
 30
0.0
 10
7.7900949597
 20
9.0728530676
 30
0.0
 10
7.7623087243
 20
9.0530961244
 30
0.0
 10
7.735619539
 20
9.0319260339
 30
0.0
 10
7.7100927598
 20
9.0093926296
 30
0.0
 10
7.6857888922
 20
8.9855514628
 30
0.0
 10
7.6627676843
 20
8.9604588839
 30
0.0
 10
7.6410835146
 20
8.934176481
 30
0.0
 10
7.6207897647
 20
8.9067667545
 30
0.0
 10
7.6019343616
 20
8.8782965748
 30
0.0
 10
7.5845635704
 20
8.8488340614
 30
0.0
 10
7.5687186022
 20
8.8184506736
 30
0.0
 10
7.5544380087
 20
8.7872194874
 30
0.0
 10
7.5417560224
 20
8.7552159128
 30
0.0
 10
7.5307030054
 20
8.7225171696
 30
0.0
 10
7.5213059546
 20
8.6892019709
 30
0.0
 10
7.513586727
 20
8.6553508245
 30
0.0
 10
7.5075648117
 20
8.6210451323
 30
0.0
 10
7.5032534448
 20
8.5863677696
 30
0.0
 10
7.5006642977
 20
8.5514021403
 30
0.0
 10
7.499802018
 20
8.516232585
 30
0.0
 10
7.5006701683
 20
8.4809438053
 30
0.0
 10
7.5032650078
 20
8.4456207568
 30
0.0
 10
7.5075816951
 20
8.4103486226
 30
0.0
 10
7.5136084088
 20
8.3752121655
 30
0.0
 10
7.5213317277
 20
8.3402961864
 30
0.0
 10
7.5307320431
 20
8.3056845468
 30
0.0
 10
7.5417873507
 20
8.2714607532
 30
0.0
 10
7.5544705623
 20
8.2377070549
 30
0.0
 10
7.5687512318
 20
8.2045047373
 30
0.0
 10
7.5845950642
 20
8.1719337855
 30
0.0
 10
7.6019634994
 20
8.1400724008
 30
0.0
 10
7.6208153009
 20
8.1089976064
 30
0.0
 10
7.6411042657
 20
8.0787836896
 30
0.0
 10
7.6627824933
 20
8.0495040216
 30
0.0
 10
7.6857967156
 20
8.0212282788
 30
0.0
 10
7.7100926466
 20
7.9940254412
 30
0.0
 10
7.7356106774
 20
7.9679599759
 30
0.0
 10
7.762290466
 20
7.9430956775
 30
0.0
 10
7.7900668008
 20
7.9194913464
 30
0.0
 10
7.8188736911
 20
7.8972048281
 30
0.0
 10
7.8486410875
 20
7.8762888698
 30
0.0
 10
7.8792979059
 20
7.8567946002
 30
0.0
 10
7.9107699963
 20
7.8387684037
 30
0.0
 10
7.9429817876
 20
7.8222540817
 30
0.0
 10
7.9758557273
 20
7.8072912472
 30
0.0
 10
8.0093125088
 20
7.7939158891
 30
0.0
 10
8.0432726277
 20
7.7821606196
 30
0.0
 10
8.0890336854
 20
7.7687070999
 30
0.0
 10
8.1470838188
 20
7.756050426
 30
0.0
 10
8.1942174057
 20
7.7504517939
 30
0.0
 10
8.2177733528
 20
7.7488181835
 30
0.0
  0
SPLINE
  5
32E
100
AcDbEntity
  8
0
100
AcDbSpline
 62
7
  6
CONTINUOUS
 70
0
 71
3
 72
20
 73
16
 74
0
 42
0.0000001
 43
0.0000001
 44
0.0000000001
 40
0.0
 40
0.0
 40
0.0
 40
0.0
 40
0.1155254319
 40
0.174494664
 40
0.2342967666
 40
0.2949324399
 40
0.3563823744
 40
0.4186052445
 40
0.481538741
 40
0.5451029856
 40
0.6092059101
 40
0.6737497991
 40
0.7386379422
 40
0.8690965505
 40
1.0
 40
1.0
 40
1.0
 40
1.0
 10
8.9578865726
 20
8.0491293524
 30
0.0
 10
8.9556060995
 20
8.0785116793
 30
0.0
 10
8.9525190634
 20
8.1229211833
 30
0.0
 10
8.9491803016
 20
8.1825979253
 30
0.0
 10
8.9470604244
 20
8.2283165459
 30
0.0
 10
8.9453736054
 20
8.274686457
 30
0.0
 10
8.9441474748
 20
8.3216886554
 30
0.0
 10
8.9434036403
 20
8.3692872333
 30
0.0
 10
8.9431558147
 20
8.4174303499
 30
0.0
 10
8.9434086084
 20
8.4660530266
 30
0.0
 10
8.9441570958
 20
8.5150814048
 30
0.0
 10
8.9453873035
 20
8.5644378467
 30
0.0
 10
8.9476447811
 20
8.6306986344
 30
0.0
 10
8.9515463941
 20
8.7138377915
 30
0.0
 10
8.955637823
 20
8.7803880668
 30
0.0
 10
8.9578865726
 20
8.8137059095
 30
0.0
  0
SPLINE
  5
32F
100
AcDbEntity
  8
0
100
AcDbSpline
 62
7
  6
CONTINUOUS
 70
0
 71
3
 72
21
 73
17
 74
0
 42
0.0000001
 43
0.0000001
 44
0.0000000001
 40
0.0
 40
0.0
 40
0.0
 40
0.0
 40
0.1257432534
 40
0.1889091896
 40
0.2522265766
 40
0.3156453943
 40
0.3791029106
 40
0.4425251942
 40
0.5058311142
 40
0.5689376204
 40
0.6317655615
 40
0.6942451294
 40
0.7563200945
 40
0.8179502739
 40
0.8791112975
 40
1.0
 40
1.0
 40
1.0
 40
1.0
 10
8.9267463524
 20
8.8698019347
 30
0.0
 10
8.8974060923
 20
8.8851351934
 30
0.0
 10
8.8535240304
 20
8.9085523954
 30
0.0
 10
8.7954234972
 20
8.9407103787
 30
0.0
 10
8.7519490185
 20
8.9654038379
 30
0.0
 10
8.7087025629
 20
8.9906472713
 30
0.0
 10
8.6657505431
 20
9.0164424701
 30
0.0
 10
8.6231631822
 20
9.0427790806
 30
0.0
 10
8.5810104025
 20
9.0696343141
 30
0.0
 10
8.5393571865
 20
9.0969739259
 30
0.0
 10
8.4982590694
 20
9.1247543863
 30
0.0
 10
8.4577585157
 20
9.1529259442
 30
0.0
 10
8.4178827334
 20
9.1814360289
 30
0.0
 10
8.3786431602
 20
9.2102325725
 30
0.0
 10
8.3273685883
 20
9.2487935914
 30
0.0
 10
8.289536875
 20
9.2782285759
 30
0.0
 10
8.2646036308
 20
9.2980099669
 30
0.0
  0
SPLINE
  5
330
100
AcDbEntity
  8
0
100
AcDbSpline
 62
7
  6
CONTINUOUS
 70
0
 71
3
 72
15
 73
11
 74
0
 42
0.0000001
 43
0.0000001
 44
0.0000000001
 40
0.0
 40
0.0
 40
0.0
 40
0.0
 40
0.1340162033
 40
0.2668995277
 40
0.3979172531
 40
0.5262007474
 40
0.6509246582
 40
0.7715238714
 40
0.8878213479
 40
1.0
 40
1.0
 40
1.0
 40
1.0
 10
8.2023231904
 20
9.3023291301
 30
0.0
 10
8.1731651385
 20
9.2864893222
 30
0.0
 10
8.1150200207
 20
9.2550822279
 30
0.0
 10
8.0280597576
 20
9.2087653934
 30
0.0
 10
7.9420361118
 20
9.1637139359
 30
0.0
 10
7.8574521413
 20
9.1202742381
 30
0.0
 10
7.7747977266
 20
9.0787315186
 30
0.0
 10
7.6944377136
 20
9.0392404762
 30
0.0
 10
7.6165366237
 20
9.0017965558
 30
0.0
 10
7.5653533689
 20
8.9776999918
 30
0.0
 10
7.5401804689
 20
8.9659606053
 30
0.0
  0
SPLINE
  5
331
100
AcDbEntity
  8
0
100
AcDbSpline
 62
7
  6
CONTINUOUS
 70
0
 71
3
 72
39
 73
35
 74
0
 42
0.0000001
 43
0.0000001
 44
0.0000000001
 40
0.0
 40
0.0
 40
0.0
 40
0.0
 40
0.0958316475
 40
0.1891006073
 40
0.279240642
 40
0.3229674356
 40
0.365711151
 40
0.4074094627
 40
0.4480020772
 40
0.4874317741
 40
0.5256439547
 40
0.5625873626
 40
0.5982141631
 40
0.6324802323
 40
0.6653459096
 40
0.6967758341
 40
0.7267403598
 40
0.7552153214
 40
0.7821838024
 40
0.8076365273
 40
0.831573723
 40
0.8540068598
 40
0.8749607899
 40
0.8944774057
 40
0.9126188108
 40
0.9294731124
 40
0.9451592998
 40
0.9598338063
 40
0.9668558128
 40
0.9737028706
 40
0.9804062828
 40
0.9869996808
 40
0.9935186293
 40
1.0
 40
1.0
 40
1.0
 40
1.0
 10
7.8600298846
 20
11.2387990766
 30
0.0
 10
7.8510700128
 20
11.2394204459
 30
0.0
 10
7.8334027669
 20
11.2408436234
 30
0.0
 10
7.8073711996
 20
11.243560322
 30
0.0
 10
7.7862582589
 20
11.2463002364
 30
0.0
 10
7.7698905496
 20
11.2487666005
 30
0.0
 10
7.7580387193
 20
11.2507246284
 30
0.0
 10
7.7465063104
 20
11.25280619
 30
0.0
 10
7.735312572
 20
11.2550078972
 30
0.0
 10
7.7244762005
 20
11.2573259619
 30
0.0
 10
7.7140152805
 20
11.2597565459
 30
0.0
 10
7.7039472578
 20
11.2622955304
 30
0.0
 10
7.6942889114
 20
11.2649386428
 30
0.0
 10
7.685056324
 20
11.2676814788
 30
0.0
 10
7.6762648354
 20
11.270519358
 30
0.0
 10
7.6679290478
 20
11.2734476175
 30
0.0
 10
7.6600627379
 20
11.2764612426
 30
0.0
 10
7.6526789023
 20
11.2795553139
 30
0.0
 10
7.6457896433
 20
11.2827246074
 30
0.0
 10
7.6394062157
 20
11.2859639664
 30
0.0
 10
7.6335389541
 20
11.2892681259
 30
0.0
 10
7.6281972432
 20
11.2926318053
 30
0.0
 10
7.6233896074
 20
11.2960499276
 30
0.0
 10
7.6191235379
 20
11.2995174029
 30
0.0
 10
7.615405927
 20
11.303029641
 30
0.0
 10
7.6122427616
 20
11.3065823866
 30
0.0
 10
7.6096403263
 20
11.3101712609
 30
0.0
 10
7.6079189123
 20
11.3132341013
 30
0.0
 10
7.6068459054
 20
11.3156865662
 30
0.0
 10
7.6061962072
 20
11.3175036201
 30
0.0
 10
7.6056904133
 20
11.319324264
 30
0.0
 10
7.6053288936
 20
11.3211477499
 30
0.0
 10
7.6051118572
 20
11.3229730013
 30
0.0
 10
7.6050635601
 20
11.3241919417
 30
0.0
 10
7.605063565
 20
11.3247993791
 30
0.0
  0
SPLINE
  5
332
100
AcDbEntity
  8
0
100
AcDbSpline
 62
7
  6
CONTINUOUS
 70
0
 71
3
 72
39
 73
35
 74
0
 42
0.0000001
 43
0.0000001
 44
0.0000000001
 40
0.0
 40
0.0
 40
0.0
 40
0.0
 40
0.0958316475
 40
0.1891006073
 40
0.279240642
 40
0.3229674356
 40
0.365711151
 40
0.4074094627
 40
0.4480020772
 40
0.4874317741
 40
0.5256439547
 40
0.5625873626
 40
0.5982141631
 40
0.6324802323
 40
0.6653459096
 40
0.6967758341
 40
0.7267403598
 40
0.7552153214
 40
0.7821838024
 40
0.8076365273
 40
0.831573723
 40
0.8540068598
 40
0.8749607899
 40
0.8944774057
 40
0.9126188108
 40
0.9294731124
 40
0.9451592998
 40
0.9598338063
 40
0.9668558128
 40
0.9737028706
 40
0.9804062828
 40
0.9869996808
 40
0.9935186293
 40
1.0
 40
1.0
 40
1.0
 40
1.0
 10
13.4141035421
 20
10.8536227603
 30
0.0
 10
13.4051436704
 20
10.8542441295
 30
0.0
 10
13.3874764244
 20
10.855667307
 30
0.0
 10
13.3614448571
 20
10.8583840056
 30
0.0
 10
13.3403319165
 20
10.86112392
 30
0.0
 10
13.3239642071
 20
10.8635902841
 30
0.0
 10
13.3121123768
 20
10.865548312
 30
0.0
 10
13.3005799679
 20
10.8676298736
 30
0.0
 10
13.2893862295
 20
10.8698315808
 30
0.0
 10
13.2785498581
 20
10.8721496455
 30
0.0
 10
13.2680889381
 20
10.8745802295
 30
0.0
 10
13.2580209154
 20
10.877119214
 30
0.0
 10
13.2483625689
 20
10.8797623264
 30
0.0
 10
13.2391299815
 20
10.8825051624
 30
0.0
 10
13.2303384929
 20
10.8853430416
 30
0.0
 10
13.2220027053
 20
10.8882713011
 30
0.0
 10
13.2141363954
 20
10.8912849263
 30
0.0
 10
13.2067525598
 20
10.8943789975
 30
0.0
 10
13.1998633008
 20
10.897548291
 30
0.0
 10
13.1934798732
 20
10.9007876501
 30
0.0
 10
13.1876126116
 20
10.9040918095
 30
0.0
 10
13.1822709007
 20
10.9074554889
 30
0.0
 10
13.1774632649
 20
10.9108736112
 30
0.0
 10
13.1731971955
 20
10.9143410865
 30
0.0
 10
13.1694795846
 20
10.9178533247
 30
0.0
 10
13.1663164192
 20
10.9214060702
 30
0.0
 10
13.1637139838
 20
10.9249949445
 30
0.0
 10
13.1619925699
 20
10.9280577849
 30
0.0
 10
13.160919563
 20
10.9305102498
 30
0.0
 10
13.1602698648
 20
10.9323273037
 30
0.0
 10
13.1597640709
 20
10.9341479476
 30
0.0
 10
13.1594025511
 20
10.9359714335
 30
0.0
 10
13.1591855147
 20
10.9377966849
 30
0.0
 10
13.1591372177
 20
10.9390156253
 30
0.0
 10
13.1591372225
 20
10.9396230627
 30
0.0
  0
SPLINE
  5
333
100
AcDbEntity
  8
0
100
AcDbSpline
 62
7
  6
CONTINUOUS
 70
0
 71
3
 72
27
 73
23
 74
0
 42
0.0000001
 43
0.0000001
 44
0.0000000001
 40
0.0
 40
0.0
 40
0.0
 40
0.0
 40
0.0637761271
 40
0.0955883976
 40
0.1273469085
 40
0.1907029206
 40
0.2538558223
 40
0.2853602401
 40
0.3168164357
 40
0.3795841196
 40
0.4421741829
 40
0.5045989092
 40
0.5668722156
 40
0.6290095116
 40
0.6910275677
 40
0.7219999748
 40
0.7529494013
 40
0.8147838969
 40
0.8765559321
 40
0.907427452
 40
0.9382910693
 40
1.0
 40
1.0
 40
1.0
 40
1.0
 10
12.5201412934
 20
8.8147511763
 30
0.0
 10
12.5201412934
 20
8.801467014
 30
0.0
 10
12.5196639442
 20
8.7815521305
 30
0.0
 10
12.5180670436
 20
8.7550728297
 30
0.0
 10
12.5158360764
 20
8.7287267103
 30
0.0
 10
12.5118574656
 20
8.6959876457
 30
0.0
 10
12.5062900341
 20
8.6635344591
 30
0.0
 10
12.5008936095
 20
8.6378236826
 30
0.0
 10
12.4948820159
 20
8.6123322541
 30
0.0
 10
12.486205007
 20
8.5808273465
 30
0.0
 10
12.473946982
 20
8.5436670794
 30
0.0
 10
12.4598786523
 20
8.507263476
 30
0.0
 10
12.4440324292
 20
8.4717009214
 30
0.0
 10
12.4264450804
 20
8.4370618291
 30
0.0
 10
12.4103637188
 20
8.4090181793
 30
0.0
 10
12.396672354
 20
8.3871291029
 30
0.0
 10
12.3824474831
 20
8.3656286958
 30
0.0
 10
12.363658445
 20
8.3394690455
 30
0.0
 10
12.3435626858
 20
8.3143200745
 30
0.0
 10
12.3267391769
 20
8.2948542617
 30
0.0
 10
12.309430132
 20
8.2758374596
 30
0.0
 10
12.2959027353
 20
8.2620807182
 30
0.0
 10
12.2866577552
 20
8.2531507225
 30
0.0
  0
SPLINE
  5
334
100
AcDbEntity
  8
0
100
AcDbSpline
 62
7
  6
CONTINUOUS
 70
0
 71
3
 72
27
 73
23
 74
0
 42
0.0000001
 43
0.0000001
 44
0.0000000001
 40
0.0
 40
0.0
 40
0.0
 40
0.0
 40
0.0637761271
 40
0.0955883976
 40
0.1273469085
 40
0.1907029206
 40
0.2538558223
 40
0.2853602401
 40
0.3168164357
 40
0.3795841196
 40
0.4421741829
 40
0.5045989092
 40
0.5668722156
 40
0.6290095116
 40
0.6910275677
 40
0.7219999748
 40
0.7529494013
 40
0.8147838969
 40
0.8765559321
 40
0.907427452
 40
0.9382910693
 40
1.0
 40
1.0
 40
1.0
 40
1.0
 10
10.5882892961
 20
6.7753923295
 30
0.0
 10
10.5882892961
 20
6.7621081671
 30
0.0
 10
10.5878119468
 20
6.7421932836
 30
0.0
 10
10.5862150463
 20
6.7157139829
 30
0.0
 10
10.5839840791
 20
6.6893678634
 30
0.0
 10
10.5800054683
 20
6.6566287988
 30
0.0
 10
10.5744380368
 20
6.6241756122
 30
0.0
 10
10.5690416122
 20
6.5984648358
 30
0.0
 10
10.5630300186
 20
6.5729734073
 30
0.0
 10
10.5543530097
 20
6.5414684996
 30
0.0
 10
10.5420949846
 20
6.5043082326
 30
0.0
 10
10.5280266549
 20
6.4679046291
 30
0.0
 10
10.5121804319
 20
6.4323420745
 30
0.0
 10
10.494593083
 20
6.3977029822
 30
0.0
 10
10.4785117214
 20
6.3696593325
 30
0.0
 10
10.4648203567
 20
6.347770256
 30
0.0
 10
10.4505954858
 20
6.326269849
 30
0.0
 10
10.4318064477
 20
6.3001101986
 30
0.0
 10
10.4117106885
 20
6.2749612277
 30
0.0
 10
10.3948871796
 20
6.2554954149
 30
0.0
 10
10.3775781346
 20
6.2364786127
 30
0.0
 10
10.364050738
 20
6.2227218713
 30
0.0
 10
10.3548057579
 20
6.2137918756
 30
0.0
  0
SPLINE
  5
335
100
AcDbEntity
  8
0
100
AcDbSpline
 62
7
  6
CONTINUOUS
 70
0
 71
3
 72
15
 73
11
 74
0
 42
0.0000001
 43
0.0000001
 44
0.0000000001
 40
0.0
 40
0.0
 40
0.0
 40
0.0
 40
0.1266464005
 40
0.2527852285
 40
0.3784258695
 40
0.5035863734
 40
0.6282904615
 40
0.7525687688
 40
0.8764578636
 40
1.0
 40
1.0
 40
1.0
 40
1.0
 10
9.2900851739
 20
8.7972748582
 30
0.0
 10
9.2900851739
 20
8.7841007151
 30
0.0
 10
9.2893216781
 20
8.7577986443
 30
0.0
 10
9.2858735121
 20
8.7185632008
 30
0.0
 10
9.2801361257
 20
8.6797512361
 30
0.0
 10
9.2721288026
 20
8.6414958428
 30
0.0
 10
9.2618784525
 20
8.6039261162
 30
0.0
 10
9.2494193765
 20
8.567168936
 30
0.0
 10
9.2347944711
 20
8.5313504381
 30
0.0
 10
9.2236170619
 20
8.5081443286
 30
0.0
 10
9.2176864488
 20
8.4967433685
 30
0.0
  0
SPLINE
  5
336
100
AcDbEntity
  8
0
100
AcDbSpline
 62
7
  6
CONTINUOUS
 70
0
 71
3
 72
61
 73
57
 74
0
 42
0.0000001
 43
0.0000001
 44
0.0000000001
 40
0.0
 40
0.0
 40
0.0
 40
0.0
 40
0.041773683
 40
0.0840361744
 40
0.126657356
 40
0.1695049536
 40
0.2124461739
 40
0.255347734
 40
0.2980765393
 40
0.3405001682
 40
0.3824874064
 40
0.4239087759
 40
0.4646370687
 40
0.5045478875
 40
0.5435201962
 40
0.5814368877
 40
0.5999642174
 40
0.6181858165
 40
0.6360884225
 40
0.6536591429
 40
0.6708854449
 40
0.6877552479
 40
0.7042568506
 40
0.7203790744
 40
0.7361111744
 40
0.7514429752
 40
0.7663648323
 40
0.7808677049
 40
0.7949432137
 40
0.8085836306
 40
0.8217820383
 40
0.8345322654
 40
0.8468291079
 40
0.8586682842
 40
0.8700466517
 40
0.8809622685
 40
0.8914145636
 40
0.9014045599
 40
0.9109350136
 40
0.9200108095
 40
0.9286391477
 40
0.9368300847
 40
0.9445968849
 40
0.951956666
 40
0.9589309937
 40
0.9655465745
 40
0.9718360038
 40
0.977838309
 40
0.9807467497
 40
0.9836012173
 40
0.9864085083
 40
0.9891758169
 40
0.9919106779
 40
0.9946209207
 40
0.9973146171
 40
1.0
 40
1.0
 40
1.0
 40
1.0
 10
14.5879576784
 20
9.8482966434
 30
0.0
 10
14.5879576784
 20
9.8732769245
 30
0.0
 10
14.5883473957
 20
9.9235305749
 30
0.0
 10
14.5900702806
 20
9.9992535491
 30
0.0
 10
14.5929298306
 20
10.075584888
 30
0.0
 10
14.5969166879
 20
10.1522719851
 30
0.0
 10
14.6020176684
 20
10.2290610696
 30
0.0
 10
14.6082159143
 20
10.3056981176
 30
0.0
 10
14.615490893
 20
10.3819295769
 30
0.0
 10
14.6238184887
 20
10.4575032552
 30
0.0
 10
14.633171074
 20
10.532169147
 30
0.0
 10
14.6435175994
 20
10.6056802777
 30
0.0
 10
14.6548236964
 20
10.6777935041
 30
0.0
 10
14.6670517818
 20
10.7482704183
 30
0.0
 10
14.6801612157
 20
10.816877821
 30
0.0
 10
14.6918719616
 20
10.8727248663
 30
0.0
 10
14.7016616619
 20
10.9162883849
 30
0.0
 10
14.70914
 20
10.948102953
 30
0.0
 10
14.7168045715
 20
10.9792844134
 30
0.0
 10
14.7246490299
 20
11.0098070017
 30
0.0
 10
14.7326669107
 20
11.0396454663
 30
0.0
 10
14.7408514981
 20
11.0687751415
 30
0.0
 10
14.7491960868
 20
11.0971719372
 30
0.0
 10
14.7576936724
 20
11.1248123904
 30
0.0
 10
14.7663372824
 20
11.1516736525
 30
0.0
 10
14.7751196949
 20
11.1777335405
 30
0.0
 10
14.7840336529
 20
11.2029705313
 30
0.0
 10
14.7930717737
 20
11.2273637926
 30
0.0
 10
14.8022265242
 20
11.2508932089
 30
0.0
 10
14.8114903911
 20
11.2735393687
 30
0.0
 10
14.8208556084
 20
11.295283639
 30
0.0
 10
14.8303145321
 20
11.3161081036
 30
0.0
 10
14.8398592436
 20
11.3359956761
 30
0.0
 10
14.8494819494
 20
11.3549300178
 30
0.0
 10
14.8591746769
 20
11.3728956397
 30
0.0
 10
14.8689294844
 20
11.389877865
 30
0.0
 10
14.8787384347
 20
11.4058628475
 30
0.0
 10
14.8885934918
 20
11.420837646
 30
0.0
 10
14.89848683
 20
11.4347900984
 30
0.0
 10
14.9084104501
 20
11.4477090363
 30
0.0
 10
14.9183567107
 20
11.4595840105
 30
0.0
 10
14.928317866
 20
11.4704055727
 30
0.0
 10
14.9382865532
 20
11.4801649452
 30
0.0
 10
14.9482555385
 20
11.4888541751
 30
0.0
 10
14.958217788
 20
11.4964658905
 30
0.0
 10
14.9681668393
 20
11.5029931715
 30
0.0
 10
14.9780951608
 20
11.508429257
 30
0.0
 10
14.986433823
 20
11.5120825793
 30
0.0
 10
14.9930687002
 20
11.5144301762
 30
0.0
 10
14.9979816556
 20
11.5158967645
 30
0.0
 10
15.0028819962
 20
11.517086997
 30
0.0
 10
15.0077687413
 20
11.5180006362
 30
0.0
 10
15.0126407661
 20
11.5186373801
 30
0.0
 10
15.0174970289
 20
11.5189969303
 30
0.0
 10
15.0223361795
 20
11.5190791923
 30
0.0
 10
15.0255522879
 20
11.5189490668
 30
0.0
 10
15.0271542742
 20
11.5188379617
 30
0.0
  0
SPLINE
  5
337
100
AcDbEntity
  8
0
100
AcDbSpline
 62
7
  6
CONTINUOUS
 70
0
 71
3
 72
61
 73
57
 74
0
 42
0.0000001
 43
0.0000001
 44
0.0000000001
 40
0.0
 40
0.0
 40
0.0
 40
0.0
 40
0.041773683
 40
0.0840361744
 40
0.126657356
 40
0.1695049536
 40
0.2124461739
 40
0.255347734
 40
0.2980765393
 40
0.3405001682
 40
0.3824874064
 40
0.4239087759
 40
0.4646370687
 40
0.5045478875
 40
0.5435201962
 40
0.5814368877
 40
0.5999642174
 40
0.6181858165
 40
0.6360884225
 40
0.6536591429
 40
0.6708854449
 40
0.6877552479
 40
0.7042568506
 40
0.7203790744
 40
0.7361111744
 40
0.7514429752
 40
0.7663648323
 40
0.7808677049
 40
0.7949432137
 40
0.8085836306
 40
0.8217820383
 40
0.8345322654
 40
0.8468291079
 40
0.8586682842
 40
0.8700466517
 40
0.8809622685
 40
0.8914145636
 40
0.9014045599
 40
0.9109350136
 40
0.9200108095
 40
0.9286391477
 40
0.9368300847
 40
0.9445968849
 40
0.951956666
 40
0.9589309937
 40
0.9655465745
 40
0.9718360038
 40
0.977838309
 40
0.9807467497
 40
0.9836012173
 40
0.9864085083
 40
0.9891758169
 40
0.9919106779
 40
0.9946209207
 40
0.9973146171
 40
1.0
 40
1.0
 40
1.0
 40
1.0
 10
14.5879576784
 20
6.8288124015
 30
0.0
 10
14.5879576784
 20
6.8537926826
 30
0.0
 10
14.5883473957
 20
6.904046333
 30
0.0
 10
14.5900702806
 20
6.9797693072
 30
0.0
 10
14.5929298306
 20
7.0561006461
 30
0.0
 10
14.5969166879
 20
7.1327877432
 30
0.0
 10
14.6020176684
 20
7.2095768277
 30
0.0
 10
14.6082159143
 20
7.2862138757
 30
0.0
 10
14.615490893
 20
7.3624453351
 30
0.0
 10
14.6238184887
 20
7.4380190133
 30
0.0
 10
14.633171074
 20
7.5126849051
 30
0.0
 10
14.6435175994
 20
7.5861960358
 30
0.0
 10
14.6548236964
 20
7.6583092622
 30
0.0
 10
14.6670517818
 20
7.7287861764
 30
0.0
 10
14.6801612157
 20
7.7973935791
 30
0.0
 10
14.6918719616
 20
7.8532406244
 30
0.0
 10
14.7016616619
 20
7.896804143
 30
0.0
 10
14.70914
 20
7.9286187112
 30
0.0
 10
14.7168045715
 20
7.9598001716
 30
0.0
 10
14.7246490299
 20
7.9903227598
 30
0.0
 10
14.7326669107
 20
8.0201612244
 30
0.0
 10
14.7408514981
 20
8.0492908997
 30
0.0
 10
14.7491960868
 20
8.0776876953
 30
0.0
 10
14.7576936724
 20
8.1053281485
 30
0.0
 10
14.7663372824
 20
8.1321894107
 30
0.0
 10
14.7751196949
 20
8.1582492986
 30
0.0
 10
14.7840336529
 20
8.1834862894
 30
0.0
 10
14.7930717737
 20
8.2078795508
 30
0.0
 10
14.8022265242
 20
8.231408967
 30
0.0
 10
14.8114903911
 20
8.2540551268
 30
0.0
 10
14.8208556084
 20
8.2757993971
 30
0.0
 10
14.8303145321
 20
8.2966238617
 30
0.0
 10
14.8398592436
 20
8.3165114342
 30
0.0
 10
14.8494819494
 20
8.3354457759
 30
0.0
 10
14.8591746769
 20
8.3534113979
 30
0.0
 10
14.8689294844
 20
8.3703936231
 30
0.0
 10
14.8787384347
 20
8.3863786056
 30
0.0
 10
14.8885934918
 20
8.4013534042
 30
0.0
 10
14.89848683
 20
8.4153058565
 30
0.0
 10
14.9084104501
 20
8.4282247944
 30
0.0
 10
14.9183567107
 20
8.4400997686
 30
0.0
 10
14.928317866
 20
8.4509213308
 30
0.0
 10
14.9382865532
 20
8.4606807033
 30
0.0
 10
14.9482555385
 20
8.4693699332
 30
0.0
 10
14.958217788
 20
8.4769816487
 30
0.0
 10
14.9681668393
 20
8.4835089296
 30
0.0
 10
14.9780951608
 20
8.4889450151
 30
0.0
 10
14.986433823
 20
8.4925983374
 30
0.0
 10
14.9930687002
 20
8.4949459343
 30
0.0
 10
14.9979816556
 20
8.4964125226
 30
0.0
 10
15.0028819962
 20
8.4976027551
 30
0.0
 10
15.0077687413
 20
8.4985163943
 30
0.0
 10
15.0126407661
 20
8.4991531382
 30
0.0
 10
15.0174970289
 20
8.4995126884
 30
0.0
 10
15.0223361795
 20
8.4995949504
 30
0.0
 10
15.0255522879
 20
8.4994648249
 30
0.0
 10
15.0271542742
 20
8.4993537199
 30
0.0
  0
SPLINE
  5
338
100
AcDbEntity
  8
0
100
AcDbSpline
 62
7
  6
CONTINUOUS
 70
0
 71
3
 72
26
 73
22
 74
0
 42
0.0000001
 43
0.0000001
 44
0.0000000001
 40
0.0
 40
0.0
 40
0.0
 40
0.0
 40
0.0637763276
 40
0.127342886
 40
0.1906991341
 40
0.2538523424
 40
0.2853569136
 40
0.3168132539
 40
0.3795812247
 40
0.4421715801
 40
0.5045965951
 40
0.5668701916
 40
0.6290077778
 40
0.6910261223
 40
0.7219986725
 40
0.7529482429
 40
0.8147830252
 40
0.8765553491
 40
0.9074270146
 40
0.9382907765
 40
1.0
 40
1.0
 40
1.0
 40
1.0
 10
12.5162503462
 20
8.8579928097
 30
0.0
 10
12.5162503462
 20
8.8454337673
 30
0.0
 10
12.5156492355
 20
8.8203527561
 30
0.0
 10
12.5129360226
 20
8.7828836574
 30
0.0
 10
12.5084186524
 20
8.7457120599
 30
0.0
 10
12.5031550985
 20
8.7150300593
 30
0.0
 10
12.4980531895
 20
8.6907227138
 30
0.0
 10
12.4923697323
 20
8.6666226984
 30
0.0
 10
12.4841662912
 20
8.6368374707
 30
0.0
 10
12.4725773119
 20
8.6017055703
 30
0.0
 10
12.459276837
 20
8.5672890357
 30
0.0
 10
12.4442955116
 20
8.533667646
 30
0.0
 10
12.4276680955
 20
8.5009193152
 30
0.0
 10
12.4124644332
 20
8.474406445
 30
0.0
 10
12.3995203679
 20
8.453712177
 30
0.0
 10
12.3860718604
 20
8.4333854019
 30
0.0
 10
12.3683083472
 20
8.4086536875
 30
0.0
 10
12.3493094549
 20
8.3848774715
 30
0.0
 10
12.3334041401
 20
8.3664742627
 30
0.0
 10
12.3170398931
 20
8.3484954657
 30
0.0
 10
12.304250781
 20
8.3354897099
 30
0.0
 10
12.2955104186
 20
8.3270471559
 30
0.0
  0
SPLINE
  5
339
100
AcDbEntity
  8
0
100
AcDbSpline
 62
7
  6
CONTINUOUS
 70
0
 71
3
 72
21
 73
17
 74
0
 42
0.0000001
 43
0.0000001
 44
0.0000000001
 40
0.0
 40
0.0
 40
0.0
 40
0.0
 40
0.0632459501
 40
0.1263584636
 40
0.1893430514
 40
0.2522058752
 40
0.3149537381
 40
0.3775940398
 40
0.5025635422
 40
0.6272040778
 40
0.6894349602
 40
0.7516125986
 40
0.8137473124
 40
0.8758496252
 40
0.9379302514
 40
1.0
 40
1.0
 40
1.0
 40
1.0
 10
12.5141377936
 20
8.7996354824
 30
0.0
 10
12.5123794637
 20
8.7918445077
 30
0.0
 10
12.5085911979
 20
8.7763396323
 30
0.0
 10
12.5020932756
 20
8.753323572
 30
0.0
 10
12.4947934443
 20
8.7305995798
 30
0.0
 10
12.4867003435
 20
8.7081949646
 30
0.0
 10
12.477823303
 20
8.6861357228
 30
0.0
 10
12.4649679685
 20
8.6572449348
 30
0.0
 10
12.4469907763
 20
8.6221077707
 30
0.0
 10
12.4265304605
 20
8.5884160173
 30
0.0
 10
12.4087517544
 20
8.5624652706
 30
0.0
 10
12.3947313529
 20
8.5435275518
 30
0.0
 10
12.3800357524
 20
8.5251300219
 30
0.0
 10
12.3646820007
 20
8.5072940076
 30
0.0
 10
12.3486886521
 20
8.4900408441
 30
0.0
 10
12.3376114198
 20
8.478939901
 30
0.0
 10
12.3319736184
 20
8.4734942063
 30
0.0
  0
SPLINE
  5
33A
100
AcDbEntity
  8
0
100
AcDbSpline
 62
7
  6
CONTINUOUS
 70
0
 71
3
 72
54
 73
50
 74
0
 42
0.0000001
 43
0.0000001
 44
0.0000000001
 40
0.0
 40
0.0
 40
0.0
 40
0.0
 40
0.0149549341
 40
0.0228541472
 40
0.0310579718
 40
0.0395822518
 40
0.0484391976
 40
0.0576384332
 40
0.0671871144
 40
0.0770904875
 40
0.087352021
 40
0.0979736068
 40
0.1089559326
 40
0.1202983739
 40
0.1319995127
 40
0.1440567783
 40
0.1564670849
 40
0.1692262914
 40
0.1823299093
 40
0.1957724519
 40
0.209548167
 40
0.2380682362
 40
0.2528016452
 40
0.2678385607
 40
0.298782452
 40
0.3308266087
 40
0.3472373136
 40
0.363890399
 40
0.3978715034
 40
0.4326777404
 40
0.4503620655
 40
0.4682154931
 40
0.4862258018
 40
0.5043810144
 40
0.5226694859
 40
0.5410799768
 40
0.5596017421
 40
0.578224554
 40
0.6157295748
 40
0.6535308049
 40
0.691568011
 40
0.729790462
 40
0.7681564218
 40
0.8066324532
 40
0.8451927235
 40
0.883818522
 40
0.9224977476
 40
0.9612247894
 40
1.0
 40
1.0
 40
1.0
 40
1.0
 10
11.9624854484
 20
8.6794005574
 30
0.0
 10
11.958748221
 20
8.6757906727
 30
0.0
 10
11.9526324068
 20
8.6706801518
 30
0.0
 10
11.9437639011
 20
8.6645272984
 30
0.0
 10
11.9364641275
 20
8.660053702
 30
0.0
 10
11.9286462061
 20
8.6558150811
 30
0.0
 10
11.9203157981
 20
8.6518201563
 30
0.0
 10
11.9114806516
 20
8.648079588
 30
0.0
 10
11.9021487212
 20
8.6446052125
 30
0.0
 10
11.8923288483
 20
8.6414100471
 30
0.0
 10
11.8820306493
 20
8.6385081702
 30
0.0
 10
11.8712645444
 20
8.6359150109
 30
0.0
 10
11.8600420172
 20
8.6336467037
 30
0.0
 10
11.8483754196
 20
8.6317208029
 30
0.0
 10
11.836278366
 20
8.6301552756
 30
0.0
 10
11.8237654922
 20
8.6289694282
 30
0.0
 10
11.8108528776
 20
8.628182766
 30
0.0
 10
11.7975578057
 20
8.6278158648
 30
0.0
 10
11.7838992452
 20
8.6278893249
 30
0.0
 10
11.7698972871
 20
8.6284244047
 30
0.0
 10
11.7505775137
 20
8.6297972524
 30
0.0
 10
11.7308901941
 20
8.6321835686
 30
0.0
 10
11.7109252329
 20
8.6356012494
 30
0.0
 10
11.6902590356
 20
8.6398489233
 30
0.0
 10
11.6639936824
 20
8.646646991
 30
0.0
 10
11.6377948575
 20
8.6553587483
 30
0.0
 10
11.6167191738
 20
8.6635875256
 30
0.0
 10
11.5953229469
 20
8.6728078765
 30
0.0
 10
11.5686943558
 20
8.6859871007
 30
0.0
 10
11.5427511372
 20
8.7011922405
 30
0.0
 10
11.5223460685
 20
8.7146524781
 30
0.0
 10
11.5071869713
 20
8.7254457769
 30
0.0
 10
11.4922921542
 20
8.7368714801
 30
0.0
 10
11.4776972939
 20
8.7489169463
 30
0.0
 10
11.4634357936
 20
8.7615658579
 30
0.0
 10
11.4495401898
 20
8.7748009363
 30
0.0
 10
11.4360398129
 20
8.7886022176
 30
0.0
 10
11.4185646866
 20
8.8077737196
 30
0.0
 10
11.3978627016
 20
8.8330394135
 30
0.0
 10
11.3750553828
 20
8.8651800729
 30
0.0
 10
11.35436632
 20
8.8990163716
 30
0.0
 10
11.3359122378
 20
8.9343420281
 30
0.0
 10
11.3197824599
 20
8.9709536444
 30
0.0
 10
11.3060447772
 20
9.008652532
 30
0.0
 10
11.294749228
 20
9.0472472154
 30
0.0
 10
11.285931915
 20
9.0865540742
 30
0.0
 10
11.2796179721
 20
9.1263985833
 30
0.0
 10
11.275823949
 20
9.1666116942
 30
0.0
 10
11.2749814506
 20
9.1935469161
 30
0.0
 10
11.2749814506
 20
9.207019055
 30
0.0
  0
SPLINE
  5
33B
100
AcDbEntity
  8
0
100
AcDbSpline
 62
7
  6
CONTINUOUS
 70
0
 71
3
 72
25
 73
21
 74
0
 42
0.0000001
 43
0.0000001
 44
0.0000000001
 40
0.0
 40
0.0
 40
0.0
 40
0.0
 40
0.0639299665
 40
0.0958115537
 40
0.1276357335
 40
0.1911072158
 40
0.2543530047
 40
0.285895724
 40
0.3173843502
 40
0.3801982316
 40
0.4428107232
 40
0.5052346109
 40
0.5674848398
 40
0.6295783614
 40
0.6915339532
 40
0.7533720112
 40
0.8151143192
 40
0.876783797
 40
0.9384042327
 40
1.0
 40
1.0
 40
1.0
 40
1.0
 10
11.7524384473
 20
9.6969063931
 30
0.0
 10
11.7388529152
 20
9.6982366422
 30
0.0
 10
11.7184358461
 20
9.6997071807
 30
0.0
 10
11.691195309
 20
9.7006052458
 30
0.0
 10
11.6640379265
 20
9.7007935146
 30
0.0
 10
11.6301869013
 20
9.6997024679
 30
0.0
 10
11.5964996885
 20
9.6968371255
 30
0.0
 10
11.5697430087
 20
9.6934849956
 30
0.0
 10
11.5431761752
 20
9.6894365294
 30
0.0
 10
11.5102648168
 20
9.6830656743
 30
0.0
 10
11.4713332663
 20
9.6733345773
 30
0.0
 10
11.4330986493
 20
9.6615495222
 30
0.0
 10
11.3956649651
 20
9.647742298
 30
0.0
 10
11.3591331702
 20
9.6319500792
 30
0.0
 10
11.3236020412
 20
9.6142154547
 30
0.0
 10
11.2891675708
 20
9.5945862402
 30
0.0
 10
11.2559229192
 20
9.5731154899
 30
0.0
 10
11.2239576359
 20
9.5498608726
 30
0.0
 10
11.1933592901
 20
9.5248863018
 30
0.0
 10
11.1739226363
 20
9.5071309874
 30
0.0
 10
11.1644629354
 20
9.4979936048
 30
0.0
  0
SPLINE
  5
33C
100
AcDbEntity
  8
0
100
AcDbSpline
 62
7
  6
CONTINUOUS
 70
0
 71
3
 72
15
 73
11
 74
0
 42
0.0000001
 43
0.0000001
 44
0.0000000001
 40
0.0
 40
0.0
 40
0.0
 40
0.0
 40
0.1242293208
 40
0.2486140393
 40
0.3731782415
 40
0.4979578887
 40
0.6229901298
 40
0.748314546
 40
0.8739732189
 40
1.0
 40
1.0
 40
1.0
 40
1.0
 10
11.2749814506
 20
9.207019055
 30
0.0
 10
11.2749814506
 20
9.2173237883
 30
0.0
 10
11.2754748874
 20
9.2379495229
 30
0.0
 10
11.2776915049
 20
9.2688361111
 30
0.0
 10
11.2813822951
 20
9.299628089
 30
0.0
 10
11.2865419259
 20
9.3302625082
 30
0.0
 10
11.2931628454
 20
9.3606791637
 30
0.0
 10
11.3012342695
 20
9.390819066
 30
0.0
 10
11.3107416331
 20
9.4206230602
 30
0.0
 10
11.3180141609
 20
9.4402021041
 30
0.0
 10
11.3218805792
 20
9.4499146423
 30
0.0
  0
SPLINE
  5
33D
100
AcDbEntity
  8
0
100
AcDbSpline
 62
7
  6
CONTINUOUS
 70
0
 71
3
 72
23
 73
19
 74
0
 42
0.0000001
 43
0.0000001
 44
0.0000000001
 40
0.0
 40
0.0
 40
0.0
 40
0.0
 40
0.0632418096
 40
0.1263503941
 40
0.1893312938
 40
0.2521907038
 40
0.3149354004
 40
0.3775727704
 40
0.4401107124
 40
0.5025576587
 40
0.5649224889
 40
0.6272145121
 40
0.6894434168
 40
0.7516192049
 40
0.8137521739
 40
0.8758528217
 40
0.9379318353
 40
1.0
 40
1.0
 40
1.0
 40
1.0
 10
11.643881394
 20
9.7000246457
 30
0.0
 10
11.6360451327
 20
9.6985338134
 30
0.0
 10
11.6204402555
 20
9.6952787076
 30
0.0
 10
11.5972457753
 20
9.6895748337
 30
0.0
 10
11.5743152616
 20
9.6830614693
 30
0.0
 10
11.5516760646
 20
9.6757463744
 30
0.0
 10
11.529354762
 20
9.6676380021
 30
0.0
 10
11.507377574
 20
9.6587460814
 30
0.0
 10
11.4857704559
 20
9.6490808146
 30
0.0
 10
11.464558719
 20
9.6386538303
 30
0.0
 10
11.443767446
 20
9.6274771391
 30
0.0
 10
11.4234210004
 20
9.6155640864
 30
0.0
 10
11.4035434018
 20
9.6029285536
 30
0.0
 10
11.384158013
 20
9.5895854466
 30
0.0
 10
11.3652876406
 20
9.5755505194
 30
0.0
 10
11.346954502
 20
9.5608400932
 30
0.0
 10
11.3291803299
 20
9.5454719412
 30
0.0
 10
11.3177165181
 20
9.5347989016
 30
0.0
 10
11.3120856301
 20
9.5293598847
 30
0.0
  0
SPLINE
  5
33E
100
AcDbEntity
  8
0
100
AcDbSpline
 62
7
  6
CONTINUOUS
 70
0
 71
3
 72
26
 73
22
 74
0
 42
0.0000001
 43
0.0000001
 44
0.0000000001
 40
0.0
 40
0.0
 40
0.0
 40
0.0
 40
0.0637763276
 40
0.127342886
 40
0.1906991341
 40
0.2538523424
 40
0.2853569136
 40
0.3168132539
 40
0.3795812247
 40
0.4421715801
 40
0.5045965951
 40
0.5668701916
 40
0.6290077778
 40
0.6910261223
 40
0.7219986725
 40
0.7529482429
 40
0.8147830252
 40
0.8765553491
 40
0.9074270146
 40
0.9382907765
 40
1.0
 40
1.0
 40
1.0
 40
1.0
 10
10.5843983488
 20
6.8186339628
 30
0.0
 10
10.5843983488
 20
6.8060749204
 30
0.0
 10
10.5837972382
 20
6.7809939092
 30
0.0
 10
10.5810840252
 20
6.7435248105
 30
0.0
 10
10.5765666551
 20
6.706353213
 30
0.0
 10
10.5713031011
 20
6.6756712124
 30
0.0
 10
10.5662011922
 20
6.6513638669
 30
0.0
 10
10.5605177349
 20
6.6272638515
 30
0.0
 10
10.5523142938
 20
6.5974786238
 30
0.0
 10
10.5407253146
 20
6.5623467235
 30
0.0
 10
10.5274248397
 20
6.5279301889
 30
0.0
 10
10.5124435143
 20
6.4943087991
 30
0.0
 10
10.4958160981
 20
6.4615604683
 30
0.0
 10
10.4806124358
 20
6.4350475981
 30
0.0
 10
10.4676683706
 20
6.4143533301
 30
0.0
 10
10.4542198631
 20
6.394026555
 30
0.0
 10
10.4364563498
 20
6.3692948406
 30
0.0
 10
10.4174574576
 20
6.3455186246
 30
0.0
 10
10.4015521427
 20
6.3271154159
 30
0.0
 10
10.3851878958
 20
6.3091366188
 30
0.0
 10
10.3723987837
 20
6.296130863
 30
0.0
 10
10.3636584212
 20
6.287688309
 30
0.0
  0
SPLINE
  5
33F
100
AcDbEntity
  8
0
100
AcDbSpline
 62
7
  6
CONTINUOUS
 70
0
 71
3
 72
21
 73
17
 74
0
 42
0.0000001
 43
0.0000001
 44
0.0000000001
 40
0.0
 40
0.0
 40
0.0
 40
0.0
 40
0.0632459501
 40
0.1263584636
 40
0.1893430514
 40
0.2522058752
 40
0.3149537381
 40
0.3775940398
 40
0.5025635422
 40
0.6272040778
 40
0.6894349602
 40
0.7516125986
 40
0.8137473124
 40
0.8758496252
 40
0.9379302514
 40
1.0
 40
1.0
 40
1.0
 40
1.0
 10
10.5822857963
 20
6.7602766355
 30
0.0
 10
10.5805274664
 20
6.7524856609
 30
0.0
 10
10.5767392005
 20
6.7369807854
 30
0.0
 10
10.5702412782
 20
6.7139647251
 30
0.0
 10
10.562941447
 20
6.691240733
 30
0.0
 10
10.5548483462
 20
6.6688361177
 30
0.0
 10
10.5459713057
 20
6.646776876
 30
0.0
 10
10.5331159712
 20
6.6178860879
 30
0.0
 10
10.5151387789
 20
6.5827489239
 30
0.0
 10
10.4946784631
 20
6.5490571705
 30
0.0
 10
10.476899757
 20
6.5231064237
 30
0.0
 10
10.4628793556
 20
6.5041687049
 30
0.0
 10
10.4481837551
 20
6.485771175
 30
0.0
 10
10.4328300034
 20
6.4679351607
 30
0.0
 10
10.4168366548
 20
6.4506819972
 30
0.0
 10
10.4057594224
 20
6.4395810541
 30
0.0
 10
10.400121621
 20
6.4341353594
 30
0.0
  0
SPLINE
  5
340
100
AcDbEntity
  8
0
100
AcDbSpline
 62
7
  6
CONTINUOUS
 70
0
 71
3
 72
25
 73
21
 74
0
 42
0.0000001
 43
0.0000001
 44
0.0000000001
 40
0.0
 40
0.0
 40
0.0
 40
0.0
 40
0.0639299665
 40
0.0958115537
 40
0.1276357335
 40
0.1911072158
 40
0.2543530047
 40
0.285895724
 40
0.3173843502
 40
0.3801982316
 40
0.4428107232
 40
0.5052346109
 40
0.5674848398
 40
0.6295783614
 40
0.6915339532
 40
0.7533720112
 40
0.8151143192
 40
0.876783797
 40
0.9384042327
 40
1.0
 40
1.0
 40
1.0
 40
1.0
 10
9.82058645
 20
7.6575475463
 30
0.0
 10
9.8070009179
 20
7.6588777954
 30
0.0
 10
9.7865838487
 20
7.6603483338
 30
0.0
 10
9.7593433117
 20
7.6612463989
 30
0.0
 10
9.7321859292
 20
7.6614346678
 30
0.0
 10
9.698334904
 20
7.660343621
 30
0.0
 10
9.6646476912
 20
7.6574782786
 30
0.0
 10
9.6378910114
 20
7.6541261487
 30
0.0
 10
9.6113241779
 20
7.6500776825
 30
0.0
 10
9.5784128195
 20
7.6437068275
 30
0.0
 10
9.539481269
 20
7.6339757304
 30
0.0
 10
9.501246652
 20
7.6221906753
 30
0.0
 10
9.4638129678
 20
7.6083834511
 30
0.0
 10
9.4272811729
 20
7.5925912323
 30
0.0
 10
9.3917500439
 20
7.5748566079
 30
0.0
 10
9.3573155735
 20
7.5552273933
 30
0.0
 10
9.3240709218
 20
7.533756643
 30
0.0
 10
9.2921056386
 20
7.5105020258
 30
0.0
 10
9.2615072928
 20
7.4855274549
 30
0.0
 10
9.2420706389
 20
7.4677721405
 30
0.0
 10
9.232610938
 20
7.4586347579
 30
0.0
  0
SPLINE
  5
341
100
AcDbEntity
  8
0
100
AcDbSpline
 62
7
  6
CONTINUOUS
 70
0
 71
3
 72
23
 73
19
 74
0
 42
0.0000001
 43
0.0000001
 44
0.0000000001
 40
0.0
 40
0.0
 40
0.0
 40
0.0
 40
0.0632418096
 40
0.1263503941
 40
0.1893312938
 40
0.2521907038
 40
0.3149354004
 40
0.3775727704
 40
0.4401107124
 40
0.5025576587
 40
0.5649224889
 40
0.6272145121
 40
0.6894434168
 40
0.7516192049
 40
0.8137521739
 40
0.8758528217
 40
0.9379318353
 40
1.0
 40
1.0
 40
1.0
 40
1.0
 10
9.7120293966
 20
7.6606657988
 30
0.0
 10
9.7041931353
 20
7.6591749665
 30
0.0
 10
9.6885882581
 20
7.6559198608
 30
0.0
 10
9.665393778
 20
7.6502159868
 30
0.0
 10
9.6424632642
 20
7.6437026225
 30
0.0
 10
9.6198240672
 20
7.6363875275
 30
0.0
 10
9.5975027647
 20
7.6282791553
 30
0.0
 10
9.5755255767
 20
7.6193872345
 30
0.0
 10
9.5539184586
 20
7.6097219677
 30
0.0
 10
9.5327067217
 20
7.5992949835
 30
0.0
 10
9.5119154486
 20
7.5881182922
 30
0.0
 10
9.4915690031
 20
7.5762052395
 30
0.0
 10
9.4716914045
 20
7.5635697067
 30
0.0
 10
9.4523060157
 20
7.5502265997
 30
0.0
 10
9.4334356432
 20
7.5361916726
 30
0.0
 10
9.4151025047
 20
7.5214812463
 30
0.0
 10
9.3973283326
 20
7.5061130943
 30
0.0
 10
9.3858645207
 20
7.4954400547
 30
0.0
 10
9.3802336327
 20
7.4900010378
 30
0.0
  0
SPLINE
  5
342
100
AcDbEntity
  8
0
100
AcDbSpline
 62
7
  6
CONTINUOUS
 70
0
 71
3
 72
50
 73
46
 74
0
 42
0.0000001
 43
0.0000001
 44
0.0000000001
 40
0.0
 40
0.0
 40
0.0
 40
0.0
 40
0.0055575484
 40
0.0111779922
 40
0.016921945
 40
0.0228458833
 40
0.0290006815
 40
0.0354311436
 40
0.0421756504
 40
0.0492665308
 40
0.0567306759
 40
0.0645898217
 40
0.0728615778
 40
0.0815596977
 40
0.0906946685
 40
0.100274387
 40
0.1103041016
 40
0.1207871917
 40
0.1317251696
 40
0.1431178633
 40
0.1549639321
 40
0.16726054
 40
0.1800039018
 40
0.1931892317
 40
0.2208607128
 40
0.2502207991
 40
0.2812027127
 40
0.3137299142
 40
0.3477173552
 40
0.383072554
 40
0.4196964471
 40
0.4574841188
 40
0.4963254304
 40
0.5361057043
 40
0.5767063272
 40
0.6180053027
 40
0.6598777724
 40
0.7021965482
 40
0.7448326997
 40
0.7876559964
 40
0.8305355066
 40
0.8733402465
 40
0.9159384006
 40
0.9582025777
 40
1.0
 40
1.0
 40
1.0
 40
1.0
 10
8.2930635602
 20
11.3247986424
 30
0.0
 10
8.2930635534
 20
11.3239476545
 30
0.0
 10
8.2929682126
 20
11.3222345691
 30
0.0
 10
8.2925405612
 20
11.3196740884
 30
0.0
 10
8.2918289337
 20
11.3171193051
 30
0.0
 10
8.2908346208
 20
11.3145732278
 30
0.0
 10
8.2895594183
 20
11.3120378486
 30
0.0
 10
8.2880048952
 20
11.3095151823
 30
0.0
 10
8.2861728965
 20
11.3070069265
 30
0.0
 10
8.2840652357
 20
11.30451474
 30
0.0
 10
8.2816837092
 20
11.3020403935
 30
0.0
 10
8.279030422
 20
11.2995854891
 30
0.0
 10
8.2761074502
 20
11.2971518737
 30
0.0
 10
8.2729171629
 20
11.2947413161
 30
0.0
 10
8.2694621221
 20
11.2923555955
 30
0.0
 10
8.2657450266
 20
11.2899966562
 30
0.0
 10
8.2617689021
 20
11.2876662453
 30
0.0
 10
8.2575369022
 20
11.2853662822
 30
0.0
 10
8.2530524359
 20
11.2830986122
 30
0.0
 10
8.2483191416
 20
11.2808650067
 30
0.0
 10
8.2433408173
 20
11.2786673721
 30
0.0
 10
8.2381215311
 20
11.2765074212
 30
0.0
 10
8.2326655043
 20
11.27438693
 30
0.0
 10
8.2249564586
 20
11.2715691419
 30
0.0
 10
8.2147536463
 20
11.2681693428
 30
0.0
 10
8.2018311185
 20
11.2643363984
 30
0.0
 10
8.1880815404
 20
11.260699983
 30
0.0
 10
8.1735497823
 20
11.2572721188
 30
0.0
 10
8.1582831431
 20
11.2540641522
 30
0.0
 10
8.1423314628
 20
11.2510867064
 30
0.0
 10
8.1257468491
 20
11.2483496429
 30
0.0
 10
8.1085835315
 20
11.2458620313
 30
0.0
 10
8.0908976726
 20
11.2436320906
 30
0.0
 10
8.0727471713
 20
11.2416671887
 30
0.0
 10
8.0541914589
 20
11.2399738199
 30
0.0
 10
8.0352913048
 20
11.2385575862
 30
0.0
 10
8.016108622
 20
11.2374231713
 30
0.0
 10
7.9967062572
 20
11.2365743089
 30
0.0
 10
7.977147785
 20
11.2360138013
 30
0.0
 10
7.9574972905
 20
11.2357434986
 30
0.0
 10
7.9378191349
 20
11.2357643
 30
0.0
 10
7.9181779186
 20
11.2360761541
 30
0.0
 10
7.8986376894
 20
11.2366779734
 30
0.0
 10
7.8792628967
 20
11.2375678543
 30
0.0
 10
7.8664146913
 20
11.2383562888
 30
0.0
 10
7.8600298846
 20
11.2387990766
 30
0.0
  0
SPLINE
  5
343
100
AcDbEntity
  8
0
100
AcDbSpline
 62
7
  6
CONTINUOUS
 70
0
 71
3
 72
50
 73
46
 74
0
 42
0.0000001
 43
0.0000001
 44
0.0000000001
 40
0.0
 40
0.0
 40
0.0
 40
0.0
 40
0.0055575484
 40
0.0111779922
 40
0.016921945
 40
0.0228458833
 40
0.0290006815
 40
0.0354311436
 40
0.0421756504
 40
0.0492665308
 40
0.0567306759
 40
0.0645898217
 40
0.0728615778
 40
0.0815596977
 40
0.0906946685
 40
0.100274387
 40
0.1103041016
 40
0.1207871917
 40
0.1317251696
 40
0.1431178633
 40
0.1549639321
 40
0.16726054
 40
0.1800039018
 40
0.1931892317
 40
0.2208607128
 40
0.2502207991
 40
0.2812027127
 40
0.3137299142
 40
0.3477173552
 40
0.383072554
 40
0.4196964471
 40
0.4574841188
 40
0.4963254304
 40
0.5361057043
 40
0.5767063272
 40
0.6180053027
 40
0.6598777724
 40
0.7021965482
 40
0.7448326997
 40
0.7876559964
 40
0.8305355066
 40
0.8733402465
 40
0.9159384006
 40
0.9582025777
 40
1.0
 40
1.0
 40
1.0
 40
1.0
 10
13.8471372178
 20
10.939622326
 30
0.0
 10
13.847137211
 20
10.9387713382
 30
0.0
 10
13.8470418701
 20
10.9370582527
 30
0.0
 10
13.8466142187
 20
10.9344977721
 30
0.0
 10
13.8459025912
 20
10.9319429887
 30
0.0
 10
13.8449082783
 20
10.9293969114
 30
0.0
 10
13.8436330758
 20
10.9268615322
 30
0.0
 10
13.8420785527
 20
10.9243388659
 30
0.0
 10
13.8402465541
 20
10.9218306101
 30
0.0
 10
13.8381388932
 20
10.9193384236
 30
0.0
 10
13.8357573667
 20
10.9168640771
 30
0.0
 10
13.8331040795
 20
10.9144091727
 30
0.0
 10
13.8301811077
 20
10.9119755573
 30
0.0
 10
13.8269908204
 20
10.9095649997
 30
0.0
 10
13.8235357797
 20
10.9071792791
 30
0.0
 10
13.8198186841
 20
10.9048203398
 30
0.0
 10
13.8158425597
 20
10.9024899289
 30
0.0
 10
13.8116105598
 20
10.9001899658
 30
0.0
 10
13.8071260935
 20
10.8979222959
 30
0.0
 10
13.8023927992
 20
10.8956886903
 30
0.0
 10
13.7974144748
 20
10.8934910557
 30
0.0
 10
13.7921951887
 20
10.8913311048
 30
0.0
 10
13.7867391618
 20
10.8892106136
 30
0.0
 10
13.7790301161
 20
10.8863928255
 30
0.0
 10
13.7688273038
 20
10.8829930264
 30
0.0
 10
13.755904776
 20
10.879160082
 30
0.0
 10
13.7421551979
 20
10.8755236666
 30
0.0
 10
13.7276234399
 20
10.8720958024
 30
0.0
 10
13.7123568007
 20
10.8688878358
 30
0.0
 10
13.6964051203
 20
10.8659103901
 30
0.0
 10
13.6798205067
 20
10.8631733265
 30
0.0
 10
13.662657189
 20
10.8606857149
 30
0.0
 10
13.6449713301
 20
10.8584557742
 30
0.0
 10
13.6268208288
 20
10.8564908723
 30
0.0
 10
13.6082651164
 20
10.8547975035
 30
0.0
 10
13.5893649624
 20
10.8533812698
 30
0.0
 10
13.5701822795
 20
10.8522468549
 30
0.0
 10
13.5507799147
 20
10.8513979925
 30
0.0
 10
13.5312214425
 20
10.8508374849
 30
0.0
 10
13.511570948
 20
10.8505671822
 30
0.0
 10
13.4918927924
 20
10.8505879837
 30
0.0
 10
13.4722515761
 20
10.8508998377
 30
0.0
 10
13.4527113469
 20
10.8515016571
 30
0.0
 10
13.4333365542
 20
10.8523915379
 30
0.0
 10
13.4204883488
 20
10.8531799724
 30
0.0
 10
13.4141035421
 20
10.8536227603
 30
0.0
  0
SPLINE
  5
344
100
AcDbEntity
  8
0
100
AcDbSpline
 62
7
  6
CONTINUOUS
 70
0
 71
3
 72
56
 73
52
 74
0
 42
0.0000001
 43
0.0000001
 44
0.0000000001
 40
0.0
 40
0.0
 40
0.0
 40
0.0
 40
0.014971274
 40
0.029945606
 40
0.0449260369
 40
0.0599155706
 40
0.0749171531
 40
0.0899336598
 40
0.104967875
 40
0.1200224737
 40
0.1351000117
 40
0.1502029057
 40
0.1653334193
 40
0.1804936563
 40
0.1956855421
 40
0.2109108165
 40
0.2261710283
 40
0.2414675198
 40
0.2568014272
 40
0.2721736755
 40
0.2875849674
 40
0.3030357913
 40
0.3185264144
 40
0.3340568802
 40
0.3496270191
 40
0.3652364417
 40
0.3808845461
 40
0.3965705269
 40
0.4122933718
 40
0.4280518765
 40
0.4438446507
 40
0.4596701209
 40
0.4755265482
 40
0.4914120331
 40
0.5073245245
 40
0.5232618381
 40
0.5551966919
 40
0.5872017075
 40
0.6192556772
 40
0.6513364178
 40
0.6834212138
 40
0.7154872687
 40
0.7475121591
 40
0.7794742806
 40
0.811353285
 40
0.8431305
 40
0.8747893191
 40
0.9063155631
 40
0.9376978538
 40
0.9689275324
 40
1.0
 40
1.0
 40
1.0
 40
1.0
 10
11.0903004602
 20
9.4917035671
 30
0.0
 10
11.0974429903
 20
9.4986027452
 30
0.0
 10
11.1120054299
 20
9.5121201181
 30
0.0
 10
11.1346400492
 20
9.5315142138
 30
0.0
 10
11.1580367362
 20
9.5500021166
 30
0.0
 10
11.1821629588
 20
9.5675578197
 30
0.0
 10
11.2069855791
 20
9.5841573439
 30
0.0
 10
11.2324703678
 20
9.5997778843
 30
0.0
 10
11.2585823415
 20
9.6143978225
 30
0.0
 10
11.2852854863
 20
9.6279971752
 30
0.0
 10
11.3125430657
 20
9.6405572322
 30
0.0
 10
11.3403176123
 20
9.6520606179
 30
0.0
 10
11.3685708397
 20
9.6624916779
 30
0.0
 10
11.3972639078
 20
9.6718359901
 30
0.0
 10
11.4263573399
 20
9.6800806852
 30
0.0
 10
11.4558110709
 20
9.6872145798
 30
0.0
 10
11.4855846151
 20
9.6932277369
 30
0.0
 10
11.5156369954
 20
9.698111965
 30
0.0
 10
11.5459268642
 20
9.7018606488
 30
0.0
 10
11.5764125755
 20
9.7044684941
 30
0.0
 10
11.6070521835
 20
9.7059320719
 30
0.0
 10
11.6378035551
 20
9.7062493887
 30
0.0
 10
11.6686243966
 20
9.7054199081
 30
0.0
 10
11.6994723288
 20
9.7034449582
 30
0.0
 10
11.7303049327
 20
9.700327192
 30
0.0
 10
11.7610798039
 20
9.6960708744
 30
0.0
 10
11.7917546517
 20
9.6906820212
 30
0.0
 10
11.8222872804
 20
9.6841679229
 30
0.0
 10
11.8526357185
 20
9.6765376007
 30
0.0
 10
11.8827582708
 20
9.667801647
 30
0.0
 10
11.9126134847
 20
9.6579719352
 30
0.0
 10
11.9421603472
 20
9.6470621175
 30
0.0
 10
11.9713582812
 20
9.6350871926
 30
0.0
 10
12.0001669872
 20
9.6220635903
 30
0.0
 10
12.0285473533
 20
9.6080091024
 30
0.0
 10
12.0657850354
 20
9.5879101701
 30
0.0
 10
12.1110634446
 20
9.5603053687
 30
0.0
 10
12.1630302755
 20
9.5234262969
 30
0.0
 10
12.2123900702
 20
9.4829695747
 30
0.0
 10
12.2588701316
 20
9.4391583202
 30
0.0
 10
12.3022158171
 20
9.3922327434
 30
0.0
 10
12.3421890963
 20
9.342450508
 30
0.0
 10
12.3785705309
 20
9.2900847933
 30
0.0
 10
12.4111602132
 20
9.2354229145
 30
0.0
 10
12.4397789703
 20
9.1787647784
 30
0.0
 10
12.4642694276
 20
9.1204213401
 30
0.0
 10
12.4844967125
 20
9.0607126872
 30
0.0
 10
12.5003492182
 20
8.9999668324
 30
0.0
 10
12.5117392234
 20
8.9385162074
 30
0.0
 10
12.5186037918
 20
8.8767026172
 30
0.0
 10
12.5201412934
 20
8.8353616106
 30
0.0
 10
12.5201412934
 20
8.8147511763
 30
0.0
  0
SPLINE
  5
345
100
AcDbEntity
  8
0
100
AcDbSpline
 62
7
  6
CONTINUOUS
 70
0
 71
3
 72
36
 73
32
 74
0
 42
0.0000001
 43
0.0000001
 44
0.0000000001
 40
0.0
 40
0.0
 40
0.0
 40
0.0
 40
0.1047772567
 40
0.2027053672
 40
0.2938241404
 40
0.3368607274
 40
0.3782300003
 40
0.417949169
 40
0.4560408525
 40
0.492529299
 40
0.5274421837
 40
0.5608138906
 40
0.5926822119
 40
0.6230891667
 40
0.6520851811
 40
0.6797270214
 40
0.7060777388
 40
0.7312108294
 40
0.7552102791
 40
0.7781694484
 40
0.800193915
 40
0.8214034119
 40
0.8419289087
 40
0.8619123108
 40
0.8815077311
 40
0.900876448
 40
0.9201823947
 40
0.9395904812
 40
0.9592626739
 40
0.9793519069
 40
1.0
 40
1.0
 40
1.0
 40
1.0
 10
10.493689295
 20
6.5481759619
 30
0.0
 10
10.4902838217
 20
6.5466656887
 30
0.0
 10
10.4836188083
 20
6.5439121111
 30
0.0
 10
10.4737497237
 20
6.5404696084
 30
0.0
 10
10.4658037804
 20
6.5382220149
 30
0.0
 10
10.4597209671
 20
6.5368224184
 30
0.0
 10
10.4553881825
 20
6.5359787631
 30
0.0
 10
10.4512018999
 20
6.5353164323
 30
0.0
 10
10.4471661549
 20
6.5348306322
 30
0.0
 10
10.4432847902
 20
6.5345165376
 30
0.0
 10
10.4395613915
 20
6.5343693221
 30
0.0
 10
10.435999299
 20
6.5343840521
 30
0.0
 10
10.4326016236
 20
6.5345557813
 30
0.0
 10
10.4293712665
 20
6.5348796112
 30
0.0
 10
10.4263108999
 20
6.5353506532
 30
0.0
 10
10.4234229861
 20
6.53596403
 30
0.0
 10
10.4207098239
 20
6.5367149402
 30
0.0
 10
10.4181735389
 20
6.5375986931
 30
0.0
 10
10.4158160877
 20
6.5386106506
 30
0.0
 10
10.4136393298
 20
6.5397462558
 30
0.0
 10
10.4116450493
 20
6.5410010916
 30
0.0
 10
10.4098349361
 20
6.5423707939
 30
0.0
 10
10.4082106294
 20
6.5438510112
 30
0.0
 10
10.40677376
 20
6.5454374337
 30
0.0
 10
10.4055258397
 20
6.5471257054
 30
0.0
 10
10.40446819
 20
6.5489113984
 30
0.0
 10
10.4036019909
 20
6.5507900728
 30
0.0
 10
10.4029281592
 20
6.5527573095
 30
0.0
 10
10.4024472121
 20
6.5548088561
 30
0.0
 10
10.4021594788
 20
6.5569404041
 30
0.0
 10
10.4020976003
 20
6.5583897276
 30
0.0
 10
10.4020973555
 20
6.5591238679
 30
0.0
  0
SPLINE
  5
346
100
AcDbEntity
  8
0
100
AcDbSpline
 62
7
  6
CONTINUOUS
 70
0
 71
3
 72
56
 73
52
 74
0
 42
0.0000001
 43
0.0000001
 44
0.0000000001
 40
0.0
 40
0.0
 40
0.0
 40
0.0
 40
0.014971274
 40
0.029945606
 40
0.0449260369
 40
0.0599155706
 40
0.0749171531
 40
0.0899336598
 40
0.104967875
 40
0.1200224737
 40
0.1351000117
 40
0.1502029057
 40
0.1653334193
 40
0.1804936563
 40
0.1956855421
 40
0.2109108165
 40
0.2261710283
 40
0.2414675198
 40
0.2568014272
 40
0.2721736755
 40
0.2875849674
 40
0.3030357913
 40
0.3185264144
 40
0.3340568802
 40
0.3496270191
 40
0.3652364417
 40
0.3808845461
 40
0.3965705269
 40
0.4122933718
 40
0.4280518765
 40
0.4438446507
 40
0.4596701209
 40
0.4755265482
 40
0.4914120331
 40
0.5073245245
 40
0.5232618381
 40
0.5551966919
 40
0.5872017075
 40
0.6192556772
 40
0.6513364178
 40
0.6834212138
 40
0.7154872687
 40
0.7475121591
 40
0.7794742806
 40
0.811353285
 40
0.8431305
 40
0.8747893191
 40
0.9063155631
 40
0.9376978538
 40
0.9689275324
 40
1.0
 40
1.0
 40
1.0
 40
1.0
 10
9.1584484628
 20
7.4523447202
 30
0.0
 10
9.165590993
 20
7.4592438983
 30
0.0
 10
9.1801534325
 20
7.4727612713
 30
0.0
 10
9.2027880519
 20
7.492155367
 30
0.0
 10
9.2261847389
 20
7.5106432697
 30
0.0
 10
9.2503109615
 20
7.5281989728
 30
0.0
 10
9.2751335818
 20
7.5447984971
 30
0.0
 10
9.3006183704
 20
7.5604190374
 30
0.0
 10
9.3267303442
 20
7.5750389757
 30
0.0
 10
9.3534334889
 20
7.5886383284
 30
0.0
 10
9.3806910683
 20
7.6011983854
 30
0.0
 10
9.4084656149
 20
7.612701771
 30
0.0
 10
9.4367188423
 20
7.6231328311
 30
0.0
 10
9.4654119104
 20
7.6324771432
 30
0.0
 10
9.4945053426
 20
7.6407218383
 30
0.0
 10
9.5239590736
 20
7.6478557329
 30
0.0
 10
9.5537326177
 20
7.65386889
 30
0.0
 10
9.5837849981
 20
7.6587531181
 30
0.0
 10
9.6140748669
 20
7.6625018019
 30
0.0
 10
9.6445605782
 20
7.6651096472
 30
0.0
 10
9.6752001862
 20
7.666573225
 30
0.0
 10
9.7059515577
 20
7.6668905418
 30
0.0
 10
9.7367723993
 20
7.6660610612
 30
0.0
 10
9.7676203315
 20
7.6640861114
 30
0.0
 10
9.7984529354
 20
7.6609683451
 30
0.0
 10
9.8292278065
 20
7.6567120275
 30
0.0
 10
9.8599026544
 20
7.6513231743
 30
0.0
 10
9.890435283
 20
7.644809076
 30
0.0
 10
9.9207837212
 20
7.6371787538
 30
0.0
 10
9.9509062734
 20
7.6284428001
 30
0.0
 10
9.9807614874
 20
7.6186130884
 30
0.0
 10
10.0103083499
 20
7.6077032706
 30
0.0
 10
10.0395062839
 20
7.5957283458
 30
0.0
 10
10.0683149898
 20
7.5827047434
 30
0.0
 10
10.0966953559
 20
7.5686502555
 30
0.0
 10
10.133933038
 20
7.5485513232
 30
0.0
 10
10.1792114473
 20
7.5209465218
 30
0.0
 10
10.2311782781
 20
7.48406745
 30
0.0
 10
10.2805380728
 20
7.4436107278
 30
0.0
 10
10.3270181343
 20
7.3997994734
 30
0.0
 10
10.3703638198
 20
7.3528738965
 30
0.0
 10
10.4103370989
 20
7.3030916611
 30
0.0
 10
10.4467185336
 20
7.2507259464
 30
0.0
 10
10.4793082159
 20
7.1960640676
 30
0.0
 10
10.5079269729
 20
7.1394059315
 30
0.0
 10
10.5324174302
 20
7.0810624933
 30
0.0
 10
10.5526447151
 20
7.0213538403
 30
0.0
 10
10.5684972208
 20
6.9606079855
 30
0.0
 10
10.5798872261
 20
6.8991573606
 30
0.0
 10
10.5867517944
 20
6.8373437704
 30
0.0
 10
10.5882892961
 20
6.7960027637
 30
0.0
 10
10.5882892961
 20
6.7753923295
 30
0.0
  0
SPLINE
  5
347
100
AcDbEntity
  8
0
100
AcDbSpline
 62
7
  6
CONTINUOUS
 70
0
 71
3
 72
41
 73
37
 74
0
 42
0.0000001
 43
0.0000001
 44
0.0000000001
 40
0.0
 40
0.0
 40
0.0
 40
0.0
 40
0.0304943101
 40
0.0457844622
 40
0.0611024466
 40
0.0918190363
 40
0.1226453815
 40
0.1535789677
 40
0.1846161323
 40
0.2157521151
 40
0.2469811188
 40
0.2626296563
 40
0.278298833
 40
0.3096926911
 40
0.3411566874
 40
0.372681648
 40
0.4042577835
 40
0.4358747904
 40
0.4675219558
 40
0.4991882659
 40
0.5308625158
 40
0.562533421
 40
0.5941897305
 40
0.6258203391
 40
0.6574143982
 40
0.6889614246
 40
0.7204514069
 40
0.7518749087
 40
0.783223167
 40
0.8144881857
 40
0.8456628343
 40
0.8767408792
 40
0.9077172434
 40
0.938587479
 40
0.9693493691
 40
1.0
 40
1.0
 40
1.0
 40
1.0
 10
8.5353500334
 20
9.5265875027
 30
0.0
 10
8.5472123792
 20
9.527057251
 30
0.0
 10
8.5650459836
 20
9.5272895797
 30
0.0
 10
8.5888272051
 20
9.5266610857
 30
0.0
 10
8.6126707485
 20
9.5254049713
 30
0.0
 10
8.6424816705
 20
9.5226587535
 30
0.0
 10
8.6781276451
 20
9.5174994263
 30
0.0
 10
8.713583399
 20
9.5104873732
 30
0.0
 10
8.7487509175
 20
9.5016419781
 30
0.0
 10
8.7835330771
 20
9.4909878648
 30
0.0
 10
8.8120994185
 20
9.4806331088
 30
0.0
 10
8.8346652454
 20
9.4714785485
 30
0.0
 10
8.8570536708
 20
9.4617362821
 30
0.0
 10
8.8846212088
 20
9.4484899283
 30
0.0
 10
8.9169211598
 20
9.4309426386
 30
0.0
 10
8.9483739704
 20
9.4117811173
 30
0.0
 10
8.9788926107
 20
9.391058358
 30
0.0
 10
9.0083932884
 20
9.3688313344
 30
0.0
 10
9.0367948284
 20
9.3451612283
 30
0.0
 10
9.0640191222
 20
9.3201131596
 30
0.0
 10
9.0899912791
 20
9.2937560349
 30
0.0
 10
9.114639851
 20
9.2661623565
 30
0.0
 10
9.1378970352
 20
9.2374080328
 30
0.0
 10
9.1596988467
 20
9.207572156
 30
0.0
 10
9.1799852947
 20
9.1767367883
 30
0.0
 10
9.198700546
 20
9.1449867371
 30
0.0
 10
9.2157930778
 20
9.1124093244
 30
0.0
 10
9.2312158192
 20
9.0790941485
 30
0.0
 10
9.244926276
 20
9.0451328397
 30
0.0
 10
9.2568866723
 20
9.0106188117
 30
0.0
 10
9.2670640196
 20
8.9756470214
 30
0.0
 10
9.2754302889
 20
8.940313627
 30
0.0
 10
9.2819622617
 20
8.9047160127
 30
0.0
 10
9.2866420745
 20
8.8689515907
 30
0.0
 10
9.289456457
 20
8.8331203094
 30
0.0
 10
9.2900851739
 20
8.809207358
 30
0.0
 10
9.2900851739
 20
8.7972748582
 30
0.0
  0
SPLINE
  5
348
100
AcDbEntity
  8
0
100
AcDbSpline
 62
7
  6
CONTINUOUS
 70
0
 71
3
 72
55
 73
51
 74
0
 42
0.0000001
 43
0.0000001
 44
0.0000000001
 40
0.0
 40
0.0
 40
0.0
 40
0.0
 40
0.0063157967
 40
0.0126705064
 40
0.0191022577
 40
0.0256477311
 40
0.0323415292
 40
0.039215794
 40
0.0462999396
 40
0.0536204765
 40
0.0612011269
 40
0.0690627967
 40
0.077223814
 40
0.0857001286
 40
0.0945054138
 40
0.1036514395
 40
0.1131481141
 40
0.1230037529
 40
0.1332252839
 40
0.1438182539
 40
0.1547871578
 40
0.1661353969
 40
0.1778654436
 40
0.1899790024
 40
0.2024769158
 40
0.215359436
 40
0.2286261423
 40
0.2422760211
 40
0.2563076146
 40
0.2707188714
 40
0.2855073776
 40
0.3006702734
 40
0.3162042724
 40
0.3321058142
 40
0.3649946654
 40
0.3993021056
 40
0.4349881404
 40
0.4720086211
 40
0.5103156623
 40
0.5498579758
 40
0.5905811562
 40
0.6324279171
 40
0.6753383233
 40
0.7192500409
 40
0.7640984978
 40
0.8098171101
 40
0.8563375432
 40
0.9035891104
 40
0.9515016896
 40
1.0
 40
1.0
 40
1.0
 40
1.0
 10
14.8418779133
 20
8.8472548121
 30
0.0
 10
14.8396147565
 20
8.8474117723
 30
0.0
 10
14.8350851965
 20
8.8479119291
 30
0.0
 10
14.828341628
 20
8.8492155808
 30
0.0
 10
14.8216431214
 20
8.8510724665
 30
0.0
 10
14.8149935916
 20
8.8534813817
 30
0.0
 10
14.8083958614
 20
8.8564405397
 30
0.0
 10
14.801852782
 20
8.8599481088
 30
0.0
 10
14.7953669991
 20
8.8640021234
 30
0.0
 10
14.7889408893
 20
8.8686003059
 30
0.0
 10
14.7825769276
 20
8.8737405359
 30
0.0
 10
14.7762773654
 20
8.879420353
 30
0.0
 10
14.7700445009
 20
8.8856372746
 30
0.0
 10
14.7638806962
 20
8.8923887108
 30
0.0
 10
14.7577881343
 20
8.8996717653
 30
0.0
 10
14.7517692255
 20
8.9074835306
 30
0.0
 10
14.7458262172
 20
8.9158207788
 30
0.0
 10
14.7399614025
 20
8.9246801249
 30
0.0
 10
14.7341771669
 20
8.934058019
 30
0.0
 10
14.7284756938
 20
8.9439506036
 30
0.0
 10
14.7228593571
 20
8.9543539079
 30
0.0
 10
14.7173303798
 20
8.9652636822
 30
0.0
 10
14.7118909702
 20
8.9766754765
 30
0.0
 10
14.7065434263
 20
8.9885846655
 30
0.0
 10
14.7012898295
 20
9.0009863515
 30
0.0
 10
14.6961324046
 20
9.0138754851
 30
0.0
 10
14.6910732493
 20
9.0272467805
 30
0.0
 10
14.6861144008
 20
9.0410947483
 30
0.0
 10
14.6812579847
 20
9.0554137251
 30
0.0
 10
14.6765059145
 20
9.0701978116
 30
0.0
 10
14.6718602035
 20
9.0854409445
 30
0.0
 10
14.667322775
 20
9.10113685
 30
0.0
 10
14.6628954252
 20
9.1172790833
 30
0.0
 10
14.6570762954
 20
9.1396397584
 30
0.0
 10
14.6501065594
 20
9.1686660714
 30
0.0
 10
14.6423014323
 20
9.2047899918
 30
0.0
 10
14.6349767939
 20
9.2425271047
 30
0.0
 10
14.6281448209
 20
9.2818152085
 30
0.0
 10
14.6218168991
 20
9.3225897389
 30
0.0
 10
14.6160035736
 20
9.3647835748
 30
0.0
 10
14.6107145426
 20
9.4083272407
 30
0.0
 10
14.605958621
 20
9.4531489917
 30
0.0
 10
14.6017437241
 20
9.4991749497
 30
0.0
 10
14.5980768789
 20
9.5463292292
 30
0.0
 10
14.5949641999
 20
9.5945340771
 30
0.0
 10
14.5924108835
 20
9.6437100349
 30
0.0
 10
14.5904212154
 20
9.6937758282
 30
0.0
 10
14.5889984458
 20
9.7446492713
 30
0.0
 10
14.5881450678
 20
9.7962458806
 30
0.0
 10
14.5879576784
 20
9.8308763645
 30
0.0
 10
14.5879576784
 20
9.8482966434
 30
0.0
  0
SPLINE
  5
349
100
AcDbEntity
  8
0
100
AcDbSpline
 62
7
  6
CONTINUOUS
 70
0
 71
3
 72
50
 73
46
 74
0
 42
0.0000001
 43
0.0000001
 44
0.0000000001
 40
0.0
 40
0.0
 40
0.0
 40
0.0
 40
0.0063857109
 40
0.0129180687
 40
0.0196242072
 40
0.0265289188
 40
0.0410162816
 40
0.0486423446
 40
0.0565432695
 40
0.0647328601
 40
0.0732230455
 40
0.0820242009
 40
0.0911451736
 40
0.1005934018
 40
0.1103752164
 40
0.1204958124
 40
0.1309593452
 40
0.1417691956
 40
0.1529278912
 40
0.1644371837
 40
0.1762982812
 40
0.1885117306
 40
0.2010774868
 40
0.2139951164
 40
0.2272636544
 40
0.2548466722
 40
0.2838118729
 40
0.3141381556
 40
0.3457995299
 40
0.3787658269
 40
0.4130030289
 40
0.4484735765
 40
0.4851368459
 40
0.522949325
 40
0.5618647759
 40
0.601834595
 40
0.6428079316
 40
0.6847317969
 40
0.7275513169
 40
0.771209862
 40
0.8156493004
 40
0.8608096051
 40
0.9066294816
 40
0.9530489103
 40
1.0
 40
1.0
 40
1.0
 40
1.0
 10
14.7911691541
 20
9.2479875098
 30
0.0
 10
14.7896761628
 20
9.2485153593
 30
0.0
 10
14.7866936615
 20
9.2496931441
 30
0.0
 10
14.7822981442
 20
9.2517897364
 30
0.0
 10
14.7779371915
 20
9.2542330313
 30
0.0
 10
14.7720781676
 20
9.2580110701
 30
0.0
 10
14.7663868288
 20
9.2624428582
 30
0.0
 10
14.7608732233
 20
9.2674454337
 30
0.0
 10
14.7567088611
 20
9.2716018402
 30
0.0
 10
14.752588339
 20
9.2760962397
 30
0.0
 10
14.7485126418
 20
9.2809271907
 30
0.0
 10
14.7444833154
 20
9.2860928835
 30
0.0
 10
14.7405017305
 20
9.2915914499
 30
0.0
 10
14.7365692235
 20
9.2974208361
 30
0.0
 10
14.732687241
 20
9.3035789642
 30
0.0
 10
14.7288571651
 20
9.3100635874
 30
0.0
 10
14.7250803125
 20
9.316872312
 30
0.0
 10
14.7213581068
 20
9.3240026884
 30
0.0
 10
14.7176918925
 20
9.3314521066
 30
0.0
 10
14.7140829542
 20
9.3392178188
 30
0.0
 10
14.7105326704
 20
9.347297008
 30
0.0
 10
14.7070423309
 20
9.3556867062
 30
0.0
 10
14.7036131794
 20
9.364383813
 30
0.0
 10
14.7002465097
 20
9.3733851681
 30
0.0
 10
14.6957848623
 20
9.3859510219
 30
0.0
 10
14.6903852292
 20
9.4024040114
 30
0.0
 10
14.6842551336
 20
9.4230596322
 30
0.0
 10
14.6784026387
 20
9.4448444185
 30
0.0
 10
14.6728364013
 20
9.4677262432
 30
0.0
 10
14.6675647387
 20
9.4916715628
 30
0.0
 10
14.6625955254
 20
9.5166451383
 30
0.0
 10
14.6579361305
 20
9.5426101795
 30
0.0
 10
14.653593529
 20
9.5695284083
 30
0.0
 10
14.6495742211
 20
9.5973601131
 30
0.0
 10
14.6458841649
 20
9.6260642011
 30
0.0
 10
14.642528884
 20
9.6555982822
 30
0.0
 10
14.6395134087
 20
9.6859187296
 30
0.0
 10
14.6368422034
 20
9.7169807311
 30
0.0
 10
14.634519266
 20
9.7487383696
 30
0.0
 10
14.6325480852
 20
9.7811447316
 30
0.0
 10
14.6309315868
 20
9.8141518669
 30
0.0
 10
14.6296721813
 20
9.8477108771
 30
0.0
 10
14.6287717533
 20
9.8817725976
 30
0.0
 10
14.6282317165
 20
9.9162860154
 30
0.0
 10
14.62811304
 20
9.939440619
 30
0.0
 10
14.62811304
 20
9.951083748
 30
0.0
  0
SPLINE
  5
34A
100
AcDbEntity
  8
0
100
AcDbSpline
 62
7
  6
CONTINUOUS
 70
0
 71
3
 72
54
 73
50
 74
0
 42
0.0000001
 43
0.0000001
 44
0.0000000001
 40
0.0
 40
0.0
 40
0.0
 40
0.0
 40
0.0054989064
 40
0.0111936856
 40
0.0171298649
 40
0.0233469194
 40
0.0298784987
 40
0.0367526724
 40
0.0439926245
 40
0.0516170968
 40
0.059641111
 40
0.0680763583
 40
0.0769317832
 40
0.0862138707
 40
0.0959270659
 40
0.1060739843
 40
0.1166556877
 40
0.1276718528
 40
0.1391209311
 40
0.1510003047
 40
0.1633063529
 40
0.1760346135
 40
0.1891797744
 40
0.2027358501
 40
0.2166961142
 40
0.2310532926
 40
0.2457994519
 40
0.2609262071
 40
0.2764245782
 40
0.2922852076
 40
0.3084981975
 40
0.3250533297
 40
0.3591464447
 40
0.3944754453
 40
0.4309453974
 40
0.4684566483
 40
0.5069053648
 40
0.5461840394
 40
0.5861819742
 40
0.6267857495
 40
0.66787968
 40
0.7093462662
 40
0.7510666369
 40
0.7929209968
 40
0.8347890485
 40
0.8765504833
 40
0.9180852778
 40
0.9592744799
 40
1.0
 40
1.0
 40
1.0
 40
1.0
 10
14.9216133767
 20
11.1289411417
 30
0.0
 10
14.9193692765
 20
11.1284830632
 30
0.0
 10
14.9148473278
 20
11.1273097482
 30
0.0
 10
14.908138789
 20
11.1248517607
 30
0.0
 10
14.9014082535
 20
11.1216732624
 30
0.0
 10
14.8946612021
 20
11.1177786504
 30
0.0
 10
14.8879017835
 20
11.1131717304
 30
0.0
 10
14.881134216
 20
11.1078568459
 30
0.0
 10
14.8743629301
 20
11.1018382284
 30
0.0
 10
14.8675922806
 20
11.0951206775
 30
0.0
 10
14.8608269723
 20
11.0877091851
 30
0.0
 10
14.8540716441
 20
11.0796093593
 30
0.0
 10
14.8473312067
 20
11.0708271775
 30
0.0
 10
14.8406105088
 20
11.061369224
 30
0.0
 10
14.8339145638
 20
11.051242541
 30
0.0
 10
14.8272483385
 20
11.0404547416
 30
0.0
 10
14.8206168677
 20
11.0290139354
 30
0.0
 10
14.8140251658
 20
11.0169287633
 30
0.0
 10
14.8074782338
 20
11.0042083751
 30
0.0
 10
14.8009810841
 20
10.990862416
 30
0.0
 10
14.794538648
 20
10.9769010379
 30
0.0
 10
14.7881558995
 20
10.9623348585
 30
0.0
 10
14.7818376753
 20
10.9471749907
 30
0.0
 10
14.7755888826
 20
10.9314329886
 30
0.0
 10
14.7694142455
 20
10.9151208841
 30
0.0
 10
14.7633185804
 20
10.8982511287
 30
0.0
 10
14.757306484
 20
10.8808366305
 30
0.0
 10
14.7513826614
 20
10.862890698
 30
0.0
 10
14.7455515679
 20
10.8444270708
 30
0.0
 10
14.7398177837
 20
10.8254598749
 30
0.0
 10
14.7341855892
 20
10.8060036221
 30
0.0
 10
14.7267445863
 20
10.7791669179
 30
0.0
 10
14.7177430579
 20
10.7445029298
 30
0.0
 10
14.7075161958
 20
10.70159662
 30
0.0
 10
14.6977929805
 20
10.6571150572
 30
0.0
 10
14.6886033731
 20
10.6111945118
 30
0.0
 10
14.679975693
 20
10.5639754986
 30
0.0
 10
14.6719365103
 20
10.5156026162
 30
0.0
 10
14.6645105723
 20
10.4662240148
 30
0.0
 10
14.6577207275
 20
10.4159909573
 30
0.0
 10
14.6515878568
 20
10.3650573428
 30
0.0
 10
14.6461308114
 20
10.3135792334
 30
0.0
 10
14.6413663541
 20
10.2617143687
 30
0.0
 10
14.6373091123
 20
10.2096216859
 30
0.0
 10
14.6339715247
 20
10.1574608093
 30
0.0
 10
14.6313638217
 20
10.1053916193
 30
0.0
 10
14.6294939581
 20
10.0535735887
 30
0.0
 10
14.6283676471
 20
10.0021657184
 30
0.0
 10
14.62811304
 20
9.9680465296
 30
0.0
 10
14.62811304
 20
9.951083748
 30
0.0
  0
SPLINE
  5
34B
100
AcDbEntity
  8
0
100
AcDbSpline
 62
7
  6
CONTINUOUS
 70
0
 71
3
 72
55
 73
51
 74
0
 42
0.0000001
 43
0.0000001
 44
0.0000000001
 40
0.0
 40
0.0
 40
0.0
 40
0.0
 40
0.0063157967
 40
0.0126705064
 40
0.0191022577
 40
0.0256477311
 40
0.0323415292
 40
0.039215794
 40
0.0462999396
 40
0.0536204765
 40
0.0612011269
 40
0.0690627967
 40
0.077223814
 40
0.0857001286
 40
0.0945054138
 40
0.1036514395
 40
0.1131481141
 40
0.1230037529
 40
0.1332252839
 40
0.1438182539
 40
0.1547871578
 40
0.1661353969
 40
0.1778654436
 40
0.1899790024
 40
0.2024769158
 40
0.215359436
 40
0.2286261423
 40
0.2422760211
 40
0.2563076146
 40
0.2707188714
 40
0.2855073776
 40
0.3006702734
 40
0.3162042724
 40
0.3321058142
 40
0.3649946654
 40
0.3993021056
 40
0.4349881404
 40
0.4720086211
 40
0.5103156623
 40
0.5498579758
 40
0.5905811562
 40
0.6324279171
 40
0.6753383233
 40
0.7192500409
 40
0.7640984978
 40
0.8098171101
 40
0.8563375432
 40
0.9035891104
 40
0.9515016896
 40
1.0
 40
1.0
 40
1.0
 40
1.0
 10
14.8418779133
 20
5.8277705702
 30
0.0
 10
14.8396147565
 20
5.8279275304
 30
0.0
 10
14.8350851965
 20
5.8284276872
 30
0.0
 10
14.828341628
 20
5.8297313389
 30
0.0
 10
14.8216431214
 20
5.8315882246
 30
0.0
 10
14.8149935916
 20
5.8339971398
 30
0.0
 10
14.8083958614
 20
5.8369562979
 30
0.0
 10
14.801852782
 20
5.8404638669
 30
0.0
 10
14.7953669991
 20
5.8445178815
 30
0.0
 10
14.7889408893
 20
5.849116064
 30
0.0
 10
14.7825769276
 20
5.854256294
 30
0.0
 10
14.7762773654
 20
5.8599361111
 30
0.0
 10
14.7700445009
 20
5.8661530327
 30
0.0
 10
14.7638806962
 20
5.872904469
 30
0.0
 10
14.7577881343
 20
5.8801875234
 30
0.0
 10
14.7517692255
 20
5.8879992887
 30
0.0
 10
14.7458262172
 20
5.896336537
 30
0.0
 10
14.7399614025
 20
5.905195883
 30
0.0
 10
14.7341771669
 20
5.9145737771
 30
0.0
 10
14.7284756938
 20
5.9244663617
 30
0.0
 10
14.7228593571
 20
5.934869666
 30
0.0
 10
14.7173303798
 20
5.9457794403
 30
0.0
 10
14.7118909702
 20
5.9571912347
 30
0.0
 10
14.7065434263
 20
5.9691004237
 30
0.0
 10
14.7012898295
 20
5.9815021097
 30
0.0
 10
14.6961324046
 20
5.9943912433
 30
0.0
 10
14.6910732493
 20
6.0077625386
 30
0.0
 10
14.6861144008
 20
6.0216105064
 30
0.0
 10
14.6812579847
 20
6.0359294832
 30
0.0
 10
14.6765059145
 20
6.0507135697
 30
0.0
 10
14.6718602035
 20
6.0659567026
 30
0.0
 10
14.667322775
 20
6.0816526081
 30
0.0
 10
14.6628954252
 20
6.0977948414
 30
0.0
 10
14.6570762954
 20
6.1201555165
 30
0.0
 10
14.6501065594
 20
6.1491818295
 30
0.0
 10
14.6423014323
 20
6.1853057499
 30
0.0
 10
14.6349767939
 20
6.2230428628
 30
0.0
 10
14.6281448209
 20
6.2623309666
 30
0.0
 10
14.6218168991
 20
6.3031054971
 30
0.0
 10
14.6160035736
 20
6.3452993329
 30
0.0
 10
14.6107145426
 20
6.3888429988
 30
0.0
 10
14.605958621
 20
6.4336647498
 30
0.0
 10
14.6017437241
 20
6.4796907078
 30
0.0
 10
14.5980768789
 20
6.5268449873
 30
0.0
 10
14.5949641999
 20
6.5750498353
 30
0.0
 10
14.5924108835
 20
6.6242257931
 30
0.0
 10
14.5904212154
 20
6.6742915863
 30
0.0
 10
14.5889984458
 20
6.7251650295
 30
0.0
 10
14.5881450678
 20
6.7767616387
 30
0.0
 10
14.5879576784
 20
6.8113921226
 30
0.0
 10
14.5879576784
 20
6.8288124015
 30
0.0
  0
SPLINE
  5
34C
100
AcDbEntity
  8
0
100
AcDbSpline
 62
7
  6
CONTINUOUS
 70
0
 71
3
 72
50
 73
46
 74
0
 42
0.0000001
 43
0.0000001
 44
0.0000000001
 40
0.0
 40
0.0
 40
0.0
 40
0.0
 40
0.0063857109
 40
0.0129180687
 40
0.0196242072
 40
0.0265289188
 40
0.0410162816
 40
0.0486423446
 40
0.0565432695
 40
0.0647328601
 40
0.0732230455
 40
0.0820242009
 40
0.0911451736
 40
0.1005934018
 40
0.1103752164
 40
0.1204958124
 40
0.1309593452
 40
0.1417691956
 40
0.1529278912
 40
0.1644371837
 40
0.1762982812
 40
0.1885117306
 40
0.2010774868
 40
0.2139951164
 40
0.2272636544
 40
0.2548466722
 40
0.2838118729
 40
0.3141381556
 40
0.3457995299
 40
0.3787658269
 40
0.4130030289
 40
0.4484735765
 40
0.4851368459
 40
0.522949325
 40
0.5618647759
 40
0.601834595
 40
0.6428079316
 40
0.6847317969
 40
0.7275513169
 40
0.771209862
 40
0.8156493004
 40
0.8608096051
 40
0.9066294816
 40
0.9530489103
 40
1.0
 40
1.0
 40
1.0
 40
1.0
 10
14.7911691541
 20
6.2285032679
 30
0.0
 10
14.7896761628
 20
6.2290311174
 30
0.0
 10
14.7866936615
 20
6.2302089022
 30
0.0
 10
14.7822981442
 20
6.2323054945
 30
0.0
 10
14.7779371915
 20
6.2347487894
 30
0.0
 10
14.7720781676
 20
6.2385268282
 30
0.0
 10
14.7663868288
 20
6.2429586163
 30
0.0
 10
14.7608732233
 20
6.2479611918
 30
0.0
 10
14.7567088611
 20
6.2521175983
 30
0.0
 10
14.752588339
 20
6.2566119978
 30
0.0
 10
14.7485126418
 20
6.2614429488
 30
0.0
 10
14.7444833154
 20
6.2666086417
 30
0.0
 10
14.7405017305
 20
6.272107208
 30
0.0
 10
14.7365692235
 20
6.2779365942
 30
0.0
 10
14.732687241
 20
6.2840947223
 30
0.0
 10
14.7288571651
 20
6.2905793455
 30
0.0
 10
14.7250803125
 20
6.2973880701
 30
0.0
 10
14.7213581068
 20
6.3045184465
 30
0.0
 10
14.7176918925
 20
6.3119678648
 30
0.0
 10
14.7140829542
 20
6.3197335769
 30
0.0
 10
14.7105326704
 20
6.3278127661
 30
0.0
 10
14.7070423309
 20
6.3362024644
 30
0.0
 10
14.7036131794
 20
6.3448995712
 30
0.0
 10
14.7002465097
 20
6.3539009262
 30
0.0
 10
14.6957848623
 20
6.36646678
 30
0.0
 10
14.6903852292
 20
6.3829197695
 30
0.0
 10
14.6842551336
 20
6.4035753904
 30
0.0
 10
14.6784026387
 20
6.4253601766
 30
0.0
 10
14.6728364013
 20
6.4482420013
 30
0.0
 10
14.6675647387
 20
6.4721873209
 30
0.0
 10
14.6625955254
 20
6.4971608965
 30
0.0
 10
14.6579361305
 20
6.5231259377
 30
0.0
 10
14.653593529
 20
6.5500441664
 30
0.0
 10
14.6495742211
 20
6.5778758712
 30
0.0
 10
14.6458841649
 20
6.6065799592
 30
0.0
 10
14.642528884
 20
6.6361140403
 30
0.0
 10
14.6395134087
 20
6.6664344877
 30
0.0
 10
14.6368422034
 20
6.6974964892
 30
0.0
 10
14.634519266
 20
6.7292541277
 30
0.0
 10
14.6325480852
 20
6.7616604897
 30
0.0
 10
14.6309315868
 20
6.794667625
 30
0.0
 10
14.6296721813
 20
6.8282266353
 30
0.0
 10
14.6287717533
 20
6.8622883558
 30
0.0
 10
14.6282317165
 20
6.8968017736
 30
0.0
 10
14.62811304
 20
6.9199563771
 30
0.0
 10
14.62811304
 20
6.9315995061
 30
0.0
  0
SPLINE
  5
34D
100
AcDbEntity
  8
0
100
AcDbSpline
 62
7
  6
CONTINUOUS
 70
0
 71
3
 72
54
 73
50
 74
0
 42
0.0000001
 43
0.0000001
 44
0.0000000001
 40
0.0
 40
0.0
 40
0.0
 40
0.0
 40
0.0054989064
 40
0.0111936856
 40
0.0171298649
 40
0.0233469194
 40
0.0298784987
 40
0.0367526724
 40
0.0439926245
 40
0.0516170968
 40
0.059641111
 40
0.0680763583
 40
0.0769317832
 40
0.0862138707
 40
0.0959270659
 40
0.1060739843
 40
0.1166556877
 40
0.1276718528
 40
0.1391209311
 40
0.1510003047
 40
0.1633063529
 40
0.1760346135
 40
0.1891797744
 40
0.2027358501
 40
0.2166961142
 40
0.2310532926
 40
0.2457994519
 40
0.2609262071
 40
0.2764245782
 40
0.2922852076
 40
0.3084981975
 40
0.3250533297
 40
0.3591464447
 40
0.3944754453
 40
0.4309453974
 40
0.4684566483
 40
0.5069053648
 40
0.5461840394
 40
0.5861819742
 40
0.6267857495
 40
0.66787968
 40
0.7093462662
 40
0.7510666369
 40
0.7929209968
 40
0.8347890485
 40
0.8765504833
 40
0.9180852778
 40
0.9592744799
 40
1.0
 40
1.0
 40
1.0
 40
1.0
 10
14.9216133767
 20
8.1094568998
 30
0.0
 10
14.9193692765
 20
8.1089988214
 30
0.0
 10
14.9148473278
 20
8.1078255063
 30
0.0
 10
14.908138789
 20
8.1053675188
 30
0.0
 10
14.9014082535
 20
8.1021890205
 30
0.0
 10
14.8946612021
 20
8.0982944085
 30
0.0
 10
14.8879017835
 20
8.0936874885
 30
0.0
 10
14.881134216
 20
8.088372604
 30
0.0
 10
14.8743629301
 20
8.0823539866
 30
0.0
 10
14.8675922806
 20
8.0756364356
 30
0.0
 10
14.8608269723
 20
8.0682249433
 30
0.0
 10
14.8540716441
 20
8.0601251174
 30
0.0
 10
14.8473312067
 20
8.0513429356
 30
0.0
 10
14.8406105088
 20
8.0418849821
 30
0.0
 10
14.8339145638
 20
8.0317582991
 30
0.0
 10
14.8272483385
 20
8.0209704997
 30
0.0
 10
14.8206168677
 20
8.0095296935
 30
0.0
 10
14.8140251658
 20
7.9974445215
 30
0.0
 10
14.8074782338
 20
7.9847241332
 30
0.0
 10
14.8009810841
 20
7.9713781741
 30
0.0
 10
14.794538648
 20
7.957416796
 30
0.0
 10
14.7881558995
 20
7.9428506166
 30
0.0
 10
14.7818376753
 20
7.9276907488
 30
0.0
 10
14.7755888826
 20
7.9119487468
 30
0.0
 10
14.7694142455
 20
7.8956366422
 30
0.0
 10
14.7633185804
 20
7.8787668868
 30
0.0
 10
14.757306484
 20
7.8613523887
 30
0.0
 10
14.7513826614
 20
7.8434064561
 30
0.0
 10
14.7455515679
 20
7.8249428289
 30
0.0
 10
14.7398177837
 20
7.805975633
 30
0.0
 10
14.7341855892
 20
7.7865193802
 30
0.0
 10
14.7267445863
 20
7.759682676
 30
0.0
 10
14.7177430579
 20
7.7250186879
 30
0.0
 10
14.7075161958
 20
7.6821123781
 30
0.0
 10
14.6977929805
 20
7.6376308153
 30
0.0
 10
14.6886033731
 20
7.5917102699
 30
0.0
 10
14.679975693
 20
7.5444912568
 30
0.0
 10
14.6719365103
 20
7.4961183743
 30
0.0
 10
14.6645105723
 20
7.446739773
 30
0.0
 10
14.6577207275
 20
7.3965067154
 30
0.0
 10
14.6515878568
 20
7.3455731009
 30
0.0
 10
14.6461308114
 20
7.2940949915
 30
0.0
 10
14.6413663541
 20
7.2422301268
 30
0.0
 10
14.6373091123
 20
7.190137444
 30
0.0
 10
14.6339715247
 20
7.1379765674
 30
0.0
 10
14.6313638217
 20
7.0859073774
 30
0.0
 10
14.6294939581
 20
7.0340893469
 30
0.0
 10
14.6283676471
 20
6.9826814765
 30
0.0
 10
14.62811304
 20
6.9485622877
 30
0.0
 10
14.62811304
 20
6.9315995061
 30
0.0
  0
SPLINE
  5
34E
100
AcDbEntity
  8
0
100
AcDbSpline
 62
7
  6
CONTINUOUS
 70
0
 71
3
 72
21
 73
17
 74
0
 42
0.0000001
 43
0.0000001
 44
0.0000000001
 40
0.0
 40
0.0
 40
0.0
 40
0.0
 40
0.0641775043
 40
0.1273066529
 40
0.1895635922
 40
0.2511262164
 40
0.3121761989
 40
0.372898801
 40
0.4334771407
 40
0.4940902311
 40
0.5549154983
 40
0.6161260849
 40
0.6778854833
 40
0.740350469
 40
0.8679479076
 40
1.0
 40
1.0
 40
1.0
 40
1.0
 10
11.9890972934
 20
8.7403179102
 30
0.0
 10
11.9890976331
 20
8.7388543735
 30
0.0
 10
11.9890307579
 20
8.7359506738
 30
0.0
 10
11.9887206815
 20
8.7316372075
 30
0.0
 10
11.988201344
 20
8.7274038032
 30
0.0
 10
11.9874726688
 20
8.7232494631
 30
0.0
 10
11.986534612
 20
8.7191731822
 30
0.0
 10
11.9853871666
 20
8.7151741419
 30
0.0
 10
11.9840305246
 20
8.7112516767
 30
0.0
 10
11.9824650258
 20
8.7074052819
 30
0.0
 10
11.9806910411
 20
8.70363457
 30
0.0
 10
11.9787090717
 20
8.6999392881
 30
0.0
 10
11.9765195966
 20
8.6963192629
 30
0.0
 10
11.9733022445
 20
8.6915599487
 30
0.0
 10
11.9687406871
 20
8.6857871442
 30
0.0
 10
11.9646513998
 20
8.6814927059
 30
0.0
 10
11.9624854484
 20
8.6794005574
 30
0.0
  0
LINE
  5
34F
100
AcDbEntity
  8
0
100
AcDbLine
 62
7
  6
CONTINUOUS
 10
11.091250967
 20
9.490776732
 11
11.0905791869
 21
9.4900447848
  0
SPLINE
  5
350
100
AcDbEntity
  8
0
100
AcDbSpline
 62
7
  6
CONTINUOUS
 70
0
 71
3
 72
24
 73
20
 74
0
 42
0.0000001
 43
0.0000001
 44
0.0000000001
 40
0.0
 40
0.0
 40
0.0
 40
0.0
 40
0.0616736451
 40
0.1233882225
 40
0.1851612343
 40
0.2470096737
 40
0.2779694707
 40
0.3089541844
 40
0.3710016773
 40
0.4331710774
 40
0.4954759531
 40
0.557928715
 40
0.6205405336
 40
0.683321176
 40
0.7462791532
 40
0.8094214825
 40
0.8727526855
 40
0.9362796991
 40
1.0
 40
1.0
 40
1.0
 40
1.0
 10
11.0905791869
 20
9.4900447848
 30
0.0
 10
11.082532499
 20
9.4812657379
 30
0.0
 10
11.066849671
 20
9.4633153741
 30
0.0
 10
11.0446252504
 20
9.435291785
 30
0.0
 10
11.0237366213
 20
9.4062167731
 30
0.0
 10
11.0074824303
 20
9.3811673341
 30
0.0
 10
10.9951886668
 20
9.3606650157
 30
0.0
 10
10.9833629677
 20
9.3398449812
 30
0.0
 10
10.9694867197
 20
9.3132688979
 30
0.0
 10
10.9543281601
 20
9.2805836717
 30
0.0
 10
10.9406839916
 20
9.2471529958
 30
0.0
 10
10.928581443
 20
9.2130434089
 30
0.0
 10
10.9180442791
 20
9.1783222765
 30
0.0
 10
10.9090932515
 20
9.1430582929
 30
0.0
 10
10.901746019
 20
9.1073211209
 30
0.0
 10
10.8960171784
 20
9.0711816116
 30
0.0
 10
10.8919176753
 20
9.0347105631
 30
0.0
 10
10.8894559836
 20
8.9979814999
 30
0.0
 10
10.8889104566
 20
8.9734071434
 30
0.0
 10
10.8889104566
 20
8.961103089
 30
0.0
  0
SPLINE
  5
351
100
AcDbEntity
  8
0
100
AcDbSpline
 62
7
  6
CONTINUOUS
 70
0
 71
3
 72
26
 73
22
 74
0
 42
0.0000001
 43
0.0000001
 44
0.0000000001
 40
0.0
 40
0.0
 40
0.0
 40
0.0
 40
0.0617092235
 40
0.0925729854
 40
0.1234446509
 40
0.1852169748
 40
0.2470517571
 40
0.2780013275
 40
0.3089738777
 40
0.3709922222
 40
0.4331298084
 40
0.4954034049
 40
0.5578284199
 40
0.6204187753
 40
0.6831867461
 40
0.7146430864
 40
0.7461476576
 40
0.8093008659
 40
0.872657114
 40
0.9362236724
 40
1.0
 40
1.0
 40
1.0
 40
1.0
 10
11.1644629354
 20
9.4979936048
 30
0.0
 10
11.1557225729
 20
9.4895510508
 30
0.0
 10
11.1429334608
 20
9.476545295
 30
0.0
 10
11.1265692139
 20
9.4585664979
 30
0.0
 10
11.110663899
 20
9.4401632891
 30
0.0
 10
11.0916650068
 20
9.4163870732
 30
0.0
 10
11.0739014935
 20
9.3916553587
 30
0.0
 10
11.060452986
 20
9.3713285836
 30
0.0
 10
11.0475089208
 20
9.3506343157
 30
0.0
 10
11.0323052585
 20
9.3241214454
 30
0.0
 10
11.0156778423
 20
9.2913731147
 30
0.0
 10
11.0006965169
 20
9.2577517249
 30
0.0
 10
10.987396042
 20
9.2233351903
 30
0.0
 10
10.9758070628
 20
9.1882032899
 30
0.0
 10
10.9676036217
 20
9.1584180622
 30
0.0
 10
10.9619201644
 20
9.1343180468
 30
0.0
 10
10.9568182555
 20
9.1100107013
 30
0.0
 10
10.9515547015
 20
9.0793287007
 30
0.0
 10
10.9470373314
 20
9.0421571032
 30
0.0
 10
10.9443241184
 20
9.0046880046
 30
0.0
 10
10.9437230078
 20
8.9796069933
 30
0.0
 10
10.9437230078
 20
8.967047951
 30
0.0
  0
SPLINE
  5
352
100
AcDbEntity
  8
0
100
AcDbSpline
 62
7
  6
CONTINUOUS
 70
0
 71
3
 72
24
 73
20
 74
0
 42
0.0000001
 43
0.0000001
 44
0.0000000001
 40
0.0
 40
0.0
 40
0.0
 40
0.0
 40
0.0616701213
 40
0.1233836347
 40
0.185157579
 40
0.2470084812
 40
0.2779698906
 40
0.3089564241
 40
0.3710080612
 40
0.4331817766
 40
0.4954907211
 40
0.55794692
 40
0.6205611877
 40
0.6833429685
 40
0.7463005208
 40
0.809440593
 40
0.872767556
 40
0.9362882888
 40
1.0
 40
1.0
 40
1.0
 40
1.0
 10
11.2016712658
 20
9.5315669653
 30
0.0
 10
11.1942178377
 20
9.5232952495
 30
0.0
 10
11.179693189
 20
9.5063921135
 30
0.0
 10
11.159115327
 20
9.4800313485
 30
0.0
 10
11.1397784543
 20
9.4527067712
 30
0.0
 10
11.124734792
 20
9.4291848001
 30
0.0
 10
11.1133580782
 20
9.4099431083
 30
0.0
 10
11.102415366
 20
9.3904097755
 30
0.0
 10
11.0895769471
 20
9.3654881411
 30
0.0
 10
11.075554218
 20
9.3348550585
 30
0.0
 10
11.0629340867
 20
9.3035389106
 30
0.0
 10
11.0517411878
 20
9.2716006415
 30
0.0
 10
11.0419970326
 20
9.2391019235
 30
0.0
 10
11.0337203623
 20
9.2061056326
 30
0.0
 10
11.0269271466
 20
9.1726755096
 30
0.0
 10
11.0216305862
 20
9.1388763629
 30
0.0
 10
11.0178405802
 20
9.1047729173
 30
0.0
 10
11.0155647951
 20
9.0704324287
 30
0.0
 10
11.0150604485
 20
9.0474576364
 30
0.0
 10
11.0150604485
 20
9.0359546315
 30
0.0
  0
SPLINE
  5
353
100
AcDbEntity
  8
0
100
AcDbSpline
 62
7
  6
CONTINUOUS
 70
0
 71
3
 72
25
 73
21
 74
0
 42
0.0000001
 43
0.0000001
 44
0.0000000001
 40
0.0
 40
0.0
 40
0.0
 40
0.0
 40
0.0617095319
 40
0.0925734525
 40
0.1234452711
 40
0.1852179107
 40
0.2470530079
 40
0.3089703872
 40
0.3709890414
 40
0.4331269412
 40
0.4954008557
 40
0.5578261871
 40
0.6204168633
 40
0.6831851338
 40
0.7146416333
 40
0.746146383
 40
0.80929992
 40
0.8726563647
 40
0.9362235836
 40
1.0
 40
1.0
 40
1.0
 40
1.0
 10
11.3120856301
 20
9.5293598847
 30
0.0
 10
11.304204264
 20
9.5217470742
 30
0.0
 10
11.2926720698
 20
9.5100195275
 30
0.0
 10
11.2779160929
 20
9.4938076858
 30
0.0
 10
11.2635739449
 20
9.4772132038
 30
0.0
 10
11.2464421107
 20
9.4557734618
 30
0.0
 10
11.2272157241
 20
9.4290050747
 30
0.0
 10
11.2093600453
 20
9.4012511592
 30
0.0
 10
11.1929165608
 20
9.372576141
 30
0.0
 10
11.1779230714
 20
9.3430460452
 30
0.0
 10
11.1644141742
 20
9.3127290402
 30
0.0
 10
11.1524208747
 20
9.2816949369
 30
0.0
 10
11.1419708821
 20
9.2500158065
 30
0.0
 10
11.1345736442
 20
9.2231578831
 30
0.0
 10
11.1294487768
 20
9.2014264151
 30
0.0
 10
11.1248482519
 20
9.1795079994
 30
0.0
 10
11.1201020313
 20
9.1518414403
 30
0.0
 10
11.1160286071
 20
9.1183230339
 30
0.0
 10
11.1135820766
 20
9.084536403
 30
0.0
 10
11.1130400257
 20
9.0619203381
 30
0.0
 10
11.1130400257
 20
9.0505956411
 30
0.0
  0
SPLINE
  5
354
100
AcDbEntity
  8
0
100
AcDbSpline
 62
7
  6
CONTINUOUS
 70
0
 71
3
 72
23
 73
19
 74
0
 42
0.0000001
 43
0.0000001
 44
0.0000000001
 40
0.0
 40
0.0
 40
0.0
 40
0.0
 40
0.0618581116
 40
0.1239597293
 40
0.1862790896
 40
0.2487863893
 40
0.3114483707
 40
0.3742289558
 40
0.4370899175
 40
0.4999915789
 40
0.5628935311
 40
0.6257553595
 40
0.6885373713
 40
0.7512013129
 40
0.8137110704
 40
0.8760333395
 40
0.9381382706
 40
1.0
 40
1.0
 40
1.0
 40
1.0
 10
12.4310771764
 20
9.1951584737
 30
0.0
 10
12.4192599443
 20
9.1984106758
 30
0.0
 10
12.3957945655
 20
9.2057416838
 30
0.0
 10
12.3613664481
 20
9.2191199192
 30
0.0
 10
12.3277980413
 20
9.2348381638
 30
0.0
 10
12.2952583187
 20
9.2528175123
 30
0.0
 10
12.2639083395
 20
9.2729686088
 30
0.0
 10
12.2339039983
 20
9.2951911492
 30
0.0
 10
12.2053943072
 20
9.3193746295
 30
0.0
 10
12.1785209187
 20
9.3453988246
 30
0.0
 10
12.1534173613
 20
9.3731343968
 30
0.0
 10
12.1302083993
 20
9.4024435335
 30
0.0
 10
12.1090094176
 20
9.4331806083
 30
0.0
 10
12.0899258377
 20
9.4651929656
 30
0.0
 10
12.0730526584
 20
9.4983214129
 30
0.0
 10
12.0584737462
 20
9.5324019608
 30
0.0
 10
12.0462623094
 20
9.5672630684
 30
0.0
 10
12.0397253711
 20
9.5909633536
 30
0.0
 10
12.0368728391
 20
9.6028841097
 30
0.0
  0
SPLINE
  5
355
100
AcDbEntity
  8
0
100
AcDbSpline
 62
7
  6
CONTINUOUS
 70
0
 71
3
 72
56
 73
52
 74
0
 42
0.0000001
 43
0.0000001
 44
0.0000000001
 40
0.0
 40
0.0
 40
0.0
 40
0.0
 40
0.014971274
 40
0.029945606
 40
0.0449260369
 40
0.0599155706
 40
0.0749171531
 40
0.0899336598
 40
0.104967875
 40
0.1200224737
 40
0.1351000117
 40
0.1502029057
 40
0.1653334193
 40
0.1804936563
 40
0.1956855421
 40
0.2109108165
 40
0.2261710283
 40
0.2414675198
 40
0.2568014272
 40
0.2721736755
 40
0.2875849674
 40
0.3030357913
 40
0.3185264144
 40
0.3340568802
 40
0.3496270191
 40
0.3652364417
 40
0.3808845461
 40
0.3965705269
 40
0.4122933718
 40
0.4280518765
 40
0.4438446507
 40
0.4596701209
 40
0.4755265482
 40
0.4914120331
 40
0.5073245245
 40
0.5232618381
 40
0.5551966919
 40
0.5872017075
 40
0.6192556772
 40
0.6513364178
 40
0.6834212138
 40
0.7154872687
 40
0.7475121591
 40
0.7794742806
 40
0.811353285
 40
0.8431305
 40
0.8747893191
 40
0.9063155631
 40
0.9376978538
 40
0.9689275324
 40
1.0
 40
1.0
 40
1.0
 40
1.0
 10
10.3548057579
 20
6.2137918756
 30
0.0
 10
10.3476632278
 20
6.2068926976
 30
0.0
 10
10.3331007882
 20
6.1933753246
 30
0.0
 10
10.3104661688
 20
6.1739812289
 30
0.0
 10
10.2870694819
 20
6.1554933261
 30
0.0
 10
10.2629432592
 20
6.137937623
 30
0.0
 10
10.2381206389
 20
6.1213380988
 30
0.0
 10
10.2126358503
 20
6.1057175585
 30
0.0
 10
10.1865238765
 20
6.0910976202
 30
0.0
 10
10.1598207318
 20
6.0774982675
 30
0.0
 10
10.1325631524
 20
6.0649382105
 30
0.0
 10
10.1047886058
 20
6.0534348248
 30
0.0
 10
10.0765353784
 20
6.0430037648
 30
0.0
 10
10.0478423103
 20
6.0336594526
 30
0.0
 10
10.0187488781
 20
6.0254147575
 30
0.0
 10
9.9892951471
 20
6.0182808629
 30
0.0
 10
9.959521603
 20
6.0122677058
 30
0.0
 10
9.9294692227
 20
6.0073834777
 30
0.0
 10
9.8991793538
 20
6.003634794
 30
0.0
 10
9.8686936425
 20
6.0010269486
 30
0.0
 10
9.8380540345
 20
5.9995633709
 30
0.0
 10
9.807302663
 20
5.999246054
 30
0.0
 10
9.7764818214
 20
6.0000755346
 30
0.0
 10
9.7456338893
 20
6.0020504845
 30
0.0
 10
9.7148012854
 20
6.0051682507
 30
0.0
 10
9.6840264142
 20
6.0094245683
 30
0.0
 10
9.6533515663
 20
6.0148134216
 30
0.0
 10
9.6228189377
 20
6.0213275198
 30
0.0
 10
9.5924704995
 20
6.028957842
 30
0.0
 10
9.5623479473
 20
6.0376937957
 30
0.0
 10
9.5324927333
 20
6.0475235075
 30
0.0
 10
9.5029458708
 20
6.0584333252
 30
0.0
 10
9.4737479368
 20
6.0704082501
 30
0.0
 10
9.4449392309
 20
6.0834318524
 30
0.0
 10
9.4165588648
 20
6.0974863403
 30
0.0
 10
9.3793211827
 20
6.1175852726
 30
0.0
 10
9.3340427734
 20
6.145190074
 30
0.0
 10
9.2820759426
 20
6.1820691458
 30
0.0
 10
9.2327161479
 20
6.222525868
 30
0.0
 10
9.1862360865
 20
6.2663371225
 30
0.0
 10
9.1428904009
 20
6.3132626993
 30
0.0
 10
9.1029171218
 20
6.3630449347
 30
0.0
 10
9.0665356872
 20
6.4154106495
 30
0.0
 10
9.0339460048
 20
6.4700725282
 30
0.0
 10
9.0053272478
 20
6.5267306643
 30
0.0
 10
8.9808367905
 20
6.5850741026
 30
0.0
 10
8.9606095056
 20
6.6447827555
 30
0.0
 10
8.9447569999
 20
6.7055286104
 30
0.0
 10
8.9333669946
 20
6.7669792353
 30
0.0
 10
8.9265024263
 20
6.8287928255
 30
0.0
 10
8.9249649246
 20
6.8701338321
 30
0.0
 10
8.9249649246
 20
6.8907442664
 30
0.0
  0
SPLINE
  5
356
100
AcDbEntity
  8
0
100
AcDbSpline
 62
7
  6
CONTINUOUS
 70
0
 71
3
 72
54
 73
50
 74
0
 42
0.0000001
 43
0.0000001
 44
0.0000000001
 40
0.0
 40
0.0
 40
0.0
 40
0.0
 40
0.0149619973
 40
0.0299313383
 40
0.0449108634
 40
0.0599033506
 40
0.0749115064
 40
0.0899379452
 40
0.1049851744
 40
0.1200555867
 40
0.1351514376
 40
0.1502748408
 40
0.1654277556
 40
0.1806119708
 40
0.1958291065
 40
0.211080596
 40
0.2263676837
 40
0.2416914232
 40
0.2570526627
 40
0.2724520537
 40
0.2878900417
 40
0.3033668646
 40
0.3188825615
 40
0.3344369612
 40
0.3500296963
 40
0.3656602015
 40
0.3813277139
 40
0.3970312893
 40
0.4285371084
 40
0.4601714439
 40
0.4919206529
 40
0.5237688454
 40
0.5556982147
 40
0.5876893943
 40
0.619721837
 40
0.6517742116
 40
0.6838248094
 40
0.7158519556
 40
0.7478344192
 40
0.7797518193
 40
0.8115850187
 40
0.8433165
 40
0.8749307183
 40
0.8906920254
 40
0.9064192472
 40
0.9221111659
 40
0.9377667345
 40
0.968960095
 40
1.0
 40
1.0
 40
1.0
 40
1.0
 10
10.353913687
 20
6.2147746256
 30
0.0
 10
10.3465471476
 20
6.2084611312
 30
0.0
 10
10.3315636624
 20
6.196115767
 30
0.0
 10
10.3083817683
 20
6.1784783737
 30
0.0
 10
10.2845177722
 20
6.1617402314
 30
0.0
 10
10.2600035132
 20
6.1459235815
 30
0.0
 10
10.2348710686
 20
6.1310490359
 30
0.0
 10
10.209153376
 20
6.117136285
 30
0.0
 10
10.1828842891
 20
6.1042033753
 30
0.0
 10
10.1560982158
 20
6.0922674099
 30
0.0
 10
10.1288303323
 20
6.0813440097
 30
0.0
 10
10.1011164633
 20
6.0714473853
 30
0.0
 10
10.0729929129
 20
6.0625907032
 30
0.0
 10
10.0444966521
 20
6.0547853697
 30
0.0
 10
10.0156650425
 20
6.0480417038
 30
0.0
 10
9.9865359126
 20
6.0423685751
 30
0.0
 10
9.9571475092
 20
6.0377732416
 30
0.0
 10
9.9275383571
 20
6.0342619228
 30
0.0
 10
9.8977473238
 20
6.0318390402
 30
0.0
 10
9.8678134808
 20
6.0305077818
 30
0.0
 10
9.8377760942
 20
6.0302699836
 30
0.0
 10
9.8076745618
 20
6.0311257358
 30
0.0
 10
9.7775483663
 20
6.0330740912
 30
0.0
 10
9.7474370249
 20
6.0361123667
 30
0.0
 10
9.7173799838
 20
6.0402365288
 30
0.0
 10
9.6874168073
 20
6.045441273
 30
0.0
 10
9.657586295
 20
6.0517196992
 30
0.0
 10
9.6180032627
 20
6.061520947
 30
0.0
 10
9.5690503036
 20
6.0764216362
 30
0.0
 10
9.5115323343
 20
6.0984098527
 30
0.0
 10
9.4554678038
 20
6.1244115147
 30
0.0
 10
9.4011521537
 20
6.1542896358
 30
0.0
 10
9.3488691316
 20
6.1878875981
 30
0.0
 10
9.2988925391
 20
6.2250292686
 30
0.0
 10
9.2514839116
 20
6.2655200397
 30
0.0
 10
9.2068913863
 20
6.3091477998
 30
0.0
 10
9.1653484048
 20
6.3556841111
 30
0.0
 10
9.1270725184
 20
6.4048853567
 30
0.0
 10
9.0922642469
 20
6.4564940612
 30
0.0
 10
9.0611060038
 20
6.5102399388
 30
0.0
 10
9.0337610172
 20
6.5658422027
 30
0.0
 10
9.0103732823
 20
6.6230078844
 30
0.0
 10
8.99426529
 20
6.6717562758
 30
0.0
 10
8.983476815
 20
6.711233482
 30
0.0
 10
8.9764486614
 20
6.7410153308
 30
0.0
 10
8.970485857
 20
6.7709587343
 30
0.0
 10
8.9639749144
 20
6.8109935288
 30
0.0
 10
8.9585243825
 20
6.8612489657
 30
0.0
 10
8.9570584592
 20
6.9016169255
 30
0.0
 10
8.9570584592
 20
6.9217442421
 30
0.0
  0
SPLINE
  5
357
100
AcDbEntity
  8
0
100
AcDbSpline
 62
7
  6
CONTINUOUS
 70
0
 71
3
 72
54
 73
50
 74
0
 42
0.0000001
 43
0.0000001
 44
0.0000000001
 40
0.0
 40
0.0
 40
0.0
 40
0.0
 40
0.0149714207
 40
0.0299458999
 40
0.0449264793
 40
0.0599161604
 40
0.0749178913
 40
0.0899345475
 40
0.1049689107
 40
0.1200236594
 40
0.1351013478
 40
0.1502043907
 40
0.1653350561
 40
0.180495444
 40
0.1956874801
 40
0.2109129079
 40
0.2261732709
 40
0.2414699147
 40
0.2568039766
 40
0.2721763764
 40
0.287587823
 40
0.3030388016
 40
0.3185295773
 40
0.3340601996
 40
0.3496304929
 40
0.3652400701
 40
0.3808883319
 40
0.3965744671
 40
0.4122974687
 40
0.4280561307
 40
0.4438490599
 40
0.4596746883
 40
0.4914119508
 40
0.5232571585
 40
0.5551923278
 40
0.5871976583
 40
0.6192519434
 40
0.6513329994
 40
0.6834181104
 40
0.71548448
 40
0.7475096843
 40
0.7794721186
 40
0.8113514354
 40
0.8431289619
 40
0.8747880915
 40
0.9063146418
 40
0.937697247
 40
0.9689272244
 40
1.0
 40
1.0
 40
1.0
 40
1.0
 10
10.3636584212
 20
6.287688309
 30
0.0
 10
10.3569057879
 20
6.2811657566
 30
0.0
 10
10.3431381955
 20
6.2683863917
 30
0.0
 10
10.3217391735
 20
6.2500510032
 30
0.0
 10
10.2996196019
 20
6.2325724385
 30
0.0
 10
10.2768103398
 20
6.2159751719
 30
0.0
 10
10.2533427491
 20
6.2002818093
 30
0.0
 10
10.2292490578
 20
6.18551412
 30
0.0
 10
10.2045624831
 20
6.1716923131
 30
0.0
 10
10.1793170114
 20
6.1588353703
 30
0.0
 10
10.1535473204
 20
6.1469611082
 30
0.0
 10
10.1272889537
 20
6.1360856809
 30
0.0
 10
10.1005780014
 20
6.1262241305
 30
0.0
 10
10.0734512151
 20
6.1173900374
 30
0.0
 10
10.045945963
 20
6.1095953935
 30
0.0
 10
10.0181000399
 20
6.1028510744
 30
0.0
 10
9.9899517869
 20
6.097166232
 30
0.0
 10
9.961539928
 20
6.0925486301
 30
0.0
 10
9.9329035261
 20
6.0890047513
 30
0.0
 10
9.9040819944
 20
6.0865392655
 30
0.0
 10
9.8751149613
 20
6.0851556387
 30
0.0
 10
9.8460422702
 20
6.0848557872
 30
0.0
 10
9.8169039006
 20
6.0856399517
 30
0.0
 10
9.7877399264
 20
6.0875072063
 30
0.0
 10
9.7585904479
 20
6.0904548605
 30
0.0
 10
9.7294955358
 20
6.0944788017
 30
0.0
 10
9.700495216
 20
6.0995736313
 30
0.0
 10
9.6716293376
 20
6.1057321448
 30
0.0
 10
9.6429375686
 20
6.1129459618
 30
0.0
 10
9.6144594836
 20
6.1212051313
 30
0.0
 10
9.5862337517
 20
6.1304983423
 30
0.0
 10
9.5489571526
 20
6.1442622477
 30
0.0
 10
9.5031873765
 20
6.1639922022
 30
0.0
 10
9.4499460379
 20
6.1915398228
 30
0.0
 10
9.3986181123
 20
6.2228332114
 30
0.0
 10
9.3494871191
 20
6.2576996586
 30
0.0
 10
9.3028221233
 20
6.2959477903
 30
0.0
 10
9.2588793639
 20
6.3373675549
 30
0.0
 10
9.2178999318
 20
6.3817315376
 30
0.0
 10
9.1801087674
 20
6.4287962319
 30
0.0
 10
9.1457133939
 20
6.4783033813
 30
0.0
 10
9.1149028147
 20
6.5299813639
 30
0.0
 10
9.087846347
 20
6.5835466001
 30
0.0
 10
9.0646928127
 20
6.638705137
 30
0.0
 10
9.0455697438
 20
6.6951543652
 30
0.0
 10
9.0305826395
 20
6.752584177
 30
0.0
 10
9.019814414
 20
6.8106802758
 30
0.0
 10
9.0133245767
 20
6.8691195282
 30
0.0
 10
9.0118710104
 20
6.90820377
 30
0.0
 10
9.0118710104
 20
6.9276891041
 30
0.0
  0
SPLINE
  5
358
100
AcDbEntity
  8
0
100
AcDbSpline
 62
7
  6
CONTINUOUS
 70
0
 71
3
 72
52
 73
48
 74
0
 42
0.0000001
 43
0.0000001
 44
0.0000000001
 40
0.0
 40
0.0
 40
0.0
 40
0.0
 40
0.0149610471
 40
0.029930214
 40
0.0449103006
 40
0.0599040411
 40
0.074914092
 40
0.0899430187
 40
0.104993275
 40
0.1200671974
 40
0.1351669876
 40
0.1502946995
 40
0.1654522359
 40
0.1806413286
 40
0.1958635382
 40
0.2111202446
 40
0.2264126346
 40
0.2417417088
 40
0.2571082651
 40
0.2725129032
 40
0.2879560242
 40
0.3034378205
 40
0.3189582897
 40
0.3345172248
 40
0.3501142212
 40
0.3657486843
 40
0.3814198232
 40
0.3971266686
 40
0.4286379342
 40
0.4602760954
 40
0.4920274469
 40
0.5238760918
 40
0.5558042671
 40
0.5877926958
 40
0.6198209608
 40
0.6518678955
 40
0.6839119828
 40
0.7159317588
 40
0.7479062163
 40
0.7798152025
 40
0.8116398046
 40
0.8433627191
 40
0.8749685974
 40
0.9064443544
 40
0.9377795441
 40
0.9689661463
 40
1.0
 40
1.0
 40
1.0
 40
1.0
 10
10.3977270341
 20
6.3230614787
 30
0.0
 10
10.3907269043
 20
6.3171973127
 30
0.0
 10
10.3764947215
 20
6.305735059
 30
0.0
 10
10.3544929888
 20
6.2893735516
 30
0.0
 10
10.3318604529
 20
6.2738603114
 30
0.0
 10
10.3086268974
 20
6.2592159613
 30
0.0
 10
10.2848225405
 20
6.2454592745
 30
0.0
 10
10.2604782765
 20
6.2326083255
 30
0.0
 10
10.2356258177
 20
6.2206797168
 30
0.0
 10
10.2102975001
 20
6.2096889179
 30
0.0
 10
10.1845262079
 20
6.1996503533
 30
0.0
 10
10.1583455343
 20
6.1905768657
 30
0.0
 10
10.1317894699
 20
6.1824803936
 30
0.0
 10
10.1048925712
 20
6.1753713954
 30
0.0
 10
10.0776898291
 20
6.1692590135
 30
0.0
 10
10.0502165773
 20
6.1641513595
 30
0.0
 10
10.0225085745
 20
6.1600548518
 30
0.0
 10
9.9946018213
 20
6.1569749234
 30
0.0
 10
9.9665326032
 20
6.1549155567
 30
0.0
 10
9.9383374125
 20
6.1538792813
 30
0.0
 10
9.910052894
 20
6.1538676267
 30
0.0
 10
9.8817158138
 20
6.1548804008
 30
0.0
 10
9.8533629978
 20
6.1569163528
 30
0.0
 10
9.8250313118
 20
6.1599728649
 30
0.0
 10
9.7967575229
 20
6.1640457964
 30
0.0
 10
9.7685785159
 20
6.1691299991
 30
0.0
 10
9.7405304601
 20
6.1752188377
 30
0.0
 10
9.7033208504
 20
6.1846751024
 30
0.0
 10
9.6573172804
 20
6.1989730526
 30
0.0
 10
9.6032838634
 20
6.2199702844
 30
0.0
 10
9.5506335587
 20
6.2447184355
 30
0.0
 10
9.4996413118
 20
6.273088307
 30
0.0
 10
9.4505711114
 20
6.3049325507
 30
0.0
 10
9.4036776199
 20
6.3400857402
 30
0.0
 10
9.3592040091
 20
6.3783653321
 30
0.0
 10
9.3173809658
 20
6.4195726248
 30
0.0
 10
9.2784254641
 20
6.4634938028
 30
0.0
 10
9.2425396732
 20
6.5099010298
 30
0.0
 10
9.2099098953
 20
6.5585535969
 30
0.0
 10
9.1807055511
 20
6.6091991279
 30
0.0
 10
9.1550783854
 20
6.6615749409
 30
0.0
 10
9.1331616693
 20
6.7154093449
 30
0.0
 10
9.1150695444
 20
6.7704231544
 30
0.0
 10
9.1008962846
 20
6.8263306678
 30
0.0
 10
9.0907160361
 20
6.8828426628
 30
0.0
 10
9.0845819585
 20
6.9396620355
 30
0.0
 10
9.0832084512
 20
6.9776535425
 30
0.0
 10
9.0832084512
 20
6.9965957846
 30
0.0
  0
SPLINE
  5
359
100
AcDbEntity
  8
0
100
AcDbSpline
 62
7
  6
CONTINUOUS
 70
0
 71
3
 72
51
 73
47
 74
0
 42
0.0000001
 43
0.0000001
 44
0.0000000001
 40
0.0
 40
0.0
 40
0.0
 40
0.0
 40
0.0149716491
 40
0.0299463579
 40
0.0449271649
 40
0.0599170755
 40
0.0749190358
 40
0.0899359201
 40
0.1049705142
 40
0.1200254921
 40
0.1351034104
 40
0.150206685
 40
0.16533758
 40
0.1804982002
 40
0.1956904684
 40
0.2109161278
 40
0.2261767248
 40
0.2414736015
 40
0.2568078978
 40
0.2721805325
 40
0.2875922139
 40
0.3030434288
 40
0.3185344409
 40
0.3340653005
 40
0.3496358313
 40
0.365245647
 40
0.396575363
 40
0.4280524198
 40
0.4596664386
 40
0.4914041857
 40
0.523249879
 40
0.5551855359
 40
0.5871913555
 40
0.61924613
 40
0.6513276757
 40
0.6834132767
 40
0.7154801359
 40
0.7475058287
 40
0.7794687512
 40
0.8113485552
 40
0.843126567
 40
0.8747861806
 40
0.9063132067
 40
0.9376963039
 40
0.9689267485
 40
1.0
 40
1.0
 40
1.0
 40
1.0
 10
10.400121621
 20
6.4341353594
 30
0.0
 10
10.3940326313
 20
6.4282538504
 30
0.0
 10
10.381618182
 20
6.4167303744
 30
0.0
 10
10.3623222026
 20
6.4001970518
 30
0.0
 10
10.3423765496
 20
6.3844362797
 30
0.0
 10
10.3218090224
 20
6.3694701384
 30
0.0
 10
10.300647771
 20
6.3553192087
 30
0.0
 10
10.2789220596
 20
6.3420028102
 30
0.0
 10
10.2566616642
 20
6.3295394436
 30
0.0
 10
10.2338973055
 20
6.3179461147
 30
0.0
 10
10.2106602962
 20
6.3072387805
 30
0.0
 10
10.1869825717
 20
6.2974322701
 30
0.0
 10
10.1628967936
 20
6.2885398648
 30
0.0
 10
10.1384360286
 20
6.2805739891
 30
0.0
 10
10.1136339841
 20
6.2735454475
 30
0.0
 10
10.0885247763
 20
6.2674638968
 30
0.0
 10
10.0631429261
 20
6.2623378108
 30
0.0
 10
10.037523391
 20
6.2581740103
 30
0.0
 10
10.0117013783
 20
6.2549784129
 30
0.0
 10
9.985712428
 20
6.2527552623
 30
0.0
 10
9.9595922778
 20
6.2515075892
 30
0.0
 10
9.9333768586
 20
6.2512372269
 30
0.0
 10
9.9071021914
 20
6.2519443173
 30
0.0
 10
9.8808045282
 20
6.2536280482
 30
0.0
 10
9.854519592
 20
6.2562860621
 30
0.0
 10
9.8195002192
 20
6.261129267
 30
0.0
 10
9.7759343583
 20
6.2696072832
 30
0.0
 10
9.7243569315
 20
6.2835736488
 30
0.0
 10
9.6736916981
 20
6.3012691133
 30
0.0
 10
9.6242186441
 20
6.3225958306
 30
0.0
 10
9.5762087598
 20
6.3474364017
 30
0.0
 10
9.5299256375
 20
6.3756541684
 30
0.0
 10
9.4856231811
 20
6.4070939893
 30
0.0
 10
9.4435444645
 20
6.4415831037
 30
0.0
 10
9.4039203772
 20
6.4789321077
 30
0.0
 10
9.3669683841
 20
6.5189359711
 30
0.0
 10
9.3328913553
 20
6.5613751573
 30
0.0
 10
9.3018763963
 20
6.6060167612
 30
0.0
 10
9.2740938697
 20
6.6526158169
 30
0.0
 10
9.2496964895
 20
6.7009166443
 30
0.0
 10
9.2288184791
 20
6.7506541934
 30
0.0
 10
9.2115748649
 20
6.8015555953
 30
0.0
 10
9.1980606845
 20
6.8533412007
 30
0.0
 10
9.1883507582
 20
6.9057276072
 30
0.0
 10
9.1824987332
 20
6.9584234457
 30
0.0
 10
9.1811880284
 20
6.9936664799
 30
0.0
 10
9.1811880284
 20
7.0112367943
 30
0.0
  0
SPLINE
  5
35A
100
AcDbEntity
  8
0
100
AcDbSpline
 62
7
  6
CONTINUOUS
 70
0
 71
3
 72
51
 73
47
 74
0
 42
0.0000001
 43
0.0000001
 44
0.0000000001
 40
0.0
 40
0.0
 40
0.0
 40
0.0
 40
0.0464261739
 40
0.0923370855
 40
0.1376692156
 40
0.1823650704
 40
0.226365985
 40
0.2696149558
 40
0.3120564879
 40
0.3536364292
 40
0.3943023356
 40
0.4340035319
 40
0.4726912195
 40
0.5103186717
 40
0.5468414432
 40
0.5822174912
 40
0.6164073743
 40
0.6493745621
 40
0.681085685
 40
0.7115108008
 40
0.7406238032
 40
0.7684029546
 40
0.7817872521
 40
0.7948321964
 40
0.807536543
 40
0.8198995142
 40
0.8319206729
 40
0.8436001179
 40
0.8549384804
 40
0.8659368705
 40
0.8765971112
 40
0.8869216724
 40
0.8969137214
 40
0.906577354
 40
0.9159175137
 40
0.9249401567
 40
0.9336524432
 40
0.9420627015
 40
0.9501806861
 40
0.9580177121
 40
0.9655866978
 40
0.9729024543
 40
0.979981747
 40
0.986843381
 40
0.9935083971
 40
1.0
 40
1.0
 40
1.0
 40
1.0
 10
15.2192552511
 20
7.5025990687
 30
0.0
 10
15.2192552511
 20
7.5187855156
 30
0.0
 10
15.2190933668
 20
7.5509790164
 30
0.0
 10
15.2183568058
 20
7.5989724536
 30
0.0
 10
15.2171287107
 20
7.6463524389
 30
0.0
 10
15.215410951
 20
7.6930508622
 30
0.0
 10
15.2132059418
 20
7.7390017505
 30
0.0
 10
15.2105168816
 20
7.7841395682
 30
0.0
 10
15.2073476435
 20
7.8284000847
 30
0.0
 10
15.2037027486
 20
7.8717203406
 30
0.0
 10
15.1995874503
 20
7.9140387008
 30
0.0
 10
15.1950076699
 20
7.955294982
 30
0.0
 10
15.1899699696
 20
7.9954305113
 30
0.0
 10
15.184481568
 20
8.0343882286
 30
0.0
 10
15.1785503705
 20
8.0721127822
 30
0.0
 10
15.1721848952
 20
8.1085505922
 30
0.0
 10
15.1653942542
 20
8.1436499252
 30
0.0
 10
15.1581882032
 20
8.1773610092
 30
0.0
 10
15.1505770983
 20
8.2096360769
 30
0.0
 10
15.1425718404
 20
8.2404295296
 30
0.0
 10
15.1341838595
 20
8.2696976386
 30
0.0
 10
15.1267963663
 20
8.2930631167
 30
0.0
 10
15.1206910405
 20
8.3109502275
 30
0.0
 10
15.1160806334
 20
8.3237922147
 30
0.0
 10
15.1113836664
 20
8.3362228746
 30
0.0
 10
15.106601845
 20
8.3482378463
 30
0.0
 10
15.1017368049
 20
8.3598328556
 30
0.0
 10
15.0967902797
 20
8.37100381
 30
0.0
 10
15.0917640667
 20
8.3817467864
 30
0.0
 10
15.0866598504
 20
8.3920579637
 30
0.0
 10
15.0814794781
 20
8.4019337338
 30
0.0
 10
15.0762247755
 20
8.4113706344
 30
0.0
 10
15.0708974893
 20
8.4203653094
 30
0.0
 10
15.0654995472
 20
8.4289146475
 30
0.0
 10
15.0600327732
 20
8.4370156407
 30
0.0
 10
15.0544989782
 20
8.4446654133
 30
0.0
 10
15.0489001203
 20
8.4518613415
 30
0.0
 10
15.0432379986
 20
8.4586008465
 30
0.0
 10
15.0375144785
 20
8.4648815302
 30
0.0
 10
15.0317314986
 20
8.4707012083
 30
0.0
 10
15.0258908355
 20
8.476057674
 30
0.0
 10
15.0199944002
 20
8.4809489663
 30
0.0
 10
15.0140441402
 20
8.4853732239
 30
0.0
 10
15.0080417794
 20
8.4893285805
 30
0.0
 10
15.0019897486
 20
8.4928132599
 30
0.0
 10
14.997873418
 20
8.494846108
 30
0.0
 10
14.995811325
 20
8.4957789869
 30
0.0
  0
SPLINE
  5
35B
100
AcDbEntity
  8
0
100
AcDbSpline
 62
7
  6
CONTINUOUS
 70
0
 71
3
 72
43
 73
39
 74
0
 42
0.0000001
 43
0.0000001
 44
0.0000000001
 40
0.0
 40
0.0
 40
0.0
 40
0.0
 40
0.0303546533
 40
0.0455762998
 40
0.0608269262
 40
0.0914129705
 40
0.1221164224
 40
0.1375134317
 40
0.1529393846
 40
0.1838739266
 40
0.214919378
 40
0.2460708837
 40
0.2773223494
 40
0.308666524
 40
0.3400950931
 40
0.3715987822
 40
0.4031674683
 40
0.4347902991
 40
0.4664558181
 40
0.498152095
 40
0.5298668594
 40
0.5615876366
 40
0.5933018857
 40
0.6249971377
 40
0.6566611335
 40
0.6882819595
 40
0.7198481816
 40
0.751348975
 40
0.7827742499
 40
0.8141147668
 40
0.8453622619
 40
0.8609502127
 40
0.8765122856
 40
0.9075533163
 40
0.9384830736
 40
0.953906511
 40
0.9693015419
 40
1.0
 40
1.0
 40
1.0
 40
1.0
 10
10.5836771035
 20
6.792279959
 30
0.0
 10
10.570846053
 20
6.7905924174
 30
0.0
 10
10.5515032693
 20
6.7886037191
 30
0.0
 10
10.5256149465
 20
6.7870382161
 30
0.0
 10
10.4995936481
 20
6.786193361
 30
0.0
 10
10.46694483
 20
6.7864987317
 30
0.0
 10
10.4343006976
 20
6.7886112231
 30
0.0
 10
10.4082128364
 20
6.7913794441
 30
0.0
 10
10.3821126791
 20
6.7948721299
 30
0.0
 10
10.3495914039
 20
6.8005849941
 30
0.0
 10
10.3108939733
 20
6.809561234
 30
0.0
 10
10.272603449
 20
6.8206375294
 30
0.0
 10
10.2348374562
 20
6.8337798507
 30
0.0
 10
10.1977110644
 20
6.8489479996
 30
0.0
 10
10.1613376357
 20
6.866095576
 30
0.0
 10
10.1258281597
 20
6.8851701613
 30
0.0
 10
10.0912910049
 20
6.9061134689
 30
0.0
 10
10.0578315635
 20
6.9288615179
 30
0.0
 10
10.0255519363
 20
6.9533448279
 30
0.0
 10
9.9945506265
 20
6.9794886376
 30
0.0
 10
9.9649222398
 20
7.0072131302
 30
0.0
 10
9.9367571987
 20
7.036433676
 30
0.0
 10
9.9101414679
 20
7.0670610893
 30
0.0
 10
9.8851562938
 20
7.0990018983
 30
0.0
 10
9.8618779582
 20
7.1321586302
 30
0.0
 10
9.8403775468
 20
7.1664301001
 30
0.0
 10
9.8207207306
 20
7.2017117409
 30
0.0
 10
9.8029675738
 20
7.2378958326
 30
0.0
 10
9.7871722896
 20
7.2748721395
 30
0.0
 10
9.7733833281
 20
7.3125271095
 30
0.0
 10
9.7635912037
 20
7.3444040069
 30
0.0
 10
9.7568023522
 20
7.3701288768
 30
0.0
 10
9.7507241111
 20
7.3959404641
 30
0.0
 10
9.7444437866
 20
7.4284113776
 30
0.0
 10
9.7399350736
 20
7.4611158462
 30
0.0
 10
9.7374080915
 20
7.4873233451
 30
0.0
 10
9.735604879
 20
7.5134910007
 30
0.0
 10
9.7350603278
 20
7.5331482575
 30
0.0
 10
9.7350603278
 20
7.5462363844
 30
0.0
  0
SPLINE
  5
35C
100
AcDbEntity
  8
0
100
AcDbSpline
 62
7
  6
CONTINUOUS
 70
0
 71
3
 72
43
 73
39
 74
0
 42
0.0000001
 43
0.0000001
 44
0.0000000001
 40
0.0
 40
0.0
 40
0.0
 40
0.0
 40
0.0303720674
 40
0.0456023289
 40
0.0608614746
 40
0.0914641528
 40
0.1221834091
 40
0.1375879069
 40
0.1530210521
 40
0.183969021
 40
0.2150264207
 40
0.2461882512
 40
0.2774483092
 40
0.3087992706
 40
0.3402327842
 40
0.3717395734
 40
0.4033095463
 40
0.4349319123
 40
0.4665953037
 40
0.4982879033
 40
0.529997574
 40
0.5617119927
 40
0.5934187849
 40
0.6251056597
 40
0.6567605436
 40
0.688371713
 40
0.719927923
 40
0.7356833926
 40
0.7514211919
 40
0.7828362907
 40
0.8141668042
 40
0.8454046212
 40
0.8765426362
 40
0.9075750392
 40
0.938496777
 40
0.9539165033
 40
0.9693080603
 40
1.0
 40
1.0
 40
1.0
 40
1.0
 10
10.5834782992
 20
6.8499306519
 30
0.0
 10
10.5714857605
 20
6.8484977001
 30
0.0
 10
10.5534137913
 20
6.8468516324
 30
0.0
 10
10.5292384554
 20
6.8456632042
 30
0.0
 10
10.504947102
 20
6.8451432371
 30
0.0
 10
10.4744834681
 20
6.8457547024
 30
0.0
 10
10.4440417056
 20
6.8480390115
 30
0.0
 10
10.4197237523
 20
6.850864241
 30
0.0
 10
10.3954013005
 20
6.8543604115
 30
0.0
 10
10.3651068509
 20
6.8599764458
 30
0.0
 10
10.3290759396
 20
6.8686763001
 30
0.0
 10
10.2934398196
 20
6.8793169525
 30
0.0
 10
10.2583065388
 20
6.8918661744
 30
0.0
 10
10.2237817458
 20
6.9062860749
 30
0.0
 10
10.1899694801
 20
6.9225331153
 30
0.0
 10
10.1569715663
 20
6.9405582755
 30
0.0
 10
10.1248873891
 20
6.960307193
 30
0.0
 10
10.0938135763
 20
6.9817203276
 30
0.0
 10
10.0638437156
 20
7.0047331404
 30
0.0
 10
10.0350680739
 20
7.0292762853
 30
0.0
 10
10.0075733286
 20
7.0552758202
 30
0.0
 10
9.981442295
 20
7.0826534082
 30
0.0
 10
9.9567536798
 20
7.1113265846
 30
0.0
 10
9.9335818816
 20
7.1412089404
 30
0.0
 10
9.9119966402
 20
7.1722106236
 30
0.0
 10
9.8920633054
 20
7.2042376985
 30
0.0
 10
9.876870008
 20
7.2317171368
 30
0.0
 10
9.8656000866
 20
7.2541166557
 30
0.0
 10
9.8549396926
 20
7.2767505614
 30
0.0
 10
9.8427475567
 20
7.3054972842
 30
0.0
 10
9.8299695588
 20
7.3406366253
 30
0.0
 10
9.8190904815
 20
7.3762949203
 30
0.0
 10
9.8101433849
 20
7.4123643778
 30
0.0
 10
9.8031554377
 20
7.4487357435
 30
0.0
 10
9.798978221
 20
7.4792359008
 30
0.0
 10
9.796637126
 20
7.5036756902
 30
0.0
 10
9.7949665708
 20
7.5280782473
 30
0.0
 10
9.7944620908
 20
7.5464090387
 30
0.0
 10
9.7944620908
 20
7.5586140848
 30
0.0
  0
SPLINE
  5
35D
100
AcDbEntity
  8
0
100
AcDbSpline
 62
7
  6
CONTINUOUS
 70
0
 71
3
 72
55
 73
51
 74
0
 42
0.0000001
 43
0.0000001
 44
0.0000000001
 40
0.0
 40
0.0
 40
0.0
 40
0.0
 40
0.040370512
 40
0.0811958907
 40
0.1223626275
 40
0.163755625
 40
0.205259186
 40
0.2467571421
 40
0.2881333709
 40
0.3292721742
 40
0.3700587016
 40
0.4103793625
 40
0.4501222444
 40
0.4891775349
 40
0.5274379505
 40
0.5647991746
 40
0.6011603094
 40
0.6364243473
 40
0.6536160401
 40
0.6704991085
 40
0.6870627528
 40
0.7032965184
 40
0.7191903067
 40
0.7347344239
 40
0.749919559
 40
0.7647368737
 40
0.779177947
 40
0.7932349081
 40
0.8069003524
 40
0.8201675144
 40
0.8330301649
 40
0.8454828202
 40
0.8575206343
 40
0.8691396378
 40
0.8803366472
 40
0.891109526
 40
0.9014571367
 40
0.9113796231
 40
0.9208784344
 40
0.9299566346
 40
0.9386190323
 40
0.9468725345
 40
0.9547264164
 40
0.9621927436
 40
0.9692868072
 40
0.9760276242
 40
0.9824385129
 40
0.9885476056
 40
0.9943883953
 40
1.0
 40
1.0
 40
1.0
 40
1.0
 10
15.2192552511
 20
7.5025990687
 30
0.0
 10
15.2192552511
 20
7.4788842763
 30
0.0
 10
15.21890406
 20
7.4311868146
 30
0.0
 10
15.2173500927
 20
7.3593220516
 30
0.0
 10
15.2147700829
 20
7.2868856813
 30
0.0
 10
15.2111716584
 20
7.2140939655
 30
0.0
 10
15.2065655416
 20
7.1411641116
 30
0.0
 10
15.2009654595
 20
7.0683137231
 30
0.0
 10
15.1943881367
 20
6.9957601807
 30
0.0
 10
15.1868532292
 20
6.9237199674
 30
0.0
 10
15.1783832724
 20
6.8524080274
 30
0.0
 10
15.1690036123
 20
6.7820371174
 30
0.0
 10
15.1587423316
 20
6.7128171687
 30
0.0
 10
15.1476301673
 20
6.6449546484
 30
0.0
 10
15.1357004187
 20
6.5786519603
 30
0.0
 10
15.1229888584
 20
6.5141067421
 30
0.0
 10
15.1095335947
 20
6.4515115873
 30
0.0
 10
15.0976365187
 20
6.4007090286
 30
0.0
 10
15.0877638505
 20
6.3611914355
 30
0.0
 10
15.0802616308
 20
6.3324060177
 30
0.0
 10
15.0726047566
 20
6.3042440775
 30
0.0
 10
15.0647989259
 20
6.276726595
 30
0.0
 10
15.056849967
 20
6.2498740946
 30
0.0
 10
15.0487638513
 20
6.2237065912
 30
0.0
 10
15.0405465824
 20
6.1982435924
 30
0.0
 10
15.0322043614
 20
6.1735040655
 30
0.0
 10
15.0237433553
 20
6.1495064472
 30
0.0
 10
15.0151699726
 20
6.1262685947
 30
0.0
 10
15.0064905262
 20
6.1038078177
 30
0.0
 10
14.9977116074
 20
6.0821408045
 30
0.0
 10
14.9888396575
 20
6.0612836825
 30
0.0
 10
14.9798814214
 20
6.0412519151
 30
0.0
 10
14.9708434513
 20
6.0220603943
 30
0.0
 10
14.9617326092
 20
6.0037233048
 30
0.0
 10
14.9525555382
 20
5.9862542502
 30
0.0
 10
14.9433191727
 20
5.9696660878
 30
0.0
 10
14.9340302185
 20
5.9539710814
 30
0.0
 10
14.9246956255
 20
5.9391807172
 30
0.0
 10
14.915322119
 20
5.9253058728
 30
0.0
 10
14.9059165886
 20
5.9123566339
 30
0.0
 10
14.8964857104
 20
5.9003424608
 30
0.0
 10
14.8870362095
 20
5.8892720421
 30
0.0
 10
14.8775746107
 20
5.8791534343
 30
0.0
 10
14.8681073416
 20
5.8699940098
 30
0.0
 10
14.8586406614
 20
5.8618005442
 30
0.0
 10
14.8491805716
 20
5.8545793285
 30
0.0
 10
14.8397331231
 20
5.8483362011
 30
0.0
 10
14.8303037185
 20
5.8430767526
 30
0.0
 10
14.8208996471
 20
5.8388066679
 30
0.0
 10
14.8145376575
 20
5.83658369
 30
0.0
 10
14.811375926
 20
5.835651049
 30
0.0
  0
SPLINE
  5
35E
100
AcDbEntity
  8
0
100
AcDbSpline
 62
7
  6
CONTINUOUS
 70
0
 71
3
 72
62
 73
58
 74
0
 42
0.0000001
 43
0.0000001
 44
0.0000000001
 40
0.0
 40
0.0
 40
0.0
 40
0.0
 40
0.0427954811
 40
0.0861053504
 40
0.1297858146
 40
0.1736910217
 40
0.2176744318
 40
0.2615890722
 40
0.305288295
 40
0.3486263568
 40
0.3914590567
 40
0.4336443621
 40
0.4750430454
 40
0.5155193299
 40
0.5549415508
 40
0.5931828396
 40
0.611822732
 40
0.6301223594
 40
0.64806756
 40
0.665644585
 40
0.6828401795
 40
0.6996415831
 40
0.716036568
 40
0.7320134951
 40
0.7475613063
 40
0.7626696427
 40
0.7773287908
 40
0.7915298681
 40
0.8052647303
 40
0.8185262247
 40
0.8313080745
 40
0.843605198
 40
0.8554135971
 40
0.8667307387
 40
0.8775554877
 40
0.8878885508
 40
0.8977325066
 40
0.9070923251
 40
0.9159755583
 40
0.9243929639
 40
0.9323589243
 40
0.9398922083
 40
0.9470166498
 40
0.9537620197
 40
0.9601648409
 40
0.9662690939
 40
0.9721266453
 40
0.9749823299
 40
0.9777992741
 40
0.9805859644
 40
0.9833511839
 40
0.9861039392
 40
0.9888533758
 40
0.9916086726
 40
0.9943789441
 40
0.9971731509
 40
1.0
 40
1.0
 40
1.0
 40
1.0
 10
15.1172806315
 20
7.4040991442
 30
0.0
 10
15.1172806315
 20
7.3858020781
 30
0.0
 10
15.116984349
 20
7.3489874037
 30
0.0
 10
15.1156754305
 20
7.2935112799
 30
0.0
 10
15.1135034694
 20
7.2375873238
 30
0.0
 10
15.1104761308
 20
7.1814148271
 30
0.0
 10
15.1066041871
 20
7.1251938642
 30
0.0
 10
15.1019014199
 20
7.0691246646
 30
0.0
 10
15.096384606
 20
7.0134069285
 30
0.0
 10
15.0900734408
 20
6.9582390887
 30
0.0
 10
15.0829904757
 20
6.9038176083
 30
0.0
 10
15.0751610369
 20
6.8503362663
 30
0.0
 10
15.0666131354
 20
6.7979854813
 30
0.0
 10
15.0573773777
 20
6.7469515471
 30
0.0
 10
15.0474868276
 20
6.6974162348
 30
0.0
 10
15.0386551572
 20
6.6571973356
 30
0.0
 10
15.0312778115
 20
6.6259115749
 30
0.0
 10
15.0256507824
 20
6.6031299722
 30
0.0
 10
15.0198877426
 20
6.5808514674
 30
0.0
 10
15.0139937795
 20
6.5590958775
 30
0.0
 10
15.0079741827
 20
6.5378825705
 30
0.0
 10
15.0018343183
 20
6.5172304247
 30
0.0
 10
14.9955796627
 20
6.497157815
 30
0.0
 10
14.9892158219
 20
6.4776825933
 30
0.0
 10
14.9827484423
 20
6.4588220793
 30
0.0
 10
14.9761833489
 20
6.4405930284
 30
0.0
 10
14.969526336
 20
6.4230116421
 30
0.0
 10
14.9627834243
 20
6.4060935126
 30
0.0
 10
14.9559605332
 20
6.3898536622
 30
0.0
 10
14.9490638506
 20
6.3743064556
 30
0.0
 10
14.9420993975
 20
6.359465677
 30
0.0
 10
14.9350734918
 20
6.3453444016
 30
0.0
 10
14.9279922292
 20
6.3319551178
 30
0.0
 10
14.9208620081
 20
6.3193095529
 30
0.0
 10
14.9136889626
 20
6.3074188437
 30
0.0
 10
14.9064795023
 20
6.2962933191
 30
0.0
 10
14.8992397428
 20
6.2859427158
 30
0.0
 10
14.8919760053
 20
6.2763759339
 30
0.0
 10
14.8846942929
 20
6.2676012885
 30
0.0
 10
14.8774006954
 20
6.2596262764
 30
0.0
 10
14.8701009634
 20
6.2524578508
 30
0.0
 10
14.8628007875
 20
6.2461022724
 30
0.0
 10
14.8555055225
 20
6.2405653878
 30
0.0
 10
14.8482204609
 20
6.2358526715
 30
0.0
 10
14.8409505581
 20
6.2319694061
 30
0.0
 10
14.8337018569
 20
6.2289210159
 30
0.0
 10
14.8276310826
 20
6.2270650328
 30
0.0
 10
14.8228118486
 20
6.2260170014
 30
0.0
 10
14.8192381222
 20
6.2254477958
 30
0.0
 10
14.8156760546
 20
6.2250891499
 30
0.0
 10
14.8121264348
 20
6.2249411587
 30
0.0
 10
14.8085901934
 20
6.2250039748
 30
0.0
 10
14.8050682388
 20
6.2252775908
 30
0.0
 10
14.8015614872
 20
6.2257618737
 30
0.0
 10
14.7980707955
 20
6.2264566942
 30
0.0
 10
14.7945971953
 20
6.2273618527
 30
0.0
 10
14.7923086431
 20
6.2281003997
 30
0.0
 10
14.7911691541
 20
6.2285032679
 30
0.0
  0
SPLINE
  5
35F
100
AcDbEntity
  8
0
100
AcDbSpline
 62
7
  6
CONTINUOUS
 70
0
 71
3
 72
39
 73
35
 74
0
 42
0.0000001
 43
0.0000001
 44
0.0000000001
 40
0.0
 40
0.0
 40
0.0
 40
0.0
 40
0.0307219217
 40
0.0615350692
 40
0.0924369177
 40
0.1234242547
 40
0.1544932092
 40
0.1856392984
 40
0.2168574598
 40
0.2481420849
 40
0.2794870753
 40
0.3108858912
 40
0.3423315924
 40
0.3738168946
 40
0.4053342312
 40
0.4368758009
 40
0.4684336224
 40
0.4999996026
 40
0.5315655899
 40
0.5631234274
 40
0.5946650197
 40
0.6261823925
 40
0.6576677414
 40
0.6891134943
 40
0.7205123724
 40
0.7518574371
 40
0.7831421408
 40
0.8143603846
 40
0.8455065714
 40
0.876575631
 40
0.9075630434
 40
0.9384650515
 40
0.9692783283
 40
1.0
 40
1.0
 40
1.0
 40
1.0
 10
10.5620881137
 20
6.9829152737
 30
0.0
 10
10.5521722382
 20
6.9841278555
 30
0.0
 10
10.532362037
 20
6.9869963571
 30
0.0
 10
10.5028235788
 20
6.9926065837
 30
0.0
 10
10.4734734646
 20
6.9995199694
 30
0.0
 10
10.4443710747
 20
7.0077226269
 30
0.0
 10
10.4155742793
 20
7.0171980848
 30
0.0
 10
10.3871406078
 20
7.0279273706
 30
0.0
 10
10.3591268315
 20
7.0398891151
 30
0.0
 10
10.3315888644
 20
7.0530593845
 30
0.0
 10
10.3045816399
 20
7.067411804
 30
0.0
 10
10.2781590772
 20
7.0829177387
 30
0.0
 10
10.2523739485
 20
7.0995462713
 30
0.0
 10
10.2272776701
 20
7.1172641149
 30
0.0
 10
10.202920322
 20
7.1360358867
 30
0.0
 10
10.179350573
 20
7.1558241755
 30
0.0
 10
10.1566154455
 20
7.1765894422
 30
0.0
 10
10.1347602782
 20
7.1982901926
 30
0.0
 10
10.1138287271
 20
7.2208831442
 30
0.0
 10
10.093862618
 20
7.2443232332
 30
0.0
 10
10.0749017421
 20
7.2685636132
 30
0.0
 10
10.0569839501
 20
7.2935559055
 30
0.0
 10
10.0401450927
 20
7.319250279
 30
0.0
 10
10.0244187548
 20
7.345595419
 30
0.0
 10
10.0098363001
 20
7.3725387211
 30
0.0
 10
9.9964269049
 20
7.4000264382
 30
0.0
 10
9.9842174005
 20
7.4280037206
 30
0.0
 10
9.9732321022
 20
7.4564146909
 30
0.0
 10
9.9634929741
 20
7.4852026447
 30
0.0
 10
9.9550195862
 20
7.514310152
 30
0.0
 10
9.9478288039
 20
7.5436790465
 30
0.0
 10
9.9419350137
 20
7.5732508984
 30
0.0
 10
9.9373501357
 20
7.6029657922
 30
0.0
 10
9.935168822
 20
7.6228633455
 30
0.0
 10
9.9343000251
 20
7.6328151548
 30
0.0
  0
SPLINE
  5
360
100
AcDbEntity
  8
0
100
AcDbSpline
 62
7
  6
CONTINUOUS
 70
0
 71
3
 72
45
 73
41
 74
0
 42
0.0000001
 43
0.0000001
 44
0.0000000001
 40
0.0
 40
0.0
 40
0.0
 40
0.0
 40
0.0361650735
 40
0.072682075
 40
0.1094797492
 40
0.1464900475
 40
0.183642359
 40
0.2208663332
 40
0.2580913821
 40
0.2952468762
 40
0.332262382
 40
0.3690677872
 40
0.4055934968
 40
0.4417705972
 40
0.4775310206
 40
0.5128077156
 40
0.5475348427
 40
0.5816479491
 40
0.6150841374
 40
0.6477822474
 40
0.6796830683
 40
0.710729558
 40
0.7408670336
 40
0.7700433966
 40
0.798209394
 40
0.8253189414
 40
0.8513294199
 40
0.8762020386
 40
0.8882009402
 40
0.8999028545
 40
0.9113041816
 40
0.9224017458
 40
0.9331927279
 40
0.9436746452
 40
0.9538455559
 40
0.9637038887
 40
0.9732486286
 40
0.9824793561
 40
0.9913961774
 40
1.0
 40
1.0
 40
1.0
 40
1.0
 10
14.8978020813
 20
7.4040991316
 30
0.0
 10
14.8978020813
 20
7.3911633196
 30
0.0
 10
14.8976446069
 20
7.3651655621
 30
0.0
 10
14.8969458084
 20
7.3260113633
 30
0.0
 10
14.8957844111
 20
7.2865656569
 30
0.0
 10
14.8941628624
 20
7.2469087833
 30
0.0
 10
14.8920843496
 20
7.2071205473
 30
0.0
 10
14.8895530991
 20
7.1672815839
 30
0.0
 10
14.8865742356
 20
7.1274724452
 30
0.0
 10
14.8831537839
 20
7.0877736527
 30
0.0
 10
14.8792986649
 20
7.0482655129
 30
0.0
 10
14.8750166774
 20
7.0090279378
 30
0.0
 10
14.8703165103
 20
6.9701402893
 30
0.0
 10
14.8652076926
 20
6.9316812169
 30
0.0
 10
14.8597005799
 20
6.8937285038
 30
0.0
 10
14.8538063273
 20
6.8563589073
 30
0.0
 10
14.8475368984
 20
6.8196479925
 30
0.0
 10
14.8409050207
 20
6.7836699803
 30
0.0
 10
14.8339241538
 20
6.7484976053
 30
0.0
 10
14.82660846
 20
6.7142019684
 30
0.0
 10
14.8189727894
 20
6.6808523785
 30
0.0
 10
14.8110326635
 20
6.6485162022
 30
0.0
 10
14.8028042146
 20
6.6172587385
 30
0.0
 10
14.7943041613
 20
6.5871430839
 30
0.0
 10
14.7855497646
 20
6.5582300106
 30
0.0
 10
14.7765588327
 20
6.5305777354
 30
0.0
 10
14.7673496357
 20
6.5042420878
 30
0.0
 10
14.7594170374
 20
6.4831924074
 30
0.0
 10
14.7529659421
 20
6.4670598309
 30
0.0
 10
14.7481427189
 20
6.4554671215
 30
0.0
 10
14.7432790085
 20
6.4442418363
 30
0.0
 10
14.7383772757
 20
6.4333896146
 30
0.0
 10
14.7334400306
 20
6.4229159167
 30
0.0
 10
14.7284696915
 20
6.4128260401
 30
0.0
 10
14.7234688542
 20
6.4031250294
 30
0.0
 10
14.7184399813
 20
6.3938177757
 30
0.0
 10
14.7133856065
 20
6.3849089594
 30
0.0
 10
14.7083083139
 20
6.3764029942
 30
0.0
 10
14.7032106072
 20
6.368304262
 30
0.0
 10
14.6997383265
 20
6.3630861754
 30
0.0
 10
14.6979980282
 20
6.3605480129
 30
0.0
  0
LINE
  5
361
100
AcDbEntity
  8
0
100
AcDbLine
 62
7
  6
CONTINUOUS
 10
9.1593989697
 20
7.4514178851
 11
9.1587271896
 21
7.4506859379
  0
SPLINE
  5
362
100
AcDbEntity
  8
0
100
AcDbSpline
 62
7
  6
CONTINUOUS
 70
0
 71
3
 72
24
 73
20
 74
0
 42
0.0000001
 43
0.0000001
 44
0.0000000001
 40
0.0
 40
0.0
 40
0.0
 40
0.0
 40
0.0616736451
 40
0.1233882225
 40
0.1851612343
 40
0.2470096737
 40
0.2779694707
 40
0.3089541844
 40
0.3710016773
 40
0.4331710774
 40
0.4954759531
 40
0.557928715
 40
0.6205405336
 40
0.683321176
 40
0.7462791532
 40
0.8094214825
 40
0.8727526855
 40
0.9362796991
 40
1.0
 40
1.0
 40
1.0
 40
1.0
 10
9.1587271896
 20
7.4506859379
 30
0.0
 10
9.1506805016
 20
7.4419068911
 30
0.0
 10
9.1349976737
 20
7.4239565273
 30
0.0
 10
9.112773253
 20
7.3959329381
 30
0.0
 10
9.091884624
 20
7.3668579262
 30
0.0
 10
9.075630433
 20
7.3418084872
 30
0.0
 10
9.0633366695
 20
7.3213061688
 30
0.0
 10
9.0515109704
 20
7.3004861343
 30
0.0
 10
9.0376347223
 20
7.273910051
 30
0.0
 10
9.0224761628
 20
7.2412248248
 30
0.0
 10
9.0088319943
 20
7.2077941489
 30
0.0
 10
8.9967294457
 20
7.173684562
 30
0.0
 10
8.9861922817
 20
7.1389634297
 30
0.0
 10
8.9772412541
 20
7.1036994461
 30
0.0
 10
8.9698940217
 20
7.0679622741
 30
0.0
 10
8.9641651811
 20
7.0318227647
 30
0.0
 10
8.960065678
 20
6.9953517162
 30
0.0
 10
8.9576039863
 20
6.958622653
 30
0.0
 10
8.9570584592
 20
6.9340482965
 30
0.0
 10
8.9570584592
 20
6.9217442421
 30
0.0
  0
SPLINE
  5
363
100
AcDbEntity
  8
0
100
AcDbSpline
 62
7
  6
CONTINUOUS
 70
0
 71
3
 72
33
 73
29
 74
0
 42
0.0000001
 43
0.0000001
 44
0.0000000001
 40
0.0
 40
0.0
 40
0.0
 40
0.0
 40
0.0683103062
 40
0.1375902999
 40
0.2074591915
 40
0.2775302444
 40
0.3474159542
 40
0.4167300393
 40
0.4510534564
 40
0.4850911029
 40
0.5187962582
 40
0.5521228268
 40
0.5850253989
 40
0.6174592978
 40
0.6493807629
 40
0.6807469686
 40
0.7115161054
 40
0.7416475813
 40
0.7711020082
 40
0.7998413405
 40
0.8278290765
 40
0.8550302372
 40
0.881411587
 40
0.9069418244
 40
0.9315915998
 40
0.9553338445
 40
0.9781439701
 40
1.0
 40
1.0
 40
1.0
 40
1.0
 10
14.7971344696
 20
7.3890564511
 30
0.0
 10
14.7971344696
 20
7.3689372467
 30
0.0
 10
14.7967142854
 20
7.3284121438
 30
0.0
 10
14.7948680487
 20
7.267334083
 30
0.0
 10
14.7918109895
 20
7.2057852448
 30
0.0
 10
14.7875609682
 20
7.1441285075
 30
0.0
 10
14.7821430332
 20
7.0827275293
 30
0.0
 10
14.7766640462
 20
7.0319112461
 30
0.0
 10
14.7717157444
 20
6.9916647397
 30
0.0
 10
14.7677465435
 20
6.9618661676
 30
0.0
 10
14.7635133023
 20
6.932400554
 30
0.0
 10
14.7590222788
 20
6.9033113267
 30
0.0
 10
14.7542801303
 20
6.8746414016
 30
0.0
 10
14.7492938263
 20
6.8464330673
 30
0.0
 10
14.7440707763
 20
6.818727921
 30
0.0
 10
14.7386187043
 20
6.79156682
 30
0.0
 10
14.7329456395
 20
6.7649898189
 30
0.0
 10
14.7270600181
 20
6.7390360928
 30
0.0
 10
14.7209705343
 20
6.7137439017
 30
0.0
 10
14.7146861746
 20
6.6891505237
 30
0.0
 10
14.7082162871
 20
6.6652921836
 30
0.0
 10
14.7015704202
 20
6.6422040255
 30
0.0
 10
14.6947584022
 20
6.6199200421
 30
0.0
 10
14.6877903616
 20
6.5984730051
 30
0.0
 10
14.6806765773
 20
6.5778944706
 30
0.0
 10
14.6734275623
 20
6.5582146144
 30
0.0
 10
14.6660541572
 20
6.5394624635
 30
0.0
 10
14.6609522554
 20
6.527334956
 30
0.0
 10
14.658378204
 20
6.5214348219
 30
0.0
  0
SPLINE
  5
364
100
AcDbEntity
  8
0
100
AcDbSpline
 62
7
  6
CONTINUOUS
 70
0
 71
3
 72
26
 73
22
 74
0
 42
0.0000001
 43
0.0000001
 44
0.0000000001
 40
0.0
 40
0.0
 40
0.0
 40
0.0
 40
0.0617092235
 40
0.0925729854
 40
0.1234446509
 40
0.1852169748
 40
0.2470517571
 40
0.2780013275
 40
0.3089738777
 40
0.3709922222
 40
0.4331298084
 40
0.4954034049
 40
0.5578284199
 40
0.6204187753
 40
0.6831867461
 40
0.7146430864
 40
0.7461476576
 40
0.8093008659
 40
0.872657114
 40
0.9362236724
 40
1.0
 40
1.0
 40
1.0
 40
1.0
 10
9.232610938
 20
7.4586347579
 30
0.0
 10
9.2238705756
 20
7.4501922039
 30
0.0
 10
9.2110814635
 20
7.4371864481
 30
0.0
 10
9.1947172165
 20
7.419207651
 30
0.0
 10
9.1788119017
 20
7.4008044422
 30
0.0
 10
9.1598130094
 20
7.3770282263
 30
0.0
 10
9.1420494962
 20
7.3522965118
 30
0.0
 10
9.1286009887
 20
7.3319697368
 30
0.0
 10
9.1156569234
 20
7.3112754688
 30
0.0
 10
9.1004532611
 20
7.2847625986
 30
0.0
 10
9.083825845
 20
7.2520142678
 30
0.0
 10
9.0688445196
 20
7.218392878
 30
0.0
 10
9.0555440447
 20
7.1839763434
 30
0.0
 10
9.0439550654
 20
7.1488444431
 30
0.0
 10
9.0357516243
 20
7.1190592153
 30
0.0
 10
9.0300681671
 20
7.0949592
 30
0.0
 10
9.0249662581
 20
7.0706518545
 30
0.0
 10
9.0197027042
 20
7.0399698538
 30
0.0
 10
9.015185334
 20
7.0027982564
 30
0.0
 10
9.0124721211
 20
6.9653291577
 30
0.0
 10
9.0118710104
 20
6.9402481465
 30
0.0
 10
9.0118710104
 20
6.9276891041
 30
0.0
  0
SPLINE
  5
365
100
AcDbEntity
  8
0
100
AcDbSpline
 62
7
  6
CONTINUOUS
 70
0
 71
3
 72
24
 73
20
 74
0
 42
0.0000001
 43
0.0000001
 44
0.0000000001
 40
0.0
 40
0.0
 40
0.0
 40
0.0
 40
0.0616701213
 40
0.1233836347
 40
0.185157579
 40
0.2470084812
 40
0.2779698906
 40
0.3089564241
 40
0.3710080612
 40
0.4331817766
 40
0.4954907211
 40
0.55794692
 40
0.6205611877
 40
0.6833429685
 40
0.7463005208
 40
0.809440593
 40
0.872767556
 40
0.9362882888
 40
1.0
 40
1.0
 40
1.0
 40
1.0
 10
9.2698192685
 20
7.4922081184
 30
0.0
 10
9.2623658403
 20
7.4839364026
 30
0.0
 10
9.2478411916
 20
7.4670332667
 30
0.0
 10
9.2272633297
 20
7.4406725017
 30
0.0
 10
9.2079264569
 20
7.4133479244
 30
0.0
 10
9.1928827947
 20
7.3898259532
 30
0.0
 10
9.1815060809
 20
7.3705842615
 30
0.0
 10
9.1705633687
 20
7.3510509286
 30
0.0
 10
9.1577249497
 20
7.3261292942
 30
0.0
 10
9.1437022206
 20
7.2954962116
 30
0.0
 10
9.1310820894
 20
7.2641800638
 30
0.0
 10
9.1198891905
 20
7.2322417946
 30
0.0
 10
9.1101450353
 20
7.1997430766
 30
0.0
 10
9.101868365
 20
7.1667467858
 30
0.0
 10
9.0950751492
 20
7.1333166628
 30
0.0
 10
9.0897785889
 20
7.0995175161
 30
0.0
 10
9.0859885829
 20
7.0654140704
 30
0.0
 10
9.0837127978
 20
7.0310735819
 30
0.0
 10
9.0832084512
 20
7.0080987895
 30
0.0
 10
9.0832084512
 20
6.9965957846
 30
0.0
  0
SPLINE
  5
366
100
AcDbEntity
  8
0
100
AcDbSpline
 62
7
  6
CONTINUOUS
 70
0
 71
3
 72
25
 73
21
 74
0
 42
0.0000001
 43
0.0000001
 44
0.0000000001
 40
0.0
 40
0.0
 40
0.0
 40
0.0
 40
0.0617095319
 40
0.0925734525
 40
0.1234452711
 40
0.1852179107
 40
0.2470530079
 40
0.3089703872
 40
0.3709890414
 40
0.4331269412
 40
0.4954008557
 40
0.5578261871
 40
0.6204168633
 40
0.6831851338
 40
0.7146416333
 40
0.746146383
 40
0.80929992
 40
0.8726563647
 40
0.9362235836
 40
1.0
 40
1.0
 40
1.0
 40
1.0
 10
9.3802336327
 20
7.4900010378
 30
0.0
 10
9.3723522667
 20
7.4823882273
 30
0.0
 10
9.3608200725
 20
7.4706606806
 30
0.0
 10
9.3460640956
 20
7.4544488389
 30
0.0
 10
9.3317219475
 20
7.437854357
 30
0.0
 10
9.3145901134
 20
7.4164146149
 30
0.0
 10
9.2953637267
 20
7.3896462279
 30
0.0
 10
9.277508048
 20
7.3618923123
 30
0.0
 10
9.2610645634
 20
7.3332172941
 30
0.0
 10
9.246071074
 20
7.3036871983
 30
0.0
 10
9.2325621769
 20
7.2733701934
 30
0.0
 10
9.2205688773
 20
7.2423360901
 30
0.0
 10
9.2101188848
 20
7.2106569596
 30
0.0
 10
9.2027216468
 20
7.1837990363
 30
0.0
 10
9.1975967794
 20
7.1620675682
 30
0.0
 10
9.1929962546
 20
7.1401491525
 30
0.0
 10
9.1882500339
 20
7.1124825935
 30
0.0
 10
9.1841766098
 20
7.078964187
 30
0.0
 10
9.1817300792
 20
7.0451775561
 30
0.0
 10
9.1811880284
 20
7.0225614912
 30
0.0
 10
9.1811880284
 20
7.0112367943
 30
0.0
  0
SPLINE
  5
367
100
AcDbEntity
  8
0
100
AcDbSpline
 62
7
  6
CONTINUOUS
 70
0
 71
3
 72
56
 73
52
 74
0
 42
0.0000001
 43
0.0000001
 44
0.0000000001
 40
0.0
 40
0.0
 40
0.0
 40
0.0
 40
0.0499776757
 40
0.0993157771
 40
0.1479273832
 40
0.1957330203
 40
0.2426521498
 40
0.2886070505
 40
0.333522314
 40
0.3773249141
 40
0.41994463
 40
0.4613142961
 40
0.5013700459
 40
0.5400515993
 40
0.5773026248
 40
0.6130712073
 40
0.6473102495
 40
0.6638432647
 40
0.6799787522
 40
0.6957123773
 40
0.7110403781
 40
0.7259593589
 40
0.7404664084
 40
0.7545592576
 40
0.7682360785
 40
0.7814957681
 40
0.794337923
 40
0.8067627886
 40
0.8187715961
 40
0.8303664093
 40
0.8415503097
 40
0.8523276393
 40
0.8627038933
 40
0.8726861036
 40
0.8822829401
 40
0.8915048031
 40
0.9003642845
 40
0.908876199
 40
0.9170579163
 40
0.9249297242
 40
0.9325148873
 40
0.9398400261
 40
0.9469351897
 40
0.9538338142
 40
0.9605727089
 40
0.9671916058
 40
0.9737326528
 40
0.9802396707
 40
0.9867572157
 40
0.9933296174
 40
1.0
 40
1.0
 40
1.0
 40
1.0
 10
15.1172806315
 20
7.4040991442
 30
0.0
 10
15.1172806315
 20
7.4170441678
 30
0.0
 10
15.1171340664
 20
7.4427688171
 30
0.0
 10
15.1164662278
 20
7.4810794355
 30
0.0
 10
15.1153528246
 20
7.5188169529
 30
0.0
 10
15.1137960421
 20
7.5559117205
 30
0.0
 10
15.1117986883
 20
7.5922962906
 30
0.0
 10
15.1093644998
 20
7.6279039499
 30
0.0
 10
15.106497994
 20
7.6626695875
 30
0.0
 10
15.1032044663
 20
7.6965296244
 30
0.0
 10
15.099489999
 20
7.7294221379
 30
0.0
 10
15.0953614826
 20
7.7612870151
 30
0.0
 10
15.0908265638
 20
7.7920660518
 30
0.0
 10
15.0858936281
 20
7.8217030309
 30
0.0
 10
15.0805717913
 20
7.850143923
 30
0.0
 10
15.0748708931
 20
7.8773367447
 30
0.0
 10
15.0697553193
 20
7.899163234
 30
0.0
 10
15.0654707753
 20
7.9159558379
 30
0.0
 10
15.0622067268
 20
7.9280608393
 30
0.0
 10
15.0588560073
 20
7.9398179351
 30
0.0
 10
15.0554201982
 20
7.9512217867
 30
0.0
 10
15.0519008586
 20
7.9622671885
 30
0.0
 10
15.0482995566
 20
7.9729490974
 30
0.0
 10
15.0446180178
 20
7.9832626676
 30
0.0
 10
15.0408578514
 20
7.9932031907
 30
0.0
 10
15.0370207933
 20
8.0027661535
 30
0.0
 10
15.0331086337
 20
8.0119472311
 30
0.0
 10
15.0291230574
 20
8.0207422314
 30
0.0
 10
15.0250659476
 20
8.0291472031
 30
0.0
 10
15.0209391078
 20
8.037158345
 30
0.0
 10
15.0167443338
 20
8.0447720199
 30
0.0
 10
15.012483586
 20
8.0519848463
 30
0.0
 10
15.0081586572
 20
8.0587935447
 30
0.0
 10
15.0037714584
 20
8.0651950675
 30
0.0
 10
14.9993239344
 20
8.0711865789
 30
0.0
 10
14.994817868
 20
8.0767653101
 30
0.0
 10
14.9902552357
 20
8.0819287977
 30
0.0
 10
14.9856378854
 20
8.0866746617
 30
0.0
 10
14.9809676272
 20
8.0910006151
 30
0.0
 10
14.976246428
 20
8.0949046605
 30
0.0
 10
14.9714760792
 20
8.0983847117
 30
0.0
 10
14.9666585326
 20
8.1014388814
 30
0.0
 10
14.9617958349
 20
8.1040654284
 30
0.0
 10
14.9568900409
 20
8.10626247
 30
0.0
 10
14.9519435418
 20
8.1080285396
 30
0.0
 10
14.9469588491
 20
8.1093621985
 30
0.0
 10
14.9419387061
 20
8.1102622121
 30
0.0
 10
14.9368861243
 20
8.1107279994
 30
0.0
 10
14.9318040324
 20
8.11075905
 30
0.0
 10
14.9266959309
 20
8.1103556111
 30
0.0
 10
14.9233062055
 20
8.1098024496
 30
0.0
 10
14.9216133767
 20
8.1094568998
 30
0.0
  0
SPLINE
  5
368
100
AcDbEntity
  8
0
100
AcDbSpline
 62
7
  6
CONTINUOUS
 70
0
 71
3
 72
23
 73
19
 74
0
 42
0.0000001
 43
0.0000001
 44
0.0000000001
 40
0.0
 40
0.0
 40
0.0
 40
0.0
 40
0.0618581116
 40
0.1239597293
 40
0.1862790896
 40
0.2487863893
 40
0.3114483707
 40
0.3742289558
 40
0.4370899175
 40
0.4999915789
 40
0.5628935311
 40
0.6257553595
 40
0.6885373713
 40
0.7512013129
 40
0.8137110704
 40
0.8760333395
 40
0.9381382706
 40
1.0
 40
1.0
 40
1.0
 40
1.0
 10
10.499225179
 20
7.1557996269
 30
0.0
 10
10.487407947
 20
7.1590518289
 30
0.0
 10
10.4639425682
 20
7.1663828369
 30
0.0
 10
10.4295144508
 20
7.1797610723
 30
0.0
 10
10.395946044
 20
7.1954793169
 30
0.0
 10
10.3634063214
 20
7.2134586654
 30
0.0
 10
10.3320563421
 20
7.233609762
 30
0.0
 10
10.302052001
 20
7.2558323023
 30
0.0
 10
10.2735423098
 20
7.2800157827
 30
0.0
 10
10.2466689214
 20
7.3060399777
 30
0.0
 10
10.221565364
 20
7.3337755499
 30
0.0
 10
10.198356402
 20
7.3630846867
 30
0.0
 10
10.1771574203
 20
7.3938217614
 30
0.0
 10
10.1580738404
 20
7.4258341188
 30
0.0
 10
10.1412006611
 20
7.458962566
 30
0.0
 10
10.1266217488
 20
7.493043114
 30
0.0
 10
10.114410312
 20
7.5279042216
 30
0.0
 10
10.1078733737
 20
7.5516045068
 30
0.0
 10
10.1050208418
 20
7.5635252629
 30
0.0
  0
SPLINE
  5
369
100
AcDbEntity
  8
0
100
AcDbSpline
 62
7
  6
CONTINUOUS
 70
0
 71
3
 72
32
 73
28
 74
0
 42
0.0000001
 43
0.0000001
 44
0.0000000001
 40
0.0
 40
0.0
 40
0.0
 40
0.0
 40
0.0799678931
 40
0.1585308335
 40
0.2354600648
 40
0.3105342286
 40
0.3835388478
 40
0.4542682034
 40
0.5225261222
 40
0.5556704438
 40
0.5881283737
 40
0.6198786768
 40
0.6509009529
 40
0.6811757583
 40
0.7106845498
 40
0.7394099138
 40
0.7673354258
 40
0.794445993
 40
0.8207276387
 40
0.846167961
 40
0.8707558597
 40
0.8944821111
 40
0.9173390692
 40
0.9393213535
 40
0.9604255717
 40
0.9806511218
 40
1.0
 40
1.0
 40
1.0
 40
1.0
 10
14.8978020813
 20
7.4040991316
 30
0.0
 10
14.8978020813
 20
7.4200413435
 30
0.0
 10
14.8975662718
 20
7.4516462473
 30
0.0
 10
14.8964874507
 20
7.4985764846
 30
0.0
 10
14.8946898178
 20
7.5445085929
 30
0.0
 10
14.8921792035
 20
7.5892975791
 30
0.0
 10
14.8889636927
 20
7.6328024498
 30
0.0
 10
14.8850535966
 20
7.6748859747
 30
0.0
 10
14.881190122
 20
7.708986352
 30
0.0
 10
14.8777492263
 20
7.7354501184
 30
0.0
 10
14.8750284305
 20
7.7546668889
 30
0.0
 10
14.8721444761
 20
7.7734319603
 30
0.0
 10
14.8690996025
 20
7.7917305649
 30
0.0
 10
14.8658962627
 20
7.8095482814
 30
0.0
 10
14.8625369496
 20
7.826871078
 30
0.0
 10
14.8590243823
 20
7.8436853164
 30
0.0
 10
14.8553612759
 20
7.8599777629
 30
0.0
 10
14.8515506123
 20
7.8757356052
 30
0.0
 10
14.8475953172
 20
7.8909464525
 30
0.0
 10
14.8434986237
 20
7.9055983651
 30
0.0
 10
14.8392636562
 20
7.9196798367
 30
0.0
 10
14.8348938839
 20
7.9331798456
 30
0.0
 10
14.8303926144
 20
7.9460878141
 30
0.0
 10
14.8257635353
 20
7.9583936713
 30
0.0
 10
14.8210100996
 20
7.970087851
 30
0.0
 10
14.816136249
 20
7.9811611249
 30
0.0
 10
14.8127339024
 20
7.9882811068
 30
0.0
 10
14.8110103474
 20
7.9917319739
 30
0.0
  0
SPLINE
  5
36A
100
AcDbEntity
  8
0
100
AcDbSpline
 62
7
  6
CONTINUOUS
 70
0
 71
3
 72
23
 73
19
 74
0
 42
0.0000001
 43
0.0000001
 44
0.0000000001
 40
0.0
 40
0.0
 40
0.0
 40
0.0
 40
0.0735879209
 40
0.1462293894
 40
0.2177941872
 40
0.2881645776
 40
0.3572209087
 40
0.4248475418
 40
0.4909324949
 40
0.5553672472
 40
0.6180475778
 40
0.6788738212
 40
0.7377511937
 40
0.7945903133
 40
0.8493078608
 40
0.9018270429
 40
0.952078245
 40
1.0
 40
1.0
 40
1.0
 40
1.0
 10
14.7971344696
 20
7.3890564511
 30
0.0
 10
14.7971344696
 20
7.4001518189
 30
0.0
 10
14.7970082279
 20
7.4222000779
 30
0.0
 10
14.7964329823
 20
7.4550341451
 30
0.0
 10
14.7954739436
 20
7.4873739849
 30
0.0
 10
14.7941330139
 20
7.5191592432
 30
0.0
 10
14.7924126439
 20
7.5503316056
 30
0.0
 10
14.7903160832
 20
7.5808333473
 30
0.0
 10
14.7878472634
 20
7.6106081223
 30
0.0
 10
14.7850107711
 20
7.6396009448
 30
0.0
 10
14.7818119219
 20
7.667758271
 30
0.0
 10
14.7782567097
 20
7.6950281358
 30
0.0
 10
14.7743517733
 20
7.721360219
 30
0.0
 10
14.7701043883
 20
7.7467059666
 30
0.0
 10
14.7655225223
 20
7.7710186707
 30
0.0
 10
14.7606147244
 20
7.7942536694
 30
0.0
 10
14.7553902066
 20
7.8163680008
 30
0.0
 10
14.7516113792
 20
7.8306820632
 30
0.0
 10
14.7496641209
 20
7.837640226
 30
0.0
  0
SPLINE
  5
36B
100
AcDbEntity
  8
0
100
AcDbSpline
 62
7
  6
CONTINUOUS
 70
0
 71
3
 72
52
 73
48
 74
0
 42
0.0000001
 43
0.0000001
 44
0.0000000001
 40
0.0
 40
0.0
 40
0.0
 40
0.0
 40
0.0376871744
 40
0.0756439214
 40
0.1138405161
 40
0.1522485099
 40
0.1908344035
 40
0.2295605037
 40
0.2683824772
 40
0.3072478943
 40
0.346094669
 40
0.3848496602
 40
0.4234275577
 40
0.4617302738
 40
0.4996469596
 40
0.5370548027
 40
0.5738208262
 40
0.6098047302
 40
0.6448626356
 40
0.6788516483
 40
0.7116347734
 40
0.7275341192
 40
0.7430859351
 40
0.7582766796
 40
0.7730945146
 40
0.7875284716
 40
0.8015693624
 40
0.8152091992
 40
0.8284416731
 40
0.8412620617
 40
0.8536671108
 40
0.8656555084
 40
0.8772272371
 40
0.8883844229
 40
0.8991305185
 40
0.9094711089
 40
0.9194134028
 40
0.9289665831
 40
0.9381418434
 40
0.9469523414
 40
0.9554134896
 40
0.9635429274
 40
0.9713606116
 40
0.9788890166
 40
0.9861530574
 40
0.9931800733
 40
1.0
 40
1.0
 40
1.0
 40
1.0
 10
11.6550857861
 20
9.5741716711
 30
0.0
 10
11.6550857861
 20
9.5627063396
 30
0.0
 10
11.6555900382
 20
9.539690666
 30
0.0
 10
11.6578340929
 20
9.5051205338
 30
0.0
 10
11.6615555364
 20
9.4704572047
 30
0.0
 10
11.6667313822
 20
9.4357880815
 30
0.0
 10
11.6733295019
 20
9.4011976978
 30
0.0
 10
11.681307293
 20
9.3667704492
 30
0.0
 10
11.6906114448
 20
9.3325901351
 30
0.0
 10
11.7011769075
 20
9.2987405606
 30
0.0
 10
11.7129261058
 20
9.265305689
 30
0.0
 10
11.7257680981
 20
9.2323697034
 30
0.0
 10
11.7395978133
 20
9.2000167813
 30
0.0
 10
11.7542955564
 20
9.1683305461
 30
0.0
 10
11.7697269073
 20
9.1373931244
 30
0.0
 10
11.7857432162
 20
9.107283795
 30
0.0
 10
11.8021828484
 20
9.0780772373
 30
0.0
 10
11.8188732583
 20
9.0498414585
 30
0.0
 10
11.835633965
 20
9.0226355879
 30
0.0
 10
11.8522801211
 20
8.9965076805
 30
0.0
 10
11.8660388186
 20
8.9754536596
 30
0.0
 10
11.8768230002
 20
8.9591571619
 30
0.0
 10
11.8846856269
 20
8.9473451559
 30
0.0
 10
11.8923839983
 20
8.9358190986
 30
0.0
 10
11.8998975661
 20
8.9245785703
 30
0.0
 10
11.9072064939
 20
8.9136220204
 30
0.0
 10
11.9142920799
 20
8.9029473027
 30
0.0
 10
11.9211364048
 20
8.8925512348
 30
0.0
 10
11.9277227569
 20
8.8824300441
 30
0.0
 10
11.9340354369
 20
8.8725792371
 30
0.0
 10
11.9400597331
 20
8.862993602
 30
0.0
 10
11.9457823246
 20
8.853667673
 30
0.0
 10
11.9511904428
 20
8.8445950969
 30
0.0
 10
11.9562730947
 20
8.835769715
 30
0.0
 10
11.961019455
 20
8.8271844581
 30
0.0
 10
11.9654205344
 20
8.818832632
 30
0.0
 10
11.9694675734
 20
8.8107069483
 30
0.0
 10
11.9731530875
 20
8.8028003124
 30
0.0
 10
11.976470438
 20
8.7951056195
 30
0.0
 10
11.9794132733
 20
8.7876156408
 30
0.0
 10
11.9819767985
 20
8.7803236281
 30
0.0
 10
11.984155836
 20
8.7732226568
 30
0.0
 10
11.9859467436
 20
8.7663063822
 30
0.0
 10
11.9873458134
 20
8.7595686298
 30
0.0
 10
11.9883499332
 20
8.7530035644
 30
0.0
 10
11.9889568372
 20
8.7466062875
 30
0.0
 10
11.9890968119
 20
8.7423926934
 30
0.0
 10
11.9890972934
 20
8.7403179102
 30
0.0
  0
SPLINE
  5
36C
100
AcDbEntity
  8
0
100
AcDbSpline
 62
7
  6
CONTINUOUS
 70
0
 71
3
 72
27
 73
23
 74
0
 42
0.0000001
 43
0.0000001
 44
0.0000000001
 40
0.0
 40
0.0
 40
0.0
 40
0.0
 40
0.0637761271
 40
0.0955883976
 40
0.1273469085
 40
0.1907029206
 40
0.2538558223
 40
0.2853602401
 40
0.3168164357
 40
0.3795841196
 40
0.4421741829
 40
0.5045989092
 40
0.5668722156
 40
0.6290095116
 40
0.6910275677
 40
0.7219999748
 40
0.7529494013
 40
0.8147838969
 40
0.8765559321
 40
0.907427452
 40
0.9382910693
 40
1.0
 40
1.0
 40
1.0
 40
1.0
 10
10.856816922
 20
8.9301031133
 30
0.0
 10
10.856816922
 20
8.9433872756
 30
0.0
 10
10.8572942712
 20
8.9633021591
 30
0.0
 10
10.8588911718
 20
8.9897814599
 30
0.0
 10
10.861122139
 20
9.0161275793
 30
0.0
 10
10.8651007498
 20
9.0488666439
 30
0.0
 10
10.8706681813
 20
9.0813198305
 30
0.0
 10
10.8760646059
 20
9.1070306069
 30
0.0
 10
10.8820761995
 20
9.1325220354
 30
0.0
 10
10.8907532084
 20
9.1640269431
 30
0.0
 10
10.9030112334
 20
9.2011872102
 30
0.0
 10
10.9170795631
 20
9.2375908136
 30
0.0
 10
10.9329257862
 20
9.2731533682
 30
0.0
 10
10.950513135
 20
9.3077924605
 30
0.0
 10
10.9665944966
 20
9.3358361103
 30
0.0
 10
10.9802858614
 20
9.3577251867
 30
0.0
 10
10.9945107323
 20
9.3792255938
 30
0.0
 10
11.0132997704
 20
9.4053852441
 30
0.0
 10
11.0333955296
 20
9.4305342151
 30
0.0
 10
11.0502190385
 20
9.4500000279
 30
0.0
 10
11.0675280834
 20
9.46901683
 30
0.0
 10
11.0810554801
 20
9.4827735714
 30
0.0
 10
11.0903004602
 20
9.4917035671
 30
0.0
  0
SPLINE
  5
36D
100
AcDbEntity
  8
0
100
AcDbSpline
 62
7
  6
CONTINUOUS
 70
0
 71
3
 72
55
 73
51
 74
0
 42
0.0000001
 43
0.0000001
 44
0.0000000001
 40
0.0
 40
0.0
 40
0.0
 40
0.0
 40
0.0063157967
 40
0.0126705064
 40
0.0191022577
 40
0.0256477311
 40
0.0323415292
 40
0.039215794
 40
0.0462999396
 40
0.0536204765
 40
0.0612011269
 40
0.0690627967
 40
0.077223814
 40
0.0857001286
 40
0.0945054138
 40
0.1036514395
 40
0.1131481141
 40
0.1230037529
 40
0.1332252839
 40
0.1438182539
 40
0.1547871578
 40
0.1661353969
 40
0.1778654436
 40
0.1899790024
 40
0.2024769158
 40
0.215359436
 40
0.2286261423
 40
0.2422760211
 40
0.2563076146
 40
0.2707188714
 40
0.2855073776
 40
0.3006702734
 40
0.3162042724
 40
0.3321058142
 40
0.3649946654
 40
0.3993021056
 40
0.4349881404
 40
0.4720086211
 40
0.5103156623
 40
0.5498579758
 40
0.5905811562
 40
0.6324279171
 40
0.6753383233
 40
0.7192500409
 40
0.7640984978
 40
0.8098171101
 40
0.8563375432
 40
0.9035891104
 40
0.9515016896
 40
1.0
 40
1.0
 40
1.0
 40
1.0
 10
15.0271542742
 20
11.5188379617
 30
0.0
 10
15.029417431
 20
11.5186810015
 30
0.0
 10
15.033946991
 20
11.5181808447
 30
0.0
 10
15.0406905595
 20
11.5168771931
 30
0.0
 10
15.0473890661
 20
11.5150203074
 30
0.0
 10
15.0540385959
 20
11.5126113922
 30
0.0
 10
15.0606363261
 20
11.5096522341
 30
0.0
 10
15.0671794055
 20
11.5061446651
 30
0.0
 10
15.0736651884
 20
11.5020906505
 30
0.0
 10
15.0800912982
 20
11.4974924679
 30
0.0
 10
15.0864552599
 20
11.4923522379
 30
0.0
 10
15.0927548221
 20
11.4866724208
 30
0.0
 10
15.0989876867
 20
11.4804554993
 30
0.0
 10
15.1051514913
 20
11.473704063
 30
0.0
 10
15.1112440532
 20
11.4664210085
 30
0.0
 10
15.117262962
 20
11.4586092433
 30
0.0
 10
15.1232059703
 20
11.450271995
 30
0.0
 10
15.129070785
 20
11.441412649
 30
0.0
 10
15.1348550206
 20
11.4320347548
 30
0.0
 10
15.1405564937
 20
11.4221421702
 30
0.0
 10
15.1461728304
 20
11.4117388659
 30
0.0
 10
15.1517018077
 20
11.4008290917
 30
0.0
 10
15.1571412173
 20
11.3894172973
 30
0.0
 10
15.1624887612
 20
11.3775081083
 30
0.0
 10
15.167742358
 20
11.3651064223
 30
0.0
 10
15.1728997829
 20
11.3522172887
 30
0.0
 10
15.1779589382
 20
11.3388459934
 30
0.0
 10
15.1829177867
 20
11.3249980256
 30
0.0
 10
15.1877742028
 20
11.3106790488
 30
0.0
 10
15.192526273
 20
11.2958949623
 30
0.0
 10
15.197171984
 20
11.2806518293
 30
0.0
 10
15.2017094125
 20
11.2649559238
 30
0.0
 10
15.2061367623
 20
11.2488136905
 30
0.0
 10
15.2119558921
 20
11.2264530155
 30
0.0
 10
15.2189256281
 20
11.1974267025
 30
0.0
 10
15.2267307552
 20
11.161302782
 30
0.0
 10
15.2340553936
 20
11.1235656692
 30
0.0
 10
15.2408873666
 20
11.0842775654
 30
0.0
 10
15.2472152884
 20
11.0435030349
 30
0.0
 10
15.2530286139
 20
11.0013091991
 30
0.0
 10
15.2583176449
 20
10.9577655332
 30
0.0
 10
15.2630735665
 20
10.9129437822
 30
0.0
 10
15.2672884634
 20
10.8669178242
 30
0.0
 10
15.2709553086
 20
10.8197635446
 30
0.0
 10
15.2740679876
 20
10.7715586967
 30
0.0
 10
15.276621304
 20
10.7223827389
 30
0.0
 10
15.2786109721
 20
10.6723169456
 30
0.0
 10
15.2800337417
 20
10.6214435025
 30
0.0
 10
15.2808871197
 20
10.5698468933
 30
0.0
 10
15.2810745091
 20
10.5352164094
 30
0.0
 10
15.2810745091
 20
10.5177961305
 30
0.0
  0
SPLINE
  5
36E
100
AcDbEntity
  8
0
100
AcDbSpline
 62
7
  6
CONTINUOUS
 70
0
 71
3
 72
43
 73
39
 74
0
 42
0.0000001
 43
0.0000001
 44
0.0000000001
 40
0.0
 40
0.0
 40
0.0
 40
0.0
 40
0.0303589764
 40
0.0455827641
 40
0.060835509
 40
0.0914256939
 40
0.1221330847
 40
0.1375319624
 40
0.1529597093
 40
0.1838976046
 40
0.2149460427
 40
0.2461001315
 40
0.2773537492
 40
0.3086996261
 40
0.3401294384
 40
0.3716339107
 40
0.4032029274
 40
0.4348256509
 40
0.4664906464
 40
0.4981860117
 40
0.5298995094
 40
0.561618703
 40
0.5933310931
 40
0.6250242554
 40
0.6566859769
 40
0.6883043915
 40
0.7198681122
 40
0.7513663605
 40
0.782789091
 40
0.8141271059
 40
0.8453721797
 40
0.8609589562
 40
0.8765198874
 40
0.9075587555
 40
0.9384865137
 40
0.9539090176
 40
0.969303164
 40
1.0
 40
1.0
 40
1.0
 40
1.0
 10
12.5158923725
 20
8.8716698748
 30
0.0
 10
12.5036561332
 20
8.8700973553
 30
0.0
 10
12.4852117579
 20
8.8682550721
 30
0.0
 10
12.460528973
 20
8.8668321797
 30
0.0
 10
12.4357214904
 20
8.8660952545
 30
0.0
 10
12.4045993905
 20
8.8664695903
 30
0.0
 10
12.3734862397
 20
8.8685631302
 30
0.0
 10
12.3486244105
 20
8.8712637095
 30
0.0
 10
12.3237526359
 20
8.8746535179
 30
0.0
 10
12.2927649748
 20
8.8801720469
 30
0.0
 10
12.2558967115
 20
8.8888112223
 30
0.0
 10
12.219420204
 20
8.8994474768
 30
0.0
 10
12.1834471383
 20
8.9120482361
 30
0.0
 10
12.1480867627
 20
8.9265750868
 30
0.0
 10
12.1134466942
 20
8.942983736
 30
0.0
 10
12.0796322881
 20
8.9612241888
 30
0.0
 10
12.0467464026
 20
8.9812408898
 30
0.0
 10
12.014889065
 20
9.0029728916
 30
0.0
 10
11.9841571703
 20
9.0263540341
 30
0.0
 10
11.9546441924
 20
9.0513131545
 30
0.0
 10
11.9264399015
 20
9.0777743013
 30
0.0
 10
11.899630093
 20
9.1056569649
 30
0.0
 10
11.8742963282
 20
9.1348763209
 30
0.0
 10
11.850515688
 20
9.1653434856
 30
0.0
 10
11.8283605397
 20
9.1969657868
 30
0.0
 10
11.8078983185
 20
9.2296470372
 30
0.0
 10
11.7891913206
 20
9.263287847
 30
0.0
 10
11.7722965228
 20
9.2977858416
 30
0.0
 10
11.7572653483
 20
9.3330362645
 30
0.0
 10
11.7441437525
 20
9.3689312167
 30
0.0
 10
11.7348257533
 20
9.3993164199
 30
0.0
 10
11.7283656871
 20
9.4238366483
 30
0.0
 10
11.7225818508
 20
9.4484390945
 30
0.0
 10
11.7166057859
 20
9.4793881159
 30
0.0
 10
11.7123155591
 20
9.5105589197
 30
0.0
 10
11.7099110398
 20
9.5355371715
 30
0.0
 10
11.7081952157
 20
9.5604774155
 30
0.0
 10
11.7076770605
 20
9.5792125079
 30
0.0
 10
11.7076770605
 20
9.591686673
 30
0.0
  0
SPLINE
  5
36F
100
AcDbEntity
  8
0
100
AcDbSpline
 62
7
  6
CONTINUOUS
 70
0
 71
3
 72
39
 73
35
 74
0
 42
0.0000001
 43
0.0000001
 44
0.0000000001
 40
0.0
 40
0.0
 40
0.0
 40
0.0
 40
0.0958316475
 40
0.1891006073
 40
0.279240642
 40
0.3229674356
 40
0.365711151
 40
0.4074094627
 40
0.4480020772
 40
0.4874317741
 40
0.5256439547
 40
0.5625873626
 40
0.5982141631
 40
0.6324802323
 40
0.6653459096
 40
0.6967758341
 40
0.7267403598
 40
0.7552153214
 40
0.7821838024
 40
0.8076365273
 40
0.831573723
 40
0.8540068598
 40
0.8749607899
 40
0.8944774057
 40
0.9126188108
 40
0.9294731124
 40
0.9451592998
 40
0.9598338063
 40
0.9668558128
 40
0.9737028706
 40
0.9804062828
 40
0.9869996808
 40
0.9935186293
 40
1.0
 40
1.0
 40
1.0
 40
1.0
 10
13.5921708982
 20
11.0256226285
 30
0.0
 10
13.6011307699
 20
11.0250012593
 30
0.0
 10
13.6187980159
 20
11.0235780818
 30
0.0
 10
13.6448295832
 20
11.0208613832
 30
0.0
 10
13.6659425238
 20
11.0181214688
 30
0.0
 10
13.6823102332
 20
11.0156551046
 30
0.0
 10
13.6941620635
 20
11.0136970768
 30
0.0
 10
13.7056944723
 20
11.0116155152
 30
0.0
 10
13.7168882108
 20
11.0094138079
 30
0.0
 10
13.7277245822
 20
11.0070957433
 30
0.0
 10
13.7381855022
 20
11.0046651592
 30
0.0
 10
13.7482535249
 20
11.0021261747
 30
0.0
 10
13.7579118713
 20
10.9994830623
 30
0.0
 10
13.7671444588
 20
10.9967402263
 30
0.0
 10
13.7759359473
 20
10.9939023471
 30
0.0
 10
13.784271735
 20
10.9909740876
 30
0.0
 10
13.7921380448
 20
10.9879604625
 30
0.0
 10
13.7995218804
 20
10.9848663913
 30
0.0
 10
13.8064111395
 20
10.9816970978
 30
0.0
 10
13.812794567
 20
10.9784577387
 30
0.0
 10
13.8186618287
 20
10.9751535792
 30
0.0
 10
13.8240035396
 20
10.9717898998
 30
0.0
 10
13.8288111754
 20
10.9683717776
 30
0.0
 10
13.8330772448
 20
10.9649043023
 30
0.0
 10
13.8367948557
 20
10.9613920641
 30
0.0
 10
13.8399580211
 20
10.9578393185
 30
0.0
 10
13.8425604565
 20
10.9542504442
 30
0.0
 10
13.8442818704
 20
10.9511876039
 30
0.0
 10
13.8453548773
 20
10.948735139
 30
0.0
 10
13.8460045755
 20
10.946918085
 30
0.0
 10
13.8465103694
 20
10.9450974411
 30
0.0
 10
13.8468718891
 20
10.9432739553
 30
0.0
 10
13.8470889255
 20
10.9414487039
 30
0.0
 10
13.8471372226
 20
10.9402297635
 30
0.0
 10
13.8471372178
 20
10.939622326
 30
0.0
  0
SPLINE
  5
370
100
AcDbEntity
  8
0
100
AcDbSpline
 62
7
  6
CONTINUOUS
 70
0
 71
3
 72
55
 73
51
 74
0
 42
0.0000001
 43
0.0000001
 44
0.0000000001
 40
0.0
 40
0.0
 40
0.0
 40
0.0
 40
0.0063157967
 40
0.0126705064
 40
0.0191022577
 40
0.0256477311
 40
0.0323415292
 40
0.039215794
 40
0.0462999396
 40
0.0536204765
 40
0.0612011269
 40
0.0690627967
 40
0.077223814
 40
0.0857001286
 40
0.0945054138
 40
0.1036514395
 40
0.1131481141
 40
0.1230037529
 40
0.1332252839
 40
0.1438182539
 40
0.1547871578
 40
0.1661353969
 40
0.1778654436
 40
0.1899790024
 40
0.2024769158
 40
0.215359436
 40
0.2286261423
 40
0.2422760211
 40
0.2563076146
 40
0.2707188714
 40
0.2855073776
 40
0.3006702734
 40
0.3162042724
 40
0.3321058142
 40
0.3649946654
 40
0.3993021056
 40
0.4349881404
 40
0.4720086211
 40
0.5103156623
 40
0.5498579758
 40
0.5905811562
 40
0.6324279171
 40
0.6753383233
 40
0.7192500409
 40
0.7640984978
 40
0.8098171101
 40
0.8563375432
 40
0.9035891104
 40
0.9515016896
 40
1.0
 40
1.0
 40
1.0
 40
1.0
 10
15.0271542742
 20
8.4993537199
 30
0.0
 10
15.029417431
 20
8.4991967597
 30
0.0
 10
15.033946991
 20
8.4986966029
 30
0.0
 10
15.0406905595
 20
8.4973929512
 30
0.0
 10
15.0473890661
 20
8.4955360655
 30
0.0
 10
15.0540385959
 20
8.4931271503
 30
0.0
 10
15.0606363261
 20
8.4901679922
 30
0.0
 10
15.0671794055
 20
8.4866604232
 30
0.0
 10
15.0736651884
 20
8.4826064086
 30
0.0
 10
15.0800912982
 20
8.4780082261
 30
0.0
 10
15.0864552599
 20
8.472867996
 30
0.0
 10
15.0927548221
 20
8.4671881789
 30
0.0
 10
15.0989876867
 20
8.4609712574
 30
0.0
 10
15.1051514913
 20
8.4542198211
 30
0.0
 10
15.1112440532
 20
8.4469367667
 30
0.0
 10
15.117262962
 20
8.4391250014
 30
0.0
 10
15.1232059703
 20
8.4307877531
 30
0.0
 10
15.129070785
 20
8.4219284071
 30
0.0
 10
15.1348550206
 20
8.4125505129
 30
0.0
 10
15.1405564937
 20
8.4026579284
 30
0.0
 10
15.1461728304
 20
8.3922546241
 30
0.0
 10
15.1517018077
 20
8.3813448498
 30
0.0
 10
15.1571412173
 20
8.3699330554
 30
0.0
 10
15.1624887612
 20
8.3580238664
 30
0.0
 10
15.167742358
 20
8.3456221804
 30
0.0
 10
15.1728997829
 20
8.3327330468
 30
0.0
 10
15.1779589382
 20
8.3193617515
 30
0.0
 10
15.1829177867
 20
8.3055137837
 30
0.0
 10
15.1877742028
 20
8.2911948069
 30
0.0
 10
15.192526273
 20
8.2764107204
 30
0.0
 10
15.197171984
 20
8.2611675875
 30
0.0
 10
15.2017094125
 20
8.2454716819
 30
0.0
 10
15.2061367623
 20
8.2293294487
 30
0.0
 10
15.2119558921
 20
8.2069687736
 30
0.0
 10
15.2189256281
 20
8.1779424606
 30
0.0
 10
15.2267307552
 20
8.1418185402
 30
0.0
 10
15.2340553936
 20
8.1040814273
 30
0.0
 10
15.2408873666
 20
8.0647933235
 30
0.0
 10
15.2472152884
 20
8.024018793
 30
0.0
 10
15.2530286139
 20
7.9818249572
 30
0.0
 10
15.2583176449
 20
7.9382812913
 30
0.0
 10
15.2630735665
 20
7.8934595403
 30
0.0
 10
15.2672884634
 20
7.8474335823
 30
0.0
 10
15.2709553086
 20
7.8002793027
 30
0.0
 10
15.2740679876
 20
7.7520744548
 30
0.0
 10
15.276621304
 20
7.702898497
 30
0.0
 10
15.2786109721
 20
7.6528327038
 30
0.0
 10
15.2800337417
 20
7.6019592606
 30
0.0
 10
15.2808871197
 20
7.5503626514
 30
0.0
 10
15.2810745091
 20
7.5157321675
 30
0.0
 10
15.2810745091
 20
7.4983118886
 30
0.0
  0
SPLINE
  5
371
100
AcDbEntity
  8
0
100
AcDbSpline
 62
7
  6
CONTINUOUS
 70
0
 71
3
 72
39
 73
35
 74
0
 42
0.0000001
 43
0.0000001
 44
0.0000000001
 40
0.0
 40
0.0
 40
0.0
 40
0.0
 40
0.0307462577
 40
0.0615801569
 40
0.0924990413
 40
0.1234996452
 40
0.1545781092
 40
0.1857300146
 40
0.2169504305
 40
0.24823394
 40
0.2795746788
 40
0.3109663923
 40
0.3424024717
 40
0.3738759956
 40
0.4053797921
 40
0.4369064823
 40
0.4684485246
 40
0.4999982777
 40
0.5315480495
 40
0.5630901413
 40
0.5946169108
 40
0.6261208231
 40
0.6575944927
 40
0.6890307441
 40
0.7204226634
 40
0.7517636353
 40
0.7830473994
 40
0.8142680972
 40
0.8454203083
 40
0.8764990998
 40
0.9075000298
 40
0.9384192726
 40
0.9692536372
 40
1.0
 40
1.0
 40
1.0
 40
1.0
 10
12.4871116867
 20
9.0482197336
 30
0.0
 10
12.4777688554
 20
9.0495517408
 30
0.0
 10
12.4591113002
 20
9.0526208711
 30
0.0
 10
12.4313094776
 20
9.0584185364
 30
0.0
 10
12.4037015807
 20
9.0654060443
 30
0.0
 10
12.3763403383
 20
9.0735701695
 30
0.0
 10
12.3492771601
 20
9.0828955687
 30
0.0
 10
12.3225630687
 20
9.0933645288
 30
0.0
 10
12.2962483983
 20
9.104957311
 30
0.0
 10
12.2703827865
 20
9.1176521289
 30
0.0
 10
12.2450149372
 20
9.1314249458
 30
0.0
 10
12.2201926423
 20
9.1462497713
 30
0.0
 10
12.195962733
 20
9.1620987386
 30
0.0
 10
12.1723708412
 20
9.1789419118
 30
0.0
 10
12.1494613899
 20
9.1967474938
 30
0.0
 10
12.1272776055
 20
9.2154819903
 30
0.0
 10
12.105861295
 20
9.2351100803
 30
0.0
 10
12.08525276
 20
9.2555947056
 30
0.0
 10
12.0654908803
 20
9.2768973031
 30
0.0
 10
12.0466129427
 20
9.2989777561
 30
0.0
 10
12.0286544516
 20
9.3217943838
 30
0.0
 10
12.0116492743
 20
9.3453042066
 30
0.0
 10
11.9956295455
 20
9.3694629712
 30
0.0
 10
11.9806253864
 20
9.394225093
 30
0.0
 10
11.9666650755
 20
9.4195439069
 30
0.0
 10
11.9537750335
 20
9.4453717494
 30
0.0
 10
11.9419795157
 20
9.4716599133
 30
0.0
 10
11.9313007279
 20
9.4983588418
 30
0.0
 10
11.9217589082
 20
9.5254182522
 30
0.0
 10
11.9133720629
 20
9.5527871456
 30
0.0
 10
11.9061559418
 20
9.580413867
 30
0.0
 10
11.900124216
 20
9.6082465775
 30
0.0
 10
11.8952884957
 20
9.6362320407
 30
0.0
 10
11.8928642186
 20
9.6549844646
 30
0.0
 10
11.8918550792
 20
9.6643676936
 30
0.0
  0
SPLINE
  5
372
100
AcDbEntity
  8
0
100
AcDbSpline
 62
7
  6
CONTINUOUS
 70
0
 71
3
 72
27
 73
23
 74
0
 42
0.0000001
 43
0.0000001
 44
0.0000000001
 40
0.0
 40
0.0
 40
0.0
 40
0.0
 40
0.0637761271
 40
0.0955883976
 40
0.1273469085
 40
0.1907029206
 40
0.2538558223
 40
0.2853602401
 40
0.3168164357
 40
0.3795841196
 40
0.4421741829
 40
0.5045989092
 40
0.5668722156
 40
0.6290095116
 40
0.6910275677
 40
0.7219999748
 40
0.7529494013
 40
0.8147838969
 40
0.8765559321
 40
0.907427452
 40
0.9382910693
 40
1.0
 40
1.0
 40
1.0
 40
1.0
 10
8.9249649246
 20
6.8907442664
 30
0.0
 10
8.9249649246
 20
6.9040284288
 30
0.0
 10
8.9254422739
 20
6.9239433122
 30
0.0
 10
8.9270391745
 20
6.950422613
 30
0.0
 10
8.9292701417
 20
6.9767687324
 30
0.0
 10
8.9332487524
 20
7.009507797
 30
0.0
 10
8.938816184
 20
7.0419609836
 30
0.0
 10
8.9442126085
 20
7.0676717601
 30
0.0
 10
8.9502242021
 20
7.0931631886
 30
0.0
 10
8.9589012111
 20
7.1246680962
 30
0.0
 10
8.9711592361
 20
7.1618283633
 30
0.0
 10
8.9852275658
 20
7.1982319668
 30
0.0
 10
9.0010737889
 20
7.2337945214
 30
0.0
 10
9.0186611377
 20
7.2684336136
 30
0.0
 10
9.0347424993
 20
7.2964772634
 30
0.0
 10
9.048433864
 20
7.3183663398
 30
0.0
 10
9.0626587349
 20
7.3398667469
 30
0.0
 10
9.081447773
 20
7.3660263972
 30
0.0
 10
9.1015435322
 20
7.3911753682
 30
0.0
 10
9.1183670412
 20
7.410641181
 30
0.0
 10
9.1356760861
 20
7.4296579831
 30
0.0
 10
9.1492034828
 20
7.4434147245
 30
0.0
 10
9.1584484628
 20
7.4523447202
 30
0.0
  0
SPLINE
  5
373
100
AcDbEntity
  8
0
100
AcDbSpline
 62
7
  6
CONTINUOUS
 70
0
 71
3
 72
72
 73
68
 74
0
 42
0.0000001
 43
0.0000001
 44
0.0000000001
 40
0.0
 40
0.0
 40
0.0
 40
0.0
 40
0.0153559685
 40
0.0230182634
 40
0.0306701279
 40
0.0459427865
 40
0.0611778706
 40
0.0763785616
 40
0.091548351
 40
0.1066910111
 40
0.1218105607
 40
0.1369112319
 40
0.1519974315
 40
0.1670737003
 40
0.1821446705
 40
0.1972150231
 40
0.2122894456
 40
0.2273725881
 40
0.2424690196
 40
0.2575831853
 40
0.2727193661
 40
0.2878816417
 40
0.3030738534
 40
0.3182995693
 40
0.3335620536
 40
0.3488642409
 40
0.3642087132
 40
0.3795976788
 40
0.3950329547
 40
0.4105159555
 40
0.4260476864
 40
0.441628738
 40
0.4572592834
 40
0.4729390803
 40
0.4886674798
 40
0.504443435
 40
0.5202655115
 40
0.5361319017
 40
0.5520404441
 40
0.5679886442
 40
0.5839736951
 40
0.5999925008
 40
0.6160417026
 40
0.6321177086
 40
0.6482167212
 40
0.664334766
 40
0.6804677226
 40
0.6966113589
 40
0.7127613621
 40
0.7289133705
 40
0.7450630065
 40
0.7612059112
 40
0.7773377774
 40
0.7934543812
 40
0.8095516132
 40
0.8256255125
 40
0.8416722977
 40
0.8576883956
 40
0.8736704685
 40
0.8896154424
 40
0.9055205403
 40
0.9213832847
 40
0.9372015524
 40
0.9529736044
 40
0.9686978062
 40
0.984373832
 40
1.0
 40
1.0
 40
1.0
 40
1.0
 10
10.5770548005
 20
6.6389591942
 30
0.0
 10
10.5744590277
 20
6.6271328308
 30
0.0
 10
10.5701501034
 20
6.6094931332
 30
0.0
 10
10.5635797103
 20
6.5862183177
 30
0.0
 10
10.5564777406
 20
6.56316847
 30
0.0
 10
10.5465934362
 20
6.5347371405
 30
0.0
 10
10.5331378868
 20
6.5012883476
 30
0.0
 10
10.5181232043
 20
6.4685985187
 30
0.0
 10
10.5015809368
 20
6.4367366268
 30
0.0
 10
10.4835456484
 20
6.4057693383
 30
0.0
 10
10.4640550651
 20
6.3757616257
 30
0.0
 10
10.4431500404
 20
6.3467763606
 30
0.0
 10
10.4208743749
 20
6.3188742947
 30
0.0
 10
10.3972747307
 20
6.2921139188
 30
0.0
 10
10.3724005222
 20
6.2665513623
 30
0.0
 10
10.3463038934
 20
6.2422401975
 30
0.0
 10
10.3190395682
 20
6.2192313471
 30
0.0
 10
10.2906646944
 20
6.1975730229
 30
0.0
 10
10.2612387317
 20
6.1773106259
 30
0.0
 10
10.2308233521
 20
6.158486624
 30
0.0
 10
10.1994823426
 20
6.1411403927
 30
0.0
 10
10.1672814004
 20
6.1253082359
 30
0.0
 10
10.1342880108
 20
6.1110232946
 30
0.0
 10
10.1005713043
 20
6.0983154981
 30
0.0
 10
10.0662019555
 20
6.0872113813
 30
0.0
 10
10.0312519889
 20
6.0777341221
 30
0.0
 10
9.995794625
 20
6.0699035111
 30
0.0
 10
9.9599041324
 20
6.0637359259
 30
0.0
 10
9.9236556906
 20
6.0592442186
 30
0.0
 10
9.8871252218
 20
6.0564376813
 30
0.0
 10
9.850389219
 20
6.055322118
 30
0.0
 10
9.8135245954
 20
6.0558998177
 30
0.0
 10
9.7766085308
 20
6.0581695438
 30
0.0
 10
9.7397183002
 20
6.0621264296
 30
0.0
 10
9.7029311129
 20
6.0677621156
 30
0.0
 10
9.6663239558
 20
6.0750647531
 30
0.0
 10
9.6299734449
 20
6.0840190493
 30
0.0
 10
9.5939556409
 20
6.0946061886
 30
0.0
 10
9.5583458954
 20
6.1068039341
 30
0.0
 10
9.5232187078
 20
6.120586717
 30
0.0
 10
9.4886475787
 20
6.1359256879
 30
0.0
 10
9.4547048423
 20
6.1527887313
 30
0.0
 10
9.4214614847
 20
6.1711404871
 30
0.0
 10
9.3889870424
 20
6.1909425261
 30
0.0
 10
9.357349453
 20
6.2121534073
 30
0.0
 10
9.3266149262
 20
6.2347287717
 30
0.0
 10
9.2968477338
 20
6.2586213377
 30
0.0
 10
9.2681101322
 20
6.2837810918
 30
0.0
 10
9.2404622401
 20
6.3101553931
 30
0.0
 10
9.2139619295
 20
6.3376890905
 30
0.0
 10
9.188664643
 20
6.3663245728
 30
0.0
 10
9.1646232799
 20
6.3960019058
 30
0.0
 10
9.141888143
 20
6.426659006
 30
0.0
 10
9.120506829
 20
6.4582317563
 30
0.0
 10
9.1005241179
 20
6.490654126
 30
0.0
 10
9.0819817973
 20
6.5238582636
 30
0.0
 10
9.0649186756
 20
6.5577747063
 30
0.0
 10
9.0493704893
 20
6.592332509
 30
0.0
 10
9.035369851
 20
6.6274593955
 30
0.0
 10
9.0229460642
 20
6.6630818655
 30
0.0
 10
9.012125149
 20
6.6991253828
 30
0.0
 10
9.0029297841
 20
6.7355145319
 30
0.0
 10
8.9953792876
 20
6.7721732317
 30
0.0
 10
8.9894896261
 20
6.8090245624
 30
0.0
 10
8.9852728727
 20
6.8459920327
 30
0.0
 10
8.9827383429
 20
6.8829968131
 30
0.0
 10
8.9821725322
 20
6.9076816419
 30
0.0
 10
8.9821725322
 20
6.9200025753
 30
0.0
  0
SPLINE
  5
374
100
AcDbEntity
  8
0
100
AcDbSpline
 62
7
  6
CONTINUOUS
 70
0
 71
3
 72
23
 73
19
 74
0
 42
0.0000001
 43
0.0000001
 44
0.0000000001
 40
0.0
 40
0.0
 40
0.0
 40
0.0
 40
0.0442320514
 40
0.090878084
 40
0.1399512677
 40
0.1914641594
 40
0.245427151
 40
0.301846091
 40
0.3607228687
 40
0.4220557146
 40
0.4858404249
 40
0.5520697503
 40
0.6207333851
 40
0.6918182572
 40
0.7653081514
 40
0.8411838103
 40
0.9194231254
 40
1.0
 40
1.0
 40
1.0
 40
1.0
 10
10.4295610712
 20
6.6052951646
 30
0.0
 10
10.4312743534
 20
6.6069500682
 30
0.0
 10
10.4348560922
 20
6.6102867572
 30
0.0
 10
10.4405301428
 20
6.6152489951
 30
0.0
 10
10.4466444093
 20
6.6202985689
 30
0.0
 10
10.4531945557
 20
6.6254346835
 30
0.0
 10
10.4601764301
 20
6.6306574774
 30
0.0
 10
10.4675856213
 20
6.6359677228
 30
0.0
 10
10.4754168375
 20
6.6413675744
 30
0.0
 10
10.4836650106
 20
6.6468590452
 30
0.0
 10
10.4923238758
 20
6.6524460844
 30
0.0
 10
10.5013874312
 20
6.6581323732
 30
0.0
 10
10.5108486288
 20
6.6639232073
 30
0.0
 10
10.5207001979
 20
6.6698241388
 30
0.0
 10
10.5309342443
 20
6.6758415149
 30
0.0
 10
10.5415420711
 20
6.6819827241
 30
0.0
 10
10.552514698
 20
6.6882551178
 30
0.0
 10
10.5599575353
 20
6.6924686011
 30
0.0
 10
10.5637368844
 20
6.6946007454
 30
0.0
  0
SPLINE
  5
375
100
AcDbEntity
  8
0
100
AcDbSpline
 62
7
  6
CONTINUOUS
 70
0
 71
3
 72
39
 73
35
 74
0
 42
0.0000001
 43
0.0000001
 44
0.0000000001
 40
0.0
 40
0.0
 40
0.0
 40
0.0
 40
0.0315055161
 40
0.0629321575
 40
0.0942840469
 40
0.1255658407
 40
0.156782709
 40
0.1879402923
 40
0.2190446601
 40
0.2501022789
 40
0.2811199621
 40
0.3121048154
 40
0.3430641902
 40
0.3740056322
 40
0.4049368192
 40
0.4358655031
 40
0.4667994587
 40
0.4977464217
 40
0.528714026
 40
0.5597097525
 40
0.5907408753
 40
0.621814402
 40
0.6529370224
 40
0.6841150698
 40
0.7153544693
 40
0.7466606899
 40
0.7780387284
 40
0.8094930554
 40
0.8410275668
 40
0.8726457254
 40
0.9043501609
 40
0.9361427574
 40
0.9680267493
 40
1.0
 40
1.0
 40
1.0
 40
1.0
 10
11.5171801103
 20
9.6980139067
 30
0.0
 10
11.5064966769
 20
9.6959707345
 30
0.0
 10
11.4852401238
 20
9.6914373235
 30
0.0
 10
11.4537139456
 20
9.6832964751
 30
0.0
 10
11.4226381328
 20
9.6738367039
 30
0.0
 10
11.392066019
 20
9.6630741171
 30
0.0
 10
11.362049096
 20
9.6510269363
 30
0.0
 10
11.3326382159
 20
9.6377154854
 30
0.0
 10
11.3038831711
 20
9.6231621788
 30
0.0
 10
11.2758325799
 20
9.6073917116
 30
0.0
 10
11.2485339051
 20
9.5904307435
 30
0.0
 10
11.2220334059
 20
9.5723078645
 30
0.0
 10
11.1963758903
 20
9.5530537943
 30
0.0
 10
11.1716047503
 20
9.5327011332
 30
0.0
 10
11.1477619696
 20
9.5112842373
 30
0.0
 10
11.1248878853
 20
9.4888393647
 30
0.0
 10
11.1030211447
 20
9.4654045517
 30
0.0
 10
11.0821987937
 20
9.4410194065
 30
0.0
 10
11.0624560948
 20
9.4157251744
 30
0.0
 10
11.0438263609
 20
9.3895647285
 30
0.0
 10
11.0263411197
 20
9.3625823209
 30
0.0
 10
11.0100300175
 20
9.3348235696
 30
0.0
 10
10.9949205406
 20
9.3063355078
 30
0.0
 10
10.9810382138
 20
9.2771663434
 30
0.0
 10
10.9684065929
 20
9.2473653906
 30
0.0
 10
10.9570469507
 20
9.2169831046
 30
0.0
 10
10.9469784229
 20
9.1860709014
 30
0.0
 10
10.9382180954
 20
9.1546810541
 30
0.0
 10
10.9307807129
 20
9.1228666518
 30
0.0
 10
10.924678783
 20
9.0906815191
 30
0.0
 10
10.9199226269
 20
9.0581802425
 30
0.0
 10
10.9165201451
 20
9.0254171569
 30
0.0
 10
10.9144773387
 20
8.9924489503
 30
0.0
 10
10.9140245295
 20
8.9703999581
 30
0.0
 10
10.9140245295
 20
8.9593614221
 30
0.0
  0
SPLINE
  5
376
100
AcDbEntity
  8
0
100
AcDbSpline
 62
7
  6
CONTINUOUS
 70
0
 71
3
 72
43
 73
39
 74
0
 42
0.0000001
 43
0.0000001
 44
0.0000000001
 40
0.0
 40
0.0
 40
0.0
 40
0.0
 40
0.0303589764
 40
0.0455827641
 40
0.060835509
 40
0.0914256939
 40
0.1221330847
 40
0.1375319624
 40
0.1529597093
 40
0.1838976046
 40
0.2149460427
 40
0.2461001315
 40
0.2773537492
 40
0.3086996261
 40
0.3401294384
 40
0.3716339107
 40
0.4032029274
 40
0.4348256509
 40
0.4664906464
 40
0.4981860117
 40
0.5298995094
 40
0.561618703
 40
0.5933310931
 40
0.6250242554
 40
0.6566859769
 40
0.6883043915
 40
0.7198681122
 40
0.7513663605
 40
0.782789091
 40
0.8141271059
 40
0.8453721797
 40
0.8609589562
 40
0.8765198874
 40
0.9075587555
 40
0.9384865137
 40
0.9539090176
 40
0.969303164
 40
1.0
 40
1.0
 40
1.0
 40
1.0
 10
10.5840403752
 20
6.832311028
 30
0.0
 10
10.5718041359
 20
6.8307385084
 30
0.0
 10
10.5533597605
 20
6.8288962253
 30
0.0
 10
10.5286769756
 20
6.8274733328
 30
0.0
 10
10.503869493
 20
6.8267364076
 30
0.0
 10
10.4727473932
 20
6.8271107434
 30
0.0
 10
10.4416342424
 20
6.8292042833
 30
0.0
 10
10.4167724131
 20
6.8319048626
 30
0.0
 10
10.3919006385
 20
6.835294671
 30
0.0
 10
10.3609129775
 20
6.8408132001
 30
0.0
 10
10.3240447141
 20
6.8494523754
 30
0.0
 10
10.2875682067
 20
6.8600886299
 30
0.0
 10
10.2515951409
 20
6.8726893892
 30
0.0
 10
10.2162347653
 20
6.8872162399
 30
0.0
 10
10.1815946969
 20
6.9036248891
 30
0.0
 10
10.1477802908
 20
6.9218653419
 30
0.0
 10
10.1148944053
 20
6.9418820429
 30
0.0
 10
10.0830370676
 20
6.9636140448
 30
0.0
 10
10.0523051729
 20
6.9869951873
 30
0.0
 10
10.0227921951
 20
7.0119543076
 30
0.0
 10
9.9945879042
 20
7.0384154544
 30
0.0
 10
9.9677780957
 20
7.0662981181
 30
0.0
 10
9.9424443308
 20
7.095517474
 30
0.0
 10
9.9186636907
 20
7.1259846388
 30
0.0
 10
9.8965085423
 20
7.15760694
 30
0.0
 10
9.8760463211
 20
7.1902881903
 30
0.0
 10
9.8573393232
 20
7.2239290001
 30
0.0
 10
9.8404445255
 20
7.2584269948
 30
0.0
 10
9.825413351
 20
7.2936774176
 30
0.0
 10
9.8122917551
 20
7.3295723698
 30
0.0
 10
9.802973756
 20
7.3599575731
 30
0.0
 10
9.7965136898
 20
7.3844778014
 30
0.0
 10
9.7907298534
 20
7.4090802476
 30
0.0
 10
9.7847537886
 20
7.440029269
 30
0.0
 10
9.7804635618
 20
7.4712000728
 30
0.0
 10
9.7780590424
 20
7.4961783247
 30
0.0
 10
9.7763432183
 20
7.5211185686
 30
0.0
 10
9.7758250631
 20
7.539853661
 30
0.0
 10
9.7758250631
 20
7.5523278262
 30
0.0
  0
SPLINE
  5
377
100
AcDbEntity
  8
0
100
AcDbSpline
 62
7
  6
CONTINUOUS
 70
0
 71
3
 72
11
 73
7
 74
0
 42
0.0000001
 43
0.0000001
 44
0.0000000001
 40
0.0
 40
0.0
 40
0.0
 40
0.0
 40
0.2465302822
 40
0.4955041467
 40
0.7467233758
 40
1.0
 40
1.0
 40
1.0
 40
1.0
 10
11.6656269387
 20
9.700542368
 30
0.0
 10
11.6638736054
 20
9.6902583456
 30
0.0
 10
11.6607983379
 20
9.669509139
 30
0.0
 10
11.6575044958
 20
9.6380730111
 30
0.0
 10
11.6555230327
 20
9.6062410066
 30
0.0
 10
11.6550857861
 20
9.5848895714
 30
0.0
 10
11.6550857861
 20
9.5741716711
 30
0.0
  0
SPLINE
  5
378
100
AcDbEntity
  8
0
100
AcDbSpline
 62
7
  6
CONTINUOUS
 70
0
 71
3
 72
72
 73
68
 74
0
 42
0.0000001
 43
0.0000001
 44
0.0000000001
 40
0.0
 40
0.0
 40
0.0
 40
0.0
 40
0.0153559685
 40
0.0230182634
 40
0.0306701279
 40
0.0459427865
 40
0.0611778706
 40
0.0763785616
 40
0.091548351
 40
0.1066910111
 40
0.1218105607
 40
0.1369112319
 40
0.1519974315
 40
0.1670737003
 40
0.1821446705
 40
0.1972150231
 40
0.2122894456
 40
0.2273725881
 40
0.2424690196
 40
0.2575831853
 40
0.2727193661
 40
0.2878816417
 40
0.3030738534
 40
0.3182995693
 40
0.3335620536
 40
0.3488642409
 40
0.3642087132
 40
0.3795976788
 40
0.3950329547
 40
0.4105159555
 40
0.4260476864
 40
0.441628738
 40
0.4572592834
 40
0.4729390803
 40
0.4886674798
 40
0.504443435
 40
0.5202655115
 40
0.5361319017
 40
0.5520404441
 40
0.5679886442
 40
0.5839736951
 40
0.5999925008
 40
0.6160417026
 40
0.6321177086
 40
0.6482167212
 40
0.664334766
 40
0.6804677226
 40
0.6966113589
 40
0.7127613621
 40
0.7289133705
 40
0.7450630065
 40
0.7612059112
 40
0.7773377774
 40
0.7934543812
 40
0.8095516132
 40
0.8256255125
 40
0.8416722977
 40
0.8576883956
 40
0.8736704685
 40
0.8896154424
 40
0.9055205403
 40
0.9213832847
 40
0.9372015524
 40
0.9529736044
 40
0.9686978062
 40
0.984373832
 40
1.0
 40
1.0
 40
1.0
 40
1.0
 10
12.5089067978
 20
8.6783180411
 30
0.0
 10
12.506311025
 20
8.6664916776
 30
0.0
 10
12.5020021008
 20
8.6488519801
 30
0.0
 10
12.4954317076
 20
8.6255771645
 30
0.0
 10
12.4883297379
 20
8.6025273169
 30
0.0
 10
12.4784454335
 20
8.5740959874
 30
0.0
 10
12.4649898842
 20
8.5406471945
 30
0.0
 10
12.4499752016
 20
8.5079573656
 30
0.0
 10
12.4334329341
 20
8.4760954736
 30
0.0
 10
12.4153976457
 20
8.4451281851
 30
0.0
 10
12.3959070624
 20
8.4151204725
 30
0.0
 10
12.3750020377
 20
8.3861352074
 30
0.0
 10
12.3527263723
 20
8.3582331416
 30
0.0
 10
12.329126728
 20
8.3314727657
 30
0.0
 10
12.3042525196
 20
8.3059102092
 30
0.0
 10
12.2781558907
 20
8.2815990444
 30
0.0
 10
12.2508915656
 20
8.2585901939
 30
0.0
 10
12.2225166917
 20
8.2369318697
 30
0.0
 10
12.1930907291
 20
8.2166694728
 30
0.0
 10
12.1626753494
 20
8.1978454709
 30
0.0
 10
12.1313343399
 20
8.1804992396
 30
0.0
 10
12.0991333978
 20
8.1646670827
 30
0.0
 10
12.0661400082
 20
8.1503821415
 30
0.0
 10
12.0324233016
 20
8.1376743449
 30
0.0
 10
11.9980539529
 20
8.1265702281
 30
0.0
 10
11.9631039862
 20
8.117092969
 30
0.0
 10
11.9276466223
 20
8.109262358
 30
0.0
 10
11.8917561298
 20
8.1030947728
 30
0.0
 10
11.855507688
 20
8.0986030655
 30
0.0
 10
11.8189772191
 20
8.0957965282
 30
0.0
 10
11.7822412163
 20
8.0946809649
 30
0.0
 10
11.7453765927
 20
8.0952586646
 30
0.0
 10
11.7084605281
 20
8.0975283906
 30
0.0
 10
11.6715702975
 20
8.1014852764
 30
0.0
 10
11.6347831103
 20
8.1071209625
 30
0.0
 10
11.5981759532
 20
8.1144236
 30
0.0
 10
11.5618254422
 20
8.1233778961
 30
0.0
 10
11.5258076383
 20
8.1339650354
 30
0.0
 10
11.4901978927
 20
8.146162781
 30
0.0
 10
11.4550707052
 20
8.1599455639
 30
0.0
 10
11.4204995761
 20
8.1752845348
 30
0.0
 10
11.3865568396
 20
8.1921475782
 30
0.0
 10
11.3533134821
 20
8.210499334
 30
0.0
 10
11.3208390398
 20
8.2303013729
 30
0.0
 10
11.2892014503
 20
8.2515122542
 30
0.0
 10
11.2584669236
 20
8.2740876186
 30
0.0
 10
11.2286997311
 20
8.2979801846
 30
0.0
 10
11.1999621295
 20
8.3231399387
 30
0.0
 10
11.1723142374
 20
8.34951424
 30
0.0
 10
11.1458139269
 20
8.3770479374
 30
0.0
 10
11.1205166403
 20
8.4056834196
 30
0.0
 10
11.0964752773
 20
8.4353607527
 30
0.0
 10
11.0737401403
 20
8.4660178528
 30
0.0
 10
11.0523588263
 20
8.4975906032
 30
0.0
 10
11.0323761152
 20
8.5300129729
 30
0.0
 10
11.0138337947
 20
8.5632171105
 30
0.0
 10
10.996770673
 20
8.5971335532
 30
0.0
 10
10.9812224867
 20
8.6316913559
 30
0.0
 10
10.9672218483
 20
8.6668182423
 30
0.0
 10
10.9547980616
 20
8.7024407124
 30
0.0
 10
10.9439771463
 20
8.7384842297
 30
0.0
 10
10.9347817814
 20
8.7748733788
 30
0.0
 10
10.927231285
 20
8.8115320786
 30
0.0
 10
10.9213416234
 20
8.8483834092
 30
0.0
 10
10.9171248701
 20
8.8853508795
 30
0.0
 10
10.9145903402
 20
8.92235566
 30
0.0
 10
10.9140245295
 20
8.9470404888
 30
0.0
 10
10.9140245295
 20
8.9593614221
 30
0.0
  0
SPLINE
  5
379
100
AcDbEntity
  8
0
100
AcDbSpline
 62
7
  6
CONTINUOUS
 70
0
 71
3
 72
39
 73
35
 74
0
 42
0.0000001
 43
0.0000001
 44
0.0000000001
 40
0.0
 40
0.0
 40
0.0
 40
0.0
 40
0.0307462577
 40
0.0615801569
 40
0.0924990413
 40
0.1234996452
 40
0.1545781092
 40
0.1857300146
 40
0.2169504305
 40
0.24823394
 40
0.2795746788
 40
0.3109663923
 40
0.3424024717
 40
0.3738759956
 40
0.4053797921
 40
0.4369064823
 40
0.4684485246
 40
0.4999982777
 40
0.5315480495
 40
0.5630901413
 40
0.5946169108
 40
0.6261208231
 40
0.6575944927
 40
0.6890307441
 40
0.7204226634
 40
0.7517636353
 40
0.7830473994
 40
0.8142680972
 40
0.8454203083
 40
0.8764990998
 40
0.9075000298
 40
0.9384192726
 40
0.9692536372
 40
1.0
 40
1.0
 40
1.0
 40
1.0
 10
10.5552596893
 20
7.0088608868
 30
0.0
 10
10.545916858
 20
7.0101928939
 30
0.0
 10
10.5272593028
 20
7.0132620242
 30
0.0
 10
10.4994574803
 20
7.0190596895
 30
0.0
 10
10.4718495834
 20
7.0260471974
 30
0.0
 10
10.444488341
 20
7.0342113226
 30
0.0
 10
10.4174251628
 20
7.0435367218
 30
0.0
 10
10.3907110714
 20
7.054005682
 30
0.0
 10
10.3643964009
 20
7.0655984641
 30
0.0
 10
10.3385307892
 20
7.078293282
 30
0.0
 10
10.3131629399
 20
7.0920660989
 30
0.0
 10
10.2883406449
 20
7.1068909245
 30
0.0
 10
10.2641107357
 20
7.1227398917
 30
0.0
 10
10.2405188439
 20
7.1395830649
 30
0.0
 10
10.2176093926
 20
7.157388647
 30
0.0
 10
10.1954256082
 20
7.1761231434
 30
0.0
 10
10.1740092977
 20
7.1957512334
 30
0.0
 10
10.1534007627
 20
7.2162358588
 30
0.0
 10
10.1336388829
 20
7.2375384563
 30
0.0
 10
10.1147609454
 20
7.2596189092
 30
0.0
 10
10.0968024543
 20
7.282435537
 30
0.0
 10
10.079797277
 20
7.3059453597
 30
0.0
 10
10.0637775481
 20
7.3301041243
 30
0.0
 10
10.0487733891
 20
7.3548662461
 30
0.0
 10
10.0348130781
 20
7.38018506
 30
0.0
 10
10.0219230361
 20
7.4060129026
 30
0.0
 10
10.0101275183
 20
7.4323010664
 30
0.0
 10
9.9994487305
 20
7.458999995
 30
0.0
 10
9.9899069109
 20
7.4860594053
 30
0.0
 10
9.9815200656
 20
7.5134282987
 30
0.0
 10
9.9743039444
 20
7.5410550201
 30
0.0
 10
9.9682722187
 20
7.5688877306
 30
0.0
 10
9.9634364984
 20
7.5968731938
 30
0.0
 10
9.9610122213
 20
7.6156256177
 30
0.0
 10
9.9600030819
 20
7.6250088467
 30
0.0
  0
SPLINE
  5
37A
100
AcDbEntity
  8
0
100
AcDbSpline
 62
7
  6
CONTINUOUS
 70
0
 71
3
 72
61
 73
57
 74
0
 42
0.0000001
 43
0.0000001
 44
0.0000000001
 40
0.0
 40
0.0
 40
0.0
 40
0.0
 40
0.041773683
 40
0.0840361744
 40
0.126657356
 40
0.1695049536
 40
0.2124461739
 40
0.255347734
 40
0.2980765393
 40
0.3405001682
 40
0.3824874064
 40
0.4239087759
 40
0.4646370687
 40
0.5045478875
 40
0.5435201962
 40
0.5814368877
 40
0.5999642174
 40
0.6181858165
 40
0.6360884225
 40
0.6536591429
 40
0.6708854449
 40
0.6877552479
 40
0.7042568506
 40
0.7203790744
 40
0.7361111744
 40
0.7514429752
 40
0.7663648323
 40
0.7808677049
 40
0.7949432137
 40
0.8085836306
 40
0.8217820383
 40
0.8345322654
 40
0.8468291079
 40
0.8586682842
 40
0.8700466517
 40
0.8809622685
 40
0.8914145636
 40
0.9014045599
 40
0.9109350136
 40
0.9200108095
 40
0.9286391477
 40
0.9368300847
 40
0.9445968849
 40
0.951956666
 40
0.9589309937
 40
0.9655465745
 40
0.9718360038
 40
0.977838309
 40
0.9807467497
 40
0.9836012173
 40
0.9864085083
 40
0.9891758169
 40
0.9919106779
 40
0.9946209207
 40
0.9973146171
 40
1.0
 40
1.0
 40
1.0
 40
1.0
 10
15.2810745091
 20
10.5177961305
 30
0.0
 10
15.2810745091
 20
10.4928158494
 30
0.0
 10
15.2806847918
 20
10.442562199
 30
0.0
 10
15.2789619069
 20
10.3668392248
 30
0.0
 10
15.2761023569
 20
10.2905078859
 30
0.0
 10
15.2721154996
 20
10.2138207887
 30
0.0
 10
15.2670145191
 20
10.1370317042
 30
0.0
 10
15.2608162732
 20
10.0603946562
 30
0.0
 10
15.2535412945
 20
9.9841631969
 30
0.0
 10
15.2452136988
 20
9.9085895186
 30
0.0
 10
15.2358611135
 20
9.8339236269
 30
0.0
 10
15.2255145881
 20
9.7604124962
 30
0.0
 10
15.2142084911
 20
9.6882992698
 30
0.0
 10
15.2019804057
 20
9.6178223555
 30
0.0
 10
15.1888709718
 20
9.5492149529
 30
0.0
 10
15.1771602259
 20
9.4933679076
 30
0.0
 10
15.1673705256
 20
9.449804389
 30
0.0
 10
15.1598921875
 20
9.4179898208
 30
0.0
 10
15.152227616
 20
9.3868083604
 30
0.0
 10
15.1443831576
 20
9.3562857722
 30
0.0
 10
15.1363652768
 20
9.3264473075
 30
0.0
 10
15.1281806894
 20
9.2973176323
 30
0.0
 10
15.1198361007
 20
9.2689208367
 30
0.0
 10
15.1113385151
 20
9.2412803834
 30
0.0
 10
15.1026949051
 20
9.2144191213
 30
0.0
 10
15.0939124926
 20
9.1883592333
 30
0.0
 10
15.0849985346
 20
9.1631222426
 30
0.0
 10
15.0759604138
 20
9.1387289812
 30
0.0
 10
15.0668056633
 20
9.115199565
 30
0.0
 10
15.0575417964
 20
9.0925534052
 30
0.0
 10
15.0481765791
 20
9.0708091348
 30
0.0
 10
15.0387176554
 20
9.0499846702
 30
0.0
 10
15.0291729439
 20
9.0300970978
 30
0.0
 10
15.0195502381
 20
9.0111627561
 30
0.0
 10
15.0098575106
 20
8.9931971341
 30
0.0
 10
15.0001027031
 20
8.9762149088
 30
0.0
 10
14.9902937528
 20
8.9602299263
 30
0.0
 10
14.9804386957
 20
8.9452551278
 30
0.0
 10
14.9705453575
 20
8.9313026755
 30
0.0
 10
14.9606217374
 20
8.9183837375
 30
0.0
 10
14.9506754768
 20
8.9065087633
 30
0.0
 10
14.9407143215
 20
8.8956872012
 30
0.0
 10
14.9307456343
 20
8.8859278286
 30
0.0
 10
14.920776649
 20
8.8772385988
 30
0.0
 10
14.9108143995
 20
8.8696268833
 30
0.0
 10
14.9008653482
 20
8.8630996024
 30
0.0
 10
14.8909370267
 20
8.8576635168
 30
0.0
 10
14.8825983645
 20
8.8540101945
 30
0.0
 10
14.8759634873
 20
8.8516625977
 30
0.0
 10
14.8710505319
 20
8.8501960094
 30
0.0
 10
14.8661501913
 20
8.8490057768
 30
0.0
 10
14.8612634462
 20
8.8480921376
 30
0.0
 10
14.8563914214
 20
8.8474553938
 30
0.0
 10
14.8515351586
 20
8.8470958435
 30
0.0
 10
14.846696008
 20
8.8470135816
 30
0.0
 10
14.8434798996
 20
8.8471437071
 30
0.0
 10
14.8418779133
 20
8.8472548121
 30
0.0
  0
SPLINE
  5
37B
100
AcDbEntity
  8
0
100
AcDbSpline
 62
7
  6
CONTINUOUS
 70
0
 71
3
 72
51
 73
47
 74
0
 42
0.0000001
 43
0.0000001
 44
0.0000000001
 40
0.0
 40
0.0
 40
0.0
 40
0.0
 40
0.0464261739
 40
0.0923370855
 40
0.1376692156
 40
0.1823650704
 40
0.226365985
 40
0.2696149558
 40
0.3120564879
 40
0.3536364292
 40
0.3943023356
 40
0.4340035319
 40
0.4726912195
 40
0.5103186717
 40
0.5468414432
 40
0.5822174912
 40
0.6164073743
 40
0.6493745621
 40
0.681085685
 40
0.7115108008
 40
0.7406238032
 40
0.7684029546
 40
0.7817872521
 40
0.7948321964
 40
0.807536543
 40
0.8198995142
 40
0.8319206729
 40
0.8436001179
 40
0.8549384804
 40
0.8659368705
 40
0.8765971112
 40
0.8869216724
 40
0.8969137214
 40
0.906577354
 40
0.9159175137
 40
0.9249401567
 40
0.9336524432
 40
0.9420627015
 40
0.9501806861
 40
0.9580177121
 40
0.9655866978
 40
0.9729024543
 40
0.979981747
 40
0.986843381
 40
0.9935083971
 40
1.0
 40
1.0
 40
1.0
 40
1.0
 10
15.2192552511
 20
10.5220833106
 30
0.0
 10
15.2192552511
 20
10.5382697575
 30
0.0
 10
15.2190933668
 20
10.5704632583
 30
0.0
 10
15.2183568058
 20
10.6184566955
 30
0.0
 10
15.2171287107
 20
10.6658366808
 30
0.0
 10
15.215410951
 20
10.7125351041
 30
0.0
 10
15.2132059418
 20
10.7584859923
 30
0.0
 10
15.2105168816
 20
10.8036238101
 30
0.0
 10
15.2073476435
 20
10.8478843266
 30
0.0
 10
15.2037027486
 20
10.8912045825
 30
0.0
 10
15.1995874503
 20
10.9335229427
 30
0.0
 10
15.1950076699
 20
10.9747792239
 30
0.0
 10
15.1899699696
 20
11.0149147532
 30
0.0
 10
15.184481568
 20
11.0538724704
 30
0.0
 10
15.1785503705
 20
11.091597024
 30
0.0
 10
15.1721848952
 20
11.128034834
 30
0.0
 10
15.1653942542
 20
11.163134167
 30
0.0
 10
15.1581882032
 20
11.1968452511
 30
0.0
 10
15.1505770983
 20
11.2291203188
 30
0.0
 10
15.1425718404
 20
11.2599137714
 30
0.0
 10
15.1341838595
 20
11.2891818805
 30
0.0
 10
15.1267963663
 20
11.3125473586
 30
0.0
 10
15.1206910405
 20
11.3304344694
 30
0.0
 10
15.1160806334
 20
11.3432764566
 30
0.0
 10
15.1113836664
 20
11.3557071165
 30
0.0
 10
15.106601845
 20
11.3677220882
 30
0.0
 10
15.1017368049
 20
11.3793170975
 30
0.0
 10
15.0967902797
 20
11.3904880518
 30
0.0
 10
15.0917640667
 20
11.4012310283
 30
0.0
 10
15.0866598504
 20
11.4115422056
 30
0.0
 10
15.0814794781
 20
11.4214179757
 30
0.0
 10
15.0762247755
 20
11.4308548763
 30
0.0
 10
15.0708974893
 20
11.4398495512
 30
0.0
 10
15.0654995472
 20
11.4483988894
 30
0.0
 10
15.0600327732
 20
11.4564998826
 30
0.0
 10
15.0544989782
 20
11.4641496552
 30
0.0
 10
15.0489001203
 20
11.4713455833
 30
0.0
 10
15.0432379986
 20
11.4780850884
 30
0.0
 10
15.0375144785
 20
11.484365772
 30
0.0
 10
15.0317314986
 20
11.4901854502
 30
0.0
 10
15.0258908355
 20
11.4955419158
 30
0.0
 10
15.0199944002
 20
11.5004332082
 30
0.0
 10
15.0140441402
 20
11.5048574658
 30
0.0
 10
15.0080417794
 20
11.5088128223
 30
0.0
 10
15.0019897486
 20
11.5122975018
 30
0.0
 10
14.997873418
 20
11.5143303499
 30
0.0
 10
14.995811325
 20
11.5152632288
 30
0.0
  0
SPLINE
  5
37C
100
AcDbEntity
  8
0
100
AcDbSpline
 62
7
  6
CONTINUOUS
 70
0
 71
3
 72
39
 73
35
 74
0
 42
0.0000001
 43
0.0000001
 44
0.0000000001
 40
0.0
 40
0.0
 40
0.0
 40
0.0
 40
0.0315055161
 40
0.0629321575
 40
0.0942840469
 40
0.1255658407
 40
0.156782709
 40
0.1879402923
 40
0.2190446601
 40
0.2501022789
 40
0.2811199621
 40
0.3121048154
 40
0.3430641902
 40
0.3740056322
 40
0.4049368192
 40
0.4358655031
 40
0.4667994587
 40
0.4977464217
 40
0.528714026
 40
0.5597097525
 40
0.5907408753
 40
0.621814402
 40
0.6529370224
 40
0.6841150698
 40
0.7153544693
 40
0.7466606899
 40
0.7780387284
 40
0.8094930554
 40
0.8410275668
 40
0.8726457254
 40
0.9043501609
 40
0.9361427574
 40
0.9680267493
 40
1.0
 40
1.0
 40
1.0
 40
1.0
 10
9.5853281129
 20
7.6586550598
 30
0.0
 10
9.5746446796
 20
7.6566118876
 30
0.0
 10
9.5533881264
 20
7.6520784766
 30
0.0
 10
9.5218619483
 20
7.6439376282
 30
0.0
 10
9.4907861355
 20
7.634477857
 30
0.0
 10
9.4602140216
 20
7.6237152702
 30
0.0
 10
9.4301970987
 20
7.6116680894
 30
0.0
 10
9.4007862186
 20
7.5983566386
 30
0.0
 10
9.3720311737
 20
7.5838033319
 30
0.0
 10
9.3439805826
 20
7.5680328647
 30
0.0
 10
9.3166819078
 20
7.5510718967
 30
0.0
 10
9.2901814086
 20
7.5329490176
 30
0.0
 10
9.2645238929
 20
7.5136949474
 30
0.0
 10
9.239752753
 20
7.4933422863
 30
0.0
 10
9.2159099722
 20
7.4719253904
 30
0.0
 10
9.1930358879
 20
7.4494805179
 30
0.0
 10
9.1711691474
 20
7.4260457049
 30
0.0
 10
9.1503467964
 20
7.4016605597
 30
0.0
 10
9.1306040975
 20
7.3763663275
 30
0.0
 10
9.1119743635
 20
7.3502058816
 30
0.0
 10
9.0944891223
 20
7.3232234741
 30
0.0
 10
9.0781780202
 20
7.2954647228
 30
0.0
 10
9.0630685432
 20
7.2669766609
 30
0.0
 10
9.0491862165
 20
7.2378074965
 30
0.0
 10
9.0365545955
 20
7.2080065438
 30
0.0
 10
9.0251949533
 20
7.1776242577
 30
0.0
 10
9.0151264256
 20
7.1467120546
 30
0.0
 10
9.0063660981
 20
7.1153222072
 30
0.0
 10
8.9989287156
 20
7.083507805
 30
0.0
 10
8.9928267857
 20
7.0513226723
 30
0.0
 10
8.9880706296
 20
7.0188213956
 30
0.0
 10
8.9846681478
 20
6.9860583101
 30
0.0
 10
8.9826253414
 20
6.9530901034
 30
0.0
 10
8.9821725322
 20
6.9310411112
 30
0.0
 10
8.9821725322
 20
6.9200025753
 30
0.0
  0
SPLINE
  5
37D
100
AcDbEntity
  8
0
100
AcDbSpline
 62
7
  6
CONTINUOUS
 70
0
 71
3
 72
55
 73
51
 74
0
 42
0.0000001
 43
0.0000001
 44
0.0000000001
 40
0.0
 40
0.0
 40
0.0
 40
0.0
 40
0.040370512
 40
0.0811958907
 40
0.1223626275
 40
0.163755625
 40
0.205259186
 40
0.2467571421
 40
0.2881333709
 40
0.3292721742
 40
0.3700587016
 40
0.4103793625
 40
0.4501222444
 40
0.4891775349
 40
0.5274379505
 40
0.5647991746
 40
0.6011603094
 40
0.6364243473
 40
0.6536160401
 40
0.6704991085
 40
0.6870627528
 40
0.7032965184
 40
0.7191903067
 40
0.7347344239
 40
0.749919559
 40
0.7647368737
 40
0.779177947
 40
0.7932349081
 40
0.8069003524
 40
0.8201675144
 40
0.8330301649
 40
0.8454828202
 40
0.8575206343
 40
0.8691396378
 40
0.8803366472
 40
0.891109526
 40
0.9014571367
 40
0.9113796231
 40
0.9208784344
 40
0.9299566346
 40
0.9386190323
 40
0.9468725345
 40
0.9547264164
 40
0.9621927436
 40
0.9692868072
 40
0.9760276242
 40
0.9824385129
 40
0.9885476056
 40
0.9943883953
 40
1.0
 40
1.0
 40
1.0
 40
1.0
 10
15.2192552511
 20
10.5220833106
 30
0.0
 10
15.2192552511
 20
10.4983685182
 30
0.0
 10
15.21890406
 20
10.4506710565
 30
0.0
 10
15.2173500927
 20
10.3788062935
 30
0.0
 10
15.2147700829
 20
10.3063699232
 30
0.0
 10
15.2111716584
 20
10.2335782074
 30
0.0
 10
15.2065655416
 20
10.1606483535
 30
0.0
 10
15.2009654595
 20
10.087797965
 30
0.0
 10
15.1943881367
 20
10.0152444226
 30
0.0
 10
15.1868532292
 20
9.9432042093
 30
0.0
 10
15.1783832724
 20
9.8718922693
 30
0.0
 10
15.1690036123
 20
9.8015213593
 30
0.0
 10
15.1587423316
 20
9.7323014106
 30
0.0
 10
15.1476301673
 20
9.6644388902
 30
0.0
 10
15.1357004187
 20
9.5981362022
 30
0.0
 10
15.1229888584
 20
9.5335909839
 30
0.0
 10
15.1095335947
 20
9.4709958292
 30
0.0
 10
15.0976365187
 20
9.4201932705
 30
0.0
 10
15.0877638505
 20
9.3806756774
 30
0.0
 10
15.0802616308
 20
9.3518902596
 30
0.0
 10
15.0726047566
 20
9.3237283194
 30
0.0
 10
15.0647989259
 20
9.2962108369
 30
0.0
 10
15.056849967
 20
9.2693583365
 30
0.0
 10
15.0487638513
 20
9.2431908331
 30
0.0
 10
15.0405465824
 20
9.2177278343
 30
0.0
 10
15.0322043614
 20
9.1929883073
 30
0.0
 10
15.0237433553
 20
9.168990689
 30
0.0
 10
15.0151699726
 20
9.1457528366
 30
0.0
 10
15.0064905262
 20
9.1232920596
 30
0.0
 10
14.9977116074
 20
9.1016250464
 30
0.0
 10
14.9888396575
 20
9.0807679244
 30
0.0
 10
14.9798814214
 20
9.060736157
 30
0.0
 10
14.9708434513
 20
9.0415446361
 30
0.0
 10
14.9617326092
 20
9.0232075466
 30
0.0
 10
14.9525555382
 20
9.0057384921
 30
0.0
 10
14.9433191727
 20
8.9891503297
 30
0.0
 10
14.9340302185
 20
8.9734553233
 30
0.0
 10
14.9246956255
 20
8.9586649591
 30
0.0
 10
14.915322119
 20
8.9447901146
 30
0.0
 10
14.9059165886
 20
8.9318408758
 30
0.0
 10
14.8964857104
 20
8.9198267027
 30
0.0
 10
14.8870362095
 20
8.908756284
 30
0.0
 10
14.8775746107
 20
8.8986376762
 30
0.0
 10
14.8681073416
 20
8.8894782517
 30
0.0
 10
14.8586406614
 20
8.8812847861
 30
0.0
 10
14.8491805716
 20
8.8740635704
 30
0.0
 10
14.8397331231
 20
8.867820443
 30
0.0
 10
14.8303037185
 20
8.8625609944
 30
0.0
 10
14.8208996471
 20
8.8582909098
 30
0.0
 10
14.8145376575
 20
8.8560679319
 30
0.0
 10
14.811375926
 20
8.8551352909
 30
0.0
  0
SPLINE
  5
37E
100
AcDbEntity
  8
0
100
AcDbSpline
 62
7
  6
CONTINUOUS
 70
0
 71
3
 72
62
 73
58
 74
0
 42
0.0000001
 43
0.0000001
 44
0.0000000001
 40
0.0
 40
0.0
 40
0.0
 40
0.0
 40
0.0427954811
 40
0.0861053504
 40
0.1297858146
 40
0.1736910217
 40
0.2176744318
 40
0.2615890722
 40
0.305288295
 40
0.3486263568
 40
0.3914590567
 40
0.4336443621
 40
0.4750430454
 40
0.5155193299
 40
0.5549415508
 40
0.5931828396
 40
0.611822732
 40
0.6301223594
 40
0.64806756
 40
0.665644585
 40
0.6828401795
 40
0.6996415831
 40
0.716036568
 40
0.7320134951
 40
0.7475613063
 40
0.7626696427
 40
0.7773287908
 40
0.7915298681
 40
0.8052647303
 40
0.8185262247
 40
0.8313080745
 40
0.843605198
 40
0.8554135971
 40
0.8667307387
 40
0.8775554877
 40
0.8878885508
 40
0.8977325066
 40
0.9070923251
 40
0.9159755583
 40
0.9243929639
 40
0.9323589243
 40
0.9398922083
 40
0.9470166498
 40
0.9537620197
 40
0.9601648409
 40
0.9662690939
 40
0.9721266453
 40
0.9749823299
 40
0.9777992741
 40
0.9805859644
 40
0.9833511839
 40
0.9861039392
 40
0.9888533758
 40
0.9916086726
 40
0.9943789441
 40
0.9971731509
 40
1.0
 40
1.0
 40
1.0
 40
1.0
 10
15.1172806315
 20
10.4235833861
 30
0.0
 10
15.1172806315
 20
10.4052863199
 30
0.0
 10
15.116984349
 20
10.3684716456
 30
0.0
 10
15.1156754305
 20
10.3129955218
 30
0.0
 10
15.1135034694
 20
10.2570715657
 30
0.0
 10
15.1104761308
 20
10.2008990689
 30
0.0
 10
15.1066041871
 20
10.1446781061
 30
0.0
 10
15.1019014199
 20
10.0886089065
 30
0.0
 10
15.096384606
 20
10.0328911704
 30
0.0
 10
15.0900734408
 20
9.9777233306
 30
0.0
 10
15.0829904757
 20
9.9233018502
 30
0.0
 10
15.0751610369
 20
9.8698205081
 30
0.0
 10
15.0666131354
 20
9.8174697232
 30
0.0
 10
15.0573773777
 20
9.766435789
 30
0.0
 10
15.0474868276
 20
9.7169004767
 30
0.0
 10
15.0386551572
 20
9.6766815775
 30
0.0
 10
15.0312778115
 20
9.6453958168
 30
0.0
 10
15.0256507824
 20
9.622614214
 30
0.0
 10
15.0198877426
 20
9.6003357092
 30
0.0
 10
15.0139937795
 20
9.5785801194
 30
0.0
 10
15.0079741827
 20
9.5573668124
 30
0.0
 10
15.0018343183
 20
9.5367146666
 30
0.0
 10
14.9955796627
 20
9.5166420569
 30
0.0
 10
14.9892158219
 20
9.4971668352
 30
0.0
 10
14.9827484423
 20
9.4783063212
 30
0.0
 10
14.9761833489
 20
9.4600772703
 30
0.0
 10
14.969526336
 20
9.4424958839
 30
0.0
 10
14.9627834243
 20
9.4255777545
 30
0.0
 10
14.9559605332
 20
9.409337904
 30
0.0
 10
14.9490638506
 20
9.3937906975
 30
0.0
 10
14.9420993975
 20
9.3789499189
 30
0.0
 10
14.9350734918
 20
9.3648286435
 30
0.0
 10
14.9279922292
 20
9.3514393597
 30
0.0
 10
14.9208620081
 20
9.3387937948
 30
0.0
 10
14.9136889626
 20
9.3269030856
 30
0.0
 10
14.9064795023
 20
9.3157775609
 30
0.0
 10
14.8992397428
 20
9.3054269576
 30
0.0
 10
14.8919760053
 20
9.2958601757
 30
0.0
 10
14.8846942929
 20
9.2870855304
 30
0.0
 10
14.8774006954
 20
9.2791105182
 30
0.0
 10
14.8701009634
 20
9.2719420927
 30
0.0
 10
14.8628007875
 20
9.2655865143
 30
0.0
 10
14.8555055225
 20
9.2600496297
 30
0.0
 10
14.8482204609
 20
9.2553369134
 30
0.0
 10
14.8409505581
 20
9.251453648
 30
0.0
 10
14.8337018569
 20
9.2484052577
 30
0.0
 10
14.8276310826
 20
9.2465492747
 30
0.0
 10
14.8228118486
 20
9.2455012433
 30
0.0
 10
14.8192381222
 20
9.2449320377
 30
0.0
 10
14.8156760546
 20
9.2445733918
 30
0.0
 10
14.8121264348
 20
9.2444254006
 30
0.0
 10
14.8085901934
 20
9.2444882166
 30
0.0
 10
14.8050682388
 20
9.2447618327
 30
0.0
 10
14.8015614872
 20
9.2452461156
 30
0.0
 10
14.7980707955
 20
9.2459409361
 30
0.0
 10
14.7945971953
 20
9.2468460945
 30
0.0
 10
14.7923086431
 20
9.2475846416
 30
0.0
 10
14.7911691541
 20
9.2479875098
 30
0.0
  0
SPLINE
  5
37F
100
AcDbEntity
  8
0
100
AcDbSpline
 62
7
  6
CONTINUOUS
 70
0
 71
3
 72
45
 73
41
 74
0
 42
0.0000001
 43
0.0000001
 44
0.0000000001
 40
0.0
 40
0.0
 40
0.0
 40
0.0
 40
0.0361650735
 40
0.072682075
 40
0.1094797492
 40
0.1464900475
 40
0.183642359
 40
0.2208663332
 40
0.2580913821
 40
0.2952468762
 40
0.332262382
 40
0.3690677872
 40
0.4055934968
 40
0.4417705972
 40
0.4775310206
 40
0.5128077156
 40
0.5475348427
 40
0.5816479491
 40
0.6150841374
 40
0.6477822474
 40
0.6796830683
 40
0.710729558
 40
0.7408670336
 40
0.7700433966
 40
0.798209394
 40
0.8253189414
 40
0.8513294199
 40
0.8762020386
 40
0.8882009402
 40
0.8999028545
 40
0.9113041816
 40
0.9224017458
 40
0.9331927279
 40
0.9436746452
 40
0.9538455559
 40
0.9637038887
 40
0.9732486286
 40
0.9824793561
 40
0.9913961774
 40
1.0
 40
1.0
 40
1.0
 40
1.0
 10
14.8978020813
 20
10.4235833735
 30
0.0
 10
14.8978020813
 20
10.4106475615
 30
0.0
 10
14.8976446069
 20
10.384649804
 30
0.0
 10
14.8969458084
 20
10.3454956052
 30
0.0
 10
14.8957844111
 20
10.3060498988
 30
0.0
 10
14.8941628624
 20
10.2663930252
 30
0.0
 10
14.8920843496
 20
10.2266047892
 30
0.0
 10
14.8895530991
 20
10.1867658257
 30
0.0
 10
14.8865742356
 20
10.1469566871
 30
0.0
 10
14.8831537839
 20
10.1072578946
 30
0.0
 10
14.8792986649
 20
10.0677497548
 30
0.0
 10
14.8750166774
 20
10.0285121797
 30
0.0
 10
14.8703165103
 20
9.9896245312
 30
0.0
 10
14.8652076926
 20
9.9511654588
 30
0.0
 10
14.8597005799
 20
9.9132127457
 30
0.0
 10
14.8538063273
 20
9.8758431492
 30
0.0
 10
14.8475368984
 20
9.8391322344
 30
0.0
 10
14.8409050207
 20
9.8031542222
 30
0.0
 10
14.8339241538
 20
9.7679818472
 30
0.0
 10
14.82660846
 20
9.7336862103
 30
0.0
 10
14.8189727894
 20
9.7003366204
 30
0.0
 10
14.8110326635
 20
9.6680004441
 30
0.0
 10
14.8028042146
 20
9.6367429804
 30
0.0
 10
14.7943041613
 20
9.6066273258
 30
0.0
 10
14.7855497646
 20
9.5777142524
 30
0.0
 10
14.7765588327
 20
9.5500619772
 30
0.0
 10
14.7673496357
 20
9.5237263297
 30
0.0
 10
14.7594170374
 20
9.5026766493
 30
0.0
 10
14.7529659421
 20
9.4865440728
 30
0.0
 10
14.7481427189
 20
9.4749513634
 30
0.0
 10
14.7432790085
 20
9.4637260781
 30
0.0
 10
14.7383772757
 20
9.4528738565
 30
0.0
 10
14.7334400306
 20
9.4424001586
 30
0.0
 10
14.7284696915
 20
9.432310282
 30
0.0
 10
14.7234688542
 20
9.4226092713
 30
0.0
 10
14.7184399813
 20
9.4133020176
 30
0.0
 10
14.7133856065
 20
9.4043932013
 30
0.0
 10
14.7083083139
 20
9.395887236
 30
0.0
 10
14.7032106072
 20
9.3877885039
 30
0.0
 10
14.6997383265
 20
9.3825704173
 30
0.0
 10
14.6979980282
 20
9.3800322548
 30
0.0
  0
SPLINE
  5
380
100
AcDbEntity
  8
0
100
AcDbSpline
 62
7
  6
CONTINUOUS
 70
0
 71
3
 72
33
 73
29
 74
0
 42
0.0000001
 43
0.0000001
 44
0.0000000001
 40
0.0
 40
0.0
 40
0.0
 40
0.0
 40
0.0683103062
 40
0.1375902999
 40
0.2074591915
 40
0.2775302444
 40
0.3474159542
 40
0.4167300393
 40
0.4510534564
 40
0.4850911029
 40
0.5187962582
 40
0.5521228268
 40
0.5850253989
 40
0.6174592978
 40
0.6493807629
 40
0.6807469686
 40
0.7115161054
 40
0.7416475813
 40
0.7711020082
 40
0.7998413405
 40
0.8278290765
 40
0.8550302372
 40
0.881411587
 40
0.9069418244
 40
0.9315915998
 40
0.9553338445
 40
0.9781439701
 40
1.0
 40
1.0
 40
1.0
 40
1.0
 10
14.7971344696
 20
10.408540693
 30
0.0
 10
14.7971344696
 20
10.3884214885
 30
0.0
 10
14.7967142854
 20
10.3478963857
 30
0.0
 10
14.7948680487
 20
10.2868183249
 30
0.0
 10
14.7918109895
 20
10.2252694867
 30
0.0
 10
14.7875609682
 20
10.1636127494
 30
0.0
 10
14.7821430332
 20
10.1022117712
 30
0.0
 10
14.7766640462
 20
10.051395488
 30
0.0
 10
14.7717157444
 20
10.0111489815
 30
0.0
 10
14.7677465435
 20
9.9813504095
 30
0.0
 10
14.7635133023
 20
9.9518847959
 30
0.0
 10
14.7590222788
 20
9.9227955686
 30
0.0
 10
14.7542801303
 20
9.8941256435
 30
0.0
 10
14.7492938263
 20
9.8659173091
 30
0.0
 10
14.7440707763
 20
9.8382121629
 30
0.0
 10
14.7386187043
 20
9.8110510619
 30
0.0
 10
14.7329456395
 20
9.7844740608
 30
0.0
 10
14.7270600181
 20
9.7585203347
 30
0.0
 10
14.7209705343
 20
9.7332281436
 30
0.0
 10
14.7146861746
 20
9.7086347656
 30
0.0
 10
14.7082162871
 20
9.6847764255
 30
0.0
 10
14.7015704202
 20
9.6616882674
 30
0.0
 10
14.6947584022
 20
9.6394042839
 30
0.0
 10
14.6877903616
 20
9.6179572469
 30
0.0
 10
14.6806765773
 20
9.5973787125
 30
0.0
 10
14.6734275623
 20
9.5776988563
 30
0.0
 10
14.6660541572
 20
9.5589467053
 30
0.0
 10
14.6609522554
 20
9.5468191979
 30
0.0
 10
14.658378204
 20
9.5409190637
 30
0.0
  0
SPLINE
  5
381
100
AcDbEntity
  8
0
100
AcDbSpline
 62
7
  6
CONTINUOUS
 70
0
 71
3
 72
50
 73
46
 74
0
 42
0.0000001
 43
0.0000001
 44
0.0000000001
 40
0.0
 40
0.0
 40
0.0
 40
0.0
 40
0.0055575484
 40
0.0111779922
 40
0.016921945
 40
0.0228458833
 40
0.0290006815
 40
0.0354311436
 40
0.0421756504
 40
0.0492665308
 40
0.0567306759
 40
0.0645898217
 40
0.0728615778
 40
0.0815596977
 40
0.0906946685
 40
0.100274387
 40
0.1103041016
 40
0.1207871917
 40
0.1317251696
 40
0.1431178633
 40
0.1549639321
 40
0.16726054
 40
0.1800039018
 40
0.1931892317
 40
0.2208607128
 40
0.2502207991
 40
0.2812027127
 40
0.3137299142
 40
0.3477173552
 40
0.383072554
 40
0.4196964471
 40
0.4574841188
 40
0.4963254304
 40
0.5361057043
 40
0.5767063272
 40
0.6180053027
 40
0.6598777724
 40
0.7021965482
 40
0.7448326997
 40
0.7876559964
 40
0.8305355066
 40
0.8733402465
 40
0.9159384006
 40
0.9582025777
 40
1.0
 40
1.0
 40
1.0
 40
1.0
 10
7.605063565
 20
11.3247993791
 30
0.0
 10
7.6050635718
 20
11.325650367
 30
0.0
 10
7.6051589127
 20
11.3273634524
 30
0.0
 10
7.605586564
 20
11.3299239331
 30
0.0
 10
7.6062981915
 20
11.3324787165
 30
0.0
 10
7.6072925044
 20
11.3350247938
 30
0.0
 10
7.6085677069
 20
11.3375601729
 30
0.0
 10
7.6101222301
 20
11.3400828393
 30
0.0
 10
7.6119542287
 20
11.342591095
 30
0.0
 10
7.6140618895
 20
11.3450832816
 30
0.0
 10
7.616443416
 20
11.347557628
 30
0.0
 10
7.6190967033
 20
11.3500125324
 30
0.0
 10
7.6220196751
 20
11.3524461479
 30
0.0
 10
7.6252099623
 20
11.3548567054
 30
0.0
 10
7.6286650031
 20
11.357242426
 30
0.0
 10
7.6323820986
 20
11.3596013654
 30
0.0
 10
7.6363582231
 20
11.3619317762
 30
0.0
 10
7.640590223
 20
11.3642317394
 30
0.0
 10
7.6450746893
 20
11.3664994093
 30
0.0
 10
7.6498079836
 20
11.3687330148
 30
0.0
 10
7.6547863079
 20
11.3709306494
 30
0.0
 10
7.6600055941
 20
11.3730906004
 30
0.0
 10
7.665461621
 20
11.3752110915
 30
0.0
 10
7.6731706666
 20
11.3780288796
 30
0.0
 10
7.6833734789
 20
11.3814286787
 30
0.0
 10
7.6962960068
 20
11.3852616231
 30
0.0
 10
7.7100455848
 20
11.3888980386
 30
0.0
 10
7.7245773429
 20
11.3923259027
 30
0.0
 10
7.7398439821
 20
11.3955338694
 30
0.0
 10
7.7557956624
 20
11.3985113151
 30
0.0
 10
7.7723802761
 20
11.4012483786
 30
0.0
 10
7.7895435937
 20
11.4037359903
 30
0.0
 10
7.8072294526
 20
11.405965931
 30
0.0
 10
7.825379954
 20
11.4079308329
 30
0.0
 10
7.8439356663
 20
11.4096242017
 30
0.0
 10
7.8628358204
 20
11.4110404353
 30
0.0
 10
7.8820185032
 20
11.4121748502
 30
0.0
 10
7.9014208681
 20
11.4130237127
 30
0.0
 10
7.9209793402
 20
11.4135842203
 30
0.0
 10
7.9406298347
 20
11.413854523
 30
0.0
 10
7.9603079903
 20
11.4138337215
 30
0.0
 10
7.9799492066
 20
11.4135218675
 30
0.0
 10
7.9994894358
 20
11.4129200481
 30
0.0
 10
8.0188642285
 20
11.4120301673
 30
0.0
 10
8.0317124339
 20
11.4112417327
 30
0.0
 10
8.0380972406
 20
11.4107989449
 30
0.0
  0
SPLINE
  5
382
100
AcDbEntity
  8
0
100
AcDbSpline
 62
7
  6
CONTINUOUS
 70
0
 71
3
 72
56
 73
52
 74
0
 42
0.0000001
 43
0.0000001
 44
0.0000000001
 40
0.0
 40
0.0
 40
0.0
 40
0.0
 40
0.0499776757
 40
0.0993157771
 40
0.1479273832
 40
0.1957330203
 40
0.2426521498
 40
0.2886070505
 40
0.333522314
 40
0.3773249141
 40
0.41994463
 40
0.4613142961
 40
0.5013700459
 40
0.5400515993
 40
0.5773026248
 40
0.6130712073
 40
0.6473102495
 40
0.6638432647
 40
0.6799787522
 40
0.6957123773
 40
0.7110403781
 40
0.7259593589
 40
0.7404664084
 40
0.7545592576
 40
0.7682360785
 40
0.7814957681
 40
0.794337923
 40
0.8067627886
 40
0.8187715961
 40
0.8303664093
 40
0.8415503097
 40
0.8523276393
 40
0.8627038933
 40
0.8726861036
 40
0.8822829401
 40
0.8915048031
 40
0.9003642845
 40
0.908876199
 40
0.9170579163
 40
0.9249297242
 40
0.9325148873
 40
0.9398400261
 40
0.9469351897
 40
0.9538338142
 40
0.9605727089
 40
0.9671916058
 40
0.9737326528
 40
0.9802396707
 40
0.9867572157
 40
0.9933296174
 40
1.0
 40
1.0
 40
1.0
 40
1.0
 10
15.1172806315
 20
10.4235833861
 30
0.0
 10
15.1172806315
 20
10.4365284097
 30
0.0
 10
15.1171340664
 20
10.462253059
 30
0.0
 10
15.1164662278
 20
10.5005636774
 30
0.0
 10
15.1153528246
 20
10.5383011948
 30
0.0
 10
15.1137960421
 20
10.5753959624
 30
0.0
 10
15.1117986883
 20
10.6117805325
 30
0.0
 10
15.1093644998
 20
10.6473881918
 30
0.0
 10
15.106497994
 20
10.6821538294
 30
0.0
 10
15.1032044663
 20
10.7160138663
 30
0.0
 10
15.099489999
 20
10.7489063798
 30
0.0
 10
15.0953614826
 20
10.780771257
 30
0.0
 10
15.0908265638
 20
10.8115502937
 30
0.0
 10
15.0858936281
 20
10.8411872728
 30
0.0
 10
15.0805717913
 20
10.8696281649
 30
0.0
 10
15.0748708931
 20
10.8968209866
 30
0.0
 10
15.0697553193
 20
10.9186474759
 30
0.0
 10
15.0654707753
 20
10.9354400797
 30
0.0
 10
15.0622067268
 20
10.9475450812
 30
0.0
 10
15.0588560073
 20
10.959302177
 30
0.0
 10
15.0554201982
 20
10.9707060286
 30
0.0
 10
15.0519008586
 20
10.9817514304
 30
0.0
 10
15.0482995566
 20
10.9924333393
 30
0.0
 10
15.0446180178
 20
11.0027469095
 30
0.0
 10
15.0408578514
 20
11.0126874325
 30
0.0
 10
15.0370207933
 20
11.0222503954
 30
0.0
 10
15.0331086337
 20
11.0314314729
 30
0.0
 10
15.0291230574
 20
11.0402264733
 30
0.0
 10
15.0250659476
 20
11.0486314449
 30
0.0
 10
15.0209391078
 20
11.0566425869
 30
0.0
 10
15.0167443338
 20
11.0642562617
 30
0.0
 10
15.012483586
 20
11.0714690882
 30
0.0
 10
15.0081586572
 20
11.0782777865
 30
0.0
 10
15.0037714584
 20
11.0846793093
 30
0.0
 10
14.9993239344
 20
11.0906708208
 30
0.0
 10
14.994817868
 20
11.096249552
 30
0.0
 10
14.9902552357
 20
11.1014130395
 30
0.0
 10
14.9856378854
 20
11.1061589035
 30
0.0
 10
14.9809676272
 20
11.110484857
 30
0.0
 10
14.976246428
 20
11.1143889024
 30
0.0
 10
14.9714760792
 20
11.1178689536
 30
0.0
 10
14.9666585326
 20
11.1209231232
 30
0.0
 10
14.9617958349
 20
11.1235496702
 30
0.0
 10
14.9568900409
 20
11.1257467119
 30
0.0
 10
14.9519435418
 20
11.1275127815
 30
0.0
 10
14.9469588491
 20
11.1288464404
 30
0.0
 10
14.9419387061
 20
11.129746454
 30
0.0
 10
14.9368861243
 20
11.1302122413
 30
0.0
 10
14.9318040324
 20
11.1302432919
 30
0.0
 10
14.9266959309
 20
11.1298398529
 30
0.0
 10
14.9233062055
 20
11.1292866915
 30
0.0
 10
14.9216133767
 20
11.1289411417
 30
0.0
  0
SPLINE
  5
383
100
AcDbEntity
  8
0
100
AcDbSpline
 62
7
  6
CONTINUOUS
 70
0
 71
3
 72
39
 73
35
 74
0
 42
0.0000001
 43
0.0000001
 44
0.0000000001
 40
0.0
 40
0.0
 40
0.0
 40
0.0
 40
0.0958316475
 40
0.1891006073
 40
0.279240642
 40
0.3229674356
 40
0.365711151
 40
0.4074094627
 40
0.4480020772
 40
0.4874317741
 40
0.5256439547
 40
0.5625873626
 40
0.5982141631
 40
0.6324802323
 40
0.6653459096
 40
0.6967758341
 40
0.7267403598
 40
0.7552153214
 40
0.7821838024
 40
0.8076365273
 40
0.831573723
 40
0.8540068598
 40
0.8749607899
 40
0.8944774057
 40
0.9126188108
 40
0.9294731124
 40
0.9451592998
 40
0.9598338063
 40
0.9668558128
 40
0.9737028706
 40
0.9804062828
 40
0.9869996808
 40
0.9935186293
 40
1.0
 40
1.0
 40
1.0
 40
1.0
 10
8.0380972406
 20
11.4107989449
 30
0.0
 10
8.0470571124
 20
11.4101775757
 30
0.0
 10
8.0647243583
 20
11.4087543982
 30
0.0
 10
8.0907559256
 20
11.4060376995
 30
0.0
 10
8.1118688663
 20
11.4032977852
 30
0.0
 10
8.1282365756
 20
11.400831421
 30
0.0
 10
8.1400884059
 20
11.3988733932
 30
0.0
 10
8.1516208148
 20
11.3967918316
 30
0.0
 10
8.1628145532
 20
11.3945901243
 30
0.0
 10
8.1736509247
 20
11.3922720597
 30
0.0
 10
8.1841118447
 20
11.3898414756
 30
0.0
 10
8.1941798674
 20
11.3873024911
 30
0.0
 10
8.2038382138
 20
11.3846593787
 30
0.0
 10
8.2130708012
 20
11.3819165427
 30
0.0
 10
8.2218622898
 20
11.3790786635
 30
0.0
 10
8.2301980775
 20
11.376150404
 30
0.0
 10
8.2380643873
 20
11.3731367789
 30
0.0
 10
8.2454482229
 20
11.3700427077
 30
0.0
 10
8.2523374819
 20
11.3668734141
 30
0.0
 10
8.2587209095
 20
11.3636340551
 30
0.0
 10
8.2645881712
 20
11.3603298956
 30
0.0
 10
8.269929882
 20
11.3569662162
 30
0.0
 10
8.2747375178
 20
11.353548094
 30
0.0
 10
8.2790035873
 20
11.3500806186
 30
0.0
 10
8.2827211982
 20
11.3465683805
 30
0.0
 10
8.2858843636
 20
11.3430156349
 30
0.0
 10
8.2884867989
 20
11.3394267606
 30
0.0
 10
8.2902082129
 20
11.3363639202
 30
0.0
 10
8.2912812198
 20
11.3339114553
 30
0.0
 10
8.291930918
 20
11.3320944014
 30
0.0
 10
8.2924367119
 20
11.3302737575
 30
0.0
 10
8.2927982316
 20
11.3284502717
 30
0.0
 10
8.293015268
 20
11.3266250203
 30
0.0
 10
8.2930635651
 20
11.3254060798
 30
0.0
 10
8.2930635602
 20
11.3247986424
 30
0.0
  0
SPLINE
  5
384
100
AcDbEntity
  8
0
100
AcDbSpline
 62
7
  6
CONTINUOUS
 70
0
 71
3
 72
50
 73
46
 74
0
 42
0.0000001
 43
0.0000001
 44
0.0000000001
 40
0.0
 40
0.0
 40
0.0
 40
0.0
 40
0.0055575484
 40
0.0111779922
 40
0.016921945
 40
0.0228458833
 40
0.0290006815
 40
0.0354311436
 40
0.0421756504
 40
0.0492665308
 40
0.0567306759
 40
0.0645898217
 40
0.0728615778
 40
0.0815596977
 40
0.0906946685
 40
0.100274387
 40
0.1103041016
 40
0.1207871917
 40
0.1317251696
 40
0.1431178633
 40
0.1549639321
 40
0.16726054
 40
0.1800039018
 40
0.1931892317
 40
0.2208607128
 40
0.2502207991
 40
0.2812027127
 40
0.3137299142
 40
0.3477173552
 40
0.383072554
 40
0.4196964471
 40
0.4574841188
 40
0.4963254304
 40
0.5361057043
 40
0.5767063272
 40
0.6180053027
 40
0.6598777724
 40
0.7021965482
 40
0.7448326997
 40
0.7876559964
 40
0.8305355066
 40
0.8733402465
 40
0.9159384006
 40
0.9582025777
 40
1.0
 40
1.0
 40
1.0
 40
1.0
 10
13.1591372225
 20
10.9396230627
 30
0.0
 10
13.1591372293
 20
10.9404740506
 30
0.0
 10
13.1592325702
 20
10.942187136
 30
0.0
 10
13.1596602216
 20
10.9447476167
 30
0.0
 10
13.160371849
 20
10.9473024001
 30
0.0
 10
13.161366162
 20
10.9498484774
 30
0.0
 10
13.1626413645
 20
10.9523838565
 30
0.0
 10
13.1641958876
 20
10.9549065229
 30
0.0
 10
13.1660278862
 20
10.9574147786
 30
0.0
 10
13.1681355471
 20
10.9599069652
 30
0.0
 10
13.1705170735
 20
10.9623813116
 30
0.0
 10
13.1731703608
 20
10.9648362161
 30
0.0
 10
13.1760933326
 20
10.9672698315
 30
0.0
 10
13.1792836199
 20
10.9696803891
 30
0.0
 10
13.1827386606
 20
10.9720661097
 30
0.0
 10
13.1864557562
 20
10.974425049
 30
0.0
 10
13.1904318806
 20
10.9767554599
 30
0.0
 10
13.1946638805
 20
10.979055423
 30
0.0
 10
13.1991483468
 20
10.9813230929
 30
0.0
 10
13.2038816411
 20
10.9835566985
 30
0.0
 10
13.2088599654
 20
10.985754333
 30
0.0
 10
13.2140792516
 20
10.987914284
 30
0.0
 10
13.2195352785
 20
10.9900347751
 30
0.0
 10
13.2272443241
 20
10.9928525632
 30
0.0
 10
13.2374471364
 20
10.9962523624
 30
0.0
 10
13.2503696643
 20
11.0000853067
 30
0.0
 10
13.2641192423
 20
11.0037217222
 30
0.0
 10
13.2786510004
 20
11.0071495863
 30
0.0
 10
13.2939176396
 20
11.010357553
 30
0.0
 10
13.30986932
 20
11.0133349987
 30
0.0
 10
13.3264539336
 20
11.0160720622
 30
0.0
 10
13.3436172512
 20
11.0185596739
 30
0.0
 10
13.3613031102
 20
11.0207896146
 30
0.0
 10
13.3794536115
 20
11.0227545165
 30
0.0
 10
13.3980093239
 20
11.0244478853
 30
0.0
 10
13.4169094779
 20
11.025864119
 30
0.0
 10
13.4360921608
 20
11.0269985338
 30
0.0
 10
13.4554945256
 20
11.0278473963
 30
0.0
 10
13.4750529977
 20
11.0284079039
 30
0.0
 10
13.4947034922
 20
11.0286782066
 30
0.0
 10
13.5143816478
 20
11.0286574051
 30
0.0
 10
13.5340228642
 20
11.0283455511
 30
0.0
 10
13.5535630933
 20
11.0277437317
 30
0.0
 10
13.5729378861
 20
11.0268538509
 30
0.0
 10
13.5857860914
 20
11.0260654164
 30
0.0
 10
13.5921708982
 20
11.0256226285
 30
0.0
  0
SPLINE
  5
385
100
AcDbEntity
  8
0
100
AcDbSpline
 62
7
  6
CONTINUOUS
 70
0
 71
3
 72
32
 73
28
 74
0
 42
0.0000001
 43
0.0000001
 44
0.0000000001
 40
0.0
 40
0.0
 40
0.0
 40
0.0
 40
0.0799678931
 40
0.1585308335
 40
0.2354600648
 40
0.3105342286
 40
0.3835388478
 40
0.4542682034
 40
0.5225261222
 40
0.5556704438
 40
0.5881283737
 40
0.6198786768
 40
0.6509009529
 40
0.6811757583
 40
0.7106845498
 40
0.7394099138
 40
0.7673354258
 40
0.794445993
 40
0.8207276387
 40
0.846167961
 40
0.8707558597
 40
0.8944821111
 40
0.9173390692
 40
0.9393213535
 40
0.9604255717
 40
0.9806511218
 40
1.0
 40
1.0
 40
1.0
 40
1.0
 10
14.8978020813
 20
10.4235833735
 30
0.0
 10
14.8978020813
 20
10.4395255854
 30
0.0
 10
14.8975662718
 20
10.4711304892
 30
0.0
 10
14.8964874507
 20
10.5180607265
 30
0.0
 10
14.8946898178
 20
10.5639928348
 30
0.0
 10
14.8921792035
 20
10.6087818209
 30
0.0
 10
14.8889636927
 20
10.6522866916
 30
0.0
 10
14.8850535966
 20
10.6943702166
 30
0.0
 10
14.881190122
 20
10.7284705939
 30
0.0
 10
14.8777492263
 20
10.7549343603
 30
0.0
 10
14.8750284305
 20
10.7741511308
 30
0.0
 10
14.8721444761
 20
10.7929162022
 30
0.0
 10
14.8690996025
 20
10.8112148067
 30
0.0
 10
14.8658962627
 20
10.8290325232
 30
0.0
 10
14.8625369496
 20
10.8463553199
 30
0.0
 10
14.8590243823
 20
10.8631695583
 30
0.0
 10
14.8553612759
 20
10.8794620047
 30
0.0
 10
14.8515506123
 20
10.8952198471
 30
0.0
 10
14.8475953172
 20
10.9104306944
 30
0.0
 10
14.8434986237
 20
10.9250826069
 30
0.0
 10
14.8392636562
 20
10.9391640786
 30
0.0
 10
14.8348938839
 20
10.9526640874
 30
0.0
 10
14.8303926144
 20
10.965572056
 30
0.0
 10
14.8257635353
 20
10.9778779132
 30
0.0
 10
14.8210100996
 20
10.9895720929
 30
0.0
 10
14.816136249
 20
11.0006453668
 30
0.0
 10
14.8127339024
 20
11.0077653486
 30
0.0
 10
14.8110103474
 20
11.0112162158
 30
0.0
  0
SPLINE
  5
386
100
AcDbEntity
  8
0
100
AcDbSpline
 62
7
  6
CONTINUOUS
 70
0
 71
3
 72
56
 73
52
 74
0
 42
0.0000001
 43
0.0000001
 44
0.0000000001
 40
0.0
 40
0.0
 40
0.0
 40
0.0
 40
0.014971274
 40
0.029945606
 40
0.0449260369
 40
0.0599155706
 40
0.0749171531
 40
0.0899336598
 40
0.104967875
 40
0.1200224737
 40
0.1351000117
 40
0.1502029057
 40
0.1653334193
 40
0.1804936563
 40
0.1956855421
 40
0.2109108165
 40
0.2261710283
 40
0.2414675198
 40
0.2568014272
 40
0.2721736755
 40
0.2875849674
 40
0.3030357913
 40
0.3185264144
 40
0.3340568802
 40
0.3496270191
 40
0.3652364417
 40
0.3808845461
 40
0.3965705269
 40
0.4122933718
 40
0.4280518765
 40
0.4438446507
 40
0.4596701209
 40
0.4755265482
 40
0.4914120331
 40
0.5073245245
 40
0.5232618381
 40
0.5551966919
 40
0.5872017075
 40
0.6192556772
 40
0.6513364178
 40
0.6834212138
 40
0.7154872687
 40
0.7475121591
 40
0.7794742806
 40
0.811353285
 40
0.8431305
 40
0.8747893191
 40
0.9063155631
 40
0.9376978538
 40
0.9689275324
 40
1.0
 40
1.0
 40
1.0
 40
1.0
 10
12.2866577552
 20
8.2531507225
 30
0.0
 10
12.2795152251
 20
8.2462515444
 30
0.0
 10
12.2649527855
 20
8.2327341714
 30
0.0
 10
12.2423181662
 20
8.2133400758
 30
0.0
 10
12.2189214792
 20
8.194852173
 30
0.0
 10
12.1947952566
 20
8.1772964699
 30
0.0
 10
12.1699726363
 20
8.1606969456
 30
0.0
 10
12.1444878476
 20
8.1450764053
 30
0.0
 10
12.1183758739
 20
8.1304564671
 30
0.0
 10
12.0916727291
 20
8.1168571143
 30
0.0
 10
12.0644151497
 20
8.1042970574
 30
0.0
 10
12.0366406031
 20
8.0927936717
 30
0.0
 10
12.0083873757
 20
8.0823626117
 30
0.0
 10
11.9796943076
 20
8.0730182995
 30
0.0
 10
11.9506008755
 20
8.0647736044
 30
0.0
 10
11.9211471445
 20
8.0576397098
 30
0.0
 10
11.8913736003
 20
8.0516265527
 30
0.0
 10
11.86132122
 20
8.0467423246
 30
0.0
 10
11.8310313512
 20
8.0429936408
 30
0.0
 10
11.8005456399
 20
8.0403857955
 30
0.0
 10
11.7699060319
 20
8.0389222177
 30
0.0
 10
11.7391546603
 20
8.0386049009
 30
0.0
 10
11.7083338188
 20
8.0394343815
 30
0.0
 10
11.6774858866
 20
8.0414093314
 30
0.0
 10
11.6466532827
 20
8.0445270976
 30
0.0
 10
11.6158784115
 20
8.0487834152
 30
0.0
 10
11.5852035637
 20
8.0541722684
 30
0.0
 10
11.554670935
 20
8.0606863667
 30
0.0
 10
11.5243224969
 20
8.0683166889
 30
0.0
 10
11.4941999446
 20
8.0770526426
 30
0.0
 10
11.4643447307
 20
8.0868823543
 30
0.0
 10
11.4347978682
 20
8.0977921721
 30
0.0
 10
11.4055999342
 20
8.109767097
 30
0.0
 10
11.3767912282
 20
8.1227906993
 30
0.0
 10
11.3484108622
 20
8.1368451872
 30
0.0
 10
11.31117318
 20
8.1569441195
 30
0.0
 10
11.2658947708
 20
8.1845489209
 30
0.0
 10
11.2139279399
 20
8.2214279927
 30
0.0
 10
11.1645681452
 20
8.2618847149
 30
0.0
 10
11.1180880838
 20
8.3056959693
 30
0.0
 10
11.0747423983
 20
8.3526215462
 30
0.0
 10
11.0347691191
 20
8.4024037816
 30
0.0
 10
10.9983876845
 20
8.4547694963
 30
0.0
 10
10.9657980022
 20
8.5094313751
 30
0.0
 10
10.9371792451
 20
8.5660895112
 30
0.0
 10
10.9126887878
 20
8.6244329495
 30
0.0
 10
10.8924615029
 20
8.6841416024
 30
0.0
 10
10.8766089972
 20
8.7448874572
 30
0.0
 10
10.865218992
 20
8.8063380822
 30
0.0
 10
10.8583544236
 20
8.8681516723
 30
0.0
 10
10.856816922
 20
8.909492679
 30
0.0
 10
10.856816922
 20
8.9301031133
 30
0.0
  0
SPLINE
  5
387
100
AcDbEntity
  8
0
100
AcDbSpline
 62
7
  6
CONTINUOUS
 70
0
 71
3
 72
54
 73
50
 74
0
 42
0.0000001
 43
0.0000001
 44
0.0000000001
 40
0.0
 40
0.0
 40
0.0
 40
0.0
 40
0.0149619973
 40
0.0299313383
 40
0.0449108634
 40
0.0599033506
 40
0.0749115064
 40
0.0899379452
 40
0.1049851744
 40
0.1200555867
 40
0.1351514376
 40
0.1502748408
 40
0.1654277556
 40
0.1806119708
 40
0.1958291065
 40
0.211080596
 40
0.2263676837
 40
0.2416914232
 40
0.2570526627
 40
0.2724520537
 40
0.2878900417
 40
0.3033668646
 40
0.3188825615
 40
0.3344369612
 40
0.3500296963
 40
0.3656602015
 40
0.3813277139
 40
0.3970312893
 40
0.4285371084
 40
0.4601714439
 40
0.4919206529
 40
0.5237688454
 40
0.5556982147
 40
0.5876893943
 40
0.619721837
 40
0.6517742116
 40
0.6838248094
 40
0.7158519556
 40
0.7478344192
 40
0.7797518193
 40
0.8115850187
 40
0.8433165
 40
0.8749307183
 40
0.8906920254
 40
0.9064192472
 40
0.9221111659
 40
0.9377667345
 40
0.968960095
 40
1.0
 40
1.0
 40
1.0
 40
1.0
 10
12.2857656844
 20
8.2541334725
 30
0.0
 10
12.278399145
 20
8.247819978
 30
0.0
 10
12.2634156597
 20
8.2354746139
 30
0.0
 10
12.2402337657
 20
8.2178372206
 30
0.0
 10
12.2163697696
 20
8.2010990783
 30
0.0
 10
12.1918555106
 20
8.1852824284
 30
0.0
 10
12.166723066
 20
8.1704078828
 30
0.0
 10
12.1410053734
 20
8.1564951319
 30
0.0
 10
12.1147362864
 20
8.1435622222
 30
0.0
 10
12.0879502131
 20
8.1316262567
 30
0.0
 10
12.0606823297
 20
8.1207028565
 30
0.0
 10
12.0329684607
 20
8.1108062322
 30
0.0
 10
12.0048449103
 20
8.10194955
 30
0.0
 10
11.9763486494
 20
8.0941442166
 30
0.0
 10
11.9475170398
 20
8.0874005506
 30
0.0
 10
11.91838791
 20
8.081727422
 30
0.0
 10
11.8889995065
 20
8.0771320885
 30
0.0
 10
11.8593903545
 20
8.0736207697
 30
0.0
 10
11.8295993211
 20
8.0711978871
 30
0.0
 10
11.7996654782
 20
8.0698666287
 30
0.0
 10
11.7696280915
 20
8.0696288305
 30
0.0
 10
11.7395265592
 20
8.0704845827
 30
0.0
 10
11.7094003637
 20
8.0724329381
 30
0.0
 10
11.6792890222
 20
8.0754712136
 30
0.0
 10
11.6492319812
 20
8.0795953757
 30
0.0
 10
11.6192688047
 20
8.0848001198
 30
0.0
 10
11.5894382923
 20
8.0910785461
 30
0.0
 10
11.5498552601
 20
8.1008797939
 30
0.0
 10
11.5009023009
 20
8.1157804831
 30
0.0
 10
11.4433843316
 20
8.1377686996
 30
0.0
 10
11.3873198012
 20
8.1637703616
 30
0.0
 10
11.3330041511
 20
8.1936484827
 30
0.0
 10
11.2807211289
 20
8.2272464449
 30
0.0
 10
11.2307445365
 20
8.2643881154
 30
0.0
 10
11.1833359089
 20
8.3048788866
 30
0.0
 10
11.1387433836
 20
8.3485066467
 30
0.0
 10
11.0972004022
 20
8.395042958
 30
0.0
 10
11.0589245158
 20
8.4442442036
 30
0.0
 10
11.0241162442
 20
8.4958529081
 30
0.0
 10
10.9929580011
 20
8.5495987857
 30
0.0
 10
10.9656130146
 20
8.6052010496
 30
0.0
 10
10.9422252796
 20
8.6623667313
 30
0.0
 10
10.9261172874
 20
8.7111151227
 30
0.0
 10
10.9153288123
 20
8.7505923289
 30
0.0
 10
10.9083006587
 20
8.7803741777
 30
0.0
 10
10.9023378543
 20
8.8103175811
 30
0.0
 10
10.8958269117
 20
8.8503523757
 30
0.0
 10
10.8903763799
 20
8.9006078126
 30
0.0
 10
10.8889104566
 20
8.9409757724
 30
0.0
 10
10.8889104566
 20
8.961103089
 30
0.0
  0
SPLINE
  5
388
100
AcDbEntity
  8
0
100
AcDbSpline
 62
7
  6
CONTINUOUS
 70
0
 71
3
 72
54
 73
50
 74
0
 42
0.0000001
 43
0.0000001
 44
0.0000000001
 40
0.0
 40
0.0
 40
0.0
 40
0.0
 40
0.0149714207
 40
0.0299458999
 40
0.0449264793
 40
0.0599161604
 40
0.0749178913
 40
0.0899345475
 40
0.1049689107
 40
0.1200236594
 40
0.1351013478
 40
0.1502043907
 40
0.1653350561
 40
0.180495444
 40
0.1956874801
 40
0.2109129079
 40
0.2261732709
 40
0.2414699147
 40
0.2568039766
 40
0.2721763764
 40
0.287587823
 40
0.3030388016
 40
0.3185295773
 40
0.3340601996
 40
0.3496304929
 40
0.3652400701
 40
0.3808883319
 40
0.3965744671
 40
0.4122974687
 40
0.4280561307
 40
0.4438490599
 40
0.4596746883
 40
0.4914119508
 40
0.5232571585
 40
0.5551923278
 40
0.5871976583
 40
0.6192519434
 40
0.6513329994
 40
0.6834181104
 40
0.71548448
 40
0.7475096843
 40
0.7794721186
 40
0.8113514354
 40
0.8431289619
 40
0.8747880915
 40
0.9063146418
 40
0.937697247
 40
0.9689272244
 40
1.0
 40
1.0
 40
1.0
 40
1.0
 10
12.2955104186
 20
8.3270471559
 30
0.0
 10
12.2887577852
 20
8.3205246035
 30
0.0
 10
12.2749901928
 20
8.3077452385
 30
0.0
 10
12.2535911709
 20
8.28940985
 30
0.0
 10
12.2314715993
 20
8.2719312854
 30
0.0
 10
12.2086623371
 20
8.2553340187
 30
0.0
 10
12.1851947465
 20
8.2396406562
 30
0.0
 10
12.1611010551
 20
8.2248729668
 30
0.0
 10
12.1364144805
 20
8.2110511599
 30
0.0
 10
12.1111690087
 20
8.1981942171
 30
0.0
 10
12.0853993177
 20
8.1863199551
 30
0.0
 10
12.059140951
 20
8.1754445278
 30
0.0
 10
12.0324299987
 20
8.1655829773
 30
0.0
 10
12.0053032125
 20
8.1567488842
 30
0.0
 10
11.9777979603
 20
8.1489542404
 30
0.0
 10
11.9499520372
 20
8.1422099212
 30
0.0
 10
11.9218037842
 20
8.1365250789
 30
0.0
 10
11.8933919253
 20
8.131907477
 30
0.0
 10
11.8647555234
 20
8.1283635981
 30
0.0
 10
11.8359339917
 20
8.1258981123
 30
0.0
 10
11.8069669586
 20
8.1245144856
 30
0.0
 10
11.7778942675
 20
8.1242146341
 30
0.0
 10
11.7487558979
 20
8.1249987986
 30
0.0
 10
11.7195919237
 20
8.1268660532
 30
0.0
 10
11.6904424452
 20
8.1298137073
 30
0.0
 10
11.6613475332
 20
8.1338376486
 30
0.0
 10
11.6323472134
 20
8.1389324781
 30
0.0
 10
11.6034813349
 20
8.1450909916
 30
0.0
 10
11.5747895659
 20
8.1523048086
 30
0.0
 10
11.5463114809
 20
8.1605639782
 30
0.0
 10
11.5180857491
 20
8.1698571891
 30
0.0
 10
11.48080915
 20
8.1836210946
 30
0.0
 10
11.4350393739
 20
8.203351049
 30
0.0
 10
11.3817980352
 20
8.2308986697
 30
0.0
 10
11.3304701096
 20
8.2621920583
 30
0.0
 10
11.2813391164
 20
8.2970585054
 30
0.0
 10
11.2346741206
 20
8.3353066371
 30
0.0
 10
11.1907313613
 20
8.3767264017
 30
0.0
 10
11.1497519292
 20
8.4210903845
 30
0.0
 10
11.1119607648
 20
8.4681550788
 30
0.0
 10
11.0775653913
 20
8.5176622281
 30
0.0
 10
11.0467548121
 20
8.5693402107
 30
0.0
 10
11.0196983443
 20
8.622905447
 30
0.0
 10
10.99654481
 20
8.6780639839
 30
0.0
 10
10.9774217412
 20
8.7345132121
 30
0.0
 10
10.9624346368
 20
8.7919430239
 30
0.0
 10
10.9516664113
 20
8.8500391226
 30
0.0
 10
10.945176574
 20
8.9084783751
 30
0.0
 10
10.9437230078
 20
8.9475626168
 30
0.0
 10
10.9437230078
 20
8.967047951
 30
0.0
  0
SPLINE
  5
389
100
AcDbEntity
  8
0
100
AcDbSpline
 62
7
  6
CONTINUOUS
 70
0
 71
3
 72
52
 73
48
 74
0
 42
0.0000001
 43
0.0000001
 44
0.0000000001
 40
0.0
 40
0.0
 40
0.0
 40
0.0
 40
0.0149610471
 40
0.029930214
 40
0.0449103006
 40
0.0599040411
 40
0.074914092
 40
0.0899430187
 40
0.104993275
 40
0.1200671974
 40
0.1351669876
 40
0.1502946995
 40
0.1654522359
 40
0.1806413286
 40
0.1958635382
 40
0.2111202446
 40
0.2264126346
 40
0.2417417088
 40
0.2571082651
 40
0.2725129032
 40
0.2879560242
 40
0.3034378205
 40
0.3189582897
 40
0.3345172248
 40
0.3501142212
 40
0.3657486843
 40
0.3814198232
 40
0.3971266686
 40
0.4286379342
 40
0.4602760954
 40
0.4920274469
 40
0.5238760918
 40
0.5558042671
 40
0.5877926958
 40
0.6198209608
 40
0.6518678955
 40
0.6839119828
 40
0.7159317588
 40
0.7479062163
 40
0.7798152025
 40
0.8116398046
 40
0.8433627191
 40
0.8749685974
 40
0.9064443544
 40
0.9377795441
 40
0.9689661463
 40
1.0
 40
1.0
 40
1.0
 40
1.0
 10
12.3295790315
 20
8.3624203255
 30
0.0
 10
12.3225789017
 20
8.3565561595
 30
0.0
 10
12.3083467189
 20
8.3450939058
 30
0.0
 10
12.2863449862
 20
8.3287323985
 30
0.0
 10
12.2637124503
 20
8.3132191583
 30
0.0
 10
12.2404788948
 20
8.2985748082
 30
0.0
 10
12.2166745379
 20
8.2848181213
 30
0.0
 10
12.1923302738
 20
8.2719671723
 30
0.0
 10
12.167477815
 20
8.2600385637
 30
0.0
 10
12.1421494975
 20
8.2490477648
 30
0.0
 10
12.1163782053
 20
8.2390092002
 30
0.0
 10
12.0901975316
 20
8.2299357126
 30
0.0
 10
12.0636414673
 20
8.2218392405
 30
0.0
 10
12.0367445685
 20
8.2147302423
 30
0.0
 10
12.0095418264
 20
8.2086178604
 30
0.0
 10
11.9820685746
 20
8.2035102064
 30
0.0
 10
11.9543605719
 20
8.1994136986
 30
0.0
 10
11.9264538187
 20
8.1963337703
 30
0.0
 10
11.8983846005
 20
8.1942744036
 30
0.0
 10
11.8701894099
 20
8.1932381282
 30
0.0
 10
11.8419048913
 20
8.1932264735
 30
0.0
 10
11.8135678111
 20
8.1942392477
 30
0.0
 10
11.7852149952
 20
8.1962751996
 30
0.0
 10
11.7568833091
 20
8.1993317118
 30
0.0
 10
11.7286095202
 20
8.2034046433
 30
0.0
 10
11.7004305132
 20
8.208488846
 30
0.0
 10
11.6723824574
 20
8.2145776846
 30
0.0
 10
11.6351728478
 20
8.2240339492
 30
0.0
 10
11.5891692778
 20
8.2383318995
 30
0.0
 10
11.5351358608
 20
8.2593291313
 30
0.0
 10
11.482485556
 20
8.2840772824
 30
0.0
 10
11.4314933092
 20
8.3124471538
 30
0.0
 10
11.3824231087
 20
8.3442913975
 30
0.0
 10
11.3355296173
 20
8.3794445871
 30
0.0
 10
11.2910560065
 20
8.4177241789
 30
0.0
 10
11.2492329632
 20
8.4589314716
 30
0.0
 10
11.2102774614
 20
8.5028526497
 30
0.0
 10
11.1743916706
 20
8.5492598767
 30
0.0
 10
11.1417618926
 20
8.5979124438
 30
0.0
 10
11.1125575484
 20
8.6485579748
 30
0.0
 10
11.0869303828
 20
8.7009337877
 30
0.0
 10
11.0650136666
 20
8.7547681918
 30
0.0
 10
11.0469215417
 20
8.8097820013
 30
0.0
 10
11.032748282
 20
8.8656895147
 30
0.0
 10
11.0225680334
 20
8.9222015097
 30
0.0
 10
11.0164339559
 20
8.9790208824
 30
0.0
 10
11.0150604485
 20
9.0170123894
 30
0.0
 10
11.0150604485
 20
9.0359546315
 30
0.0
  0
SPLINE
  5
38A
100
AcDbEntity
  8
0
100
AcDbSpline
 62
7
  6
CONTINUOUS
 70
0
 71
3
 72
51
 73
47
 74
0
 42
0.0000001
 43
0.0000001
 44
0.0000000001
 40
0.0
 40
0.0
 40
0.0
 40
0.0
 40
0.0149716491
 40
0.0299463579
 40
0.0449271649
 40
0.0599170755
 40
0.0749190358
 40
0.0899359201
 40
0.1049705142
 40
0.1200254921
 40
0.1351034104
 40
0.150206685
 40
0.16533758
 40
0.1804982002
 40
0.1956904684
 40
0.2109161278
 40
0.2261767248
 40
0.2414736015
 40
0.2568078978
 40
0.2721805325
 40
0.2875922139
 40
0.3030434288
 40
0.3185344409
 40
0.3340653005
 40
0.3496358313
 40
0.365245647
 40
0.396575363
 40
0.4280524198
 40
0.4596664386
 40
0.4914041857
 40
0.523249879
 40
0.5551855359
 40
0.5871913555
 40
0.61924613
 40
0.6513276757
 40
0.6834132767
 40
0.7154801359
 40
0.7475058287
 40
0.7794687512
 40
0.8113485552
 40
0.843126567
 40
0.8747861806
 40
0.9063132067
 40
0.9376963039
 40
0.9689267485
 40
1.0
 40
1.0
 40
1.0
 40
1.0
 10
12.3319736184
 20
8.4734942063
 30
0.0
 10
12.3258846286
 20
8.4676126973
 30
0.0
 10
12.3134701793
 20
8.4560892212
 30
0.0
 10
12.2941742
 20
8.4395558987
 30
0.0
 10
12.2742285469
 20
8.4237951266
 30
0.0
 10
12.2536610198
 20
8.4088289852
 30
0.0
 10
12.2324997684
 20
8.3946780555
 30
0.0
 10
12.2107740569
 20
8.3813616571
 30
0.0
 10
12.1885136615
 20
8.3688982905
 30
0.0
 10
12.1657493028
 20
8.3573049616
 30
0.0
 10
12.1425122936
 20
8.3465976274
 30
0.0
 10
12.118834569
 20
8.336791117
 30
0.0
 10
12.0947487909
 20
8.3278987117
 30
0.0
 10
12.070288026
 20
8.319932836
 30
0.0
 10
12.0454859814
 20
8.3129042944
 30
0.0
 10
12.0203767737
 20
8.3068227437
 30
0.0
 10
11.9949949235
 20
8.3016966577
 30
0.0
 10
11.9693753883
 20
8.2975328572
 30
0.0
 10
11.9435533756
 20
8.2943372598
 30
0.0
 10
11.9175644254
 20
8.2921141092
 30
0.0
 10
11.8914442752
 20
8.2908664361
 30
0.0
 10
11.865228856
 20
8.2905960738
 30
0.0
 10
11.8389541887
 20
8.2913031642
 30
0.0
 10
11.8126565256
 20
8.2929868951
 30
0.0
 10
11.7863715893
 20
8.295644909
 30
0.0
 10
11.7513522165
 20
8.3004881138
 30
0.0
 10
11.7077863556
 20
8.30896613
 30
0.0
 10
11.6562089288
 20
8.3229324956
 30
0.0
 10
11.6055436954
 20
8.3406279602
 30
0.0
 10
11.5560706415
 20
8.3619546775
 30
0.0
 10
11.5080607572
 20
8.3867952486
 30
0.0
 10
11.4617776348
 20
8.4150130152
 30
0.0
 10
11.4174751784
 20
8.4464528362
 30
0.0
 10
11.3753964618
 20
8.4809419506
 30
0.0
 10
11.3357723745
 20
8.5182909546
 30
0.0
 10
11.2988203814
 20
8.558294818
 30
0.0
 10
11.2647433526
 20
8.6007340041
 30
0.0
 10
11.2337283936
 20
8.6453756081
 30
0.0
 10
11.2059458671
 20
8.6919746638
 30
0.0
 10
11.1815484868
 20
8.7402754911
 30
0.0
 10
11.1606704764
 20
8.7900130402
 30
0.0
 10
11.1434268622
 20
8.8409144422
 30
0.0
 10
11.1299126819
 20
8.8927000475
 30
0.0
 10
11.1202027556
 20
8.945086454
 30
0.0
 10
11.1143507306
 20
8.9977822926
 30
0.0
 10
11.1130400257
 20
9.0330253267
 30
0.0
 10
11.1130400257
 20
9.0505956411
 30
0.0
  0
SPLINE
  5
38B
100
AcDbEntity
  8
0
100
AcDbSpline
 62
7
  6
CONTINUOUS
 70
0
 71
3
 72
43
 73
39
 74
0
 42
0.0000001
 43
0.0000001
 44
0.0000000001
 40
0.0
 40
0.0
 40
0.0
 40
0.0
 40
0.0303546533
 40
0.0455762998
 40
0.0608269262
 40
0.0914129705
 40
0.1221164224
 40
0.1375134317
 40
0.1529393846
 40
0.1838739266
 40
0.214919378
 40
0.2460708837
 40
0.2773223494
 40
0.308666524
 40
0.3400950931
 40
0.3715987822
 40
0.4031674683
 40
0.4347902991
 40
0.4664558181
 40
0.498152095
 40
0.5298668594
 40
0.5615876366
 40
0.5933018857
 40
0.6249971377
 40
0.6566611335
 40
0.6882819595
 40
0.7198481816
 40
0.751348975
 40
0.7827742499
 40
0.8141147668
 40
0.8453622619
 40
0.8609502127
 40
0.8765122856
 40
0.9075533163
 40
0.9384830736
 40
0.953906511
 40
0.9693015419
 40
1.0
 40
1.0
 40
1.0
 40
1.0
 10
12.5155291008
 20
8.8316388059
 30
0.0
 10
12.5026980503
 20
8.8299512643
 30
0.0
 10
12.4833552666
 20
8.827962566
 30
0.0
 10
12.4574669438
 20
8.826397063
 30
0.0
 10
12.4314456454
 20
8.8255522079
 30
0.0
 10
12.3987968273
 20
8.8258575786
 30
0.0
 10
12.3661526949
 20
8.8279700699
 30
0.0
 10
12.3400648337
 20
8.830738291
 30
0.0
 10
12.3139646764
 20
8.8342309768
 30
0.0
 10
12.2814434013
 20
8.8399438409
 30
0.0
 10
12.2427459706
 20
8.8489200808
 30
0.0
 10
12.2044554463
 20
8.8599963762
 30
0.0
 10
12.1666894535
 20
8.8731386975
 30
0.0
 10
12.1295630617
 20
8.8883068465
 30
0.0
 10
12.093189633
 20
8.9054544229
 30
0.0
 10
12.057680157
 20
8.9245290082
 30
0.0
 10
12.0231430023
 20
8.9454723158
 30
0.0
 10
11.9896835608
 20
8.9682203647
 30
0.0
 10
11.9574039337
 20
8.9927036748
 30
0.0
 10
11.9264026238
 20
9.0188474845
 30
0.0
 10
11.8967742372
 20
9.0465719771
 30
0.0
 10
11.868609196
 20
9.0757925229
 30
0.0
 10
11.8419934652
 20
9.1064199362
 30
0.0
 10
11.8170082912
 20
9.1383607452
 30
0.0
 10
11.7937299555
 20
9.171517477
 30
0.0
 10
11.7722295441
 20
9.205788947
 30
0.0
 10
11.7525727279
 20
9.2410705877
 30
0.0
 10
11.7348195712
 20
9.2772546795
 30
0.0
 10
11.719024287
 20
9.3142309864
 30
0.0
 10
11.7052353254
 20
9.3518859564
 30
0.0
 10
11.695443201
 20
9.3837628538
 30
0.0
 10
11.6886543495
 20
9.4094877237
 30
0.0
 10
11.6825761084
 20
9.435299311
 30
0.0
 10
11.6762957839
 20
9.4677702244
 30
0.0
 10
11.6717870709
 20
9.5004746931
 30
0.0
 10
11.6692600889
 20
9.526682192
 30
0.0
 10
11.6674568763
 20
9.5528498476
 30
0.0
 10
11.6669123251
 20
9.5725071044
 30
0.0
 10
11.6669123251
 20
9.5855952313
 30
0.0
  0
SPLINE
  5
38C
100
AcDbEntity
  8
0
100
AcDbSpline
 62
7
  6
CONTINUOUS
 70
0
 71
3
 72
61
 73
57
 74
0
 42
0.0000001
 43
0.0000001
 44
0.0000000001
 40
0.0
 40
0.0
 40
0.0
 40
0.0
 40
0.041773683
 40
0.0840361744
 40
0.126657356
 40
0.1695049536
 40
0.2124461739
 40
0.255347734
 40
0.2980765393
 40
0.3405001682
 40
0.3824874064
 40
0.4239087759
 40
0.4646370687
 40
0.5045478875
 40
0.5435201962
 40
0.5814368877
 40
0.5999642174
 40
0.6181858165
 40
0.6360884225
 40
0.6536591429
 40
0.6708854449
 40
0.6877552479
 40
0.7042568506
 40
0.7203790744
 40
0.7361111744
 40
0.7514429752
 40
0.7663648323
 40
0.7808677049
 40
0.7949432137
 40
0.8085836306
 40
0.8217820383
 40
0.8345322654
 40
0.8468291079
 40
0.8586682842
 40
0.8700466517
 40
0.8809622685
 40
0.8914145636
 40
0.9014045599
 40
0.9109350136
 40
0.9200108095
 40
0.9286391477
 40
0.9368300847
 40
0.9445968849
 40
0.951956666
 40
0.9589309937
 40
0.9655465745
 40
0.9718360038
 40
0.977838309
 40
0.9807467497
 40
0.9836012173
 40
0.9864085083
 40
0.9891758169
 40
0.9919106779
 40
0.9946209207
 40
0.9973146171
 40
1.0
 40
1.0
 40
1.0
 40
1.0
 10
15.2810745091
 20
7.4983118886
 30
0.0
 10
15.2810745091
 20
7.4733316075
 30
0.0
 10
15.2806847918
 20
7.4230779571
 30
0.0
 10
15.2789619069
 20
7.3473549829
 30
0.0
 10
15.2761023569
 20
7.271023644
 30
0.0
 10
15.2721154996
 20
7.1943365469
 30
0.0
 10
15.2670145191
 20
7.1175474624
 30
0.0
 10
15.2608162732
 20
7.0409104144
 30
0.0
 10
15.2535412945
 20
6.964678955
 30
0.0
 10
15.2452136988
 20
6.8891052768
 30
0.0
 10
15.2358611135
 20
6.814439385
 30
0.0
 10
15.2255145881
 20
6.7409282543
 30
0.0
 10
15.2142084911
 20
6.6688150279
 30
0.0
 10
15.2019804057
 20
6.5983381137
 30
0.0
 10
15.1888709718
 20
6.529730711
 30
0.0
 10
15.1771602259
 20
6.4738836657
 30
0.0
 10
15.1673705256
 20
6.4303201471
 30
0.0
 10
15.1598921875
 20
6.3985055789
 30
0.0
 10
15.152227616
 20
6.3673241185
 30
0.0
 10
15.1443831576
 20
6.3368015303
 30
0.0
 10
15.1363652768
 20
6.3069630657
 30
0.0
 10
15.1281806894
 20
6.2778333904
 30
0.0
 10
15.1198361007
 20
6.2494365948
 30
0.0
 10
15.1113385151
 20
6.2217961416
 30
0.0
 10
15.1026949051
 20
6.1949348794
 30
0.0
 10
15.0939124926
 20
6.1688749914
 30
0.0
 10
15.0849985346
 20
6.1436380007
 30
0.0
 10
15.0759604138
 20
6.1192447393
 30
0.0
 10
15.0668056633
 20
6.0957153231
 30
0.0
 10
15.0575417964
 20
6.0730691633
 30
0.0
 10
15.0481765791
 20
6.051324893
 30
0.0
 10
15.0387176554
 20
6.0305004283
 30
0.0
 10
15.0291729439
 20
6.0106128559
 30
0.0
 10
15.0195502381
 20
5.9916785142
 30
0.0
 10
15.0098575106
 20
5.9737128922
 30
0.0
 10
15.0001027031
 20
5.9567306669
 30
0.0
 10
14.9902937528
 20
5.9407456845
 30
0.0
 10
14.9804386957
 20
5.9257708859
 30
0.0
 10
14.9705453575
 20
5.9118184336
 30
0.0
 10
14.9606217374
 20
5.8988994956
 30
0.0
 10
14.9506754768
 20
5.8870245215
 30
0.0
 10
14.9407143215
 20
5.8762029593
 30
0.0
 10
14.9307456343
 20
5.8664435868
 30
0.0
 10
14.920776649
 20
5.8577543569
 30
0.0
 10
14.9108143995
 20
5.8501426414
 30
0.0
 10
14.9008653482
 20
5.8436153605
 30
0.0
 10
14.8909370267
 20
5.8381792749
 30
0.0
 10
14.8825983645
 20
5.8345259526
 30
0.0
 10
14.8759634873
 20
5.8321783558
 30
0.0
 10
14.8710505319
 20
5.8307117675
 30
0.0
 10
14.8661501913
 20
5.8295215349
 30
0.0
 10
14.8612634462
 20
5.8286078958
 30
0.0
 10
14.8563914214
 20
5.8279711519
 30
0.0
 10
14.8515351586
 20
5.8276116017
 30
0.0
 10
14.846696008
 20
5.8275293397
 30
0.0
 10
14.8434798996
 20
5.8276594652
 30
0.0
 10
14.8418779133
 20
5.8277705702
 30
0.0
  0
SPLINE
  5
38D
100
AcDbEntity
  8
0
100
AcDbSpline
 62
7
  6
CONTINUOUS
 70
0
 71
3
 72
43
 73
39
 74
0
 42
0.0000001
 43
0.0000001
 44
0.0000000001
 40
0.0
 40
0.0
 40
0.0
 40
0.0
 40
0.0303720674
 40
0.0456023289
 40
0.0608614746
 40
0.0914641528
 40
0.1221834091
 40
0.1375879069
 40
0.1530210521
 40
0.183969021
 40
0.2150264207
 40
0.2461882512
 40
0.2774483092
 40
0.3087992706
 40
0.3402327842
 40
0.3717395734
 40
0.4033095463
 40
0.4349319123
 40
0.4665953037
 40
0.4982879033
 40
0.529997574
 40
0.5617119927
 40
0.5934187849
 40
0.6251056597
 40
0.6567605436
 40
0.688371713
 40
0.719927923
 40
0.7356833926
 40
0.7514211919
 40
0.7828362907
 40
0.8141668042
 40
0.8454046212
 40
0.8765426362
 40
0.9075750392
 40
0.938496777
 40
0.9539165033
 40
0.9693080603
 40
1.0
 40
1.0
 40
1.0
 40
1.0
 10
12.5153302965
 20
8.8892894987
 30
0.0
 10
12.5033377579
 20
8.887856547
 30
0.0
 10
12.4852657887
 20
8.8862104792
 30
0.0
 10
12.4610904527
 20
8.8850220511
 30
0.0
 10
12.4367990993
 20
8.8845020839
 30
0.0
 10
12.4063354654
 20
8.8851135493
 30
0.0
 10
12.375893703
 20
8.8873978584
 30
0.0
 10
12.3515757496
 20
8.8902230879
 30
0.0
 10
12.3272532979
 20
8.8937192584
 30
0.0
 10
12.2969588482
 20
8.8993352927
 30
0.0
 10
12.2609279369
 20
8.9080351469
 30
0.0
 10
12.225291817
 20
8.9186757994
 30
0.0
 10
12.1901585361
 20
8.9312250213
 30
0.0
 10
12.1556337431
 20
8.9456449218
 30
0.0
 10
12.1218214775
 20
8.9618919621
 30
0.0
 10
12.0888235636
 20
8.9799171224
 30
0.0
 10
12.0567393864
 20
8.9996660398
 30
0.0
 10
12.0256655736
 20
9.0210791745
 30
0.0
 10
11.9956957129
 20
9.0440919872
 30
0.0
 10
11.9669200713
 20
9.0686351322
 30
0.0
 10
11.9394253259
 20
9.0946346671
 30
0.0
 10
11.9132942923
 20
9.1220122551
 30
0.0
 10
11.8886056771
 20
9.1506854315
 30
0.0
 10
11.8654338789
 20
9.1805677872
 30
0.0
 10
11.8438486375
 20
9.2115694705
 30
0.0
 10
11.8239153028
 20
9.2435965453
 30
0.0
 10
11.8087220053
 20
9.2710759836
 30
0.0
 10
11.7974520839
 20
9.2934755025
 30
0.0
 10
11.7867916899
 20
9.3161094083
 30
0.0
 10
11.7745995541
 20
9.3448561311
 30
0.0
 10
11.7618215561
 20
9.3799954721
 30
0.0
 10
11.7509424788
 20
9.4156537672
 30
0.0
 10
11.7419953823
 20
9.4517232246
 30
0.0
 10
11.7350074351
 20
9.4880945904
 30
0.0
 10
11.7308302183
 20
9.5185947477
 30
0.0
 10
11.7284891233
 20
9.5430345371
 30
0.0
 10
11.7268185681
 20
9.5674370942
 30
0.0
 10
11.7263140881
 20
9.5857678856
 30
0.0
 10
11.7263140881
 20
9.5979729317
 30
0.0
  0
SPLINE
  5
38E
100
AcDbEntity
  8
0
100
AcDbSpline
 62
7
  6
CONTINUOUS
 70
0
 71
3
 72
23
 73
19
 74
0
 42
0.0000001
 43
0.0000001
 44
0.0000000001
 40
0.0
 40
0.0
 40
0.0
 40
0.0
 40
0.0735879209
 40
0.1462293894
 40
0.2177941872
 40
0.2881645776
 40
0.3572209087
 40
0.4248475418
 40
0.4909324949
 40
0.5553672472
 40
0.6180475778
 40
0.6788738212
 40
0.7377511937
 40
0.7945903133
 40
0.8493078608
 40
0.9018270429
 40
0.952078245
 40
1.0
 40
1.0
 40
1.0
 40
1.0
 10
14.7971344696
 20
10.408540693
 30
0.0
 10
14.7971344696
 20
10.4196360607
 30
0.0
 10
14.7970082279
 20
10.4416843198
 30
0.0
 10
14.7964329823
 20
10.474518387
 30
0.0
 10
14.7954739436
 20
10.5068582268
 30
0.0
 10
14.7941330139
 20
10.5386434851
 30
0.0
 10
14.7924126439
 20
10.5698158475
 30
0.0
 10
14.7903160832
 20
10.6003175892
 30
0.0
 10
14.7878472634
 20
10.6300923641
 30
0.0
 10
14.7850107711
 20
10.6590851866
 30
0.0
 10
14.7818119219
 20
10.6872425129
 30
0.0
 10
14.7782567097
 20
10.7145123777
 30
0.0
 10
14.7743517733
 20
10.7408444609
 30
0.0
 10
14.7701043883
 20
10.7661902085
 30
0.0
 10
14.7655225223
 20
10.7905029126
 30
0.0
 10
14.7606147244
 20
10.8137379113
 30
0.0
 10
14.7553902066
 20
10.8358522427
 30
0.0
 10
14.7516113792
 20
10.8501663051
 30
0.0
 10
14.7496641209
 20
10.8571244679
 30
0.0
  0
SPLINE
  5
38F
100
AcDbEntity
  8
0
100
AcDbSpline
 62
7
  6
CONTINUOUS
 70
0
 71
3
 72
39
 73
35
 74
0
 42
0.0000001
 43
0.0000001
 44
0.0000000001
 40
0.0
 40
0.0
 40
0.0
 40
0.0
 40
0.0307219217
 40
0.0615350692
 40
0.0924369177
 40
0.1234242547
 40
0.1544932092
 40
0.1856392984
 40
0.2168574598
 40
0.2481420849
 40
0.2794870753
 40
0.3108858912
 40
0.3423315924
 40
0.3738168946
 40
0.4053342312
 40
0.4368758009
 40
0.4684336224
 40
0.4999996026
 40
0.5315655899
 40
0.5631234274
 40
0.5946650197
 40
0.6261823925
 40
0.6576677414
 40
0.6891134943
 40
0.7205123724
 40
0.7518574371
 40
0.7831421408
 40
0.8143603846
 40
0.8455065714
 40
0.876575631
 40
0.9075630434
 40
0.9384650515
 40
0.9692783283
 40
1.0
 40
1.0
 40
1.0
 40
1.0
 10
12.493940111
 20
9.0222741206
 30
0.0
 10
12.4840242356
 20
9.0234867024
 30
0.0
 10
12.4642140344
 20
9.026355204
 30
0.0
 10
12.4346755762
 20
9.0319654306
 30
0.0
 10
12.4053254619
 20
9.0388788163
 30
0.0
 10
12.376223072
 20
9.0470814738
 30
0.0
 10
12.3474262766
 20
9.0565569317
 30
0.0
 10
12.3189926052
 20
9.0672862175
 30
0.0
 10
12.2909788288
 20
9.079247962
 30
0.0
 10
12.2634408617
 20
9.0924182313
 30
0.0
 10
12.2364336373
 20
9.1067706509
 30
0.0
 10
12.2100110745
 20
9.1222765856
 30
0.0
 10
12.1842259459
 20
9.1389051182
 30
0.0
 10
12.1591296675
 20
9.1566229617
 30
0.0
 10
12.1347723193
 20
9.1753947335
 30
0.0
 10
12.1112025704
 20
9.1951830223
 30
0.0
 10
12.0884674429
 20
9.2159482891
 30
0.0
 10
12.0666122756
 20
9.2376490395
 30
0.0
 10
12.0456807244
 20
9.2602419911
 30
0.0
 10
12.0257146154
 20
9.2836820801
 30
0.0
 10
12.0067537394
 20
9.30792246
 30
0.0
 10
11.9888359475
 20
9.3329147523
 30
0.0
 10
11.97199709
 20
9.3586091259
 30
0.0
 10
11.9562707522
 20
9.3849542659
 30
0.0
 10
11.9416882975
 20
9.411897568
 30
0.0
 10
11.9282789023
 20
9.4393852851
 30
0.0
 10
11.9160693978
 20
9.4673625675
 30
0.0
 10
11.9050840995
 20
9.4957735378
 30
0.0
 10
11.8953449714
 20
9.5245614916
 30
0.0
 10
11.8868715835
 20
9.5536689988
 30
0.0
 10
11.8796808012
 20
9.5830378934
 30
0.0
 10
11.873787011
 20
9.6126097453
 30
0.0
 10
11.869202133
 20
9.642324639
 30
0.0
 10
11.8670208193
 20
9.6622221923
 30
0.0
 10
11.8661520225
 20
9.6721740016
 30
0.0
  0
SPLINE
  5
390
100
AcDbEntity
  8
0
100
AcDbSpline
 62
7
  6
CONTINUOUS
 70
0
 71
3
 72
23
 73
19
 74
0
 42
0.0000001
 43
0.0000001
 44
0.0000000001
 40
0.0
 40
0.0
 40
0.0
 40
0.0
 40
0.0437669965
 40
0.0892960147
 40
0.1368202996
 40
0.1865451094
 40
0.2386490174
 40
0.2932831853
 40
0.350577032
 40
0.410643653
 40
0.4735781597
 40
0.5394606065
 40
0.6083627861
 40
0.6803466303
 40
0.7554636272
 40
0.8337563934
 40
0.915259432
 40
1.0
 40
1.0
 40
1.0
 40
1.0
 10
10.4020973555
 20
6.5591238679
 30
0.0
 10
10.4020970879
 20
6.5599263689
 30
0.0
 10
10.4021723807
 20
6.5615644585
 30
0.0
 10
10.4024991738
 20
6.5640543991
 30
0.0
 10
10.403041754
 20
6.5666180463
 30
0.0
 10
10.4037999202
 20
6.5692517231
 30
0.0
 10
10.4047733328
 20
6.5719524041
 30
0.0
 10
10.4059618399
 20
6.574717064
 30
0.0
 10
10.4073652861
 20
6.5775428379
 30
0.0
 10
10.4089831737
 20
6.5804271818
 30
0.0
 10
10.4108151311
 20
6.5833676396
 30
0.0
 10
10.4128609012
 20
6.5863618009
 30
0.0
 10
10.4151199005
 20
6.5894076417
 30
0.0
 10
10.4175915339
 20
6.5925033368
 30
0.0
 10
10.4202753088
 20
6.5956470197
 30
0.0
 10
10.4231704876
 20
6.5988370201
 30
0.0
 10
10.4262759733
 20
6.6020719426
 30
0.0
 10
10.428443506
 20
6.6042156794
 30
0.0
 10
10.4295610712
 20
6.6052951646
 30
0.0
  0
ENDSEC
  0
SECTION
  2
OBJECTS
  0
DICTIONARY
  5
C
100
AcDbDictionary
280
0
281
1
  3
ACAD_GROUP
350
D
  3
ACAD_MLINESTYLE
350
17
  3
ACAD_LAYOUT
350
1A
  3
ACAD_PLOTSETTINGS
350
19
  3
ACAD_PLOTSTYLENAME
350
E
  3
ACAD_IMAGE_DICT
350
       392
  3
ACAD_IMAGE_VARS
350
       393
  3
ACAD_TABLESTYLE
350
       394
  0
IMAGEDEF_REACTOR
  5
391
100
AcDbRasterImageDefReactor
 90
2
330
28B
  0
DICTIONARY
  5
D
102
{ACAD_REACTORS
330
C
102
}
100
AcDbDictionary
280
0
281
1
  0
ACDBDICTIONARYWDFLT
  5
E
102
{ACAD_REACTORS
330
C
102
}
100
AcDbDictionary
281
1
  3
Normal
350
F
100
AcDbDictionaryWithDefault
340
F
  0
DICTIONARY
  5
392
330
C
100
AcDbDictionary
281
1
  3
FHF_assy_2_img_1
350
       397
  0
RASTERVARIABLES
  5
393
330
C
100
AcDbRasterVariables
 90
0
 70
0
 71
1
 72
5
  0
DICTIONARY
  5
17
102
{ACAD_REACTORS
330
C
102
}
100
AcDbDictionary
280
0
281
1
  3
Standard
350
18
  0
DICTIONARY
  5
394
330
C
100
AcDbDictionary
281
1
  3
Standard
350
       398
  3
Standard1
350
       399
  0
DICTIONARY
  5
19
102
{ACAD_REACTORS
330
C
102
}
100
AcDbDictionary
281
1
  0
DICTIONARY
  5
1A
102
{ACAD_REACTORS
330
C
102
}
100
AcDbDictionary
281
1
  3
Model
350
395
  3
Layout1
350
396
  0
ACDBPLACEHOLDER
  5
F
102
{ACAD_REACTORS
330
E
102
}
  0
MLINESTYLE
  5
18
102
{ACAD_REACTORS
330
17
102
}
100
AcDbMlineStyle
  2
STANDARD
 70
0
  3

 62
256
 51
90.0
 52
90.0
 71
2
 49
0.5
 62
256
  6
BYLAYER
 49
-0.5
 62
256
  6
BYLAYER
  0
LAYOUT
  5
395
102
{ACAD_REACTORS
330
1A
102
}
100
AcDbPlotSettings
  1

  2
none_device
  4
ANSI_C_(22.00_x_17.00_Inches)
  6

 40
0.0
 41
0.0
 42
0.0
 43
0.0
 44
558.8
 45
431.8
 46
0.0
 47
0.0
 48
0.0
 49
0.0
140
0.0
141
0.0
142
1.0
143
1.0
 70
1024
 72
0
 73
0
 74
0
  7

 75
0
147
1.0
148
0.0
149
0.0
100
AcDbLayout
  1
Model
 70
0
 71
0
 10
0.0
 20
0.0
 11
22.0
 21
17.0
 12
0.0
 22
0.0
 32
0.0
 14
0.0
 24
0.0
 34
0.0
 15
0.0
 25
0.0
 35
0.0
146
0.0
 13
0.0
 23
0.0
 33
0.0
 16
1.0
 26
0.0
 36
0.0
 17
0.0
 27
1.0
 37
0.0
 76
0
330
20C
345
0
346
0
  0
LAYOUT
  5
396
102
{ACAD_REACTORS
330
1A
102
}
100
AcDbPlotSettings
  1

  2
none_device
  4
ANSI_C_(22.00_x_17.00_Inches)
  6

 40
0.0
 41
0.0
 42
0.0
 43
0.0
 44
558.8
 45
431.8
 46
0.0
 47
0.0
 48
0.0
 49
0.0
140
0.0
141
0.0
142
1.0
143
1.0
 70
0
 72
0
 73
0
 74
0
  7

 75
0
147
1.0
148
0.0
149
0.0
100
AcDbLayout
  1
Layout1
 70
0
 71
1
 10
0.0
 20
0.0
 11
22.0
 21
17.0
 12
0.0
 22
0.0
 32
0.0
 14
0.0
 24
0.0
 34
0.0
 15
0.0
 25
0.0
 35
0.0
146
0.0
 13
0.0
 23
0.0
 33
0.0
 16
1.0
 26
0.0
 36
0.0
 17
0.0
 27
1.0
 37
0.0
 76
0
330
20D
345
0
346
0
  0
IMAGEDEF
  5
397
102
{ACAD_REACTORS
330
392
330
391
102
}
100
AcDbRasterImageDef
 90
0
  1
FHF_assy_2_img_1.png
 10
369.0
 20
92.0
 11
0.0066666667
 21
0.0066666667
280
1
281
0
  0
TABLESTYLE
  5
398
102
{ACAD_REACTORS
330
394
330
28E
330
28F
102
}
330
394
100
AcDbTableStyle
  3
Standard
 70
0
 71
0
 40
0.06
 41
0.06
280
1
281
1
  7
Standard
140
0.18
170
1
 62
0
 63
7
283
0
  7
Standard
140
0.18
170
1
 62
0
 63
7
283
0
  7
Standard
140
0.18
170
1
 62
0
 63
7
283
0
  0
TABLESTYLE
  5
399
102
{ACAD_REACTORS
330
394
330
28D
102
}
330
394
100
AcDbTableStyle
  3
Standard1
 70
1
 71
0
 40
0.06
 41
0.06
280
1
281
1
  7
Standard
140
0.18
170
1
 62
0
 63
7
283
0
  7
Standard
140
0.18
170
1
 62
0
 63
7
283
0
  7
Standard
140
0.18
170
1
 62
0
 63
7
283
0
  0
ENDSEC
  0
EOF
