999
DXF file: FHE_assy_2.dxf
999
Pro/ENGINEER 2014200 by Parametric Technology Corporation
  0
SECTION
  2
HEADER
  9
$ACADVER
  1
AC1021
  9
$DWGCODEPAGE
  3
ANSI_1252
  9
$EXTMAX
 10
22.0
 20
17.0
 30
0.0
  9
$EXTMIN
 10
0.0
 20
0.0
 30
0.0
  9
$LIMMIN
 10
0.0
 20
0.0
  9
$LIMMAX
 10
22.0
 20
17.0
  9
$VIEWCTR
 10
11.0
 20
8.5
  9
$VIEWSIZE
 40
17.0
  9
$CLAYER
  8
0
  9
$LTSCALE
 40
1.21
  9
$CELTYPE
  6
BYLAYER
  9
$DIMSCALE
 40
1.0
  9
$DIMASZ
 40
0.1875
  9
$DIMEXO
 40
0.0625
  9
$DIMDLI
 40
0.836
  9
$DIMEXE
 40
0.125
  9
$DIMCEN
 40
0.198
  9
$DIMLFAC
 40
1.0
  9
$DIMBLK
  1
_FILLED
  9
$DIMTXT
 40
0.1
  9
$DIMTOL
 70
0
  9
$DIMLIM
 70
0
  9
$DIMTFAC
 40
1.0
  9
$DIMGAP
 40
0.09
  9
$DIMDSEP
 70
46
  9
$AUNITS
 70
0
  9
$PDMODE
 70
3
  9
$PDSIZE
 40
0.3125
  9
$HANDSEED
  5
39F
  9
$TILEMODE
 70
1
  9
$MEASUREMENT
 70
0
  9
$INSUNITS
 70
1
  0
ENDSEC
  0
SECTION
  2
CLASSES
  0
CLASS
  1
ACDBDICTIONARYWDFLT
  2
AcDbDictionaryWithDefault
  3
AutoCAD 2000
 90
0
 91
1
280
0
281
0
  0
CLASS
  1
ACDBPLACEHOLDER
  2
AcDbPlaceHolder
  3
AutoCAD 2000
 90
0
 91
1
280
0
281
0
  0
CLASS
  1
LAYOUT
  2
AcDbLayout
  3
AutoCAD 2000
 90
0
 91
0
280
0
281
0
  0
CLASS
  1
RASTERVARIABLES
  2
AcDbRasterVariables
  3
ISM
 90
0
 91
1
280
0
281
0
  0
CLASS
  1
IMAGEDEF
  2
AcDbRasterImageDef
  3
ISM
 90
0
 91
1
280
0
281
0
  0
CLASS
  1
IMAGEDEF_REACTOR
  2
AcDbRasterImageDefReactor
  3
ISM
 90
0
 91
1
280
0
281
0
  0
CLASS
  1
IMAGE
  2
AcDbRasterImage
  3
ISM
 90
127
 91
1
280
0
281
1
  0
CLASS
  1
TABLESTYLE
  2
AcDbTableStyle
  3
ObjectDBX Classes
 90
2047
 91
1
280
0
281
0
  0
CLASS
  1
ACAD_TABLE
  2
AcDbTable
  3
ObjectDBX Classes
 90
1025
 91
3
280
0
281
1
  0
ENDSEC
  0
SECTION
  2
TABLES
  0
TABLE
  2
VPORT
  5
8
100
AcDbSymbolTable
 70
2
  0
VPORT
  5
1F4
100
AcDbSymbolTableRecord
100
AcDbViewportTableRecord
  2
*ACTIVE
 70
0
 10
0.0
 20
0.0
 11
1.0
 21
1.0
 12
11.0
 22
8.5
 13
0.0
 23
0.0
 14
1.0
 24
1.0
 15
0.0
 25
0.0
 16
0.0
 26
0.0
 36
1.0
 17
0.0
 27
0.0
 37
0.0
 40
17.0
 41
1.2941176471
 42
50.0
 43
0.0
 44
0.0
 50
0.0
 51
0.0
 71
0
 72
100
 73
1
 74
1
 75
0
 76
0
 77
0
 78
0
  0
ENDTAB
  0
TABLE
  2
LTYPE
  5
5
100
AcDbSymbolTable
 70
6
  0
LTYPE
  5
14
100
AcDbSymbolTableRecord
100
AcDbLinetypeTableRecord
  2
BYBLOCK
 70
0
  3

 72
65
 73
0
 40
0.0
  0
LTYPE
  5
15
100
AcDbSymbolTableRecord
100
AcDbLinetypeTableRecord
  2
BYLAYER
 70
0
  3

 72
65
 73
0
 40
0.0
  0
LTYPE
  5
16
100
AcDbSymbolTableRecord
100
AcDbLinetypeTableRecord
  2
CONTINUOUS
 70
64
  3
Solid line
 72
65
 73
0
 40
0.0
  0
LTYPE
  5
1F5
100
AcDbSymbolTableRecord
100
AcDbLinetypeTableRecord
  2
CENTER
 70
64
  3
____ _ ____ _ ____ _ ____ _ ____ _ ____ _ ____
 72
65
 73
4
 40
0.6
 49
0.375
 74
0
 49
-0.075
 74
0
 49
0.075
 74
0
 49
-0.075
 74
0
  0
LTYPE
  5
1F6
100
AcDbSymbolTableRecord
100
AcDbLinetypeTableRecord
  2
HIDDEN
 70
64
  3
- - - - - - - - - - - - - - - - - - - -
 72
65
 73
2
 40
0.2
 49
0.1
 74
0
 49
-0.1
 74
0
  0
LTYPE
  5
1F7
100
AcDbSymbolTableRecord
100
AcDbLinetypeTableRecord
  2
PHANTOM
 70
64
  3
_____ _ _ _____ _ _ _____ _ _ _____
 72
65
 73
6
 40
0.8
 49
0.45
 74
0
 49
-0.05
 74
0
 49
0.1
 74
0
 49
-0.05
 74
0
 49
0.1
 74
0
 49
-0.05
 74
0
  0
LTYPE
  5
1F8
100
AcDbSymbolTableRecord
100
AcDbLinetypeTableRecord
  2
DOT
 70
64
  3
. . . . . . . . . . . . . . . . . . . .
 72
65
 73
2
 40
0.2
 49
0.1
 74
0
 49
-0.1
 74
0
  0
LTYPE
  5
1F9
100
AcDbSymbolTableRecord
100
AcDbLinetypeTableRecord
  2
DASHED
 70
64
  3
- - - - - - - - - - - - - - - - - - - -
 72
65
 73
2
 40
0.2
 49
0.1
 74
0
 49
-0.1
 74
0
  0
ENDTAB
  0
TABLE
  2
LAYER
  5
2
100
AcDbSymbolTable
 70
36
  0
LAYER
  5
10
100
AcDbSymbolTableRecord
100
AcDbLayerTableRecord
  2
0
 70
0
 62
7
  6
CONTINUOUS
370
-3
390
F
  0
LAYER
  5
1FA
100
AcDbSymbolTableRecord
100
AcDbLayerTableRecord
  2
DEFAULT_1
 70
0
 62
7
  6
CENTER
370
-3
390
F
  0
LAYER
  5
1FB
100
AcDbSymbolTableRecord
100
AcDbLayerTableRecord
  2
DEFAULT_2
 70
0
 62
8
  6
HIDDEN
370
-3
390
F
  0
LAYER
  5
1FC
100
AcDbSymbolTableRecord
100
AcDbLayerTableRecord
  2
DEFAULT_3
 70
0
 62
7
  6
PHANTOM
370
-3
390
F
  0
LAYER
  5
1FD
100
AcDbSymbolTableRecord
100
AcDbLayerTableRecord
  2
01___PRT_ALL_DTM_PLN
 70
0
 62
7
  6
CONTINUOUS
370
-3
390
F
  0
LAYER
  5
1FE
100
AcDbSymbolTableRecord
100
AcDbLayerTableRecord
  2
01___PRT_DEF_DTM_PLN
 70
0
 62
7
  6
CONTINUOUS
370
-3
390
F
  0
LAYER
  5
1FF
100
AcDbSymbolTableRecord
100
AcDbLayerTableRecord
  2
02___PRT_ALL_AXES
 70
0
 62
7
  6
CONTINUOUS
370
-3
390
F
  0
LAYER
  5
200
100
AcDbSymbolTableRecord
100
AcDbLayerTableRecord
  2
03___PRT_ALL_CURVES
 70
0
 62
7
  6
CONTINUOUS
370
-3
390
F
  0
LAYER
  5
201
100
AcDbSymbolTableRecord
100
AcDbLayerTableRecord
  2
04___PRT_ALL_DTM_PNT
 70
0
 62
7
  6
CONTINUOUS
370
-3
390
F
  0
LAYER
  5
202
100
AcDbSymbolTableRecord
100
AcDbLayerTableRecord
  2
05___PRT_ALL_DTM_CSYS
 70
0
 62
7
  6
CONTINUOUS
370
-3
390
F
  0
LAYER
  5
203
100
AcDbSymbolTableRecord
100
AcDbLayerTableRecord
  2
05___PRT_DEF_DTM_CSYS
 70
0
 62
7
  6
CONTINUOUS
370
-3
390
F
  0
LAYER
  5
204
100
AcDbSymbolTableRecord
100
AcDbLayerTableRecord
  2
06___PRT_ALL_SURFS
 70
0
 62
7
  6
CONTINUOUS
370
-3
390
F
  0
LAYER
  5
205
100
AcDbSymbolTableRecord
100
AcDbLayerTableRecord
  2
DATUM_PLANES
 70
0
 62
7
  6
CONTINUOUS
370
-3
390
F
  0
LAYER
  5
206
100
AcDbSymbolTableRecord
100
AcDbLayerTableRecord
  2
PORT_AREAS
 70
0
 62
7
  6
CONTINUOUS
370
-3
390
F
  0
LAYER
  5
207
100
AcDbSymbolTableRecord
100
AcDbLayerTableRecord
  2
SUNNBOMCOSMETIC
 70
0
 62
7
  6
CONTINUOUS
370
-3
390
F
  0
LAYER
  5
208
100
AcDbSymbolTableRecord
100
AcDbLayerTableRecord
  2
SUNNBOMSTAMPING
 70
0
 62
7
  6
CONTINUOUS
370
-3
390
F
  0
LAYER
  5
209
100
AcDbSymbolTableRecord
100
AcDbLayerTableRecord
  2
THREADS
 70
0
 62
7
  6
CONTINUOUS
370
-3
390
F
  0
ENDTAB
  0
TABLE
  2
STYLE
  5
3
100
AcDbSymbolTable
 70
1
  0
STYLE
  5
11
100
AcDbSymbolTableRecord
100
AcDbTextStyleTableRecord
  2
STANDARD
 70
0
 40
0.0
 41
0.8
 50
0.0
 71
0
 42
0.2
  3
txt
  4

  0
STYLE
  5
20A
100
AcDbSymbolTableRecord
100
AcDbTextStyleTableRecord
  2
TEXTSTYLE_1
 70
0
 40
0.0
 41
0.8
 50
0.0
 71
0
 42
0.2
  3
gdt
  4

  0
ENDTAB
  0
TABLE
  2
VIEW
  5
6
100
AcDbSymbolTable
 70
0
  0
ENDTAB
  0
TABLE
  2
UCS
  5
7
100
AcDbSymbolTable
 70
0
  0
ENDTAB
  0
TABLE
  2
APPID
  5
9
100
AcDbSymbolTable
 70
1
  0
APPID
  5
20B
100
AcDbSymbolTableRecord
100
AcDbRegAppTableRecord
  2
ACAD
 70
0
  0
ENDTAB
  0
TABLE
  2
BLOCK_RECORD
  5
1
100
AcDbSymbolTable
 70
0
  0
BLOCK_RECORD
  5
20C
100
AcDbSymbolTableRecord
100
AcDbBlockTableRecord
  2
*Model_Space
  0
BLOCK_RECORD
  5
20D
100
AcDbSymbolTableRecord
100
AcDbBlockTableRecord
  2
*Paper_Space
  0
BLOCK_RECORD
  5
20E
100
AcDbSymbolTableRecord
100
AcDbBlockTableRecord
  2
SUN_FIRST_THIRD_ANGLE_BL0
  0
BLOCK_RECORD
  5
20F
100
AcDbSymbolTableRecord
100
AcDbBlockTableRecord
  2
*T1
  0
BLOCK_RECORD
  5
210
100
AcDbSymbolTableRecord
100
AcDbBlockTableRecord
  2
*T2
  0
BLOCK_RECORD
  5
211
100
AcDbSymbolTableRecord
100
AcDbBlockTableRecord
  2
*T3
  0
ENDTAB
  0
TABLE
  2
DIMSTYLE
  5
A
100
AcDbSymbolTable
 70
1
100
AcDbDimStyleTable
 71
0
  0
DIMSTYLE
105
212
100
AcDbSymbolTableRecord
100
AcDbDimStyleTableRecord
  2
STANDARD
 70
0
  3

  4

 40
1.0
 41
0.1875
 42
0.0625
 43
0.38
 44
0.125
 45
0.0
 46
0.0
 47
0.001
 48
0.001
140
0.1
141
0.09
142
0.0
143
25.4
144
1.0
145
0.0
146
1.0
147
0.09
 71
0.0
 72
0.0
 73
1
 74
1
 75
0
 76
0
 77
0
 78
4
170
0
171
2
172
0
173
0
174
0
175
0
176
0
177
0
178
0
270
2
271
3
272
3
273
2
274
2
275
0
280
0
281
0
282
0
283
1
284
4
285
0
286
0
287
3
288
0
340
11
278
46
  0
ENDTAB
  0
ENDSEC
  0
SECTION
  2
BLOCKS
  0
BLOCK
  5
20
100
AcDbEntity
  8
0
100
AcDbBlockBegin
  2
*Model_Space
 70
0
 10
0.0
 20
0.0
 30
0.0
  3
*Model_Space
  1

  0
ENDBLK
  5
21
100
AcDbEntity
  8
0
100
AcDbBlockEnd
  0
BLOCK
  5
1C
100
AcDbEntity
  8
0
100
AcDbBlockBegin
  2
*Paper_Space
 70
0
 10
0.0
 20
0.0
 30
0.0
  3
*Paper_Space
  1

  0
ENDBLK
  5
1D
100
AcDbEntity
  8
0
100
AcDbBlockEnd
  0
BLOCK
  5
213
100
AcDbEntity
  8
0
100
AcDbBlockBegin
 62
2
  6
CONTINUOUS
  2
SUN_FIRST_THIRD_ANGLE_BL0
 70
64
 10
20.4816717061
 20
1.2289683772
  3
SUN_FIRST_THIRD_ANGLE_BL0
  1

  0
TEXT
  5
214
100
AcDbEntity
  8
0
100
AcDbText
 62
2
  6
CONTINUOUS
 10
19.4750896608
 20
1.4136269581
  7
STANDARD
 40
0.08
  1
FIRST ANGLE
 41
0.8
 72
0
100
AcDbText
  0
TEXT
  5
215
100
AcDbEntity
  8
0
100
AcDbText
 62
2
  6
CONTINUOUS
 10
20.7842537513
 20
1.4047600029
  7
STANDARD
 40
0.08
  1
THIRD ANGLE
 41
0.8
 72
0
100
AcDbText
  0
LINE
  5
216
100
AcDbEntity
  8
0
100
AcDbLine
 62
7
  6
CONTINUOUS
 10
19.4767170086
 20
1.1727031207
 11
19.6334271527
 21
1.1717972817
  0
LINE
  5
217
100
AcDbEntity
  8
0
100
AcDbLine
 62
7
  6
CONTINUOUS
 10
19.6596964832
 20
1.1717972817
 11
19.6950230232
 21
1.171593082
  0
LINE
  5
218
100
AcDbEntity
  8
0
100
AcDbLine
 62
7
  6
CONTINUOUS
 10
19.7194818561
 20
1.1708914427
 11
19.8852396156
 21
1.1699333054
  0
LINE
  5
219
100
AcDbEntity
  8
0
100
AcDbLine
 62
7
  6
CONTINUOUS
 10
19.4758111696
 20
1.2723454088
 11
19.88525039
 21
1.3511534004
  0
LINE
  5
21A
100
AcDbEntity
  8
0
100
AcDbLine
 62
7
  6
CONTINUOUS
 10
19.88525039
 20
1.3511534004
 11
19.8831348489
 21
0.9851647912
  0
LINE
  5
21B
100
AcDbEntity
  8
0
100
AcDbLine
 62
7
  6
CONTINUOUS
 10
19.8831348489
 20
0.9851647912
 11
19.4767170086
 21
1.0658141206
  0
LINE
  5
21C
100
AcDbEntity
  8
0
100
AcDbLine
 62
7
  6
CONTINUOUS
 10
19.4767170086
 20
1.0658141206
 11
19.4779056764
 21
1.2714536432
  0
CIRCLE
  5
21D
100
AcDbEntity
  8
0
100
AcDbCircle
 62
7
  6
CONTINUOUS
 10
20.2068232291
 20
1.1717972817
 40
0.175742101
  0
CIRCLE
  5
21E
100
AcDbEntity
  8
0
100
AcDbCircle
 62
7
  6
CONTINUOUS
 10
20.2068232291
 20
1.1717972817
 40
0.1005522074
  0
LINE
  5
21F
100
AcDbEntity
  8
0
100
AcDbLine
 62
7
  6
CONTINUOUS
 10
20.2077290681
 20
1.3756110529
 11
20.2071171714
 21
1.2379342989
  0
LINE
  5
220
100
AcDbEntity
  8
0
100
AcDbLine
 62
7
  6
CONTINUOUS
 10
20.2077290681
 20
1.2016899681
 11
20.2074674401
 21
1.1428236749
  0
LINE
  5
221
100
AcDbEntity
  8
0
100
AcDbLine
 62
7
  6
CONTINUOUS
 10
20.208634907
 20
1.101141841
 11
20.2080230104
 21
0.963465087
  0
LINE
  5
222
100
AcDbEntity
  8
0
100
AcDbLine
 62
7
  6
CONTINUOUS
 10
20.0066328138
 20
1.1745147986
 11
20.1443095678
 21
1.1739029019
  0
LINE
  5
223
100
AcDbEntity
  8
0
100
AcDbLine
 62
7
  6
CONTINUOUS
 10
20.1832714155
 20
1.1727031207
 11
20.238153505
 21
1.172335442
  0
LINE
  5
224
100
AcDbEntity
  8
0
100
AcDbLine
 62
7
  6
CONTINUOUS
 10
20.2756669918
 20
1.1717972817
 11
20.407916871
 21
1.1712095044
  0
CIRCLE
  5
225
100
AcDbEntity
  8
0
100
AcDbCircle
 62
7
  6
CONTINUOUS
 10
20.7509457401
 20
1.1693297793
 40
0.1722024983
  0
CIRCLE
  5
226
100
AcDbEntity
  8
0
100
AcDbCircle
 62
7
  6
CONTINUOUS
 10
20.7509457401
 20
1.1693297793
 40
0.0985164967
  0
LINE
  5
227
100
AcDbEntity
  8
0
100
AcDbLine
 62
7
  6
CONTINUOUS
 10
20.7169767782
 20
1.170462078
 11
20.7825395137
 21
1.1682766535
  0
LINE
  5
228
100
AcDbEntity
  8
0
100
AcDbLine
 62
7
  6
CONTINUOUS
 10
20.8177513651
 20
1.1693297793
 11
20.947965719
 21
1.1693297793
  0
LINE
  5
229
100
AcDbEntity
  8
0
100
AcDbLine
 62
7
  6
CONTINUOUS
 10
20.6875370113
 20
1.170462078
 11
20.5573226574
 21
1.170462078
  0
LINE
  5
22A
100
AcDbEntity
  8
0
100
AcDbLine
 62
7
  6
CONTINUOUS
 10
20.7486811426
 20
1.1987695462
 11
20.7486811426
 21
1.1432869085
  0
LINE
  5
22B
100
AcDbEntity
  8
0
100
AcDbLine
 62
7
  6
CONTINUOUS
 10
20.7498134414
 20
1.1059210505
 11
20.7498134414
 21
0.9757066966
  0
LINE
  5
22C
100
AcDbEntity
  8
0
100
AcDbLine
 62
7
  6
CONTINUOUS
 10
20.7486811426
 20
1.2338708068
 11
20.7486811426
 21
1.3640851607
  0
LINE
  5
22D
100
AcDbEntity
  8
0
100
AcDbLine
 62
7
  6
CONTINUOUS
 10
21.0702539817
 20
1.2701043662
 11
21.4790138229
 21
1.3448360823
  0
LINE
  5
22E
100
AcDbEntity
  8
0
100
AcDbLine
 62
7
  6
CONTINUOUS
 10
21.4790138229
 20
1.3448360823
 11
21.4790138229
 21
0.9779712941
  0
LINE
  5
22F
100
AcDbEntity
  8
0
100
AcDbLine
 62
7
  6
CONTINUOUS
 10
21.4790138229
 20
0.9779712941
 11
21.069121683
 21
1.0617614
  0
LINE
  5
230
100
AcDbEntity
  8
0
100
AcDbLine
 62
7
  6
CONTINUOUS
 10
21.0702539817
 20
1.2701043662
 11
21.069121683
 21
1.0617614
  0
LINE
  5
231
100
AcDbEntity
  8
0
100
AcDbLine
 62
7
  6
CONTINUOUS
 10
21.4790138229
 20
1.1693297793
 11
21.3159628059
 21
1.1693297793
  0
LINE
  5
232
100
AcDbEntity
  8
0
100
AcDbLine
 62
7
  6
CONTINUOUS
 10
21.2876553377
 20
1.1693297793
 11
21.2502894796
 21
1.1693297793
  0
LINE
  5
233
100
AcDbEntity
  8
0
100
AcDbLine
 62
7
  6
CONTINUOUS
 10
21.2208497126
 20
1.1659328831
 11
21.0713862804
 21
1.1659328831
  0
LINE
  5
234
100
AcDbEntity
  8
0
100
AcDbLine
 62
7
  6
CONTINUOUS
 10
20.4796138713
 20
1.5284908897
 11
20.4766766948
 21
0.9294458646
  0
ENDBLK
  5
235
100
AcDbEntity
  8
0
  6
BYBLOCK
 62
0
100
AcDbBlockEnd
  0
BLOCK
  5
236
100
AcDbEntity
  8
0
100
AcDbBlockBegin
  2
*T1
 70
1
 10
0.0
 20
0.0
  3
*T1
  1

  0
LINE
  5
237
100
AcDbEntity
  8
0
100
AcDbLine
 62
2
  6
CONTINUOUS
 10
9.275
 20
0.0
 11
-0.0
 21
0.0
  0
LINE
  5
238
100
AcDbEntity
  8
0
100
AcDbLine
 62
2
  6
CONTINUOUS
 10
9.275
 20
0.0
 11
9.275
 21
1.25
  0
LINE
  5
239
100
AcDbEntity
  8
0
100
AcDbLine
 62
2
  6
CONTINUOUS
 10
9.275
 20
0.625
 11
-0.0
 21
0.625
  0
LINE
  5
23A
100
AcDbEntity
  8
0
100
AcDbLine
 62
2
  6
CONTINUOUS
 10
9.275
 20
1.25
 11
-0.0
 21
1.25
  0
LINE
  5
23B
100
AcDbEntity
  8
0
100
AcDbLine
 62
2
  6
CONTINUOUS
 10
6.8
 20
0.0
 11
6.8
 21
1.25
  0
LINE
  5
23C
100
AcDbEntity
  8
0
100
AcDbLine
 62
2
  6
CONTINUOUS
 10
6.4
 20
0.0
 11
6.4
 21
0.625
  0
LINE
  5
23D
100
AcDbEntity
  8
0
100
AcDbLine
 62
2
  6
CONTINUOUS
 10
5.9
 20
0.0
 11
5.9
 21
0.625
  0
LINE
  5
23E
100
AcDbEntity
  8
0
100
AcDbLine
 62
2
  6
CONTINUOUS
 10
5.2
 20
0.0
 11
5.2
 21
0.625
  0
LINE
  5
23F
100
AcDbEntity
  8
0
100
AcDbLine
 62
2
  6
CONTINUOUS
 10
4.1
 20
0.0
 11
4.1
 21
1.25
  0
LINE
  5
240
100
AcDbEntity
  8
0
100
AcDbLine
 62
2
  6
CONTINUOUS
 10
-0.0
 20
0.0
 11
-0.0
 21
1.25
  0
MTEXT
  5
241
100
AcDbEntity
  8
0
100
AcDbMText
 62
2
  6
CONTINUOUS
  7
STANDARD
 71
2
 72
1
 10
6.6
 20
0.325
 30
0.0
 11
1.0
 21
0.0
 31
0.0
 44
0.9
  1
2
 40
0.125
 41
0.2
  0
MTEXT
  5
242
100
AcDbEntity
  8
0
100
AcDbMText
 62
2
  6
CONTINUOUS
  7
STANDARD
 71
2
 72
1
 10
6.15
 20
0.325
 30
0.0
 11
1.0
 21
0.0
 31
0.0
 44
0.9
  1
C
 40
0.125
 41
0.2
  0
MTEXT
  5
243
100
AcDbEntity
  8
0
100
AcDbMText
 62
2
  6
CONTINUOUS
  7
STANDARD
 71
2
 72
1
 10
5.55
 20
0.325
 30
0.0
 11
1.0
 21
0.0
 31
0.0
 44
0.9
  1
2.000
 40
0.125
 41
1.0
  0
MTEXT
  5
244
100
AcDbEntity
  8
0
100
AcDbMText
 62
2
  6
CONTINUOUS
  7
STANDARD
 71
2
 72
1
 10
4.65
 20
0.325
 30
0.0
 11
1.0
 21
0.0
 31
0.0
 44
0.9
  1
May-11-22
 40
0.125
 41
1.8
  0
MTEXT
  5
245
100
AcDbEntity
  8
0
100
AcDbMText
 62
2
  6
CONTINUOUS
  7
STANDARD
 71
2
 72
1
 10
2.05
 20
0.4625
 30
0.0
 11
1.0
 21
0.0
 31
0.0
 44
0.9
  1
T-10A Line mount\PCross port with make up checks
 40
0.125
 41
6.0
  0
MTEXT
  5
246
100
AcDbEntity
  8
0
100
AcDbMText
 62
2
  6
CONTINUOUS
  7
STANDARD
 71
1
 72
1
 10
6.45
 20
0.5625
 30
0.0
 11
1.0
 21
0.0
 31
0.0
 44
0.9
  1
SHEET
 40
0.06
 41
0.48
  0
MTEXT
  5
247
100
AcDbEntity
  8
0
100
AcDbMText
 62
2
  6
CONTINUOUS
  7
STANDARD
 71
1
 72
1
 10
5.95
 20
0.5625
 30
0.0
 11
1.0
 21
0.0
 31
0.0
 44
0.9
  1
DWG SIZE
 40
0.06
 41
0.768
  0
MTEXT
  5
248
100
AcDbEntity
  8
0
100
AcDbMText
 62
2
  6
CONTINUOUS
  7
STANDARD
 71
1
 72
1
 10
5.25
 20
0.5625
 30
0.0
 11
1.0
 21
0.0
 31
0.0
 44
0.9
  1
SCALE
 40
0.06
 41
0.48
  0
MTEXT
  5
249
100
AcDbEntity
  8
0
100
AcDbMText
 62
2
  6
CONTINUOUS
  7
STANDARD
 71
1
 72
1
 10
4.15
 20
0.5625
 30
0.0
 11
1.0
 21
0.0
 31
0.0
 44
0.9
  1
DATE
 40
0.06
 41
0.384
  0
MTEXT
  5
24A
100
AcDbEntity
  8
0
100
AcDbMText
 62
2
  6
CONTINUOUS
  7
STANDARD
 71
1
 72
1
 10
0.05
 20
0.5625
 30
0.0
 11
1.0
 21
0.0
 31
0.0
 44
0.9
  1
DESCRIPTION
 40
0.06
 41
1.056
  0
MTEXT
  5
24B
100
AcDbEntity
  8
0
100
AcDbMText
 62
2
  6
CONTINUOUS
  7
STANDARD
 71
2
 72
1
 10
5.45
 20
1.0375
 30
0.0
 11
1.0
 21
0.0
 31
0.0
 44
0.9
  1
ALL DIMENSIONS IN INCH\PVIEWS ARE THIRD ANGLE
 40
0.12
 41
4.224
  0
MTEXT
  5
24C
100
AcDbEntity
  8
0
100
AcDbMText
 62
2
  6
CONTINUOUS
  7
STANDARD
 71
2
 72
1
 10
2.05
 20
0.95
 30
0.0
 11
1.0
 21
0.0
 31
0.0
 44
0.9
  1
FHE
 40
0.125
 41
0.6
  0
MTEXT
  5
24D
100
AcDbEntity
  8
0
100
AcDbMText
 62
2
  6
CONTINUOUS
  7
STANDARD
 71
1
 72
1
 10
0.05
 20
1.1875
 30
0.0
 11
1.0
 21
0.0
 31
0.0
 44
0.9
  1
MODEL
 40
0.06
 41
0.48
  0
ENDBLK
  5
24E
100
AcDbEntity
  8
0
  6
BYBLOCK
 62
0
100
AcDbBlockEnd
  0
BLOCK
  5
24F
100
AcDbEntity
  8
0
100
AcDbBlockBegin
  2
*T2
 70
1
 10
0.0
 20
0.0
  3
*T2
  1

  0
LINE
  5
250
100
AcDbEntity
  8
0
100
AcDbLine
 62
2
  6
CONTINUOUS
 10
0.0
 20
0.0
 11
9.055
 21
0.0
  0
LINE
  5
251
100
AcDbEntity
  8
0
100
AcDbLine
 62
2
  6
CONTINUOUS
 10
0.0
 20
0.0
 11
0.0
 21
-2.844
  0
LINE
  5
252
100
AcDbEntity
  8
0
100
AcDbLine
 62
2
  6
CONTINUOUS
 10
0.0
 20
-0.344
 11
9.055
 21
-0.344
  0
LINE
  5
253
100
AcDbEntity
  8
0
100
AcDbLine
 62
2
  6
CONTINUOUS
 10
0.0
 20
-0.594
 11
9.055
 21
-0.594
  0
LINE
  5
254
100
AcDbEntity
  8
0
100
AcDbLine
 62
2
  6
CONTINUOUS
 10
0.0
 20
-0.844
 11
9.055
 21
-0.844
  0
LINE
  5
255
100
AcDbEntity
  8
0
100
AcDbLine
 62
2
  6
CONTINUOUS
 10
0.0
 20
-1.094
 11
9.055
 21
-1.094
  0
LINE
  5
256
100
AcDbEntity
  8
0
100
AcDbLine
 62
2
  6
CONTINUOUS
 10
0.0
 20
-1.344
 11
9.055
 21
-1.344
  0
LINE
  5
257
100
AcDbEntity
  8
0
100
AcDbLine
 62
2
  6
CONTINUOUS
 10
0.0
 20
-1.594
 11
9.055
 21
-1.594
  0
LINE
  5
258
100
AcDbEntity
  8
0
100
AcDbLine
 62
2
  6
CONTINUOUS
 10
0.0
 20
-1.844
 11
9.055
 21
-1.844
  0
LINE
  5
259
100
AcDbEntity
  8
0
100
AcDbLine
 62
2
  6
CONTINUOUS
 10
0.0
 20
-2.094
 11
9.055
 21
-2.094
  0
LINE
  5
25A
100
AcDbEntity
  8
0
100
AcDbLine
 62
2
  6
CONTINUOUS
 10
0.0
 20
-2.344
 11
9.055
 21
-2.344
  0
LINE
  5
25B
100
AcDbEntity
  8
0
100
AcDbLine
 62
2
  6
CONTINUOUS
 10
0.0
 20
-2.594
 11
9.055
 21
-2.594
  0
LINE
  5
25C
100
AcDbEntity
  8
0
100
AcDbLine
 62
2
  6
CONTINUOUS
 10
0.0
 20
-2.844
 11
9.055
 21
-2.844
  0
LINE
  5
25D
100
AcDbEntity
  8
0
100
AcDbLine
 62
2
  6
CONTINUOUS
 10
3.055
 20
0.0
 11
3.055
 21
-2.844
  0
LINE
  5
25E
100
AcDbEntity
  8
0
100
AcDbLine
 62
2
  6
CONTINUOUS
 10
9.055
 20
0.0
 11
9.055
 21
-2.844
  0
MTEXT
  5
25F
100
AcDbEntity
  8
0
100
AcDbMText
 62
2
  6
CONTINUOUS
  7
STANDARD
 71
2
 72
1
 10
1.5275
 20
-0.0995
 30
0.0
 11
1.0
 21
0.0
 31
0.0
 44
0.9
  1
Technical Data
 40
0.145
 41
3.248
  0
MTEXT
  5
260
100
AcDbEntity
  8
0
100
AcDbMText
 62
2
  6
CONTINUOUS
  7
STANDARD
 71
2
 72
1
 10
4.555
 20
-0.0995
 30
0.0
 11
1.0
 21
0.0
 31
0.0
 44
0.9
  1
U.S. Units
 40
0.145
 41
2.32
  0
MTEXT
  5
261
100
AcDbEntity
  8
0
100
AcDbMText
 62
2
  6
CONTINUOUS
  7
STANDARD
 71
2
 72
1
 10
7.555
 20
-0.0995
 30
0.0
 11
1.0
 21
0.0
 31
0.0
 44
0.9
  1
Metric Units
 40
0.145
 41
2.784
  0
MTEXT
  5
262
100
AcDbEntity
  8
0
100
AcDbMText
 62
2
  6
CONTINUOUS
  7
STANDARD
 71
2
 72
1
 10
1.5275
 20
-0.4065
 30
0.0
 11
1.0
 21
0.0
 31
0.0
 44
0.9
  1
Cavity
 40
0.125
 41
1.2
  0
MTEXT
  5
263
100
AcDbEntity
  8
0
100
AcDbMText
 62
2
  6
CONTINUOUS
  7
STANDARD
 71
2
 72
1
 10
6.055
 20
-0.4065
 30
0.0
 11
1.0
 21
0.0
 31
0.0
 44
0.9
  1
T-10A
 40
0.125
 41
1.0
  0
MTEXT
  5
264
100
AcDbEntity
  8
0
100
AcDbMText
 62
2
  6
CONTINUOUS
  7
STANDARD
 71
2
 72
1
 10
1.5275
 20
-0.6565
 30
0.0
 11
1.0
 21
0.0
 31
0.0
 44
0.9
  1
Body Features
 40
0.125
 41
2.6
  0
MTEXT
  5
265
100
AcDbEntity
  8
0
100
AcDbMText
 62
2
  6
CONTINUOUS
  7
STANDARD
 71
2
 72
1
 10
6.055
 20
-0.6565
 30
0.0
 11
1.0
 21
0.0
 31
0.0
 44
0.9
  1
Cross port with make up checks
 40
0.125
 41
6.0
  0
MTEXT
  5
266
100
AcDbEntity
  8
0
100
AcDbMText
 62
2
  6
CONTINUOUS
  7
STANDARD
 71
2
 72
1
 10
1.5275
 20
-0.9065
 30
0.0
 11
1.0
 21
0.0
 31
0.0
 44
0.9
  1
Body Type
 40
0.125
 41
1.8
  0
MTEXT
  5
267
100
AcDbEntity
  8
0
100
AcDbMText
 62
2
  6
CONTINUOUS
  7
STANDARD
 71
2
 72
1
 10
6.055
 20
-0.9065
 30
0.0
 11
1.0
 21
0.0
 31
0.0
 44
0.9
  1
Line mount
 40
0.125
 41
2.0
  0
MTEXT
  5
268
100
AcDbEntity
  8
0
100
AcDbMText
 62
2
  6
CONTINUOUS
  7
STANDARD
 71
2
 72
1
 10
1.5275
 20
-1.1565
 30
0.0
 11
1.0
 21
0.0
 31
0.0
 44
0.9
  1
Interface
 40
0.125
 41
1.8
  0
MTEXT
  5
269
100
AcDbEntity
  8
0
100
AcDbMText
 62
2
  6
CONTINUOUS
  7
STANDARD
 71
2
 72
1
 10
6.055
 20
-1.1565
 30
0.0
 11
1.0
 21
0.0
 31
0.0
 44
0.9
  1
None
 40
0.125
 41
0.8
  0
MTEXT
  5
26A
100
AcDbEntity
  8
0
100
AcDbMText
 62
2
  6
CONTINUOUS
  7
STANDARD
 71
2
 72
1
 10
1.5275
 20
-1.4065
 30
0.0
 11
1.0
 21
0.0
 31
0.0
 44
0.9
  1
Open Cavity Quantity
 40
0.125
 41
4.0
  0
MTEXT
  5
26B
100
AcDbEntity
  8
0
100
AcDbMText
 62
2
  6
CONTINUOUS
  7
STANDARD
 71
2
 72
1
 10
6.055
 20
-1.4065
 30
0.0
 11
1.0
 21
0.0
 31
0.0
 44
0.9
  1
2
 40
0.125
 41
0.2
  0
MTEXT
  5
26C
100
AcDbEntity
  8
0
100
AcDbMText
 62
2
  6
CONTINUOUS
  7
STANDARD
 71
2
 72
1
 10
1.5275
 20
-1.6565
 30
0.0
 11
1.0
 21
0.0
 31
0.0
 44
0.9
  1
Weight
 40
0.125
 41
1.2
  0
MTEXT
  5
26D
100
AcDbEntity
  8
0
100
AcDbMText
 62
2
  6
CONTINUOUS
  7
STANDARD
 71
2
 72
1
 10
4.555
 20
-1.6565
 30
0.0
 11
1.0
 21
0.0
 31
0.0
 44
0.9
  1
3.043 lb.
 40
0.125
 41
1.8
  0
MTEXT
  5
26E
100
AcDbEntity
  8
0
100
AcDbMText
 62
2
  6
CONTINUOUS
  7
STANDARD
 71
2
 72
1
 10
7.555
 20
-1.6565
 30
0.0
 11
1.0
 21
0.0
 31
0.0
 44
0.9
  1
1,380 kg.
 40
0.125
 41
1.8
  0
MTEXT
  5
26F
100
AcDbEntity
  8
0
100
AcDbMText
 62
2
  6
CONTINUOUS
  7
STANDARD
 71
2
 72
1
 10
1.5275
 20
-1.9065
 30
0.0
 11
1.0
 21
0.0
 31
0.0
 44
0.9
  1
Mounting Hole Diameter
 40
0.125
 41
4.4
  0
MTEXT
  5
270
100
AcDbEntity
  8
0
100
AcDbMText
 62
2
  6
CONTINUOUS
  7
STANDARD
 71
2
 72
1
 10
4.555
 20
-1.9065
 30
0.0
 11
1.0
 21
0.0
 31
0.0
 44
0.9
  1
.34 in.
 40
0.125
 41
1.4
  0
MTEXT
  5
271
100
AcDbEntity
  8
0
100
AcDbMText
 62
2
  6
CONTINUOUS
  7
STANDARD
 71
2
 72
1
 10
7.555
 20
-1.9065
 30
0.0
 11
1.0
 21
0.0
 31
0.0
 44
0.9
  1
8.6 mm
 40
0.125
 41
1.2
  0
MTEXT
  5
272
100
AcDbEntity
  8
0
100
AcDbMText
 62
2
  6
CONTINUOUS
  7
STANDARD
 71
2
 72
1
 10
1.5275
 20
-2.1565
 30
0.0
 11
1.0
 21
0.0
 31
0.0
 44
0.9
  1
Mounting Hole Depth
 40
0.125
 41
3.8
  0
MTEXT
  5
273
100
AcDbEntity
  8
0
100
AcDbMText
 62
2
  6
CONTINUOUS
  7
STANDARD
 71
2
 72
1
 10
6.055
 20
-2.1565
 30
0.0
 11
1.0
 21
0.0
 31
0.0
 44
0.9
  1
Through
 40
0.125
 41
1.4
  0
MTEXT
  5
274
100
AcDbEntity
  8
0
100
AcDbMText
 62
2
  6
CONTINUOUS
  7
STANDARD
 71
2
 72
1
 10
1.5275
 20
-2.4065
 30
0.0
 11
1.0
 21
0.0
 31
0.0
 44
0.9
  1
Mounting Hole Quantity
 40
0.125
 41
4.4
  0
MTEXT
  5
275
100
AcDbEntity
  8
0
100
AcDbMText
 62
2
  6
CONTINUOUS
  7
STANDARD
 71
2
 72
1
 10
6.055
 20
-2.4065
 30
0.0
 11
1.0
 21
0.0
 31
0.0
 44
0.9
  1
2
 40
0.125
 41
0.2
  0
MTEXT
  5
276
100
AcDbEntity
  8
0
100
AcDbMText
 62
2
  6
CONTINUOUS
  7
STANDARD
 71
2
 72
1
 10
1.5275
 20
-2.6565
 30
0.0
 11
1.0
 21
0.0
 31
0.0
 44
0.9
  1
Includes integral cartridge(s)
 40
0.125
 41
6.0
  0
MTEXT
  5
277
100
AcDbEntity
  8
0
100
AcDbMText
 62
2
  6
CONTINUOUS
  7
STANDARD
 71
2
 72
1
 10
6.055
 20
-2.6565
 30
0.0
 11
1.0
 21
0.0
 31
0.0
 44
0.9
  1
Yes (see Included Components)
 40
0.125
 41
5.8
  0
ENDBLK
  5
278
100
AcDbEntity
  8
0
  6
BYBLOCK
 62
0
100
AcDbBlockEnd
  0
BLOCK
  5
279
100
AcDbEntity
  8
0
100
AcDbBlockBegin
  2
*T3
 70
1
 10
0.0
 20
0.0
  3
*T3
  1

  0
LINE
  5
27A
100
AcDbEntity
  8
0
100
AcDbLine
 62
2
  6
CONTINUOUS
 10
0.0
 20
0.0
 11
4.6
 21
0.0
  0
LINE
  5
27B
100
AcDbEntity
  8
0
100
AcDbLine
 62
2
  6
CONTINUOUS
 10
0.0
 20
0.0
 11
0.0
 21
-1.18775
  0
LINE
  5
27C
100
AcDbEntity
  8
0
100
AcDbLine
 62
2
  6
CONTINUOUS
 10
0.0
 20
-0.34375
 11
4.6
 21
-0.34375
  0
LINE
  5
27D
100
AcDbEntity
  8
0
100
AcDbLine
 62
2
  6
CONTINUOUS
 10
0.0
 20
-0.68775
 11
4.6
 21
-0.68775
  0
LINE
  5
27E
100
AcDbEntity
  8
0
100
AcDbLine
 62
2
  6
CONTINUOUS
 10
0.0
 20
-0.93775
 11
4.6
 21
-0.93775
  0
LINE
  5
27F
100
AcDbEntity
  8
0
100
AcDbLine
 62
2
  6
CONTINUOUS
 10
0.0
 20
-1.18775
 11
4.6
 21
-1.18775
  0
LINE
  5
280
100
AcDbEntity
  8
0
100
AcDbLine
 62
2
  6
CONTINUOUS
 10
1.3
 20
-0.34375
 11
1.3
 21
-1.18775
  0
LINE
  5
281
100
AcDbEntity
  8
0
100
AcDbLine
 62
2
  6
CONTINUOUS
 10
3.3
 20
-0.34375
 11
3.3
 21
-1.18775
  0
LINE
  5
282
100
AcDbEntity
  8
0
100
AcDbLine
 62
2
  6
CONTINUOUS
 10
4.6
 20
0.0
 11
4.6
 21
-1.18775
  0
MTEXT
  5
283
100
AcDbEntity
  8
0
100
AcDbMText
 62
2
  6
CONTINUOUS
  7
STANDARD
 71
2
 72
1
 10
2.3
 20
-0.099375
 30
0.0
 11
1.0
 21
0.0
 31
0.0
 44
0.9
  1
Port Headings
 40
0.145
 41
3.016
  0
MTEXT
  5
284
100
AcDbEntity
  8
0
100
AcDbMText
 62
2
  6
CONTINUOUS
  7
STANDARD
 71
2
 72
1
 10
0.65
 20
-0.44325
 30
0.0
 11
1.0
 21
0.0
 31
0.0
 44
0.9
  1
Product
 40
0.145
 41
1.624
  0
MTEXT
  5
285
100
AcDbEntity
  8
0
100
AcDbMText
 62
2
  6
CONTINUOUS
  7
STANDARD
 71
2
 72
1
 10
2.3
 20
-0.44325
 30
0.0
 11
1.0
 21
0.0
 31
0.0
 44
0.9
  1
Port
 40
0.145
 41
0.928
  0
MTEXT
  5
286
100
AcDbEntity
  8
0
100
AcDbMText
 62
2
  6
CONTINUOUS
  7
STANDARD
 71
2
 72
1
 10
3.95
 20
-0.44325
 30
0.0
 11
1.0
 21
0.0
 31
0.0
 44
0.9
  1
Size
 40
0.145
 41
0.928
  0
MTEXT
  5
287
100
AcDbEntity
  8
0
100
AcDbMText
 62
2
  6
CONTINUOUS
  7
STANDARD
 71
2
 72
1
 10
0.65
 20
-0.75025
 30
0.0
 11
1.0
 21
0.0
 31
0.0
 44
0.9
  1
FHE
 40
0.125
 41
0.6
  0
MTEXT
  5
288
100
AcDbEntity
  8
0
100
AcDbMText
 62
2
  6
CONTINUOUS
  7
STANDARD
 71
2
 72
1
 10
2.3
 20
-0.75025
 30
0.0
 11
1.0
 21
0.0
 31
0.0
 44
0.9
  1
All Other Ports
 40
0.125
 41
3.0
  0
MTEXT
  5
289
100
AcDbEntity
  8
0
100
AcDbMText
 62
2
  6
CONTINUOUS
  7
STANDARD
 71
2
 72
1
 10
3.95
 20
-0.75025
 30
0.0
 11
1.0
 21
0.0
 31
0.0
 44
0.9
  1
SAE 8
 40
0.125
 41
1.0
  0
MTEXT
  5
28A
100
AcDbEntity
  8
0
100
AcDbMText
 62
2
  6
CONTINUOUS
  7
STANDARD
 71
2
 72
1
 10
0.65
 20
-1.00025
 30
0.0
 11
1.0
 21
0.0
 31
0.0
 44
0.9
  1
FHE
 40
0.125
 41
0.6
  0
MTEXT
  5
28B
100
AcDbEntity
  8
0
100
AcDbMText
 62
2
  6
CONTINUOUS
  7
STANDARD
 71
2
 72
1
 10
2.3
 20
-1.00025
 30
0.0
 11
1.0
 21
0.0
 31
0.0
 44
0.9
  1
Port 5
 40
0.125
 41
1.2
  0
MTEXT
  5
28C
100
AcDbEntity
  8
0
100
AcDbMText
 62
2
  6
CONTINUOUS
  7
STANDARD
 71
2
 72
1
 10
3.95
 20
-1.00025
 30
0.0
 11
1.0
 21
0.0
 31
0.0
 44
0.9
  1
SAE 4
 40
0.125
 41
1.0
  0
ENDBLK
  5
28D
100
AcDbEntity
  8
0
  6
BYBLOCK
 62
0
100
AcDbBlockEnd
  0
ENDSEC
  0
SECTION
  2
ENTITIES
  0
IMAGE
  5
28E
100
AcDbEntity
  8
0
100
AcDbRasterImage
 62
7
  6
CONTINUOUS
 10
19.2297077316
 20
0.3094318264
 30
0.0
 11
0.0066666667
 21
0.0
 31
0.0
 12
0.0
 22
0.0066666667
 32
0.0
 13
369.0
 23
92.0
340
       39C
 70
9
280
0
281
50
282
50
283
0
360
       396
 71
1
 91
2
 14
-0.5
 24
-0.5
 14
368.5
 24
91.5
  0
INSERT
  5
28F
100
AcDbEntity
  8
0
100
AcDbBlockReference
 62
2
  6
CONTINUOUS
  2
SUN_FIRST_THIRD_ANGLE_BL0
 10
20.4816717061
 20
1.2289683772
  0
ACAD_TABLE
  5
290
100
AcDbEntity
  8
0
 62
2
  6
CONTINUOUS
100
AcDbBlockReference
  2
*T1
 10
12.42375
 20
0.30125
 30
0.0
100
AcDbTable
342
       39E
343
20F
 11
1.0
 21
0.0
 31
0.0
 90
6
 91
4
 92
6
 93
20
 94
0
 95
0
 96
0
 70
1
 41
0.0
141
0.525
141
0.1
141
0.525
141
0.1
142
4.1
142
1.1
142
0.7
142
0.5
142
0.4
142
2.475
171
1
172
0
173
0
174
0
175
1
176
1
 91
33
178
0
145
0.0
301
CELL_VALUE
 90
4
  1
T-10A Line mount\PCross port with make up checks
304
ACVALUE_END
170
2
140
0.125
171
1
172
0
173
0
174
0
175
1
176
1
 91
33
178
0
145
0.0
301
CELL_VALUE
 90
4
  1
May-11-22
304
ACVALUE_END
170
5
140
0.125
171
1
172
0
173
0
174
0
175
1
176
1
 91
33
178
0
145
0.0
301
CELL_VALUE
 90
4
  1
2.000
304
ACVALUE_END
170
5
140
0.125
171
1
172
0
173
0
174
0
175
1
176
1
 91
33
178
0
145
0.0
301
CELL_VALUE
 90
4
  1
C
304
ACVALUE_END
170
5
140
0.125
171
1
172
0
173
0
174
0
175
1
176
1
 91
33
178
0
145
0.0
301
CELL_VALUE
 90
4
  1
2
304
ACVALUE_END
170
5
140
0.125
171
1
172
0
173
0
174
0
175
1
176
1
 91
33
178
0
145
0.0
301
CELL_VALUE
 90
4
  1
 
304
ACVALUE_END
170
1
140
0.125
171
1
172
0
173
0
174
0
175
1
176
1
 91
33
178
0
145
0.0
301
CELL_VALUE
 90
4
  1
DESCRIPTION
304
ACVALUE_END
170
1
140
0.06
171
1
172
0
173
0
174
0
175
1
176
1
 91
33
178
0
145
0.0
301
CELL_VALUE
 90
4
  1
DATE
304
ACVALUE_END
170
1
140
0.06
171
1
172
0
173
0
174
0
175
1
176
1
 91
33
178
0
145
0.0
301
CELL_VALUE
 90
4
  1
SCALE
304
ACVALUE_END
170
1
140
0.06
171
1
172
0
173
0
174
0
175
1
176
1
 91
33
178
0
145
0.0
301
CELL_VALUE
 90
4
  1
DWG SIZE
304
ACVALUE_END
170
1
140
0.06
171
1
172
0
173
0
174
0
175
1
176
1
 91
33
178
0
145
0.0
301
CELL_VALUE
 90
4
  1
SHEET
304
ACVALUE_END
170
1
140
0.06
171
1
172
0
173
0
174
0
175
1
176
1
 91
33
178
0
145
0.0
301
CELL_VALUE
 90
4
  1
 
304
ACVALUE_END
170
1
140
0.125
171
1
172
0
173
0
174
0
175
1
176
1
 91
33
178
0
145
0.0
301
CELL_VALUE
 90
4
  1
FHE
304
ACVALUE_END
170
5
140
0.125
171
1
172
0
173
0
174
0
175
4
176
1
 91
33
178
0
145
0.0
301
CELL_VALUE
 90
4
  1
ALL DIMENSIONS IN INCH\PVIEWS ARE THIRD ANGLE
304
ACVALUE_END
170
5
140
0.12
171
1
172
0
173
1
174
0
175
1
176
1
 91
1
178
0
145
0.0
170
1
171
1
172
0
173
1
174
0
175
1
176
1
 91
1
178
0
145
0.0
170
1
171
1
172
0
173
1
174
0
175
1
176
1
 91
1
178
0
145
0.0
170
5
171
1
172
0
173
0
174
0
175
1
176
1
 91
33
178
0
145
0.0
301
CELL_VALUE
 90
4
  1
 
304
ACVALUE_END
170
1
140
0.125
171
1
172
0
173
0
174
0
175
1
176
1
 91
33
178
0
145
0.0
301
CELL_VALUE
 90
4
  1
MODEL
304
ACVALUE_END
170
1
140
0.06
171
1
172
0
173
0
174
0
175
1
176
1
 91
33
178
0
145
0.0
301
CELL_VALUE
 90
4
  1
 
304
ACVALUE_END
170
1
140
0.125
171
1
172
0
173
0
174
0
175
1
176
1
 91
33
178
0
145
0.0
301
CELL_VALUE
 90
4
  1
 
304
ACVALUE_END
170
1
140
0.125
171
1
172
0
173
0
174
0
175
1
176
1
 91
33
178
0
145
0.0
301
CELL_VALUE
 90
4
  1
 
304
ACVALUE_END
170
1
140
0.125
171
1
172
0
173
0
174
0
175
1
176
1
 91
33
178
0
145
0.0
301
CELL_VALUE
 90
4
  1
 
304
ACVALUE_END
170
1
140
0.125
171
1
172
0
173
0
174
0
175
1
176
1
 91
33
178
0
145
0.0
301
CELL_VALUE
 90
4
  1
 
304
ACVALUE_END
170
1
140
0.125
  0
ACAD_TABLE
  5
291
100
AcDbEntity
  8
0
 62
2
  6
CONTINUOUS
100
AcDbBlockReference
  2
*T2
 10
12.4237499994
 20
16.47875
 30
0.0
100
AcDbTable
342
       39D
343
210
 11
1.0
 21
0.0
 31
0.0
 90
22
 91
11
 92
3
 93
16
 94
0
 95
0
 96
0
 41
0.028
141
0.344
141
0.25
141
0.25
141
0.25
141
0.25
141
0.25
141
0.25
141
0.25
141
0.25
141
0.25
141
0.25
142
3.055
142
3.0
142
3.0
171
1
172
0
173
0
174
0
175
1
176
1
 91
33
178
0
145
0.0
301
CELL_VALUE
 90
4
  1
Technical Data
304
ACVALUE_END
170
5
140
0.145
171
1
172
0
173
0
174
0
175
1
176
1
 91
33
178
0
145
0.0
301
CELL_VALUE
 90
4
  1
U.S. Units
304
ACVALUE_END
170
5
140
0.145
171
1
172
0
173
0
174
0
175
1
176
1
 91
33
178
0
145
0.0
301
CELL_VALUE
 90
4
  1
Metric Units
304
ACVALUE_END
170
5
140
0.145
171
1
172
0
173
0
174
0
175
1
176
1
 91
33
178
0
145
0.0
301
CELL_VALUE
 90
4
  1
Cavity
304
ACVALUE_END
170
5
140
0.125
171
1
172
0
173
0
174
0
175
2
176
1
 91
33
178
0
145
0.0
301
CELL_VALUE
 90
4
  1
T-10A
304
ACVALUE_END
170
5
140
0.125
171
1
172
0
173
1
174
0
175
1
176
1
 91
1
178
0
145
0.0
170
1
171
1
172
0
173
0
174
0
175
1
176
1
 91
33
178
0
145
0.0
301
CELL_VALUE
 90
4
  1
Body Features
304
ACVALUE_END
170
5
140
0.125
171
1
172
0
173
0
174
0
175
2
176
1
 91
33
178
0
145
0.0
301
CELL_VALUE
 90
4
  1
Cross port with make up checks
304
ACVALUE_END
170
5
140
0.125
171
1
172
0
173
1
174
0
175
1
176
1
 91
1
178
0
145
0.0
170
1
171
1
172
0
173
0
174
0
175
1
176
1
 91
33
178
0
145
0.0
301
CELL_VALUE
 90
4
  1
Body Type
304
ACVALUE_END
170
5
140
0.125
171
1
172
0
173
0
174
0
175
2
176
1
 91
33
178
0
145
0.0
301
CELL_VALUE
 90
4
  1
Line mount
304
ACVALUE_END
170
5
140
0.125
171
1
172
0
173
1
174
0
175
1
176
1
 91
1
178
0
145
0.0
170
1
171
1
172
0
173
0
174
0
175
1
176
1
 91
33
178
0
145
0.0
301
CELL_VALUE
 90
4
  1
Interface
304
ACVALUE_END
170
5
140
0.125
171
1
172
0
173
0
174
0
175
2
176
1
 91
33
178
0
145
0.0
301
CELL_VALUE
 90
4
  1
None
304
ACVALUE_END
170
5
140
0.125
171
1
172
0
173
1
174
0
175
1
176
1
 91
1
178
0
145
0.0
170
1
171
1
172
0
173
0
174
0
175
1
176
1
 91
33
178
0
145
0.0
301
CELL_VALUE
 90
4
  1
Open Cavity Quantity
304
ACVALUE_END
170
5
140
0.125
171
1
172
0
173
0
174
0
175
2
176
1
 91
33
178
0
145
0.0
301
CELL_VALUE
 90
4
  1
2
304
ACVALUE_END
170
5
140
0.125
171
1
172
0
173
1
174
0
175
1
176
1
 91
1
178
0
145
0.0
170
1
171
1
172
0
173
0
174
0
175
1
176
1
 91
33
178
0
145
0.0
301
CELL_VALUE
 90
4
  1
Weight
304
ACVALUE_END
170
5
140
0.125
171
1
172
0
173
0
174
0
175
1
176
1
 91
33
178
0
145
0.0
301
CELL_VALUE
 90
4
  1
3.043 lb.
304
ACVALUE_END
170
5
140
0.125
171
1
172
0
173
0
174
0
175
1
176
1
 91
33
178
0
145
0.0
301
CELL_VALUE
 90
4
  1
1,380 kg.
304
ACVALUE_END
170
5
140
0.125
171
1
172
0
173
0
174
0
175
1
176
1
 91
33
178
0
145
0.0
301
CELL_VALUE
 90
4
  1
Mounting Hole Diameter
304
ACVALUE_END
170
5
140
0.125
171
1
172
0
173
0
174
0
175
1
176
1
 91
33
178
0
145
0.0
301
CELL_VALUE
 90
4
  1
.34 in.
304
ACVALUE_END
170
5
140
0.125
171
1
172
0
173
0
174
0
175
1
176
1
 91
33
178
0
145
0.0
301
CELL_VALUE
 90
4
  1
8.6 mm
304
ACVALUE_END
170
5
140
0.125
171
1
172
0
173
0
174
0
175
1
176
1
 91
33
178
0
145
0.0
301
CELL_VALUE
 90
4
  1
Mounting Hole Depth
304
ACVALUE_END
170
5
140
0.125
171
1
172
0
173
0
174
0
175
2
176
1
 91
33
178
0
145
0.0
301
CELL_VALUE
 90
4
  1
Through
304
ACVALUE_END
170
5
140
0.125
171
1
172
0
173
1
174
0
175
1
176
1
 91
1
178
0
145
0.0
170
1
171
1
172
0
173
0
174
0
175
1
176
1
 91
33
178
0
145
0.0
301
CELL_VALUE
 90
4
  1
Mounting Hole Quantity
304
ACVALUE_END
170
5
140
0.125
171
1
172
0
173
0
174
0
175
2
176
1
 91
33
178
0
145
0.0
301
CELL_VALUE
 90
4
  1
2
304
ACVALUE_END
170
5
140
0.125
171
1
172
0
173
1
174
0
175
1
176
1
 91
1
178
0
145
0.0
170
1
171
1
172
0
173
0
174
0
175
1
176
1
 91
33
178
0
145
0.0
301
CELL_VALUE
 90
4
  1
Includes integral cartridge(s)
304
ACVALUE_END
170
5
140
0.125
171
1
172
0
173
0
174
0
175
2
176
1
 91
33
178
0
145
0.0
301
CELL_VALUE
 90
4
  1
Yes (see Included Components)
304
ACVALUE_END
170
5
140
0.125
171
1
172
0
173
1
174
0
175
1
176
1
 91
1
178
0
145
0.0
170
1
  0
ACAD_TABLE
  5
292
100
AcDbEntity
  8
0
 62
2
  6
CONTINUOUS
100
AcDbBlockReference
  2
*T3
 10
0.52125
 20
1.709
 30
0.0
100
AcDbTable
342
       39D
343
211
 11
1.0
 21
0.0
 31
0.0
 90
22
 91
4
 92
3
 93
16
 94
0
 95
0
 96
0
 41
0.05
141
0.34375
141
0.344
141
0.25
141
0.25
142
1.3
142
2.0
142
1.3
171
1
172
0
173
0
174
0
175
3
176
1
 91
33
178
0
145
0.0
301
CELL_VALUE
 90
4
  1
Port Headings
304
ACVALUE_END
170
5
140
0.145
171
1
172
0
173
1
174
0
175
1
176
1
 91
1
178
0
145
0.0
170
1
171
1
172
0
173
1
174
0
175
1
176
1
 91
1
178
0
145
0.0
170
1
171
1
172
0
173
0
174
0
175
1
176
1
 91
33
178
0
145
0.0
301
CELL_VALUE
 90
4
  1
Product
304
ACVALUE_END
170
5
140
0.145
171
1
172
0
173
0
174
0
175
1
176
1
 91
33
178
0
145
0.0
301
CELL_VALUE
 90
4
  1
Port
304
ACVALUE_END
170
5
140
0.145
171
1
172
0
173
0
174
0
175
1
176
1
 91
33
178
0
145
0.0
301
CELL_VALUE
 90
4
  1
Size
304
ACVALUE_END
170
5
140
0.145
171
1
172
0
173
0
174
0
175
1
176
1
 91
33
178
0
145
0.0
301
CELL_VALUE
 90
4
  1
FHE
304
ACVALUE_END
170
5
140
0.125
171
1
172
0
173
0
174
0
175
1
176
1
 91
33
178
0
145
0.0
301
CELL_VALUE
 90
4
  1
All Other Ports
304
ACVALUE_END
170
5
140
0.125
171
1
172
0
173
0
174
0
175
1
176
1
 91
33
178
0
145
0.0
301
CELL_VALUE
 90
4
  1
SAE 8
304
ACVALUE_END
170
5
140
0.125
171
1
172
0
173
0
174
0
175
1
176
1
 91
33
178
0
145
0.0
301
CELL_VALUE
 90
4
  1
FHE
304
ACVALUE_END
170
5
140
0.125
171
1
172
0
173
0
174
0
175
1
176
1
 91
33
178
0
145
0.0
301
CELL_VALUE
 90
4
  1
Port 5
304
ACVALUE_END
170
5
140
0.125
171
1
172
0
173
0
174
0
175
1
176
1
 91
33
178
0
145
0.0
301
CELL_VALUE
 90
4
  1
SAE 4
304
ACVALUE_END
170
5
140
0.125
  0
MTEXT
  5
293
100
AcDbEntity
  8
0
100
AcDbMText
 62
2
  6
CONTINUOUS
  7
STANDARD
 71
1
 72
1
 10
0.52125
 20
5.75995
 30
0.0
 11
1.0
 21
0.0
 31
0.0
 44
0.6
  3
Notes\P \P1. Important: Carefully consider\P   the maximum system pressure. The\P   pressure rating of the manifold is\P   dependent on the manifold material,\P   with the port type/size a secondary\P   consideration. Manifolds\P   constructed of alu
  1
minum are not\P   rated for pressures higher than\P   3000 psi (210 bar), regardless of\P   the port type/size specified.
 40
0.1
 41
3.04
  0
LINE
  5
294
100
AcDbEntity
  8
0
100
AcDbLine
 62
7
  6
CONTINUOUS
 10
0.30125
 20
0.30125
 11
0.30125
 21
16.69875
  0
LINE
  5
295
100
AcDbEntity
  8
0
100
AcDbLine
 62
7
  6
CONTINUOUS
 10
0.30125
 20
0.30125
 11
21.69875
 21
0.30125
  0
LINE
  5
296
100
AcDbEntity
  8
0
100
AcDbLine
 62
7
  6
CONTINUOUS
 10
0.30125
 20
16.69875
 11
21.69875
 21
16.69875
  0
LINE
  5
297
100
AcDbEntity
  8
0
100
AcDbLine
 62
7
  6
CONTINUOUS
 10
21.69875
 20
0.30125
 11
21.69875
 21
16.69875
  0
LINE
  5
298
100
AcDbEntity
  8
0
100
AcDbLine
 62
7
  6
CONTINUOUS
 10
8.1980750942
 20
12.3793258241
 11
6.677255659
 21
10.9103269675
  0
LINE
  5
299
100
AcDbEntity
  8
0
100
AcDbLine
 62
7
  6
CONTINUOUS
 10
6.677255659
 20
5.1147716664
 11
6.677255659
 21
10.9103269675
  0
LINE
  5
29A
100
AcDbEntity
  8
0
100
AcDbLine
 62
4
  6
CONTINUOUS
 10
7.3302215086
 20
9.0973992646
 11
7.3302215086
 21
9.1360363002
  0
LINE
  5
29B
100
AcDbEntity
  8
0
100
AcDbLine
 62
4
  6
CONTINUOUS
 10
7.446132612
 20
8.9734497058
 11
7.446132612
 21
8.9927682184
  0
LINE
  5
29C
100
AcDbEntity
  8
0
100
AcDbLine
 62
7
  6
CONTINUOUS
 10
6.677255659
 20
5.1147716664
 11
13.8019249058
 21
4.6206741759
  0
LINE
  5
29D
100
AcDbEntity
  8
0
100
AcDbLine
 62
4
  6
CONTINUOUS
 10
8.1754065982
 20
10.1302819128
 11
8.1319399344
 21
9.9014741293
  0
LINE
  5
29E
100
AcDbEntity
  8
0
100
AcDbLine
 62
4
  6
CONTINUOUS
 10
7.3302215086
 20
9.1360363002
 11
7.3447103965
 21
9.1543500103
  0
LINE
  5
29F
100
AcDbEntity
  8
0
100
AcDbLine
 62
4
  6
CONTINUOUS
 10
7.4316437241
 20
8.9551359871
 11
7.446132612
 21
8.9734497058
  0
LINE
  5
2A0
100
AcDbEntity
  8
0
100
AcDbLine
 62
4
  6
CONTINUOUS
 10
9.8464584751
 20
5.5324977699
 11
9.8174806993
 21
5.5538258981
  0
LINE
  5
2A1
100
AcDbEntity
  8
0
100
AcDbLine
 62
4
  6
CONTINUOUS
 10
8.2623399257
 20
10.124253066
 11
8.2188732619
 21
9.8954452825
  0
LINE
  5
2A2
100
AcDbEntity
  8
0
100
AcDbLine
 62
4
  6
CONTINUOUS
 10
8.5231399085
 20
10.1061665258
 11
8.4506954688
 21
9.8793683579
  0
LINE
  5
2A3
100
AcDbEntity
  8
0
100
AcDbLine
 62
4
  6
CONTINUOUS
 10
8.624562124
 20
10.0604958356
 11
8.6390510119
 21
10.0788095456
  0
LINE
  5
2A4
100
AcDbEntity
  8
0
100
AcDbLine
 62
7
  6
CONTINUOUS
 10
7.7887779577
 20
9.2060873544
 11
7.5401804689
 21
8.9659606053
  0
LINE
  5
2A5
100
AcDbEntity
  8
0
100
AcDbLine
 62
4
  6
CONTINUOUS
 10
10.6143695354
 20
5.4792429569
 11
10.4694806561
 21
5.4892910349
  0
LINE
  5
2A6
100
AcDbEntity
  8
0
100
AcDbLine
 62
4
  6
CONTINUOUS
 10
10.3535695527
 20
5.6132406006
 11
10.2666362251
 21
5.6192694474
  0
LINE
  5
2A7
100
AcDbEntity
  8
0
100
AcDbLine
 62
4
  6
CONTINUOUS
 10
9.4262807252
 20
5.6775482992
 11
9.3393473976
 21
5.683577146
  0
LINE
  5
2A8
100
AcDbEntity
  8
0
100
AcDbLine
 62
4
  6
CONTINUOUS
 10
9.6581029321
 20
5.7001084067
 11
9.5711696045
 21
5.7061372535
  0
LINE
  5
2A9
100
AcDbEntity
  8
0
100
AcDbLine
 62
4
  6
CONTINUOUS
 10
9.8464584751
 20
5.7643199767
 11
9.875436251
 21
5.7429918433
  0
LINE
  5
2AA
100
AcDbEntity
  8
0
100
AcDbLine
 62
4
  6
CONTINUOUS
 10
7.3302215086
 20
8.9814881681
 11
7.3447103965
 21
8.9611648338
  0
LINE
  5
2AB
100
AcDbEntity
  8
0
100
AcDbLine
 62
4
  6
CONTINUOUS
 10
9.8174806993
 20
5.5538258981
 11
9.8029918114
 21
5.5741492323
  0
LINE
  5
2AC
100
AcDbEntity
  8
0
100
AcDbLine
 62
4
  6
CONTINUOUS
 10
8.624562124
 20
10.0218588
 11
8.624562124
 21
10.0604958356
  0
LINE
  5
2AD
100
AcDbEntity
  8
0
100
AcDbLine
 62
4
  6
CONTINUOUS
 10
9.0012732101
 20
9.9570967653
 11
8.9867843222
 21
9.9001460213
  0
LINE
  5
2AE
100
AcDbEntity
  8
0
100
AcDbLine
 62
4
  6
CONTINUOUS
 10
8.7259843395
 20
9.8795955225
 11
8.7404732274
 21
9.8979092411
  0
LINE
  5
2AF
100
AcDbEntity
  8
0
100
AcDbLine
 62
4
  6
CONTINUOUS
 10
8.8563843308
 20
10.044418911
 11
8.8708732188
 21
10.062732621
  0
LINE
  5
2B0
100
AcDbEntity
  8
0
100
AcDbLine
 62
4
  6
CONTINUOUS
 10
8.9867843222
 20
9.9001460213
 11
8.9578065463
 21
9.8635185978
  0
LINE
  5
2B1
100
AcDbEntity
  8
0
100
AcDbLine
 62
7
  6
CONTINUOUS
 10
8.4509206793
 20
9.5424558792
 11
8.2023231904
 21
9.3023291301
  0
LINE
  5
2B2
100
AcDbEntity
  8
0
100
AcDbLine
 62
7
  6
CONTINUOUS
 10
8.5132011197
 20
9.538136716
 11
8.2646036308
 21
9.2980099669
  0
LINE
  5
2B3
100
AcDbEntity
  8
0
100
AcDbLine
 62
4
  6
CONTINUOUS
 10
8.6390510119
 20
10.0788095456
 11
8.6680287877
 21
10.0961184479
  0
LINE
  5
2B4
100
AcDbEntity
  8
0
100
AcDbLine
 62
4
  6
CONTINUOUS
 10
7.3447103965
 20
9.1543500103
 11
7.3736881723
 21
9.1716589125
  0
LINE
  5
2B5
100
AcDbEntity
  8
0
100
AcDbLine
 62
4
  6
CONTINUOUS
 10
8.8708732188
 20
10.062732621
 11
8.8998509946
 21
10.0800415232
  0
LINE
  5
2B6
100
AcDbEntity
  8
0
100
AcDbLine
 62
4
  6
CONTINUOUS
 10
8.6970065636
 20
9.8622866254
 11
8.7259843395
 21
9.8795955225
  0
LINE
  5
2B7
100
AcDbEntity
  8
0
100
AcDbLine
 62
4
  6
CONTINUOUS
 10
7.3447103965
 20
9.0770759442
 11
7.3302215086
 21
9.0973992646
  0
LINE
  5
2B8
100
AcDbEntity
  8
0
100
AcDbLine
 62
4
  6
CONTINUOUS
 10
7.446132612
 20
8.9927682184
 11
7.4316437241
 21
9.0130915388
  0
LINE
  5
2B9
100
AcDbEntity
  8
0
100
AcDbLine
 62
4
  6
CONTINUOUS
 10
7.4316437241
 20
9.1483211635
 11
7.4606214999
 21
9.107674514
  0
LINE
  5
2BA
100
AcDbEntity
  8
0
100
AcDbLine
 62
4
  6
CONTINUOUS
 10
9.875436251
 20
5.7429918433
 11
9.8899251389
 21
5.7226685177
  0
LINE
  5
2BB
100
AcDbEntity
  8
0
100
AcDbLine
 62
4
  6
CONTINUOUS
 10
8.2188732619
 20
9.8954452825
 11
8.1754065982
 21
10.1302819128
  0
LINE
  5
2BC
100
AcDbEntity
  8
0
100
AcDbLine
 62
4
  6
CONTINUOUS
 10
8.3058065895
 20
9.8894164358
 11
8.2623399257
 21
10.124253066
  0
LINE
  5
2BD
100
AcDbEntity
  8
0
100
AcDbLine
 62
4
  6
CONTINUOUS
 10
8.7404732274
 20
9.8979092411
 11
8.7404732274
 21
9.9172277538
  0
LINE
  5
2BE
100
AcDbEntity
  8
0
100
AcDbLine
 62
4
  6
CONTINUOUS
 10
7.4026659482
 20
8.93782709
 11
7.4316437241
 21
8.9551359871
  0
LINE
  5
2BF
100
AcDbEntity
  8
0
100
AcDbLine
 62
4
  6
CONTINUOUS
 10
8.9578065463
 20
9.8635185978
 11
8.9288287705
 21
9.8462097008
  0
LINE
  5
2C0
100
AcDbEntity
  8
0
100
AcDbLine
 62
4
  6
CONTINUOUS
 10
9.8029918114
 20
5.5741492323
 11
9.7885029234
 21
5.6137910654
  0
LINE
  5
2C1
100
AcDbEntity
  8
0
100
AcDbLine
 62
4
  6
CONTINUOUS
 10
9.8899251389
 20
5.7226685177
 11
9.9044140269
 21
5.6830266743
  0
LINE
  5
2C2
100
AcDbEntity
  8
0
100
AcDbLine
 62
4
  6
CONTINUOUS
 10
9.6146362683
 20
5.5485746945
 11
9.5421918286
 21
5.7854209403
  0
LINE
  5
2C3
100
AcDbEntity
  8
0
100
AcDbLine
 62
4
  6
CONTINUOUS
 10
8.4506954688
 20
9.8793683579
 11
8.3782510292
 21
10.1162146037
  0
LINE
  5
2C4
100
AcDbEntity
  8
0
100
AcDbLine
 62
4
  6
CONTINUOUS
 10
9.1509918546
 20
5.5807285438
 11
9.1509918546
 21
5.8125507507
  0
LINE
  5
2C5
100
AcDbEntity
  8
0
100
AcDbLine
 62
7
  6
CONTINUOUS
 10
9.1753438413
 20
9.1099286838
 11
8.9267463524
 21
8.8698019347
  0
LINE
  5
2C6
100
AcDbEntity
  8
0
100
AcDbLine
 62
7
  6
CONTINUOUS
 10
9.2064840615
 20
9.0538326586
 11
8.9578865726
 21
8.8137059095
  0
LINE
  5
2C7
100
AcDbEntity
  8
0
100
AcDbLine
 62
4
  6
CONTINUOUS
 10
7.3447103965
 20
8.9611648338
 11
7.3736881723
 21
8.9398367056
  0
LINE
  5
2C8
100
AcDbEntity
  8
0
100
AcDbLine
 62
4
  6
CONTINUOUS
 10
7.4316437241
 20
9.0130915388
 11
7.3447103965
 21
9.0770759442
  0
LINE
  5
2C9
100
AcDbEntity
  8
0
100
AcDbLine
 62
4
  6
CONTINUOUS
 10
7.4026659482
 20
9.1696492969
 11
7.4316437241
 21
9.1483211635
  0
LINE
  5
2CA
100
AcDbEntity
  8
0
100
AcDbLine
 62
4
  6
CONTINUOUS
 10
8.9867843222
 20
10.0160571248
 11
9.0012732101
 21
9.9570967653
  0
LINE
  5
2CB
100
AcDbEntity
  8
0
100
AcDbLine
 62
4
  6
CONTINUOUS
 10
9.7885029234
 20
5.6137910654
 11
9.7885029234
 21
5.6910651366
  0
LINE
  5
2CC
100
AcDbEntity
  8
0
100
AcDbLine
 62
4
  6
CONTINUOUS
 10
8.624562124
 20
9.9059477035
 11
8.6390510119
 21
9.8856243692
  0
LINE
  5
2CD
100
AcDbEntity
  8
0
100
AcDbLine
 62
4
  6
CONTINUOUS
 10
9.9044140269
 20
5.6830266743
 11
9.9044140269
 21
5.605752603
  0
LINE
  5
2CE
100
AcDbEntity
  8
0
100
AcDbLine
 62
4
  6
CONTINUOUS
 10
10.078280682
 20
5.5164208452
 11
10.078280682
 21
5.7482430521
  0
LINE
  5
2CF
100
AcDbEntity
  8
0
100
AcDbLine
 62
7
  6
CONTINUOUS
 10
9.2064840615
 20
8.2892561015
 11
8.9578865726
 21
8.0491293524
  0
LINE
  5
2D0
100
AcDbEntity
  8
0
100
AcDbLine
 62
7
  6
CONTINUOUS
 10
9.1753438413
 20
8.2374792396
 11
8.9267463524
 21
7.9973524905
  0
LINE
  5
2D1
100
AcDbEntity
  8
0
100
AcDbLine
 62
4
  6
CONTINUOUS
 10
12.5462213024
 20
7.4703054565
 11
12.4013324231
 21
7.4803535344
  0
LINE
  5
2D2
100
AcDbEntity
  8
0
100
AcDbLine
 62
4
  6
CONTINUOUS
 10
11.0973325095
 20
7.5707862356
 11
11.0683547337
 21
7.5727958512
  0
LINE
  5
2D3
100
AcDbEntity
  8
0
100
AcDbLine
 62
4
  6
CONTINUOUS
 10
12.2854213197
 20
7.6043031002
 11
12.1984879921
 21
7.6103319469
  0
LINE
  5
2D4
100
AcDbEntity
  8
0
100
AcDbLine
 62
4
  6
CONTINUOUS
 10
11.3581324922
 20
7.6686107988
 11
11.2711991647
 21
7.6746396455
  0
LINE
  5
2D5
100
AcDbEntity
  8
0
100
AcDbLine
 62
4
  6
CONTINUOUS
 10
11.5899546991
 20
7.6911709063
 11
11.5030213715
 21
7.6971997531
  0
LINE
  5
2D6
100
AcDbEntity
  8
0
100
AcDbLine
 62
4
  6
CONTINUOUS
 10
8.6390510119
 20
10.0015354796
 11
8.624562124
 21
10.0218588
  0
LINE
  5
2D7
100
AcDbEntity
  8
0
100
AcDbLine
 62
4
  6
CONTINUOUS
 10
8.7404732274
 20
9.9172277538
 11
8.7259843395
 21
9.9375510742
  0
LINE
  5
2D8
100
AcDbEntity
  8
0
100
AcDbLine
 62
4
  6
CONTINUOUS
 10
8.8708732188
 20
9.8695474446
 11
8.8563843308
 21
9.8898707788
  0
LINE
  5
2D9
100
AcDbEntity
  8
0
100
AcDbLine
 62
4
  6
CONTINUOUS
 10
8.7259843395
 20
10.0727806989
 11
8.7549621153
 21
10.0321340494
  0
LINE
  5
2DA
100
AcDbEntity
  8
0
100
AcDbLine
 62
4
  6
CONTINUOUS
 10
8.9578065463
 20
10.0567037742
 11
8.9867843222
 21
10.0160571248
  0
LINE
  5
2DB
100
AcDbEntity
  8
0
100
AcDbLine
 62
4
  6
CONTINUOUS
 10
10.5419250957
 20
5.4842669959
 11
10.5419250957
 21
5.7160892028
  0
LINE
  5
2DC
100
AcDbEntity
  8
0
100
AcDbLine
 62
4
  6
CONTINUOUS
 10
9.6870807079
 20
5.7753728624
 11
9.6146362683
 21
5.5485746945
  0
LINE
  5
2DD
100
AcDbEntity
  8
0
100
AcDbLine
 62
4
  6
CONTINUOUS
 10
11.1407991733
 20
7.7995940191
 11
11.0248880699
 21
7.8076324814
  0
LINE
  5
2DE
100
AcDbEntity
  8
0
100
AcDbLine
 62
4
  6
CONTINUOUS
 10
11.0683547337
 20
7.5727958512
 11
11.0393769578
 21
7.5941239794
  0
LINE
  5
2DF
100
AcDbEntity
  8
0
100
AcDbLine
 62
4
  6
CONTINUOUS
 10
11.0393769578
 20
7.5941239794
 11
11.0248880699
 21
7.6144473136
  0
LINE
  5
2E0
100
AcDbEntity
  8
0
100
AcDbLine
 62
4
  6
CONTINUOUS
 10
11.0248880699
 20
7.6144473136
 11
11.0248880699
 21
7.6530843389
  0
LINE
  5
2E1
100
AcDbEntity
  8
0
100
AcDbLine
 62
4
  6
CONTINUOUS
 10
9.7885029234
 20
5.6910651366
 11
9.8029918114
 21
5.7286973645
  0
LINE
  5
2E2
100
AcDbEntity
  8
0
100
AcDbLine
 62
4
  6
CONTINUOUS
 10
9.9044140269
 20
5.605752603
 11
9.8899251389
 21
5.5681203856
  0
LINE
  5
2E3
100
AcDbEntity
  8
0
100
AcDbLine
 62
4
  6
CONTINUOUS
 10
11.7783102422
 20
7.5235602694
 11
11.7493324663
 21
7.5448883976
  0
LINE
  5
2E4
100
AcDbEntity
  8
0
100
AcDbLine
 62
4
  6
CONTINUOUS
 10
8.6390510119
 20
9.8856243692
 11
8.6680287877
 21
9.864296241
  0
LINE
  5
2E5
100
AcDbEntity
  8
0
100
AcDbLine
 62
4
  6
CONTINUOUS
 10
8.7259843395
 20
9.9375510742
 11
8.6390510119
 21
10.0015354796
  0
LINE
  5
2E6
100
AcDbEntity
  8
0
100
AcDbLine
 62
4
  6
CONTINUOUS
 10
8.8998509946
 20
9.8482193164
 11
8.8708732188
 21
9.8695474446
  0
LINE
  5
2E7
100
AcDbEntity
  8
0
100
AcDbLine
 62
4
  6
CONTINUOUS
 10
11.7783102422
 20
7.7553824763
 11
11.807288018
 21
7.7340543429
  0
LINE
  5
2E8
100
AcDbEntity
  8
0
100
AcDbLine
 62
4
  6
CONTINUOUS
 10
8.6970065636
 20
10.0941088323
 11
8.7259843395
 21
10.0727806989
  0
LINE
  5
2E9
100
AcDbEntity
  8
0
100
AcDbLine
 62
4
  6
CONTINUOUS
 10
8.9288287705
 20
10.0780319076
 11
8.9578065463
 21
10.0567037742
  0
LINE
  5
2EA
100
AcDbEntity
  8
0
100
AcDbLine
 62
4
  6
CONTINUOUS
 10
11.1263102854
 20
7.7426432752
 11
11.1407991733
 21
7.7995940191
  0
LINE
  5
2EB
100
AcDbEntity
  8
0
100
AcDbLine
 62
4
  6
CONTINUOUS
 10
7.3736881723
 20
8.9398367056
 11
7.4026659482
 21
8.93782709
  0
LINE
  5
2EC
100
AcDbEntity
  8
0
100
AcDbLine
 62
4
  6
CONTINUOUS
 10
7.3736881723
 20
9.1716589125
 11
7.4026659482
 21
9.1696492969
  0
LINE
  5
2ED
100
AcDbEntity
  8
0
100
AcDbLine
 62
4
  6
CONTINUOUS
 10
11.7493324663
 20
7.5448883976
 11
11.7348435784
 21
7.5652117319
  0
LINE
  5
2EE
100
AcDbEntity
  8
0
100
AcDbLine
 62
4
  6
CONTINUOUS
 10
11.807288018
 20
7.7340543429
 11
11.821776906
 21
7.7137310173
  0
LINE
  5
2EF
100
AcDbEntity
  8
0
100
AcDbLine
 62
4
  6
CONTINUOUS
 10
11.7348435784
 20
7.5652117319
 11
11.7203546905
 21
7.6048535649
  0
LINE
  5
2F0
100
AcDbEntity
  8
0
100
AcDbLine
 62
4
  6
CONTINUOUS
 10
11.5464880353
 20
7.5396371941
 11
11.4740435957
 21
7.7764834399
  0
LINE
  5
2F1
100
AcDbEntity
  8
0
100
AcDbLine
 62
4
  6
CONTINUOUS
 10
11.7203546905
 20
7.6048535649
 11
11.7203546905
 21
7.6821276362
  0
LINE
  5
2F2
100
AcDbEntity
  8
0
100
AcDbLine
 62
4
  6
CONTINUOUS
 10
11.618932475
 20
7.766435362
 11
11.5464880353
 21
7.5396371941
  0
LINE
  5
2F3
100
AcDbEntity
  8
0
100
AcDbLine
 62
4
  6
CONTINUOUS
 10
11.0248880699
 20
7.6530843389
 11
11.0393769578
 21
7.6713980576
  0
LINE
  5
2F4
100
AcDbEntity
  8
0
100
AcDbLine
 62
4
  6
CONTINUOUS
 10
11.0973325095
 20
7.7060158586
 11
11.1263102854
 21
7.7426432752
  0
LINE
  5
2F5
100
AcDbEntity
  8
0
100
AcDbLine
 62
4
  6
CONTINUOUS
 10
11.1407991733
 20
7.6064088513
 11
11.1263102854
 21
7.5880951326
  0
LINE
  5
2F6
100
AcDbEntity
  8
0
100
AcDbLine
 62
4
  6
CONTINUOUS
 10
9.8029918114
 20
5.7286973645
 11
9.8174806993
 21
5.7470110745
  0
LINE
  5
2F7
100
AcDbEntity
  8
0
100
AcDbLine
 62
7
  6
CONTINUOUS
 10
13.8019249058
 20
10.416229477
 11
15.322744341
 21
11.8852283336
  0
LINE
  5
2F8
100
AcDbEntity
  8
0
100
AcDbLine
 62
4
  6
CONTINUOUS
 10
11.0393769578
 20
7.6713980576
 11
11.0973325095
 21
7.7060158586
  0
LINE
  5
2F9
100
AcDbEntity
  8
0
100
AcDbLine
 62
4
  6
CONTINUOUS
 10
11.821776906
 20
7.7137310173
 11
11.8362657939
 21
7.6740891739
  0
LINE
  5
2FA
100
AcDbEntity
  8
0
100
AcDbLine
 62
4
  6
CONTINUOUS
 10
11.8362657939
 20
7.6740891739
 11
11.8362657939
 21
7.5968151026
  0
LINE
  5
2FB
100
AcDbEntity
  8
0
100
AcDbLine
 62
4
  6
CONTINUOUS
 10
12.0101324491
 20
7.5074833448
 11
12.0101324491
 21
7.7393055516
  0
LINE
  5
2FC
100
AcDbEntity
  8
0
100
AcDbLine
 62
4
  6
CONTINUOUS
 10
11.7203546905
 20
7.6821276362
 11
11.7348435784
 21
7.719759864
  0
LINE
  5
2FD
100
AcDbEntity
  8
0
100
AcDbLine
 62
4
  6
CONTINUOUS
 10
11.8362657939
 20
7.5968151026
 11
11.821776906
 21
7.5591828851
  0
LINE
  5
2FE
100
AcDbEntity
  8
0
100
AcDbLine
 62
4
  6
CONTINUOUS
 10
9.8899251389
 20
5.5681203856
 11
9.875436251
 21
5.5498066669
  0
LINE
  5
2FF
100
AcDbEntity
  8
0
100
AcDbLine
 62
4
  6
CONTINUOUS
 10
11.7348435784
 20
7.719759864
 11
11.7493324663
 21
7.7380735741
  0
LINE
  5
300
100
AcDbEntity
  8
0
100
AcDbLine
 62
4
  6
CONTINUOUS
 10
11.1263102854
 20
7.5880951326
 11
11.0973325095
 21
7.5707862356
  0
LINE
  5
301
100
AcDbEntity
  8
0
100
AcDbLine
 62
4
  6
CONTINUOUS
 10
11.7493324663
 20
7.7380735741
 11
11.7783102422
 21
7.7553824763
  0
LINE
  5
302
100
AcDbEntity
  8
0
100
AcDbLine
 62
4
  6
CONTINUOUS
 10
8.9288287705
 20
9.8462097008
 11
8.8998509946
 21
9.8482193164
  0
LINE
  5
303
100
AcDbEntity
  8
0
100
AcDbLine
 62
4
  6
CONTINUOUS
 10
8.6680287877
 20
9.864296241
 11
8.6970065636
 21
9.8622866254
  0
LINE
  5
304
100
AcDbEntity
  8
0
100
AcDbLine
 62
4
  6
CONTINUOUS
 10
12.4737768628
 20
7.4753294955
 11
12.4737768628
 21
7.7071517023
  0
LINE
  5
305
100
AcDbEntity
  8
0
100
AcDbLine
 62
4
  6
CONTINUOUS
 10
11.821776906
 20
7.5591828851
 11
11.807288018
 21
7.5408691665
  0
LINE
  5
306
100
AcDbEntity
  8
0
100
AcDbLine
 62
4
  6
CONTINUOUS
 10
11.807288018
 20
7.5408691665
 11
11.7783102422
 21
7.5235602694
  0
LINE
  5
307
100
AcDbEntity
  8
0
100
AcDbLine
 62
4
  6
CONTINUOUS
 10
8.4941621326
 20
10.0309020701
 11
8.407228805
 21
10.0369309168
  0
LINE
  5
308
100
AcDbEntity
  8
0
100
AcDbLine
 62
4
  6
CONTINUOUS
 10
8.6680287877
 20
10.0961184479
 11
8.6970065636
 21
10.0941088323
  0
LINE
  5
309
100
AcDbEntity
  8
0
100
AcDbLine
 62
4
  6
CONTINUOUS
 10
8.8998509946
 20
10.0800415232
 11
8.9288287705
 21
10.0780319076
  0
LINE
  5
30A
100
AcDbEntity
  8
0
100
AcDbLine
 62
4
  6
CONTINUOUS
 10
9.8174806993
 20
5.7470110745
 11
9.8464584751
 21
5.7643199767
  0
LINE
  5
30B
100
AcDbEntity
  8
0
100
AcDbLine
 62
4
  6
CONTINUOUS
 10
9.875436251
 20
5.5498066669
 11
9.8464584751
 21
5.5324977699
  0
LINE
  5
30C
100
AcDbEntity
  8
0
100
AcDbLine
 62
7
  6
CONTINUOUS
 10
6.677255659
 20
10.9103269675
 11
13.8019249058
 21
10.416229477
  0
LINE
  5
30D
100
AcDbEntity
  8
0
100
AcDbLine
 62
7
  6
CONTINUOUS
 10
13.8019249058
 20
4.6206741759
 11
13.8019249058
 21
10.416229477
  0
LINE
  5
30E
100
AcDbEntity
  8
0
100
AcDbLine
 62
7
  6
CONTINUOUS
 10
15.322744341
 20
11.8852283336
 11
8.1980750942
 21
12.3793258241
  0
LINE
  5
30F
100
AcDbEntity
  8
0
100
AcDbLine
 62
7
  6
CONTINUOUS
 10
15.322744341
 20
6.0896730325
 11
15.322744341
 21
11.8852283336
  0
LINE
  5
310
100
AcDbEntity
  8
0
100
AcDbLine
 62
7
  6
CONTINUOUS
 10
13.8019249058
 20
4.6206741759
 11
15.322744341
 21
6.0896730325
  0
ARC
  5
311
100
AcDbEntity
  8
0
100
AcDbCircle
 62
7
  6
CONTINUOUS
 10
12.815186209
 20
8.5852757356
 40
1.7141636988
100
AcDbArc
 50
142.1712216406
 51
148.533621219
  0
ARC
  5
312
100
AcDbEntity
  8
0
100
AcDbCircle
 62
7
  6
CONTINUOUS
 10
8.4084845625
 20
8.6475357529
 40
0.8954777361
100
AcDbArc
 50
26.9826606318
 51
31.0887050487
  0
ARC
  5
313
100
AcDbEntity
  8
0
100
AcDbCircle
 62
7
  6
CONTINUOUS
 10
8.3070397476
 20
8.555904092
 40
0.8954777361
100
AcDbArc
 50
206.9826606318
 51
211.0887050487
  0
ARC
  5
314
100
AcDbEntity
  8
0
100
AcDbCircle
 62
7
  6
CONTINUOUS
 10
8.1598870736
 20
8.4074090038
 40
0.8954777361
100
AcDbArc
 50
26.9826606318
 51
31.0887050487
  0
ARC
  5
315
100
AcDbEntity
  8
0
100
AcDbCircle
 62
7
  6
CONTINUOUS
 10
8.4246899405
 20
8.714067943
 40
0.8288085252
100
AcDbArc
 50
83.8695051668
 51
86.0307544453
  0
ARC
  5
316
100
AcDbEntity
  8
0
100
AcDbCircle
 62
7
  6
CONTINUOUS
 10
8.2908343696
 20
8.4893719018
 40
0.8288085252
100
AcDbArc
 50
263.8695051668
 51
266.0307544453
  0
ARC
  5
317
100
AcDbEntity
  8
0
100
AcDbCircle
 62
7
  6
CONTINUOUS
 10
8.1760924516
 20
8.4739411939
 40
0.8288085252
100
AcDbArc
 50
83.8695051668
 51
86.0307544453
  0
ARC
  5
318
100
AcDbEntity
  8
0
100
AcDbCircle
 62
7
  6
CONTINUOUS
 10
8.2903647286
 20
8.4828955522
 40
0.8223152013
100
AcDbArc
 50
266.0321629527
 51
268.2047714632
  0
ARC
  5
319
100
AcDbEntity
  8
0
100
AcDbCircle
 62
7
  6
CONTINUOUS
 10
8.1765620926
 20
8.4804175435
 40
0.8223152013
100
AcDbArc
 50
86.0321629527
 51
88.2047714632
  0
ARC
  5
31A
100
AcDbEntity
  8
0
100
AcDbCircle
 62
7
  6
CONTINUOUS
 10
8.4252139673
 20
8.7216247758
 40
0.8212335449
100
AcDbArc
 50
86.0307319968
 51
88.2062024191
  0
ARC
  5
31B
100
AcDbEntity
  8
0
100
AcDbCircle
 62
7
  6
CONTINUOUS
 10
11.7238214818
 20
8.8579145699
 40
0.7924288683
100
AcDbArc
 50
0.0056570498
 51
4.239305365
  0
ARC
  5
31C
100
AcDbEntity
  8
0
100
AcDbCircle
 62
7
  6
CONTINUOUS
 10
9.7919694844
 20
6.818555723
 40
0.7924288683
100
AcDbArc
 50
0.0056570498
 51
4.239305365
  0
ARC
  5
31D
100
AcDbEntity
  8
0
100
AcDbCircle
 62
7
  6
CONTINUOUS
 10
9.8659527779
 20
6.7841250172
 40
0.7498437952
100
AcDbArc
 50
310.5981785287
 51
312.4157633705
  0
ARC
  5
31E
100
AcDbEntity
  8
0
100
AcDbCircle
 62
7
  6
CONTINUOUS
 10
11.7978047753
 20
8.823483864
 40
0.7498437952
100
AcDbArc
 50
310.5981785287
 51
312.4157633705
  0
ARC
  5
31F
100
AcDbEntity
  8
0
100
AcDbCircle
 62
7
  6
CONTINUOUS
 10
9.7114760133
 20
6.9440486149
 40
0.7498084012
100
AcDbArc
 50
135.5422736849
 51
137.4164016546
  0
ARC
  5
320
100
AcDbEntity
  8
0
100
AcDbCircle
 62
7
  6
CONTINUOUS
 10
11.6433280107
 20
8.9834074617
 40
0.7498084012
100
AcDbArc
 50
135.5422736849
 51
137.4164016546
  0
ARC
  5
321
100
AcDbEntity
  8
0
100
AcDbCircle
 62
7
  6
CONTINUOUS
 10
8.550524325
 20
8.6485179719
 40
0.7478985676
100
AcDbArc
 50
326.6610039569
 51
331.2909683674
  0
ARC
  5
322
100
AcDbEntity
  8
0
100
AcDbCircle
 62
7
  6
CONTINUOUS
 10
8.1649999851
 20
8.5549218729
 40
0.7478985676
100
AcDbArc
 50
146.6610039569
 51
151.2909683674
  0
ARC
  5
323
100
AcDbEntity
  8
0
100
AcDbCircle
 62
7
  6
CONTINUOUS
 10
8.3019268361
 20
8.4083912228
 40
0.7478985676
100
AcDbArc
 50
326.6610039569
 51
331.2909683674
  0
ARC
  5
324
100
AcDbEntity
  8
0
100
AcDbCircle
 62
7
  6
CONTINUOUS
 10
10.4321215433
 20
7.5465858819
 40
0.6970592523
100
AcDbArc
 50
170.5472801334
 51
180.0287273565
  0
ARC
  5
325
100
AcDbEntity
  8
0
100
AcDbCircle
 62
7
  6
CONTINUOUS
 10
12.3639735406
 20
9.5859447287
 40
0.6970592523
100
AcDbArc
 50
170.5472801334
 51
180.0287273565
  0
ARC
  5
326
100
AcDbEntity
  8
0
100
AcDbCircle
 62
7
  6
CONTINUOUS
 10
12.37332249
 20
9.5920090118
 40
0.6656436477
100
AcDbArc
 50
170.7130630571
 51
180.0277454756
  0
ARC
  5
327
100
AcDbEntity
  8
0
100
AcDbCircle
 62
7
  6
CONTINUOUS
 10
10.4414704926
 20
7.5526501649
 40
0.6656436477
100
AcDbArc
 50
170.7130630571
 51
180.0277454756
  0
ARC
  5
328
100
AcDbEntity
  8
0
100
AcDbCircle
 62
7
  6
CONTINUOUS
 10
10.449565506
 20
7.5588979448
 40
0.6551019243
100
AcDbArc
 50
171.2237309855
 51
180.0248265782
  0
ARC
  5
329
100
AcDbEntity
  8
0
100
AcDbCircle
 62
7
  6
CONTINUOUS
 10
12.3814175034
 20
9.5982567916
 40
0.6551019243
100
AcDbArc
 50
171.2237309855
 51
180.0248265782
  0
ARC
  5
32A
100
AcDbEntity
  8
0
100
AcDbCircle
 62
7
  6
CONTINUOUS
 10
8.5519726386
 20
8.9002169145
 40
0.6255008198
100
AcDbArc
 50
110.9429853768
 51
120.9123552162
  0
ARC
  5
32B
100
AcDbEntity
  8
0
100
AcDbCircle
 62
7
  6
CONTINUOUS
 10
10.699636441
 20
6.4750448128
 40
0.2274619728
100
AcDbArc
 50
133.8340985092
 51
134.0068651303
  0
SPLINE
  5
32C
100
AcDbEntity
  8
0
100
AcDbSpline
 62
7
  6
CONTINUOUS
 70
0
 71
3
 72
20
 73
16
 74
0
 42
0.0000001
 43
0.0000001
 44
0.0000000001
 40
0.0
 40
0.0
 40
0.0
 40
0.0
 40
0.1309034495
 40
0.2613620579
 40
0.326250201
 40
0.39079409
 40
0.4548970145
 40
0.518461259
 40
0.5813947556
 40
0.6436176256
 40
0.7050675602
 40
0.7657032334
 40
0.825505336
 40
0.8844745681
 40
1.0
 40
1.0
 40
1.0
 40
1.0
 10
7.5090402487
 20
8.9141837433
 30
0.0
 10
7.506791499
 20
8.8808659007
 30
0.0
 10
7.5027000702
 20
8.8143156253
 30
0.0
 10
7.4987984572
 20
8.7311764683
 30
0.0
 10
7.4965409796
 20
8.6649156805
 30
0.0
 10
7.4953107719
 20
8.6155592386
 30
0.0
 10
7.4945622844
 20
8.5665308604
 30
0.0
 10
7.4943094908
 20
8.5179081837
 30
0.0
 10
7.4945573164
 20
8.4697650671
 30
0.0
 10
7.4953011508
 20
8.4221664892
 30
0.0
 10
7.4965272815
 20
8.3751642908
 30
0.0
 10
7.4982141005
 20
8.3287943797
 30
0.0
 10
7.5003339777
 20
8.2830757591
 30
0.0
 10
7.5036727395
 20
8.2233990171
 30
0.0
 10
7.5067597756
 20
8.1789895131
 30
0.0
 10
7.5090402487
 20
8.1496071863
 30
0.0
  0
SPLINE
  5
32D
100
AcDbEntity
  8
0
100
AcDbSpline
 62
7
  6
CONTINUOUS
 70
0
 71
3
 72
21
 73
17
 74
0
 42
0.0000001
 43
0.0000001
 44
0.0000000001
 40
0.0
 40
0.0
 40
0.0
 40
0.0
 40
0.1208887025
 40
0.1820497262
 40
0.2436799055
 40
0.3057548706
 40
0.3682344385
 40
0.4310623797
 40
0.4941688858
 40
0.5574748058
 40
0.6208970894
 40
0.6843546058
 40
0.7477734234
 40
0.8110908105
 40
0.8742567466
 40
1.0
 40
1.0
 40
1.0
 40
1.0
 10
7.5401804689
 20
8.0935111611
 30
0.0
 10
7.565113713
 20
8.0737297701
 30
0.0
 10
7.6029454264
 20
8.0442947856
 30
0.0
 10
7.6542199983
 20
8.0057337667
 30
0.0
 10
7.6934595714
 20
7.9769372231
 30
0.0
 10
7.7333353538
 20
7.9484271384
 30
0.0
 10
7.7738359074
 20
7.9202555805
 30
0.0
 10
7.8149340245
 20
7.8924751201
 30
0.0
 10
7.8565872406
 20
7.8651355083
 30
0.0
 10
7.8987400203
 20
7.8382802748
 30
0.0
 10
7.9413273811
 20
7.8119436643
 30
0.0
 10
7.984279401
 20
7.7861484655
 30
0.0
 10
8.0275258566
 20
7.7609050321
 30
0.0
 10
8.0710003353
 20
7.7362115729
 30
0.0
 10
8.1291008684
 20
7.7040535896
 30
0.0
 10
8.1729829304
 20
7.6806363876
 30
0.0
 10
8.2023231904
 20
7.6653031289
 30
0.0
  0
SPLINE
  5
32E
100
AcDbEntity
  8
0
100
AcDbSpline
 62
7
  6
CONTINUOUS
 70
0
 71
3
 72
15
 73
11
 74
0
 42
0.0000001
 43
0.0000001
 44
0.0000000001
 40
0.0
 40
0.0
 40
0.0
 40
0.0
 40
0.1121786521
 40
0.2284761286
 40
0.3490753419
 40
0.4737992527
 40
0.6020827469
 40
0.7331004723
 40
0.8659837967
 40
1.0
 40
1.0
 40
1.0
 40
1.0
 10
8.2646036308
 20
7.6609839657
 30
0.0
 10
8.2897765308
 20
7.6727233522
 30
0.0
 10
8.3409597857
 20
7.6968199162
 30
0.0
 10
8.4188608755
 20
7.7342638366
 30
0.0
 10
8.4992208886
 20
7.773754879
 30
0.0
 10
8.5818753033
 20
7.8152975985
 30
0.0
 10
8.6664592738
 20
7.8587372963
 30
0.0
 10
8.7524829196
 20
7.9037887538
 30
0.0
 10
8.8394431827
 20
7.9501055883
 30
0.0
 10
8.8975883004
 20
7.9815126826
 30
0.0
 10
8.9267463524
 20
7.9973524905
 30
0.0
  0
SPLINE
  5
32F
100
AcDbEntity
  8
0
100
AcDbSpline
 62
7
  6
CONTINUOUS
 70
0
 71
3
 72
20
 73
16
 74
0
 42
0.0000001
 43
0.0000001
 44
0.0000000001
 40
0.0
 40
0.0
 40
0.0
 40
0.0
 40
0.1309034495
 40
0.2613620579
 40
0.326250201
 40
0.39079409
 40
0.4548970145
 40
0.518461259
 40
0.5813947556
 40
0.6436176256
 40
0.7050675602
 40
0.7657032334
 40
0.825505336
 40
0.8844745681
 40
1.0
 40
1.0
 40
1.0
 40
1.0
 10
9.2064840615
 20
8.2892561015
 30
0.0
 10
9.2087328111
 20
8.3225739442
 30
0.0
 10
9.2128242399
 20
8.3891242196
 30
0.0
 10
9.2167258529
 20
8.4722633766
 30
0.0
 10
9.2189833306
 20
8.5385241643
 30
0.0
 10
9.2202135382
 20
8.5878806063
 30
0.0
 10
9.2209620257
 20
8.6369089845
 30
0.0
 10
9.2212148193
 20
8.6855316612
 30
0.0
 10
9.2209669937
 20
8.7336747778
 30
0.0
 10
9.2202231593
 20
8.7812733557
 30
0.0
 10
9.2189970286
 20
8.8282755541
 30
0.0
 10
9.2173102096
 20
8.8746454652
 30
0.0
 10
9.2151903324
 20
8.9203640857
 30
0.0
 10
9.2118515707
 20
8.9800408278
 30
0.0
 10
9.2087645346
 20
9.0244503318
 30
0.0
 10
9.2064840615
 20
9.0538326586
 30
0.0
  0
SPLINE
  5
330
100
AcDbEntity
  8
0
100
AcDbSpline
 62
7
  6
CONTINUOUS
 70
0
 71
3
 72
21
 73
17
 74
0
 42
0.0000001
 43
0.0000001
 44
0.0000000001
 40
0.0
 40
0.0
 40
0.0
 40
0.0
 40
0.1208887025
 40
0.1820497262
 40
0.2436799055
 40
0.3057548706
 40
0.3682344385
 40
0.4310623797
 40
0.4941688858
 40
0.5574748058
 40
0.6208970894
 40
0.6843546058
 40
0.7477734234
 40
0.8110908105
 40
0.8742567466
 40
1.0
 40
1.0
 40
1.0
 40
1.0
 10
9.1753438413
 20
9.1099286838
 30
0.0
 10
9.1504105971
 20
9.1297100748
 30
0.0
 10
9.1125788838
 20
9.1591450593
 30
0.0
 10
9.0613043118
 20
9.1977060782
 30
0.0
 10
9.0220647387
 20
9.2265026217
 30
0.0
 10
8.9821889563
 20
9.2550127064
 30
0.0
 10
8.9416884027
 20
9.2831842644
 30
0.0
 10
8.9005902856
 20
9.3109647248
 30
0.0
 10
8.8589370695
 20
9.3383043365
 30
0.0
 10
8.8167842898
 20
9.3651595701
 30
0.0
 10
8.774196929
 20
9.3914961806
 30
0.0
 10
8.7312449091
 20
9.4172913794
 30
0.0
 10
8.6879984535
 20
9.4425348128
 30
0.0
 10
8.6445239748
 20
9.467228272
 30
0.0
 10
8.5864234417
 20
9.4993862553
 30
0.0
 10
8.5425413797
 20
9.5228034572
 30
0.0
 10
8.5132011197
 20
9.538136716
 30
0.0
  0
SPLINE
  5
331
100
AcDbEntity
  8
0
100
AcDbSpline
 62
7
  6
CONTINUOUS
 70
0
 71
3
 72
15
 73
11
 74
0
 42
0.0000001
 43
0.0000001
 44
0.0000000001
 40
0.0
 40
0.0
 40
0.0
 40
0.0
 40
0.1121786521
 40
0.2284761286
 40
0.3490753419
 40
0.4737992527
 40
0.6020827469
 40
0.7331004723
 40
0.8659837967
 40
1.0
 40
1.0
 40
1.0
 40
1.0
 10
8.4509206793
 20
9.5424558792
 30
0.0
 10
8.4257477793
 20
9.5307164927
 30
0.0
 10
8.3745645244
 20
9.5066199286
 30
0.0
 10
8.2966634346
 20
9.4691760082
 30
0.0
 10
8.2163034215
 20
9.4296849659
 30
0.0
 10
8.1336490069
 20
9.3881422464
 30
0.0
 10
8.0490650363
 20
9.3447025486
 30
0.0
 10
7.9630413906
 20
9.2996510911
 30
0.0
 10
7.8760811275
 20
9.2533342566
 30
0.0
 10
7.8179360097
 20
9.2219271623
 30
0.0
 10
7.7887779577
 20
9.2060873544
 30
0.0
  0
SPLINE
  5
332
100
AcDbEntity
  8
0
100
AcDbSpline
 62
7
  6
CONTINUOUS
 70
0
 71
3
 72
69
 73
65
 74
0
 42
0.0000001
 43
0.0000001
 44
0.0000000001
 40
0.0
 40
0.0
 40
0.0
 40
0.0
 40
0.0156205714
 40
0.0311913852
 40
0.0467079772
 40
0.06217213
 40
0.0775863871
 40
0.0929523587
 40
0.1082722279
 40
0.1235489783
 40
0.1387860012
 40
0.153986987
 40
0.1691560547
 40
0.1842976444
 40
0.1994165132
 40
0.2145176268
 40
0.2296061576
 40
0.2446873943
 40
0.2597667245
 40
0.2748495549
 40
0.2899412358
 40
0.3050470393
 40
0.3201720728
 40
0.3353212665
 40
0.3504992628
 40
0.3657104298
 40
0.3809587547
 40
0.3962478734
 40
0.4115809858
 40
0.4269608476
 40
0.4423897281
 40
0.4578694146
 40
0.4734012032
 40
0.4889858535
 40
0.5046236349
 40
0.5203142721
 40
0.5360570259
 40
0.5518506307
 40
0.5676933837
 40
0.5835830748
 40
0.5995171091
 40
0.6154924614
 40
0.6315057604
 40
0.6475532582
 40
0.6636309306
 40
0.6797344691
 40
0.6958593554
 40
0.712000872
 40
0.7281541559
 40
0.7443142354
 40
0.760476094
 40
0.7766347006
 40
0.7927850368
 40
0.8089221633
 40
0.825041253
 40
0.841137653
 40
0.8572068966
 40
0.8732447586
 40
0.8892472438
 40
0.905210786
 40
0.9211321918
 40
0.9370083369
 40
0.9686063743
 40
1.0
 40
1.0
 40
1.0
 40
1.0
 10
8.2177733528
 20
7.7488181835
 30
0.0
 10
8.2294941192
 20
7.7480053456
 30
0.0
 10
8.2529420391
 20
7.7469533738
 30
0.0
 10
8.2880864121
 20
7.7471047311
 30
0.0
 10
8.3230636962
 20
7.7489903954
 30
0.0
 10
8.3577863488
 20
7.7526044128
 30
0.0
 10
8.3921721916
 20
7.7579387213
 30
0.0
 10
8.4261388042
 20
7.7649798975
 30
0.0
 10
8.459603803
 20
7.7737119197
 30
0.0
 10
8.492486557
 20
7.7841132444
 30
0.0
 10
8.5247078544
 20
7.7961589933
 30
0.0
 10
8.5561899102
 20
7.8098203839
 30
0.0
 10
8.5868569512
 20
7.8250641247
 30
0.0
 10
8.6166346717
 20
7.8418541544
 30
0.0
 10
8.6454517459
 20
7.8601491623
 30
0.0
 10
8.6732379813
 20
7.8799061055
 30
0.0
 10
8.6999271666
 20
7.901076196
 30
0.0
 10
8.7254539458
 20
7.9236096003
 30
0.0
 10
8.7497578134
 20
7.947450767
 30
0.0
 10
8.7727790213
 20
7.972543346
 30
0.0
 10
8.794463191
 20
7.9988257488
 30
0.0
 10
8.8147569409
 20
8.0262354754
 30
0.0
 10
8.833612344
 20
8.0547056551
 30
0.0
 10
8.8509831353
 20
8.0841681685
 30
0.0
 10
8.8668281034
 20
8.1145515562
 30
0.0
 10
8.8811086969
 20
8.1457827424
 30
0.0
 10
8.8937906832
 20
8.177786317
 30
0.0
 10
8.9048437002
 20
8.2104850602
 30
0.0
 10
8.914240751
 20
8.2438002589
 30
0.0
 10
8.9219599786
 20
8.2776514054
 30
0.0
 10
8.9279818939
 20
8.3119570975
 30
0.0
 10
8.9322932608
 20
8.3466344603
 30
0.0
 10
8.9348824079
 20
8.3816000896
 30
0.0
 10
8.9357446876
 20
8.4167696449
 30
0.0
 10
8.9348765373
 20
8.4520584246
 30
0.0
 10
8.9322816978
 20
8.487381473
 30
0.0
 10
8.9279650105
 20
8.5226536072
 30
0.0
 10
8.9219382968
 20
8.5577900644
 30
0.0
 10
8.9142149779
 20
8.5927060435
 30
0.0
 10
8.9048146625
 20
8.627317683
 30
0.0
 10
8.8937593549
 20
8.6615414767
 30
0.0
 10
8.8810761433
 20
8.6952951749
 30
0.0
 10
8.8667954738
 20
8.7284974926
 30
0.0
 10
8.8509516414
 20
8.7610684443
 30
0.0
 10
8.8335832062
 20
8.7929298291
 30
0.0
 10
8.8147314047
 20
8.8240046235
 30
0.0
 10
8.7944424399
 20
8.8542185403
 30
0.0
 10
8.7727642123
 20
8.8834982083
 30
0.0
 10
8.74974999
 20
8.911773951
 30
0.0
 10
8.725454059
 20
8.9389767886
 30
0.0
 10
8.6999360282
 20
8.965042254
 30
0.0
 10
8.6732562396
 20
8.9899065524
 30
0.0
 10
8.6454799048
 20
9.0135108835
 30
0.0
 10
8.6166730145
 20
9.0357974018
 30
0.0
 10
8.5869056181
 20
9.05671336
 30
0.0
 10
8.5562487997
 20
9.0762076296
 30
0.0
 10
8.5247767093
 20
9.0942338261
 30
0.0
 10
8.492564918
 20
9.1107481481
 30
0.0
 10
8.4596909783
 20
9.1257109827
 30
0.0
 10
8.4262341968
 20
9.1390863408
 30
0.0
 10
8.3922740779
 20
9.1508416103
 30
0.0
 10
8.3465130202
 20
9.16429513
 30
0.0
 10
8.2884628868
 20
9.1769518039
 30
0.0
 10
8.2413292999
 20
9.1825504359
 30
0.0
 10
8.2177733528
 20
9.1841840464
 30
0.0
  0
SPLINE
  5
333
100
AcDbEntity
  8
0
100
AcDbSpline
 62
7
  6
CONTINUOUS
 70
0
 71
3
 72
69
 73
65
 74
0
 42
0.0000001
 43
0.0000001
 44
0.0000000001
 40
0.0
 40
0.0
 40
0.0
 40
0.0
 40
0.0156205714
 40
0.0311913852
 40
0.0467079772
 40
0.06217213
 40
0.0775863871
 40
0.0929523587
 40
0.1082722279
 40
0.1235489783
 40
0.1387860012
 40
0.153986987
 40
0.1691560547
 40
0.1842976444
 40
0.1994165132
 40
0.2145176268
 40
0.2296061576
 40
0.2446873943
 40
0.2597667245
 40
0.2748495549
 40
0.2899412358
 40
0.3050470393
 40
0.3201720728
 40
0.3353212665
 40
0.3504992628
 40
0.3657104298
 40
0.3809587547
 40
0.3962478734
 40
0.4115809858
 40
0.4269608476
 40
0.4423897281
 40
0.4578694146
 40
0.4734012032
 40
0.4889858535
 40
0.5046236349
 40
0.5203142721
 40
0.5360570259
 40
0.5518506307
 40
0.5676933837
 40
0.5835830748
 40
0.5995171091
 40
0.6154924614
 40
0.6315057604
 40
0.6475532582
 40
0.6636309306
 40
0.6797344691
 40
0.6958593554
 40
0.712000872
 40
0.7281541559
 40
0.7443142354
 40
0.760476094
 40
0.7766347006
 40
0.7927850368
 40
0.8089221633
 40
0.825041253
 40
0.841137653
 40
0.8572068966
 40
0.8732447586
 40
0.8892472438
 40
0.905210786
 40
0.9211321918
 40
0.9370083369
 40
0.9686063743
 40
1.0
 40
1.0
 40
1.0
 40
1.0
 10
8.2177733528
 20
9.1841840464
 30
0.0
 10
8.2060525864
 20
9.1849968843
 30
0.0
 10
8.1826046665
 20
9.1860488561
 30
0.0
 10
8.1474602935
 20
9.1858974988
 30
0.0
 10
8.1124830094
 20
9.1840118344
 30
0.0
 10
8.0777603568
 20
9.180397817
 30
0.0
 10
8.043374514
 20
9.1750635086
 30
0.0
 10
8.0094079014
 20
9.1680223324
 30
0.0
 10
7.9759429026
 20
9.1592903101
 30
0.0
 10
7.9430601486
 20
9.1488889854
 30
0.0
 10
7.9108388512
 20
9.1368432366
 30
0.0
 10
7.8793567954
 20
9.123181846
 30
0.0
 10
7.8486897544
 20
9.1079381052
 30
0.0
 10
7.8189120339
 20
9.0911480755
 30
0.0
 10
7.7900949597
 20
9.0728530676
 30
0.0
 10
7.7623087243
 20
9.0530961244
 30
0.0
 10
7.735619539
 20
9.0319260339
 30
0.0
 10
7.7100927598
 20
9.0093926296
 30
0.0
 10
7.6857888922
 20
8.9855514628
 30
0.0
 10
7.6627676843
 20
8.9604588839
 30
0.0
 10
7.6410835146
 20
8.934176481
 30
0.0
 10
7.6207897647
 20
8.9067667545
 30
0.0
 10
7.6019343616
 20
8.8782965748
 30
0.0
 10
7.5845635704
 20
8.8488340614
 30
0.0
 10
7.5687186022
 20
8.8184506736
 30
0.0
 10
7.5544380087
 20
8.7872194874
 30
0.0
 10
7.5417560224
 20
8.7552159128
 30
0.0
 10
7.5307030054
 20
8.7225171696
 30
0.0
 10
7.5213059546
 20
8.6892019709
 30
0.0
 10
7.513586727
 20
8.6553508245
 30
0.0
 10
7.5075648117
 20
8.6210451323
 30
0.0
 10
7.5032534448
 20
8.5863677696
 30
0.0
 10
7.5006642977
 20
8.5514021403
 30
0.0
 10
7.499802018
 20
8.516232585
 30
0.0
 10
7.5006701683
 20
8.4809438053
 30
0.0
 10
7.5032650078
 20
8.4456207568
 30
0.0
 10
7.5075816951
 20
8.4103486226
 30
0.0
 10
7.5136084088
 20
8.3752121655
 30
0.0
 10
7.5213317277
 20
8.3402961864
 30
0.0
 10
7.5307320431
 20
8.3056845468
 30
0.0
 10
7.5417873507
 20
8.2714607532
 30
0.0
 10
7.5544705623
 20
8.2377070549
 30
0.0
 10
7.5687512318
 20
8.2045047373
 30
0.0
 10
7.5845950642
 20
8.1719337855
 30
0.0
 10
7.6019634994
 20
8.1400724008
 30
0.0
 10
7.6208153009
 20
8.1089976064
 30
0.0
 10
7.6411042657
 20
8.0787836896
 30
0.0
 10
7.6627824933
 20
8.0495040216
 30
0.0
 10
7.6857967156
 20
8.0212282788
 30
0.0
 10
7.7100926466
 20
7.9940254412
 30
0.0
 10
7.7356106774
 20
7.9679599759
 30
0.0
 10
7.762290466
 20
7.9430956775
 30
0.0
 10
7.7900668008
 20
7.9194913464
 30
0.0
 10
7.8188736911
 20
7.8972048281
 30
0.0
 10
7.8486410875
 20
7.8762888698
 30
0.0
 10
7.8792979059
 20
7.8567946002
 30
0.0
 10
7.9107699963
 20
7.8387684037
 30
0.0
 10
7.9429817876
 20
7.8222540817
 30
0.0
 10
7.9758557273
 20
7.8072912472
 30
0.0
 10
8.0093125088
 20
7.7939158891
 30
0.0
 10
8.0432726277
 20
7.7821606196
 30
0.0
 10
8.0890336854
 20
7.7687070999
 30
0.0
 10
8.1470838188
 20
7.756050426
 30
0.0
 10
8.1942174057
 20
7.7504517939
 30
0.0
 10
8.2177733528
 20
7.7488181835
 30
0.0
  0
SPLINE
  5
334
100
AcDbEntity
  8
0
100
AcDbSpline
 62
7
  6
CONTINUOUS
 70
0
 71
3
 72
20
 73
16
 74
0
 42
0.0000001
 43
0.0000001
 44
0.0000000001
 40
0.0
 40
0.0
 40
0.0
 40
0.0
 40
0.1155254319
 40
0.174494664
 40
0.2342967666
 40
0.2949324399
 40
0.3563823744
 40
0.4186052445
 40
0.481538741
 40
0.5451029856
 40
0.6092059101
 40
0.6737497991
 40
0.7386379422
 40
0.8690965505
 40
1.0
 40
1.0
 40
1.0
 40
1.0
 10
8.9578865726
 20
8.0491293524
 30
0.0
 10
8.9556060995
 20
8.0785116793
 30
0.0
 10
8.9525190634
 20
8.1229211833
 30
0.0
 10
8.9491803016
 20
8.1825979253
 30
0.0
 10
8.9470604244
 20
8.2283165459
 30
0.0
 10
8.9453736054
 20
8.274686457
 30
0.0
 10
8.9441474748
 20
8.3216886554
 30
0.0
 10
8.9434036403
 20
8.3692872333
 30
0.0
 10
8.9431558147
 20
8.4174303499
 30
0.0
 10
8.9434086084
 20
8.4660530266
 30
0.0
 10
8.9441570958
 20
8.5150814048
 30
0.0
 10
8.9453873035
 20
8.5644378467
 30
0.0
 10
8.9476447811
 20
8.6306986344
 30
0.0
 10
8.9515463941
 20
8.7138377915
 30
0.0
 10
8.955637823
 20
8.7803880668
 30
0.0
 10
8.9578865726
 20
8.8137059095
 30
0.0
  0
SPLINE
  5
335
100
AcDbEntity
  8
0
100
AcDbSpline
 62
7
  6
CONTINUOUS
 70
0
 71
3
 72
21
 73
17
 74
0
 42
0.0000001
 43
0.0000001
 44
0.0000000001
 40
0.0
 40
0.0
 40
0.0
 40
0.0
 40
0.1257432534
 40
0.1889091896
 40
0.2522265766
 40
0.3156453943
 40
0.3791029106
 40
0.4425251942
 40
0.5058311142
 40
0.5689376204
 40
0.6317655615
 40
0.6942451294
 40
0.7563200945
 40
0.8179502739
 40
0.8791112975
 40
1.0
 40
1.0
 40
1.0
 40
1.0
 10
8.9267463524
 20
8.8698019347
 30
0.0
 10
8.8974060923
 20
8.8851351934
 30
0.0
 10
8.8535240304
 20
8.9085523954
 30
0.0
 10
8.7954234972
 20
8.9407103787
 30
0.0
 10
8.7519490185
 20
8.9654038379
 30
0.0
 10
8.7087025629
 20
8.9906472713
 30
0.0
 10
8.6657505431
 20
9.0164424701
 30
0.0
 10
8.6231631822
 20
9.0427790806
 30
0.0
 10
8.5810104025
 20
9.0696343141
 30
0.0
 10
8.5393571865
 20
9.0969739259
 30
0.0
 10
8.4982590694
 20
9.1247543863
 30
0.0
 10
8.4577585157
 20
9.1529259442
 30
0.0
 10
8.4178827334
 20
9.1814360289
 30
0.0
 10
8.3786431602
 20
9.2102325725
 30
0.0
 10
8.3273685883
 20
9.2487935914
 30
0.0
 10
8.289536875
 20
9.2782285759
 30
0.0
 10
8.2646036308
 20
9.2980099669
 30
0.0
  0
SPLINE
  5
336
100
AcDbEntity
  8
0
100
AcDbSpline
 62
7
  6
CONTINUOUS
 70
0
 71
3
 72
15
 73
11
 74
0
 42
0.0000001
 43
0.0000001
 44
0.0000000001
 40
0.0
 40
0.0
 40
0.0
 40
0.0
 40
0.1340162033
 40
0.2668995277
 40
0.3979172531
 40
0.5262007474
 40
0.6509246582
 40
0.7715238714
 40
0.8878213479
 40
1.0
 40
1.0
 40
1.0
 40
1.0
 10
8.2023231904
 20
9.3023291301
 30
0.0
 10
8.1731651385
 20
9.2864893222
 30
0.0
 10
8.1150200207
 20
9.2550822279
 30
0.0
 10
8.0280597576
 20
9.2087653934
 30
0.0
 10
7.9420361118
 20
9.1637139359
 30
0.0
 10
7.8574521413
 20
9.1202742381
 30
0.0
 10
7.7747977266
 20
9.0787315186
 30
0.0
 10
7.6944377136
 20
9.0392404762
 30
0.0
 10
7.6165366237
 20
9.0017965558
 30
0.0
 10
7.5653533689
 20
8.9776999918
 30
0.0
 10
7.5401804689
 20
8.9659606053
 30
0.0
  0
SPLINE
  5
337
100
AcDbEntity
  8
0
100
AcDbSpline
 62
7
  6
CONTINUOUS
 70
0
 71
3
 72
39
 73
35
 74
0
 42
0.0000001
 43
0.0000001
 44
0.0000000001
 40
0.0
 40
0.0
 40
0.0
 40
0.0
 40
0.0958316475
 40
0.1891006073
 40
0.279240642
 40
0.3229674356
 40
0.365711151
 40
0.4074094627
 40
0.4480020772
 40
0.4874317741
 40
0.5256439547
 40
0.5625873626
 40
0.5982141631
 40
0.6324802323
 40
0.6653459096
 40
0.6967758341
 40
0.7267403598
 40
0.7552153214
 40
0.7821838024
 40
0.8076365273
 40
0.831573723
 40
0.8540068598
 40
0.8749607899
 40
0.8944774057
 40
0.9126188108
 40
0.9294731124
 40
0.9451592998
 40
0.9598338063
 40
0.9668558128
 40
0.9737028706
 40
0.9804062828
 40
0.9869996808
 40
0.9935186293
 40
1.0
 40
1.0
 40
1.0
 40
1.0
 10
7.8600298846
 20
11.2387990766
 30
0.0
 10
7.8510700128
 20
11.2394204459
 30
0.0
 10
7.8334027669
 20
11.2408436234
 30
0.0
 10
7.8073711996
 20
11.243560322
 30
0.0
 10
7.7862582589
 20
11.2463002364
 30
0.0
 10
7.7698905496
 20
11.2487666005
 30
0.0
 10
7.7580387193
 20
11.2507246284
 30
0.0
 10
7.7465063104
 20
11.25280619
 30
0.0
 10
7.735312572
 20
11.2550078972
 30
0.0
 10
7.7244762005
 20
11.2573259619
 30
0.0
 10
7.7140152805
 20
11.2597565459
 30
0.0
 10
7.7039472578
 20
11.2622955304
 30
0.0
 10
7.6942889114
 20
11.2649386428
 30
0.0
 10
7.685056324
 20
11.2676814788
 30
0.0
 10
7.6762648354
 20
11.270519358
 30
0.0
 10
7.6679290478
 20
11.2734476175
 30
0.0
 10
7.6600627379
 20
11.2764612426
 30
0.0
 10
7.6526789023
 20
11.2795553139
 30
0.0
 10
7.6457896433
 20
11.2827246074
 30
0.0
 10
7.6394062157
 20
11.2859639664
 30
0.0
 10
7.6335389541
 20
11.2892681259
 30
0.0
 10
7.6281972432
 20
11.2926318053
 30
0.0
 10
7.6233896074
 20
11.2960499276
 30
0.0
 10
7.6191235379
 20
11.2995174029
 30
0.0
 10
7.615405927
 20
11.303029641
 30
0.0
 10
7.6122427616
 20
11.3065823866
 30
0.0
 10
7.6096403263
 20
11.3101712609
 30
0.0
 10
7.6079189123
 20
11.3132341013
 30
0.0
 10
7.6068459054
 20
11.3156865662
 30
0.0
 10
7.6061962072
 20
11.3175036201
 30
0.0
 10
7.6056904133
 20
11.319324264
 30
0.0
 10
7.6053288936
 20
11.3211477499
 30
0.0
 10
7.6051118572
 20
11.3229730013
 30
0.0
 10
7.6050635601
 20
11.3241919417
 30
0.0
 10
7.605063565
 20
11.3247993791
 30
0.0
  0
SPLINE
  5
338
100
AcDbEntity
  8
0
100
AcDbSpline
 62
7
  6
CONTINUOUS
 70
0
 71
3
 72
39
 73
35
 74
0
 42
0.0000001
 43
0.0000001
 44
0.0000000001
 40
0.0
 40
0.0
 40
0.0
 40
0.0
 40
0.0958316475
 40
0.1891006073
 40
0.279240642
 40
0.3229674356
 40
0.365711151
 40
0.4074094627
 40
0.4480020772
 40
0.4874317741
 40
0.5256439547
 40
0.5625873626
 40
0.5982141631
 40
0.6324802323
 40
0.6653459096
 40
0.6967758341
 40
0.7267403598
 40
0.7552153214
 40
0.7821838024
 40
0.8076365273
 40
0.831573723
 40
0.8540068598
 40
0.8749607899
 40
0.8944774057
 40
0.9126188108
 40
0.9294731124
 40
0.9451592998
 40
0.9598338063
 40
0.9668558128
 40
0.9737028706
 40
0.9804062828
 40
0.9869996808
 40
0.9935186293
 40
1.0
 40
1.0
 40
1.0
 40
1.0
 10
13.4141035421
 20
10.8536227603
 30
0.0
 10
13.4051436704
 20
10.8542441295
 30
0.0
 10
13.3874764244
 20
10.855667307
 30
0.0
 10
13.3614448571
 20
10.8583840056
 30
0.0
 10
13.3403319165
 20
10.86112392
 30
0.0
 10
13.3239642071
 20
10.8635902841
 30
0.0
 10
13.3121123768
 20
10.865548312
 30
0.0
 10
13.3005799679
 20
10.8676298736
 30
0.0
 10
13.2893862295
 20
10.8698315808
 30
0.0
 10
13.2785498581
 20
10.8721496455
 30
0.0
 10
13.2680889381
 20
10.8745802295
 30
0.0
 10
13.2580209154
 20
10.877119214
 30
0.0
 10
13.2483625689
 20
10.8797623264
 30
0.0
 10
13.2391299815
 20
10.8825051624
 30
0.0
 10
13.2303384929
 20
10.8853430416
 30
0.0
 10
13.2220027053
 20
10.8882713011
 30
0.0
 10
13.2141363954
 20
10.8912849263
 30
0.0
 10
13.2067525598
 20
10.8943789975
 30
0.0
 10
13.1998633008
 20
10.897548291
 30
0.0
 10
13.1934798732
 20
10.9007876501
 30
0.0
 10
13.1876126116
 20
10.9040918095
 30
0.0
 10
13.1822709007
 20
10.9074554889
 30
0.0
 10
13.1774632649
 20
10.9108736112
 30
0.0
 10
13.1731971955
 20
10.9143410865
 30
0.0
 10
13.1694795846
 20
10.9178533247
 30
0.0
 10
13.1663164192
 20
10.9214060702
 30
0.0
 10
13.1637139838
 20
10.9249949445
 30
0.0
 10
13.1619925699
 20
10.9280577849
 30
0.0
 10
13.160919563
 20
10.9305102498
 30
0.0
 10
13.1602698648
 20
10.9323273037
 30
0.0
 10
13.1597640709
 20
10.9341479476
 30
0.0
 10
13.1594025511
 20
10.9359714335
 30
0.0
 10
13.1591855147
 20
10.9377966849
 30
0.0
 10
13.1591372177
 20
10.9390156253
 30
0.0
 10
13.1591372225
 20
10.9396230627
 30
0.0
  0
SPLINE
  5
339
100
AcDbEntity
  8
0
100
AcDbSpline
 62
7
  6
CONTINUOUS
 70
0
 71
3
 72
27
 73
23
 74
0
 42
0.0000001
 43
0.0000001
 44
0.0000000001
 40
0.0
 40
0.0
 40
0.0
 40
0.0
 40
0.0637761271
 40
0.0955883976
 40
0.1273469085
 40
0.1907029206
 40
0.2538558223
 40
0.2853602401
 40
0.3168164357
 40
0.3795841196
 40
0.4421741829
 40
0.5045989092
 40
0.5668722156
 40
0.6290095116
 40
0.6910275677
 40
0.7219999748
 40
0.7529494013
 40
0.8147838969
 40
0.8765559321
 40
0.907427452
 40
0.9382910693
 40
1.0
 40
1.0
 40
1.0
 40
1.0
 10
12.5201412934
 20
8.8147511763
 30
0.0
 10
12.5201412934
 20
8.801467014
 30
0.0
 10
12.5196639442
 20
8.7815521305
 30
0.0
 10
12.5180670436
 20
8.7550728297
 30
0.0
 10
12.5158360764
 20
8.7287267103
 30
0.0
 10
12.5118574656
 20
8.6959876457
 30
0.0
 10
12.5062900341
 20
8.6635344591
 30
0.0
 10
12.5008936095
 20
8.6378236826
 30
0.0
 10
12.4948820159
 20
8.6123322541
 30
0.0
 10
12.486205007
 20
8.5808273465
 30
0.0
 10
12.473946982
 20
8.5436670794
 30
0.0
 10
12.4598786523
 20
8.507263476
 30
0.0
 10
12.4440324292
 20
8.4717009214
 30
0.0
 10
12.4264450804
 20
8.4370618291
 30
0.0
 10
12.4103637188
 20
8.4090181793
 30
0.0
 10
12.396672354
 20
8.3871291029
 30
0.0
 10
12.3824474831
 20
8.3656286958
 30
0.0
 10
12.363658445
 20
8.3394690455
 30
0.0
 10
12.3435626858
 20
8.3143200745
 30
0.0
 10
12.3267391769
 20
8.2948542617
 30
0.0
 10
12.309430132
 20
8.2758374596
 30
0.0
 10
12.2959027353
 20
8.2620807182
 30
0.0
 10
12.2866577552
 20
8.2531507225
 30
0.0
  0
SPLINE
  5
33A
100
AcDbEntity
  8
0
100
AcDbSpline
 62
7
  6
CONTINUOUS
 70
0
 71
3
 72
27
 73
23
 74
0
 42
0.0000001
 43
0.0000001
 44
0.0000000001
 40
0.0
 40
0.0
 40
0.0
 40
0.0
 40
0.0637761271
 40
0.0955883976
 40
0.1273469085
 40
0.1907029206
 40
0.2538558223
 40
0.2853602401
 40
0.3168164357
 40
0.3795841196
 40
0.4421741829
 40
0.5045989092
 40
0.5668722156
 40
0.6290095116
 40
0.6910275677
 40
0.7219999748
 40
0.7529494013
 40
0.8147838969
 40
0.8765559321
 40
0.907427452
 40
0.9382910693
 40
1.0
 40
1.0
 40
1.0
 40
1.0
 10
10.5882892961
 20
6.7753923295
 30
0.0
 10
10.5882892961
 20
6.7621081671
 30
0.0
 10
10.5878119468
 20
6.7421932836
 30
0.0
 10
10.5862150463
 20
6.7157139829
 30
0.0
 10
10.5839840791
 20
6.6893678634
 30
0.0
 10
10.5800054683
 20
6.6566287988
 30
0.0
 10
10.5744380368
 20
6.6241756122
 30
0.0
 10
10.5690416122
 20
6.5984648358
 30
0.0
 10
10.5630300186
 20
6.5729734073
 30
0.0
 10
10.5543530097
 20
6.5414684996
 30
0.0
 10
10.5420949846
 20
6.5043082326
 30
0.0
 10
10.5280266549
 20
6.4679046291
 30
0.0
 10
10.5121804319
 20
6.4323420745
 30
0.0
 10
10.494593083
 20
6.3977029822
 30
0.0
 10
10.4785117214
 20
6.3696593325
 30
0.0
 10
10.4648203567
 20
6.347770256
 30
0.0
 10
10.4505954858
 20
6.326269849
 30
0.0
 10
10.4318064477
 20
6.3001101986
 30
0.0
 10
10.4117106885
 20
6.2749612277
 30
0.0
 10
10.3948871796
 20
6.2554954149
 30
0.0
 10
10.3775781346
 20
6.2364786127
 30
0.0
 10
10.364050738
 20
6.2227218713
 30
0.0
 10
10.3548057579
 20
6.2137918756
 30
0.0
  0
SPLINE
  5
33B
100
AcDbEntity
  8
0
100
AcDbSpline
 62
7
  6
CONTINUOUS
 70
0
 71
3
 72
15
 73
11
 74
0
 42
0.0000001
 43
0.0000001
 44
0.0000000001
 40
0.0
 40
0.0
 40
0.0
 40
0.0
 40
0.1266464005
 40
0.2527852285
 40
0.3784258695
 40
0.5035863734
 40
0.6282904615
 40
0.7525687688
 40
0.8764578636
 40
1.0
 40
1.0
 40
1.0
 40
1.0
 10
9.2900851739
 20
8.7972748582
 30
0.0
 10
9.2900851739
 20
8.7841007151
 30
0.0
 10
9.2893216781
 20
8.7577986443
 30
0.0
 10
9.2858735121
 20
8.7185632008
 30
0.0
 10
9.2801361257
 20
8.6797512361
 30
0.0
 10
9.2721288026
 20
8.6414958428
 30
0.0
 10
9.2618784525
 20
8.6039261162
 30
0.0
 10
9.2494193765
 20
8.567168936
 30
0.0
 10
9.2347944711
 20
8.5313504381
 30
0.0
 10
9.2236170619
 20
8.5081443286
 30
0.0
 10
9.2176864488
 20
8.4967433685
 30
0.0
  0
SPLINE
  5
33C
100
AcDbEntity
  8
0
100
AcDbSpline
 62
7
  6
CONTINUOUS
 70
0
 71
3
 72
60
 73
56
 74
0
 42
0.0000001
 43
0.0000001
 44
0.0000000001
 40
0.0
 40
0.0
 40
0.0
 40
0.0
 40
0.0417737215
 40
0.0840362954
 40
0.1266575307
 40
0.1695051874
 40
0.2124464681
 40
0.2553480875
 40
0.2980769527
 40
0.3405006415
 40
0.3824879411
 40
0.4239093736
 40
0.4646377307
 40
0.5045486136
 40
0.543520985
 40
0.5814377367
 40
0.599965091
 40
0.6181867239
 40
0.6360893624
 40
0.6536601077
 40
0.6708864507
 40
0.6877562714
 40
0.7042579206
 40
0.7203801597
 40
0.7361123056
 40
0.7514441249
 40
0.7663660213
 40
0.7808689196
 40
0.7949444585
 40
0.8085849095
 40
0.8217833396
 40
0.8345336065
 40
0.8468304684
 40
0.8586696849
 40
0.8700480724
 40
0.8809637257
 40
0.8914160437
 40
0.9014060712
 40
0.9109365509
 40
0.9200123738
 40
0.9286407389
 40
0.9368317014
 40
0.9445985263
 40
0.9519583321
 40
0.9589326812
 40
0.9655482848
 40
0.9718377328
 40
0.9778400566
 40
0.9836011837
 40
0.9864084827
 40
0.9891757961
 40
0.9919106627
 40
0.9946209124
 40
0.9973146132
 40
1.0
 40
1.0
 40
1.0
 40
1.0
 10
14.6291098726
 20
9.8880466129
 30
0.0
 10
14.6291098726
 20
9.9100605782
 30
0.0
 10
14.6294533128
 20
9.9543468169
 30
0.0
 10
14.6309716088
 20
10.0210779992
 30
0.0
 10
14.6334915984
 20
10.0883453154
 30
0.0
 10
14.637005031
 20
10.155926133
 30
0.0
 10
14.6415002896
 20
10.2235968301
 30
0.0
 10
14.646962518
 20
10.2911335449
 30
0.0
 10
14.6533736208
 20
10.3583128332
 30
0.0
 10
14.6607123456
 20
10.4249124512
 30
0.0
 10
14.6689543441
 20
10.4907120816
 30
0.0
 10
14.6780722541
 20
10.5554940781
 30
0.0
 10
14.6880357903
 20
10.6190441689
 30
0.0
 10
14.6988118326
 20
10.6811522546
 30
0.0
 10
14.7103645714
 20
10.7416128247
 30
0.0
 10
14.7206847038
 20
10.7908282738
 30
0.0
 10
14.7293119278
 20
10.8292188097
 30
0.0
 10
14.7359022339
 20
10.8572555393
 30
0.0
 10
14.7426566632
 20
10.8847343403
 30
0.0
 10
14.7495696355
 20
10.9116325076
 30
0.0
 10
14.7566353988
 20
10.9379277914
 30
0.0
 10
14.7638481296
 20
10.9635984483
 30
0.0
 10
14.7712017922
 20
10.9886232594
 30
0.0
 10
14.7786903604
 20
11.0129815339
 30
0.0
 10
14.7863075378
 20
11.0366531524
 30
0.0
 10
14.7940471031
 20
11.0596185487
 30
0.0
 10
14.8019025402
 20
11.0818587714
 30
0.0
 10
14.809867431
 20
11.1033554495
 30
0.0
 10
14.8179350892
 20
11.1240908633
 30
0.0
 10
14.8260988982
 20
11.1440479068
 30
0.0
 10
14.8343520508
 20
11.1632101512
 30
0.0
 10
14.8426877395
 20
11.1815618252
 30
0.0
 10
14.8510990814
 20
11.199087846
 30
0.0
 10
14.8595791006
 20
11.2157738457
 30
0.0
 10
14.8681208808
 20
11.2316061406
 30
0.0
 10
14.8767173217
 20
11.2465718306
 30
0.0
 10
14.8853615149
 20
11.260658682
 30
0.0
 10
14.8940463127
 20
11.2738553167
 30
0.0
 10
14.9027648624
 20
11.2861509984
 30
0.0
 10
14.911510091
 20
11.2975358952
 30
0.0
 10
14.9202752738
 20
11.3080007957
 30
0.0
 10
14.9290535813
 20
11.3175373728
 30
0.0
 10
14.9378385334
 20
11.3261378913
 30
0.0
 10
14.9466237257
 20
11.3337953438
 30
0.0
 10
14.955403051
 20
11.3405032384
 30
0.0
 10
14.9641705285
 20
11.3462554317
 30
0.0
 10
14.972920462
 20
11.3510461762
 30
0.0
 10
14.9816461255
 20
11.3548694355
 30
0.0
 10
14.9889562044
 20
11.3572653443
 30
0.0
 10
14.9947634841
 20
11.3586758157
 30
0.0
 10
14.9990700141
 20
11.3594809969
 30
0.0
 10
15.0033634909
 20
11.3600421308
 30
0.0
 10
15.007643096
 20
11.360359039
 30
0.0
 10
15.0119076189
 20
11.3604315416
 30
0.0
 10
15.0147418282
 20
11.3603168677
 30
0.0
 10
15.0161535855
 20
11.3602189591
 30
0.0
  0
SPLINE
  5
33D
100
AcDbEntity
  8
0
100
AcDbSpline
 62
7
  6
CONTINUOUS
 70
0
 71
3
 72
60
 73
56
 74
0
 42
0.0000001
 43
0.0000001
 44
0.0000000001
 40
0.0
 40
0.0
 40
0.0
 40
0.0
 40
0.0417737215
 40
0.0840362954
 40
0.1266575307
 40
0.1695051874
 40
0.2124464681
 40
0.2553480875
 40
0.2980769527
 40
0.3405006415
 40
0.3824879411
 40
0.4239093736
 40
0.4646377307
 40
0.5045486136
 40
0.543520985
 40
0.5814377367
 40
0.599965091
 40
0.6181867239
 40
0.6360893624
 40
0.6536601077
 40
0.6708864507
 40
0.6877562714
 40
0.7042579206
 40
0.7203801597
 40
0.7361123056
 40
0.7514441249
 40
0.7663660213
 40
0.7808689196
 40
0.7949444585
 40
0.8085849095
 40
0.8217833396
 40
0.8345336065
 40
0.8468304684
 40
0.8586696849
 40
0.8700480724
 40
0.8809637257
 40
0.8914160437
 40
0.9014060712
 40
0.9109365509
 40
0.9200123738
 40
0.9286407389
 40
0.9368317014
 40
0.9445985263
 40
0.9519583321
 40
0.9589326812
 40
0.9655482848
 40
0.9718377328
 40
0.9778400566
 40
0.9836011837
 40
0.9864084827
 40
0.9891757961
 40
0.9919106627
 40
0.9946209124
 40
0.9973146132
 40
1.0
 40
1.0
 40
1.0
 40
1.0
 10
14.6291098726
 20
6.868562371
 30
0.0
 10
14.6291098726
 20
6.8905763364
 30
0.0
 10
14.6294533128
 20
6.934862575
 30
0.0
 10
14.6309716088
 20
7.0015937573
 30
0.0
 10
14.6334915984
 20
7.0688610735
 30
0.0
 10
14.637005031
 20
7.1364418911
 30
0.0
 10
14.6415002896
 20
7.2041125882
 30
0.0
 10
14.646962518
 20
7.271649303
 30
0.0
 10
14.6533736208
 20
7.3388285913
 30
0.0
 10
14.6607123456
 20
7.4054282093
 30
0.0
 10
14.6689543441
 20
7.4712278397
 30
0.0
 10
14.6780722541
 20
7.5360098362
 30
0.0
 10
14.6880357903
 20
7.599559927
 30
0.0
 10
14.6988118326
 20
7.6616680127
 30
0.0
 10
14.7103645714
 20
7.7221285829
 30
0.0
 10
14.7206847038
 20
7.7713440319
 30
0.0
 10
14.7293119278
 20
7.8097345678
 30
0.0
 10
14.7359022339
 20
7.8377712974
 30
0.0
 10
14.7426566632
 20
7.8652500984
 30
0.0
 10
14.7495696355
 20
7.8921482657
 30
0.0
 10
14.7566353988
 20
7.9184435495
 30
0.0
 10
14.7638481296
 20
7.9441142064
 30
0.0
 10
14.7712017922
 20
7.9691390175
 30
0.0
 10
14.7786903604
 20
7.993497292
 30
0.0
 10
14.7863075378
 20
8.0171689105
 30
0.0
 10
14.7940471031
 20
8.0401343068
 30
0.0
 10
14.8019025402
 20
8.0623745295
 30
0.0
 10
14.809867431
 20
8.0838712076
 30
0.0
 10
14.8179350892
 20
8.1046066214
 30
0.0
 10
14.8260988982
 20
8.124563665
 30
0.0
 10
14.8343520508
 20
8.1437259093
 30
0.0
 10
14.8426877395
 20
8.1620775833
 30
0.0
 10
14.8510990814
 20
8.1796036041
 30
0.0
 10
14.8595791006
 20
8.1962896039
 30
0.0
 10
14.8681208808
 20
8.2121218987
 30
0.0
 10
14.8767173217
 20
8.2270875887
 30
0.0
 10
14.8853615149
 20
8.2411744402
 30
0.0
 10
14.8940463127
 20
8.2543710748
 30
0.0
 10
14.9027648624
 20
8.2666667565
 30
0.0
 10
14.911510091
 20
8.2780516534
 30
0.0
 10
14.9202752738
 20
8.2885165538
 30
0.0
 10
14.9290535813
 20
8.2980531309
 30
0.0
 10
14.9378385334
 20
8.3066536494
 30
0.0
 10
14.9466237257
 20
8.3143111019
 30
0.0
 10
14.955403051
 20
8.3210189965
 30
0.0
 10
14.9641705285
 20
8.3267711898
 30
0.0
 10
14.972920462
 20
8.3315619343
 30
0.0
 10
14.9816461255
 20
8.3353851936
 30
0.0
 10
14.9889562044
 20
8.3377811024
 30
0.0
 10
14.9947634841
 20
8.3391915738
 30
0.0
 10
14.9990700141
 20
8.339996755
 30
0.0
 10
15.0033634909
 20
8.3405578889
 30
0.0
 10
15.007643096
 20
8.3408747971
 30
0.0
 10
15.0119076189
 20
8.3409472997
 30
0.0
 10
15.0147418282
 20
8.3408326258
 30
0.0
 10
15.0161535855
 20
8.3407347172
 30
0.0
  0
SPLINE
  5
33E
100
AcDbEntity
  8
0
100
AcDbSpline
 62
7
  6
CONTINUOUS
 70
0
 71
3
 72
26
 73
22
 74
0
 42
0.0000001
 43
0.0000001
 44
0.0000000001
 40
0.0
 40
0.0
 40
0.0
 40
0.0
 40
0.0637763276
 40
0.127342886
 40
0.1906991341
 40
0.2538523424
 40
0.2853569136
 40
0.3168132539
 40
0.3795812247
 40
0.4421715801
 40
0.5045965951
 40
0.5668701916
 40
0.6290077778
 40
0.6910261223
 40
0.7219986725
 40
0.7529482429
 40
0.8147830252
 40
0.8765553491
 40
0.9074270146
 40
0.9382907765
 40
1.0
 40
1.0
 40
1.0
 40
1.0
 10
12.5162503462
 20
8.8579928097
 30
0.0
 10
12.5162503462
 20
8.8454337673
 30
0.0
 10
12.5156492355
 20
8.8203527561
 30
0.0
 10
12.5129360226
 20
8.7828836574
 30
0.0
 10
12.5084186524
 20
8.7457120599
 30
0.0
 10
12.5031550985
 20
8.7150300593
 30
0.0
 10
12.4980531895
 20
8.6907227138
 30
0.0
 10
12.4923697323
 20
8.6666226984
 30
0.0
 10
12.4841662912
 20
8.6368374707
 30
0.0
 10
12.4725773119
 20
8.6017055703
 30
0.0
 10
12.459276837
 20
8.5672890357
 30
0.0
 10
12.4442955116
 20
8.533667646
 30
0.0
 10
12.4276680955
 20
8.5009193152
 30
0.0
 10
12.4124644332
 20
8.474406445
 30
0.0
 10
12.3995203679
 20
8.453712177
 30
0.0
 10
12.3860718604
 20
8.4333854019
 30
0.0
 10
12.3683083472
 20
8.4086536875
 30
0.0
 10
12.3493094549
 20
8.3848774715
 30
0.0
 10
12.3334041401
 20
8.3664742627
 30
0.0
 10
12.3170398931
 20
8.3484954657
 30
0.0
 10
12.304250781
 20
8.3354897099
 30
0.0
 10
12.2955104186
 20
8.3270471559
 30
0.0
  0
SPLINE
  5
33F
100
AcDbEntity
  8
0
100
AcDbSpline
 62
7
  6
CONTINUOUS
 70
0
 71
3
 72
21
 73
17
 74
0
 42
0.0000001
 43
0.0000001
 44
0.0000000001
 40
0.0
 40
0.0
 40
0.0
 40
0.0
 40
0.0632459501
 40
0.1263584636
 40
0.1893430514
 40
0.2522058752
 40
0.3149537381
 40
0.3775940398
 40
0.5025635422
 40
0.6272040778
 40
0.6894349602
 40
0.7516125986
 40
0.8137473124
 40
0.8758496252
 40
0.9379302514
 40
1.0
 40
1.0
 40
1.0
 40
1.0
 10
12.5141377936
 20
8.7996354824
 30
0.0
 10
12.5123794637
 20
8.7918445077
 30
0.0
 10
12.5085911979
 20
8.7763396323
 30
0.0
 10
12.5020932756
 20
8.753323572
 30
0.0
 10
12.4947934443
 20
8.7305995798
 30
0.0
 10
12.4867003435
 20
8.7081949646
 30
0.0
 10
12.477823303
 20
8.6861357228
 30
0.0
 10
12.4649679685
 20
8.6572449348
 30
0.0
 10
12.4469907763
 20
8.6221077707
 30
0.0
 10
12.4265304605
 20
8.5884160173
 30
0.0
 10
12.4087517544
 20
8.5624652706
 30
0.0
 10
12.3947313529
 20
8.5435275518
 30
0.0
 10
12.3800357524
 20
8.5251300219
 30
0.0
 10
12.3646820007
 20
8.5072940076
 30
0.0
 10
12.3486886521
 20
8.4900408441
 30
0.0
 10
12.3376114198
 20
8.478939901
 30
0.0
 10
12.3319736184
 20
8.4734942063
 30
0.0
  0
SPLINE
  5
340
100
AcDbEntity
  8
0
100
AcDbSpline
 62
7
  6
CONTINUOUS
 70
0
 71
3
 72
53
 73
49
 74
0
 42
0.0000001
 43
0.0000001
 44
0.0000000001
 40
0.0
 40
0.0
 40
0.0
 40
0.0
 40
0.0073810545
 40
0.0149692733
 40
0.0227963878
 40
0.0308901911
 40
0.0392749715
 40
0.0479704799
 40
0.0569931566
 40
0.0663560605
 40
0.0760697116
 40
0.0861419681
 40
0.0965786282
 40
0.1073834861
 40
0.1185586708
 40
0.130104777
 40
0.1420209938
 40
0.1543053028
 40
0.1669544584
 40
0.1799642244
 40
0.1933292774
 40
0.2070434166
 40
0.2354853198
 40
0.2652269344
 40
0.2961890429
 40
0.3121023992
 40
0.3282866308
 40
0.3614133676
 40
0.3954711095
 40
0.4128187602
 40
0.4303599512
 40
0.4659671342
 40
0.5021981448
 40
0.5389604085
 40
0.5761697628
 40
0.613751433
 40
0.651640411
 40
0.6706845348
 40
0.6897854678
 40
0.7281317697
 40
0.7666455477
 40
0.7859574696
 40
0.8053003597
 40
0.8440648311
 40
0.882925893
 40
0.9218717489
 40
0.96089729
 40
1.0
 40
1.0
 40
1.0
 40
1.0
 10
11.8571995271
 20
8.7291360007
 30
0.0
 10
11.8556295946
 20
8.7276195623
 30
0.0
 10
11.8523208671
 20
8.7246708885
 30
0.0
 10
11.8469597446
 20
8.7205744514
 30
0.0
 10
11.8411445383
 20
8.7167543041
 30
0.0
 10
11.834881828
 20
8.7132168904
 30
0.0
 10
11.8281783326
 20
8.7099685061
 30
0.0
 10
11.8210412326
 20
8.7070168599
 30
0.0
 10
11.8134786494
 20
8.7043703739
 30
0.0
 10
11.8054993284
 20
8.7020385382
 30
0.0
 10
11.7971129561
 20
8.7000315003
 30
0.0
 10
11.7883300319
 20
8.6983602692
 30
0.0
 10
11.7791620719
 20
8.6970365539
 30
0.0
 10
11.7696215987
 20
8.6960726222
 30
0.0
 10
11.7597222225
 20
8.6954813752
 30
0.0
 10
11.7494787026
 20
8.695275984
 30
0.0
 10
11.7389069826
 20
8.6954701031
 30
0.0
 10
11.7280242673
 20
8.6960773685
 30
0.0
 10
11.716849021
 20
8.6971116436
 30
0.0
 10
11.7054010787
 20
8.6985864764
 30
0.0
 10
11.6937014022
 20
8.7005153291
 30
0.0
 10
11.6776014583
 20
8.7037487384
 30
0.0
 10
11.6569854659
 20
8.7090222645
 30
0.0
 10
11.6319283189
 20
8.7172744965
 30
0.0
 10
11.6109146907
 20
8.7257957824
 30
0.0
 10
11.5939996583
 20
8.7336530104
 30
0.0
 10
11.5767840173
 20
8.7423579484
 30
0.0
 10
11.5553524382
 20
8.7545827663
 30
0.0
 10
11.5344885912
 20
8.7683867402
 30
0.0
 10
11.5180538462
 20
8.7804587419
 30
0.0
 10
11.5016629384
 20
8.7933456771
 30
0.0
 10
11.4816981121
 20
8.8106975818
 30
0.0
 10
11.4588540535
 20
8.8333012489
 30
0.0
 10
11.4371837561
 20
8.8576708904
 30
0.0
 10
11.4168445744
 20
8.8836705519
 30
0.0
 10
11.3979684999
 20
8.9111551242
 30
0.0
 10
11.3835712444
 20
8.9351332448
 30
0.0
 10
11.3728742771
 20
8.954913694
 30
0.0
 10
11.3627105493
 20
8.9751249839
 30
0.0
 10
11.3510926466
 20
9.0010343684
 30
0.0
 10
11.3409808396
 20
9.0276339071
 30
0.0
 10
11.3337962852
 20
9.0492965475
 30
0.0
 10
11.3272115335
 20
9.071226363
 30
0.0
 10
11.3201373118
 20
9.0990326301
 30
0.0
 10
11.3135219097
 20
9.1328821014
 30
0.0
 10
11.3087874703
 20
9.1671239973
 30
0.0
 10
11.3059440686
 20
9.2016447962
 30
0.0
 10
11.3053132481
 20
9.2247538907
 30
0.0
 10
11.3053132481
 20
9.2363173234
 30
0.0
  0
SPLINE
  5
341
100
AcDbEntity
  8
0
100
AcDbSpline
 62
7
  6
CONTINUOUS
 70
0
 71
3
 72
25
 73
21
 74
0
 42
0.0000001
 43
0.0000001
 44
0.0000000001
 40
0.0
 40
0.0
 40
0.0
 40
0.0
 40
0.0639299665
 40
0.0958115537
 40
0.1276357335
 40
0.1911072158
 40
0.2543530047
 40
0.285895724
 40
0.3173843502
 40
0.3801982316
 40
0.4428107232
 40
0.5052346109
 40
0.5674848398
 40
0.6295783614
 40
0.6915339532
 40
0.7533720112
 40
0.8151143192
 40
0.876783797
 40
0.9384042327
 40
1.0
 40
1.0
 40
1.0
 40
1.0
 10
11.7524384473
 20
9.6969063931
 30
0.0
 10
11.7388529152
 20
9.6982366422
 30
0.0
 10
11.7184358461
 20
9.6997071807
 30
0.0
 10
11.691195309
 20
9.7006052458
 30
0.0
 10
11.6640379265
 20
9.7007935146
 30
0.0
 10
11.6301869013
 20
9.6997024679
 30
0.0
 10
11.5964996885
 20
9.6968371255
 30
0.0
 10
11.5697430087
 20
9.6934849956
 30
0.0
 10
11.5431761752
 20
9.6894365294
 30
0.0
 10
11.5102648168
 20
9.6830656743
 30
0.0
 10
11.4713332663
 20
9.6733345773
 30
0.0
 10
11.4330986493
 20
9.6615495222
 30
0.0
 10
11.3956649651
 20
9.647742298
 30
0.0
 10
11.3591331702
 20
9.6319500792
 30
0.0
 10
11.3236020412
 20
9.6142154547
 30
0.0
 10
11.2891675708
 20
9.5945862402
 30
0.0
 10
11.2559229192
 20
9.5731154899
 30
0.0
 10
11.2239576359
 20
9.5498608726
 30
0.0
 10
11.1933592901
 20
9.5248863018
 30
0.0
 10
11.1739226363
 20
9.5071309874
 30
0.0
 10
11.1644629354
 20
9.4979936048
 30
0.0
  0
SPLINE
  5
342
100
AcDbEntity
  8
0
100
AcDbSpline
 62
7
  6
CONTINUOUS
 70
0
 71
3
 72
15
 73
11
 74
0
 42
0.0000001
 43
0.0000001
 44
0.0000000001
 40
0.0
 40
0.0
 40
0.0
 40
0.0
 40
0.1239261788
 40
0.2481012933
 40
0.3725469066
 40
0.4972966404
 40
0.6223841523
 40
0.7478436716
 40
0.8737087387
 40
1.0
 40
1.0
 40
1.0
 40
1.0
 10
11.3053132481
 20
9.2363173234
 30
0.0
 10
11.3053132481
 20
9.2466401672
 30
0.0
 10
11.3058169338
 20
9.2673100828
 30
0.0
 10
11.3080775009
 20
9.2982717451
 30
0.0
 10
11.3118409104
 20
9.3291566861
 30
0.0
 10
11.3171013181
 20
9.3598990179
 30
0.0
 10
11.3238502817
 20
9.3904356505
 30
0.0
 10
11.3320754736
 20
9.4207045325
 30
0.0
 10
11.3417598806
 20
9.4506431259
 30
0.0
 10
11.349161988
 20
9.4703095234
 30
0.0
 10
11.3530957637
 20
9.480066197
 30
0.0
  0
SPLINE
  5
343
100
AcDbEntity
  8
0
100
AcDbSpline
 62
7
  6
CONTINUOUS
 70
0
 71
3
 72
23
 73
19
 74
0
 42
0.0000001
 43
0.0000001
 44
0.0000000001
 40
0.0
 40
0.0
 40
0.0
 40
0.0
 40
0.0632418096
 40
0.1263503941
 40
0.1893312938
 40
0.2521907038
 40
0.3149354004
 40
0.3775727704
 40
0.4401107124
 40
0.5025576587
 40
0.5649224889
 40
0.6272145121
 40
0.6894434168
 40
0.7516192049
 40
0.8137521739
 40
0.8758528217
 40
0.9379318353
 40
1.0
 40
1.0
 40
1.0
 40
1.0
 10
11.643881394
 20
9.7000246457
 30
0.0
 10
11.6360451327
 20
9.6985338134
 30
0.0
 10
11.6204402555
 20
9.6952787076
 30
0.0
 10
11.5972457753
 20
9.6895748337
 30
0.0
 10
11.5743152616
 20
9.6830614693
 30
0.0
 10
11.5516760646
 20
9.6757463744
 30
0.0
 10
11.529354762
 20
9.6676380021
 30
0.0
 10
11.507377574
 20
9.6587460814
 30
0.0
 10
11.4857704559
 20
9.6490808146
 30
0.0
 10
11.464558719
 20
9.6386538303
 30
0.0
 10
11.443767446
 20
9.6274771391
 30
0.0
 10
11.4234210004
 20
9.6155640864
 30
0.0
 10
11.4035434018
 20
9.6029285536
 30
0.0
 10
11.384158013
 20
9.5895854466
 30
0.0
 10
11.3652876406
 20
9.5755505194
 30
0.0
 10
11.346954502
 20
9.5608400932
 30
0.0
 10
11.3291803299
 20
9.5454719412
 30
0.0
 10
11.3177165181
 20
9.5347989016
 30
0.0
 10
11.3120856301
 20
9.5293598847
 30
0.0
  0
SPLINE
  5
344
100
AcDbEntity
  8
0
100
AcDbSpline
 62
7
  6
CONTINUOUS
 70
0
 71
3
 72
26
 73
22
 74
0
 42
0.0000001
 43
0.0000001
 44
0.0000000001
 40
0.0
 40
0.0
 40
0.0
 40
0.0
 40
0.0637763276
 40
0.127342886
 40
0.1906991341
 40
0.2538523424
 40
0.2853569136
 40
0.3168132539
 40
0.3795812247
 40
0.4421715801
 40
0.5045965951
 40
0.5668701916
 40
0.6290077778
 40
0.6910261223
 40
0.7219986725
 40
0.7529482429
 40
0.8147830252
 40
0.8765553491
 40
0.9074270146
 40
0.9382907765
 40
1.0
 40
1.0
 40
1.0
 40
1.0
 10
10.5843983488
 20
6.8186339628
 30
0.0
 10
10.5843983488
 20
6.8060749204
 30
0.0
 10
10.5837972382
 20
6.7809939092
 30
0.0
 10
10.5810840252
 20
6.7435248105
 30
0.0
 10
10.5765666551
 20
6.706353213
 30
0.0
 10
10.5713031011
 20
6.6756712124
 30
0.0
 10
10.5662011922
 20
6.6513638669
 30
0.0
 10
10.5605177349
 20
6.6272638515
 30
0.0
 10
10.5523142938
 20
6.5974786238
 30
0.0
 10
10.5407253146
 20
6.5623467235
 30
0.0
 10
10.5274248397
 20
6.5279301889
 30
0.0
 10
10.5124435143
 20
6.4943087991
 30
0.0
 10
10.4958160981
 20
6.4615604683
 30
0.0
 10
10.4806124358
 20
6.4350475981
 30
0.0
 10
10.4676683706
 20
6.4143533301
 30
0.0
 10
10.4542198631
 20
6.394026555
 30
0.0
 10
10.4364563498
 20
6.3692948406
 30
0.0
 10
10.4174574576
 20
6.3455186246
 30
0.0
 10
10.4015521427
 20
6.3271154159
 30
0.0
 10
10.3851878958
 20
6.3091366188
 30
0.0
 10
10.3723987837
 20
6.296130863
 30
0.0
 10
10.3636584212
 20
6.287688309
 30
0.0
  0
SPLINE
  5
345
100
AcDbEntity
  8
0
100
AcDbSpline
 62
7
  6
CONTINUOUS
 70
0
 71
3
 72
15
 73
11
 74
0
 42
0.0000001
 43
0.0000001
 44
0.0000000001
 40
0.0
 40
0.0
 40
0.0
 40
0.0
 40
0.1253847818
 40
0.2471537105
 40
0.3670450796
 40
0.4868713605
 40
0.608444163
 40
0.7334801857
 40
0.863540309
 40
1.0
 40
1.0
 40
1.0
 40
1.0
 10
10.521491156
 20
6.5965620619
 30
0.0
 10
10.5212156372
 20
6.5967550031
 30
0.0
 10
10.5206936171
 20
6.5971668008
 30
0.0
 10
10.5200002848
 20
6.5978695292
 30
0.0
 10
10.5194122764
 20
6.5986441459
 30
0.0
 10
10.5189308404
 20
6.5994884739
 30
0.0
 10
10.5185566197
 20
6.6004002774
 30
0.0
 10
10.5182899445
 20
6.6013774013
 30
0.0
 10
10.5181309034
 20
6.6024177453
 30
0.0
 10
10.5180975303
 20
6.6031333245
 30
0.0
 10
10.5180973554
 20
6.6034993923
 30
0.0
  0
SPLINE
  5
346
100
AcDbEntity
  8
0
100
AcDbSpline
 62
7
  6
CONTINUOUS
 70
0
 71
3
 72
21
 73
17
 74
0
 42
0.0000001
 43
0.0000001
 44
0.0000000001
 40
0.0
 40
0.0
 40
0.0
 40
0.0
 40
0.0632459501
 40
0.1263584636
 40
0.1893430514
 40
0.2522058752
 40
0.3149537381
 40
0.3775940398
 40
0.5025635422
 40
0.6272040778
 40
0.6894349602
 40
0.7516125986
 40
0.8137473124
 40
0.8758496252
 40
0.9379302514
 40
1.0
 40
1.0
 40
1.0
 40
1.0
 10
10.5822857963
 20
6.7602766355
 30
0.0
 10
10.5805274664
 20
6.7524856609
 30
0.0
 10
10.5767392005
 20
6.7369807854
 30
0.0
 10
10.5702412782
 20
6.7139647251
 30
0.0
 10
10.562941447
 20
6.691240733
 30
0.0
 10
10.5548483462
 20
6.6688361177
 30
0.0
 10
10.5459713057
 20
6.646776876
 30
0.0
 10
10.5331159712
 20
6.6178860879
 30
0.0
 10
10.5151387789
 20
6.5827489239
 30
0.0
 10
10.4946784631
 20
6.5490571705
 30
0.0
 10
10.476899757
 20
6.5231064237
 30
0.0
 10
10.4628793556
 20
6.5041687049
 30
0.0
 10
10.4481837551
 20
6.485771175
 30
0.0
 10
10.4328300034
 20
6.4679351607
 30
0.0
 10
10.4168366548
 20
6.4506819972
 30
0.0
 10
10.4057594224
 20
6.4395810541
 30
0.0
 10
10.400121621
 20
6.4341353594
 30
0.0
  0
SPLINE
  5
347
100
AcDbEntity
  8
0
100
AcDbSpline
 62
7
  6
CONTINUOUS
 70
0
 71
3
 72
25
 73
21
 74
0
 42
0.0000001
 43
0.0000001
 44
0.0000000001
 40
0.0
 40
0.0
 40
0.0
 40
0.0
 40
0.0639299665
 40
0.0958115537
 40
0.1276357335
 40
0.1911072158
 40
0.2543530047
 40
0.285895724
 40
0.3173843502
 40
0.3801982316
 40
0.4428107232
 40
0.5052346109
 40
0.5674848398
 40
0.6295783614
 40
0.6915339532
 40
0.7533720112
 40
0.8151143192
 40
0.876783797
 40
0.9384042327
 40
1.0
 40
1.0
 40
1.0
 40
1.0
 10
9.82058645
 20
7.6575475463
 30
0.0
 10
9.8070009179
 20
7.6588777954
 30
0.0
 10
9.7865838487
 20
7.6603483338
 30
0.0
 10
9.7593433117
 20
7.6612463989
 30
0.0
 10
9.7321859292
 20
7.6614346678
 30
0.0
 10
9.698334904
 20
7.660343621
 30
0.0
 10
9.6646476912
 20
7.6574782786
 30
0.0
 10
9.6378910114
 20
7.6541261487
 30
0.0
 10
9.6113241779
 20
7.6500776825
 30
0.0
 10
9.5784128195
 20
7.6437068275
 30
0.0
 10
9.539481269
 20
7.6339757304
 30
0.0
 10
9.501246652
 20
7.6221906753
 30
0.0
 10
9.4638129678
 20
7.6083834511
 30
0.0
 10
9.4272811729
 20
7.5925912323
 30
0.0
 10
9.3917500439
 20
7.5748566079
 30
0.0
 10
9.3573155735
 20
7.5552273933
 30
0.0
 10
9.3240709218
 20
7.533756643
 30
0.0
 10
9.2921056386
 20
7.5105020258
 30
0.0
 10
9.2615072928
 20
7.4855274549
 30
0.0
 10
9.2420706389
 20
7.4677721405
 30
0.0
 10
9.232610938
 20
7.4586347579
 30
0.0
  0
SPLINE
  5
348
100
AcDbEntity
  8
0
100
AcDbSpline
 62
7
  6
CONTINUOUS
 70
0
 71
3
 72
23
 73
19
 74
0
 42
0.0000001
 43
0.0000001
 44
0.0000000001
 40
0.0
 40
0.0
 40
0.0
 40
0.0
 40
0.0632418096
 40
0.1263503941
 40
0.1893312938
 40
0.2521907038
 40
0.3149354004
 40
0.3775727704
 40
0.4401107124
 40
0.5025576587
 40
0.5649224889
 40
0.6272145121
 40
0.6894434168
 40
0.7516192049
 40
0.8137521739
 40
0.8758528217
 40
0.9379318353
 40
1.0
 40
1.0
 40
1.0
 40
1.0
 10
9.7120293966
 20
7.6606657988
 30
0.0
 10
9.7041931353
 20
7.6591749665
 30
0.0
 10
9.6885882581
 20
7.6559198608
 30
0.0
 10
9.665393778
 20
7.6502159868
 30
0.0
 10
9.6424632642
 20
7.6437026225
 30
0.0
 10
9.6198240672
 20
7.6363875275
 30
0.0
 10
9.5975027647
 20
7.6282791553
 30
0.0
 10
9.5755255767
 20
7.6193872345
 30
0.0
 10
9.5539184586
 20
7.6097219677
 30
0.0
 10
9.5327067217
 20
7.5992949835
 30
0.0
 10
9.5119154486
 20
7.5881182922
 30
0.0
 10
9.4915690031
 20
7.5762052395
 30
0.0
 10
9.4716914045
 20
7.5635697067
 30
0.0
 10
9.4523060157
 20
7.5502265997
 30
0.0
 10
9.4334356432
 20
7.5361916726
 30
0.0
 10
9.4151025047
 20
7.5214812463
 30
0.0
 10
9.3973283326
 20
7.5061130943
 30
0.0
 10
9.3858645207
 20
7.4954400547
 30
0.0
 10
9.3802336327
 20
7.4900010378
 30
0.0
  0
SPLINE
  5
349
100
AcDbEntity
  8
0
100
AcDbSpline
 62
7
  6
CONTINUOUS
 70
0
 71
3
 72
50
 73
46
 74
0
 42
0.0000001
 43
0.0000001
 44
0.0000000001
 40
0.0
 40
0.0
 40
0.0
 40
0.0
 40
0.0055575484
 40
0.0111779922
 40
0.016921945
 40
0.0228458833
 40
0.0290006815
 40
0.0354311436
 40
0.0421756504
 40
0.0492665308
 40
0.0567306759
 40
0.0645898217
 40
0.0728615778
 40
0.0815596977
 40
0.0906946685
 40
0.100274387
 40
0.1103041016
 40
0.1207871917
 40
0.1317251696
 40
0.1431178633
 40
0.1549639321
 40
0.16726054
 40
0.1800039018
 40
0.1931892317
 40
0.2208607128
 40
0.2502207991
 40
0.2812027127
 40
0.3137299142
 40
0.3477173552
 40
0.383072554
 40
0.4196964471
 40
0.4574841188
 40
0.4963254304
 40
0.5361057043
 40
0.5767063272
 40
0.6180053027
 40
0.6598777724
 40
0.7021965482
 40
0.7448326997
 40
0.7876559964
 40
0.8305355066
 40
0.8733402465
 40
0.9159384006
 40
0.9582025777
 40
1.0
 40
1.0
 40
1.0
 40
1.0
 10
8.2930635602
 20
11.3247986424
 30
0.0
 10
8.2930635534
 20
11.3239476545
 30
0.0
 10
8.2929682126
 20
11.3222345691
 30
0.0
 10
8.2925405612
 20
11.3196740884
 30
0.0
 10
8.2918289337
 20
11.3171193051
 30
0.0
 10
8.2908346208
 20
11.3145732278
 30
0.0
 10
8.2895594183
 20
11.3120378486
 30
0.0
 10
8.2880048952
 20
11.3095151823
 30
0.0
 10
8.2861728965
 20
11.3070069265
 30
0.0
 10
8.2840652357
 20
11.30451474
 30
0.0
 10
8.2816837092
 20
11.3020403935
 30
0.0
 10
8.279030422
 20
11.2995854891
 30
0.0
 10
8.2761074502
 20
11.2971518737
 30
0.0
 10
8.2729171629
 20
11.2947413161
 30
0.0
 10
8.2694621221
 20
11.2923555955
 30
0.0
 10
8.2657450266
 20
11.2899966562
 30
0.0
 10
8.2617689021
 20
11.2876662453
 30
0.0
 10
8.2575369022
 20
11.2853662822
 30
0.0
 10
8.2530524359
 20
11.2830986122
 30
0.0
 10
8.2483191416
 20
11.2808650067
 30
0.0
 10
8.2433408173
 20
11.2786673721
 30
0.0
 10
8.2381215311
 20
11.2765074212
 30
0.0
 10
8.2326655043
 20
11.27438693
 30
0.0
 10
8.2249564586
 20
11.2715691419
 30
0.0
 10
8.2147536463
 20
11.2681693428
 30
0.0
 10
8.2018311185
 20
11.2643363984
 30
0.0
 10
8.1880815404
 20
11.260699983
 30
0.0
 10
8.1735497823
 20
11.2572721188
 30
0.0
 10
8.1582831431
 20
11.2540641522
 30
0.0
 10
8.1423314628
 20
11.2510867064
 30
0.0
 10
8.1257468491
 20
11.2483496429
 30
0.0
 10
8.1085835315
 20
11.2458620313
 30
0.0
 10
8.0908976726
 20
11.2436320906
 30
0.0
 10
8.0727471713
 20
11.2416671887
 30
0.0
 10
8.0541914589
 20
11.2399738199
 30
0.0
 10
8.0352913048
 20
11.2385575862
 30
0.0
 10
8.016108622
 20
11.2374231713
 30
0.0
 10
7.9967062572
 20
11.2365743089
 30
0.0
 10
7.977147785
 20
11.2360138013
 30
0.0
 10
7.9574972905
 20
11.2357434986
 30
0.0
 10
7.9378191349
 20
11.2357643
 30
0.0
 10
7.9181779186
 20
11.2360761541
 30
0.0
 10
7.8986376894
 20
11.2366779734
 30
0.0
 10
7.8792628967
 20
11.2375678543
 30
0.0
 10
7.8664146913
 20
11.2383562888
 30
0.0
 10
7.8600298846
 20
11.2387990766
 30
0.0
  0
SPLINE
  5
34A
100
AcDbEntity
  8
0
100
AcDbSpline
 62
7
  6
CONTINUOUS
 70
0
 71
3
 72
50
 73
46
 74
0
 42
0.0000001
 43
0.0000001
 44
0.0000000001
 40
0.0
 40
0.0
 40
0.0
 40
0.0
 40
0.0055575484
 40
0.0111779922
 40
0.016921945
 40
0.0228458833
 40
0.0290006815
 40
0.0354311436
 40
0.0421756504
 40
0.0492665308
 40
0.0567306759
 40
0.0645898217
 40
0.0728615778
 40
0.0815596977
 40
0.0906946685
 40
0.100274387
 40
0.1103041016
 40
0.1207871917
 40
0.1317251696
 40
0.1431178633
 40
0.1549639321
 40
0.16726054
 40
0.1800039018
 40
0.1931892317
 40
0.2208607128
 40
0.2502207991
 40
0.2812027127
 40
0.3137299142
 40
0.3477173552
 40
0.383072554
 40
0.4196964471
 40
0.4574841188
 40
0.4963254304
 40
0.5361057043
 40
0.5767063272
 40
0.6180053027
 40
0.6598777724
 40
0.7021965482
 40
0.7448326997
 40
0.7876559964
 40
0.8305355066
 40
0.8733402465
 40
0.9159384006
 40
0.9582025777
 40
1.0
 40
1.0
 40
1.0
 40
1.0
 10
13.8471372178
 20
10.939622326
 30
0.0
 10
13.847137211
 20
10.9387713382
 30
0.0
 10
13.8470418701
 20
10.9370582527
 30
0.0
 10
13.8466142187
 20
10.9344977721
 30
0.0
 10
13.8459025912
 20
10.9319429887
 30
0.0
 10
13.8449082783
 20
10.9293969114
 30
0.0
 10
13.8436330758
 20
10.9268615322
 30
0.0
 10
13.8420785527
 20
10.9243388659
 30
0.0
 10
13.8402465541
 20
10.9218306101
 30
0.0
 10
13.8381388932
 20
10.9193384236
 30
0.0
 10
13.8357573667
 20
10.9168640771
 30
0.0
 10
13.8331040795
 20
10.9144091727
 30
0.0
 10
13.8301811077
 20
10.9119755573
 30
0.0
 10
13.8269908204
 20
10.9095649997
 30
0.0
 10
13.8235357797
 20
10.9071792791
 30
0.0
 10
13.8198186841
 20
10.9048203398
 30
0.0
 10
13.8158425597
 20
10.9024899289
 30
0.0
 10
13.8116105598
 20
10.9001899658
 30
0.0
 10
13.8071260935
 20
10.8979222959
 30
0.0
 10
13.8023927992
 20
10.8956886903
 30
0.0
 10
13.7974144748
 20
10.8934910557
 30
0.0
 10
13.7921951887
 20
10.8913311048
 30
0.0
 10
13.7867391618
 20
10.8892106136
 30
0.0
 10
13.7790301161
 20
10.8863928255
 30
0.0
 10
13.7688273038
 20
10.8829930264
 30
0.0
 10
13.755904776
 20
10.879160082
 30
0.0
 10
13.7421551979
 20
10.8755236666
 30
0.0
 10
13.7276234399
 20
10.8720958024
 30
0.0
 10
13.7123568007
 20
10.8688878358
 30
0.0
 10
13.6964051203
 20
10.8659103901
 30
0.0
 10
13.6798205067
 20
10.8631733265
 30
0.0
 10
13.662657189
 20
10.8606857149
 30
0.0
 10
13.6449713301
 20
10.8584557742
 30
0.0
 10
13.6268208288
 20
10.8564908723
 30
0.0
 10
13.6082651164
 20
10.8547975035
 30
0.0
 10
13.5893649624
 20
10.8533812698
 30
0.0
 10
13.5701822795
 20
10.8522468549
 30
0.0
 10
13.5507799147
 20
10.8513979925
 30
0.0
 10
13.5312214425
 20
10.8508374849
 30
0.0
 10
13.511570948
 20
10.8505671822
 30
0.0
 10
13.4918927924
 20
10.8505879837
 30
0.0
 10
13.4722515761
 20
10.8508998377
 30
0.0
 10
13.4527113469
 20
10.8515016571
 30
0.0
 10
13.4333365542
 20
10.8523915379
 30
0.0
 10
13.4204883488
 20
10.8531799724
 30
0.0
 10
13.4141035421
 20
10.8536227603
 30
0.0
  0
SPLINE
  5
34B
100
AcDbEntity
  8
0
100
AcDbSpline
 62
7
  6
CONTINUOUS
 70
0
 71
3
 72
56
 73
52
 74
0
 42
0.0000001
 43
0.0000001
 44
0.0000000001
 40
0.0
 40
0.0
 40
0.0
 40
0.0
 40
0.014971274
 40
0.029945606
 40
0.0449260369
 40
0.0599155706
 40
0.0749171531
 40
0.0899336598
 40
0.104967875
 40
0.1200224737
 40
0.1351000117
 40
0.1502029057
 40
0.1653334193
 40
0.1804936563
 40
0.1956855421
 40
0.2109108165
 40
0.2261710283
 40
0.2414675198
 40
0.2568014272
 40
0.2721736755
 40
0.2875849674
 40
0.3030357913
 40
0.3185264144
 40
0.3340568802
 40
0.3496270191
 40
0.3652364417
 40
0.3808845461
 40
0.3965705269
 40
0.4122933718
 40
0.4280518765
 40
0.4438446507
 40
0.4596701209
 40
0.4755265482
 40
0.4914120331
 40
0.5073245245
 40
0.5232618381
 40
0.5551966919
 40
0.5872017075
 40
0.6192556772
 40
0.6513364178
 40
0.6834212138
 40
0.7154872687
 40
0.7475121591
 40
0.7794742806
 40
0.811353285
 40
0.8431305
 40
0.8747893191
 40
0.9063155631
 40
0.9376978538
 40
0.9689275324
 40
1.0
 40
1.0
 40
1.0
 40
1.0
 10
11.0903004602
 20
9.4917035671
 30
0.0
 10
11.0974429903
 20
9.4986027452
 30
0.0
 10
11.1120054299
 20
9.5121201181
 30
0.0
 10
11.1346400492
 20
9.5315142138
 30
0.0
 10
11.1580367362
 20
9.5500021166
 30
0.0
 10
11.1821629588
 20
9.5675578197
 30
0.0
 10
11.2069855791
 20
9.5841573439
 30
0.0
 10
11.2324703678
 20
9.5997778843
 30
0.0
 10
11.2585823415
 20
9.6143978225
 30
0.0
 10
11.2852854863
 20
9.6279971752
 30
0.0
 10
11.3125430657
 20
9.6405572322
 30
0.0
 10
11.3403176123
 20
9.6520606179
 30
0.0
 10
11.3685708397
 20
9.6624916779
 30
0.0
 10
11.3972639078
 20
9.6718359901
 30
0.0
 10
11.4263573399
 20
9.6800806852
 30
0.0
 10
11.4558110709
 20
9.6872145798
 30
0.0
 10
11.4855846151
 20
9.6932277369
 30
0.0
 10
11.5156369954
 20
9.698111965
 30
0.0
 10
11.5459268642
 20
9.7018606488
 30
0.0
 10
11.5764125755
 20
9.7044684941
 30
0.0
 10
11.6070521835
 20
9.7059320719
 30
0.0
 10
11.6378035551
 20
9.7062493887
 30
0.0
 10
11.6686243966
 20
9.7054199081
 30
0.0
 10
11.6994723288
 20
9.7034449582
 30
0.0
 10
11.7303049327
 20
9.700327192
 30
0.0
 10
11.7610798039
 20
9.6960708744
 30
0.0
 10
11.7917546517
 20
9.6906820212
 30
0.0
 10
11.8222872804
 20
9.6841679229
 30
0.0
 10
11.8526357185
 20
9.6765376007
 30
0.0
 10
11.8827582708
 20
9.667801647
 30
0.0
 10
11.9126134847
 20
9.6579719352
 30
0.0
 10
11.9421603472
 20
9.6470621175
 30
0.0
 10
11.9713582812
 20
9.6350871926
 30
0.0
 10
12.0001669872
 20
9.6220635903
 30
0.0
 10
12.0285473533
 20
9.6080091024
 30
0.0
 10
12.0657850354
 20
9.5879101701
 30
0.0
 10
12.1110634446
 20
9.5603053687
 30
0.0
 10
12.1630302755
 20
9.5234262969
 30
0.0
 10
12.2123900702
 20
9.4829695747
 30
0.0
 10
12.2588701316
 20
9.4391583202
 30
0.0
 10
12.3022158171
 20
9.3922327434
 30
0.0
 10
12.3421890963
 20
9.342450508
 30
0.0
 10
12.3785705309
 20
9.2900847933
 30
0.0
 10
12.4111602132
 20
9.2354229145
 30
0.0
 10
12.4397789703
 20
9.1787647784
 30
0.0
 10
12.4642694276
 20
9.1204213401
 30
0.0
 10
12.4844967125
 20
9.0607126872
 30
0.0
 10
12.5003492182
 20
8.9999668324
 30
0.0
 10
12.5117392234
 20
8.9385162074
 30
0.0
 10
12.5186037918
 20
8.8767026172
 30
0.0
 10
12.5201412934
 20
8.8353616106
 30
0.0
 10
12.5201412934
 20
8.8147511763
 30
0.0
  0
SPLINE
  5
34C
100
AcDbEntity
  8
0
100
AcDbSpline
 62
7
  6
CONTINUOUS
 70
0
 71
3
 72
56
 73
52
 74
0
 42
0.0000001
 43
0.0000001
 44
0.0000000001
 40
0.0
 40
0.0
 40
0.0
 40
0.0
 40
0.014971274
 40
0.029945606
 40
0.0449260369
 40
0.0599155706
 40
0.0749171531
 40
0.0899336598
 40
0.104967875
 40
0.1200224737
 40
0.1351000117
 40
0.1502029057
 40
0.1653334193
 40
0.1804936563
 40
0.1956855421
 40
0.2109108165
 40
0.2261710283
 40
0.2414675198
 40
0.2568014272
 40
0.2721736755
 40
0.2875849674
 40
0.3030357913
 40
0.3185264144
 40
0.3340568802
 40
0.3496270191
 40
0.3652364417
 40
0.3808845461
 40
0.3965705269
 40
0.4122933718
 40
0.4280518765
 40
0.4438446507
 40
0.4596701209
 40
0.4755265482
 40
0.4914120331
 40
0.5073245245
 40
0.5232618381
 40
0.5551966919
 40
0.5872017075
 40
0.6192556772
 40
0.6513364178
 40
0.6834212138
 40
0.7154872687
 40
0.7475121591
 40
0.7794742806
 40
0.811353285
 40
0.8431305
 40
0.8747893191
 40
0.9063155631
 40
0.9376978538
 40
0.9689275324
 40
1.0
 40
1.0
 40
1.0
 40
1.0
 10
9.1584484628
 20
7.4523447202
 30
0.0
 10
9.165590993
 20
7.4592438983
 30
0.0
 10
9.1801534325
 20
7.4727612713
 30
0.0
 10
9.2027880519
 20
7.492155367
 30
0.0
 10
9.2261847389
 20
7.5106432697
 30
0.0
 10
9.2503109615
 20
7.5281989728
 30
0.0
 10
9.2751335818
 20
7.5447984971
 30
0.0
 10
9.3006183704
 20
7.5604190374
 30
0.0
 10
9.3267303442
 20
7.5750389757
 30
0.0
 10
9.3534334889
 20
7.5886383284
 30
0.0
 10
9.3806910683
 20
7.6011983854
 30
0.0
 10
9.4084656149
 20
7.612701771
 30
0.0
 10
9.4367188423
 20
7.6231328311
 30
0.0
 10
9.4654119104
 20
7.6324771432
 30
0.0
 10
9.4945053426
 20
7.6407218383
 30
0.0
 10
9.5239590736
 20
7.6478557329
 30
0.0
 10
9.5537326177
 20
7.65386889
 30
0.0
 10
9.5837849981
 20
7.6587531181
 30
0.0
 10
9.6140748669
 20
7.6625018019
 30
0.0
 10
9.6445605782
 20
7.6651096472
 30
0.0
 10
9.6752001862
 20
7.666573225
 30
0.0
 10
9.7059515577
 20
7.6668905418
 30
0.0
 10
9.7367723993
 20
7.6660610612
 30
0.0
 10
9.7676203315
 20
7.6640861114
 30
0.0
 10
9.7984529354
 20
7.6609683451
 30
0.0
 10
9.8292278065
 20
7.6567120275
 30
0.0
 10
9.8599026544
 20
7.6513231743
 30
0.0
 10
9.890435283
 20
7.644809076
 30
0.0
 10
9.9207837212
 20
7.6371787538
 30
0.0
 10
9.9509062734
 20
7.6284428001
 30
0.0
 10
9.9807614874
 20
7.6186130884
 30
0.0
 10
10.0103083499
 20
7.6077032706
 30
0.0
 10
10.0395062839
 20
7.5957283458
 30
0.0
 10
10.0683149898
 20
7.5827047434
 30
0.0
 10
10.0966953559
 20
7.5686502555
 30
0.0
 10
10.133933038
 20
7.5485513232
 30
0.0
 10
10.1792114473
 20
7.5209465218
 30
0.0
 10
10.2311782781
 20
7.48406745
 30
0.0
 10
10.2805380728
 20
7.4436107278
 30
0.0
 10
10.3270181343
 20
7.3997994734
 30
0.0
 10
10.3703638198
 20
7.3528738965
 30
0.0
 10
10.4103370989
 20
7.3030916611
 30
0.0
 10
10.4467185336
 20
7.2507259464
 30
0.0
 10
10.4793082159
 20
7.1960640676
 30
0.0
 10
10.5079269729
 20
7.1394059315
 30
0.0
 10
10.5324174302
 20
7.0810624933
 30
0.0
 10
10.5526447151
 20
7.0213538403
 30
0.0
 10
10.5684972208
 20
6.9606079855
 30
0.0
 10
10.5798872261
 20
6.8991573606
 30
0.0
 10
10.5867517944
 20
6.8373437704
 30
0.0
 10
10.5882892961
 20
6.7960027637
 30
0.0
 10
10.5882892961
 20
6.7753923295
 30
0.0
  0
SPLINE
  5
34D
100
AcDbEntity
  8
0
100
AcDbSpline
 62
7
  6
CONTINUOUS
 70
0
 71
3
 72
41
 73
37
 74
0
 42
0.0000001
 43
0.0000001
 44
0.0000000001
 40
0.0
 40
0.0
 40
0.0
 40
0.0
 40
0.0304943101
 40
0.0457844622
 40
0.0611024466
 40
0.0918190363
 40
0.1226453815
 40
0.1535789677
 40
0.1846161323
 40
0.2157521151
 40
0.2469811188
 40
0.2626296563
 40
0.278298833
 40
0.3096926911
 40
0.3411566874
 40
0.372681648
 40
0.4042577835
 40
0.4358747904
 40
0.4675219558
 40
0.4991882659
 40
0.5308625158
 40
0.562533421
 40
0.5941897305
 40
0.6258203391
 40
0.6574143982
 40
0.6889614246
 40
0.7204514069
 40
0.7518749087
 40
0.783223167
 40
0.8144881857
 40
0.8456628343
 40
0.8767408792
 40
0.9077172434
 40
0.938587479
 40
0.9693493691
 40
1.0
 40
1.0
 40
1.0
 40
1.0
 10
8.5353500334
 20
9.5265875027
 30
0.0
 10
8.5472123792
 20
9.527057251
 30
0.0
 10
8.5650459836
 20
9.5272895797
 30
0.0
 10
8.5888272051
 20
9.5266610857
 30
0.0
 10
8.6126707485
 20
9.5254049713
 30
0.0
 10
8.6424816705
 20
9.5226587535
 30
0.0
 10
8.6781276451
 20
9.5174994263
 30
0.0
 10
8.713583399
 20
9.5104873732
 30
0.0
 10
8.7487509175
 20
9.5016419781
 30
0.0
 10
8.7835330771
 20
9.4909878648
 30
0.0
 10
8.8120994185
 20
9.4806331088
 30
0.0
 10
8.8346652454
 20
9.4714785485
 30
0.0
 10
8.8570536708
 20
9.4617362821
 30
0.0
 10
8.8846212088
 20
9.4484899283
 30
0.0
 10
8.9169211598
 20
9.4309426386
 30
0.0
 10
8.9483739704
 20
9.4117811173
 30
0.0
 10
8.9788926107
 20
9.391058358
 30
0.0
 10
9.0083932884
 20
9.3688313344
 30
0.0
 10
9.0367948284
 20
9.3451612283
 30
0.0
 10
9.0640191222
 20
9.3201131596
 30
0.0
 10
9.0899912791
 20
9.2937560349
 30
0.0
 10
9.114639851
 20
9.2661623565
 30
0.0
 10
9.1378970352
 20
9.2374080328
 30
0.0
 10
9.1596988467
 20
9.207572156
 30
0.0
 10
9.1799852947
 20
9.1767367883
 30
0.0
 10
9.198700546
 20
9.1449867371
 30
0.0
 10
9.2157930778
 20
9.1124093244
 30
0.0
 10
9.2312158192
 20
9.0790941485
 30
0.0
 10
9.244926276
 20
9.0451328397
 30
0.0
 10
9.2568866723
 20
9.0106188117
 30
0.0
 10
9.2670640196
 20
8.9756470214
 30
0.0
 10
9.2754302889
 20
8.940313627
 30
0.0
 10
9.2819622617
 20
8.9047160127
 30
0.0
 10
9.2866420745
 20
8.8689515907
 30
0.0
 10
9.289456457
 20
8.8331203094
 30
0.0
 10
9.2900851739
 20
8.809207358
 30
0.0
 10
9.2900851739
 20
8.7972748582
 30
0.0
  0
SPLINE
  5
34E
100
AcDbEntity
  8
0
100
AcDbSpline
 62
7
  6
CONTINUOUS
 70
0
 71
3
 72
54
 73
50
 74
0
 42
0.0000001
 43
0.0000001
 44
0.0000000001
 40
0.0
 40
0.0
 40
0.0
 40
0.0
 40
0.0063158427
 40
0.0126705974
 40
0.0191023953
 40
0.0256479035
 40
0.0323417516
 40
0.0392160545
 40
0.0536138127
 40
0.061194488
 40
0.0690562166
 40
0.0772172825
 40
0.0856936302
 40
0.0944989909
 40
0.1036450473
 40
0.113141787
 40
0.1229974971
 40
0.1332190617
 40
0.1438121259
 40
0.1547810799
 40
0.1661293869
 40
0.1778595312
 40
0.189973133
 40
0.2024711534
 40
0.2153537503
 40
0.2286205275
 40
0.2422705277
 40
0.256302183
 40
0.2707135528
 40
0.2855021644
 40
0.300665138
 40
0.316199276
 40
0.3321009043
 40
0.3649900029
 40
0.3992976831
 40
0.4349839512
 40
0.472004695
 40
0.5103120262
 40
0.5498546333
 40
0.5905781015
 40
0.6324251619
 40
0.6753358913
 40
0.7192479428
 40
0.7640967229
 40
0.8098156864
 40
0.8563364658
 40
0.9035883331
 40
0.9515014468
 40
1.0
 40
1.0
 40
1.0
 40
1.0
 10
14.852878602
 20
9.0058738147
 30
0.0
 10
14.8508841829
 20
9.0060121322
 30
0.0
 10
14.8468924796
 20
9.0064528502
 30
0.0
 10
14.8409496723
 20
9.0076016805
 30
0.0
 10
14.8350465768
 20
9.0092380859
 30
0.0
 10
14.8291866579
 20
9.0113608434
 30
0.0
 10
14.8233722348
 20
9.0139687503
 30
0.0
 10
14.8155649783
 20
9.0181538247
 30
0.0
 10
14.8079697967
 20
9.0232770822
 30
0.0
 10
14.800619532
 20
9.0292140464
 30
0.0
 10
14.7950676644
 20
9.0342196766
 30
0.0
 10
14.7895750223
 20
9.0396982781
 30
0.0
 10
14.7841430702
 20
9.0456479919
 30
0.0
 10
14.7787740228
 20
9.0520662324
 30
0.0
 10
14.773469776
 20
9.0589503423
 30
0.0
 10
14.7682324831
 20
9.0662975806
 30
0.0
 10
14.7630641002
 20
9.0741049177
 30
0.0
 10
14.7579666603
 20
9.0823691949
 30
0.0
 10
14.7529422546
 20
9.0910870947
 30
0.0
 10
14.7479927928
 20
9.1002550308
 30
0.0
 10
14.7431203459
 20
9.1098693121
 30
0.0
 10
14.7383268691
 20
9.119926013
 30
0.0
 10
14.7336142626
 20
9.130421017
 30
0.0
 10
14.7289845404
 20
9.1413500677
 30
0.0
 10
14.7244395159
 20
9.1527086674
 30
0.0
 10
14.7199810842
 20
9.1644921752
 30
0.0
 10
14.7156111118
 20
9.1766957678
 30
0.0
 10
14.7113313217
 20
9.1893144208
 30
0.0
 10
14.7071435556
 20
9.2023429695
 30
0.0
 10
14.7030494996
 20
9.2157760509
 30
0.0
 10
14.6990508318
 20
9.2296081364
 30
0.0
 10
14.6951492443
 20
9.2438335621
 30
0.0
 10
14.6900210589
 20
9.2635390126
 30
0.0
 10
14.6838789704
 20
9.2891185992
 30
0.0
 10
14.6770006469
 20
9.3209529795
 30
0.0
 10
14.6705457532
 20
9.3542089897
 30
0.0
 10
14.6645250347
 20
9.3888318277
 30
0.0
 10
14.6589485228
 20
9.4247645988
 30
0.0
 10
14.6538254984
 20
9.4619481389
 30
0.0
 10
14.6491645005
 20
9.5003212172
 30
0.0
 10
14.6449733095
 20
9.5398206168
 30
0.0
 10
14.6412589106
 20
9.5803812384
 30
0.0
 10
14.6380274849
 20
9.6219361999
 30
0.0
 10
14.6352844152
 20
9.6644169821
 30
0.0
 10
14.633034285
 20
9.707753558
 30
0.0
 10
14.6312808807
 20
9.7518742934
 30
0.0
 10
14.6300270534
 20
9.7967068274
 30
0.0
 10
14.6292750143
 20
9.8421766181
 30
0.0
 10
14.6291098726
 20
9.8726949363
 30
0.0
 10
14.6291098726
 20
9.8880466129
 30
0.0
  0
SPLINE
  5
34F
100
AcDbEntity
  8
0
100
AcDbSpline
 62
7
  6
CONTINUOUS
 70
0
 71
3
 72
49
 73
45
 74
0
 42
0.0000001
 43
0.0000001
 44
0.0000000001
 40
0.0
 40
0.0
 40
0.0
 40
0.0
 40
0.0063856902
 40
0.0129180053
 40
0.019624098
 40
0.0265287875
 40
0.0336545132
 40
0.0410214547
 40
0.0486474966
 40
0.0565483583
 40
0.0647378786
 40
0.073228045
 40
0.0820291327
 40
0.0911500263
 40
0.1005982378
 40
0.1103799828
 40
0.1205004928
 40
0.1309640109
 40
0.1417737918
 40
0.1529323962
 40
0.1644416754
 40
0.1763027046
 40
0.2010807194
 40
0.2272658068
 40
0.2548487476
 40
0.283813836
 40
0.3141399625
 40
0.3458012609
 40
0.378767443
 40
0.4130045002
 40
0.4484749693
 40
0.4851381229
 40
0.5229504705
 40
0.5618658381
 40
0.6018355411
 40
0.6428087597
 40
0.6847325381
 40
0.7275519339
 40
0.7712103781
 40
0.8156497522
 40
0.8608098586
 40
0.9066296536
 40
0.9530492264
 40
1.0
 40
1.0
 40
1.0
 40
1.0
 10
14.8028164664
 20
9.3821796178
 30
0.0
 10
14.8015367562
 20
9.3826320546
 30
0.0
 10
14.7989803341
 20
9.383641583
 30
0.0
 10
14.795212705
 20
9.3854386159
 30
0.0
 10
14.7914748051
 20
9.3875327673
 30
0.0
 10
14.7877682184
 20
9.389922875
 30
0.0
 10
14.7840940929
 20
9.3926078201
 30
0.0
 10
14.780453731
 20
9.3955865251
 30
0.0
 10
14.7768483251
 20
9.3988577613
 30
0.0
 10
14.7732790214
 20
9.4024201988
 30
0.0
 10
14.7697470641
 20
9.4062725431
 30
0.0
 10
14.7662536478
 20
9.4104133533
 30
0.0
 10
14.762799909
 20
9.4148410572
 30
0.0
 10
14.759387089
 20
9.4195540769
 30
0.0
 10
14.7560163945
 20
9.4245507003
 30
0.0
 10
14.7526889559
 20
9.4298290671
 30
0.0
 10
14.7494059975
 20
9.4353872848
 30
0.0
 10
14.7461687221
 20
9.4412233402
 30
0.0
 10
14.7429782358
 20
9.4473350703
 30
0.0
 10
14.739835734
 20
9.4537202586
 30
0.0
 10
14.7367423655
 20
9.4603765973
 30
0.0
 10
14.7326248111
 20
9.4697467913
 30
0.0
 10
14.7276210719
 20
9.4821314536
 30
0.0
 10
14.7219144764
 20
9.4978247047
 30
0.0
 10
14.716429964
 20
9.5145360693
 30
0.0
 10
14.7111755769
 20
9.5322409727
 30
0.0
 10
14.7061591056
 20
9.5509136187
 30
0.0
 10
14.701388054
 20
9.5705266332
 30
0.0
 10
14.6968694665
 20
9.5910512047
 30
0.0
 10
14.6926101027
 20
9.6124571411
 30
0.0
 10
14.6886163431
 20
9.6347129164
 30
0.0
 10
14.6848940941
 20
9.6577857112
 30
0.0
 10
14.6814489444
 20
9.6816414867
 30
0.0
 10
14.6782860447
 20
9.7062450269
 30
0.0
 10
14.6754100725
 20
9.7315599926
 30
0.0
 10
14.6728253599
 20
9.7575489888
 30
0.0
 10
14.6705357595
 20
9.7841736057
 30
0.0
 10
14.6685446555
 20
9.8113944874
 30
0.0
 10
14.6668550611
 20
9.8391714255
 30
0.0
 10
14.6654694959
 20
9.8674632991
 30
0.0
 10
14.6643899924
 20
9.8962282139
 30
0.0
 10
14.6636181938
 20
9.9254240697
 30
0.0
 10
14.6631553096
 20
9.9550070712
 30
0.0
 10
14.6630535822
 20
9.9748539221
 30
0.0
 10
14.6630535822
 20
9.9848337222
 30
0.0
  0
SPLINE
  5
350
100
AcDbEntity
  8
0
100
AcDbSpline
 62
7
  6
CONTINUOUS
 70
0
 71
3
 72
54
 73
50
 74
0
 42
0.0000001
 43
0.0000001
 44
0.0000000001
 40
0.0
 40
0.0
 40
0.0
 40
0.0
 40
0.005498893
 40
0.0111936524
 40
0.0171298113
 40
0.0233468368
 40
0.0298783914
 40
0.0367525319
 40
0.0439924553
 40
0.051616895
 40
0.0596408766
 40
0.0680760951
 40
0.0769314837
 40
0.086213548
 40
0.0959267042
 40
0.1060736054
 40
0.1166552689
 40
0.1276714219
 40
0.1391204621
 40
0.1509998266
 40
0.163305842
 40
0.1760340936
 40
0.1891792302
 40
0.2027352946
 40
0.2166955447
 40
0.2310527078
 40
0.2457988643
 40
0.2609256001
 40
0.2764239788
 40
0.2922845858
 40
0.3084975922
 40
0.3250527011
 40
0.3591458174
 40
0.3944748275
 40
0.4309447968
 40
0.4684560714
 40
0.5069048168
 40
0.5461835246
 40
0.5861814964
 40
0.6267853117
 40
0.6678792849
 40
0.7093459164
 40
0.7510663332
 40
0.7929207448
 40
0.8347888378
 40
0.8765503489
 40
0.9180851332
 40
0.9592745042
 40
1.0
 40
1.0
 40
1.0
 40
1.0
 10
14.914625971
 20
10.9944259077
 30
0.0
 10
14.9127024577
 20
10.9940332814
 30
0.0
 10
14.9088264956
 20
10.9930276473
 30
0.0
 10
14.9030763093
 20
10.9909208681
 30
0.0
 10
14.8973072756
 20
10.9881964975
 30
0.0
 10
14.8915240714
 20
10.9848583324
 30
0.0
 10
14.8857302832
 20
10.9809095918
 30
0.0
 10
14.8799294928
 20
10.9763540424
 30
0.0
 10
14.8741255287
 20
10.9711952754
 30
0.0
 10
14.8683221015
 20
10.9654374286
 30
0.0
 10
14.8625232527
 20
10.9590847704
 30
0.0
 10
14.856732966
 20
10.9521421051
 30
0.0
 10
14.8509554252
 20
10.9446145703
 30
0.0
 10
14.8451948299
 20
10.9365077863
 30
0.0
 10
14.8394554163
 20
10.9278278196
 30
0.0
 10
14.8337415185
 20
10.9185811605
 30
0.0
 10
14.8280573623
 20
10.9087747978
 30
0.0
 10
14.8224073446
 20
10.8984161
 30
0.0
 10
14.8167956484
 20
10.8875129459
 30
0.0
 10
14.8112266739
 20
10.8760735696
 30
0.0
 10
14.8057045491
 20
10.8641067019
 30
0.0
 10
14.8002336261
 20
10.8516214195
 30
0.0
 10
14.794817977
 20
10.8386272666
 30
0.0
 10
14.7894618625
 20
10.8251341335
 30
0.0
 10
14.7841692996
 20
10.8111523414
 30
0.0
 10
14.7789444247
 20
10.7966925596
 30
0.0
 10
14.7737911952
 20
10.7817658518
 30
0.0
 10
14.7687136011
 20
10.766383629
 30
0.0
 10
14.763715529
 20
10.750557662
 30
0.0
 10
14.7588008143
 20
10.7343000664
 30
0.0
 10
14.7539732347
 20
10.717623273
 30
0.0
 10
14.7475951793
 20
10.6946203848
 30
0.0
 10
14.7398795765
 20
10.6649083808
 30
0.0
 10
14.7311136607
 20
10.6281315171
 30
0.0
 10
14.7227794509
 20
10.5900044248
 30
0.0
 10
14.7149026189
 20
10.550643911
 30
0.0
 10
14.7075074408
 20
10.5101704176
 30
0.0
 10
14.7006166905
 20
10.4687078876
 30
0.0
 10
14.6942515802
 20
10.4263833078
 30
0.0
 10
14.688431694
 20
10.3833263328
 30
0.0
 10
14.6831749299
 20
10.3396688769
 30
0.0
 10
14.6784974464
 20
10.2955447082
 30
0.0
 10
14.6744136108
 20
10.2510890313
 30
0.0
 10
14.6709359632
 20
10.2064380828
 30
0.0
 10
14.6680751603
 20
10.1617286717
 30
0.0
 10
14.6658399819
 20
10.1170978707
 30
0.0
 10
14.6642372277
 20
10.0726823041
 30
0.0
 10
14.6632718206
 20
10.028618339
 30
0.0
 10
14.6630535822
 20
9.9993732498
 30
0.0
 10
14.6630535822
 20
9.9848337222
 30
0.0
  0
SPLINE
  5
351
100
AcDbEntity
  8
0
100
AcDbSpline
 62
7
  6
CONTINUOUS
 70
0
 71
3
 72
54
 73
50
 74
0
 42
0.0000001
 43
0.0000001
 44
0.0000000001
 40
0.0
 40
0.0
 40
0.0
 40
0.0
 40
0.0063158427
 40
0.0126705974
 40
0.0191023953
 40
0.0256479035
 40
0.0323417516
 40
0.0392160545
 40
0.0536138127
 40
0.061194488
 40
0.0690562166
 40
0.0772172825
 40
0.0856936302
 40
0.0944989909
 40
0.1036450473
 40
0.113141787
 40
0.1229974971
 40
0.1332190617
 40
0.1438121259
 40
0.1547810799
 40
0.1661293869
 40
0.1778595312
 40
0.189973133
 40
0.2024711534
 40
0.2153537503
 40
0.2286205275
 40
0.2422705277
 40
0.256302183
 40
0.2707135528
 40
0.2855021644
 40
0.300665138
 40
0.316199276
 40
0.3321009043
 40
0.3649900029
 40
0.3992976831
 40
0.4349839512
 40
0.472004695
 40
0.5103120262
 40
0.5498546333
 40
0.5905781015
 40
0.6324251619
 40
0.6753358913
 40
0.7192479428
 40
0.7640967229
 40
0.8098156864
 40
0.8563364658
 40
0.9035883331
 40
0.9515014468
 40
1.0
 40
1.0
 40
1.0
 40
1.0
 10
14.852878602
 20
5.9863895729
 30
0.0
 10
14.8508841829
 20
5.9865278903
 30
0.0
 10
14.8468924796
 20
5.9869686083
 30
0.0
 10
14.8409496723
 20
5.9881174387
 30
0.0
 10
14.8350465768
 20
5.989753844
 30
0.0
 10
14.8291866579
 20
5.9918766015
 30
0.0
 10
14.8233722348
 20
5.9944845085
 30
0.0
 10
14.8155649783
 20
5.9986695828
 30
0.0
 10
14.8079697967
 20
6.0037928403
 30
0.0
 10
14.800619532
 20
6.0097298045
 30
0.0
 10
14.7950676644
 20
6.0147354348
 30
0.0
 10
14.7895750223
 20
6.0202140362
 30
0.0
 10
14.7841430702
 20
6.0261637501
 30
0.0
 10
14.7787740228
 20
6.0325819905
 30
0.0
 10
14.773469776
 20
6.0394661004
 30
0.0
 10
14.7682324831
 20
6.0468133387
 30
0.0
 10
14.7630641002
 20
6.0546206758
 30
0.0
 10
14.7579666603
 20
6.0628849531
 30
0.0
 10
14.7529422546
 20
6.0716028528
 30
0.0
 10
14.7479927928
 20
6.0807707889
 30
0.0
 10
14.7431203459
 20
6.0903850702
 30
0.0
 10
14.7383268691
 20
6.1004417711
 30
0.0
 10
14.7336142626
 20
6.1109367751
 30
0.0
 10
14.7289845404
 20
6.1218658258
 30
0.0
 10
14.7244395159
 20
6.1332244255
 30
0.0
 10
14.7199810842
 20
6.1450079333
 30
0.0
 10
14.7156111118
 20
6.1572115259
 30
0.0
 10
14.7113313217
 20
6.1698301789
 30
0.0
 10
14.7071435556
 20
6.1828587276
 30
0.0
 10
14.7030494996
 20
6.196291809
 30
0.0
 10
14.6990508318
 20
6.2101238946
 30
0.0
 10
14.6951492443
 20
6.2243493203
 30
0.0
 10
14.6900210589
 20
6.2440547708
 30
0.0
 10
14.6838789704
 20
6.2696343573
 30
0.0
 10
14.6770006469
 20
6.3014687376
 30
0.0
 10
14.6705457532
 20
6.3347247478
 30
0.0
 10
14.6645250347
 20
6.3693475858
 30
0.0
 10
14.6589485228
 20
6.4052803569
 30
0.0
 10
14.6538254984
 20
6.442463897
 30
0.0
 10
14.6491645005
 20
6.4808369754
 30
0.0
 10
14.6449733095
 20
6.5203363749
 30
0.0
 10
14.6412589106
 20
6.5608969966
 30
0.0
 10
14.6380274849
 20
6.602451958
 30
0.0
 10
14.6352844152
 20
6.6449327402
 30
0.0
 10
14.633034285
 20
6.6882693161
 30
0.0
 10
14.6312808807
 20
6.7323900516
 30
0.0
 10
14.6300270534
 20
6.7772225855
 30
0.0
 10
14.6292750143
 20
6.8226923762
 30
0.0
 10
14.6291098726
 20
6.8532106944
 30
0.0
 10
14.6291098726
 20
6.868562371
 30
0.0
  0
SPLINE
  5
352
100
AcDbEntity
  8
0
100
AcDbSpline
 62
7
  6
CONTINUOUS
 70
0
 71
3
 72
49
 73
45
 74
0
 42
0.0000001
 43
0.0000001
 44
0.0000000001
 40
0.0
 40
0.0
 40
0.0
 40
0.0
 40
0.0063856902
 40
0.0129180053
 40
0.019624098
 40
0.0265287875
 40
0.0336545132
 40
0.0410214547
 40
0.0486474966
 40
0.0565483583
 40
0.0647378786
 40
0.073228045
 40
0.0820291327
 40
0.0911500263
 40
0.1005982378
 40
0.1103799828
 40
0.1205004928
 40
0.1309640109
 40
0.1417737918
 40
0.1529323962
 40
0.1644416754
 40
0.1763027046
 40
0.2010807194
 40
0.2272658068
 40
0.2548487476
 40
0.283813836
 40
0.3141399625
 40
0.3458012609
 40
0.378767443
 40
0.4130045002
 40
0.4484749693
 40
0.4851381229
 40
0.5229504705
 40
0.5618658381
 40
0.6018355411
 40
0.6428087597
 40
0.6847325381
 40
0.7275519339
 40
0.7712103781
 40
0.8156497522
 40
0.8608098586
 40
0.9066296536
 40
0.9530492264
 40
1.0
 40
1.0
 40
1.0
 40
1.0
 10
14.8028164664
 20
6.3626953759
 30
0.0
 10
14.8015367562
 20
6.3631478127
 30
0.0
 10
14.7989803341
 20
6.3641573411
 30
0.0
 10
14.795212705
 20
6.365954374
 30
0.0
 10
14.7914748051
 20
6.3680485254
 30
0.0
 10
14.7877682184
 20
6.3704386331
 30
0.0
 10
14.7840940929
 20
6.3731235782
 30
0.0
 10
14.780453731
 20
6.3761022832
 30
0.0
 10
14.7768483251
 20
6.3793735194
 30
0.0
 10
14.7732790214
 20
6.382935957
 30
0.0
 10
14.7697470641
 20
6.3867883012
 30
0.0
 10
14.7662536478
 20
6.3909291114
 30
0.0
 10
14.762799909
 20
6.3953568153
 30
0.0
 10
14.759387089
 20
6.4000698351
 30
0.0
 10
14.7560163945
 20
6.4050664584
 30
0.0
 10
14.7526889559
 20
6.4103448252
 30
0.0
 10
14.7494059975
 20
6.4159030429
 30
0.0
 10
14.7461687221
 20
6.4217390984
 30
0.0
 10
14.7429782358
 20
6.4278508284
 30
0.0
 10
14.739835734
 20
6.4342360167
 30
0.0
 10
14.7367423655
 20
6.4408923555
 30
0.0
 10
14.7326248111
 20
6.4502625494
 30
0.0
 10
14.7276210719
 20
6.4626472117
 30
0.0
 10
14.7219144764
 20
6.4783404629
 30
0.0
 10
14.716429964
 20
6.4950518274
 30
0.0
 10
14.7111755769
 20
6.5127567308
 30
0.0
 10
14.7061591056
 20
6.5314293768
 30
0.0
 10
14.701388054
 20
6.5510423914
 30
0.0
 10
14.6968694665
 20
6.5715669628
 30
0.0
 10
14.6926101027
 20
6.5929728992
 30
0.0
 10
14.6886163431
 20
6.6152286746
 30
0.0
 10
14.6848940941
 20
6.6383014693
 30
0.0
 10
14.6814489444
 20
6.6621572448
 30
0.0
 10
14.6782860447
 20
6.686760785
 30
0.0
 10
14.6754100725
 20
6.7120757507
 30
0.0
 10
14.6728253599
 20
6.7380647469
 30
0.0
 10
14.6705357595
 20
6.7646893638
 30
0.0
 10
14.6685446555
 20
6.7919102455
 30
0.0
 10
14.6668550611
 20
6.8196871836
 30
0.0
 10
14.6654694959
 20
6.8479790573
 30
0.0
 10
14.6643899924
 20
6.876743972
 30
0.0
 10
14.6636181938
 20
6.9059398278
 30
0.0
 10
14.6631553096
 20
6.9355228293
 30
0.0
 10
14.6630535822
 20
6.9553696802
 30
0.0
 10
14.6630535822
 20
6.9653494803
 30
0.0
  0
SPLINE
  5
353
100
AcDbEntity
  8
0
100
AcDbSpline
 62
7
  6
CONTINUOUS
 70
0
 71
3
 72
54
 73
50
 74
0
 42
0.0000001
 43
0.0000001
 44
0.0000000001
 40
0.0
 40
0.0
 40
0.0
 40
0.0
 40
0.005498893
 40
0.0111936524
 40
0.0171298113
 40
0.0233468368
 40
0.0298783914
 40
0.0367525319
 40
0.0439924553
 40
0.051616895
 40
0.0596408766
 40
0.0680760951
 40
0.0769314837
 40
0.086213548
 40
0.0959267042
 40
0.1060736054
 40
0.1166552689
 40
0.1276714219
 40
0.1391204621
 40
0.1509998266
 40
0.163305842
 40
0.1760340936
 40
0.1891792302
 40
0.2027352946
 40
0.2166955447
 40
0.2310527078
 40
0.2457988643
 40
0.2609256001
 40
0.2764239788
 40
0.2922845858
 40
0.3084975922
 40
0.3250527011
 40
0.3591458174
 40
0.3944748275
 40
0.4309447968
 40
0.4684560714
 40
0.5069048168
 40
0.5461835246
 40
0.5861814964
 40
0.6267853117
 40
0.6678792849
 40
0.7093459164
 40
0.7510663332
 40
0.7929207448
 40
0.8347888378
 40
0.8765503489
 40
0.9180851332
 40
0.9592745042
 40
1.0
 40
1.0
 40
1.0
 40
1.0
 10
14.914625971
 20
7.9749416658
 30
0.0
 10
14.9127024577
 20
7.9745490396
 30
0.0
 10
14.9088264956
 20
7.9735434054
 30
0.0
 10
14.9030763093
 20
7.9714366263
 30
0.0
 10
14.8973072756
 20
7.9687122556
 30
0.0
 10
14.8915240714
 20
7.9653740905
 30
0.0
 10
14.8857302832
 20
7.9614253499
 30
0.0
 10
14.8799294928
 20
7.9568698005
 30
0.0
 10
14.8741255287
 20
7.9517110335
 30
0.0
 10
14.8683221015
 20
7.9459531867
 30
0.0
 10
14.8625232527
 20
7.9396005285
 30
0.0
 10
14.856732966
 20
7.9326578632
 30
0.0
 10
14.8509554252
 20
7.9251303285
 30
0.0
 10
14.8451948299
 20
7.9170235444
 30
0.0
 10
14.8394554163
 20
7.9083435777
 30
0.0
 10
14.8337415185
 20
7.8990969187
 30
0.0
 10
14.8280573623
 20
7.8892905559
 30
0.0
 10
14.8224073446
 20
7.8789318581
 30
0.0
 10
14.8167956484
 20
7.868028704
 30
0.0
 10
14.8112266739
 20
7.8565893277
 30
0.0
 10
14.8057045491
 20
7.84462246
 30
0.0
 10
14.8002336261
 20
7.8321371777
 30
0.0
 10
14.794817977
 20
7.8191430248
 30
0.0
 10
14.7894618625
 20
7.8056498917
 30
0.0
 10
14.7841692996
 20
7.7916680995
 30
0.0
 10
14.7789444247
 20
7.7772083177
 30
0.0
 10
14.7737911952
 20
7.76228161
 30
0.0
 10
14.7687136011
 20
7.7468993871
 30
0.0
 10
14.763715529
 20
7.7310734201
 30
0.0
 10
14.7588008143
 20
7.7148158245
 30
0.0
 10
14.7539732347
 20
7.6981390312
 30
0.0
 10
14.7475951793
 20
7.6751361429
 30
0.0
 10
14.7398795765
 20
7.6454241389
 30
0.0
 10
14.7311136607
 20
7.6086472752
 30
0.0
 10
14.7227794509
 20
7.5705201829
 30
0.0
 10
14.7149026189
 20
7.5311596691
 30
0.0
 10
14.7075074408
 20
7.4906861757
 30
0.0
 10
14.7006166905
 20
7.4492236457
 30
0.0
 10
14.6942515802
 20
7.4068990659
 30
0.0
 10
14.688431694
 20
7.3638420909
 30
0.0
 10
14.6831749299
 20
7.320184635
 30
0.0
 10
14.6784974464
 20
7.2760604663
 30
0.0
 10
14.6744136108
 20
7.2316047894
 30
0.0
 10
14.6709359632
 20
7.1869538409
 30
0.0
 10
14.6680751603
 20
7.1422444298
 30
0.0
 10
14.6658399819
 20
7.0976136288
 30
0.0
 10
14.6642372277
 20
7.0531980622
 30
0.0
 10
14.6632718206
 20
7.0091340972
 30
0.0
 10
14.6630535822
 20
6.9798890079
 30
0.0
 10
14.6630535822
 20
6.9653494803
 30
0.0
  0
SPLINE
  5
354
100
AcDbEntity
  8
0
100
AcDbSpline
 62
7
  6
CONTINUOUS
 70
0
 71
3
 72
21
 73
17
 74
0
 42
0.0000001
 43
0.0000001
 44
0.0000000001
 40
0.0
 40
0.0
 40
0.0
 40
0.0
 40
0.1343550083
 40
0.2634593768
 40
0.3264370386
 40
0.3885667355
 40
0.4500146795
 40
0.5109478509
 40
0.5715365655
 40
0.6319528526
 40
0.6923652234
 40
0.7529399161
 40
0.8138409866
 40
0.8752233201
 40
0.9372304008
 40
1.0
 40
1.0
 40
1.0
 40
1.0
 10
11.8800972986
 20
8.7857114345
 30
0.0
 10
11.8800978501
 20
8.7828985797
 30
0.0
 10
11.8798769785
 20
8.7773794796
 30
0.0
 10
11.8789857258
 20
8.7705926711
 30
0.0
 10
11.8779055268
 20
8.7653793022
 30
0.0
 10
11.8769217641
 20
8.7615977164
 30
0.0
 10
11.8757575811
 20
8.75791259
 30
0.0
 10
11.8744131162
 20
8.7543237177
 30
0.0
 10
11.8728885096
 20
8.7508311163
 30
0.0
 10
11.8711839867
 20
8.7474348826
 30
0.0
 10
11.8692999492
 20
8.7441351959
 30
0.0
 10
11.8672368653
 20
8.7409323352
 30
0.0
 10
11.8649953075
 20
8.7378267129
 30
0.0
 10
11.862576046
 20
8.7348188737
 30
0.0
 10
11.8599801287
 20
8.7319096628
 30
0.0
 10
11.8581447308
 20
8.7300489975
 30
0.0
 10
11.8571995271
 20
8.7291360007
 30
0.0
  0
SPLINE
  5
355
100
AcDbEntity
  8
0
100
AcDbSpline
 62
7
  6
CONTINUOUS
 70
0
 71
3
 72
56
 73
52
 74
0
 42
0.0000001
 43
0.0000001
 44
0.0000000001
 40
0.0
 40
0.0
 40
0.0
 40
0.0
 40
0.014971274
 40
0.029945606
 40
0.0449260369
 40
0.0599155706
 40
0.0749171531
 40
0.0899336598
 40
0.104967875
 40
0.1200224737
 40
0.1351000117
 40
0.1502029057
 40
0.1653334193
 40
0.1804936563
 40
0.1956855421
 40
0.2109108165
 40
0.2261710283
 40
0.2414675198
 40
0.2568014272
 40
0.2721736755
 40
0.2875849674
 40
0.3030357913
 40
0.3185264144
 40
0.3340568802
 40
0.3496270191
 40
0.3652364417
 40
0.3808845461
 40
0.3965705269
 40
0.4122933718
 40
0.4280518765
 40
0.4438446507
 40
0.4596701209
 40
0.4755265482
 40
0.4914120331
 40
0.5073245245
 40
0.5232618381
 40
0.5551966919
 40
0.5872017075
 40
0.6192556772
 40
0.6513364178
 40
0.6834212138
 40
0.7154872687
 40
0.7475121591
 40
0.7794742806
 40
0.811353285
 40
0.8431305
 40
0.8747893191
 40
0.9063155631
 40
0.9376978538
 40
0.9689275324
 40
1.0
 40
1.0
 40
1.0
 40
1.0
 10
10.3548057579
 20
6.2137918756
 30
0.0
 10
10.3476632278
 20
6.2068926976
 30
0.0
 10
10.3331007882
 20
6.1933753246
 30
0.0
 10
10.3104661688
 20
6.1739812289
 30
0.0
 10
10.2870694819
 20
6.1554933261
 30
0.0
 10
10.2629432592
 20
6.137937623
 30
0.0
 10
10.2381206389
 20
6.1213380988
 30
0.0
 10
10.2126358503
 20
6.1057175585
 30
0.0
 10
10.1865238765
 20
6.0910976202
 30
0.0
 10
10.1598207318
 20
6.0774982675
 30
0.0
 10
10.1325631524
 20
6.0649382105
 30
0.0
 10
10.1047886058
 20
6.0534348248
 30
0.0
 10
10.0765353784
 20
6.0430037648
 30
0.0
 10
10.0478423103
 20
6.0336594526
 30
0.0
 10
10.0187488781
 20
6.0254147575
 30
0.0
 10
9.9892951471
 20
6.0182808629
 30
0.0
 10
9.959521603
 20
6.0122677058
 30
0.0
 10
9.9294692227
 20
6.0073834777
 30
0.0
 10
9.8991793538
 20
6.003634794
 30
0.0
 10
9.8686936425
 20
6.0010269486
 30
0.0
 10
9.8380540345
 20
5.9995633709
 30
0.0
 10
9.807302663
 20
5.999246054
 30
0.0
 10
9.7764818214
 20
6.0000755346
 30
0.0
 10
9.7456338893
 20
6.0020504845
 30
0.0
 10
9.7148012854
 20
6.0051682507
 30
0.0
 10
9.6840264142
 20
6.0094245683
 30
0.0
 10
9.6533515663
 20
6.0148134216
 30
0.0
 10
9.6228189377
 20
6.0213275198
 30
0.0
 10
9.5924704995
 20
6.028957842
 30
0.0
 10
9.5623479473
 20
6.0376937957
 30
0.0
 10
9.5324927333
 20
6.0475235075
 30
0.0
 10
9.5029458708
 20
6.0584333252
 30
0.0
 10
9.4737479368
 20
6.0704082501
 30
0.0
 10
9.4449392309
 20
6.0834318524
 30
0.0
 10
9.4165588648
 20
6.0974863403
 30
0.0
 10
9.3793211827
 20
6.1175852726
 30
0.0
 10
9.3340427734
 20
6.145190074
 30
0.0
 10
9.2820759426
 20
6.1820691458
 30
0.0
 10
9.2327161479
 20
6.222525868
 30
0.0
 10
9.1862360865
 20
6.2663371225
 30
0.0
 10
9.1428904009
 20
6.3132626993
 30
0.0
 10
9.1029171218
 20
6.3630449347
 30
0.0
 10
9.0665356872
 20
6.4154106495
 30
0.0
 10
9.0339460048
 20
6.4700725282
 30
0.0
 10
9.0053272478
 20
6.5267306643
 30
0.0
 10
8.9808367905
 20
6.5850741026
 30
0.0
 10
8.9606095056
 20
6.6447827555
 30
0.0
 10
8.9447569999
 20
6.7055286104
 30
0.0
 10
8.9333669946
 20
6.7669792353
 30
0.0
 10
8.9265024263
 20
6.8287928255
 30
0.0
 10
8.9249649246
 20
6.8701338321
 30
0.0
 10
8.9249649246
 20
6.8907442664
 30
0.0
  0
SPLINE
  5
356
100
AcDbEntity
  8
0
100
AcDbSpline
 62
7
  6
CONTINUOUS
 70
0
 71
3
 72
54
 73
50
 74
0
 42
0.0000001
 43
0.0000001
 44
0.0000000001
 40
0.0
 40
0.0
 40
0.0
 40
0.0
 40
0.0149619973
 40
0.0299313383
 40
0.0449108634
 40
0.0599033506
 40
0.0749115064
 40
0.0899379452
 40
0.1049851744
 40
0.1200555867
 40
0.1351514376
 40
0.1502748408
 40
0.1654277556
 40
0.1806119708
 40
0.1958291065
 40
0.211080596
 40
0.2263676837
 40
0.2416914232
 40
0.2570526627
 40
0.2724520537
 40
0.2878900417
 40
0.3033668646
 40
0.3188825615
 40
0.3344369612
 40
0.3500296963
 40
0.3656602015
 40
0.3813277139
 40
0.3970312893
 40
0.4285371084
 40
0.4601714439
 40
0.4919206529
 40
0.5237688454
 40
0.5556982147
 40
0.5876893943
 40
0.619721837
 40
0.6517742116
 40
0.6838248094
 40
0.7158519556
 40
0.7478344192
 40
0.7797518193
 40
0.8115850187
 40
0.8433165
 40
0.8749307183
 40
0.8906920254
 40
0.9064192472
 40
0.9221111659
 40
0.9377667345
 40
0.968960095
 40
1.0
 40
1.0
 40
1.0
 40
1.0
 10
10.353913687
 20
6.2147746256
 30
0.0
 10
10.3465471476
 20
6.2084611312
 30
0.0
 10
10.3315636624
 20
6.196115767
 30
0.0
 10
10.3083817683
 20
6.1784783737
 30
0.0
 10
10.2845177722
 20
6.1617402314
 30
0.0
 10
10.2600035132
 20
6.1459235815
 30
0.0
 10
10.2348710686
 20
6.1310490359
 30
0.0
 10
10.209153376
 20
6.117136285
 30
0.0
 10
10.1828842891
 20
6.1042033753
 30
0.0
 10
10.1560982158
 20
6.0922674099
 30
0.0
 10
10.1288303323
 20
6.0813440097
 30
0.0
 10
10.1011164633
 20
6.0714473853
 30
0.0
 10
10.0729929129
 20
6.0625907032
 30
0.0
 10
10.0444966521
 20
6.0547853697
 30
0.0
 10
10.0156650425
 20
6.0480417038
 30
0.0
 10
9.9865359126
 20
6.0423685751
 30
0.0
 10
9.9571475092
 20
6.0377732416
 30
0.0
 10
9.9275383571
 20
6.0342619228
 30
0.0
 10
9.8977473238
 20
6.0318390402
 30
0.0
 10
9.8678134808
 20
6.0305077818
 30
0.0
 10
9.8377760942
 20
6.0302699836
 30
0.0
 10
9.8076745618
 20
6.0311257358
 30
0.0
 10
9.7775483663
 20
6.0330740912
 30
0.0
 10
9.7474370249
 20
6.0361123667
 30
0.0
 10
9.7173799838
 20
6.0402365288
 30
0.0
 10
9.6874168073
 20
6.045441273
 30
0.0
 10
9.657586295
 20
6.0517196992
 30
0.0
 10
9.6180032627
 20
6.061520947
 30
0.0
 10
9.5690503036
 20
6.0764216362
 30
0.0
 10
9.5115323343
 20
6.0984098527
 30
0.0
 10
9.4554678038
 20
6.1244115147
 30
0.0
 10
9.4011521537
 20
6.1542896358
 30
0.0
 10
9.3488691316
 20
6.1878875981
 30
0.0
 10
9.2988925391
 20
6.2250292686
 30
0.0
 10
9.2514839116
 20
6.2655200397
 30
0.0
 10
9.2068913863
 20
6.3091477998
 30
0.0
 10
9.1653484048
 20
6.3556841111
 30
0.0
 10
9.1270725184
 20
6.4048853567
 30
0.0
 10
9.0922642469
 20
6.4564940612
 30
0.0
 10
9.0611060038
 20
6.5102399388
 30
0.0
 10
9.0337610172
 20
6.5658422027
 30
0.0
 10
9.0103732823
 20
6.6230078844
 30
0.0
 10
8.99426529
 20
6.6717562758
 30
0.0
 10
8.983476815
 20
6.711233482
 30
0.0
 10
8.9764486614
 20
6.7410153308
 30
0.0
 10
8.970485857
 20
6.7709587343
 30
0.0
 10
8.9639749144
 20
6.8109935288
 30
0.0
 10
8.9585243825
 20
6.8612489657
 30
0.0
 10
8.9570584592
 20
6.9016169255
 30
0.0
 10
8.9570584592
 20
6.9217442421
 30
0.0
  0
SPLINE
  5
357
100
AcDbEntity
  8
0
100
AcDbSpline
 62
7
  6
CONTINUOUS
 70
0
 71
3
 72
54
 73
50
 74
0
 42
0.0000001
 43
0.0000001
 44
0.0000000001
 40
0.0
 40
0.0
 40
0.0
 40
0.0
 40
0.0149714207
 40
0.0299458999
 40
0.0449264793
 40
0.0599161604
 40
0.0749178913
 40
0.0899345475
 40
0.1049689107
 40
0.1200236594
 40
0.1351013478
 40
0.1502043907
 40
0.1653350561
 40
0.180495444
 40
0.1956874801
 40
0.2109129079
 40
0.2261732709
 40
0.2414699147
 40
0.2568039766
 40
0.2721763764
 40
0.287587823
 40
0.3030388016
 40
0.3185295773
 40
0.3340601996
 40
0.3496304929
 40
0.3652400701
 40
0.3808883319
 40
0.3965744671
 40
0.4122974687
 40
0.4280561307
 40
0.4438490599
 40
0.4596746883
 40
0.4914119508
 40
0.5232571585
 40
0.5551923278
 40
0.5871976583
 40
0.6192519434
 40
0.6513329994
 40
0.6834181104
 40
0.71548448
 40
0.7475096843
 40
0.7794721186
 40
0.8113514354
 40
0.8431289619
 40
0.8747880915
 40
0.9063146418
 40
0.937697247
 40
0.9689272244
 40
1.0
 40
1.0
 40
1.0
 40
1.0
 10
10.3636584212
 20
6.287688309
 30
0.0
 10
10.3569057879
 20
6.2811657566
 30
0.0
 10
10.3431381955
 20
6.2683863917
 30
0.0
 10
10.3217391735
 20
6.2500510032
 30
0.0
 10
10.2996196019
 20
6.2325724385
 30
0.0
 10
10.2768103398
 20
6.2159751719
 30
0.0
 10
10.2533427491
 20
6.2002818093
 30
0.0
 10
10.2292490578
 20
6.18551412
 30
0.0
 10
10.2045624831
 20
6.1716923131
 30
0.0
 10
10.1793170114
 20
6.1588353703
 30
0.0
 10
10.1535473204
 20
6.1469611082
 30
0.0
 10
10.1272889537
 20
6.1360856809
 30
0.0
 10
10.1005780014
 20
6.1262241305
 30
0.0
 10
10.0734512151
 20
6.1173900374
 30
0.0
 10
10.045945963
 20
6.1095953935
 30
0.0
 10
10.0181000399
 20
6.1028510744
 30
0.0
 10
9.9899517869
 20
6.097166232
 30
0.0
 10
9.961539928
 20
6.0925486301
 30
0.0
 10
9.9329035261
 20
6.0890047513
 30
0.0
 10
9.9040819944
 20
6.0865392655
 30
0.0
 10
9.8751149613
 20
6.0851556387
 30
0.0
 10
9.8460422702
 20
6.0848557872
 30
0.0
 10
9.8169039006
 20
6.0856399517
 30
0.0
 10
9.7877399264
 20
6.0875072063
 30
0.0
 10
9.7585904479
 20
6.0904548605
 30
0.0
 10
9.7294955358
 20
6.0944788017
 30
0.0
 10
9.700495216
 20
6.0995736313
 30
0.0
 10
9.6716293376
 20
6.1057321448
 30
0.0
 10
9.6429375686
 20
6.1129459618
 30
0.0
 10
9.6144594836
 20
6.1212051313
 30
0.0
 10
9.5862337517
 20
6.1304983423
 30
0.0
 10
9.5489571526
 20
6.1442622477
 30
0.0
 10
9.5031873765
 20
6.1639922022
 30
0.0
 10
9.4499460379
 20
6.1915398228
 30
0.0
 10
9.3986181123
 20
6.2228332114
 30
0.0
 10
9.3494871191
 20
6.2576996586
 30
0.0
 10
9.3028221233
 20
6.2959477903
 30
0.0
 10
9.2588793639
 20
6.3373675549
 30
0.0
 10
9.2178999318
 20
6.3817315376
 30
0.0
 10
9.1801087674
 20
6.4287962319
 30
0.0
 10
9.1457133939
 20
6.4783033813
 30
0.0
 10
9.1149028147
 20
6.5299813639
 30
0.0
 10
9.087846347
 20
6.5835466001
 30
0.0
 10
9.0646928127
 20
6.638705137
 30
0.0
 10
9.0455697438
 20
6.6951543652
 30
0.0
 10
9.0305826395
 20
6.752584177
 30
0.0
 10
9.019814414
 20
6.8106802758
 30
0.0
 10
9.0133245767
 20
6.8691195282
 30
0.0
 10
9.0118710104
 20
6.90820377
 30
0.0
 10
9.0118710104
 20
6.9276891041
 30
0.0
  0
SPLINE
  5
358
100
AcDbEntity
  8
0
100
AcDbSpline
 62
7
  6
CONTINUOUS
 70
0
 71
3
 72
52
 73
48
 74
0
 42
0.0000001
 43
0.0000001
 44
0.0000000001
 40
0.0
 40
0.0
 40
0.0
 40
0.0
 40
0.0149610471
 40
0.029930214
 40
0.0449103006
 40
0.0599040411
 40
0.074914092
 40
0.0899430187
 40
0.104993275
 40
0.1200671974
 40
0.1351669876
 40
0.1502946995
 40
0.1654522359
 40
0.1806413286
 40
0.1958635382
 40
0.2111202446
 40
0.2264126346
 40
0.2417417088
 40
0.2571082651
 40
0.2725129032
 40
0.2879560242
 40
0.3034378205
 40
0.3189582897
 40
0.3345172248
 40
0.3501142212
 40
0.3657486843
 40
0.3814198232
 40
0.3971266686
 40
0.4286379342
 40
0.4602760954
 40
0.4920274469
 40
0.5238760918
 40
0.5558042671
 40
0.5877926958
 40
0.6198209608
 40
0.6518678955
 40
0.6839119828
 40
0.7159317588
 40
0.7479062163
 40
0.7798152025
 40
0.8116398046
 40
0.8433627191
 40
0.8749685974
 40
0.9064443544
 40
0.9377795441
 40
0.9689661463
 40
1.0
 40
1.0
 40
1.0
 40
1.0
 10
10.3977270341
 20
6.3230614787
 30
0.0
 10
10.3907269043
 20
6.3171973127
 30
0.0
 10
10.3764947215
 20
6.305735059
 30
0.0
 10
10.3544929888
 20
6.2893735516
 30
0.0
 10
10.3318604529
 20
6.2738603114
 30
0.0
 10
10.3086268974
 20
6.2592159613
 30
0.0
 10
10.2848225405
 20
6.2454592745
 30
0.0
 10
10.2604782765
 20
6.2326083255
 30
0.0
 10
10.2356258177
 20
6.2206797168
 30
0.0
 10
10.2102975001
 20
6.2096889179
 30
0.0
 10
10.1845262079
 20
6.1996503533
 30
0.0
 10
10.1583455343
 20
6.1905768657
 30
0.0
 10
10.1317894699
 20
6.1824803936
 30
0.0
 10
10.1048925712
 20
6.1753713954
 30
0.0
 10
10.0776898291
 20
6.1692590135
 30
0.0
 10
10.0502165773
 20
6.1641513595
 30
0.0
 10
10.0225085745
 20
6.1600548518
 30
0.0
 10
9.9946018213
 20
6.1569749234
 30
0.0
 10
9.9665326032
 20
6.1549155567
 30
0.0
 10
9.9383374125
 20
6.1538792813
 30
0.0
 10
9.910052894
 20
6.1538676267
 30
0.0
 10
9.8817158138
 20
6.1548804008
 30
0.0
 10
9.8533629978
 20
6.1569163528
 30
0.0
 10
9.8250313118
 20
6.1599728649
 30
0.0
 10
9.7967575229
 20
6.1640457964
 30
0.0
 10
9.7685785159
 20
6.1691299991
 30
0.0
 10
9.7405304601
 20
6.1752188377
 30
0.0
 10
9.7033208504
 20
6.1846751024
 30
0.0
 10
9.6573172804
 20
6.1989730526
 30
0.0
 10
9.6032838634
 20
6.2199702844
 30
0.0
 10
9.5506335587
 20
6.2447184355
 30
0.0
 10
9.4996413118
 20
6.273088307
 30
0.0
 10
9.4505711114
 20
6.3049325507
 30
0.0
 10
9.4036776199
 20
6.3400857402
 30
0.0
 10
9.3592040091
 20
6.3783653321
 30
0.0
 10
9.3173809658
 20
6.4195726248
 30
0.0
 10
9.2784254641
 20
6.4634938028
 30
0.0
 10
9.2425396732
 20
6.5099010298
 30
0.0
 10
9.2099098953
 20
6.5585535969
 30
0.0
 10
9.1807055511
 20
6.6091991279
 30
0.0
 10
9.1550783854
 20
6.6615749409
 30
0.0
 10
9.1331616693
 20
6.7154093449
 30
0.0
 10
9.1150695444
 20
6.7704231544
 30
0.0
 10
9.1008962846
 20
6.8263306678
 30
0.0
 10
9.0907160361
 20
6.8828426628
 30
0.0
 10
9.0845819585
 20
6.9396620355
 30
0.0
 10
9.0832084512
 20
6.9776535425
 30
0.0
 10
9.0832084512
 20
6.9965957846
 30
0.0
  0
SPLINE
  5
359
100
AcDbEntity
  8
0
100
AcDbSpline
 62
7
  6
CONTINUOUS
 70
0
 71
3
 72
51
 73
47
 74
0
 42
0.0000001
 43
0.0000001
 44
0.0000000001
 40
0.0
 40
0.0
 40
0.0
 40
0.0
 40
0.0149716491
 40
0.0299463579
 40
0.0449271649
 40
0.0599170755
 40
0.0749190358
 40
0.0899359201
 40
0.1049705142
 40
0.1200254921
 40
0.1351034104
 40
0.150206685
 40
0.16533758
 40
0.1804982002
 40
0.1956904684
 40
0.2109161278
 40
0.2261767248
 40
0.2414736015
 40
0.2568078978
 40
0.2721805325
 40
0.2875922139
 40
0.3030434288
 40
0.3185344409
 40
0.3340653005
 40
0.3496358313
 40
0.365245647
 40
0.396575363
 40
0.4280524198
 40
0.4596664386
 40
0.4914041857
 40
0.523249879
 40
0.5551855359
 40
0.5871913555
 40
0.61924613
 40
0.6513276757
 40
0.6834132767
 40
0.7154801359
 40
0.7475058287
 40
0.7794687512
 40
0.8113485552
 40
0.843126567
 40
0.8747861806
 40
0.9063132067
 40
0.9376963039
 40
0.9689267485
 40
1.0
 40
1.0
 40
1.0
 40
1.0
 10
10.400121621
 20
6.4341353594
 30
0.0
 10
10.3940326313
 20
6.4282538504
 30
0.0
 10
10.381618182
 20
6.4167303744
 30
0.0
 10
10.3623222026
 20
6.4001970518
 30
0.0
 10
10.3423765496
 20
6.3844362797
 30
0.0
 10
10.3218090224
 20
6.3694701384
 30
0.0
 10
10.300647771
 20
6.3553192087
 30
0.0
 10
10.2789220596
 20
6.3420028102
 30
0.0
 10
10.2566616642
 20
6.3295394436
 30
0.0
 10
10.2338973055
 20
6.3179461147
 30
0.0
 10
10.2106602962
 20
6.3072387805
 30
0.0
 10
10.1869825717
 20
6.2974322701
 30
0.0
 10
10.1628967936
 20
6.2885398648
 30
0.0
 10
10.1384360286
 20
6.2805739891
 30
0.0
 10
10.1136339841
 20
6.2735454475
 30
0.0
 10
10.0885247763
 20
6.2674638968
 30
0.0
 10
10.0631429261
 20
6.2623378108
 30
0.0
 10
10.037523391
 20
6.2581740103
 30
0.0
 10
10.0117013783
 20
6.2549784129
 30
0.0
 10
9.985712428
 20
6.2527552623
 30
0.0
 10
9.9595922778
 20
6.2515075892
 30
0.0
 10
9.9333768586
 20
6.2512372269
 30
0.0
 10
9.9071021914
 20
6.2519443173
 30
0.0
 10
9.8808045282
 20
6.2536280482
 30
0.0
 10
9.854519592
 20
6.2562860621
 30
0.0
 10
9.8195002192
 20
6.261129267
 30
0.0
 10
9.7759343583
 20
6.2696072832
 30
0.0
 10
9.7243569315
 20
6.2835736488
 30
0.0
 10
9.6736916981
 20
6.3012691133
 30
0.0
 10
9.6242186441
 20
6.3225958306
 30
0.0
 10
9.5762087598
 20
6.3474364017
 30
0.0
 10
9.5299256375
 20
6.3756541684
 30
0.0
 10
9.4856231811
 20
6.4070939893
 30
0.0
 10
9.4435444645
 20
6.4415831037
 30
0.0
 10
9.4039203772
 20
6.4789321077
 30
0.0
 10
9.3669683841
 20
6.5189359711
 30
0.0
 10
9.3328913553
 20
6.5613751573
 30
0.0
 10
9.3018763963
 20
6.6060167612
 30
0.0
 10
9.2740938697
 20
6.6526158169
 30
0.0
 10
9.2496964895
 20
6.7009166443
 30
0.0
 10
9.2288184791
 20
6.7506541934
 30
0.0
 10
9.2115748649
 20
6.8015555953
 30
0.0
 10
9.1980606845
 20
6.8533412007
 30
0.0
 10
9.1883507582
 20
6.9057276072
 30
0.0
 10
9.1824987332
 20
6.9584234457
 30
0.0
 10
9.1811880284
 20
6.9936664799
 30
0.0
 10
9.1811880284
 20
7.0112367943
 30
0.0
  0
SPLINE
  5
35A
100
AcDbEntity
  8
0
100
AcDbSpline
 62
7
  6
CONTINUOUS
 70
0
 71
3
 72
11
 73
7
 74
0
 42
0.0000001
 43
0.0000001
 44
0.0000000001
 40
0.0
 40
0.0
 40
0.0
 40
0.0
 40
0.2447898375
 40
0.4933330517
 40
0.7451942732
 40
1.0
 40
1.0
 40
1.0
 40
1.0
 10
11.640360735
 20
9.6991927132
 30
0.0
 10
11.63777297
 20
9.6867825717
 30
0.0
 10
11.6332242401
 20
9.6616281211
 30
0.0
 10
11.6283452638
 20
9.6233292393
 30
0.0
 10
11.625402193
 20
9.5843131409
 30
0.0
 10
11.6247539885
 20
9.5580691728
 30
0.0
 10
11.6247539885
 20
9.5448734028
 30
0.0
  0
SPLINE
  5
35B
100
AcDbEntity
  8
0
100
AcDbSpline
 62
7
  6
CONTINUOUS
 70
0
 71
3
 72
50
 73
46
 74
0
 42
0.0000001
 43
0.0000001
 44
0.0000000001
 40
0.0
 40
0.0
 40
0.0
 40
0.0
 40
0.0461124908
 40
0.091720265
 40
0.1367609599
 40
0.1811789891
 40
0.2249175239
 40
0.2679210455
 40
0.3101356379
 40
0.3515086717
 40
0.3919891171
 40
0.4315275968
 40
0.4700765488
 40
0.5075904306
 40
0.5440257775
 40
0.5793414067
 40
0.6134987023
 40
0.6464617231
 40
0.6781974524
 40
0.7086762171
 40
0.7378719353
 40
0.7657624976
 40
0.7923304129
 40
0.8051147532
 40
0.8175642814
 40
0.8296783946
 40
0.8414569827
 40
0.8529003105
 40
0.8640092134
 40
0.874785127
 40
0.8852300101
 40
0.8953465737
 40
0.9051382942
 40
0.9146093886
 40
0.9237650769
 40
0.9326115894
 40
0.9411562076
 40
0.9494075512
 40
0.9573755922
 40
0.9650717595
 40
0.972509226
 40
0.9797029216
 40
0.9866696619
 40
0.9934283647
 40
1.0
 40
1.0
 40
1.0
 40
1.0
 10
15.1781030569
 20
7.4628490992
 30
0.0
 10
15.1781030569
 20
7.4769491867
 30
0.0
 10
15.1779636456
 20
7.5049952467
 30
0.0
 10
15.1773294439
 20
7.5468093479
 30
0.0
 10
15.1762719999
 20
7.5880966649
 30
0.0
 10
15.1747928783
 20
7.6287991074
 30
0.0
 10
15.1728941399
 20
7.6688605683
 30
0.0
 10
15.1705784603
 20
7.7082252323
 30
0.0
 10
15.1678490785
 20
7.7468383429
 30
0.0
 10
15.1647098215
 20
7.7846462539
 30
0.0
 10
15.1611651184
 20
7.8215964101
 30
0.0
 10
15.1572199215
 20
7.857637458
 30
0.0
 10
15.1528797513
 20
7.8927193234
 30
0.0
 10
15.1481507275
 20
7.9267932846
 30
0.0
 10
15.1430394713
 20
7.9598120276
 30
0.0
 10
15.1375531231
 20
7.9917297216
 30
0.0
 10
15.1316994126
 20
8.0225021054
 30
0.0
 10
15.1254865475
 20
8.0520865281
 30
0.0
 10
15.1189231953
 20
8.0804420221
 30
0.0
 10
15.1120185805
 20
8.1075293689
 30
0.0
 10
15.1047823713
 20
8.1333112493
 30
0.0
 10
15.0972246325
 20
8.157751914
 30
0.0
 10
15.0905850497
 20
8.1772153468
 30
0.0
 10
15.0851088581
 20
8.1920790067
 30
0.0
 10
15.0809805953
 20
8.2027274706
 30
0.0
 10
15.0767799571
 20
8.213016185
 30
0.0
 10
15.0725084278
 20
8.2229416352
 30
0.0
 10
15.0681674332
 20
8.2325003704
 30
0.0
 10
15.0637584686
 20
8.2416890952
 30
0.0
 10
15.0592831058
 20
8.2505046721
 30
0.0
 10
15.0547428085
 20
8.2589440381
 30
0.0
 10
15.0501391431
 20
8.2670043013
 30
0.0
 10
15.0454737204
 20
8.2746827259
 30
0.0
 10
15.0407480353
 20
8.2819766359
 30
0.0
 10
15.0359637058
 20
8.2888835516
 30
0.0
 10
15.0311223585
 20
8.2954011359
 30
0.0
 10
15.0262255009
 20
8.3015270909
 30
0.0
 10
15.02127478
 20
8.3072593409
 30
0.0
 10
15.0162718118
 20
8.3125959226
 30
0.0
 10
15.0112181074
 20
8.3175348797
 30
0.0
 10
15.0061153213
 20
8.3220745061
 30
0.0
 10
15.0009650833
 20
8.3262131351
 30
0.0
 10
14.9957688514
 20
8.3299491305
 30
0.0
 10
14.9905286492
 20
8.3332809273
 30
0.0
 10
14.9869603034
 20
8.335257533
 30
0.0
 10
14.9851719717
 20
8.3361739114
 30
0.0
  0
SPLINE
  5
35C
100
AcDbEntity
  8
0
100
AcDbSpline
 62
7
  6
CONTINUOUS
 70
0
 71
3
 72
43
 73
39
 74
0
 42
0.0000001
 43
0.0000001
 44
0.0000000001
 40
0.0
 40
0.0
 40
0.0
 40
0.0
 40
0.0303546533
 40
0.0455762998
 40
0.0608269262
 40
0.0914129705
 40
0.1221164224
 40
0.1375134317
 40
0.1529393846
 40
0.1838739266
 40
0.214919378
 40
0.2460708837
 40
0.2773223494
 40
0.308666524
 40
0.3400950931
 40
0.3715987822
 40
0.4031674683
 40
0.4347902991
 40
0.4664558181
 40
0.498152095
 40
0.5298668594
 40
0.5615876366
 40
0.5933018857
 40
0.6249971377
 40
0.6566611335
 40
0.6882819595
 40
0.7198481816
 40
0.751348975
 40
0.7827742499
 40
0.8141147668
 40
0.8453622619
 40
0.8609502127
 40
0.8765122856
 40
0.9075533163
 40
0.9384830736
 40
0.953906511
 40
0.9693015419
 40
1.0
 40
1.0
 40
1.0
 40
1.0
 10
10.5836771035
 20
6.792279959
 30
0.0
 10
10.570846053
 20
6.7905924174
 30
0.0
 10
10.5515032693
 20
6.7886037191
 30
0.0
 10
10.5256149465
 20
6.7870382161
 30
0.0
 10
10.4995936481
 20
6.786193361
 30
0.0
 10
10.46694483
 20
6.7864987317
 30
0.0
 10
10.4343006976
 20
6.7886112231
 30
0.0
 10
10.4082128364
 20
6.7913794441
 30
0.0
 10
10.3821126791
 20
6.7948721299
 30
0.0
 10
10.3495914039
 20
6.8005849941
 30
0.0
 10
10.3108939733
 20
6.809561234
 30
0.0
 10
10.272603449
 20
6.8206375294
 30
0.0
 10
10.2348374562
 20
6.8337798507
 30
0.0
 10
10.1977110644
 20
6.8489479996
 30
0.0
 10
10.1613376357
 20
6.866095576
 30
0.0
 10
10.1258281597
 20
6.8851701613
 30
0.0
 10
10.0912910049
 20
6.9061134689
 30
0.0
 10
10.0578315635
 20
6.9288615179
 30
0.0
 10
10.0255519363
 20
6.9533448279
 30
0.0
 10
9.9945506265
 20
6.9794886376
 30
0.0
 10
9.9649222398
 20
7.0072131302
 30
0.0
 10
9.9367571987
 20
7.036433676
 30
0.0
 10
9.9101414679
 20
7.0670610893
 30
0.0
 10
9.8851562938
 20
7.0990018983
 30
0.0
 10
9.8618779582
 20
7.1321586302
 30
0.0
 10
9.8403775468
 20
7.1664301001
 30
0.0
 10
9.8207207306
 20
7.2017117409
 30
0.0
 10
9.8029675738
 20
7.2378958326
 30
0.0
 10
9.7871722896
 20
7.2748721395
 30
0.0
 10
9.7733833281
 20
7.3125271095
 30
0.0
 10
9.7635912037
 20
7.3444040069
 30
0.0
 10
9.7568023522
 20
7.3701288768
 30
0.0
 10
9.7507241111
 20
7.3959404641
 30
0.0
 10
9.7444437866
 20
7.4284113776
 30
0.0
 10
9.7399350736
 20
7.4611158462
 30
0.0
 10
9.7374080915
 20
7.4873233451
 30
0.0
 10
9.735604879
 20
7.5134910007
 30
0.0
 10
9.7350603278
 20
7.5331482575
 30
0.0
 10
9.7350603278
 20
7.5462363844
 30
0.0
  0
SPLINE
  5
35D
100
AcDbEntity
  8
0
100
AcDbSpline
 62
7
  6
CONTINUOUS
 70
0
 71
3
 72
55
 73
51
 74
0
 42
0.0000001
 43
0.0000001
 44
0.0000000001
 40
0.0
 40
0.0
 40
0.0
 40
0.0
 40
0.0401592848
 40
0.0807684595
 40
0.1217162123
 40
0.1628900317
 40
0.2041766192
 40
0.2454622804
 40
0.2866333247
 40
0.3275764618
 40
0.3681791999
 40
0.4083302451
 40
0.4479199034
 40
0.4868404874
 40
0.524986728
 40
0.5622561958
 40
0.5985497349
 40
0.6337719144
 40
0.650952754
 40
0.6678319282
 40
0.6843987385
 40
0.7006428914
 40
0.7165543642
 40
0.732123584
 40
0.7473412865
 40
0.7621987077
 40
0.776687438
 40
0.7907996276
 40
0.804527838
 40
0.8178652626
 40
0.8308055802
 40
0.8433431917
 40
0.8554730809
 40
0.8671910721
 40
0.8784937052
 40
0.88937852
 40
0.8998439561
 40
0.9098896743
 40
0.9195164972
 40
0.9287267815
 40
0.9375244216
 40
0.9459152939
 40
0.9539073523
 40
0.9615111682
 40
0.9687401461
 40
0.9756111714
 40
0.9821449476
 40
0.9883667007
 40
0.9943065385
 40
1.0
 40
1.0
 40
1.0
 40
1.0
 10
15.1781030569
 20
7.4628490992
 30
0.0
 10
15.1781030569
 20
7.4421190256
 30
0.0
 10
15.1777985477
 20
7.4004260659
 30
0.0
 10
15.1764509697
 20
7.337609119
 30
0.0
 10
15.1742135049
 20
7.2742934533
 30
0.0
 10
15.1710926815
 20
7.2106651468
 30
0.0
 10
15.1670976367
 20
7.146910979
 30
0.0
 10
15.1622400926
 20
7.0832181598
 30
0.0
 10
15.1565343207
 20
7.0197737022
 30
0.0
 10
15.1499971
 20
6.9567638895
 30
0.0
 10
15.1426476681
 20
6.8943737205
 30
0.0
 10
15.134507665
 20
6.8327863631
 30
0.0
 10
15.1256010703
 20
6.7721826139
 30
0.0
 10
15.115954135
 20
6.7127403564
 30
0.0
 10
15.105595302
 20
6.6546340539
 30
0.0
 10
15.0945551356
 20
6.5980341529
 30
0.0
 10
15.0828661942
 20
6.5431068494
 30
0.0
 10
15.0725300254
 20
6.4985009903
 30
0.0
 10
15.0639511938
 20
6.4637814574
 30
0.0
 10
15.0574300127
 20
6.4384743068
 30
0.0
 10
15.0507733305
 20
6.4137027872
 30
0.0
 10
15.0439861168
 20
6.389485053
 30
0.0
 10
15.0370732702
 20
6.3658388868
 30
0.0
 10
15.0300399797
 20
6.3427816262
 30
0.0
 10
15.0228913138
 20
6.3203301941
 30
0.0
 10
15.0156326415
 20
6.2985010425
 30
0.0
 10
15.0082691915
 20
6.2773101876
 30
0.0
 10
15.0008064951
 20
6.2567731433
 30
0.0
 10
14.9932499243
 20
6.236904971
 30
0.0
 10
14.9856051556
 20
6.2177201964
 30
0.0
 10
14.9778776855
 20
6.1992328794
 30
0.0
 10
14.970073317
 20
6.1814565096
 30
0.0
 10
14.9621976498
 20
6.1644041005
 30
0.0
 10
14.9542565919
 20
6.1480880588
 30
0.0
 10
14.9462558209
 20
6.1325203094
 30
0.0
 10
14.9382013229
 20
6.1177121302
 30
0.0
 10
14.9300988221
 20
6.103674318
 30
0.0
 10
14.9219543472
 20
6.0904169791
 30
0.0
 10
14.9137736261
 20
6.0779497478
 30
0.0
 10
14.9055626792
 20
6.0662815226
 30
0.0
 10
14.8973271779
 20
6.055420755
 30
0.0
 10
14.88907306
 20
6.0453751184
 30
0.0
 10
14.8808058552
 20
6.0361518942
 30
0.0
 10
14.8725313149
 20
6.0277575637
 30
0.0
 10
14.8642547302
 20
6.0201983314
 30
0.0
 10
14.8559815423
 20
6.0134796237
 30
0.0
 10
14.8477168233
 20
6.0076068345
 30
0.0
 10
14.8394654797
 20
6.0025845797
 30
0.0
 10
14.8312334499
 20
5.9984181364
 30
0.0
 10
14.8256544683
 20
5.9961708885
 30
0.0
 10
14.8228795671
 20
5.9952027389
 30
0.0
  0
SPLINE
  5
35E
100
AcDbEntity
  8
0
100
AcDbSpline
 62
7
  6
CONTINUOUS
 70
0
 71
3
 72
43
 73
39
 74
0
 42
0.0000001
 43
0.0000001
 44
0.0000000001
 40
0.0
 40
0.0
 40
0.0
 40
0.0
 40
0.0303720674
 40
0.0456023289
 40
0.0608614746
 40
0.0914641528
 40
0.1221834091
 40
0.1375879069
 40
0.1530210521
 40
0.183969021
 40
0.2150264207
 40
0.2461882512
 40
0.2774483092
 40
0.3087992706
 40
0.3402327842
 40
0.3717395734
 40
0.4033095463
 40
0.4349319123
 40
0.4665953037
 40
0.4982879033
 40
0.529997574
 40
0.5617119927
 40
0.5934187849
 40
0.6251056597
 40
0.6567605436
 40
0.688371713
 40
0.719927923
 40
0.7356833926
 40
0.7514211919
 40
0.7828362907
 40
0.8141668042
 40
0.8454046212
 40
0.8765426362
 40
0.9075750392
 40
0.938496777
 40
0.9539165033
 40
0.9693080603
 40
1.0
 40
1.0
 40
1.0
 40
1.0
 10
10.5834782992
 20
6.8499306519
 30
0.0
 10
10.5714857605
 20
6.8484977001
 30
0.0
 10
10.5534137913
 20
6.8468516324
 30
0.0
 10
10.5292384554
 20
6.8456632042
 30
0.0
 10
10.504947102
 20
6.8451432371
 30
0.0
 10
10.4744834681
 20
6.8457547024
 30
0.0
 10
10.4440417056
 20
6.8480390115
 30
0.0
 10
10.4197237523
 20
6.850864241
 30
0.0
 10
10.3954013005
 20
6.8543604115
 30
0.0
 10
10.3651068509
 20
6.8599764458
 30
0.0
 10
10.3290759396
 20
6.8686763001
 30
0.0
 10
10.2934398196
 20
6.8793169525
 30
0.0
 10
10.2583065388
 20
6.8918661744
 30
0.0
 10
10.2237817458
 20
6.9062860749
 30
0.0
 10
10.1899694801
 20
6.9225331153
 30
0.0
 10
10.1569715663
 20
6.9405582755
 30
0.0
 10
10.1248873891
 20
6.960307193
 30
0.0
 10
10.0938135763
 20
6.9817203276
 30
0.0
 10
10.0638437156
 20
7.0047331404
 30
0.0
 10
10.0350680739
 20
7.0292762853
 30
0.0
 10
10.0075733286
 20
7.0552758202
 30
0.0
 10
9.981442295
 20
7.0826534082
 30
0.0
 10
9.9567536798
 20
7.1113265846
 30
0.0
 10
9.9335818816
 20
7.1412089404
 30
0.0
 10
9.9119966402
 20
7.1722106236
 30
0.0
 10
9.8920633054
 20
7.2042376985
 30
0.0
 10
9.876870008
 20
7.2317171368
 30
0.0
 10
9.8656000866
 20
7.2541166557
 30
0.0
 10
9.8549396926
 20
7.2767505614
 30
0.0
 10
9.8427475567
 20
7.3054972842
 30
0.0
 10
9.8299695588
 20
7.3406366253
 30
0.0
 10
9.8190904815
 20
7.3762949203
 30
0.0
 10
9.8101433849
 20
7.4123643778
 30
0.0
 10
9.8031554377
 20
7.4487357435
 30
0.0
 10
9.798978221
 20
7.4792359008
 30
0.0
 10
9.796637126
 20
7.5036756902
 30
0.0
 10
9.7949665708
 20
7.5280782473
 30
0.0
 10
9.7944620908
 20
7.5464090387
 30
0.0
 10
9.7944620908
 20
7.5586140848
 30
0.0
  0
SPLINE
  5
35F
100
AcDbEntity
  8
0
100
AcDbSpline
 62
7
  6
CONTINUOUS
 70
0
 71
3
 72
61
 73
57
 74
0
 42
0.0000001
 43
0.0000001
 44
0.0000000001
 40
0.0
 40
0.0
 40
0.0
 40
0.0
 40
0.0427954169
 40
0.0861053453
 40
0.1297857616
 40
0.1736909654
 40
0.2176743582
 40
0.2615889872
 40
0.3052881992
 40
0.3486262524
 40
0.3914589462
 40
0.4336442481
 40
0.4750429309
 40
0.515519218
 40
0.554941445
 40
0.5931827435
 40
0.6301217598
 40
0.6480669565
 40
0.6656440029
 40
0.6828395986
 40
0.6996410229
 40
0.7160360145
 40
0.7320129614
 40
0.7475607851
 40
0.7626691401
 40
0.7773283067
 40
0.7915294016
 40
0.8052642878
 40
0.8185257994
 40
0.8313076777
 40
0.843604819
 40
0.8554132498
 40
0.8667304109
 40
0.8775551931
 40
0.8878882782
 40
0.897732267
 40
0.9070921106
 40
0.9159753748
 40
0.9243928083
 40
0.9323587965
 40
0.9398921099
 40
0.9470165746
 40
0.9537619731
 40
0.9601648115
 40
0.9662690884
 40
0.9721266501
 40
0.9749823436
 40
0.9777992932
 40
0.9805859848
 40
0.9833512056
 40
0.9861039621
 40
0.9888533975
 40
0.9916086926
 40
0.9943789607
 40
0.9971731583
 40
1.0
 40
1.0
 40
1.0
 40
1.0
 10
15.0823400893
 20
7.37034917
 30
0.0
 10
15.0823400893
 20
7.3546660098
 30
0.0
 10
15.0820861318
 20
7.3231106082
 30
0.0
 10
15.0809642095
 20
7.275559712
 30
0.0
 10
15.0791025297
 20
7.2276249376
 30
0.0
 10
15.0765076782
 20
7.1794771564
 30
0.0
 10
15.0731888775
 20
7.1312878194
 30
0.0
 10
15.0691579458
 20
7.0832285677
 30
0.0
 10
15.0644292607
 20
7.0354705666
 30
0.0
 10
15.0590197048
 20
6.9881839029
 30
0.0
 10
15.0529486075
 20
6.9415369713
 30
0.0
 10
15.0462376765
 20
6.8956958718
 30
0.0
 10
15.0389109229
 20
6.850823805
 30
0.0
 10
15.0309945739
 20
6.8070805048
 30
0.0
 10
15.0225169945
 20
6.7646215806
 30
0.0
 10
15.0135085422
 20
6.7235982296
 30
0.0
 10
15.0055110655
 20
6.6904180872
 30
0.0
 10
14.9988606775
 20
6.6647090897
 30
0.0
 10
14.9938087253
 20
6.6460614358
 30
0.0
 10
14.9886490671
 20
6.6278786092
 30
0.0
 10
14.9833863533
 20
6.6101767694
 30
0.0
 10
14.978025218
 20
6.592971677
 30
0.0
 10
14.9725705193
 20
6.5762786261
 30
0.0
 10
14.9670270553
 20
6.5601124681
 30
0.0
 10
14.961399848
 20
6.5444875602
 30
0.0
 10
14.9556938475
 20
6.5294177923
 30
0.0
 10
14.9499142181
 20
6.5149165281
 30
0.0
 10
14.944066042
 20
6.5009966424
 30
0.0
 10
14.9381546034
 20
6.4876704519
 30
0.0
 10
14.9321850928
 20
6.4749497647
 30
0.0
 10
14.9261628876
 20
6.4628457978
 30
0.0
 10
14.9200932569
 20
6.4513692428
 30
0.0
 10
14.9139816367
 20
6.4405301673
 30
0.0
 10
14.9078333346
 20
6.4303380991
 30
0.0
 10
14.9016537958
 20
6.4208019112
 30
0.0
 10
14.8954483073
 20
6.4119299293
 30
0.0
 10
14.8892222483
 20
6.4037298011
 30
0.0
 10
14.8829807946
 20
6.3962086378
 30
0.0
 10
14.8767291468
 20
6.3893728758
 30
0.0
 10
14.8704722402
 20
6.383228473
 30
0.0
 10
14.8642149604
 20
6.3777807858
 30
0.0
 10
14.8579618749
 20
6.3730348514
 30
0.0
 10
14.851717556
 20
6.3689953159
 30
0.0
 10
14.8454862038
 20
6.365666779
 30
0.0
 10
14.8392730531
 20
6.3630537878
 30
0.0
 10
14.8340695239
 20
6.3614629382
 30
0.0
 10
14.8299387612
 20
6.3605645634
 30
0.0
 10
14.8268755694
 20
6.3600766385
 30
0.0
 10
14.8238223696
 20
6.3597692163
 30
0.0
 10
14.8207798414
 20
6.3596423514
 30
0.0
 10
14.8177487791
 20
6.3596961345
 30
0.0
 10
14.8147299613
 20
6.3599306303
 30
0.0
 10
14.8117241781
 20
6.3603457211
 30
0.0
 10
14.8087321624
 20
6.3609412635
 30
0.0
 10
14.8057547841
 20
6.3617170456
 30
0.0
 10
14.8037931694
 20
6.3623500662
 30
0.0
 10
14.8028164664
 20
6.3626953759
 30
0.0
  0
SPLINE
  5
360
100
AcDbEntity
  8
0
100
AcDbSpline
 62
7
  6
CONTINUOUS
 70
0
 71
3
 72
34
 73
30
 74
0
 42
0.0000001
 43
0.0000001
 44
0.0000000001
 40
0.0
 40
0.0
 40
0.0
 40
0.0
 40
0.0701083043
 40
0.1412550102
 40
0.2129869334
 40
0.2848444346
 40
0.3563673738
 40
0.3918607154
 40
0.4270993065
 40
0.4620270047
 40
0.496588302
 40
0.5307284809
 40
0.564393683
 40
0.5975310375
 40
0.6300888484
 40
0.6620166526
 40
0.6932653439
 40
0.7237874009
 40
0.7535369537
 40
0.7824699062
 40
0.8105442115
 40
0.8377199845
 40
0.8639596412
 40
0.8892282395
 40
0.9134937027
 40
0.9367270285
 40
0.9589027585
 40
0.9799994301
 40
1.0
 40
1.0
 40
1.0
 40
1.0
 10
14.8545793296
 20
7.370349157
 30
0.0
 10
14.8545793296
 20
7.3501633297
 30
0.0
 10
14.8541253898
 20
7.3094914313
 30
0.0
 10
14.8521345851
 20
7.2481955485
 30
0.0
 10
14.8488408012
 20
7.1864512505
 30
0.0
 10
14.8442663112
 20
7.1246802466
 30
0.0
 10
14.8394010046
 20
7.0734044976
 30
0.0
 10
14.834887647
 20
7.0326947713
 30
0.0
 10
14.8312130817
 20
7.0024950013
 30
0.0
 10
14.8272468461
 20
6.9726028572
 30
0.0
 10
14.8229956896
 20
6.9430693568
 30
0.0
 10
14.8184669249
 20
6.9139449453
 30
0.0
 10
14.8136682939
 20
6.8852793614
 30
0.0
 10
14.8086079929
 20
6.8571215606
 30
0.0
 10
14.8032947196
 20
6.8295196149
 30
0.0
 10
14.7977375743
 20
6.8025206498
 30
0.0
 10
14.7919460501
 20
6.7761707599
 30
0.0
 10
14.7859301014
 20
6.7505149083
 30
0.0
 10
14.7797000474
 20
6.7255968689
 30
0.0
 10
14.7732665366
 20
6.7014591551
 30
0.0
 10
14.7666406238
 20
6.6781429156
 30
0.0
 10
14.7598336889
 20
6.6556878786
 30
0.0
 10
14.7528573733
 20
6.6341322967
 30
0.0
 10
14.7457236535
 20
6.6135128434
 30
0.0
 10
14.7384447832
 20
6.5938645415
 30
0.0
 10
14.7310332154
 20
6.5752207656
 30
0.0
 10
14.7235015878
 20
6.557613
 30
0.0
 10
14.7158629424
 20
6.5410712371
 30
0.0
 10
14.7105651665
 20
6.5304876448
 30
0.0
 10
14.7078948329
 20
6.5253855687
 30
0.0
  0
SPLINE
  5
361
100
AcDbEntity
  8
0
100
AcDbSpline
 62
7
  6
CONTINUOUS
 70
0
 71
3
 72
39
 73
35
 74
0
 42
0.0000001
 43
0.0000001
 44
0.0000000001
 40
0.0
 40
0.0
 40
0.0
 40
0.0
 40
0.0307219217
 40
0.0615350692
 40
0.0924369177
 40
0.1234242547
 40
0.1544932092
 40
0.1856392984
 40
0.2168574598
 40
0.2481420849
 40
0.2794870753
 40
0.3108858912
 40
0.3423315924
 40
0.3738168946
 40
0.4053342312
 40
0.4368758009
 40
0.4684336224
 40
0.4999996026
 40
0.5315655899
 40
0.5631234274
 40
0.5946650197
 40
0.6261823925
 40
0.6576677414
 40
0.6891134943
 40
0.7205123724
 40
0.7518574371
 40
0.7831421408
 40
0.8143603846
 40
0.8455065714
 40
0.876575631
 40
0.9075630434
 40
0.9384650515
 40
0.9692783283
 40
1.0
 40
1.0
 40
1.0
 40
1.0
 10
10.5620881137
 20
6.9829152737
 30
0.0
 10
10.5521722382
 20
6.9841278555
 30
0.0
 10
10.532362037
 20
6.9869963571
 30
0.0
 10
10.5028235788
 20
6.9926065837
 30
0.0
 10
10.4734734646
 20
6.9995199694
 30
0.0
 10
10.4443710747
 20
7.0077226269
 30
0.0
 10
10.4155742793
 20
7.0171980848
 30
0.0
 10
10.3871406078
 20
7.0279273706
 30
0.0
 10
10.3591268315
 20
7.0398891151
 30
0.0
 10
10.3315888644
 20
7.0530593845
 30
0.0
 10
10.3045816399
 20
7.067411804
 30
0.0
 10
10.2781590772
 20
7.0829177387
 30
0.0
 10
10.2523739485
 20
7.0995462713
 30
0.0
 10
10.2272776701
 20
7.1172641149
 30
0.0
 10
10.202920322
 20
7.1360358867
 30
0.0
 10
10.179350573
 20
7.1558241755
 30
0.0
 10
10.1566154455
 20
7.1765894422
 30
0.0
 10
10.1347602782
 20
7.1982901926
 30
0.0
 10
10.1138287271
 20
7.2208831442
 30
0.0
 10
10.093862618
 20
7.2443232332
 30
0.0
 10
10.0749017421
 20
7.2685636132
 30
0.0
 10
10.0569839501
 20
7.2935559055
 30
0.0
 10
10.0401450927
 20
7.319250279
 30
0.0
 10
10.0244187548
 20
7.345595419
 30
0.0
 10
10.0098363001
 20
7.3725387211
 30
0.0
 10
9.9964269049
 20
7.4000264382
 30
0.0
 10
9.9842174005
 20
7.4280037206
 30
0.0
 10
9.9732321022
 20
7.4564146909
 30
0.0
 10
9.9634929741
 20
7.4852026447
 30
0.0
 10
9.9550195862
 20
7.514310152
 30
0.0
 10
9.9478288039
 20
7.5436790465
 30
0.0
 10
9.9419350137
 20
7.5732508984
 30
0.0
 10
9.9373501357
 20
7.6029657922
 30
0.0
 10
9.935168822
 20
7.6228633455
 30
0.0
 10
9.9343000251
 20
7.6328151548
 30
0.0
  0
SPLINE
  5
362
100
AcDbEntity
  8
0
100
AcDbSpline
 62
7
  6
CONTINUOUS
 70
0
 71
3
 72
28
 73
24
 74
0
 42
0.0000001
 43
0.0000001
 44
0.0000000001
 40
0.0
 40
0.0
 40
0.0
 40
0.0
 40
0.0663188078
 40
0.1335199809
 40
0.2013033635
 40
0.2693637459
 40
0.337395201
 40
0.4050916927
 40
0.4721491693
 40
0.5382672294
 40
0.6031509096
 40
0.6665124763
 40
0.7280732529
 40
0.7580946787
 40
0.7875664629
 40
0.8164572428
 40
0.844736463
 40
0.872374705
 40
0.8993435412
 40
0.9256157619
 40
0.9511654219
 40
0.9759678599
 40
1.0
 40
1.0
 40
1.0
 40
1.0
 10
14.7798072224
 20
7.359176021
 30
0.0
 10
14.7798072224
 20
7.3436565305
 30
0.0
 10
14.7795152108
 20
7.3124103692
 30
0.0
 10
14.778229048
 20
7.2653179042
 30
0.0
 10
14.77609729
 20
7.2178480606
 30
0.0
 10
14.7731300529
 20
7.1702285099
 30
0.0
 10
14.769341576
 20
7.1226876313
 30
0.0
 10
14.7647500357
 20
7.0754533462
 30
0.0
 10
14.7593775211
 20
7.0287521181
 30
0.0
 10
14.7532499005
 20
6.9828078391
 30
0.0
 10
14.7463967197
 20
6.9378406745
 30
0.0
 10
14.7388510259
 20
6.8940662663
 30
0.0
 10
14.7319600419
 20
6.8584651304
 30
0.0
 10
14.7261178762
 20
6.8307453234
 30
0.0
 10
14.7216231659
 20
6.8105560847
 30
0.0
 10
14.7169843449
 20
6.7908180416
 30
0.0
 10
14.7122068878
 20
6.7715548416
 30
0.0
 10
14.7072966163
 20
6.7527895747
 30
0.0
 10
14.7022593904
 20
6.7345447293
 30
0.0
 10
14.6971012884
 20
6.7168421672
 30
0.0
 10
14.6918285285
 20
6.6997030674
 30
0.0
 10
14.6864474283
 20
6.6831480253
 30
0.0
 10
14.6827324144
 20
6.6723400509
 30
0.0
 10
14.6808558885
 20
6.667038517
 30
0.0
  0
LINE
  5
363
100
AcDbEntity
  8
0
100
AcDbLine
 62
7
  6
CONTINUOUS
 10
9.1593989697
 20
7.4514178851
 11
9.1587271896
 21
7.4506859379
  0
SPLINE
  5
364
100
AcDbEntity
  8
0
100
AcDbSpline
 62
7
  6
CONTINUOUS
 70
0
 71
3
 72
24
 73
20
 74
0
 42
0.0000001
 43
0.0000001
 44
0.0000000001
 40
0.0
 40
0.0
 40
0.0
 40
0.0
 40
0.0616736451
 40
0.1233882225
 40
0.1851612343
 40
0.2470096737
 40
0.2779694707
 40
0.3089541844
 40
0.3710016773
 40
0.4331710774
 40
0.4954759531
 40
0.557928715
 40
0.6205405336
 40
0.683321176
 40
0.7462791532
 40
0.8094214825
 40
0.8727526855
 40
0.9362796991
 40
1.0
 40
1.0
 40
1.0
 40
1.0
 10
9.1587271896
 20
7.4506859379
 30
0.0
 10
9.1506805016
 20
7.4419068911
 30
0.0
 10
9.1349976737
 20
7.4239565273
 30
0.0
 10
9.112773253
 20
7.3959329381
 30
0.0
 10
9.091884624
 20
7.3668579262
 30
0.0
 10
9.075630433
 20
7.3418084872
 30
0.0
 10
9.0633366695
 20
7.3213061688
 30
0.0
 10
9.0515109704
 20
7.3004861343
 30
0.0
 10
9.0376347223
 20
7.273910051
 30
0.0
 10
9.0224761628
 20
7.2412248248
 30
0.0
 10
9.0088319943
 20
7.2077941489
 30
0.0
 10
8.9967294457
 20
7.173684562
 30
0.0
 10
8.9861922817
 20
7.1389634297
 30
0.0
 10
8.9772412541
 20
7.1036994461
 30
0.0
 10
8.9698940217
 20
7.0679622741
 30
0.0
 10
8.9641651811
 20
7.0318227647
 30
0.0
 10
8.960065678
 20
6.9953517162
 30
0.0
 10
8.9576039863
 20
6.958622653
 30
0.0
 10
8.9570584592
 20
6.9340482965
 30
0.0
 10
8.9570584592
 20
6.9217442421
 30
0.0
  0
SPLINE
  5
365
100
AcDbEntity
  8
0
100
AcDbSpline
 62
7
  6
CONTINUOUS
 70
0
 71
3
 72
26
 73
22
 74
0
 42
0.0000001
 43
0.0000001
 44
0.0000000001
 40
0.0
 40
0.0
 40
0.0
 40
0.0
 40
0.0617092235
 40
0.0925729854
 40
0.1234446509
 40
0.1852169748
 40
0.2470517571
 40
0.2780013275
 40
0.3089738777
 40
0.3709922222
 40
0.4331298084
 40
0.4954034049
 40
0.5578284199
 40
0.6204187753
 40
0.6831867461
 40
0.7146430864
 40
0.7461476576
 40
0.8093008659
 40
0.872657114
 40
0.9362236724
 40
1.0
 40
1.0
 40
1.0
 40
1.0
 10
9.232610938
 20
7.4586347579
 30
0.0
 10
9.2238705756
 20
7.4501922039
 30
0.0
 10
9.2110814635
 20
7.4371864481
 30
0.0
 10
9.1947172165
 20
7.419207651
 30
0.0
 10
9.1788119017
 20
7.4008044422
 30
0.0
 10
9.1598130094
 20
7.3770282263
 30
0.0
 10
9.1420494962
 20
7.3522965118
 30
0.0
 10
9.1286009887
 20
7.3319697368
 30
0.0
 10
9.1156569234
 20
7.3112754688
 30
0.0
 10
9.1004532611
 20
7.2847625986
 30
0.0
 10
9.083825845
 20
7.2520142678
 30
0.0
 10
9.0688445196
 20
7.218392878
 30
0.0
 10
9.0555440447
 20
7.1839763434
 30
0.0
 10
9.0439550654
 20
7.1488444431
 30
0.0
 10
9.0357516243
 20
7.1190592153
 30
0.0
 10
9.0300681671
 20
7.0949592
 30
0.0
 10
9.0249662581
 20
7.0706518545
 30
0.0
 10
9.0197027042
 20
7.0399698538
 30
0.0
 10
9.015185334
 20
7.0027982564
 30
0.0
 10
9.0124721211
 20
6.9653291577
 30
0.0
 10
9.0118710104
 20
6.9402481465
 30
0.0
 10
9.0118710104
 20
6.9276891041
 30
0.0
  0
SPLINE
  5
366
100
AcDbEntity
  8
0
100
AcDbSpline
 62
7
  6
CONTINUOUS
 70
0
 71
3
 72
24
 73
20
 74
0
 42
0.0000001
 43
0.0000001
 44
0.0000000001
 40
0.0
 40
0.0
 40
0.0
 40
0.0
 40
0.0616701213
 40
0.1233836347
 40
0.185157579
 40
0.2470084812
 40
0.2779698906
 40
0.3089564241
 40
0.3710080612
 40
0.4331817766
 40
0.4954907211
 40
0.55794692
 40
0.6205611877
 40
0.6833429685
 40
0.7463005208
 40
0.809440593
 40
0.872767556
 40
0.9362882888
 40
1.0
 40
1.0
 40
1.0
 40
1.0
 10
9.2698192685
 20
7.4922081184
 30
0.0
 10
9.2623658403
 20
7.4839364026
 30
0.0
 10
9.2478411916
 20
7.4670332667
 30
0.0
 10
9.2272633297
 20
7.4406725017
 30
0.0
 10
9.2079264569
 20
7.4133479244
 30
0.0
 10
9.1928827947
 20
7.3898259532
 30
0.0
 10
9.1815060809
 20
7.3705842615
 30
0.0
 10
9.1705633687
 20
7.3510509286
 30
0.0
 10
9.1577249497
 20
7.3261292942
 30
0.0
 10
9.1437022206
 20
7.2954962116
 30
0.0
 10
9.1310820894
 20
7.2641800638
 30
0.0
 10
9.1198891905
 20
7.2322417946
 30
0.0
 10
9.1101450353
 20
7.1997430766
 30
0.0
 10
9.101868365
 20
7.1667467858
 30
0.0
 10
9.0950751492
 20
7.1333166628
 30
0.0
 10
9.0897785889
 20
7.0995175161
 30
0.0
 10
9.0859885829
 20
7.0654140704
 30
0.0
 10
9.0837127978
 20
7.0310735819
 30
0.0
 10
9.0832084512
 20
7.0080987895
 30
0.0
 10
9.0832084512
 20
6.9965957846
 30
0.0
  0
SPLINE
  5
367
100
AcDbEntity
  8
0
100
AcDbSpline
 62
7
  6
CONTINUOUS
 70
0
 71
3
 72
54
 73
50
 74
0
 42
0.0000001
 43
0.0000001
 44
0.0000000001
 40
0.0
 40
0.0
 40
0.0
 40
0.0
 40
0.0499774976
 40
0.0993158726
 40
0.1479274444
 40
0.1957330614
 40
0.2426522441
 40
0.2886071664
 40
0.3335224668
 40
0.3773250835
 40
0.4199448324
 40
0.461314559
 40
0.5013703557
 40
0.5400519278
 40
0.5773030155
 40
0.6130716862
 40
0.6473107772
 40
0.6799785629
 40
0.7110394088
 40
0.7259584109
 40
0.7404655449
 40
0.7545583898
 40
0.7682352653
 40
0.7814950226
 40
0.7943371717
 40
0.8067621193
 40
0.8187709677
 40
0.8303657946
 40
0.8415497853
 40
0.8523271309
 40
0.8627034278
 40
0.8726857178
 40
0.8822825588
 40
0.8915044872
 40
0.9003640253
 40
0.9088759518
 40
0.9170577374
 40
0.924929577
 40
0.9325147665
 40
0.9398399583
 40
0.946935137
 40
0.9538337905
 40
0.9605727132
 40
0.9671916183
 40
0.9737326777
 40
0.9802396989
 40
0.9867572426
 40
0.993329631
 40
1.0
 40
1.0
 40
1.0
 40
1.0
 10
15.0823400893
 20
7.37034917
 30
0.0
 10
15.0823400893
 20
7.3814448355
 30
0.0
 10
15.0822144584
 20
7.4034944975
 30
0.0
 10
15.081642034
 20
7.4363320967
 30
0.0
 10
15.0806876934
 20
7.468678503
 30
0.0
 10
15.0793533098
 20
7.5004739332
 30
0.0
 10
15.0776413003
 20
7.5316606369
 30
0.0
 10
15.0755548654
 20
7.5621814318
 30
0.0
 10
15.0730978785
 20
7.5919804882
 30
0.0
 10
15.0702748565
 20
7.6210033186
 30
0.0
 10
15.0670910419
 20
7.6491968517
 30
0.0
 10
15.0635523397
 20
7.676509565
 30
0.0
 10
15.0596652869
 20
7.7028915545
 30
0.0
 10
15.0554370595
 20
7.7282946451
 30
0.0
 10
15.0508755074
 20
7.7526725072
 30
0.0
 10
15.045989072
 20
7.7759807025
 30
0.0
 10
15.0407867668
 20
7.7981768627
 30
0.0
 10
15.0352781859
 20
7.8192204846
 30
0.0
 10
15.0303774721
 20
7.8359824988
 30
0.0
 10
15.0263005346
 20
7.8487781322
 30
0.0
 10
15.0232137419
 20
7.8579340775
 30
0.0
 10
15.0200581162
 20
7.8667742749
 30
0.0
 10
15.016835139
 20
7.8752947343
 30
0.0
 10
15.013546273
 20
7.8834915788
 30
0.0
 10
15.0101929601
 20
7.8913610696
 30
0.0
 10
15.0067768024
 20
7.8988996682
 30
0.0
 10
15.0032992927
 20
7.9061039467
 30
0.0
 10
14.9997619811
 20
7.9129706417
 30
0.0
 10
14.9961665238
 20
7.9194966913
 30
0.0
 10
14.9925144374
 20
7.9256791212
 30
0.0
 10
14.9888073636
 20
7.9315151668
 30
0.0
 10
14.9850469643
 20
7.9370022389
 30
0.0
 10
14.9812347657
 20
7.9421378144
 30
0.0
 10
14.9773724622
 20
7.9469196291
 30
0.0
 10
14.9734616663
 20
7.9513455244
 30
0.0
 10
14.969503909
 20
7.9554134006
 30
0.0
 10
14.9655008855
 20
7.9591214339
 30
0.0
 10
14.9614541453
 20
7.962467786
 30
0.0
 10
14.9573652729
 20
7.9654507
 30
0.0
 10
14.9532359951
 20
7.968068651
 30
0.0
 10
14.9490679561
 20
7.9703199756
 30
0.0
 10
14.9448630122
 20
7.9722032068
 30
0.0
 10
14.9406231818
 20
7.973717067
 30
0.0
 10
14.9363505867
 20
7.9748601937
 30
0.0
 10
14.9320476312
 20
7.9756317218
 30
0.0
 10
14.9277168583
 20
7.9760310277
 30
0.0
 10
14.9233607948
 20
7.9760576592
 30
0.0
 10
14.9189824334
 20
7.9757119495
 30
0.0
 10
14.9160769621
 20
7.9752378411
 30
0.0
 10
14.914625971
 20
7.9749416658
 30
0.0
  0
SPLINE
  5
368
100
AcDbEntity
  8
0
100
AcDbSpline
 62
7
  6
CONTINUOUS
 70
0
 71
3
 72
25
 73
21
 74
0
 42
0.0000001
 43
0.0000001
 44
0.0000000001
 40
0.0
 40
0.0
 40
0.0
 40
0.0
 40
0.0617095319
 40
0.0925734525
 40
0.1234452711
 40
0.1852179107
 40
0.2470530079
 40
0.3089703872
 40
0.3709890414
 40
0.4331269412
 40
0.4954008557
 40
0.5578261871
 40
0.6204168633
 40
0.6831851338
 40
0.7146416333
 40
0.746146383
 40
0.80929992
 40
0.8726563647
 40
0.9362235836
 40
1.0
 40
1.0
 40
1.0
 40
1.0
 10
9.3802336327
 20
7.4900010378
 30
0.0
 10
9.3723522667
 20
7.4823882273
 30
0.0
 10
9.3608200725
 20
7.4706606806
 30
0.0
 10
9.3460640956
 20
7.4544488389
 30
0.0
 10
9.3317219475
 20
7.437854357
 30
0.0
 10
9.3145901134
 20
7.4164146149
 30
0.0
 10
9.2953637267
 20
7.3896462279
 30
0.0
 10
9.277508048
 20
7.3618923123
 30
0.0
 10
9.2610645634
 20
7.3332172941
 30
0.0
 10
9.246071074
 20
7.3036871983
 30
0.0
 10
9.2325621769
 20
7.2733701934
 30
0.0
 10
9.2205688773
 20
7.2423360901
 30
0.0
 10
9.2101188848
 20
7.2106569596
 30
0.0
 10
9.2027216468
 20
7.1837990363
 30
0.0
 10
9.1975967794
 20
7.1620675682
 30
0.0
 10
9.1929962546
 20
7.1401491525
 30
0.0
 10
9.1882500339
 20
7.1124825935
 30
0.0
 10
9.1841766098
 20
7.078964187
 30
0.0
 10
9.1817300792
 20
7.0451775561
 30
0.0
 10
9.1811880284
 20
7.0225614912
 30
0.0
 10
9.1811880284
 20
7.0112367943
 30
0.0
  0
SPLINE
  5
369
100
AcDbEntity
  8
0
100
AcDbSpline
 62
7
  6
CONTINUOUS
 70
0
 71
3
 72
26
 73
22
 74
0
 42
0.0000001
 43
0.0000001
 44
0.0000000001
 40
0.0
 40
0.0
 40
0.0
 40
0.0
 40
0.0762051652
 40
0.1512745741
 40
0.2250387894
 40
0.2973396202
 40
0.3680191481
 40
0.436925867
 40
0.5039135221
 40
0.5688420805
 40
0.6315783828
 40
0.6919968236
 40
0.7499801967
 40
0.8054206789
 40
0.8582209446
 40
0.8836045086
 40
0.9082969454
 40
0.9322897878
 40
0.9555754227
 40
0.9781472502
 40
1.0
 40
1.0
 40
1.0
 40
1.0
 10
14.8545793296
 20
7.370349157
 30
0.0
 10
14.8545793296
 20
7.3820818685
 30
0.0
 10
14.854428032
 20
7.4053727403
 30
0.0
 10
14.853737393
 20
7.4400143411
 30
0.0
 10
14.8525861894
 20
7.4740423572
 30
0.0
 10
14.8509773339
 20
7.5073752149
 30
0.0
 10
14.8489146522
 20
7.5399338219
 30
0.0
 10
14.8464031656
 20
7.5716404619
 30
0.0
 10
14.8434489462
 20
7.6024196554
 30
0.0
 10
14.8400591469
 20
7.6321981179
 30
0.0
 10
14.8362419693
 20
7.6609049935
 30
0.0
 10
14.8320066411
 20
7.6884719992
 30
0.0
 10
14.827363404
 20
7.714833692
 30
0.0
 10
14.8223234601
 20
7.7399273387
 30
0.0
 10
14.8177450717
 20
7.7599875002
 30
0.0
 10
14.8138810405
 20
7.7753485303
 30
0.0
 10
14.8109295441
 20
7.7863642646
 30
0.0
 10
14.8078883406
 20
7.7970200805
 30
0.0
 10
14.8047592043
 20
7.8073096829
 30
0.0
 10
14.8015439833
 20
7.8172268962
 30
0.0
 10
14.7993080609
 20
7.823691396
 30
0.0
 10
14.7981746889
 20
7.8268592508
 30
0.0
  0
SPLINE
  5
36A
100
AcDbEntity
  8
0
100
AcDbSpline
 62
7
  6
CONTINUOUS
 70
0
 71
3
 72
23
 73
19
 74
0
 42
0.0000001
 43
0.0000001
 44
0.0000000001
 40
0.0
 40
0.0
 40
0.0
 40
0.0
 40
0.0618581116
 40
0.1239597293
 40
0.1862790896
 40
0.2487863893
 40
0.3114483707
 40
0.3742289558
 40
0.4370899175
 40
0.4999915789
 40
0.5628935311
 40
0.6257553595
 40
0.6885373713
 40
0.7512013129
 40
0.8137110704
 40
0.8760333395
 40
0.9381382706
 40
1.0
 40
1.0
 40
1.0
 40
1.0
 10
10.499225179
 20
7.1557996269
 30
0.0
 10
10.487407947
 20
7.1590518289
 30
0.0
 10
10.4639425682
 20
7.1663828369
 30
0.0
 10
10.4295144508
 20
7.1797610723
 30
0.0
 10
10.395946044
 20
7.1954793169
 30
0.0
 10
10.3634063214
 20
7.2134586654
 30
0.0
 10
10.3320563421
 20
7.233609762
 30
0.0
 10
10.302052001
 20
7.2558323023
 30
0.0
 10
10.2735423098
 20
7.2800157827
 30
0.0
 10
10.2466689214
 20
7.3060399777
 30
0.0
 10
10.221565364
 20
7.3337755499
 30
0.0
 10
10.198356402
 20
7.3630846867
 30
0.0
 10
10.1771574203
 20
7.3938217614
 30
0.0
 10
10.1580738404
 20
7.4258341188
 30
0.0
 10
10.1412006611
 20
7.458962566
 30
0.0
 10
10.1266217488
 20
7.493043114
 30
0.0
 10
10.114410312
 20
7.5279042216
 30
0.0
 10
10.1078733737
 20
7.5516045068
 30
0.0
 10
10.1050208418
 20
7.5635252629
 30
0.0
  0
SPLINE
  5
36B
100
AcDbEntity
  8
0
100
AcDbSpline
 62
7
  6
CONTINUOUS
 70
0
 71
3
 72
39
 73
35
 74
0
 42
0.0000001
 43
0.0000001
 44
0.0000000001
 40
0.0
 40
0.0
 40
0.0
 40
0.0
 40
0.0958316475
 40
0.1891006073
 40
0.279240642
 40
0.3229674356
 40
0.365711151
 40
0.4074094627
 40
0.4480020772
 40
0.4874317741
 40
0.5256439547
 40
0.5625873626
 40
0.5982141631
 40
0.6324802323
 40
0.6653459096
 40
0.6967758341
 40
0.7267403598
 40
0.7552153214
 40
0.7821838024
 40
0.8076365273
 40
0.831573723
 40
0.8540068598
 40
0.8749607899
 40
0.8944774057
 40
0.9126188108
 40
0.9294731124
 40
0.9451592998
 40
0.9598338063
 40
0.9668558128
 40
0.9737028706
 40
0.9804062828
 40
0.9869996808
 40
0.9935186293
 40
1.0
 40
1.0
 40
1.0
 40
1.0
 10
8.0380972406
 20
11.4107989449
 30
0.0
 10
8.0470571124
 20
11.4101775757
 30
0.0
 10
8.0647243583
 20
11.4087543982
 30
0.0
 10
8.0907559256
 20
11.4060376995
 30
0.0
 10
8.1118688663
 20
11.4032977852
 30
0.0
 10
8.1282365756
 20
11.400831421
 30
0.0
 10
8.1400884059
 20
11.3988733932
 30
0.0
 10
8.1516208148
 20
11.3967918316
 30
0.0
 10
8.1628145532
 20
11.3945901243
 30
0.0
 10
8.1736509247
 20
11.3922720597
 30
0.0
 10
8.1841118447
 20
11.3898414756
 30
0.0
 10
8.1941798674
 20
11.3873024911
 30
0.0
 10
8.2038382138
 20
11.3846593787
 30
0.0
 10
8.2130708012
 20
11.3819165427
 30
0.0
 10
8.2218622898
 20
11.3790786635
 30
0.0
 10
8.2301980775
 20
11.376150404
 30
0.0
 10
8.2380643873
 20
11.3731367789
 30
0.0
 10
8.2454482229
 20
11.3700427077
 30
0.0
 10
8.2523374819
 20
11.3668734141
 30
0.0
 10
8.2587209095
 20
11.3636340551
 30
0.0
 10
8.2645881712
 20
11.3603298956
 30
0.0
 10
8.269929882
 20
11.3569662162
 30
0.0
 10
8.2747375178
 20
11.353548094
 30
0.0
 10
8.2790035873
 20
11.3500806186
 30
0.0
 10
8.2827211982
 20
11.3465683805
 30
0.0
 10
8.2858843636
 20
11.3430156349
 30
0.0
 10
8.2884867989
 20
11.3394267606
 30
0.0
 10
8.2902082129
 20
11.3363639202
 30
0.0
 10
8.2912812198
 20
11.3339114553
 30
0.0
 10
8.291930918
 20
11.3320944014
 30
0.0
 10
8.2924367119
 20
11.3302737575
 30
0.0
 10
8.2927982316
 20
11.3284502717
 30
0.0
 10
8.293015268
 20
11.3266250203
 30
0.0
 10
8.2930635651
 20
11.3254060798
 30
0.0
 10
8.2930635602
 20
11.3247986424
 30
0.0
  0
SPLINE
  5
36C
100
AcDbEntity
  8
0
100
AcDbSpline
 62
7
  6
CONTINUOUS
 70
0
 71
3
 72
20
 73
16
 74
0
 42
0.0000001
 43
0.0000001
 44
0.0000000001
 40
0.0
 40
0.0
 40
0.0
 40
0.0
 40
0.1405840015
 40
0.2779087567
 40
0.4113435594
 40
0.4764114057
 40
0.5402804926
 40
0.6028794673
 40
0.6641389046
 40
0.7239918481
 40
0.7823738523
 40
0.8392229693
 40
0.8944804198
 40
0.9480902031
 40
1.0
 40
1.0
 40
1.0
 40
1.0
 10
14.7798072224
 20
7.359176021
 30
0.0
 10
14.7798072224
 20
7.3747695794
 30
0.0
 10
14.7795178252
 20
7.4055961108
 30
0.0
 10
14.7781881696
 20
7.451205777
 30
0.0
 10
14.7763283324
 20
7.4884124547
 30
0.0
 10
14.7743882189
 20
7.5174504804
 30
0.0
 10
14.7727280019
 20
7.5386311547
 30
0.0
 10
14.7708527207
 20
7.5593697623
 30
0.0
 10
14.7687646782
 20
7.5796402943
 30
0.0
 10
14.7664665384
 20
7.5994173002
 30
0.0
 10
14.7639612311
 20
7.6186759683
 30
0.0
 10
14.7612518711
 20
7.6373921356
 30
0.0
 10
14.7583419644
 20
7.6555423521
 30
0.0
 10
14.7552351162
 20
7.6731037859
 30
0.0
 10
14.7529985171
 20
7.6845930643
 30
0.0
 10
14.751845613
 20
7.6902342868
 30
0.0
  0
SPLINE
  5
36D
100
AcDbEntity
  8
0
100
AcDbSpline
 62
7
  6
CONTINUOUS
 70
0
 71
3
 72
54
 73
50
 74
0
 42
0.0000001
 43
0.0000001
 44
0.0000000001
 40
0.0
 40
0.0
 40
0.0
 40
0.0
 40
0.0063158427
 40
0.0126705974
 40
0.0191023953
 40
0.0256479035
 40
0.0323417516
 40
0.0392160545
 40
0.0536138127
 40
0.061194488
 40
0.0690562166
 40
0.0772172825
 40
0.0856936302
 40
0.0944989909
 40
0.1036450473
 40
0.113141787
 40
0.1229974971
 40
0.1332190617
 40
0.1438121259
 40
0.1547810799
 40
0.1661293869
 40
0.1778595312
 40
0.189973133
 40
0.2024711534
 40
0.2153537503
 40
0.2286205275
 40
0.2422705277
 40
0.256302183
 40
0.2707135528
 40
0.2855021644
 40
0.300665138
 40
0.316199276
 40
0.3321009043
 40
0.3649900029
 40
0.3992976831
 40
0.4349839512
 40
0.472004695
 40
0.5103120262
 40
0.5498546333
 40
0.5905781015
 40
0.6324251619
 40
0.6753358913
 40
0.7192479428
 40
0.7640967229
 40
0.8098156864
 40
0.8563364658
 40
0.9035883331
 40
0.9515014468
 40
1.0
 40
1.0
 40
1.0
 40
1.0
 10
15.0161535855
 20
11.3602189591
 30
0.0
 10
15.0181480046
 20
11.3600806417
 30
0.0
 10
15.0221397079
 20
11.3596399236
 30
0.0
 10
15.0280825152
 20
11.3584910933
 30
0.0
 10
15.0339856107
 20
11.356854688
 30
0.0
 10
15.0398455296
 20
11.3547319305
 30
0.0
 10
15.0456599527
 20
11.3521240235
 30
0.0
 10
15.0534672092
 20
11.3479389492
 30
0.0
 10
15.0610623908
 20
11.3428156916
 30
0.0
 10
15.0684126555
 20
11.3368787275
 30
0.0
 10
15.0739645231
 20
11.3318730972
 30
0.0
 10
15.0794571652
 20
11.3263944958
 30
0.0
 10
15.0848891173
 20
11.3204447819
 30
0.0
 10
15.0902581647
 20
11.3140265415
 30
0.0
 10
15.0955624115
 20
11.3071424316
 30
0.0
 10
15.1007997044
 20
11.2997951932
 30
0.0
 10
15.1059680873
 20
11.2919878562
 30
0.0
 10
15.1110655272
 20
11.2837235789
 30
0.0
 10
15.1160899329
 20
11.2750056791
 30
0.0
 10
15.1210393947
 20
11.265837743
 30
0.0
 10
15.1259118416
 20
11.2562234617
 30
0.0
 10
15.1307053184
 20
11.2461667609
 30
0.0
 10
15.1354179249
 20
11.2356717568
 30
0.0
 10
15.1400476471
 20
11.2247427061
 30
0.0
 10
15.1445926716
 20
11.2133841064
 30
0.0
 10
15.1490511033
 20
11.2016005987
 30
0.0
 10
15.1534210757
 20
11.189397006
 30
0.0
 10
15.1577008658
 20
11.176778353
 30
0.0
 10
15.1618886319
 20
11.1637498044
 30
0.0
 10
15.1659826879
 20
11.150316723
 30
0.0
 10
15.1699813557
 20
11.1364846374
 30
0.0
 10
15.1738829432
 20
11.1222592117
 30
0.0
 10
15.1790111286
 20
11.1025537612
 30
0.0
 10
15.1851532171
 20
11.0769741746
 30
0.0
 10
15.1920315406
 20
11.0451397944
 30
0.0
 10
15.1984864343
 20
11.0118837841
 30
0.0
 10
15.2045071528
 20
10.9772609461
 30
0.0
 10
15.2100836647
 20
10.941328175
 30
0.0
 10
15.2152066891
 20
10.904144635
 30
0.0
 10
15.219867687
 20
10.8657715566
 30
0.0
 10
15.224058878
 20
10.8262721571
 30
0.0
 10
15.2277732769
 20
10.7857115354
 30
0.0
 10
15.2310047026
 20
10.744156574
 30
0.0
 10
15.2337477723
 20
10.7016757917
 30
0.0
 10
15.2359979025
 20
10.6583392159
 30
0.0
 10
15.2377513068
 20
10.6142184804
 30
0.0
 10
15.2390051341
 20
10.5693859464
 30
0.0
 10
15.2397571732
 20
10.5239161557
 30
0.0
 10
15.2399223149
 20
10.4933978376
 30
0.0
 10
15.2399223149
 20
10.4780461609
 30
0.0
  0
SPLINE
  5
36E
100
AcDbEntity
  8
0
100
AcDbSpline
 62
7
  6
CONTINUOUS
 70
0
 71
3
 72
72
 73
68
 74
0
 42
0.0000001
 43
0.0000001
 44
0.0000000001
 40
0.0
 40
0.0
 40
0.0
 40
0.0
 40
0.0153559685
 40
0.0230182634
 40
0.0306701279
 40
0.0459427865
 40
0.0611778706
 40
0.0763785616
 40
0.091548351
 40
0.1066910111
 40
0.1218105607
 40
0.1369112319
 40
0.1519974315
 40
0.1670737003
 40
0.1821446705
 40
0.1972150231
 40
0.2122894456
 40
0.2273725881
 40
0.2424690196
 40
0.2575831853
 40
0.2727193661
 40
0.2878816417
 40
0.3030738534
 40
0.3182995693
 40
0.3335620536
 40
0.3488642409
 40
0.3642087132
 40
0.3795976788
 40
0.3950329547
 40
0.4105159555
 40
0.4260476864
 40
0.441628738
 40
0.4572592834
 40
0.4729390803
 40
0.4886674798
 40
0.504443435
 40
0.5202655115
 40
0.5361319017
 40
0.5520404441
 40
0.5679886442
 40
0.5839736951
 40
0.5999925008
 40
0.6160417026
 40
0.6321177086
 40
0.6482167212
 40
0.664334766
 40
0.6804677226
 40
0.6966113589
 40
0.7127613621
 40
0.7289133705
 40
0.7450630065
 40
0.7612059112
 40
0.7773377774
 40
0.7934543812
 40
0.8095516132
 40
0.8256255125
 40
0.8416722977
 40
0.8576883956
 40
0.8736704685
 40
0.8896154424
 40
0.9055205403
 40
0.9213832847
 40
0.9372015524
 40
0.9529736044
 40
0.9686978062
 40
0.984373832
 40
1.0
 40
1.0
 40
1.0
 40
1.0
 10
12.5089067978
 20
8.6783180411
 30
0.0
 10
12.506311025
 20
8.6664916776
 30
0.0
 10
12.5020021008
 20
8.6488519801
 30
0.0
 10
12.4954317076
 20
8.6255771645
 30
0.0
 10
12.4883297379
 20
8.6025273169
 30
0.0
 10
12.4784454335
 20
8.5740959874
 30
0.0
 10
12.4649898842
 20
8.5406471945
 30
0.0
 10
12.4499752016
 20
8.5079573656
 30
0.0
 10
12.4334329341
 20
8.4760954736
 30
0.0
 10
12.4153976457
 20
8.4451281851
 30
0.0
 10
12.3959070624
 20
8.4151204725
 30
0.0
 10
12.3750020377
 20
8.3861352074
 30
0.0
 10
12.3527263723
 20
8.3582331416
 30
0.0
 10
12.329126728
 20
8.3314727657
 30
0.0
 10
12.3042525196
 20
8.3059102092
 30
0.0
 10
12.2781558907
 20
8.2815990444
 30
0.0
 10
12.2508915656
 20
8.2585901939
 30
0.0
 10
12.2225166917
 20
8.2369318697
 30
0.0
 10
12.1930907291
 20
8.2166694728
 30
0.0
 10
12.1626753494
 20
8.1978454709
 30
0.0
 10
12.1313343399
 20
8.1804992396
 30
0.0
 10
12.0991333978
 20
8.1646670827
 30
0.0
 10
12.0661400082
 20
8.1503821415
 30
0.0
 10
12.0324233016
 20
8.1376743449
 30
0.0
 10
11.9980539529
 20
8.1265702281
 30
0.0
 10
11.9631039862
 20
8.117092969
 30
0.0
 10
11.9276466223
 20
8.109262358
 30
0.0
 10
11.8917561298
 20
8.1030947728
 30
0.0
 10
11.855507688
 20
8.0986030655
 30
0.0
 10
11.8189772191
 20
8.0957965282
 30
0.0
 10
11.7822412163
 20
8.0946809649
 30
0.0
 10
11.7453765927
 20
8.0952586646
 30
0.0
 10
11.7084605281
 20
8.0975283906
 30
0.0
 10
11.6715702975
 20
8.1014852764
 30
0.0
 10
11.6347831103
 20
8.1071209625
 30
0.0
 10
11.5981759532
 20
8.1144236
 30
0.0
 10
11.5618254422
 20
8.1233778961
 30
0.0
 10
11.5258076383
 20
8.1339650354
 30
0.0
 10
11.4901978927
 20
8.146162781
 30
0.0
 10
11.4550707052
 20
8.1599455639
 30
0.0
 10
11.4204995761
 20
8.1752845348
 30
0.0
 10
11.3865568396
 20
8.1921475782
 30
0.0
 10
11.3533134821
 20
8.210499334
 30
0.0
 10
11.3208390398
 20
8.2303013729
 30
0.0
 10
11.2892014503
 20
8.2515122542
 30
0.0
 10
11.2584669236
 20
8.2740876186
 30
0.0
 10
11.2286997311
 20
8.2979801846
 30
0.0
 10
11.1999621295
 20
8.3231399387
 30
0.0
 10
11.1723142374
 20
8.34951424
 30
0.0
 10
11.1458139269
 20
8.3770479374
 30
0.0
 10
11.1205166403
 20
8.4056834196
 30
0.0
 10
11.0964752773
 20
8.4353607527
 30
0.0
 10
11.0737401403
 20
8.4660178528
 30
0.0
 10
11.0523588263
 20
8.4975906032
 30
0.0
 10
11.0323761152
 20
8.5300129729
 30
0.0
 10
11.0138337947
 20
8.5632171105
 30
0.0
 10
10.996770673
 20
8.5971335532
 30
0.0
 10
10.9812224867
 20
8.6316913559
 30
0.0
 10
10.9672218483
 20
8.6668182423
 30
0.0
 10
10.9547980616
 20
8.7024407124
 30
0.0
 10
10.9439771463
 20
8.7384842297
 30
0.0
 10
10.9347817814
 20
8.7748733788
 30
0.0
 10
10.927231285
 20
8.8115320786
 30
0.0
 10
10.9213416234
 20
8.8483834092
 30
0.0
 10
10.9171248701
 20
8.8853508795
 30
0.0
 10
10.9145903402
 20
8.92235566
 30
0.0
 10
10.9140245295
 20
8.9470404888
 30
0.0
 10
10.9140245295
 20
8.9593614221
 30
0.0
  0
SPLINE
  5
36F
100
AcDbEntity
  8
0
100
AcDbSpline
 62
7
  6
CONTINUOUS
 70
0
 71
3
 72
50
 73
46
 74
0
 42
0.0000001
 43
0.0000001
 44
0.0000000001
 40
0.0
 40
0.0
 40
0.0
 40
0.0
 40
0.0364221942
 40
0.0730935657
 40
0.1099860288
 40
0.1470754019
 40
0.1843330283
 40
0.2217275764
 40
0.2592234003
 40
0.2967792345
 40
0.3343471487
 40
0.3718712744
 40
0.4092868751
 40
0.446519504
 40
0.4834844529
 40
0.52008665
 40
0.5562210317
 40
0.5917737037
 40
0.6266237772
 40
0.6606459671
 40
0.6937138512
 40
0.7257036107
 40
0.74125717
 40
0.75649813
 40
0.7714133902
 40
0.7859910836
 40
0.8002201762
 40
0.8140907995
 40
0.8275944509
 40
0.8407236262
 40
0.8534726335
 40
0.8658367469
 40
0.8778132155
 40
0.8894005139
 40
0.9005989295
 40
0.9114104207
 40
0.9218385517
 40
0.9318889343
 40
0.941568805
 40
0.9508875569
 40
0.9598565119
 40
0.9684891362
 40
0.9768011464
 40
0.98481054
 40
1.0
 40
1.0
 40
1.0
 40
1.0
 10
11.6247539885
 20
9.5448734028
 30
0.0
 10
11.6247539885
 20
9.5350379754
 30
0.0
 10
11.6251174444
 20
9.5152980115
 30
0.0
 10
11.6267358013
 20
9.4856355502
 30
0.0
 10
11.629421108
 20
9.4558694724
 30
0.0
 10
11.6331587572
 20
9.4260579313
 30
0.0
 10
11.6379285681
 20
9.3962569402
 30
0.0
 10
11.643703472
 20
9.3665227828
 30
0.0
 10
11.6504496747
 20
9.3369115586
 30
0.0
 10
11.6581261038
 20
9.3074797114
 30
0.0
 10
11.6666837446
 20
9.2782843207
 30
0.0
 10
11.6760647908
 20
9.2493832206
 30
0.0
 10
11.6862023154
 20
9.2208352034
 30
0.0
 10
11.6970196666
 20
9.1926999662
 30
0.0
 10
11.7084300627
 20
9.165037911
 30
0.0
 10
11.7203363146
 20
9.1379096918
 30
0.0
 10
11.7326309492
 20
9.1113755011
 30
0.0
 10
11.7451969129
 20
9.0854941695
 30
0.0
 10
11.7579086384
 20
9.0603219424
 30
0.0
 10
11.7706337015
 20
9.0359111193
 30
0.0
 10
11.7832348759
 20
9.0123085626
 30
0.0
 10
11.793611197
 20
8.9931724834
 30
0.0
 10
11.8017226504
 20
8.9782845662
 30
0.0
 10
11.8076310109
 20
8.9674470464
 30
0.0
 10
11.8134043284
 20
8.9568360461
 30
0.0
 10
11.8190262211
 20
8.9464537436
 30
0.0
 10
11.8244807047
 20
8.9363016373
 30
0.0
 10
11.8297524106
 20
8.9263806823
 30
0.0
 10
11.8348266389
 20
8.9166913315
 30
0.0
 10
11.8396891562
 20
8.907233307
 30
0.0
 10
11.8443268331
 20
8.8980061237
 30
0.0
 10
11.8487267619
 20
8.8890084281
 30
0.0
 10
11.8528774109
 20
8.8802388374
 30
0.0
 10
11.8567674943
 20
8.8716952226
 30
0.0
 10
11.860386885
 20
8.8633753404
 30
0.0
 10
11.8637261768
 20
8.8552766039
 30
0.0
 10
11.8667764532
 20
8.8473960542
 30
0.0
 10
11.8695301943
 20
8.8397308337
 30
0.0
 10
11.8719797403
 20
8.832277578
 30
0.0
 10
11.8741190716
 20
8.8250332321
 30
0.0
 10
11.8759420871
 20
8.8179943768
 30
0.0
 10
11.8774436952
 20
8.8111579868
 30
0.0
 10
11.8786195441
 20
8.8045203505
 30
0.0
 10
11.8797275158
 20
8.7960821624
 30
0.0
 10
11.8800964944
 20
8.789813187
 30
0.0
 10
11.8800972986
 20
8.7857114345
 30
0.0
  0
SPLINE
  5
370
100
AcDbEntity
  8
0
100
AcDbSpline
 62
7
  6
CONTINUOUS
 70
0
 71
3
 72
54
 73
50
 74
0
 42
0.0000001
 43
0.0000001
 44
0.0000000001
 40
0.0
 40
0.0
 40
0.0
 40
0.0
 40
0.0063158427
 40
0.0126705974
 40
0.0191023953
 40
0.0256479035
 40
0.0323417516
 40
0.0392160545
 40
0.0536138127
 40
0.061194488
 40
0.0690562166
 40
0.0772172825
 40
0.0856936302
 40
0.0944989909
 40
0.1036450473
 40
0.113141787
 40
0.1229974971
 40
0.1332190617
 40
0.1438121259
 40
0.1547810799
 40
0.1661293869
 40
0.1778595312
 40
0.189973133
 40
0.2024711534
 40
0.2153537503
 40
0.2286205275
 40
0.2422705277
 40
0.256302183
 40
0.2707135528
 40
0.2855021644
 40
0.300665138
 40
0.316199276
 40
0.3321009043
 40
0.3649900029
 40
0.3992976831
 40
0.4349839512
 40
0.472004695
 40
0.5103120262
 40
0.5498546333
 40
0.5905781015
 40
0.6324251619
 40
0.6753358913
 40
0.7192479428
 40
0.7640967229
 40
0.8098156864
 40
0.8563364658
 40
0.9035883331
 40
0.9515014468
 40
1.0
 40
1.0
 40
1.0
 40
1.0
 10
15.0161535855
 20
8.3407347172
 30
0.0
 10
15.0181480046
 20
8.3405963998
 30
0.0
 10
15.0221397079
 20
8.3401556817
 30
0.0
 10
15.0280825152
 20
8.3390068514
 30
0.0
 10
15.0339856107
 20
8.3373704461
 30
0.0
 10
15.0398455296
 20
8.3352476886
 30
0.0
 10
15.0456599527
 20
8.3326397816
 30
0.0
 10
15.0534672092
 20
8.3284547073
 30
0.0
 10
15.0610623908
 20
8.3233314497
 30
0.0
 10
15.0684126555
 20
8.3173944856
 30
0.0
 10
15.0739645231
 20
8.3123888553
 30
0.0
 10
15.0794571652
 20
8.3069102539
 30
0.0
 10
15.0848891173
 20
8.30096054
 30
0.0
 10
15.0902581647
 20
8.2945422996
 30
0.0
 10
15.0955624115
 20
8.2876581897
 30
0.0
 10
15.1007997044
 20
8.2803109514
 30
0.0
 10
15.1059680873
 20
8.2725036143
 30
0.0
 10
15.1110655272
 20
8.264239337
 30
0.0
 10
15.1160899329
 20
8.2555214373
 30
0.0
 10
15.1210393947
 20
8.2463535012
 30
0.0
 10
15.1259118416
 20
8.2367392198
 30
0.0
 10
15.1307053184
 20
8.226682519
 30
0.0
 10
15.1354179249
 20
8.216187515
 30
0.0
 10
15.1400476471
 20
8.2052584643
 30
0.0
 10
15.1445926716
 20
8.1938998646
 30
0.0
 10
15.1490511033
 20
8.1821163568
 30
0.0
 10
15.1534210757
 20
8.1699127642
 30
0.0
 10
15.1577008658
 20
8.1572941112
 30
0.0
 10
15.1618886319
 20
8.1442655625
 30
0.0
 10
15.1659826879
 20
8.1308324811
 30
0.0
 10
15.1699813557
 20
8.1170003955
 30
0.0
 10
15.1738829432
 20
8.1027749698
 30
0.0
 10
15.1790111286
 20
8.0830695193
 30
0.0
 10
15.1851532171
 20
8.0574899327
 30
0.0
 10
15.1920315406
 20
8.0256555525
 30
0.0
 10
15.1984864343
 20
7.9923995422
 30
0.0
 10
15.2045071528
 20
7.9577767043
 30
0.0
 10
15.2100836647
 20
7.9218439331
 30
0.0
 10
15.2152066891
 20
7.8846603931
 30
0.0
 10
15.219867687
 20
7.8462873147
 30
0.0
 10
15.224058878
 20
7.8067879152
 30
0.0
 10
15.2277732769
 20
7.7662272935
 30
0.0
 10
15.2310047026
 20
7.7246723321
 30
0.0
 10
15.2337477723
 20
7.6821915498
 30
0.0
 10
15.2359979025
 20
7.638854974
 30
0.0
 10
15.2377513068
 20
7.5947342385
 30
0.0
 10
15.2390051341
 20
7.5499017045
 30
0.0
 10
15.2397571732
 20
7.5044319138
 30
0.0
 10
15.2399223149
 20
7.4739135957
 30
0.0
 10
15.2399223149
 20
7.4585619191
 30
0.0
  0
SPLINE
  5
371
100
AcDbEntity
  8
0
100
AcDbSpline
 62
7
  6
CONTINUOUS
 70
0
 71
3
 72
43
 73
39
 74
0
 42
0.0000001
 43
0.0000001
 44
0.0000000001
 40
0.0
 40
0.0
 40
0.0
 40
0.0
 40
0.0303589764
 40
0.0455827641
 40
0.060835509
 40
0.0914256939
 40
0.1221330847
 40
0.1375319624
 40
0.1529597093
 40
0.1838976046
 40
0.2149460427
 40
0.2461001315
 40
0.2773537492
 40
0.3086996261
 40
0.3401294384
 40
0.3716339107
 40
0.4032029274
 40
0.4348256509
 40
0.4664906464
 40
0.4981860117
 40
0.5298995094
 40
0.561618703
 40
0.5933310931
 40
0.6250242554
 40
0.6566859769
 40
0.6883043915
 40
0.7198681122
 40
0.7513663605
 40
0.782789091
 40
0.8141271059
 40
0.8453721797
 40
0.8609589562
 40
0.8765198874
 40
0.9075587555
 40
0.9384865137
 40
0.9539090176
 40
0.969303164
 40
1.0
 40
1.0
 40
1.0
 40
1.0
 10
12.5158923725
 20
8.8716698748
 30
0.0
 10
12.5036561332
 20
8.8700973553
 30
0.0
 10
12.4852117579
 20
8.8682550721
 30
0.0
 10
12.460528973
 20
8.8668321797
 30
0.0
 10
12.4357214904
 20
8.8660952545
 30
0.0
 10
12.4045993905
 20
8.8664695903
 30
0.0
 10
12.3734862397
 20
8.8685631302
 30
0.0
 10
12.3486244105
 20
8.8712637095
 30
0.0
 10
12.3237526359
 20
8.8746535179
 30
0.0
 10
12.2927649748
 20
8.8801720469
 30
0.0
 10
12.2558967115
 20
8.8888112223
 30
0.0
 10
12.219420204
 20
8.8994474768
 30
0.0
 10
12.1834471383
 20
8.9120482361
 30
0.0
 10
12.1480867627
 20
8.9265750868
 30
0.0
 10
12.1134466942
 20
8.942983736
 30
0.0
 10
12.0796322881
 20
8.9612241888
 30
0.0
 10
12.0467464026
 20
8.9812408898
 30
0.0
 10
12.014889065
 20
9.0029728916
 30
0.0
 10
11.9841571703
 20
9.0263540341
 30
0.0
 10
11.9546441924
 20
9.0513131545
 30
0.0
 10
11.9264399015
 20
9.0777743013
 30
0.0
 10
11.899630093
 20
9.1056569649
 30
0.0
 10
11.8742963282
 20
9.1348763209
 30
0.0
 10
11.850515688
 20
9.1653434856
 30
0.0
 10
11.8283605397
 20
9.1969657868
 30
0.0
 10
11.8078983185
 20
9.2296470372
 30
0.0
 10
11.7891913206
 20
9.263287847
 30
0.0
 10
11.7722965228
 20
9.2977858416
 30
0.0
 10
11.7572653483
 20
9.3330362645
 30
0.0
 10
11.7441437525
 20
9.3689312167
 30
0.0
 10
11.7348257533
 20
9.3993164199
 30
0.0
 10
11.7283656871
 20
9.4238366483
 30
0.0
 10
11.7225818508
 20
9.4484390945
 30
0.0
 10
11.7166057859
 20
9.4793881159
 30
0.0
 10
11.7123155591
 20
9.5105589197
 30
0.0
 10
11.7099110398
 20
9.5355371715
 30
0.0
 10
11.7081952157
 20
9.5604774155
 30
0.0
 10
11.7076770605
 20
9.5792125079
 30
0.0
 10
11.7076770605
 20
9.591686673
 30
0.0
  0
SPLINE
  5
372
100
AcDbEntity
  8
0
100
AcDbSpline
 62
7
  6
CONTINUOUS
 70
0
 71
3
 72
72
 73
68
 74
0
 42
0.0000001
 43
0.0000001
 44
0.0000000001
 40
0.0
 40
0.0
 40
0.0
 40
0.0
 40
0.0153559685
 40
0.0230182634
 40
0.0306701279
 40
0.0459427865
 40
0.0611778706
 40
0.0763785616
 40
0.091548351
 40
0.1066910111
 40
0.1218105607
 40
0.1369112319
 40
0.1519974315
 40
0.1670737003
 40
0.1821446705
 40
0.1972150231
 40
0.2122894456
 40
0.2273725881
 40
0.2424690196
 40
0.2575831853
 40
0.2727193661
 40
0.2878816417
 40
0.3030738534
 40
0.3182995693
 40
0.3335620536
 40
0.3488642409
 40
0.3642087132
 40
0.3795976788
 40
0.3950329547
 40
0.4105159555
 40
0.4260476864
 40
0.441628738
 40
0.4572592834
 40
0.4729390803
 40
0.4886674798
 40
0.504443435
 40
0.5202655115
 40
0.5361319017
 40
0.5520404441
 40
0.5679886442
 40
0.5839736951
 40
0.5999925008
 40
0.6160417026
 40
0.6321177086
 40
0.6482167212
 40
0.664334766
 40
0.6804677226
 40
0.6966113589
 40
0.7127613621
 40
0.7289133705
 40
0.7450630065
 40
0.7612059112
 40
0.7773377774
 40
0.7934543812
 40
0.8095516132
 40
0.8256255125
 40
0.8416722977
 40
0.8576883956
 40
0.8736704685
 40
0.8896154424
 40
0.9055205403
 40
0.9213832847
 40
0.9372015524
 40
0.9529736044
 40
0.9686978062
 40
0.984373832
 40
1.0
 40
1.0
 40
1.0
 40
1.0
 10
10.5770548005
 20
6.6389591942
 30
0.0
 10
10.5744590277
 20
6.6271328308
 30
0.0
 10
10.5701501034
 20
6.6094931332
 30
0.0
 10
10.5635797103
 20
6.5862183177
 30
0.0
 10
10.5564777406
 20
6.56316847
 30
0.0
 10
10.5465934362
 20
6.5347371405
 30
0.0
 10
10.5331378868
 20
6.5012883476
 30
0.0
 10
10.5181232043
 20
6.4685985187
 30
0.0
 10
10.5015809368
 20
6.4367366268
 30
0.0
 10
10.4835456484
 20
6.4057693383
 30
0.0
 10
10.4640550651
 20
6.3757616257
 30
0.0
 10
10.4431500404
 20
6.3467763606
 30
0.0
 10
10.4208743749
 20
6.3188742947
 30
0.0
 10
10.3972747307
 20
6.2921139188
 30
0.0
 10
10.3724005222
 20
6.2665513623
 30
0.0
 10
10.3463038934
 20
6.2422401975
 30
0.0
 10
10.3190395682
 20
6.2192313471
 30
0.0
 10
10.2906646944
 20
6.1975730229
 30
0.0
 10
10.2612387317
 20
6.1773106259
 30
0.0
 10
10.2308233521
 20
6.158486624
 30
0.0
 10
10.1994823426
 20
6.1411403927
 30
0.0
 10
10.1672814004
 20
6.1253082359
 30
0.0
 10
10.1342880108
 20
6.1110232946
 30
0.0
 10
10.1005713043
 20
6.0983154981
 30
0.0
 10
10.0662019555
 20
6.0872113813
 30
0.0
 10
10.0312519889
 20
6.0777341221
 30
0.0
 10
9.995794625
 20
6.0699035111
 30
0.0
 10
9.9599041324
 20
6.0637359259
 30
0.0
 10
9.9236556906
 20
6.0592442186
 30
0.0
 10
9.8871252218
 20
6.0564376813
 30
0.0
 10
9.850389219
 20
6.055322118
 30
0.0
 10
9.8135245954
 20
6.0558998177
 30
0.0
 10
9.7766085308
 20
6.0581695438
 30
0.0
 10
9.7397183002
 20
6.0621264296
 30
0.0
 10
9.7029311129
 20
6.0677621156
 30
0.0
 10
9.6663239558
 20
6.0750647531
 30
0.0
 10
9.6299734449
 20
6.0840190493
 30
0.0
 10
9.5939556409
 20
6.0946061886
 30
0.0
 10
9.5583458954
 20
6.1068039341
 30
0.0
 10
9.5232187078
 20
6.120586717
 30
0.0
 10
9.4886475787
 20
6.1359256879
 30
0.0
 10
9.4547048423
 20
6.1527887313
 30
0.0
 10
9.4214614847
 20
6.1711404871
 30
0.0
 10
9.3889870424
 20
6.1909425261
 30
0.0
 10
9.357349453
 20
6.2121534073
 30
0.0
 10
9.3266149262
 20
6.2347287717
 30
0.0
 10
9.2968477338
 20
6.2586213377
 30
0.0
 10
9.2681101322
 20
6.2837810918
 30
0.0
 10
9.2404622401
 20
6.3101553931
 30
0.0
 10
9.2139619295
 20
6.3376890905
 30
0.0
 10
9.188664643
 20
6.3663245728
 30
0.0
 10
9.1646232799
 20
6.3960019058
 30
0.0
 10
9.141888143
 20
6.426659006
 30
0.0
 10
9.120506829
 20
6.4582317563
 30
0.0
 10
9.1005241179
 20
6.490654126
 30
0.0
 10
9.0819817973
 20
6.5238582636
 30
0.0
 10
9.0649186756
 20
6.5577747063
 30
0.0
 10
9.0493704893
 20
6.592332509
 30
0.0
 10
9.035369851
 20
6.6274593955
 30
0.0
 10
9.0229460642
 20
6.6630818655
 30
0.0
 10
9.012125149
 20
6.6991253828
 30
0.0
 10
9.0029297841
 20
6.7355145319
 30
0.0
 10
8.9953792876
 20
6.7721732317
 30
0.0
 10
8.9894896261
 20
6.8090245624
 30
0.0
 10
8.9852728727
 20
6.8459920327
 30
0.0
 10
8.9827383429
 20
6.8829968131
 30
0.0
 10
8.9821725322
 20
6.9076816419
 30
0.0
 10
8.9821725322
 20
6.9200025753
 30
0.0
  0
SPLINE
  5
373
100
AcDbEntity
  8
0
100
AcDbSpline
 62
7
  6
CONTINUOUS
 70
0
 71
3
 72
39
 73
35
 74
0
 42
0.0000001
 43
0.0000001
 44
0.0000000001
 40
0.0
 40
0.0
 40
0.0
 40
0.0
 40
0.0307462577
 40
0.0615801569
 40
0.0924990413
 40
0.1234996452
 40
0.1545781092
 40
0.1857300146
 40
0.2169504305
 40
0.24823394
 40
0.2795746788
 40
0.3109663923
 40
0.3424024717
 40
0.3738759956
 40
0.4053797921
 40
0.4369064823
 40
0.4684485246
 40
0.4999982777
 40
0.5315480495
 40
0.5630901413
 40
0.5946169108
 40
0.6261208231
 40
0.6575944927
 40
0.6890307441
 40
0.7204226634
 40
0.7517636353
 40
0.7830473994
 40
0.8142680972
 40
0.8454203083
 40
0.8764990998
 40
0.9075000298
 40
0.9384192726
 40
0.9692536372
 40
1.0
 40
1.0
 40
1.0
 40
1.0
 10
12.4871116867
 20
9.0482197336
 30
0.0
 10
12.4777688554
 20
9.0495517408
 30
0.0
 10
12.4591113002
 20
9.0526208711
 30
0.0
 10
12.4313094776
 20
9.0584185364
 30
0.0
 10
12.4037015807
 20
9.0654060443
 30
0.0
 10
12.3763403383
 20
9.0735701695
 30
0.0
 10
12.3492771601
 20
9.0828955687
 30
0.0
 10
12.3225630687
 20
9.0933645288
 30
0.0
 10
12.2962483983
 20
9.104957311
 30
0.0
 10
12.2703827865
 20
9.1176521289
 30
0.0
 10
12.2450149372
 20
9.1314249458
 30
0.0
 10
12.2201926423
 20
9.1462497713
 30
0.0
 10
12.195962733
 20
9.1620987386
 30
0.0
 10
12.1723708412
 20
9.1789419118
 30
0.0
 10
12.1494613899
 20
9.1967474938
 30
0.0
 10
12.1272776055
 20
9.2154819903
 30
0.0
 10
12.105861295
 20
9.2351100803
 30
0.0
 10
12.08525276
 20
9.2555947056
 30
0.0
 10
12.0654908803
 20
9.2768973031
 30
0.0
 10
12.0466129427
 20
9.2989777561
 30
0.0
 10
12.0286544516
 20
9.3217943838
 30
0.0
 10
12.0116492743
 20
9.3453042066
 30
0.0
 10
11.9956295455
 20
9.3694629712
 30
0.0
 10
11.9806253864
 20
9.394225093
 30
0.0
 10
11.9666650755
 20
9.4195439069
 30
0.0
 10
11.9537750335
 20
9.4453717494
 30
0.0
 10
11.9419795157
 20
9.4716599133
 30
0.0
 10
11.9313007279
 20
9.4983588418
 30
0.0
 10
11.9217589082
 20
9.5254182522
 30
0.0
 10
11.9133720629
 20
9.5527871456
 30
0.0
 10
11.9061559418
 20
9.580413867
 30
0.0
 10
11.900124216
 20
9.6082465775
 30
0.0
 10
11.8952884957
 20
9.6362320407
 30
0.0
 10
11.8928642186
 20
9.6549844646
 30
0.0
 10
11.8918550792
 20
9.6643676936
 30
0.0
  0
SPLINE
  5
374
100
AcDbEntity
  8
0
100
AcDbSpline
 62
7
  6
CONTINUOUS
 70
0
 71
3
 72
27
 73
23
 74
0
 42
0.0000001
 43
0.0000001
 44
0.0000000001
 40
0.0
 40
0.0
 40
0.0
 40
0.0
 40
0.0637761271
 40
0.0955883976
 40
0.1273469085
 40
0.1907029206
 40
0.2538558223
 40
0.2853602401
 40
0.3168164357
 40
0.3795841196
 40
0.4421741829
 40
0.5045989092
 40
0.5668722156
 40
0.6290095116
 40
0.6910275677
 40
0.7219999748
 40
0.7529494013
 40
0.8147838969
 40
0.8765559321
 40
0.907427452
 40
0.9382910693
 40
1.0
 40
1.0
 40
1.0
 40
1.0
 10
10.856816922
 20
8.9301031133
 30
0.0
 10
10.856816922
 20
8.9433872756
 30
0.0
 10
10.8572942712
 20
8.9633021591
 30
0.0
 10
10.8588911718
 20
8.9897814599
 30
0.0
 10
10.861122139
 20
9.0161275793
 30
0.0
 10
10.8651007498
 20
9.0488666439
 30
0.0
 10
10.8706681813
 20
9.0813198305
 30
0.0
 10
10.8760646059
 20
9.1070306069
 30
0.0
 10
10.8820761995
 20
9.1325220354
 30
0.0
 10
10.8907532084
 20
9.1640269431
 30
0.0
 10
10.9030112334
 20
9.2011872102
 30
0.0
 10
10.9170795631
 20
9.2375908136
 30
0.0
 10
10.9329257862
 20
9.2731533682
 30
0.0
 10
10.950513135
 20
9.3077924605
 30
0.0
 10
10.9665944966
 20
9.3358361103
 30
0.0
 10
10.9802858614
 20
9.3577251867
 30
0.0
 10
10.9945107323
 20
9.3792255938
 30
0.0
 10
11.0132997704
 20
9.4053852441
 30
0.0
 10
11.0333955296
 20
9.4305342151
 30
0.0
 10
11.0502190385
 20
9.4500000279
 30
0.0
 10
11.0675280834
 20
9.46901683
 30
0.0
 10
11.0810554801
 20
9.4827735714
 30
0.0
 10
11.0903004602
 20
9.4917035671
 30
0.0
  0
SPLINE
  5
375
100
AcDbEntity
  8
0
100
AcDbSpline
 62
7
  6
CONTINUOUS
 70
0
 71
3
 72
39
 73
35
 74
0
 42
0.0000001
 43
0.0000001
 44
0.0000000001
 40
0.0
 40
0.0
 40
0.0
 40
0.0
 40
0.0958316475
 40
0.1891006073
 40
0.279240642
 40
0.3229674356
 40
0.365711151
 40
0.4074094627
 40
0.4480020772
 40
0.4874317741
 40
0.5256439547
 40
0.5625873626
 40
0.5982141631
 40
0.6324802323
 40
0.6653459096
 40
0.6967758341
 40
0.7267403598
 40
0.7552153214
 40
0.7821838024
 40
0.8076365273
 40
0.831573723
 40
0.8540068598
 40
0.8749607899
 40
0.8944774057
 40
0.9126188108
 40
0.9294731124
 40
0.9451592998
 40
0.9598338063
 40
0.9668558128
 40
0.9737028706
 40
0.9804062828
 40
0.9869996808
 40
0.9935186293
 40
1.0
 40
1.0
 40
1.0
 40
1.0
 10
13.5921708982
 20
11.0256226285
 30
0.0
 10
13.6011307699
 20
11.0250012593
 30
0.0
 10
13.6187980159
 20
11.0235780818
 30
0.0
 10
13.6448295832
 20
11.0208613832
 30
0.0
 10
13.6659425238
 20
11.0181214688
 30
0.0
 10
13.6823102332
 20
11.0156551046
 30
0.0
 10
13.6941620635
 20
11.0136970768
 30
0.0
 10
13.7056944723
 20
11.0116155152
 30
0.0
 10
13.7168882108
 20
11.0094138079
 30
0.0
 10
13.7277245822
 20
11.0070957433
 30
0.0
 10
13.7381855022
 20
11.0046651592
 30
0.0
 10
13.7482535249
 20
11.0021261747
 30
0.0
 10
13.7579118713
 20
10.9994830623
 30
0.0
 10
13.7671444588
 20
10.9967402263
 30
0.0
 10
13.7759359473
 20
10.9939023471
 30
0.0
 10
13.784271735
 20
10.9909740876
 30
0.0
 10
13.7921380448
 20
10.9879604625
 30
0.0
 10
13.7995218804
 20
10.9848663913
 30
0.0
 10
13.8064111395
 20
10.9816970978
 30
0.0
 10
13.812794567
 20
10.9784577387
 30
0.0
 10
13.8186618287
 20
10.9751535792
 30
0.0
 10
13.8240035396
 20
10.9717898998
 30
0.0
 10
13.8288111754
 20
10.9683717776
 30
0.0
 10
13.8330772448
 20
10.9649043023
 30
0.0
 10
13.8367948557
 20
10.9613920641
 30
0.0
 10
13.8399580211
 20
10.9578393185
 30
0.0
 10
13.8425604565
 20
10.9542504442
 30
0.0
 10
13.8442818704
 20
10.9511876039
 30
0.0
 10
13.8453548773
 20
10.948735139
 30
0.0
 10
13.8460045755
 20
10.946918085
 30
0.0
 10
13.8465103694
 20
10.9450974411
 30
0.0
 10
13.8468718891
 20
10.9432739553
 30
0.0
 10
13.8470889255
 20
10.9414487039
 30
0.0
 10
13.8471372226
 20
10.9402297635
 30
0.0
 10
13.8471372178
 20
10.939622326
 30
0.0
  0
SPLINE
  5
376
100
AcDbEntity
  8
0
100
AcDbSpline
 62
7
  6
CONTINUOUS
 70
0
 71
3
 72
27
 73
23
 74
0
 42
0.0000001
 43
0.0000001
 44
0.0000000001
 40
0.0
 40
0.0
 40
0.0
 40
0.0
 40
0.0637761271
 40
0.0955883976
 40
0.1273469085
 40
0.1907029206
 40
0.2538558223
 40
0.2853602401
 40
0.3168164357
 40
0.3795841196
 40
0.4421741829
 40
0.5045989092
 40
0.5668722156
 40
0.6290095116
 40
0.6910275677
 40
0.7219999748
 40
0.7529494013
 40
0.8147838969
 40
0.8765559321
 40
0.907427452
 40
0.9382910693
 40
1.0
 40
1.0
 40
1.0
 40
1.0
 10
8.9249649246
 20
6.8907442664
 30
0.0
 10
8.9249649246
 20
6.9040284288
 30
0.0
 10
8.9254422739
 20
6.9239433122
 30
0.0
 10
8.9270391745
 20
6.950422613
 30
0.0
 10
8.9292701417
 20
6.9767687324
 30
0.0
 10
8.9332487524
 20
7.009507797
 30
0.0
 10
8.938816184
 20
7.0419609836
 30
0.0
 10
8.9442126085
 20
7.0676717601
 30
0.0
 10
8.9502242021
 20
7.0931631886
 30
0.0
 10
8.9589012111
 20
7.1246680962
 30
0.0
 10
8.9711592361
 20
7.1618283633
 30
0.0
 10
8.9852275658
 20
7.1982319668
 30
0.0
 10
9.0010737889
 20
7.2337945214
 30
0.0
 10
9.0186611377
 20
7.2684336136
 30
0.0
 10
9.0347424993
 20
7.2964772634
 30
0.0
 10
9.048433864
 20
7.3183663398
 30
0.0
 10
9.0626587349
 20
7.3398667469
 30
0.0
 10
9.081447773
 20
7.3660263972
 30
0.0
 10
9.1015435322
 20
7.3911753682
 30
0.0
 10
9.1183670412
 20
7.410641181
 30
0.0
 10
9.1356760861
 20
7.4296579831
 30
0.0
 10
9.1492034828
 20
7.4434147245
 30
0.0
 10
9.1584484628
 20
7.4523447202
 30
0.0
  0
SPLINE
  5
377
100
AcDbEntity
  8
0
100
AcDbSpline
 62
7
  6
CONTINUOUS
 70
0
 71
3
 72
50
 73
46
 74
0
 42
0.0000001
 43
0.0000001
 44
0.0000000001
 40
0.0
 40
0.0
 40
0.0
 40
0.0
 40
0.0461124908
 40
0.091720265
 40
0.1367609599
 40
0.1811789891
 40
0.2249175239
 40
0.2679210455
 40
0.3101356379
 40
0.3515086717
 40
0.3919891171
 40
0.4315275968
 40
0.4700765488
 40
0.5075904306
 40
0.5440257775
 40
0.5793414067
 40
0.6134987023
 40
0.6464617231
 40
0.6781974524
 40
0.7086762171
 40
0.7378719353
 40
0.7657624976
 40
0.7923304129
 40
0.8051147532
 40
0.8175642814
 40
0.8296783946
 40
0.8414569827
 40
0.8529003105
 40
0.8640092134
 40
0.874785127
 40
0.8852300101
 40
0.8953465737
 40
0.9051382942
 40
0.9146093886
 40
0.9237650769
 40
0.9326115894
 40
0.9411562076
 40
0.9494075512
 40
0.9573755922
 40
0.9650717595
 40
0.972509226
 40
0.9797029216
 40
0.9866696619
 40
0.9934283647
 40
1.0
 40
1.0
 40
1.0
 40
1.0
 10
15.1781030569
 20
10.4823333411
 30
0.0
 10
15.1781030569
 20
10.4964334286
 30
0.0
 10
15.1779636456
 20
10.5244794886
 30
0.0
 10
15.1773294439
 20
10.5662935898
 30
0.0
 10
15.1762719999
 20
10.6075809067
 30
0.0
 10
15.1747928783
 20
10.6482833493
 30
0.0
 10
15.1728941399
 20
10.6883448102
 30
0.0
 10
15.1705784603
 20
10.7277094742
 30
0.0
 10
15.1678490785
 20
10.7663225848
 30
0.0
 10
15.1647098215
 20
10.8041304957
 30
0.0
 10
15.1611651184
 20
10.841080652
 30
0.0
 10
15.1572199215
 20
10.8771216999
 30
0.0
 10
15.1528797513
 20
10.9122035653
 30
0.0
 10
15.1481507275
 20
10.9462775265
 30
0.0
 10
15.1430394713
 20
10.9792962694
 30
0.0
 10
15.1375531231
 20
11.0112139635
 30
0.0
 10
15.1316994126
 20
11.0419863473
 30
0.0
 10
15.1254865475
 20
11.07157077
 30
0.0
 10
15.1189231953
 20
11.099926264
 30
0.0
 10
15.1120185805
 20
11.1270136108
 30
0.0
 10
15.1047823713
 20
11.1527954912
 30
0.0
 10
15.0972246325
 20
11.1772361558
 30
0.0
 10
15.0905850497
 20
11.1966995887
 30
0.0
 10
15.0851088581
 20
11.2115632486
 30
0.0
 10
15.0809805953
 20
11.2222117124
 30
0.0
 10
15.0767799571
 20
11.2325004269
 30
0.0
 10
15.0725084278
 20
11.2424258771
 30
0.0
 10
15.0681674332
 20
11.2519846123
 30
0.0
 10
15.0637584686
 20
11.2611733371
 30
0.0
 10
15.0592831058
 20
11.269988914
 30
0.0
 10
15.0547428085
 20
11.27842828
 30
0.0
 10
15.0501391431
 20
11.2864885432
 30
0.0
 10
15.0454737204
 20
11.2941669678
 30
0.0
 10
15.0407480353
 20
11.3014608778
 30
0.0
 10
15.0359637058
 20
11.3083677935
 30
0.0
 10
15.0311223585
 20
11.3148853778
 30
0.0
 10
15.0262255009
 20
11.3210113327
 30
0.0
 10
15.02127478
 20
11.3267435828
 30
0.0
 10
15.0162718118
 20
11.3320801645
 30
0.0
 10
15.0112181074
 20
11.3370191216
 30
0.0
 10
15.0061153213
 20
11.341558748
 30
0.0
 10
15.0009650833
 20
11.345697377
 30
0.0
 10
14.9957688514
 20
11.3494333724
 30
0.0
 10
14.9905286492
 20
11.3527651691
 30
0.0
 10
14.9869603034
 20
11.3547417749
 30
0.0
 10
14.9851719717
 20
11.3556581533
 30
0.0
  0
SPLINE
  5
378
100
AcDbEntity
  8
0
100
AcDbSpline
 62
7
  6
CONTINUOUS
 70
0
 71
3
 72
55
 73
51
 74
0
 42
0.0000001
 43
0.0000001
 44
0.0000000001
 40
0.0
 40
0.0
 40
0.0
 40
0.0
 40
0.0401592848
 40
0.0807684595
 40
0.1217162123
 40
0.1628900317
 40
0.2041766192
 40
0.2454622804
 40
0.2866333247
 40
0.3275764618
 40
0.3681791999
 40
0.4083302451
 40
0.4479199034
 40
0.4868404874
 40
0.524986728
 40
0.5622561958
 40
0.5985497349
 40
0.6337719144
 40
0.650952754
 40
0.6678319282
 40
0.6843987385
 40
0.7006428914
 40
0.7165543642
 40
0.732123584
 40
0.7473412865
 40
0.7621987077
 40
0.776687438
 40
0.7907996276
 40
0.804527838
 40
0.8178652626
 40
0.8308055802
 40
0.8433431917
 40
0.8554730809
 40
0.8671910721
 40
0.8784937052
 40
0.88937852
 40
0.8998439561
 40
0.9098896743
 40
0.9195164972
 40
0.9287267815
 40
0.9375244216
 40
0.9459152939
 40
0.9539073523
 40
0.9615111682
 40
0.9687401461
 40
0.9756111714
 40
0.9821449476
 40
0.9883667007
 40
0.9943065385
 40
1.0
 40
1.0
 40
1.0
 40
1.0
 10
15.1781030569
 20
10.4823333411
 30
0.0
 10
15.1781030569
 20
10.4616032675
 30
0.0
 10
15.1777985477
 20
10.4199103077
 30
0.0
 10
15.1764509697
 20
10.3570933609
 30
0.0
 10
15.1742135049
 20
10.2937776951
 30
0.0
 10
15.1710926815
 20
10.2301493886
 30
0.0
 10
15.1670976367
 20
10.1663952209
 30
0.0
 10
15.1622400926
 20
10.1027024017
 30
0.0
 10
15.1565343207
 20
10.0392579441
 30
0.0
 10
15.1499971
 20
9.9762481314
 30
0.0
 10
15.1426476681
 20
9.9138579624
 30
0.0
 10
15.134507665
 20
9.852270605
 30
0.0
 10
15.1256010703
 20
9.7916668558
 30
0.0
 10
15.115954135
 20
9.7322245983
 30
0.0
 10
15.105595302
 20
9.6741182958
 30
0.0
 10
15.0945551356
 20
9.6175183948
 30
0.0
 10
15.0828661942
 20
9.5625910913
 30
0.0
 10
15.0725300254
 20
9.5179852322
 30
0.0
 10
15.0639511938
 20
9.4832656993
 30
0.0
 10
15.0574300127
 20
9.4579585486
 30
0.0
 10
15.0507733305
 20
9.4331870291
 30
0.0
 10
15.0439861168
 20
9.4089692949
 30
0.0
 10
15.0370732702
 20
9.3853231286
 30
0.0
 10
15.0300399797
 20
9.3622658681
 30
0.0
 10
15.0228913138
 20
9.3398144359
 30
0.0
 10
15.0156326415
 20
9.3179852843
 30
0.0
 10
15.0082691915
 20
9.2967944295
 30
0.0
 10
15.0008064951
 20
9.2762573852
 30
0.0
 10
14.9932499243
 20
9.2563892129
 30
0.0
 10
14.9856051556
 20
9.2372044383
 30
0.0
 10
14.9778776855
 20
9.2187171213
 30
0.0
 10
14.970073317
 20
9.2009407514
 30
0.0
 10
14.9621976498
 20
9.1838883424
 30
0.0
 10
14.9542565919
 20
9.1675723007
 30
0.0
 10
14.9462558209
 20
9.1520045513
 30
0.0
 10
14.9382013229
 20
9.1371963721
 30
0.0
 10
14.9300988221
 20
9.1231585599
 30
0.0
 10
14.9219543472
 20
9.109901221
 30
0.0
 10
14.9137736261
 20
9.0974339897
 30
0.0
 10
14.9055626792
 20
9.0857657645
 30
0.0
 10
14.8973271779
 20
9.0749049968
 30
0.0
 10
14.88907306
 20
9.0648593603
 30
0.0
 10
14.8808058552
 20
9.0556361361
 30
0.0
 10
14.8725313149
 20
9.0472418056
 30
0.0
 10
14.8642547302
 20
9.0396825733
 30
0.0
 10
14.8559815423
 20
9.0329638656
 30
0.0
 10
14.8477168233
 20
9.0270910764
 30
0.0
 10
14.8394654797
 20
9.0220688216
 30
0.0
 10
14.8312334499
 20
9.0179023783
 30
0.0
 10
14.8256544683
 20
9.0156551304
 30
0.0
 10
14.8228795671
 20
9.0146869808
 30
0.0
  0
SPLINE
  5
379
100
AcDbEntity
  8
0
100
AcDbSpline
 62
7
  6
CONTINUOUS
 70
0
 71
3
 72
43
 73
39
 74
0
 42
0.0000001
 43
0.0000001
 44
0.0000000001
 40
0.0
 40
0.0
 40
0.0
 40
0.0
 40
0.0303589764
 40
0.0455827641
 40
0.060835509
 40
0.0914256939
 40
0.1221330847
 40
0.1375319624
 40
0.1529597093
 40
0.1838976046
 40
0.2149460427
 40
0.2461001315
 40
0.2773537492
 40
0.3086996261
 40
0.3401294384
 40
0.3716339107
 40
0.4032029274
 40
0.4348256509
 40
0.4664906464
 40
0.4981860117
 40
0.5298995094
 40
0.561618703
 40
0.5933310931
 40
0.6250242554
 40
0.6566859769
 40
0.6883043915
 40
0.7198681122
 40
0.7513663605
 40
0.782789091
 40
0.8141271059
 40
0.8453721797
 40
0.8609589562
 40
0.8765198874
 40
0.9075587555
 40
0.9384865137
 40
0.9539090176
 40
0.969303164
 40
1.0
 40
1.0
 40
1.0
 40
1.0
 10
10.5840403752
 20
6.832311028
 30
0.0
 10
10.5718041359
 20
6.8307385084
 30
0.0
 10
10.5533597605
 20
6.8288962253
 30
0.0
 10
10.5286769756
 20
6.8274733328
 30
0.0
 10
10.503869493
 20
6.8267364076
 30
0.0
 10
10.4727473932
 20
6.8271107434
 30
0.0
 10
10.4416342424
 20
6.8292042833
 30
0.0
 10
10.4167724131
 20
6.8319048626
 30
0.0
 10
10.3919006385
 20
6.835294671
 30
0.0
 10
10.3609129775
 20
6.8408132001
 30
0.0
 10
10.3240447141
 20
6.8494523754
 30
0.0
 10
10.2875682067
 20
6.8600886299
 30
0.0
 10
10.2515951409
 20
6.8726893892
 30
0.0
 10
10.2162347653
 20
6.8872162399
 30
0.0
 10
10.1815946969
 20
6.9036248891
 30
0.0
 10
10.1477802908
 20
6.9218653419
 30
0.0
 10
10.1148944053
 20
6.9418820429
 30
0.0
 10
10.0830370676
 20
6.9636140448
 30
0.0
 10
10.0523051729
 20
6.9869951873
 30
0.0
 10
10.0227921951
 20
7.0119543076
 30
0.0
 10
9.9945879042
 20
7.0384154544
 30
0.0
 10
9.9677780957
 20
7.0662981181
 30
0.0
 10
9.9424443308
 20
7.095517474
 30
0.0
 10
9.9186636907
 20
7.1259846388
 30
0.0
 10
9.8965085423
 20
7.15760694
 30
0.0
 10
9.8760463211
 20
7.1902881903
 30
0.0
 10
9.8573393232
 20
7.2239290001
 30
0.0
 10
9.8404445255
 20
7.2584269948
 30
0.0
 10
9.825413351
 20
7.2936774176
 30
0.0
 10
9.8122917551
 20
7.3295723698
 30
0.0
 10
9.802973756
 20
7.3599575731
 30
0.0
 10
9.7965136898
 20
7.3844778014
 30
0.0
 10
9.7907298534
 20
7.4090802476
 30
0.0
 10
9.7847537886
 20
7.440029269
 30
0.0
 10
9.7804635618
 20
7.4712000728
 30
0.0
 10
9.7780590424
 20
7.4961783247
 30
0.0
 10
9.7763432183
 20
7.5211185686
 30
0.0
 10
9.7758250631
 20
7.539853661
 30
0.0
 10
9.7758250631
 20
7.5523278262
 30
0.0
  0
SPLINE
  5
37A
100
AcDbEntity
  8
0
100
AcDbSpline
 62
7
  6
CONTINUOUS
 70
0
 71
3
 72
61
 73
57
 74
0
 42
0.0000001
 43
0.0000001
 44
0.0000000001
 40
0.0
 40
0.0
 40
0.0
 40
0.0
 40
0.0427954169
 40
0.0861053453
 40
0.1297857616
 40
0.1736909654
 40
0.2176743582
 40
0.2615889872
 40
0.3052881992
 40
0.3486262524
 40
0.3914589462
 40
0.4336442481
 40
0.4750429309
 40
0.515519218
 40
0.554941445
 40
0.5931827435
 40
0.6301217598
 40
0.6480669565
 40
0.6656440029
 40
0.6828395986
 40
0.6996410229
 40
0.7160360145
 40
0.7320129614
 40
0.7475607851
 40
0.7626691401
 40
0.7773283067
 40
0.7915294016
 40
0.8052642878
 40
0.8185257994
 40
0.8313076777
 40
0.843604819
 40
0.8554132498
 40
0.8667304109
 40
0.8775551931
 40
0.8878882782
 40
0.897732267
 40
0.9070921106
 40
0.9159753748
 40
0.9243928083
 40
0.9323587965
 40
0.9398921099
 40
0.9470165746
 40
0.9537619731
 40
0.9601648115
 40
0.9662690884
 40
0.9721266501
 40
0.9749823436
 40
0.9777992932
 40
0.9805859848
 40
0.9833512056
 40
0.9861039621
 40
0.9888533975
 40
0.9916086926
 40
0.9943789607
 40
0.9971731583
 40
1.0
 40
1.0
 40
1.0
 40
1.0
 10
15.0823400893
 20
10.3898334119
 30
0.0
 10
15.0823400893
 20
10.3741502517
 30
0.0
 10
15.0820861318
 20
10.34259485
 30
0.0
 10
15.0809642095
 20
10.2950439538
 30
0.0
 10
15.0791025297
 20
10.2471091795
 30
0.0
 10
15.0765076782
 20
10.1989613983
 30
0.0
 10
15.0731888775
 20
10.1507720613
 30
0.0
 10
15.0691579458
 20
10.1027128096
 30
0.0
 10
15.0644292607
 20
10.0549548085
 30
0.0
 10
15.0590197048
 20
10.0076681447
 30
0.0
 10
15.0529486075
 20
9.9610212132
 30
0.0
 10
15.0462376765
 20
9.9151801137
 30
0.0
 10
15.0389109229
 20
9.8703080469
 30
0.0
 10
15.0309945739
 20
9.8265647467
 30
0.0
 10
15.0225169945
 20
9.7841058225
 30
0.0
 10
15.0135085422
 20
9.7430824715
 30
0.0
 10
15.0055110655
 20
9.7099023291
 30
0.0
 10
14.9988606775
 20
9.6841933316
 30
0.0
 10
14.9938087253
 20
9.6655456777
 30
0.0
 10
14.9886490671
 20
9.6473628511
 30
0.0
 10
14.9833863533
 20
9.6296610112
 30
0.0
 10
14.978025218
 20
9.6124559189
 30
0.0
 10
14.9725705193
 20
9.595762868
 30
0.0
 10
14.9670270553
 20
9.57959671
 30
0.0
 10
14.961399848
 20
9.5639718021
 30
0.0
 10
14.9556938475
 20
9.5489020342
 30
0.0
 10
14.9499142181
 20
9.5344007699
 30
0.0
 10
14.944066042
 20
9.5204808843
 30
0.0
 10
14.9381546034
 20
9.5071546938
 30
0.0
 10
14.9321850928
 20
9.4944340065
 30
0.0
 10
14.9261628876
 20
9.4823300397
 30
0.0
 10
14.9200932569
 20
9.4708534847
 30
0.0
 10
14.9139816367
 20
9.4600144091
 30
0.0
 10
14.9078333346
 20
9.449822341
 30
0.0
 10
14.9016537958
 20
9.4402861531
 30
0.0
 10
14.8954483073
 20
9.4314141712
 30
0.0
 10
14.8892222483
 20
9.423214043
 30
0.0
 10
14.8829807946
 20
9.4156928797
 30
0.0
 10
14.8767291468
 20
9.4088571177
 30
0.0
 10
14.8704722402
 20
9.4027127149
 30
0.0
 10
14.8642149604
 20
9.3972650277
 30
0.0
 10
14.8579618749
 20
9.3925190933
 30
0.0
 10
14.851717556
 20
9.3884795578
 30
0.0
 10
14.8454862038
 20
9.3851510209
 30
0.0
 10
14.8392730531
 20
9.3825380297
 30
0.0
 10
14.8340695239
 20
9.3809471801
 30
0.0
 10
14.8299387612
 20
9.3800488053
 30
0.0
 10
14.8268755694
 20
9.3795608804
 30
0.0
 10
14.8238223696
 20
9.3792534582
 30
0.0
 10
14.8207798414
 20
9.3791265933
 30
0.0
 10
14.8177487791
 20
9.3791803764
 30
0.0
 10
14.8147299613
 20
9.3794148722
 30
0.0
 10
14.8117241781
 20
9.379829963
 30
0.0
 10
14.8087321624
 20
9.3804255054
 30
0.0
 10
14.8057547841
 20
9.3812012874
 30
0.0
 10
14.8037931694
 20
9.3818343081
 30
0.0
 10
14.8028164664
 20
9.3821796178
 30
0.0
  0
SPLINE
  5
37B
100
AcDbEntity
  8
0
100
AcDbSpline
 62
7
  6
CONTINUOUS
 70
0
 71
3
 72
34
 73
30
 74
0
 42
0.0000001
 43
0.0000001
 44
0.0000000001
 40
0.0
 40
0.0
 40
0.0
 40
0.0
 40
0.0701083043
 40
0.1412550102
 40
0.2129869334
 40
0.2848444346
 40
0.3563673738
 40
0.3918607154
 40
0.4270993065
 40
0.4620270047
 40
0.496588302
 40
0.5307284809
 40
0.564393683
 40
0.5975310375
 40
0.6300888484
 40
0.6620166526
 40
0.6932653439
 40
0.7237874009
 40
0.7535369537
 40
0.7824699062
 40
0.8105442115
 40
0.8377199845
 40
0.8639596412
 40
0.8892282395
 40
0.9134937027
 40
0.9367270285
 40
0.9589027585
 40
0.9799994301
 40
1.0
 40
1.0
 40
1.0
 40
1.0
 10
14.8545793296
 20
10.3898333989
 30
0.0
 10
14.8545793296
 20
10.3696475716
 30
0.0
 10
14.8541253898
 20
10.3289756732
 30
0.0
 10
14.8521345851
 20
10.2676797904
 30
0.0
 10
14.8488408012
 20
10.2059354924
 30
0.0
 10
14.8442663112
 20
10.1441644885
 30
0.0
 10
14.8394010046
 20
10.0928887395
 30
0.0
 10
14.834887647
 20
10.0521790131
 30
0.0
 10
14.8312130817
 20
10.0219792432
 30
0.0
 10
14.8272468461
 20
9.9920870991
 30
0.0
 10
14.8229956896
 20
9.9625535986
 30
0.0
 10
14.8184669249
 20
9.9334291872
 30
0.0
 10
14.8136682939
 20
9.9047636033
 30
0.0
 10
14.8086079929
 20
9.8766058025
 30
0.0
 10
14.8032947196
 20
9.8490038568
 30
0.0
 10
14.7977375743
 20
9.8220048917
 30
0.0
 10
14.7919460501
 20
9.7956550018
 30
0.0
 10
14.7859301014
 20
9.7699991502
 30
0.0
 10
14.7797000474
 20
9.7450811108
 30
0.0
 10
14.7732665366
 20
9.720943397
 30
0.0
 10
14.7666406238
 20
9.6976271575
 30
0.0
 10
14.7598336889
 20
9.6751721205
 30
0.0
 10
14.7528573733
 20
9.6536165385
 30
0.0
 10
14.7457236535
 20
9.6329970853
 30
0.0
 10
14.7384447832
 20
9.6133487834
 30
0.0
 10
14.7310332154
 20
9.5947050075
 30
0.0
 10
14.7235015878
 20
9.5770972419
 30
0.0
 10
14.7158629424
 20
9.5605554789
 30
0.0
 10
14.7105651665
 20
9.5499718867
 30
0.0
 10
14.7078948329
 20
9.5448698105
 30
0.0
  0
SPLINE
  5
37C
100
AcDbEntity
  8
0
100
AcDbSpline
 62
7
  6
CONTINUOUS
 70
0
 71
3
 72
39
 73
35
 74
0
 42
0.0000001
 43
0.0000001
 44
0.0000000001
 40
0.0
 40
0.0
 40
0.0
 40
0.0
 40
0.0315055161
 40
0.0629321575
 40
0.0942840469
 40
0.1255658407
 40
0.156782709
 40
0.1879402923
 40
0.2190446601
 40
0.2501022789
 40
0.2811199621
 40
0.3121048154
 40
0.3430641902
 40
0.3740056322
 40
0.4049368192
 40
0.4358655031
 40
0.4667994587
 40
0.4977464217
 40
0.528714026
 40
0.5597097525
 40
0.5907408753
 40
0.621814402
 40
0.6529370224
 40
0.6841150698
 40
0.7153544693
 40
0.7466606899
 40
0.7780387284
 40
0.8094930554
 40
0.8410275668
 40
0.8726457254
 40
0.9043501609
 40
0.9361427574
 40
0.9680267493
 40
1.0
 40
1.0
 40
1.0
 40
1.0
 10
11.5171801103
 20
9.6980139067
 30
0.0
 10
11.5064966769
 20
9.6959707345
 30
0.0
 10
11.4852401238
 20
9.6914373235
 30
0.0
 10
11.4537139456
 20
9.6832964751
 30
0.0
 10
11.4226381328
 20
9.6738367039
 30
0.0
 10
11.392066019
 20
9.6630741171
 30
0.0
 10
11.362049096
 20
9.6510269363
 30
0.0
 10
11.3326382159
 20
9.6377154854
 30
0.0
 10
11.3038831711
 20
9.6231621788
 30
0.0
 10
11.2758325799
 20
9.6073917116
 30
0.0
 10
11.2485339051
 20
9.5904307435
 30
0.0
 10
11.2220334059
 20
9.5723078645
 30
0.0
 10
11.1963758903
 20
9.5530537943
 30
0.0
 10
11.1716047503
 20
9.5327011332
 30
0.0
 10
11.1477619696
 20
9.5112842373
 30
0.0
 10
11.1248878853
 20
9.4888393647
 30
0.0
 10
11.1030211447
 20
9.4654045517
 30
0.0
 10
11.0821987937
 20
9.4410194065
 30
0.0
 10
11.0624560948
 20
9.4157251744
 30
0.0
 10
11.0438263609
 20
9.3895647285
 30
0.0
 10
11.0263411197
 20
9.3625823209
 30
0.0
 10
11.0100300175
 20
9.3348235696
 30
0.0
 10
10.9949205406
 20
9.3063355078
 30
0.0
 10
10.9810382138
 20
9.2771663434
 30
0.0
 10
10.9684065929
 20
9.2473653906
 30
0.0
 10
10.9570469507
 20
9.2169831046
 30
0.0
 10
10.9469784229
 20
9.1860709014
 30
0.0
 10
10.9382180954
 20
9.1546810541
 30
0.0
 10
10.9307807129
 20
9.1228666518
 30
0.0
 10
10.924678783
 20
9.0906815191
 30
0.0
 10
10.9199226269
 20
9.0581802425
 30
0.0
 10
10.9165201451
 20
9.0254171569
 30
0.0
 10
10.9144773387
 20
8.9924489503
 30
0.0
 10
10.9140245295
 20
8.9703999581
 30
0.0
 10
10.9140245295
 20
8.9593614221
 30
0.0
  0
SPLINE
  5
37D
100
AcDbEntity
  8
0
100
AcDbSpline
 62
7
  6
CONTINUOUS
 70
0
 71
3
 72
39
 73
35
 74
0
 42
0.0000001
 43
0.0000001
 44
0.0000000001
 40
0.0
 40
0.0
 40
0.0
 40
0.0
 40
0.0307462577
 40
0.0615801569
 40
0.0924990413
 40
0.1234996452
 40
0.1545781092
 40
0.1857300146
 40
0.2169504305
 40
0.24823394
 40
0.2795746788
 40
0.3109663923
 40
0.3424024717
 40
0.3738759956
 40
0.4053797921
 40
0.4369064823
 40
0.4684485246
 40
0.4999982777
 40
0.5315480495
 40
0.5630901413
 40
0.5946169108
 40
0.6261208231
 40
0.6575944927
 40
0.6890307441
 40
0.7204226634
 40
0.7517636353
 40
0.7830473994
 40
0.8142680972
 40
0.8454203083
 40
0.8764990998
 40
0.9075000298
 40
0.9384192726
 40
0.9692536372
 40
1.0
 40
1.0
 40
1.0
 40
1.0
 10
10.5552596893
 20
7.0088608868
 30
0.0
 10
10.545916858
 20
7.0101928939
 30
0.0
 10
10.5272593028
 20
7.0132620242
 30
0.0
 10
10.4994574803
 20
7.0190596895
 30
0.0
 10
10.4718495834
 20
7.0260471974
 30
0.0
 10
10.444488341
 20
7.0342113226
 30
0.0
 10
10.4174251628
 20
7.0435367218
 30
0.0
 10
10.3907110714
 20
7.054005682
 30
0.0
 10
10.3643964009
 20
7.0655984641
 30
0.0
 10
10.3385307892
 20
7.078293282
 30
0.0
 10
10.3131629399
 20
7.0920660989
 30
0.0
 10
10.2883406449
 20
7.1068909245
 30
0.0
 10
10.2641107357
 20
7.1227398917
 30
0.0
 10
10.2405188439
 20
7.1395830649
 30
0.0
 10
10.2176093926
 20
7.157388647
 30
0.0
 10
10.1954256082
 20
7.1761231434
 30
0.0
 10
10.1740092977
 20
7.1957512334
 30
0.0
 10
10.1534007627
 20
7.2162358588
 30
0.0
 10
10.1336388829
 20
7.2375384563
 30
0.0
 10
10.1147609454
 20
7.2596189092
 30
0.0
 10
10.0968024543
 20
7.282435537
 30
0.0
 10
10.079797277
 20
7.3059453597
 30
0.0
 10
10.0637775481
 20
7.3301041243
 30
0.0
 10
10.0487733891
 20
7.3548662461
 30
0.0
 10
10.0348130781
 20
7.38018506
 30
0.0
 10
10.0219230361
 20
7.4060129026
 30
0.0
 10
10.0101275183
 20
7.4323010664
 30
0.0
 10
9.9994487305
 20
7.458999995
 30
0.0
 10
9.9899069109
 20
7.4860594053
 30
0.0
 10
9.9815200656
 20
7.5134282987
 30
0.0
 10
9.9743039444
 20
7.5410550201
 30
0.0
 10
9.9682722187
 20
7.5688877306
 30
0.0
 10
9.9634364984
 20
7.5968731938
 30
0.0
 10
9.9610122213
 20
7.6156256177
 30
0.0
 10
9.9600030819
 20
7.6250088467
 30
0.0
  0
SPLINE
  5
37E
100
AcDbEntity
  8
0
100
AcDbSpline
 62
7
  6
CONTINUOUS
 70
0
 71
3
 72
28
 73
24
 74
0
 42
0.0000001
 43
0.0000001
 44
0.0000000001
 40
0.0
 40
0.0
 40
0.0
 40
0.0
 40
0.0663188078
 40
0.1335199809
 40
0.2013033635
 40
0.2693637459
 40
0.337395201
 40
0.4050916927
 40
0.4721491693
 40
0.5382672294
 40
0.6031509096
 40
0.6665124763
 40
0.7280732529
 40
0.7580946787
 40
0.7875664629
 40
0.8164572428
 40
0.844736463
 40
0.872374705
 40
0.8993435412
 40
0.9256157619
 40
0.9511654219
 40
0.9759678599
 40
1.0
 40
1.0
 40
1.0
 40
1.0
 10
14.7798072224
 20
10.3786602628
 30
0.0
 10
14.7798072224
 20
10.3631407723
 30
0.0
 10
14.7795152108
 20
10.3318946111
 30
0.0
 10
14.778229048
 20
10.2848021461
 30
0.0
 10
14.77609729
 20
10.2373323025
 30
0.0
 10
14.7731300529
 20
10.1897127518
 30
0.0
 10
14.769341576
 20
10.1421718732
 30
0.0
 10
14.7647500357
 20
10.0949375881
 30
0.0
 10
14.7593775211
 20
10.04823636
 30
0.0
 10
14.7532499005
 20
10.002292081
 30
0.0
 10
14.7463967197
 20
9.9573249164
 30
0.0
 10
14.7388510259
 20
9.9135505082
 30
0.0
 10
14.7319600419
 20
9.8779493723
 30
0.0
 10
14.7261178762
 20
9.8502295653
 30
0.0
 10
14.7216231659
 20
9.8300403265
 30
0.0
 10
14.7169843449
 20
9.8103022835
 30
0.0
 10
14.7122068878
 20
9.7910390835
 30
0.0
 10
14.7072966163
 20
9.7722738166
 30
0.0
 10
14.7022593904
 20
9.7540289711
 30
0.0
 10
14.6971012884
 20
9.7363264091
 30
0.0
 10
14.6918285285
 20
9.7191873093
 30
0.0
 10
14.6864474283
 20
9.7026322672
 30
0.0
 10
14.6827324144
 20
9.6918242928
 30
0.0
 10
14.6808558885
 20
9.6865227589
 30
0.0
  0
SPLINE
  5
37F
100
AcDbEntity
  8
0
100
AcDbSpline
 62
7
  6
CONTINUOUS
 70
0
 71
3
 72
50
 73
46
 74
0
 42
0.0000001
 43
0.0000001
 44
0.0000000001
 40
0.0
 40
0.0
 40
0.0
 40
0.0
 40
0.0055575484
 40
0.0111779922
 40
0.016921945
 40
0.0228458833
 40
0.0290006815
 40
0.0354311436
 40
0.0421756504
 40
0.0492665308
 40
0.0567306759
 40
0.0645898217
 40
0.0728615778
 40
0.0815596977
 40
0.0906946685
 40
0.100274387
 40
0.1103041016
 40
0.1207871917
 40
0.1317251696
 40
0.1431178633
 40
0.1549639321
 40
0.16726054
 40
0.1800039018
 40
0.1931892317
 40
0.2208607128
 40
0.2502207991
 40
0.2812027127
 40
0.3137299142
 40
0.3477173552
 40
0.383072554
 40
0.4196964471
 40
0.4574841188
 40
0.4963254304
 40
0.5361057043
 40
0.5767063272
 40
0.6180053027
 40
0.6598777724
 40
0.7021965482
 40
0.7448326997
 40
0.7876559964
 40
0.8305355066
 40
0.8733402465
 40
0.9159384006
 40
0.9582025777
 40
1.0
 40
1.0
 40
1.0
 40
1.0
 10
7.605063565
 20
11.3247993791
 30
0.0
 10
7.6050635718
 20
11.325650367
 30
0.0
 10
7.6051589127
 20
11.3273634524
 30
0.0
 10
7.605586564
 20
11.3299239331
 30
0.0
 10
7.6062981915
 20
11.3324787165
 30
0.0
 10
7.6072925044
 20
11.3350247938
 30
0.0
 10
7.6085677069
 20
11.3375601729
 30
0.0
 10
7.6101222301
 20
11.3400828393
 30
0.0
 10
7.6119542287
 20
11.342591095
 30
0.0
 10
7.6140618895
 20
11.3450832816
 30
0.0
 10
7.616443416
 20
11.347557628
 30
0.0
 10
7.6190967033
 20
11.3500125324
 30
0.0
 10
7.6220196751
 20
11.3524461479
 30
0.0
 10
7.6252099623
 20
11.3548567054
 30
0.0
 10
7.6286650031
 20
11.357242426
 30
0.0
 10
7.6323820986
 20
11.3596013654
 30
0.0
 10
7.6363582231
 20
11.3619317762
 30
0.0
 10
7.640590223
 20
11.3642317394
 30
0.0
 10
7.6450746893
 20
11.3664994093
 30
0.0
 10
7.6498079836
 20
11.3687330148
 30
0.0
 10
7.6547863079
 20
11.3709306494
 30
0.0
 10
7.6600055941
 20
11.3730906004
 30
0.0
 10
7.665461621
 20
11.3752110915
 30
0.0
 10
7.6731706666
 20
11.3780288796
 30
0.0
 10
7.6833734789
 20
11.3814286787
 30
0.0
 10
7.6962960068
 20
11.3852616231
 30
0.0
 10
7.7100455848
 20
11.3888980386
 30
0.0
 10
7.7245773429
 20
11.3923259027
 30
0.0
 10
7.7398439821
 20
11.3955338694
 30
0.0
 10
7.7557956624
 20
11.3985113151
 30
0.0
 10
7.7723802761
 20
11.4012483786
 30
0.0
 10
7.7895435937
 20
11.4037359903
 30
0.0
 10
7.8072294526
 20
11.405965931
 30
0.0
 10
7.825379954
 20
11.4079308329
 30
0.0
 10
7.8439356663
 20
11.4096242017
 30
0.0
 10
7.8628358204
 20
11.4110404353
 30
0.0
 10
7.8820185032
 20
11.4121748502
 30
0.0
 10
7.9014208681
 20
11.4130237127
 30
0.0
 10
7.9209793402
 20
11.4135842203
 30
0.0
 10
7.9406298347
 20
11.413854523
 30
0.0
 10
7.9603079903
 20
11.4138337215
 30
0.0
 10
7.9799492066
 20
11.4135218675
 30
0.0
 10
7.9994894358
 20
11.4129200481
 30
0.0
 10
8.0188642285
 20
11.4120301673
 30
0.0
 10
8.0317124339
 20
11.4112417327
 30
0.0
 10
8.0380972406
 20
11.4107989449
 30
0.0
  0
SPLINE
  5
380
100
AcDbEntity
  8
0
100
AcDbSpline
 62
7
  6
CONTINUOUS
 70
0
 71
3
 72
54
 73
50
 74
0
 42
0.0000001
 43
0.0000001
 44
0.0000000001
 40
0.0
 40
0.0
 40
0.0
 40
0.0
 40
0.0499774976
 40
0.0993158726
 40
0.1479274444
 40
0.1957330614
 40
0.2426522441
 40
0.2886071664
 40
0.3335224668
 40
0.3773250835
 40
0.4199448324
 40
0.461314559
 40
0.5013703557
 40
0.5400519278
 40
0.5773030155
 40
0.6130716862
 40
0.6473107772
 40
0.6799785629
 40
0.7110394088
 40
0.7259584109
 40
0.7404655449
 40
0.7545583898
 40
0.7682352653
 40
0.7814950226
 40
0.7943371717
 40
0.8067621193
 40
0.8187709677
 40
0.8303657946
 40
0.8415497853
 40
0.8523271309
 40
0.8627034278
 40
0.8726857178
 40
0.8822825588
 40
0.8915044872
 40
0.9003640253
 40
0.9088759518
 40
0.9170577374
 40
0.924929577
 40
0.9325147665
 40
0.9398399583
 40
0.946935137
 40
0.9538337905
 40
0.9605727132
 40
0.9671916183
 40
0.9737326777
 40
0.9802396989
 40
0.9867572426
 40
0.993329631
 40
1.0
 40
1.0
 40
1.0
 40
1.0
 10
15.0823400893
 20
10.3898334119
 30
0.0
 10
15.0823400893
 20
10.4009290774
 30
0.0
 10
15.0822144584
 20
10.4229787393
 30
0.0
 10
15.081642034
 20
10.4558163386
 30
0.0
 10
15.0806876934
 20
10.4881627448
 30
0.0
 10
15.0793533098
 20
10.5199581751
 30
0.0
 10
15.0776413003
 20
10.5511448788
 30
0.0
 10
15.0755548654
 20
10.5816656737
 30
0.0
 10
15.0730978785
 20
10.6114647301
 30
0.0
 10
15.0702748565
 20
10.6404875604
 30
0.0
 10
15.0670910419
 20
10.6686810935
 30
0.0
 10
15.0635523397
 20
10.6959938068
 30
0.0
 10
15.0596652869
 20
10.7223757964
 30
0.0
 10
15.0554370595
 20
10.747778887
 30
0.0
 10
15.0508755074
 20
10.772156749
 30
0.0
 10
15.045989072
 20
10.7954649444
 30
0.0
 10
15.0407867668
 20
10.8176611046
 30
0.0
 10
15.0352781859
 20
10.8387047265
 30
0.0
 10
15.0303774721
 20
10.8554667407
 30
0.0
 10
15.0263005346
 20
10.868262374
 30
0.0
 10
15.0232137419
 20
10.8774183194
 30
0.0
 10
15.0200581162
 20
10.8862585167
 30
0.0
 10
15.016835139
 20
10.8947789761
 30
0.0
 10
15.013546273
 20
10.9029758207
 30
0.0
 10
15.0101929601
 20
10.9108453115
 30
0.0
 10
15.0067768024
 20
10.9183839101
 30
0.0
 10
15.0032992927
 20
10.9255881886
 30
0.0
 10
14.9997619811
 20
10.9324548836
 30
0.0
 10
14.9961665238
 20
10.9389809332
 30
0.0
 10
14.9925144374
 20
10.945163363
 30
0.0
 10
14.9888073636
 20
10.9509994087
 30
0.0
 10
14.9850469643
 20
10.9564864808
 30
0.0
 10
14.9812347657
 20
10.9616220563
 30
0.0
 10
14.9773724622
 20
10.966403871
 30
0.0
 10
14.9734616663
 20
10.9708297663
 30
0.0
 10
14.969503909
 20
10.9748976425
 30
0.0
 10
14.9655008855
 20
10.9786056758
 30
0.0
 10
14.9614541453
 20
10.9819520279
 30
0.0
 10
14.9573652729
 20
10.9849349418
 30
0.0
 10
14.9532359951
 20
10.9875528929
 30
0.0
 10
14.9490679561
 20
10.9898042175
 30
0.0
 10
14.9448630122
 20
10.9916874487
 30
0.0
 10
14.9406231818
 20
10.9932013089
 30
0.0
 10
14.9363505867
 20
10.9943444356
 30
0.0
 10
14.9320476312
 20
10.9951159637
 30
0.0
 10
14.9277168583
 20
10.9955152696
 30
0.0
 10
14.9233607948
 20
10.9955419011
 30
0.0
 10
14.9189824334
 20
10.9951961914
 30
0.0
 10
14.9160769621
 20
10.994722083
 30
0.0
 10
14.914625971
 20
10.9944259077
 30
0.0
  0
SPLINE
  5
381
100
AcDbEntity
  8
0
100
AcDbSpline
 62
7
  6
CONTINUOUS
 70
0
 71
3
 72
50
 73
46
 74
0
 42
0.0000001
 43
0.0000001
 44
0.0000000001
 40
0.0
 40
0.0
 40
0.0
 40
0.0
 40
0.0055575484
 40
0.0111779922
 40
0.016921945
 40
0.0228458833
 40
0.0290006815
 40
0.0354311436
 40
0.0421756504
 40
0.0492665308
 40
0.0567306759
 40
0.0645898217
 40
0.0728615778
 40
0.0815596977
 40
0.0906946685
 40
0.100274387
 40
0.1103041016
 40
0.1207871917
 40
0.1317251696
 40
0.1431178633
 40
0.1549639321
 40
0.16726054
 40
0.1800039018
 40
0.1931892317
 40
0.2208607128
 40
0.2502207991
 40
0.2812027127
 40
0.3137299142
 40
0.3477173552
 40
0.383072554
 40
0.4196964471
 40
0.4574841188
 40
0.4963254304
 40
0.5361057043
 40
0.5767063272
 40
0.6180053027
 40
0.6598777724
 40
0.7021965482
 40
0.7448326997
 40
0.7876559964
 40
0.8305355066
 40
0.8733402465
 40
0.9159384006
 40
0.9582025777
 40
1.0
 40
1.0
 40
1.0
 40
1.0
 10
13.1591372225
 20
10.9396230627
 30
0.0
 10
13.1591372293
 20
10.9404740506
 30
0.0
 10
13.1592325702
 20
10.942187136
 30
0.0
 10
13.1596602216
 20
10.9447476167
 30
0.0
 10
13.160371849
 20
10.9473024001
 30
0.0
 10
13.161366162
 20
10.9498484774
 30
0.0
 10
13.1626413645
 20
10.9523838565
 30
0.0
 10
13.1641958876
 20
10.9549065229
 30
0.0
 10
13.1660278862
 20
10.9574147786
 30
0.0
 10
13.1681355471
 20
10.9599069652
 30
0.0
 10
13.1705170735
 20
10.9623813116
 30
0.0
 10
13.1731703608
 20
10.9648362161
 30
0.0
 10
13.1760933326
 20
10.9672698315
 30
0.0
 10
13.1792836199
 20
10.9696803891
 30
0.0
 10
13.1827386606
 20
10.9720661097
 30
0.0
 10
13.1864557562
 20
10.974425049
 30
0.0
 10
13.1904318806
 20
10.9767554599
 30
0.0
 10
13.1946638805
 20
10.979055423
 30
0.0
 10
13.1991483468
 20
10.9813230929
 30
0.0
 10
13.2038816411
 20
10.9835566985
 30
0.0
 10
13.2088599654
 20
10.985754333
 30
0.0
 10
13.2140792516
 20
10.987914284
 30
0.0
 10
13.2195352785
 20
10.9900347751
 30
0.0
 10
13.2272443241
 20
10.9928525632
 30
0.0
 10
13.2374471364
 20
10.9962523624
 30
0.0
 10
13.2503696643
 20
11.0000853067
 30
0.0
 10
13.2641192423
 20
11.0037217222
 30
0.0
 10
13.2786510004
 20
11.0071495863
 30
0.0
 10
13.2939176396
 20
11.010357553
 30
0.0
 10
13.30986932
 20
11.0133349987
 30
0.0
 10
13.3264539336
 20
11.0160720622
 30
0.0
 10
13.3436172512
 20
11.0185596739
 30
0.0
 10
13.3613031102
 20
11.0207896146
 30
0.0
 10
13.3794536115
 20
11.0227545165
 30
0.0
 10
13.3980093239
 20
11.0244478853
 30
0.0
 10
13.4169094779
 20
11.025864119
 30
0.0
 10
13.4360921608
 20
11.0269985338
 30
0.0
 10
13.4554945256
 20
11.0278473963
 30
0.0
 10
13.4750529977
 20
11.0284079039
 30
0.0
 10
13.4947034922
 20
11.0286782066
 30
0.0
 10
13.5143816478
 20
11.0286574051
 30
0.0
 10
13.5340228642
 20
11.0283455511
 30
0.0
 10
13.5535630933
 20
11.0277437317
 30
0.0
 10
13.5729378861
 20
11.0268538509
 30
0.0
 10
13.5857860914
 20
11.0260654164
 30
0.0
 10
13.5921708982
 20
11.0256226285
 30
0.0
  0
SPLINE
  5
382
100
AcDbEntity
  8
0
100
AcDbSpline
 62
7
  6
CONTINUOUS
 70
0
 71
3
 72
56
 73
52
 74
0
 42
0.0000001
 43
0.0000001
 44
0.0000000001
 40
0.0
 40
0.0
 40
0.0
 40
0.0
 40
0.014971274
 40
0.029945606
 40
0.0449260369
 40
0.0599155706
 40
0.0749171531
 40
0.0899336598
 40
0.104967875
 40
0.1200224737
 40
0.1351000117
 40
0.1502029057
 40
0.1653334193
 40
0.1804936563
 40
0.1956855421
 40
0.2109108165
 40
0.2261710283
 40
0.2414675198
 40
0.2568014272
 40
0.2721736755
 40
0.2875849674
 40
0.3030357913
 40
0.3185264144
 40
0.3340568802
 40
0.3496270191
 40
0.3652364417
 40
0.3808845461
 40
0.3965705269
 40
0.4122933718
 40
0.4280518765
 40
0.4438446507
 40
0.4596701209
 40
0.4755265482
 40
0.4914120331
 40
0.5073245245
 40
0.5232618381
 40
0.5551966919
 40
0.5872017075
 40
0.6192556772
 40
0.6513364178
 40
0.6834212138
 40
0.7154872687
 40
0.7475121591
 40
0.7794742806
 40
0.811353285
 40
0.8431305
 40
0.8747893191
 40
0.9063155631
 40
0.9376978538
 40
0.9689275324
 40
1.0
 40
1.0
 40
1.0
 40
1.0
 10
12.2866577552
 20
8.2531507225
 30
0.0
 10
12.2795152251
 20
8.2462515444
 30
0.0
 10
12.2649527855
 20
8.2327341714
 30
0.0
 10
12.2423181662
 20
8.2133400758
 30
0.0
 10
12.2189214792
 20
8.194852173
 30
0.0
 10
12.1947952566
 20
8.1772964699
 30
0.0
 10
12.1699726363
 20
8.1606969456
 30
0.0
 10
12.1444878476
 20
8.1450764053
 30
0.0
 10
12.1183758739
 20
8.1304564671
 30
0.0
 10
12.0916727291
 20
8.1168571143
 30
0.0
 10
12.0644151497
 20
8.1042970574
 30
0.0
 10
12.0366406031
 20
8.0927936717
 30
0.0
 10
12.0083873757
 20
8.0823626117
 30
0.0
 10
11.9796943076
 20
8.0730182995
 30
0.0
 10
11.9506008755
 20
8.0647736044
 30
0.0
 10
11.9211471445
 20
8.0576397098
 30
0.0
 10
11.8913736003
 20
8.0516265527
 30
0.0
 10
11.86132122
 20
8.0467423246
 30
0.0
 10
11.8310313512
 20
8.0429936408
 30
0.0
 10
11.8005456399
 20
8.0403857955
 30
0.0
 10
11.7699060319
 20
8.0389222177
 30
0.0
 10
11.7391546603
 20
8.0386049009
 30
0.0
 10
11.7083338188
 20
8.0394343815
 30
0.0
 10
11.6774858866
 20
8.0414093314
 30
0.0
 10
11.6466532827
 20
8.0445270976
 30
0.0
 10
11.6158784115
 20
8.0487834152
 30
0.0
 10
11.5852035637
 20
8.0541722684
 30
0.0
 10
11.554670935
 20
8.0606863667
 30
0.0
 10
11.5243224969
 20
8.0683166889
 30
0.0
 10
11.4941999446
 20
8.0770526426
 30
0.0
 10
11.4643447307
 20
8.0868823543
 30
0.0
 10
11.4347978682
 20
8.0977921721
 30
0.0
 10
11.4055999342
 20
8.109767097
 30
0.0
 10
11.3767912282
 20
8.1227906993
 30
0.0
 10
11.3484108622
 20
8.1368451872
 30
0.0
 10
11.31117318
 20
8.1569441195
 30
0.0
 10
11.2658947708
 20
8.1845489209
 30
0.0
 10
11.2139279399
 20
8.2214279927
 30
0.0
 10
11.1645681452
 20
8.2618847149
 30
0.0
 10
11.1180880838
 20
8.3056959693
 30
0.0
 10
11.0747423983
 20
8.3526215462
 30
0.0
 10
11.0347691191
 20
8.4024037816
 30
0.0
 10
10.9983876845
 20
8.4547694963
 30
0.0
 10
10.9657980022
 20
8.5094313751
 30
0.0
 10
10.9371792451
 20
8.5660895112
 30
0.0
 10
10.9126887878
 20
8.6244329495
 30
0.0
 10
10.8924615029
 20
8.6841416024
 30
0.0
 10
10.8766089972
 20
8.7448874572
 30
0.0
 10
10.865218992
 20
8.8063380822
 30
0.0
 10
10.8583544236
 20
8.8681516723
 30
0.0
 10
10.856816922
 20
8.909492679
 30
0.0
 10
10.856816922
 20
8.9301031133
 30
0.0
  0
SPLINE
  5
383
100
AcDbEntity
  8
0
100
AcDbSpline
 62
7
  6
CONTINUOUS
 70
0
 71
3
 72
54
 73
50
 74
0
 42
0.0000001
 43
0.0000001
 44
0.0000000001
 40
0.0
 40
0.0
 40
0.0
 40
0.0
 40
0.0149619973
 40
0.0299313383
 40
0.0449108634
 40
0.0599033506
 40
0.0749115064
 40
0.0899379452
 40
0.1049851744
 40
0.1200555867
 40
0.1351514376
 40
0.1502748408
 40
0.1654277556
 40
0.1806119708
 40
0.1958291065
 40
0.211080596
 40
0.2263676837
 40
0.2416914232
 40
0.2570526627
 40
0.2724520537
 40
0.2878900417
 40
0.3033668646
 40
0.3188825615
 40
0.3344369612
 40
0.3500296963
 40
0.3656602015
 40
0.3813277139
 40
0.3970312893
 40
0.4285371084
 40
0.4601714439
 40
0.4919206529
 40
0.5237688454
 40
0.5556982147
 40
0.5876893943
 40
0.619721837
 40
0.6517742116
 40
0.6838248094
 40
0.7158519556
 40
0.7478344192
 40
0.7797518193
 40
0.8115850187
 40
0.8433165
 40
0.8749307183
 40
0.8906920254
 40
0.9064192472
 40
0.9221111659
 40
0.9377667345
 40
0.968960095
 40
1.0
 40
1.0
 40
1.0
 40
1.0
 10
12.2857656844
 20
8.2541334725
 30
0.0
 10
12.278399145
 20
8.247819978
 30
0.0
 10
12.2634156597
 20
8.2354746139
 30
0.0
 10
12.2402337657
 20
8.2178372206
 30
0.0
 10
12.2163697696
 20
8.2010990783
 30
0.0
 10
12.1918555106
 20
8.1852824284
 30
0.0
 10
12.166723066
 20
8.1704078828
 30
0.0
 10
12.1410053734
 20
8.1564951319
 30
0.0
 10
12.1147362864
 20
8.1435622222
 30
0.0
 10
12.0879502131
 20
8.1316262567
 30
0.0
 10
12.0606823297
 20
8.1207028565
 30
0.0
 10
12.0329684607
 20
8.1108062322
 30
0.0
 10
12.0048449103
 20
8.10194955
 30
0.0
 10
11.9763486494
 20
8.0941442166
 30
0.0
 10
11.9475170398
 20
8.0874005506
 30
0.0
 10
11.91838791
 20
8.081727422
 30
0.0
 10
11.8889995065
 20
8.0771320885
 30
0.0
 10
11.8593903545
 20
8.0736207697
 30
0.0
 10
11.8295993211
 20
8.0711978871
 30
0.0
 10
11.7996654782
 20
8.0698666287
 30
0.0
 10
11.7696280915
 20
8.0696288305
 30
0.0
 10
11.7395265592
 20
8.0704845827
 30
0.0
 10
11.7094003637
 20
8.0724329381
 30
0.0
 10
11.6792890222
 20
8.0754712136
 30
0.0
 10
11.6492319812
 20
8.0795953757
 30
0.0
 10
11.6192688047
 20
8.0848001198
 30
0.0
 10
11.5894382923
 20
8.0910785461
 30
0.0
 10
11.5498552601
 20
8.1008797939
 30
0.0
 10
11.5009023009
 20
8.1157804831
 30
0.0
 10
11.4433843316
 20
8.1377686996
 30
0.0
 10
11.3873198012
 20
8.1637703616
 30
0.0
 10
11.3330041511
 20
8.1936484827
 30
0.0
 10
11.2807211289
 20
8.2272464449
 30
0.0
 10
11.2307445365
 20
8.2643881154
 30
0.0
 10
11.1833359089
 20
8.3048788866
 30
0.0
 10
11.1387433836
 20
8.3485066467
 30
0.0
 10
11.0972004022
 20
8.395042958
 30
0.0
 10
11.0589245158
 20
8.4442442036
 30
0.0
 10
11.0241162442
 20
8.4958529081
 30
0.0
 10
10.9929580011
 20
8.5495987857
 30
0.0
 10
10.9656130146
 20
8.6052010496
 30
0.0
 10
10.9422252796
 20
8.6623667313
 30
0.0
 10
10.9261172874
 20
8.7111151227
 30
0.0
 10
10.9153288123
 20
8.7505923289
 30
0.0
 10
10.9083006587
 20
8.7803741777
 30
0.0
 10
10.9023378543
 20
8.8103175811
 30
0.0
 10
10.8958269117
 20
8.8503523757
 30
0.0
 10
10.8903763799
 20
8.9006078126
 30
0.0
 10
10.8889104566
 20
8.9409757724
 30
0.0
 10
10.8889104566
 20
8.961103089
 30
0.0
  0
SPLINE
  5
384
100
AcDbEntity
  8
0
100
AcDbSpline
 62
7
  6
CONTINUOUS
 70
0
 71
3
 72
26
 73
22
 74
0
 42
0.0000001
 43
0.0000001
 44
0.0000000001
 40
0.0
 40
0.0
 40
0.0
 40
0.0
 40
0.0762051652
 40
0.1512745741
 40
0.2250387894
 40
0.2973396202
 40
0.3680191481
 40
0.436925867
 40
0.5039135221
 40
0.5688420805
 40
0.6315783828
 40
0.6919968236
 40
0.7499801967
 40
0.8054206789
 40
0.8582209446
 40
0.8836045086
 40
0.9082969454
 40
0.9322897878
 40
0.9555754227
 40
0.9781472502
 40
1.0
 40
1.0
 40
1.0
 40
1.0
 10
14.8545793296
 20
10.3898333989
 30
0.0
 10
14.8545793296
 20
10.4015661104
 30
0.0
 10
14.854428032
 20
10.4248569822
 30
0.0
 10
14.853737393
 20
10.459498583
 30
0.0
 10
14.8525861894
 20
10.4935265991
 30
0.0
 10
14.8509773339
 20
10.5268594568
 30
0.0
 10
14.8489146522
 20
10.5594180638
 30
0.0
 10
14.8464031656
 20
10.5911247038
 30
0.0
 10
14.8434489462
 20
10.6219038972
 30
0.0
 10
14.8400591469
 20
10.6516823598
 30
0.0
 10
14.8362419693
 20
10.6803892354
 30
0.0
 10
14.8320066411
 20
10.7079562411
 30
0.0
 10
14.827363404
 20
10.7343179339
 30
0.0
 10
14.8223234601
 20
10.7594115806
 30
0.0
 10
14.8177450717
 20
10.7794717421
 30
0.0
 10
14.8138810405
 20
10.7948327722
 30
0.0
 10
14.8109295441
 20
10.8058485065
 30
0.0
 10
14.8078883406
 20
10.8165043223
 30
0.0
 10
14.8047592043
 20
10.8267939248
 30
0.0
 10
14.8015439833
 20
10.8367111381
 30
0.0
 10
14.7993080609
 20
10.8431756379
 30
0.0
 10
14.7981746889
 20
10.8463434927
 30
0.0
  0
SPLINE
  5
385
100
AcDbEntity
  8
0
100
AcDbSpline
 62
7
  6
CONTINUOUS
 70
0
 71
3
 72
54
 73
50
 74
0
 42
0.0000001
 43
0.0000001
 44
0.0000000001
 40
0.0
 40
0.0
 40
0.0
 40
0.0
 40
0.0149714207
 40
0.0299458999
 40
0.0449264793
 40
0.0599161604
 40
0.0749178913
 40
0.0899345475
 40
0.1049689107
 40
0.1200236594
 40
0.1351013478
 40
0.1502043907
 40
0.1653350561
 40
0.180495444
 40
0.1956874801
 40
0.2109129079
 40
0.2261732709
 40
0.2414699147
 40
0.2568039766
 40
0.2721763764
 40
0.287587823
 40
0.3030388016
 40
0.3185295773
 40
0.3340601996
 40
0.3496304929
 40
0.3652400701
 40
0.3808883319
 40
0.3965744671
 40
0.4122974687
 40
0.4280561307
 40
0.4438490599
 40
0.4596746883
 40
0.4914119508
 40
0.5232571585
 40
0.5551923278
 40
0.5871976583
 40
0.6192519434
 40
0.6513329994
 40
0.6834181104
 40
0.71548448
 40
0.7475096843
 40
0.7794721186
 40
0.8113514354
 40
0.8431289619
 40
0.8747880915
 40
0.9063146418
 40
0.937697247
 40
0.9689272244
 40
1.0
 40
1.0
 40
1.0
 40
1.0
 10
12.2955104186
 20
8.3270471559
 30
0.0
 10
12.2887577852
 20
8.3205246035
 30
0.0
 10
12.2749901928
 20
8.3077452385
 30
0.0
 10
12.2535911709
 20
8.28940985
 30
0.0
 10
12.2314715993
 20
8.2719312854
 30
0.0
 10
12.2086623371
 20
8.2553340187
 30
0.0
 10
12.1851947465
 20
8.2396406562
 30
0.0
 10
12.1611010551
 20
8.2248729668
 30
0.0
 10
12.1364144805
 20
8.2110511599
 30
0.0
 10
12.1111690087
 20
8.1981942171
 30
0.0
 10
12.0853993177
 20
8.1863199551
 30
0.0
 10
12.059140951
 20
8.1754445278
 30
0.0
 10
12.0324299987
 20
8.1655829773
 30
0.0
 10
12.0053032125
 20
8.1567488842
 30
0.0
 10
11.9777979603
 20
8.1489542404
 30
0.0
 10
11.9499520372
 20
8.1422099212
 30
0.0
 10
11.9218037842
 20
8.1365250789
 30
0.0
 10
11.8933919253
 20
8.131907477
 30
0.0
 10
11.8647555234
 20
8.1283635981
 30
0.0
 10
11.8359339917
 20
8.1258981123
 30
0.0
 10
11.8069669586
 20
8.1245144856
 30
0.0
 10
11.7778942675
 20
8.1242146341
 30
0.0
 10
11.7487558979
 20
8.1249987986
 30
0.0
 10
11.7195919237
 20
8.1268660532
 30
0.0
 10
11.6904424452
 20
8.1298137073
 30
0.0
 10
11.6613475332
 20
8.1338376486
 30
0.0
 10
11.6323472134
 20
8.1389324781
 30
0.0
 10
11.6034813349
 20
8.1450909916
 30
0.0
 10
11.5747895659
 20
8.1523048086
 30
0.0
 10
11.5463114809
 20
8.1605639782
 30
0.0
 10
11.5180857491
 20
8.1698571891
 30
0.0
 10
11.48080915
 20
8.1836210946
 30
0.0
 10
11.4350393739
 20
8.203351049
 30
0.0
 10
11.3817980352
 20
8.2308986697
 30
0.0
 10
11.3304701096
 20
8.2621920583
 30
0.0
 10
11.2813391164
 20
8.2970585054
 30
0.0
 10
11.2346741206
 20
8.3353066371
 30
0.0
 10
11.1907313613
 20
8.3767264017
 30
0.0
 10
11.1497519292
 20
8.4210903845
 30
0.0
 10
11.1119607648
 20
8.4681550788
 30
0.0
 10
11.0775653913
 20
8.5176622281
 30
0.0
 10
11.0467548121
 20
8.5693402107
 30
0.0
 10
11.0196983443
 20
8.622905447
 30
0.0
 10
10.99654481
 20
8.6780639839
 30
0.0
 10
10.9774217412
 20
8.7345132121
 30
0.0
 10
10.9624346368
 20
8.7919430239
 30
0.0
 10
10.9516664113
 20
8.8500391226
 30
0.0
 10
10.945176574
 20
8.9084783751
 30
0.0
 10
10.9437230078
 20
8.9475626168
 30
0.0
 10
10.9437230078
 20
8.967047951
 30
0.0
  0
SPLINE
  5
386
100
AcDbEntity
  8
0
100
AcDbSpline
 62
7
  6
CONTINUOUS
 70
0
 71
3
 72
52
 73
48
 74
0
 42
0.0000001
 43
0.0000001
 44
0.0000000001
 40
0.0
 40
0.0
 40
0.0
 40
0.0
 40
0.0149610471
 40
0.029930214
 40
0.0449103006
 40
0.0599040411
 40
0.074914092
 40
0.0899430187
 40
0.104993275
 40
0.1200671974
 40
0.1351669876
 40
0.1502946995
 40
0.1654522359
 40
0.1806413286
 40
0.1958635382
 40
0.2111202446
 40
0.2264126346
 40
0.2417417088
 40
0.2571082651
 40
0.2725129032
 40
0.2879560242
 40
0.3034378205
 40
0.3189582897
 40
0.3345172248
 40
0.3501142212
 40
0.3657486843
 40
0.3814198232
 40
0.3971266686
 40
0.4286379342
 40
0.4602760954
 40
0.4920274469
 40
0.5238760918
 40
0.5558042671
 40
0.5877926958
 40
0.6198209608
 40
0.6518678955
 40
0.6839119828
 40
0.7159317588
 40
0.7479062163
 40
0.7798152025
 40
0.8116398046
 40
0.8433627191
 40
0.8749685974
 40
0.9064443544
 40
0.9377795441
 40
0.9689661463
 40
1.0
 40
1.0
 40
1.0
 40
1.0
 10
12.3295790315
 20
8.3624203255
 30
0.0
 10
12.3225789017
 20
8.3565561595
 30
0.0
 10
12.3083467189
 20
8.3450939058
 30
0.0
 10
12.2863449862
 20
8.3287323985
 30
0.0
 10
12.2637124503
 20
8.3132191583
 30
0.0
 10
12.2404788948
 20
8.2985748082
 30
0.0
 10
12.2166745379
 20
8.2848181213
 30
0.0
 10
12.1923302738
 20
8.2719671723
 30
0.0
 10
12.167477815
 20
8.2600385637
 30
0.0
 10
12.1421494975
 20
8.2490477648
 30
0.0
 10
12.1163782053
 20
8.2390092002
 30
0.0
 10
12.0901975316
 20
8.2299357126
 30
0.0
 10
12.0636414673
 20
8.2218392405
 30
0.0
 10
12.0367445685
 20
8.2147302423
 30
0.0
 10
12.0095418264
 20
8.2086178604
 30
0.0
 10
11.9820685746
 20
8.2035102064
 30
0.0
 10
11.9543605719
 20
8.1994136986
 30
0.0
 10
11.9264538187
 20
8.1963337703
 30
0.0
 10
11.8983846005
 20
8.1942744036
 30
0.0
 10
11.8701894099
 20
8.1932381282
 30
0.0
 10
11.8419048913
 20
8.1932264735
 30
0.0
 10
11.8135678111
 20
8.1942392477
 30
0.0
 10
11.7852149952
 20
8.1962751996
 30
0.0
 10
11.7568833091
 20
8.1993317118
 30
0.0
 10
11.7286095202
 20
8.2034046433
 30
0.0
 10
11.7004305132
 20
8.208488846
 30
0.0
 10
11.6723824574
 20
8.2145776846
 30
0.0
 10
11.6351728478
 20
8.2240339492
 30
0.0
 10
11.5891692778
 20
8.2383318995
 30
0.0
 10
11.5351358608
 20
8.2593291313
 30
0.0
 10
11.482485556
 20
8.2840772824
 30
0.0
 10
11.4314933092
 20
8.3124471538
 30
0.0
 10
11.3824231087
 20
8.3442913975
 30
0.0
 10
11.3355296173
 20
8.3794445871
 30
0.0
 10
11.2910560065
 20
8.4177241789
 30
0.0
 10
11.2492329632
 20
8.4589314716
 30
0.0
 10
11.2102774614
 20
8.5028526497
 30
0.0
 10
11.1743916706
 20
8.5492598767
 30
0.0
 10
11.1417618926
 20
8.5979124438
 30
0.0
 10
11.1125575484
 20
8.6485579748
 30
0.0
 10
11.0869303828
 20
8.7009337877
 30
0.0
 10
11.0650136666
 20
8.7547681918
 30
0.0
 10
11.0469215417
 20
8.8097820013
 30
0.0
 10
11.032748282
 20
8.8656895147
 30
0.0
 10
11.0225680334
 20
8.9222015097
 30
0.0
 10
11.0164339559
 20
8.9790208824
 30
0.0
 10
11.0150604485
 20
9.0170123894
 30
0.0
 10
11.0150604485
 20
9.0359546315
 30
0.0
  0
SPLINE
  5
387
100
AcDbEntity
  8
0
100
AcDbSpline
 62
7
  6
CONTINUOUS
 70
0
 71
3
 72
51
 73
47
 74
0
 42
0.0000001
 43
0.0000001
 44
0.0000000001
 40
0.0
 40
0.0
 40
0.0
 40
0.0
 40
0.0149716491
 40
0.0299463579
 40
0.0449271649
 40
0.0599170755
 40
0.0749190358
 40
0.0899359201
 40
0.1049705142
 40
0.1200254921
 40
0.1351034104
 40
0.150206685
 40
0.16533758
 40
0.1804982002
 40
0.1956904684
 40
0.2109161278
 40
0.2261767248
 40
0.2414736015
 40
0.2568078978
 40
0.2721805325
 40
0.2875922139
 40
0.3030434288
 40
0.3185344409
 40
0.3340653005
 40
0.3496358313
 40
0.365245647
 40
0.396575363
 40
0.4280524198
 40
0.4596664386
 40
0.4914041857
 40
0.523249879
 40
0.5551855359
 40
0.5871913555
 40
0.61924613
 40
0.6513276757
 40
0.6834132767
 40
0.7154801359
 40
0.7475058287
 40
0.7794687512
 40
0.8113485552
 40
0.843126567
 40
0.8747861806
 40
0.9063132067
 40
0.9376963039
 40
0.9689267485
 40
1.0
 40
1.0
 40
1.0
 40
1.0
 10
12.3319736184
 20
8.4734942063
 30
0.0
 10
12.3258846286
 20
8.4676126973
 30
0.0
 10
12.3134701793
 20
8.4560892212
 30
0.0
 10
12.2941742
 20
8.4395558987
 30
0.0
 10
12.2742285469
 20
8.4237951266
 30
0.0
 10
12.2536610198
 20
8.4088289852
 30
0.0
 10
12.2324997684
 20
8.3946780555
 30
0.0
 10
12.2107740569
 20
8.3813616571
 30
0.0
 10
12.1885136615
 20
8.3688982905
 30
0.0
 10
12.1657493028
 20
8.3573049616
 30
0.0
 10
12.1425122936
 20
8.3465976274
 30
0.0
 10
12.118834569
 20
8.336791117
 30
0.0
 10
12.0947487909
 20
8.3278987117
 30
0.0
 10
12.070288026
 20
8.319932836
 30
0.0
 10
12.0454859814
 20
8.3129042944
 30
0.0
 10
12.0203767737
 20
8.3068227437
 30
0.0
 10
11.9949949235
 20
8.3016966577
 30
0.0
 10
11.9693753883
 20
8.2975328572
 30
0.0
 10
11.9435533756
 20
8.2943372598
 30
0.0
 10
11.9175644254
 20
8.2921141092
 30
0.0
 10
11.8914442752
 20
8.2908664361
 30
0.0
 10
11.865228856
 20
8.2905960738
 30
0.0
 10
11.8389541887
 20
8.2913031642
 30
0.0
 10
11.8126565256
 20
8.2929868951
 30
0.0
 10
11.7863715893
 20
8.295644909
 30
0.0
 10
11.7513522165
 20
8.3004881138
 30
0.0
 10
11.7077863556
 20
8.30896613
 30
0.0
 10
11.6562089288
 20
8.3229324956
 30
0.0
 10
11.6055436954
 20
8.3406279602
 30
0.0
 10
11.5560706415
 20
8.3619546775
 30
0.0
 10
11.5080607572
 20
8.3867952486
 30
0.0
 10
11.4617776348
 20
8.4150130152
 30
0.0
 10
11.4174751784
 20
8.4464528362
 30
0.0
 10
11.3753964618
 20
8.4809419506
 30
0.0
 10
11.3357723745
 20
8.5182909546
 30
0.0
 10
11.2988203814
 20
8.558294818
 30
0.0
 10
11.2647433526
 20
8.6007340041
 30
0.0
 10
11.2337283936
 20
8.6453756081
 30
0.0
 10
11.2059458671
 20
8.6919746638
 30
0.0
 10
11.1815484868
 20
8.7402754911
 30
0.0
 10
11.1606704764
 20
8.7900130402
 30
0.0
 10
11.1434268622
 20
8.8409144422
 30
0.0
 10
11.1299126819
 20
8.8927000475
 30
0.0
 10
11.1202027556
 20
8.945086454
 30
0.0
 10
11.1143507306
 20
8.9977822926
 30
0.0
 10
11.1130400257
 20
9.0330253267
 30
0.0
 10
11.1130400257
 20
9.0505956411
 30
0.0
  0
SPLINE
  5
388
100
AcDbEntity
  8
0
100
AcDbSpline
 62
7
  6
CONTINUOUS
 70
0
 71
3
 72
43
 73
39
 74
0
 42
0.0000001
 43
0.0000001
 44
0.0000000001
 40
0.0
 40
0.0
 40
0.0
 40
0.0
 40
0.0303546533
 40
0.0455762998
 40
0.0608269262
 40
0.0914129705
 40
0.1221164224
 40
0.1375134317
 40
0.1529393846
 40
0.1838739266
 40
0.214919378
 40
0.2460708837
 40
0.2773223494
 40
0.308666524
 40
0.3400950931
 40
0.3715987822
 40
0.4031674683
 40
0.4347902991
 40
0.4664558181
 40
0.498152095
 40
0.5298668594
 40
0.5615876366
 40
0.5933018857
 40
0.6249971377
 40
0.6566611335
 40
0.6882819595
 40
0.7198481816
 40
0.751348975
 40
0.7827742499
 40
0.8141147668
 40
0.8453622619
 40
0.8609502127
 40
0.8765122856
 40
0.9075533163
 40
0.9384830736
 40
0.953906511
 40
0.9693015419
 40
1.0
 40
1.0
 40
1.0
 40
1.0
 10
12.5155291008
 20
8.8316388059
 30
0.0
 10
12.5026980503
 20
8.8299512643
 30
0.0
 10
12.4833552666
 20
8.827962566
 30
0.0
 10
12.4574669438
 20
8.826397063
 30
0.0
 10
12.4314456454
 20
8.8255522079
 30
0.0
 10
12.3987968273
 20
8.8258575786
 30
0.0
 10
12.3661526949
 20
8.8279700699
 30
0.0
 10
12.3400648337
 20
8.830738291
 30
0.0
 10
12.3139646764
 20
8.8342309768
 30
0.0
 10
12.2814434013
 20
8.8399438409
 30
0.0
 10
12.2427459706
 20
8.8489200808
 30
0.0
 10
12.2044554463
 20
8.8599963762
 30
0.0
 10
12.1666894535
 20
8.8731386975
 30
0.0
 10
12.1295630617
 20
8.8883068465
 30
0.0
 10
12.093189633
 20
8.9054544229
 30
0.0
 10
12.057680157
 20
8.9245290082
 30
0.0
 10
12.0231430023
 20
8.9454723158
 30
0.0
 10
11.9896835608
 20
8.9682203647
 30
0.0
 10
11.9574039337
 20
8.9927036748
 30
0.0
 10
11.9264026238
 20
9.0188474845
 30
0.0
 10
11.8967742372
 20
9.0465719771
 30
0.0
 10
11.868609196
 20
9.0757925229
 30
0.0
 10
11.8419934652
 20
9.1064199362
 30
0.0
 10
11.8170082912
 20
9.1383607452
 30
0.0
 10
11.7937299555
 20
9.171517477
 30
0.0
 10
11.7722295441
 20
9.205788947
 30
0.0
 10
11.7525727279
 20
9.2410705877
 30
0.0
 10
11.7348195712
 20
9.2772546795
 30
0.0
 10
11.719024287
 20
9.3142309864
 30
0.0
 10
11.7052353254
 20
9.3518859564
 30
0.0
 10
11.695443201
 20
9.3837628538
 30
0.0
 10
11.6886543495
 20
9.4094877237
 30
0.0
 10
11.6825761084
 20
9.435299311
 30
0.0
 10
11.6762957839
 20
9.4677702244
 30
0.0
 10
11.6717870709
 20
9.5004746931
 30
0.0
 10
11.6692600889
 20
9.526682192
 30
0.0
 10
11.6674568763
 20
9.5528498476
 30
0.0
 10
11.6669123251
 20
9.5725071044
 30
0.0
 10
11.6669123251
 20
9.5855952313
 30
0.0
  0
SPLINE
  5
389
100
AcDbEntity
  8
0
100
AcDbSpline
 62
7
  6
CONTINUOUS
 70
0
 71
3
 72
43
 73
39
 74
0
 42
0.0000001
 43
0.0000001
 44
0.0000000001
 40
0.0
 40
0.0
 40
0.0
 40
0.0
 40
0.0303720674
 40
0.0456023289
 40
0.0608614746
 40
0.0914641528
 40
0.1221834091
 40
0.1375879069
 40
0.1530210521
 40
0.183969021
 40
0.2150264207
 40
0.2461882512
 40
0.2774483092
 40
0.3087992706
 40
0.3402327842
 40
0.3717395734
 40
0.4033095463
 40
0.4349319123
 40
0.4665953037
 40
0.4982879033
 40
0.529997574
 40
0.5617119927
 40
0.5934187849
 40
0.6251056597
 40
0.6567605436
 40
0.688371713
 40
0.719927923
 40
0.7356833926
 40
0.7514211919
 40
0.7828362907
 40
0.8141668042
 40
0.8454046212
 40
0.8765426362
 40
0.9075750392
 40
0.938496777
 40
0.9539165033
 40
0.9693080603
 40
1.0
 40
1.0
 40
1.0
 40
1.0
 10
12.5153302965
 20
8.8892894987
 30
0.0
 10
12.5033377579
 20
8.887856547
 30
0.0
 10
12.4852657887
 20
8.8862104792
 30
0.0
 10
12.4610904527
 20
8.8850220511
 30
0.0
 10
12.4367990993
 20
8.8845020839
 30
0.0
 10
12.4063354654
 20
8.8851135493
 30
0.0
 10
12.375893703
 20
8.8873978584
 30
0.0
 10
12.3515757496
 20
8.8902230879
 30
0.0
 10
12.3272532979
 20
8.8937192584
 30
0.0
 10
12.2969588482
 20
8.8993352927
 30
0.0
 10
12.2609279369
 20
8.9080351469
 30
0.0
 10
12.225291817
 20
8.9186757994
 30
0.0
 10
12.1901585361
 20
8.9312250213
 30
0.0
 10
12.1556337431
 20
8.9456449218
 30
0.0
 10
12.1218214775
 20
8.9618919621
 30
0.0
 10
12.0888235636
 20
8.9799171224
 30
0.0
 10
12.0567393864
 20
8.9996660398
 30
0.0
 10
12.0256655736
 20
9.0210791745
 30
0.0
 10
11.9956957129
 20
9.0440919872
 30
0.0
 10
11.9669200713
 20
9.0686351322
 30
0.0
 10
11.9394253259
 20
9.0946346671
 30
0.0
 10
11.9132942923
 20
9.1220122551
 30
0.0
 10
11.8886056771
 20
9.1506854315
 30
0.0
 10
11.8654338789
 20
9.1805677872
 30
0.0
 10
11.8438486375
 20
9.2115694705
 30
0.0
 10
11.8239153028
 20
9.2435965453
 30
0.0
 10
11.8087220053
 20
9.2710759836
 30
0.0
 10
11.7974520839
 20
9.2934755025
 30
0.0
 10
11.7867916899
 20
9.3161094083
 30
0.0
 10
11.7745995541
 20
9.3448561311
 30
0.0
 10
11.7618215561
 20
9.3799954721
 30
0.0
 10
11.7509424788
 20
9.4156537672
 30
0.0
 10
11.7419953823
 20
9.4517232246
 30
0.0
 10
11.7350074351
 20
9.4880945904
 30
0.0
 10
11.7308302183
 20
9.5185947477
 30
0.0
 10
11.7284891233
 20
9.5430345371
 30
0.0
 10
11.7268185681
 20
9.5674370942
 30
0.0
 10
11.7263140881
 20
9.5857678856
 30
0.0
 10
11.7263140881
 20
9.5979729317
 30
0.0
  0
SPLINE
  5
38A
100
AcDbEntity
  8
0
100
AcDbSpline
 62
7
  6
CONTINUOUS
 70
0
 71
3
 72
20
 73
16
 74
0
 42
0.0000001
 43
0.0000001
 44
0.0000000001
 40
0.0
 40
0.0
 40
0.0
 40
0.0
 40
0.1405840015
 40
0.2779087567
 40
0.4113435594
 40
0.4764114057
 40
0.5402804926
 40
0.6028794673
 40
0.6641389046
 40
0.7239918481
 40
0.7823738523
 40
0.8392229693
 40
0.8944804198
 40
0.9480902031
 40
1.0
 40
1.0
 40
1.0
 40
1.0
 10
14.7798072224
 20
10.3786602628
 30
0.0
 10
14.7798072224
 20
10.3942538213
 30
0.0
 10
14.7795178252
 20
10.4250803527
 30
0.0
 10
14.7781881696
 20
10.4706900189
 30
0.0
 10
14.7763283324
 20
10.5078966966
 30
0.0
 10
14.7743882189
 20
10.5369347223
 30
0.0
 10
14.7727280019
 20
10.5581153965
 30
0.0
 10
14.7708527207
 20
10.5788540042
 30
0.0
 10
14.7687646782
 20
10.5991245361
 30
0.0
 10
14.7664665384
 20
10.6189015421
 30
0.0
 10
14.7639612311
 20
10.6381602102
 30
0.0
 10
14.7612518711
 20
10.6568763775
 30
0.0
 10
14.7583419644
 20
10.675026594
 30
0.0
 10
14.7552351162
 20
10.6925880277
 30
0.0
 10
14.7529985171
 20
10.7040773062
 30
0.0
 10
14.751845613
 20
10.7097185287
 30
0.0
  0
SPLINE
  5
38B
100
AcDbEntity
  8
0
100
AcDbSpline
 62
7
  6
CONTINUOUS
 70
0
 71
3
 72
39
 73
35
 74
0
 42
0.0000001
 43
0.0000001
 44
0.0000000001
 40
0.0
 40
0.0
 40
0.0
 40
0.0
 40
0.0307219217
 40
0.0615350692
 40
0.0924369177
 40
0.1234242547
 40
0.1544932092
 40
0.1856392984
 40
0.2168574598
 40
0.2481420849
 40
0.2794870753
 40
0.3108858912
 40
0.3423315924
 40
0.3738168946
 40
0.4053342312
 40
0.4368758009
 40
0.4684336224
 40
0.4999996026
 40
0.5315655899
 40
0.5631234274
 40
0.5946650197
 40
0.6261823925
 40
0.6576677414
 40
0.6891134943
 40
0.7205123724
 40
0.7518574371
 40
0.7831421408
 40
0.8143603846
 40
0.8455065714
 40
0.876575631
 40
0.9075630434
 40
0.9384650515
 40
0.9692783283
 40
1.0
 40
1.0
 40
1.0
 40
1.0
 10
12.493940111
 20
9.0222741206
 30
0.0
 10
12.4840242356
 20
9.0234867024
 30
0.0
 10
12.4642140344
 20
9.026355204
 30
0.0
 10
12.4346755762
 20
9.0319654306
 30
0.0
 10
12.4053254619
 20
9.0388788163
 30
0.0
 10
12.376223072
 20
9.0470814738
 30
0.0
 10
12.3474262766
 20
9.0565569317
 30
0.0
 10
12.3189926052
 20
9.0672862175
 30
0.0
 10
12.2909788288
 20
9.079247962
 30
0.0
 10
12.2634408617
 20
9.0924182313
 30
0.0
 10
12.2364336373
 20
9.1067706509
 30
0.0
 10
12.2100110745
 20
9.1222765856
 30
0.0
 10
12.1842259459
 20
9.1389051182
 30
0.0
 10
12.1591296675
 20
9.1566229617
 30
0.0
 10
12.1347723193
 20
9.1753947335
 30
0.0
 10
12.1112025704
 20
9.1951830223
 30
0.0
 10
12.0884674429
 20
9.2159482891
 30
0.0
 10
12.0666122756
 20
9.2376490395
 30
0.0
 10
12.0456807244
 20
9.2602419911
 30
0.0
 10
12.0257146154
 20
9.2836820801
 30
0.0
 10
12.0067537394
 20
9.30792246
 30
0.0
 10
11.9888359475
 20
9.3329147523
 30
0.0
 10
11.97199709
 20
9.3586091259
 30
0.0
 10
11.9562707522
 20
9.3849542659
 30
0.0
 10
11.9416882975
 20
9.411897568
 30
0.0
 10
11.9282789023
 20
9.4393852851
 30
0.0
 10
11.9160693978
 20
9.4673625675
 30
0.0
 10
11.9050840995
 20
9.4957735378
 30
0.0
 10
11.8953449714
 20
9.5245614916
 30
0.0
 10
11.8868715835
 20
9.5536689988
 30
0.0
 10
11.8796808012
 20
9.5830378934
 30
0.0
 10
11.873787011
 20
9.6126097453
 30
0.0
 10
11.869202133
 20
9.642324639
 30
0.0
 10
11.8670208193
 20
9.6622221923
 30
0.0
 10
11.8661520225
 20
9.6721740016
 30
0.0
  0
SPLINE
  5
38C
100
AcDbEntity
  8
0
100
AcDbSpline
 62
7
  6
CONTINUOUS
 70
0
 71
3
 72
39
 73
35
 74
0
 42
0.0000001
 43
0.0000001
 44
0.0000000001
 40
0.0
 40
0.0
 40
0.0
 40
0.0
 40
0.0315055161
 40
0.0629321575
 40
0.0942840469
 40
0.1255658407
 40
0.156782709
 40
0.1879402923
 40
0.2190446601
 40
0.2501022789
 40
0.2811199621
 40
0.3121048154
 40
0.3430641902
 40
0.3740056322
 40
0.4049368192
 40
0.4358655031
 40
0.4667994587
 40
0.4977464217
 40
0.528714026
 40
0.5597097525
 40
0.5907408753
 40
0.621814402
 40
0.6529370224
 40
0.6841150698
 40
0.7153544693
 40
0.7466606899
 40
0.7780387284
 40
0.8094930554
 40
0.8410275668
 40
0.8726457254
 40
0.9043501609
 40
0.9361427574
 40
0.9680267493
 40
1.0
 40
1.0
 40
1.0
 40
1.0
 10
9.5853281129
 20
7.6586550598
 30
0.0
 10
9.5746446796
 20
7.6566118876
 30
0.0
 10
9.5533881264
 20
7.6520784766
 30
0.0
 10
9.5218619483
 20
7.6439376282
 30
0.0
 10
9.4907861355
 20
7.634477857
 30
0.0
 10
9.4602140216
 20
7.6237152702
 30
0.0
 10
9.4301970987
 20
7.6116680894
 30
0.0
 10
9.4007862186
 20
7.5983566386
 30
0.0
 10
9.3720311737
 20
7.5838033319
 30
0.0
 10
9.3439805826
 20
7.5680328647
 30
0.0
 10
9.3166819078
 20
7.5510718967
 30
0.0
 10
9.2901814086
 20
7.5329490176
 30
0.0
 10
9.2645238929
 20
7.5136949474
 30
0.0
 10
9.239752753
 20
7.4933422863
 30
0.0
 10
9.2159099722
 20
7.4719253904
 30
0.0
 10
9.1930358879
 20
7.4494805179
 30
0.0
 10
9.1711691474
 20
7.4260457049
 30
0.0
 10
9.1503467964
 20
7.4016605597
 30
0.0
 10
9.1306040975
 20
7.3763663275
 30
0.0
 10
9.1119743635
 20
7.3502058816
 30
0.0
 10
9.0944891223
 20
7.3232234741
 30
0.0
 10
9.0781780202
 20
7.2954647228
 30
0.0
 10
9.0630685432
 20
7.2669766609
 30
0.0
 10
9.0491862165
 20
7.2378074965
 30
0.0
 10
9.0365545955
 20
7.2080065438
 30
0.0
 10
9.0251949533
 20
7.1776242577
 30
0.0
 10
9.0151264256
 20
7.1467120546
 30
0.0
 10
9.0063660981
 20
7.1153222072
 30
0.0
 10
8.9989287156
 20
7.083507805
 30
0.0
 10
8.9928267857
 20
7.0513226723
 30
0.0
 10
8.9880706296
 20
7.0188213956
 30
0.0
 10
8.9846681478
 20
6.9860583101
 30
0.0
 10
8.9826253414
 20
6.9530901034
 30
0.0
 10
8.9821725322
 20
6.9310411112
 30
0.0
 10
8.9821725322
 20
6.9200025753
 30
0.0
  0
LINE
  5
38D
100
AcDbEntity
  8
0
100
AcDbLine
 62
7
  6
CONTINUOUS
 10
11.091250967
 20
9.490776732
 11
11.0905791869
 21
9.4900447848
  0
SPLINE
  5
38E
100
AcDbEntity
  8
0
100
AcDbSpline
 62
7
  6
CONTINUOUS
 70
0
 71
3
 72
24
 73
20
 74
0
 42
0.0000001
 43
0.0000001
 44
0.0000000001
 40
0.0
 40
0.0
 40
0.0
 40
0.0
 40
0.0616736451
 40
0.1233882225
 40
0.1851612343
 40
0.2470096737
 40
0.2779694707
 40
0.3089541844
 40
0.3710016773
 40
0.4331710774
 40
0.4954759531
 40
0.557928715
 40
0.6205405336
 40
0.683321176
 40
0.7462791532
 40
0.8094214825
 40
0.8727526855
 40
0.9362796991
 40
1.0
 40
1.0
 40
1.0
 40
1.0
 10
11.0905791869
 20
9.4900447848
 30
0.0
 10
11.082532499
 20
9.4812657379
 30
0.0
 10
11.066849671
 20
9.4633153741
 30
0.0
 10
11.0446252504
 20
9.435291785
 30
0.0
 10
11.0237366213
 20
9.4062167731
 30
0.0
 10
11.0074824303
 20
9.3811673341
 30
0.0
 10
10.9951886668
 20
9.3606650157
 30
0.0
 10
10.9833629677
 20
9.3398449812
 30
0.0
 10
10.9694867197
 20
9.3132688979
 30
0.0
 10
10.9543281601
 20
9.2805836717
 30
0.0
 10
10.9406839916
 20
9.2471529958
 30
0.0
 10
10.928581443
 20
9.2130434089
 30
0.0
 10
10.9180442791
 20
9.1783222765
 30
0.0
 10
10.9090932515
 20
9.1430582929
 30
0.0
 10
10.901746019
 20
9.1073211209
 30
0.0
 10
10.8960171784
 20
9.0711816116
 30
0.0
 10
10.8919176753
 20
9.0347105631
 30
0.0
 10
10.8894559836
 20
8.9979814999
 30
0.0
 10
10.8889104566
 20
8.9734071434
 30
0.0
 10
10.8889104566
 20
8.961103089
 30
0.0
  0
SPLINE
  5
38F
100
AcDbEntity
  8
0
100
AcDbSpline
 62
7
  6
CONTINUOUS
 70
0
 71
3
 72
26
 73
22
 74
0
 42
0.0000001
 43
0.0000001
 44
0.0000000001
 40
0.0
 40
0.0
 40
0.0
 40
0.0
 40
0.0617092235
 40
0.0925729854
 40
0.1234446509
 40
0.1852169748
 40
0.2470517571
 40
0.2780013275
 40
0.3089738777
 40
0.3709922222
 40
0.4331298084
 40
0.4954034049
 40
0.5578284199
 40
0.6204187753
 40
0.6831867461
 40
0.7146430864
 40
0.7461476576
 40
0.8093008659
 40
0.872657114
 40
0.9362236724
 40
1.0
 40
1.0
 40
1.0
 40
1.0
 10
11.1644629354
 20
9.4979936048
 30
0.0
 10
11.1557225729
 20
9.4895510508
 30
0.0
 10
11.1429334608
 20
9.476545295
 30
0.0
 10
11.1265692139
 20
9.4585664979
 30
0.0
 10
11.110663899
 20
9.4401632891
 30
0.0
 10
11.0916650068
 20
9.4163870732
 30
0.0
 10
11.0739014935
 20
9.3916553587
 30
0.0
 10
11.060452986
 20
9.3713285836
 30
0.0
 10
11.0475089208
 20
9.3506343157
 30
0.0
 10
11.0323052585
 20
9.3241214454
 30
0.0
 10
11.0156778423
 20
9.2913731147
 30
0.0
 10
11.0006965169
 20
9.2577517249
 30
0.0
 10
10.987396042
 20
9.2233351903
 30
0.0
 10
10.9758070628
 20
9.1882032899
 30
0.0
 10
10.9676036217
 20
9.1584180622
 30
0.0
 10
10.9619201644
 20
9.1343180468
 30
0.0
 10
10.9568182555
 20
9.1100107013
 30
0.0
 10
10.9515547015
 20
9.0793287007
 30
0.0
 10
10.9470373314
 20
9.0421571032
 30
0.0
 10
10.9443241184
 20
9.0046880046
 30
0.0
 10
10.9437230078
 20
8.9796069933
 30
0.0
 10
10.9437230078
 20
8.967047951
 30
0.0
  0
SPLINE
  5
390
100
AcDbEntity
  8
0
100
AcDbSpline
 62
7
  6
CONTINUOUS
 70
0
 71
3
 72
24
 73
20
 74
0
 42
0.0000001
 43
0.0000001
 44
0.0000000001
 40
0.0
 40
0.0
 40
0.0
 40
0.0
 40
0.0616701213
 40
0.1233836347
 40
0.185157579
 40
0.2470084812
 40
0.2779698906
 40
0.3089564241
 40
0.3710080612
 40
0.4331817766
 40
0.4954907211
 40
0.55794692
 40
0.6205611877
 40
0.6833429685
 40
0.7463005208
 40
0.809440593
 40
0.872767556
 40
0.9362882888
 40
1.0
 40
1.0
 40
1.0
 40
1.0
 10
11.2016712658
 20
9.5315669653
 30
0.0
 10
11.1942178377
 20
9.5232952495
 30
0.0
 10
11.179693189
 20
9.5063921135
 30
0.0
 10
11.159115327
 20
9.4800313485
 30
0.0
 10
11.1397784543
 20
9.4527067712
 30
0.0
 10
11.124734792
 20
9.4291848001
 30
0.0
 10
11.1133580782
 20
9.4099431083
 30
0.0
 10
11.102415366
 20
9.3904097755
 30
0.0
 10
11.0895769471
 20
9.3654881411
 30
0.0
 10
11.075554218
 20
9.3348550585
 30
0.0
 10
11.0629340867
 20
9.3035389106
 30
0.0
 10
11.0517411878
 20
9.2716006415
 30
0.0
 10
11.0419970326
 20
9.2391019235
 30
0.0
 10
11.0337203623
 20
9.2061056326
 30
0.0
 10
11.0269271466
 20
9.1726755096
 30
0.0
 10
11.0216305862
 20
9.1388763629
 30
0.0
 10
11.0178405802
 20
9.1047729173
 30
0.0
 10
11.0155647951
 20
9.0704324287
 30
0.0
 10
11.0150604485
 20
9.0474576364
 30
0.0
 10
11.0150604485
 20
9.0359546315
 30
0.0
  0
SPLINE
  5
391
100
AcDbEntity
  8
0
100
AcDbSpline
 62
7
  6
CONTINUOUS
 70
0
 71
3
 72
25
 73
21
 74
0
 42
0.0000001
 43
0.0000001
 44
0.0000000001
 40
0.0
 40
0.0
 40
0.0
 40
0.0
 40
0.0617095319
 40
0.0925734525
 40
0.1234452711
 40
0.1852179107
 40
0.2470530079
 40
0.3089703872
 40
0.3709890414
 40
0.4331269412
 40
0.4954008557
 40
0.5578261871
 40
0.6204168633
 40
0.6831851338
 40
0.7146416333
 40
0.746146383
 40
0.80929992
 40
0.8726563647
 40
0.9362235836
 40
1.0
 40
1.0
 40
1.0
 40
1.0
 10
11.3120856301
 20
9.5293598847
 30
0.0
 10
11.304204264
 20
9.5217470742
 30
0.0
 10
11.2926720698
 20
9.5100195275
 30
0.0
 10
11.2779160929
 20
9.4938076858
 30
0.0
 10
11.2635739449
 20
9.4772132038
 30
0.0
 10
11.2464421107
 20
9.4557734618
 30
0.0
 10
11.2272157241
 20
9.4290050747
 30
0.0
 10
11.2093600453
 20
9.4012511592
 30
0.0
 10
11.1929165608
 20
9.372576141
 30
0.0
 10
11.1779230714
 20
9.3430460452
 30
0.0
 10
11.1644141742
 20
9.3127290402
 30
0.0
 10
11.1524208747
 20
9.2816949369
 30
0.0
 10
11.1419708821
 20
9.2500158065
 30
0.0
 10
11.1345736442
 20
9.2231578831
 30
0.0
 10
11.1294487768
 20
9.2014264151
 30
0.0
 10
11.1248482519
 20
9.1795079994
 30
0.0
 10
11.1201020313
 20
9.1518414403
 30
0.0
 10
11.1160286071
 20
9.1183230339
 30
0.0
 10
11.1135820766
 20
9.084536403
 30
0.0
 10
11.1130400257
 20
9.0619203381
 30
0.0
 10
11.1130400257
 20
9.0505956411
 30
0.0
  0
SPLINE
  5
392
100
AcDbEntity
  8
0
100
AcDbSpline
 62
7
  6
CONTINUOUS
 70
0
 71
3
 72
60
 73
56
 74
0
 42
0.0000001
 43
0.0000001
 44
0.0000000001
 40
0.0
 40
0.0
 40
0.0
 40
0.0
 40
0.0417737215
 40
0.0840362954
 40
0.1266575307
 40
0.1695051874
 40
0.2124464681
 40
0.2553480875
 40
0.2980769527
 40
0.3405006415
 40
0.3824879411
 40
0.4239093736
 40
0.4646377307
 40
0.5045486136
 40
0.543520985
 40
0.5814377367
 40
0.599965091
 40
0.6181867239
 40
0.6360893624
 40
0.6536601077
 40
0.6708864507
 40
0.6877562714
 40
0.7042579206
 40
0.7203801597
 40
0.7361123056
 40
0.7514441249
 40
0.7663660213
 40
0.7808689196
 40
0.7949444585
 40
0.8085849095
 40
0.8217833396
 40
0.8345336065
 40
0.8468304684
 40
0.8586696849
 40
0.8700480724
 40
0.8809637257
 40
0.8914160437
 40
0.9014060712
 40
0.9109365509
 40
0.9200123738
 40
0.9286407389
 40
0.9368317014
 40
0.9445985263
 40
0.9519583321
 40
0.9589326812
 40
0.9655482848
 40
0.9718377328
 40
0.9778400566
 40
0.9836011837
 40
0.9864084827
 40
0.9891757961
 40
0.9919106627
 40
0.9946209124
 40
0.9973146132
 40
1.0
 40
1.0
 40
1.0
 40
1.0
 10
15.2399223149
 20
10.4780461609
 30
0.0
 10
15.2399223149
 20
10.4560321956
 30
0.0
 10
15.2395788747
 20
10.411745957
 30
0.0
 10
15.2380605787
 20
10.3450147747
 30
0.0
 10
15.2355405891
 20
10.2777474584
 30
0.0
 10
15.2320271565
 20
10.2101666409
 30
0.0
 10
15.2275318979
 20
10.1424959438
 30
0.0
 10
15.2220696695
 20
10.074959229
 30
0.0
 10
15.2156585667
 20
10.0077799407
 30
0.0
 10
15.2083198419
 20
9.9411803227
 30
0.0
 10
15.2000778434
 20
9.8753806922
 30
0.0
 10
15.1909599334
 20
9.8105986958
 30
0.0
 10
15.1809963972
 20
9.747048605
 30
0.0
 10
15.1702203549
 20
9.6849405193
 30
0.0
 10
15.1586676161
 20
9.6244799491
 30
0.0
 10
15.1483474837
 20
9.5752645001
 30
0.0
 10
15.1397202597
 20
9.5368739642
 30
0.0
 10
15.1331299536
 20
9.5088372346
 30
0.0
 10
15.1263755243
 20
9.4813584336
 30
0.0
 10
15.119462552
 20
9.4544602662
 30
0.0
 10
15.1123967887
 20
9.4281649825
 30
0.0
 10
15.1051840579
 20
9.4024943255
 30
0.0
 10
15.0978303953
 20
9.3774695145
 30
0.0
 10
15.0903418271
 20
9.3531112399
 30
0.0
 10
15.0827246497
 20
9.3294396215
 30
0.0
 10
15.0749850844
 20
9.3064742252
 30
0.0
 10
15.0671296473
 20
9.2842340025
 30
0.0
 10
15.0591647565
 20
9.2627373244
 30
0.0
 10
15.0510970983
 20
9.2420019106
 30
0.0
 10
15.0429332893
 20
9.222044867
 30
0.0
 10
15.0346801367
 20
9.2028826226
 30
0.0
 10
15.026344448
 20
9.1845309487
 30
0.0
 10
15.0179331061
 20
9.1670049278
 30
0.0
 10
15.0094530869
 20
9.1503189281
 30
0.0
 10
15.0009113067
 20
9.1344866333
 30
0.0
 10
14.9923148658
 20
9.1195209433
 30
0.0
 10
14.9836706726
 20
9.1054340918
 30
0.0
 10
14.9749858748
 20
9.0922374571
 30
0.0
 10
14.9662673251
 20
9.0799417754
 30
0.0
 10
14.9575220965
 20
9.0685568786
 30
0.0
 10
14.9487569137
 20
9.0580919781
 30
0.0
 10
14.9399786062
 20
9.0485554011
 30
0.0
 10
14.9311936541
 20
9.0399548826
 30
0.0
 10
14.9224084618
 20
9.0322974301
 30
0.0
 10
14.9136291365
 20
9.0255895355
 30
0.0
 10
14.904861659
 20
9.0198373421
 30
0.0
 10
14.8961117255
 20
9.0150465976
 30
0.0
 10
14.887386062
 20
9.0112233384
 30
0.0
 10
14.8800759831
 20
9.0088274295
 30
0.0
 10
14.8742687034
 20
9.0074169582
 30
0.0
 10
14.8699621734
 20
9.0066117769
 30
0.0
 10
14.8656686966
 20
9.0060506431
 30
0.0
 10
14.8613890915
 20
9.0057337348
 30
0.0
 10
14.8571245686
 20
9.0056612323
 30
0.0
 10
14.8542903593
 20
9.0057759062
 30
0.0
 10
14.852878602
 20
9.0058738147
 30
0.0
  0
SPLINE
  5
393
100
AcDbEntity
  8
0
100
AcDbSpline
 62
7
  6
CONTINUOUS
 70
0
 71
3
 72
23
 73
19
 74
0
 42
0.0000001
 43
0.0000001
 44
0.0000000001
 40
0.0
 40
0.0
 40
0.0
 40
0.0
 40
0.0618581116
 40
0.1239597293
 40
0.1862790896
 40
0.2487863893
 40
0.3114483707
 40
0.3742289558
 40
0.4370899175
 40
0.4999915789
 40
0.5628935311
 40
0.6257553595
 40
0.6885373713
 40
0.7512013129
 40
0.8137110704
 40
0.8760333395
 40
0.9381382706
 40
1.0
 40
1.0
 40
1.0
 40
1.0
 10
12.4310771764
 20
9.1951584737
 30
0.0
 10
12.4192599443
 20
9.1984106758
 30
0.0
 10
12.3957945655
 20
9.2057416838
 30
0.0
 10
12.3613664481
 20
9.2191199192
 30
0.0
 10
12.3277980413
 20
9.2348381638
 30
0.0
 10
12.2952583187
 20
9.2528175123
 30
0.0
 10
12.2639083395
 20
9.2729686088
 30
0.0
 10
12.2339039983
 20
9.2951911492
 30
0.0
 10
12.2053943072
 20
9.3193746295
 30
0.0
 10
12.1785209187
 20
9.3453988246
 30
0.0
 10
12.1534173613
 20
9.3731343968
 30
0.0
 10
12.1302083993
 20
9.4024435335
 30
0.0
 10
12.1090094176
 20
9.4331806083
 30
0.0
 10
12.0899258377
 20
9.4651929656
 30
0.0
 10
12.0730526584
 20
9.4983214129
 30
0.0
 10
12.0584737462
 20
9.5324019608
 30
0.0
 10
12.0462623094
 20
9.5672630684
 30
0.0
 10
12.0397253711
 20
9.5909633536
 30
0.0
 10
12.0368728391
 20
9.6028841097
 30
0.0
  0
SPLINE
  5
394
100
AcDbEntity
  8
0
100
AcDbSpline
 62
7
  6
CONTINUOUS
 70
0
 71
3
 72
23
 73
19
 74
0
 42
0.0000001
 43
0.0000001
 44
0.0000000001
 40
0.0
 40
0.0
 40
0.0
 40
0.0
 40
0.035435129
 40
0.0736909452
 40
0.1150811814
 40
0.1598495126
 40
0.2081845452
 40
0.2602297044
 40
0.3160950516
 40
0.3758667798
 40
0.4396101304
 40
0.5073741854
 40
0.5791987653
 40
0.6551145749
 40
0.7351433562
 40
0.819298226
 40
0.9075840257
 40
1.0
 40
1.0
 40
1.0
 40
1.0
 10
10.5180973554
 20
6.6034993923
 30
0.0
 10
10.518097112
 20
6.6040087263
 30
0.0
 10
10.5181646034
 20
6.6050686217
 30
0.0
 10
10.5184459111
 20
6.6067011913
 30
0.0
 10
10.5189106939
 20
6.6084303291
 30
0.0
 10
10.51955903
 20
6.6102533521
 30
0.0
 10
10.520390911
 20
6.6121681748
 30
0.0
 10
10.5214065585
 20
6.614172498
 30
0.0
 10
10.5226061833
 20
6.6162640435
 30
0.0
 10
10.5239896056
 20
6.6184407621
 30
0.0
 10
10.5255567186
 20
6.6207006095
 30
0.0
 10
10.5273074791
 20
6.6230415246
 30
0.0
 10
10.529241509
 20
6.6254617668
 30
0.0
 10
10.5313583658
 20
6.6279597509
 30
0.0
 10
10.5336576717
 20
6.6305338241
 30
0.0
 10
10.5361387956
 20
6.6331824725
 30
0.0
 10
10.5388007488
 20
6.6359044182
 30
0.0
 10
10.5406530448
 20
6.6377254559
 30
0.0
 10
10.5416084737
 20
6.6386483293
 30
0.0
  0
SPLINE
  5
395
100
AcDbEntity
  8
0
100
AcDbSpline
 62
7
  6
CONTINUOUS
 70
0
 71
3
 72
60
 73
56
 74
0
 42
0.0000001
 43
0.0000001
 44
0.0000000001
 40
0.0
 40
0.0
 40
0.0
 40
0.0
 40
0.0417737215
 40
0.0840362954
 40
0.1266575307
 40
0.1695051874
 40
0.2124464681
 40
0.2553480875
 40
0.2980769527
 40
0.3405006415
 40
0.3824879411
 40
0.4239093736
 40
0.4646377307
 40
0.5045486136
 40
0.543520985
 40
0.5814377367
 40
0.599965091
 40
0.6181867239
 40
0.6360893624
 40
0.6536601077
 40
0.6708864507
 40
0.6877562714
 40
0.7042579206
 40
0.7203801597
 40
0.7361123056
 40
0.7514441249
 40
0.7663660213
 40
0.7808689196
 40
0.7949444585
 40
0.8085849095
 40
0.8217833396
 40
0.8345336065
 40
0.8468304684
 40
0.8586696849
 40
0.8700480724
 40
0.8809637257
 40
0.8914160437
 40
0.9014060712
 40
0.9109365509
 40
0.9200123738
 40
0.9286407389
 40
0.9368317014
 40
0.9445985263
 40
0.9519583321
 40
0.9589326812
 40
0.9655482848
 40
0.9718377328
 40
0.9778400566
 40
0.9836011837
 40
0.9864084827
 40
0.9891757961
 40
0.9919106627
 40
0.9946209124
 40
0.9973146132
 40
1.0
 40
1.0
 40
1.0
 40
1.0
 10
15.2399223149
 20
7.4585619191
 30
0.0
 10
15.2399223149
 20
7.4365479537
 30
0.0
 10
15.2395788747
 20
7.3922617151
 30
0.0
 10
15.2380605787
 20
7.3255305328
 30
0.0
 10
15.2355405891
 20
7.2582632166
 30
0.0
 10
15.2320271565
 20
7.190682399
 30
0.0
 10
15.2275318979
 20
7.1230117019
 30
0.0
 10
15.2220696695
 20
7.0554749871
 30
0.0
 10
15.2156585667
 20
6.9882956988
 30
0.0
 10
15.2083198419
 20
6.9216960808
 30
0.0
 10
15.2000778434
 20
6.8558964503
 30
0.0
 10
15.1909599334
 20
6.7911144539
 30
0.0
 10
15.1809963972
 20
6.7275643631
 30
0.0
 10
15.1702203549
 20
6.6654562774
 30
0.0
 10
15.1586676161
 20
6.6049957072
 30
0.0
 10
15.1483474837
 20
6.5557802582
 30
0.0
 10
15.1397202597
 20
6.5173897223
 30
0.0
 10
15.1331299536
 20
6.4893529927
 30
0.0
 10
15.1263755243
 20
6.4618741917
 30
0.0
 10
15.119462552
 20
6.4349760243
 30
0.0
 10
15.1123967887
 20
6.4086807406
 30
0.0
 10
15.1051840579
 20
6.3830100836
 30
0.0
 10
15.0978303953
 20
6.3579852726
 30
0.0
 10
15.0903418271
 20
6.333626998
 30
0.0
 10
15.0827246497
 20
6.3099553796
 30
0.0
 10
15.0749850844
 20
6.2869899833
 30
0.0
 10
15.0671296473
 20
6.2647497606
 30
0.0
 10
15.0591647565
 20
6.2432530825
 30
0.0
 10
15.0510970983
 20
6.2225176687
 30
0.0
 10
15.0429332893
 20
6.2025606251
 30
0.0
 10
15.0346801367
 20
6.1833983808
 30
0.0
 10
15.026344448
 20
6.1650467068
 30
0.0
 10
15.0179331061
 20
6.1475206859
 30
0.0
 10
15.0094530869
 20
6.1308346862
 30
0.0
 10
15.0009113067
 20
6.1150023914
 30
0.0
 10
14.9923148658
 20
6.1000367014
 30
0.0
 10
14.9836706726
 20
6.0859498499
 30
0.0
 10
14.9749858748
 20
6.0727532152
 30
0.0
 10
14.9662673251
 20
6.0604575336
 30
0.0
 10
14.9575220965
 20
6.0490726367
 30
0.0
 10
14.9487569137
 20
6.0386077363
 30
0.0
 10
14.9399786062
 20
6.0290711592
 30
0.0
 10
14.9311936541
 20
6.0204706407
 30
0.0
 10
14.9224084618
 20
6.0128131882
 30
0.0
 10
14.9136291365
 20
6.0061052936
 30
0.0
 10
14.904861659
 20
6.0003531002
 30
0.0
 10
14.8961117255
 20
5.9955623558
 30
0.0
 10
14.887386062
 20
5.9917390965
 30
0.0
 10
14.8800759831
 20
5.9893431877
 30
0.0
 10
14.8742687034
 20
5.9879327163
 30
0.0
 10
14.8699621734
 20
5.9871275351
 30
0.0
 10
14.8656686966
 20
5.9865664012
 30
0.0
 10
14.8613890915
 20
5.986249493
 30
0.0
 10
14.8571245686
 20
5.9861769904
 30
0.0
 10
14.8542903593
 20
5.9862916643
 30
0.0
 10
14.852878602
 20
5.9863895729
 30
0.0
  0
ENDSEC
  0
SECTION
  2
OBJECTS
  0
DICTIONARY
  5
C
100
AcDbDictionary
280
0
281
1
  3
ACAD_GROUP
350
D
  3
ACAD_MLINESTYLE
350
17
  3
ACAD_LAYOUT
350
1A
  3
ACAD_PLOTSETTINGS
350
19
  3
ACAD_PLOTSTYLENAME
350
E
  3
ACAD_IMAGE_DICT
350
       397
  3
ACAD_IMAGE_VARS
350
       398
  3
ACAD_TABLESTYLE
350
       399
  0
IMAGEDEF_REACTOR
  5
396
100
AcDbRasterImageDefReactor
 90
2
330
28E
  0
DICTIONARY
  5
D
102
{ACAD_REACTORS
330
C
102
}
100
AcDbDictionary
280
0
281
1
  0
ACDBDICTIONARYWDFLT
  5
E
102
{ACAD_REACTORS
330
C
102
}
100
AcDbDictionary
281
1
  3
Normal
350
F
100
AcDbDictionaryWithDefault
340
F
  0
DICTIONARY
  5
397
330
C
100
AcDbDictionary
281
1
  3
FHE_assy_2_img_1
350
       39C
  0
RASTERVARIABLES
  5
398
330
C
100
AcDbRasterVariables
 90
0
 70
0
 71
1
 72
5
  0
DICTIONARY
  5
17
102
{ACAD_REACTORS
330
C
102
}
100
AcDbDictionary
280
0
281
1
  3
Standard
350
18
  0
DICTIONARY
  5
399
330
C
100
AcDbDictionary
281
1
  3
Standard
350
       39D
  3
Standard1
350
       39E
  0
DICTIONARY
  5
19
102
{ACAD_REACTORS
330
C
102
}
100
AcDbDictionary
281
1
  0
DICTIONARY
  5
1A
102
{ACAD_REACTORS
330
C
102
}
100
AcDbDictionary
281
1
  3
Model
350
39A
  3
Layout1
350
39B
  0
ACDBPLACEHOLDER
  5
F
102
{ACAD_REACTORS
330
E
102
}
  0
MLINESTYLE
  5
18
102
{ACAD_REACTORS
330
17
102
}
100
AcDbMlineStyle
  2
STANDARD
 70
0
  3

 62
256
 51
90.0
 52
90.0
 71
2
 49
0.5
 62
256
  6
BYLAYER
 49
-0.5
 62
256
  6
BYLAYER
  0
LAYOUT
  5
39A
102
{ACAD_REACTORS
330
1A
102
}
100
AcDbPlotSettings
  1

  2
none_device
  4
ANSI_C_(22.00_x_17.00_Inches)
  6

 40
0.0
 41
0.0
 42
0.0
 43
0.0
 44
558.8
 45
431.8
 46
0.0
 47
0.0
 48
0.0
 49
0.0
140
0.0
141
0.0
142
1.0
143
1.0
 70
1024
 72
0
 73
0
 74
0
  7

 75
0
147
1.0
148
0.0
149
0.0
100
AcDbLayout
  1
Model
 70
0
 71
0
 10
0.0
 20
0.0
 11
22.0
 21
17.0
 12
0.0
 22
0.0
 32
0.0
 14
0.0
 24
0.0
 34
0.0
 15
0.0
 25
0.0
 35
0.0
146
0.0
 13
0.0
 23
0.0
 33
0.0
 16
1.0
 26
0.0
 36
0.0
 17
0.0
 27
1.0
 37
0.0
 76
0
330
20C
345
0
346
0
  0
LAYOUT
  5
39B
102
{ACAD_REACTORS
330
1A
102
}
100
AcDbPlotSettings
  1

  2
none_device
  4
ANSI_C_(22.00_x_17.00_Inches)
  6

 40
0.0
 41
0.0
 42
0.0
 43
0.0
 44
558.8
 45
431.8
 46
0.0
 47
0.0
 48
0.0
 49
0.0
140
0.0
141
0.0
142
1.0
143
1.0
 70
0
 72
0
 73
0
 74
0
  7

 75
0
147
1.0
148
0.0
149
0.0
100
AcDbLayout
  1
Layout1
 70
0
 71
1
 10
0.0
 20
0.0
 11
22.0
 21
17.0
 12
0.0
 22
0.0
 32
0.0
 14
0.0
 24
0.0
 34
0.0
 15
0.0
 25
0.0
 35
0.0
146
0.0
 13
0.0
 23
0.0
 33
0.0
 16
1.0
 26
0.0
 36
0.0
 17
0.0
 27
1.0
 37
0.0
 76
0
330
20D
345
0
346
0
  0
IMAGEDEF
  5
39C
102
{ACAD_REACTORS
330
397
330
396
102
}
100
AcDbRasterImageDef
 90
0
  1
FHE_assy_2_img_1.png
 10
369.0
 20
92.0
 11
0.0066666667
 21
0.0066666667
280
1
281
0
  0
TABLESTYLE
  5
39D
102
{ACAD_REACTORS
330
399
330
291
330
292
102
}
330
399
100
AcDbTableStyle
  3
Standard
 70
0
 71
0
 40
0.06
 41
0.06
280
1
281
1
  7
Standard
140
0.18
170
1
 62
0
 63
7
283
0
  7
Standard
140
0.18
170
1
 62
0
 63
7
283
0
  7
Standard
140
0.18
170
1
 62
0
 63
7
283
0
  0
TABLESTYLE
  5
39E
102
{ACAD_REACTORS
330
399
330
290
102
}
330
399
100
AcDbTableStyle
  3
Standard1
 70
1
 71
0
 40
0.06
 41
0.06
280
1
281
1
  7
Standard
140
0.18
170
1
 62
0
 63
7
283
0
  7
Standard
140
0.18
170
1
 62
0
 63
7
283
0
  7
Standard
140
0.18
170
1
 62
0
 63
7
283
0
  0
ENDSEC
  0
EOF
