999
DXF file: FBX_7.dxf
999
Pro/ENGINEER 2006240 by Parametric Technology Corporation
  0
SECTION
  2
HEADER
  9
$ACADVER
  1
AC1015
  9
$DWGCODEPAGE
  3
ANSI_1252
  9
$EXTMAX
 10
22.0
 20
17.0
 30
0.0
  9
$EXTMIN
 10
0.0
 20
0.0
 30
0.0
  9
$LIMMIN
 10
0.0
 20
0.0
  9
$LIMMAX
 10
22.0
 20
17.0
  9
$VIEWCTR
 10
11.0
 20
8.5
  9
$VIEWSIZE
 40
17.0
  9
$CLAYER
  8
0
  9
$LTSCALE
 40
1.21
  9
$CELTYPE
  6
BYLAYER
  9
$DIMSCALE
 40
1.0
  9
$DIMASZ
 40
0.1875
  9
$DIMEXO
 40
0.1375
  9
$DIMDLI
 40
0.836
  9
$DIMEXE
 40
0.396
  9
$DIMCEN
 40
0.198
  9
$DIMLFAC
 40
1.0
  9
$DIMBLK
  1
_CLOSED
  9
$DIMTXT
 40
0.15625
  9
$DIMTOL
 70
0
  9
$DIMLIM
 70
0
  9
$DIMTFAC
 40
1.0
  9
$PDMODE
 70
3
  9
$PDSIZE
 40
0.3125
  9
$HANDSEED
  5
3BC
  9
$MEASUREMENT
 70
0
  9
$INSUNITS
 70
1
  0
ENDSEC
  0
SECTION
  2
CLASSES
  0
CLASS
  1
ACDBDICTIONARYWDFLT
  2
AcDbDictionaryWithDefault
  3
AutoCAD 2000
 90
0
280
0
281
0
  0
CLASS
  1
ACDBPLACEHOLDER
  2
AcDbPlaceHolder
  3
AutoCAD 2000
 90
0
280
0
281
0
  0
CLASS
  1
LAYOUT
  2
AcDbLayout
  3
AutoCAD 2000
 90
0
280
0
281
0
  0
ENDSEC
  0
SECTION
  2
TABLES
  0
TABLE
  2
VPORT
  5
8
100
AcDbSymbolTable
 70
2
  0
VPORT
  5
1F4
100
AcDbSymbolTableRecord
100
AcDbViewportTableRecord
  2
*ACTIVE
 70
0
 10
0.0
 20
0.0
 11
1.0
 21
1.0
 12
11.0
 22
8.5
 13
0.0
 23
0.0
 14
1.0
 24
1.0
 15
0.0
 25
0.0
 16
0.0
 26
0.0
 36
1.0
 17
0.0
 27
0.0
 37
0.0
 40
17.0
 41
1.2941176471
 42
50.0
 43
0.0
 44
0.0
 50
0.0
 51
0.0
 71
0
 72
100
 73
1
 74
1
 75
0
 76
0
 77
0
 78
0
  0
ENDTAB
  0
TABLE
  2
LTYPE
  5
5
100
AcDbSymbolTable
 70
6
  0
LTYPE
  5
14
100
AcDbSymbolTableRecord
100
AcDbLinetypeTableRecord
  2
BYBLOCK
 70
0
  3

 72
65
 73
0
 40
0.0
  0
LTYPE
  5
15
100
AcDbSymbolTableRecord
100
AcDbLinetypeTableRecord
  2
BYLAYER
 70
0
  3

 72
65
 73
0
 40
0.0
  0
LTYPE
  5
16
100
AcDbSymbolTableRecord
100
AcDbLinetypeTableRecord
  2
CONTINUOUS
 70
64
  3
Solid line
 72
65
 73
0
 40
0.0
  0
LTYPE
  5
1F5
100
AcDbSymbolTableRecord
100
AcDbLinetypeTableRecord
  2
CENTER
 70
64
  3
____ _ ____ _ ____ _ ____ _ ____ _ ____ _ ____
 72
65
 73
4
 40
0.6
 49
0.375
 74
0
 49
-0.075
 74
0
 49
0.075
 74
0
 49
-0.075
 74
0
  0
LTYPE
  5
1F6
100
AcDbSymbolTableRecord
100
AcDbLinetypeTableRecord
  2
HIDDEN
 70
64
  3
- - - - - - - - - - - - - - - - - - - -
 72
65
 73
2
 40
0.2
 49
0.1
 74
0
 49
-0.1
 74
0
  0
LTYPE
  5
1F7
100
AcDbSymbolTableRecord
100
AcDbLinetypeTableRecord
  2
PHANTOM
 70
64
  3
_____ _ _ _____ _ _ _____ _ _ _____
 72
65
 73
6
 40
0.8
 49
0.45
 74
0
 49
-0.05
 74
0
 49
0.1
 74
0
 49
-0.05
 74
0
 49
0.1
 74
0
 49
-0.05
 74
0
  0
LTYPE
  5
1F8
100
AcDbSymbolTableRecord
100
AcDbLinetypeTableRecord
  2
DOT
 70
64
  3
. . . . . . . . . . . . . . . . . . . .
 72
65
 73
2
 40
0.2
 49
0.1
 74
0
 49
-0.1
 74
0
  0
LTYPE
  5
1F9
100
AcDbSymbolTableRecord
100
AcDbLinetypeTableRecord
  2
DASHED
 70
64
  3
- - - - - - - - - - - - - - - - - - - -
 72
65
 73
2
 40
0.2
 49
0.1
 74
0
 49
-0.1
 74
0
  0
ENDTAB
  0
TABLE
  2
LAYER
  5
2
100
AcDbSymbolTable
 70
36
  0
LAYER
  5
10
100
AcDbSymbolTableRecord
100
AcDbLayerTableRecord
  2
0
 70
0
 62
7
  6
CONTINUOUS
370
-3
390
F
  0
LAYER
  5
1FA
100
AcDbSymbolTableRecord
100
AcDbLayerTableRecord
  2
DEFAULT_1
 70
0
 62
7
  6
CENTER
370
-3
390
F
  0
LAYER
  5
1FB
100
AcDbSymbolTableRecord
100
AcDbLayerTableRecord
  2
DEFAULT_2
 70
0
 62
8
  6
HIDDEN
370
-3
390
F
  0
LAYER
  5
1FC
100
AcDbSymbolTableRecord
100
AcDbLayerTableRecord
  2
DEFAULT_3
 70
0
 62
7
  6
PHANTOM
370
-3
390
F
  0
LAYER
  5
1FD
100
AcDbSymbolTableRecord
100
AcDbLayerTableRecord
  2
01_ALL_DTM_PLN
 70
0
 62
7
  6
CONTINUOUS
370
-3
390
F
  0
LAYER
  5
1FE
100
AcDbSymbolTableRecord
100
AcDbLayerTableRecord
  2
01__ASM_ALL_DTM_PLN
 70
0
 62
7
  6
CONTINUOUS
370
-3
390
F
  0
LAYER
  5
1FF
100
AcDbSymbolTableRecord
100
AcDbLayerTableRecord
  2
01__ASM_DEF_DTM_PLN
 70
0
 62
7
  6
CONTINUOUS
370
-3
390
F
  0
LAYER
  5
200
100
AcDbSymbolTableRecord
100
AcDbLayerTableRecord
  2
01___PRT_ALL_DTM_PLN
 70
0
 62
7
  6
CONTINUOUS
370
-3
390
F
  0
LAYER
  5
201
100
AcDbSymbolTableRecord
100
AcDbLayerTableRecord
  2
01___PRT_DEF_DTM_PLN
 70
0
 62
7
  6
CONTINUOUS
370
-3
390
F
  0
LAYER
  5
202
100
AcDbSymbolTableRecord
100
AcDbLayerTableRecord
  2
02_ALL_AXES
 70
0
 62
7
  6
CONTINUOUS
370
-3
390
F
  0
LAYER
  5
203
100
AcDbSymbolTableRecord
100
AcDbLayerTableRecord
  2
02__ASM_ALL_AXES
 70
0
 62
7
  6
CONTINUOUS
370
-3
390
F
  0
LAYER
  5
204
100
AcDbSymbolTableRecord
100
AcDbLayerTableRecord
  2
02___PRT_ALL_AXES
 70
0
 62
7
  6
CONTINUOUS
370
-3
390
F
  0
LAYER
  5
205
100
AcDbSymbolTableRecord
100
AcDbLayerTableRecord
  2
03_ALL_CURVES
 70
0
 62
7
  6
CONTINUOUS
370
-3
390
F
  0
LAYER
  5
206
100
AcDbSymbolTableRecord
100
AcDbLayerTableRecord
  2
03__ASM_ALL_CURVES
 70
0
 62
7
  6
CONTINUOUS
370
-3
390
F
  0
LAYER
  5
207
100
AcDbSymbolTableRecord
100
AcDbLayerTableRecord
  2
03___PRT_ALL_CURVES
 70
0
 62
7
  6
CONTINUOUS
370
-3
390
F
  0
LAYER
  5
208
100
AcDbSymbolTableRecord
100
AcDbLayerTableRecord
  2
04_ALL_DTM_PNT
 70
0
 62
7
  6
CONTINUOUS
370
-3
390
F
  0
LAYER
  5
209
100
AcDbSymbolTableRecord
100
AcDbLayerTableRecord
  2
04__ASM_ALL_DTM_PNT
 70
0
 62
7
  6
CONTINUOUS
370
-3
390
F
  0
LAYER
  5
20A
100
AcDbSymbolTableRecord
100
AcDbLayerTableRecord
  2
04___PRT_ALL_DTM_PNT
 70
0
 62
7
  6
CONTINUOUS
370
-3
390
F
  0
LAYER
  5
20B
100
AcDbSymbolTableRecord
100
AcDbLayerTableRecord
  2
05_ALL_DTM_CSYS
 70
0
 62
7
  6
CONTINUOUS
370
-3
390
F
  0
LAYER
  5
20C
100
AcDbSymbolTableRecord
100
AcDbLayerTableRecord
  2
05__ASM_ALL_DTM_CSYS
 70
0
 62
7
  6
CONTINUOUS
370
-3
390
F
  0
LAYER
  5
20D
100
AcDbSymbolTableRecord
100
AcDbLayerTableRecord
  2
05__ASM_DEF_DTM_CSYS
 70
0
 62
7
  6
CONTINUOUS
370
-3
390
F
  0
LAYER
  5
20E
100
AcDbSymbolTableRecord
100
AcDbLayerTableRecord
  2
05___PRT_ALL_DTM_CSYS
 70
0
 62
7
  6
CONTINUOUS
370
-3
390
F
  0
LAYER
  5
20F
100
AcDbSymbolTableRecord
100
AcDbLayerTableRecord
  2
05___PRT_DEF_DTM_CSYS
 70
0
 62
7
  6
CONTINUOUS
370
-3
390
F
  0
LAYER
  5
210
100
AcDbSymbolTableRecord
100
AcDbLayerTableRecord
  2
06_ALL_SURFS
 70
0
 62
7
  6
CONTINUOUS
370
-3
390
F
  0
LAYER
  5
211
100
AcDbSymbolTableRecord
100
AcDbLayerTableRecord
  2
06__ASM_ALL_SURFS
 70
0
 62
7
  6
CONTINUOUS
370
-3
390
F
  0
LAYER
  5
212
100
AcDbSymbolTableRecord
100
AcDbLayerTableRecord
  2
06___PRT_ALL_SURFS
 70
0
 62
7
  6
CONTINUOUS
370
-3
390
F
  0
LAYER
  5
213
100
AcDbSymbolTableRecord
100
AcDbLayerTableRecord
  2
07__ASM_ALL_SKELETONS
 70
0
 62
7
  6
CONTINUOUS
370
-3
390
F
  0
LAYER
  5
214
100
AcDbSymbolTableRecord
100
AcDbLayerTableRecord
  2
COPY_GEO_FET
 70
0
 62
7
  6
CONTINUOUS
370
-3
390
F
  0
LAYER
  5
215
100
AcDbSymbolTableRecord
100
AcDbLayerTableRecord
  2
COSMETIC
 70
0
 62
7
  6
CONTINUOUS
370
-3
390
F
  0
LAYER
  5
216
100
AcDbSymbolTableRecord
100
AcDbLayerTableRecord
  2
CUT_REF_SURF
 70
0
 62
7
  6
CONTINUOUS
370
-3
390
F
  0
LAYER
  5
217
100
AcDbSymbolTableRecord
100
AcDbLayerTableRecord
  2
DATESTAMP
 70
0
 62
7
  6
CONTINUOUS
370
-3
390
F
  0
LAYER
  5
218
100
AcDbSymbolTableRecord
100
AcDbLayerTableRecord
  2
DATUM
 70
0
 62
7
  6
CONTINUOUS
370
-3
390
F
  0
LAYER
  5
219
100
AcDbSymbolTableRecord
100
AcDbLayerTableRecord
  2
DATUM_B
 70
0
 62
7
  6
CONTINUOUS
370
-3
390
F
  0
LAYER
  5
21A
100
AcDbSymbolTableRecord
100
AcDbLayerTableRecord
  2
DATUM_PLANES
 70
0
 62
7
  6
CONTINUOUS
370
-3
390
F
  0
LAYER
  5
21B
100
AcDbSymbolTableRecord
100
AcDbLayerTableRecord
  2
DIM
 70
0
 62
7
  6
CONTINUOUS
370
-3
390
F
  0
LAYER
  5
21C
100
AcDbSymbolTableRecord
100
AcDbLayerTableRecord
  2
DIM_1
 70
0
 62
7
  6
CONTINUOUS
370
-3
390
F
  0
LAYER
  5
21D
100
AcDbSymbolTableRecord
100
AcDbLayerTableRecord
  2
DIM_2
 70
0
 62
7
  6
CONTINUOUS
370
-3
390
F
  0
LAYER
  5
21E
100
AcDbSymbolTableRecord
100
AcDbLayerTableRecord
  2
DIM_3
 70
0
 62
7
  6
CONTINUOUS
370
-3
390
F
  0
LAYER
  5
21F
100
AcDbSymbolTableRecord
100
AcDbLayerTableRecord
  2
DTM
 70
0
 62
7
  6
CONTINUOUS
370
-3
390
F
  0
LAYER
  5
220
100
AcDbSymbolTableRecord
100
AcDbLayerTableRecord
  2
EXT_COPY_GEO
 70
0
 62
7
  6
CONTINUOUS
370
-3
390
F
  0
LAYER
  5
221
100
AcDbSymbolTableRecord
100
AcDbLayerTableRecord
  2
FBX_10
 70
0
 62
7
  6
CONTINUOUS
370
-3
390
F
  0
LAYER
  5
222
100
AcDbSymbolTableRecord
100
AcDbLayerTableRecord
  2
FBX_2
 70
0
 62
7
  6
CONTINUOUS
370
-3
390
F
  0
LAYER
  5
223
100
AcDbSymbolTableRecord
100
AcDbLayerTableRecord
  2
FBX_5
 70
0
 62
7
  6
CONTINUOUS
370
-3
390
F
  0
LAYER
  5
224
100
AcDbSymbolTableRecord
100
AcDbLayerTableRecord
  2
FBX_6
 70
0
 62
7
  6
CONTINUOUS
370
-3
390
F
  0
LAYER
  5
225
100
AcDbSymbolTableRecord
100
AcDbLayerTableRecord
  2
FBX_7
 70
0
 62
7
  6
CONTINUOUS
370
-3
390
F
  0
LAYER
  5
226
100
AcDbSymbolTableRecord
100
AcDbLayerTableRecord
  2
LS
 70
0
 62
7
  6
CONTINUOUS
370
-3
390
F
  0
LAYER
  5
227
100
AcDbSymbolTableRecord
100
AcDbLayerTableRecord
  2
LS_1
 70
0
 62
7
  6
CONTINUOUS
370
-3
390
F
  0
LAYER
  5
228
100
AcDbSymbolTableRecord
100
AcDbLayerTableRecord
  2
ORIGIN
 70
0
 62
7
  6
CONTINUOUS
370
-3
390
F
  0
LAYER
  5
229
100
AcDbSymbolTableRecord
100
AcDbLayerTableRecord
  2
PARTNUMBER
 70
0
 62
7
  6
CONTINUOUS
370
-3
390
F
  0
LAYER
  5
22A
100
AcDbSymbolTableRecord
100
AcDbLayerTableRecord
  2
PORT_AREAS
 70
0
 62
7
  6
CONTINUOUS
370
-3
390
F
  0
LAYER
  5
22B
100
AcDbSymbolTableRecord
100
AcDbLayerTableRecord
  2
TEXT
 70
0
 62
7
  6
CONTINUOUS
370
-3
390
F
  0
LAYER
  5
22C
100
AcDbSymbolTableRecord
100
AcDbLayerTableRecord
  2
THREAD
 70
0
 62
7
  6
CONTINUOUS
370
-3
390
F
  0
LAYER
  5
22D
100
AcDbSymbolTableRecord
100
AcDbLayerTableRecord
  2
THREADS
 70
0
 62
7
  6
CONTINUOUS
370
-3
390
F
  0
ENDTAB
  0
TABLE
  2
STYLE
  5
3
100
AcDbSymbolTable
 70
1
  0
STYLE
  5
11
100
AcDbSymbolTableRecord
100
AcDbTextStyleTableRecord
  2
STANDARD
 70
0
 40
0.0
 41
0.8
 50
0.0
 71
0
 42
0.2
  3
txt
  4

  0
ENDTAB
  0
TABLE
  2
VIEW
  5
6
100
AcDbSymbolTable
 70
0
  0
ENDTAB
  0
TABLE
  2
UCS
  5
7
100
AcDbSymbolTable
 70
0
  0
ENDTAB
  0
TABLE
  2
APPID
  5
9
100
AcDbSymbolTable
 70
1
  0
APPID
  5
22E
100
AcDbSymbolTableRecord
100
AcDbRegAppTableRecord
  2
ACAD
 70
0
  0
ENDTAB
  0
TABLE
  2
BLOCK_RECORD
  5
1
100
AcDbSymbolTable
 70
0
  0
BLOCK_RECORD
  5
1F
100
AcDbSymbolTableRecord
100
AcDbBlockTableRecord
  2
*MODEL_SPACE
  0
BLOCK_RECORD
  5
1B
100
AcDbSymbolTableRecord
100
AcDbBlockTableRecord
  2
*PAPER_SPACE
  0
ENDTAB
  0
TABLE
  2
DIMSTYLE
  5
A
100
AcDbSymbolTable
 70
1
100
AcDbDimStyleTable
 71
0
  0
DIMSTYLE
105
22F
100
AcDbSymbolTableRecord
100
AcDbDimStyleTableRecord
  2
STANDARD
 70
0
  3

  4

 40
1.0
 41
0.1875
 42
0.0625
 43
0.38
 44
0.18
 45
0.0
 46
0.0
 47
0.01
 48
0.01
140
0.15625
141
0.09
142
0.0
143
25.4
144
1.0
145
0.0
146
1.0
147
0.09
 71
0.0
 72
0.0
 73
1
 74
1
 75
0
 76
0
 77
0
 78
4
170
0
171
2
172
0
173
0
174
0
175
0
176
0
177
0
178
0
270
2
271
2
272
2
273
2
274
2
275
0
280
0
281
0
282
0
283
1
284
4
285
0
286
0
287
3
288
0
340
11
  0
ENDTAB
  0
ENDSEC
  0
SECTION
  2
BLOCKS
  0
BLOCK
  5
20
100
AcDbEntity
  8
0
100
AcDbBlockBegin
  2
*MODEL_SPACE
 70
0
 10
0.0
 20
0.0
 30
0.0
  3
*MODEL_SPACE
  1

  0
ENDBLK
  5
21
100
AcDbEntity
  8
0
100
AcDbBlockEnd
  0
BLOCK
  5
1C
100
AcDbEntity
  8
0
100
AcDbBlockBegin
  2
*PAPER_SPACE
 70
0
 10
0.0
 20
0.0
 30
0.0
  3
*PAPER_SPACE
  1

  0
ENDBLK
  5
1D
100
AcDbEntity
  8
0
100
AcDbBlockEnd
  0
ENDSEC
  0
SECTION
  2
ENTITIES
  0
LINE
  5
230
100
AcDbEntity
  8
03__ASM_ALL_CURVES
100
AcDbLine
 62
4
  6
CONTINUOUS
 10
8.1296320841
 20
10.1381623058
 11
8.142965419
 21
10.1481623058
  0
LINE
  5
231
100
AcDbEntity
  8
03__ASM_ALL_CURVES
100
AcDbLine
 62
4
  6
CONTINUOUS
 10
8.1996320838
 20
9.9156623058
 11
8.2096320841
 21
9.9231623058
  0
LINE
  5
232
100
AcDbEntity
  8
03__ASM_ALL_CURVES
100
AcDbLine
 62
4
  6
CONTINUOUS
 10
8.1296320841
 20
9.5231623058
 11
8.1296320841
 21
9.4931623058
  0
LINE
  5
233
100
AcDbEntity
  8
03__ASM_ALL_CURVES
100
AcDbLine
 62
4
  6
CONTINUOUS
 10
8.1296320841
 20
9.4431623058
 11
8.1296320841
 21
9.4031623058
  0
LINE
  5
234
100
AcDbEntity
  8
03__ASM_ALL_CURVES
100
AcDbLine
 62
4
  6
CONTINUOUS
 10
8.1562987492
 20
9.4981623058
 11
8.1562987492
 21
9.5081623058
  0
LINE
  5
235
100
AcDbEntity
  8
0
100
AcDbLine
 62
7
  6
CONTINUOUS
 10
8.1696320841
 20
8.7431623058
 11
8.1696320841
 21
7.0431622581
  0
LINE
  5
236
100
AcDbEntity
  8
03__ASM_ALL_CURVES
100
AcDbLine
 62
4
  6
CONTINUOUS
 10
8.1696320841
 20
8.8231623058
 11
8.1696320841
 21
9.0631623058
  0
LINE
  5
237
100
AcDbEntity
  8
03__ASM_ALL_CURVES
100
AcDbLine
 62
4
  6
CONTINUOUS
 10
8.1896320841
 20
9.7231623058
 11
8.1896320841
 21
9.7681623058
  0
LINE
  5
238
100
AcDbEntity
  8
03__ASM_ALL_CURVES
100
AcDbLine
 62
4
  6
CONTINUOUS
 10
8.1896320841
 20
9.8031623058
 11
8.1896320841
 21
9.8481623058
  0
LINE
  5
239
100
AcDbEntity
  8
03__ASM_ALL_CURVES
100
AcDbLine
 62
4
  6
CONTINUOUS
 10
8.1896320841
 20
9.9631623058
 11
8.1896320841
 21
10.0081623058
  0
LINE
  5
23A
100
AcDbEntity
  8
03__ASM_ALL_CURVES
100
AcDbLine
 62
4
  6
CONTINUOUS
 10
8.1896320841
 20
10.0431623058
 11
8.1896320841
 21
10.0881623058
  0
LINE
  5
23B
100
AcDbEntity
  8
03__ASM_ALL_CURVES
100
AcDbLine
 62
4
  6
CONTINUOUS
 10
8.2096320841
 20
9.9231623058
 11
8.2096320841
 21
9.9156623058
  0
LINE
  5
23C
100
AcDbEntity
  8
03__ASM_ALL_CURVES
100
AcDbLine
 62
4
  6
CONTINUOUS
 10
8.2096320841
 20
9.5081623058
 11
8.2096320841
 21
9.4981623058
  0
LINE
  5
23D
100
AcDbEntity
  8
03__ASM_ALL_CURVES
100
AcDbLine
 62
4
  6
CONTINUOUS
 10
8.2096320841
 20
9.3631623058
 11
8.2096320841
 21
9.3556623058
  0
LINE
  5
23E
100
AcDbEntity
  8
0
100
AcDbLine
 62
7
  6
CONTINUOUS
 10
8.2316320841
 20
7.4341622819
 11
8.2316320841
 21
8.3521622819
  0
LINE
  5
23F
100
AcDbEntity
  8
0
100
AcDbLine
 62
7
  6
CONTINUOUS
 10
8.2626320841
 20
7.4341622819
 11
8.2626320841
 21
8.3521622819
  0
LINE
  5
240
100
AcDbEntity
  8
03__ASM_ALL_CURVES
100
AcDbLine
 62
4
  6
CONTINUOUS
 10
8.1562987492
 20
9.5081623058
 11
8.162965419
 21
9.5181623058
  0
LINE
  5
241
100
AcDbEntity
  8
03__ASM_ALL_CURVES
100
AcDbLine
 62
4
  6
CONTINUOUS
 10
8.2096320841
 20
9.4981623058
 11
8.2029654172
 21
9.4881623058
  0
LINE
  5
242
100
AcDbEntity
  8
03__ASM_ALL_CURVES
100
AcDbLine
 62
4
  6
CONTINUOUS
 10
11.1646320841
 20
7.0031623058
 11
11.1546320841
 21
7.0031623058
  0
LINE
  5
243
100
AcDbEntity
  8
03__ASM_ALL_CURVES
100
AcDbLine
 62
4
  6
CONTINUOUS
 10
11.0196320841
 20
7.0031623058
 11
11.0121320841
 21
7.0031623058
  0
LINE
  5
244
100
AcDbEntity
  8
03__ASM_ALL_CURVES
100
AcDbLine
 62
4
  6
CONTINUOUS
 10
10.9246320841
 20
7.0031623058
 11
10.9146320841
 21
7.0031623058
  0
LINE
  5
245
100
AcDbEntity
  8
03__ASM_ALL_CURVES
100
AcDbLine
 62
4
  6
CONTINUOUS
 10
10.5396320841
 20
7.0031623058
 11
10.5321320841
 21
7.0031623058
  0
LINE
  5
246
100
AcDbEntity
  8
03__ASM_ALL_CURVES
100
AcDbLine
 62
4
  6
CONTINUOUS
 10
10.8196320841
 20
7.0231623058
 11
10.8646320841
 21
7.0231623058
  0
LINE
  5
247
100
AcDbEntity
  8
0
100
AcDbLine
 62
7
  6
CONTINUOUS
 10
9.9196320841
 20
7.0431622581
 11
8.1696320841
 21
7.0431622581
  0
LINE
  5
248
100
AcDbEntity
  8
03__ASM_ALL_CURVES
100
AcDbLine
 62
4
  6
CONTINUOUS
 10
9.9996320841
 20
7.0431623058
 11
10.2396320841
 21
7.0431623058
  0
LINE
  5
249
100
AcDbEntity
  8
03__ASM_ALL_CURVES
100
AcDbLine
 62
4
  6
CONTINUOUS
 10
10.9146320841
 20
7.0498289708
 11
10.9246320841
 21
7.0498289708
  0
LINE
  5
24A
100
AcDbEntity
  8
03__ASM_ALL_CURVES
100
AcDbLine
 62
4
  6
CONTINUOUS
 10
11.1546320841
 20
7.0498289708
 11
11.1646320841
 21
7.0498289708
  0
LINE
  5
24B
100
AcDbEntity
  8
0
100
AcDbLine
 62
7
  6
CONTINUOUS
 10
9.4816320841
 20
7.0591622819
 11
8.6066320841
 21
7.0591622819
  0
LINE
  5
24C
100
AcDbEntity
  8
03__ASM_ALL_CURVES
100
AcDbLine
 62
4
  6
CONTINUOUS
 10
10.6196320841
 20
7.0831623058
 11
10.5796320841
 21
7.0831623058
  0
LINE
  5
24D
100
AcDbEntity
  8
03__ASM_ALL_CURVES
100
AcDbLine
 62
4
  6
CONTINUOUS
 10
10.9146320841
 20
7.0831623058
 11
10.9246320841
 21
7.0831623058
  0
LINE
  5
24E
100
AcDbEntity
  8
03__ASM_ALL_CURVES
100
AcDbLine
 62
4
  6
CONTINUOUS
 10
11.1546320841
 20
7.0831623058
 11
11.1646320841
 21
7.0831623058
  0
LINE
  5
24F
100
AcDbEntity
  8
0
100
AcDbLine
 62
7
  6
CONTINUOUS
 10
9.4816320841
 20
7.0901622819
 11
8.6066320841
 21
7.0901622819
  0
LINE
  5
250
100
AcDbEntity
  8
03__ASM_ALL_CURVES
100
AcDbLine
 62
4
  6
CONTINUOUS
 10
8.1962987504
 20
9.6581623058
 11
8.2096320841
 21
9.6681623058
  0
LINE
  5
251
100
AcDbEntity
  8
03__ASM_ALL_CURVES
100
AcDbLine
 62
4
  6
CONTINUOUS
 10
8.162965419
 20
9.5181623058
 11
8.1696320841
 21
9.5231623058
  0
LINE
  5
252
100
AcDbEntity
  8
03__ASM_ALL_CURVES
100
AcDbLine
 62
4
  6
CONTINUOUS
 10
9.0046320841
 20
10.1381623058
 11
9.017965419
 21
10.1481623058
  0
LINE
  5
253
100
AcDbEntity
  8
03__ASM_ALL_CURVES
100
AcDbLine
 62
4
  6
CONTINUOUS
 10
8.2029654172
 20
9.4881623058
 11
8.1962987504
 21
9.4831623058
  0
LINE
  5
254
100
AcDbEntity
  8
03__ASM_ALL_CURVES
100
AcDbLine
 62
4
  6
CONTINUOUS
 10
9.0112987492
 20
10.0731623058
 11
9.017965419
 21
10.0781623058
  0
LINE
  5
255
100
AcDbEntity
  8
0
100
AcDbLine
 62
7
  6
CONTINUOUS
 10
8.6066320841
 20
7.0901622819
 11
8.6066320841
 21
7.0591622819
  0
LINE
  5
256
100
AcDbEntity
  8
0
100
AcDbLine
 62
7
  6
CONTINUOUS
 10
8.6066320841
 20
8.6961622819
 11
8.6066320841
 21
8.7271622819
  0
LINE
  5
257
100
AcDbEntity
  8
03__ASM_ALL_CURVES
100
AcDbLine
 62
4
  6
CONTINUOUS
 10
9.0046320841
 20
10.0631623058
 11
9.0112987492
 21
10.0731623058
  0
LINE
  5
258
100
AcDbEntity
  8
03__ASM_ALL_CURVES
100
AcDbLine
 62
4
  6
CONTINUOUS
 10
9.0046320841
 20
9.9831623058
 11
9.0112987492
 21
9.9931623058
  0
LINE
  5
259
100
AcDbEntity
  8
03__ASM_ALL_CURVES
100
AcDbLine
 62
4
  6
CONTINUOUS
 10
9.0846320841
 20
10.0631623058
 11
9.0779654172
 21
10.0531623058
  0
LINE
  5
25A
100
AcDbEntity
  8
03__ASM_ALL_CURVES
100
AcDbLine
 62
4
  6
CONTINUOUS
 10
9.0846320841
 20
9.9831623058
 11
9.0779654172
 21
9.9731623058
  0
LINE
  5
25B
100
AcDbEntity
  8
03__ASM_ALL_CURVES
100
AcDbLine
 62
4
  6
CONTINUOUS
 10
9.0779654172
 20
10.0531623058
 11
9.0712987504
 21
10.0481623058
  0
LINE
  5
25C
100
AcDbEntity
  8
03__ASM_ALL_CURVES
100
AcDbLine
 62
4
  6
CONTINUOUS
 10
9.0112987492
 20
9.9931623058
 11
9.017965419
 21
9.9981623058
  0
LINE
  5
25D
100
AcDbEntity
  8
03__ASM_ALL_CURVES
100
AcDbLine
 62
4
  6
CONTINUOUS
 10
8.1996320838
 20
9.3556623058
 11
8.2096320841
 21
9.3631623058
  0
LINE
  5
25E
100
AcDbEntity
  8
03__ASM_ALL_CURVES
100
AcDbLine
 62
4
  6
CONTINUOUS
 10
9.0779654172
 20
9.9731623058
 11
9.0712987504
 21
9.9681623058
  0
LINE
  5
25F
100
AcDbEntity
  8
03__ASM_ALL_CURVES
100
AcDbLine
 62
4
  6
CONTINUOUS
 10
9.0746320838
 20
9.9156623058
 11
9.0846320841
 21
9.9231623058
  0
LINE
  5
260
100
AcDbEntity
  8
03__ASM_ALL_CURVES
100
AcDbLine
 62
4
  6
CONTINUOUS
 10
9.0112987492
 20
9.8381623058
 11
9.017965419
 21
9.8431623058
  0
LINE
  5
261
100
AcDbEntity
  8
03__ASM_ALL_CURVES
100
AcDbLine
 62
4
  6
CONTINUOUS
 10
9.017965419
 20
10.0781623058
 11
9.0312987492
 21
10.0831623058
  0
LINE
  5
262
100
AcDbEntity
  8
03__ASM_ALL_CURVES
100
AcDbLine
 62
4
  6
CONTINUOUS
 10
9.0446320841
 20
10.0481623058
 11
9.0312987492
 21
10.0431623058
  0
LINE
  5
263
100
AcDbEntity
  8
03__ASM_ALL_CURVES
100
AcDbLine
 62
4
  6
CONTINUOUS
 10
9.017965419
 20
9.9981623058
 11
9.0312987492
 21
10.0031623058
  0
LINE
  5
264
100
AcDbEntity
  8
0
100
AcDbLine
 62
7
  6
CONTINUOUS
 10
8.2626320841
 20
7.4341622819
 11
8.2316320841
 21
7.4341622819
  0
LINE
  5
265
100
AcDbEntity
  8
0
100
AcDbLine
 62
7
  6
CONTINUOUS
 10
9.8256320841
 20
7.4341622819
 11
9.8566320841
 21
7.4341622819
  0
LINE
  5
266
100
AcDbEntity
  8
03__ASM_ALL_CURVES
100
AcDbLine
 62
4
  6
CONTINUOUS
 10
9.0512987516
 20
10.0631623058
 11
9.0446320841
 21
10.0481623058
  0
LINE
  5
267
100
AcDbEntity
  8
03__ASM_ALL_CURVES
100
AcDbLine
 62
4
  6
CONTINUOUS
 10
9.0046320841
 20
9.8281623058
 11
9.0112987492
 21
9.8381623058
  0
LINE
  5
268
100
AcDbEntity
  8
03__ASM_ALL_CURVES
100
AcDbLine
 62
4
  6
CONTINUOUS
 10
9.0046320841
 20
9.7481623058
 11
9.0112987492
 21
9.7581623058
  0
LINE
  5
269
100
AcDbEntity
  8
03__ASM_ALL_CURVES
100
AcDbLine
 62
4
  6
CONTINUOUS
 10
9.0112987492
 20
9.7581623058
 11
9.017965419
 21
9.7631623058
  0
LINE
  5
26A
100
AcDbEntity
  8
03__ASM_ALL_CURVES
100
AcDbLine
 62
4
  6
CONTINUOUS
 10
9.0712987504
 20
9.9681623058
 11
9.0579654166
 21
9.9631623058
  0
LINE
  5
26B
100
AcDbEntity
  8
03__ASM_ALL_CURVES
100
AcDbLine
 62
4
  6
CONTINUOUS
 10
8.1696320841
 20
9.5231623058
 11
8.1829654166
 21
9.5281623058
  0
LINE
  5
26C
100
AcDbEntity
  8
03__ASM_ALL_CURVES
100
AcDbLine
 62
4
  6
CONTINUOUS
 10
11.0996320841
 20
7.6411623058
 11
11.0921320841
 21
7.6411623058
  0
LINE
  5
26D
100
AcDbEntity
  8
03__ASM_ALL_CURVES
100
AcDbLine
 62
4
  6
CONTINUOUS
 10
10.5396320841
 20
7.6411623058
 11
10.5321320841
 21
7.6411623058
  0
LINE
  5
26E
100
AcDbEntity
  8
03__ASM_ALL_CURVES
100
AcDbLine
 62
4
  6
CONTINUOUS
 10
10.8996320841
 20
7.6411623058
 11
10.9396320841
 21
7.6411623058
  0
LINE
  5
26F
100
AcDbEntity
  8
03__ASM_ALL_CURVES
100
AcDbLine
 62
4
  6
CONTINUOUS
 10
11.2196320841
 20
7.6411623058
 11
11.2596320841
 21
7.6411623058
  0
LINE
  5
270
100
AcDbEntity
  8
03__ASM_ALL_CURVES
100
AcDbLine
 62
4
  6
CONTINUOUS
 10
9.0046320841
 20
9.4281623058
 11
9.0112987492
 21
9.4381623058
  0
LINE
  5
271
100
AcDbEntity
  8
03__ASM_ALL_CURVES
100
AcDbLine
 62
4
  6
CONTINUOUS
 10
9.037965419
 20
9.4281623058
 11
9.0446320841
 21
9.4381623058
  0
LINE
  5
272
100
AcDbEntity
  8
03__ASM_ALL_CURVES
100
AcDbLine
 62
4
  6
CONTINUOUS
 10
9.037965419
 20
9.4181623058
 11
9.0312987492
 21
9.4081623058
  0
LINE
  5
273
100
AcDbEntity
  8
03__ASM_ALL_CURVES
100
AcDbLine
 62
4
  6
CONTINUOUS
 10
9.0846320841
 20
9.4181623058
 11
9.0779654172
 21
9.4081623058
  0
LINE
  5
274
100
AcDbEntity
  8
03__ASM_ALL_CURVES
100
AcDbLine
 62
4
  6
CONTINUOUS
 10
9.0046320841
 20
9.2631623058
 11
9.0112987492
 21
9.2731623058
  0
LINE
  5
275
100
AcDbEntity
  8
03__ASM_ALL_CURVES
100
AcDbLine
 62
4
  6
CONTINUOUS
 10
9.0712987504
 20
9.6581623058
 11
9.0846320841
 21
9.6681623058
  0
LINE
  5
276
100
AcDbEntity
  8
03__ASM_ALL_CURVES
100
AcDbLine
 62
4
  6
CONTINUOUS
 10
9.0112987492
 20
9.4381623058
 11
9.017965419
 21
9.4431623058
  0
LINE
  5
277
100
AcDbEntity
  8
03__ASM_ALL_CURVES
100
AcDbLine
 62
4
  6
CONTINUOUS
 10
9.0446320841
 20
9.4381623058
 11
9.0579654166
 21
9.4481623058
  0
LINE
  5
278
100
AcDbEntity
  8
03__ASM_ALL_CURVES
100
AcDbLine
 62
4
  6
CONTINUOUS
 10
9.9996320841
 20
7.6811623058
 11
10.2396320841
 21
7.6811623058
  0
LINE
  5
279
100
AcDbEntity
  8
03__ASM_ALL_CURVES
100
AcDbLine
 62
4
  6
CONTINUOUS
 10
10.9146320841
 20
7.7211623058
 11
10.9246320841
 21
7.7211623058
  0
LINE
  5
27A
100
AcDbEntity
  8
03__ASM_ALL_CURVES
100
AcDbLine
 62
4
  6
CONTINUOUS
 10
11.2346320841
 20
7.7211623058
 11
11.2446320841
 21
7.7211623058
  0
LINE
  5
27B
100
AcDbEntity
  8
03__ASM_ALL_CURVES
100
AcDbLine
 62
4
  6
CONTINUOUS
 10
10.9146320841
 20
7.0031623058
 11
10.9046320841
 21
7.0098289726
  0
LINE
  5
27C
100
AcDbEntity
  8
03__ASM_ALL_CURVES
100
AcDbLine
 62
4
  6
CONTINUOUS
 10
8.162965419
 20
9.4881623058
 11
8.1562987492
 21
9.4981623058
  0
LINE
  5
27D
100
AcDbEntity
  8
03__ASM_ALL_CURVES
100
AcDbLine
 62
4
  6
CONTINUOUS
 10
8.2029654172
 20
9.5181623058
 11
8.2096320841
 21
9.5081623058
  0
LINE
  5
27E
100
AcDbEntity
  8
03__ASM_ALL_CURVES
100
AcDbLine
 62
4
  6
CONTINUOUS
 10
9.0046320841
 20
9.5231623058
 11
9.0046320841
 21
9.4831623058
  0
LINE
  5
27F
100
AcDbEntity
  8
03__ASM_ALL_CURVES
100
AcDbLine
 62
4
  6
CONTINUOUS
 10
9.0046320841
 20
9.4181623058
 11
9.0046320841
 21
9.4281623058
  0
LINE
  5
280
100
AcDbEntity
  8
03__ASM_ALL_CURVES
100
AcDbLine
 62
4
  6
CONTINUOUS
 10
9.0046320841
 20
9.7381623058
 11
9.0046320841
 21
9.7481623058
  0
LINE
  5
281
100
AcDbEntity
  8
03__ASM_ALL_CURVES
100
AcDbLine
 62
4
  6
CONTINUOUS
 10
9.0046320841
 20
9.8181623058
 11
9.0046320841
 21
9.8281623058
  0
LINE
  5
282
100
AcDbEntity
  8
03__ASM_ALL_CURVES
100
AcDbLine
 62
4
  6
CONTINUOUS
 10
9.037965419
 20
9.4181623058
 11
9.037965419
 21
9.4281623058
  0
LINE
  5
283
100
AcDbEntity
  8
03__ASM_ALL_CURVES
100
AcDbLine
 62
4
  6
CONTINUOUS
 10
9.0446320841
 20
8.8231623058
 11
9.0446320841
 21
9.0631623058
  0
LINE
  5
284
100
AcDbEntity
  8
03__ASM_ALL_CURVES
100
AcDbLine
 62
4
  6
CONTINUOUS
 10
9.0846320841
 20
9.9231623058
 11
9.0846320841
 21
9.9156623058
  0
LINE
  5
285
100
AcDbEntity
  8
03__ASM_ALL_CURVES
100
AcDbLine
 62
4
  6
CONTINUOUS
 10
9.0846320841
 20
9.4281623058
 11
9.0846320841
 21
9.4181623058
  0
LINE
  5
286
100
AcDbEntity
  8
03__ASM_ALL_CURVES
100
AcDbLine
 62
4
  6
CONTINUOUS
 10
9.0846320841
 20
9.3631623058
 11
9.0846320841
 21
9.3556623058
  0
LINE
  5
287
100
AcDbEntity
  8
03__ASM_ALL_CURVES
100
AcDbLine
 62
4
  6
CONTINUOUS
 10
9.0846320841
 20
9.7231623058
 11
9.0846320841
 21
9.7631623058
  0
LINE
  5
288
100
AcDbEntity
  8
03__ASM_ALL_CURVES
100
AcDbLine
 62
4
  6
CONTINUOUS
 10
9.0846320841
 20
9.8031623058
 11
9.0846320841
 21
9.8431623058
  0
LINE
  5
289
100
AcDbEntity
  8
03__ASM_ALL_CURVES
100
AcDbLine
 62
4
  6
CONTINUOUS
 10
9.0846320841
 20
9.2631623058
 11
9.0779654172
 21
9.2531623058
  0
LINE
  5
28A
100
AcDbEntity
  8
03__ASM_ALL_CURVES
100
AcDbLine
 62
4
  6
CONTINUOUS
 10
9.0312987492
 20
9.4081623058
 11
9.0246320841
 21
9.4031623058
  0
LINE
  5
28B
100
AcDbEntity
  8
03__ASM_ALL_CURVES
100
AcDbLine
 62
4
  6
CONTINUOUS
 10
9.0779654172
 20
9.4081623058
 11
9.0646320841
 21
9.3981623058
  0
LINE
  5
28C
100
AcDbEntity
  8
03__ASM_ALL_CURVES
100
AcDbLine
 62
4
  6
CONTINUOUS
 10
9.0746320838
 20
9.3556623058
 11
9.0846320841
 21
9.3631623058
  0
LINE
  5
28D
100
AcDbEntity
  8
03__ASM_ALL_CURVES
100
AcDbLine
 62
4
  6
CONTINUOUS
 10
9.0112987492
 20
9.2731623058
 11
9.017965419
 21
9.2781623058
  0
LINE
  5
28E
100
AcDbEntity
  8
03__ASM_ALL_CURVES
100
AcDbLine
 62
4
  6
CONTINUOUS
 10
9.0779654172
 20
9.2531623058
 11
9.0712987504
 21
9.2481623058
  0
LINE
  5
28F
100
AcDbEntity
  8
03__ASM_ALL_CURVES
100
AcDbLine
 62
4
  6
CONTINUOUS
 10
10.9246320841
 20
7.0498289708
 11
10.9346320841
 21
7.0431623058
  0
LINE
  5
290
100
AcDbEntity
  8
03__ASM_ALL_CURVES
100
AcDbLine
 62
4
  6
CONTINUOUS
 10
10.9246320841
 20
7.0831623058
 11
10.9346320841
 21
7.0764956407
  0
LINE
  5
291
100
AcDbEntity
  8
03__ASM_ALL_CURVES
100
AcDbLine
 62
4
  6
CONTINUOUS
 10
11.1546320841
 20
7.0031623058
 11
11.1446320841
 21
7.0098289726
  0
LINE
  5
292
100
AcDbEntity
  8
03__ASM_ALL_CURVES
100
AcDbLine
 62
4
  6
CONTINUOUS
 10
11.1546320841
 20
7.0498289708
 11
11.1446320841
 21
7.0564956407
  0
LINE
  5
293
100
AcDbEntity
  8
03__ASM_ALL_CURVES
100
AcDbLine
 62
4
  6
CONTINUOUS
 10
11.1646320841
 20
7.0498289708
 11
11.1746320841
 21
7.0431623058
  0
LINE
  5
294
100
AcDbEntity
  8
03__ASM_ALL_CURVES
100
AcDbLine
 62
4
  6
CONTINUOUS
 10
9.017965419
 20
9.2781623058
 11
9.0312987492
 21
9.2831623058
  0
LINE
  5
295
100
AcDbEntity
  8
03__ASM_ALL_CURVES
100
AcDbLine
 62
4
  6
CONTINUOUS
 10
9.0712987504
 20
9.2481623058
 11
9.0579654166
 21
9.2431623058
  0
LINE
  5
296
100
AcDbEntity
  8
03__ASM_ALL_CURVES
100
AcDbLine
 62
4
  6
CONTINUOUS
 10
10.6796320841
 20
7.6878289708
 11
10.6946320841
 21
7.6811623058
  0
LINE
  5
297
100
AcDbEntity
  8
03__ASM_ALL_CURVES
100
AcDbLine
 62
4
  6
CONTINUOUS
 10
11.1646320841
 20
7.0831623058
 11
11.1746320841
 21
7.0764956407
  0
LINE
  5
298
100
AcDbEntity
  8
03__ASM_ALL_CURVES
100
AcDbLine
 62
4
  6
CONTINUOUS
 10
10.5996320841
 20
7.6411623058
 11
10.5896320841
 21
7.6478289726
  0
LINE
  5
299
100
AcDbEntity
  8
03__ASM_ALL_CURVES
100
AcDbLine
 62
4
  6
CONTINUOUS
 10
10.5321320841
 20
7.0131623061
 11
10.5396320841
 21
7.0031623058
  0
LINE
  5
29A
100
AcDbEntity
  8
0
100
AcDbLine
 62
7
  6
CONTINUOUS
 10
9.4816320841
 20
7.0901622819
 11
9.4816320841
 21
7.0591622819
  0
LINE
  5
29B
100
AcDbEntity
  8
0
100
AcDbLine
 62
7
  6
CONTINUOUS
 10
9.4816320841
 20
8.6961622819
 11
9.4816320841
 21
8.7271622819
  0
LINE
  5
29C
100
AcDbEntity
  8
03__ASM_ALL_CURVES
100
AcDbLine
 62
4
  6
CONTINUOUS
 10
10.9996320841
 20
7.6878289708
 11
11.0146320841
 21
7.6811623058
  0
LINE
  5
29D
100
AcDbEntity
  8
03__ASM_ALL_CURVES
100
AcDbLine
 62
4
  6
CONTINUOUS
 10
11.1596320841
 20
7.6744956383
 11
11.1446320841
 21
7.6811623058
  0
LINE
  5
29E
100
AcDbEntity
  8
03__ASM_ALL_CURVES
100
AcDbLine
 62
4
  6
CONTINUOUS
 10
10.6796320841
 20
7.6411623058
 11
10.6696320841
 21
7.6478289726
  0
LINE
  5
29F
100
AcDbEntity
  8
03__ASM_ALL_CURVES
100
AcDbLine
 62
4
  6
CONTINUOUS
 10
10.5996320841
 20
7.7211623058
 11
10.6096320841
 21
7.7144956407
  0
LINE
  5
2A0
100
AcDbEntity
  8
03__ASM_ALL_CURVES
100
AcDbLine
 62
4
  6
CONTINUOUS
 10
10.6796320841
 20
7.7211623058
 11
10.6896320841
 21
7.7144956407
  0
LINE
  5
2A1
100
AcDbEntity
  8
03__ASM_ALL_CURVES
100
AcDbLine
 62
4
  6
CONTINUOUS
 10
8.1962987504
 20
9.5231623058
 11
8.2029654172
 21
9.5181623058
  0
LINE
  5
2A2
100
AcDbEntity
  8
03__ASM_ALL_CURVES
100
AcDbLine
 62
4
  6
CONTINUOUS
 10
10.7546320841
 20
7.0164956395
 11
10.7646320841
 21
7.0031623058
  0
LINE
  5
2A3
100
AcDbEntity
  8
03__ASM_ALL_CURVES
100
AcDbLine
 62
4
  6
CONTINUOUS
 10
9.0112987492
 20
9.2531623058
 11
9.0046320841
 21
9.2631623058
  0
LINE
  5
2A4
100
AcDbEntity
  8
03__ASM_ALL_CURVES
100
AcDbLine
 62
4
  6
CONTINUOUS
 10
9.0779654172
 20
9.2731623058
 11
9.0846320841
 21
9.2631623058
  0
LINE
  5
2A5
100
AcDbEntity
  8
03__ASM_ALL_CURVES
100
AcDbLine
 62
4
  6
CONTINUOUS
 10
9.0112987492
 20
9.4081623058
 11
9.0046320841
 21
9.4181623058
  0
LINE
  5
2A6
100
AcDbEntity
  8
03__ASM_ALL_CURVES
100
AcDbLine
 62
4
  6
CONTINUOUS
 10
9.8796320841
 20
9.2631623058
 11
9.8862987492
 21
9.2731623058
  0
LINE
  5
2A7
100
AcDbEntity
  8
03__ASM_ALL_CURVES
100
AcDbLine
 62
4
  6
CONTINUOUS
 10
9.8862987492
 20
9.2731623058
 11
9.892965419
 21
9.2781623058
  0
LINE
  5
2A8
100
AcDbEntity
  8
03__ASM_ALL_CURVES
100
AcDbLine
 62
4
  6
CONTINUOUS
 10
9.9529654172
 20
9.2531623058
 11
9.9462987504
 21
9.2481623058
  0
LINE
  5
2A9
100
AcDbEntity
  8
03__ASM_ALL_CURVES
100
AcDbLine
 62
4
  6
CONTINUOUS
 10
9.892965419
 20
9.2781623058
 11
9.9062987492
 21
9.2831623058
  0
LINE
  5
2AA
100
AcDbEntity
  8
03__ASM_ALL_CURVES
100
AcDbLine
 62
4
  6
CONTINUOUS
 10
9.9462987504
 20
9.2481623058
 11
9.9329654166
 21
9.2431623058
  0
LINE
  5
2AB
100
AcDbEntity
  8
0
100
AcDbLine
 62
7
  6
CONTINUOUS
 10
8.2626320841
 20
8.3521622819
 11
8.2316320841
 21
8.3521622819
  0
LINE
  5
2AC
100
AcDbEntity
  8
0
100
AcDbLine
 62
7
  6
CONTINUOUS
 10
9.8256320841
 20
8.3521622819
 11
9.8566320841
 21
8.3521622819
  0
LINE
  5
2AD
100
AcDbEntity
  8
03__ASM_ALL_CURVES
100
AcDbLine
 62
4
  6
CONTINUOUS
 10
10.9996320841
 20
7.6411623058
 11
10.9896320841
 21
7.6478289726
  0
LINE
  5
2AE
100
AcDbEntity
  8
03__ASM_ALL_CURVES
100
AcDbLine
 62
4
  6
CONTINUOUS
 10
10.9246320841
 20
7.7211623058
 11
10.9346320841
 21
7.7144956407
  0
LINE
  5
2AF
100
AcDbEntity
  8
03__ASM_ALL_CURVES
100
AcDbLine
 62
4
  6
CONTINUOUS
 10
10.9996320841
 20
7.7211623058
 11
11.0096320841
 21
7.7144956407
  0
LINE
  5
2B0
100
AcDbEntity
  8
03__ASM_ALL_CURVES
100
AcDbLine
 62
4
  6
CONTINUOUS
 10
11.1596320841
 20
7.6411623058
 11
11.1496320841
 21
7.6478289726
  0
LINE
  5
2B1
100
AcDbEntity
  8
03__ASM_ALL_CURVES
100
AcDbLine
 62
4
  6
CONTINUOUS
 10
8.1296320841
 20
9.6681623058
 11
8.142965419
 21
9.6581623058
  0
LINE
  5
2B2
100
AcDbEntity
  8
03__ASM_ALL_CURVES
100
AcDbLine
 62
4
  6
CONTINUOUS
 10
10.9046320841
 20
7.0098289726
 11
10.8996320841
 21
7.0164956395
  0
LINE
  5
2B3
100
AcDbEntity
  8
03__ASM_ALL_CURVES
100
AcDbLine
 62
4
  6
CONTINUOUS
 10
10.9346320841
 20
7.0431623058
 11
10.9446320841
 21
7.0298289732
  0
LINE
  5
2B4
100
AcDbEntity
  8
03__ASM_ALL_CURVES
100
AcDbLine
 62
4
  6
CONTINUOUS
 10
10.9346320841
 20
7.0764956407
 11
10.9396320841
 21
7.0698289708
  0
LINE
  5
2B5
100
AcDbEntity
  8
03__ASM_ALL_CURVES
100
AcDbLine
 62
4
  6
CONTINUOUS
 10
9.0446320841
 20
9.4081623058
 11
9.037965419
 21
9.4181623058
  0
LINE
  5
2B6
100
AcDbEntity
  8
03__ASM_ALL_CURVES
100
AcDbLine
 62
4
  6
CONTINUOUS
 10
9.0312987492
 20
9.4381623058
 11
9.037965419
 21
9.4281623058
  0
LINE
  5
2B7
100
AcDbEntity
  8
03__ASM_ALL_CURVES
100
AcDbLine
 62
4
  6
CONTINUOUS
 10
9.0779654172
 20
9.4381623058
 11
9.0846320841
 21
9.4281623058
  0
LINE
  5
2B8
100
AcDbEntity
  8
03__ASM_ALL_CURVES
100
AcDbLine
 62
4
  6
CONTINUOUS
 10
9.0112987492
 20
9.7281623058
 11
9.0046320841
 21
9.7381623058
  0
LINE
  5
2B9
100
AcDbEntity
  8
03__ASM_ALL_CURVES
100
AcDbLine
 62
4
  6
CONTINUOUS
 10
9.0446320841
 20
10.0781623058
 11
9.0512987516
 21
10.0631623058
  0
LINE
  5
2BA
100
AcDbEntity
  8
0
100
AcDbLine
 62
7
  6
CONTINUOUS
 10
9.8256320841
 20
8.3521622819
 11
9.8256320841
 21
7.4341622819
  0
LINE
  5
2BB
100
AcDbEntity
  8
0
100
AcDbLine
 62
7
  6
CONTINUOUS
 10
9.8566320841
 20
8.3521622819
 11
9.8566320841
 21
7.4341622819
  0
LINE
  5
2BC
100
AcDbEntity
  8
03__ASM_ALL_CURVES
100
AcDbLine
 62
4
  6
CONTINUOUS
 10
9.9596320841
 20
9.2631623058
 11
9.9529654172
 21
9.2531623058
  0
LINE
  5
2BD
100
AcDbEntity
  8
0
100
AcDbLine
 62
7
  6
CONTINUOUS
 10
8.6066320841
 20
8.6961622819
 11
9.4816320841
 21
8.6961622819
  0
LINE
  5
2BE
100
AcDbEntity
  8
03__ASM_ALL_CURVES
100
AcDbLine
 62
4
  6
CONTINUOUS
 10
8.1296320841
 20
9.7581623058
 11
8.1896320841
 21
9.7231623058
  0
LINE
  5
2BF
100
AcDbEntity
  8
03__ASM_ALL_CURVES
100
AcDbLine
 62
4
  6
CONTINUOUS
 10
11.1596320841
 20
7.7211623058
 11
11.1696320841
 21
7.7144956407
  0
LINE
  5
2C0
100
AcDbEntity
  8
03__ASM_ALL_CURVES
100
AcDbLine
 62
4
  6
CONTINUOUS
 10
11.2446320841
 20
7.7211623058
 11
11.2546320841
 21
7.7144956407
  0
LINE
  5
2C1
100
AcDbEntity
  8
03__ASM_ALL_CURVES
100
AcDbLine
 62
4
  6
CONTINUOUS
 10
9.017965419
 20
9.2481623058
 11
9.0112987492
 21
9.2531623058
  0
LINE
  5
2C2
100
AcDbEntity
  8
03__ASM_ALL_CURVES
100
AcDbLine
 62
4
  6
CONTINUOUS
 10
9.0712987504
 20
9.2781623058
 11
9.0779654172
 21
9.2731623058
  0
LINE
  5
2C3
100
AcDbEntity
  8
03__ASM_ALL_CURVES
100
AcDbLine
 62
4
  6
CONTINUOUS
 10
9.017965419
 20
9.4031623058
 11
9.0112987492
 21
9.4081623058
  0
LINE
  5
2C4
100
AcDbEntity
  8
03__ASM_ALL_CURVES
100
AcDbLine
 62
4
  6
CONTINUOUS
 10
10.5321320841
 20
7.6511623061
 11
10.5396320841
 21
7.6411623058
  0
LINE
  5
2C5
100
AcDbEntity
  8
03__ASM_ALL_CURVES
100
AcDbLine
 62
4
  6
CONTINUOUS
 10
11.0121320841
 20
7.0131623061
 11
11.0196320841
 21
7.0031623058
  0
LINE
  5
2C6
100
AcDbEntity
  8
03__ASM_ALL_CURVES
100
AcDbLine
 62
4
  6
CONTINUOUS
 10
10.5896320841
 20
7.6478289726
 11
10.5846320841
 21
7.6544956395
  0
LINE
  5
2C7
100
AcDbEntity
  8
03__ASM_ALL_CURVES
100
AcDbLine
 62
4
  6
CONTINUOUS
 10
10.6096320841
 20
7.7144956407
 11
10.6146320841
 21
7.7078289708
  0
LINE
  5
2C8
100
AcDbEntity
  8
03__ASM_ALL_CURVES
100
AcDbLine
 62
4
  6
CONTINUOUS
 10
11.1446320841
 20
7.0098289726
 11
11.1346320841
 21
7.0231623058
  0
LINE
  5
2C9
100
AcDbEntity
  8
03__ASM_ALL_CURVES
100
AcDbLine
 62
4
  6
CONTINUOUS
 10
10.6696320841
 20
7.6478289726
 11
10.6646320841
 21
7.6544956395
  0
LINE
  5
2CA
100
AcDbEntity
  8
03__ASM_ALL_CURVES
100
AcDbLine
 62
4
  6
CONTINUOUS
 10
11.1446320841
 20
7.0564956407
 11
11.1396320841
 21
7.0631623058
  0
LINE
  5
2CB
100
AcDbEntity
  8
03__ASM_ALL_CURVES
100
AcDbLine
 62
4
  6
CONTINUOUS
 10
11.1746320841
 20
7.0431623058
 11
11.1846320841
 21
7.0298289732
  0
LINE
  5
2CC
100
AcDbEntity
  8
03__ASM_ALL_CURVES
100
AcDbLine
 62
4
  6
CONTINUOUS
 10
9.037965419
 20
9.7581623058
 11
9.0512987516
 21
9.7381623058
  0
LINE
  5
2CD
100
AcDbEntity
  8
03__ASM_ALL_CURVES
100
AcDbLine
 62
4
  6
CONTINUOUS
 10
9.0112987492
 20
9.8081623058
 11
9.0046320841
 21
9.8181623058
  0
LINE
  5
2CE
100
AcDbEntity
  8
03__ASM_ALL_CURVES
100
AcDbLine
 62
4
  6
CONTINUOUS
 10
9.037965419
 20
9.8381623058
 11
9.0512987516
 21
9.8181623058
  0
LINE
  5
2CF
100
AcDbEntity
  8
03__ASM_ALL_CURVES
100
AcDbLine
 62
4
  6
CONTINUOUS
 10
9.0112987492
 20
9.9731623058
 11
9.0046320841
 21
9.9831623058
  0
LINE
  5
2D0
100
AcDbEntity
  8
03__ASM_ALL_CURVES
100
AcDbLine
 62
4
  6
CONTINUOUS
 10
9.0112987492
 20
10.0531623058
 11
9.0046320841
 21
10.0631623058
  0
LINE
  5
2D1
100
AcDbEntity
  8
0
100
AcDbLine
 62
7
  6
CONTINUOUS
 10
9.9196320841
 20
8.7431623058
 11
9.9196320841
 21
7.0431622581
  0
LINE
  5
2D2
100
AcDbEntity
  8
03__ASM_ALL_CURVES
100
AcDbLine
 62
4
  6
CONTINUOUS
 10
9.9196320841
 20
8.8231623058
 11
9.9196320841
 21
9.0631623058
  0
LINE
  5
2D3
100
AcDbEntity
  8
0
100
AcDbLine
 62
7
  6
CONTINUOUS
 10
8.6066320841
 20
8.7271622819
 11
9.4816320841
 21
8.7271622819
  0
LINE
  5
2D4
100
AcDbEntity
  8
0
100
AcDbLine
 62
7
  6
CONTINUOUS
 10
9.9196320841
 20
8.7431623058
 11
8.1696320841
 21
8.7431623058
  0
LINE
  5
2D5
100
AcDbEntity
  8
03__ASM_ALL_CURVES
100
AcDbLine
 62
4
  6
CONTINUOUS
 10
9.9996320841
 20
8.7431623058
 11
10.2396320841
 21
8.7431623058
  0
LINE
  5
2D6
100
AcDbEntity
  8
03__ASM_ALL_CURVES
100
AcDbLine
 62
4
  6
CONTINUOUS
 10
8.1562987492
 20
9.4331623058
 11
8.1296320841
 21
9.4431623058
  0
LINE
  5
2D7
100
AcDbEntity
  8
03__ASM_ALL_CURVES
100
AcDbLine
 62
4
  6
CONTINUOUS
 10
8.1829654166
 20
9.5281623058
 11
8.1962987504
 21
9.5231623058
  0
LINE
  5
2D8
100
AcDbEntity
  8
03__ASM_ALL_CURVES
100
AcDbLine
 62
4
  6
CONTINUOUS
 10
9.0312987492
 20
9.2431623058
 11
9.017965419
 21
9.2481623058
  0
LINE
  5
2D9
100
AcDbEntity
  8
03__ASM_ALL_CURVES
100
AcDbLine
 62
4
  6
CONTINUOUS
 10
8.1296320841
 20
9.8381623058
 11
8.1896320841
 21
9.8031623058
  0
LINE
  5
2DA
100
AcDbEntity
  8
03__ASM_ALL_CURVES
100
AcDbLine
 62
4
  6
CONTINUOUS
 10
9.0579654166
 20
9.3981623058
 11
9.0446320841
 21
9.4081623058
  0
LINE
  5
2DB
100
AcDbEntity
  8
03__ASM_ALL_CURVES
100
AcDbLine
 62
4
  6
CONTINUOUS
 10
9.0246320841
 20
9.4431623058
 11
9.0312987492
 21
9.4381623058
  0
LINE
  5
2DC
100
AcDbEntity
  8
03__ASM_ALL_CURVES
100
AcDbLine
 62
4
  6
CONTINUOUS
 10
9.0646320841
 20
9.4481623058
 11
9.0779654172
 21
9.4381623058
  0
LINE
  5
2DD
100
AcDbEntity
  8
03__ASM_ALL_CURVES
100
AcDbLine
 62
4
  6
CONTINUOUS
 10
8.1962987504
 20
10.1481623058
 11
8.2096320841
 21
10.1381623058
  0
LINE
  5
2DE
100
AcDbEntity
  8
03__ASM_ALL_CURVES
100
AcDbLine
 62
4
  6
CONTINUOUS
 10
10.6896320841
 20
7.7144956407
 11
10.6946320841
 21
7.7078289708
  0
LINE
  5
2DF
100
AcDbEntity
  8
03__ASM_ALL_CURVES
100
AcDbLine
 62
4
  6
CONTINUOUS
 10
11.1746320841
 20
7.0764956407
 11
11.1796320841
 21
7.0698289708
  0
LINE
  5
2E0
100
AcDbEntity
  8
03__ASM_ALL_CURVES
100
AcDbLine
 62
4
  6
CONTINUOUS
 10
11.2346320841
 20
7.0831623058
 11
11.2446320841
 21
7.0698289708
  0
LINE
  5
2E1
100
AcDbEntity
  8
03__ASM_ALL_CURVES
100
AcDbLine
 62
4
  6
CONTINUOUS
 10
10.8346320841
 20
7.6544956395
 11
10.8446320841
 21
7.6411623058
  0
LINE
  5
2E2
100
AcDbEntity
  8
03__ASM_ALL_CURVES
100
AcDbLine
 62
4
  6
CONTINUOUS
 10
9.0779654172
 20
9.9931623058
 11
9.0846320841
 21
9.9831623058
  0
LINE
  5
2E3
100
AcDbEntity
  8
03__ASM_ALL_CURVES
100
AcDbLine
 62
4
  6
CONTINUOUS
 10
9.0779654172
 20
10.0731623058
 11
9.0846320841
 21
10.0631623058
  0
LINE
  5
2E4
100
AcDbEntity
  8
03__ASM_ALL_CURVES
100
AcDbLine
 62
4
  6
CONTINUOUS
 10
8.1762987516
 20
9.4281623058
 11
8.1562987492
 21
9.4331623058
  0
LINE
  5
2E5
100
AcDbEntity
  8
03__ASM_ALL_CURVES
100
AcDbLine
 62
4
  6
CONTINUOUS
 10
9.0579654166
 20
9.2831623058
 11
9.0712987504
 21
9.2781623058
  0
LINE
  5
2E6
100
AcDbEntity
  8
03__ASM_ALL_CURVES
100
AcDbLine
 62
4
  6
CONTINUOUS
 10
8.1296320841
 20
9.9981623058
 11
8.1896320841
 21
9.9631623058
  0
LINE
  5
2E7
100
AcDbEntity
  8
03__ASM_ALL_CURVES
100
AcDbLine
 62
4
  6
CONTINUOUS
 10
8.1296320841
 20
10.0781623058
 11
8.1896320841
 21
10.0431623058
  0
LINE
  5
2E8
100
AcDbEntity
  8
03__ASM_ALL_CURVES
100
AcDbLine
 62
4
  6
CONTINUOUS
 10
10.4396320841
 20
8.7031623058
 11
10.4296320841
 21
8.7098289726
  0
LINE
  5
2E9
100
AcDbEntity
  8
03__ASM_ALL_CURVES
100
AcDbLine
 62
4
  6
CONTINUOUS
 10
10.4396320841
 20
8.7831623058
 11
10.4496320841
 21
8.7764956407
  0
LINE
  5
2EA
100
AcDbEntity
  8
03__ASM_ALL_CURVES
100
AcDbLine
 62
4
  6
CONTINUOUS
 10
9.0046320841
 20
9.6681623058
 11
9.017965419
 21
9.6581623058
  0
LINE
  5
2EB
100
AcDbEntity
  8
03__ASM_ALL_CURVES
100
AcDbLine
 62
4
  6
CONTINUOUS
 10
9.017965419
 20
9.7231623058
 11
9.0112987492
 21
9.7281623058
  0
LINE
  5
2EC
100
AcDbEntity
  8
03__ASM_ALL_CURVES
100
AcDbLine
 62
4
  6
CONTINUOUS
 10
9.0512987516
 20
9.7381623058
 11
9.0646320841
 21
9.7281623058
  0
LINE
  5
2ED
100
AcDbEntity
  8
03__ASM_ALL_CURVES
100
AcDbLine
 62
4
  6
CONTINUOUS
 10
9.0312987492
 20
9.7631623058
 11
9.037965419
 21
9.7581623058
  0
LINE
  5
2EE
100
AcDbEntity
  8
03__ASM_ALL_CURVES
100
AcDbLine
 62
4
  6
CONTINUOUS
 10
9.017965419
 20
9.8031623058
 11
9.0112987492
 21
9.8081623058
  0
LINE
  5
2EF
100
AcDbEntity
  8
03__ASM_ALL_CURVES
100
AcDbLine
 62
4
  6
CONTINUOUS
 10
9.0512987516
 20
9.8181623058
 11
9.0646320841
 21
9.8081623058
  0
LINE
  5
2F0
100
AcDbEntity
  8
03__ASM_ALL_CURVES
100
AcDbLine
 62
4
  6
CONTINUOUS
 10
9.0312987492
 20
9.8431623058
 11
9.037965419
 21
9.8381623058
  0
LINE
  5
2F1
100
AcDbEntity
  8
03__ASM_ALL_CURVES
100
AcDbLine
 62
4
  6
CONTINUOUS
 10
10.9346320841
 20
7.7144956407
 11
10.9396320841
 21
7.7078289708
  0
LINE
  5
2F2
100
AcDbEntity
  8
03__ASM_ALL_CURVES
100
AcDbLine
 62
4
  6
CONTINUOUS
 10
10.9896320841
 20
7.6478289726
 11
10.9846320841
 21
7.6544956395
  0
LINE
  5
2F3
100
AcDbEntity
  8
03__ASM_ALL_CURVES
100
AcDbLine
 62
4
  6
CONTINUOUS
 10
11.0096320841
 20
7.7144956407
 11
11.0146320841
 21
7.7078289708
  0
LINE
  5
2F4
100
AcDbEntity
  8
03__ASM_ALL_CURVES
100
AcDbLine
 62
4
  6
CONTINUOUS
 10
11.0921320841
 20
7.6511623061
 11
11.0996320841
 21
7.6411623058
  0
LINE
  5
2F5
100
AcDbEntity
  8
03__ASM_ALL_CURVES
100
AcDbLine
 62
4
  6
CONTINUOUS
 10
11.1496320841
 20
7.6478289726
 11
11.1446320841
 21
7.6544956395
  0
LINE
  5
2F6
100
AcDbEntity
  8
03__ASM_ALL_CURVES
100
AcDbLine
 62
4
  6
CONTINUOUS
 10
9.8862987492
 20
9.2531623058
 11
9.8796320841
 21
9.2631623058
  0
LINE
  5
2F7
100
AcDbEntity
  8
03__ASM_ALL_CURVES
100
AcDbLine
 62
4
  6
CONTINUOUS
 10
9.9529654172
 20
9.2731623058
 11
9.9596320841
 21
9.2631623058
  0
LINE
  5
2F8
100
AcDbEntity
  8
03__ASM_ALL_CURVES
100
AcDbLine
 62
4
  6
CONTINUOUS
 10
10.5846320841
 20
7.6544956395
 11
10.5796320841
 21
7.6678289732
  0
LINE
  5
2F9
100
AcDbEntity
  8
03__ASM_ALL_CURVES
100
AcDbLine
 62
4
  6
CONTINUOUS
 10
10.6146320841
 20
7.7078289708
 11
10.6196320841
 21
7.6944956407
  0
LINE
  5
2FA
100
AcDbEntity
  8
03__ASM_ALL_CURVES
100
AcDbLine
 62
4
  6
CONTINUOUS
 10
10.6646320841
 20
7.6544956395
 11
10.6596320841
 21
7.6678289732
  0
LINE
  5
2FB
100
AcDbEntity
  8
03__ASM_ALL_CURVES
100
AcDbLine
 62
4
  6
CONTINUOUS
 10
10.4296320841
 20
8.7764956407
 11
10.4396320841
 21
8.7831623058
  0
LINE
  5
2FC
100
AcDbEntity
  8
03__ASM_ALL_CURVES
100
AcDbLine
 62
4
  6
CONTINUOUS
 10
10.4496320841
 20
8.7098289726
 11
10.4396320841
 21
8.7031623058
  0
LINE
  5
2FD
100
AcDbEntity
  8
03__ASM_ALL_CURVES
100
AcDbLine
 62
4
  6
CONTINUOUS
 10
8.2096320841
 20
9.4231623058
 11
8.1762987516
 21
9.4281623058
  0
LINE
  5
2FE
100
AcDbEntity
  8
03__ASM_ALL_CURVES
100
AcDbLine
 62
4
  6
CONTINUOUS
 10
8.1296320841
 20
9.4931623058
 11
8.162965419
 21
9.4881623058
  0
LINE
  5
2FF
100
AcDbEntity
  8
03__ASM_ALL_CURVES
100
AcDbLine
 62
4
  6
CONTINUOUS
 10
8.142965419
 20
9.6581623058
 11
8.162965419
 21
9.6531623058
  0
LINE
  5
300
100
AcDbEntity
  8
03__ASM_ALL_CURVES
100
AcDbLine
 62
4
  6
CONTINUOUS
 10
9.0312987492
 20
9.5131623058
 11
9.0046320841
 21
9.5231623058
  0
LINE
  5
301
100
AcDbEntity
  8
03__ASM_ALL_CURVES
100
AcDbLine
 62
4
  6
CONTINUOUS
 10
9.9062987492
 20
9.2431623058
 11
9.892965419
 21
9.2481623058
  0
LINE
  5
302
100
AcDbEntity
  8
03__ASM_ALL_CURVES
100
AcDbLine
 62
4
  6
CONTINUOUS
 10
9.9329654166
 20
9.2831623058
 11
9.9462987504
 21
9.2781623058
  0
LINE
  5
303
100
AcDbEntity
  8
03__ASM_ALL_CURVES
100
AcDbLine
 62
4
  6
CONTINUOUS
 10
9.892965419
 20
9.2481623058
 11
9.8862987492
 21
9.2531623058
  0
LINE
  5
304
100
AcDbEntity
  8
03__ASM_ALL_CURVES
100
AcDbLine
 62
4
  6
CONTINUOUS
 10
9.017965419
 20
9.9681623058
 11
9.0112987492
 21
9.9731623058
  0
LINE
  5
305
100
AcDbEntity
  8
03__ASM_ALL_CURVES
100
AcDbLine
 62
4
  6
CONTINUOUS
 10
9.9462987504
 20
9.2781623058
 11
9.9529654172
 21
9.2731623058
  0
LINE
  5
306
100
AcDbEntity
  8
03__ASM_ALL_CURVES
100
AcDbLine
 62
4
  6
CONTINUOUS
 10
9.0712987504
 20
9.9981623058
 11
9.0779654172
 21
9.9931623058
  0
LINE
  5
307
100
AcDbEntity
  8
03__ASM_ALL_CURVES
100
AcDbLine
 62
4
  6
CONTINUOUS
 10
9.017965419
 20
10.0481623058
 11
9.0112987492
 21
10.0531623058
  0
LINE
  5
308
100
AcDbEntity
  8
03__ASM_ALL_CURVES
100
AcDbLine
 62
4
  6
CONTINUOUS
 10
11.1696320841
 20
7.7144956407
 11
11.1746320841
 21
7.7078289708
  0
LINE
  5
309
100
AcDbEntity
  8
03__ASM_ALL_CURVES
100
AcDbLine
 62
4
  6
CONTINUOUS
 10
10.4296320841
 20
8.7098289726
 11
10.4246320841
 21
8.7164956395
  0
LINE
  5
30A
100
AcDbEntity
  8
03__ASM_ALL_CURVES
100
AcDbLine
 62
4
  6
CONTINUOUS
 10
10.4496320841
 20
8.7764956407
 11
10.4546320841
 21
8.7698289708
  0
LINE
  5
30B
100
AcDbEntity
  8
03__ASM_ALL_CURVES
100
AcDbLine
 62
4
  6
CONTINUOUS
 10
11.2546320841
 20
7.7144956407
 11
11.2596320841
 21
7.7078289708
  0
LINE
  5
30C
100
AcDbEntity
  8
03__ASM_ALL_CURVES
100
AcDbLine
 62
4
  6
CONTINUOUS
 10
11.3146320841
 20
7.7211623058
 11
11.3246320841
 21
7.7078289708
  0
LINE
  5
30D
100
AcDbEntity
  8
03__ASM_ALL_CURVES
100
AcDbLine
 62
4
  6
CONTINUOUS
 10
10.6946320841
 20
7.6811623058
 11
10.6996320841
 21
7.6678289732
  0
LINE
  5
30E
100
AcDbEntity
  8
03__ASM_ALL_CURVES
100
AcDbLine
 62
4
  6
CONTINUOUS
 10
10.4246320841
 20
8.7164956395
 11
10.4196320841
 21
8.7298289732
  0
LINE
  5
30F
100
AcDbEntity
  8
03__ASM_ALL_CURVES
100
AcDbLine
 62
4
  6
CONTINUOUS
 10
10.7496320841
 20
7.0364956383
 11
10.7546320841
 21
7.0164956395
  0
LINE
  5
310
100
AcDbEntity
  8
03__ASM_ALL_CURVES
100
AcDbLine
 62
4
  6
CONTINUOUS
 10
10.4196320841
 20
8.7298289732
 11
10.4196320841
 21
8.7564956407
  0
LINE
  5
311
100
AcDbEntity
  8
03__ASM_ALL_CURVES
100
AcDbLine
 62
4
  6
CONTINUOUS
 10
10.4396320841
 20
7.7211623058
 11
10.4396320841
 21
7.6411623058
  0
LINE
  5
312
100
AcDbEntity
  8
03__ASM_ALL_CURVES
100
AcDbLine
 62
4
  6
CONTINUOUS
 10
10.4396320841
 20
7.0831623058
 11
10.4396320841
 21
7.0031623058
  0
LINE
  5
313
100
AcDbEntity
  8
03__ASM_ALL_CURVES
100
AcDbLine
 62
4
  6
CONTINUOUS
 10
10.4596320841
 20
8.7564956407
 11
10.4596320841
 21
8.7298289732
  0
LINE
  5
314
100
AcDbEntity
  8
03__ASM_ALL_CURVES
100
AcDbLine
 62
4
  6
CONTINUOUS
 10
10.5321320841
 20
7.0031623058
 11
10.5321320841
 21
7.0131623061
  0
LINE
  5
315
100
AcDbEntity
  8
03__ASM_ALL_CURVES
100
AcDbLine
 62
4
  6
CONTINUOUS
 10
10.5321320841
 20
7.6411623058
 11
10.5321320841
 21
7.6511623061
  0
LINE
  5
316
100
AcDbEntity
  8
03__ASM_ALL_CURVES
100
AcDbLine
 62
4
  6
CONTINUOUS
 10
10.4196320841
 20
8.7564956407
 11
10.4246320841
 21
8.7698289708
  0
LINE
  5
317
100
AcDbEntity
  8
03__ASM_ALL_CURVES
100
AcDbLine
 62
4
  6
CONTINUOUS
 10
10.4596320841
 20
8.7298289732
 11
10.4546320841
 21
8.7164956395
  0
LINE
  5
318
100
AcDbEntity
  8
03__ASM_ALL_CURVES
100
AcDbLine
 62
4
  6
CONTINUOUS
 10
10.4246320841
 20
8.7698289708
 11
10.4296320841
 21
8.7764956407
  0
LINE
  5
319
100
AcDbEntity
  8
03__ASM_ALL_CURVES
100
AcDbLine
 62
4
  6
CONTINUOUS
 10
10.4546320841
 20
8.7164956395
 11
10.4496320841
 21
8.7098289726
  0
LINE
  5
31A
100
AcDbEntity
  8
03__ASM_ALL_CURVES
100
AcDbLine
 62
4
  6
CONTINUOUS
 10
9.9329654166
 20
9.2431623058
 11
9.9062987492
 21
9.2431623058
  0
LINE
  5
31B
100
AcDbEntity
  8
03__ASM_ALL_CURVES
100
AcDbLine
 62
4
  6
CONTINUOUS
 10
9.0579654166
 20
9.2431623058
 11
9.0312987492
 21
9.2431623058
  0
LINE
  5
31C
100
AcDbEntity
  8
03__ASM_ALL_CURVES
100
AcDbLine
 62
4
  6
CONTINUOUS
 10
8.1296320841
 20
9.2631623058
 11
8.2096320841
 21
9.2631623058
  0
LINE
  5
31D
100
AcDbEntity
  8
03__ASM_ALL_CURVES
100
AcDbLine
 62
4
  6
CONTINUOUS
 10
9.0312987492
 20
9.2831623058
 11
9.0579654166
 21
9.2831623058
  0
LINE
  5
31E
100
AcDbEntity
  8
03__ASM_ALL_CURVES
100
AcDbLine
 62
4
  6
CONTINUOUS
 10
9.9062987492
 20
9.2831623058
 11
9.9329654166
 21
9.2831623058
  0
LINE
  5
31F
100
AcDbEntity
  8
03__ASM_ALL_CURVES
100
AcDbLine
 62
4
  6
CONTINUOUS
 10
9.0846320841
 20
9.3556623058
 11
9.0746320838
 21
9.3556623058
  0
LINE
  5
320
100
AcDbEntity
  8
03__ASM_ALL_CURVES
100
AcDbLine
 62
4
  6
CONTINUOUS
 10
8.2096320841
 20
9.3556623058
 11
8.1996320838
 21
9.3556623058
  0
LINE
  5
321
100
AcDbEntity
  8
03__ASM_ALL_CURVES
100
AcDbLine
 62
4
  6
CONTINUOUS
 10
9.0646320841
 20
9.3981623058
 11
9.0579654166
 21
9.3981623058
  0
LINE
  5
322
100
AcDbEntity
  8
03__ASM_ALL_CURVES
100
AcDbLine
 62
4
  6
CONTINUOUS
 10
9.0246320841
 20
9.4031623058
 11
9.017965419
 21
9.4031623058
  0
LINE
  5
323
100
AcDbEntity
  8
03__ASM_ALL_CURVES
100
AcDbLine
 62
4
  6
CONTINUOUS
 10
9.0846320841
 20
9.5031623058
 11
9.0512987516
 21
9.5081623058
  0
LINE
  5
324
100
AcDbEntity
  8
03__ASM_ALL_CURVES
100
AcDbLine
 62
4
  6
CONTINUOUS
 10
9.0512987516
 20
9.5081623058
 11
9.0312987492
 21
9.5131623058
  0
LINE
  5
325
100
AcDbEntity
  8
03__ASM_ALL_CURVES
100
AcDbLine
 62
4
  6
CONTINUOUS
 10
9.017965419
 20
9.6581623058
 11
9.037965419
 21
9.6531623058
  0
LINE
  5
326
100
AcDbEntity
  8
03__ASM_ALL_CURVES
100
AcDbLine
 62
4
  6
CONTINUOUS
 10
9.0712987504
 20
10.0781623058
 11
9.0779654172
 21
10.0731623058
  0
LINE
  5
327
100
AcDbEntity
  8
03__ASM_ALL_CURVES
100
AcDbLine
 62
4
  6
CONTINUOUS
 10
9.0712987504
 20
10.1481623058
 11
9.0846320841
 21
10.1381623058
  0
LINE
  5
328
100
AcDbEntity
  8
03__ASM_ALL_CURVES
100
AcDbLine
 62
4
  6
CONTINUOUS
 10
10.4546320841
 20
8.7698289708
 11
10.4596320841
 21
8.7564956407
  0
LINE
  5
329
100
AcDbEntity
  8
03__ASM_ALL_CURVES
100
AcDbLine
 62
4
  6
CONTINUOUS
 10
10.9846320841
 20
7.6544956395
 11
10.9796320841
 21
7.6678289732
  0
LINE
  5
32A
100
AcDbEntity
  8
03__ASM_ALL_CURVES
100
AcDbLine
 62
4
  6
CONTINUOUS
 10
11.0146320841
 20
7.6811623058
 11
11.0196320841
 21
7.6678289732
  0
LINE
  5
32B
100
AcDbEntity
  8
03__ASM_ALL_CURVES
100
AcDbLine
 62
4
  6
CONTINUOUS
 10
10.8296320841
 20
7.6744956383
 11
10.8346320841
 21
7.6544956395
  0
LINE
  5
32C
100
AcDbEntity
  8
03__ASM_ALL_CURVES
100
AcDbLine
 62
4
  6
CONTINUOUS
 10
10.5796320841
 20
7.6678289732
 11
10.5796320841
 21
7.6944956407
  0
LINE
  5
32D
100
AcDbEntity
  8
03__ASM_ALL_CURVES
100
AcDbLine
 62
4
  6
CONTINUOUS
 10
10.6196320841
 20
7.6944956407
 11
10.6196320841
 21
7.6678289732
  0
LINE
  5
32E
100
AcDbEntity
  8
03__ASM_ALL_CURVES
100
AcDbLine
 62
4
  6
CONTINUOUS
 10
10.6596320841
 20
7.6678289732
 11
10.6596320841
 21
7.6944956407
  0
LINE
  5
32F
100
AcDbEntity
  8
03__ASM_ALL_CURVES
100
AcDbLine
 62
4
  6
CONTINUOUS
 10
9.017965419
 20
9.4431623058
 11
9.0246320841
 21
9.4431623058
  0
LINE
  5
330
100
AcDbEntity
  8
03__ASM_ALL_CURVES
100
AcDbLine
 62
4
  6
CONTINUOUS
 10
9.0579654166
 20
9.4481623058
 11
9.0646320841
 21
9.4481623058
  0
LINE
  5
331
100
AcDbEntity
  8
03__ASM_ALL_CURVES
100
AcDbLine
 62
4
  6
CONTINUOUS
 10
9.0646320841
 20
9.7281623058
 11
9.0846320841
 21
9.7231623058
  0
LINE
  5
332
100
AcDbEntity
  8
03__ASM_ALL_CURVES
100
AcDbLine
 62
4
  6
CONTINUOUS
 10
9.0646320841
 20
9.8081623058
 11
9.0846320841
 21
9.8031623058
  0
LINE
  5
333
100
AcDbEntity
  8
03__ASM_ALL_CURVES
100
AcDbLine
 62
4
  6
CONTINUOUS
 10
9.0312987492
 20
9.9631623058
 11
9.017965419
 21
9.9681623058
  0
LINE
  5
334
100
AcDbEntity
  8
03__ASM_ALL_CURVES
100
AcDbLine
 62
4
  6
CONTINUOUS
 10
11.1446320841
 20
7.6811623058
 11
11.1396320841
 21
7.6944956407
  0
LINE
  5
335
100
AcDbEntity
  8
03__ASM_ALL_CURVES
100
AcDbLine
 62
4
  6
CONTINUOUS
 10
11.1746320841
 20
7.7078289708
 11
11.1796320841
 21
7.6944956407
  0
LINE
  5
336
100
AcDbEntity
  8
03__ASM_ALL_CURVES
100
AcDbLine
 62
4
  6
CONTINUOUS
 10
10.7496320841
 20
7.0498289708
 11
10.7496320841
 21
7.0364956383
  0
LINE
  5
337
100
AcDbEntity
  8
03__ASM_ALL_CURVES
100
AcDbLine
 62
4
  6
CONTINUOUS
 10
10.8296320841
 20
7.6878289708
 11
10.8296320841
 21
7.6744956383
  0
LINE
  5
338
100
AcDbEntity
  8
03__ASM_ALL_CURVES
100
AcDbLine
 62
4
  6
CONTINUOUS
 10
10.8546320841
 20
7.0031623058
 11
10.8546320841
 21
7.0831623058
  0
LINE
  5
339
100
AcDbEntity
  8
03__ASM_ALL_CURVES
100
AcDbLine
 62
4
  6
CONTINUOUS
 10
10.5996320841
 20
7.0031623058
 11
10.6046320841
 21
7.0364956383
  0
LINE
  5
33A
100
AcDbEntity
  8
03__ASM_ALL_CURVES
100
AcDbLine
 62
4
  6
CONTINUOUS
 10
8.162965419
 20
9.6531623058
 11
8.1762987516
 21
9.6531623058
  0
LINE
  5
33B
100
AcDbEntity
  8
03__ASM_ALL_CURVES
100
AcDbLine
 62
4
  6
CONTINUOUS
 10
9.037965419
 20
9.6531623058
 11
9.0512987516
 21
9.6531623058
  0
LINE
  5
33C
100
AcDbEntity
  8
03__ASM_ALL_CURVES
100
AcDbLine
 62
4
  6
CONTINUOUS
 10
8.2096320841
 20
9.7581623058
 11
8.1296320841
 21
9.7581623058
  0
LINE
  5
33D
100
AcDbEntity
  8
03__ASM_ALL_CURVES
100
AcDbLine
 62
4
  6
CONTINUOUS
 10
8.1762987516
 20
10.1531623058
 11
8.1962987504
 21
10.1481623058
  0
LINE
  5
33E
100
AcDbEntity
  8
03__ASM_ALL_CURVES
100
AcDbLine
 62
4
  6
CONTINUOUS
 10
9.0579654166
 20
10.0031623058
 11
9.0712987504
 21
9.9981623058
  0
LINE
  5
33F
100
AcDbEntity
  8
03__ASM_ALL_CURVES
100
AcDbLine
 62
4
  6
CONTINUOUS
 10
9.0312987492
 20
10.0431623058
 11
9.017965419
 21
10.0481623058
  0
LINE
  5
340
100
AcDbEntity
  8
03__ASM_ALL_CURVES
100
AcDbLine
 62
4
  6
CONTINUOUS
 10
9.0312987492
 20
10.0831623058
 11
9.0446320841
 21
10.0781623058
  0
LINE
  5
341
100
AcDbEntity
  8
03__ASM_ALL_CURVES
100
AcDbLine
 62
4
  6
CONTINUOUS
 10
9.0579654166
 20
10.0831623058
 11
9.0712987504
 21
10.0781623058
  0
LINE
  5
342
100
AcDbEntity
  8
03__ASM_ALL_CURVES
100
AcDbLine
 62
4
  6
CONTINUOUS
 10
11.2446320841
 20
7.0698289708
 11
11.2496320841
 21
7.0498289708
  0
LINE
  5
343
100
AcDbEntity
  8
03__ASM_ALL_CURVES
100
AcDbLine
 62
4
  6
CONTINUOUS
 10
10.9396320841
 20
7.7078289708
 11
10.9396320841
 21
7.6944956407
  0
LINE
  5
344
100
AcDbEntity
  8
03__ASM_ALL_CURVES
100
AcDbLine
 62
4
  6
CONTINUOUS
 10
10.9396320841
 20
7.0698289708
 11
10.9396320841
 21
7.0631623058
  0
LINE
  5
345
100
AcDbEntity
  8
03__ASM_ALL_CURVES
100
AcDbLine
 62
4
  6
CONTINUOUS
 10
10.9446320841
 20
7.0298289732
 11
10.9446320841
 21
7.0231623058
  0
LINE
  5
346
100
AcDbEntity
  8
03__ASM_ALL_CURVES
100
AcDbLine
 62
4
  6
CONTINUOUS
 10
10.9796320841
 20
7.6678289732
 11
10.9796320841
 21
7.6944956407
  0
LINE
  5
347
100
AcDbEntity
  8
03__ASM_ALL_CURVES
100
AcDbLine
 62
4
  6
CONTINUOUS
 10
11.0121320841
 20
7.0031623058
 11
11.0121320841
 21
7.0131623061
  0
LINE
  5
348
100
AcDbEntity
  8
03__ASM_ALL_CURVES
100
AcDbLine
 62
4
  6
CONTINUOUS
 10
11.0796320841
 20
7.0831623058
 11
11.0796320841
 21
7.0031623058
  0
LINE
  5
349
100
AcDbEntity
  8
03__ASM_ALL_CURVES
100
AcDbLine
 62
4
  6
CONTINUOUS
 10
11.0921320841
 20
7.6411623058
 11
11.0921320841
 21
7.6511623061
  0
LINE
  5
34A
100
AcDbEntity
  8
03__ASM_ALL_CURVES
100
AcDbLine
 62
4
  6
CONTINUOUS
 10
10.6046320841
 20
7.0364956383
 11
10.6096320841
 21
7.0564956407
  0
LINE
  5
34B
100
AcDbEntity
  8
03__ASM_ALL_CURVES
100
AcDbLine
 62
4
  6
CONTINUOUS
 10
10.8346320841
 20
7.7078289708
 11
10.8296320841
 21
7.6878289708
  0
LINE
  5
34C
100
AcDbEntity
  8
03__ASM_ALL_CURVES
100
AcDbLine
 62
4
  6
CONTINUOUS
 10
10.5796320841
 20
7.6944956407
 11
10.5846320841
 21
7.7078289708
  0
LINE
  5
34D
100
AcDbEntity
  8
03__ASM_ALL_CURVES
100
AcDbLine
 62
4
  6
CONTINUOUS
 10
10.6196320841
 20
7.6678289732
 11
10.6146320841
 21
7.6544956395
  0
LINE
  5
34E
100
AcDbEntity
  8
03__ASM_ALL_CURVES
100
AcDbLine
 62
4
  6
CONTINUOUS
 10
10.6596320841
 20
7.6944956407
 11
10.6646320841
 21
7.7078289708
  0
LINE
  5
34F
100
AcDbEntity
  8
03__ASM_ALL_CURVES
100
AcDbLine
 62
4
  6
CONTINUOUS
 10
10.6596320841
 20
7.6678289732
 11
10.6646320841
 21
7.6811623058
  0
LINE
  5
350
100
AcDbEntity
  8
03__ASM_ALL_CURVES
100
AcDbLine
 62
4
  6
CONTINUOUS
 10
10.6996320841
 20
7.6678289732
 11
10.6946320841
 21
7.6544956395
  0
LINE
  5
351
100
AcDbEntity
  8
03__ASM_ALL_CURVES
100
AcDbLine
 62
4
  6
CONTINUOUS
 10
9.0512987516
 20
9.6531623058
 11
9.0712987504
 21
9.6581623058
  0
LINE
  5
352
100
AcDbEntity
  8
03__ASM_ALL_CURVES
100
AcDbLine
 62
4
  6
CONTINUOUS
 10
9.017965419
 20
9.7631623058
 11
9.0312987492
 21
9.7631623058
  0
LINE
  5
353
100
AcDbEntity
  8
03__ASM_ALL_CURVES
100
AcDbLine
 62
4
  6
CONTINUOUS
 10
8.2096320841
 20
9.8381623058
 11
8.1296320841
 21
9.8381623058
  0
LINE
  5
354
100
AcDbEntity
  8
03__ASM_ALL_CURVES
100
AcDbLine
 62
4
  6
CONTINUOUS
 10
9.017965419
 20
9.8431623058
 11
9.0312987492
 21
9.8431623058
  0
LINE
  5
355
100
AcDbEntity
  8
03__ASM_ALL_CURVES
100
AcDbLine
 62
4
  6
CONTINUOUS
 10
9.0846320841
 20
9.9156623058
 11
9.0746320838
 21
9.9156623058
  0
LINE
  5
356
100
AcDbEntity
  8
03__ASM_ALL_CURVES
100
AcDbLine
 62
4
  6
CONTINUOUS
 10
8.2096320841
 20
9.9156623058
 11
8.1996320838
 21
9.9156623058
  0
LINE
  5
357
100
AcDbEntity
  8
03__ASM_ALL_CURVES
100
AcDbLine
 62
4
  6
CONTINUOUS
 10
9.0512987516
 20
10.1531623058
 11
9.0712987504
 21
10.1481623058
  0
LINE
  5
358
100
AcDbEntity
  8
03__ASM_ALL_CURVES
100
AcDbLine
 62
4
  6
CONTINUOUS
 10
11.3246320841
 20
7.7078289708
 11
11.3296320841
 21
7.6878289708
  0
LINE
  5
359
100
AcDbEntity
  8
03__ASM_ALL_CURVES
100
AcDbLine
 62
4
  6
CONTINUOUS
 10
11.1346320841
 20
7.0231623058
 11
11.1346320841
 21
7.0298289732
  0
LINE
  5
35A
100
AcDbEntity
  8
03__ASM_ALL_CURVES
100
AcDbLine
 62
4
  6
CONTINUOUS
 10
11.1396320841
 20
7.0631623058
 11
11.1396320841
 21
7.0698289708
  0
LINE
  5
35B
100
AcDbEntity
  8
03__ASM_ALL_CURVES
100
AcDbLine
 62
4
  6
CONTINUOUS
 10
11.1796320841
 20
7.6944956407
 11
11.1796320841
 21
7.6678289732
  0
LINE
  5
35C
100
AcDbEntity
  8
03__ASM_ALL_CURVES
100
AcDbLine
 62
4
  6
CONTINUOUS
 10
11.1796320841
 20
7.0698289708
 11
11.1796320841
 21
7.0631623058
  0
LINE
  5
35D
100
AcDbEntity
  8
03__ASM_ALL_CURVES
100
AcDbLine
 62
4
  6
CONTINUOUS
 10
11.1846320841
 20
7.0298289732
 11
11.1846320841
 21
7.0231623058
  0
LINE
  5
35E
100
AcDbEntity
  8
03__ASM_ALL_CURVES
100
AcDbLine
 62
4
  6
CONTINUOUS
 10
11.2496320841
 20
7.0498289708
 11
11.2496320841
 21
7.0364956383
  0
LINE
  5
35F
100
AcDbEntity
  8
03__ASM_ALL_CURVES
100
AcDbLine
 62
4
  6
CONTINUOUS
 10
11.2596320841
 20
7.7078289708
 11
11.2596320841
 21
7.6944956407
  0
LINE
  5
360
100
AcDbEntity
  8
03__ASM_ALL_CURVES
100
AcDbLine
 62
4
  6
CONTINUOUS
 10
10.7546320841
 20
7.0698289708
 11
10.7496320841
 21
7.0498289708
  0
LINE
  5
361
100
AcDbEntity
  8
03__ASM_ALL_CURVES
100
AcDbLine
 62
4
  6
CONTINUOUS
 10
10.9046320841
 20
7.6611623058
 11
10.8996320841
 21
7.6411623058
  0
LINE
  5
362
100
AcDbEntity
  8
03__ASM_ALL_CURVES
100
AcDbLine
 62
4
  6
CONTINUOUS
 10
10.6096320841
 20
7.0564956407
 11
10.6196320841
 21
7.0831623058
  0
LINE
  5
363
100
AcDbEntity
  8
03__ASM_ALL_CURVES
100
AcDbLine
 62
4
  6
CONTINUOUS
 10
10.5846320841
 20
7.7078289708
 11
10.5896320841
 21
7.7144956407
  0
LINE
  5
364
100
AcDbEntity
  8
03__ASM_ALL_CURVES
100
AcDbLine
 62
4
  6
CONTINUOUS
 10
10.6146320841
 20
7.6544956395
 11
10.6096320841
 21
7.6478289726
  0
LINE
  5
365
100
AcDbEntity
  8
03__ASM_ALL_CURVES
100
AcDbLine
 62
4
  6
CONTINUOUS
 10
10.6646320841
 20
7.7078289708
 11
10.6696320841
 21
7.7144956407
  0
LINE
  5
366
100
AcDbEntity
  8
03__ASM_ALL_CURVES
100
AcDbLine
 62
4
  6
CONTINUOUS
 10
8.1762987516
 20
9.6531623058
 11
8.1962987504
 21
9.6581623058
  0
LINE
  5
367
100
AcDbEntity
  8
03__ASM_ALL_CURVES
100
AcDbLine
 62
4
  6
CONTINUOUS
 10
9.0579654166
 20
9.9631623058
 11
9.0312987492
 21
9.9631623058
  0
LINE
  5
368
100
AcDbEntity
  8
03__ASM_ALL_CURVES
100
AcDbLine
 62
4
  6
CONTINUOUS
 10
8.2096320841
 20
9.9981623058
 11
8.1296320841
 21
9.9981623058
  0
LINE
  5
369
100
AcDbEntity
  8
03__ASM_ALL_CURVES
100
AcDbLine
 62
4
  6
CONTINUOUS
 10
9.0312987492
 20
10.0031623058
 11
9.0579654166
 21
10.0031623058
  0
LINE
  5
36A
100
AcDbEntity
  8
03__ASM_ALL_CURVES
100
AcDbLine
 62
4
  6
CONTINUOUS
 10
8.2096320841
 20
10.0781623058
 11
8.1296320841
 21
10.0781623058
  0
LINE
  5
36B
100
AcDbEntity
  8
03__ASM_ALL_CURVES
100
AcDbLine
 62
4
  6
CONTINUOUS
 10
9.0312987492
 20
10.0831623058
 11
9.0579654166
 21
10.0831623058
  0
LINE
  5
36C
100
AcDbEntity
  8
03__ASM_ALL_CURVES
100
AcDbLine
 62
4
  6
CONTINUOUS
 10
11.3296320841
 20
7.6878289708
 11
11.3296320841
 21
7.6744956383
  0
LINE
  5
36D
100
AcDbEntity
  8
03__ASM_ALL_CURVES
100
AcDbLine
 62
4
  6
CONTINUOUS
 10
10.9796320841
 20
7.6944956407
 11
10.9846320841
 21
7.7078289708
  0
LINE
  5
36E
100
AcDbEntity
  8
03__ASM_ALL_CURVES
100
AcDbLine
 62
4
  6
CONTINUOUS
 10
10.9796320841
 20
7.6678289732
 11
10.9846320841
 21
7.6811623058
  0
LINE
  5
36F
100
AcDbEntity
  8
03__ASM_ALL_CURVES
100
AcDbLine
 62
4
  6
CONTINUOUS
 10
11.0196320841
 20
7.6678289732
 11
11.0146320841
 21
7.6544956395
  0
LINE
  5
370
100
AcDbEntity
  8
03__ASM_ALL_CURVES
100
AcDbLine
 62
4
  6
CONTINUOUS
 10
10.6946320841
 20
7.6544956395
 11
10.6896320841
 21
7.6478289726
  0
LINE
  5
371
100
AcDbEntity
  8
03__ASM_ALL_CURVES
100
AcDbLine
 62
4
  6
CONTINUOUS
 10
10.8446320841
 20
7.7211623058
 11
10.8346320841
 21
7.7078289708
  0
LINE
  5
372
100
AcDbEntity
  8
03__ASM_ALL_CURVES
100
AcDbLine
 62
4
  6
CONTINUOUS
 10
10.8996320841
 20
7.7078289708
 11
10.9046320841
 21
7.7144956407
  0
LINE
  5
373
100
AcDbEntity
  8
03__ASM_ALL_CURVES
100
AcDbLine
 62
4
  6
CONTINUOUS
 10
10.9146320841
 20
7.6744956383
 11
10.9046320841
 21
7.6611623058
  0
LINE
  5
374
100
AcDbEntity
  8
03__ASM_ALL_CURVES
100
AcDbLine
 62
4
  6
CONTINUOUS
 10
10.5896320841
 20
7.7144956407
 11
10.5996320841
 21
7.7211623058
  0
LINE
  5
375
100
AcDbEntity
  8
03__ASM_ALL_CURVES
100
AcDbLine
 62
4
  6
CONTINUOUS
 10
10.6696320841
 20
7.7144956407
 11
10.6796320841
 21
7.7211623058
  0
LINE
  5
376
100
AcDbEntity
  8
03__ASM_ALL_CURVES
100
AcDbLine
 62
4
  6
CONTINUOUS
 10
10.6096320841
 20
7.6478289726
 11
10.5996320841
 21
7.6411623058
  0
LINE
  5
377
100
AcDbEntity
  8
03__ASM_ALL_CURVES
100
AcDbLine
 62
4
  6
CONTINUOUS
 10
10.6896320841
 20
7.6478289726
 11
10.6796320841
 21
7.6411623058
  0
LINE
  5
378
100
AcDbEntity
  8
03__ASM_ALL_CURVES
100
AcDbLine
 62
4
  6
CONTINUOUS
 10
10.6646320841
 20
7.6811623058
 11
10.6796320841
 21
7.6878289708
  0
LINE
  5
379
100
AcDbEntity
  8
03__ASM_ALL_CURVES
100
AcDbLine
 62
4
  6
CONTINUOUS
 10
8.162965419
 20
10.1531623058
 11
8.1762987516
 21
10.1531623058
  0
LINE
  5
37A
100
AcDbEntity
  8
03__ASM_ALL_CURVES
100
AcDbLine
 62
4
  6
CONTINUOUS
 10
9.037965419
 20
10.1531623058
 11
9.0512987516
 21
10.1531623058
  0
LINE
  5
37B
100
AcDbEntity
  8
03__ASM_ALL_CURVES
100
AcDbLine
 62
4
  6
CONTINUOUS
 10
11.2246320841
 20
7.6611623058
 11
11.2196320841
 21
7.6411623058
  0
LINE
  5
37C
100
AcDbEntity
  8
03__ASM_ALL_CURVES
100
AcDbLine
 62
4
  6
CONTINUOUS
 10
11.3296320841
 20
7.6744956383
 11
11.3246320841
 21
7.6544956395
  0
LINE
  5
37D
100
AcDbEntity
  8
03__ASM_ALL_CURVES
100
AcDbLine
 62
4
  6
CONTINUOUS
 10
11.1396320841
 20
7.6944956407
 11
11.1446320841
 21
7.7078289708
  0
LINE
  5
37E
100
AcDbEntity
  8
03__ASM_ALL_CURVES
100
AcDbLine
 62
4
  6
CONTINUOUS
 10
11.1796320841
 20
7.6944956407
 11
11.1746320841
 21
7.6811623058
  0
LINE
  5
37F
100
AcDbEntity
  8
03__ASM_ALL_CURVES
100
AcDbLine
 62
4
  6
CONTINUOUS
 10
11.1796320841
 20
7.6678289732
 11
11.1746320841
 21
7.6544956395
  0
LINE
  5
380
100
AcDbEntity
  8
03__ASM_ALL_CURVES
100
AcDbLine
 62
4
  6
CONTINUOUS
 10
10.9396320841
 20
7.6944956407
 11
10.9346320841
 21
7.6878289708
  0
LINE
  5
381
100
AcDbEntity
  8
03__ASM_ALL_CURVES
100
AcDbLine
 62
4
  6
CONTINUOUS
 10
10.9846320841
 20
7.7078289708
 11
10.9896320841
 21
7.7144956407
  0
LINE
  5
382
100
AcDbEntity
  8
03__ASM_ALL_CURVES
100
AcDbLine
 62
4
  6
CONTINUOUS
 10
11.0146320841
 20
7.6544956395
 11
11.0096320841
 21
7.6478289726
  0
LINE
  5
383
100
AcDbEntity
  8
03__ASM_ALL_CURVES
100
AcDbLine
 62
4
  6
CONTINUOUS
 10
11.1446320841
 20
7.7078289708
 11
11.1496320841
 21
7.7144956407
  0
LINE
  5
384
100
AcDbEntity
  8
03__ASM_ALL_CURVES
100
AcDbLine
 62
4
  6
CONTINUOUS
 10
10.9046320841
 20
7.7144956407
 11
10.9146320841
 21
7.7211623058
  0
LINE
  5
385
100
AcDbEntity
  8
03__ASM_ALL_CURVES
100
AcDbLine
 62
4
  6
CONTINUOUS
 10
10.9346320841
 20
7.6878289708
 11
10.9146320841
 21
7.6744956383
  0
LINE
  5
386
100
AcDbEntity
  8
03__ASM_ALL_CURVES
100
AcDbLine
 62
4
  6
CONTINUOUS
 10
10.9896320841
 20
7.7144956407
 11
10.9996320841
 21
7.7211623058
  0
LINE
  5
387
100
AcDbEntity
  8
03__ASM_ALL_CURVES
100
AcDbLine
 62
4
  6
CONTINUOUS
 10
11.0096320841
 20
7.6478289726
 11
10.9996320841
 21
7.6411623058
  0
LINE
  5
388
100
AcDbEntity
  8
03__ASM_ALL_CURVES
100
AcDbLine
 62
4
  6
CONTINUOUS
 10
11.1496320841
 20
7.7144956407
 11
11.1596320841
 21
7.7211623058
  0
LINE
  5
389
100
AcDbEntity
  8
03__ASM_ALL_CURVES
100
AcDbLine
 62
4
  6
CONTINUOUS
 10
10.9846320841
 20
7.6811623058
 11
10.9996320841
 21
7.6878289708
  0
LINE
  5
38A
100
AcDbEntity
  8
03__ASM_ALL_CURVES
100
AcDbLine
 62
4
  6
CONTINUOUS
 10
11.1746320841
 20
7.6811623058
 11
11.1596320841
 21
7.6744956383
  0
LINE
  5
38B
100
AcDbEntity
  8
03__ASM_ALL_CURVES
100
AcDbLine
 62
4
  6
CONTINUOUS
 10
9.017965419
 20
10.1481623058
 11
9.037965419
 21
10.1531623058
  0
LINE
  5
38C
100
AcDbEntity
  8
03__ASM_ALL_CURVES
100
AcDbLine
 62
4
  6
CONTINUOUS
 10
11.2496320841
 20
7.0364956383
 11
11.2446320841
 21
7.0164956395
  0
LINE
  5
38D
100
AcDbEntity
  8
03__ASM_ALL_CURVES
100
AcDbLine
 62
4
  6
CONTINUOUS
 10
10.8546320841
 20
7.0831623058
 11
10.8196320841
 21
7.0231623058
  0
LINE
  5
38E
100
AcDbEntity
  8
03__ASM_ALL_CURVES
100
AcDbLine
 62
4
  6
CONTINUOUS
 10
11.1746320841
 20
7.6544956395
 11
11.1696320841
 21
7.6478289726
  0
LINE
  5
38F
100
AcDbEntity
  8
03__ASM_ALL_CURVES
100
AcDbLine
 62
4
  6
CONTINUOUS
 10
11.2196320841
 20
7.7078289708
 11
11.2246320841
 21
7.7144956407
  0
LINE
  5
390
100
AcDbEntity
  8
03__ASM_ALL_CURVES
100
AcDbLine
 62
4
  6
CONTINUOUS
 10
10.7646320841
 20
7.0831623058
 11
10.7546320841
 21
7.0698289708
  0
LINE
  5
391
100
AcDbEntity
  8
03__ASM_ALL_CURVES
100
AcDbLine
 62
4
  6
CONTINUOUS
 10
11.2346320841
 20
7.6744956383
 11
11.2246320841
 21
7.6611623058
  0
LINE
  5
392
100
AcDbEntity
  8
03__ASM_ALL_CURVES
100
AcDbLine
 62
4
  6
CONTINUOUS
 10
11.2596320841
 20
7.6944956407
 11
11.2546320841
 21
7.6878289708
  0
LINE
  5
393
100
AcDbEntity
  8
03__ASM_ALL_CURVES
100
AcDbLine
 62
4
  6
CONTINUOUS
 10
11.3246320841
 20
7.6544956395
 11
11.3146320841
 21
7.6411623058
  0
LINE
  5
394
100
AcDbEntity
  8
03__ASM_ALL_CURVES
100
AcDbLine
 62
4
  6
CONTINUOUS
 10
11.2246320841
 20
7.7144956407
 11
11.2346320841
 21
7.7211623058
  0
LINE
  5
395
100
AcDbEntity
  8
03__ASM_ALL_CURVES
100
AcDbLine
 62
4
  6
CONTINUOUS
 10
11.1696320841
 20
7.6478289726
 11
11.1596320841
 21
7.6411623058
  0
LINE
  5
396
100
AcDbEntity
  8
03__ASM_ALL_CURVES
100
AcDbLine
 62
4
  6
CONTINUOUS
 10
11.2546320841
 20
7.6878289708
 11
11.2346320841
 21
7.6744956383
  0
LINE
  5
397
100
AcDbEntity
  8
03__ASM_ALL_CURVES
100
AcDbLine
 62
4
  6
CONTINUOUS
 10
8.142965419
 20
10.1481623058
 11
8.162965419
 21
10.1531623058
  0
LINE
  5
398
100
AcDbEntity
  8
03__ASM_ALL_CURVES
100
AcDbLine
 62
4
  6
CONTINUOUS
 10
10.9396320841
 20
7.0631623058
 11
10.9346320841
 21
7.0564956407
  0
LINE
  5
399
100
AcDbEntity
  8
03__ASM_ALL_CURVES
100
AcDbLine
 62
4
  6
CONTINUOUS
 10
10.9446320841
 20
7.0231623058
 11
10.9346320841
 21
7.0098289726
  0
LINE
  5
39A
100
AcDbEntity
  8
03__ASM_ALL_CURVES
100
AcDbLine
 62
4
  6
CONTINUOUS
 10
11.1396320841
 20
7.0698289708
 11
11.1446320841
 21
7.0764956407
  0
LINE
  5
39B
100
AcDbEntity
  8
03__ASM_ALL_CURVES
100
AcDbLine
 62
4
  6
CONTINUOUS
 10
11.1346320841
 20
7.0298289732
 11
11.1446320841
 21
7.0431623058
  0
LINE
  5
39C
100
AcDbEntity
  8
03__ASM_ALL_CURVES
100
AcDbLine
 62
4
  6
CONTINUOUS
 10
11.1796320841
 20
7.0631623058
 11
11.1746320841
 21
7.0564956407
  0
LINE
  5
39D
100
AcDbEntity
  8
03__ASM_ALL_CURVES
100
AcDbLine
 62
4
  6
CONTINUOUS
 10
11.1846320841
 20
7.0231623058
 11
11.1746320841
 21
7.0098289726
  0
LINE
  5
39E
100
AcDbEntity
  8
03__ASM_ALL_CURVES
100
AcDbLine
 62
4
  6
CONTINUOUS
 10
11.2446320841
 20
7.0164956395
 11
11.2346320841
 21
7.0031623058
  0
LINE
  5
39F
100
AcDbEntity
  8
03__ASM_ALL_CURVES
100
AcDbLine
 62
4
  6
CONTINUOUS
 10
10.9046320841
 20
7.0764956407
 11
10.9146320841
 21
7.0831623058
  0
LINE
  5
3A0
100
AcDbEntity
  8
03__ASM_ALL_CURVES
100
AcDbLine
 62
4
  6
CONTINUOUS
 10
10.9346320841
 20
7.0564956407
 11
10.9246320841
 21
7.0498289708
  0
LINE
  5
3A1
100
AcDbEntity
  8
03__ASM_ALL_CURVES
100
AcDbLine
 62
4
  6
CONTINUOUS
 10
10.9346320841
 20
7.0098289726
 11
10.9246320841
 21
7.0031623058
  0
LINE
  5
3A2
100
AcDbEntity
  8
03__ASM_ALL_CURVES
100
AcDbLine
 62
4
  6
CONTINUOUS
 10
11.1446320841
 20
7.0764956407
 11
11.1546320841
 21
7.0831623058
  0
LINE
  5
3A3
100
AcDbEntity
  8
03__ASM_ALL_CURVES
100
AcDbLine
 62
4
  6
CONTINUOUS
 10
11.1446320841
 20
7.0431623058
 11
11.1546320841
 21
7.0498289708
  0
LINE
  5
3A4
100
AcDbEntity
  8
03__ASM_ALL_CURVES
100
AcDbLine
 62
4
  6
CONTINUOUS
 10
11.1746320841
 20
7.0564956407
 11
11.1646320841
 21
7.0498289708
  0
LINE
  5
3A5
100
AcDbEntity
  8
03__ASM_ALL_CURVES
100
AcDbLine
 62
4
  6
CONTINUOUS
 10
11.1746320841
 20
7.0098289726
 11
11.1646320841
 21
7.0031623058
  0
ARC
  5
3A6
100
AcDbEntity
  8
0
100
AcDbCircle
 62
7
  6
CONTINUOUS
 10
8.6066320841
 20
7.4341622819
 40
0.375
100
AcDbArc
 50
180.0
 51
270.0
  0
ARC
  5
3A7
100
AcDbEntity
  8
0
100
AcDbCircle
 62
7
  6
CONTINUOUS
 10
8.6066320841
 20
7.4341622819
 40
0.344
100
AcDbArc
 50
180.0
 51
270.0
  0
ARC
  5
3A8
100
AcDbEntity
  8
0
100
AcDbCircle
 62
7
  6
CONTINUOUS
 10
8.6066320841
 20
8.3521622819
 40
0.375
100
AcDbArc
 50
90.0
 51
180.0
  0
ARC
  5
3A9
100
AcDbEntity
  8
0
100
AcDbCircle
 62
7
  6
CONTINUOUS
 10
8.6066320841
 20
8.3521622819
 40
0.344
100
AcDbArc
 50
90.0
 51
180.0
  0
CIRCLE
  5
3AA
100
AcDbEntity
  8
0
100
AcDbCircle
 62
7
  6
CONTINUOUS
 10
8.4196320841
 20
8.4931623058
 40
0.0450000018
  0
CIRCLE
  5
3AB
100
AcDbEntity
  8
0
100
AcDbCircle
 62
7
  6
CONTINUOUS
 10
9.0446320841
 20
7.6811622695
 40
0.4305
  0
CIRCLE
  5
3AC
100
AcDbEntity
  8
0
100
AcDbCircle
 62
7
  6
CONTINUOUS
 10
9.0446320841
 20
7.6811622695
 40
0.4175
  0
CIRCLE
  5
3AD
100
AcDbEntity
  8
0
100
AcDbCircle
 62
7
  6
CONTINUOUS
 10
9.0446320841
 20
7.6811622695
 40
0.407
  0
CIRCLE
  5
3AE
100
AcDbEntity
  8
0
100
AcDbCircle
 62
7
  6
CONTINUOUS
 10
9.0446320841
 20
7.6811622695
 40
0.367
  0
CIRCLE
  5
3AF
100
AcDbEntity
  8
0
100
AcDbCircle
 62
7
  6
CONTINUOUS
 10
9.0446320841
 20
7.6811622695
 40
0.3503578644
  0
CIRCLE
  5
3B0
100
AcDbEntity
  8
0
100
AcDbCircle
 62
7
  6
CONTINUOUS
 10
9.0446320841
 20
7.6811622695
 40
0.3445
  0
CIRCLE
  5
3B1
100
AcDbEntity
  8
0
100
AcDbCircle
 62
7
  6
CONTINUOUS
 10
9.0446320841
 20
7.6811622695
 40
0.3345
  0
CIRCLE
  5
3B2
100
AcDbEntity
  8
0
100
AcDbCircle
 62
7
  6
CONTINUOUS
 10
9.0446320841
 20
7.6811622695
 40
0.2655
  0
ARC
  5
3B3
100
AcDbEntity
  8
0
100
AcDbCircle
 62
7
  6
CONTINUOUS
 10
9.4816320841
 20
7.4341622819
 40
0.375
100
AcDbArc
 50
270.0
 51
360.0
  0
ARC
  5
3B4
100
AcDbEntity
  8
0
100
AcDbCircle
 62
7
  6
CONTINUOUS
 10
9.4816320841
 20
7.4341622819
 40
0.344
100
AcDbArc
 50
270.0
 51
360.0
  0
ARC
  5
3B5
100
AcDbEntity
  8
0
100
AcDbCircle
 62
7
  6
CONTINUOUS
 10
9.4816320841
 20
8.3521622819
 40
0.375
100
AcDbArc
 50
0.0
 51
90.0
  0
ARC
  5
3B6
100
AcDbEntity
  8
0
100
AcDbCircle
 62
7
  6
CONTINUOUS
 10
9.4816320841
 20
8.3521622819
 40
0.344
100
AcDbArc
 50
0.0
 51
90.0
  0
SPLINE
  5
3B7
100
AcDbEntity
  8
0
100
AcDbSpline
 62
7
  6
CONTINUOUS
 70
0
 71
3
 72
30
 73
26
 74
24
 42
0.0000001
 43
0.0000001
 44
0.0000000001
 12
-0.0822493112
 22
-0.1092782635
 32
0.0
 13
-0.1279752771
 23
0.0482697982
 33
0.0
 40
0.0
 40
0.0
 40
0.0
 40
0.0
 40
0.0577104457
 40
0.1138767062
 40
0.1685064704
 40
0.2216616814
 40
0.2735136023
 40
0.3241762331
 40
0.3736601023
 40
0.4221025348
 40
0.469332758
 40
0.5150727318
 40
0.5591560037
 40
0.6016820128
 40
0.6425520003
 40
0.6816901546
 40
0.7190973054
 40
0.7551054543
 40
0.7902589646
 40
0.8248700098
 40
0.8591904722
 40
0.8935180906
 40
0.9283805875
 40
0.9641089195
 40
1.0
 40
1.0
 40
1.0
 40
1.0
 10
8.9958979246
 20
7.9421512189
 30
0.0
 10
8.9943157098
 20
7.9400490531
 30
0.0
 10
8.9911017571
 20
7.9359691464
 30
0.0
 10
8.9860838713
 20
7.9301488786
 30
0.0
 10
8.9809583104
 20
7.9247050664
 30
0.0
 10
8.9757427432
 20
7.9196257469
 30
0.0
 10
8.970448426
 20
7.9148960343
 30
0.0
 10
8.9650851895
 20
7.9105043853
 30
0.0
 10
8.959661353
 20
7.906442124
 30
0.0
 10
8.9541934046
 20
7.9027104019
 30
0.0
 10
8.9487079966
 20
7.8993185596
 30
0.0
 10
8.9432447181
 20
7.8962814855
 30
0.0
 10
8.9378341015
 20
7.8936052354
 30
0.0
 10
8.9325000585
 20
7.8912910568
 30
0.0
 10
8.9272633829
 20
7.8893377834
 30
0.0
 10
8.9221502942
 20
7.8877435674
 30
0.0
 10
8.917169336
 20
7.886498072
 30
0.0
 10
8.9123013002
 20
7.8855856347
 30
0.0
 10
8.907511912
 20
7.8849956723
 30
0.0
 10
8.9027705198
 20
7.8847277848
 30
0.0
 10
8.8980592784
 20
7.8847896985
 30
0.0
 10
8.8933532858
 20
7.8851955382
 30
0.0
 10
8.8886279099
 20
7.8859685612
 30
0.0
 10
8.8839090837
 20
7.8871295683
 30
0.0
 10
8.880807158
 20
7.8881623544
 30
0.0
 10
8.8792761011
 20
7.8887398395
 30
0.0
 11
8.9958979246
 21
7.9421512189
 31
0.0
 11
8.9910126824
 21
7.9359514649
 31
0.0
 11
8.9859958598
 21
7.9301338603
 31
0.0
 11
8.9808732063
 21
7.924694479
 31
0.0
 11
8.9756641475
 21
7.9196228902
 31
0.0
 11
8.9703745421
 21
7.9148989848
 31
0.0
 11
8.9650123939
 21
7.9105101509
 31
0.0
 11
8.9595941564
 21
7.906454427
 31
0.0
 11
8.9541202514
 21
7.902721496
 31
0.0
 11
8.9486244613
 21
7.8993266194
 31
0.0
 11
8.9431549445
 21
7.8962899281
 31
0.0
 11
8.9377488738
 21
7.8936201418
 31
0.0
 11
8.9324113795
 21
7.8913089779
 31
0.0
 11
8.9271724477
 21
7.8893595112
 31
0.0
 11
8.9220607636
 21
7.8877703291
 31
0.0
 11
8.9170962915
 21
7.8865333206
 31
0.0
 11
8.9122549309
 21
7.8856299534
 31
0.0
 11
8.9074825122
 21
7.8850458561
 31
0.0
 11
8.9027560255
 21
7.8847821846
 31
0.0
 11
8.8980623767
 21
7.8848466801
 31
0.0
 11
8.8933848472
 21
7.8852521489
 31
0.0
 11
8.8886793508
 21
7.8860230538
 31
0.0
 11
8.8839342001
 21
7.887190482
 31
0.0
 11
8.8792761011
 21
7.8887398395
 31
0.0
  0
SPLINE
  5
3B8
100
AcDbEntity
  8
0
100
AcDbSpline
 62
7
  6
CONTINUOUS
 70
0
 71
3
 72
28
 73
24
 74
22
 42
0.0000001
 43
0.0000001
 44
0.0000000001
 12
0.0963926855
 22
0.0667434035
 32
0.0
 13
0.0987337779
 23
-0.0632246991
 33
0.0
 40
0.0
 40
0.0
 40
0.0
 40
0.0
 40
0.0422018892
 40
0.0833813733
 40
0.1231478672
 40
0.1619631342
 40
0.2004396249
 40
0.2392194093
 40
0.2787941958
 40
0.319612185
 40
0.3618440821
 40
0.4057655227
 40
0.4516233435
 40
0.4994222097
 40
0.5490470018
 40
0.6004082413
 40
0.6535339625
 40
0.7081863715
 40
0.764080365
 40
0.8212243466
 40
0.8795727986
 40
0.9391590895
 40
1.0
 40
1.0
 40
1.0
 40
1.0
 10
8.9343752671
 20
7.4397265289
 30
0.0
 10
8.9357312516
 20
7.4406654281
 30
0.0
 10
8.9384851747
 20
7.4424152314
 30
0.0
 10
8.9427447625
 20
7.444665601
 30
0.0
 10
8.9470445849
 20
7.4465257018
 30
0.0
 10
8.9513700673
 20
7.4480271918
 30
0.0
 10
8.9557530126
 20
7.4492099526
 30
0.0
 10
8.9602343444
 20
7.4501012971
 30
0.0
 10
8.9648541703
 20
7.4507149909
 30
0.0
 10
8.9696374087
 20
7.4510528508
 30
0.0
 10
8.974601937
 20
7.4511106219
 30
0.0
 10
8.9797584881
 20
7.4508803373
 30
0.0
 10
8.985111564
 20
7.4503514198
 30
0.0
 10
8.9906505176
 20
7.44951384
 30
0.0
 10
8.9963520422
 20
7.4483610954
 30
0.0
 10
9.0021942873
 20
7.4468885348
 30
0.0
 10
9.0081511064
 20
7.4450935455
 30
0.0
 10
9.0141894238
 20
7.4429771281
 30
0.0
 10
9.0202761748
 20
7.4405428679
 30
0.0
 10
9.0263856464
 20
7.437792797
 30
0.0
 10
9.03250311
 20
7.4347235723
 30
0.0
 10
9.0386130043
 20
7.4313309331
 30
0.0
 10
9.0426297331
 20
7.4288750612
 30
0.0
 10
9.0446320841
 20
7.4275928452
 30
0.0
 11
8.9343752671
 21
7.4397265289
 31
0.0
 11
8.9385522889
 21
7.4423787634
 31
0.0
 11
8.9428211655
 21
7.4446339794
 31
0.0
 11
8.947099832
 21
7.4464860432
 31
0.0
 11
8.9513983588
 21
7.4479801363
 31
0.0
 11
8.9557529933
 21
7.4491577943
 31
0.0
 11
8.9602116904
 21
7.4500476381
 31
0.0
 11
8.9648106772
 21
7.4506619428
 31
0.0
 11
8.969584111
 21
7.4510028087
 31
0.0
 11
8.9745350873
 21
7.451064321
 31
0.0
 11
8.9796795815
 21
7.4508385912
 31
0.0
 11
8.985030392
 21
7.4503139476
 31
0.0
 11
8.9905720219
 21
7.4494799083
 31
0.0
 11
8.9962754672
 21
7.4483304736
 31
0.0
 11
9.0021153372
 21
7.4468618637
 31
0.0
 11
9.0080798537
 21
7.4450675188
 31
0.0
 11
9.0141275361
 21
7.4429503421
 31
0.0
 11
9.0202128329
 21
7.4405187374
 31
0.0
 11
9.0263227451
 21
7.4377701508
 31
0.0
 11
9.0324377774
 21
7.4347035137
 31
0.0
 11
9.0385458817
 21
7.4313129968
 31
0.0
 11
9.0446320841
 21
7.4275928452
 31
0.0
  0
SPLINE
  5
3B9
100
AcDbEntity
  8
0
100
AcDbSpline
 62
7
  6
CONTINUOUS
 70
0
 71
3
 72
8
 73
4
 74
2
 42
0.0000001
 43
0.0000001
 44
0.0000000001
 12
-0.0001214194
 22
0.0000457969
 32
0.0
 13
-0.0001213208
 23
0.000046048
 33
0.0
 40
0.0
 40
0.0
 40
0.0
 40
0.0
 40
1.0
 40
1.0
 40
1.0
 40
1.0
 10
8.8792761401
 20
7.8887398248
 30
0.0
 10
8.879235667
 20
7.8887550904
 30
0.0
 10
8.8791952102
 20
7.8887703979
 30
0.0
 10
8.87915477
 20
7.8887857473
 30
0.0
 11
8.8792761401
 21
7.8887398248
 31
0.0
 11
8.87915477
 21
7.8887857473
 31
0.0
  0
SPLINE
  5
3BA
100
AcDbEntity
  8
0
100
AcDbSpline
 62
7
  6
CONTINUOUS
 70
0
 71
3
 72
8
 73
4
 74
2
 42
0.0000001
 43
0.0000001
 44
0.0000000001
 12
0.0000764784
 22
0.0000531233
 32
0.0
 13
0.0000765591
 23
0.0000530102
 33
0.0
 40
0.0
 40
0.0
 40
0.0
 40
0.0
 40
1.0
 40
1.0
 40
1.0
 40
1.0
 10
8.9342988187
 20
7.4396735109
 30
0.0
 10
8.9343243115
 20
7.4396912186
 30
0.0
 10
8.9343498178
 20
7.4397089076
 30
0.0
 10
8.9343753375
 20
7.4397265776
 30
0.0
 11
8.9342988187
 21
7.4396735109
 31
0.0
 11
8.9343753375
 21
7.4397265776
 31
0.0
  0
SPLINE
  5
3BB
100
AcDbEntity
  8
0
100
AcDbSpline
 62
7
  6
CONTINUOUS
 70
0
 71
3
 72
10
 73
6
 74
4
 42
0.0000001
 43
0.0000001
 44
0.0000000001
 12
0.016479037
 22
-0.0105524389
 32
0.0
 13
0.0152002788
 23
-0.0123233174
 33
0.0
 40
0.0
 40
0.0
 40
0.0
 40
0.0
 40
0.3260261083
 40
0.6587505573
 40
1.0
 40
1.0
 40
1.0
 40
1.0
 10
9.0446320841
 20
7.4275928452
 30
0.0
 10
9.0464229495
 20
7.426446055
 30
0.0
 10
9.0499987199
 20
7.4240613525
 30
0.0
 10
9.0552886131
 20
7.4202429094
 30
0.0
 10
9.0587554499
 20
7.4175377222
 30
0.0
 10
9.0604844788
 20
7.4161359471
 30
0.0
 11
9.0446320841
 21
7.4275928452
 31
0.0
 11
9.0499400586
 21
7.4240535871
 31
0.0
 11
9.055219532
 21
7.4202433749
 31
0.0
 11
9.0604844788
 21
7.4161359471
 31
0.0
  0
ENDSEC
  0
SECTION
  2
OBJECTS
  0
DICTIONARY
  5
C
100
AcDbDictionary
280
0
281
1
  3
ACAD_GROUP
350
D
  3
ACAD_MLINESTYLE
350
17
  3
ACAD_LAYOUT
350
1A
  3
ACAD_PLOTSETTINGS
350
19
  3
ACAD_PLOTSTYLENAME
350
E
  0
DICTIONARY
  5
D
102
{ACAD_REACTORS
330
C
102
}
100
AcDbDictionary
280
0
281
1
  0
ACDBDICTIONARYWDFLT
  5
E
102
{ACAD_REACTORS
330
C
102
}
100
AcDbDictionary
281
1
  3
Normal
350
F
100
AcDbDictionaryWithDefault
340
F
  0
DICTIONARY
  5
17
102
{ACAD_REACTORS
330
C
102
}
100
AcDbDictionary
280
0
281
1
  3
Standard
350
18
  0
DICTIONARY
  5
19
102
{ACAD_REACTORS
330
C
102
}
100
AcDbDictionary
281
1
  0
DICTIONARY
  5
1A
102
{ACAD_REACTORS
330
C
102
}
100
AcDbDictionary
281
1
  3
Layout1
350
1E
  3
Model
350
22
  0
ACDBPLACEHOLDER
  5
F
102
{ACAD_REACTORS
330
E
102
}
  0
MLINESTYLE
  5
18
102
{ACAD_REACTORS
330
17
102
}
100
AcDbMlineStyle
  2
STANDARD
 70
0
  3

 62
256
 51
90.0
 52
90.0
 71
2
 49
0.5
 62
256
  6
BYLAYER
 49
-0.5
 62
256
  6
BYLAYER
  0
LAYOUT
  5
1E
102
{ACAD_REACTORS
330
1A
102
}
100
AcDbPlotSettings
  1

  2

  4

  6

 40
0.0
 41
0.0
 42
0.0
 43
0.0
 44
0.0
 45
0.0
 46
0.0
 47
0.0
 48
0.0
 49
0.0
140
0.0
141
0.0
142
1.0
143
1.0
 70
0
 72
0
 73
0
 74
0
  7

 75
0
147
1.0
148
0.0
149
0.0
100
AcDbLayout
  1
Layout1
 70
0
 71
0
 10
0.0
 20
0.0
 11
0.0
 21
0.0
 12
0.0
 22
0.0
 32
0.0
 14
0.0
 24
0.0
 34
0.0
 15
0.0
 25
0.0
 35
0.0
146
0.0
 13
0.0
 23
0.0
 33
0.0
 16
0.0
 26
0.0
 36
0.0
 17
0.0
 27
0.0
 37
0.0
 76
0
330
1B
331
0
345
0
346
0
  0
LAYOUT
  5
22
102
{ACAD_REACTORS
330
1A
102
}
100
AcDbPlotSettings
  1

  2

  4

  6

 40
0.0
 41
0.0
 42
0.0
 43
0.0
 44
0.0
 45
0.0
 46
0.0
 47
0.0
 48
0.0
 49
0.0
140
0.0
141
0.0
142
1.0
143
1.0
 70
0
 72
0
 73
0
 74
0
  7

 75
0
147
1.0
148
0.0
149
0.0
100
AcDbLayout
  1
Model
 70
0
 71
0
 10
0.0
 20
0.0
 11
0.0
 21
0.0
 12
0.0
 22
0.0
 32
0.0
 14
0.0
 24
0.0
 34
0.0
 15
0.0
 25
0.0
 35
0.0
146
0.0
 13
0.0
 23
0.0
 33
0.0
 16
0.0
 26
0.0
 36
0.0
 17
0.0
 27
0.0
 37
0.0
 76
0
330
1F
331
0
345
0
346
0
  0
ENDSEC
  0
EOF
