999
DXF file: FBX_2.dxf
999
Pro/ENGINEER 2006240 by Parametric Technology Corporation
  0
SECTION
  2
HEADER
  9
$ACADVER
  1
AC1015
  9
$DWGCODEPAGE
  3
ANSI_1252
  9
$EXTMAX
 10
22.0
 20
17.0
 30
0.0
  9
$EXTMIN
 10
0.0
 20
0.0
 30
0.0
  9
$LIMMIN
 10
0.0
 20
0.0
  9
$LIMMAX
 10
22.0
 20
17.0
  9
$VIEWCTR
 10
11.0
 20
8.5
  9
$VIEWSIZE
 40
17.0
  9
$CLAYER
  8
0
  9
$LTSCALE
 40
1.21
  9
$CELTYPE
  6
BYLAYER
  9
$DIMSCALE
 40
1.0
  9
$DIMASZ
 40
0.1875
  9
$DIMEXO
 40
0.1375
  9
$DIMDLI
 40
0.836
  9
$DIMEXE
 40
0.396
  9
$DIMCEN
 40
0.198
  9
$DIMLFAC
 40
1.0
  9
$DIMBLK
  1
_CLOSED
  9
$DIMTXT
 40
0.15625
  9
$DIMTOL
 70
0
  9
$DIMLIM
 70
0
  9
$DIMTFAC
 40
1.0
  9
$PDMODE
 70
3
  9
$PDSIZE
 40
0.3125
  9
$HANDSEED
  5
40A
  9
$MEASUREMENT
 70
0
  9
$INSUNITS
 70
1
  0
ENDSEC
  0
SECTION
  2
CLASSES
  0
CLASS
  1
ACDBDICTIONARYWDFLT
  2
AcDbDictionaryWithDefault
  3
AutoCAD 2000
 90
0
280
0
281
0
  0
CLASS
  1
ACDBPLACEHOLDER
  2
AcDbPlaceHolder
  3
AutoCAD 2000
 90
0
280
0
281
0
  0
CLASS
  1
LAYOUT
  2
AcDbLayout
  3
AutoCAD 2000
 90
0
280
0
281
0
  0
ENDSEC
  0
SECTION
  2
TABLES
  0
TABLE
  2
VPORT
  5
8
100
AcDbSymbolTable
 70
2
  0
VPORT
  5
1F4
100
AcDbSymbolTableRecord
100
AcDbViewportTableRecord
  2
*ACTIVE
 70
0
 10
0.0
 20
0.0
 11
1.0
 21
1.0
 12
11.0
 22
8.5
 13
0.0
 23
0.0
 14
1.0
 24
1.0
 15
0.0
 25
0.0
 16
0.0
 26
0.0
 36
1.0
 17
0.0
 27
0.0
 37
0.0
 40
17.0
 41
1.2941176471
 42
50.0
 43
0.0
 44
0.0
 50
0.0
 51
0.0
 71
0
 72
100
 73
1
 74
1
 75
0
 76
0
 77
0
 78
0
  0
ENDTAB
  0
TABLE
  2
LTYPE
  5
5
100
AcDbSymbolTable
 70
6
  0
LTYPE
  5
14
100
AcDbSymbolTableRecord
100
AcDbLinetypeTableRecord
  2
BYBLOCK
 70
0
  3

 72
65
 73
0
 40
0.0
  0
LTYPE
  5
15
100
AcDbSymbolTableRecord
100
AcDbLinetypeTableRecord
  2
BYLAYER
 70
0
  3

 72
65
 73
0
 40
0.0
  0
LTYPE
  5
16
100
AcDbSymbolTableRecord
100
AcDbLinetypeTableRecord
  2
CONTINUOUS
 70
64
  3
Solid line
 72
65
 73
0
 40
0.0
  0
LTYPE
  5
1F5
100
AcDbSymbolTableRecord
100
AcDbLinetypeTableRecord
  2
CENTER
 70
64
  3
____ _ ____ _ ____ _ ____ _ ____ _ ____ _ ____
 72
65
 73
4
 40
0.6
 49
0.375
 74
0
 49
-0.075
 74
0
 49
0.075
 74
0
 49
-0.075
 74
0
  0
LTYPE
  5
1F6
100
AcDbSymbolTableRecord
100
AcDbLinetypeTableRecord
  2
HIDDEN
 70
64
  3
- - - - - - - - - - - - - - - - - - - -
 72
65
 73
2
 40
0.2
 49
0.1
 74
0
 49
-0.1
 74
0
  0
LTYPE
  5
1F7
100
AcDbSymbolTableRecord
100
AcDbLinetypeTableRecord
  2
PHANTOM
 70
64
  3
_____ _ _ _____ _ _ _____ _ _ _____
 72
65
 73
6
 40
0.8
 49
0.45
 74
0
 49
-0.05
 74
0
 49
0.1
 74
0
 49
-0.05
 74
0
 49
0.1
 74
0
 49
-0.05
 74
0
  0
LTYPE
  5
1F8
100
AcDbSymbolTableRecord
100
AcDbLinetypeTableRecord
  2
DOT
 70
64
  3
. . . . . . . . . . . . . . . . . . . .
 72
65
 73
2
 40
0.2
 49
0.1
 74
0
 49
-0.1
 74
0
  0
LTYPE
  5
1F9
100
AcDbSymbolTableRecord
100
AcDbLinetypeTableRecord
  2
DASHED
 70
64
  3
- - - - - - - - - - - - - - - - - - - -
 72
65
 73
2
 40
0.2
 49
0.1
 74
0
 49
-0.1
 74
0
  0
ENDTAB
  0
TABLE
  2
LAYER
  5
2
100
AcDbSymbolTable
 70
36
  0
LAYER
  5
10
100
AcDbSymbolTableRecord
100
AcDbLayerTableRecord
  2
0
 70
0
 62
7
  6
CONTINUOUS
370
-3
390
F
  0
LAYER
  5
1FA
100
AcDbSymbolTableRecord
100
AcDbLayerTableRecord
  2
DEFAULT_1
 70
0
 62
7
  6
CENTER
370
-3
390
F
  0
LAYER
  5
1FB
100
AcDbSymbolTableRecord
100
AcDbLayerTableRecord
  2
DEFAULT_2
 70
0
 62
8
  6
HIDDEN
370
-3
390
F
  0
LAYER
  5
1FC
100
AcDbSymbolTableRecord
100
AcDbLayerTableRecord
  2
DEFAULT_3
 70
0
 62
7
  6
PHANTOM
370
-3
390
F
  0
LAYER
  5
1FD
100
AcDbSymbolTableRecord
100
AcDbLayerTableRecord
  2
01_ALL_DTM_PLN
 70
0
 62
7
  6
CONTINUOUS
370
-3
390
F
  0
LAYER
  5
1FE
100
AcDbSymbolTableRecord
100
AcDbLayerTableRecord
  2
01__ASM_ALL_DTM_PLN
 70
0
 62
7
  6
CONTINUOUS
370
-3
390
F
  0
LAYER
  5
1FF
100
AcDbSymbolTableRecord
100
AcDbLayerTableRecord
  2
01__ASM_DEF_DTM_PLN
 70
0
 62
7
  6
CONTINUOUS
370
-3
390
F
  0
LAYER
  5
200
100
AcDbSymbolTableRecord
100
AcDbLayerTableRecord
  2
01___PRT_ALL_DTM_PLN
 70
0
 62
7
  6
CONTINUOUS
370
-3
390
F
  0
LAYER
  5
201
100
AcDbSymbolTableRecord
100
AcDbLayerTableRecord
  2
01___PRT_DEF_DTM_PLN
 70
0
 62
7
  6
CONTINUOUS
370
-3
390
F
  0
LAYER
  5
202
100
AcDbSymbolTableRecord
100
AcDbLayerTableRecord
  2
02_ALL_AXES
 70
0
 62
7
  6
CONTINUOUS
370
-3
390
F
  0
LAYER
  5
203
100
AcDbSymbolTableRecord
100
AcDbLayerTableRecord
  2
02__ASM_ALL_AXES
 70
0
 62
7
  6
CONTINUOUS
370
-3
390
F
  0
LAYER
  5
204
100
AcDbSymbolTableRecord
100
AcDbLayerTableRecord
  2
02___PRT_ALL_AXES
 70
0
 62
7
  6
CONTINUOUS
370
-3
390
F
  0
LAYER
  5
205
100
AcDbSymbolTableRecord
100
AcDbLayerTableRecord
  2
03_ALL_CURVES
 70
0
 62
7
  6
CONTINUOUS
370
-3
390
F
  0
LAYER
  5
206
100
AcDbSymbolTableRecord
100
AcDbLayerTableRecord
  2
03__ASM_ALL_CURVES
 70
0
 62
7
  6
CONTINUOUS
370
-3
390
F
  0
LAYER
  5
207
100
AcDbSymbolTableRecord
100
AcDbLayerTableRecord
  2
03___PRT_ALL_CURVES
 70
0
 62
7
  6
CONTINUOUS
370
-3
390
F
  0
LAYER
  5
208
100
AcDbSymbolTableRecord
100
AcDbLayerTableRecord
  2
04_ALL_DTM_PNT
 70
0
 62
7
  6
CONTINUOUS
370
-3
390
F
  0
LAYER
  5
209
100
AcDbSymbolTableRecord
100
AcDbLayerTableRecord
  2
04__ASM_ALL_DTM_PNT
 70
0
 62
7
  6
CONTINUOUS
370
-3
390
F
  0
LAYER
  5
20A
100
AcDbSymbolTableRecord
100
AcDbLayerTableRecord
  2
04___PRT_ALL_DTM_PNT
 70
0
 62
7
  6
CONTINUOUS
370
-3
390
F
  0
LAYER
  5
20B
100
AcDbSymbolTableRecord
100
AcDbLayerTableRecord
  2
05_ALL_DTM_CSYS
 70
0
 62
7
  6
CONTINUOUS
370
-3
390
F
  0
LAYER
  5
20C
100
AcDbSymbolTableRecord
100
AcDbLayerTableRecord
  2
05__ASM_ALL_DTM_CSYS
 70
0
 62
7
  6
CONTINUOUS
370
-3
390
F
  0
LAYER
  5
20D
100
AcDbSymbolTableRecord
100
AcDbLayerTableRecord
  2
05__ASM_DEF_DTM_CSYS
 70
0
 62
7
  6
CONTINUOUS
370
-3
390
F
  0
LAYER
  5
20E
100
AcDbSymbolTableRecord
100
AcDbLayerTableRecord
  2
05___PRT_ALL_DTM_CSYS
 70
0
 62
7
  6
CONTINUOUS
370
-3
390
F
  0
LAYER
  5
20F
100
AcDbSymbolTableRecord
100
AcDbLayerTableRecord
  2
05___PRT_DEF_DTM_CSYS
 70
0
 62
7
  6
CONTINUOUS
370
-3
390
F
  0
LAYER
  5
210
100
AcDbSymbolTableRecord
100
AcDbLayerTableRecord
  2
06_ALL_SURFS
 70
0
 62
7
  6
CONTINUOUS
370
-3
390
F
  0
LAYER
  5
211
100
AcDbSymbolTableRecord
100
AcDbLayerTableRecord
  2
06__ASM_ALL_SURFS
 70
0
 62
7
  6
CONTINUOUS
370
-3
390
F
  0
LAYER
  5
212
100
AcDbSymbolTableRecord
100
AcDbLayerTableRecord
  2
06___PRT_ALL_SURFS
 70
0
 62
7
  6
CONTINUOUS
370
-3
390
F
  0
LAYER
  5
213
100
AcDbSymbolTableRecord
100
AcDbLayerTableRecord
  2
07__ASM_ALL_SKELETONS
 70
0
 62
7
  6
CONTINUOUS
370
-3
390
F
  0
LAYER
  5
214
100
AcDbSymbolTableRecord
100
AcDbLayerTableRecord
  2
COPY_GEO_FET
 70
0
 62
7
  6
CONTINUOUS
370
-3
390
F
  0
LAYER
  5
215
100
AcDbSymbolTableRecord
100
AcDbLayerTableRecord
  2
COSMETIC
 70
0
 62
7
  6
CONTINUOUS
370
-3
390
F
  0
LAYER
  5
216
100
AcDbSymbolTableRecord
100
AcDbLayerTableRecord
  2
CUT_REF_SURF
 70
0
 62
7
  6
CONTINUOUS
370
-3
390
F
  0
LAYER
  5
217
100
AcDbSymbolTableRecord
100
AcDbLayerTableRecord
  2
DATESTAMP
 70
0
 62
7
  6
CONTINUOUS
370
-3
390
F
  0
LAYER
  5
218
100
AcDbSymbolTableRecord
100
AcDbLayerTableRecord
  2
DATUM
 70
0
 62
7
  6
CONTINUOUS
370
-3
390
F
  0
LAYER
  5
219
100
AcDbSymbolTableRecord
100
AcDbLayerTableRecord
  2
DATUM_B
 70
0
 62
7
  6
CONTINUOUS
370
-3
390
F
  0
LAYER
  5
21A
100
AcDbSymbolTableRecord
100
AcDbLayerTableRecord
  2
DATUM_PLANES
 70
0
 62
7
  6
CONTINUOUS
370
-3
390
F
  0
LAYER
  5
21B
100
AcDbSymbolTableRecord
100
AcDbLayerTableRecord
  2
DIM
 70
0
 62
7
  6
CONTINUOUS
370
-3
390
F
  0
LAYER
  5
21C
100
AcDbSymbolTableRecord
100
AcDbLayerTableRecord
  2
DIM_1
 70
0
 62
7
  6
CONTINUOUS
370
-3
390
F
  0
LAYER
  5
21D
100
AcDbSymbolTableRecord
100
AcDbLayerTableRecord
  2
DIM_2
 70
0
 62
7
  6
CONTINUOUS
370
-3
390
F
  0
LAYER
  5
21E
100
AcDbSymbolTableRecord
100
AcDbLayerTableRecord
  2
DIM_3
 70
0
 62
7
  6
CONTINUOUS
370
-3
390
F
  0
LAYER
  5
21F
100
AcDbSymbolTableRecord
100
AcDbLayerTableRecord
  2
DTM
 70
0
 62
7
  6
CONTINUOUS
370
-3
390
F
  0
LAYER
  5
220
100
AcDbSymbolTableRecord
100
AcDbLayerTableRecord
  2
EXT_COPY_GEO
 70
0
 62
7
  6
CONTINUOUS
370
-3
390
F
  0
LAYER
  5
221
100
AcDbSymbolTableRecord
100
AcDbLayerTableRecord
  2
FBX_10
 70
0
 62
7
  6
CONTINUOUS
370
-3
390
F
  0
LAYER
  5
222
100
AcDbSymbolTableRecord
100
AcDbLayerTableRecord
  2
FBX_2
 70
0
 62
7
  6
CONTINUOUS
370
-3
390
F
  0
LAYER
  5
223
100
AcDbSymbolTableRecord
100
AcDbLayerTableRecord
  2
FBX_5
 70
0
 62
7
  6
CONTINUOUS
370
-3
390
F
  0
LAYER
  5
224
100
AcDbSymbolTableRecord
100
AcDbLayerTableRecord
  2
FBX_6
 70
0
 62
7
  6
CONTINUOUS
370
-3
390
F
  0
LAYER
  5
225
100
AcDbSymbolTableRecord
100
AcDbLayerTableRecord
  2
FBX_7
 70
0
 62
7
  6
CONTINUOUS
370
-3
390
F
  0
LAYER
  5
226
100
AcDbSymbolTableRecord
100
AcDbLayerTableRecord
  2
LS
 70
0
 62
7
  6
CONTINUOUS
370
-3
390
F
  0
LAYER
  5
227
100
AcDbSymbolTableRecord
100
AcDbLayerTableRecord
  2
LS_1
 70
0
 62
7
  6
CONTINUOUS
370
-3
390
F
  0
LAYER
  5
228
100
AcDbSymbolTableRecord
100
AcDbLayerTableRecord
  2
ORIGIN
 70
0
 62
7
  6
CONTINUOUS
370
-3
390
F
  0
LAYER
  5
229
100
AcDbSymbolTableRecord
100
AcDbLayerTableRecord
  2
PARTNUMBER
 70
0
 62
7
  6
CONTINUOUS
370
-3
390
F
  0
LAYER
  5
22A
100
AcDbSymbolTableRecord
100
AcDbLayerTableRecord
  2
PORT_AREAS
 70
0
 62
7
  6
CONTINUOUS
370
-3
390
F
  0
LAYER
  5
22B
100
AcDbSymbolTableRecord
100
AcDbLayerTableRecord
  2
TEXT
 70
0
 62
7
  6
CONTINUOUS
370
-3
390
F
  0
LAYER
  5
22C
100
AcDbSymbolTableRecord
100
AcDbLayerTableRecord
  2
THREAD
 70
0
 62
7
  6
CONTINUOUS
370
-3
390
F
  0
LAYER
  5
22D
100
AcDbSymbolTableRecord
100
AcDbLayerTableRecord
  2
THREADS
 70
0
 62
7
  6
CONTINUOUS
370
-3
390
F
  0
ENDTAB
  0
TABLE
  2
STYLE
  5
3
100
AcDbSymbolTable
 70
1
  0
STYLE
  5
11
100
AcDbSymbolTableRecord
100
AcDbTextStyleTableRecord
  2
STANDARD
 70
0
 40
0.0
 41
0.8
 50
0.0
 71
0
 42
0.2
  3
txt
  4

  0
ENDTAB
  0
TABLE
  2
VIEW
  5
6
100
AcDbSymbolTable
 70
0
  0
ENDTAB
  0
TABLE
  2
UCS
  5
7
100
AcDbSymbolTable
 70
0
  0
ENDTAB
  0
TABLE
  2
APPID
  5
9
100
AcDbSymbolTable
 70
1
  0
APPID
  5
22E
100
AcDbSymbolTableRecord
100
AcDbRegAppTableRecord
  2
ACAD
 70
0
  0
ENDTAB
  0
TABLE
  2
BLOCK_RECORD
  5
1
100
AcDbSymbolTable
 70
0
  0
BLOCK_RECORD
  5
1F
100
AcDbSymbolTableRecord
100
AcDbBlockTableRecord
  2
*MODEL_SPACE
  0
BLOCK_RECORD
  5
1B
100
AcDbSymbolTableRecord
100
AcDbBlockTableRecord
  2
*PAPER_SPACE
  0
ENDTAB
  0
TABLE
  2
DIMSTYLE
  5
A
100
AcDbSymbolTable
 70
1
100
AcDbDimStyleTable
 71
0
  0
DIMSTYLE
105
22F
100
AcDbSymbolTableRecord
100
AcDbDimStyleTableRecord
  2
STANDARD
 70
0
  3

  4

 40
1.0
 41
0.1875
 42
0.0625
 43
0.38
 44
0.18
 45
0.0
 46
0.0
 47
0.01
 48
0.01
140
0.15625
141
0.09
142
0.0
143
25.4
144
1.0
145
0.0
146
1.0
147
0.09
 71
0.0
 72
0.0
 73
1
 74
1
 75
0
 76
0
 77
0
 78
4
170
0
171
2
172
0
173
0
174
0
175
0
176
0
177
0
178
0
270
2
271
2
272
2
273
2
274
2
275
0
280
0
281
0
282
0
283
1
284
4
285
0
286
0
287
3
288
0
340
11
  0
ENDTAB
  0
ENDSEC
  0
SECTION
  2
BLOCKS
  0
BLOCK
  5
20
100
AcDbEntity
  8
0
100
AcDbBlockBegin
  2
*MODEL_SPACE
 70
0
 10
0.0
 20
0.0
 30
0.0
  3
*MODEL_SPACE
  1

  0
ENDBLK
  5
21
100
AcDbEntity
  8
0
100
AcDbBlockEnd
  0
BLOCK
  5
1C
100
AcDbEntity
  8
0
100
AcDbBlockBegin
  2
*PAPER_SPACE
 70
0
 10
0.0
 20
0.0
 30
0.0
  3
*PAPER_SPACE
  1

  0
ENDBLK
  5
1D
100
AcDbEntity
  8
0
100
AcDbBlockEnd
  0
ENDSEC
  0
SECTION
  2
ENTITIES
  0
LINE
  5
230
100
AcDbEntity
  8
03__ASM_ALL_CURVES
100
AcDbLine
 62
4
  6
CONTINUOUS
 10
7.8509037934
 20
6.6392175506
 11
7.8587787934
 21
6.6287175503
  0
LINE
  5
231
100
AcDbEntity
  8
03__ASM_ALL_CURVES
100
AcDbLine
 62
4
  6
CONTINUOUS
 10
7.9900287934
 20
6.6357175505
 11
7.9847787934
 21
6.6427175507
  0
LINE
  5
232
100
AcDbEntity
  8
03__ASM_ALL_CURVES
100
AcDbLine
 62
4
  6
CONTINUOUS
 10
8.0215287934
 20
6.6777175486
 11
8.0267787934
 21
6.6707175503
  0
LINE
  5
233
100
AcDbEntity
  8
03__ASM_ALL_CURVES
100
AcDbLine
 62
4
  6
CONTINUOUS
 10
8.0005287934
 20
6.6287175503
 11
7.9900287934
 21
6.6357175505
  0
LINE
  5
234
100
AcDbEntity
  8
03__ASM_ALL_CURVES
100
AcDbLine
 62
4
  6
CONTINUOUS
 10
8.0110287934
 20
6.6847175519
 11
8.0215287934
 21
6.6777175486
  0
LINE
  5
235
100
AcDbEntity
  8
03__ASM_ALL_CURVES
100
AcDbLine
 62
4
  6
CONTINUOUS
 10
8.1685287934
 20
6.6427175507
 11
8.1790287934
 21
6.6287175503
  0
LINE
  5
236
100
AcDbEntity
  8
03__ASM_ALL_CURVES
100
AcDbLine
 62
4
  6
CONTINUOUS
 10
8.0267787934
 20
6.6707175503
 11
8.0320287934
 21
6.6567175511
  0
LINE
  5
237
100
AcDbEntity
  8
03__ASM_ALL_CURVES
100
AcDbLine
 62
4
  6
CONTINUOUS
 10
7.7537787934
 20
6.7127175503
 11
7.7537787934
 21
6.6287175503
  0
LINE
  5
238
100
AcDbEntity
  8
03__ASM_ALL_CURVES
100
AcDbLine
 62
4
  6
CONTINUOUS
 10
7.8509037934
 20
6.6287175503
 11
7.8509037934
 21
6.6392175506
  0
LINE
  5
239
100
AcDbEntity
  8
03__ASM_ALL_CURVES
100
AcDbLine
 62
4
  6
CONTINUOUS
 10
8.4389037934
 20
6.6392175506
 11
8.4467787934
 21
6.6287175503
  0
LINE
  5
23A
100
AcDbEntity
  8
03__ASM_ALL_CURVES
100
AcDbLine
 62
4
  6
CONTINUOUS
 10
8.1632787934
 20
6.6637175494
 11
8.1685287934
 21
6.6427175507
  0
LINE
  5
23B
100
AcDbEntity
  8
03__ASM_ALL_CURVES
100
AcDbLine
 62
4
  6
CONTINUOUS
 10
8.6725287934
 20
6.7127175503
 11
8.6830287934
 21
6.6987175486
  0
LINE
  5
23C
100
AcDbEntity
  8
03__ASM_ALL_CURVES
100
AcDbLine
 62
4
  6
CONTINUOUS
 10
8.1632787934
 20
6.6777175486
 11
8.1632787934
 21
6.6637175494
  0
LINE
  5
23D
100
AcDbEntity
  8
03__ASM_ALL_CURVES
100
AcDbLine
 62
4
  6
CONTINUOUS
 10
8.2735287934
 20
6.6287175503
 11
8.2735287934
 21
6.7127175503
  0
LINE
  5
23E
100
AcDbEntity
  8
03__ASM_ALL_CURVES
100
AcDbLine
 62
4
  6
CONTINUOUS
 10
7.9217787934
 20
6.6287175503
 11
7.9270287934
 21
6.6637175494
  0
LINE
  5
23F
100
AcDbEntity
  8
03__ASM_ALL_CURVES
100
AcDbLine
 62
4
  6
CONTINUOUS
 10
7.9952787934
 20
6.7127175503
 11
7.9900287934
 21
6.6777175486
  0
LINE
  5
240
100
AcDbEntity
  8
0
100
AcDbLine
 62
7
  6
CONTINUOUS
 10
9.1397787934
 20
6.7647175503
 11
9.1707787934
 21
6.7337175503
  0
LINE
  5
241
100
AcDbEntity
  8
03__ASM_ALL_CURVES
100
AcDbLine
 62
4
  6
CONTINUOUS
 10
8.6830287934
 20
6.6987175486
 11
8.6882787934
 21
6.6777175486
  0
LINE
  5
242
100
AcDbEntity
  8
03__ASM_ALL_CURVES
100
AcDbLine
 62
4
  6
CONTINUOUS
 10
8.3575287934
 20
6.6287175503
 11
8.3575287934
 21
6.7127175503
  0
LINE
  5
243
100
AcDbEntity
  8
03__ASM_ALL_CURVES
100
AcDbLine
 62
4
  6
CONTINUOUS
 10
8.4389037934
 20
6.6287175503
 11
8.4389037934
 21
6.6392175506
  0
LINE
  5
244
100
AcDbEntity
  8
03__ASM_ALL_CURVES
100
AcDbLine
 62
4
  6
CONTINUOUS
 10
8.5255287934
 20
6.6287175503
 11
8.5255287934
 21
6.7127175503
  0
LINE
  5
245
100
AcDbEntity
  8
03__ASM_ALL_CURVES
100
AcDbLine
 62
4
  6
CONTINUOUS
 10
8.5727787934
 20
8.4067175511
 11
8.5727787934
 21
8.4347175519
  0
LINE
  5
246
100
AcDbEntity
  8
03__ASM_ALL_CURVES
100
AcDbLine
 62
4
  6
CONTINUOUS
 10
7.9270287934
 20
6.6637175494
 11
7.9322787934
 21
6.6847175519
  0
LINE
  5
247
100
AcDbEntity
  8
03__ASM_ALL_CURVES
100
AcDbLine
 62
4
  6
CONTINUOUS
 10
9.2281787917
 20
10.1584675503
 11
9.2211787934
 21
10.1479675503
  0
LINE
  5
248
100
AcDbEntity
  8
03__ASM_ALL_CURVES
100
AcDbLine
 62
4
  6
CONTINUOUS
 10
9.2211787934
 20
10.2214675503
 11
9.2351787951
 21
10.2319675503
  0
LINE
  5
249
100
AcDbEntity
  8
03__ASM_ALL_CURVES
100
AcDbLine
 62
4
  6
CONTINUOUS
 10
9.2351787951
 20
10.1637175503
 11
9.2281787917
 21
10.1584675503
  0
LINE
  5
24A
100
AcDbEntity
  8
03__ASM_ALL_CURVES
100
AcDbLine
 62
4
  6
CONTINUOUS
 10
9.2701787943
 20
10.1584675503
 11
9.2771787926
 21
10.1637175503
  0
LINE
  5
24B
100
AcDbEntity
  8
03__ASM_ALL_CURVES
100
AcDbLine
 62
4
  6
CONTINUOUS
 10
9.2421787934
 20
10.1217175503
 11
9.2491787917
 21
10.1269675503
  0
LINE
  5
24C
100
AcDbEntity
  8
03__ASM_ALL_CURVES
100
AcDbLine
 62
4
  6
CONTINUOUS
 10
9.2981787932
 20
10.1269675503
 11
9.2841787934
 21
10.1164675503
  0
LINE
  5
24D
100
AcDbEntity
  8
03__ASM_ALL_CURVES
100
AcDbLine
 62
4
  6
CONTINUOUS
 10
8.6095287934
 20
6.6287175503
 11
8.6095287934
 21
6.7127175503
  0
LINE
  5
24E
100
AcDbEntity
  8
03__ASM_ALL_CURVES
100
AcDbLine
 62
4
  6
CONTINUOUS
 10
8.6147787934
 20
8.4347175519
 11
8.6147787934
 21
8.4067175511
  0
LINE
  5
24F
100
AcDbEntity
  8
03__ASM_ALL_CURVES
100
AcDbLine
 62
4
  6
CONTINUOUS
 10
8.6882787934
 20
6.6777175486
 11
8.6882787934
 21
6.6637175494
  0
LINE
  5
250
100
AcDbEntity
  8
03__ASM_ALL_CURVES
100
AcDbLine
 62
4
  6
CONTINUOUS
 10
8.1685287934
 20
6.6987175486
 11
8.1632787934
 21
6.6777175486
  0
LINE
  5
251
100
AcDbEntity
  8
03__ASM_ALL_CURVES
100
AcDbLine
 62
4
  6
CONTINUOUS
 10
8.5727787934
 20
8.4347175519
 11
8.5780287934
 21
8.4487175486
  0
LINE
  5
252
100
AcDbEntity
  8
03__ASM_ALL_CURVES
100
AcDbLine
 62
4
  6
CONTINUOUS
 10
7.9322787934
 20
6.6847175519
 11
7.9427787934
 21
6.7127175503
  0
LINE
  5
253
100
AcDbEntity
  8
03__ASM_ALL_CURVES
100
AcDbLine
 62
4
  6
CONTINUOUS
 10
8.6147787934
 20
8.4067175511
 11
8.6095287934
 21
8.3927175507
  0
LINE
  5
254
100
AcDbEntity
  8
03__ASM_ALL_CURVES
100
AcDbLine
 62
4
  6
CONTINUOUS
 10
9.2491787917
 20
10.1269675503
 11
9.2701787943
 21
10.1584675503
  0
LINE
  5
255
100
AcDbEntity
  8
03__ASM_ALL_CURVES
100
AcDbLine
 62
4
  6
CONTINUOUS
 10
9.3051787934
 20
10.1374675503
 11
9.2981787932
 21
10.1269675503
  0
LINE
  5
256
100
AcDbEntity
  8
03__ASM_ALL_CURVES
100
AcDbLine
 62
4
  6
CONTINUOUS
 10
9.2211787934
 20
9.7227175503
 11
9.2281787917
 21
9.7332175503
  0
LINE
  5
257
100
AcDbEntity
  8
03__ASM_ALL_CURVES
100
AcDbLine
 62
4
  6
CONTINUOUS
 10
9.291178793
 20
9.9694675503
 11
9.3051787934
 21
9.9799675503
  0
LINE
  5
258
100
AcDbEntity
  8
03__ASM_ALL_CURVES
100
AcDbLine
 62
4
  6
CONTINUOUS
 10
9.2211787934
 20
9.8014675503
 11
9.2351787951
 21
9.8119675503
  0
LINE
  5
259
100
AcDbEntity
  8
03__ASM_ALL_CURVES
100
AcDbLine
 62
4
  6
CONTINUOUS
 10
9.2281787917
 20
9.7332175503
 11
9.2351787951
 21
9.7384675503
  0
LINE
  5
25A
100
AcDbEntity
  8
03__ASM_ALL_CURVES
100
AcDbLine
 62
4
  6
CONTINUOUS
 10
8.4467787934
 20
6.6287175503
 11
8.4389037934
 21
6.6287175503
  0
LINE
  5
25B
100
AcDbEntity
  8
03__ASM_ALL_CURVES
100
AcDbLine
 62
4
  6
CONTINUOUS
 10
8.0110287934
 20
6.6287175503
 11
8.0005287934
 21
6.6287175503
  0
LINE
  5
25C
100
AcDbEntity
  8
03__ASM_ALL_CURVES
100
AcDbLine
 62
4
  6
CONTINUOUS
 10
7.8587787934
 20
6.6287175503
 11
7.8509037934
 21
6.6287175503
  0
LINE
  5
25D
100
AcDbEntity
  8
03__ASM_ALL_CURVES
100
AcDbLine
 62
4
  6
CONTINUOUS
 10
8.2367787934
 20
6.6497175503
 11
8.2840287934
 21
6.6497175503
  0
LINE
  5
25E
100
AcDbEntity
  8
03__ASM_ALL_CURVES
100
AcDbLine
 62
4
  6
CONTINUOUS
 10
8.3207787934
 20
6.6497175503
 11
8.3680287934
 21
6.6497175503
  0
LINE
  5
25F
100
AcDbEntity
  8
03__ASM_ALL_CURVES
100
AcDbLine
 62
4
  6
CONTINUOUS
 10
8.4887787934
 20
6.6497175503
 11
8.5360287934
 21
6.6497175503
  0
LINE
  5
260
100
AcDbEntity
  8
03__ASM_ALL_CURVES
100
AcDbLine
 62
4
  6
CONTINUOUS
 10
8.5727787934
 20
6.6497175503
 11
8.6200287934
 21
6.6497175503
  0
LINE
  5
261
100
AcDbEntity
  8
0
100
AcDbLine
 62
7
  6
CONTINUOUS
 10
12.3897787934
 20
6.6707175503
 11
10.1397787934
 21
6.6707175503
  0
LINE
  5
262
100
AcDbEntity
  8
03__ASM_ALL_CURVES
100
AcDbLine
 62
4
  6
CONTINUOUS
 10
9.0557787934
 20
6.6707175503
 11
8.8037787934
 21
6.6707175503
  0
LINE
  5
263
100
AcDbEntity
  8
03__ASM_ALL_CURVES
100
AcDbLine
 62
4
  6
CONTINUOUS
 10
8.0005287934
 20
6.6847175519
 11
8.0110287934
 21
6.6847175519
  0
LINE
  5
264
100
AcDbEntity
  8
03__ASM_ALL_CURVES
100
AcDbLine
 62
4
  6
CONTINUOUS
 10
8.0267787934
 20
6.7127175503
 11
7.9952787934
 21
6.7127175503
  0
LINE
  5
265
100
AcDbEntity
  8
03__ASM_ALL_CURVES
100
AcDbLine
 62
4
  6
CONTINUOUS
 10
7.9427787934
 20
6.7127175503
 11
7.9007787934
 21
6.7127175503
  0
LINE
  5
266
100
AcDbEntity
  8
03__ASM_ALL_CURVES
100
AcDbLine
 62
4
  6
CONTINUOUS
 10
8.5780287934
 20
8.3927175507
 11
8.5727787934
 21
8.4067175511
  0
LINE
  5
267
100
AcDbEntity
  8
03__ASM_ALL_CURVES
100
AcDbLine
 62
4
  6
CONTINUOUS
 10
8.6095287934
 20
8.4487175486
 11
8.6147787934
 21
8.4347175519
  0
LINE
  5
268
100
AcDbEntity
  8
03__ASM_ALL_CURVES
100
AcDbLine
 62
4
  6
CONTINUOUS
 10
8.0320287934
 20
6.6567175511
 11
8.0267787934
 21
6.6427175507
  0
LINE
  5
269
100
AcDbEntity
  8
03__ASM_ALL_CURVES
100
AcDbLine
 62
4
  6
CONTINUOUS
 10
9.2561787951
 20
9.7227175503
 11
9.2631787934
 21
9.7384675503
  0
LINE
  5
26A
100
AcDbEntity
  8
03__ASM_ALL_CURVES
100
AcDbLine
 62
4
  6
CONTINUOUS
 10
9.3051787934
 20
9.7227175503
 11
9.2981787932
 21
9.7122175503
  0
LINE
  5
26B
100
AcDbEntity
  8
03__ASM_ALL_CURVES
100
AcDbLine
 62
4
  6
CONTINUOUS
 10
9.2211787934
 20
9.4707175503
 11
9.2281787917
 21
9.4812175503
  0
LINE
  5
26C
100
AcDbEntity
  8
03__ASM_ALL_CURVES
100
AcDbLine
 62
4
  6
CONTINUOUS
 10
9.3051787934
 20
9.4707175503
 11
9.2981787932
 21
9.4602175503
  0
LINE
  5
26D
100
AcDbEntity
  8
03__ASM_ALL_CURVES
100
AcDbLine
 62
4
  6
CONTINUOUS
 10
8.5780287934
 20
8.4487175486
 11
8.5832787934
 21
8.4557175519
  0
LINE
  5
26E
100
AcDbEntity
  8
03__ASM_ALL_CURVES
100
AcDbLine
 62
4
  6
CONTINUOUS
 10
9.2981787932
 20
9.7122175503
 11
9.291178793
 21
9.7069675503
  0
LINE
  5
26F
100
AcDbEntity
  8
03__ASM_ALL_CURVES
100
AcDbLine
 62
4
  6
CONTINUOUS
 10
9.2946787931
 20
9.5678425503
 11
9.3051787934
 21
9.5757175503
  0
LINE
  5
270
100
AcDbEntity
  8
03__ASM_ALL_CURVES
100
AcDbLine
 62
4
  6
CONTINUOUS
 10
9.2281787917
 20
9.4812175503
 11
9.2351787951
 21
9.4864675503
  0
LINE
  5
271
100
AcDbEntity
  8
03__ASM_ALL_CURVES
100
AcDbLine
 62
4
  6
CONTINUOUS
 10
9.2631787934
 20
9.7384675503
 11
9.2771787926
 21
9.7437175503
  0
LINE
  5
272
100
AcDbEntity
  8
03__ASM_ALL_CURVES
100
AcDbLine
 62
4
  6
CONTINUOUS
 10
9.291178793
 20
9.7069675503
 11
9.2771787926
 21
9.7017175503
  0
LINE
  5
273
100
AcDbEntity
  8
0
100
AcDbLine
 62
7
  6
CONTINUOUS
 10
13.3587787934
 20
6.7327175503
 11
12.3897787934
 21
6.7327175503
  0
LINE
  5
274
100
AcDbEntity
  8
0
100
AcDbLine
 62
7
  6
CONTINUOUS
 10
10.1397787934
 20
6.7337175503
 11
9.1707787934
 21
6.7337175503
  0
LINE
  5
275
100
AcDbEntity
  8
03__ASM_ALL_CURVES
100
AcDbLine
 62
4
  6
CONTINUOUS
 10
8.5832787934
 20
8.3857175505
 11
8.5780287934
 21
8.3927175507
  0
LINE
  5
276
100
AcDbEntity
  8
03__ASM_ALL_CURVES
100
AcDbLine
 62
4
  6
CONTINUOUS
 10
8.6042787934
 20
8.4557175519
 11
8.6095287934
 21
8.4487175486
  0
LINE
  5
277
100
AcDbEntity
  8
0
100
AcDbLine
 62
7
  6
CONTINUOUS
 10
9.1397787934
 20
8.3277175503
 11
9.1397787934
 21
6.7647175503
  0
LINE
  5
278
100
AcDbEntity
  8
03__ASM_ALL_CURVES
100
AcDbLine
 62
4
  6
CONTINUOUS
 10
9.1397787934
 20
8.5047175503
 11
9.1397787934
 21
8.7567175503
  0
LINE
  5
279
100
AcDbEntity
  8
0
100
AcDbLine
 62
7
  6
CONTINUOUS
 10
9.1707787934
 20
8.3587175503
 11
9.1707787934
 21
6.7337175503
  0
LINE
  5
27A
100
AcDbEntity
  8
03__ASM_ALL_CURVES
100
AcDbLine
 62
4
  6
CONTINUOUS
 10
9.1707787934
 20
8.5047175503
 11
9.1707787934
 21
8.5887175503
  0
LINE
  5
27B
100
AcDbEntity
  8
03__ASM_ALL_CURVES
100
AcDbLine
 62
4
  6
CONTINUOUS
 10
9.2211787934
 20
10.1479675503
 11
9.2211787934
 21
10.1374675503
  0
LINE
  5
27C
100
AcDbEntity
  8
03__ASM_ALL_CURVES
100
AcDbLine
 62
4
  6
CONTINUOUS
 10
9.2211787934
 20
9.6597175503
 11
9.2211787934
 21
9.6177175503
  0
LINE
  5
27D
100
AcDbEntity
  8
03__ASM_ALL_CURVES
100
AcDbLine
 62
4
  6
CONTINUOUS
 10
9.2211787934
 20
9.2134675503
 11
9.2211787934
 21
9.2239675503
  0
LINE
  5
27E
100
AcDbEntity
  8
03__ASM_ALL_CURVES
100
AcDbLine
 62
4
  6
CONTINUOUS
 10
9.2561787951
 20
9.2134675503
 11
9.2561787951
 21
9.2239675503
  0
LINE
  5
27F
100
AcDbEntity
  8
03__ASM_ALL_CURVES
100
AcDbLine
 62
4
  6
CONTINUOUS
 10
8.6882787934
 20
6.6637175494
 11
8.6830287934
 21
6.6427175507
  0
LINE
  5
280
100
AcDbEntity
  8
03__ASM_ALL_CURVES
100
AcDbLine
 62
4
  6
CONTINUOUS
 10
9.2211787934
 20
9.2239675503
 11
9.2281787917
 21
9.2344675503
  0
LINE
  5
281
100
AcDbEntity
  8
03__ASM_ALL_CURVES
100
AcDbLine
 62
4
  6
CONTINUOUS
 10
9.2561787951
 20
9.2239675503
 11
9.2631787934
 21
9.2344675503
  0
LINE
  5
282
100
AcDbEntity
  8
03__ASM_ALL_CURVES
100
AcDbLine
 62
4
  6
CONTINUOUS
 10
9.0977787934
 20
8.9667175503
 11
9.1047787917
 21
8.9772175503
  0
LINE
  5
283
100
AcDbEntity
  8
03__ASM_ALL_CURVES
100
AcDbLine
 62
4
  6
CONTINUOUS
 10
9.2211787934
 20
9.1347175503
 11
9.2281787917
 21
9.1452175503
  0
LINE
  5
284
100
AcDbEntity
  8
03__ASM_ALL_CURVES
100
AcDbLine
 62
4
  6
CONTINUOUS
 10
9.3051787934
 20
9.2134675503
 11
9.2981787932
 21
9.2029675503
  0
LINE
  5
285
100
AcDbEntity
  8
03__ASM_ALL_CURVES
100
AcDbLine
 62
4
  6
CONTINUOUS
 10
9.1817787934
 20
8.9667175503
 11
9.1747787932
 21
8.9562175503
  0
LINE
  5
286
100
AcDbEntity
  8
03__ASM_ALL_CURVES
100
AcDbLine
 62
4
  6
CONTINUOUS
 10
9.3051787934
 20
9.1347175503
 11
9.2981787932
 21
9.1242175503
  0
LINE
  5
287
100
AcDbEntity
  8
03__ASM_ALL_CURVES
100
AcDbLine
 62
4
  6
CONTINUOUS
 10
9.2211787934
 20
8.9667175503
 11
9.2281787917
 21
8.9772175503
  0
LINE
  5
288
100
AcDbEntity
  8
03__ASM_ALL_CURVES
100
AcDbLine
 62
4
  6
CONTINUOUS
 10
8.6095287934
 20
8.3927175507
 11
8.6042787934
 21
8.3857175505
  0
LINE
  5
289
100
AcDbEntity
  8
03__ASM_ALL_CURVES
100
AcDbLine
 62
4
  6
CONTINUOUS
 10
9.2981787932
 20
9.4602175503
 11
9.291178793
 21
9.4549675503
  0
LINE
  5
28A
100
AcDbEntity
  8
03__ASM_ALL_CURVES
100
AcDbLine
 62
4
  6
CONTINUOUS
 10
9.291178793
 20
9.3814675503
 11
9.3051787934
 21
9.3919675503
  0
LINE
  5
28B
100
AcDbEntity
  8
03__ASM_ALL_CURVES
100
AcDbLine
 62
4
  6
CONTINUOUS
 10
9.2281787917
 20
9.2344675503
 11
9.2351787951
 21
9.2397175503
  0
LINE
  5
28C
100
AcDbEntity
  8
03__ASM_ALL_CURVES
100
AcDbLine
 62
4
  6
CONTINUOUS
 10
9.2631787934
 20
9.2344675503
 11
9.2771787926
 21
9.2449675503
  0
LINE
  5
28D
100
AcDbEntity
  8
03__ASM_ALL_CURVES
100
AcDbLine
 62
4
  6
CONTINUOUS
 10
9.2351787951
 20
9.4864675503
 11
9.2491787917
 21
9.4917175503
  0
LINE
  5
28E
100
AcDbEntity
  8
03__ASM_ALL_CURVES
100
AcDbLine
 62
4
  6
CONTINUOUS
 10
9.291178793
 20
9.4549675503
 11
9.2771787926
 21
9.4497175503
  0
LINE
  5
28F
100
AcDbEntity
  8
0
100
AcDbLine
 62
7
  6
CONTINUOUS
 10
13.3897787934
 20
7.1077175503
 11
12.3897787934
 21
7.1077175503
  0
LINE
  5
290
100
AcDbEntity
  8
0
100
AcDbLine
 62
7
  6
CONTINUOUS
 10
9.1397787934
 20
7.1087175503
 11
10.1397787934
 21
7.1087175503
  0
LINE
  5
291
100
AcDbEntity
  8
03__ASM_ALL_CURVES
100
AcDbLine
 62
4
  6
CONTINUOUS
 10
9.2631787934
 20
8.6727175503
 11
9.2631787934
 21
8.7567175503
  0
LINE
  5
292
100
AcDbEntity
  8
03__ASM_ALL_CURVES
100
AcDbLine
 62
4
  6
CONTINUOUS
 10
9.3051787934
 20
10.1479675503
 11
9.3051787934
 21
10.1374675503
  0
LINE
  5
293
100
AcDbEntity
  8
03__ASM_ALL_CURVES
100
AcDbLine
 62
4
  6
CONTINUOUS
 10
9.3051787934
 20
9.5757175503
 11
9.3051787934
 21
9.5678425503
  0
LINE
  5
294
100
AcDbEntity
  8
03__ASM_ALL_CURVES
100
AcDbLine
 62
4
  6
CONTINUOUS
 10
9.3051787934
 20
9.2239675503
 11
9.3051787934
 21
9.2134675503
  0
LINE
  5
295
100
AcDbEntity
  8
03__ASM_ALL_CURVES
100
AcDbLine
 62
4
  6
CONTINUOUS
 10
9.3051787934
 20
9.0717175503
 11
9.3051787934
 21
9.0638425503
  0
LINE
  5
296
100
AcDbEntity
  8
03__ASM_ALL_CURVES
100
AcDbLine
 62
4
  6
CONTINUOUS
 10
9.3051787934
 20
10.0377175503
 11
9.3051787934
 21
10.0797175503
  0
LINE
  5
297
100
AcDbEntity
  8
03__ASM_ALL_CURVES
100
AcDbLine
 62
4
  6
CONTINUOUS
 10
9.3051787934
 20
8.9667175503
 11
9.2981787932
 21
8.9562175503
  0
LINE
  5
298
100
AcDbEntity
  8
03__ASM_ALL_CURVES
100
AcDbLine
 62
4
  6
CONTINUOUS
 10
9.2981787932
 20
9.2029675503
 11
9.291178793
 21
9.1977175503
  0
LINE
  5
299
100
AcDbEntity
  8
03__ASM_ALL_CURVES
100
AcDbLine
 62
4
  6
CONTINUOUS
 10
9.2281787917
 20
9.1452175503
 11
9.2351787951
 21
9.1504675503
  0
LINE
  5
29A
100
AcDbEntity
  8
03__ASM_ALL_CURVES
100
AcDbLine
 62
4
  6
CONTINUOUS
 10
9.2981787932
 20
9.1242175503
 11
9.291178793
 21
9.1189675503
  0
LINE
  5
29B
100
AcDbEntity
  8
03__ASM_ALL_CURVES
100
AcDbLine
 62
4
  6
CONTINUOUS
 10
9.1047787917
 20
8.9772175503
 11
9.1117787951
 21
8.9824675503
  0
LINE
  5
29C
100
AcDbEntity
  8
03__ASM_ALL_CURVES
100
AcDbLine
 62
4
  6
CONTINUOUS
 10
9.2946787931
 20
9.0638425503
 11
9.3051787934
 21
9.0717175503
  0
LINE
  5
29D
100
AcDbEntity
  8
03__ASM_ALL_CURVES
100
AcDbLine
 62
4
  6
CONTINUOUS
 10
9.1747787932
 20
8.9562175503
 11
9.167778793
 21
8.9509675503
  0
LINE
  5
29E
100
AcDbEntity
  8
03__ASM_ALL_CURVES
100
AcDbLine
 62
4
  6
CONTINUOUS
 10
9.2281787917
 20
8.9772175503
 11
9.2351787951
 21
8.9824675503
  0
LINE
  5
29F
100
AcDbEntity
  8
03__ASM_ALL_CURVES
100
AcDbLine
 62
4
  6
CONTINUOUS
 10
9.2981787932
 20
8.9562175503
 11
9.291178793
 21
8.9509675503
  0
LINE
  5
2A0
100
AcDbEntity
  8
03__ASM_ALL_CURVES
100
AcDbLine
 62
4
  6
CONTINUOUS
 10
8.5937787934
 20
8.3787175503
 11
8.5832787934
 21
8.3857175505
  0
LINE
  5
2A1
100
AcDbEntity
  8
03__ASM_ALL_CURVES
100
AcDbLine
 62
4
  6
CONTINUOUS
 10
8.5937787934
 20
8.4627175503
 11
8.6042787934
 21
8.4557175519
  0
LINE
  5
2A2
100
AcDbEntity
  8
03__ASM_ALL_CURVES
100
AcDbLine
 62
4
  6
CONTINUOUS
 10
8.2735287934
 20
6.7127175503
 11
8.2367787934
 21
6.6497175503
  0
LINE
  5
2A3
100
AcDbEntity
  8
03__ASM_ALL_CURVES
100
AcDbLine
 62
4
  6
CONTINUOUS
 10
8.3575287934
 20
6.7127175503
 11
8.3207787934
 21
6.6497175503
  0
LINE
  5
2A4
100
AcDbEntity
  8
03__ASM_ALL_CURVES
100
AcDbLine
 62
4
  6
CONTINUOUS
 10
8.0267787934
 20
6.6427175507
 11
8.0215287934
 21
6.6357175505
  0
LINE
  5
2A5
100
AcDbEntity
  8
0
100
AcDbLine
 62
7
  6
CONTINUOUS
 10
9.1397787934
 20
8.3277175503
 11
9.1707787934
 21
8.3587175503
  0
LINE
  5
2A6
100
AcDbEntity
  8
03__ASM_ALL_CURVES
100
AcDbLine
 62
4
  6
CONTINUOUS
 10
9.1707787934
 20
8.5887175503
 11
9.2631787934
 21
8.6727175503
  0
LINE
  5
2A7
100
AcDbEntity
  8
03__ASM_ALL_CURVES
100
AcDbLine
 62
4
  6
CONTINUOUS
 10
8.5832787934
 20
8.4557175519
 11
8.5937787934
 21
8.4627175503
  0
LINE
  5
2A8
100
AcDbEntity
  8
03__ASM_ALL_CURVES
100
AcDbLine
 62
4
  6
CONTINUOUS
 10
8.6042787934
 20
8.3857175505
 11
8.5937787934
 21
8.3787175503
  0
LINE
  5
2A9
100
AcDbEntity
  8
03__ASM_ALL_CURVES
100
AcDbLine
 62
4
  6
CONTINUOUS
 10
9.2351787951
 20
9.1504675503
 11
9.2491787917
 21
9.1557175503
  0
LINE
  5
2AA
100
AcDbEntity
  8
03__ASM_ALL_CURVES
100
AcDbLine
 62
4
  6
CONTINUOUS
 10
9.291178793
 20
9.1189675503
 11
9.2771787926
 21
9.1137175503
  0
LINE
  5
2AB
100
AcDbEntity
  8
03__ASM_ALL_CURVES
100
AcDbLine
 62
4
  6
CONTINUOUS
 10
9.1117787951
 20
8.9824675503
 11
9.1257787917
 21
8.9877175503
  0
LINE
  5
2AC
100
AcDbEntity
  8
03__ASM_ALL_CURVES
100
AcDbLine
 62
4
  6
CONTINUOUS
 10
9.2351787951
 20
8.9824675503
 11
9.2491787917
 21
8.9877175503
  0
LINE
  5
2AD
100
AcDbEntity
  8
03__ASM_ALL_CURVES
100
AcDbLine
 62
4
  6
CONTINUOUS
 10
9.167778793
 20
8.9509675503
 11
9.1537787926
 21
8.9457175503
  0
LINE
  5
2AE
100
AcDbEntity
  8
03__ASM_ALL_CURVES
100
AcDbLine
 62
4
  6
CONTINUOUS
 10
9.1047787917
 20
8.9562175503
 11
9.0977787934
 21
8.9667175503
  0
LINE
  5
2AF
100
AcDbEntity
  8
03__ASM_ALL_CURVES
100
AcDbLine
 62
4
  6
CONTINUOUS
 10
9.1747787932
 20
8.9772175503
 11
9.1817787934
 21
8.9667175503
  0
LINE
  5
2B0
100
AcDbEntity
  8
03__ASM_ALL_CURVES
100
AcDbLine
 62
4
  6
CONTINUOUS
 10
9.2281787917
 20
8.9562175503
 11
9.2211787934
 21
8.9667175503
  0
LINE
  5
2B1
100
AcDbEntity
  8
03__ASM_ALL_CURVES
100
AcDbLine
 62
4
  6
CONTINUOUS
 10
8.5255287934
 20
6.7127175503
 11
8.4887787934
 21
6.6497175503
  0
LINE
  5
2B2
100
AcDbEntity
  8
03__ASM_ALL_CURVES
100
AcDbLine
 62
4
  6
CONTINUOUS
 10
8.6095287934
 20
6.7127175503
 11
8.5727787934
 21
6.6497175503
  0
LINE
  5
2B3
100
AcDbEntity
  8
03__ASM_ALL_CURVES
100
AcDbLine
 62
4
  6
CONTINUOUS
 10
8.1790287934
 20
6.7127175503
 11
8.1685287934
 21
6.6987175486
  0
LINE
  5
2B4
100
AcDbEntity
  8
03__ASM_ALL_CURVES
100
AcDbLine
 62
4
  6
CONTINUOUS
 10
9.291178793
 20
8.9509675503
 11
9.2771787926
 21
8.9457175503
  0
LINE
  5
2B5
100
AcDbEntity
  8
03__ASM_ALL_CURVES
100
AcDbLine
 62
4
  6
CONTINUOUS
 10
9.2981787932
 20
8.9772175503
 11
9.3051787934
 21
8.9667175503
  0
LINE
  5
2B6
100
AcDbEntity
  8
03__ASM_ALL_CURVES
100
AcDbLine
 62
4
  6
CONTINUOUS
 10
9.2281787917
 20
9.1242175503
 11
9.2211787934
 21
9.1347175503
  0
LINE
  5
2B7
100
AcDbEntity
  8
03__ASM_ALL_CURVES
100
AcDbLine
 62
4
  6
CONTINUOUS
 10
9.2281787917
 20
9.2029675503
 11
9.2211787934
 21
9.2134675503
  0
LINE
  5
2B8
100
AcDbEntity
  8
03__ASM_ALL_CURVES
100
AcDbLine
 62
4
  6
CONTINUOUS
 10
9.2981787932
 20
9.1452175503
 11
9.3051787934
 21
9.1347175503
  0
LINE
  5
2B9
100
AcDbEntity
  8
03__ASM_ALL_CURVES
100
AcDbLine
 62
4
  6
CONTINUOUS
 10
9.2491787917
 20
9.2344675503
 11
9.2561787951
 21
9.2239675503
  0
LINE
  5
2BA
100
AcDbEntity
  8
03__ASM_ALL_CURVES
100
AcDbLine
 62
4
  6
CONTINUOUS
 10
9.2981787932
 20
9.2344675503
 11
9.3051787934
 21
9.2239675503
  0
LINE
  5
2BB
100
AcDbEntity
  8
03__ASM_ALL_CURVES
100
AcDbLine
 62
4
  6
CONTINUOUS
 10
9.2631787934
 20
9.7069675503
 11
9.2561787951
 21
9.7227175503
  0
LINE
  5
2BC
100
AcDbEntity
  8
0
100
AcDbLine
 62
7
  6
CONTINUOUS
 10
10.1397787934
 20
8.4207175503
 11
10.1397787934
 21
6.6707175503
  0
LINE
  5
2BD
100
AcDbEntity
  8
0
100
AcDbLine
 62
7
  6
CONTINUOUS
 10
13.3897787934
 20
7.9827175503
 11
12.3897787934
 21
7.9827175503
  0
LINE
  5
2BE
100
AcDbEntity
  8
0
100
AcDbLine
 62
7
  6
CONTINUOUS
 10
9.1397787934
 20
7.9837175503
 11
10.1397787934
 21
7.9837175503
  0
LINE
  5
2BF
100
AcDbEntity
  8
03__ASM_ALL_CURVES
100
AcDbLine
 62
4
  6
CONTINUOUS
 10
9.1117787951
 20
8.9509675503
 11
9.1047787917
 21
8.9562175503
  0
LINE
  5
2C0
100
AcDbEntity
  8
03__ASM_ALL_CURVES
100
AcDbLine
 62
4
  6
CONTINUOUS
 10
9.167778793
 20
8.9824675503
 11
9.1747787932
 21
8.9772175503
  0
LINE
  5
2C1
100
AcDbEntity
  8
03__ASM_ALL_CURVES
100
AcDbLine
 62
4
  6
CONTINUOUS
 10
9.2351787951
 20
8.9509675503
 11
9.2281787917
 21
8.9562175503
  0
LINE
  5
2C2
100
AcDbEntity
  8
03__ASM_ALL_CURVES
100
AcDbLine
 62
4
  6
CONTINUOUS
 10
9.2281787917
 20
9.4602175503
 11
9.2211787934
 21
9.4707175503
  0
LINE
  5
2C3
100
AcDbEntity
  8
03__ASM_ALL_CURVES
100
AcDbLine
 62
4
  6
CONTINUOUS
 10
9.2981787932
 20
9.4812175503
 11
9.3051787934
 21
9.4707175503
  0
LINE
  5
2C4
100
AcDbEntity
  8
03__ASM_ALL_CURVES
100
AcDbLine
 62
4
  6
CONTINUOUS
 10
9.2281787917
 20
9.7122175503
 11
9.2211787934
 21
9.7227175503
  0
LINE
  5
2C5
100
AcDbEntity
  8
03__ASM_ALL_CURVES
100
AcDbLine
 62
4
  6
CONTINUOUS
 10
8.6830287934
 20
6.6427175507
 11
8.6725287934
 21
6.6287175503
  0
LINE
  5
2C6
100
AcDbEntity
  8
03__ASM_ALL_CURVES
100
AcDbLine
 62
4
  6
CONTINUOUS
 10
13.2467787951
 20
9.8224675503
 11
13.2607787917
 21
9.8277175503
  0
LINE
  5
2C7
100
AcDbEntity
  8
03__ASM_ALL_CURVES
100
AcDbLine
 62
4
  6
CONTINUOUS
 10
13.2747787934
 20
9.7909675503
 11
13.2607787917
 21
9.7857175503
  0
LINE
  5
2C8
100
AcDbEntity
  8
03__ASM_ALL_CURVES
100
AcDbLine
 62
4
  6
CONTINUOUS
 10
13.3617787951
 20
9.8224675503
 11
13.3757787917
 21
9.8277175503
  0
LINE
  5
2C9
100
AcDbEntity
  8
03__ASM_ALL_CURVES
100
AcDbLine
 62
4
  6
CONTINUOUS
 10
13.3897787934
 20
9.7909675503
 11
13.3757787917
 21
9.7857175503
  0
LINE
  5
2CA
100
AcDbEntity
  8
03__ASM_ALL_CURVES
100
AcDbLine
 62
4
  6
CONTINUOUS
 10
9.291178793
 20
8.9824675503
 11
9.2981787932
 21
8.9772175503
  0
LINE
  5
2CB
100
AcDbEntity
  8
03__ASM_ALL_CURVES
100
AcDbLine
 62
4
  6
CONTINUOUS
 10
9.2351787951
 20
9.1189675503
 11
9.2281787917
 21
9.1242175503
  0
LINE
  5
2CC
100
AcDbEntity
  8
03__ASM_ALL_CURVES
100
AcDbLine
 62
4
  6
CONTINUOUS
 10
9.291178793
 20
9.1504675503
 11
9.2981787932
 21
9.1452175503
  0
LINE
  5
2CD
100
AcDbEntity
  8
03__ASM_ALL_CURVES
100
AcDbLine
 62
4
  6
CONTINUOUS
 10
9.2421787934
 20
9.2397175503
 11
9.2491787917
 21
9.2344675503
  0
LINE
  5
2CE
100
AcDbEntity
  8
03__ASM_ALL_CURVES
100
AcDbLine
 62
4
  6
CONTINUOUS
 10
9.2841787934
 20
9.2449675503
 11
9.2981787932
 21
9.2344675503
  0
LINE
  5
2CF
100
AcDbEntity
  8
03__ASM_ALL_CURVES
100
AcDbLine
 62
4
  6
CONTINUOUS
 10
9.2981787932
 20
9.7332175503
 11
9.3051787934
 21
9.7227175503
  0
LINE
  5
2D0
100
AcDbEntity
  8
03__ASM_ALL_CURVES
100
AcDbLine
 62
4
  6
CONTINUOUS
 10
9.2211787934
 20
10.1374675503
 11
9.2281787917
 21
10.1269675503
  0
LINE
  5
2D1
100
AcDbEntity
  8
03__ASM_ALL_CURVES
100
AcDbLine
 62
4
  6
CONTINUOUS
 10
13.2747787934
 20
9.6544675503
 11
13.2887787926
 21
9.6597175503
  0
LINE
  5
2D2
100
AcDbEntity
  8
03__ASM_ALL_CURVES
100
AcDbLine
 62
4
  6
CONTINUOUS
 10
13.302778793
 20
9.6229675503
 11
13.2887787926
 21
9.6177175503
  0
LINE
  5
2D3
100
AcDbEntity
  8
03__ASM_ALL_CURVES
100
AcDbLine
 62
4
  6
CONTINUOUS
 10
13.2467787951
 20
9.5704675503
 11
13.2607787917
 21
9.5757175503
  0
LINE
  5
2D4
100
AcDbEntity
  8
03__ASM_ALL_CURVES
100
AcDbLine
 62
4
  6
CONTINUOUS
 10
13.3617787951
 20
9.5704675503
 11
13.3757787917
 21
9.5757175503
  0
LINE
  5
2D5
100
AcDbEntity
  8
03__ASM_ALL_CURVES
100
AcDbLine
 62
4
  6
CONTINUOUS
 10
13.302778793
 20
9.5389675503
 11
13.2887787926
 21
9.5337175503
  0
LINE
  5
2D6
100
AcDbEntity
  8
0
100
AcDbLine
 62
7
  6
CONTINUOUS
 10
13.3587787934
 20
8.3577175503
 11
12.3897787934
 21
8.3577175503
  0
LINE
  5
2D7
100
AcDbEntity
  8
0
100
AcDbLine
 62
7
  6
CONTINUOUS
 10
9.1707787934
 20
8.3587175503
 11
10.1397787934
 21
8.3587175503
  0
LINE
  5
2D8
100
AcDbEntity
  8
03__ASM_ALL_CURVES
100
AcDbLine
 62
4
  6
CONTINUOUS
 10
9.0557787934
 20
8.4207175503
 11
8.8037787934
 21
8.4207175503
  0
LINE
  5
2D9
100
AcDbEntity
  8
0
100
AcDbLine
 62
7
  6
CONTINUOUS
 10
10.1397787934
 20
8.4207175503
 11
12.3897787934
 21
8.4207175503
  0
LINE
  5
2DA
100
AcDbEntity
  8
03__ASM_ALL_CURVES
100
AcDbLine
 62
4
  6
CONTINUOUS
 10
9.1257787917
 20
8.9457175503
 11
9.1117787951
 21
8.9509675503
  0
LINE
  5
2DB
100
AcDbEntity
  8
03__ASM_ALL_CURVES
100
AcDbLine
 62
4
  6
CONTINUOUS
 10
9.2491787917
 20
8.9457175503
 11
9.2351787951
 21
8.9509675503
  0
LINE
  5
2DC
100
AcDbEntity
  8
03__ASM_ALL_CURVES
100
AcDbLine
 62
4
  6
CONTINUOUS
 10
9.1537787926
 20
8.9877175503
 11
9.167778793
 21
8.9824675503
  0
LINE
  5
2DD
100
AcDbEntity
  8
03__ASM_ALL_CURVES
100
AcDbLine
 62
4
  6
CONTINUOUS
 10
9.2771787926
 20
8.9877175503
 11
9.291178793
 21
8.9824675503
  0
LINE
  5
2DE
100
AcDbEntity
  8
03__ASM_ALL_CURVES
100
AcDbLine
 62
4
  6
CONTINUOUS
 10
9.2211787934
 20
9.3919675503
 11
9.2351787951
 21
9.3814675503
  0
LINE
  5
2DF
100
AcDbEntity
  8
03__ASM_ALL_CURVES
100
AcDbLine
 62
4
  6
CONTINUOUS
 10
9.2351787951
 20
9.4549675503
 11
9.2281787917
 21
9.4602175503
  0
LINE
  5
2E0
100
AcDbEntity
  8
03__ASM_ALL_CURVES
100
AcDbLine
 62
4
  6
CONTINUOUS
 10
9.291178793
 20
9.4864675503
 11
9.2981787932
 21
9.4812175503
  0
LINE
  5
2E1
100
AcDbEntity
  8
03__ASM_ALL_CURVES
100
AcDbLine
 62
4
  6
CONTINUOUS
 10
9.2981787932
 20
10.1584675503
 11
9.3051787934
 21
10.1479675503
  0
LINE
  5
2E2
100
AcDbEntity
  8
03__ASM_ALL_CURVES
100
AcDbLine
 62
4
  6
CONTINUOUS
 10
13.2327787934
 20
10.3894675503
 11
13.2467787951
 21
10.3999675503
  0
LINE
  5
2E3
100
AcDbEntity
  8
03__ASM_ALL_CURVES
100
AcDbLine
 62
4
  6
CONTINUOUS
 10
13.2467787951
 20
10.3317175503
 11
13.2397787917
 21
10.3264675503
  0
LINE
  5
2E4
100
AcDbEntity
  8
03__ASM_ALL_CURVES
100
AcDbLine
 62
4
  6
CONTINUOUS
 10
13.2817787943
 20
10.3264675503
 11
13.2887787926
 21
10.3317175503
  0
LINE
  5
2E5
100
AcDbEntity
  8
03__ASM_ALL_CURVES
100
AcDbLine
 62
4
  6
CONTINUOUS
 10
13.2537787934
 20
10.2897175503
 11
13.2607787917
 21
10.2949675503
  0
LINE
  5
2E6
100
AcDbEntity
  8
03__ASM_ALL_CURVES
100
AcDbLine
 62
4
  6
CONTINUOUS
 10
13.3097787932
 20
10.2949675503
 11
13.2957787934
 21
10.2844675503
  0
LINE
  5
2E7
100
AcDbEntity
  8
03__ASM_ALL_CURVES
100
AcDbLine
 62
4
  6
CONTINUOUS
 10
7.9900287934
 20
6.6777175486
 11
8.0005287934
 21
6.6847175519
  0
LINE
  5
2E8
100
AcDbEntity
  8
03__ASM_ALL_CURVES
100
AcDbLine
 62
4
  6
CONTINUOUS
 10
8.0215287934
 20
6.6357175505
 11
8.0110287934
 21
6.6287175503
  0
LINE
  5
2E9
100
AcDbEntity
  8
03__ASM_ALL_CURVES
100
AcDbLine
 62
4
  6
CONTINUOUS
 10
13.417778793
 20
9.5389675503
 11
13.4037787926
 21
9.5337175503
  0
LINE
  5
2EA
100
AcDbEntity
  8
03__ASM_ALL_CURVES
100
AcDbLine
 62
4
  6
CONTINUOUS
 10
13.3967787943
 20
9.3762175503
 11
13.417778793
 21
9.3814675503
  0
LINE
  5
2EB
100
AcDbEntity
  8
03__ASM_ALL_CURVES
100
AcDbLine
 62
4
  6
CONTINUOUS
 10
13.2817787943
 20
9.3762175503
 11
13.302778793
 21
9.3814675503
  0
LINE
  5
2EC
100
AcDbEntity
  8
03__ASM_ALL_CURVES
100
AcDbLine
 62
4
  6
CONTINUOUS
 10
9.2491787917
 20
9.1137175503
 11
9.2351787951
 21
9.1189675503
  0
LINE
  5
2ED
100
AcDbEntity
  8
03__ASM_ALL_CURVES
100
AcDbLine
 62
4
  6
CONTINUOUS
 10
9.2771787926
 20
9.1557175503
 11
9.291178793
 21
9.1504675503
  0
LINE
  5
2EE
100
AcDbEntity
  8
03__ASM_ALL_CURVES
100
AcDbLine
 62
4
  6
CONTINUOUS
 10
9.2351787951
 20
9.7069675503
 11
9.2281787917
 21
9.7122175503
  0
LINE
  5
2EF
100
AcDbEntity
  8
03__ASM_ALL_CURVES
100
AcDbLine
 62
4
  6
CONTINUOUS
 10
9.291178793
 20
9.7384675503
 11
9.2981787932
 21
9.7332175503
  0
LINE
  5
2F0
100
AcDbEntity
  8
03__ASM_ALL_CURVES
100
AcDbLine
 62
4
  6
CONTINUOUS
 10
9.291178793
 20
9.8119675503
 11
9.3051787934
 21
9.8014675503
  0
LINE
  5
2F1
100
AcDbEntity
  8
03__ASM_ALL_CURVES
100
AcDbLine
 62
4
  6
CONTINUOUS
 10
13.302778793
 20
10.1374675503
 11
13.3167787934
 21
10.1479675503
  0
LINE
  5
2F2
100
AcDbEntity
  8
03__ASM_ALL_CURVES
100
AcDbLine
 62
4
  6
CONTINUOUS
 10
13.2327787934
 20
9.9694675503
 11
13.2467787951
 21
9.9799675503
  0
LINE
  5
2F3
100
AcDbEntity
  8
03__ASM_ALL_CURVES
100
AcDbLine
 62
4
  6
CONTINUOUS
 10
13.2397787917
 20
9.9064675503
 11
13.2467787951
 21
9.9117175503
  0
LINE
  5
2F4
100
AcDbEntity
  8
03__ASM_ALL_CURVES
100
AcDbLine
 62
4
  6
CONTINUOUS
 10
13.3897787934
 20
9.2397175503
 11
13.4037787926
 21
9.2449675503
  0
LINE
  5
2F5
100
AcDbEntity
  8
03__ASM_ALL_CURVES
100
AcDbLine
 62
4
  6
CONTINUOUS
 10
9.2771787926
 20
8.9457175503
 11
9.2491787917
 21
8.9457175503
  0
LINE
  5
2F6
100
AcDbEntity
  8
03__ASM_ALL_CURVES
100
AcDbLine
 62
4
  6
CONTINUOUS
 10
9.1537787926
 20
8.9457175503
 11
9.1257787917
 21
8.9457175503
  0
LINE
  5
2F7
100
AcDbEntity
  8
03__ASM_ALL_CURVES
100
AcDbLine
 62
4
  6
CONTINUOUS
 10
13.4317787934
 20
8.9824675503
 11
13.3477787934
 21
8.9824675503
  0
LINE
  5
2F8
100
AcDbEntity
  8
03__ASM_ALL_CURVES
100
AcDbLine
 62
4
  6
CONTINUOUS
 10
13.3167787934
 20
8.9824675503
 11
13.2327787934
 21
8.9824675503
  0
LINE
  5
2F9
100
AcDbEntity
  8
03__ASM_ALL_CURVES
100
AcDbLine
 62
4
  6
CONTINUOUS
 10
9.1257787917
 20
8.9877175503
 11
9.1537787926
 21
8.9877175503
  0
LINE
  5
2FA
100
AcDbEntity
  8
03__ASM_ALL_CURVES
100
AcDbLine
 62
4
  6
CONTINUOUS
 10
9.2491787917
 20
8.9877175503
 11
9.2771787926
 21
8.9877175503
  0
LINE
  5
2FB
100
AcDbEntity
  8
03__ASM_ALL_CURVES
100
AcDbLine
 62
4
  6
CONTINUOUS
 10
9.2491787917
 20
9.4497175503
 11
9.2351787951
 21
9.4549675503
  0
LINE
  5
2FC
100
AcDbEntity
  8
03__ASM_ALL_CURVES
100
AcDbLine
 62
4
  6
CONTINUOUS
 10
9.2771787926
 20
9.4917175503
 11
9.291178793
 21
9.4864675503
  0
LINE
  5
2FD
100
AcDbEntity
  8
03__ASM_ALL_CURVES
100
AcDbLine
 62
4
  6
CONTINUOUS
 10
9.2211787934
 20
9.9799675503
 11
9.2351787951
 21
9.9694675503
  0
LINE
  5
2FE
100
AcDbEntity
  8
03__ASM_ALL_CURVES
100
AcDbLine
 62
4
  6
CONTINUOUS
 10
9.2281787917
 20
10.1269675503
 11
9.2351787951
 21
10.1217175503
  0
LINE
  5
2FF
100
AcDbEntity
  8
03__ASM_ALL_CURVES
100
AcDbLine
 62
4
  6
CONTINUOUS
 10
13.3477787934
 20
9.9694675503
 11
13.3617787951
 21
9.9799675503
  0
LINE
  5
300
100
AcDbEntity
  8
03__ASM_ALL_CURVES
100
AcDbLine
 62
4
  6
CONTINUOUS
 10
13.2747787934
 20
9.9064675503
 11
13.2887787926
 21
9.9169675503
  0
LINE
  5
301
100
AcDbEntity
  8
03__ASM_ALL_CURVES
100
AcDbLine
 62
4
  6
CONTINUOUS
 10
13.3097787932
 20
9.8749675503
 11
13.302778793
 21
9.8697175503
  0
LINE
  5
302
100
AcDbEntity
  8
03__ASM_ALL_CURVES
100
AcDbLine
 62
4
  6
CONTINUOUS
 10
13.2397787917
 20
9.8172175503
 11
13.2467787951
 21
9.8224675503
  0
LINE
  5
303
100
AcDbEntity
  8
03__ASM_ALL_CURVES
100
AcDbLine
 62
4
  6
CONTINUOUS
 10
13.3097787932
 20
9.7962175503
 11
13.302778793
 21
9.7909675503
  0
LINE
  5
304
100
AcDbEntity
  8
03__ASM_ALL_CURVES
100
AcDbLine
 62
4
  6
CONTINUOUS
 10
13.3547787917
 20
9.8172175503
 11
13.3617787951
 21
9.8224675503
  0
LINE
  5
305
100
AcDbEntity
  8
03__ASM_ALL_CURVES
100
AcDbLine
 62
4
  6
CONTINUOUS
 10
13.3062787931
 20
9.7358425503
 11
13.3167787934
 21
9.7437175503
  0
LINE
  5
306
100
AcDbEntity
  8
03__ASM_ALL_CURVES
100
AcDbLine
 62
4
  6
CONTINUOUS
 10
13.4247787932
 20
9.7962175503
 11
13.417778793
 21
9.7909675503
  0
LINE
  5
307
100
AcDbEntity
  8
03__ASM_ALL_CURVES
100
AcDbLine
 62
4
  6
CONTINUOUS
 10
13.2397787917
 20
9.6492175503
 11
13.2467787951
 21
9.6544675503
  0
LINE
  5
308
100
AcDbEntity
  8
03__ASM_ALL_CURVES
100
AcDbLine
 62
4
  6
CONTINUOUS
 10
13.4317787934
 20
9.0638425503
 11
13.4212787931
 21
9.0638425503
  0
LINE
  5
309
100
AcDbEntity
  8
03__ASM_ALL_CURVES
100
AcDbLine
 62
4
  6
CONTINUOUS
 10
13.3167787934
 20
9.0638425503
 11
13.3062787931
 21
9.0638425503
  0
LINE
  5
30A
100
AcDbEntity
  8
03__ASM_ALL_CURVES
100
AcDbLine
 62
4
  6
CONTINUOUS
 10
9.3051787934
 20
9.0638425503
 11
9.2946787931
 21
9.0638425503
  0
LINE
  5
30B
100
AcDbEntity
  8
03__ASM_ALL_CURVES
100
AcDbLine
 62
4
  6
CONTINUOUS
 10
9.2771787926
 20
9.1137175503
 11
9.2491787917
 21
9.1137175503
  0
LINE
  5
30C
100
AcDbEntity
  8
03__ASM_ALL_CURVES
100
AcDbLine
 62
4
  6
CONTINUOUS
 10
9.2491787917
 20
9.1557175503
 11
9.2771787926
 21
9.1557175503
  0
LINE
  5
30D
100
AcDbEntity
  8
03__ASM_ALL_CURVES
100
AcDbLine
 62
4
  6
CONTINUOUS
 10
13.2467787951
 20
9.1557175503
 11
13.2607787917
 21
9.1557175503
  0
LINE
  5
30E
100
AcDbEntity
  8
03__ASM_ALL_CURVES
100
AcDbLine
 62
4
  6
CONTINUOUS
 10
13.3617787951
 20
9.1557175503
 11
13.3757787917
 21
9.1557175503
  0
LINE
  5
30F
100
AcDbEntity
  8
03__ASM_ALL_CURVES
100
AcDbLine
 62
4
  6
CONTINUOUS
 10
13.2327787934
 20
9.2187175503
 11
13.3167787934
 21
9.2187175503
  0
LINE
  5
310
100
AcDbEntity
  8
03__ASM_ALL_CURVES
100
AcDbLine
 62
4
  6
CONTINUOUS
 10
9.2351787951
 20
9.3814675503
 11
9.2561787951
 21
9.3762175503
  0
LINE
  5
311
100
AcDbEntity
  8
03__ASM_ALL_CURVES
100
AcDbLine
 62
4
  6
CONTINUOUS
 10
9.2491787917
 20
9.6492175503
 11
9.2211787934
 21
9.6597175503
  0
LINE
  5
312
100
AcDbEntity
  8
03__ASM_ALL_CURVES
100
AcDbLine
 62
4
  6
CONTINUOUS
 10
9.2491787917
 20
9.7017175503
 11
9.2351787951
 21
9.7069675503
  0
LINE
  5
313
100
AcDbEntity
  8
03__ASM_ALL_CURVES
100
AcDbLine
 62
4
  6
CONTINUOUS
 10
9.2771787926
 20
9.7017175503
 11
9.2631787934
 21
9.7069675503
  0
LINE
  5
314
100
AcDbEntity
  8
03__ASM_ALL_CURVES
100
AcDbLine
 62
4
  6
CONTINUOUS
 10
9.2771787926
 20
9.7437175503
 11
9.291178793
 21
9.7384675503
  0
LINE
  5
315
100
AcDbEntity
  8
03__ASM_ALL_CURVES
100
AcDbLine
 62
4
  6
CONTINUOUS
 10
9.291178793
 20
10.1637175503
 11
9.2981787932
 21
10.1584675503
  0
LINE
  5
316
100
AcDbEntity
  8
03__ASM_ALL_CURVES
100
AcDbLine
 62
4
  6
CONTINUOUS
 10
9.291178793
 20
10.2319675503
 11
9.3051787934
 21
10.2214675503
  0
LINE
  5
317
100
AcDbEntity
  8
03__ASM_ALL_CURVES
100
AcDbLine
 62
4
  6
CONTINUOUS
 10
13.4212787931
 20
9.7358425503
 11
13.4317787934
 21
9.7437175503
  0
LINE
  5
318
100
AcDbEntity
  8
03__ASM_ALL_CURVES
100
AcDbLine
 62
4
  6
CONTINUOUS
 10
13.3097787932
 20
9.6282175503
 11
13.302778793
 21
9.6229675503
  0
LINE
  5
319
100
AcDbEntity
  8
03__ASM_ALL_CURVES
100
AcDbLine
 62
4
  6
CONTINUOUS
 10
13.2397787917
 20
9.5652175503
 11
13.2467787951
 21
9.5704675503
  0
LINE
  5
31A
100
AcDbEntity
  8
03__ASM_ALL_CURVES
100
AcDbLine
 62
4
  6
CONTINUOUS
 10
13.3097787932
 20
9.5442175503
 11
13.302778793
 21
9.5389675503
  0
LINE
  5
31B
100
AcDbEntity
  8
03__ASM_ALL_CURVES
100
AcDbLine
 62
4
  6
CONTINUOUS
 10
13.3547787917
 20
9.5652175503
 11
13.3617787951
 21
9.5704675503
  0
LINE
  5
31C
100
AcDbEntity
  8
03__ASM_ALL_CURVES
100
AcDbLine
 62
4
  6
CONTINUOUS
 10
13.4247787932
 20
9.5442175503
 11
13.417778793
 21
9.5389675503
  0
LINE
  5
31D
100
AcDbEntity
  8
03__ASM_ALL_CURVES
100
AcDbLine
 62
4
  6
CONTINUOUS
 10
13.302778793
 20
9.3814675503
 11
13.3167787934
 21
9.3919675503
  0
LINE
  5
31E
100
AcDbEntity
  8
03__ASM_ALL_CURVES
100
AcDbLine
 62
4
  6
CONTINUOUS
 10
13.3617787951
 20
9.9799675503
 11
13.3827787951
 21
9.9852175503
  0
LINE
  5
31F
100
AcDbEntity
  8
03__ASM_ALL_CURVES
100
AcDbLine
 62
4
  6
CONTINUOUS
 10
13.2467787951
 20
9.9799675503
 11
13.2677787951
 21
9.9852175503
  0
LINE
  5
320
100
AcDbEntity
  8
03__ASM_ALL_CURVES
100
AcDbLine
 62
4
  6
CONTINUOUS
 10
13.2817787943
 20
10.1322175503
 11
13.302778793
 21
10.1374675503
  0
LINE
  5
321
100
AcDbEntity
  8
03__ASM_ALL_CURVES
100
AcDbLine
 62
4
  6
CONTINUOUS
 10
9.2351787951
 20
9.2397175503
 11
9.2421787934
 21
9.2397175503
  0
LINE
  5
322
100
AcDbEntity
  8
03__ASM_ALL_CURVES
100
AcDbLine
 62
4
  6
CONTINUOUS
 10
9.2771787926
 20
9.2449675503
 11
9.2841787934
 21
9.2449675503
  0
LINE
  5
323
100
AcDbEntity
  8
03__ASM_ALL_CURVES
100
AcDbLine
 62
4
  6
CONTINUOUS
 10
9.2561787951
 20
9.3762175503
 11
9.2701787943
 21
9.3762175503
  0
LINE
  5
324
100
AcDbEntity
  8
03__ASM_ALL_CURVES
100
AcDbLine
 62
4
  6
CONTINUOUS
 10
13.2677787951
 20
9.3762175503
 11
13.2817787943
 21
9.3762175503
  0
LINE
  5
325
100
AcDbEntity
  8
03__ASM_ALL_CURVES
100
AcDbLine
 62
4
  6
CONTINUOUS
 10
13.3827787951
 20
9.3762175503
 11
13.3967787943
 21
9.3762175503
  0
LINE
  5
326
100
AcDbEntity
  8
03__ASM_ALL_CURVES
100
AcDbLine
 62
4
  6
CONTINUOUS
 10
9.2771787926
 20
9.4497175503
 11
9.2491787917
 21
9.4497175503
  0
LINE
  5
327
100
AcDbEntity
  8
03__ASM_ALL_CURVES
100
AcDbLine
 62
4
  6
CONTINUOUS
 10
9.3051787934
 20
9.6387175503
 11
9.2701787943
 21
9.6439675503
  0
LINE
  5
328
100
AcDbEntity
  8
03__ASM_ALL_CURVES
100
AcDbLine
 62
4
  6
CONTINUOUS
 10
9.2701787943
 20
9.6439675503
 11
9.2491787917
 21
9.6492175503
  0
LINE
  5
329
100
AcDbEntity
  8
03__ASM_ALL_CURVES
100
AcDbLine
 62
4
  6
CONTINUOUS
 10
13.417778793
 20
9.3814675503
 11
13.4317787934
 21
9.3919675503
  0
LINE
  5
32A
100
AcDbEntity
  8
03__ASM_ALL_CURVES
100
AcDbLine
 62
4
  6
CONTINUOUS
 10
13.2397787917
 20
9.1504675503
 11
13.2467787951
 21
9.1557175503
  0
LINE
  5
32B
100
AcDbEntity
  8
03__ASM_ALL_CURVES
100
AcDbLine
 62
4
  6
CONTINUOUS
 10
13.3827787951
 20
9.2344675503
 11
13.3897787934
 21
9.2397175503
  0
LINE
  5
32C
100
AcDbEntity
  8
03__ASM_ALL_CURVES
100
AcDbLine
 62
4
  6
CONTINUOUS
 10
13.3547787917
 20
9.1504675503
 11
13.3617787951
 21
9.1557175503
  0
LINE
  5
32D
100
AcDbEntity
  8
03__ASM_ALL_CURVES
100
AcDbLine
 62
4
  6
CONTINUOUS
 10
13.4247787932
 20
9.2029675503
 11
13.417778793
 21
9.1977175503
  0
LINE
  5
32E
100
AcDbEntity
  8
03__ASM_ALL_CURVES
100
AcDbLine
 62
4
  6
CONTINUOUS
 10
9.2701787943
 20
9.3762175503
 11
9.291178793
 21
9.3814675503
  0
LINE
  5
32F
100
AcDbEntity
  8
03__ASM_ALL_CURVES
100
AcDbLine
 62
4
  6
CONTINUOUS
 10
13.2327787934
 20
9.4707175503
 11
13.3167787934
 21
9.4707175503
  0
LINE
  5
330
100
AcDbEntity
  8
03__ASM_ALL_CURVES
100
AcDbLine
 62
4
  6
CONTINUOUS
 10
13.3477787934
 20
9.4707175503
 11
13.4317787934
 21
9.4707175503
  0
LINE
  5
331
100
AcDbEntity
  8
03__ASM_ALL_CURVES
100
AcDbLine
 62
4
  6
CONTINUOUS
 10
9.2491787917
 20
9.4917175503
 11
9.2771787926
 21
9.4917175503
  0
LINE
  5
332
100
AcDbEntity
  8
03__ASM_ALL_CURVES
100
AcDbLine
 62
4
  6
CONTINUOUS
 10
13.4037787926
 20
9.5337175503
 11
13.3757787917
 21
9.5337175503
  0
LINE
  5
333
100
AcDbEntity
  8
03__ASM_ALL_CURVES
100
AcDbLine
 62
4
  6
CONTINUOUS
 10
13.2887787926
 20
9.5337175503
 11
13.2607787917
 21
9.5337175503
  0
LINE
  5
334
100
AcDbEntity
  8
03__ASM_ALL_CURVES
100
AcDbLine
 62
4
  6
CONTINUOUS
 10
9.3051787934
 20
9.5678425503
 11
9.2946787931
 21
9.5678425503
  0
LINE
  5
335
100
AcDbEntity
  8
03__ASM_ALL_CURVES
100
AcDbLine
 62
4
  6
CONTINUOUS
 10
13.2607787917
 20
9.5757175503
 11
13.2887787926
 21
9.5757175503
  0
LINE
  5
336
100
AcDbEntity
  8
03__ASM_ALL_CURVES
100
AcDbLine
 62
4
  6
CONTINUOUS
 10
13.3757787917
 20
9.5757175503
 11
13.4037787926
 21
9.5757175503
  0
LINE
  5
337
100
AcDbEntity
  8
03__ASM_ALL_CURVES
100
AcDbLine
 62
4
  6
CONTINUOUS
 10
13.2887787926
 20
9.6177175503
 11
13.2607787917
 21
9.6177175503
  0
LINE
  5
338
100
AcDbEntity
  8
03__ASM_ALL_CURVES
100
AcDbLine
 62
4
  6
CONTINUOUS
 10
13.3477787934
 20
9.2082175503
 11
13.3827787951
 21
9.2029675503
  0
LINE
  5
339
100
AcDbEntity
  8
03__ASM_ALL_CURVES
100
AcDbLine
 62
4
  6
CONTINUOUS
 10
9.2701787943
 20
9.8172175503
 11
9.291178793
 21
9.8119675503
  0
LINE
  5
33A
100
AcDbEntity
  8
03__ASM_ALL_CURVES
100
AcDbLine
 62
4
  6
CONTINUOUS
 10
9.2351787951
 20
9.9694675503
 11
9.2561787951
 21
9.9642175503
  0
LINE
  5
33B
100
AcDbEntity
  8
03__ASM_ALL_CURVES
100
AcDbLine
 62
4
  6
CONTINUOUS
 10
13.2397787917
 20
10.3264675503
 11
13.2327787934
 21
10.3159675503
  0
LINE
  5
33C
100
AcDbEntity
  8
03__ASM_ALL_CURVES
100
AcDbLine
 62
4
  6
CONTINUOUS
 10
13.2607787917
 20
10.2949675503
 11
13.2817787943
 21
10.3264675503
  0
LINE
  5
33D
100
AcDbEntity
  8
03__ASM_ALL_CURVES
100
AcDbLine
 62
4
  6
CONTINUOUS
 10
13.3167787934
 20
10.3054675503
 11
13.3097787932
 21
10.2949675503
  0
LINE
  5
33E
100
AcDbEntity
  8
03__ASM_ALL_CURVES
100
AcDbLine
 62
4
  6
CONTINUOUS
 10
13.3062787931
 20
9.0638425503
 11
13.3167787934
 21
9.0717175503
  0
LINE
  5
33F
100
AcDbEntity
  8
03__ASM_ALL_CURVES
100
AcDbLine
 62
4
  6
CONTINUOUS
 10
13.4212787931
 20
9.0638425503
 11
13.4317787934
 21
9.0717175503
  0
LINE
  5
340
100
AcDbEntity
  8
03__ASM_ALL_CURVES
100
AcDbLine
 62
4
  6
CONTINUOUS
 10
13.2467787951
 20
10.3999675503
 11
13.2677787951
 21
10.4052175503
  0
LINE
  5
341
100
AcDbEntity
  8
03__ASM_ALL_CURVES
100
AcDbLine
 62
4
  6
CONTINUOUS
 10
9.2771787926
 20
9.7017175503
 11
9.2491787917
 21
9.7017175503
  0
LINE
  5
342
100
AcDbEntity
  8
03__ASM_ALL_CURVES
100
AcDbLine
 62
4
  6
CONTINUOUS
 10
13.4317787934
 20
9.7358425503
 11
13.4212787931
 21
9.7358425503
  0
LINE
  5
343
100
AcDbEntity
  8
03__ASM_ALL_CURVES
100
AcDbLine
 62
4
  6
CONTINUOUS
 10
13.3167787934
 20
9.7358425503
 11
13.3062787931
 21
9.7358425503
  0
LINE
  5
344
100
AcDbEntity
  8
03__ASM_ALL_CURVES
100
AcDbLine
 62
4
  6
CONTINUOUS
 10
9.2561787951
 20
9.8172175503
 11
9.2701787943
 21
9.8172175503
  0
LINE
  5
345
100
AcDbEntity
  8
03__ASM_ALL_CURVES
100
AcDbLine
 62
4
  6
CONTINUOUS
 10
13.2607787917
 20
9.8277175503
 11
13.2887787926
 21
9.8277175503
  0
LINE
  5
346
100
AcDbEntity
  8
03__ASM_ALL_CURVES
100
AcDbLine
 62
4
  6
CONTINUOUS
 10
13.3757787917
 20
9.8277175503
 11
13.4037787926
 21
9.8277175503
  0
LINE
  5
347
100
AcDbEntity
  8
03__ASM_ALL_CURVES
100
AcDbLine
 62
4
  6
CONTINUOUS
 10
13.4317787934
 20
9.9064675503
 11
13.3477787934
 21
9.9064675503
  0
LINE
  5
348
100
AcDbEntity
  8
03__ASM_ALL_CURVES
100
AcDbLine
 62
4
  6
CONTINUOUS
 10
13.2957787934
 20
9.1189675503
 11
13.3167787934
 21
9.1137175503
  0
LINE
  5
349
100
AcDbEntity
  8
03__ASM_ALL_CURVES
100
AcDbLine
 62
4
  6
CONTINUOUS
 10
13.4107787934
 20
9.1189675503
 11
13.4317787934
 21
9.1137175503
  0
LINE
  5
34A
100
AcDbEntity
  8
03__ASM_ALL_CURVES
100
AcDbLine
 62
4
  6
CONTINUOUS
 10
9.2701787943
 20
10.2372175503
 11
9.291178793
 21
10.2319675503
  0
LINE
  5
34B
100
AcDbEntity
  8
03__ASM_ALL_CURVES
100
AcDbLine
 62
4
  6
CONTINUOUS
 10
13.2327787934
 20
9.8959675503
 11
13.2397787917
 21
9.9064675503
  0
LINE
  5
34C
100
AcDbEntity
  8
03__ASM_ALL_CURVES
100
AcDbLine
 62
4
  6
CONTINUOUS
 10
13.2677787951
 20
9.8959675503
 11
13.2747787934
 21
9.9064675503
  0
LINE
  5
34D
100
AcDbEntity
  8
03__ASM_ALL_CURVES
100
AcDbLine
 62
4
  6
CONTINUOUS
 10
13.2327787934
 20
9.8067175503
 11
13.2397787917
 21
9.8172175503
  0
LINE
  5
34E
100
AcDbEntity
  8
03__ASM_ALL_CURVES
100
AcDbLine
 62
4
  6
CONTINUOUS
 10
13.3167787934
 20
9.8854675503
 11
13.3097787932
 21
9.8749675503
  0
LINE
  5
34F
100
AcDbEntity
  8
03__ASM_ALL_CURVES
100
AcDbLine
 62
4
  6
CONTINUOUS
 10
13.3167787934
 20
9.8067175503
 11
13.3097787932
 21
9.7962175503
  0
LINE
  5
350
100
AcDbEntity
  8
03__ASM_ALL_CURVES
100
AcDbLine
 62
4
  6
CONTINUOUS
 10
13.2327787934
 20
9.6387175503
 11
13.2397787917
 21
9.6492175503
  0
LINE
  5
351
100
AcDbEntity
  8
03__ASM_ALL_CURVES
100
AcDbLine
 62
4
  6
CONTINUOUS
 10
13.3477787934
 20
9.8067175503
 11
13.3547787917
 21
9.8172175503
  0
LINE
  5
352
100
AcDbEntity
  8
03__ASM_ALL_CURVES
100
AcDbLine
 62
4
  6
CONTINUOUS
 10
13.2327787934
 20
9.5547175503
 11
13.2397787917
 21
9.5652175503
  0
LINE
  5
353
100
AcDbEntity
  8
03__ASM_ALL_CURVES
100
AcDbLine
 62
4
  6
CONTINUOUS
 10
9.2351787951
 20
9.8119675503
 11
9.2561787951
 21
9.8172175503
  0
LINE
  5
354
100
AcDbEntity
  8
03__ASM_ALL_CURVES
100
AcDbLine
 62
4
  6
CONTINUOUS
 10
13.2467787951
 20
9.9117175503
 11
13.2537787934
 21
9.9117175503
  0
LINE
  5
355
100
AcDbEntity
  8
03__ASM_ALL_CURVES
100
AcDbLine
 62
4
  6
CONTINUOUS
 10
13.2887787926
 20
9.9169675503
 11
13.2957787934
 21
9.9169675503
  0
LINE
  5
356
100
AcDbEntity
  8
03__ASM_ALL_CURVES
100
AcDbLine
 62
4
  6
CONTINUOUS
 10
9.2561787951
 20
9.9642175503
 11
9.2701787943
 21
9.9642175503
  0
LINE
  5
357
100
AcDbEntity
  8
03__ASM_ALL_CURVES
100
AcDbLine
 62
4
  6
CONTINUOUS
 10
13.2677787951
 20
9.9852175503
 11
13.2817787943
 21
9.9852175503
  0
LINE
  5
358
100
AcDbEntity
  8
03__ASM_ALL_CURVES
100
AcDbLine
 62
4
  6
CONTINUOUS
 10
13.3827787951
 20
9.9852175503
 11
13.3967787943
 21
9.9852175503
  0
LINE
  5
359
100
AcDbEntity
  8
03__ASM_ALL_CURVES
100
AcDbLine
 62
4
  6
CONTINUOUS
 10
9.2211787934
 20
10.0377175503
 11
9.3051787934
 21
10.0377175503
  0
LINE
  5
35A
100
AcDbEntity
  8
03__ASM_ALL_CURVES
100
AcDbLine
 62
4
  6
CONTINUOUS
 10
9.2351787951
 20
10.1217175503
 11
9.2421787934
 21
10.1217175503
  0
LINE
  5
35B
100
AcDbEntity
  8
03__ASM_ALL_CURVES
100
AcDbLine
 62
4
  6
CONTINUOUS
 10
13.2677787951
 20
10.1322175503
 11
13.2817787943
 21
10.1322175503
  0
LINE
  5
35C
100
AcDbEntity
  8
03__ASM_ALL_CURVES
100
AcDbLine
 62
4
  6
CONTINUOUS
 10
13.4317787934
 20
9.6387175503
 11
13.3967787943
 21
9.6439675503
  0
LINE
  5
35D
100
AcDbEntity
  8
03__ASM_ALL_CURVES
100
AcDbLine
 62
4
  6
CONTINUOUS
 10
13.2467787951
 20
9.3814675503
 11
13.2677787951
 21
9.3762175503
  0
LINE
  5
35E
100
AcDbEntity
  8
03__ASM_ALL_CURVES
100
AcDbLine
 62
4
  6
CONTINUOUS
 10
13.3617787951
 20
9.3814675503
 11
13.3827787951
 21
9.3762175503
  0
LINE
  5
35F
100
AcDbEntity
  8
0
100
AcDbLine
 62
7
  6
CONTINUOUS
 10
12.3897787934
 20
8.4207175503
 11
12.3897787934
 21
6.6707175503
  0
LINE
  5
360
100
AcDbEntity
  8
03__ASM_ALL_CURVES
100
AcDbLine
 62
4
  6
CONTINUOUS
 10
13.3167787934
 20
9.6387175503
 11
13.3097787932
 21
9.6282175503
  0
LINE
  5
361
100
AcDbEntity
  8
03__ASM_ALL_CURVES
100
AcDbLine
 62
4
  6
CONTINUOUS
 10
13.4317787934
 20
9.8067175503
 11
13.4247787932
 21
9.7962175503
  0
LINE
  5
362
100
AcDbEntity
  8
03__ASM_ALL_CURVES
100
AcDbLine
 62
4
  6
CONTINUOUS
 10
13.3167787934
 20
9.5547175503
 11
13.3097787932
 21
9.5442175503
  0
LINE
  5
363
100
AcDbEntity
  8
03__ASM_ALL_CURVES
100
AcDbLine
 62
4
  6
CONTINUOUS
 10
13.3477787934
 20
9.5547175503
 11
13.3547787917
 21
9.5652175503
  0
LINE
  5
364
100
AcDbEntity
  8
03__ASM_ALL_CURVES
100
AcDbLine
 62
4
  6
CONTINUOUS
 10
13.4317787934
 20
9.5547175503
 11
13.4247787932
 21
9.5442175503
  0
LINE
  5
365
100
AcDbEntity
  8
03__ASM_ALL_CURVES
100
AcDbLine
 62
4
  6
CONTINUOUS
 10
9.2701787943
 20
9.9642175503
 11
9.291178793
 21
9.9694675503
  0
LINE
  5
366
100
AcDbEntity
  8
03__ASM_ALL_CURVES
100
AcDbLine
 62
4
  6
CONTINUOUS
 10
9.2771787926
 20
10.1637175503
 11
9.291178793
 21
10.1637175503
  0
LINE
  5
367
100
AcDbEntity
  8
03__ASM_ALL_CURVES
100
AcDbLine
 62
4
  6
CONTINUOUS
 10
13.2327787934
 20
10.2057175503
 11
13.3167787934
 21
10.2057175503
  0
LINE
  5
368
100
AcDbEntity
  8
03__ASM_ALL_CURVES
100
AcDbLine
 62
4
  6
CONTINUOUS
 10
9.2561787951
 20
10.2372175503
 11
9.2701787943
 21
10.2372175503
  0
LINE
  5
369
100
AcDbEntity
  8
03__ASM_ALL_CURVES
100
AcDbLine
 62
4
  6
CONTINUOUS
 10
13.2467787951
 20
10.2897175503
 11
13.2537787934
 21
10.2897175503
  0
LINE
  5
36A
100
AcDbEntity
  8
03__ASM_ALL_CURVES
100
AcDbLine
 62
4
  6
CONTINUOUS
 10
13.2887787926
 20
10.3317175503
 11
13.302778793
 21
10.3317175503
  0
LINE
  5
36B
100
AcDbEntity
  8
03__ASM_ALL_CURVES
100
AcDbLine
 62
4
  6
CONTINUOUS
 10
13.3967787943
 20
9.6439675503
 11
13.3757787917
 21
9.6492175503
  0
LINE
  5
36C
100
AcDbEntity
  8
03__ASM_ALL_CURVES
100
AcDbLine
 62
4
  6
CONTINUOUS
 10
13.4037787926
 20
9.2449675503
 11
13.417778793
 21
9.2397175503
  0
LINE
  5
36D
100
AcDbEntity
  8
03__ASM_ALL_CURVES
100
AcDbLine
 62
4
  6
CONTINUOUS
 10
13.2327787934
 20
8.9824675503
 11
13.2957787934
 21
8.9457175503
  0
LINE
  5
36E
100
AcDbEntity
  8
03__ASM_ALL_CURVES
100
AcDbLine
 62
4
  6
CONTINUOUS
 10
13.3477787934
 20
8.9824675503
 11
13.4107787934
 21
8.9457175503
  0
LINE
  5
36F
100
AcDbEntity
  8
0
100
AcDbLine
 62
7
  6
CONTINUOUS
 10
13.3897787934
 20
8.3267175503
 11
13.3587787934
 21
8.3577175503
  0
LINE
  5
370
100
AcDbEntity
  8
03__ASM_ALL_CURVES
100
AcDbLine
 62
4
  6
CONTINUOUS
 10
13.2817787943
 20
9.8067175503
 11
13.2747787934
 21
9.7909675503
  0
LINE
  5
371
100
AcDbEntity
  8
03__ASM_ALL_CURVES
100
AcDbLine
 62
4
  6
CONTINUOUS
 10
13.2677787951
 20
9.6387175503
 11
13.2747787934
 21
9.6544675503
  0
LINE
  5
372
100
AcDbEntity
  8
03__ASM_ALL_CURVES
100
AcDbLine
 62
4
  6
CONTINUOUS
 10
13.3967787943
 20
9.8067175503
 11
13.3897787934
 21
9.7909675503
  0
LINE
  5
373
100
AcDbEntity
  8
03__ASM_ALL_CURVES
100
AcDbLine
 62
4
  6
CONTINUOUS
 10
13.2327787934
 20
9.1399675503
 11
13.2397787917
 21
9.1504675503
  0
LINE
  5
374
100
AcDbEntity
  8
03__ASM_ALL_CURVES
100
AcDbLine
 62
4
  6
CONTINUOUS
 10
13.3757787917
 20
9.2239675503
 11
13.3827787951
 21
9.2344675503
  0
LINE
  5
375
100
AcDbEntity
  8
03__ASM_ALL_CURVES
100
AcDbLine
 62
4
  6
CONTINUOUS
 10
13.3477787934
 20
9.1399675503
 11
13.3547787917
 21
9.1504675503
  0
LINE
  5
376
100
AcDbEntity
  8
03__ASM_ALL_CURVES
100
AcDbLine
 62
4
  6
CONTINUOUS
 10
13.4317787934
 20
9.2134675503
 11
13.4247787932
 21
9.2029675503
  0
LINE
  5
377
100
AcDbEntity
  8
03__ASM_ALL_CURVES
100
AcDbLine
 62
4
  6
CONTINUOUS
 10
9.2351787951
 20
10.2319675503
 11
9.2561787951
 21
10.2372175503
  0
LINE
  5
378
100
AcDbEntity
  8
03__ASM_ALL_CURVES
100
AcDbLine
 62
4
  6
CONTINUOUS
 10
13.2677787951
 20
10.4052175503
 11
13.2817787943
 21
10.4052175503
  0
LINE
  5
379
100
AcDbEntity
  8
03__ASM_ALL_CURVES
100
AcDbLine
 62
4
  6
CONTINUOUS
 10
13.2607787917
 20
9.5337175503
 11
13.2467787951
 21
9.5389675503
  0
LINE
  5
37A
100
AcDbEntity
  8
03__ASM_ALL_CURVES
100
AcDbLine
 62
4
  6
CONTINUOUS
 10
13.3757787917
 20
9.5337175503
 11
13.3617787951
 21
9.5389675503
  0
LINE
  5
37B
100
AcDbEntity
  8
03__ASM_ALL_CURVES
100
AcDbLine
 62
4
  6
CONTINUOUS
 10
13.2887787926
 20
9.5757175503
 11
13.302778793
 21
9.5704675503
  0
LINE
  5
37C
100
AcDbEntity
  8
03__ASM_ALL_CURVES
100
AcDbLine
 62
4
  6
CONTINUOUS
 10
13.2607787917
 20
9.6177175503
 11
13.2467787951
 21
9.6229675503
  0
LINE
  5
37D
100
AcDbEntity
  8
03__ASM_ALL_CURVES
100
AcDbLine
 62
4
  6
CONTINUOUS
 10
13.2887787926
 20
9.6177175503
 11
13.2747787934
 21
9.6229675503
  0
LINE
  5
37E
100
AcDbEntity
  8
03__ASM_ALL_CURVES
100
AcDbLine
 62
4
  6
CONTINUOUS
 10
13.4037787926
 20
9.5757175503
 11
13.417778793
 21
9.5704675503
  0
LINE
  5
37F
100
AcDbEntity
  8
03__ASM_ALL_CURVES
100
AcDbLine
 62
4
  6
CONTINUOUS
 10
13.2887787926
 20
9.6597175503
 11
13.302778793
 21
9.6544675503
  0
LINE
  5
380
100
AcDbEntity
  8
03__ASM_ALL_CURVES
100
AcDbLine
 62
4
  6
CONTINUOUS
 10
13.3757787917
 20
9.6492175503
 11
13.3477787934
 21
9.6597175503
  0
LINE
  5
381
100
AcDbEntity
  8
03__ASM_ALL_CURVES
100
AcDbLine
 62
4
  6
CONTINUOUS
 10
13.2467787951
 20
9.1137175503
 11
13.2397787917
 21
9.1189675503
  0
LINE
  5
382
100
AcDbEntity
  8
03__ASM_ALL_CURVES
100
AcDbLine
 62
4
  6
CONTINUOUS
 10
13.3587787934
 20
8.5887175503
 11
13.2747787934
 21
8.6727175503
  0
LINE
  5
383
100
AcDbEntity
  8
03__ASM_ALL_CURVES
100
AcDbLine
 62
4
  6
CONTINUOUS
 10
13.2817787943
 20
9.9852175503
 11
13.302778793
 21
9.9799675503
  0
LINE
  5
384
100
AcDbEntity
  8
03__ASM_ALL_CURVES
100
AcDbLine
 62
4
  6
CONTINUOUS
 10
13.3967787943
 20
9.9852175503
 11
13.417778793
 21
9.9799675503
  0
LINE
  5
385
100
AcDbEntity
  8
03__ASM_ALL_CURVES
100
AcDbLine
 62
4
  6
CONTINUOUS
 10
13.2467787951
 20
10.1374675503
 11
13.2677787951
 21
10.1322175503
  0
LINE
  5
386
100
AcDbEntity
  8
03__ASM_ALL_CURVES
100
AcDbLine
 62
4
  6
CONTINUOUS
 10
13.2607787917
 20
9.7857175503
 11
13.2467787951
 21
9.7909675503
  0
LINE
  5
387
100
AcDbEntity
  8
03__ASM_ALL_CURVES
100
AcDbLine
 62
4
  6
CONTINUOUS
 10
13.2607787917
 20
9.8277175503
 11
13.2747787934
 21
9.8224675503
  0
LINE
  5
388
100
AcDbEntity
  8
03__ASM_ALL_CURVES
100
AcDbLine
 62
4
  6
CONTINUOUS
 10
13.3757787917
 20
9.7857175503
 11
13.3617787951
 21
9.7909675503
  0
LINE
  5
389
100
AcDbEntity
  8
03__ASM_ALL_CURVES
100
AcDbLine
 62
4
  6
CONTINUOUS
 10
13.2887787926
 20
9.8277175503
 11
13.302778793
 21
9.8224675503
  0
LINE
  5
38A
100
AcDbEntity
  8
03__ASM_ALL_CURVES
100
AcDbLine
 62
4
  6
CONTINUOUS
 10
13.3757787917
 20
9.8277175503
 11
13.3897787934
 21
9.8224675503
  0
LINE
  5
38B
100
AcDbEntity
  8
03__ASM_ALL_CURVES
100
AcDbLine
 62
4
  6
CONTINUOUS
 10
13.4037787926
 20
9.8277175503
 11
13.417778793
 21
9.8224675503
  0
LINE
  5
38C
100
AcDbEntity
  8
03__ASM_ALL_CURVES
100
AcDbLine
 62
4
  6
CONTINUOUS
 10
13.2817787943
 20
9.1294675503
 11
13.2957787934
 21
9.1189675503
  0
LINE
  5
38D
100
AcDbEntity
  8
03__ASM_ALL_CURVES
100
AcDbLine
 62
4
  6
CONTINUOUS
 10
13.2607787917
 20
9.1557175503
 11
13.2677787951
 21
9.1504675503
  0
LINE
  5
38E
100
AcDbEntity
  8
03__ASM_ALL_CURVES
100
AcDbLine
 62
4
  6
CONTINUOUS
 10
13.3617787951
 20
9.1137175503
 11
13.3547787917
 21
9.1189675503
  0
LINE
  5
38F
100
AcDbEntity
  8
03__ASM_ALL_CURVES
100
AcDbLine
 62
4
  6
CONTINUOUS
 10
13.3967787943
 20
9.1294675503
 11
13.4107787934
 21
9.1189675503
  0
LINE
  5
390
100
AcDbEntity
  8
03__ASM_ALL_CURVES
100
AcDbLine
 62
4
  6
CONTINUOUS
 10
13.3757787917
 20
9.1557175503
 11
13.3827787951
 21
9.1504675503
  0
LINE
  5
391
100
AcDbEntity
  8
03__ASM_ALL_CURVES
100
AcDbLine
 62
4
  6
CONTINUOUS
 10
13.417778793
 20
9.2397175503
 11
13.4247787932
 21
9.2344675503
  0
LINE
  5
392
100
AcDbEntity
  8
03__ASM_ALL_CURVES
100
AcDbLine
 62
4
  6
CONTINUOUS
 10
13.2327787934
 20
9.3919675503
 11
13.2467787951
 21
9.3814675503
  0
LINE
  5
393
100
AcDbEntity
  8
03__ASM_ALL_CURVES
100
AcDbLine
 62
4
  6
CONTINUOUS
 10
13.2817787943
 20
10.4052175503
 11
13.302778793
 21
10.3999675503
  0
LINE
  5
394
100
AcDbEntity
  8
03__ASM_ALL_CURVES
100
AcDbLine
 62
4
  6
CONTINUOUS
 10
13.3477787934
 20
9.3919675503
 11
13.3617787951
 21
9.3814675503
  0
LINE
  5
395
100
AcDbEntity
  8
03__ASM_ALL_CURVES
100
AcDbLine
 62
4
  6
CONTINUOUS
 10
13.2467787951
 20
9.5389675503
 11
13.2397787917
 21
9.5442175503
  0
LINE
  5
396
100
AcDbEntity
  8
03__ASM_ALL_CURVES
100
AcDbLine
 62
4
  6
CONTINUOUS
 10
13.302778793
 20
9.5704675503
 11
13.3097787932
 21
9.5652175503
  0
LINE
  5
397
100
AcDbEntity
  8
03__ASM_ALL_CURVES
100
AcDbLine
 62
4
  6
CONTINUOUS
 10
13.2467787951
 20
9.6229675503
 11
13.2397787917
 21
9.6282175503
  0
LINE
  5
398
100
AcDbEntity
  8
03__ASM_ALL_CURVES
100
AcDbLine
 62
4
  6
CONTINUOUS
 10
13.3617787951
 20
9.5389675503
 11
13.3547787917
 21
9.5442175503
  0
LINE
  5
399
100
AcDbEntity
  8
03__ASM_ALL_CURVES
100
AcDbLine
 62
4
  6
CONTINUOUS
 10
13.2327787934
 20
10.3159675503
 11
13.2327787934
 21
10.3054675503
  0
LINE
  5
39A
100
AcDbEntity
  8
03__ASM_ALL_CURVES
100
AcDbLine
 62
4
  6
CONTINUOUS
 10
13.2327787934
 20
9.1294675503
 11
13.2327787934
 21
9.1399675503
  0
LINE
  5
39B
100
AcDbEntity
  8
03__ASM_ALL_CURVES
100
AcDbLine
 62
4
  6
CONTINUOUS
 10
13.2327787934
 20
9.8854675503
 11
13.2327787934
 21
9.8959675503
  0
LINE
  5
39C
100
AcDbEntity
  8
03__ASM_ALL_CURVES
100
AcDbLine
 62
4
  6
CONTINUOUS
 10
13.2677787951
 20
9.8854675503
 11
13.2677787951
 21
9.8959675503
  0
LINE
  5
39D
100
AcDbEntity
  8
03__ASM_ALL_CURVES
100
AcDbLine
 62
4
  6
CONTINUOUS
 10
13.2747787934
 20
8.6727175503
 11
13.2747787934
 21
8.7567175503
  0
LINE
  5
39E
100
AcDbEntity
  8
03__ASM_ALL_CURVES
100
AcDbLine
 62
4
  6
CONTINUOUS
 10
13.2957787934
 20
8.9457175503
 11
13.2957787934
 21
8.9929675503
  0
LINE
  5
39F
100
AcDbEntity
  8
03__ASM_ALL_CURVES
100
AcDbLine
 62
4
  6
CONTINUOUS
 10
13.3167787934
 20
10.3159675503
 11
13.3167787934
 21
10.3054675503
  0
LINE
  5
3A0
100
AcDbEntity
  8
03__ASM_ALL_CURVES
100
AcDbLine
 62
4
  6
CONTINUOUS
 10
13.3167787934
 20
9.8959675503
 11
13.3167787934
 21
9.8854675503
  0
LINE
  5
3A1
100
AcDbEntity
  8
03__ASM_ALL_CURVES
100
AcDbLine
 62
4
  6
CONTINUOUS
 10
13.3167787934
 20
9.7437175503
 11
13.3167787934
 21
9.7358425503
  0
LINE
  5
3A2
100
AcDbEntity
  8
03__ASM_ALL_CURVES
100
AcDbLine
 62
4
  6
CONTINUOUS
 10
13.3167787934
 20
9.0717175503
 11
13.3167787934
 21
9.0638425503
  0
LINE
  5
3A3
100
AcDbEntity
  8
03__ASM_ALL_CURVES
100
AcDbLine
 62
4
  6
CONTINUOUS
 10
13.3167787934
 20
9.1137175503
 11
13.3167787934
 21
9.1557175503
  0
LINE
  5
3A4
100
AcDbEntity
  8
03__ASM_ALL_CURVES
100
AcDbLine
 62
4
  6
CONTINUOUS
 10
13.3167787934
 20
10.2057175503
 11
13.3167787934
 21
10.2477175503
  0
LINE
  5
3A5
100
AcDbEntity
  8
03__ASM_ALL_CURVES
100
AcDbLine
 62
4
  6
CONTINUOUS
 10
13.3477787934
 20
9.6597175503
 11
13.3477787934
 21
9.6177175503
  0
LINE
  5
3A6
100
AcDbEntity
  8
03__ASM_ALL_CURVES
100
AcDbLine
 62
4
  6
CONTINUOUS
 10
13.3477787934
 20
9.2397175503
 11
13.3477787934
 21
9.2082175503
  0
LINE
  5
3A7
100
AcDbEntity
  8
03__ASM_ALL_CURVES
100
AcDbLine
 62
4
  6
CONTINUOUS
 10
13.3477787934
 20
9.1294675503
 11
13.3477787934
 21
9.1399675503
  0
LINE
  5
3A8
100
AcDbEntity
  8
03__ASM_ALL_CURVES
100
AcDbLine
 62
4
  6
CONTINUOUS
 10
13.3477787934
 20
9.9064675503
 11
13.4107787934
 21
9.8697175503
  0
LINE
  5
3A9
100
AcDbEntity
  8
03__ASM_ALL_CURVES
100
AcDbLine
 62
4
  6
CONTINUOUS
 10
13.302778793
 20
9.6544675503
 11
13.3097787932
 21
9.6492175503
  0
LINE
  5
3AA
100
AcDbEntity
  8
03__ASM_ALL_CURVES
100
AcDbLine
 62
4
  6
CONTINUOUS
 10
13.417778793
 20
9.5704675503
 11
13.4247787932
 21
9.5652175503
  0
LINE
  5
3AB
100
AcDbEntity
  8
03__ASM_ALL_CURVES
100
AcDbLine
 62
4
  6
CONTINUOUS
 10
13.2467787951
 20
9.7909675503
 11
13.2397787917
 21
9.7962175503
  0
LINE
  5
3AC
100
AcDbEntity
  8
03__ASM_ALL_CURVES
100
AcDbLine
 62
4
  6
CONTINUOUS
 10
13.302778793
 20
9.8224675503
 11
13.3097787932
 21
9.8172175503
  0
LINE
  5
3AD
100
AcDbEntity
  8
03__ASM_ALL_CURVES
100
AcDbLine
 62
4
  6
CONTINUOUS
 10
13.3617787951
 20
9.7909675503
 11
13.3547787917
 21
9.7962175503
  0
LINE
  5
3AE
100
AcDbEntity
  8
03__ASM_ALL_CURVES
100
AcDbLine
 62
4
  6
CONTINUOUS
 10
13.2537787934
 20
9.9117175503
 11
13.2607787917
 21
9.9064675503
  0
LINE
  5
3AF
100
AcDbEntity
  8
03__ASM_ALL_CURVES
100
AcDbLine
 62
4
  6
CONTINUOUS
 10
13.417778793
 20
9.8224675503
 11
13.4247787932
 21
9.8172175503
  0
LINE
  5
3B0
100
AcDbEntity
  8
03__ASM_ALL_CURVES
100
AcDbLine
 62
4
  6
CONTINUOUS
 10
13.2957787934
 20
9.9169675503
 11
13.3097787932
 21
9.9064675503
  0
LINE
  5
3B1
100
AcDbEntity
  8
03__ASM_ALL_CURVES
100
AcDbLine
 62
4
  6
CONTINUOUS
 10
13.2397787917
 20
9.1189675503
 11
13.2327787934
 21
9.1294675503
  0
LINE
  5
3B2
100
AcDbEntity
  8
03__ASM_ALL_CURVES
100
AcDbLine
 62
4
  6
CONTINUOUS
 10
13.2677787951
 20
9.1504675503
 11
13.2817787943
 21
9.1294675503
  0
LINE
  5
3B3
100
AcDbEntity
  8
03__ASM_ALL_CURVES
100
AcDbLine
 62
4
  6
CONTINUOUS
 10
13.3547787917
 20
9.1189675503
 11
13.3477787934
 21
9.1294675503
  0
LINE
  5
3B4
100
AcDbEntity
  8
03__ASM_ALL_CURVES
100
AcDbLine
 62
4
  6
CONTINUOUS
 10
13.3827787951
 20
9.1504675503
 11
13.3967787943
 21
9.1294675503
  0
LINE
  5
3B5
100
AcDbEntity
  8
03__ASM_ALL_CURVES
100
AcDbLine
 62
4
  6
CONTINUOUS
 10
13.3827787951
 20
9.2029675503
 11
13.3757787917
 21
9.2134675503
  0
LINE
  5
3B6
100
AcDbEntity
  8
03__ASM_ALL_CURVES
100
AcDbLine
 62
4
  6
CONTINUOUS
 10
13.4247787932
 20
9.2344675503
 11
13.4317787934
 21
9.2239675503
  0
LINE
  5
3B7
100
AcDbEntity
  8
0
100
AcDbLine
 62
7
  6
CONTINUOUS
 10
13.3587787934
 20
6.7327175503
 11
13.3587787934
 21
8.3577175503
  0
LINE
  5
3B8
100
AcDbEntity
  8
03__ASM_ALL_CURVES
100
AcDbLine
 62
4
  6
CONTINUOUS
 10
13.3587787934
 20
8.5047175503
 11
13.3587787934
 21
8.5887175503
  0
LINE
  5
3B9
100
AcDbEntity
  8
03__ASM_ALL_CURVES
100
AcDbLine
 62
4
  6
CONTINUOUS
 10
13.3757787917
 20
9.2134675503
 11
13.3757787917
 21
9.2239675503
  0
LINE
  5
3BA
100
AcDbEntity
  8
0
100
AcDbLine
 62
7
  6
CONTINUOUS
 10
13.3897787934
 20
6.7637175503
 11
13.3897787934
 21
8.3267175503
  0
LINE
  5
3BB
100
AcDbEntity
  8
03__ASM_ALL_CURVES
100
AcDbLine
 62
4
  6
CONTINUOUS
 10
13.3897787934
 20
8.5047175503
 11
13.3897787934
 21
8.7567175503
  0
LINE
  5
3BC
100
AcDbEntity
  8
03__ASM_ALL_CURVES
100
AcDbLine
 62
4
  6
CONTINUOUS
 10
13.4107787934
 20
8.9457175503
 11
13.4107787934
 21
8.9929675503
  0
LINE
  5
3BD
100
AcDbEntity
  8
03__ASM_ALL_CURVES
100
AcDbLine
 62
4
  6
CONTINUOUS
 10
13.4107787934
 20
9.8697175503
 11
13.4107787934
 21
9.9169675503
  0
LINE
  5
3BE
100
AcDbEntity
  8
03__ASM_ALL_CURVES
100
AcDbLine
 62
4
  6
CONTINUOUS
 10
13.4317787934
 20
9.7437175503
 11
13.4317787934
 21
9.7358425503
  0
LINE
  5
3BF
100
AcDbEntity
  8
03__ASM_ALL_CURVES
100
AcDbLine
 62
4
  6
CONTINUOUS
 10
13.4317787934
 20
9.2239675503
 11
13.4317787934
 21
9.2134675503
  0
LINE
  5
3C0
100
AcDbEntity
  8
03__ASM_ALL_CURVES
100
AcDbLine
 62
4
  6
CONTINUOUS
 10
13.4317787934
 20
9.0717175503
 11
13.4317787934
 21
9.0638425503
  0
LINE
  5
3C1
100
AcDbEntity
  8
03__ASM_ALL_CURVES
100
AcDbLine
 62
4
  6
CONTINUOUS
 10
13.4317787934
 20
9.1137175503
 11
13.4317787934
 21
9.1557175503
  0
LINE
  5
3C2
100
AcDbEntity
  8
03__ASM_ALL_CURVES
100
AcDbLine
 62
4
  6
CONTINUOUS
 10
13.302778793
 20
9.9799675503
 11
13.3167787934
 21
9.9694675503
  0
LINE
  5
3C3
100
AcDbEntity
  8
03__ASM_ALL_CURVES
100
AcDbLine
 62
4
  6
CONTINUOUS
 10
13.417778793
 20
9.9799675503
 11
13.4317787934
 21
9.9694675503
  0
LINE
  5
3C4
100
AcDbEntity
  8
03__ASM_ALL_CURVES
100
AcDbLine
 62
4
  6
CONTINUOUS
 10
13.2327787934
 20
10.1479675503
 11
13.2467787951
 21
10.1374675503
  0
LINE
  5
3C5
100
AcDbEntity
  8
03__ASM_ALL_CURVES
100
AcDbLine
 62
4
  6
CONTINUOUS
 10
13.2397787917
 20
9.5442175503
 11
13.2327787934
 21
9.5547175503
  0
LINE
  5
3C6
100
AcDbEntity
  8
03__ASM_ALL_CURVES
100
AcDbLine
 62
4
  6
CONTINUOUS
 10
13.2397787917
 20
9.6282175503
 11
13.2327787934
 21
9.6387175503
  0
LINE
  5
3C7
100
AcDbEntity
  8
03__ASM_ALL_CURVES
100
AcDbLine
 62
4
  6
CONTINUOUS
 10
13.3097787932
 20
9.5652175503
 11
13.3167787934
 21
9.5547175503
  0
LINE
  5
3C8
100
AcDbEntity
  8
03__ASM_ALL_CURVES
100
AcDbLine
 62
4
  6
CONTINUOUS
 10
13.3547787917
 20
9.5442175503
 11
13.3477787934
 21
9.5547175503
  0
LINE
  5
3C9
100
AcDbEntity
  8
03__ASM_ALL_CURVES
100
AcDbLine
 62
4
  6
CONTINUOUS
 10
13.3097787932
 20
9.6492175503
 11
13.3167787934
 21
9.6387175503
  0
LINE
  5
3CA
100
AcDbEntity
  8
03__ASM_ALL_CURVES
100
AcDbLine
 62
4
  6
CONTINUOUS
 10
13.2397787917
 20
9.7962175503
 11
13.2327787934
 21
9.8067175503
  0
LINE
  5
3CB
100
AcDbEntity
  8
03__ASM_ALL_CURVES
100
AcDbLine
 62
4
  6
CONTINUOUS
 10
13.4247787932
 20
9.5652175503
 11
13.4317787934
 21
9.5547175503
  0
LINE
  5
3CC
100
AcDbEntity
  8
03__ASM_ALL_CURVES
100
AcDbLine
 62
4
  6
CONTINUOUS
 10
13.2397787917
 20
9.8749675503
 11
13.2327787934
 21
9.8854675503
  0
LINE
  5
3CD
100
AcDbEntity
  8
03__ASM_ALL_CURVES
100
AcDbLine
 62
4
  6
CONTINUOUS
 10
13.3097787932
 20
9.8172175503
 11
13.3167787934
 21
9.8067175503
  0
LINE
  5
3CE
100
AcDbEntity
  8
03__ASM_ALL_CURVES
100
AcDbLine
 62
4
  6
CONTINUOUS
 10
13.2747787934
 20
9.6229675503
 11
13.2677787951
 21
9.6387175503
  0
LINE
  5
3CF
100
AcDbEntity
  8
03__ASM_ALL_CURVES
100
AcDbLine
 62
4
  6
CONTINUOUS
 10
13.2747787934
 20
9.8224675503
 11
13.2817787943
 21
9.8067175503
  0
LINE
  5
3D0
100
AcDbEntity
  8
0
100
AcDbLine
 62
7
  6
CONTINUOUS
 10
13.3897787934
 20
6.7637175503
 11
13.3587787934
 21
6.7327175503
  0
LINE
  5
3D1
100
AcDbEntity
  8
03__ASM_ALL_CURVES
100
AcDbLine
 62
4
  6
CONTINUOUS
 10
13.2397787917
 20
10.2949675503
 11
13.2467787951
 21
10.2897175503
  0
LINE
  5
3D2
100
AcDbEntity
  8
03__ASM_ALL_CURVES
100
AcDbLine
 62
4
  6
CONTINUOUS
 10
13.302778793
 20
10.3317175503
 11
13.3097787932
 21
10.3264675503
  0
LINE
  5
3D3
100
AcDbEntity
  8
03__ASM_ALL_CURVES
100
AcDbLine
 62
4
  6
CONTINUOUS
 10
13.302778793
 20
10.3999675503
 11
13.3167787934
 21
10.3894675503
  0
LINE
  5
3D4
100
AcDbEntity
  8
03__ASM_ALL_CURVES
100
AcDbLine
 62
4
  6
CONTINUOUS
 10
13.2607787917
 20
9.9064675503
 11
13.2677787951
 21
9.8959675503
  0
LINE
  5
3D5
100
AcDbEntity
  8
03__ASM_ALL_CURVES
100
AcDbLine
 62
4
  6
CONTINUOUS
 10
13.3547787917
 20
9.7962175503
 11
13.3477787934
 21
9.8067175503
  0
LINE
  5
3D6
100
AcDbEntity
  8
03__ASM_ALL_CURVES
100
AcDbLine
 62
4
  6
CONTINUOUS
 10
13.3097787932
 20
9.9064675503
 11
13.3167787934
 21
9.8959675503
  0
LINE
  5
3D7
100
AcDbEntity
  8
03__ASM_ALL_CURVES
100
AcDbLine
 62
4
  6
CONTINUOUS
 10
13.4247787932
 20
9.8172175503
 11
13.4317787934
 21
9.8067175503
  0
LINE
  5
3D8
100
AcDbEntity
  8
03__ASM_ALL_CURVES
100
AcDbLine
 62
4
  6
CONTINUOUS
 10
13.2327787934
 20
10.3054675503
 11
13.2397787917
 21
10.2949675503
  0
LINE
  5
3D9
100
AcDbEntity
  8
03__ASM_ALL_CURVES
100
AcDbLine
 62
4
  6
CONTINUOUS
 10
13.3097787932
 20
10.3264675503
 11
13.3167787934
 21
10.3159675503
  0
LINE
  5
3DA
100
AcDbEntity
  8
03__ASM_ALL_CURVES
100
AcDbLine
 62
4
  6
CONTINUOUS
 10
13.3897787934
 20
9.8224675503
 11
13.3967787943
 21
9.8067175503
  0
CIRCLE
  5
3DB
100
AcDbEntity
  8
0
100
AcDbCircle
 62
7
  6
CONTINUOUS
 10
10.4677787429
 20
6.9207175503
 40
0.148
  0
CIRCLE
  5
3DC
100
AcDbEntity
  8
0
100
AcDbCircle
 62
7
  6
CONTINUOUS
 10
10.4677787429
 20
8.1707175503
 40
0.148
  0
CIRCLE
  5
3DD
100
AcDbEntity
  8
0
100
AcDbCircle
 62
7
  6
CONTINUOUS
 10
12.0617787248
 20
6.9207175503
 40
0.148
  0
CIRCLE
  5
3DE
100
AcDbEntity
  8
0
100
AcDbCircle
 62
7
  6
CONTINUOUS
 10
11.2647787934
 20
7.1237174997
 40
0.125
  0
CIRCLE
  5
3DF
100
AcDbEntity
  8
0
100
AcDbCircle
 62
7
  6
CONTINUOUS
 10
11.7177788621
 20
6.9047175178
 40
0.078
  0
CIRCLE
  5
3E0
100
AcDbEntity
  8
0
100
AcDbCircle
 62
7
  6
CONTINUOUS
 10
12.0617787248
 20
8.1707175503
 40
0.148
  0
CIRCLE
  5
3E1
100
AcDbEntity
  8
0
100
AcDbCircle
 62
7
  6
CONTINUOUS
 10
11.2647787934
 20
7.9677175412
 40
0.125
  0
CIRCLE
  5
3E2
100
AcDbEntity
  8
0
100
AcDbCircle
 62
7
  6
CONTINUOUS
 10
11.2647787934
 20
7.5457175503
 40
0.065
  0
SPLINE
  5
3E3
100
AcDbEntity
  8
0
100
AcDbSpline
 62
7
  6
CONTINUOUS
 70
0
 71
3
 72
8
 73
4
 74
2
 42
0.0000001
 43
0.0000001
 44
0.0000000001
 12
-0.000773957
 22
0.0106594071
 32
0.0
 13
-0.0
 23
0.0106874662
 33
0.0
 40
0.0
 40
0.0
 40
0.0
 40
0.0
 40
1.0
 40
1.0
 40
1.0
 40
1.0
 10
11.4991658173
 20
7.5350394365
 30
0.0
 10
11.4989078316
 20
7.5385925722
 30
0.0
 10
11.498778761
 20
7.5421550609
 30
0.0
 10
11.498778761
 20
7.5457175497
 30
0.0
 11
11.4991658173
 21
7.5350394365
 31
0.0
 11
11.498778761
 21
7.5457175497
 31
0.0
  0
SPLINE
  5
3E4
100
AcDbEntity
  8
0
100
AcDbSpline
 62
7
  6
CONTINUOUS
 70
0
 71
3
 72
8
 73
4
 74
2
 42
0.0000001
 43
0.0000001
 44
0.0000000001
 12
-0.0007739572
 22
0.0106594086
 32
0.0
 13
-0.0
 23
0.0106874677
 33
0.0
 40
0.0
 40
0.0
 40
0.0
 40
0.0
 40
1.0
 40
1.0
 40
1.0
 40
1.0
 10
10.7811658823
 20
7.535039435
 30
0.0
 10
10.7809078965
 20
7.5385925712
 30
0.0
 10
10.7807788259
 20
7.5421550604
 30
0.0
 10
10.7807788258
 20
7.5457175497
 30
0.0
 11
10.7811658823
 21
7.535039435
 31
0.0
 11
10.7807788258
 21
7.5457175497
 31
0.0
  0
SPLINE
  5
3E5
100
AcDbEntity
  8
0
100
AcDbSpline
 62
7
  6
CONTINUOUS
 70
0
 71
3
 72
18
 73
14
 74
12
 42
0.0000001
 43
0.0000001
 44
0.0000000001
 12
0.0626880854
 22
-0.0763890701
 32
0.0
 13
0.0984077623
 23
-0.0090311502
 33
0.0
 40
0.0
 40
0.0
 40
0.0
 40
0.0
 40
0.050017516
 40
0.1473365073
 40
0.2445306133
 40
0.3416022838
 40
0.438556679
 40
0.5354018272
 40
0.6321481541
 40
0.7288084403
 40
0.8253974077
 40
0.9219314015
 40
1.0
 40
1.0
 40
1.0
 40
1.0
 10
11.5274425044
 20
7.4654681254
 30
0.0
 10
11.5284876718
 20
7.4641945282
 30
0.0
 10
11.5316401375
 20
7.4605033928
 30
0.0
 10
11.5372212693
 20
7.4546874967
 30
0.0
 10
11.5443877622
 20
7.4482823141
 30
0.0
 10
11.5520142426
 20
7.4424521299
 30
0.0
 10
11.5600553906
 20
7.4372297151
 30
0.0
 10
11.5684637917
 20
7.4326441859
 30
0.0
 10
11.5771902254
 20
7.4287209092
 30
0.0
 10
11.586183965
 20
7.4254814367
 30
0.0
 10
11.5953929677
 20
7.4229434542
 30
0.0
 10
11.6041681624
 20
7.4212367225
 30
0.0
 10
11.6098788397
 20
7.420533066
 30
0.0
 10
11.6124396917
 20
7.4202980496
 30
0.0
 11
11.5274425044
 21
7.4654681254
 31
0.0
 11
11.5306522965
 21
7.4617099479
 31
0.0
 11
11.5373095172
 21
7.4547730035
 31
0.0
 11
11.544469076
 21
7.4483742999
 31
0.0
 11
11.5520880744
 21
7.4425500916
 31
0.0
 11
11.5601212225
 21
7.4373331019
 31
0.0
 11
11.5685211566
 21
7.4327523912
 31
0.0
 11
11.5772387058
 21
7.4288332821
 31
0.0
 11
11.5862231904
 21
7.4255972822
 31
0.0
 11
11.5954226845
 21
7.4230620407
 31
0.0
 11
11.6047842799
 21
7.421241313
 31
0.0
 11
11.6124396917
 21
7.4202980496
 31
0.0
  0
SPLINE
  5
3E6
100
AcDbEntity
  8
0
100
AcDbSpline
 62
7
  6
CONTINUOUS
 70
0
 71
3
 72
9
 73
5
 74
3
 42
0.0000001
 43
0.0000001
 44
0.0000000001
 12
0.0113076222
 22
-0.0010377315
 32
0.0
 13
0.011352037
 23
0.0
 33
0.0
 40
0.0
 40
0.0
 40
0.0
 40
0.0
 40
0.1603752918
 40
1.0
 40
1.0
 40
1.0
 40
1.0
 10
11.6124396917
 20
7.4202980496
 30
0.0
 10
11.6130441794
 20
7.4202425741
 30
0.0
 10
11.6168159872
 20
7.4199243203
 30
0.0
 10
11.6206016107
 20
7.4197788221
 30
0.0
 10
11.623778761
 20
7.4197788221
 30
0.0
 11
11.6124396917
 21
7.4202980496
 31
0.0
 11
11.6142543443
 21
7.4201449373
 31
0.0
 11
11.623778761
 21
7.4197788221
 31
0.0
  0
SPLINE
  5
3E7
100
AcDbEntity
  8
0
100
AcDbSpline
 62
7
  6
CONTINUOUS
 70
0
 71
3
 72
8
 73
4
 74
2
 42
0.0000001
 43
0.0000001
 44
0.0000000001
 12
0.0095062843
 22
-0.000731853
 32
0.0
 13
0.0095314449
 23
0.0
 33
0.0
 40
0.0
 40
0.0
 40
0.0
 40
0.0
 40
1.0
 40
1.0
 40
1.0
 40
1.0
 10
10.896254415
 20
7.4201449369
 30
0.0
 10
10.8994231764
 20
7.4199009859
 30
0.0
 10
10.9026016775
 20
7.4197788221
 30
0.0
 10
10.9057788258
 20
7.4197788221
 30
0.0
 11
10.896254415
 21
7.4201449369
 31
0.0
 11
10.9057788258
 21
7.4197788221
 31
0.0
  0
SPLINE
  5
3E8
100
AcDbEntity
  8
0
100
AcDbSpline
 62
7
  6
CONTINUOUS
 70
0
 71
3
 72
8
 73
4
 74
2
 42
0.0000001
 43
0.0000001
 44
0.0000000001
 12
0.0095314524
 22
0.0
 32
0.0
 13
0.0095062917
 23
0.0007318541
 33
0.0
 40
0.0
 40
0.0
 40
0.0
 40
0.0
 40
1.0
 40
1.0
 40
1.0
 40
1.0
 10
10.9057788258
 20
7.4197788221
 30
0.0
 10
10.9089559766
 20
7.4197788221
 30
0.0
 10
10.9121344802
 20
7.4199009861
 30
0.0
 10
10.9153032442
 20
7.4201449374
 30
0.0
 11
10.9057788258
 21
7.4197788221
 31
0.0
 11
10.9153032442
 21
7.4201449374
 31
0.0
  0
SPLINE
  5
3E9
100
AcDbEntity
  8
0
100
AcDbSpline
 62
7
  6
CONTINUOUS
 70
0
 71
3
 72
18
 73
14
 74
12
 42
0.0000001
 43
0.0000001
 44
0.0000000001
 12
0.100349281
 22
0.0077255189
 32
0.0
 13
0.0638433036
 23
0.0777967704
 33
0.0
 40
0.0
 40
0.0
 40
0.0
 40
0.0
 40
0.0947505463
 40
0.1895377668
 40
0.2843789537
 40
0.3792901575
 40
0.474285835
 40
0.5693785378
 40
0.6645785043
 40
0.7598936198
 40
0.8553289539
 40
0.9508869131
 40
1.0
 40
1.0
 40
1.0
 40
1.0
 10
10.9153032442
 20
7.4201449374
 30
0.0
 10
10.9184726272
 20
7.4203889365
 30
0.0
 10
10.9247931293
 20
7.4211207462
 30
0.0
 10
10.9341646137
 20
7.422943453
 30
0.0
 10
10.9433736124
 20
7.4254814339
 30
0.0
 10
10.9523673472
 20
7.4287209036
 30
0.0
 10
10.9610937756
 20
7.4326441765
 30
0.0
 10
10.9695021712
 20
7.4372297005
 30
0.0
 10
10.977543314
 20
7.4424521088
 30
0.0
 10
10.9851697897
 20
7.4482822855
 30
0.0
 10
10.9923362788
 20
7.4546874596
 30
0.0
 10
10.9979174236
 20
7.4605033639
 30
0.0
 10
11.0010699018
 20
7.4641945121
 30
0.0
 10
11.0021150824
 20
7.4654681253
 30
0.0
 11
10.9153032442
 21
7.4201449374
 31
0.0
 11
10.924773305
 21
7.4212413127
 31
0.0
 11
10.9341348974
 21
7.4230620395
 31
0.0
 11
10.9433343874
 21
7.4255972794
 31
0.0
 11
10.9523188672
 21
7.4288332765
 31
0.0
 11
10.961036411
 21
7.4327523817
 31
0.0
 11
10.9694363397
 21
7.4373330872
 31
0.0
 11
10.9774694825
 21
7.4425500704
 31
0.0
 11
10.9850884761
 21
7.4483742712
 31
0.0
 11
10.992248031
 21
7.4547729663
 31
0.0
 11
10.998905249
 21
7.4617099014
 31
0.0
 11
11.0021150824
 21
7.4654681253
 31
0.0
  0
SPLINE
  5
3EA
100
AcDbEntity
  8
0
100
AcDbSpline
 62
7
  6
CONTINUOUS
 70
0
 71
3
 72
8
 73
4
 74
2
 42
0.0000001
 43
0.0000001
 44
0.0000000001
 12
0.0088702219
 22
0.0014147736
 32
0.0
 13
0.0087449435
 23
0.0020521659
 33
0.0
 40
0.0
 40
0.0
 40
0.0
 40
0.0
 40
1.0
 40
1.0
 40
1.0
 40
1.0
 10
11.6433233594
 20
7.4213277898
 30
0.0
 10
11.6462801
 20
7.421799381
 30
0.0
 10
11.6492198524
 20
7.4223779845
 30
0.0
 10
11.6521348335
 20
7.4230620398
 30
0.0
 11
11.6433233594
 21
7.4213277898
 31
0.0
 11
11.6521348335
 21
7.4230620398
 31
0.0
  0
SPLINE
  5
3EB
100
AcDbEntity
  8
0
100
AcDbSpline
 62
7
  6
CONTINUOUS
 70
0
 71
3
 72
16
 73
12
 74
10
 42
0.0000001
 43
0.0000001
 44
0.0000000001
 12
0.0794077974
 22
0.0186345368
 32
0.0
 13
0.0517425858
 23
0.0630513435
 33
0.0
 40
0.0
 40
0.0
 40
0.0
 40
0.0
 40
0.1170210951
 40
0.2341285939
 40
0.3513403217
 40
0.4686717655
 40
0.5861355581
 40
0.7037414289
 40
0.8214956331
 40
0.9394011399
 40
1.0
 40
1.0
 40
1.0
 40
1.0
 10
11.6521348335
 20
7.4230620398
 30
0.0
 10
11.655232296
 20
7.4237889177
 30
0.0
 10
11.6613735479
 20
7.425481434
 30
0.0
 10
11.6703672824
 20
7.4287209036
 30
0.0
 10
11.6790937108
 20
7.4326441765
 30
0.0
 10
11.6875021064
 20
7.4372297005
 30
0.0
 10
11.6955432492
 20
7.4424521088
 30
0.0
 10
11.7031697248
 20
7.4482822855
 30
0.0
 10
11.7103362139
 20
7.4546874596
 30
0.0
 10
11.7159173588
 20
7.4605033639
 30
0.0
 10
11.719069837
 20
7.4641945121
 30
0.0
 10
11.7201150176
 20
7.4654681253
 30
0.0
 11
11.6521348335
 21
7.4230620398
 31
0.0
 11
11.6613343226
 21
7.4255972794
 31
0.0
 11
11.6703188024
 21
7.4288332765
 31
0.0
 11
11.6790363462
 21
7.4327523817
 31
0.0
 11
11.6874362748
 21
7.4373330872
 31
0.0
 11
11.6954694176
 21
7.4425500704
 31
0.0
 11
11.7030884113
 21
7.4483742712
 31
0.0
 11
11.7102479662
 21
7.4547729663
 31
0.0
 11
11.7169051842
 21
7.4617099014
 31
0.0
 11
11.7201150176
 21
7.4654681253
 31
0.0
  0
SPLINE
  5
3EC
100
AcDbEntity
  8
0
100
AcDbSpline
 62
7
  6
CONTINUOUS
 70
0
 71
3
 72
20
 73
16
 74
14
 42
0.0000001
 43
0.0000001
 44
0.0000000001
 12
0.1143860011
 22
0.0
 32
0.0
 13
0.069138206
 23
-0.0911591275
 33
0.0
 40
0.0
 40
0.0
 40
0.0
 40
0.0
 40
0.0788228446
 40
0.1577605398
 40
0.2367360314
 40
0.3159569112
 40
0.3952871343
 40
0.4749595513
 40
0.5549246041
 40
0.6352028701
 40
0.7158914589
 40
0.7968942754
 40
0.8783735395
 40
0.9601939365
 40
1.0
 40
1.0
 40
1.0
 40
1.0
 10
11.623778761
 20
7.511965967
 30
0.0
 10
11.626784171
 20
7.511965967
 30
0.0
 10
11.6328017405
 20
7.511743345
 30
0.0
 10
11.6417804346
 20
7.5107427473
 30
0.0
 10
11.6506760342
 20
7.5090784532
 30
0.0
 10
11.6594386876
 20
7.5067575085
 30
0.0
 10
11.6680311051
 20
7.5037869631
 30
0.0
 10
11.67640685
 20
7.5001789138
 30
0.0
 10
11.6845254195
 20
7.4959455917
 30
0.0
 10
11.6923424744
 20
7.4911043921
 30
0.0
 10
11.6998132247
 20
7.4856765544
 30
0.0
 10
11.7068985873
 20
7.4796832915
 30
0.0
 10
11.7135540645
 20
7.4731541264
 30
0.0
 10
11.7186725367
 20
7.4673333383
 30
0.0
 10
11.7215413887
 20
7.4636874898
 30
0.0
 10
11.722458762
 20
7.4624779278
 30
0.0
 11
11.623778761
 21
7.511965967
 31
0.0
 11
11.6327888268
 21
7.511632625
 31
0.0
 11
11.641762662
 21
7.5106327471
 31
0.0
 11
11.6506423174
 21
7.5089716368
 31
0.0
 11
11.6594020954
 21
7.5066517711
 31
0.0
 11
11.6679784298
 21
7.5036871785
 31
0.0
 11
11.6763484622
 21
7.500082073
 31
0.0
 11
11.6844591869
 21
7.4958534083
 31
0.0
 11
11.69226629
 21
7.4910190209
 31
0.0
 11
11.6997335678
 21
7.4855944371
 31
0.0
 11
11.7068081946
 21
7.4796110617
 31
0.0
 11
11.7134617647
 21
7.4730846515
 31
0.0
 11
11.7196425237
 21
7.4660567698
 31
0.0
 11
11.722458762
 21
7.4624779278
 31
0.0
  0
SPLINE
  5
3ED
100
AcDbEntity
  8
0
100
AcDbSpline
 62
7
  6
CONTINUOUS
 70
0
 71
3
 72
19
 73
15
 74
13
 42
0.0000001
 43
0.0000001
 44
0.0000000001
 12
0.0636880936
 22
0.0839731208
 32
0.0
 13
0.1051113601
 23
0.0077878313
 33
0.0
 40
0.0
 40
0.0
 40
0.0
 40
0.0
 40
0.0432045386
 40
0.1320274265
 40
0.2204789874
 40
0.3084151057
 40
0.3960114013
 40
0.4831542086
 40
0.5699566354
 40
0.6564505117
 40
0.7425898435
 40
0.8285878861
 40
0.9143091273
 40
1.0
 40
1.0
 40
1.0
 40
1.0
 10
11.5250987608
 20
7.462477929
 30
0.0
 10
11.5260159657
 20
7.4636872689
 30
0.0
 10
11.5288846487
 20
7.467332927
 30
0.0
 10
11.5340029098
 20
7.4731535487
 30
0.0
 10
11.5406583944
 20
7.4796828011
 30
0.0
 10
11.5477438295
 20
7.4856761944
 30
0.0
 10
11.5552145301
 20
7.4911040406
 30
0.0
 10
11.5630313166
 20
7.4959451279
 30
0.0
 10
11.5711496128
 20
7.5001784071
 30
0.0
 10
11.5795259095
 20
7.5037867996
 30
0.0
 10
11.5881190523
 20
7.5067575998
 30
0.0
 10
11.596881915
 20
7.50907853
 30
0.0
 10
11.6057769379
 20
7.5107427059
 30
0.0
 10
11.6117656051
 20
7.5114101223
 30
0.0
 10
11.6147679665
 20
7.511632571
 30
0.0
 11
11.5250987608
 21
7.462477929
 31
0.0
 11
11.5279144706
 21
7.4660561233
 31
0.0
 11
11.5340952346
 21
7.4730840996
 31
0.0
 11
11.5407487424
 21
7.4796105288
 31
0.0
 11
11.5478234544
 21
7.4855940451
 31
0.0
 11
11.5552909477
 21
7.49101883
 31
0.0
 11
11.5630975539
 21
7.4958529637
 31
0.0
 11
11.5712077109
 21
7.5000814319
 31
0.0
 11
11.5795780424
 21
7.5036867717
 31
0.0
 11
11.5881564093
 21
7.5066520706
 31
0.0
 11
11.5969159837
 21
7.5089718126
 31
0.0
 11
11.6057943377
 21
7.5106326693
 31
0.0
 11
11.6147679665
 21
7.511632571
 31
0.0
  0
SPLINE
  5
3EE
100
AcDbEntity
  8
0
100
AcDbSpline
 62
7
  6
CONTINUOUS
 70
0
 71
3
 72
20
 73
16
 74
14
 42
0.0000001
 43
0.0000001
 44
0.0000000001
 12
0.1143860011
 22
0.0
 32
0.0
 13
0.069138206
 23
-0.0911591275
 33
0.0
 40
0.0
 40
0.0
 40
0.0
 40
0.0
 40
0.0788228511
 40
0.157760575
 40
0.2367360808
 40
0.3159569832
 40
0.3952872497
 40
0.4749596643
 40
0.5549247853
 40
0.6352030219
 40
0.7158916686
 40
0.7968944699
 40
0.8783737865
 40
0.9601941948
 40
1.0
 40
1.0
 40
1.0
 40
1.0
 10
10.9057788258
 20
7.511965967
 30
0.0
 10
10.9087842361
 20
7.511965967
 30
0.0
 10
10.9148018069
 20
7.5117433449
 30
0.0
 10
10.9237805029
 20
7.5107427469
 30
0.0
 10
10.9326761049
 20
7.509078452
 30
0.0
 10
10.9414387611
 20
7.506757506
 30
0.0
 10
10.9500311807
 20
7.503786959
 30
0.0
 10
10.958406929
 20
7.5001789072
 30
0.0
 10
10.9665254992
 20
7.4959455833
 30
0.0
 10
10.9743425565
 20
7.4911043806
 30
0.0
 10
10.9818133063
 20
7.4856765413
 30
0.0
 10
10.9888986706
 20
7.4796832748
 30
0.0
 10
10.9955541478
 20
7.473154107
 30
0.0
 10
11.0006726137
 20
7.4673333234
 30
0.0
 10
11.0035414595
 20
7.463687482
 30
0.0
 10
11.0044588269
 20
7.4624779278
 30
0.0
 11
10.9057788258
 21
7.511965967
 31
0.0
 11
10.9147888924
 21
7.5116326249
 31
0.0
 11
10.9237627308
 21
7.5106327465
 31
0.0
 11
10.9326423878
 21
7.5089716356
 31
0.0
 11
10.9414021681
 21
7.5066517687
 31
0.0
 11
10.949978507
 21
7.5036871738
 31
0.0
 11
10.9583485387
 21
7.5000820674
 31
0.0
 11
10.9664592698
 21
7.495853398
 31
0.0
 11
10.9742663693
 21
7.4910190112
 31
0.0
 11
10.9817336515
 21
7.4855944223
 31
0.0
 11
10.9888082759
 21
7.4796110467
 31
0.0
 11
10.995461849
 21
7.473084631
 31
0.0
 11
11.0016426072
 21
7.4660567469
 31
0.0
 11
11.0044588269
 21
7.4624779278
 31
0.0
  0
SPLINE
  5
3EF
100
AcDbEntity
  8
0
100
AcDbSpline
 62
7
  6
CONTINUOUS
 70
0
 71
3
 72
19
 73
15
 74
13
 42
0.0000001
 43
0.0000001
 44
0.0000000001
 12
0.0636880933
 22
0.0839731204
 32
0.0
 13
0.1051113596
 23
0.0077878317
 33
0.0
 40
0.0
 40
0.0
 40
0.0
 40
0.0
 40
0.043204277
 40
0.1320271784
 40
0.2204787964
 40
0.3084148979
 40
0.3960112529
 40
0.4831540328
 40
0.5699565274
 40
0.6564504054
 40
0.7425897744
 40
0.8285878356
 40
0.9143090943
 40
1.0
 40
1.0
 40
1.0
 40
1.0
 10
10.8070988257
 20
7.462477929
 30
0.0
 10
10.808016025
 20
7.4636872616
 30
0.0
 10
10.8108847022
 20
7.4673329131
 30
0.0
 10
10.8160029576
 20
7.4731535308
 30
0.0
 10
10.8226584423
 20
7.4796827857
 30
0.0
 10
10.829743879
 20
7.4856761824
 30
0.0
 10
10.8372145792
 20
7.4911040301
 30
0.0
 10
10.845031368
 20
7.4959451203
 30
0.0
 10
10.8531496649
 20
7.5001784012
 30
0.0
 10
10.8615259647
 20
7.503786796
 30
0.0
 10
10.8701191092
 20
7.5067575975
 30
0.0
 10
10.8788819741
 20
7.5090785288
 30
0.0
 10
10.8877769994
 20
7.5107427055
 30
0.0
 10
10.8937656683
 20
7.5114101222
 30
0.0
 10
10.8967680308
 20
7.5116325709
 30
0.0
 11
10.8070988257
 21
7.462477929
 31
0.0
 11
10.809914518
 21
7.4660561019
 31
0.0
 11
10.8160952814
 21
7.4730840806
 31
0.0
 11
10.8227487923
 21
7.4796105151
 31
0.0
 11
10.8298235019
 21
7.4855940315
 31
0.0
 11
10.8372909994
 21
7.4910188212
 31
0.0
 11
10.8450976025
 21
7.4958529544
 31
0.0
 11
10.8532077652
 21
7.5000814269
 31
0.0
 11
10.8615780965
 21
7.5036867676
 31
0.0
 11
10.8701564668
 21
7.5066520684
 31
0.0
 11
10.8789160429
 21
7.5089718113
 31
0.0
 11
10.8877943986
 21
7.5106326687
 31
0.0
 11
10.8967680308
 21
7.5116325709
 31
0.0
  0
SPLINE
  5
3F0
100
AcDbEntity
  8
0
100
AcDbSpline
 62
7
  6
CONTINUOUS
 70
0
 71
3
 72
27
 73
23
 74
21
 42
0.0000001
 43
0.0000001
 44
0.0000000001
 12
0.0000000006
 22
-0.1960336957
 32
0.0
 13
-0.195469335
 23
-0.0151065769
 33
0.0
 40
0.0
 40
0.0
 40
0.0
 40
0.0
 40
0.0545145154
 40
0.1089165144
 40
0.1630918066
 40
0.2169354552
 40
0.2703522593
 40
0.3232592156
 40
0.3755874306
 40
0.427283753
 40
0.4783110633
 40
0.5286493276
 40
0.5782942439
 40
0.6272576597
 40
0.6755657138
 40
0.7232579071
 40
0.7703859394
 40
0.817011273
 40
0.8632049158
 40
0.9090444371
 40
0.9546134995
 40
1.0
 40
1.0
 40
1.0
 40
1.0
 10
11.0307788258
 20
7.5457175508
 30
0.0
 10
11.0307788259
 20
7.5421553235
 30
0.0
 10
11.0305209889
 20
7.5350382212
 30
0.0
 10
11.0293644586
 20
7.5244369512
 30
0.0
 10
11.0274506146
 20
7.5139904887
 30
0.0
 10
11.0247996147
 20
7.5037728456
 30
0.0
 10
11.0214386868
 20
7.4938537111
 30
0.0
 10
11.017401261
 20
7.4842975748
 30
0.0
 10
11.0127259338
 20
7.475162928
 30
0.0
 10
11.0074553625
 20
7.4665017674
 30
0.0
 10
11.0016351173
 20
7.4583593253
 30
0.0
 10
10.9953126191
 20
7.4507741349
 30
0.0
 10
10.9885361122
 20
7.4437782384
 30
0.0
 10
10.9813538347
 20
7.4373976675
 30
0.0
 10
10.9738132828
 20
7.4316529976
 30
0.0
 10
10.965960687
 20
7.4265600327
 30
0.0
 10
10.9578406629
 20
7.4221305402
 30
0.0
 10
10.9494959859
 20
7.4183729527
 30
0.0
 10
10.9409675854
 20
7.4152930934
 30
0.0
 10
10.9322946671
 20
7.4128947823
 30
0.0
 10
10.923514668
 20
7.4111803979
 30
0.0
 10
10.91760672
 20
7.4104934172
 30
0.0
 10
10.9146494969
 20
7.4102648723
 30
0.0
 11
11.0307788258
 21
7.5457175508
 31
0.0
 11
11.0303918264
 21
7.5350402198
 31
0.0
 11
11.0292349588
 21
7.5244408766
 31
0.0
 11
11.0273206842
 21
7.5139970054
 31
0.0
 11
11.024669287
 21
7.5037826573
 31
0.0
 11
11.0213081775
 21
7.4938676635
 31
0.0
 11
11.0172709915
 21
7.4843165906
 31
0.0
 11
11.0125965473
 21
7.4751879558
 31
0.0
 11
11.0073276935
 21
7.4665336711
 31
0.0
 11
11.0015102133
 21
7.4583988964
 31
0.0
 11
10.9951916361
 21
7.4508219388
 31
0.0
 11
10.9884203613
 21
7.443834688
 31
0.0
 11
10.981244652
 21
7.437462902
 31
0.0
 11
10.9737120352
 21
7.4317269249
 31
0.0
 11
10.9658687244
 21
7.4266423228
 31
0.0
 11
10.9577592119
 21
7.4222205944
 31
0.0
 11
10.9494262345
 21
7.4184699945
 31
0.0
 11
10.9409105067
 21
7.4153961139
 31
0.0
 11
10.9322510771
 21
7.4130026341
 31
0.0
 11
10.9234853567
 21
7.4112917949
 31
0.0
 11
10.9146494969
 21
7.4102648723
 31
0.0
  0
SPLINE
  5
3F1
100
AcDbEntity
  8
0
100
AcDbSpline
 62
7
  6
CONTINUOUS
 70
0
 71
3
 72
8
 73
4
 74
2
 42
0.0000001
 43
0.0000001
 44
0.0000000001
 12
-0.0088536576
 22
-0.0006842427
 32
0.0
 13
-0.0088772756
 23
0.0
 33
0.0
 40
0.0
 40
0.0
 40
0.0
 40
0.0
 40
1.0
 40
1.0
 40
1.0
 40
1.0
 10
10.9146494969
 20
7.4102648723
 30
0.0
 10
10.9116982777
 20
7.4100367914
 30
0.0
 10
10.9087379177
 20
7.4099225031
 30
0.0
 10
10.9057788258
 20
7.4099225031
 30
0.0
 11
10.9146494969
 21
7.4102648723
 31
0.0
 11
10.9057788258
 21
7.4099225031
 31
0.0
  0
SPLINE
  5
3F2
100
AcDbEntity
  8
0
100
AcDbSpline
 62
7
  6
CONTINUOUS
 70
0
 71
3
 72
27
 73
23
 74
21
 42
0.0000001
 43
0.0000001
 44
0.0000000001
 12
0.0000000006
 22
-0.1960336959
 32
0.0
 13
-0.1954693352
 23
-0.0151065766
 33
0.0
 40
0.0
 40
0.0
 40
0.0
 40
0.0
 40
0.0545145454
 40
0.1089165427
 40
0.1630918333
 40
0.2169354801
 40
0.2703522825
 40
0.323259237
 40
0.3755874503
 40
0.4272837711
 40
0.4783110796
 40
0.5286493423
 40
0.578294257
 40
0.6272576712
 40
0.6755657237
 40
0.7232579156
 40
0.7703859464
 40
0.8170112786
 40
0.8632049201
 40
0.90904444
 40
0.9546135011
 40
1.0
 40
1.0
 40
1.0
 40
1.0
 10
11.748778761
 20
7.5457175508
 30
0.0
 10
11.748778761
 20
7.5421553215
 30
0.0
 10
11.7485209239
 20
7.5350382174
 30
0.0
 10
11.747364393
 20
7.5244369456
 30
0.0
 10
11.7454505486
 20
7.5139904835
 30
0.0
 10
11.7427995484
 20
7.5037728409
 30
0.0
 10
11.7394386204
 20
7.4938537068
 30
0.0
 10
11.7354011944
 20
7.484297571
 30
0.0
 10
11.730725867
 20
7.4751629246
 30
0.0
 10
11.7254552956
 20
7.4665017644
 30
0.0
 10
11.7196350504
 20
7.4583593227
 30
0.0
 10
11.7133125522
 20
7.4507741327
 30
0.0
 10
11.7065360454
 20
7.4437782365
 30
0.0
 10
11.699353768
 20
7.437397666
 30
0.0
 10
11.6918132163
 20
7.4316529964
 30
0.0
 10
11.6839606206
 20
7.4265600318
 30
0.0
 10
11.6758405967
 20
7.4221305396
 30
0.0
 10
11.6674959199
 20
7.4183729523
 30
0.0
 10
11.6589675196
 20
7.4152930931
 30
0.0
 10
11.6502946015
 20
7.4128947822
 30
0.0
 10
11.6415146027
 20
7.4111803979
 30
0.0
 10
11.6356066548
 20
7.4104934172
 30
0.0
 10
11.6326494319
 20
7.4102648723
 30
0.0
 11
11.748778761
 21
7.5457175508
 31
0.0
 11
11.7483917611
 21
7.535040214
 31
0.0
 11
11.7472348931
 21
7.5244408711
 31
0.0
 11
11.7453206182
 21
7.5139970003
 31
0.0
 11
11.7426692208
 21
7.5037826526
 31
0.0
 11
11.7393081111
 21
7.4938676592
 31
0.0
 11
11.7352709249
 21
7.4843165867
 31
0.0
 11
11.7305964806
 21
7.4751879524
 31
0.0
 11
11.7253276267
 21
7.4665336681
 31
0.0
 11
11.7195101464
 21
7.4583988938
 31
0.0
 11
11.7131915693
 21
7.4508219366
 31
0.0
 11
11.7064202946
 21
7.4438346862
 31
0.0
 11
11.6992445853
 21
7.4374629005
 31
0.0
 11
11.6917119686
 21
7.4317269237
 31
0.0
 11
11.683868658
 21
7.4266423219
 31
0.0
 11
11.6757591457
 21
7.4222205937
 31
0.0
 11
11.6674261685
 21
7.418469994
 31
0.0
 11
11.6589104409
 21
7.4153961136
 31
0.0
 11
11.6502510116
 21
7.4130026339
 31
0.0
 11
11.6414852913
 21
7.4112917948
 31
0.0
 11
11.6326494319
 21
7.4102648723
 31
0.0
  0
SPLINE
  5
3F3
100
AcDbEntity
  8
0
100
AcDbSpline
 62
7
  6
CONTINUOUS
 70
0
 71
3
 72
8
 73
4
 74
2
 42
0.0000001
 43
0.0000001
 44
0.0000000001
 12
-0.0088536574
 22
-0.0006842426
 32
0.0
 13
-0.0088772754
 23
0.0
 33
0.0
 40
0.0
 40
0.0
 40
0.0
 40
0.0
 40
1.0
 40
1.0
 40
1.0
 40
1.0
 10
11.6326494319
 20
7.4102648723
 30
0.0
 10
11.6296982128
 20
7.4100367914
 30
0.0
 10
11.6267378528
 20
7.4099225031
 30
0.0
 10
11.623778761
 20
7.4099225031
 30
0.0
 11
11.6326494319
 21
7.4102648723
 31
0.0
 11
11.623778761
 21
7.4099225031
 31
0.0
  0
SPLINE
  5
3F4
100
AcDbEntity
  8
0
100
AcDbSpline
 62
7
  6
CONTINUOUS
 70
0
 71
3
 72
28
 73
24
 74
22
 42
0.0000001
 43
0.0000001
 44
0.0000000001
 12
-0.0000000007
 22
0.2049129948
 32
0.0
 13
0.2048681241
 23
-0.0
 33
0.0
 40
0.0
 40
0.0
 40
0.0
 40
0.0
 40
0.0521518497
 40
0.1041965221
 40
0.1560243121
 40
0.2075348298
 40
0.2586369993
 40
0.3092514137
 40
0.3593121649
 40
0.4087684044
 40
0.457584621
 40
0.505741649
 40
0.5532353726
 40
0.6000771258
 40
0.6462919149
 40
0.691917529
 40
0.7370034277
 40
0.7816084102
 40
0.8258004074
 40
0.8696536275
 40
0.9132481079
 40
0.9566679129
 40
1.0
 40
1.0
 40
1.0
 40
1.0
 10
10.7807788258
 20
7.5457175497
 30
0.0
 10
10.7807788258
 20
7.5492797469
 30
0.0
 10
10.7810366596
 20
7.5563968207
 30
0.0
 10
10.7821931806
 20
7.5669980647
 30
0.0
 10
10.7841070196
 20
7.5774445332
 30
0.0
 10
10.7867580152
 20
7.5876621825
 30
0.0
 10
10.7901189397
 20
7.5975813235
 30
0.0
 10
10.7941563629
 20
7.6071374664
 30
0.0
 10
10.7988316883
 20
7.6162721198
 30
0.0
 10
10.8041022586
 20
7.6249332869
 30
0.0
 10
10.8099225034
 20
7.6330757353
 30
0.0
 10
10.816245002
 20
7.6406609318
 30
0.0
 10
10.8230215098
 20
7.6476568339
 30
0.0
 10
10.8302037889
 20
7.65403741
 30
0.0
 10
10.8377443427
 20
7.6597820847
 30
0.0
 10
10.8455969409
 20
7.6648750538
 30
0.0
 10
10.8537169678
 20
7.66930455
 30
0.0
 10
10.8620616479
 20
7.6730621406
 30
0.0
 10
10.8705900517
 20
7.6761420026
 30
0.0
 10
10.8792629735
 20
7.6785403157
 30
0.0
 10
10.8880429745
 20
7.6802547014
 30
0.0
 10
10.8968930123
 20
7.6812837906
 30
0.0
 10
10.9028197837
 20
7.6815126005
 30
0.0
 10
10.9057789049
 20
7.6815126005
 30
0.0
 11
10.7807788258
 21
7.5457175497
 31
0.0
 11
10.7811658187
 21
7.5563947906
 31
0.0
 11
10.7823226806
 21
7.5669941393
 31
0.0
 11
10.7842369501
 21
7.5774380164
 31
0.0
 11
10.786888343
 21
7.5876523708
 31
0.0
 11
10.7902494491
 21
7.5975673711
 31
0.0
 11
10.7942866325
 21
7.6071184507
 31
0.0
 11
10.7989610749
 21
7.616247092
 31
0.0
 11
10.8042299276
 21
7.6249013832
 31
0.0
 11
10.8100474076
 21
7.6330361642
 31
0.0
 11
10.8163659851
 21
7.6406131278
 31
0.0
 11
10.8231372608
 21
7.6476003843
 31
0.0
 11
10.8303129717
 21
7.6539721755
 31
0.0
 11
10.8378455905
 21
7.6597081573
 31
0.0
 11
10.8456889036
 21
7.6647927637
 31
0.0
 11
10.8537984189
 21
7.6692144958
 31
0.0
 11
10.8621313993
 21
7.6729650988
 31
0.0
 11
10.8706471304
 21
7.676038982
 31
0.0
 11
10.8793065635
 21
7.6784324639
 31
0.0
 11
10.8880722876
 21
7.6801433045
 31
0.0
 11
10.8969081461
 21
7.6811702276
 31
0.0
 11
10.9057789049
 21
7.6815126005
 31
0.0
  0
SPLINE
  5
3F5
100
AcDbEntity
  8
0
100
AcDbSpline
 62
7
  6
CONTINUOUS
 70
0
 71
3
 72
28
 73
24
 74
22
 42
0.0000001
 43
0.0000001
 44
0.0000000001
 12
-0.0000000007
 22
0.204913
 32
0.0
 13
0.2048681292
 23
-0.0
 33
0.0
 40
0.0
 40
0.0
 40
0.0
 40
0.0
 40
0.0521518484
 40
0.1041965194
 40
0.1560243082
 40
0.2075348245
 40
0.2586369927
 40
0.3092514059
 40
0.3593121559
 40
0.4087683941
 40
0.4575846095
 40
0.5057416363
 40
0.5532353586
 40
0.6000771107
 40
0.6462918986
 40
0.6919175116
 40
0.7370034092
 40
0.7816083905
 40
0.8258003866
 40
0.8696536056
 40
0.9132480849
 40
0.9566678888
 40
1.0
 40
1.0
 40
1.0
 40
1.0
 10
11.498778761
 20
7.5457175497
 30
0.0
 10
11.498778761
 20
7.5492797469
 30
0.0
 10
11.4990365947
 20
7.5563968207
 30
0.0
 10
11.5001931157
 20
7.5669980647
 30
0.0
 10
11.5021069547
 20
7.5774445332
 30
0.0
 10
11.5047579504
 20
7.5876621825
 30
0.0
 10
11.5081188748
 20
7.5975813235
 30
0.0
 10
11.512156298
 20
7.6071374664
 30
0.0
 10
11.5168316234
 20
7.6162721198
 30
0.0
 10
11.5221021937
 20
7.6249332869
 30
0.0
 10
11.5279224386
 20
7.6330757353
 30
0.0
 10
11.5342449371
 20
7.6406609318
 30
0.0
 10
11.541021445
 20
7.6476568339
 30
0.0
 10
11.548203724
 20
7.65403741
 30
0.0
 10
11.5557442778
 20
7.6597820847
 30
0.0
 10
11.5635968761
 20
7.6648750538
 30
0.0
 10
11.571716903
 20
7.66930455
 30
0.0
 10
11.580061583
 20
7.6730621406
 30
0.0
 10
11.5885899869
 20
7.6761420026
 30
0.0
 10
11.5972629086
 20
7.6785403157
 30
0.0
 10
11.6060429097
 20
7.6802547014
 30
0.0
 10
11.6148929492
 20
7.6812837908
 30
0.0
 10
11.6208197223
 20
7.6815126007
 30
0.0
 10
11.6237788452
 20
7.6815126007
 30
0.0
 11
11.498778761
 21
7.5457175497
 31
0.0
 11
11.4991657539
 21
7.5563947906
 31
0.0
 11
11.5003226157
 21
7.5669941393
 31
0.0
 11
11.5022368852
 21
7.5774380164
 31
0.0
 11
11.5048882781
 21
7.5876523708
 31
0.0
 11
11.5082493842
 21
7.5975673711
 31
0.0
 11
11.5122865676
 21
7.6071184507
 31
0.0
 11
11.51696101
 21
7.616247092
 31
0.0
 11
11.5222298628
 21
7.6249013832
 31
0.0
 11
11.5280473427
 21
7.6330361642
 31
0.0
 11
11.5343659202
 21
7.6406131278
 31
0.0
 11
11.541137196
 21
7.6476003843
 31
0.0
 11
11.5483129068
 21
7.6539721755
 31
0.0
 11
11.5558455256
 21
7.6597081573
 31
0.0
 11
11.5636888388
 21
7.6647927637
 31
0.0
 11
11.571798354
 21
7.6692144958
 31
0.0
 11
11.5801313345
 21
7.6729650988
 31
0.0
 11
11.5886470656
 21
7.676038982
 31
0.0
 11
11.5973064986
 21
7.6784324639
 31
0.0
 11
11.6060722227
 21
7.6801433045
 31
0.0
 11
11.6149080812
 21
7.6811702276
 31
0.0
 11
11.6237788452
 21
7.6815126007
 31
0.0
  0
SPLINE
  5
3F6
100
AcDbEntity
  8
0
100
AcDbSpline
 62
7
  6
CONTINUOUS
 70
0
 71
3
 72
8
 73
4
 74
2
 42
0.0000001
 43
0.0000001
 44
0.0000000001
 12
-0.0088772743
 22
0.0
 32
0.0
 13
-0.0088536563
 23
0.0006842425
 33
0.0
 40
0.0
 40
0.0
 40
0.0
 40
0.0
 40
1.0
 40
1.0
 40
1.0
 40
1.0
 10
11.623778761
 20
7.4099225031
 30
0.0
 10
11.6208196696
 20
7.4099225031
 30
0.0
 10
11.61785931
 20
7.4100367914
 30
0.0
 10
11.6149080912
 20
7.4102648722
 30
0.0
 11
11.623778761
 21
7.4099225031
 31
0.0
 11
11.6149080912
 21
7.4102648722
 31
0.0
  0
SPLINE
  5
3F7
100
AcDbEntity
  8
0
100
AcDbSpline
 62
7
  6
CONTINUOUS
 70
0
 71
3
 72
27
 73
23
 74
21
 42
0.0000001
 43
0.0000001
 44
0.0000000001
 12
-0.1954693359
 22
0.0151065748
 32
0.0
 13
0.0000000001
 23
0.1960336968
 33
0.0
 40
0.0
 40
0.0
 40
0.0
 40
0.0
 40
0.0453863439
 40
0.0909552853
 40
0.1367946398
 40
0.1829879908
 40
0.2296132072
 40
0.276740918
 40
0.3244329525
 40
0.3727407767
 40
0.4217039628
 40
0.4713487517
 40
0.5216867786
 40
0.5727140454
 40
0.6244102287
 40
0.6767384113
 40
0.729645317
 40
0.7830621063
 40
0.8369057636
 40
0.8910810706
 40
0.9454831161
 40
1.0
 40
1.0
 40
1.0
 40
1.0
 10
11.6149080912
 20
7.4102648722
 30
0.0
 10
11.6119508784
 20
7.4104934163
 30
0.0
 10
11.6060429482
 20
7.411180394
 30
0.0
 10
11.5972629771
 20
7.4128947696
 30
0.0
 10
11.5885900938
 20
7.4152930652
 30
0.0
 10
11.5800617258
 20
7.4183729033
 30
0.0
 10
11.5717170874
 20
7.4221304602
 30
0.0
 10
11.5635970903
 20
7.4265599205
 30
0.0
 10
11.5557445232
 20
7.4316528444
 30
0.0
 10
11.5482039905
 20
7.4373974727
 30
0.0
 10
11.5410217252
 20
7.4437779994
 30
0.0
 10
11.5342452257
 20
7.450773849
 30
0.0
 10
11.5279227217
 20
7.4583589998
 30
0.0
 10
11.5221024666
 20
7.4665014012
 30
0.0
 10
11.5168318744
 20
7.4751625327
 30
0.0
 10
11.5121565235
 20
7.4842971511
 30
0.0
 10
11.5081190684
 20
7.4938532681
 30
0.0
 10
11.5047581088
 20
7.5037723879
 30
0.0
 10
11.5021070751
 20
7.5139900229
 30
0.0
 10
11.5001931962
 20
7.5244364837
 30
0.0
 10
11.4990366149
 20
7.5350379081
 30
0.0
 10
11.498778761
 20
7.5421551682
 30
0.0
 10
11.498778761
 20
7.5457175503
 30
0.0
 11
11.6149080912
 21
7.4102648722
 31
0.0
 11
11.6060722617
 21
7.41129179
 31
0.0
 11
11.5973065639
 21
7.4130026213
 31
0.0
 11
11.5886471643
 21
7.4153960872
 31
0.0
 11
11.5801314872
 21
7.4184699399
 31
0.0
 11
11.5717985258
 21
7.4222205195
 31
0.0
 11
11.5636890613
 21
7.4266422044
 31
0.0
 11
11.5558457664
 21
7.4317267739
 31
0.0
 11
11.5483131724
 21
7.4374627066
 31
0.0
 11
11.5411374802
 21
7.4438344442
 31
0.0
 11
11.5343662031
 21
7.4508216581
 31
0.0
 11
11.5280476329
 21
7.4583985609
 31
0.0
 11
11.5222301317
 21
7.4665333103
 31
0.0
 11
11.5169612639
 21
7.4751875547
 31
0.0
 11
11.5122867924
 21
7.4843161683
 31
0.0
 11
11.5082495785
 21
7.4938672187
 31
0.0
 11
11.5048884369
 21
7.5037821987
 31
0.0
 11
11.5022370056
 21
7.5139965397
 31
0.0
 11
11.5003226966
 21
7.5244404076
 31
0.0
 11
11.4991657941
 21
7.5350397562
 31
0.0
 11
11.498778761
 21
7.5457175503
 31
0.0
  0
SPLINE
  5
3F8
100
AcDbEntity
  8
0
100
AcDbSpline
 62
7
  6
CONTINUOUS
 70
0
 71
3
 72
8
 73
4
 74
2
 42
0.0000001
 43
0.0000001
 44
0.0000000001
 12
-0.0088772743
 22
0.0
 32
0.0
 13
-0.0088536562
 23
0.0006842425
 33
0.0
 40
0.0
 40
0.0
 40
0.0
 40
0.0
 40
1.0
 40
1.0
 40
1.0
 40
1.0
 10
10.9057788258
 20
7.4099225031
 30
0.0
 10
10.9028197344
 20
7.4099225031
 30
0.0
 10
10.8998593748
 20
7.4100367914
 30
0.0
 10
10.8969081561
 20
7.4102648722
 30
0.0
 11
10.9057788258
 21
7.4099225031
 31
0.0
 11
10.8969081561
 21
7.4102648722
 31
0.0
  0
SPLINE
  5
3F9
100
AcDbEntity
  8
0
100
AcDbSpline
 62
7
  6
CONTINUOUS
 70
0
 71
3
 72
27
 73
23
 74
21
 42
0.0000001
 43
0.0000001
 44
0.0000000001
 12
-0.195469336
 22
0.0151065747
 32
0.0
 13
0.0000000001
 23
0.1960336968
 33
0.0
 40
0.0
 40
0.0
 40
0.0
 40
0.0
 40
0.0453863429
 40
0.0909552837
 40
0.1367946375
 40
0.1829879878
 40
0.2296132035
 40
0.2767409136
 40
0.3244329474
 40
0.3727407708
 40
0.4217039562
 40
0.4713487442
 40
0.5216867704
 40
0.5727140363
 40
0.6244102188
 40
0.6767384005
 40
0.7296453053
 40
0.7830620937
 40
0.8369057502
 40
0.8910810563
 40
0.9454831011
 40
1.0
 40
1.0
 40
1.0
 40
1.0
 10
10.8969081561
 20
7.4102648722
 30
0.0
 10
10.8939509433
 20
7.4104934163
 30
0.0
 10
10.8880430133
 20
7.411180394
 30
0.0
 10
10.8792630423
 20
7.4128947695
 30
0.0
 10
10.8705901592
 20
7.415293065
 30
0.0
 10
10.8620617912
 20
7.418372903
 30
0.0
 10
10.8537171529
 20
7.4221304599
 30
0.0
 10
10.8455971559
 20
7.42655992
 30
0.0
 10
10.8377445889
 20
7.4316528438
 30
0.0
 10
10.8302040563
 20
7.4373974719
 30
0.0
 10
10.823021791
 20
7.4437779985
 30
0.0
 10
10.8162452916
 20
7.4507738479
 30
0.0
 10
10.8099227875
 20
7.4583589985
 30
0.0
 10
10.8041025325
 20
7.4665013997
 30
0.0
 10
10.7988319403
 20
7.4751625309
 30
0.0
 10
10.7941565893
 20
7.4842971491
 30
0.0
 10
10.7901191341
 20
7.4938532659
 30
0.0
 10
10.7867581743
 20
7.5037723856
 30
0.0
 10
10.7841071405
 20
7.5139900203
 30
0.0
 10
10.7821932615
 20
7.524436481
 30
0.0
 10
10.7810366798
 20
7.5350379062
 30
0.0
 10
10.7807788258
 20
7.5421551672
 30
0.0
 10
10.7807788258
 20
7.5457175503
 30
0.0
 11
10.8969081561
 21
7.4102648722
 31
0.0
 11
10.8880723268
 21
7.41129179
 31
0.0
 11
10.8793066291
 21
7.4130026212
 31
0.0
 11
10.8706472296
 21
7.415396087
 31
0.0
 11
10.8621315526
 21
7.4184699396
 31
0.0
 11
10.8537985913
 21
7.4222205191
 31
0.0
 11
10.8456891269
 21
7.4266422039
 31
0.0
 11
10.8378458321
 21
7.4317267733
 31
0.0
 11
10.8303132381
 21
7.4374627058
 31
0.0
 11
10.823137546
 21
7.4438344433
 31
0.0
 11
10.816366269
 21
7.450821657
 31
0.0
 11
10.8100476987
 21
7.4583985596
 31
0.0
 11
10.8042301976
 21
7.4665333088
 31
0.0
 11
10.7989613298
 21
7.4751875529
 31
0.0
 11
10.7942868581
 21
7.4843161663
 31
0.0
 11
10.7902496441
 21
7.4938672165
 31
0.0
 11
10.7868885024
 21
7.5037821963
 31
0.0
 11
10.784237071
 21
7.5139965372
 31
0.0
 11
10.7823227618
 21
7.5244404048
 31
0.0
 11
10.7811658592
 21
7.5350397533
 31
0.0
 11
10.7807788258
 21
7.5457175503
 31
0.0
  0
SPLINE
  5
3FA
100
AcDbEntity
  8
0
100
AcDbSpline
 62
7
  6
CONTINUOUS
 70
0
 71
3
 72
17
 73
13
 74
11
 42
0.0000001
 43
0.0000001
 44
0.0000000001
 12
0.0577941153
 22
-0.0704254835
 32
0.0
 13
0.090028708
 23
-0.0139453132
 33
0.0
 40
0.0
 40
0.0
 40
0.0
 40
0.0
 40
0.0542533634
 40
0.159813211
 40
0.2652376267
 40
0.3705291971
 40
0.4756936038
 40
0.5807394784
 40
0.6856781899
 40
0.7905235726
 40
0.8952916004
 40
1.0
 40
1.0
 40
1.0
 40
1.0
 10
11.5274425044
 20
7.4654681253
 30
0.0
 10
11.5284876794
 20
7.4641945189
 30
0.0
 10
11.5316401524
 20
7.4605033761
 30
0.0
 10
11.5372212923
 20
7.4546874747
 30
0.0
 10
11.5443877832
 20
7.4482822969
 30
0.0
 10
11.5520142618
 20
7.4424521165
 30
0.0
 10
11.5600554067
 20
7.4372297057
 30
0.0
 10
11.5684638051
 20
7.4326441794
 30
0.0
 10
11.5771902355
 20
7.4287209052
 30
0.0
 10
11.5861839723
 20
7.4254814345
 30
0.0
 10
11.5953929721
 20
7.4229434533
 30
0.0
 10
11.6016420273
 20
7.4217280432
 30
0.0
 10
11.6047842813
 20
7.4212413128
 30
0.0
 11
11.5274425044
 21
7.4654681253
 31
0.0
 11
11.5306523204
 21
7.461709921
 31
0.0
 11
11.5373095395
 21
7.4547729821
 31
0.0
 11
11.5444690979
 21
7.4483742818
 31
0.0
 11
11.5520880924
 21
7.4425500788
 31
0.0
 11
11.5601212394
 21
7.4373330919
 31
0.0
 11
11.5685211692
 21
7.4327523849
 31
0.0
 11
11.5772387159
 21
7.428833278
 31
0.0
 11
11.5862231976
 21
7.4255972799
 31
0.0
 11
11.5954226888
 21
7.4230620397
 31
0.0
 11
11.6047842813
 21
7.4212413128
 31
0.0
  0
SPLINE
  5
3FB
100
AcDbEntity
  8
0
100
AcDbSpline
 62
7
  6
CONTINUOUS
 70
0
 71
3
 72
9
 73
5
 74
3
 42
0.0000001
 43
0.0000001
 44
0.0000000001
 12
0.0113076222
 22
-0.0010377315
 32
0.0
 13
0.011352037
 23
0.0
 33
0.0
 40
0.0
 40
0.0
 40
0.0
 40
0.0
 40
0.1603753491
 40
1.0
 40
1.0
 40
1.0
 40
1.0
 10
11.6124396917
 20
7.4202980496
 30
0.0
 10
11.6130441796
 20
7.420242574
 30
0.0
 10
11.6168159874
 20
7.4199243203
 30
0.0
 10
11.620601611
 20
7.4197788221
 30
0.0
 10
11.623778761
 20
7.4197788221
 30
0.0
 11
11.6124396917
 21
7.4202980496
 31
0.0
 11
11.614254345
 21
7.4201449373
 31
0.0
 11
11.623778761
 21
7.4197788221
 31
0.0
  0
SPLINE
  5
3FC
100
AcDbEntity
  8
0
100
AcDbSpline
 62
7
  6
CONTINUOUS
 70
0
 71
3
 72
19
 73
15
 74
13
 42
0.0000001
 43
0.0000001
 44
0.0000000001
 12
0.0698913098
 22
-0.0851666169
 32
0.0
 13
0.1101463316
 23
-0.0
 33
0.0
 40
0.0
 40
0.0
 40
0.0
 40
0.0
 40
0.0448632488
 40
0.1321521496
 40
0.21932906
 40
0.3063961188
 40
0.3933580243
 40
0.4802219139
 40
0.566997189
 40
0.6536952892
 40
0.7403294236
 40
0.8269142632
 40
0.9134656029
 40
1.0
 40
1.0
 40
1.0
 40
1.0
 10
10.8094425693
 20
7.4654681253
 30
0.0
 10
10.810487753
 20
7.4641945083
 30
0.0
 10
10.8136402346
 20
7.4605033566
 30
0.0
 10
10.8192213841
 20
7.4546874488
 30
0.0
 10
10.826387874
 20
7.4482822755
 30
0.0
 10
10.8340143511
 20
7.4424520994
 30
0.0
 10
10.842055494
 20
7.4372296924
 30
0.0
 10
10.85046389
 20
7.4326441696
 30
0.0
 10
10.8591903176
 20
7.4287208983
 30
0.0
 10
10.8681840513
 20
7.4254814301
 30
0.0
 10
10.8773930482
 20
7.4229434507
 30
0.0
 10
10.8867645305
 20
7.421120745
 30
0.0
 10
10.8962440515
 20
7.4200231736
 30
0.0
 10
10.902601677
 20
7.4197788221
 30
0.0
 10
10.9057788258
 20
7.4197788221
 30
0.0
 11
10.8094425693
 21
7.4654681253
 31
0.0
 11
10.8126524126
 21
7.4617098902
 31
0.0
 11
10.8193096312
 21
7.4547729561
 31
0.0
 11
10.8264691886
 21
7.4483742604
 31
0.0
 11
10.8340881817
 21
7.4425500616
 31
0.0
 11
10.8421213266
 21
7.4373330785
 31
0.0
 11
10.850521254
 21
7.432752375
 31
0.0
 11
10.8592387979
 21
7.4288332711
 31
0.0
 11
10.8682232766
 21
7.4255972754
 31
0.0
 11
10.8774227645
 21
7.4230620372
 31
0.0
 11
10.8867843548
 21
7.4212413114
 31
0.0
 11
10.8962544135
 21
7.420144937
 31
0.0
 11
10.9057788258
 21
7.4197788221
 31
0.0
  0
SPLINE
  5
3FD
100
AcDbEntity
  8
0
100
AcDbSpline
 62
7
  6
CONTINUOUS
 70
0
 71
3
 72
19
 73
15
 74
13
 42
0.0000001
 43
0.0000001
 44
0.0000000001
 12
0.1101463316
 22
0.0
 32
0.0
 13
0.0698913097
 23
0.0851666169
 33
0.0
 40
0.0
 40
0.0
 40
0.0
 40
0.0
 40
0.0865344685
 40
0.1730858796
 40
0.2596707907
 40
0.3463049968
 40
0.4330031688
 40
0.5197785158
 40
0.6066424776
 40
0.6936044554
 40
0.7806715867
 40
0.8678485699
 40
0.9551375436
 40
1.0
 40
1.0
 40
1.0
 40
1.0
 10
10.9057788258
 20
7.4197788221
 30
0.0
 10
10.9089559773
 20
7.4197788221
 30
0.0
 10
10.9153136081
 20
7.420023174
 30
0.0
 10
10.9247931368
 20
7.4211207472
 30
0.0
 10
10.9341646265
 20
7.4229434559
 30
0.0
 10
10.9433736305
 20
7.4254814395
 30
0.0
 10
10.9523673707
 20
7.4287209129
 30
0.0
 10
10.9610938043
 20
7.4326441905
 30
0.0
 10
10.9695022054
 20
7.4372297206
 30
0.0
 10
10.9775433525
 20
7.4424521357
 30
0.0
 10
10.9851698328
 20
7.4482823208
 30
0.0
 10
10.9923363249
 20
7.4546875038
 30
0.0
 10
10.997917454
 20
7.4605033981
 30
0.0
 10
11.0010699172
 20
7.4641945308
 30
0.0
 10
11.0021150824
 20
7.4654681253
 30
0.0
 11
10.9057788258
 21
7.4197788221
 31
0.0
 11
10.915303246
 21
7.4201449376
 31
0.0
 11
10.9247733124
 21
7.4212413138
 31
0.0
 11
10.9341349102
 21
7.4230620426
 31
0.0
 11
10.9433344051
 21
7.425597285
 31
0.0
 11
10.9523188903
 21
7.4288332858
 31
0.0
 11
10.9610364401
 21
7.4327523961
 31
0.0
 11
10.9694363726
 21
7.4373331068
 31
0.0
 11
10.9774695218
 21
7.4425500981
 31
0.0
 11
10.985088518
 21
7.4483743059
 31
0.0
 11
10.9922480776
 21
7.4547730112
 31
0.0
 11
10.9989052971
 21
7.4617099555
 31
0.0
 11
11.0021150824
 21
7.4654681253
 31
0.0
  0
SPLINE
  5
3FE
100
AcDbEntity
  8
0
100
AcDbSpline
 62
7
  6
CONTINUOUS
 70
0
 71
3
 72
17
 73
13
 74
11
 42
0.0000001
 43
0.0000001
 44
0.0000000001
 12
0.0894156006
 22
0.0142615184
 32
0.0
 13
0.0574408422
 23
0.0699949996
 33
0.0
 40
0.0
 40
0.0
 40
0.0
 40
0.0
 40
0.0992021843
 40
0.2046145624
 40
0.3101047711
 40
0.4156888826
 40
0.5213808164
 40
0.6271920113
 40
0.7331311519
 40
0.8392039549
 40
0.9454130227
 40
1.0
 40
1.0
 40
1.0
 40
1.0
 10
11.6433233594
 20
7.4213277898
 30
0.0
 10
11.6462801003
 20
7.421799381
 30
0.0
 10
11.6523436383
 20
7.4229928096
 30
0.0
 10
11.6613735514
 20
7.425481435
 30
0.0
 10
11.6703672886
 20
7.428720906
 30
0.0
 10
11.6790937194
 20
7.4326441806
 30
0.0
 10
11.6875021181
 20
7.4372297073
 30
0.0
 10
11.6955432632
 20
7.4424521186
 30
0.0
 10
11.7031697419
 20
7.4482822995
 30
0.0
 10
11.710336233
 20
7.4546874778
 30
0.0
 10
11.7159173717
 20
7.4605033785
 30
0.0
 10
11.7190698436
 20
7.4641945202
 30
0.0
 10
11.7201150176
 20
7.4654681253
 30
0.0
 11
11.6433233594
 21
7.4213277898
 31
0.0
 11
11.6521348345
 21
7.42306204
 31
0.0
 11
11.6613343261
 21
7.4255972805
 31
0.0
 11
11.6703188082
 21
7.4288332789
 31
0.0
 11
11.6790363552
 21
7.4327523862
 31
0.0
 11
11.6874362854
 21
7.4373330935
 31
0.0
 11
11.6954694325
 21
7.4425500809
 31
0.0
 11
11.7030884273
 21
7.4483742845
 31
0.0
 11
11.7102479858
 21
7.4547729852
 31
0.0
 11
11.7169052049
 21
7.4617099247
 31
0.0
 11
11.7201150176
 21
7.4654681253
 31
0.0
  0
SPLINE
  5
3FF
100
AcDbEntity
  8
0
100
AcDbSpline
 62
7
  6
CONTINUOUS
 70
0
 71
3
 72
19
 73
15
 74
13
 42
0.0000001
 43
0.0000001
 44
0.0000000001
 12
0.1051119098
 22
-0.007787398
 32
0.0
 13
0.0636884265
 23
-0.0839735634
 33
0.0
 40
0.0
 40
0.0
 40
0.0
 40
0.0
 40
0.0856352718
 40
0.1713920138
 40
0.2573308762
 40
0.3435069735
 40
0.4299711837
 40
0.5167685312
 40
0.6039375148
 40
0.6915092156
 40
0.7795063071
 40
0.867942763
 40
0.9568229607
 40
1.0
 40
1.0
 40
1.0
 40
1.0
 10
11.6327890127
 20
7.5116326112
 30
0.0
 10
11.6357894417
 20
7.5114103192
 30
0.0
 10
11.6417774476
 20
7.5107431483
 30
0.0
 10
11.6506698482
 20
7.5090797991
 30
0.0
 10
11.6594332933
 20
7.5067591488
 30
0.0
 10
11.6680249245
 20
7.5037894036
 30
0.0
 10
11.6764015094
 20
7.5001814007
 30
0.0
 10
11.6845198588
 20
7.4959487749
 30
0.0
 10
11.6923368592
 20
7.4911081636
 30
0.0
 10
11.6998096701
 20
7.4856794122
 30
0.0
 10
11.706895958
 20
7.4796857715
 30
0.0
 10
11.7135541881
 20
7.4731540782
 30
0.0
 10
11.7186728318
 20
7.4673330365
 30
0.0
 10
11.7215421361
 20
7.4636865045
 30
0.0
 10
11.722458762
 20
7.4624779278
 30
0.0
 11
11.6327890127
 21
7.5116326112
 31
0.0
 11
11.6417568935
 21
7.5106336068
 31
0.0
 11
11.6506390309
 21
7.5089723782
 31
0.0
 11
11.6593927296
 21
7.5066546255
 31
0.0
 11
11.6679749663
 21
7.5036885208
 31
0.0
 11
11.6763426565
 21
7.5000848318
 31
0.0
 11
11.6844526594
 21
7.4958571238
 31
0.0
 11
11.6922619232
 21
7.4910219529
 31
0.0
 11
11.6997276563
 21
7.4855990735
 31
0.0
 11
11.7068075443
 21
7.4796116541
 31
0.0
 11
11.7134600762
 21
7.4730864344
 31
0.0
 11
11.7196448695
 21
7.4660538957
 31
0.0
 11
11.722458762
 21
7.4624779278
 31
0.0
  0
SPLINE
  5
400
100
AcDbEntity
  8
0
100
AcDbSpline
 62
7
  6
CONTINUOUS
 70
0
 71
3
 72
20
 73
16
 74
14
 42
0.0000001
 43
0.0000001
 44
0.0000000001
 12
0.0691382082
 22
0.0911591511
 32
0.0
 13
0.1143860112
 23
0.0
 33
0.0
 40
0.0
 40
0.0
 40
0.0
 40
0.0
 40
0.0397737329
 40
0.121647987
 40
0.2031134766
 40
0.2841742356
 40
0.3648431359
 40
0.4451410577
 40
0.5250966371
 40
0.604745345
 40
0.684128663
 40
0.7632934293
 40
0.8422904229
 40
0.9211738959
 40
1.0
 40
1.0
 40
1.0
 40
1.0
 10
11.5250987523
 20
7.4624779178
 30
0.0
 10
11.5260153805
 20
7.4636864977
 30
0.0
 10
11.5288846872
 20
7.4673330331
 30
0.0
 10
11.5340033335
 20
7.4731540778
 30
0.0
 10
11.5406615636
 20
7.4796857711
 30
0.0
 10
11.5477478516
 20
7.485679412
 30
0.0
 10
11.5552206624
 20
7.4911081633
 30
0.0
 10
11.5630376627
 20
7.4959487745
 30
0.0
 10
11.5711560119
 20
7.5001814003
 30
0.0
 10
11.5795325971
 20
7.5037894035
 30
0.0
 10
11.5881242289
 20
7.5067591489
 30
0.0
 10
11.5968876741
 20
7.5090797991
 30
0.0
 10
11.605780013
 20
7.5107431368
 30
0.0
 10
11.6147575987
 20
7.5117434073
 30
0.0
 10
11.6207732265
 20
7.511965967
 30
0.0
 10
11.623778761
 20
7.511965967
 30
0.0
 11
11.5250987523
 21
7.4624779178
 31
0.0
 11
11.5279126521
 21
7.4660538953
 31
0.0
 11
11.5340974454
 21
7.473086434
 31
0.0
 11
11.5407499773
 21
7.4796116538
 31
0.0
 11
11.5478298653
 21
7.4855990733
 31
0.0
 11
11.5552955986
 21
7.4910219528
 31
0.0
 11
11.563104862
 21
7.4958571235
 31
0.0
 11
11.5712148645
 21
7.5000848313
 31
0.0
 11
11.5795825549
 21
7.5036885205
 31
0.0
 11
11.5881647932
 21
7.5066546257
 31
0.0
 11
11.5969184918
 21
7.5089723784
 31
0.0
 11
11.6058006281
 21
7.5106336067
 31
0.0
 11
11.6147683223
 21
7.5116325974
 31
0.0
 11
11.623778761
 21
7.511965967
 31
0.0
  0
SPLINE
  5
401
100
AcDbEntity
  8
0
100
AcDbSpline
 62
7
  6
CONTINUOUS
 70
0
 71
3
 72
19
 73
15
 74
13
 42
0.0000001
 43
0.0000001
 44
0.0000000001
 12
0.1051119094
 22
-0.0077873983
 32
0.0
 13
0.0636884263
 23
-0.0839735631
 33
0.0
 40
0.0
 40
0.0
 40
0.0
 40
0.0
 40
0.0856352686
 40
0.1713920109
 40
0.2573308736
 40
0.3435069713
 40
0.4299711818
 40
0.5167685296
 40
0.6039375135
 40
0.6915092146
 40
0.7795063064
 40
0.8679427627
 40
0.9568229607
 40
1.0
 40
1.0
 40
1.0
 40
1.0
 10
10.9147890779
 20
7.5116326112
 30
0.0
 10
10.9177895068
 20
7.5114103192
 30
0.0
 10
10.9237775126
 20
7.5107431483
 30
0.0
 10
10.9326699131
 20
7.5090797991
 30
0.0
 10
10.9414333582
 20
7.5067591488
 30
0.0
 10
10.9500249894
 20
7.5037894036
 30
0.0
 10
10.9584015742
 20
7.5001814007
 30
0.0
 10
10.9665199236
 20
7.4959487749
 30
0.0
 10
10.9743369241
 20
7.4911081636
 30
0.0
 10
10.981809735
 20
7.4856794122
 30
0.0
 10
10.9888960228
 20
7.4796857714
 30
0.0
 10
10.995554253
 20
7.4731540782
 30
0.0
 10
11.0006728967
 20
7.4673330365
 30
0.0
 10
11.003542201
 20
7.4636865045
 30
0.0
 10
11.0044588269
 20
7.4624779278
 30
0.0
 11
10.9147890779
 21
7.5116326112
 31
0.0
 11
10.9237569583
 21
7.5106336068
 31
0.0
 11
10.9326390957
 21
7.5089723782
 31
0.0
 11
10.9413927945
 21
7.5066546255
 31
0.0
 11
10.9499750311
 21
7.5036885208
 31
0.0
 11
10.9583427213
 21
7.5000848318
 31
0.0
 11
10.9664527243
 21
7.4958571238
 31
0.0
 11
10.9742619881
 21
7.4910219529
 31
0.0
 11
10.9817277212
 21
7.4855990735
 31
0.0
 11
10.9888076091
 21
7.4796116541
 31
0.0
 11
10.9954601411
 21
7.4730864344
 31
0.0
 11
11.0016449344
 21
7.4660538957
 31
0.0
 11
11.0044588269
 21
7.4624779278
 31
0.0
  0
SPLINE
  5
402
100
AcDbEntity
  8
0
100
AcDbSpline
 62
7
  6
CONTINUOUS
 70
0
 71
3
 72
20
 73
16
 74
14
 42
0.0000001
 43
0.0000001
 44
0.0000000001
 12
0.0691382082
 22
0.0911591511
 32
0.0
 13
0.1143860112
 23
-0.0
 33
0.0
 40
0.0
 40
0.0
 40
0.0
 40
0.0
 40
0.0397737328
 40
0.1216479869
 40
0.2031134765
 40
0.2841742355
 40
0.3648431359
 40
0.4451410576
 40
0.525096637
 40
0.6047453449
 40
0.684128663
 40
0.7632934293
 40
0.8422904229
 40
0.9211738959
 40
1.0
 40
1.0
 40
1.0
 40
1.0
 10
10.8070988172
 20
7.4624779178
 30
0.0
 10
10.8080154454
 20
7.4636864977
 30
0.0
 10
10.810884752
 20
7.4673330331
 30
0.0
 10
10.8160033983
 20
7.4731540778
 30
0.0
 10
10.8226616285
 20
7.4796857711
 30
0.0
 10
10.8297479164
 20
7.485679412
 30
0.0
 10
10.8372207273
 20
7.4911081633
 30
0.0
 10
10.8450377275
 20
7.4959487745
 30
0.0
 10
10.8531560767
 20
7.5001814003
 30
0.0
 10
10.861532662
 20
7.5037894035
 30
0.0
 10
10.8701242937
 20
7.5067591489
 30
0.0
 10
10.878887739
 20
7.5090797991
 30
0.0
 10
10.8877800779
 20
7.5107431368
 30
0.0
 10
10.8967576635
 20
7.5117434073
 30
0.0
 10
10.9027732913
 20
7.511965967
 30
0.0
 10
10.9057788258
 20
7.511965967
 30
0.0
 11
10.8070988172
 21
7.4624779178
 31
0.0
 11
10.809912717
 21
7.4660538952
 31
0.0
 11
10.8160975103
 21
7.473086434
 31
0.0
 11
10.8227500422
 21
7.4796116538
 31
0.0
 11
10.8298299302
 21
7.4855990733
 31
0.0
 11
10.8372956634
 21
7.4910219528
 31
0.0
 11
10.8451049269
 21
7.4958571235
 31
0.0
 11
10.8532149294
 21
7.5000848313
 31
0.0
 11
10.8615826198
 21
7.5036885205
 31
0.0
 11
10.8701648581
 21
7.5066546257
 31
0.0
 11
10.8789185566
 21
7.5089723784
 31
0.0
 11
10.8878006929
 21
7.5106336067
 31
0.0
 11
10.8967683871
 21
7.5116325974
 31
0.0
 11
10.9057788258
 21
7.511965967
 31
0.0
  0
SPLINE
  5
403
100
AcDbEntity
  8
0
100
AcDbSpline
 62
7
  6
CONTINUOUS
 70
0
 71
3
 72
8
 73
4
 74
2
 42
0.0000001
 43
0.0000001
 44
0.0000000001
 12
-0.0
 22
-0.0106869601
 32
0.0
 13
-0.0007738837
 23
-0.010658905
 33
0.0
 40
0.0
 40
0.0
 40
0.0
 40
0.0
 40
1.0
 40
1.0
 40
1.0
 40
1.0
 10
11.0307788258
 20
7.5457175502
 30
0.0
 10
11.0307788258
 20
7.5421552302
 30
0.0
 10
11.0306497675
 20
7.5385929101
 30
0.0
 10
11.0303918062
 20
7.5350399418
 30
0.0
 11
11.0307788258
 21
7.5457175502
 31
0.0
 11
11.0303918062
 21
7.5350399418
 31
0.0
  0
SPLINE
  5
404
100
AcDbEntity
  8
0
100
AcDbSpline
 62
7
  6
CONTINUOUS
 70
0
 71
3
 72
26
 73
22
 74
20
 42
0.0000001
 43
0.0000001
 44
0.0000000001
 12
-0.0134216666
 22
-0.1848601678
 32
0.0
 13
-0.1848131409
 23
-0.0142830277
 33
0.0
 40
0.0
 40
0.0
 40
0.0
 40
0.0
 40
0.0575403059
 40
0.1148392952
 40
0.1717875118
 40
0.228284247
 40
0.2842416992
 40
0.3395870595
 40
0.3942639803
 40
0.4482334158
 40
0.501473871
 40
0.5539811172
 40
0.6057674607
 40
0.6568606554
 40
0.7073025551
 40
0.7571475934
 40
0.8064611644
 40
0.8553179695
 40
0.9038003673
 40
0.9519967605
 40
1.0
 40
1.0
 40
1.0
 40
1.0
 10
11.0303918062
 20
7.5350399418
 30
0.0
 10
11.0301343773
 20
7.531494305
 30
0.0
 10
11.0293643946
 20
7.5244364884
 30
0.0
 10
11.0274504938
 20
7.5139899422
 30
0.0
 10
11.0247994558
 20
7.5037723138
 30
0.0
 10
11.0214384926
 20
7.4938532006
 30
0.0
 10
11.0174010349
 20
7.4842970904
 30
0.0
 10
11.0127256822
 20
7.4751624788
 30
0.0
 10
11.0074550889
 20
7.466501354
 30
0.0
 10
11.0016348336
 20
7.4583589591
 30
0.0
 10
10.9953123299
 20
7.4507738144
 30
0.0
 10
10.9885358314
 20
7.4437779706
 30
0.0
 10
10.9813535676
 20
7.4373974492
 30
0.0
 10
10.9738130369
 20
7.4316528257
 30
0.0
 10
10.9659604723
 20
7.4265599062
 30
0.0
 10
10.957840478
 20
7.4221304497
 30
0.0
 10
10.9494958428
 20
7.418372896
 30
0.0
 10
10.940967478
 20
7.4152930605
 30
0.0
 10
10.9322945984
 20
7.412894767
 30
0.0
 10
10.9235146326
 20
7.4111803933
 30
0.0
 10
10.9176067068
 20
7.4104934162
 30
0.0
 10
10.9146494969
 20
7.4102648723
 30
0.0
 11
11.0303918062
 21
7.5350399418
 31
0.0
 11
11.0292348776
 21
7.5244403208
 31
0.0
 11
11.0273205634
 21
7.5139964591
 31
0.0
 11
11.0246691278
 21
7.5037821245
 31
0.0
 11
11.0213079827
 21
7.4938671512
 31
0.0
 11
11.0172707661
 21
7.4843161076
 31
0.0
 11
11.0125962928
 21
7.4751875008
 31
0.0
 11
11.007327424
 21
7.4665332631
 31
0.0
 11
11.0015099225
 21
7.4583985202
 31
0.0
 11
10.9951913526
 21
7.4508216235
 31
0.0
 11
10.9884200765
 21
7.4438344154
 31
0.0
 11
10.9812443859
 21
7.4374626831
 31
0.0
 11
10.9737117939
 21
7.4317267552
 31
0.0
 11
10.9658685014
 21
7.42664219
 31
0.0
 11
10.9577590397
 21
7.4222205089
 31
0.0
 11
10.9494260814
 21
7.4184699325
 31
0.0
 11
10.9409104077
 21
7.4153960824
 31
0.0
 11
10.9322510116
 21
7.4130026186
 31
0.0
 11
10.9234853174
 21
7.4112917888
 31
0.0
 11
10.9146494969
 21
7.4102648723
 31
0.0
  0
SPLINE
  5
405
100
AcDbEntity
  8
0
100
AcDbSpline
 62
7
  6
CONTINUOUS
 70
0
 71
3
 72
8
 73
4
 74
2
 42
0.0000001
 43
0.0000001
 44
0.0000000001
 12
-0.0
 22
-0.0106869645
 32
0.0
 13
-0.0007738843
 23
-0.0106589094
 33
0.0
 40
0.0
 40
0.0
 40
0.0
 40
0.0
 40
1.0
 40
1.0
 40
1.0
 40
1.0
 10
11.748778761
 20
7.5457175502
 30
0.0
 10
11.748778761
 20
7.5421552287
 30
0.0
 10
11.7486497025
 20
7.5385929072
 30
0.0
 10
11.7483917411
 20
7.5350399374
 30
0.0
 11
11.748778761
 21
7.5457175502
 31
0.0
 11
11.7483917411
 21
7.5350399374
 31
0.0
  0
SPLINE
  5
406
100
AcDbEntity
  8
0
100
AcDbSpline
 62
7
  6
CONTINUOUS
 70
0
 71
3
 72
26
 73
22
 74
20
 42
0.0000001
 43
0.0000001
 44
0.0000000001
 12
-0.0134216719
 22
-0.1848601632
 32
0.0
 13
-0.1848131367
 23
-0.0142830271
 33
0.0
 40
0.0
 40
0.0
 40
0.0
 40
0.0
 40
0.0575402984
 40
0.1148392882
 40
0.1717875052
 40
0.2282842408
 40
0.2842416933
 40
0.3395870541
 40
0.3942639752
 40
0.4482334111
 40
0.5014738666
 40
0.5539811132
 40
0.6057674571
 40
0.6568606521
 40
0.7073025523
 40
0.7571475909
 40
0.8064611623
 40
0.8553179678
 40
0.9038003661
 40
0.9519967598
 40
1.0
 40
1.0
 40
1.0
 40
1.0
 10
11.7483917411
 20
7.5350399374
 30
0.0
 10
11.7481343121
 20
7.5314943011
 30
0.0
 10
11.7473643292
 20
7.5244364852
 30
0.0
 10
11.7454504284
 20
7.5139899396
 30
0.0
 10
11.7427993902
 20
7.5037723114
 30
0.0
 10
11.739438427
 20
7.4938531984
 30
0.0
 10
11.7354009691
 20
7.4842970885
 30
0.0
 10
11.7307256163
 20
7.4751624771
 30
0.0
 10
11.7254550231
 20
7.4665013525
 30
0.0
 10
11.7196347677
 20
7.4583589577
 30
0.0
 10
11.713312264
 20
7.4507738133
 30
0.0
 10
11.7065357656
 20
7.4437779697
 30
0.0
 10
11.6993535018
 20
7.4373974484
 30
0.0
 10
11.6918129712
 20
7.4316528251
 30
0.0
 10
11.6839604067
 20
7.4265599057
 30
0.0
 10
11.6758404125
 20
7.4221304493
 30
0.0
 10
11.6674957773
 20
7.4183728957
 30
0.0
 10
11.6589674127
 20
7.4152930604
 30
0.0
 10
11.6502945332
 20
7.4128947669
 30
0.0
 10
11.6415145675
 20
7.4111803932
 30
0.0
 10
11.6356066417
 20
7.4104934161
 30
0.0
 10
11.6326494319
 20
7.4102648723
 30
0.0
 11
11.7483917411
 21
7.5350399374
 31
0.0
 11
11.7472348123
 21
7.524440318
 31
0.0
 11
11.745320498
 21
7.5139964565
 31
0.0
 11
11.7426690622
 21
7.5037821221
 31
0.0
 11
11.7393079171
 21
7.4938671491
 31
0.0
 11
11.7352707004
 21
7.4843161057
 31
0.0
 11
11.730596227
 21
7.4751874991
 31
0.0
 11
11.7253273581
 21
7.4665332616
 31
0.0
 11
11.7195098566
 21
7.4583985189
 31
0.0
 11
11.7131912868
 21
7.4508216224
 31
0.0
 11
11.7064200107
 21
7.4438344144
 31
0.0
 11
11.6992443201
 21
7.4374626823
 31
0.0
 11
11.6917117282
 21
7.4317267546
 31
0.0
 11
11.6838684358
 21
7.4266421895
 31
0.0
 11
11.6757589742
 21
7.4222205085
 31
0.0
 11
11.667426016
 21
7.4184699323
 31
0.0
 11
11.6589103424
 21
7.4153960823
 31
0.0
 11
11.6502509464
 21
7.4130026186
 31
0.0
 11
11.6414852523
 21
7.4112917888
 31
0.0
 11
11.6326494319
 21
7.4102648723
 31
0.0
  0
SPLINE
  5
407
100
AcDbEntity
  8
0
100
AcDbSpline
 62
7
  6
CONTINUOUS
 70
0
 71
3
 72
28
 73
24
 74
22
 42
0.0000001
 43
0.0000001
 44
0.0000000001
 12
0.2048679658
 22
-0.0
 32
0.0
 13
-0.0000000001
 23
-0.2049128365
 33
0.0
 40
0.0
 40
0.0
 40
0.0
 40
0.0
 40
0.0433316687
 40
0.0867513442
 40
0.1303457067
 40
0.1741987654
 40
0.2183904817
 40
0.2629953502
 40
0.3080809393
 40
0.3537063991
 40
0.3999209654
 40
0.4467624955
 40
0.4942560932
 40
0.5424128894
 40
0.5912290592
 40
0.6406851599
 40
0.6907458738
 40
0.7413602334
 40
0.7924623821
 40
0.8439729017
 40
0.8958006997
 40
0.9478454111
 40
1.0
 40
1.0
 40
1.0
 40
1.0
 10
10.9057789049
 20
7.6815126005
 30
0.0
 10
10.9087379952
 20
7.6815126005
 30
0.0
 10
10.9146647242
 20
7.6812837805
 30
0.0
 10
10.9235147095
 20
7.680254696
 30
0.0
 10
10.932294676
 20
7.6785403151
 30
0.0
 10
10.9409675545
 20
7.6761420157
 30
0.0
 10
10.9494959177
 20
7.6730621742
 30
0.0
 10
10.9578405511
 20
7.6693046146
 30
0.0
 10
10.9659605431
 20
7.6648751522
 30
0.0
 10
10.9738131051
 20
7.6597822268
 30
0.0
 10
10.9813536327
 20
7.6540375977
 30
0.0
 10
10.9885358931
 20
7.6476570708
 30
0.0
 10
10.9953123878
 20
7.6406612217
 30
0.0
 10
11.0016348872
 20
7.633076072
 30
0.0
 10
11.0074551379
 20
7.6249336724
 30
0.0
 10
11.0127257261
 20
7.6162725432
 30
0.0
 10
11.0174010734
 20
7.6071379276
 30
0.0
 10
11.0214385253
 20
7.597581814
 30
0.0
 10
11.0247994823
 20
7.5876626979
 30
0.0
 10
11.027450514
 20
7.5774450671
 30
0.0
 10
11.0293643914
 20
7.5669986107
 30
0.0
 10
11.0305209721
 20
7.5563971899
 30
0.0
 10
11.0307788258
 20
7.5492799318
 30
0.0
 10
11.0307788258
 20
7.5457175502
 30
0.0
 11
10.9057789049
 21
7.6815126005
 31
0.0
 11
10.9146495708
 21
7.6811702225
 31
0.0
 11
10.9234853958
 21
7.6801432996
 31
0.0
 11
10.9322510891
 21
7.6784324637
 31
0.0
 11
10.940910484
 21
7.6760389938
 31
0.0
 11
10.9494261563
 21
7.6729651378
 31
0.0
 11
10.9577591126
 21
7.6692145554
 31
0.0
 11
10.9658685721
 21
7.6647928685
 31
0.0
 11
10.9737118619
 21
7.6597082975
 31
0.0
 11
10.981244451
 21
7.653972364
 31
0.0
 11
10.9884201382
 21
7.6476006261
 31
0.0
 11
10.9951914105
 21
7.6406134127
 31
0.0
 11
11.0015099761
 21
7.633036511
 31
0.0
 11
11.0073274729
 21
7.6249017633
 31
0.0
 11
11.0125963367
 21
7.6162475212
 31
0.0
 11
11.0172708046
 21
7.6071189105
 31
0.0
 11
11.0213080154
 21
7.5975678634
 31
0.0
 11
11.0246691543
 21
7.5876528872
 31
0.0
 11
11.0273205836
 21
7.5774385503
 31
0.0
 11
11.0292348912
 21
7.5669946869
 31
0.0
 11
11.0303917929
 21
7.5563953428
 31
0.0
 11
11.0307788258
 21
7.5457175502
 31
0.0
  0
SPLINE
  5
408
100
AcDbEntity
  8
0
100
AcDbSpline
 62
7
  6
CONTINUOUS
 70
0
 71
3
 72
28
 73
24
 74
22
 42
0.0000001
 43
0.0000001
 44
0.0000000001
 12
0.2048679606
 22
0.0
 32
0.0
 13
-0.0000000001
 23
-0.2049128314
 33
0.0
 40
0.0
 40
0.0
 40
0.0
 40
0.0
 40
0.0433316693
 40
0.0867513453
 40
0.1303457085
 40
0.1741987678
 40
0.2183904847
 40
0.2629953539
 40
0.3080809438
 40
0.3537064045
 40
0.3999209715
 40
0.4467625025
 40
0.4942561009
 40
0.542412898
 40
0.5912290687
 40
0.6406851701
 40
0.6907458848
 40
0.7413602452
 40
0.7924623946
 40
0.8439729149
 40
0.8958007135
 40
0.9478454256
 40
1.0
 40
1.0
 40
1.0
 40
1.0
 10
11.6237788452
 20
7.6815126007
 30
0.0
 10
11.6267379354
 20
7.6815126007
 30
0.0
 10
11.6326646644
 20
7.68128378
 30
0.0
 10
11.6415146495
 20
7.6802546953
 30
0.0
 10
11.6502946158
 20
7.678540314
 30
0.0
 10
11.6589674941
 20
7.6761420143
 30
0.0
 10
11.6674958571
 20
7.6730621725
 30
0.0
 10
11.6758404903
 20
7.6693046126
 30
0.0
 10
11.6839604821
 20
7.6648751499
 30
0.0
 10
11.6918130439
 20
7.6597822243
 30
0.0
 10
11.6993535713
 20
7.654037595
 30
0.0
 10
11.7065358314
 20
7.6476570678
 30
0.0
 10
11.7133123257
 20
7.6406612186
 30
0.0
 10
11.7196348249
 20
7.6330760688
 30
0.0
 10
11.7254550753
 20
7.624933669
 30
0.0
 10
11.7307256632
 20
7.6162725398
 30
0.0
 10
11.7354010101
 20
7.6071379241
 30
0.0
 10
11.7394384618
 20
7.5975818105
 30
0.0
 10
11.7427994185
 20
7.5876626944
 30
0.0
 10
11.7454504499
 20
7.5774450637
 30
0.0
 10
11.747364327
 20
7.5669986073
 30
0.0
 10
11.7485209073
 20
7.5563971877
 30
0.0
 10
11.748778761
 20
7.5492799307
 30
0.0
 10
11.748778761
 20
7.5457175502
 30
0.0
 11
11.6237788452
 21
7.6815126007
 31
0.0
 11
11.632649511
 21
7.6811702222
 31
0.0
 11
11.6414853358
 21
7.6801432988
 31
0.0
 11
11.650251029
 21
7.6784324626
 31
0.0
 11
11.6589104237
 21
7.6760389924
 31
0.0
 11
11.6674260957
 21
7.672965136
 31
0.0
 11
11.6757590519
 21
7.6692145534
 31
0.0
 11
11.6838685111
 21
7.6647928662
 31
0.0
 11
11.6917118007
 21
7.6597082949
 31
0.0
 11
11.6992443895
 21
7.6539723612
 31
0.0
 11
11.7064200765
 21
7.6476006232
 31
0.0
 11
11.7131913484
 21
7.6406134096
 31
0.0
 11
11.7195099138
 21
7.6330365077
 31
0.0
 11
11.7253274103
 21
7.6249017599
 31
0.0
 11
11.7305962738
 21
7.6162475178
 31
0.0
 11
11.7352707414
 21
7.607118907
 31
0.0
 11
11.7393079519
 21
7.5975678599
 31
0.0
 11
11.7426690905
 21
7.5876528837
 31
0.0
 11
11.7453205195
 21
7.5774385468
 31
0.0
 11
11.7472348268
 21
7.5669946835
 31
0.0
 11
11.7483917282
 21
7.5563953395
 31
0.0
 11
11.748778761
 21
7.5457175502
 31
0.0
  0
SPLINE
  5
409
100
AcDbEntity
  8
0
100
AcDbSpline
 62
7
  6
CONTINUOUS
 70
0
 71
3
 72
8
 73
4
 74
2
 42
0.0000001
 43
0.0000001
 44
0.0000000001
 12
0.0076235756
 22
-0.0011808805
 32
0.0
 13
0.0076825547
 23
-0.0007050491
 33
0.0
 40
0.0
 40
0.0
 40
0.0
 40
0.0
 40
1.0
 40
1.0
 40
1.0
 40
1.0
 10
11.6047842813
 20
7.4212413128
 30
0.0
 10
11.6073254731
 20
7.4208476859
 30
0.0
 10
11.6098788401
 20
7.4205330659
 30
0.0
 10
11.6124396917
 20
7.4202980496
 30
0.0
 11
11.6047842813
 21
7.4212413128
 31
0.0
 11
11.6124396917
 21
7.4202980496
 31
0.0
  0
ENDSEC
  0
SECTION
  2
OBJECTS
  0
DICTIONARY
  5
C
100
AcDbDictionary
280
0
281
1
  3
ACAD_GROUP
350
D
  3
ACAD_MLINESTYLE
350
17
  3
ACAD_LAYOUT
350
1A
  3
ACAD_PLOTSETTINGS
350
19
  3
ACAD_PLOTSTYLENAME
350
E
  0
DICTIONARY
  5
D
102
{ACAD_REACTORS
330
C
102
}
100
AcDbDictionary
280
0
281
1
  0
ACDBDICTIONARYWDFLT
  5
E
102
{ACAD_REACTORS
330
C
102
}
100
AcDbDictionary
281
1
  3
Normal
350
F
100
AcDbDictionaryWithDefault
340
F
  0
DICTIONARY
  5
17
102
{ACAD_REACTORS
330
C
102
}
100
AcDbDictionary
280
0
281
1
  3
Standard
350
18
  0
DICTIONARY
  5
19
102
{ACAD_REACTORS
330
C
102
}
100
AcDbDictionary
281
1
  0
DICTIONARY
  5
1A
102
{ACAD_REACTORS
330
C
102
}
100
AcDbDictionary
281
1
  3
Layout1
350
1E
  3
Model
350
22
  0
ACDBPLACEHOLDER
  5
F
102
{ACAD_REACTORS
330
E
102
}
  0
MLINESTYLE
  5
18
102
{ACAD_REACTORS
330
17
102
}
100
AcDbMlineStyle
  2
STANDARD
 70
0
  3

 62
256
 51
90.0
 52
90.0
 71
2
 49
0.5
 62
256
  6
BYLAYER
 49
-0.5
 62
256
  6
BYLAYER
  0
LAYOUT
  5
1E
102
{ACAD_REACTORS
330
1A
102
}
100
AcDbPlotSettings
  1

  2

  4

  6

 40
0.0
 41
0.0
 42
0.0
 43
0.0
 44
0.0
 45
0.0
 46
0.0
 47
0.0
 48
0.0
 49
0.0
140
0.0
141
0.0
142
1.0
143
1.0
 70
0
 72
0
 73
0
 74
0
  7

 75
0
147
1.0
148
0.0
149
0.0
100
AcDbLayout
  1
Layout1
 70
0
 71
0
 10
0.0
 20
0.0
 11
0.0
 21
0.0
 12
0.0
 22
0.0
 32
0.0
 14
0.0
 24
0.0
 34
0.0
 15
0.0
 25
0.0
 35
0.0
146
0.0
 13
0.0
 23
0.0
 33
0.0
 16
0.0
 26
0.0
 36
0.0
 17
0.0
 27
0.0
 37
0.0
 76
0
330
1B
331
0
345
0
346
0
  0
LAYOUT
  5
22
102
{ACAD_REACTORS
330
1A
102
}
100
AcDbPlotSettings
  1

  2

  4

  6

 40
0.0
 41
0.0
 42
0.0
 43
0.0
 44
0.0
 45
0.0
 46
0.0
 47
0.0
 48
0.0
 49
0.0
140
0.0
141
0.0
142
1.0
143
1.0
 70
0
 72
0
 73
0
 74
0
  7

 75
0
147
1.0
148
0.0
149
0.0
100
AcDbLayout
  1
Model
 70
0
 71
0
 10
0.0
 20
0.0
 11
0.0
 21
0.0
 12
0.0
 22
0.0
 32
0.0
 14
0.0
 24
0.0
 34
0.0
 15
0.0
 25
0.0
 35
0.0
146
0.0
 13
0.0
 23
0.0
 33
0.0
 16
0.0
 26
0.0
 36
0.0
 17
0.0
 27
0.0
 37
0.0
 76
0
330
1F
331
0
345
0
346
0
  0
ENDSEC
  0
EOF
