999
DXF file: FB7_assy_2.dxf
999
Pro/ENGINEER 2014200 by Parametric Technology Corporation
  0
SECTION
  2
HEADER
  9
$ACADVER
  1
AC1021
  9
$DWGCODEPAGE
  3
ANSI_1252
  9
$EXTMAX
 10
22.0
 20
17.0
 30
0.0
  9
$EXTMIN
 10
0.0
 20
0.0
 30
0.0
  9
$LIMMIN
 10
0.0
 20
0.0
  9
$LIMMAX
 10
22.0
 20
17.0
  9
$VIEWCTR
 10
11.0
 20
8.5
  9
$VIEWSIZE
 40
17.0
  9
$CLAYER
  8
0
  9
$LTSCALE
 40
1.21
  9
$CELTYPE
  6
BYLAYER
  9
$DIMSCALE
 40
1.0
  9
$DIMASZ
 40
0.1875
  9
$DIMEXO
 40
0.0625
  9
$DIMDLI
 40
0.836
  9
$DIMEXE
 40
0.125
  9
$DIMCEN
 40
0.198
  9
$DIMLFAC
 40
1.0
  9
$DIMBLK
  1
_FILLED
  9
$DIMTXT
 40
0.1
  9
$DIMTOL
 70
0
  9
$DIMLIM
 70
0
  9
$DIMTFAC
 40
1.0
  9
$DIMGAP
 40
0.09
  9
$DIMDSEP
 70
46
  9
$AUNITS
 70
0
  9
$PDMODE
 70
3
  9
$PDSIZE
 40
0.3125
  9
$HANDSEED
  5
423
  9
$TILEMODE
 70
1
  9
$MEASUREMENT
 70
0
  9
$INSUNITS
 70
1
  0
ENDSEC
  0
SECTION
  2
CLASSES
  0
CLASS
  1
ACDBDICTIONARYWDFLT
  2
AcDbDictionaryWithDefault
  3
AutoCAD 2000
 90
0
 91
1
280
0
281
0
  0
CLASS
  1
ACDBPLACEHOLDER
  2
AcDbPlaceHolder
  3
AutoCAD 2000
 90
0
 91
1
280
0
281
0
  0
CLASS
  1
LAYOUT
  2
AcDbLayout
  3
AutoCAD 2000
 90
0
 91
0
280
0
281
0
  0
CLASS
  1
RASTERVARIABLES
  2
AcDbRasterVariables
  3
ISM
 90
0
 91
1
280
0
281
0
  0
CLASS
  1
IMAGEDEF
  2
AcDbRasterImageDef
  3
ISM
 90
0
 91
1
280
0
281
0
  0
CLASS
  1
IMAGEDEF_REACTOR
  2
AcDbRasterImageDefReactor
  3
ISM
 90
0
 91
1
280
0
281
0
  0
CLASS
  1
IMAGE
  2
AcDbRasterImage
  3
ISM
 90
127
 91
1
280
0
281
1
  0
CLASS
  1
TABLESTYLE
  2
AcDbTableStyle
  3
ObjectDBX Classes
 90
2047
 91
1
280
0
281
0
  0
CLASS
  1
ACAD_TABLE
  2
AcDbTable
  3
ObjectDBX Classes
 90
1025
 91
2
280
0
281
1
  0
ENDSEC
  0
SECTION
  2
TABLES
  0
TABLE
  2
VPORT
  5
8
100
AcDbSymbolTable
 70
2
  0
VPORT
  5
1F4
100
AcDbSymbolTableRecord
100
AcDbViewportTableRecord
  2
*ACTIVE
 70
0
 10
0.0
 20
0.0
 11
1.0
 21
1.0
 12
11.0
 22
8.5
 13
0.0
 23
0.0
 14
1.0
 24
1.0
 15
0.0
 25
0.0
 16
0.0
 26
0.0
 36
1.0
 17
0.0
 27
0.0
 37
0.0
 40
17.0
 41
1.2941176471
 42
50.0
 43
0.0
 44
0.0
 50
0.0
 51
0.0
 71
0
 72
100
 73
1
 74
1
 75
0
 76
0
 77
0
 78
0
  0
ENDTAB
  0
TABLE
  2
LTYPE
  5
5
100
AcDbSymbolTable
 70
6
  0
LTYPE
  5
14
100
AcDbSymbolTableRecord
100
AcDbLinetypeTableRecord
  2
BYBLOCK
 70
0
  3

 72
65
 73
0
 40
0.0
  0
LTYPE
  5
15
100
AcDbSymbolTableRecord
100
AcDbLinetypeTableRecord
  2
BYLAYER
 70
0
  3

 72
65
 73
0
 40
0.0
  0
LTYPE
  5
16
100
AcDbSymbolTableRecord
100
AcDbLinetypeTableRecord
  2
CONTINUOUS
 70
64
  3
Solid line
 72
65
 73
0
 40
0.0
  0
LTYPE
  5
1F5
100
AcDbSymbolTableRecord
100
AcDbLinetypeTableRecord
  2
CENTER
 70
64
  3
____ _ ____ _ ____ _ ____ _ ____ _ ____ _ ____
 72
65
 73
4
 40
0.6
 49
0.375
 74
0
 49
-0.075
 74
0
 49
0.075
 74
0
 49
-0.075
 74
0
  0
LTYPE
  5
1F6
100
AcDbSymbolTableRecord
100
AcDbLinetypeTableRecord
  2
HIDDEN
 70
64
  3
- - - - - - - - - - - - - - - - - - - -
 72
65
 73
2
 40
0.2
 49
0.1
 74
0
 49
-0.1
 74
0
  0
LTYPE
  5
1F7
100
AcDbSymbolTableRecord
100
AcDbLinetypeTableRecord
  2
PHANTOM
 70
64
  3
_____ _ _ _____ _ _ _____ _ _ _____
 72
65
 73
6
 40
0.8
 49
0.45
 74
0
 49
-0.05
 74
0
 49
0.1
 74
0
 49
-0.05
 74
0
 49
0.1
 74
0
 49
-0.05
 74
0
  0
LTYPE
  5
1F8
100
AcDbSymbolTableRecord
100
AcDbLinetypeTableRecord
  2
DOT
 70
64
  3
. . . . . . . . . . . . . . . . . . . .
 72
65
 73
2
 40
0.2
 49
0.1
 74
0
 49
-0.1
 74
0
  0
LTYPE
  5
1F9
100
AcDbSymbolTableRecord
100
AcDbLinetypeTableRecord
  2
DASHED
 70
64
  3
- - - - - - - - - - - - - - - - - - - -
 72
65
 73
2
 40
0.2
 49
0.1
 74
0
 49
-0.1
 74
0
  0
ENDTAB
  0
TABLE
  2
LAYER
  5
2
100
AcDbSymbolTable
 70
36
  0
LAYER
  5
10
100
AcDbSymbolTableRecord
100
AcDbLayerTableRecord
  2
0
 70
0
 62
7
  6
CONTINUOUS
370
-3
390
F
  0
LAYER
  5
1FA
100
AcDbSymbolTableRecord
100
AcDbLayerTableRecord
  2
DEFAULT_1
 70
0
 62
7
  6
CENTER
370
-3
390
F
  0
LAYER
  5
1FB
100
AcDbSymbolTableRecord
100
AcDbLayerTableRecord
  2
DEFAULT_2
 70
0
 62
8
  6
HIDDEN
370
-3
390
F
  0
LAYER
  5
1FC
100
AcDbSymbolTableRecord
100
AcDbLayerTableRecord
  2
DEFAULT_3
 70
0
 62
7
  6
PHANTOM
370
-3
390
F
  0
LAYER
  5
1FD
100
AcDbSymbolTableRecord
100
AcDbLayerTableRecord
  2
DATUM_PLANES
 70
0
 62
7
  6
CONTINUOUS
370
-3
390
F
  0
LAYER
  5
1FE
100
AcDbSymbolTableRecord
100
AcDbLayerTableRecord
  2
DIMENSIONS
 70
0
 62
7
  6
CONTINUOUS
370
-3
390
F
  0
LAYER
  5
1FF
100
AcDbSymbolTableRecord
100
AcDbLayerTableRecord
  2
DTM_500001
 70
0
 62
7
  6
CONTINUOUS
370
-3
390
F
  0
LAYER
  5
200
100
AcDbSymbolTableRecord
100
AcDbLayerTableRecord
  2
PARAMETERDIMENSIONS
 70
0
 62
7
  6
CONTINUOUS
370
-3
390
F
  0
LAYER
  5
201
100
AcDbSymbolTableRecord
100
AcDbLayerTableRecord
  2
PORT_AREAS
 70
0
 62
7
  6
CONTINUOUS
370
-3
390
F
  0
LAYER
  5
202
100
AcDbSymbolTableRecord
100
AcDbLayerTableRecord
  2
SUNNBOMCOSMETIC
 70
0
 62
7
  6
CONTINUOUS
370
-3
390
F
  0
LAYER
  5
203
100
AcDbSymbolTableRecord
100
AcDbLayerTableRecord
  2
SUNNBOMSTAMPING
 70
0
 62
7
  6
CONTINUOUS
370
-3
390
F
  0
LAYER
  5
204
100
AcDbSymbolTableRecord
100
AcDbLayerTableRecord
  2
THREADS
 70
0
 62
7
  6
CONTINUOUS
370
-3
390
F
  0
ENDTAB
  0
TABLE
  2
STYLE
  5
3
100
AcDbSymbolTable
 70
1
  0
STYLE
  5
11
100
AcDbSymbolTableRecord
100
AcDbTextStyleTableRecord
  2
STANDARD
 70
0
 40
0.0
 41
0.8
 50
0.0
 71
0
 42
0.2
  3
txt
  4

  0
STYLE
  5
205
100
AcDbSymbolTableRecord
100
AcDbTextStyleTableRecord
  2
TEXTSTYLE_1
 70
0
 40
0.0
 41
0.8
 50
0.0
 71
0
 42
0.2
  3
gdt
  4

  0
ENDTAB
  0
TABLE
  2
VIEW
  5
6
100
AcDbSymbolTable
 70
0
  0
ENDTAB
  0
TABLE
  2
UCS
  5
7
100
AcDbSymbolTable
 70
0
  0
ENDTAB
  0
TABLE
  2
APPID
  5
9
100
AcDbSymbolTable
 70
1
  0
APPID
  5
206
100
AcDbSymbolTableRecord
100
AcDbRegAppTableRecord
  2
ACAD
 70
0
  0
ENDTAB
  0
TABLE
  2
BLOCK_RECORD
  5
1
100
AcDbSymbolTable
 70
0
  0
BLOCK_RECORD
  5
207
100
AcDbSymbolTableRecord
100
AcDbBlockTableRecord
  2
*Model_Space
  0
BLOCK_RECORD
  5
208
100
AcDbSymbolTableRecord
100
AcDbBlockTableRecord
  2
*Paper_Space
  0
BLOCK_RECORD
  5
209
100
AcDbSymbolTableRecord
100
AcDbBlockTableRecord
  2
SUN_FIRST_THIRD_ANGLE_BL0
  0
BLOCK_RECORD
  5
20A
100
AcDbSymbolTableRecord
100
AcDbBlockTableRecord
  2
*T1
  0
BLOCK_RECORD
  5
20B
100
AcDbSymbolTableRecord
100
AcDbBlockTableRecord
  2
*T2
  0
ENDTAB
  0
TABLE
  2
DIMSTYLE
  5
A
100
AcDbSymbolTable
 70
1
100
AcDbDimStyleTable
 71
0
  0
DIMSTYLE
105
20C
100
AcDbSymbolTableRecord
100
AcDbDimStyleTableRecord
  2
STANDARD
 70
0
  3

  4

 40
1.0
 41
0.1875
 42
0.0625
 43
0.38
 44
0.125
 45
0.0
 46
0.0
 47
0.001
 48
0.001
140
0.1
141
0.09
142
0.0
143
25.4
144
1.0
145
0.0
146
1.0
147
0.09
 71
0.0
 72
0.0
 73
1
 74
1
 75
0
 76
0
 77
0
 78
4
170
0
171
2
172
0
173
0
174
0
175
0
176
0
177
0
178
0
270
2
271
3
272
3
273
2
274
2
275
0
280
0
281
0
282
0
283
1
284
4
285
0
286
0
287
3
288
0
340
11
278
46
  0
ENDTAB
  0
ENDSEC
  0
SECTION
  2
BLOCKS
  0
BLOCK
  5
20
100
AcDbEntity
  8
0
100
AcDbBlockBegin
  2
*Model_Space
 70
0
 10
0.0
 20
0.0
 30
0.0
  3
*Model_Space
  1

  0
ENDBLK
  5
21
100
AcDbEntity
  8
0
100
AcDbBlockEnd
  0
BLOCK
  5
1C
100
AcDbEntity
  8
0
100
AcDbBlockBegin
  2
*Paper_Space
 70
0
 10
0.0
 20
0.0
 30
0.0
  3
*Paper_Space
  1

  0
ENDBLK
  5
1D
100
AcDbEntity
  8
0
100
AcDbBlockEnd
  0
BLOCK
  5
20D
100
AcDbEntity
  8
0
100
AcDbBlockBegin
 62
2
  6
CONTINUOUS
  2
SUN_FIRST_THIRD_ANGLE_BL0
 70
64
 10
20.4816717061
 20
1.2289683772
  3
SUN_FIRST_THIRD_ANGLE_BL0
  1

  0
TEXT
  5
20E
100
AcDbEntity
  8
0
100
AcDbText
 62
2
  6
CONTINUOUS
 10
19.4750896608
 20
1.4136269581
  7
STANDARD
 40
0.08
  1
FIRST ANGLE
 41
0.8
 72
0
100
AcDbText
  0
TEXT
  5
20F
100
AcDbEntity
  8
0
100
AcDbText
 62
2
  6
CONTINUOUS
 10
20.7842537513
 20
1.4047600029
  7
STANDARD
 40
0.08
  1
THIRD ANGLE
 41
0.8
 72
0
100
AcDbText
  0
LINE
  5
210
100
AcDbEntity
  8
0
100
AcDbLine
 62
7
  6
CONTINUOUS
 10
19.4767170086
 20
1.1727031207
 11
19.6334271527
 21
1.1717972817
  0
LINE
  5
211
100
AcDbEntity
  8
0
100
AcDbLine
 62
7
  6
CONTINUOUS
 10
19.6596964832
 20
1.1717972817
 11
19.6950230232
 21
1.171593082
  0
LINE
  5
212
100
AcDbEntity
  8
0
100
AcDbLine
 62
7
  6
CONTINUOUS
 10
19.7194818561
 20
1.1708914427
 11
19.8852396156
 21
1.1699333054
  0
LINE
  5
213
100
AcDbEntity
  8
0
100
AcDbLine
 62
7
  6
CONTINUOUS
 10
19.4758111696
 20
1.2723454088
 11
19.88525039
 21
1.3511534004
  0
LINE
  5
214
100
AcDbEntity
  8
0
100
AcDbLine
 62
7
  6
CONTINUOUS
 10
19.88525039
 20
1.3511534004
 11
19.8831348489
 21
0.9851647912
  0
LINE
  5
215
100
AcDbEntity
  8
0
100
AcDbLine
 62
7
  6
CONTINUOUS
 10
19.8831348489
 20
0.9851647912
 11
19.4767170086
 21
1.0658141206
  0
LINE
  5
216
100
AcDbEntity
  8
0
100
AcDbLine
 62
7
  6
CONTINUOUS
 10
19.4767170086
 20
1.0658141206
 11
19.4779056764
 21
1.2714536432
  0
CIRCLE
  5
217
100
AcDbEntity
  8
0
100
AcDbCircle
 62
7
  6
CONTINUOUS
 10
20.2068232291
 20
1.1717972817
 40
0.175742101
  0
CIRCLE
  5
218
100
AcDbEntity
  8
0
100
AcDbCircle
 62
7
  6
CONTINUOUS
 10
20.2068232291
 20
1.1717972817
 40
0.1005522074
  0
LINE
  5
219
100
AcDbEntity
  8
0
100
AcDbLine
 62
7
  6
CONTINUOUS
 10
20.2077290681
 20
1.3756110529
 11
20.2071171714
 21
1.2379342989
  0
LINE
  5
21A
100
AcDbEntity
  8
0
100
AcDbLine
 62
7
  6
CONTINUOUS
 10
20.2077290681
 20
1.2016899681
 11
20.2074674401
 21
1.1428236749
  0
LINE
  5
21B
100
AcDbEntity
  8
0
100
AcDbLine
 62
7
  6
CONTINUOUS
 10
20.208634907
 20
1.101141841
 11
20.2080230104
 21
0.963465087
  0
LINE
  5
21C
100
AcDbEntity
  8
0
100
AcDbLine
 62
7
  6
CONTINUOUS
 10
20.0066328138
 20
1.1745147986
 11
20.1443095678
 21
1.1739029019
  0
LINE
  5
21D
100
AcDbEntity
  8
0
100
AcDbLine
 62
7
  6
CONTINUOUS
 10
20.1832714155
 20
1.1727031207
 11
20.238153505
 21
1.172335442
  0
LINE
  5
21E
100
AcDbEntity
  8
0
100
AcDbLine
 62
7
  6
CONTINUOUS
 10
20.2756669918
 20
1.1717972817
 11
20.407916871
 21
1.1712095044
  0
CIRCLE
  5
21F
100
AcDbEntity
  8
0
100
AcDbCircle
 62
7
  6
CONTINUOUS
 10
20.7509457401
 20
1.1693297793
 40
0.1722024983
  0
CIRCLE
  5
220
100
AcDbEntity
  8
0
100
AcDbCircle
 62
7
  6
CONTINUOUS
 10
20.7509457401
 20
1.1693297793
 40
0.0985164967
  0
LINE
  5
221
100
AcDbEntity
  8
0
100
AcDbLine
 62
7
  6
CONTINUOUS
 10
20.7169767782
 20
1.170462078
 11
20.7825395137
 21
1.1682766535
  0
LINE
  5
222
100
AcDbEntity
  8
0
100
AcDbLine
 62
7
  6
CONTINUOUS
 10
20.8177513651
 20
1.1693297793
 11
20.947965719
 21
1.1693297793
  0
LINE
  5
223
100
AcDbEntity
  8
0
100
AcDbLine
 62
7
  6
CONTINUOUS
 10
20.6875370113
 20
1.170462078
 11
20.5573226574
 21
1.170462078
  0
LINE
  5
224
100
AcDbEntity
  8
0
100
AcDbLine
 62
7
  6
CONTINUOUS
 10
20.7486811426
 20
1.1987695462
 11
20.7486811426
 21
1.1432869085
  0
LINE
  5
225
100
AcDbEntity
  8
0
100
AcDbLine
 62
7
  6
CONTINUOUS
 10
20.7498134414
 20
1.1059210505
 11
20.7498134414
 21
0.9757066966
  0
LINE
  5
226
100
AcDbEntity
  8
0
100
AcDbLine
 62
7
  6
CONTINUOUS
 10
20.7486811426
 20
1.2338708068
 11
20.7486811426
 21
1.3640851607
  0
LINE
  5
227
100
AcDbEntity
  8
0
100
AcDbLine
 62
7
  6
CONTINUOUS
 10
21.0702539817
 20
1.2701043662
 11
21.4790138229
 21
1.3448360823
  0
LINE
  5
228
100
AcDbEntity
  8
0
100
AcDbLine
 62
7
  6
CONTINUOUS
 10
21.4790138229
 20
1.3448360823
 11
21.4790138229
 21
0.9779712941
  0
LINE
  5
229
100
AcDbEntity
  8
0
100
AcDbLine
 62
7
  6
CONTINUOUS
 10
21.4790138229
 20
0.9779712941
 11
21.069121683
 21
1.0617614
  0
LINE
  5
22A
100
AcDbEntity
  8
0
100
AcDbLine
 62
7
  6
CONTINUOUS
 10
21.0702539817
 20
1.2701043662
 11
21.069121683
 21
1.0617614
  0
LINE
  5
22B
100
AcDbEntity
  8
0
100
AcDbLine
 62
7
  6
CONTINUOUS
 10
21.4790138229
 20
1.1693297793
 11
21.3159628059
 21
1.1693297793
  0
LINE
  5
22C
100
AcDbEntity
  8
0
100
AcDbLine
 62
7
  6
CONTINUOUS
 10
21.2876553377
 20
1.1693297793
 11
21.2502894796
 21
1.1693297793
  0
LINE
  5
22D
100
AcDbEntity
  8
0
100
AcDbLine
 62
7
  6
CONTINUOUS
 10
21.2208497126
 20
1.1659328831
 11
21.0713862804
 21
1.1659328831
  0
LINE
  5
22E
100
AcDbEntity
  8
0
100
AcDbLine
 62
7
  6
CONTINUOUS
 10
20.4796138713
 20
1.5284908897
 11
20.4766766948
 21
0.9294458646
  0
ENDBLK
  5
22F
100
AcDbEntity
  8
0
  6
BYBLOCK
 62
0
100
AcDbBlockEnd
  0
BLOCK
  5
230
100
AcDbEntity
  8
0
100
AcDbBlockBegin
  2
*T1
 70
1
 10
0.0
 20
0.0
  3
*T1
  1

  0
LINE
  5
231
100
AcDbEntity
  8
0
100
AcDbLine
 62
2
  6
CONTINUOUS
 10
9.275
 20
0.0
 11
-0.0
 21
0.0
  0
LINE
  5
232
100
AcDbEntity
  8
0
100
AcDbLine
 62
2
  6
CONTINUOUS
 10
9.275
 20
0.0
 11
9.275
 21
1.25
  0
LINE
  5
233
100
AcDbEntity
  8
0
100
AcDbLine
 62
2
  6
CONTINUOUS
 10
9.275
 20
0.625
 11
-0.0
 21
0.625
  0
LINE
  5
234
100
AcDbEntity
  8
0
100
AcDbLine
 62
2
  6
CONTINUOUS
 10
9.275
 20
1.25
 11
-0.0
 21
1.25
  0
LINE
  5
235
100
AcDbEntity
  8
0
100
AcDbLine
 62
2
  6
CONTINUOUS
 10
6.8
 20
0.0
 11
6.8
 21
1.25
  0
LINE
  5
236
100
AcDbEntity
  8
0
100
AcDbLine
 62
2
  6
CONTINUOUS
 10
6.4
 20
0.0
 11
6.4
 21
0.625
  0
LINE
  5
237
100
AcDbEntity
  8
0
100
AcDbLine
 62
2
  6
CONTINUOUS
 10
5.9
 20
0.0
 11
5.9
 21
0.625
  0
LINE
  5
238
100
AcDbEntity
  8
0
100
AcDbLine
 62
2
  6
CONTINUOUS
 10
5.2
 20
0.0
 11
5.2
 21
0.625
  0
LINE
  5
239
100
AcDbEntity
  8
0
100
AcDbLine
 62
2
  6
CONTINUOUS
 10
4.1
 20
0.0
 11
4.1
 21
1.25
  0
LINE
  5
23A
100
AcDbEntity
  8
0
100
AcDbLine
 62
2
  6
CONTINUOUS
 10
-0.0
 20
0.0
 11
-0.0
 21
1.25
  0
MTEXT
  5
23B
100
AcDbEntity
  8
0
100
AcDbMText
 62
2
  6
CONTINUOUS
  7
STANDARD
 71
2
 72
1
 10
6.6
 20
0.325
 30
0.0
 11
1.0
 21
0.0
 31
0.0
 44
0.9
  1
2
 40
0.125
 41
0.2
  0
MTEXT
  5
23C
100
AcDbEntity
  8
0
100
AcDbMText
 62
2
  6
CONTINUOUS
  7
STANDARD
 71
2
 72
1
 10
6.15
 20
0.325
 30
0.0
 11
1.0
 21
0.0
 31
0.0
 44
0.9
  1
C
 40
0.125
 41
0.2
  0
MTEXT
  5
23D
100
AcDbEntity
  8
0
100
AcDbMText
 62
2
  6
CONTINUOUS
  7
STANDARD
 71
2
 72
1
 10
5.55
 20
0.325
 30
0.0
 11
1.0
 21
0.0
 31
0.0
 44
0.9
  1
1.000
 40
0.125
 41
1.0
  0
MTEXT
  5
23E
100
AcDbEntity
  8
0
100
AcDbMText
 62
2
  6
CONTINUOUS
  7
STANDARD
 71
2
 72
1
 10
4.65
 20
0.325
 30
0.0
 11
1.0
 21
0.0
 31
0.0
 44
0.9
  1
Sep-29-21
 40
0.125
 41
1.8
  0
MTEXT
  5
23F
100
AcDbEntity
  8
0
100
AcDbMText
 62
2
  6
CONTINUOUS
  7
STANDARD
 71
2
 72
1
 10
2.05
 20
0.4625
 30
0.0
 11
1.0
 21
0.0
 31
0.0
 44
0.9
  1
T-3A Sandwich ISO 05\PB to T, check T to A
 40
0.125
 41
4.0
  0
MTEXT
  5
240
100
AcDbEntity
  8
0
100
AcDbMText
 62
2
  6
CONTINUOUS
  7
STANDARD
 71
1
 72
1
 10
6.45
 20
0.5625
 30
0.0
 11
1.0
 21
0.0
 31
0.0
 44
0.9
  1
SHEET
 40
0.06
 41
0.48
  0
MTEXT
  5
241
100
AcDbEntity
  8
0
100
AcDbMText
 62
2
  6
CONTINUOUS
  7
STANDARD
 71
1
 72
1
 10
5.95
 20
0.5625
 30
0.0
 11
1.0
 21
0.0
 31
0.0
 44
0.9
  1
DWG SIZE
 40
0.06
 41
0.768
  0
MTEXT
  5
242
100
AcDbEntity
  8
0
100
AcDbMText
 62
2
  6
CONTINUOUS
  7
STANDARD
 71
1
 72
1
 10
5.25
 20
0.5625
 30
0.0
 11
1.0
 21
0.0
 31
0.0
 44
0.9
  1
SCALE
 40
0.06
 41
0.48
  0
MTEXT
  5
243
100
AcDbEntity
  8
0
100
AcDbMText
 62
2
  6
CONTINUOUS
  7
STANDARD
 71
1
 72
1
 10
4.15
 20
0.5625
 30
0.0
 11
1.0
 21
0.0
 31
0.0
 44
0.9
  1
DATE
 40
0.06
 41
0.384
  0
MTEXT
  5
244
100
AcDbEntity
  8
0
100
AcDbMText
 62
2
  6
CONTINUOUS
  7
STANDARD
 71
1
 72
1
 10
0.05
 20
0.5625
 30
0.0
 11
1.0
 21
0.0
 31
0.0
 44
0.9
  1
DESCRIPTION
 40
0.06
 41
1.056
  0
MTEXT
  5
245
100
AcDbEntity
  8
0
100
AcDbMText
 62
2
  6
CONTINUOUS
  7
STANDARD
 71
2
 72
1
 10
5.45
 20
1.0375
 30
0.0
 11
1.0
 21
0.0
 31
0.0
 44
0.9
  1
ALL DIMENSIONS IN INCH\PVIEWS ARE THIRD ANGLE
 40
0.12
 41
4.224
  0
MTEXT
  5
246
100
AcDbEntity
  8
0
100
AcDbMText
 62
2
  6
CONTINUOUS
  7
STANDARD
 71
2
 72
1
 10
2.05
 20
0.95
 30
0.0
 11
1.0
 21
0.0
 31
0.0
 44
0.9
  1
FB7
 40
0.125
 41
0.6
  0
MTEXT
  5
247
100
AcDbEntity
  8
0
100
AcDbMText
 62
2
  6
CONTINUOUS
  7
STANDARD
 71
1
 72
1
 10
0.05
 20
1.1875
 30
0.0
 11
1.0
 21
0.0
 31
0.0
 44
0.9
  1
MODEL
 40
0.06
 41
0.48
  0
ENDBLK
  5
248
100
AcDbEntity
  8
0
  6
BYBLOCK
 62
0
100
AcDbBlockEnd
  0
BLOCK
  5
249
100
AcDbEntity
  8
0
100
AcDbBlockBegin
  2
*T2
 70
1
 10
0.0
 20
0.0
  3
*T2
  1

  0
LINE
  5
24A
100
AcDbEntity
  8
0
100
AcDbLine
 62
2
  6
CONTINUOUS
 10
0.0
 20
0.0
 11
9.055
 21
0.0
  0
LINE
  5
24B
100
AcDbEntity
  8
0
100
AcDbLine
 62
2
  6
CONTINUOUS
 10
0.0
 20
0.0
 11
0.0
 21
-3.094
  0
LINE
  5
24C
100
AcDbEntity
  8
0
100
AcDbLine
 62
2
  6
CONTINUOUS
 10
0.0
 20
-0.344
 11
9.055
 21
-0.344
  0
LINE
  5
24D
100
AcDbEntity
  8
0
100
AcDbLine
 62
2
  6
CONTINUOUS
 10
0.0
 20
-0.594
 11
9.055
 21
-0.594
  0
LINE
  5
24E
100
AcDbEntity
  8
0
100
AcDbLine
 62
2
  6
CONTINUOUS
 10
0.0
 20
-0.844
 11
9.055
 21
-0.844
  0
LINE
  5
24F
100
AcDbEntity
  8
0
100
AcDbLine
 62
2
  6
CONTINUOUS
 10
0.0
 20
-1.094
 11
9.055
 21
-1.094
  0
LINE
  5
250
100
AcDbEntity
  8
0
100
AcDbLine
 62
2
  6
CONTINUOUS
 10
0.0
 20
-1.344
 11
9.055
 21
-1.344
  0
LINE
  5
251
100
AcDbEntity
  8
0
100
AcDbLine
 62
2
  6
CONTINUOUS
 10
0.0
 20
-1.594
 11
9.055
 21
-1.594
  0
LINE
  5
252
100
AcDbEntity
  8
0
100
AcDbLine
 62
2
  6
CONTINUOUS
 10
0.0
 20
-1.844
 11
9.055
 21
-1.844
  0
LINE
  5
253
100
AcDbEntity
  8
0
100
AcDbLine
 62
2
  6
CONTINUOUS
 10
0.0
 20
-2.094
 11
9.055
 21
-2.094
  0
LINE
  5
254
100
AcDbEntity
  8
0
100
AcDbLine
 62
2
  6
CONTINUOUS
 10
0.0
 20
-2.344
 11
9.055
 21
-2.344
  0
LINE
  5
255
100
AcDbEntity
  8
0
100
AcDbLine
 62
2
  6
CONTINUOUS
 10
0.0
 20
-2.594
 11
9.055
 21
-2.594
  0
LINE
  5
256
100
AcDbEntity
  8
0
100
AcDbLine
 62
2
  6
CONTINUOUS
 10
0.0
 20
-2.844
 11
9.055
 21
-2.844
  0
LINE
  5
257
100
AcDbEntity
  8
0
100
AcDbLine
 62
2
  6
CONTINUOUS
 10
0.0
 20
-3.094
 11
9.055
 21
-3.094
  0
LINE
  5
258
100
AcDbEntity
  8
0
100
AcDbLine
 62
2
  6
CONTINUOUS
 10
3.055
 20
0.0
 11
3.055
 21
-3.094
  0
LINE
  5
259
100
AcDbEntity
  8
0
100
AcDbLine
 62
2
  6
CONTINUOUS
 10
9.055
 20
0.0
 11
9.055
 21
-3.094
  0
MTEXT
  5
25A
100
AcDbEntity
  8
0
100
AcDbMText
 62
2
  6
CONTINUOUS
  7
STANDARD
 71
2
 72
1
 10
1.5275
 20
-0.0995
 30
0.0
 11
1.0
 21
0.0
 31
0.0
 44
0.9
  1
Technical Data
 40
0.145
 41
3.248
  0
MTEXT
  5
25B
100
AcDbEntity
  8
0
100
AcDbMText
 62
2
  6
CONTINUOUS
  7
STANDARD
 71
2
 72
1
 10
4.555
 20
-0.0995
 30
0.0
 11
1.0
 21
0.0
 31
0.0
 44
0.9
  1
U.S. Units
 40
0.145
 41
2.32
  0
MTEXT
  5
25C
100
AcDbEntity
  8
0
100
AcDbMText
 62
2
  6
CONTINUOUS
  7
STANDARD
 71
2
 72
1
 10
7.555
 20
-0.0995
 30
0.0
 11
1.0
 21
0.0
 31
0.0
 44
0.9
  1
Metric Units
 40
0.145
 41
2.784
  0
MTEXT
  5
25D
100
AcDbEntity
  8
0
100
AcDbMText
 62
2
  6
CONTINUOUS
  7
STANDARD
 71
2
 72
1
 10
1.5275
 20
-0.4065
 30
0.0
 11
1.0
 21
0.0
 31
0.0
 44
0.9
  1
Cavity
 40
0.125
 41
1.2
  0
MTEXT
  5
25E
100
AcDbEntity
  8
0
100
AcDbMText
 62
2
  6
CONTINUOUS
  7
STANDARD
 71
2
 72
1
 10
6.055
 20
-0.4065
 30
0.0
 11
1.0
 21
0.0
 31
0.0
 44
0.9
  1
T-3A
 40
0.125
 41
0.8
  0
MTEXT
  5
25F
100
AcDbEntity
  8
0
100
AcDbMText
 62
2
  6
CONTINUOUS
  7
STANDARD
 71
2
 72
1
 10
1.5275
 20
-0.6565
 30
0.0
 11
1.0
 21
0.0
 31
0.0
 44
0.9
  1
Body Features
 40
0.125
 41
2.6
  0
MTEXT
  5
260
100
AcDbEntity
  8
0
100
AcDbMText
 62
2
  6
CONTINUOUS
  7
STANDARD
 71
2
 72
1
 10
6.055
 20
-0.6565
 30
0.0
 11
1.0
 21
0.0
 31
0.0
 44
0.9
  1
B to T, check T to A
 40
0.125
 41
4.0
  0
MTEXT
  5
261
100
AcDbEntity
  8
0
100
AcDbMText
 62
2
  6
CONTINUOUS
  7
STANDARD
 71
2
 72
1
 10
1.5275
 20
-0.9065
 30
0.0
 11
1.0
 21
0.0
 31
0.0
 44
0.9
  1
Body Type
 40
0.125
 41
1.8
  0
MTEXT
  5
262
100
AcDbEntity
  8
0
100
AcDbMText
 62
2
  6
CONTINUOUS
  7
STANDARD
 71
2
 72
1
 10
6.055
 20
-0.9065
 30
0.0
 11
1.0
 21
0.0
 31
0.0
 44
0.9
  1
Sandwich
 40
0.125
 41
1.6
  0
MTEXT
  5
263
100
AcDbEntity
  8
0
100
AcDbMText
 62
2
  6
CONTINUOUS
  7
STANDARD
 71
2
 72
1
 10
1.5275
 20
-1.1565
 30
0.0
 11
1.0
 21
0.0
 31
0.0
 44
0.9
  1
Interface
 40
0.125
 41
1.8
  0
MTEXT
  5
264
100
AcDbEntity
  8
0
100
AcDbMText
 62
2
  6
CONTINUOUS
  7
STANDARD
 71
2
 72
1
 10
6.055
 20
-1.1565
 30
0.0
 11
1.0
 21
0.0
 31
0.0
 44
0.9
  1
ISO 05
 40
0.125
 41
1.2
  0
MTEXT
  5
265
100
AcDbEntity
  8
0
100
AcDbMText
 62
2
  6
CONTINUOUS
  7
STANDARD
 71
2
 72
1
 10
1.5275
 20
-1.4065
 30
0.0
 11
1.0
 21
0.0
 31
0.0
 44
0.9
  1
Open Cavity Quantity
 40
0.125
 41
4.0
  0
MTEXT
  5
266
100
AcDbEntity
  8
0
100
AcDbMText
 62
2
  6
CONTINUOUS
  7
STANDARD
 71
2
 72
1
 10
6.055
 20
-1.4065
 30
0.0
 11
1.0
 21
0.0
 31
0.0
 44
0.9
  1
1
 40
0.125
 41
0.2
  0
MTEXT
  5
267
100
AcDbEntity
  8
0
100
AcDbMText
 62
2
  6
CONTINUOUS
  7
STANDARD
 71
2
 72
1
 10
1.5275
 20
-1.6565
 30
0.0
 11
1.0
 21
0.0
 31
0.0
 44
0.9
  1
Stack Height
 40
0.125
 41
2.4
  0
MTEXT
  5
268
100
AcDbEntity
  8
0
100
AcDbMText
 62
2
  6
CONTINUOUS
  7
STANDARD
 71
2
 72
1
 10
4.555
 20
-1.6565
 30
0.0
 11
1.0
 21
0.0
 31
0.0
 44
0.9
  1
1.58 in.
 40
0.125
 41
1.6
  0
MTEXT
  5
269
100
AcDbEntity
  8
0
100
AcDbMText
 62
2
  6
CONTINUOUS
  7
STANDARD
 71
2
 72
1
 10
7.555
 20
-1.6565
 30
0.0
 11
1.0
 21
0.0
 31
0.0
 44
0.9
  1
40 mm
 40
0.125
 41
1.0
  0
MTEXT
  5
26A
100
AcDbEntity
  8
0
100
AcDbMText
 62
2
  6
CONTINUOUS
  7
STANDARD
 71
2
 72
1
 10
1.5275
 20
-1.9065
 30
0.0
 11
1.0
 21
0.0
 31
0.0
 44
0.9
  1
Weight
 40
0.125
 41
1.2
  0
MTEXT
  5
26B
100
AcDbEntity
  8
0
100
AcDbMText
 62
2
  6
CONTINUOUS
  7
STANDARD
 71
2
 72
1
 10
4.555
 20
-1.9065
 30
0.0
 11
1.0
 21
0.0
 31
0.0
 44
0.9
  1
1.494 lb.
 40
0.125
 41
1.8
  0
MTEXT
  5
26C
100
AcDbEntity
  8
0
100
AcDbMText
 62
2
  6
CONTINUOUS
  7
STANDARD
 71
2
 72
1
 10
7.555
 20
-1.9065
 30
0.0
 11
1.0
 21
0.0
 31
0.0
 44
0.9
  1
0,678 kg.
 40
0.125
 41
1.8
  0
MTEXT
  5
26D
100
AcDbEntity
  8
0
100
AcDbMText
 62
2
  6
CONTINUOUS
  7
STANDARD
 71
2
 72
1
 10
1.5275
 20
-2.1565
 30
0.0
 11
1.0
 21
0.0
 31
0.0
 44
0.9
  1
Maximum Operating Pressure - 6061-T651 Aluminum
 40
0.125
 41
9.4
  0
MTEXT
  5
26E
100
AcDbEntity
  8
0
100
AcDbMText
 62
2
  6
CONTINUOUS
  7
STANDARD
 71
2
 72
1
 10
4.555
 20
-2.1565
 30
0.0
 11
1.0
 21
0.0
 31
0.0
 44
0.9
  1
3000 psi
 40
0.125
 41
1.6
  0
MTEXT
  5
26F
100
AcDbEntity
  8
0
100
AcDbMText
 62
2
  6
CONTINUOUS
  7
STANDARD
 71
2
 72
1
 10
7.555
 20
-2.1565
 30
0.0
 11
1.0
 21
0.0
 31
0.0
 44
0.9
  1
210 bar
 40
0.125
 41
1.4
  0
MTEXT
  5
270
100
AcDbEntity
  8
0
100
AcDbMText
 62
2
  6
CONTINUOUS
  7
STANDARD
 71
2
 72
1
 10
1.5275
 20
-2.4065
 30
0.0
 11
1.0
 21
0.0
 31
0.0
 44
0.9
  1
Maximum Operating Pressure - 65-45-12 Ductile Iron
 40
0.125
 41
10.0
  0
MTEXT
  5
271
100
AcDbEntity
  8
0
100
AcDbMText
 62
2
  6
CONTINUOUS
  7
STANDARD
 71
2
 72
1
 10
4.555
 20
-2.4065
 30
0.0
 11
1.0
 21
0.0
 31
0.0
 44
0.9
  1
5000 psi
 40
0.125
 41
1.6
  0
MTEXT
  5
272
100
AcDbEntity
  8
0
100
AcDbMText
 62
2
  6
CONTINUOUS
  7
STANDARD
 71
2
 72
1
 10
7.555
 20
-2.4065
 30
0.0
 11
1.0
 21
0.0
 31
0.0
 44
0.9
  1
350 bar
 40
0.125
 41
1.4
  0
MTEXT
  5
273
100
AcDbEntity
  8
0
100
AcDbMText
 62
2
  6
CONTINUOUS
  7
STANDARD
 71
2
 72
1
 10
1.5275
 20
-2.6565
 30
0.0
 11
1.0
 21
0.0
 31
0.0
 44
0.9
  1
Seal Plate Included (see notes)
 40
0.125
 41
6.2
  0
MTEXT
  5
274
100
AcDbEntity
  8
0
100
AcDbMText
 62
2
  6
CONTINUOUS
  7
STANDARD
 71
2
 72
1
 10
6.055
 20
-2.6565
 30
0.0
 11
1.0
 21
0.0
 31
0.0
 44
0.9
  1
No
 40
0.125
 41
0.4
  0
MTEXT
  5
275
100
AcDbEntity
  8
0
100
AcDbMText
 62
2
  6
CONTINUOUS
  7
STANDARD
 71
2
 72
1
 10
1.5275
 20
-2.9065
 30
0.0
 11
1.0
 21
0.0
 31
0.0
 44
0.9
  1
Includes integral cartridge(s)
 40
0.125
 41
6.0
  0
MTEXT
  5
276
100
AcDbEntity
  8
0
100
AcDbMText
 62
2
  6
CONTINUOUS
  7
STANDARD
 71
2
 72
1
 10
6.055
 20
-2.9065
 30
0.0
 11
1.0
 21
0.0
 31
0.0
 44
0.9
  1
Yes (see Included Components)
 40
0.125
 41
5.8
  0
ENDBLK
  5
277
100
AcDbEntity
  8
0
  6
BYBLOCK
 62
0
100
AcDbBlockEnd
  0
ENDSEC
  0
SECTION
  2
ENTITIES
  0
IMAGE
  5
278
100
AcDbEntity
  8
0
100
AcDbRasterImage
 62
7
  6
CONTINUOUS
 10
19.2297077316
 20
0.3094318264
 30
0.0
 11
0.0066666667
 21
0.0
 31
0.0
 12
0.0
 22
0.0066666667
 32
0.0
 13
369.0
 23
92.0
340
       420
 70
9
280
0
281
50
282
50
283
0
360
       41A
 71
1
 91
2
 14
-0.5
 24
-0.5
 14
368.5
 24
91.5
  0
INSERT
  5
279
100
AcDbEntity
  8
0
100
AcDbBlockReference
 62
2
  6
CONTINUOUS
  2
SUN_FIRST_THIRD_ANGLE_BL0
 10
20.4816717061
 20
1.2289683772
  0
ACAD_TABLE
  5
27A
100
AcDbEntity
  8
0
 62
2
  6
CONTINUOUS
100
AcDbBlockReference
  2
*T1
 10
12.42375
 20
0.30125
 30
0.0
100
AcDbTable
342
       422
343
20A
 11
1.0
 21
0.0
 31
0.0
 90
6
 91
4
 92
6
 93
20
 94
0
 95
0
 96
0
 70
1
 41
0.0
141
0.525
141
0.1
141
0.525
141
0.1
142
4.1
142
1.1
142
0.7
142
0.5
142
0.4
142
2.475
171
1
172
0
173
0
174
0
175
1
176
1
 91
33
178
0
145
0.0
301
CELL_VALUE
 90
4
  1
T-3A Sandwich ISO 05\PB to T, check T to A
304
ACVALUE_END
170
2
140
0.125
171
1
172
0
173
0
174
0
175
1
176
1
 91
33
178
0
145
0.0
301
CELL_VALUE
 90
4
  1
Sep-29-21
304
ACVALUE_END
170
5
140
0.125
171
1
172
0
173
0
174
0
175
1
176
1
 91
33
178
0
145
0.0
301
CELL_VALUE
 90
4
  1
1.000
304
ACVALUE_END
170
5
140
0.125
171
1
172
0
173
0
174
0
175
1
176
1
 91
33
178
0
145
0.0
301
CELL_VALUE
 90
4
  1
C
304
ACVALUE_END
170
5
140
0.125
171
1
172
0
173
0
174
0
175
1
176
1
 91
33
178
0
145
0.0
301
CELL_VALUE
 90
4
  1
2
304
ACVALUE_END
170
5
140
0.125
171
1
172
0
173
0
174
0
175
1
176
1
 91
33
178
0
145
0.0
301
CELL_VALUE
 90
4
  1
 
304
ACVALUE_END
170
1
140
0.125
171
1
172
0
173
0
174
0
175
1
176
1
 91
33
178
0
145
0.0
301
CELL_VALUE
 90
4
  1
DESCRIPTION
304
ACVALUE_END
170
1
140
0.06
171
1
172
0
173
0
174
0
175
1
176
1
 91
33
178
0
145
0.0
301
CELL_VALUE
 90
4
  1
DATE
304
ACVALUE_END
170
1
140
0.06
171
1
172
0
173
0
174
0
175
1
176
1
 91
33
178
0
145
0.0
301
CELL_VALUE
 90
4
  1
SCALE
304
ACVALUE_END
170
1
140
0.06
171
1
172
0
173
0
174
0
175
1
176
1
 91
33
178
0
145
0.0
301
CELL_VALUE
 90
4
  1
DWG SIZE
304
ACVALUE_END
170
1
140
0.06
171
1
172
0
173
0
174
0
175
1
176
1
 91
33
178
0
145
0.0
301
CELL_VALUE
 90
4
  1
SHEET
304
ACVALUE_END
170
1
140
0.06
171
1
172
0
173
0
174
0
175
1
176
1
 91
33
178
0
145
0.0
301
CELL_VALUE
 90
4
  1
 
304
ACVALUE_END
170
1
140
0.125
171
1
172
0
173
0
174
0
175
1
176
1
 91
33
178
0
145
0.0
301
CELL_VALUE
 90
4
  1
FB7
304
ACVALUE_END
170
5
140
0.125
171
1
172
0
173
0
174
0
175
4
176
1
 91
33
178
0
145
0.0
301
CELL_VALUE
 90
4
  1
ALL DIMENSIONS IN INCH\PVIEWS ARE THIRD ANGLE
304
ACVALUE_END
170
5
140
0.12
171
1
172
0
173
1
174
0
175
1
176
1
 91
1
178
0
145
0.0
170
1
171
1
172
0
173
1
174
0
175
1
176
1
 91
1
178
0
145
0.0
170
1
171
1
172
0
173
1
174
0
175
1
176
1
 91
1
178
0
145
0.0
170
5
171
1
172
0
173
0
174
0
175
1
176
1
 91
33
178
0
145
0.0
301
CELL_VALUE
 90
4
  1
 
304
ACVALUE_END
170
1
140
0.125
171
1
172
0
173
0
174
0
175
1
176
1
 91
33
178
0
145
0.0
301
CELL_VALUE
 90
4
  1
MODEL
304
ACVALUE_END
170
1
140
0.06
171
1
172
0
173
0
174
0
175
1
176
1
 91
33
178
0
145
0.0
301
CELL_VALUE
 90
4
  1
 
304
ACVALUE_END
170
1
140
0.125
171
1
172
0
173
0
174
0
175
1
176
1
 91
33
178
0
145
0.0
301
CELL_VALUE
 90
4
  1
 
304
ACVALUE_END
170
1
140
0.125
171
1
172
0
173
0
174
0
175
1
176
1
 91
33
178
0
145
0.0
301
CELL_VALUE
 90
4
  1
 
304
ACVALUE_END
170
1
140
0.125
171
1
172
0
173
0
174
0
175
1
176
1
 91
33
178
0
145
0.0
301
CELL_VALUE
 90
4
  1
 
304
ACVALUE_END
170
1
140
0.125
171
1
172
0
173
0
174
0
175
1
176
1
 91
33
178
0
145
0.0
301
CELL_VALUE
 90
4
  1
 
304
ACVALUE_END
170
1
140
0.125
  0
ACAD_TABLE
  5
27B
100
AcDbEntity
  8
0
 62
2
  6
CONTINUOUS
100
AcDbBlockReference
  2
*T2
 10
12.4237499994
 20
16.47875
 30
0.0
100
AcDbTable
342
       421
343
20B
 11
1.0
 21
0.0
 31
0.0
 90
22
 91
12
 92
3
 93
16
 94
0
 95
0
 96
0
 41
0.028
141
0.344
141
0.25
141
0.25
141
0.25
141
0.25
141
0.25
141
0.25
141
0.25
141
0.25
141
0.25
141
0.25
141
0.25
142
3.055
142
3.0
142
3.0
171
1
172
0
173
0
174
0
175
1
176
1
 91
33
178
0
145
0.0
301
CELL_VALUE
 90
4
  1
Technical Data
304
ACVALUE_END
170
5
140
0.145
171
1
172
0
173
0
174
0
175
1
176
1
 91
33
178
0
145
0.0
301
CELL_VALUE
 90
4
  1
U.S. Units
304
ACVALUE_END
170
5
140
0.145
171
1
172
0
173
0
174
0
175
1
176
1
 91
33
178
0
145
0.0
301
CELL_VALUE
 90
4
  1
Metric Units
304
ACVALUE_END
170
5
140
0.145
171
1
172
0
173
0
174
0
175
1
176
1
 91
33
178
0
145
0.0
301
CELL_VALUE
 90
4
  1
Cavity
304
ACVALUE_END
170
5
140
0.125
171
1
172
0
173
0
174
0
175
2
176
1
 91
33
178
0
145
0.0
301
CELL_VALUE
 90
4
  1
T-3A
304
ACVALUE_END
170
5
140
0.125
171
1
172
0
173
1
174
0
175
1
176
1
 91
1
178
0
145
0.0
170
1
171
1
172
0
173
0
174
0
175
1
176
1
 91
33
178
0
145
0.0
301
CELL_VALUE
 90
4
  1
Body Features
304
ACVALUE_END
170
5
140
0.125
171
1
172
0
173
0
174
0
175
2
176
1
 91
33
178
0
145
0.0
301
CELL_VALUE
 90
4
  1
B to T, check T to A
304
ACVALUE_END
170
5
140
0.125
171
1
172
0
173
1
174
0
175
1
176
1
 91
1
178
0
145
0.0
170
1
171
1
172
0
173
0
174
0
175
1
176
1
 91
33
178
0
145
0.0
301
CELL_VALUE
 90
4
  1
Body Type
304
ACVALUE_END
170
5
140
0.125
171
1
172
0
173
0
174
0
175
2
176
1
 91
33
178
0
145
0.0
301
CELL_VALUE
 90
4
  1
Sandwich
304
ACVALUE_END
170
5
140
0.125
171
1
172
0
173
1
174
0
175
1
176
1
 91
1
178
0
145
0.0
170
1
171
1
172
0
173
0
174
0
175
1
176
1
 91
33
178
0
145
0.0
301
CELL_VALUE
 90
4
  1
Interface
304
ACVALUE_END
170
5
140
0.125
171
1
172
0
173
0
174
0
175
2
176
1
 91
33
178
0
145
0.0
301
CELL_VALUE
 90
4
  1
ISO 05
304
ACVALUE_END
170
5
140
0.125
171
1
172
0
173
1
174
0
175
1
176
1
 91
1
178
0
145
0.0
170
1
171
1
172
0
173
0
174
0
175
1
176
1
 91
33
178
0
145
0.0
301
CELL_VALUE
 90
4
  1
Open Cavity Quantity
304
ACVALUE_END
170
5
140
0.125
171
1
172
0
173
0
174
0
175
2
176
1
 91
33
178
0
145
0.0
301
CELL_VALUE
 90
4
  1
1
304
ACVALUE_END
170
5
140
0.125
171
1
172
0
173
1
174
0
175
1
176
1
 91
1
178
0
145
0.0
170
1
171
1
172
0
173
0
174
0
175
1
176
1
 91
33
178
0
145
0.0
301
CELL_VALUE
 90
4
  1
Stack Height
304
ACVALUE_END
170
5
140
0.125
171
1
172
0
173
0
174
0
175
1
176
1
 91
33
178
0
145
0.0
301
CELL_VALUE
 90
4
  1
1.58 in.
304
ACVALUE_END
170
5
140
0.125
171
1
172
0
173
0
174
0
175
1
176
1
 91
33
178
0
145
0.0
301
CELL_VALUE
 90
4
  1
40 mm
304
ACVALUE_END
170
5
140
0.125
171
1
172
0
173
0
174
0
175
1
176
1
 91
33
178
0
145
0.0
301
CELL_VALUE
 90
4
  1
Weight
304
ACVALUE_END
170
5
140
0.125
171
1
172
0
173
0
174
0
175
1
176
1
 91
33
178
0
145
0.0
301
CELL_VALUE
 90
4
  1
1.494 lb.
304
ACVALUE_END
170
5
140
0.125
171
1
172
0
173
0
174
0
175
1
176
1
 91
33
178
0
145
0.0
301
CELL_VALUE
 90
4
  1
0,678 kg.
304
ACVALUE_END
170
5
140
0.125
171
1
172
0
173
0
174
0
175
1
176
1
 91
33
178
0
145
0.0
301
CELL_VALUE
 90
4
  1
Maximum Operating Pressure - 6061-T651 Aluminum
304
ACVALUE_END
170
5
140
0.125
171
1
172
0
173
0
174
0
175
1
176
1
 91
33
178
0
145
0.0
301
CELL_VALUE
 90
4
  1
3000 psi
304
ACVALUE_END
170
5
140
0.125
171
1
172
0
173
0
174
0
175
1
176
1
 91
33
178
0
145
0.0
301
CELL_VALUE
 90
4
  1
210 bar
304
ACVALUE_END
170
5
140
0.125
171
1
172
0
173
0
174
0
175
1
176
1
 91
33
178
0
145
0.0
301
CELL_VALUE
 90
4
  1
Maximum Operating Pressure - 65-45-12 Ductile Iron
304
ACVALUE_END
170
5
140
0.125
171
1
172
0
173
0
174
0
175
1
176
1
 91
33
178
0
145
0.0
301
CELL_VALUE
 90
4
  1
5000 psi
304
ACVALUE_END
170
5
140
0.125
171
1
172
0
173
0
174
0
175
1
176
1
 91
33
178
0
145
0.0
301
CELL_VALUE
 90
4
  1
350 bar
304
ACVALUE_END
170
5
140
0.125
171
1
172
0
173
0
174
0
175
1
176
1
 91
33
178
0
145
0.0
301
CELL_VALUE
 90
4
  1
Seal Plate Included (see notes)
304
ACVALUE_END
170
5
140
0.125
171
1
172
0
173
0
174
0
175
2
176
1
 91
33
178
0
145
0.0
301
CELL_VALUE
 90
4
  1
No
304
ACVALUE_END
170
5
140
0.125
171
1
172
0
173
1
174
0
175
1
176
1
 91
1
178
0
145
0.0
170
1
171
1
172
0
173
0
174
0
175
1
176
1
 91
33
178
0
145
0.0
301
CELL_VALUE
 90
4
  1
Includes integral cartridge(s)
304
ACVALUE_END
170
5
140
0.125
171
1
172
0
173
0
174
0
175
2
176
1
 91
33
178
0
145
0.0
301
CELL_VALUE
 90
4
  1
Yes (see Included Components)
304
ACVALUE_END
170
5
140
0.125
171
1
172
0
173
1
174
0
175
1
176
1
 91
1
178
0
145
0.0
170
1
  0
MTEXT
  5
27C
100
AcDbEntity
  8
0
100
AcDbMText
 62
2
  6
CONTINUOUS
  7
STANDARD
 71
1
 72
1
 10
0.52125
 20
5.75995
 30
0.0
 11
1.0
 21
0.0
 31
0.0
 44
0.6
  3
Notes\P \P1. Important: Carefully consider\P   the maximum system pressure. The\P   pressure rating of the manifold is\P   dependent on the manifold material,\P   with the port type/size a secondary\P   consideration. Manifolds\P   constructed of alu
  1
minum are not\P   rated for pressures higher than\P   3000 psi (210 bar), regardless of\P   the port type/size specified.\P2. Seal retainer plate is not\P   required for this model.
 40
0.1
 41
3.04
  0
LINE
  5
27D
100
AcDbEntity
  8
0
100
AcDbLine
 62
7
  6
CONTINUOUS
 10
0.30125
 20
0.30125
 11
0.30125
 21
16.69875
  0
LINE
  5
27E
100
AcDbEntity
  8
0
100
AcDbLine
 62
7
  6
CONTINUOUS
 10
0.30125
 20
0.30125
 11
21.69875
 21
0.30125
  0
LINE
  5
27F
100
AcDbEntity
  8
0
100
AcDbLine
 62
7
  6
CONTINUOUS
 10
0.30125
 20
16.69875
 11
21.69875
 21
16.69875
  0
LINE
  5
280
100
AcDbEntity
  8
0
100
AcDbLine
 62
7
  6
CONTINUOUS
 10
21.69875
 20
0.30125
 11
21.69875
 21
16.69875
  0
LINE
  5
281
100
AcDbEntity
  8
0
100
AcDbLine
 62
7
  6
CONTINUOUS
 10
8.2914087143
 20
9.2849578329
 11
8.2914087143
 21
7.7153282722
  0
LINE
  5
282
100
AcDbEntity
  8
0
100
AcDbLine
 62
7
  6
CONTINUOUS
 10
8.3133290329
 20
9.275131236
 11
8.3133290329
 21
7.7055016753
  0
LINE
  5
283
100
AcDbEntity
  8
0
100
AcDbLine
 62
7
  6
CONTINUOUS
 10
8.5502275458
 20
9.8672361453
 11
8.3804423923
 21
9.703236271
  0
LINE
  5
284
100
AcDbEntity
  8
0
100
AcDbLine
 62
7
  6
CONTINUOUS
 10
8.5801712482
 20
9.8951032449
 11
8.4103860947
 21
9.7311033705
  0
LINE
  5
285
100
AcDbEntity
  8
0
100
AcDbLine
 62
7
  6
CONTINUOUS
 10
8.5810874512
 20
9.8959720899
 11
8.5801712482
 21
9.8951032449
  0
LINE
  5
286
100
AcDbEntity
  8
0
100
AcDbLine
 62
7
  6
CONTINUOUS
 10
8.5510688773
 20
9.8680338438
 11
8.5502275458
 21
9.8672361453
  0
LINE
  5
287
100
AcDbEntity
  8
0
100
AcDbLine
 62
7
  6
CONTINUOUS
 10
8.5502275458
 20
9.8672361453
 11
8.5801631989
 21
9.8951118935
  0
LINE
  5
288
100
AcDbEntity
  8
0
100
AcDbLine
 62
7
  6
CONTINUOUS
 10
8.3804423923
 20
9.703236271
 11
8.4103860947
 21
9.7311033705
  0
LINE
  5
289
100
AcDbEntity
  8
0
100
AcDbLine
 62
7
  6
CONTINUOUS
 10
8.3611736764
 20
7.4395099061
 11
8.3352982006
 21
7.4713251559
  0
LINE
  5
28A
100
AcDbEntity
  8
0
100
AcDbLine
 62
7
  6
CONTINUOUS
 10
9.6349512731
 20
10.0048299772
 11
9.2273116011
 21
9.6110802669
  0
LINE
  5
28B
100
AcDbEntity
  8
0
100
AcDbLine
 62
4
  6
CONTINUOUS
 10
9.537068084
 20
9.7602820728
 11
9.5532442613
 21
9.7759070611
  0
LINE
  5
28C
100
AcDbEntity
  8
0
100
AcDbLine
 62
4
  6
CONTINUOUS
 10
9.595302322
 20
9.8165320306
 11
9.5985375574
 21
9.8196570282
  0
LINE
  5
28D
100
AcDbEntity
  8
0
100
AcDbLine
 62
4
  6
CONTINUOUS
 10
9.6355492363
 20
9.8137408976
 11
9.6387844718
 21
9.8168658952
  0
LINE
  5
28E
100
AcDbEntity
  8
0
100
AcDbLine
 62
4
  6
CONTINUOUS
 10
9.6144814979
 20
9.7850576923
 11
9.6241872042
 21
9.7944326852
  0
LINE
  5
28F
100
AcDbEntity
  8
0
100
AcDbLine
 62
4
  6
CONTINUOUS
 10
9.682344029
 20
9.8339412016
 11
9.6920497353
 21
9.8433161946
  0
LINE
  5
290
100
AcDbEntity
  8
0
100
AcDbLine
 62
4
  6
CONTINUOUS
 10
9.6951301472
 20
9.8129583094
 11
9.6918949118
 21
9.8098333117
  0
LINE
  5
291
100
AcDbEntity
  8
0
100
AcDbLine
 62
7
  6
CONTINUOUS
 10
9.2273116011
 20
7.1962655581
 11
9.2273116011
 21
9.6110802669
  0
LINE
  5
292
100
AcDbEntity
  8
0
100
AcDbLine
 62
4
  6
CONTINUOUS
 10
9.3074834144
 20
7.2969573735
 11
9.3074834144
 21
9.5021661656
  0
LINE
  5
293
100
AcDbEntity
  8
0
100
AcDbLine
 62
4
  6
CONTINUOUS
 10
9.785753035
 20
9.6192433023
 11
9.7598711514
 21
9.5942433211
  0
LINE
  5
294
100
AcDbEntity
  8
0
100
AcDbLine
 62
7
  6
CONTINUOUS
 10
8.2914087143
 20
7.7153282722
 11
8.3133290329
 21
7.7055016753
  0
LINE
  5
295
100
AcDbEntity
  8
0
100
AcDbLine
 62
7
  6
CONTINUOUS
 10
9.2273116011
 20
7.1962655581
 11
12.1270210786
 21
6.9951700228
  0
LINE
  5
296
100
AcDbEntity
  8
0
100
AcDbLine
 62
4
  6
CONTINUOUS
 10
10.4562977046
 20
9.766046907
 11
10.4599951163
 21
9.7696183326
  0
LINE
  5
297
100
AcDbEntity
  8
0
100
AcDbLine
 62
4
  6
CONTINUOUS
 10
10.4898043515
 20
9.7484118437
 11
10.4935017636
 21
9.7519832698
  0
LINE
  5
298
100
AcDbEntity
  8
0
100
AcDbLine
 62
4
  6
CONTINUOUS
 10
10.3293279231
 20
9.5815462558
 11
10.3034460396
 21
9.5565462745
  0
LINE
  5
299
100
AcDbEntity
  8
0
100
AcDbLine
 62
4
  6
CONTINUOUS
 10
10.5395867041
 20
9.7679264793
 11
10.5174022326
 21
9.7464979242
  0
LINE
  5
29A
100
AcDbEntity
  8
0
100
AcDbLine
 62
4
  6
CONTINUOUS
 10
10.4989982115
 20
9.6072924356
 11
10.5524779762
 21
9.6303784973
  0
LINE
  5
29B
100
AcDbEntity
  8
0
100
AcDbLine
 62
7
  6
CONTINUOUS
 10
12.7588159256
 20
7.4045466039
 11
12.7208488394
 21
7.3988732127
  0
LINE
  5
29C
100
AcDbEntity
  8
0
100
AcDbLine
 62
4
  6
CONTINUOUS
 10
12.0458832942
 20
7.1070486968
 11
9.3074834144
 21
7.2969573735
  0
LINE
  5
29D
100
AcDbEntity
  8
0
100
AcDbLine
 62
7
  6
CONTINUOUS
 10
12.2201337284
 20
7.1581780907
 11
12.7919618764
 21
7.1185216739
  0
LINE
  5
29E
100
AcDbEntity
  8
0
100
AcDbLine
 62
7
  6
CONTINUOUS
 10
9.2273116011
 20
7.366696936
 11
8.3844420698
 21
7.4251501366
  0
LINE
  5
29F
100
AcDbEntity
  8
0
100
AcDbLine
 62
4
  6
CONTINUOUS
 10
10.4116049212
 20
9.6133531809
 11
10.4374868048
 21
9.6383531621
  0
LINE
  5
2A0
100
AcDbEntity
  8
0
100
AcDbLine
 62
4
  6
CONTINUOUS
 10
10.368996924
 20
9.5698635698
 11
10.3754673949
 21
9.5761135651
  0
LINE
  5
2A1
100
AcDbEntity
  8
0
100
AcDbLine
 62
4
  6
CONTINUOUS
 10
10.3620930187
 20
9.5569449088
 11
10.3685634892
 21
9.5631949038
  0
LINE
  5
2A2
100
AcDbEntity
  8
0
100
AcDbLine
 62
4
  6
CONTINUOUS
 10
10.5656985275
 20
9.7431485647
 11
10.587882999
 21
9.7645771199
  0
LINE
  5
2A3
100
AcDbEntity
  8
0
100
AcDbLine
 62
4
  6
CONTINUOUS
 10
10.5895989966
 20
9.7376632191
 11
10.6154808801
 21
9.7626632004
  0
LINE
  5
2A4
100
AcDbEntity
  8
0
100
AcDbLine
 62
4
  6
CONTINUOUS
 10
10.4820856822
 20
9.6314323774
 11
10.4635986225
 21
9.6135752479
  0
LINE
  5
2A5
100
AcDbEntity
  8
0
100
AcDbLine
 62
4
  6
CONTINUOUS
 10
10.6378952915
 20
9.7343138597
 11
10.663777175
 21
9.7593138409
  0
LINE
  5
2A6
100
AcDbEntity
  8
0
100
AcDbLine
 62
4
  6
CONTINUOUS
 10
10.6093897477
 20
9.5996367566
 11
10.6352716312
 21
9.6246367378
  0
LINE
  5
2A7
100
AcDbEntity
  8
0
100
AcDbLine
 62
4
  6
CONTINUOUS
 10
10.7413873487
 20
9.7271366612
 11
10.7672692322
 21
9.7521366424
  0
LINE
  5
2A8
100
AcDbEntity
  8
0
100
AcDbLine
 62
4
  6
CONTINUOUS
 10
10.7994225297
 20
9.7403371977
 11
10.7827841762
 21
9.7242657814
  0
LINE
  5
2A9
100
AcDbEntity
  8
0
100
AcDbLine
 62
4
  6
CONTINUOUS
 10
10.718075904
 20
9.6510481171
 11
10.7439577875
 21
9.6760480983
  0
LINE
  5
2AA
100
AcDbEntity
  8
0
100
AcDbLine
 62
4
  6
CONTINUOUS
 10
10.66458551
 20
9.5958089175
 11
10.6904673935
 21
9.6208088987
  0
LINE
  5
2AB
100
AcDbEntity
  8
0
100
AcDbLine
 62
4
  6
CONTINUOUS
 10
10.9371429671
 20
9.6626506606
 11
10.8836632024
 21
9.639564599
  0
LINE
  5
2AC
100
AcDbEntity
  8
0
100
AcDbLine
 62
4
  6
CONTINUOUS
 10
10.8180186504
 20
9.7154425252
 11
10.8702659334
 21
9.7373381128
  0
LINE
  5
2AD
100
AcDbEntity
  8
0
100
AcDbLine
 62
4
  6
CONTINUOUS
 10
11.2295337559
 20
9.7200784888
 11
11.2253852345
 21
9.7184522679
  0
LINE
  5
2AE
100
AcDbEntity
  8
0
100
AcDbLine
 62
4
  6
CONTINUOUS
 10
10.7870706126
 20
9.6462633178
 11
10.8129524962
 21
9.671263299
  0
LINE
  5
2AF
100
AcDbEntity
  8
0
100
AcDbLine
 62
4
  6
CONTINUOUS
 10
10.8720261898
 20
9.719990748
 11
10.8868158372
 21
9.7342764512
  0
LINE
  5
2B0
100
AcDbEntity
  8
0
100
AcDbLine
 62
4
  6
CONTINUOUS
 10
10.6956118511
 20
9.5293494831
 11
10.7214937346
 21
9.5543494644
  0
LINE
  5
2B1
100
AcDbEntity
  8
0
100
AcDbLine
 62
4
  6
CONTINUOUS
 10
10.8506519119
 20
9.6648209936
 11
10.8451057936
 21
9.6594638544
  0
LINE
  5
2B2
100
AcDbEntity
  8
0
100
AcDbLine
 62
4
  6
CONTINUOUS
 10
10.8446104376
 20
9.6518425233
 11
10.8390643196
 21
9.6464853844
  0
LINE
  5
2B3
100
AcDbEntity
  8
0
100
AcDbLine
 62
4
  6
CONTINUOUS
 10
10.9374561718
 20
9.740334138
 11
10.9115742882
 21
9.7153341568
  0
LINE
  5
2B4
100
AcDbEntity
  8
0
100
AcDbLine
 62
4
  6
CONTINUOUS
 10
10.7654763818
 20
9.5468334409
 11
10.7611627355
 21
9.5426667784
  0
LINE
  5
2B5
100
AcDbEntity
  8
0
100
AcDbLine
 62
4
  6
CONTINUOUS
 10
10.8833005539
 20
9.6606428808
 11
10.8888466722
 21
9.66600002
  0
LINE
  5
2B6
100
AcDbEntity
  8
0
100
AcDbLine
 62
4
  6
CONTINUOUS
 10
10.9391722039
 20
9.7134202349
 11
10.957659264
 21
9.7312773647
  0
LINE
  5
2B7
100
AcDbEntity
  8
0
100
AcDbLine
 62
4
  6
CONTINUOUS
 10
10.8131718298
 20
9.5893322636
 11
10.8316588895
 21
9.6071893931
  0
LINE
  5
2B8
100
AcDbEntity
  8
0
100
AcDbLine
 62
4
  6
CONTINUOUS
 10
10.9880080566
 20
9.727258747
 11
10.9843106449
 21
9.7236873213
  0
LINE
  5
2B9
100
AcDbEntity
  8
0
100
AcDbLine
 62
4
  6
CONTINUOUS
 10
11.0031161397
 20
9.7108996291
 11
11.0086622578
 21
9.7162567682
  0
LINE
  5
2BA
100
AcDbEntity
  8
0
100
AcDbLine
 62
4
  6
CONTINUOUS
 10
10.8936656239
 20
9.5837500001
 11
10.9121526836
 21
9.6016071295
  0
LINE
  5
2BB
100
AcDbEntity
  8
0
100
AcDbLine
 62
4
  6
CONTINUOUS
 10
11.0426642381
 20
9.7062430379
 11
11.0574538865
 21
9.7205287421
  0
LINE
  5
2BC
100
AcDbEntity
  8
0
100
AcDbLine
 62
4
  6
CONTINUOUS
 10
11.0887491678
 20
9.722186249
 11
11.0721108138
 21
9.7061148322
  0
LINE
  5
2BD
100
AcDbEntity
  8
0
100
AcDbLine
 62
4
  6
CONTINUOUS
 10
10.9604489785
 20
9.5982577701
 11
10.9419619188
 21
9.5804006406
  0
LINE
  5
2BE
100
AcDbEntity
  8
0
100
AcDbLine
 62
4
  6
CONTINUOUS
 10
11.0887437479
 20
9.5020856935
 11
11.1448108157
 21
9.5249923251
  0
LINE
  5
2BF
100
AcDbEntity
  8
0
100
AcDbLine
 62
7
  6
CONTINUOUS
 10
12.7208488394
 20
7.3988732127
 11
12.1490206915
 21
7.4385296294
  0
LINE
  5
2C0
100
AcDbEntity
  8
0
100
AcDbLine
 62
7
  6
CONTINUOUS
 10
8.3133290329
 20
7.7055016753
 11
9.2273116011
 21
7.6421167689
  0
LINE
  5
2C1
100
AcDbEntity
  8
0
100
AcDbLine
 62
4
  6
CONTINUOUS
 10
10.9658623763
 20
9.5749152958
 11
10.9917442599
 21
9.599915277
  0
LINE
  5
2C2
100
AcDbEntity
  8
0
100
AcDbLine
 62
4
  6
CONTINUOUS
 10
11.1116589582
 20
9.7014582378
 11
11.1301460184
 21
9.7193153677
  0
LINE
  5
2C3
100
AcDbEntity
  8
0
100
AcDbLine
 62
4
  6
CONTINUOUS
 10
11.1411055339
 20
9.7013300321
 11
11.1651387114
 21
9.7245443003
  0
LINE
  5
2C4
100
AcDbEntity
  8
0
100
AcDbLine
 62
4
  6
CONTINUOUS
 10
11.0363431431
 20
9.5929944919
 11
11.0178560833
 21
9.5751373624
  0
LINE
  5
2C5
100
AcDbEntity
  8
0
100
AcDbLine
 62
4
  6
CONTINUOUS
 10
11.053255707
 20
9.5688545478
 11
11.0791375905
 21
9.593854529
  0
LINE
  5
2C6
100
AcDbEntity
  8
0
100
AcDbLine
 62
4
  6
CONTINUOUS
 10
11.2253852345
 20
9.7184522679
 11
11.2272339411
 21
9.7202379815
  0
LINE
  5
2C7
100
AcDbEntity
  8
0
100
AcDbLine
 62
4
  6
CONTINUOUS
 10
11.2013520576
 20
9.6952380003
 11
11.2198391177
 21
9.7130951301
  0
LINE
  5
2C8
100
AcDbEntity
  8
0
100
AcDbLine
 62
4
  6
CONTINUOUS
 10
11.2399979385
 20
9.6944718205
 11
11.254787586
 21
9.7087575238
  0
LINE
  5
2C9
100
AcDbEntity
  8
0
100
AcDbLine
 62
4
  6
CONTINUOUS
 10
11.3113367442
 20
9.6990940633
 11
11.3168828617
 21
9.7044512018
  0
LINE
  5
2CA
100
AcDbEntity
  8
0
100
AcDbLine
 62
4
  6
CONTINUOUS
 10
11.3434899727
 20
9.6872946236
 11
11.3490360908
 21
9.6926517627
  0
LINE
  5
2CB
100
AcDbEntity
  8
0
100
AcDbLine
 62
7
  6
CONTINUOUS
 10
8.2914087143
 20
9.2849578329
 11
8.3133290329
 21
9.275131236
  0
LINE
  5
2CC
100
AcDbEntity
  8
0
100
AcDbLine
 62
4
  6
CONTINUOUS
 10
10.5524779762
 20
9.6303784973
 11
10.5541939854
 21
9.6034645957
  0
LINE
  5
2CD
100
AcDbEntity
  8
0
100
AcDbLine
 62
4
  6
CONTINUOUS
 10
11.6577173622
 20
9.4894221353
 11
11.6318354787
 21
9.464422154
  0
LINE
  5
2CE
100
AcDbEntity
  8
0
100
AcDbLine
 62
7
  6
CONTINUOUS
 10
13.0872696732
 20
7.9867389974
 11
13.507868899
 21
7.957570342
  0
LINE
  5
2CF
100
AcDbEntity
  8
0
100
AcDbLine
 62
7
  6
CONTINUOUS
 10
13.0739941869
 20
8.0025205843
 11
13.4945934127
 21
7.9733519289
  0
LINE
  5
2D0
100
AcDbEntity
  8
0
100
AcDbLine
 62
7
  6
CONTINUOUS
 10
12.8908009934
 20
8.0529667972
 11
12.894472659
 21
8.0527121663
  0
LINE
  5
2D1
100
AcDbEntity
  8
0
100
AcDbLine
 62
7
  6
CONTINUOUS
 10
12.9137911767
 20
8.0513724226
 11
13.0408145466
 21
8.042563322
  0
LINE
  5
2D2
100
AcDbEntity
  8
0
100
AcDbLine
 62
4
  6
CONTINUOUS
 10
12.0563693637
 20
9.5937403858
 11
12.0628398346
 21
9.5999903811
  0
LINE
  5
2D3
100
AcDbEntity
  8
0
100
AcDbLine
 62
4
  6
CONTINUOUS
 10
12.0806336295
 20
9.6171778682
 11
12.083868865
 21
9.6203028658
  0
LINE
  5
2D4
100
AcDbEntity
  8
0
100
AcDbLine
 62
4
  6
CONTINUOUS
 10
12.1323973966
 20
9.6671778306
 11
12.135632632
 21
9.6703028283
  0
LINE
  5
2D5
100
AcDbEntity
  8
0
100
AcDbLine
 62
4
  6
CONTINUOUS
 10
12.2322252218
 20
9.6636041094
 11
12.2289899864
 21
9.6604791118
  0
LINE
  5
2D6
100
AcDbEntity
  8
0
100
AcDbLine
 62
4
  6
CONTINUOUS
 10
12.1804614548
 20
9.613604147
 11
12.1772262193
 21
9.6104791493
  0
LINE
  5
2D7
100
AcDbEntity
  8
0
100
AcDbLine
 62
4
  6
CONTINUOUS
 10
12.1594324244
 20
9.5932916622
 11
12.1529619535
 21
9.5870416669
  0
LINE
  5
2D8
100
AcDbEntity
  8
0
100
AcDbLine
 62
7
  6
CONTINUOUS
 10
13.0174668743
 20
8.3133180061
 11
13.4380661
 21
8.2841493508
  0
LINE
  5
2D9
100
AcDbEntity
  8
0
100
AcDbLine
 62
7
  6
CONTINUOUS
 10
13.0174668743
 20
8.3705274516
 11
13.4380661
 21
8.3413587962
  0
LINE
  5
2DA
100
AcDbEntity
  8
0
100
AcDbLine
 62
4
  6
CONTINUOUS
 10
10.828869129
 20
9.7402089909
 11
10.8310804941
 21
9.7209164204
  0
LINE
  5
2DB
100
AcDbEntity
  8
0
100
AcDbLine
 62
7
  6
CONTINUOUS
 10
11.0967835946
 20
8.5307823817
 11
11.0995865784
 21
8.5352094615
  0
LINE
  5
2DC
100
AcDbEntity
  8
0
100
AcDbLine
 62
7
  6
CONTINUOUS
 10
12.5346607505
 20
9.8037344419
 11
12.1270210786
 21
9.4099847316
  0
LINE
  5
2DD
100
AcDbEntity
  8
0
100
AcDbLine
 62
7
  6
CONTINUOUS
 10
12.2460777533
 20
9.4641313247
 11
12.4158629068
 21
9.628131199
  0
LINE
  5
2DE
100
AcDbEntity
  8
0
100
AcDbLine
 62
7
  6
CONTINUOUS
 10
12.7588159256
 20
8.9741761647
 11
12.7208488394
 21
8.9685027734
  0
LINE
  5
2DF
100
AcDbEntity
  8
0
100
AcDbLine
 62
4
  6
CONTINUOUS
 10
9.6001164671
 20
9.8128488065
 11
9.595302322
 21
9.8165320306
  0
LINE
  5
2E0
100
AcDbEntity
  8
0
100
AcDbLine
 62
4
  6
CONTINUOUS
 10
9.6339703209
 20
9.8205491197
 11
9.6387844718
 21
9.8168658952
  0
LINE
  5
2E1
100
AcDbEntity
  8
0
100
AcDbLine
 62
7
  6
CONTINUOUS
 10
13.0739941869
 20
8.7905272623
 11
13.4945934127
 21
8.7613586069
  0
LINE
  5
2E2
100
AcDbEntity
  8
0
100
AcDbLine
 62
4
  6
CONTINUOUS
 10
9.690316
 20
9.8166415336
 11
9.6951301472
 21
9.8129583094
  0
LINE
  5
2E3
100
AcDbEntity
  8
0
100
AcDbLine
 62
4
  6
CONTINUOUS
 10
11.1448108157
 20
9.5249923251
 11
11.1491141165
 21
9.4978989942
  0
LINE
  5
2E4
100
AcDbEntity
  8
0
100
AcDbLine
 62
7
  6
CONTINUOUS
 10
12.8179059012
 20
9.4244749079
 11
12.9876910547
 21
9.5884747823
  0
LINE
  5
2E5
100
AcDbEntity
  8
0
100
AcDbLine
 62
7
  6
CONTINUOUS
 10
12.8478496036
 20
9.3924546027
 11
13.0176347571
 21
9.5564544771
  0
LINE
  5
2E6
100
AcDbEntity
  8
0
100
AcDbLine
 62
7
  6
CONTINUOUS
 10
13.0872696732
 20
8.8319551208
 11
13.507868899
 21
8.8027864654
  0
LINE
  5
2E7
100
AcDbEntity
  8
0
100
AcDbLine
 62
7
  6
CONTINUOUS
 10
12.9499137689
 20
8.9059208882
 11
12.9536250357
 21
8.905663511
  0
LINE
  5
2E8
100
AcDbEntity
  8
0
100
AcDbLine
 62
7
  6
CONTINUOUS
 10
12.9729435534
 20
8.9043237672
 11
13.1004786234
 21
8.8954791801
  0
LINE
  5
2E9
100
AcDbEntity
  8
0
100
AcDbLine
 62
7
  6
CONTINUOUS
 10
12.7208488394
 20
8.9685027734
 11
12.1490206915
 21
9.0081591902
  0
LINE
  5
2EA
100
AcDbEntity
  8
0
100
AcDbLine
 62
7
  6
CONTINUOUS
 10
8.3133290329
 20
9.275131236
 11
9.2273116011
 21
9.2117463297
  0
LINE
  5
2EB
100
AcDbEntity
  8
0
100
AcDbLine
 62
7
  6
CONTINUOUS
 10
13.2003242985
 20
8.9411575096
 11
13.6209235243
 21
8.9119888542
  0
LINE
  5
2EC
100
AcDbEntity
  8
0
100
AcDbLine
 62
4
  6
CONTINUOUS
 10
10.3685634892
 20
9.5631949038
 11
10.3608030625
 21
9.5681989069
  0
LINE
  5
2ED
100
AcDbEntity
  8
0
100
AcDbLine
 62
4
  6
CONTINUOUS
 10
10.3754673949
 20
9.5761135651
 11
10.3715871812
 21
9.5786155663
  0
LINE
  5
2EE
100
AcDbEntity
  8
0
100
AcDbLine
 62
4
  6
CONTINUOUS
 10
10.6154808801
 20
9.7626632004
 11
10.6378952915
 21
9.7343138597
  0
LINE
  5
2EF
100
AcDbEntity
  8
0
100
AcDbLine
 62
4
  6
CONTINUOUS
 10
12.1529619535
 20
9.5870416669
 11
12.1416773375
 21
9.5844748957
  0
LINE
  5
2F0
100
AcDbEntity
  8
0
100
AcDbLine
 62
4
  6
CONTINUOUS
 10
12.1772262193
 20
9.6104791493
 11
12.1659416033
 21
9.6079123781
  0
LINE
  5
2F1
100
AcDbEntity
  8
0
100
AcDbLine
 62
4
  6
CONTINUOUS
 10
12.083868865
 20
9.6203028658
 11
12.0951534831
 21
9.6228696369
  0
LINE
  5
2F2
100
AcDbEntity
  8
0
100
AcDbLine
 62
4
  6
CONTINUOUS
 10
9.6275385581
 20
9.822669845
 11
9.6339703209
 21
9.8205491197
  0
LINE
  5
2F3
100
AcDbEntity
  8
0
100
AcDbLine
 62
4
  6
CONTINUOUS
 10
9.6774524707
 20
9.8208829844
 11
9.690316
 21
9.8166415336
  0
LINE
  5
2F4
100
AcDbEntity
  8
0
100
AcDbLine
 62
4
  6
CONTINUOUS
 10
10.4719841533
 20
9.6359607629
 11
10.4820856822
 21
9.6314323774
  0
LINE
  5
2F5
100
AcDbEntity
  8
0
100
AcDbLine
 62
4
  6
CONTINUOUS
 10
10.7615961696
 20
9.5493354436
 11
10.7654763818
 21
9.5468334409
  0
LINE
  5
2F6
100
AcDbEntity
  8
0
100
AcDbLine
 62
4
  6
CONTINUOUS
 10
11.0574538865
 20
9.7205287421
 11
11.0542518538
 21
9.7245786459
  0
LINE
  5
2F7
100
AcDbEntity
  8
0
100
AcDbLine
 62
4
  6
CONTINUOUS
 10
12.0458832942
 20
9.3122574889
 11
12.0458832942
 21
7.1070486968
  0
LINE
  5
2F8
100
AcDbEntity
  8
0
100
AcDbLine
 62
4
  6
CONTINUOUS
 10
12.2289899864
 20
9.6604791118
 11
12.2177053704
 21
9.6579123405
  0
LINE
  5
2F9
100
AcDbEntity
  8
0
100
AcDbLine
 62
4
  6
CONTINUOUS
 10
12.135632632
 20
9.6703028283
 11
12.1469172502
 21
9.6728695993
  0
LINE
  5
2FA
100
AcDbEntity
  8
0
100
AcDbLine
 62
4
  6
CONTINUOUS
 10
12.1416773375
 20
9.5844748957
 11
12.1223433352
 21
9.5824663513
  0
LINE
  5
2FB
100
AcDbEntity
  8
0
100
AcDbLine
 62
4
  6
CONTINUOUS
 10
12.1659416033
 20
9.6079123781
 11
12.1562745993
 21
9.6069081061
  0
LINE
  5
2FC
100
AcDbEntity
  8
0
100
AcDbLine
 62
4
  6
CONTINUOUS
 10
12.0951534831
 20
9.6228696369
 11
12.1144874833
 21
9.6248781814
  0
LINE
  5
2FD
100
AcDbEntity
  8
0
100
AcDbLine
 62
4
  6
CONTINUOUS
 10
12.2177053704
 20
9.6579123405
 11
12.2080383664
 21
9.6569080686
  0
LINE
  5
2FE
100
AcDbEntity
  8
0
100
AcDbLine
 62
4
  6
CONTINUOUS
 10
12.1469172502
 20
9.6728695993
 11
12.1662512504
 21
9.6748781439
  0
LINE
  5
2FF
100
AcDbEntity
  8
0
100
AcDbLine
 62
4
  6
CONTINUOUS
 10
10.752968874
 20
9.5410021155
 11
10.7387379772
 21
9.5397561241
  0
LINE
  5
300
100
AcDbEntity
  8
0
100
AcDbLine
 62
4
  6
CONTINUOUS
 10
9.3074834144
 20
9.5021661656
 11
12.0458832942
 21
9.3122574889
  0
LINE
  5
301
100
AcDbEntity
  8
0
100
AcDbLine
 62
7
  6
CONTINUOUS
 10
12.1270210786
 20
9.4099847316
 11
9.2273116011
 21
9.6110802669
  0
LINE
  5
302
100
AcDbEntity
  8
0
100
AcDbLine
 62
4
  6
CONTINUOUS
 10
10.3034460396
 20
9.5565462745
 11
10.3457052976
 21
9.553615585
  0
LINE
  5
303
100
AcDbEntity
  8
0
100
AcDbLine
 62
4
  6
CONTINUOUS
 10
11.1094451164
 20
9.509581681
 11
11.1456673376
 21
9.5070696614
  0
LINE
  5
304
100
AcDbEntity
  8
0
100
AcDbLine
 62
4
  6
CONTINUOUS
 10
10.7387379772
 20
9.5397561241
 11
10.7085527929
 21
9.5418494737
  0
LINE
  5
305
100
AcDbEntity
  8
0
100
AcDbLine
 62
4
  6
CONTINUOUS
 10
10.3185438045
 20
9.5711295964
 11
10.3608030625
 21
9.5681989069
  0
LINE
  5
306
100
AcDbEntity
  8
0
100
AcDbLine
 62
4
  6
CONTINUOUS
 10
10.3715871812
 20
9.5786155663
 11
10.3293279231
 21
9.5815462558
  0
LINE
  5
307
100
AcDbEntity
  8
0
100
AcDbLine
 62
4
  6
CONTINUOUS
 10
9.7555678507
 20
9.6213366519
 11
9.8159382193
 21
9.6171499526
  0
LINE
  5
308
100
AcDbEntity
  8
0
100
AcDbLine
 62
4
  6
CONTINUOUS
 10
10.7214937346
 20
9.5543494644
 11
10.7516789189
 21
9.5522561147
  0
LINE
  5
309
100
AcDbEntity
  8
0
100
AcDbLine
 62
4
  6
CONTINUOUS
 10
11.6275321779
 20
9.4915154849
 11
11.6879025465
 21
9.4873287856
  0
LINE
  5
30A
100
AcDbEntity
  8
0
100
AcDbLine
 62
7
  6
CONTINUOUS
 10
12.8179059012
 20
9.4244749079
 11
12.2460777533
 21
9.4641313247
  0
LINE
  5
30B
100
AcDbEntity
  8
0
100
AcDbLine
 62
7
  6
CONTINUOUS
 10
8.4103860947
 20
9.7311033705
 11
9.2885214815
 21
9.6702044746
  0
LINE
  5
30C
100
AcDbEntity
  8
0
100
AcDbLine
 62
4
  6
CONTINUOUS
 10
10.3675013891
 20
9.6278952982
 11
10.3993686841
 21
9.620581504
  0
LINE
  5
30D
100
AcDbEntity
  8
0
100
AcDbLine
 62
4
  6
CONTINUOUS
 10
10.7516789189
 20
9.5522561147
 11
10.7615961696
 21
9.5493354436
  0
LINE
  5
30E
100
AcDbEntity
  8
0
100
AcDbLine
 62
4
  6
CONTINUOUS
 10
10.8399341413
 20
9.6687541411
 11
10.8506519119
 21
9.6648209936
  0
LINE
  5
30F
100
AcDbEntity
  8
0
100
AcDbLine
 62
4
  6
CONTINUOUS
 10
10.4935017636
 20
9.7519832698
 11
10.4562977046
 21
9.766046907
  0
LINE
  5
310
100
AcDbEntity
  8
0
100
AcDbLine
 62
4
  6
CONTINUOUS
 10
10.4396593505
 20
9.7499754901
 11
10.4447101155
 21
9.7477112972
  0
LINE
  5
311
100
AcDbEntity
  8
0
100
AcDbLine
 62
4
  6
CONTINUOUS
 10
10.8232733525
 20
9.5848038782
 11
10.8131718298
 21
9.5893322636
  0
LINE
  5
312
100
AcDbEntity
  8
0
100
AcDbLine
 62
4
  6
CONTINUOUS
 10
10.5174022326
 20
9.7464979242
 11
10.5275037611
 21
9.7419695383
  0
LINE
  5
313
100
AcDbEntity
  8
0
100
AcDbLine
 62
4
  6
CONTINUOUS
 10
10.9037671466
 20
9.5792216146
 11
10.8936656239
 21
9.5837500001
  0
LINE
  5
314
100
AcDbEntity
  8
0
100
AcDbLine
 62
4
  6
CONTINUOUS
 10
10.5050893526
 20
9.7703188788
 11
10.5101401163
 21
9.7680546853
  0
LINE
  5
315
100
AcDbEntity
  8
0
100
AcDbLine
 62
4
  6
CONTINUOUS
 10
10.9503474554
 20
9.6027861552
 11
10.9604489785
 21
9.5982577701
  0
LINE
  5
316
100
AcDbEntity
  8
0
100
AcDbLine
 62
4
  6
CONTINUOUS
 10
10.834508903
 20
9.6563709092
 11
10.8446104376
 21
9.6518425233
  0
LINE
  5
317
100
AcDbEntity
  8
0
100
AcDbLine
 62
4
  6
CONTINUOUS
 10
11.02624162
 20
9.597522877
 11
11.0363431431
 21
9.5929944919
  0
LINE
  5
318
100
AcDbEntity
  8
0
100
AcDbLine
 62
4
  6
CONTINUOUS
 10
10.7943717689
 20
9.742601391
 11
10.7994225297
 21
9.7403371977
  0
LINE
  5
319
100
AcDbEntity
  8
0
100
AcDbLine
 62
4
  6
CONTINUOUS
 10
10.9852571337
 20
9.729363446
 11
10.9880080566
 21
9.727258747
  0
LINE
  5
31A
100
AcDbEntity
  8
0
100
AcDbLine
 62
7
  6
CONTINUOUS
 10
12.1270210786
 20
6.9951700228
 11
12.1270210786
 21
9.4099847316
  0
LINE
  5
31B
100
AcDbEntity
  8
0
100
AcDbLine
 62
7
  6
CONTINUOUS
 10
12.1490206915
 20
7.4385296294
 11
12.1490206915
 21
9.0081591902
  0
LINE
  5
31C
100
AcDbEntity
  8
0
100
AcDbLine
 62
7
  6
CONTINUOUS
 10
12.9333458347
 20
8.8805392052
 11
12.9415374806
 21
8.8889574015
  0
LINE
  5
31D
100
AcDbEntity
  8
0
100
AcDbLine
 62
7
  6
CONTINUOUS
 10
12.943367365
 20
8.8907814101
 11
12.9415372639
 21
8.8889571788
  0
LINE
  5
31E
100
AcDbEntity
  8
0
100
AcDbLine
 62
7
  6
CONTINUOUS
 10
13.0854370155
 20
8.881991764
 11
13.0952733443
 21
8.8911463793
  0
LINE
  5
31F
100
AcDbEntity
  8
0
100
AcDbLine
 62
4
  6
CONTINUOUS
 10
10.7611627355
 20
9.5426667784
 11
10.752968874
 21
9.5410021155
  0
LINE
  5
320
100
AcDbEntity
  8
0
100
AcDbLine
 62
4
  6
CONTINUOUS
 10
10.3457052976
 20
9.553615585
 11
10.3620930187
 21
9.5569449088
  0
LINE
  5
321
100
AcDbEntity
  8
0
100
AcDbLine
 62
4
  6
CONTINUOUS
 10
10.3608030625
 20
9.5681989069
 11
10.368996924
 21
9.5698635698
  0
LINE
  5
322
100
AcDbEntity
  8
0
100
AcDbLine
 62
4
  6
CONTINUOUS
 10
11.0178560833
 20
9.5751373624
 11
11.0003597364
 21
9.5725228958
  0
LINE
  5
323
100
AcDbEntity
  8
0
100
AcDbLine
 62
4
  6
CONTINUOUS
 10
10.9419619188
 20
9.5804006406
 11
10.9244655719
 21
9.577786174
  0
LINE
  5
324
100
AcDbEntity
  8
0
100
AcDbLine
 62
4
  6
CONTINUOUS
 10
10.9121526836
 20
9.6016071295
 11
10.9296490302
 21
9.6042215958
  0
LINE
  5
325
100
AcDbEntity
  8
0
100
AcDbLine
 62
4
  6
CONTINUOUS
 10
10.8316588895
 20
9.6071893931
 11
10.849155236
 21
9.6098038594
  0
LINE
  5
326
100
AcDbEntity
  8
0
100
AcDbLine
 62
4
  6
CONTINUOUS
 10
11.3347418223
 20
9.6859873887
 11
11.3434899727
 21
9.6872946236
  0
LINE
  5
327
100
AcDbEntity
  8
0
100
AcDbLine
 62
4
  6
CONTINUOUS
 10
11.3168828617
 20
9.7044512018
 11
11.3256310127
 21
9.7057584373
  0
LINE
  5
328
100
AcDbEntity
  8
0
100
AcDbLine
 62
4
  6
CONTINUOUS
 10
10.8390643196
 20
9.6464853844
 11
10.8215679612
 21
9.6438709186
  0
LINE
  5
329
100
AcDbEntity
  8
0
100
AcDbLine
 62
4
  6
CONTINUOUS
 10
11.254787586
 20
9.7087575238
 11
11.263535737
 21
9.7100647593
  0
LINE
  5
32A
100
AcDbEntity
  8
0
100
AcDbLine
 62
4
  6
CONTINUOUS
 10
10.8451057936
 20
9.6594638544
 11
10.8276094355
 21
9.6568493889
  0
LINE
  5
32B
100
AcDbEntity
  8
0
100
AcDbLine
 62
4
  6
CONTINUOUS
 10
10.4635986225
 20
9.6135752479
 11
10.4461022698
 21
9.6109607816
  0
LINE
  5
32C
100
AcDbEntity
  8
0
100
AcDbLine
 62
4
  6
CONTINUOUS
 10
11.1701397918
 20
9.5722321359
 11
11.1284127343
 21
9.5700221274
  0
LINE
  5
32D
100
AcDbEntity
  8
0
100
AcDbLine
 62
4
  6
CONTINUOUS
 10
12.2111961915
 20
9.6432916247
 11
12.1016626599
 21
9.6374903529
  0
LINE
  5
32E
100
AcDbEntity
  8
0
100
AcDbLine
 62
4
  6
CONTINUOUS
 10
10.4092284499
 20
9.6301053069
 11
10.3675013891
 21
9.6278952982
  0
LINE
  5
32F
100
AcDbEntity
  8
0
100
AcDbLine
 62
4
  6
CONTINUOUS
 10
11.0086622578
 20
9.7162567682
 11
11.0243098985
 21
9.7170855216
  0
LINE
  5
330
100
AcDbEntity
  8
0
100
AcDbLine
 62
4
  6
CONTINUOUS
 10
10.8868158372
 20
9.7342764512
 11
10.9024634787
 21
9.7351052054
  0
LINE
  5
331
100
AcDbEntity
  8
0
100
AcDbLine
 62
4
  6
CONTINUOUS
 10
12.1223433352
 20
9.5824663513
 11
12.09657757
 21
9.5825785322
  0
LINE
  5
332
100
AcDbEntity
  8
0
100
AcDbLine
 62
4
  6
CONTINUOUS
 10
12.1144874833
 20
9.6248781814
 11
12.1402532485
 21
9.6247660005
  0
LINE
  5
333
100
AcDbEntity
  8
0
100
AcDbLine
 62
4
  6
CONTINUOUS
 10
12.1662512504
 20
9.6748781439
 11
12.1920170156
 21
9.674765963
  0
LINE
  5
334
100
AcDbEntity
  8
0
100
AcDbLine
 62
4
  6
CONTINUOUS
 10
11.0003597364
 20
9.5725228958
 11
10.9658623763
 21
9.5749152958
  0
LINE
  5
335
100
AcDbEntity
  8
0
100
AcDbLine
 62
4
  6
CONTINUOUS
 10
10.9244655719
 20
9.577786174
 11
10.9037671466
 21
9.5792216146
  0
LINE
  5
336
100
AcDbEntity
  8
0
100
AcDbLine
 62
4
  6
CONTINUOUS
 10
10.8508712221
 20
9.5828899594
 11
10.8232733525
 21
9.5848038782
  0
LINE
  5
337
100
AcDbEntity
  8
0
100
AcDbLine
 62
4
  6
CONTINUOUS
 10
10.4461022698
 20
9.6109607816
 11
10.4116049212
 21
9.6133531809
  0
LINE
  5
338
100
AcDbEntity
  8
0
100
AcDbLine
 62
4
  6
CONTINUOUS
 10
10.66458551
 20
9.5958089175
 11
10.7059823375
 21
9.5929380377
  0
LINE
  5
339
100
AcDbEntity
  8
0
100
AcDbLine
 62
4
  6
CONTINUOUS
 10
11.053255707
 20
9.5688545478
 11
11.0946525114
 21
9.5659836696
  0
LINE
  5
33A
100
AcDbEntity
  8
0
100
AcDbLine
 62
4
  6
CONTINUOUS
 10
10.5155923295
 20
9.6137973145
 11
10.5523895043
 21
9.6112454218
  0
LINE
  5
33B
100
AcDbEntity
  8
0
100
AcDbLine
 62
4
  6
CONTINUOUS
 10
11.095643225
 20
9.5812263332
 11
11.0680453554
 21
9.5831402519
  0
LINE
  5
33C
100
AcDbEntity
  8
0
100
AcDbLine
 62
4
  6
CONTINUOUS
 10
10.706973051
 20
9.6081807013
 11
10.6793751584
 21
9.6100946217
  0
LINE
  5
33D
100
AcDbEntity
  8
0
100
AcDbLine
 62
4
  6
CONTINUOUS
 10
10.4374868048
 20
9.6383531621
 11
10.4719841533
 21
9.6359607629
  0
LINE
  5
33E
100
AcDbEntity
  8
0
100
AcDbLine
 62
4
  6
CONTINUOUS
 10
10.6076737385
 20
9.6265506582
 11
10.6628695008
 21
9.622722819
  0
LINE
  5
33F
100
AcDbEntity
  8
0
100
AcDbLine
 62
4
  6
CONTINUOUS
 10
10.6904673935
 20
9.6208088987
 11
10.731864221
 21
9.6179380189
  0
LINE
  5
340
100
AcDbEntity
  8
0
100
AcDbLine
 62
4
  6
CONTINUOUS
 10
10.849155236
 20
9.6098038594
 11
10.8767531057
 21
9.6078899407
  0
LINE
  5
341
100
AcDbEntity
  8
0
100
AcDbLine
 62
4
  6
CONTINUOUS
 10
10.9296490302
 20
9.6042215958
 11
10.9503474554
 21
9.6027861552
  0
LINE
  5
342
100
AcDbEntity
  8
0
100
AcDbLine
 62
4
  6
CONTINUOUS
 10
10.9917442599
 20
9.599915277
 11
11.02624162
 21
9.597522877
  0
LINE
  5
343
100
AcDbEntity
  8
0
100
AcDbLine
 62
4
  6
CONTINUOUS
 10
11.0791375905
 20
9.593854529
 11
11.1205343949
 21
9.5909836508
  0
LINE
  5
344
100
AcDbEntity
  8
0
100
AcDbLine
 62
4
  6
CONTINUOUS
 10
10.8215679612
 20
9.6438709186
 11
10.7870706126
 21
9.6462633178
  0
LINE
  5
345
100
AcDbEntity
  8
0
100
AcDbLine
 62
4
  6
CONTINUOUS
 10
10.8000115544
 20
9.6587633084
 11
10.834508903
 21
9.6563709092
  0
LINE
  5
346
100
AcDbEntity
  8
0
100
AcDbLine
 62
4
  6
CONTINUOUS
 10
10.774262377
 20
9.6624629418
 11
10.7328655524
 21
9.6653338213
  0
LINE
  5
347
100
AcDbEntity
  8
0
100
AcDbLine
 62
4
  6
CONTINUOUS
 10
10.7439577875
 20
9.6760480983
 11
10.7853546121
 21
9.6731772188
  0
LINE
  5
348
100
AcDbEntity
  8
0
100
AcDbLine
 62
4
  6
CONTINUOUS
 10
10.8129524962
 20
9.671263299
 11
10.8336509041
 21
9.6698278596
  0
LINE
  5
349
100
AcDbEntity
  8
0
100
AcDbLine
 62
4
  6
CONTINUOUS
 10
10.8888466722
 20
9.66600002
 11
10.9371429671
 21
9.6626506606
  0
LINE
  5
34A
100
AcDbEntity
  8
0
100
AcDbLine
 62
4
  6
CONTINUOUS
 10
9.5451561726
 20
9.768094567
 11
9.6417487624
 21
9.7613958481
  0
LINE
  5
34B
100
AcDbEntity
  8
0
100
AcDbLine
 62
4
  6
CONTINUOUS
 10
12.0628398346
 20
9.5999903811
 11
12.1594324244
 21
9.5932916622
  0
LINE
  5
34C
100
AcDbEntity
  8
0
100
AcDbLine
 62
4
  6
CONTINUOUS
 10
10.8042197156
 20
9.7163994846
 11
10.8180186504
 21
9.7154425252
  0
LINE
  5
34D
100
AcDbEntity
  8
0
100
AcDbLine
 62
4
  6
CONTINUOUS
 10
11.2726466386
 20
9.6902937043
 11
11.2450486768
 21
9.6922076294
  0
LINE
  5
34E
100
AcDbEntity
  8
0
100
AcDbLine
 62
4
  6
CONTINUOUS
 10
11.1599552531
 20
9.6981088784
 11
11.1461563183
 21
9.6990658378
  0
LINE
  5
34F
100
AcDbEntity
  8
0
100
AcDbLine
 62
4
  6
CONTINUOUS
 10
11.0426642381
 20
9.7062430379
 11
11.0150663685
 21
9.7081569567
  0
LINE
  5
350
100
AcDbEntity
  8
0
100
AcDbLine
 62
4
  6
CONTINUOUS
 10
10.9115742882
 20
9.7153341568
 11
10.8839764186
 21
9.7172480756
  0
LINE
  5
351
100
AcDbEntity
  8
0
100
AcDbLine
 62
4
  6
CONTINUOUS
 10
10.4447101155
 20
9.7477112972
 11
10.4723079988
 21
9.7457973775
  0
LINE
  5
352
100
AcDbEntity
  8
0
100
AcDbLine
 62
4
  6
CONTINUOUS
 10
10.5275037611
 20
9.7419695383
 11
10.5482021806
 21
9.7405340981
  0
LINE
  5
353
100
AcDbEntity
  8
0
100
AcDbLine
 62
4
  6
CONTINUOUS
 10
11.0771615982
 20
9.7038506379
 11
11.1116589582
 21
9.7014582378
  0
LINE
  5
354
100
AcDbEntity
  8
0
100
AcDbLine
 62
4
  6
CONTINUOUS
 10
11.3071439526
 20
9.6879013074
 11
11.3347418223
 21
9.6859873887
  0
LINE
  5
355
100
AcDbEntity
  8
0
100
AcDbLine
 62
4
  6
CONTINUOUS
 10
11.0243098985
 20
9.7170855216
 11
11.0519077681
 21
9.7151716028
  0
LINE
  5
356
100
AcDbEntity
  8
0
100
AcDbLine
 62
7
  6
CONTINUOUS
 10
12.9876910547
 20
9.5884747823
 11
12.4158629068
 21
9.628131199
  0
LINE
  5
357
100
AcDbEntity
  8
0
100
AcDbLine
 62
7
  6
CONTINUOUS
 10
8.5801712482
 20
9.8951032449
 11
9.4583066349
 21
9.834204349
  0
LINE
  5
358
100
AcDbEntity
  8
0
100
AcDbLine
 62
4
  6
CONTINUOUS
 10
9.6194891775
 20
9.8232280714
 11
9.6275385581
 21
9.822669845
  0
LINE
  5
359
100
AcDbEntity
  8
0
100
AcDbLine
 62
4
  6
CONTINUOUS
 10
11.0542518538
 20
9.7245786459
 11
11.0197544937
 21
9.7269710459
  0
LINE
  5
35A
100
AcDbEntity
  8
0
100
AcDbLine
 62
4
  6
CONTINUOUS
 10
10.7598744088
 20
9.744993791
 11
10.7943717689
 21
9.742601391
  0
LINE
  5
35B
100
AcDbEntity
  8
0
100
AcDbLine
 62
4
  6
CONTINUOUS
 10
10.9024634787
 20
9.7351052054
 11
10.9300613483
 21
9.7331912867
  0
LINE
  5
35C
100
AcDbEntity
  8
0
100
AcDbLine
 62
4
  6
CONTINUOUS
 10
10.957659264
 20
9.7312773647
 11
10.9852571337
 21
9.729363446
  0
LINE
  5
35D
100
AcDbEntity
  8
0
100
AcDbLine
 62
4
  6
CONTINUOUS
 10
11.263535737
 20
9.7100647593
 11
11.2911336987
 21
9.7081508341
  0
LINE
  5
35E
100
AcDbEntity
  8
0
100
AcDbLine
 62
4
  6
CONTINUOUS
 10
11.3256310127
 20
9.7057584373
 11
11.3532288824
 21
9.7038445185
  0
LINE
  5
35F
100
AcDbEntity
  8
0
100
AcDbLine
 62
4
  6
CONTINUOUS
 10
9.6694030872
 20
9.821441211
 11
9.6774524707
 21
9.8208829844
  0
LINE
  5
360
100
AcDbEntity
  8
0
100
AcDbLine
 62
4
  6
CONTINUOUS
 10
10.4774914701
 20
9.7722327984
 11
10.5050893526
 21
9.7703188788
  0
LINE
  5
361
100
AcDbEntity
  8
0
100
AcDbLine
 62
4
  6
CONTINUOUS
 10
11.2272339411
 20
9.7202379815
 11
11.2295337559
 21
9.7200784888
  0
LINE
  5
362
100
AcDbEntity
  8
0
100
AcDbLine
 62
7
  6
CONTINUOUS
 10
12.4418069316
 20
9.6400104597
 11
13.0136350795
 21
9.6003540429
  0
LINE
  5
363
100
AcDbEntity
  8
0
100
AcDbLine
 62
7
  6
CONTINUOUS
 10
9.4715190375
 20
9.8469665506
 11
8.606115273
 21
9.9069825056
  0
LINE
  5
364
100
AcDbEntity
  8
0
100
AcDbLine
 62
4
  6
CONTINUOUS
 10
11.343369117
 20
9.694320716
 11
11.317003718
 21
9.69742511
  0
LINE
  5
365
100
AcDbEntity
  8
0
100
AcDbLine
 62
4
  6
CONTINUOUS
 10
12.09657757
 20
9.5825785322
 11
12.0740470403
 21
9.5858157108
  0
LINE
  5
366
100
AcDbEntity
  8
0
100
AcDbLine
 62
4
  6
CONTINUOUS
 10
9.7113063244
 20
9.8285832976
 11
9.6228018233
 21
9.8430945106
  0
LINE
  5
367
100
AcDbEntity
  8
0
100
AcDbLine
 62
4
  6
CONTINUOUS
 10
10.8336509041
 20
9.6698278596
 11
10.8399341413
 21
9.6687541411
  0
LINE
  5
368
100
AcDbEntity
  8
0
100
AcDbLine
 62
4
  6
CONTINUOUS
 10
11.1382725
 20
9.5795459303
 11
11.1701397918
 21
9.5722321359
  0
LINE
  5
369
100
AcDbEntity
  8
0
100
AcDbLine
 62
4
  6
CONTINUOUS
 10
10.8839764186
 20
9.7172480756
 11
10.8720261898
 21
9.719990748
  0
LINE
  5
36A
100
AcDbEntity
  8
0
100
AcDbLine
 62
4
  6
CONTINUOUS
 10
11.0150663685
 20
9.7081569567
 11
11.0031161397
 21
9.7108996291
  0
LINE
  5
36B
100
AcDbEntity
  8
0
100
AcDbLine
 62
4
  6
CONTINUOUS
 10
11.317003718
 20
9.69742511
 11
11.3113367442
 21
9.6990940633
  0
LINE
  5
36C
100
AcDbEntity
  8
0
100
AcDbLine
 62
4
  6
CONTINUOUS
 10
11.3490360908
 20
9.6926517627
 11
11.343369117
 21
9.694320716
  0
LINE
  5
36D
100
AcDbEntity
  8
0
100
AcDbLine
 62
4
  6
CONTINUOUS
 10
11.0721108138
 20
9.7061148322
 11
11.0771615982
 21
9.7038506379
  0
LINE
  5
36E
100
AcDbEntity
  8
0
100
AcDbLine
 62
4
  6
CONTINUOUS
 10
11.1461563183
 20
9.6990658378
 11
11.1411055339
 21
9.7013300321
  0
LINE
  5
36F
100
AcDbEntity
  8
0
100
AcDbLine
 62
4
  6
CONTINUOUS
 10
11.2450486768
 20
9.6922076294
 11
11.2399979385
 21
9.6944718205
  0
LINE
  5
370
100
AcDbEntity
  8
0
100
AcDbLine
 62
4
  6
CONTINUOUS
 10
11.3020932143
 20
9.6901654985
 11
11.3071439526
 21
9.6879013074
  0
LINE
  5
371
100
AcDbEntity
  8
0
100
AcDbLine
 62
4
  6
CONTINUOUS
 10
11.3532288824
 20
9.7038445185
 11
11.3582796201
 21
9.7015803268
  0
LINE
  5
372
100
AcDbEntity
  8
0
100
AcDbLine
 62
7
  6
CONTINUOUS
 10
12.8778556617
 20
8.0803952322
 11
12.8848068709
 21
8.0709268753
  0
LINE
  5
373
100
AcDbEntity
  8
0
100
AcDbLine
 62
7
  6
CONTINUOUS
 10
12.8778556617
 20
8.0803952322
 11
12.8778457316
 21
8.080408761
  0
LINE
  5
374
100
AcDbEntity
  8
0
100
AcDbLine
 62
4
  6
CONTINUOUS
 10
10.5482021806
 20
9.7405340981
 11
10.5656985275
 21
9.7431485647
  0
LINE
  5
375
100
AcDbEntity
  8
0
100
AcDbLine
 62
4
  6
CONTINUOUS
 10
10.4723079988
 20
9.7457973775
 11
10.4898043515
 21
9.7484118437
  0
LINE
  5
376
100
AcDbEntity
  8
0
100
AcDbLine
 62
4
  6
CONTINUOUS
 10
10.4599951163
 20
9.7696183326
 11
10.4774914701
 21
9.7722327984
  0
LINE
  5
377
100
AcDbEntity
  8
0
100
AcDbLine
 62
4
  6
CONTINUOUS
 10
9.6806102936
 20
9.8072665407
 11
9.6709432932
 21
9.8062622684
  0
LINE
  5
378
100
AcDbEntity
  8
0
100
AcDbLine
 62
4
  6
CONTINUOUS
 10
9.6500690878
 20
9.8194326665
 11
9.6694030872
 21
9.821441211
  0
LINE
  5
379
100
AcDbEntity
  8
0
100
AcDbLine
 62
4
  6
CONTINUOUS
 10
9.6098221734
 20
9.8222237995
 11
9.6194891775
 21
9.8232280714
  0
LINE
  5
37A
100
AcDbEntity
  8
0
100
AcDbLine
 62
4
  6
CONTINUOUS
 10
9.6228018233
 20
9.8430945106
 11
9.7274825017
 21
9.8442082859
  0
LINE
  5
37B
100
AcDbEntity
  8
0
100
AcDbLine
 62
7
  6
CONTINUOUS
 10
12.5346607505
 20
9.8037344419
 11
9.6349512731
 21
10.0048299772
  0
LINE
  5
37C
100
AcDbEntity
  8
0
100
AcDbLine
 62
4
  6
CONTINUOUS
 10
12.1402532485
 20
9.6247660005
 11
12.1627837782
 21
9.621528822
  0
LINE
  5
37D
100
AcDbEntity
  8
0
100
AcDbLine
 62
4
  6
CONTINUOUS
 10
12.1920170156
 20
9.674765963
 11
12.2145475453
 21
9.6715287844
  0
LINE
  5
37E
100
AcDbEntity
  8
0
100
AcDbLine
 62
4
  6
CONTINUOUS
 10
12.1146036017
 20
9.6499903435
 11
12.1982552497
 21
9.6307916341
  0
LINE
  5
37F
100
AcDbEntity
  8
0
100
AcDbLine
 62
4
  6
CONTINUOUS
 10
12.0740470403
 20
9.5858157108
 11
12.061183511
 21
9.5900571615
  0
LINE
  5
380
100
AcDbEntity
  8
0
100
AcDbLine
 62
4
  6
CONTINUOUS
 10
12.0918795418
 20
9.6113739185
 11
12.0854477768
 21
9.6134946439
  0
LINE
  5
381
100
AcDbEntity
  8
0
100
AcDbLine
 62
4
  6
CONTINUOUS
 10
12.1627837782
 20
9.621528822
 11
12.1756473096
 21
9.6172873711
  0
LINE
  5
382
100
AcDbEntity
  8
0
100
AcDbLine
 62
4
  6
CONTINUOUS
 10
12.1436433089
 20
9.661373881
 11
12.1372115439
 21
9.6634946064
  0
LINE
  5
383
100
AcDbEntity
  8
0
100
AcDbLine
 62
7
  6
CONTINUOUS
 10
13.0282903872
 20
8.0579624305
 11
13.0796239924
 21
7.9948450801
  0
LINE
  5
384
100
AcDbEntity
  8
0
100
AcDbLine
 62
7
  6
CONTINUOUS
 10
12.5346607505
 20
9.6335710255
 11
12.5346607505
 21
9.8037344419
  0
LINE
  5
385
100
AcDbEntity
  8
0
100
AcDbLine
 62
4
  6
CONTINUOUS
 10
9.6918949118
 20
9.8098333117
 11
9.6806102936
 21
9.8072665407
  0
LINE
  5
386
100
AcDbEntity
  8
0
100
AcDbLine
 62
4
  6
CONTINUOUS
 10
9.6387844718
 20
9.8168658952
 11
9.6500690878
 21
9.8194326665
  0
LINE
  5
387
100
AcDbEntity
  8
0
100
AcDbLine
 62
4
  6
CONTINUOUS
 10
9.5985375574
 20
9.8196570282
 11
9.6098221734
 21
9.8222237995
  0
LINE
  5
388
100
AcDbEntity
  8
0
100
AcDbLine
 62
4
  6
CONTINUOUS
 10
12.2145475453
 20
9.6715287844
 11
12.2274110767
 21
9.6672873335
  0
LINE
  5
389
100
AcDbEntity
  8
0
100
AcDbLine
 62
4
  6
CONTINUOUS
 10
12.061183511
 20
9.5900571615
 11
12.0563693637
 21
9.5937403858
  0
LINE
  5
38A
100
AcDbEntity
  8
0
100
AcDbLine
 62
4
  6
CONTINUOUS
 10
12.0854477768
 20
9.6134946439
 11
12.0806336295
 21
9.6171778682
  0
LINE
  5
38B
100
AcDbEntity
  8
0
100
AcDbLine
 62
4
  6
CONTINUOUS
 10
12.1756473096
 20
9.6172873711
 11
12.1804614548
 21
9.613604147
  0
LINE
  5
38C
100
AcDbEntity
  8
0
100
AcDbLine
 62
4
  6
CONTINUOUS
 10
12.1372115439
 20
9.6634946064
 11
12.1323973966
 21
9.6671778306
  0
LINE
  5
38D
100
AcDbEntity
  8
0
100
AcDbLine
 62
4
  6
CONTINUOUS
 10
12.2274110767
 20
9.6672873335
 11
12.2322252218
 21
9.6636041094
  0
LINE
  5
38E
100
AcDbEntity
  8
0
100
AcDbLine
 62
7
  6
CONTINUOUS
 10
12.7208488394
 20
7.3988732127
 11
12.7208488394
 21
8.9685027734
  0
LINE
  5
38F
100
AcDbEntity
  8
0
100
AcDbLine
 62
7
  6
CONTINUOUS
 10
12.7588159256
 20
7.4045466039
 11
12.7588159256
 21
8.9741761647
  0
LINE
  5
390
100
AcDbEntity
  8
0
100
AcDbLine
 62
7
  6
CONTINUOUS
 10
12.2907121451
 20
7.1532834608
 11
12.1270210786
 21
6.9951700228
  0
LINE
  5
391
100
AcDbEntity
  8
0
100
AcDbLine
 62
7
  6
CONTINUOUS
 10
12.8478496036
 20
9.3924546027
 11
12.8179059012
 21
9.4244749079
  0
LINE
  5
392
100
AcDbEntity
  8
0
100
AcDbLine
 62
7
  6
CONTINUOUS
 10
13.1066684351
 20
9.3101759073
 11
13.1066684351
 21
8.9000493122
  0
LINE
  5
393
100
AcDbEntity
  8
0
100
AcDbLine
 62
7
  6
CONTINUOUS
 10
13.1066684351
 20
7.9853936887
 11
13.1066684351
 21
7.7405463465
  0
LINE
  5
394
100
AcDbEntity
  8
0
100
AcDbLine
 62
7
  6
CONTINUOUS
 10
13.0176347571
 20
7.3222679085
 11
12.8478496036
 21
7.1582680341
  0
LINE
  5
395
100
AcDbEntity
  8
0
100
AcDbLine
 62
7
  6
CONTINUOUS
 10
12.8478496036
 20
7.1582680341
 11
12.847008272
 21
7.1574703357
  0
LINE
  5
396
100
AcDbEntity
  8
0
100
AcDbLine
 62
7
  6
CONTINUOUS
 10
12.8169896981
 20
7.1295320896
 11
12.84700914
 21
7.1574710137
  0
LINE
  5
397
100
AcDbEntity
  8
0
100
AcDbLine
 62
7
  6
CONTINUOUS
 10
13.0176347571
 20
9.5564544771
 11
12.9876910547
 21
9.5884747823
  0
LINE
  5
398
100
AcDbEntity
  8
0
100
AcDbLine
 62
7
  6
CONTINUOUS
 10
13.036903473
 20
9.5859942734
 11
13.0627789488
 21
9.5541790236
  0
LINE
  5
399
100
AcDbEntity
  8
0
100
AcDbLine
 62
7
  6
CONTINUOUS
 10
13.6104451133
 20
8.0315766583
 11
13.618650928
 21
8.0454894921
  0
LINE
  5
39A
100
AcDbEntity
  8
0
100
AcDbLine
 62
7
  6
CONTINUOUS
 10
13.6603560974
 20
8.8405119264
 11
13.6718678335
 21
8.8128539445
  0
ARC
  5
39B
100
AcDbEntity
  8
0
100
AcDbCircle
 62
7
  6
CONTINUOUS
 10
14.8252812892
 20
8.3415450906
 40
1.8080467184
100
AcDbArc
 50
179.0815292162
 51
179.9951434028
  0
ARC
  5
39C
100
AcDbEntity
  8
0
100
AcDbCircle
 62
7
  6
CONTINUOUS
 10
15.2458805149
 20
8.3123764352
 40
1.8080467184
100
AcDbArc
 50
179.0815292162
 51
179.9951434028
  0
ARC
  5
39D
100
AcDbEntity
  8
0
100
AcDbCircle
 62
7
  6
CONTINUOUS
 10
15.1643235656
 20
8.3124701282
 40
1.7264897636
100
AcDbArc
 50
179.9980233073
 51
180.9399035171
  0
ARC
  5
39E
100
AcDbEntity
  8
0
100
AcDbCircle
 62
7
  6
CONTINUOUS
 10
14.7286600613
 20
8.3415154804
 40
1.7114254938
100
AcDbArc
 50
179.9938779146
 51
180.9440489097
  0
ARC
  5
39F
100
AcDbEntity
  8
0
100
AcDbCircle
 62
7
  6
CONTINUOUS
 10
11.2624550071
 20
8.4290570979
 40
0.1944079457
100
AcDbArc
 50
138.846524105
 51
146.9049944576
  0
ARC
  5
3A0
100
AcDbEntity
  8
0
100
AcDbCircle
 62
7
  6
CONTINUOUS
 10
9.6885530546
 20
8.1912137904
 40
0.1794829464
100
AcDbArc
 50
226.6610851171
 51
249.53384752
  0
ARC
  5
3A1
100
AcDbEntity
  8
0
100
AcDbCircle
 62
7
  6
CONTINUOUS
 10
13.0354056852
 20
8.8012164136
 40
0.1285672111
100
AcDbArc
 50
142.1276758509
 51
142.6826832779
  0
ARC
  5
3A2
100
AcDbEntity
  8
0
100
AcDbCircle
 62
7
  6
CONTINUOUS
 10
12.9837594523
 20
8.8292606936
 40
0.0740727922
100
AcDbArc
 50
132.2688642232
 51
134.0254499485
  0
ARC
  5
3A3
100
AcDbEntity
  8
0
100
AcDbCircle
 62
7
  6
CONTINUOUS
 10
11.107357728
 20
8.3871674125
 40
0.0549546524
100
AcDbArc
 50
146.3480583492
 51
146.8482765178
  0
ARC
  5
3A4
100
AcDbEntity
  8
0
100
AcDbCircle
 62
7
  6
CONTINUOUS
 10
12.9170416861
 20
8.107438778
 40
0.0495634288
100
AcDbArc
 50
228.2528313581
 51
228.715002245
  0
ARC
  5
3A5
100
AcDbEntity
  8
0
100
AcDbCircle
 62
7
  6
CONTINUOUS
 10
12.9674394821
 20
8.8498572203
 40
0.0477594769
100
AcDbArc
 50
121.8085145504
 51
123.4714038975
  0
ARC
  5
3A6
100
AcDbEntity
  8
0
100
AcDbCircle
 62
7
  6
CONTINUOUS
 10
12.9661096049
 20
8.8520100255
 40
0.045229038
100
AcDbArc
 50
120.2637555603
 51
121.81428642
  0
ARC
  5
3A7
100
AcDbEntity
  8
0
100
AcDbCircle
 62
7
  6
CONTINUOUS
 10
12.9142171007
 20
8.1041290974
 40
0.0452127787
100
AcDbArc
 50
228.6373886022
 51
233.0179420161
  0
ARC
  5
3A8
100
AcDbEntity
  8
0
100
AcDbCircle
 62
7
  6
CONTINUOUS
 10
12.9653203486
 20
8.8533610528
 40
0.0436643656
100
AcDbArc
 50
119.5091253273
 51
120.2627063958
  0
ARC
  5
3A9
100
AcDbEntity
  8
0
100
AcDbCircle
 62
7
  6
CONTINUOUS
 10
12.9032027604
 20
8.0833475049
 40
0.0345049429
100
AcDbArc
 50
288.2085523344
 51
290.9959509654
  0
ARC
  5
3AA
100
AcDbEntity
  8
0
100
AcDbCircle
 62
7
  6
CONTINUOUS
 10
12.9581681502
 20
8.8743588466
 40
0.0342320547
100
AcDbArc
 50
61.1294526051
 51
63.6441832823
  0
ARC
  5
3AB
100
AcDbEntity
  8
0
100
AcDbCircle
 62
7
  6
CONTINUOUS
 10
9.7110595317
 20
8.0063639204
 40
0.0143611835
100
AcDbArc
 50
132.8785371423
 51
133.9189715619
  0
SPLINE
  5
3AC
100
AcDbEntity
  8
0
100
AcDbSpline
 62
7
  6
CONTINUOUS
 70
0
 71
3
 72
56
 73
52
 74
0
 42
0.0000001
 43
0.0000001
 44
0.0000000001
 40
0.0
 40
0.0
 40
0.0
 40
0.0
 40
0.0314490833
 40
0.0472849055
 40
0.0631822691
 40
0.0951458118
 40
0.1112167181
 40
0.1273383393
 40
0.1435054358
 40
0.1597127689
 40
0.1759548923
 40
0.1922261882
 40
0.2085208125
 40
0.2248325017
 40
0.2574732836
 40
0.2737981111
 40
0.2901144966
 40
0.3226884195
 40
0.3551544653
 40
0.3713370083
 40
0.3874758434
 40
0.4195946961
 40
0.451485471
 40
0.4673413568
 40
0.4831310177
 40
0.5144959071
 40
0.5455817842
 40
0.5610255482
 40
0.5764016572
 40
0.6069506292
 40
0.6372633472
 40
0.6523468328
 40
0.6673852237
 40
0.6823844181
 40
0.697350519
 40
0.712290186
 40
0.7272103893
 40
0.7421182058
 40
0.757020982
 40
0.771926066
 40
0.7868408021
 40
0.8167175492
 40
0.8317035856
 40
0.8467266761
 40
0.8617927671
 40
0.8769075752
 40
0.9072911269
 40
0.9379178942
 40
0.9533373788
 40
0.968828797
 40
1.0
 40
1.0
 40
1.0
 40
1.0
 10
9.7781387456
 20
7.7619675568
 30
0.0
 10
9.7700473979
 20
7.7625288305
 30
0.0
 10
9.7579129249
 20
7.7639717258
 30
0.0
 10
9.7419078864
 20
7.7670549347
 30
0.0
 10
9.7259391205
 20
7.7709325535
 30
0.0
 10
9.7102070237
 20
7.7759649509
 30
0.0
 10
9.6948369709
 20
7.7821033359
 30
0.0
 10
9.6834781878
 20
7.7872657422
 30
0.0
 10
9.6723406738
 20
7.7929663887
 30
0.0
 10
9.6614520567
 20
7.799192115
 30
0.0
 10
9.6508387907
 20
7.8059266802
 30
0.0
 10
9.640527874
 20
7.8131547511
 30
0.0
 10
9.6305446531
 20
7.8208590198
 30
0.0
 10
9.6177025206
 20
7.8317396625
 30
0.0
 10
9.6056137873
 20
7.8434966859
 30
0.0
 10
9.5943709598
 20
7.8560353266
 30
0.0
 10
9.5837230693
 20
7.8690615155
 30
0.0
 10
9.5715678601
 20
7.8862020889
 30
0.0
 10
9.5610530519
 20
7.9043558003
 30
0.0
 10
9.5536971631
 20
7.9193641886
 30
0.0
 10
9.547081931
 20
7.9346158101
 30
0.0
 10
9.5401870296
 20
7.9541364326
 30
0.0
 10
9.5351789914
 20
7.9741497938
 30
0.0
 10
9.5323480051
 20
7.9902951887
 30
0.0
 10
9.5303134979
 20
8.0064233404
 30
0.0
 10
9.5292389441
 20
8.0266069138
 30
0.0
 10
9.5301449964
 20
8.0467106315
 30
0.0
 10
9.5320537613
 20
8.0625676886
 30
0.0
 10
9.5347318382
 20
8.0781724843
 30
0.0
 10
9.5395178391
 20
8.0972798981
 30
0.0
 10
9.5462064919
 20
8.1157282774
 30
0.0
 10
9.5526423156
 20
8.1299301649
 30
0.0
 10
9.5579926086
 20
8.1402702708
 30
0.0
 10
9.5638590709
 20
8.1502911519
 30
0.0
 10
9.570228617
 20
8.1599697082
 30
0.0
 10
9.5770860632
 20
8.16928362
 30
0.0
 10
9.5844143644
 20
8.1782123544
 30
0.0
 10
9.5921973382
 20
8.1867348687
 30
0.0
 10
9.6004167324
 20
8.1948315593
 30
0.0
 10
9.6090534322
 20
8.2024849105
 30
0.0
 10
9.621103352
 20
8.2120764963
 30
0.0
 10
9.6339150549
 20
8.2207130331
 30
0.0
 10
9.647365074
 20
8.2283155807
 30
0.0
 10
9.6577752931
 20
8.2335018721
 30
0.0
 10
9.6684713281
 20
8.2381531076
 30
0.0
 10
9.6831045038
 20
8.2436330091
 30
0.0
 10
9.7020031149
 20
8.2490863985
 30
0.0
 10
9.7214345823
 20
8.2526017425
 30
0.0
 10
9.7372258511
 20
8.2542466049
 30
0.0
 10
9.7532185979
 20
8.2551079743
 30
0.0
 10
9.7652760173
 20
8.2548601542
 30
0.0
 10
9.7732958903
 20
8.2543041198
 30
0.0
  0
SPLINE
  5
3AD
100
AcDbEntity
  8
0
100
AcDbSpline
 62
7
  6
CONTINUOUS
 70
0
 71
3
 72
56
 73
52
 74
0
 42
0.0000001
 43
0.0000001
 44
0.0000000001
 40
0.0
 40
0.0
 40
0.0
 40
0.0
 40
0.0314490832
 40
0.0472849053
 40
0.0631822688
 40
0.0951458114
 40
0.1112167178
 40
0.127338339
 40
0.1435054354
 40
0.1597127686
 40
0.175954892
 40
0.1922261879
 40
0.2085208122
 40
0.2248325014
 40
0.2574732833
 40
0.2737981108
 40
0.2901144962
 40
0.322688419
 40
0.3551544646
 40
0.3713370075
 40
0.3874758424
 40
0.4195946949
 40
0.4514854697
 40
0.4673413555
 40
0.4831310165
 40
0.5144959062
 40
0.5455817839
 40
0.5610255482
 40
0.5764016574
 40
0.6069506298
 40
0.6372633477
 40
0.6523468329
 40
0.6673852231
 40
0.6823844167
 40
0.6973505166
 40
0.7122901825
 40
0.727210385
 40
0.7421182012
 40
0.7570209777
 40
0.7719260624
 40
0.7868407993
 40
0.8167175482
 40
0.8317035856
 40
0.846726677
 40
0.8617927689
 40
0.8769075777
 40
0.9072911306
 40
0.9379178985
 40
0.9533373822
 40
0.9688287985
 40
1.0
 40
1.0
 40
1.0
 40
1.0
 10
9.7732958008
 20
8.2543041281
 30
0.0
 10
9.7813871485
 20
8.2537428544
 30
0.0
 10
9.7935216214
 20
8.2522999591
 30
0.0
 10
9.8095266598
 20
8.2492167503
 30
0.0
 10
9.8254954257
 20
8.2453391314
 30
0.0
 10
9.8412275224
 20
8.2403067341
 30
0.0
 10
9.8565975753
 20
8.2341683491
 30
0.0
 10
9.8679563584
 20
8.2290059428
 30
0.0
 10
9.8790938724
 20
8.2233052964
 30
0.0
 10
9.8899824895
 20
8.21707957
 30
0.0
 10
9.9005957555
 20
8.2103450048
 30
0.0
 10
9.9109066722
 20
8.203116934
 30
0.0
 10
9.9208898931
 20
8.1954126653
 30
0.0
 10
9.9337320256
 20
8.1845320226
 30
0.0
 10
9.9458207589
 20
8.1727749992
 30
0.0
 10
9.9570635864
 20
8.1602363585
 30
0.0
 10
9.9677114768
 20
8.1472101697
 30
0.0
 10
9.979866686
 20
8.1300695963
 30
0.0
 10
9.9903814943
 20
8.1119158851
 30
0.0
 10
9.997737383
 20
8.0969074969
 30
0.0
 10
10.004352615
 20
8.0816558755
 30
0.0
 10
10.0112475165
 20
8.0621352532
 30
0.0
 10
10.0162555548
 20
8.0421218921
 30
0.0
 10
10.0190865411
 20
8.0259764973
 30
0.0
 10
10.0211210484
 20
8.0098483455
 30
0.0
 10
10.0221956023
 20
7.9896647718
 30
0.0
 10
10.02128955
 20
7.9695610538
 30
0.0
 10
10.0193807851
 20
7.9537039964
 30
0.0
 10
10.0167027081
 20
7.9380992005
 30
0.0
 10
10.0119167072
 20
7.9189917865
 30
0.0
 10
10.0052280544
 20
7.9005434073
 30
0.0
 10
9.9987922308
 20
7.8863415201
 30
0.0
 10
9.9934419381
 20
7.8760014146
 30
0.0
 10
9.9875754761
 20
7.8659805341
 30
0.0
 10
9.9812059305
 20
7.8563019784
 30
0.0
 10
9.9743484849
 20
7.846988067
 30
0.0
 10
9.9670201842
 20
7.8380593329
 30
0.0
 10
9.9592372105
 20
7.8295368188
 30
0.0
 10
9.9510178164
 20
7.8214401279
 30
0.0
 10
9.9423811164
 20
7.8137867762
 30
0.0
 10
9.930331196
 20
7.8041951898
 30
0.0
 10
9.9175194924
 20
7.7955586523
 30
0.0
 10
9.9040694725
 20
7.7879561043
 30
0.0
 10
9.8936592527
 20
7.7827698126
 30
0.0
 10
9.8829632171
 20
7.7781185769
 30
0.0
 10
9.8683300407
 20
7.7726386751
 30
0.0
 10
9.8494314288
 20
7.7671852858
 30
0.0
 10
9.8299999613
 20
7.7636699421
 30
0.0
 10
9.814208693
 20
7.7620250799
 30
0.0
 10
9.7982159473
 20
7.7611637103
 30
0.0
 10
9.7861585287
 20
7.7614115308
 30
0.0
 10
9.7781386562
 20
7.7619675651
 30
0.0
  0
SPLINE
  5
3AE
100
AcDbEntity
  8
0
100
AcDbSpline
 62
7
  6
CONTINUOUS
 70
0
 71
3
 72
56
 73
52
 74
0
 42
0.0000001
 43
0.0000001
 44
0.0000000001
 40
0.0
 40
0.0
 40
0.0
 40
0.0
 40
0.0314490833
 40
0.0472849055
 40
0.0631822691
 40
0.0951458118
 40
0.1112167181
 40
0.1273383393
 40
0.1435054358
 40
0.1597127689
 40
0.1759548923
 40
0.1922261882
 40
0.2085208125
 40
0.2248325017
 40
0.2574732836
 40
0.2737981111
 40
0.2901144966
 40
0.3226884195
 40
0.3551544653
 40
0.3713370083
 40
0.3874758434
 40
0.4195946961
 40
0.451485471
 40
0.4673413568
 40
0.4831310177
 40
0.5144959071
 40
0.5455817842
 40
0.5610255482
 40
0.5764016572
 40
0.6069506292
 40
0.6372633472
 40
0.6523468328
 40
0.6673852237
 40
0.6823844181
 40
0.697350519
 40
0.712290186
 40
0.7272103893
 40
0.7421182058
 40
0.757020982
 40
0.771926066
 40
0.7868408021
 40
0.8167175492
 40
0.8317035856
 40
0.8467266761
 40
0.8617927671
 40
0.8769075752
 40
0.9072911269
 40
0.9379178942
 40
0.9533373788
 40
0.968828797
 40
1.0
 40
1.0
 40
1.0
 40
1.0
 10
10.2900795514
 20
8.1485739299
 30
0.0
 10
10.2819882037
 20
8.1491352036
 30
0.0
 10
10.2698537307
 20
8.1505780989
 30
0.0
 10
10.2538486922
 20
8.1536613077
 30
0.0
 10
10.2378799263
 20
8.1575389266
 30
0.0
 10
10.2221478295
 20
8.1625713239
 30
0.0
 10
10.2067777767
 20
8.168709709
 30
0.0
 10
10.1954189936
 20
8.1738721153
 30
0.0
 10
10.1842814795
 20
8.1795727617
 30
0.0
 10
10.1733928625
 20
8.1857984881
 30
0.0
 10
10.1627795964
 20
8.1925330533
 30
0.0
 10
10.1524686798
 20
8.1997611242
 30
0.0
 10
10.1424854589
 20
8.2074653929
 30
0.0
 10
10.1296433264
 20
8.2183460356
 30
0.0
 10
10.1175545931
 20
8.230103059
 30
0.0
 10
10.1063117656
 20
8.2426416997
 30
0.0
 10
10.0956638751
 20
8.2556678885
 30
0.0
 10
10.0835086659
 20
8.272808462
 30
0.0
 10
10.0729938577
 20
8.2909621734
 30
0.0
 10
10.0656379689
 20
8.3059705617
 30
0.0
 10
10.0590227368
 20
8.3212221832
 30
0.0
 10
10.0521278354
 20
8.3407428057
 30
0.0
 10
10.0471197972
 20
8.3607561668
 30
0.0
 10
10.0442888109
 20
8.3769015617
 30
0.0
 10
10.0422543037
 20
8.3930297134
 30
0.0
 10
10.0411797499
 20
8.4132132869
 30
0.0
 10
10.0420858022
 20
8.4333170046
 30
0.0
 10
10.0439945671
 20
8.4491740616
 30
0.0
 10
10.046672644
 20
8.4647788573
 30
0.0
 10
10.0514586449
 20
8.4838862712
 30
0.0
 10
10.0581472977
 20
8.5023346504
 30
0.0
 10
10.0645831214
 20
8.5165365379
 30
0.0
 10
10.0699334144
 20
8.5268766438
 30
0.0
 10
10.0757998767
 20
8.5368975249
 30
0.0
 10
10.0821694228
 20
8.5465760812
 30
0.0
 10
10.089026869
 20
8.555889993
 30
0.0
 10
10.0963551702
 20
8.5648187274
 30
0.0
 10
10.104138144
 20
8.5733412417
 30
0.0
 10
10.1123575382
 20
8.5814379324
 30
0.0
 10
10.120994238
 20
8.5890912835
 30
0.0
 10
10.1330441578
 20
8.5986828694
 30
0.0
 10
10.1458558607
 20
8.6073194062
 30
0.0
 10
10.1593058798
 20
8.6149219537
 30
0.0
 10
10.1697160988
 20
8.6201082452
 30
0.0
 10
10.1804121339
 20
8.6247594807
 30
0.0
 10
10.1950453095
 20
8.6302393822
 30
0.0
 10
10.2139439207
 20
8.6356927716
 30
0.0
 10
10.233375388
 20
8.6392081156
 30
0.0
 10
10.2491666569
 20
8.6408529779
 30
0.0
 10
10.2651594036
 20
8.6417143474
 30
0.0
 10
10.2772168231
 20
8.6414665272
 30
0.0
 10
10.2852366961
 20
8.6409104928
 30
0.0
  0
SPLINE
  5
3AF
100
AcDbEntity
  8
0
100
AcDbSpline
 62
7
  6
CONTINUOUS
 70
0
 71
3
 72
56
 73
52
 74
0
 42
0.0000001
 43
0.0000001
 44
0.0000000001
 40
0.0
 40
0.0
 40
0.0
 40
0.0
 40
0.0314490832
 40
0.0472849053
 40
0.0631822688
 40
0.0951458114
 40
0.1112167178
 40
0.127338339
 40
0.1435054354
 40
0.1597127686
 40
0.175954892
 40
0.1922261879
 40
0.2085208122
 40
0.2248325014
 40
0.2574732833
 40
0.2737981108
 40
0.2901144962
 40
0.322688419
 40
0.3551544646
 40
0.3713370075
 40
0.3874758424
 40
0.4195946949
 40
0.4514854697
 40
0.4673413555
 40
0.4831310165
 40
0.5144959062
 40
0.5455817839
 40
0.5610255482
 40
0.5764016574
 40
0.6069506298
 40
0.6372633477
 40
0.6523468329
 40
0.6673852231
 40
0.6823844167
 40
0.6973505166
 40
0.7122901825
 40
0.727210385
 40
0.7421182012
 40
0.7570209777
 40
0.7719260624
 40
0.7868407993
 40
0.8167175482
 40
0.8317035856
 40
0.846726677
 40
0.8617927689
 40
0.8769075777
 40
0.9072911306
 40
0.9379178985
 40
0.9533373822
 40
0.9688287985
 40
1.0
 40
1.0
 40
1.0
 40
1.0
 10
10.2852366066
 20
8.6409105012
 30
0.0
 10
10.2933279542
 20
8.6403492275
 30
0.0
 10
10.3054624272
 20
8.6389063322
 30
0.0
 10
10.3214674656
 20
8.6358231234
 30
0.0
 10
10.3374362315
 20
8.6319455045
 30
0.0
 10
10.3531683282
 20
8.6269131072
 30
0.0
 10
10.368538381
 20
8.6207747221
 30
0.0
 10
10.3798971641
 20
8.6156123159
 30
0.0
 10
10.3910346782
 20
8.6099116694
 30
0.0
 10
10.4019232953
 20
8.6036859431
 30
0.0
 10
10.4125365613
 20
8.5969513779
 30
0.0
 10
10.4228474779
 20
8.589723307
 30
0.0
 10
10.4328306989
 20
8.5820190384
 30
0.0
 10
10.4456728314
 20
8.5711383956
 30
0.0
 10
10.4577615647
 20
8.5593813722
 30
0.0
 10
10.4690043922
 20
8.5468427316
 30
0.0
 10
10.4796522826
 20
8.5338165428
 30
0.0
 10
10.4918074918
 20
8.5166759694
 30
0.0
 10
10.5023223
 20
8.4985222582
 30
0.0
 10
10.5096781888
 20
8.48351387
 30
0.0
 10
10.5162934208
 20
8.4682622486
 30
0.0
 10
10.5231883223
 20
8.4487416262
 30
0.0
 10
10.5281963606
 20
8.4287282652
 30
0.0
 10
10.5310273469
 20
8.4125828703
 30
0.0
 10
10.5330618542
 20
8.3964547186
 30
0.0
 10
10.534136408
 20
8.3762711448
 30
0.0
 10
10.5332303558
 20
8.3561674268
 30
0.0
 10
10.5313215909
 20
8.3403103695
 30
0.0
 10
10.5286435139
 20
8.3247055735
 30
0.0
 10
10.523857513
 20
8.3055981596
 30
0.0
 10
10.5171688602
 20
8.2871497804
 30
0.0
 10
10.5107330366
 20
8.2729478932
 30
0.0
 10
10.5053827438
 20
8.2626077877
 30
0.0
 10
10.4995162819
 20
8.2525869071
 30
0.0
 10
10.4931467362
 20
8.2429083514
 30
0.0
 10
10.4862892907
 20
8.2335944401
 30
0.0
 10
10.47896099
 20
8.224665706
 30
0.0
 10
10.4711780163
 20
8.2161431919
 30
0.0
 10
10.4629586221
 20
8.2080465009
 30
0.0
 10
10.4543219222
 20
8.2003931493
 30
0.0
 10
10.4422720017
 20
8.1908015629
 30
0.0
 10
10.4294602982
 20
8.1821650253
 30
0.0
 10
10.4160102783
 20
8.1745624774
 30
0.0
 10
10.4056000585
 20
8.1693761856
 30
0.0
 10
10.3949040229
 20
8.1647249499
 30
0.0
 10
10.3802708465
 20
8.1592450481
 30
0.0
 10
10.3613722346
 20
8.1537916589
 30
0.0
 10
10.341940767
 20
8.1502763152
 30
0.0
 10
10.3261494988
 20
8.148631453
 30
0.0
 10
10.3101567531
 20
8.1477700834
 30
0.0
 10
10.2980993345
 20
8.1480179038
 30
0.0
 10
10.290079462
 20
8.1485739382
 30
0.0
  0
SPLINE
  5
3B0
100
AcDbEntity
  8
0
100
AcDbSpline
 62
7
  6
CONTINUOUS
 70
0
 71
3
 72
56
 73
52
 74
0
 42
0.0000001
 43
0.0000001
 44
0.0000000001
 40
0.0
 40
0.0
 40
0.0
 40
0.0
 40
0.0314490833
 40
0.0472849055
 40
0.0631822691
 40
0.0951458118
 40
0.1112167181
 40
0.1273383393
 40
0.1435054358
 40
0.1597127689
 40
0.1759548923
 40
0.1922261882
 40
0.2085208125
 40
0.2248325017
 40
0.2574732836
 40
0.2737981111
 40
0.2901144966
 40
0.3226884195
 40
0.3551544653
 40
0.3713370083
 40
0.3874758434
 40
0.4195946961
 40
0.451485471
 40
0.4673413568
 40
0.4831310177
 40
0.5144959071
 40
0.5455817842
 40
0.5610255482
 40
0.5764016572
 40
0.6069506292
 40
0.6372633472
 40
0.6523468328
 40
0.6673852237
 40
0.6823844181
 40
0.697350519
 40
0.712290186
 40
0.7272103893
 40
0.7421182058
 40
0.757020982
 40
0.771926066
 40
0.7868408021
 40
0.8167175492
 40
0.8317035856
 40
0.8467266761
 40
0.8617927671
 40
0.8769075752
 40
0.9072911269
 40
0.9379178942
 40
0.9533373788
 40
0.968828797
 40
1.0
 40
1.0
 40
1.0
 40
1.0
 10
11.0753772597
 20
8.0941133488
 30
0.0
 10
11.067285912
 20
8.0946746225
 30
0.0
 10
11.055151439
 20
8.0961175178
 30
0.0
 10
11.0391464005
 20
8.0992007267
 30
0.0
 10
11.0231776346
 20
8.1030783456
 30
0.0
 10
11.0074455378
 20
8.1081107429
 30
0.0
 10
10.992075485
 20
8.114249128
 30
0.0
 10
10.9807167019
 20
8.1194115343
 30
0.0
 10
10.9695791878
 20
8.1251121807
 30
0.0
 10
10.9586905708
 20
8.1313379071
 30
0.0
 10
10.9480773047
 20
8.1380724722
 30
0.0
 10
10.9377663881
 20
8.1453005431
 30
0.0
 10
10.9277831672
 20
8.1530048118
 30
0.0
 10
10.9149410347
 20
8.1638854546
 30
0.0
 10
10.9028523014
 20
8.1756424779
 30
0.0
 10
10.8916094739
 20
8.1881811186
 30
0.0
 10
10.8809615834
 20
8.2012073075
 30
0.0
 10
10.8688063742
 20
8.218347881
 30
0.0
 10
10.858291566
 20
8.2365015923
 30
0.0
 10
10.8509356772
 20
8.2515099806
 30
0.0
 10
10.8443204451
 20
8.2667616021
 30
0.0
 10
10.8374255437
 20
8.2862822246
 30
0.0
 10
10.8324175055
 20
8.3062955858
 30
0.0
 10
10.8295865192
 20
8.3224409807
 30
0.0
 10
10.827552012
 20
8.3385691324
 30
0.0
 10
10.8264774582
 20
8.3587527058
 30
0.0
 10
10.8273835105
 20
8.3788564236
 30
0.0
 10
10.8292922754
 20
8.3947134806
 30
0.0
 10
10.8319703523
 20
8.4103182763
 30
0.0
 10
10.8367563532
 20
8.4294256901
 30
0.0
 10
10.843445006
 20
8.4478740694
 30
0.0
 10
10.8498808297
 20
8.4620759569
 30
0.0
 10
10.8552311227
 20
8.4724160628
 30
0.0
 10
10.861097585
 20
8.4824369439
 30
0.0
 10
10.8674671311
 20
8.4921155002
 30
0.0
 10
10.8743245773
 20
8.501429412
 30
0.0
 10
10.8816528785
 20
8.5103581464
 30
0.0
 10
10.8894358523
 20
8.5188806607
 30
0.0
 10
10.8976552465
 20
8.5269773514
 30
0.0
 10
10.9062919463
 20
8.5346307025
 30
0.0
 10
10.9183418661
 20
8.5442222883
 30
0.0
 10
10.931153569
 20
8.5528588252
 30
0.0
 10
10.944603588
 20
8.5604613727
 30
0.0
 10
10.9550138071
 20
8.5656476641
 30
0.0
 10
10.9657098422
 20
8.5702988996
 30
0.0
 10
10.9803430178
 20
8.5757788012
 30
0.0
 10
10.999241629
 20
8.5812321906
 30
0.0
 10
11.0186730963
 20
8.5847475345
 30
0.0
 10
11.0344643652
 20
8.5863923969
 30
0.0
 10
11.0504571119
 20
8.5872537663
 30
0.0
 10
11.0625145314
 20
8.5870059462
 30
0.0
 10
11.0705344044
 20
8.5864499118
 30
0.0
  0
SPLINE
  5
3B1
100
AcDbEntity
  8
0
100
AcDbSpline
 62
7
  6
CONTINUOUS
 70
0
 71
3
 72
56
 73
52
 74
0
 42
0.0000001
 43
0.0000001
 44
0.0000000001
 40
0.0
 40
0.0
 40
0.0
 40
0.0
 40
0.0314490832
 40
0.0472849053
 40
0.0631822688
 40
0.0951458114
 40
0.1112167178
 40
0.127338339
 40
0.1435054354
 40
0.1597127686
 40
0.175954892
 40
0.1922261879
 40
0.2085208122
 40
0.2248325014
 40
0.2574732833
 40
0.2737981108
 40
0.2901144962
 40
0.322688419
 40
0.3551544646
 40
0.3713370075
 40
0.3874758424
 40
0.4195946949
 40
0.4514854697
 40
0.4673413555
 40
0.4831310165
 40
0.5144959062
 40
0.5455817839
 40
0.5610255482
 40
0.5764016574
 40
0.6069506298
 40
0.6372633477
 40
0.6523468329
 40
0.6673852231
 40
0.6823844167
 40
0.6973505166
 40
0.7122901825
 40
0.727210385
 40
0.7421182012
 40
0.7570209777
 40
0.7719260624
 40
0.7868407993
 40
0.8167175482
 40
0.8317035856
 40
0.846726677
 40
0.8617927689
 40
0.8769075777
 40
0.9072911306
 40
0.9379178985
 40
0.9533373822
 40
0.9688287985
 40
1.0
 40
1.0
 40
1.0
 40
1.0
 10
11.0705343149
 20
8.5864499201
 30
0.0
 10
11.0786256625
 20
8.5858886464
 30
0.0
 10
11.0907601355
 20
8.5844457512
 30
0.0
 10
11.1067651739
 20
8.5813625423
 30
0.0
 10
11.1227339398
 20
8.5774849235
 30
0.0
 10
11.1384660365
 20
8.5724525261
 30
0.0
 10
11.1538360893
 20
8.5663141411
 30
0.0
 10
11.1651948724
 20
8.5611517348
 30
0.0
 10
11.1763323865
 20
8.5554510884
 30
0.0
 10
11.1872210036
 20
8.549225362
 30
0.0
 10
11.1978342696
 20
8.5424907969
 30
0.0
 10
11.2081451862
 20
8.535262726
 30
0.0
 10
11.2181284072
 20
8.5275584573
 30
0.0
 10
11.2309705397
 20
8.5166778146
 30
0.0
 10
11.243059273
 20
8.5049207912
 30
0.0
 10
11.2543021005
 20
8.4923821506
 30
0.0
 10
11.2649499909
 20
8.4793559617
 30
0.0
 10
11.2771052001
 20
8.4622153884
 30
0.0
 10
11.2876200083
 20
8.4440616771
 30
0.0
 10
11.2949758971
 20
8.429053289
 30
0.0
 10
11.3015911291
 20
8.4138016676
 30
0.0
 10
11.3084860306
 20
8.3942810452
 30
0.0
 10
11.3134940689
 20
8.3742676842
 30
0.0
 10
11.3163250552
 20
8.3581222893
 30
0.0
 10
11.3183595625
 20
8.3419941375
 30
0.0
 10
11.3194341163
 20
8.3218105638
 30
0.0
 10
11.3185280641
 20
8.3017068458
 30
0.0
 10
11.3166192992
 20
8.2858497885
 30
0.0
 10
11.3139412222
 20
8.2702449925
 30
0.0
 10
11.3091552213
 20
8.2511375785
 30
0.0
 10
11.3024665685
 20
8.2326891994
 30
0.0
 10
11.2960307449
 20
8.2184873121
 30
0.0
 10
11.2906804521
 20
8.2081472066
 30
0.0
 10
11.2848139902
 20
8.1981263261
 30
0.0
 10
11.2784444445
 20
8.1884477704
 30
0.0
 10
11.271586999
 20
8.1791338591
 30
0.0
 10
11.2642586983
 20
8.170205125
 30
0.0
 10
11.2564757246
 20
8.1616826109
 30
0.0
 10
11.2482563304
 20
8.1535859199
 30
0.0
 10
11.2396196305
 20
8.1459325682
 30
0.0
 10
11.22756971
 20
8.1363409818
 30
0.0
 10
11.2147580065
 20
8.1277044443
 30
0.0
 10
11.2013079866
 20
8.1201018963
 30
0.0
 10
11.1908977668
 20
8.1149156046
 30
0.0
 10
11.1802017312
 20
8.1102643689
 30
0.0
 10
11.1655685548
 20
8.1047844671
 30
0.0
 10
11.1466699429
 20
8.0993310778
 30
0.0
 10
11.1272384753
 20
8.0958157341
 30
0.0
 10
11.1114472071
 20
8.0941708719
 30
0.0
 10
11.0954544614
 20
8.0933095023
 30
0.0
 10
11.0833970428
 20
8.0935573228
 30
0.0
 10
11.0753771703
 20
8.0941133572
 30
0.0
  0
SPLINE
  5
3B2
100
AcDbEntity
  8
0
100
AcDbSpline
 62
7
  6
CONTINUOUS
 70
0
 71
3
 72
56
 73
52
 74
0
 42
0.0000001
 43
0.0000001
 44
0.0000000001
 40
0.0
 40
0.0
 40
0.0
 40
0.0
 40
0.0314490833
 40
0.0472849055
 40
0.0631822691
 40
0.0951458118
 40
0.1112167181
 40
0.1273383393
 40
0.1435054358
 40
0.1597127689
 40
0.1759548923
 40
0.1922261882
 40
0.2085208125
 40
0.2248325017
 40
0.2574732836
 40
0.2737981111
 40
0.2901144966
 40
0.3226884195
 40
0.3551544653
 40
0.3713370083
 40
0.3874758434
 40
0.4195946961
 40
0.451485471
 40
0.4673413568
 40
0.4831310177
 40
0.5144959071
 40
0.5455817842
 40
0.5610255482
 40
0.5764016572
 40
0.6069506292
 40
0.6372633472
 40
0.6523468328
 40
0.6673852237
 40
0.6823844181
 40
0.697350519
 40
0.712290186
 40
0.7272103893
 40
0.7421182058
 40
0.757020982
 40
0.771926066
 40
0.7868408021
 40
0.8167175492
 40
0.8317035856
 40
0.8467266761
 40
0.8617927671
 40
0.8769075752
 40
0.9072911269
 40
0.9379178942
 40
0.9533373788
 40
0.968828797
 40
1.0
 40
1.0
 40
1.0
 40
1.0
 10
11.5882838062
 20
7.6364335705
 30
0.0
 10
11.5801924585
 20
7.6369948442
 30
0.0
 10
11.5680579855
 20
7.6384377395
 30
0.0
 10
11.552052947
 20
7.6415209483
 30
0.0
 10
11.5360841811
 20
7.6453985672
 30
0.0
 10
11.5203520843
 20
7.6504309645
 30
0.0
 10
11.5049820315
 20
7.6565693496
 30
0.0
 10
11.4936232484
 20
7.6617317559
 30
0.0
 10
11.4824857343
 20
7.6674324023
 30
0.0
 10
11.4715971173
 20
7.6736581287
 30
0.0
 10
11.4609838513
 20
7.6803926939
 30
0.0
 10
11.4506729346
 20
7.6876207648
 30
0.0
 10
11.4406897137
 20
7.6953250335
 30
0.0
 10
11.4278475812
 20
7.7062056762
 30
0.0
 10
11.4157588479
 20
7.7179626996
 30
0.0
 10
11.4045160204
 20
7.7305013403
 30
0.0
 10
11.3938681299
 20
7.7435275292
 30
0.0
 10
11.3817129207
 20
7.7606681026
 30
0.0
 10
11.3711981125
 20
7.778821814
 30
0.0
 10
11.3638422237
 20
7.7938302023
 30
0.0
 10
11.3572269916
 20
7.8090818238
 30
0.0
 10
11.3503320902
 20
7.8286024463
 30
0.0
 10
11.345324052
 20
7.8486158075
 30
0.0
 10
11.3424930657
 20
7.8647612023
 30
0.0
 10
11.3404585585
 20
7.880889354
 30
0.0
 10
11.3393840047
 20
7.9010729275
 30
0.0
 10
11.340290057
 20
7.9211766452
 30
0.0
 10
11.3421988219
 20
7.9370337022
 30
0.0
 10
11.3448768988
 20
7.952638498
 30
0.0
 10
11.3496628997
 20
7.9717459118
 30
0.0
 10
11.3563515525
 20
7.990194291
 30
0.0
 10
11.3627873762
 20
8.0043961786
 30
0.0
 10
11.3681376692
 20
8.0147362845
 30
0.0
 10
11.3740041315
 20
8.0247571655
 30
0.0
 10
11.3803736776
 20
8.0344357218
 30
0.0
 10
11.3872311238
 20
8.0437496336
 30
0.0
 10
11.394559425
 20
8.052678368
 30
0.0
 10
11.4023423988
 20
8.0612008823
 30
0.0
 10
11.410561793
 20
8.069297573
 30
0.0
 10
11.4191984928
 20
8.0769509241
 30
0.0
 10
11.4312484126
 20
8.08654251
 30
0.0
 10
11.4440601155
 20
8.0951790468
 30
0.0
 10
11.4575101346
 20
8.1027815944
 30
0.0
 10
11.4679203536
 20
8.1079678858
 30
0.0
 10
11.4786163887
 20
8.1126191213
 30
0.0
 10
11.4932495643
 20
8.1180990228
 30
0.0
 10
11.5121481755
 20
8.1235524122
 30
0.0
 10
11.5315796428
 20
8.1270677562
 30
0.0
 10
11.5473709117
 20
8.1287126185
 30
0.0
 10
11.5633636584
 20
8.129573988
 30
0.0
 10
11.5754210779
 20
8.1293261678
 30
0.0
 10
11.5834409509
 20
8.1287701334
 30
0.0
  0
SPLINE
  5
3B3
100
AcDbEntity
  8
0
100
AcDbSpline
 62
7
  6
CONTINUOUS
 70
0
 71
3
 72
56
 73
52
 74
0
 42
0.0000001
 43
0.0000001
 44
0.0000000001
 40
0.0
 40
0.0
 40
0.0
 40
0.0
 40
0.0314490832
 40
0.0472849053
 40
0.0631822688
 40
0.0951458114
 40
0.1112167178
 40
0.127338339
 40
0.1435054354
 40
0.1597127686
 40
0.175954892
 40
0.1922261879
 40
0.2085208122
 40
0.2248325014
 40
0.2574732833
 40
0.2737981108
 40
0.2901144962
 40
0.322688419
 40
0.3551544646
 40
0.3713370075
 40
0.3874758424
 40
0.4195946949
 40
0.4514854697
 40
0.4673413555
 40
0.4831310165
 40
0.5144959062
 40
0.5455817839
 40
0.5610255482
 40
0.5764016574
 40
0.6069506298
 40
0.6372633477
 40
0.6523468329
 40
0.6673852231
 40
0.6823844167
 40
0.6973505166
 40
0.7122901825
 40
0.727210385
 40
0.7421182012
 40
0.7570209777
 40
0.7719260624
 40
0.7868407993
 40
0.8167175482
 40
0.8317035856
 40
0.846726677
 40
0.8617927689
 40
0.8769075777
 40
0.9072911306
 40
0.9379178985
 40
0.9533373822
 40
0.9688287985
 40
1.0
 40
1.0
 40
1.0
 40
1.0
 10
11.5834408614
 20
8.1287701418
 30
0.0
 10
11.591532209
 20
8.1282088681
 30
0.0
 10
11.603666682
 20
8.1267659728
 30
0.0
 10
11.6196717204
 20
8.123682764
 30
0.0
 10
11.6356404863
 20
8.1198051451
 30
0.0
 10
11.651372583
 20
8.1147727478
 30
0.0
 10
11.6667426358
 20
8.1086343628
 30
0.0
 10
11.6781014189
 20
8.1034719565
 30
0.0
 10
11.689238933
 20
8.0977713101
 30
0.0
 10
11.7001275501
 20
8.0915455837
 30
0.0
 10
11.7107408161
 20
8.0848110185
 30
0.0
 10
11.7210517328
 20
8.0775829476
 30
0.0
 10
11.7310349537
 20
8.069878679
 30
0.0
 10
11.7438770862
 20
8.0589980362
 30
0.0
 10
11.7559658195
 20
8.0472410129
 30
0.0
 10
11.767208647
 20
8.0347023722
 30
0.0
 10
11.7778565374
 20
8.0216761834
 30
0.0
 10
11.7900117466
 20
8.00453561
 30
0.0
 10
11.8005265548
 20
7.9863818988
 30
0.0
 10
11.8078824436
 20
7.9713735106
 30
0.0
 10
11.8144976756
 20
7.9561218892
 30
0.0
 10
11.8213925771
 20
7.9366012669
 30
0.0
 10
11.8264006154
 20
7.9165879058
 30
0.0
 10
11.8292316017
 20
7.9004425109
 30
0.0
 10
11.831266109
 20
7.8843143592
 30
0.0
 10
11.8323406628
 20
7.8641307855
 30
0.0
 10
11.8314346106
 20
7.8440270674
 30
0.0
 10
11.8295258457
 20
7.8281700101
 30
0.0
 10
11.8268477687
 20
7.8125652142
 30
0.0
 10
11.8220617678
 20
7.7934578002
 30
0.0
 10
11.815373115
 20
7.775009421
 30
0.0
 10
11.8089372914
 20
7.7608075338
 30
0.0
 10
11.8035869987
 20
7.7504674283
 30
0.0
 10
11.7977205367
 20
7.7404465477
 30
0.0
 10
11.791350991
 20
7.7307679921
 30
0.0
 10
11.7844935455
 20
7.7214540807
 30
0.0
 10
11.7771652448
 20
7.7125253466
 30
0.0
 10
11.7693822711
 20
7.7040028325
 30
0.0
 10
11.7611628769
 20
7.6959061415
 30
0.0
 10
11.752526177
 20
7.6882527899
 30
0.0
 10
11.7404762566
 20
7.6786612035
 30
0.0
 10
11.727664553
 20
7.6700246659
 30
0.0
 10
11.7142145331
 20
7.662422118
 30
0.0
 10
11.7038043133
 20
7.6572358263
 30
0.0
 10
11.6931082777
 20
7.6525845905
 30
0.0
 10
11.6784751013
 20
7.6471046887
 30
0.0
 10
11.6595764894
 20
7.6416512995
 30
0.0
 10
11.6401450218
 20
7.6381359558
 30
0.0
 10
11.6243537536
 20
7.6364910936
 30
0.0
 10
11.6083610079
 20
7.635629724
 30
0.0
 10
11.5963035893
 20
7.6358775444
 30
0.0
 10
11.5882837168
 20
7.6364335788
 30
0.0
  0
SPLINE
  5
3B4
100
AcDbEntity
  8
0
100
AcDbSpline
 62
7
  6
CONTINUOUS
 70
0
 71
3
 72
56
 73
52
 74
0
 42
0.0000001
 43
0.0000001
 44
0.0000000001
 40
0.0
 40
0.0
 40
0.0
 40
0.0
 40
0.0314490833
 40
0.0472849055
 40
0.0631822691
 40
0.0951458118
 40
0.1112167181
 40
0.1273383393
 40
0.1435054358
 40
0.1597127689
 40
0.1759548923
 40
0.1922261882
 40
0.2085208125
 40
0.2248325017
 40
0.2574732836
 40
0.2737981111
 40
0.2901144966
 40
0.3226884195
 40
0.3551544653
 40
0.3713370083
 40
0.3874758434
 40
0.4195946961
 40
0.451485471
 40
0.4673413568
 40
0.4831310177
 40
0.5144959071
 40
0.5455817842
 40
0.5610255482
 40
0.5764016572
 40
0.6069506292
 40
0.6372633472
 40
0.6523468328
 40
0.6673852237
 40
0.6823844181
 40
0.697350519
 40
0.712290186
 40
0.7272103893
 40
0.7421182058
 40
0.757020982
 40
0.771926066
 40
0.7868408021
 40
0.8167175492
 40
0.8317035856
 40
0.8467266761
 40
0.8617927671
 40
0.8769075752
 40
0.9072911269
 40
0.9379178942
 40
0.9533373788
 40
0.968828797
 40
1.0
 40
1.0
 40
1.0
 40
1.0
 10
10.6832112183
 20
8.6960360845
 30
0.0
 10
10.6751198706
 20
8.6965973582
 30
0.0
 10
10.6629853976
 20
8.6980402535
 30
0.0
 10
10.6469803591
 20
8.7011234623
 30
0.0
 10
10.6310115932
 20
8.7050010812
 30
0.0
 10
10.6152794964
 20
8.7100334786
 30
0.0
 10
10.5999094436
 20
8.7161718636
 30
0.0
 10
10.5885506605
 20
8.7213342699
 30
0.0
 10
10.5774131465
 20
8.7270349163
 30
0.0
 10
10.5665245294
 20
8.7332606427
 30
0.0
 10
10.5559112634
 20
8.7399952079
 30
0.0
 10
10.5456003467
 20
8.7472232788
 30
0.0
 10
10.5356171258
 20
8.7549275475
 30
0.0
 10
10.5227749933
 20
8.7658081902
 30
0.0
 10
10.51068626
 20
8.7775652136
 30
0.0
 10
10.4994434325
 20
8.7901038543
 30
0.0
 10
10.4887955421
 20
8.8031300432
 30
0.0
 10
10.4766403329
 20
8.8202706166
 30
0.0
 10
10.4661255246
 20
8.838424328
 30
0.0
 10
10.4587696358
 20
8.8534327163
 30
0.0
 10
10.4521544038
 20
8.8686843378
 30
0.0
 10
10.4452595023
 20
8.8882049603
 30
0.0
 10
10.4402514641
 20
8.9082183215
 30
0.0
 10
10.4374204779
 20
8.9243637164
 30
0.0
 10
10.4353859706
 20
8.940491868
 30
0.0
 10
10.4343114169
 20
8.9606754415
 30
0.0
 10
10.4352174691
 20
8.9807791592
 30
0.0
 10
10.437126234
 20
8.9966362163
 30
0.0
 10
10.4398043109
 20
9.012241012
 30
0.0
 10
10.4445903119
 20
9.0313484258
 30
0.0
 10
10.4512789646
 20
9.0497968051
 30
0.0
 10
10.4577147883
 20
9.0639986926
 30
0.0
 10
10.4630650813
 20
9.0743387985
 30
0.0
 10
10.4689315436
 20
9.0843596796
 30
0.0
 10
10.4753010897
 20
9.0940382359
 30
0.0
 10
10.482158536
 20
9.1033521476
 30
0.0
 10
10.4894868371
 20
9.112280882
 30
0.0
 10
10.4972698109
 20
9.1208033964
 30
0.0
 10
10.5054892051
 20
9.128900087
 30
0.0
 10
10.5141259049
 20
9.1365534381
 30
0.0
 10
10.5261758247
 20
9.146145024
 30
0.0
 10
10.5389875277
 20
9.1547815608
 30
0.0
 10
10.5524375467
 20
9.1623841084
 30
0.0
 10
10.5628477658
 20
9.1675703998
 30
0.0
 10
10.5735438008
 20
9.1722216353
 30
0.0
 10
10.5881769765
 20
9.1777015368
 30
0.0
 10
10.6070755877
 20
9.1831549262
 30
0.0
 10
10.626507055
 20
9.1866702702
 30
0.0
 10
10.6422983238
 20
9.1883151325
 30
0.0
 10
10.6582910706
 20
9.189176502
 30
0.0
 10
10.6703484901
 20
9.1889286818
 30
0.0
 10
10.678368363
 20
9.1883726475
 30
0.0
  0
SPLINE
  5
3B5
100
AcDbEntity
  8
0
100
AcDbSpline
 62
7
  6
CONTINUOUS
 70
0
 71
3
 72
56
 73
52
 74
0
 42
0.0000001
 43
0.0000001
 44
0.0000000001
 40
0.0
 40
0.0
 40
0.0
 40
0.0
 40
0.0314490832
 40
0.0472849053
 40
0.0631822688
 40
0.0951458114
 40
0.1112167178
 40
0.127338339
 40
0.1435054354
 40
0.1597127686
 40
0.175954892
 40
0.1922261879
 40
0.2085208122
 40
0.2248325014
 40
0.2574732833
 40
0.2737981108
 40
0.2901144962
 40
0.322688419
 40
0.3551544646
 40
0.3713370075
 40
0.3874758424
 40
0.4195946949
 40
0.4514854697
 40
0.4673413555
 40
0.4831310165
 40
0.5144959062
 40
0.5455817839
 40
0.5610255482
 40
0.5764016574
 40
0.6069506298
 40
0.6372633477
 40
0.6523468329
 40
0.6673852231
 40
0.6823844167
 40
0.6973505166
 40
0.7122901825
 40
0.727210385
 40
0.7421182012
 40
0.7570209777
 40
0.7719260624
 40
0.7868407993
 40
0.8167175482
 40
0.8317035856
 40
0.846726677
 40
0.8617927689
 40
0.8769075777
 40
0.9072911306
 40
0.9379178985
 40
0.9533373822
 40
0.9688287985
 40
1.0
 40
1.0
 40
1.0
 40
1.0
 10
10.6783682735
 20
9.1883726558
 30
0.0
 10
10.6864596212
 20
9.1878113821
 30
0.0
 10
10.6985940941
 20
9.1863684868
 30
0.0
 10
10.7145991326
 20
9.183285278
 30
0.0
 10
10.7305678984
 20
9.1794076591
 30
0.0
 10
10.7462999951
 20
9.1743752618
 30
0.0
 10
10.761670048
 20
9.1682368768
 30
0.0
 10
10.7730288311
 20
9.1630744705
 30
0.0
 10
10.7841663451
 20
9.1573738241
 30
0.0
 10
10.7950549622
 20
9.1511480977
 30
0.0
 10
10.8056682282
 20
9.1444135325
 30
0.0
 10
10.8159791449
 20
9.1371854616
 30
0.0
 10
10.8259623658
 20
9.129481193
 30
0.0
 10
10.8388044983
 20
9.1186005502
 30
0.0
 10
10.8508932316
 20
9.1068435269
 30
0.0
 10
10.8621360591
 20
9.0943048862
 30
0.0
 10
10.8727839496
 20
9.0812786974
 30
0.0
 10
10.8849391587
 20
9.064138124
 30
0.0
 10
10.895453967
 20
9.0459844128
 30
0.0
 10
10.9028098557
 20
9.0309760246
 30
0.0
 10
10.9094250878
 20
9.0157244032
 30
0.0
 10
10.9163199892
 20
8.9962037809
 30
0.0
 10
10.9213280275
 20
8.9761904198
 30
0.0
 10
10.9241590138
 20
8.960045025
 30
0.0
 10
10.9261935211
 20
8.9439168732
 30
0.0
 10
10.927268075
 20
8.9237332995
 30
0.0
 10
10.9263620227
 20
8.9036295814
 30
0.0
 10
10.9244532578
 20
8.8877725241
 30
0.0
 10
10.9217751808
 20
8.8721677282
 30
0.0
 10
10.9169891799
 20
8.8530603142
 30
0.0
 10
10.9103005271
 20
8.834611935
 30
0.0
 10
10.9038647035
 20
8.8204100478
 30
0.0
 10
10.8985144108
 20
8.8100699423
 30
0.0
 10
10.8926479488
 20
8.8000490618
 30
0.0
 10
10.8862784032
 20
8.7903705061
 30
0.0
 10
10.8794209576
 20
8.7810565947
 30
0.0
 10
10.8720926569
 20
8.7721278606
 30
0.0
 10
10.8643096832
 20
8.7636053465
 30
0.0
 10
10.8560902891
 20
8.7555086556
 30
0.0
 10
10.8474535891
 20
8.7478553039
 30
0.0
 10
10.8354036687
 20
8.7382637175
 30
0.0
 10
10.8225919651
 20
8.72962718
 30
0.0
 10
10.8091419452
 20
8.722024632
 30
0.0
 10
10.7987317255
 20
8.7168383403
 30
0.0
 10
10.7880356898
 20
8.7121871045
 30
0.0
 10
10.7734025135
 20
8.7067072028
 30
0.0
 10
10.7545039016
 20
8.7012538135
 30
0.0
 10
10.735072434
 20
8.6977384698
 30
0.0
 10
10.7192811657
 20
8.6960936076
 30
0.0
 10
10.70328842
 20
8.695232238
 30
0.0
 10
10.6912310014
 20
8.6954800585
 30
0.0
 10
10.6832111289
 20
8.6960360928
 30
0.0
  0
SPLINE
  5
3B6
100
AcDbEntity
  8
0
100
AcDbSpline
 62
7
  6
CONTINUOUS
 70
0
 71
3
 72
16
 73
12
 74
0
 42
0.0000001
 43
0.0000001
 44
0.0000000001
 40
0.0
 40
0.0
 40
0.0
 40
0.0
 40
0.1081449688
 40
0.2181192327
 40
0.3316553916
 40
0.4503190191
 40
0.5120261559
 40
0.5755043729
 40
0.7082664261
 40
0.8495358524
 40
1.0
 40
1.0
 40
1.0
 40
1.0
 10
12.9729435998
 20
8.9043237525
 30
0.0
 10
12.9717389504
 20
8.9044072687
 30
0.0
 10
12.9692946718
 20
8.904409932
 30
0.0
 10
12.9656140318
 20
8.903918251
 30
0.0
 10
12.9619124854
 20
8.902933557
 30
0.0
 10
12.9588552094
 20
8.9017208169
 30
0.0
 10
12.956410163
 20
8.9005206271
 30
0.0
 10
12.9538907418
 20
8.8991225617
 30
0.0
 10
12.9507313966
 20
8.8970577788
 30
0.0
 10
12.9469912145
 20
8.8941388256
 30
0.0
 10
12.9445757664
 20
8.8919486362
 30
0.0
 10
12.943367365
 20
8.8907814101
 30
0.0
  0
SPLINE
  5
3B7
100
AcDbEntity
  8
0
100
AcDbSpline
 62
7
  6
CONTINUOUS
 70
0
 71
3
 72
23
 73
19
 74
0
 42
0.0000001
 43
0.0000001
 44
0.0000000001
 40
0.0
 40
0.0
 40
0.0
 40
0.0
 40
0.0778950239
 40
0.1545469988
 40
0.2297387461
 40
0.3032889817
 40
0.3750196003
 40
0.4447522256
 40
0.5123181265
 40
0.5775568635
 40
0.6403175906
 40
0.700458204
 40
0.7578490592
 40
0.812372574
 40
0.8639256876
 40
0.9124223582
 40
0.9577948667
 40
1.0
 40
1.0
 40
1.0
 40
1.0
 10
13.7085912857
 20
8.5399976866
 30
0.0
 10
13.7085912857
 20
8.5471836474
 30
0.0
 10
13.7084921372
 20
8.5614411148
 30
0.0
 10
13.7080395553
 20
8.5826308334
 30
0.0
 10
13.7072850261
 20
8.6034109643
 30
0.0
 10
13.7062308708
 20
8.6237234917
 30
0.0
 10
13.7048800762
 20
8.6435137645
 30
0.0
 10
13.7032362422
 20
8.6627279077
 30
0.0
 10
13.7013041016
 20
8.6813132892
 30
0.0
 10
13.6990888116
 20
8.6992192689
 30
0.0
 10
13.696596781
 20
8.7163970956
 30
0.0
 10
13.6938346702
 20
8.7328000171
 30
0.0
 10
13.6908103436
 20
8.748383444
 30
0.0
 10
13.6875320968
 20
8.7631051368
 30
0.0
 10
13.6840089863
 20
8.7769252545
 30
0.0
 10
13.6802508633
 20
8.789806769
 30
0.0
 10
13.6762678991
 20
8.8017147289
 30
0.0
 10
13.673364416
 20
8.8092582387
 30
0.0
 10
13.6718683007
 20
8.8128528176
 30
0.0
  0
SPLINE
  5
3B8
100
AcDbEntity
  8
0
100
AcDbSpline
 62
7
  6
CONTINUOUS
 70
0
 71
3
 72
9
 73
5
 74
0
 42
0.0000001
 43
0.0000001
 44
0.0000000001
 40
0.0
 40
0.0
 40
0.0
 40
0.0
 40
0.4839597094
 40
1.0
 40
1.0
 40
1.0
 40
1.0
 10
13.0872696732
 20
7.9867389974
 30
0.0
 10
13.0859305881
 20
7.9879402765
 30
0.0
 10
13.083276287
 20
7.9905497098
 30
0.0
 10
13.0808343236
 20
7.9933569107
 30
0.0
 10
13.0796240015
 20
7.9948450654
 30
0.0
  0
SPLINE
  5
3B9
100
AcDbEntity
  8
0
100
AcDbSpline
 62
7
  6
CONTINUOUS
 70
0
 71
3
 72
11
 73
7
 74
0
 42
0.0000001
 43
0.0000001
 44
0.0000000001
 40
0.0
 40
0.0
 40
0.0
 40
0.0
 40
0.2715243135
 40
0.5282312124
 40
0.7707769425
 40
1.0
 40
1.0
 40
1.0
 40
1.0
 10
13.6341990106
 20
8.8962072673
 30
0.0
 10
13.6331618948
 20
8.8977646421
 30
0.0
 10
13.6310704275
 20
8.9007462869
 30
0.0
 10
13.6277813237
 20
8.9049207367
 30
0.0
 10
13.6244327754
 20
8.9086653014
 30
0.0
 10
13.6220993321
 20
8.9109340495
 30
0.0
 10
13.6209235243
 20
8.9119888542
 30
0.0
  0
SPLINE
  5
3BA
100
AcDbEntity
  8
0
100
AcDbSpline
 62
7
  6
CONTINUOUS
 70
0
 71
3
 72
23
 73
19
 74
0
 42
0.0000001
 43
0.0000001
 44
0.0000000001
 40
0.0
 40
0.0
 40
0.0
 40
0.0
 40
0.0797347662
 40
0.1575385597
 40
0.2332884616
 40
0.3068667676
 40
0.3781633765
 40
0.4470780309
 40
0.5135248439
 40
0.5774398439
 40
0.6387828563
 40
0.6975457164
 40
0.7537531839
 40
0.8074685954
 40
0.8587937247
 40
0.9078683326
 40
0.9548686798
 40
1.0
 40
1.0
 40
1.0
 40
1.0
 10
13.507868899
 20
7.957570342
 30
0.0
 10
13.5109765949
 20
7.9589943338
 30
0.0
 10
13.5170966546
 20
7.9618519591
 30
0.0
 10
13.5260897237
 20
7.9662298812
 30
0.0
 10
13.5347670488
 20
7.970650031
 30
0.0
 10
13.5431073741
 20
7.975113136
 30
0.0
 10
13.5510894873
 20
7.979619895
 30
0.0
 10
13.5586928227
 20
7.9841702633
 30
0.0
 10
13.5658974601
 20
7.9887643058
 30
0.0
 10
13.5726853173
 20
7.993401024
 30
0.0
 10
13.5790399646
 20
7.9980796722
 30
0.0
 10
13.5849479401
 20
8.0027983815
 30
0.0
 10
13.5903984263
 20
8.0075554512
 30
0.0
 10
13.5953843083
 20
8.0123483591
 30
0.0
 10
13.5999019292
 20
8.0171744231
 30
0.0
 10
13.6039514237
 20
8.0220307753
 30
0.0
 10
13.6075365835
 20
8.0269136414
 30
0.0
 10
13.6096619489
 20
8.0302472047
 30
0.0
 10
13.6106441455
 20
8.0319142554
 30
0.0
  0
SPLINE
  5
3BB
100
AcDbEntity
  8
0
100
AcDbSpline
 62
7
  6
CONTINUOUS
 70
0
 71
3
 72
22
 73
18
 74
0
 42
0.0000001
 43
0.0000001
 44
0.0000000001
 40
0.0
 40
0.0
 40
0.0
 40
0.0
 40
0.1535112765
 40
0.2278996137
 40
0.3005625288
 40
0.3713862949
 40
0.4402589199
 40
0.5070639344
 40
0.5716874499
 40
0.6340213526
 40
0.6939647739
 40
0.7514300523
 40
0.806347251
 40
0.8586659028
 40
0.9083677757
 40
0.9554614071
 40
1.0
 40
1.0
 40
1.0
 40
1.0
 10
13.2003242985
 20
8.9411575096
 30
0.0
 10
13.1946063025
 20
8.9393343334
 30
0.0
 10
13.186143863
 20
8.9365430719
 30
0.0
 10
13.1750551016
 20
8.9326540932
 30
0.0
 10
13.1670561676
 20
8.9297252807
 30
0.0
 10
13.1593038537
 20
8.9267527446
 30
0.0
 10
13.1518150595
 20
8.9237356206
 30
0.0
 10
13.14460717
 20
8.9206733769
 30
0.0
 10
13.137698087
 20
8.9175655493
 30
0.0
 10
13.1311056704
 20
8.914412245
 30
0.0
 10
13.1248475791
 20
8.9112138126
 30
0.0
 10
13.1189410405
 20
8.9079707605
 30
0.0
 10
13.1134020124
 20
8.904684649
 30
0.0
 10
13.1082457225
 20
8.9013563066
 30
0.0
 10
13.103484783
 20
8.8979884103
 30
0.0
 10
13.0991309767
 20
8.8945824421
 30
0.0
 10
13.0964313111
 20
8.8922239212
 30
0.0
 10
13.0951566078
 20
8.8910376945
 30
0.0
  0
SPLINE
  5
3BC
100
AcDbEntity
  8
0
100
AcDbSpline
 62
7
  6
CONTINUOUS
 70
0
 71
3
 72
57
 73
53
 74
0
 42
0.0000001
 43
0.0000001
 44
0.0000000001
 40
0.0
 40
0.0
 40
0.0
 40
0.0
 40
0.0078178707
 40
0.0162174643
 40
0.0252144565
 40
0.0348177542
 40
0.0450313533
 40
0.0558549379
 40
0.0672844844
 40
0.07931329
 40
0.0919315909
 40
0.105127861
 40
0.1188881132
 40
0.1331969042
 40
0.1480370241
 40
0.163389771
 40
0.1792353132
 40
0.1955522691
 40
0.2123185274
 40
0.2295105633
 40
0.2650734778
 40
0.3020374668
 40
0.3401864327
 40
0.3792946958
 40
0.4191289871
 40
0.4594503783
 40
0.5000161788
 40
0.5405818168
 40
0.5809027281
 40
0.6207362316
 40
0.6598434074
 40
0.6979909924
 40
0.7349533119
 40
0.7705142719
 40
0.787705218
 40
0.8044703371
 40
0.8207861204
 40
0.8366303764
 40
0.851981868
 40
0.8668205858
 40
0.8811280246
 40
0.8948868063
 40
0.9080816003
 40
0.9206983861
 40
0.93272561
 40
0.9441536923
 40
0.9549756834
 40
0.9651876483
 40
0.9747891116
 40
0.9837847496
 40
0.9921836555
 40
1.0
 40
1.0
 40
1.0
 40
1.0
 10
12.8778457318
 20
8.0804087626
 30
0.0
 10
12.8765720509
 20
8.0821443934
 30
0.0
 10
12.8740647011
 20
8.0858448735
 30
0.0
 10
12.8705348976
 20
8.0918282565
 30
0.0
 10
12.8671092561
 20
8.0984307971
 30
0.0
 10
12.8637928344
 20
8.1056418854
 30
0.0
 10
12.8605907801
 20
8.1134506127
 30
0.0
 10
12.8575081341
 20
8.1218447677
 30
0.0
 10
12.8545496318
 20
8.1308111675
 30
0.0
 10
12.8517202852
 20
8.1403356814
 30
0.0
 10
12.8490243225
 20
8.1504031582
 30
0.0
 10
12.8464664355
 20
8.1609975994
 30
0.0
 10
12.8440504892
 20
8.1721020716
 30
0.0
 10
12.8417805853
 20
8.1836988293
 30
0.0
 10
12.8396603418
 20
8.1957692953
 30
0.0
 10
12.8376931495
 20
8.2082941283
 30
0.0
 10
12.8358823553
 20
8.2212532294
 30
0.0
 10
12.8342306829
 20
8.2346258053
 30
0.0
 10
12.8327410363
 20
8.2483903889
 30
0.0
 10
12.8309537694
 20
8.2674515831
 30
0.0
 10
12.8291556145
 20
8.2920953542
 30
0.0
 10
12.8276975613
 20
8.322540432
 30
0.0
 10
12.8269257523
 20
8.3539871118
 30
0.0
 10
12.8268453884
 20
8.3862333331
 30
0.0
 10
12.8274572595
 20
8.4190720614
 30
0.0
 10
12.8287575981
 20
8.4522923295
 30
0.0
 10
12.8307381562
 20
8.4856807005
 30
0.0
 10
12.833386238
 20
8.5190226371
 30
0.0
 10
12.8366847897
 20
8.5521039078
 30
0.0
 10
12.8406125178
 20
8.5847119869
 30
0.0
 10
12.8451440294
 20
8.6166374131
 30
0.0
 10
12.8502499614
 20
8.6476752473
 30
0.0
 10
12.855897268
 20
8.6776260841
 30
0.0
 10
12.861080495
 20
8.7017842887
 30
0.0
 10
12.8654822119
 20
8.7204150223
 30
0.0
 10
12.8688579093
 20
8.7338411735
 30
0.0
 10
12.8723399111
 20
8.746856656
 30
0.0
 10
12.8759225039
 20
8.7594405957
 30
0.0
 10
12.8795999272
 20
8.7715727973
 30
0.0
 10
12.8833663222
 20
8.7832337919
 30
0.0
 10
12.8872154288
 20
8.7944049216
 30
0.0
 10
12.891141297
 20
8.8050682593
 30
0.0
 10
12.8951372859
 20
8.8152068122
 30
0.0
 10
12.8991972448
 20
8.8248043544
 30
0.0
 10
12.9033144305
 20
8.8338456699
 30
0.0
 10
12.9074823766
 20
8.8423163956
 30
0.0
 10
12.9116944133
 20
8.8502031052
 30
0.0
 10
12.9159436527
 20
8.8574934971
 30
0.0
 10
12.9202237796
 20
8.8641761547
 30
0.0
 10
12.9245281989
 20
8.8702411938
 30
0.0
 10
12.9288504433
 20
8.8756785641
 30
0.0
 10
12.9318447867
 20
8.8789965161
 30
0.0
 10
12.9333458349
 20
8.8805391509
 30
0.0
  0
SPLINE
  5
3BD
100
AcDbEntity
  8
0
100
AcDbSpline
 62
7
  6
CONTINUOUS
 70
0
 71
3
 72
15
 73
11
 74
0
 42
0.0000001
 43
0.0000001
 44
0.0000000001
 40
0.0
 40
0.0
 40
0.0
 40
0.0
 40
0.1526300326
 40
0.2953399909
 40
0.4288534741
 40
0.55410632
 40
0.6722822383
 40
0.7848213256
 40
0.8934243922
 40
1.0
 40
1.0
 40
1.0
 40
1.0
 10
12.8848068253
 20
8.0709269394
 30
0.0
 10
12.885893067
 20
8.0694473366
 30
0.0
 10
12.8880857962
 20
8.0666490467
 30
0.0
 10
12.8915624758
 20
8.0628326342
 30
0.0
 10
12.8951098365
 20
8.059547598
 30
0.0
 10
12.8987249471
 20
8.0567993519
 30
0.0
 10
12.9024044104
 20
8.0545926653
 30
0.0
 10
12.9061450496
 20
8.0529336238
 30
0.0
 10
12.9099402898
 20
8.0518277739
 30
0.0
 10
12.912512525
 20
8.0514610808
 30
0.0
 10
12.9137911303
 20
8.0513724373
 30
0.0
  0
SPLINE
  5
3BE
100
AcDbEntity
  8
0
100
AcDbSpline
 62
7
  6
CONTINUOUS
 70
0
 71
3
 72
9
 73
5
 74
0
 42
0.0000001
 43
0.0000001
 44
0.0000000001
 40
0.0
 40
0.0
 40
0.0
 40
0.0
 40
0.484615573
 40
1.0
 40
1.0
 40
1.0
 40
1.0
 10
12.9410991406
 20
8.8896963224
 30
0.0
 10
12.9398711926
 20
8.8888848177
 30
0.0
 10
12.9374111968
 20
8.8870968891
 30
0.0
 10
12.9350957614
 20
8.8851270404
 30
0.0
 10
12.9339373157
 20
8.8840743165
 30
0.0
  0
SPLINE
  5
3BF
100
AcDbEntity
  8
0
100
AcDbSpline
 62
7
  6
CONTINUOUS
 70
0
 71
3
 72
11
 73
7
 74
0
 42
0.0000001
 43
0.0000001
 44
0.0000000001
 40
0.0
 40
0.0
 40
0.0
 40
0.0
 40
0.256312563
 40
0.5072570365
 40
0.7545521251
 40
1.0
 40
1.0
 40
1.0
 40
1.0
 10
12.9630755371
 20
8.9032784093
 30
0.0
 10
12.9623099406
 20
8.9036159163
 30
0.0
 10
12.9607674746
 20
8.9042241181
 30
0.0
 10
12.9584052773
 20
8.9049322649
 30
0.0
 10
12.956024904
 20
8.9054243059
 30
0.0
 10
12.9544243868
 20
8.9056080819
 30
0.0
 10
12.9536250821
 20
8.9056634963
 30
0.0
  0
SPLINE
  5
3C0
100
AcDbEntity
  8
0
100
AcDbSpline
 62
7
  6
CONTINUOUS
 70
0
 71
3
 72
29
 73
25
 74
0
 42
0.0000001
 43
0.0000001
 44
0.0000000001
 40
0.0
 40
0.0
 40
0.0
 40
0.0
 40
0.0188526215
 40
0.0388800837
 40
0.0600714902
 40
0.0824088345
 40
0.105869709
 40
0.1304262378
 40
0.1560471968
 40
0.1826971292
 40
0.210337739
 40
0.2389274808
 40
0.2684222026
 40
0.2987753482
 40
0.3618575191
 40
0.4277611882
 40
0.4960441546
 40
0.5662419327
 40
0.6378725734
 40
0.7104410583
 40
0.7834445378
 40
0.8563751119
 40
0.928728248
 40
1.0
 40
1.0
 40
1.0
 40
1.0
 10
13.6186501413
 20
8.0454881667
 30
0.0
 10
13.6202681676
 20
8.0482314879
 30
0.0
 10
13.6234801682
 20
8.0539633634
 30
0.0
 10
13.6281040393
 20
8.0629994001
 30
0.0
 10
13.6326713573
 20
8.0727187024
 30
0.0
 10
13.6371739666
 20
8.0831032487
 30
0.0
 10
13.6416031936
 20
8.0941342135
 30
0.0
 10
13.6459511467
 20
8.1057912711
 30
0.0
 10
13.6502094581
 20
8.1180530441
 30
0.0
 10
13.6543704355
 20
8.1308969044
 30
0.0
 10
13.6584261731
 20
8.1442991857
 30
0.0
 10
13.6623692112
 20
8.1582351161
 30
0.0
 10
13.666192223
 20
8.1726789665
 30
0.0
 10
13.6711840466
 20
8.1928385042
 30
0.0
 10
13.6770534821
 20
8.2191135767
 30
0.0
 10
13.6834255816
 20
8.2518288014
 30
0.0
 10
13.6891659234
 20
8.2858802758
 30
0.0
 10
13.6942316346
 20
8.3210160907
 30
0.0
 10
13.6985848482
 20
8.35697649
 30
0.0
 10
13.702193144
 20
8.3934954718
 30
0.0
 10
13.705029625
 20
8.4303026935
 30
0.0
 10
13.7070733668
 20
8.4671260594
 30
0.0
 10
13.7083091635
 20
8.5036925261
 30
0.0
 10
13.7085912857
 20
8.5279571329
 30
0.0
 10
13.7085912857
 20
8.5399976866
 30
0.0
  0
SPLINE
  5
3C1
100
AcDbEntity
  8
0
100
AcDbSpline
 62
7
  6
CONTINUOUS
 70
0
 71
3
 72
9
 73
5
 74
0
 42
0.0000001
 43
0.0000001
 44
0.0000000001
 40
0.0
 40
0.0
 40
0.0
 40
0.0
 40
0.4962129054
 40
1.0
 40
1.0
 40
1.0
 40
1.0
 10
13.6603843396
 20
8.8404440506
 30
0.0
 10
13.6564674708
 20
8.8498534037
 30
0.0
 10
13.6481086955
 20
8.8686243264
 30
0.0
 10
13.6389681241
 20
8.8870242
 30
0.0
 10
13.6341990106
 20
8.8962072673
 30
0.0
  0
SPLINE
  5
3C2
100
AcDbEntity
  8
0
100
AcDbSpline
 62
7
  6
CONTINUOUS
 70
0
 71
3
 72
11
 73
7
 74
0
 42
0.0000001
 43
0.0000001
 44
0.0000000001
 40
0.0
 40
0.0
 40
0.0
 40
0.0
 40
0.2452787389
 40
0.4924751051
 40
0.7434559264
 40
1.0
 40
1.0
 40
1.0
 40
1.0
 10
12.8944726127
 20
8.0527121811
 30
0.0
 10
12.895287467
 20
8.0526556887
 30
0.0
 10
12.8969297364
 20
8.0526175017
 30
0.0
 10
12.8994030514
 20
8.0527858077
 30
0.0
 10
12.9018885589
 20
8.0531791551
 30
0.0
 10
12.9035313775
 20
8.0535859374
 30
0.0
 10
12.9043517315
 20
8.0538244561
 30
0.0
  0
SPLINE
  5
3C3
100
AcDbEntity
  8
0
100
AcDbSpline
 62
7
  6
CONTINUOUS
 70
0
 71
3
 72
9
 73
5
 74
0
 42
0.0000001
 43
0.0000001
 44
0.0000000001
 40
0.0
 40
0.0
 40
0.0
 40
0.0
 40
0.4809400597
 40
1.0
 40
1.0
 40
1.0
 40
1.0
 10
12.8840401349
 20
8.0704599855
 30
0.0
 10
12.8826719705
 20
8.0716809563
 30
0.0
 10
12.8799651526
 20
8.0743764292
 30
0.0
 10
12.8775147989
 20
8.0773038318
 30
0.0
 10
12.8763020129
 20
8.0788677924
 30
0.0
  0
SPLINE
  5
3C4
100
AcDbEntity
  8
0
100
AcDbSpline
 62
7
  6
CONTINUOUS
 70
0
 71
3
 72
57
 73
53
 74
0
 42
0.0000001
 43
0.0000001
 44
0.0000000001
 40
0.0
 40
0.0
 40
0.0
 40
0.0
 40
0.0076677232
 40
0.0159207441
 40
0.0247775777
 40
0.0342496019
 40
0.0443422716
 40
0.0550566822
 40
0.0663895565
 40
0.0783348483
 40
0.0908831972
 40
0.1040231916
 40
0.1177410298
 40
0.1320210553
 40
0.146846015
 40
0.1621968275
 40
0.178053377
 40
0.1943938285
 40
0.2111955606
 40
0.2284345437
 40
0.2641231592
 40
0.3012507813
 40
0.3395952922
 40
0.3789244813
 40
0.4189981531
 40
0.4595701678
 40
0.5003904445
 40
0.5412069473
 40
0.5817676743
 40
0.621822638
 40
0.6611258489
 40
0.6994373195
 40
0.7365251063
 40
0.7721674209
 40
0.7893809288
 40
0.8061557703
 40
0.8224679158
 40
0.8382948224
 40
0.8536147809
 40
0.8684076516
 40
0.8826545898
 40
0.8963382699
 40
0.9094433002
 40
0.9219558574
 40
0.9338647944
 40
0.9451609082
 40
0.955838185
 40
0.9658935451
 40
0.9753284134
 40
0.9841493062
 40
0.9923674651
 40
1.0
 40
1.0
 40
1.0
 40
1.0
 10
12.8763020129
 20
8.0788677924
 30
0.0
 10
12.8750007333
 20
8.0805458709
 30
0.0
 10
12.8724380918
 20
8.0841394086
 30
0.0
 10
12.8688319192
 20
8.0899820333
 30
0.0
 10
12.8653305545
 20
8.0964617844
 30
0.0
 10
12.8619395815
 20
8.1035681256
 30
0.0
 10
12.8586639668
 20
8.1112900076
 30
0.0
 10
12.8555092624
 20
8.1196151943
 30
0.0
 10
12.8524802004
 20
8.1285302767
 30
0.0
 10
12.8495821227
 20
8.1380209248
 30
0.0
 10
12.8468194723
 20
8.1480716885
 30
0.0
 10
12.844197064
 20
8.1586662252
 30
0.0
 10
12.8417191196
 20
8.1697872122
 30
0.0
 10
12.8393897616
 20
8.1814164551
 30
0.0
 10
12.8372129691
 20
8.1935348854
 30
0.0
 10
12.8351921651
 20
8.2061226219
 30
0.0
 10
12.8333309649
 20
8.2191589824
 30
0.0
 10
12.8316321993
 20
8.2326225467
 30
0.0
 10
12.8300989103
 20
8.2464911854
 30
0.0
 10
12.8282571786
 20
8.2657146296
 30
0.0
 10
12.8264012199
 20
8.290588712
 30
0.0
 10
12.8248905984
 20
8.3213395292
 30
0.0
 10
12.8240823
 20
8.353125252
 30
0.0
 10
12.8239819097
 20
8.3857367319
 30
0.0
 10
12.8245903789
 20
8.4189595543
 30
0.0
 10
12.8259038786
 20
8.4525751478
 30
0.0
 10
12.8279138775
 20
8.4863623377
 30
0.0
 10
12.8306071822
 20
8.5200987994
 30
0.0
 10
12.8339660297
 20
8.5535625488
 30
0.0
 10
12.8379682122
 20
8.5865334296
 30
0.0
 10
12.8425872265
 20
8.6187945552
 30
0.0
 10
12.8477924122
 20
8.6501338571
 30
0.0
 10
12.8535492614
 20
8.6803451589
 30
0.0
 10
12.858833707
 20
8.7046905659
 30
0.0
 10
12.8633210135
 20
8.7234453613
 30
0.0
 10
12.8667606006
 20
8.7369448597
 30
0.0
 10
12.8703078329
 20
8.7500190124
 30
0.0
 10
12.8739566424
 20
8.7626463607
 30
0.0
 10
12.877701176
 20
8.7748061392
 30
0.0
 10
12.8815351364
 20
8.7864783908
 30
0.0
 10
12.8854521907
 20
8.7976439736
 30
0.0
 10
12.8894459695
 20
8.8082845674
 30
0.0
 10
12.8935096589
 20
8.818382808
 30
0.0
 10
12.8976368514
 20
8.8279221521
 30
0.0
 10
12.9018204348
 20
8.8368871651
 30
0.0
 10
12.9060538899
 20
8.8452632064
 30
0.0
 10
12.9103299779
 20
8.8530368085
 30
0.0
 10
12.9146419363
 20
8.860195513
 30
0.0
 10
12.9189829907
 20
8.8667280461
 30
0.0
 10
12.9233466111
 20
8.8726243779
 30
0.0
 10
12.927725695
 20
8.8778744106
 30
0.0
 10
12.9307601725
 20
8.8810528122
 30
0.0
 10
12.9322805044
 20
8.8825213402
 30
0.0
  0
SPLINE
  5
3C5
100
AcDbEntity
  8
0
100
AcDbSpline
 62
7
  6
CONTINUOUS
 70
0
 71
3
 72
55
 73
51
 74
0
 42
0.0000001
 43
0.0000001
 44
0.0000000001
 40
0.0
 40
0.0
 40
0.0
 40
0.0
 40
0.0543589467
 40
0.1078432788
 40
0.1602996692
 40
0.2115999945
 40
0.2616181954
 40
0.310228176
 40
0.3573108483
 40
0.4027529473
 40
0.4464480535
 40
0.4882961371
 40
0.5282059271
 40
0.5660950521
 40
0.6018913243
 40
0.6355350821
 40
0.6669797361
 40
0.6818688325
 40
0.6961987697
 40
0.7099690854
 40
0.7231812428
 40
0.7358381625
 40
0.747944613
 40
0.7595082157
 40
0.7705391949
 40
0.7810505467
 40
0.7910590535
 40
0.8005859665
 40
0.8096570127
 40
0.8183032
 40
0.826562006
 40
0.83447744
 40
0.8421002429
 40
0.8494881871
 40
0.8567054815
 40
0.8638212869
 40
0.8709080465
 40
0.878039214
 40
0.8852867004
 40
0.8927188193
 40
0.9003984941
 40
0.9167057032
 40
0.9254382408
 40
0.9346025267
 40
0.9442284462
 40
0.9543409022
 40
0.9649600826
 40
0.9761017545
 40
0.9877784644
 40
1.0
 40
1.0
 40
1.0
 40
1.0
 10
13.4860070906
 20
8.3249978513
 30
0.0
 10
13.4860070906
 20
8.3177626857
 30
0.0
 10
13.4861075923
 20
8.3034085415
 30
0.0
 10
13.4865664066
 20
8.2820768791
 30
0.0
 10
13.4873313094
 20
8.2611612761
 30
0.0
 10
13.488399928
 20
8.2407209037
 30
0.0
 10
13.4897691766
 20
8.2208115294
 30
0.0
 10
13.4914353758
 20
8.2014881149
 30
0.0
 10
13.4933936421
 20
8.1828043162
 30
0.0
 10
13.4956386798
 20
8.1648117395
 30
0.0
 10
13.4981639199
 20
8.1475600454
 30
0.0
 10
13.5009624768
 20
8.1310968366
 30
0.0
 10
13.5040263345
 20
8.1154674643
 30
0.0
 10
13.5073468896
 20
8.1007149014
 30
0.0
 10
13.5109149364
 20
8.0868794867
 30
0.0
 10
13.5147202551
 20
8.0739991942
 30
0.0
 10
13.5181399452
 20
8.0639146049
 30
0.0
 10
13.520998507
 20
8.0563624892
 30
0.0
 10
13.5231561009
 20
8.0510623002
 30
0.0
 10
13.525364998
 20
8.0460260376
 30
0.0
 10
13.5276236244
 20
8.0412570545
 30
0.0
 10
13.5299304494
 20
8.0367585981
 30
0.0
 10
13.5322840631
 20
8.0325338012
 30
0.0
 10
13.5346828089
 20
8.0285854535
 30
0.0
 10
13.5371250737
 20
8.0249161514
 30
0.0
 10
13.539609395
 20
8.0215284411
 30
0.0
 10
13.5421342798
 20
8.0184246572
 30
0.0
 10
13.5446980866
 20
8.0156067948
 30
0.0
 10
13.5472993407
 20
8.013076824
 30
0.0
 10
13.5499367183
 20
8.0108367857
 30
0.0
 10
13.5526086415
 20
8.0088883607
 30
0.0
 10
13.5553135497
 20
8.0072331904
 30
0.0
 10
13.5580498855
 20
8.0058731405
 30
0.0
 10
13.5608157896
 20
8.0048099787
 30
0.0
 10
13.5636089853
 20
8.0040449848
 30
0.0
 10
13.5664269851
 20
8.0035793746
 30
0.0
 10
13.5692669931
 20
8.0034141578
 30
0.0
 10
13.5721260367
 20
8.0035492753
 30
0.0
 10
13.575001248
 20
8.0039841368
 30
0.0
 10
13.5778901809
 20
8.004718081
 30
0.0
 10
13.5818348193
 20
8.0061213848
 30
0.0
 10
13.5857295367
 20
8.0081188503
 30
0.0
 10
13.5895382147
 20
8.0106162384
 30
0.0
 10
13.5924648486
 20
8.0128241304
 30
0.0
 10
13.5953933497
 20
8.0153217172
 30
0.0
 10
13.5983224562
 20
8.0181076435
 30
0.0
 10
13.6012501543
 20
8.021179933
 30
0.0
 10
13.6041747701
 20
8.0245363998
 30
0.0
 10
13.6070943507
 20
8.0281747459
 30
0.0
 10
13.6089925062
 20
8.0307281267
 30
0.0
 10
13.6099412923
 20
8.0320494541
 30
0.0
  0
SPLINE
  5
3C6
100
AcDbEntity
  8
0
100
AcDbSpline
 62
7
  6
CONTINUOUS
 70
0
 71
3
 72
9
 73
5
 74
0
 42
0.0000001
 43
0.0000001
 44
0.0000000001
 40
0.0
 40
0.0
 40
0.0
 40
0.0
 40
0.4842729664
 40
1.0
 40
1.0
 40
1.0
 40
1.0
 10
13.6099412923
 20
8.0320494541
 30
0.0
 10
13.6114494209
 20
8.0341497499
 30
0.0
 10
13.6144503658
 20
8.0385687325
 30
0.0
 10
13.6172512378
 20
8.0431163626
 30
0.0
 10
13.6186501413
 20
8.0454881667
 30
0.0
  0
SPLINE
  5
3C7
100
AcDbEntity
  8
0
100
AcDbSpline
 62
7
  6
CONTINUOUS
 70
0
 71
3
 72
58
 73
54
 74
0
 42
0.0000001
 43
0.0000001
 44
0.0000000001
 40
0.0
 40
0.0
 40
0.0
 40
0.0
 40
0.0116739691
 40
0.0227018498
 40
0.0330892101
 40
0.0428467078
 40
0.0519908545
 40
0.0605448006
 40
0.068540818
 40
0.0760211371
 40
0.0830404085
 40
0.0896674754
 40
0.0959858912
 40
0.1020938936
 40
0.1081010157
 40
0.1141228809
 40
0.1202741555
 40
0.1266620151
 40
0.1333810516
 40
0.1405111267
 40
0.1481174251
 40
0.1562510824
 40
0.1649518666
 40
0.1742493813
 40
0.1841650095
 40
0.1947138395
 40
0.2059048627
 40
0.2177429728
 40
0.2302290898
 40
0.2433606563
 40
0.2571328512
 40
0.2715378619
 40
0.2865660976
 40
0.3022061176
 40
0.3184444195
 40
0.3352665024
 40
0.352656031
 40
0.3705955615
 40
0.3890666658
 40
0.4080494049
 40
0.4474657431
 40
0.488669263
 40
0.5314709215
 40
0.5756707436
 40
0.6210594348
 40
0.6674199616
 40
0.714529165
 40
0.762159122
 40
0.8100787892
 40
0.8580555804
 40
0.905854531
 40
0.953248342
 40
1.0
 40
1.0
 40
1.0
 40
1.0
 10
13.6718683007
 20
8.8128528176
 30
0.0
 10
13.6709032989
 20
8.8151713389
 30
0.0
 10
13.668947713
 20
8.8196478592
 30
0.0
 10
13.665838238
 20
8.826053284
 30
0.0
 10
13.6626397666
 20
8.8319502275
 30
0.0
 10
13.6593561962
 20
8.8373312848
 30
0.0
 10
13.6559914716
 20
8.8421900112
 30
0.0
 10
13.6525488419
 20
8.8465202115
 30
0.0
 10
13.649032051
 20
8.8503166858
 30
0.0
 10
13.6454440448
 20
8.8535742294
 30
0.0
 10
13.6417877351
 20
8.8562876345
 30
0.0
 10
13.638066495
 20
8.8584519007
 30
0.0
 10
13.634283983
 20
8.8600607105
 30
0.0
 10
13.6304461143
 20
8.8611086861
 30
0.0
 10
13.6265606359
 20
8.8615911506
 30
0.0
 10
13.6226370584
 20
8.8615058848
 30
0.0
 10
13.6186848009
 20
8.8608548758
 30
0.0
 10
13.6147118873
 20
8.8596414944
 30
0.0
 10
13.6107241923
 20
8.8578712413
 30
0.0
 10
13.6067260751
 20
8.8555492356
 30
0.0
 10
13.6027215015
 20
8.852680001
 30
0.0
 10
13.5987138075
 20
8.8492685275
 30
0.0
 10
13.5947071467
 20
8.8453191659
 30
0.0
 10
13.590705597
 20
8.8408370806
 30
0.0
 10
13.5867135004
 20
8.8358278731
 30
0.0
 10
13.5827358227
 20
8.8302975454
 30
0.0
 10
13.5787770657
 20
8.824253157
 30
0.0
 10
13.5748423521
 20
8.8177021453
 30
0.0
 10
13.5709366393
 20
8.8106527842
 30
0.0
 10
13.5670647304
 20
8.8031140702
 30
0.0
 10
13.5632318767
 20
8.7950955065
 30
0.0
 10
13.5594427806
 20
8.7866074408
 30
0.0
 10
13.5557024494
 20
8.7776607271
 30
0.0
 10
13.5520158111
 20
8.7682668584
 30
0.0
 10
13.5483874501
 20
8.758437984
 30
0.0
 10
13.5448223178
 20
8.7481867325
 30
0.0
 10
13.5413248883
 20
8.7375263801
 30
0.0
 10
13.5378997327
 20
8.7264707011
 30
0.0
 10
13.5345514021
 20
8.7150339634
 30
0.0
 10
13.5301396362
 20
8.6990963433
 30
0.0
 10
13.5248622441
 20
8.678326789
 30
0.0
 10
13.5189779217
 20
8.6524337961
 30
0.0
 10
13.5134963118
 20
8.625401895
 30
0.0
 10
13.5084460411
 20
8.5973710494
 30
0.0
 10
13.5038535425
 20
8.5684862565
 30
0.0
 10
13.4997427425
 20
8.5388970945
 30
0.0
 10
13.4961350717
 20
8.5087568249
 30
0.0
 10
13.4930493156
 20
8.4782215835
 30
0.0
 10
13.49050154
 20
8.4474495032
 30
0.0
 10
13.4885050535
 20
8.4166003293
 30
0.0
 10
13.4870699455
 20
8.3858331422
 30
0.0
 10
13.4862039563
 20
8.3553084149
 30
0.0
 10
13.4860070906
 20
8.3350551642
 30
0.0
 10
13.4860070906
 20
8.3249978513
 30
0.0
  0
SPLINE
  5
3C8
100
AcDbEntity
  8
0
100
AcDbSpline
 62
7
  6
CONTINUOUS
 70
0
 71
3
 72
9
 73
5
 74
0
 42
0.0000001
 43
0.0000001
 44
0.0000000001
 40
0.0
 40
0.0
 40
0.0
 40
0.0
 40
0.4878923089
 40
1.0
 40
1.0
 40
1.0
 40
1.0
 10
13.0796240015
 20
7.9948450654
 30
0.0
 10
13.0786469503
 20
7.9960464013
 30
0.0
 10
13.0767101451
 20
7.9985627
 30
0.0
 10
13.0748950873
 20
8.0011677561
 30
0.0
 10
13.0739941869
 20
8.0025205843
 30
0.0
  0
SPLINE
  5
3C9
100
AcDbEntity
  8
0
100
AcDbSpline
 62
7
  6
CONTINUOUS
 70
0
 71
3
 72
30
 73
26
 74
0
 42
0.0000001
 43
0.0000001
 44
0.0000000001
 40
0.0
 40
0.0
 40
0.0
 40
0.0
 40
0.0162144601
 40
0.0334278376
 40
0.0516722747
 40
0.0709715401
 40
0.0913413873
 40
0.1127905212
 40
0.1353230381
 40
0.1589376826
 40
0.1836288725
 40
0.2093883007
 40
0.2362036478
 40
0.2640598807
 40
0.2929401199
 40
0.322824223
 40
0.3855130568
 40
0.4519320331
 40
0.521858084
 40
0.5950444013
 40
0.6712252439
 40
0.750116436
 40
0.8314169496
 40
0.9148255979
 40
1.0
 40
1.0
 40
1.0
 40
1.0
 10
13.0282901532
 20
8.0579627687
 30
0.0
 10
13.0272262601
 20
8.0592708608
 30
0.0
 10
13.0251225014
 20
8.0620413356
 30
0.0
 10
13.0221224023
 20
8.0665020251
 30
0.0
 10
13.0191881229
 20
8.0713844629
 30
0.0
 10
13.0163228696
 20
8.0766835972
 30
0.0
 10
13.0135294193
 20
8.0823941154
 30
0.0
 10
13.0108104219
 20
8.0885100938
 30
0.0
 10
13.008168879
 20
8.0950253454
 30
0.0
 10
13.0056074565
 20
8.1019331035
 30
0.0
 10
13.0031287123
 20
8.1092261758
 30
0.0
 10
13.0007354594
 20
8.1168970319
 30
0.0
 10
12.9984300865
 20
8.1249376294
 30
0.0
 10
12.9962149884
 20
8.1333395528
 30
0.0
 10
12.9940926567
 20
8.1420940532
 30
0.0
 10
12.9913455173
 20
8.1544219756
 30
0.0
 10
12.9881764471
 20
8.1706520412
 30
0.0
 10
12.9848335306
 20
8.1910802476
 30
0.0
 10
12.9819071772
 20
8.2126741661
 30
0.0
 10
12.9794098595
 20
8.2353430774
 30
0.0
 10
12.9773523904
 20
8.2589918421
 30
0.0
 10
12.9757437063
 20
8.2835208252
 30
0.0
 10
12.9745906534
 20
8.308827729
 30
0.0
 10
12.973898499
 20
8.3348048497
 30
0.0
 10
12.9737474936
 20
8.3523359177
 30
0.0
 10
12.9737474936
 20
8.3611930474
 30
0.0
  0
SPLINE
  5
3CA
100
AcDbEntity
  8
0
100
AcDbSpline
 62
7
  6
CONTINUOUS
 70
0
 71
3
 72
9
 73
5
 74
0
 42
0.0000001
 43
0.0000001
 44
0.0000000001
 40
0.0
 40
0.0
 40
0.0
 40
0.0
 40
0.4973077721
 40
1.0
 40
1.0
 40
1.0
 40
1.0
 10
12.9536250821
 20
8.9056634963
 30
0.0
 10
12.9526645179
 20
8.9057300905
 30
0.0
 10
12.9507243162
 20
8.9057591939
 30
0.0
 10
12.9487923892
 20
8.9055803977
 30
0.0
 10
12.9478291132
 20
8.9054411044
 30
0.0
  0
SPLINE
  5
3CB
100
AcDbEntity
  8
0
100
AcDbSpline
 62
7
  6
CONTINUOUS
 70
0
 71
3
 72
23
 73
19
 74
0
 42
0.0000001
 43
0.0000001
 44
0.0000000001
 40
0.0
 40
0.0
 40
0.0
 40
0.0
 40
0.0776352889
 40
0.1508257231
 40
0.2199396827
 40
0.2854450179
 40
0.3478901986
 40
0.4078902124
 40
0.4660994668
 40
0.5231772854
 40
0.5797581761
 40
0.6364177788
 40
0.6936565501
 40
0.7518847108
 40
0.8114278426
 40
0.872526607
 40
0.9353486856
 40
1.0
 40
1.0
 40
1.0
 40
1.0
 10
13.0951566078
 20
8.8910376945
 30
0.0
 10
13.0939089433
 20
8.8898766298
 30
0.0
 10
13.0915536693
 20
8.8875452756
 30
0.0
 10
13.0883694835
 20
8.8839098458
 30
0.0
 10
13.0856429389
 20
8.8802455252
 30
0.0
 10
13.0833714858
 20
8.876556552
 30
0.0
 10
13.0815497926
 20
8.8728469066
 30
0.0
 10
13.0801698273
 20
8.8691211894
 30
0.0
 10
13.0792200895
 20
8.8653845663
 30
0.0
 10
13.0786873825
 20
8.8616420533
 30
0.0
 10
13.0785547583
 20
8.8578986143
 30
0.0
 10
13.078804779
 20
8.8541582783
 30
0.0
 10
13.079417792
 20
8.8504241959
 30
0.0
 10
13.0803744593
 20
8.8466984728
 30
0.0
 10
13.0816555281
 20
8.8429825382
 30
0.0
 10
13.0832420305
 20
8.8392771255
 30
0.0
 10
13.0851158838
 20
8.8355829837
 30
0.0
 10
13.0865247599
 20
8.8331632157
 30
0.0
 10
13.0872696732
 20
8.8319551208
 30
0.0
  0
SPLINE
  5
3CC
100
AcDbEntity
  8
0
100
AcDbSpline
 62
7
  6
CONTINUOUS
 70
0
 71
3
 72
35
 73
31
 74
0
 42
0.0000001
 43
0.0000001
 44
0.0000000001
 40
0.0
 40
0.0
 40
0.0
 40
0.0
 40
0.0070630217
 40
0.0144562471
 40
0.0221887385
 40
0.0302678176
 40
0.0386992513
 40
0.0474870202
 40
0.0661397197
 40
0.0862379122
 40
0.107776024
 40
0.1307375212
 40
0.1550954477
 40
0.1808152436
 40
0.2078549253
 40
0.2361666083
 40
0.2656968788
 40
0.2963874488
 40
0.328175906
 40
0.3609956019
 40
0.3947767582
 40
0.429445964
 40
0.4649274437
 40
0.5380083937
 40
0.6133674727
 40
0.6903232766
 40
0.768175309
 40
0.8462133312
 40
0.9237231874
 40
1.0
 40
1.0
 40
1.0
 40
1.0
 10
13.0854370005
 20
8.8819917395
 30
0.0
 10
13.0845051687
 20
8.8811245052
 30
0.0
 10
13.0826424992
 20
8.8793011361
 30
0.0
 10
13.0799126174
 20
8.8763772533
 30
0.0
 10
13.0771856435
 20
8.873205011
 30
0.0
 10
13.0744632676
 20
8.8697863533
 30
0.0
 10
13.0717470962
 20
8.8661231962
 30
0.0
 10
13.0680624113
 20
8.86080978
 30
0.0
 10
13.0634955769
 20
8.8535550406
 30
0.0
 10
13.0581699154
 20
8.844079757
 30
0.0
 10
13.0529070252
 20
8.8336913031
 30
0.0
 10
13.0477199704
 20
8.8224144523
 30
0.0
 10
13.0426210071
 20
8.8102760542
 30
0.0
 10
13.0376227901
 20
8.7973052078
 30
0.0
 10
13.0327374001
 20
8.7835331829
 30
0.0
 10
13.0279768647
 20
8.7689932638
 30
0.0
 10
13.0233528609
 20
8.7537206749
 30
0.0
 10
13.0188766504
 20
8.7377524842
 30
0.0
 10
13.014559336
 20
8.7211274664
 30
0.0
 10
13.0104113131
 20
8.7038860521
 30
0.0
 10
13.0064429746
 20
8.68607018
 30
0.0
 10
13.0026637485
 20
8.6677231939
 30
0.0
 10
12.9978423527
 20
8.6423622996
 30
0.0
 10
12.9923711759
 20
8.6096642906
 30
0.0
 10
12.9867550166
 20
8.5694272498
 30
0.0
 10
12.9820806746
 20
8.528204503
 30
0.0
 10
12.9783939201
 20
8.4863972398
 30
0.0
 10
12.975730879
 20
8.4444121789
 30
0.0
 10
12.9741173188
 20
8.4026580415
 30
0.0
 10
12.9737474936
 20
8.3749402365
 30
0.0
 10
12.9737474936
 20
8.3611930474
 30
0.0
  0
SPLINE
  5
3CD
100
AcDbEntity
  8
0
100
AcDbSpline
 62
7
  6
CONTINUOUS
 70
0
 71
3
 72
9
 73
5
 74
0
 42
0.0000001
 43
0.0000001
 44
0.0000000001
 40
0.0
 40
0.0
 40
0.0
 40
0.0
 40
0.4868379223
 40
1.0
 40
1.0
 40
1.0
 40
1.0
 10
13.0872696732
 20
8.8319551208
 30
0.0
 10
13.084916612
 20
8.825298449
 30
0.0
 10
13.0803027708
 20
8.8115469521
 30
0.0
 10
13.0760752189
 20
8.7976724688
 30
0.0
 10
13.0739941869
 20
8.7905272623
 30
0.0
  0
SPLINE
  5
3CE
100
AcDbEntity
  8
0
100
AcDbSpline
 62
7
  6
CONTINUOUS
 70
0
 71
3
 72
9
 73
5
 74
0
 42
0.0000001
 43
0.0000001
 44
0.0000000001
 40
0.0
 40
0.0
 40
0.0
 40
0.0
 40
0.5028693541
 40
1.0
 40
1.0
 40
1.0
 40
1.0
 10
12.8885778721
 20
8.0537867697
 30
0.0
 10
12.8895420995
 20
8.0535002276
 30
0.0
 10
12.8914912549
 20
8.0530314215
 30
0.0
 10
12.8934805702
 20
8.0527809576
 30
0.0
 10
12.8944726127
 20
8.0527121811
 30
0.0
  0
SPLINE
  5
3CF
100
AcDbEntity
  8
0
100
AcDbSpline
 62
7
  6
CONTINUOUS
 70
0
 71
3
 72
9
 73
5
 74
0
 42
0.0000001
 43
0.0000001
 44
0.0000000001
 40
0.0
 40
0.0
 40
0.0
 40
0.0
 40
0.4868379223
 40
1.0
 40
1.0
 40
1.0
 40
1.0
 10
13.507868899
 20
8.8027864654
 30
0.0
 10
13.5055158378
 20
8.7961297936
 30
0.0
 10
13.5009019965
 20
8.7823782967
 30
0.0
 10
13.4966744447
 20
8.7685038134
 30
0.0
 10
13.4945934127
 20
8.7613586069
 30
0.0
  0
SPLINE
  5
3D0
100
AcDbEntity
  8
0
100
AcDbSpline
 62
7
  6
CONTINUOUS
 70
0
 71
3
 72
11
 73
7
 74
0
 42
0.0000001
 43
0.0000001
 44
0.0000000001
 40
0.0
 40
0.0
 40
0.0
 40
0.0
 40
0.2715243135
 40
0.5282312124
 40
0.7707769425
 40
1.0
 40
1.0
 40
1.0
 40
1.0
 10
13.4945934127
 20
7.9733519289
 30
0.0
 10
13.4956305285
 20
7.9717945542
 30
0.0
 10
13.4977219958
 20
7.9688129094
 30
0.0
 10
13.5010110996
 20
7.9646384595
 30
0.0
 10
13.5043596479
 20
7.9608938949
 30
0.0
 10
13.5066930912
 20
7.9586251468
 30
0.0
 10
13.507868899
 20
7.957570342
 30
0.0
  0
SPLINE
  5
3D1
100
AcDbEntity
  8
0
100
AcDbSpline
 62
7
  6
CONTINUOUS
 70
0
 71
3
 72
23
 73
19
 74
0
 42
0.0000001
 43
0.0000001
 44
0.0000000001
 40
0.0
 40
0.0
 40
0.0
 40
0.0
 40
0.0433898908
 40
0.0873151979
 40
0.132253563
 40
0.1787502598
 40
0.2273828052
 40
0.2787186827
 40
0.3332711545
 40
0.3914616804
 40
0.4535937425
 40
0.5198405317
 40
0.5902504179
 40
0.6647622528
 40
0.7432260039
 40
0.8254265381
 40
0.9111104699
 40
1.0
 40
1.0
 40
1.0
 40
1.0
 10
13.6209235243
 20
8.9119888542
 30
0.0
 10
13.6208364448
 20
8.9095993283
 30
0.0
 10
13.6204397695
 20
8.9047954121
 30
0.0
 10
13.6191229864
 20
8.8976148907
 30
0.0
 10
13.617020281
 20
8.8904435245
 30
0.0
 10
13.6140740126
 20
8.8832937695
 30
0.0
 10
13.6102342934
 20
8.8761783803
 30
0.0
 10
13.6054625446
 20
8.8691101077
 30
0.0
 10
13.5997331524
 20
8.8621002726
 30
0.0
 10
13.593034724
 20
8.8551585492
 30
0.0
 10
13.5853710113
 20
8.8482929495
 30
0.0
 10
13.5767611961
 20
8.8415094886
 30
0.0
 10
13.5672382913
 20
8.8348126503
 30
0.0
 10
13.5568470496
 20
8.8282053267
 30
0.0
 10
13.5456412581
 20
8.8216887447
 30
0.0
 10
13.5336805194
 20
8.8152623534
 30
0.0
 10
13.5210273026
 20
8.808924441
 30
0.0
 10
13.5123221416
 20
8.8048270064
 30
0.0
 10
13.507868899
 20
8.8027864654
 30
0.0
  0
SPLINE
  5
3D2
100
AcDbEntity
  8
0
100
AcDbSpline
 62
7
  6
CONTINUOUS
 70
0
 71
3
 72
21
 73
17
 74
0
 42
0.0000001
 43
0.0000001
 44
0.0000000001
 40
0.0
 40
0.0
 40
0.0
 40
0.0
 40
0.1232118409
 40
0.184978142
 40
0.2468621508
 40
0.3088733776
 40
0.3710200225
 40
0.4333085001
 40
0.4957426925
 40
0.5583233748
 40
0.621048207
 40
0.6839121601
 40
0.746907828
 40
0.810025836
 40
0.8732556841
 40
1.0
 40
1.0
 40
1.0
 40
1.0
 10
13.4945934127
 20
8.7613586069
 30
0.0
 10
13.4967306179
 20
8.7438781561
 30
0.0
 10
13.4992991445
 20
8.7175477028
 30
0.0
 10
13.5012088052
 20
8.6823114478
 30
0.0
 10
13.501827099
 20
8.6557774079
 30
0.0
 10
13.5015752251
 20
8.6291827657
 30
0.0
 10
13.5004071825
 20
8.6025542056
 30
0.0
 10
13.4982885994
 20
8.5759234324
 30
0.0
 10
13.4951994389
 20
8.549325119
 30
0.0
 10
13.4911358252
 20
8.5227950998
 30
0.0
 10
13.4861112828
 20
8.4963678916
 30
0.0
 10
13.480154842
 20
8.4700745569
 30
0.0
 10
13.4733087331
 20
8.4439411977
 30
0.0
 10
13.4656252585
 20
8.4179874183
 30
0.0
 10
13.4543355807
 20
8.3836158546
 30
0.0
 10
13.4448061764
 20
8.3581737634
 30
0.0
 10
13.4380661
 20
8.3413587962
 30
0.0
  0
SPLINE
  5
3D3
100
AcDbEntity
  8
0
100
AcDbSpline
 62
7
  6
CONTINUOUS
 70
0
 71
3
 72
23
 73
19
 74
0
 42
0.0000001
 43
0.0000001
 44
0.0000000001
 40
0.0
 40
0.0
 40
0.0
 40
0.0
 40
0.0639291519
 40
0.1277504133
 40
0.19143807
 40
0.2549679294
 40
0.3183121814
 40
0.3814442748
 40
0.4443409167
 40
0.5069855574
 40
0.5693709551
 40
0.6315003903
 40
0.6933869975
 40
0.7550514051
 40
0.8165189265
 40
0.8778157103
 40
0.9389690729
 40
1.0
 40
1.0
 40
1.0
 40
1.0
 10
13.0739941869
 20
8.7905272623
 30
0.0
 10
13.0691743391
 20
8.7825209412
 30
0.0
 10
13.0598091789
 20
8.7663591557
 30
0.0
 10
13.0466978169
 20
8.741628175
 30
0.0
 10
13.0346681174
 20
8.7164156197
 30
0.0
 10
13.023865624
 20
8.6907268155
 30
0.0
 10
13.0144388111
 20
8.66458584
 30
0.0
 10
13.0065292859
 20
8.6380407915
 30
0.0
 10
13.0002585345
 20
8.6111647155
 30
0.0
 10
12.9957138107
 20
8.5840530713
 30
0.0
 10
12.9929365267
 20
8.556816288
 30
0.0
 10
12.9919166078
 20
8.5295688666
 30
0.0
 10
12.9925947537
 20
8.5024177255
 30
0.0
 10
12.9948716316
 20
8.4754528383
 30
0.0
 10
12.9986210607
 20
8.4487423373
 30
0.0
 10
13.0037034366
 20
8.4223313039
 30
0.0
 10
13.0099769023
 20
8.3962456405
 30
0.0
 10
13.0148671748
 20
8.3790617805
 30
0.0
 10
13.0174668743
 20
8.3705274516
 30
0.0
  0
SPLINE
  5
3D4
100
AcDbEntity
  8
0
100
AcDbSpline
 62
7
  6
CONTINUOUS
 70
0
 71
3
 72
23
 73
19
 74
0
 42
0.0000001
 43
0.0000001
 44
0.0000000001
 40
0.0
 40
0.0
 40
0.0
 40
0.0
 40
0.0678467688
 40
0.1350002398
 40
0.2014106935
 40
0.2670391875
 40
0.3318568006
 40
0.3958504361
 40
0.45902607
 40
0.5214101109
 40
0.5830489966
 40
0.6440070181
 40
0.7043615669
 40
0.7641972312
 40
0.8235999601
 40
0.8826522794
 40
0.9414308031
 40
1.0
 40
1.0
 40
1.0
 40
1.0
 10
13.4380661
 20
8.2841493508
 30
0.0
 10
13.4414246754
 20
8.2776823159
 30
0.0
 10
13.4479451879
 20
8.2647290535
 30
0.0
 10
13.4571219405
 20
8.2451357979
 30
0.0
 10
13.4655845246
 20
8.2254819124
 30
0.0
 10
13.4732704744
 20
8.2057798197
 30
0.0
 10
13.4801204854
 20
8.1860454713
 30
0.0
 10
13.4860819712
 20
8.1662990439
 30
0.0
 10
13.49111238
 20
8.1465640962
 30
0.0
 10
13.4951821753
 20
8.1268665714
 30
0.0
 10
13.4982772688
 20
8.1072333781
 30
0.0
 10
13.5004010055
 20
8.087690743
 30
0.0
 10
13.5015730785
 20
8.0682622936
 30
0.0
 10
13.5018277063
 20
8.0489677073
 30
0.0
 10
13.5012110137
 20
8.0298218824
 30
0.0
 10
13.4997779236
 20
8.0108343326
 30
0.0
 10
13.4975881764
 20
7.9920102165
 30
0.0
 10
13.4956620038
 20
7.9795511884
 30
0.0
 10
13.4945934127
 20
7.9733519289
 30
0.0
  0
SPLINE
  5
3D5
100
AcDbEntity
  8
0
100
AcDbSpline
 62
7
  6
CONTINUOUS
 70
0
 71
3
 72
23
 73
19
 74
0
 42
0.0000001
 43
0.0000001
 44
0.0000000001
 40
0.0
 40
0.0
 40
0.0
 40
0.0
 40
0.0574442632
 40
0.1147977719
 40
0.1721715619
 40
0.2297219952
 40
0.2876459775
 40
0.3461762256
 40
0.4055628628
 40
0.4660469008
 40
0.5278301789
 40
0.5910510128
 40
0.6557727934
 40
0.7219872828
 40
0.7896293346
 40
0.8585949526
 40
0.928762543
 40
1.0
 40
1.0
 40
1.0
 40
1.0
 10
13.0174668743
 20
8.3133180061
 30
0.0
 10
13.0148729533
 20
8.3074638177
 30
0.0
 10
13.0099890381
 20
8.2956283411
 30
0.0
 10
13.00370898
 20
8.2774811633
 30
0.0
 10
12.9986200983
 20
8.258948751
 30
0.0
 10
12.9948661641
 20
8.2400326394
 30
0.0
 10
12.9925889941
 20
8.2207496621
 30
0.0
 10
12.9919167517
 20
8.2011371389
 30
0.0
 10
12.9929494177
 20
8.1812532502
 30
0.0
 10
12.9957448855
 20
8.1611737859
 30
0.0
 10
13.000310025
 20
8.1409845685
 30
0.0
 10
13.0065996695
 20
8.1207719346
 30
0.0
 10
13.0145236758
 20
8.1006141323
 30
0.0
 10
13.0239592746
 20
8.0805755799
 30
0.0
 10
13.0347650462
 20
8.0607046613
 30
0.0
 10
13.0467936024
 20
8.0410336793
 30
0.0
 10
13.0599007349
 20
8.0215819077
 30
0.0
 10
13.0692038994
 20
8.0088535375
 30
0.0
 10
13.0739941869
 20
8.0025205843
 30
0.0
  0
SPLINE
  5
3D6
100
AcDbEntity
  8
0
100
AcDbSpline
 62
7
  6
CONTINUOUS
 70
0
 71
3
 72
27
 73
23
 74
0
 42
0.0000001
 43
0.0000001
 44
0.0000000001
 40
0.0
 40
0.0
 40
0.0
 40
0.0
 40
0.0815841784
 40
0.1616613755
 40
0.2399523974
 40
0.3162180844
 40
0.3902192694
 40
0.461724023
 40
0.5305150197
 40
0.596388267
 40
0.6591537101
 40
0.7186392087
 40
0.7746923003
 40
0.8271823471
 40
0.8520595506
 40
0.8760095478
 40
0.8990249499
 40
0.9211004756
 40
0.9422330721
 40
0.9624236859
 40
0.9816766971
 40
1.0
 40
1.0
 40
1.0
 40
1.0
 10
12.8327223146
 20
8.3709731768
 30
0.0
 10
12.8327223146
 20
8.3629120837
 30
0.0
 10
12.8328475909
 20
8.3469384803
 30
0.0
 10
12.8334207316
 20
8.3232353683
 30
0.0
 10
12.8343758546
 20
8.3000703765
 30
0.0
 10
12.8357093952
 20
8.2775253827
 30
0.0
 10
12.8374164778
 20
8.2556779832
 30
0.0
 10
12.8394911969
 20
8.2346042776
 30
0.0
 10
12.8419261471
 20
8.2143776391
 30
0.0
 10
12.8447125344
 20
8.1950682325
 30
0.0
 10
12.8478406193
 20
8.1767430475
 30
0.0
 10
12.8512992065
 20
8.1594654158
 30
0.0
 10
12.8550759422
 20
8.1432951888
 30
0.0
 10
12.8585364506
 20
8.1305707697
 30
0.0
 10
12.8614682324
 20
8.1209981014
 30
0.0
 10
12.8636989549
 20
8.1142584649
 30
0.0
 10
12.865998867
 20
8.1078353667
 30
0.0
 10
12.8683659822
 20
8.1017343045
 30
0.0
 10
12.8707984086
 20
8.095960603
 30
0.0
 10
12.8732939755
 20
8.0905191215
 30
0.0
 10
12.8758504189
 20
8.0854145713
 30
0.0
 10
12.8776379414
 20
8.0821590479
 30
0.0
 10
12.8785431549
 20
8.0805911204
 30
0.0
  0
SPLINE
  5
3D7
100
AcDbEntity
  8
0
100
AcDbSpline
 62
7
  6
CONTINUOUS
 70
0
 71
3
 72
9
 73
5
 74
0
 42
0.0000001
 43
0.0000001
 44
0.0000000001
 40
0.0
 40
0.0
 40
0.0
 40
0.0
 40
0.5153446489
 40
1.0
 40
1.0
 40
1.0
 40
1.0
 10
12.8785431549
 20
8.0805911204
 30
0.0
 10
12.8795326621
 20
8.0788771872
 30
0.0
 10
12.881531007
 20
8.0755957008
 30
0.0
 10
12.8837053835
 20
8.0724272466
 30
0.0
 10
12.8848068253
 20
8.0709269394
 30
0.0
  0
SPLINE
  5
3D8
100
AcDbEntity
  8
0
100
AcDbSpline
 62
7
  6
CONTINUOUS
 70
0
 71
3
 72
9
 73
5
 74
0
 42
0.0000001
 43
0.0000001
 44
0.0000000001
 40
0.0
 40
0.0
 40
0.0
 40
0.0
 40
0.4844637916
 40
1.0
 40
1.0
 40
1.0
 40
1.0
 10
12.9415372641
 20
8.8889571232
 30
0.0
 10
12.9402247251
 20
8.8876082106
 30
0.0
 10
12.9376046778
 20
8.8847362465
 30
0.0
 10
12.9351467704
 20
8.8817253054
 30
0.0
 10
12.9339172084
 20
8.8801443353
 30
0.0
  0
SPLINE
  5
3D9
100
AcDbEntity
  8
0
100
AcDbSpline
 62
7
  6
CONTINUOUS
 70
0
 71
3
 72
32
 73
28
 74
0
 42
0.0000001
 43
0.0000001
 44
0.0000000001
 40
0.0
 40
0.0
 40
0.0
 40
0.0
 40
0.0166700193
 40
0.0346364483
 40
0.053909226
 40
0.0744845066
 40
0.0963496331
 40
0.1194833943
 40
0.1438587889
 40
0.1694420307
 40
0.1961950726
 40
0.224074521
 40
0.2530337385
 40
0.2830216701
 40
0.3139846907
 40
0.3458654876
 40
0.378604676
 40
0.4121397781
 40
0.4464066496
 40
0.4813386254
 40
0.5529224577
 40
0.6263292879
 40
0.700976458
 40
0.7762686449
 40
0.8516039299
 40
0.9263799263
 40
1.0
 40
1.0
 40
1.0
 40
1.0
 10
12.9331574301
 20
8.8791575585
 30
0.0
 10
12.931392985
 20
8.8768430491
 30
0.0
 10
12.9278852213
 20
8.8719121489
 30
0.0
 10
12.9228524346
 20
8.8639546104
 30
0.0
 10
12.9178630587
 20
8.8551765075
 30
0.0
 10
12.9129272277
 20
8.8455963229
 30
0.0
 10
12.9080557357
 20
8.8352336447
 30
0.0
 10
12.9032585183
 20
8.8241103102
 30
0.0
 10
12.8985461657
 20
8.8122495764
 30
0.0
 10
12.8939283735
 20
8.7996765299
 30
0.0
 10
12.889415404
 20
8.7864177147
 30
0.0
 10
12.885016578
 20
8.772501295
 30
0.0
 10
12.8807416636
 20
8.7579567877
 30
0.0
 10
12.8765995014
 20
8.7428151429
 30
0.0
 10
12.8725992856
 20
8.7271085541
 30
0.0
 10
12.8687492863
 20
8.7108704779
 30
0.0
 10
12.8650580452
 20
8.6941354864
 30
0.0
 10
12.8615331943
 20
8.6769392584
 30
0.0
 10
12.8581825188
 20
8.6593184128
 30
0.0
 10
12.8539219457
 20
8.6351110677
 30
0.0
 10
12.8490942947
 20
8.604068317
 30
0.0
 10
12.8441435324
 20
8.566039732
 30
0.0
 10
12.840031884
 20
8.5272601873
 30
0.0
 10
12.8367945405
 20
8.488060203
 30
0.0
 10
12.8344591812
 20
8.4487735509
 30
0.0
 10
12.8330456433
 20
8.4097352406
 30
0.0
 10
12.8327223146
 20
8.3838262654
 30
0.0
 10
12.8327223146
 20
8.3709731768
 30
0.0
  0
SPLINE
  5
3DA
100
AcDbEntity
  8
0
100
AcDbSpline
 62
7
  6
CONTINUOUS
 70
0
 71
3
 72
41
 73
37
 74
0
 42
0.0000001
 43
0.0000001
 44
0.0000000001
 40
0.0
 40
0.0
 40
0.0
 40
0.0
 40
0.031144444
 40
0.0624425093
 40
0.0938872508
 40
0.1254695847
 40
0.1571771078
 40
0.1889951283
 40
0.2209066801
 40
0.2528929859
 40
0.2849338014
 40
0.3170078274
 40
0.3490931225
 40
0.3811675283
 40
0.4132090962
 40
0.4451965119
 40
0.4771095115
 40
0.5089292827
 40
0.5406388458
 40
0.5722234075
 40
0.6036706813
 40
0.6349711679
 40
0.6661183875
 40
0.6971090579
 40
0.7279432122
 40
0.7586242475
 40
0.7891589026
 40
0.8195571573
 40
0.8498320547
 40
0.8649308931
 40
0.8800050545
 40
0.9100832586
 40
0.9400926739
 40
0.9550812746
 40
0.9700610358
 40
1.0
 40
1.0
 40
1.0
 40
1.0
 10
9.6503871031
 20
9.3851738662
 30
0.0
 10
9.6537010547
 20
9.3849440429
 30
0.0
 10
9.6603309464
 20
9.3842406837
 30
0.0
 10
9.6701953933
 20
9.3824689508
 30
0.0
 10
9.6799542016
 20
9.3799872249
 30
0.0
 10
9.6895546202
 20
9.3768089371
 30
0.0
 10
9.6989456808
 20
9.3729510655
 30
0.0
 10
9.7080772784
 20
9.3684342753
 30
0.0
 10
9.7169007694
 20
9.3632826918
 30
0.0
 10
9.7253691372
 20
9.3575238261
 30
0.0
 10
9.7334372622
 20
9.3511884054
 30
0.0
 10
9.7410621543
 20
9.3443102199
 30
0.0
 10
9.7482031803
 20
9.3369259403
 30
0.0
 10
9.7548222781
 20
9.3290749254
 30
0.0
 10
9.7608841576
 20
9.3207990141
 30
0.0
 10
9.7663564871
 20
9.3121423049
 30
0.0
 10
9.7712100645
 20
9.303150923
 30
0.0
 10
9.7754189718
 20
9.2938727782
 30
0.0
 10
9.7789607126
 20
9.2843573119
 30
0.0
 10
9.7818163328
 20
9.2746552379
 30
0.0
 10
9.7839705219
 20
9.264818275
 30
0.0
 10
9.7854116966
 20
9.2548988756
 30
0.0
 10
9.7861320645
 20
9.244949949
 30
0.0
 10
9.7861276706
 20
9.2350245852
 30
0.0
 10
9.7853984177
 20
9.2251757645
 30
0.0
 10
9.7839480922
 20
9.215456115
 30
0.0
 10
9.7817842779
 20
9.2059174904
 30
0.0
 10
9.7789185857
 20
9.1966112205
 30
0.0
 10
9.7759549857
 20
9.1890829928
 30
0.0
 10
9.7732505408
 20
9.183228635
 30
0.0
 10
9.7703319355
 20
9.1775015653
 30
0.0
 10
9.7662796102
 20
9.1705743787
 30
0.0
 10
9.7617060841
 20
9.1639907178
 30
0.0
 10
9.75775391
 20
9.1589583132
 30
0.0
 10
9.7536131687
 20
9.1540901943
 30
0.0
 10
9.7502957297
 20
9.1506244957
 30
0.0
 10
9.7479989093
 20
9.1484059395
 30
0.0
  0
SPLINE
  5
3DB
100
AcDbEntity
  8
0
100
AcDbSpline
 62
7
  6
CONTINUOUS
 70
0
 71
3
 72
41
 73
37
 74
0
 42
0.0000001
 43
0.0000001
 44
0.0000000001
 40
0.0
 40
0.0
 40
0.0
 40
0.0
 40
0.031144444
 40
0.0624425093
 40
0.0938872508
 40
0.1254695847
 40
0.1571771078
 40
0.1889951283
 40
0.2209066801
 40
0.2528929859
 40
0.2849338014
 40
0.3170078274
 40
0.3490931225
 40
0.3811675283
 40
0.4132090962
 40
0.4451965119
 40
0.4771095115
 40
0.5089292827
 40
0.5406388458
 40
0.5722234075
 40
0.6036706813
 40
0.6349711679
 40
0.6661183875
 40
0.6971090579
 40
0.7279432122
 40
0.7586242475
 40
0.7891589026
 40
0.8195571573
 40
0.8498320547
 40
0.8649308931
 40
0.8800050545
 40
0.9100832586
 40
0.9400926739
 40
0.9550812746
 40
0.9700610358
 40
1.0
 40
1.0
 40
1.0
 40
1.0
 10
11.7039454615
 20
9.2427591104
 30
0.0
 10
11.7072594131
 20
9.2425292871
 30
0.0
 10
11.7138893047
 20
9.2418259278
 30
0.0
 10
11.7237537517
 20
9.2400541949
 30
0.0
 10
11.73351256
 20
9.2375724691
 30
0.0
 10
11.7431129786
 20
9.2343941812
 30
0.0
 10
11.7525040391
 20
9.2305363097
 30
0.0
 10
11.7616356367
 20
9.2260195194
 30
0.0
 10
11.7704591277
 20
9.220867936
 30
0.0
 10
11.7789274956
 20
9.2151090702
 30
0.0
 10
11.7869956206
 20
9.2087736496
 30
0.0
 10
11.7946205127
 20
9.201895464
 30
0.0
 10
11.8017615386
 20
9.1945111844
 30
0.0
 10
11.8083806364
 20
9.1866601695
 30
0.0
 10
11.8144425159
 20
9.1783842583
 30
0.0
 10
11.8199148455
 20
9.169727549
 30
0.0
 10
11.8247684229
 20
9.1607361672
 30
0.0
 10
11.8289773301
 20
9.1514580223
 30
0.0
 10
11.8325190709
 20
9.1419425561
 30
0.0
 10
11.8353746912
 20
9.132240482
 30
0.0
 10
11.8375288803
 20
9.1224035191
 30
0.0
 10
11.838970055
 20
9.1124841198
 30
0.0
 10
11.8396904229
 20
9.1025351931
 30
0.0
 10
11.8396860289
 20
9.0926098293
 30
0.0
 10
11.8389567761
 20
9.0827610086
 30
0.0
 10
11.8375064505
 20
9.0730413591
 30
0.0
 10
11.8353426362
 20
9.0635027345
 30
0.0
 10
11.8324769441
 20
9.0541964646
 30
0.0
 10
11.829513344
 20
9.046668237
 30
0.0
 10
11.8268088992
 20
9.0408138791
 30
0.0
 10
11.8238902938
 20
9.0350868094
 30
0.0
 10
11.8198379686
 20
9.0281596228
 30
0.0
 10
11.8152644424
 20
9.021575962
 30
0.0
 10
11.8113122683
 20
9.0165435573
 30
0.0
 10
11.807171527
 20
9.0116754385
 30
0.0
 10
11.803854088
 20
9.0082097398
 30
0.0
 10
11.8015572676
 20
9.0059911836
 30
0.0
  0
SPLINE
  5
3DC
100
AcDbEntity
  8
0
100
AcDbSpline
 62
7
  6
CONTINUOUS
 70
0
 71
3
 72
41
 73
37
 74
0
 42
0.0000001
 43
0.0000001
 44
0.0000000001
 40
0.0
 40
0.0
 40
0.0
 40
0.0
 40
0.031144444
 40
0.0624425093
 40
0.0938872508
 40
0.1254695847
 40
0.1571771078
 40
0.1889951283
 40
0.2209066801
 40
0.2528929859
 40
0.2849338014
 40
0.3170078274
 40
0.3490931225
 40
0.3811675283
 40
0.4132090962
 40
0.4451965119
 40
0.4771095115
 40
0.5089292827
 40
0.5406388458
 40
0.5722234075
 40
0.6036706813
 40
0.6349711679
 40
0.6661183875
 40
0.6971090579
 40
0.7279432122
 40
0.7586242475
 40
0.7891589026
 40
0.8195571573
 40
0.8498320547
 40
0.8649308931
 40
0.8800050545
 40
0.9100832586
 40
0.9400926739
 40
0.9550812746
 40
0.9700610358
 40
1.0
 40
1.0
 40
1.0
 40
1.0
 10
11.7039454615
 20
7.4934674318
 30
0.0
 10
11.7072594131
 20
7.4932376085
 30
0.0
 10
11.7138893047
 20
7.4925342492
 30
0.0
 10
11.7237537517
 20
7.4907625163
 30
0.0
 10
11.73351256
 20
7.4882807905
 30
0.0
 10
11.7431129786
 20
7.4851025027
 30
0.0
 10
11.7525040391
 20
7.4812446311
 30
0.0
 10
11.7616356367
 20
7.4767278409
 30
0.0
 10
11.7704591277
 20
7.4715762574
 30
0.0
 10
11.7789274956
 20
7.4658173917
 30
0.0
 10
11.7869956206
 20
7.459481971
 30
0.0
 10
11.7946205127
 20
7.4526037855
 30
0.0
 10
11.8017615386
 20
7.4452195058
 30
0.0
 10
11.8083806364
 20
7.437368491
 30
0.0
 10
11.8144425159
 20
7.4290925797
 30
0.0
 10
11.8199148455
 20
7.4204358705
 30
0.0
 10
11.8247684229
 20
7.4114444886
 30
0.0
 10
11.8289773301
 20
7.4021663437
 30
0.0
 10
11.8325190709
 20
7.3926508775
 30
0.0
 10
11.8353746912
 20
7.3829488035
 30
0.0
 10
11.8375288803
 20
7.3731118406
 30
0.0
 10
11.838970055
 20
7.3631924412
 30
0.0
 10
11.8396904229
 20
7.3532435146
 30
0.0
 10
11.8396860289
 20
7.3433181508
 30
0.0
 10
11.8389567761
 20
7.33346933
 30
0.0
 10
11.8375064505
 20
7.3237496806
 30
0.0
 10
11.8353426362
 20
7.314211056
 30
0.0
 10
11.8324769441
 20
7.3049047861
 30
0.0
 10
11.829513344
 20
7.2973765584
 30
0.0
 10
11.8268088992
 20
7.2915222006
 30
0.0
 10
11.8238902938
 20
7.2857951309
 30
0.0
 10
11.8198379686
 20
7.2788679443
 30
0.0
 10
11.8152644424
 20
7.2722842834
 30
0.0
 10
11.8113122683
 20
7.2672518788
 30
0.0
 10
11.807171527
 20
7.2623837599
 30
0.0
 10
11.803854088
 20
7.2589180613
 30
0.0
 10
11.8015572676
 20
7.2566995051
 30
0.0
  0
SPLINE
  5
3DD
100
AcDbEntity
  8
0
100
AcDbSpline
 62
7
  6
CONTINUOUS
 70
0
 71
3
 72
41
 73
37
 74
0
 42
0.0000001
 43
0.0000001
 44
0.0000000001
 40
0.0
 40
0.0
 40
0.0
 40
0.0
 40
0.031144444
 40
0.0624425093
 40
0.0938872508
 40
0.1254695847
 40
0.1571771078
 40
0.1889951283
 40
0.2209066801
 40
0.2528929859
 40
0.2849338014
 40
0.3170078274
 40
0.3490931225
 40
0.3811675283
 40
0.4132090962
 40
0.4451965119
 40
0.4771095115
 40
0.5089292827
 40
0.5406388458
 40
0.5722234075
 40
0.6036706813
 40
0.6349711679
 40
0.6661183875
 40
0.6971090579
 40
0.7279432122
 40
0.7586242475
 40
0.7891589026
 40
0.8195571573
 40
0.8498320547
 40
0.8649308931
 40
0.8800050545
 40
0.9100832586
 40
0.9400926739
 40
0.9550812746
 40
0.9700610358
 40
1.0
 40
1.0
 40
1.0
 40
1.0
 10
9.6503871031
 20
7.6358821877
 30
0.0
 10
9.6537010547
 20
7.6356523643
 30
0.0
 10
9.6603309464
 20
7.6349490051
 30
0.0
 10
9.6701953933
 20
7.6331772722
 30
0.0
 10
9.6799542016
 20
7.6306955464
 30
0.0
 10
9.6895546202
 20
7.6275172585
 30
0.0
 10
9.6989456808
 20
7.623659387
 30
0.0
 10
9.7080772784
 20
7.6191425967
 30
0.0
 10
9.7169007694
 20
7.6139910133
 30
0.0
 10
9.7253691372
 20
7.6082321475
 30
0.0
 10
9.7334372622
 20
7.6018967269
 30
0.0
 10
9.7410621543
 20
7.5950185413
 30
0.0
 10
9.7482031803
 20
7.5876342617
 30
0.0
 10
9.7548222781
 20
7.5797832468
 30
0.0
 10
9.7608841576
 20
7.5715073356
 30
0.0
 10
9.7663564871
 20
7.5628506263
 30
0.0
 10
9.7712100645
 20
7.5538592445
 30
0.0
 10
9.7754189718
 20
7.5445810996
 30
0.0
 10
9.7789607126
 20
7.5350656334
 30
0.0
 10
9.7818163328
 20
7.5253635593
 30
0.0
 10
9.7839705219
 20
7.5155265964
 30
0.0
 10
9.7854116966
 20
7.5056071971
 30
0.0
 10
9.7861320645
 20
7.4956582704
 30
0.0
 10
9.7861276706
 20
7.4857329066
 30
0.0
 10
9.7853984177
 20
7.4758840859
 30
0.0
 10
9.7839480922
 20
7.4661644364
 30
0.0
 10
9.7817842779
 20
7.4566258118
 30
0.0
 10
9.7789185857
 20
7.4473195419
 30
0.0
 10
9.7759549857
 20
7.4397913143
 30
0.0
 10
9.7732505408
 20
7.4339369564
 30
0.0
 10
9.7703319355
 20
7.4282098867
 30
0.0
 10
9.7662796102
 20
7.4212827001
 30
0.0
 10
9.7617060841
 20
7.4146990393
 30
0.0
 10
9.75775391
 20
7.4096666346
 30
0.0
 10
9.7536131687
 20
7.4047985158
 30
0.0
 10
9.7502957297
 20
7.4013328171
 30
0.0
 10
9.7479989093
 20
7.3991142609
 30
0.0
  0
SPLINE
  5
3DE
100
AcDbEntity
  8
0
100
AcDbSpline
 62
7
  6
CONTINUOUS
 70
0
 71
3
 72
51
 73
47
 74
0
 42
0.0000001
 43
0.0000001
 44
0.0000000001
 40
0.0
 40
0.0
 40
0.0
 40
0.0
 40
0.0417744683
 40
0.0840379783
 40
0.1266600061
 40
0.1695085183
 40
0.2124506398
 40
0.2553531056
 40
0.2980828147
 40
0.340507344
 40
0.3824954781
 40
0.4239177372
 40
0.4646469112
 40
0.5045585996
 40
0.5435317641
 40
0.5814492947
 40
0.618198601
 40
0.6536722357
 40
0.687768567
 40
0.7203925213
 40
0.7514564269
 40
0.7663786334
 40
0.7808818693
 40
0.7949577079
 40
0.8085984786
 40
0.8217971992
 40
0.8345477656
 40
0.8468449089
 40
0.8586844038
 40
0.8700630626
 40
0.8809789739
 40
0.8914315506
 40
0.9014218177
 40
0.9109525401
 40
0.9200285868
 40
0.9286571749
 40
0.9368483468
 40
0.9446153723
 40
0.951975373
 40
0.9589498998
 40
0.9655656818
 40
0.9778458874
 40
0.9836071498
 40
0.9891799107
 40
0.9946230128
 40
1.0
 40
1.0
 40
1.0
 40
1.0
 10
12.8213206734
 20
8.3709600364
 30
0.0
 10
12.8213206734
 20
8.378991371
 30
0.0
 10
12.8214459715
 20
8.3951483131
 30
0.0
 10
12.8219998861
 20
8.4194938292
 30
0.0
 10
12.8229192537
 20
8.4440349597
 30
0.0
 10
12.8242010535
 20
8.4686904441
 30
0.0
 10
12.8258410544
 20
8.4933787285
 30
0.0
 10
12.8278338332
 20
8.5180181305
 30
0.0
 10
12.8301727895
 20
8.5425271348
 30
0.0
 10
12.8328501694
 20
8.5668246593
 30
0.0
 10
12.83585709
 20
8.5908303266
 30
0.0
 10
12.8391835689
 20
8.6144647317
 30
0.0
 10
12.8428185564
 20
8.6376497074
 30
0.0
 10
12.8467499717
 20
8.6603085858
 30
0.0
 10
12.8509647416
 20
8.682366456
 30
0.0
 10
12.8554488435
 20
8.7037504161
 30
0.0
 10
12.8601873499
 20
8.7243898255
 30
0.0
 10
12.8651644798
 20
8.7442165288
 30
0.0
 10
12.8703636418
 20
8.7631651614
 30
0.0
 10
12.8757675209
 20
8.7811731412
 30
0.0
 10
12.880487306
 20
8.7955326305
 30
0.0
 10
12.8843604643
 20
8.8064984586
 30
0.0
 10
12.88726629
 20
8.8143411163
 30
0.0
 10
12.8902096185
 20
8.8219060323
 30
0.0
 10
12.8931880046
 20
8.8291869834
 30
0.0
 10
12.8961990065
 20
8.8361779642
 30
0.0
 10
12.8992401038
 20
8.84287323
 30
0.0
 10
12.9023088131
 20
8.8492672712
 30
0.0
 10
12.9054025724
 20
8.8553548504
 30
0.0
 10
12.9085188645
 20
8.8611309738
 30
0.0
 10
12.9116551031
 20
8.8665909333
 30
0.0
 10
12.9148087551
 20
8.8717302712
 30
0.0
 10
12.9179772319
 20
8.8765448276
 30
0.0
 10
12.921158011
 20
8.8810306969
 30
0.0
 10
12.9243485337
 20
8.8851842793
 30
0.0
 10
12.927546332
 20
8.889002228
 30
0.0
 10
12.9307489088
 20
8.8924814874
 30
0.0
 10
12.9339539616
 20
8.8956192709
 30
0.0
 10
12.9371589193
 20
8.8984129137
 30
0.0
 10
12.9403623592
 20
8.9008604251
 30
0.0
 10
12.9445227321
 20
8.9035903808
 30
0.0
 10
12.9487882248
 20
8.9057253613
 30
0.0
 10
12.9531087354
 20
8.907141496
 30
0.0
 10
12.9562676303
 20
8.9078244949
 30
0.0
 10
12.9594088143
 20
8.9081487405
 30
0.0
 10
12.9614943291
 20
8.9081249668
 30
0.0
 10
12.9625256033
 20
8.9080534538
 30
0.0
  0
SPLINE
  5
3DF
100
AcDbEntity
  8
0
100
AcDbSpline
 62
7
  6
CONTINUOUS
 70
0
 71
3
 72
40
 73
36
 74
0
 42
0.0000001
 43
0.0000001
 44
0.0000000001
 40
0.0
 40
0.0
 40
0.0
 40
0.0
 40
0.0364821536
 40
0.0736986113
 40
0.1115387403
 40
0.1498500577
 40
0.188434533
 40
0.2270542546
 40
0.2654485761
 40
0.3033616507
 40
0.3405728645
 40
0.3769203733
 40
0.4123102979
 40
0.4467119716
 40
0.4801450273
 40
0.5126629446
 40
0.5443380537
 40
0.5752501512
 40
0.6054786538
 40
0.6350976491
 40
0.6641731124
 40
0.6927615696
 40
0.74863128
 40
0.802962453
 40
0.8295771616
 40
0.8558001021
 40
0.8815915837
 40
0.906885508
 40
0.9315780066
 40
0.9436526217
 40
0.9555113584
 40
0.9671212863
 40
0.9784417087
 40
0.9894220914
 40
1.0
 40
1.0
 40
1.0
 40
1.0
 10
9.9392475526
 20
8.1446223403
 30
0.0
 10
9.9390590825
 20
8.1407072332
 30
0.0
 10
9.9384785182
 20
8.1328061949
 30
0.0
 10
9.9369550246
 20
8.1209136021
 30
0.0
 10
9.9347035155
 20
8.1089356029
 30
0.0
 10
9.9316677157
 20
8.0969790731
 30
0.0
 10
9.9278089534
 20
8.085172714
 30
0.0
 10
9.9231140627
 20
8.0736623334
 30
0.0
 10
9.9176014502
 20
8.0625999115
 30
0.0
 10
9.9113226829
 20
8.0521289962
 30
0.0
 10
9.9043574545
 20
8.042370317
 30
0.0
 10
9.8968047083
 20
8.0334109491
 30
0.0
 10
9.8887706622
 20
8.0253009327
 30
0.0
 10
9.8803587844
 20
8.0180559593
 30
0.0
 10
9.8716627965
 20
8.0116643411
 30
0.0
 10
9.8627632119
 20
8.0060954503
 30
0.0
 10
9.8537268445
 20
8.00130735
 30
0.0
 10
9.844607993
 20
7.9972527436
 30
0.0
 10
9.8354503427
 20
7.9938830788
 30
0.0
 10
9.8262892134
 20
7.9911511175
 30
0.0
 10
9.8171530491
 20
7.9890122629
 30
0.0
 10
9.8051314954
 20
7.9869128724
 30
0.0
 10
9.7902534647
 20
7.9855441612
 30
0.0
 10
9.7755306946
 20
7.9856677007
 30
0.0
 10
9.7640489471
 20
7.9865751439
 30
0.0
 10
9.7556633709
 20
7.9876239889
 30
0.0
 10
9.7474733642
 20
7.9890237041
 30
0.0
 10
9.7395148633
 20
7.9907530862
 30
0.0
 10
9.7330675046
 20
7.9924638574
 30
0.0
 10
9.7280688772
 20
7.9939844532
 30
0.0
 10
9.7244436721
 20
7.9951861716
 30
0.0
 10
9.7209272453
 20
7.9964545314
 30
0.0
 10
9.717535351
 20
7.9977860825
 30
0.0
 10
9.7142875693
 20
7.999176881
 30
0.0
 10
9.7121901921
 20
8.0001611703
 30
0.0
 10
9.7111713608
 20
8.0006647497
 30
0.0
  0
SPLINE
  5
3E0
100
AcDbEntity
  8
0
100
AcDbSpline
 62
7
  6
CONTINUOUS
 70
0
 71
3
 72
22
 73
18
 74
0
 42
0.0000001
 43
0.0000001
 44
0.0000000001
 40
0.0
 40
0.0
 40
0.0
 40
0.0
 40
0.1240608585
 40
0.1860745973
 40
0.2480958469
 40
0.3101487458
 40
0.3722552157
 40
0.4344368662
 40
0.4967145483
 40
0.5591064339
 40
0.6216284236
 40
0.6842936308
 40
0.7471116518
 40
0.8100893904
 40
0.8732298866
 40
0.9365340855
 40
1.0
 40
1.0
 40
1.0
 40
1.0
 10
10.3681541788
 20
8.4926379162
 30
0.0
 10
10.3660780096
 20
8.4964388297
 30
0.0
 10
10.3632187192
 20
8.5022853604
 30
0.0
 10
10.3599788363
 20
8.5103201961
 30
0.0
 10
10.357844979
 20
8.5164590842
 30
0.0
 10
10.3560175821
 20
8.522699274
 30
0.0
 10
10.3545054426
 20
8.5290291519
 30
0.0
 10
10.3533152893
 20
8.5354353915
 30
0.0
 10
10.3524520636
 20
8.5419038873
 30
0.0
 10
10.3519186882
 20
8.5484197971
 30
0.0
 10
10.3517154327
 20
8.5549678331
 30
0.0
 10
10.3518407754
 20
8.561532638
 30
0.0
 10
10.352290794
 20
8.5680990567
 30
0.0
 10
10.3530594534
 20
8.5746524315
 30
0.0
 10
10.3541393474
 20
8.5811788771
 30
0.0
 10
10.3555209876
 20
8.5876653304
 30
0.0
 10
10.3566351495
 20
8.5919500709
 30
0.0
 10
10.3572386643
 20
8.5940818953
 30
0.0
  0
SPLINE
  5
3E1
100
AcDbEntity
  8
0
100
AcDbSpline
 62
7
  6
CONTINUOUS
 70
0
 71
3
 72
22
 73
18
 74
0
 42
0.0000001
 43
0.0000001
 44
0.0000000001
 40
0.0
 40
0.0
 40
0.0
 40
0.0
 40
0.063959899
 40
0.1278541644
 40
0.1916325783
 40
0.2552531498
 40
0.3186813439
 40
0.3818897107
 40
0.4448564872
 40
0.5075656459
 40
0.5700070609
 40
0.6321759575
 40
0.7556594614
 40
0.8170453659
 40
0.8782069135
 40
0.9391776591
 40
1.0
 40
1.0
 40
1.0
 40
1.0
 10
10.5151055603
 20
8.3888258959
 30
0.0
 10
10.5113429511
 20
8.3899591202
 30
0.0
 10
10.5038571893
 20
8.3923446766
 30
0.0
 10
10.4927598378
 20
8.396283162
 30
0.0
 10
10.4818194623
 20
8.4005827647
 30
0.0
 10
10.4710605977
 20
8.4052471149
 30
0.0
 10
10.4605084453
 20
8.4102816642
 30
0.0
 10
10.4501897925
 20
8.4156935458
 30
0.0
 10
10.440133576
 20
8.4214915612
 30
0.0
 10
10.4303716674
 20
8.4276853845
 30
0.0
 10
10.4209385376
 20
8.4342860792
 30
0.0
 10
10.4088829818
 20
8.4436194044
 30
0.0
 10
10.3976080038
 20
8.453835899
 30
0.0
 10
10.3873552707
 20
8.46495375
 30
0.0
 10
10.380253034
 20
8.4737218735
 30
0.0
 10
10.3737893281
 20
8.4829286033
 30
0.0
 10
10.3699455072
 20
8.4893584704
 30
0.0
 10
10.3681541788
 20
8.4926379162
 30
0.0
  0
SPLINE
  5
3E2
100
AcDbEntity
  8
0
100
AcDbSpline
 62
7
  6
CONTINUOUS
 70
0
 71
3
 72
15
 73
11
 74
0
 42
0.0000001
 43
0.0000001
 44
0.0000000001
 40
0.0
 40
0.0
 40
0.0
 40
0.0
 40
0.1247483109
 40
0.2495153827
 40
0.3743301481
 40
0.4992213634
 40
0.6242142479
 40
0.7493304598
 40
0.8745877691
 40
1.0
 40
1.0
 40
1.0
 40
1.0
 10
11.2326957403
 20
8.1863181367
 30
0.0
 10
11.2281766072
 20
8.1870235933
 30
0.0
 10
11.2191822883
 20
8.1887399277
 30
0.0
 10
11.2058951768
 20
8.1922172705
 30
0.0
 10
11.1928666475
 20
8.1965827822
 30
0.0
 10
11.1801535334
 20
8.2018172367
 30
0.0
 10
11.1678103985
 20
8.207897781
 30
0.0
 10
11.1558904069
 20
8.2147979692
 30
0.0
 10
11.144445715
 20
8.2224871391
 30
0.0
 10
11.1371690385
 20
8.2281145078
 30
0.0
 10
11.1336270747
 20
8.2310467416
 30
0.0
  0
SPLINE
  5
3E3
100
AcDbEntity
  8
0
100
AcDbSpline
 62
7
  6
CONTINUOUS
 70
0
 71
3
 72
14
 73
10
 74
0
 42
0.0000001
 43
0.0000001
 44
0.0000000001
 40
0.0
 40
0.0
 40
0.0
 40
0.0
 40
0.1151998154
 40
0.2336755057
 40
0.3551993691
 40
0.4795349584
 40
0.6064379283
 40
0.7356568005
 40
1.0
 40
1.0
 40
1.0
 40
1.0
 10
10.4015088446
 20
8.450594637
 30
0.0
 10
10.4026118578
 20
8.4549277949
 30
0.0
 10
10.4047724321
 20
8.4637370477
 30
0.0
 10
10.4078386426
 20
8.4771789409
 30
0.0
 10
10.4107710233
 20
8.4910133491
 30
0.0
 10
10.4135631575
 20
8.5052101938
 30
0.0
 10
10.4162089903
 20
8.519738735
 30
0.0
 10
10.4195591684
 20
8.5396606553
 30
0.0
 10
10.4217950422
 20
8.5547739927
 30
0.0
 10
10.4231726324
 20
8.5649412521
 30
0.0
  0
SPLINE
  5
3E4
100
AcDbEntity
  8
0
100
AcDbSpline
 62
7
  6
CONTINUOUS
 70
0
 71
3
 72
11
 73
7
 74
0
 42
0.0000001
 43
0.0000001
 44
0.0000000001
 40
0.0
 40
0.0
 40
0.0
 40
0.0
 40
0.2500773223
 40
0.5004074592
 40
0.7505089783
 40
1.0
 40
1.0
 40
1.0
 40
1.0
 10
9.9275418699
 20
8.0848398205
 30
0.0
 10
9.9235840173
 20
8.0825518943
 30
0.0
 10
9.9155435803
 20
8.0781799032
 30
0.0
 10
9.9031940576
 20
8.0721935871
 30
0.0
 10
9.8906145974
 20
8.0667352857
 30
0.0
 10
9.8821024311
 20
8.0634195713
 30
0.0
 10
9.8778247373
 20
8.0618375918
 30
0.0
  0
SPLINE
  5
3E5
100
AcDbEntity
  8
0
100
AcDbSpline
 62
7
  6
CONTINUOUS
 70
0
 71
3
 72
39
 73
35
 74
0
 42
0.0000001
 43
0.0000001
 44
0.0000000001
 40
0.0
 40
0.0
 40
0.0
 40
0.0
 40
0.0071626305
 40
0.0146567796
 40
0.0224900537
 40
0.0306686706
 40
0.0391977046
 40
0.0480809813
 40
0.0573207996
 40
0.0669184069
 40
0.0768741415
 40
0.0871874214
 40
0.1088799375
 40
0.131978937
 40
0.1564568751
 40
0.182278417
 40
0.209401486
 40
0.2377780679
 40
0.2673549265
 40
0.2980741807
 40
0.3298737714
 40
0.3626878467
 40
0.3964471182
 40
0.4310792351
 40
0.466509094
 40
0.5026591221
 40
0.5394495351
 40
0.57679863
 40
0.6146230625
 40
0.6913563437
 40
0.7689609396
 40
0.8467367446
 40
0.9239814542
 40
1.0
 40
1.0
 40
1.0
 40
1.0
 10
8.3804423923
 20
9.703236271
 30
0.0
 10
8.3796972412
 20
9.7025165103
 30
0.0
 10
8.3782079267
 20
9.7010065946
 30
0.0
 10
8.3760250673
 20
9.6985936058
 30
0.0
 10
8.3738449666
 20
9.6959835816
 30
0.0
 10
8.3716690555
 20
9.6931782099
 30
0.0
 10
8.3694985182
 20
9.6901791518
 30
0.0
 10
8.3673346387
 20
9.6869881192
 30
0.0
 10
8.3651786307
 20
9.6836070091
 30
0.0
 10
8.363031805
 20
9.6800378234
 30
0.0
 10
8.3608954418
 20
9.6762826795
 30
0.0
 10
8.3580139247
 20
9.6709405064
 30
0.0
 10
8.3544558729
 20
9.6638058022
 30
0.0
 10
8.350316813
 20
9.654679486
 30
0.0
 10
8.3462493826
 20
9.6448713401
 30
0.0
 10
8.3422633949
 20
9.6344048041
 30
0.0
 10
8.3383684883
 20
9.6233047579
 30
0.0
 10
8.3345740841
 20
9.6115977446
 30
0.0
 10
8.3308893683
 20
9.5993117976
 30
0.0
 10
8.3273232653
 20
9.5864763797
 30
0.0
 10
8.3238844151
 20
9.5731222986
 30
0.0
 10
8.3205811462
 20
9.5592816368
 30
0.0
 10
8.3174214472
 20
9.5449876706
 30
0.0
 10
8.3144129623
 20
9.5302747784
 30
0.0
 10
8.3115629693
 20
9.5151783533
 30
0.0
 10
8.3088783634
 20
9.4997347178
 30
0.0
 10
8.3063656371
 20
9.4839810503
 30
0.0
 10
8.3040308313
 20
9.4679552475
 30
0.0
 10
8.3011489402
 20
9.4461727057
 30
0.0
 10
8.2980357651
 20
9.418549945
 30
0.0
 10
8.2951035345
 20
9.3851019801
 30
0.0
 10
8.2929857611
 20
9.3515182943
 30
0.0
 10
8.2917027394
 20
9.318122158
 30
0.0
 10
8.2914087143
 20
9.2959531741
 30
0.0
 10
8.2914087143
 20
9.2849578329
 30
0.0
  0
SPLINE
  5
3E6
100
AcDbEntity
  8
0
100
AcDbSpline
 62
7
  6
CONTINUOUS
 70
0
 71
3
 72
31
 73
27
 74
0
 42
0.0000001
 43
0.0000001
 44
0.0000000001
 40
0.0
 40
0.0
 40
0.0
 40
0.0
 40
0.0851789116
 40
0.1685809973
 40
0.2498837057
 40
0.3287747006
 40
0.4049552448
 40
0.4781415664
 40
0.548067387
 40
0.6144863644
 40
0.6463109872
 40
0.6771771637
 40
0.70706119
 40
0.7359411901
 40
0.7637975283
 40
0.790612712
 40
0.8163719908
 40
0.841063226
 40
0.8646777049
 40
0.8872100434
 40
0.9086592608
 40
0.9290288217
 40
0.9483280459
 40
0.9665724509
 40
0.9837856085
 40
1.0
 40
1.0
 40
1.0
 40
1.0
 10
8.2914087143
 20
7.7153282722
 30
0.0
 10
8.2914087143
 20
7.7082007273
 30
0.0
 10
8.2915301693
 20
7.6940939739
 30
0.0
 10
8.2920872251
 20
7.6731906583
 30
0.0
 10
8.2930150123
 20
7.6528270447
 30
0.0
 10
8.2943095107
 20
7.6330888839
 30
0.0
 10
8.2959651134
 20
7.6140592138
 30
0.0
 10
8.2979746566
 20
7.5958179713
 30
0.0
 10
8.3003295045
 20
7.5784418954
 30
0.0
 10
8.3026022187
 20
7.5645524208
 30
0.0
 10
8.3045953531
 20
7.5539338974
 30
0.0
 10
8.3061486901
 20
7.5463444365
 30
0.0
 10
8.3077801169
 20
7.5390235957
 30
0.0
 10
8.3094879531
 20
7.53197905
 30
0.0
 10
8.3112703535
 20
7.5252181889
 30
0.0
 10
8.313125471
 20
7.5187480955
 30
0.0
 10
8.3150513012
 20
7.5125755315
 30
0.0
 10
8.3170458664
 20
7.5067069443
 30
0.0
 10
8.3191070128
 20
7.5011484319
 30
0.0
 10
8.3212326535
 20
7.4959057713
 30
0.0
 10
8.3234205095
 20
7.49098436
 30
0.0
 10
8.3256684201
 20
7.48638927
 30
0.0
 10
8.3279740151
 20
7.4821251798
 30
0.0
 10
8.3303351549
 20
7.4781963879
 30
0.0
 10
8.3327493205
 20
7.4746070135
 30
0.0
 10
8.3344421763
 20
7.4723776963
 30
0.0
 10
8.3352982606
 20
7.4713250976
 30
0.0
  0
SPLINE
  5
3E7
100
AcDbEntity
  8
0
100
AcDbSpline
 62
7
  6
CONTINUOUS
 70
0
 71
3
 72
39
 73
35
 74
0
 42
0.0000001
 43
0.0000001
 44
0.0000000001
 40
0.0
 40
0.0
 40
0.0
 40
0.0
 40
0.0760185458
 40
0.1532632554
 40
0.2310390604
 40
0.3086436563
 40
0.3853769375
 40
0.42320137
 40
0.4605504649
 40
0.4973408779
 40
0.533490906
 40
0.5689207649
 40
0.6035528818
 40
0.6373121533
 40
0.6701262286
 40
0.7019258193
 40
0.7326450735
 40
0.7622219321
 40
0.790598514
 40
0.817721583
 40
0.8435431249
 40
0.868021063
 40
0.8911200625
 40
0.9128125786
 40
0.9231258585
 40
0.9330815931
 40
0.9426792004
 40
0.9519190187
 40
0.9608022954
 40
0.9693313294
 40
0.9775099463
 40
0.9853432204
 40
0.9928373695
 40
1.0
 40
1.0
 40
1.0
 40
1.0
 10
13.1066684351
 20
7.7405463465
 30
0.0
 10
13.1066684351
 20
7.7295510054
 30
0.0
 10
13.1063744099
 20
7.7073820215
 30
0.0
 10
13.1050913882
 20
7.6739858852
 30
0.0
 10
13.1029736148
 20
7.6404021994
 30
0.0
 10
13.1000413842
 20
7.6069542345
 30
0.0
 10
13.0969282092
 20
7.5793314738
 30
0.0
 10
13.094046318
 20
7.557548932
 30
0.0
 10
13.0917115123
 20
7.5415231292
 30
0.0
 10
13.089198786
 20
7.5257694617
 30
0.0
 10
13.08651418
 20
7.5103258262
 30
0.0
 10
13.083664187
 20
7.4952294011
 30
0.0
 10
13.0806557021
 20
7.4805165089
 30
0.0
 10
13.0774960031
 20
7.4662225427
 30
0.0
 10
13.0741927342
 20
7.4523818809
 30
0.0
 10
13.0707538841
 20
7.4390277997
 30
0.0
 10
13.0671877811
 20
7.4261923818
 30
0.0
 10
13.0635030652
 20
7.4139064349
 30
0.0
 10
13.0597086611
 20
7.4021994216
 30
0.0
 10
13.0558137545
 20
7.3910993754
 30
0.0
 10
13.0518277668
 20
7.3806328394
 30
0.0
 10
13.0477603363
 20
7.3708246934
 30
0.0
 10
13.0436212765
 20
7.3616983773
 30
0.0
 10
13.0400632246
 20
7.3545636731
 30
0.0
 10
13.0371817076
 20
7.3492215
 30
0.0
 10
13.0350453443
 20
7.3454663561
 30
0.0
 10
13.0328985186
 20
7.3418971703
 30
0.0
 10
13.0307425107
 20
7.3385160603
 30
0.0
 10
13.0285786311
 20
7.3353250277
 30
0.0
 10
13.0264080938
 20
7.3323259696
 30
0.0
 10
13.0242321827
 20
7.3295205979
 30
0.0
 10
13.022052082
 20
7.3269105736
 30
0.0
 10
13.0198692226
 20
7.3244975849
 30
0.0
 10
13.0183799081
 20
7.3229876692
 30
0.0
 10
13.0176347571
 20
7.3222679085
 30
0.0
  0
SPLINE
  5
3E8
100
AcDbEntity
  8
0
100
AcDbSpline
 62
7
  6
CONTINUOUS
 70
0
 71
3
 72
19
 73
15
 74
0
 42
0.0000001
 43
0.0000001
 44
0.0000000001
 40
0.0
 40
0.0
 40
0.0
 40
0.0
 40
0.0616584454
 40
0.1233399317
 40
0.185067215
 40
0.2468625626
 40
0.3087474945
 40
0.3707425066
 40
0.4328668994
 40
0.4951385746
 40
0.6201443393
 40
0.7459117862
 40
0.8725152911
 40
1.0
 40
1.0
 40
1.0
 40
1.0
 10
9.5527752969
 20
9.3505166197
 30
0.0
 10
9.5543519952
 20
9.352039592
 30
0.0
 10
9.5575885857
 20
9.355001903
 30
0.0
 10
9.5626762566
 20
9.3591788674
 30
0.0
 10
9.5679848673
 20
9.3630797228
 30
0.0
 10
9.573500821
 20
9.3666945197
 30
0.0
 10
9.5792103162
 20
9.3700141553
 30
0.0
 10
9.5850988801
 20
9.3730302599
 30
0.0
 10
9.5911518822
 20
9.3757353429
 30
0.0
 10
9.5994301221
 20
9.3789217756
 30
0.0
 10
9.6101211295
 20
9.3820941495
 30
0.0
 10
9.6233335864
 20
9.3845587537
 30
0.0
 10
9.6368157694
 20
9.3856639672
 30
0.0
 10
9.6458655312
 20
9.3854874383
 30
0.0
 10
9.6503871031
 20
9.3851738662
 30
0.0
  0
SPLINE
  5
3E9
100
AcDbEntity
  8
0
100
AcDbSpline
 62
7
  6
CONTINUOUS
 70
0
 71
3
 72
19
 73
15
 74
0
 42
0.0000001
 43
0.0000001
 44
0.0000000001
 40
0.0
 40
0.0
 40
0.0
 40
0.0
 40
0.0616584454
 40
0.1233399317
 40
0.185067215
 40
0.2468625626
 40
0.3087474945
 40
0.3707425066
 40
0.4328668994
 40
0.4951385746
 40
0.6201443393
 40
0.7459117862
 40
0.8725152911
 40
1.0
 40
1.0
 40
1.0
 40
1.0
 10
11.6063336553
 20
9.2081018638
 30
0.0
 10
11.6079103536
 20
9.2096248361
 30
0.0
 10
11.611146944
 20
9.2125871472
 30
0.0
 10
11.616234615
 20
9.2167641115
 30
0.0
 10
11.6215432257
 20
9.2206649669
 30
0.0
 10
11.6270591794
 20
9.2242797638
 30
0.0
 10
11.6327686746
 20
9.2275993994
 30
0.0
 10
11.6386572384
 20
9.230615504
 30
0.0
 10
11.6447102405
 20
9.2333205871
 30
0.0
 10
11.6529884805
 20
9.2365070198
 30
0.0
 10
11.6636794879
 20
9.2396793937
 30
0.0
 10
11.6768919448
 20
9.2421439978
 30
0.0
 10
11.6903741277
 20
9.2432492114
 30
0.0
 10
11.6994238896
 20
9.2430726825
 30
0.0
 10
11.7039454615
 20
9.2427591104
 30
0.0
  0
SPLINE
  5
3EA
100
AcDbEntity
  8
0
100
AcDbSpline
 62
7
  6
CONTINUOUS
 70
0
 71
3
 72
19
 73
15
 74
0
 42
0.0000001
 43
0.0000001
 44
0.0000000001
 40
0.0
 40
0.0
 40
0.0
 40
0.0
 40
0.0616584454
 40
0.1233399317
 40
0.185067215
 40
0.2468625626
 40
0.3087474945
 40
0.3707425066
 40
0.4328668994
 40
0.4951385746
 40
0.6201443393
 40
0.7459117862
 40
0.8725152911
 40
1.0
 40
1.0
 40
1.0
 40
1.0
 10
11.6063336553
 20
7.4588101853
 30
0.0
 10
11.6079103536
 20
7.4603331575
 30
0.0
 10
11.611146944
 20
7.4632954686
 30
0.0
 10
11.616234615
 20
7.467472433
 30
0.0
 10
11.6215432257
 20
7.4713732884
 30
0.0
 10
11.6270591794
 20
7.4749880852
 30
0.0
 10
11.6327686746
 20
7.4783077208
 30
0.0
 10
11.6386572384
 20
7.4813238255
 30
0.0
 10
11.6447102405
 20
7.4840289085
 30
0.0
 10
11.6529884805
 20
7.4872153412
 30
0.0
 10
11.6636794879
 20
7.4903877151
 30
0.0
 10
11.6768919448
 20
7.4928523192
 30
0.0
 10
11.6903741277
 20
7.4939575328
 30
0.0
 10
11.6994238896
 20
7.4937810039
 30
0.0
 10
11.7039454615
 20
7.4934674318
 30
0.0
  0
SPLINE
  5
3EB
100
AcDbEntity
  8
0
100
AcDbSpline
 62
7
  6
CONTINUOUS
 70
0
 71
3
 72
19
 73
15
 74
0
 42
0.0000001
 43
0.0000001
 44
0.0000000001
 40
0.0
 40
0.0
 40
0.0
 40
0.0
 40
0.0616584454
 40
0.1233399317
 40
0.185067215
 40
0.2468625626
 40
0.3087474945
 40
0.3707425066
 40
0.4328668994
 40
0.4951385746
 40
0.6201443393
 40
0.7459117862
 40
0.8725152911
 40
1.0
 40
1.0
 40
1.0
 40
1.0
 10
9.5527752969
 20
7.6012249411
 30
0.0
 10
9.5543519952
 20
7.6027479134
 30
0.0
 10
9.5575885857
 20
7.6057102245
 30
0.0
 10
9.5626762566
 20
7.6098871888
 30
0.0
 10
9.5679848673
 20
7.6137880442
 30
0.0
 10
9.573500821
 20
7.6174028411
 30
0.0
 10
9.5792103162
 20
7.6207224767
 30
0.0
 10
9.5850988801
 20
7.6237385813
 30
0.0
 10
9.5911518822
 20
7.6264436643
 30
0.0
 10
9.5994301221
 20
7.6296300971
 30
0.0
 10
9.6101211295
 20
7.632802471
 30
0.0
 10
9.6233335864
 20
7.6352670751
 30
0.0
 10
9.6368157694
 20
7.6363722886
 30
0.0
 10
9.6458655312
 20
7.6361957597
 30
0.0
 10
9.6503871031
 20
7.6358821877
 30
0.0
  0
SPLINE
  5
3EC
100
AcDbEntity
  8
0
100
AcDbSpline
 62
7
  6
CONTINUOUS
 70
0
 71
3
 72
17
 73
13
 74
0
 42
0.0000001
 43
0.0000001
 44
0.0000000001
 40
0.0
 40
0.0
 40
0.0
 40
0.0
 40
0.0544358448
 40
0.1090885253
 40
0.2198402599
 40
0.3339491399
 40
0.4528985532
 40
0.5146194848
 40
0.5780176026
 40
0.7103219531
 40
0.8507493365
 40
1.0
 40
1.0
 40
1.0
 40
1.0
 10
8.6061152722
 20
9.9069824937
 30
0.0
 10
8.6056061765
 20
9.9070178031
 30
0.0
 10
8.6045832946
 20
9.9070551955
 30
0.0
 10
8.6025220513
 20
9.9069963093
 30
0.0
 10
8.5999147175
 20
9.9066667173
 30
0.0
 10
8.5967840744
 20
9.9058701452
 30
0.0
 10
8.5941957889
 20
9.9048850989
 30
0.0
 10
8.5921257713
 20
9.9039085379
 30
0.0
 10
8.5899959283
 20
9.9027719152
 30
0.0
 10
8.5873244255
 20
9.90109221
 30
0.0
 10
8.5841588719
 20
9.8987135054
 30
0.0
 10
8.5821116818
 20
9.8969253129
 30
0.0
 10
8.5810874512
 20
9.895972082
 30
0.0
  0
SPLINE
  5
3ED
100
AcDbEntity
  8
0
100
AcDbSpline
 62
7
  6
CONTINUOUS
 70
0
 71
3
 72
18
 73
14
 74
0
 42
0.0000001
 43
0.0000001
 44
0.0000000001
 40
0.0
 40
0.0
 40
0.0
 40
0.0
 40
0.1492438628
 40
0.2896566766
 40
0.4219552654
 40
0.4853510326
 40
0.5470696139
 40
0.6660130313
 40
0.7801157008
 40
0.8358361162
 40
0.8909169338
 40
0.9455668697
 40
1.0
 40
1.0
 40
1.0
 40
1.0
 10
8.3611736784
 20
7.4395099206
 30
0.0
 10
8.3620565226
 20
7.4384244157
 30
0.0
 10
8.3638372177
 20
7.4363707642
 30
0.0
 10
8.3666441494
 20
7.4335779543
 30
0.0
 10
8.3690581529
 20
7.4315455413
 30
0.0
 10
8.371010745
 20
7.4301258032
 30
0.0
 10
8.3729261862
 20
7.4288728086
 30
0.0
 10
8.3753534663
 20
7.4275399249
 30
0.0
 10
8.377866398
 20
7.426514193
 30
0.0
 10
8.379885257
 20
7.4259017646
 30
0.0
 10
8.3813961075
 20
7.4255457151
 30
0.0
 10
8.3829147494
 20
7.4252896154
 30
0.0
 10
8.3839329723
 20
7.4251854581
 30
0.0
 10
8.3844420707
 20
7.4251501484
 30
0.0
  0
SPLINE
  5
3EE
100
AcDbEntity
  8
0
100
AcDbSpline
 62
7
  6
CONTINUOUS
 70
0
 71
3
 72
41
 73
37
 74
0
 42
0.0000001
 43
0.0000001
 44
0.0000000001
 40
0.0
 40
0.0
 40
0.0
 40
0.0
 40
0.0063160079
 40
0.012670914
 40
0.0191028693
 40
0.0256485311
 40
0.0323425104
 40
0.0392169797
 40
0.0536150169
 40
0.0611958751
 40
0.0690577399
 40
0.0856909608
 40
0.1036391145
 40
0.1229890565
 40
0.143801821
 40
0.1661176928
 40
0.1899604125
 40
0.2153403247
 40
0.2422566544
 40
0.2706994287
 40
0.3006509523
 40
0.3320868137
 40
0.3649767025
 40
0.3992852168
 40
0.4349723983
 40
0.4719940776
 40
0.5103023547
 40
0.5498459695
 40
0.5905705077
 40
0.6324186414
 40
0.6753304665
 40
0.7192436716
 40
0.7640936164
 40
0.8098138291
 40
0.9035871702
 40
1.0
 40
1.0
 40
1.0
 40
1.0
 10
12.9029587574
 20
8.0491164542
 30
0.0
 10
12.9022311301
 20
8.049166911
 30
0.0
 10
12.9007748332
 20
8.049327694
 30
0.0
 10
12.8986066991
 20
8.0497467515
 30
0.0
 10
12.8964530644
 20
8.0503437521
 30
0.0
 10
12.8943151835
 20
8.051118178
 30
0.0
 10
12.8921938792
 20
8.0520695606
 30
0.0
 10
12.8893455642
 20
8.053596409
 30
0.0
 10
12.8865745814
 20
8.0554654459
 30
0.0
 10
12.8838929569
 20
8.0576314482
 30
0.0
 10
12.8811406086
 20
8.0601129973
 30
0.0
 10
12.8777578069
 20
8.063670773
 30
0.0
 10
12.8738673822
 20
8.0685422213
 30
0.0
 10
12.8700763996
 20
8.0740859829
 30
0.0
 10
12.8663901286
 20
8.0802931501
 30
0.0
 10
12.8628136874
 20
8.0871542787
 30
0.0
 10
12.8593525048
 20
8.0946586524
 30
0.0
 10
12.8560120132
 20
8.1027944507
 30
0.0
 10
12.8527975635
 20
8.1115486806
 30
0.0
 10
12.849714384
 20
8.1209072476
 30
0.0
 10
12.8467675554
 20
8.1308549969
 30
0.0
 10
12.8439619555
 20
8.1413757375
 30
0.0
 10
12.841302225
 20
8.1524522777
 30
0.0
 10
12.838792789
 20
8.1640664804
 30
0.0
 10
12.8364378388
 20
8.1761992958
 30
0.0
 10
12.834241286
 20
8.188830787
 30
0.0
 10
12.8322067859
 20
8.2019401773
 30
0.0
 10
12.8303377386
 20
8.2155058942
 30
0.0
 10
12.8286372614
 20
8.2295055971
 30
0.0
 10
12.827108177
 20
8.2439162163
 30
0.0
 10
12.8257530352
 20
8.2587140034
 30
0.0
 10
12.8245741132
 20
8.2738745558
 30
0.0
 10
12.8235733388
 20
8.2893729004
 30
0.0
 10
12.8224695491
 20
8.3106327936
 30
0.0
 10
12.8215565563
 20
8.3378627067
 30
0.0
 10
12.8213206734
 20
8.3598262515
 30
0.0
 10
12.8213206734
 20
8.3709600364
 30
0.0
  0
SPLINE
  5
3EF
100
AcDbEntity
  8
0
100
AcDbSpline
 62
7
  6
CONTINUOUS
 70
0
 71
3
 72
31
 73
27
 74
0
 42
0.0000001
 43
0.0000001
 44
0.0000000001
 40
0.0
 40
0.0
 40
0.0
 40
0.0
 40
0.0162143915
 40
0.0334275491
 40
0.0516719541
 40
0.0709711783
 40
0.0913407392
 40
0.1127899566
 40
0.1353222951
 40
0.158936774
 40
0.1836280092
 40
0.209387288
 40
0.2362024717
 40
0.2640588099
 40
0.29293881
 40
0.3228228363
 40
0.3536890128
 40
0.3855136356
 40
0.451932613
 40
0.5218584336
 40
0.5950447552
 40
0.6712252994
 40
0.7501162943
 40
0.8314190027
 40
0.9148210884
 40
1.0
 40
1.0
 40
1.0
 40
1.0
 10
13.0627788888
 20
9.5541790818
 30
0.0
 10
13.0636349731
 20
9.5531264831
 30
0.0
 10
13.0653278289
 20
9.550897166
 30
0.0
 10
13.0677419945
 20
9.5473077915
 30
0.0
 10
13.0701031342
 20
9.5433789997
 30
0.0
 10
13.0724087293
 20
9.5391149095
 30
0.0
 10
13.0746566398
 20
9.5345198195
 30
0.0
 10
13.0768444959
 20
9.5295984082
 30
0.0
 10
13.0789701365
 20
9.5243557476
 30
0.0
 10
13.081031283
 20
9.5187972351
 30
0.0
 10
13.0830258482
 20
9.5129286479
 30
0.0
 10
13.0849516784
 20
9.506756084
 30
0.0
 10
13.0868067959
 20
9.5002859906
 30
0.0
 10
13.0885891962
 20
9.4935251295
 30
0.0
 10
13.0902970325
 20
9.4864805837
 30
0.0
 10
13.0919284593
 20
9.4791597429
 30
0.0
 10
13.0934817962
 20
9.471570282
 30
0.0
 10
13.0954749306
 20
9.4609517587
 30
0.0
 10
13.0977476448
 20
9.4470622841
 30
0.0
 10
13.1001024928
 20
9.4296862082
 30
0.0
 10
13.1021120359
 20
9.4114449657
 30
0.0
 10
13.1037676386
 20
9.3924152955
 30
0.0
 10
13.1050621371
 20
9.3726771348
 30
0.0
 10
13.1059899242
 20
9.3523135211
 30
0.0
 10
13.10654698
 20
9.3314102056
 30
0.0
 10
13.1066684351
 20
9.3173034522
 30
0.0
 10
13.1066684351
 20
9.3101759073
 30
0.0
  0
SPLINE
  5
3F0
100
AcDbEntity
  8
0
100
AcDbSpline
 62
7
  6
CONTINUOUS
 70
0
 71
3
 72
17
 73
13
 74
0
 42
0.0000001
 43
0.0000001
 44
0.0000000001
 40
0.0
 40
0.0
 40
0.0
 40
0.0
 40
0.1492506635
 40
0.2896780469
 40
0.4219823974
 40
0.4853805152
 40
0.5471014468
 40
0.6660508601
 40
0.7801597401
 40
0.8909114747
 40
0.9455641552
 40
1.0
 40
1.0
 40
1.0
 40
1.0
 10
12.8169896982
 20
7.1295320974
 30
0.0
 10
12.8159654676
 20
7.1285788665
 30
0.0
 10
12.8139182775
 20
7.1267906741
 30
0.0
 10
12.8107527238
 20
7.1244119695
 30
0.0
 10
12.8080812211
 20
7.1227322642
 30
0.0
 10
12.805951378
 20
7.1215956415
 30
0.0
 10
12.8038813605
 20
7.1206190806
 30
0.0
 10
12.8012930749
 20
7.1196340343
 30
0.0
 10
12.7981624318
 20
7.1188374621
 30
0.0
 10
12.795555098
 20
7.1185078702
 30
0.0
 10
12.7934938548
 20
7.118448984
 30
0.0
 10
12.7924709729
 20
7.1184863763
 30
0.0
 10
12.7919618772
 20
7.1185216858
 30
0.0
  0
SPLINE
  5
3F1
100
AcDbEntity
  8
0
100
AcDbSpline
 62
7
  6
CONTINUOUS
 70
0
 71
3
 72
18
 73
14
 74
0
 42
0.0000001
 43
0.0000001
 44
0.0000000001
 40
0.0
 40
0.0
 40
0.0
 40
0.0
 40
0.0544331303
 40
0.1090830662
 40
0.1641638838
 40
0.2198842992
 40
0.3339869687
 40
0.4529303861
 40
0.5146489674
 40
0.5780447346
 40
0.7103433234
 40
0.8507561372
 40
1.0
 40
1.0
 40
1.0
 40
1.0
 10
13.0136350787
 20
9.600354031
 30
0.0
 10
13.0141441771
 20
9.6003187214
 30
0.0
 10
13.0151624
 20
9.6002145641
 30
0.0
 10
13.0166810419
 20
9.5999584644
 30
0.0
 10
13.0181918924
 20
9.5996024148
 30
0.0
 10
13.0202107514
 20
9.5989899865
 30
0.0
 10
13.022723683
 20
9.5979642545
 30
0.0
 10
13.0251509632
 20
9.5966313709
 30
0.0
 10
13.0270664044
 20
9.5953783763
 30
0.0
 10
13.0290189964
 20
9.5939586382
 30
0.0
 10
13.0314329999
 20
9.5919262252
 30
0.0
 10
13.0342399317
 20
9.5891334152
 30
0.0
 10
13.0360206267
 20
9.5870797638
 30
0.0
 10
13.036903471
 20
9.5859942589
 30
0.0
  0
SPLINE
  5
3F2
100
AcDbEntity
  8
0
100
AcDbSpline
 62
7
  6
CONTINUOUS
 70
0
 71
3
 72
29
 73
25
 74
0
 42
0.0000001
 43
0.0000001
 44
0.0000000001
 40
0.0
 40
0.0
 40
0.0
 40
0.0
 40
0.0599106604
 40
0.120388266
 40
0.181405306
 40
0.2429327289
 40
0.3049355628
 40
0.3361093685
 40
0.3673848482
 40
0.3987538354
 40
0.4302078034
 40
0.4617372961
 40
0.493331984
 40
0.5249813789
 40
0.5566743328
 40
0.588399933
 40
0.6201473548
 40
0.6519063379
 40
0.683667648
 40
0.7471473698
 40
0.8105500165
 40
0.8738385765
 40
0.9369903082
 40
1.0
 40
1.0
 40
1.0
 40
1.0
 10
11.8163174733
 20
7.8799008163
 30
0.0
 10
11.8129985883
 20
7.8815259157
 30
0.0
 10
11.8064295722
 20
7.8850015199
 30
0.0
 10
11.7969045402
 20
7.8908896152
 30
0.0
 10
11.7877464533
 20
7.8975090116
 30
0.0
 10
11.7790568083
 20
7.9048804341
 30
0.0
 10
11.7723091932
 20
7.9116461328
 30
0.0
 10
11.7672586224
 20
7.9174299563
 30
0.0
 10
11.763652945
 20
7.9219589311
 30
0.0
 10
11.7602517364
 20
7.9266647374
 30
0.0
 10
11.7570690664
 20
7.9315398769
 30
0.0
 10
11.7541183721
 20
7.9365750327
 30
0.0
 10
11.7514113814
 20
7.941758953
 30
0.0
 10
11.7489585503
 20
7.947078996
 30
0.0
 10
11.7467682723
 20
7.9525211092
 30
0.0
 10
11.7448465917
 20
7.9580701576
 30
0.0
 10
11.743197713
 20
7.9637104612
 30
0.0
 10
11.7418231157
 20
7.9694261256
 30
0.0
 10
11.74035564
 20
7.977123523
 30
0.0
 10
11.7391991981
 20
7.9868554557
 30
0.0
 10
11.7388545221
 20
7.9985945808
 30
0.0
 10
11.7394891768
 20
8.0103001658
 30
0.0
 10
11.7410282931
 20
8.0218945436
 30
0.0
 10
11.7426070324
 20
8.0295220266
 30
0.0
 10
11.743521241
 20
8.0332995238
 30
0.0
  0
SPLINE
  5
3F3
100
AcDbEntity
  8
0
100
AcDbSpline
 62
7
  6
CONTINUOUS
 70
0
 71
3
 72
18
 73
14
 74
0
 42
0.0000001
 43
0.0000001
 44
0.0000000001
 40
0.0
 40
0.0
 40
0.0
 40
0.0
 40
0.1504654776
 40
0.2917138659
 40
0.4244431221
 40
0.4879103299
 40
0.5496094336
 40
0.6682621302
 40
0.7817883943
 40
0.837138095
 40
0.8918079579
 40
0.9460193786
 40
1.0
 40
1.0
 40
1.0
 40
1.0
 10
12.9876910547
 20
9.5884747823
 30
0.0
 10
12.9887511915
 20
9.5894987959
 30
0.0
 10
12.9908700689
 20
9.5914201615
 30
0.0
 10
12.9941509025
 20
9.5939806635
 30
0.0
 10
12.9969221657
 20
9.5957915774
 30
0.0
 10
12.9991319783
 20
9.5970178783
 30
0.0
 10
13.0012767687
 20
9.5980706892
 30
0.0
 10
13.0039584591
 20
9.5991344817
 30
0.0
 10
13.0066878308
 20
9.5998605043
 30
0.0
 10
13.0088495964
 20
9.6002181011
 30
0.0
 10
13.0104517531
 20
9.6003768401
 30
0.0
 10
13.0120474309
 20
9.6004281303
 30
0.0
 10
13.0131075596
 20
9.6003906183
 30
0.0
 10
13.0136350787
 20
9.600354031
 30
0.0
  0
SPLINE
  5
3F4
100
AcDbEntity
  8
0
100
AcDbSpline
 62
7
  6
CONTINUOUS
 70
0
 71
3
 72
18
 73
14
 74
0
 42
0.0000001
 43
0.0000001
 44
0.0000000001
 40
0.0
 40
0.0
 40
0.0
 40
0.0
 40
0.0574508059
 40
0.1155328229
 40
0.1742742
 40
0.233704963
 40
0.3546584843
 40
0.4784935975
 40
0.605152203
 40
0.6695093569
 40
0.7345025819
 40
0.8662209073
 40
1.0
 40
1.0
 40
1.0
 40
1.0
 10
9.701098035
 20
8.0167085893
 30
0.0
 10
9.6981876273
 20
8.0172014983
 30
0.0
 10
9.6923622463
 20
8.0183625755
 30
0.0
 10
9.6836891155
 20
8.0206063133
 30
0.0
 10
9.6750556641
 20
8.0233560209
 30
0.0
 10
9.6635619813
 20
8.0277116456
 30
0.0
 10
9.6494034447
 20
8.0344062685
 30
0.0
 10
9.6330294708
 20
8.0442676143
 30
0.0
 10
9.6200126927
 20
8.0539164655
 30
0.0
 10
9.6100031257
 20
8.0624563402
 30
0.0
 10
9.6001972724
 20
8.0716153173
 30
0.0
 10
9.5885693924
 20
8.0840208133
 30
0.0
 10
9.5801101734
 20
8.0947460793
 30
0.0
 10
9.5760791542
 20
8.1003136463
 30
0.0
  0
SPLINE
  5
3F5
100
AcDbEntity
  8
0
100
AcDbSpline
 62
7
  6
CONTINUOUS
 70
0
 71
3
 72
23
 73
19
 74
0
 42
0.0000001
 43
0.0000001
 44
0.0000000001
 40
0.0
 40
0.0
 40
0.0
 40
0.0
 40
0.0586346735
 40
0.1179644207
 40
0.1780152518
 40
0.2387876474
 40
0.30026016
 40
0.3623899875
 40
0.4251150153
 40
0.4883561348
 40
0.5520198537
 40
0.6160011649
 40
0.6801865435
 40
0.7444570462
 40
0.8086914892
 40
0.8727696363
 40
0.9365753532
 40
1.0
 40
1.0
 40
1.0
 40
1.0
 10
11.0616124191
 20
8.4176203358
 30
0.0
 10
11.0618049926
 20
8.4116686164
 30
0.0
 10
11.062765309
 20
8.3997059284
 30
0.0
 10
11.0658810557
 20
8.3818731132
 30
0.0
 10
11.0706543407
 20
8.3641850254
 30
0.0
 10
11.0770462285
 20
8.3467847728
 30
0.0
 10
11.0850048891
 20
8.32981034
 30
0.0
 10
11.094466192
 20
8.3133968788
 30
0.0
 10
11.1053542358
 20
8.2976748299
 30
0.0
 10
11.1175818948
 20
8.2827691623
 30
0.0
 10
11.1310514537
 20
8.2687982923
 30
0.0
 10
11.1456554601
 20
8.2558732515
 30
0.0
 10
11.16127753
 20
8.2440968249
 30
0.0
 10
11.1777932407
 20
8.2335626479
 30
0.0
 10
11.1950709778
 20
8.2243545751
 30
0.0
 10
11.2129736859
 20
8.2165459189
 30
0.0
 10
11.2313572665
 20
8.2101993148
 30
0.0
 10
11.243884101
 20
8.2069646059
 30
0.0
 10
11.2501809682
 20
8.2056082325
 30
0.0
  0
LINE
  5
3F6
100
AcDbEntity
  8
0
100
AcDbLine
 62
7
  6
CONTINUOUS
 10
9.701098035
 20
8.0167085893
 11
9.6979293197
 21
8.0137488888
  0
SPLINE
  5
3F7
100
AcDbEntity
  8
0
100
AcDbSpline
 62
7
  6
CONTINUOUS
 70
0
 71
3
 72
19
 73
15
 74
0
 42
0.0000001
 43
0.0000001
 44
0.0000000001
 40
0.0
 40
0.0
 40
0.0
 40
0.0
 40
0.0616584454
 40
0.1233399317
 40
0.185067215
 40
0.2468625626
 40
0.3087474945
 40
0.3707425066
 40
0.4328668994
 40
0.4951385746
 40
0.6201443393
 40
0.7459117862
 40
0.8725152911
 40
1.0
 40
1.0
 40
1.0
 40
1.0
 10
9.7479989093
 20
9.1484059395
 30
0.0
 10
9.7464222109
 20
9.1468829672
 30
0.0
 10
9.7431856205
 20
9.1439206562
 30
0.0
 10
9.7380979496
 20
9.1397436918
 30
0.0
 10
9.7327893388
 20
9.1358428364
 30
0.0
 10
9.7272733852
 20
9.1322280395
 30
0.0
 10
9.72156389
 20
9.1289084039
 30
0.0
 10
9.7156753261
 20
9.1258922993
 30
0.0
 10
9.709622324
 20
9.1231872163
 30
0.0
 10
9.7013440841
 20
9.1200007836
 30
0.0
 10
9.6906530766
 20
9.1168284097
 30
0.0
 10
9.6774406197
 20
9.1143638055
 30
0.0
 10
9.6639584368
 20
9.113258592
 30
0.0
 10
9.654908675
 20
9.1134351209
 30
0.0
 10
9.6503871031
 20
9.113748693
 30
0.0
  0
SPLINE
  5
3F8
100
AcDbEntity
  8
0
100
AcDbSpline
 62
7
  6
CONTINUOUS
 70
0
 71
3
 72
41
 73
37
 74
0
 42
0.0000001
 43
0.0000001
 44
0.0000000001
 40
0.0
 40
0.0
 40
0.0
 40
0.0
 40
0.031144444
 40
0.0624425093
 40
0.0938872508
 40
0.1254695847
 40
0.1571771078
 40
0.1889951283
 40
0.2209066801
 40
0.2528929859
 40
0.2849338014
 40
0.3170078274
 40
0.3490931225
 40
0.3811675283
 40
0.4132090962
 40
0.4451965119
 40
0.4771095115
 40
0.5089292827
 40
0.5406388458
 40
0.5722234075
 40
0.6036706813
 40
0.6349711679
 40
0.6661183875
 40
0.6971090579
 40
0.7279432122
 40
0.7586242475
 40
0.7891589026
 40
0.8195571573
 40
0.8498320547
 40
0.8649308931
 40
0.8800050545
 40
0.9100832586
 40
0.9400926739
 40
0.9550812746
 40
0.9700610358
 40
1.0
 40
1.0
 40
1.0
 40
1.0
 10
11.7039454615
 20
8.9713339371
 30
0.0
 10
11.7006315098
 20
8.9715637604
 30
0.0
 10
11.6940016182
 20
8.9722671197
 30
0.0
 10
11.6841371712
 20
8.9740388526
 30
0.0
 10
11.6743783629
 20
8.9765205784
 30
0.0
 10
11.6647779443
 20
8.9796988663
 30
0.0
 10
11.6553868838
 20
8.9835567378
 30
0.0
 10
11.6462552862
 20
8.988073528
 30
0.0
 10
11.6374317952
 20
8.9932251115
 30
0.0
 10
11.6289634273
 20
8.9989839772
 30
0.0
 10
11.6208953023
 20
9.0053193979
 30
0.0
 10
11.6132704102
 20
9.0121975834
 30
0.0
 10
11.6061293843
 20
9.0195818631
 30
0.0
 10
11.5995102865
 20
9.027432878
 30
0.0
 10
11.593448407
 20
9.0357087892
 30
0.0
 10
11.5879760774
 20
9.0443654985
 30
0.0
 10
11.5831225
 20
9.0533568803
 30
0.0
 10
11.5789135928
 20
9.0626350252
 30
0.0
 10
11.575371852
 20
9.0721504914
 30
0.0
 10
11.5725162317
 20
9.0818525654
 30
0.0
 10
11.5703620426
 20
9.0916895283
 30
0.0
 10
11.5689208679
 20
9.1016089277
 30
0.0
 10
11.5682005
 20
9.1115578543
 30
0.0
 10
11.568204894
 20
9.1214832182
 30
0.0
 10
11.5689341468
 20
9.1313320389
 30
0.0
 10
11.5703844724
 20
9.1410516884
 30
0.0
 10
11.5725482867
 20
9.1505903129
 30
0.0
 10
11.5754139788
 20
9.1598965828
 30
0.0
 10
11.5783775789
 20
9.1674248105
 30
0.0
 10
11.5810820237
 20
9.1732791683
 30
0.0
 10
11.5840006291
 20
9.1790062381
 30
0.0
 10
11.5880529543
 20
9.1859334246
 30
0.0
 10
11.5926264805
 20
9.1925170855
 30
0.0
 10
11.5965786546
 20
9.1975494902
 30
0.0
 10
11.6007193959
 20
9.202417609
 30
0.0
 10
11.6040368349
 20
9.2058833077
 30
0.0
 10
11.6063336553
 20
9.2081018638
 30
0.0
  0
SPLINE
  5
3F9
100
AcDbEntity
  8
0
100
AcDbSpline
 62
7
  6
CONTINUOUS
 70
0
 71
3
 72
19
 73
15
 74
0
 42
0.0000001
 43
0.0000001
 44
0.0000000001
 40
0.0
 40
0.0
 40
0.0
 40
0.0
 40
0.0616584454
 40
0.1233399317
 40
0.185067215
 40
0.2468625626
 40
0.3087474945
 40
0.3707425066
 40
0.4328668994
 40
0.4951385746
 40
0.6201443393
 40
0.7459117862
 40
0.8725152911
 40
1.0
 40
1.0
 40
1.0
 40
1.0
 10
11.8015572676
 20
9.0059911836
 30
0.0
 10
11.7999805693
 20
9.0044682114
 30
0.0
 10
11.7967439789
 20
9.0015059003
 30
0.0
 10
11.7916563079
 20
8.9973289359
 30
0.0
 10
11.7863476972
 20
8.9934280805
 30
0.0
 10
11.7808317435
 20
8.9898132837
 30
0.0
 10
11.7751222483
 20
8.9864936481
 30
0.0
 10
11.7692336845
 20
8.9834775434
 30
0.0
 10
11.7631806824
 20
8.9807724604
 30
0.0
 10
11.7549024424
 20
8.9775860277
 30
0.0
 10
11.744211435
 20
8.9744136538
 30
0.0
 10
11.7309989781
 20
8.9719490497
 30
0.0
 10
11.7175167952
 20
8.9708438361
 30
0.0
 10
11.7084670333
 20
8.971020365
 30
0.0
 10
11.7039454615
 20
8.9713339371
 30
0.0
  0
SPLINE
  5
3FA
100
AcDbEntity
  8
0
100
AcDbSpline
 62
7
  6
CONTINUOUS
 70
0
 71
3
 72
19
 73
15
 74
0
 42
0.0000001
 43
0.0000001
 44
0.0000000001
 40
0.0
 40
0.0
 40
0.0
 40
0.0
 40
0.0616584454
 40
0.1233399317
 40
0.185067215
 40
0.2468625626
 40
0.3087474945
 40
0.3707425066
 40
0.4328668994
 40
0.4951385746
 40
0.6201443393
 40
0.7459117862
 40
0.8725152911
 40
1.0
 40
1.0
 40
1.0
 40
1.0
 10
11.8015572676
 20
7.2566995051
 30
0.0
 10
11.7999805693
 20
7.2551765328
 30
0.0
 10
11.7967439789
 20
7.2522142217
 30
0.0
 10
11.7916563079
 20
7.2480372574
 30
0.0
 10
11.7863476972
 20
7.244136402
 30
0.0
 10
11.7808317435
 20
7.2405216051
 30
0.0
 10
11.7751222483
 20
7.2372019695
 30
0.0
 10
11.7692336845
 20
7.2341858649
 30
0.0
 10
11.7631806824
 20
7.2314807819
 30
0.0
 10
11.7549024424
 20
7.2282943491
 30
0.0
 10
11.744211435
 20
7.2251219752
 30
0.0
 10
11.7309989781
 20
7.2226573711
 30
0.0
 10
11.7175167952
 20
7.2215521576
 30
0.0
 10
11.7084670333
 20
7.2217286865
 30
0.0
 10
11.7039454615
 20
7.2220422585
 30
0.0
  0
SPLINE
  5
3FB
100
AcDbEntity
  8
0
100
AcDbSpline
 62
7
  6
CONTINUOUS
 70
0
 71
3
 72
41
 73
37
 74
0
 42
0.0000001
 43
0.0000001
 44
0.0000000001
 40
0.0
 40
0.0
 40
0.0
 40
0.0
 40
0.031144444
 40
0.0624425093
 40
0.0938872508
 40
0.1254695847
 40
0.1571771078
 40
0.1889951283
 40
0.2209066801
 40
0.2528929859
 40
0.2849338014
 40
0.3170078274
 40
0.3490931225
 40
0.3811675283
 40
0.4132090962
 40
0.4451965119
 40
0.4771095115
 40
0.5089292827
 40
0.5406388458
 40
0.5722234075
 40
0.6036706813
 40
0.6349711679
 40
0.6661183875
 40
0.6971090579
 40
0.7279432122
 40
0.7586242475
 40
0.7891589026
 40
0.8195571573
 40
0.8498320547
 40
0.8649308931
 40
0.8800050545
 40
0.9100832586
 40
0.9400926739
 40
0.9550812746
 40
0.9700610358
 40
1.0
 40
1.0
 40
1.0
 40
1.0
 10
9.6503871031
 20
9.113748693
 30
0.0
 10
9.6470731515
 20
9.1139785163
 30
0.0
 10
9.6404432598
 20
9.1146818755
 30
0.0
 10
9.6305788129
 20
9.1164536084
 30
0.0
 10
9.6208200046
 20
9.1189353343
 30
0.0
 10
9.6112195859
 20
9.1221136221
 30
0.0
 10
9.6018285254
 20
9.1259714937
 30
0.0
 10
9.5926969278
 20
9.1304882839
 30
0.0
 10
9.5838734368
 20
9.1356398674
 30
0.0
 10
9.575405069
 20
9.1413987331
 30
0.0
 10
9.5673369439
 20
9.1477341538
 30
0.0
 10
9.5597120519
 20
9.1546123393
 30
0.0
 10
9.5525710259
 20
9.1619966189
 30
0.0
 10
9.5459519281
 20
9.1698476338
 30
0.0
 10
9.5398900486
 20
9.1781235451
 30
0.0
 10
9.5344177191
 20
9.1867802543
 30
0.0
 10
9.5295641416
 20
9.1957716362
 30
0.0
 10
9.5253552344
 20
9.205049781
 30
0.0
 10
9.5218134936
 20
9.2145652473
 30
0.0
 10
9.5189578734
 20
9.2242673213
 30
0.0
 10
9.5168036842
 20
9.2341042842
 30
0.0
 10
9.5153625095
 20
9.2440236836
 30
0.0
 10
9.5146421417
 20
9.2539726102
 30
0.0
 10
9.5146465356
 20
9.263897974
 30
0.0
 10
9.5153757885
 20
9.2737467947
 30
0.0
 10
9.516826114
 20
9.2834664442
 30
0.0
 10
9.5189899283
 20
9.2930050688
 30
0.0
 10
9.5218556205
 20
9.3023113387
 30
0.0
 10
9.5248192205
 20
9.3098395664
 30
0.0
 10
9.5275236653
 20
9.3156939242
 30
0.0
 10
9.5304422707
 20
9.3214209939
 30
0.0
 10
9.534494596
 20
9.3283481805
 30
0.0
 10
9.5390681221
 20
9.3349318414
 30
0.0
 10
9.5430202962
 20
9.339964246
 30
0.0
 10
9.5471610375
 20
9.3448323649
 30
0.0
 10
9.5504784765
 20
9.3482980635
 30
0.0
 10
9.5527752969
 20
9.3505166197
 30
0.0
  0
SPLINE
  5
3FC
100
AcDbEntity
  8
0
100
AcDbSpline
 62
7
  6
CONTINUOUS
 70
0
 71
3
 72
13
 73
9
 74
0
 42
0.0000001
 43
0.0000001
 44
0.0000000001
 40
0.0
 40
0.0
 40
0.0
 40
0.0
 40
0.1241697624
 40
0.248647769
 40
0.3734032008
 40
0.4984030261
 40
0.7489298702
 40
1.0
 40
1.0
 40
1.0
 40
1.0
 10
10.8195429297
 20
9.1197162161
 30
0.0
 10
10.8162797717
 20
9.120911183
 30
0.0
 10
10.8098009099
 20
9.1234589982
 30
0.0
 10
10.8002622332
 20
9.1277363571
 30
0.0
 10
10.7909116067
 20
9.1324630774
 30
0.0
 10
10.7787171387
 20
9.1393510898
 30
0.0
 10
10.7640555988
 20
9.149017873
 30
0.0
 10
10.7530640205
 20
9.1577847709
 30
0.0
 10
10.7477715569
 20
9.1624067309
 30
0.0
  0
SPLINE
  5
3FD
100
AcDbEntity
  8
0
100
AcDbSpline
 62
7
  6
CONTINUOUS
 70
0
 71
3
 72
19
 73
15
 74
0
 42
0.0000001
 43
0.0000001
 44
0.0000000001
 40
0.0
 40
0.0
 40
0.0
 40
0.0
 40
0.0616584454
 40
0.1233399317
 40
0.185067215
 40
0.2468625626
 40
0.3087474945
 40
0.3707425066
 40
0.4328668994
 40
0.4951385746
 40
0.6201443393
 40
0.7459117862
 40
0.8725152911
 40
1.0
 40
1.0
 40
1.0
 40
1.0
 10
9.7479989093
 20
7.3991142609
 30
0.0
 10
9.7464222109
 20
7.3975912887
 30
0.0
 10
9.7431856205
 20
7.3946289776
 30
0.0
 10
9.7380979496
 20
7.3904520132
 30
0.0
 10
9.7327893388
 20
7.3865511578
 30
0.0
 10
9.7272733852
 20
7.382936361
 30
0.0
 10
9.72156389
 20
7.3796167254
 30
0.0
 10
9.7156753261
 20
7.3766006207
 30
0.0
 10
9.709622324
 20
7.3738955377
 30
0.0
 10
9.7013440841
 20
7.370709105
 30
0.0
 10
9.6906530766
 20
7.3675367311
 30
0.0
 10
9.6774406197
 20
7.365072127
 30
0.0
 10
9.6639584368
 20
7.3639669134
 30
0.0
 10
9.654908675
 20
7.3641434423
 30
0.0
 10
9.6503871031
 20
7.3644570144
 30
0.0
  0
SPLINE
  5
3FE
100
AcDbEntity
  8
0
100
AcDbSpline
 62
7
  6
CONTINUOUS
 70
0
 71
3
 72
11
 73
7
 74
0
 42
0.0000001
 43
0.0000001
 44
0.0000000001
 40
0.0
 40
0.0
 40
0.0
 40
0.0
 40
0.2579428101
 40
0.5091450952
 40
0.7557418857
 40
1.0
 40
1.0
 40
1.0
 40
1.0
 10
12.9139847515
 20
8.0505703826
 30
0.0
 10
12.913070897
 20
8.0502701361
 30
0.0
 10
12.91124018
 20
8.0497552654
 30
0.0
 10
12.908463548
 20
8.0492484672
 30
0.0
 10
12.9057013361
 20
8.0490198469
 30
0.0
 10
12.9038674563
 20
8.0490534411
 30
0.0
 10
12.9029587574
 20
8.0491164542
 30
0.0
  0
SPLINE
  5
3FF
100
AcDbEntity
  8
0
100
AcDbSpline
 62
7
  6
CONTINUOUS
 70
0
 71
3
 72
41
 73
37
 74
0
 42
0.0000001
 43
0.0000001
 44
0.0000000001
 40
0.0
 40
0.0
 40
0.0
 40
0.0
 40
0.031144444
 40
0.0624425093
 40
0.0938872508
 40
0.1254695847
 40
0.1571771078
 40
0.1889951283
 40
0.2209066801
 40
0.2528929859
 40
0.2849338014
 40
0.3170078274
 40
0.3490931225
 40
0.3811675283
 40
0.4132090962
 40
0.4451965119
 40
0.4771095115
 40
0.5089292827
 40
0.5406388458
 40
0.5722234075
 40
0.6036706813
 40
0.6349711679
 40
0.6661183875
 40
0.6971090579
 40
0.7279432122
 40
0.7586242475
 40
0.7891589026
 40
0.8195571573
 40
0.8498320547
 40
0.8649308931
 40
0.8800050545
 40
0.9100832586
 40
0.9400926739
 40
0.9550812746
 40
0.9700610358
 40
1.0
 40
1.0
 40
1.0
 40
1.0
 10
11.7039454615
 20
7.2220422585
 30
0.0
 10
11.7006315098
 20
7.2222720819
 30
0.0
 10
11.6940016182
 20
7.2229754411
 30
0.0
 10
11.6841371712
 20
7.224747174
 30
0.0
 10
11.6743783629
 20
7.2272288998
 30
0.0
 10
11.6647779443
 20
7.2304071877
 30
0.0
 10
11.6553868838
 20
7.2342650592
 30
0.0
 10
11.6462552862
 20
7.2387818495
 30
0.0
 10
11.6374317952
 20
7.2439334329
 30
0.0
 10
11.6289634273
 20
7.2496922987
 30
0.0
 10
11.6208953023
 20
7.2560277194
 30
0.0
 10
11.6132704102
 20
7.2629059049
 30
0.0
 10
11.6061293843
 20
7.2702901845
 30
0.0
 10
11.5995102865
 20
7.2781411994
 30
0.0
 10
11.593448407
 20
7.2864171106
 30
0.0
 10
11.5879760774
 20
7.2950738199
 30
0.0
 10
11.5831225
 20
7.3040652018
 30
0.0
 10
11.5789135928
 20
7.3133433466
 30
0.0
 10
11.575371852
 20
7.3228588129
 30
0.0
 10
11.5725162317
 20
7.3325608869
 30
0.0
 10
11.5703620426
 20
7.3423978498
 30
0.0
 10
11.5689208679
 20
7.3523172491
 30
0.0
 10
11.5682005
 20
7.3622661758
 30
0.0
 10
11.568204894
 20
7.3721915396
 30
0.0
 10
11.5689341468
 20
7.3820403603
 30
0.0
 10
11.5703844724
 20
7.3917600098
 30
0.0
 10
11.5725482867
 20
7.4012986344
 30
0.0
 10
11.5754139788
 20
7.4106049043
 30
0.0
 10
11.5783775789
 20
7.4181331319
 30
0.0
 10
11.5810820237
 20
7.4239874898
 30
0.0
 10
11.5840006291
 20
7.4297145595
 30
0.0
 10
11.5880529543
 20
7.4366417461
 30
0.0
 10
11.5926264805
 20
7.4432254069
 30
0.0
 10
11.5965786546
 20
7.4482578116
 30
0.0
 10
11.6007193959
 20
7.4531259305
 30
0.0
 10
11.6040368349
 20
7.4565916291
 30
0.0
 10
11.6063336553
 20
7.4588101853
 30
0.0
  0
SPLINE
  5
400
100
AcDbEntity
  8
0
100
AcDbSpline
 62
7
  6
CONTINUOUS
 70
0
 71
3
 72
40
 73
36
 74
0
 42
0.0000001
 43
0.0000001
 44
0.0000000001
 40
0.0
 40
0.0
 40
0.0
 40
0.0
 40
0.0071626229
 40
0.0146567641
 40
0.0224900299
 40
0.0306686382
 40
0.0391976632
 40
0.0480809304
 40
0.057320739
 40
0.0669183362
 40
0.0768740602
 40
0.0871873292
 40
0.0978569438
 40
0.1088808796
 40
0.1319798546
 40
0.1564577669
 40
0.1822792814
 40
0.2094023218
 40
0.2377788737
 40
0.2673557011
 40
0.2980749227
 40
0.3298744798
 40
0.3626885204
 40
0.3964477562
 40
0.4310798366
 40
0.466509658
 40
0.5026596479
 40
0.539450022
 40
0.5767990774
 40
0.6146234699
 40
0.69135667
 40
0.7689611838
 40
0.8467369066
 40
0.9239815346
 40
1.0
 40
1.0
 40
1.0
 40
1.0
 10
8.4103860947
 20
9.7311033705
 30
0.0
 10
8.4095737934
 20
9.7303187477
 30
0.0
 10
8.4079502674
 20
9.728672764
 30
0.0
 10
8.4055706968
 20
9.7260423257
 30
0.0
 10
8.4031941336
 20
9.7231970958
 30
0.0
 10
8.4008221375
 20
9.7201389144
 30
0.0
 10
8.3984559994
 20
9.7168695924
 30
0.0
 10
8.3960971189
 20
9.7133909958
 30
0.0
 10
8.3937468206
 20
9.7097051928
 30
0.0
 10
8.3914065266
 20
9.7058143648
 30
0.0
 10
8.3890776592
 20
9.701720823
 30
0.0
 10
8.386761564
 20
9.6974270278
 30
0.0
 10
8.3844596545
 20
9.6929355127
 30
0.0
 10
8.3813628496
 20
9.6865875765
 30
0.0
 10
8.3775457069
 20
9.6781707328
 30
0.0
 10
8.3731117392
 20
9.6674788372
 30
0.0
 10
8.3687665478
 20
9.6560690599
 30
0.0
 10
8.3645206471
 20
9.6439687292
 30
0.0
 10
8.3603843052
 20
9.6312067205
 30
0.0
 10
8.3563675366
 20
9.6178136106
 30
0.0
 10
8.3524800696
 20
9.6038215123
 30
0.0
 10
8.348731323
 20
9.5892640111
 30
0.0
 10
8.3451303759
 20
9.5741760804
 30
0.0
 10
8.3416859365
 20
9.5585939951
 30
0.0
 10
8.3384063382
 20
9.5425552318
 30
0.0
 10
8.3352995144
 20
9.5260983731
 30
0.0
 10
8.3323729817
 20
9.5092630146
 30
0.0
 10
8.3296338179
 20
9.4920896852
 30
0.0
 10
8.3270886082
 20
9.4746196967
 30
0.0
 10
8.3239470117
 20
9.4508741932
 30
0.0
 10
8.3205532889
 20
9.4207621722
 30
0.0
 10
8.3173568166
 20
9.3843000011
 30
0.0
 10
8.3150481973
 20
9.3476898785
 30
0.0
 10
8.3136495545
 20
9.3112842067
 30
0.0
 10
8.3133290329
 20
9.2871174364
 30
0.0
 10
8.3133290329
 20
9.275131236
 30
0.0
  0
SPLINE
  5
401
100
AcDbEntity
  8
0
100
AcDbSpline
 62
7
  6
CONTINUOUS
 70
0
 71
3
 72
32
 73
28
 74
0
 42
0.0000001
 43
0.0000001
 44
0.0000000001
 40
0.0
 40
0.0
 40
0.0
 40
0.0
 40
0.0851787312
 40
0.1685806418
 40
0.2498831816
 40
0.3287740155
 40
0.4049544072
 40
0.4781405859
 40
0.5480662739
 40
0.5817294426
 40
0.6144868925
 40
0.646311459
 40
0.6771775823
 40
0.7070615585
 40
0.7359415117
 40
0.7637978061
 40
0.7906129494
 40
0.8163721909
 40
0.841063392
 40
0.8646778401
 40
0.8872101508
 40
0.9086593436
 40
0.9290288828
 40
0.9483280881
 40
0.9665724768
 40
0.9837856204
 40
1.0
 40
1.0
 40
1.0
 40
1.0
 10
8.3133290329
 20
7.7055016753
 30
0.0
 10
8.3133290329
 20
7.6977318282
 30
0.0
 10
8.3134614328
 20
7.6823538375
 30
0.0
 10
8.3140686877
 20
7.6595668096
 30
0.0
 10
8.3150800814
 20
7.6373681154
 30
0.0
 10
8.3164912359
 20
7.6158512477
 30
0.0
 10
8.318296023
 20
7.5951066756
 30
0.0
 10
8.3204866899
 20
7.5752217209
 30
0.0
 10
8.322652339
 20
7.5592406336
 30
0.0
 10
8.3245799677
 20
7.5469532923
 30
0.0
 10
8.3260976631
 20
7.5381206465
 30
0.0
 10
8.3277039953
 20
7.5295631388
 30
0.0
 10
8.3293972943
 20
7.5212897532
 30
0.0
 10
8.3311757411
 20
7.5133091855
 30
0.0
 10
8.3330374776
 20
7.5056298132
 30
0.0
 10
8.3349804988
 20
7.498259689
 30
0.0
 10
8.3370027899
 20
7.4912065351
 30
0.0
 10
8.339102166
 20
7.4844777221
 30
0.0
 10
8.3412764711
 20
7.4780802786
 30
0.0
 10
8.3435233575
 20
7.4720208521
 30
0.0
 10
8.34584055
 20
7.4663057401
 30
0.0
 10
8.3482255645
 20
7.4609408266
 30
0.0
 10
8.3506760453
 20
7.4559316407
 30
0.0
 10
8.3531894089
 20
7.4512832824
 30
0.0
 10
8.3557633226
 20
7.4470004376
 30
0.0
 10
8.3583950407
 20
7.4430875967
 30
0.0
 10
8.3602404481
 20
7.4406573777
 30
0.0
 10
8.3611736784
 20
7.4395099206
 30
0.0
  0
SPLINE
  5
402
100
AcDbEntity
  8
0
100
AcDbSpline
 62
7
  6
CONTINUOUS
 70
0
 71
3
 72
20
 73
16
 74
0
 42
0.0000001
 43
0.0000001
 44
0.0000000001
 40
0.0
 40
0.0
 40
0.0
 40
0.0
 40
0.0264409161
 40
0.0538819293
 40
0.082109982
 40
0.1109712245
 40
0.1701562018
 40
0.2307970943
 40
0.2924947858
 40
0.3549869371
 40
0.4816703983
 40
0.6099386573
 40
0.7392735732
 40
0.8693606593
 40
1.0
 40
1.0
 40
1.0
 40
1.0
 10
9.6979293197
 20
8.0137488888
 30
0.0
 10
9.6972923987
 20
8.0136319195
 30
0.0
 10
9.6959898592
 20
8.0134182632
 30
0.0
 10
9.6939960789
 20
8.0131539457
 30
0.0
 10
9.6919370275
 20
8.0129366414
 30
0.0
 10
9.6890985327
 20
8.0127051194
 30
0.0
 10
9.6854602095
 20
8.0125276676
 30
0.0
 10
9.6810138309
 20
8.0124786007
 30
0.0
 10
9.6764874541
 20
8.0125852143
 30
0.0
 10
9.6703520244
 20
8.012929624
 30
0.0
 10
9.6626133165
 20
8.0137282559
 30
0.0
 10
9.6533190457
 20
8.0152416907
 30
0.0
 10
9.6440441609
 20
8.0172981891
 30
0.0
 10
9.6348426262
 20
8.0198831572
 30
0.0
 10
9.6287957436
 20
8.021946761
 30
0.0
 10
9.625796958
 20
8.0230622271
 30
0.0
  0
SPLINE
  5
403
100
AcDbEntity
  8
0
100
AcDbSpline
 62
7
  6
CONTINUOUS
 70
0
 71
3
 72
41
 73
37
 74
0
 42
0.0000001
 43
0.0000001
 44
0.0000000001
 40
0.0
 40
0.0
 40
0.0
 40
0.0
 40
0.031144444
 40
0.0624425093
 40
0.0938872508
 40
0.1254695847
 40
0.1571771078
 40
0.1889951283
 40
0.2209066801
 40
0.2528929859
 40
0.2849338014
 40
0.3170078274
 40
0.3490931225
 40
0.3811675283
 40
0.4132090962
 40
0.4451965119
 40
0.4771095115
 40
0.5089292827
 40
0.5406388458
 40
0.5722234075
 40
0.6036706813
 40
0.6349711679
 40
0.6661183875
 40
0.6971090579
 40
0.7279432122
 40
0.7586242475
 40
0.7891589026
 40
0.8195571573
 40
0.8498320547
 40
0.8649308931
 40
0.8800050545
 40
0.9100832586
 40
0.9400926739
 40
0.9550812746
 40
0.9700610358
 40
1.0
 40
1.0
 40
1.0
 40
1.0
 10
9.6503871031
 20
7.3644570144
 30
0.0
 10
9.6470731515
 20
7.3646868377
 30
0.0
 10
9.6404432598
 20
7.365390197
 30
0.0
 10
9.6305788129
 20
7.3671619299
 30
0.0
 10
9.6208200046
 20
7.3696436557
 30
0.0
 10
9.6112195859
 20
7.3728219435
 30
0.0
 10
9.6018285254
 20
7.3766798151
 30
0.0
 10
9.5926969278
 20
7.3811966053
 30
0.0
 10
9.5838734368
 20
7.3863481888
 30
0.0
 10
9.575405069
 20
7.3921070545
 30
0.0
 10
9.5673369439
 20
7.3984424752
 30
0.0
 10
9.5597120519
 20
7.4053206607
 30
0.0
 10
9.5525710259
 20
7.4127049404
 30
0.0
 10
9.5459519281
 20
7.4205559552
 30
0.0
 10
9.5398900486
 20
7.4288318665
 30
0.0
 10
9.5344177191
 20
7.4374885758
 30
0.0
 10
9.5295641416
 20
7.4464799576
 30
0.0
 10
9.5253552344
 20
7.4557581025
 30
0.0
 10
9.5218134936
 20
7.4652735687
 30
0.0
 10
9.5189578734
 20
7.4749756427
 30
0.0
 10
9.5168036842
 20
7.4848126056
 30
0.0
 10
9.5153625095
 20
7.494732005
 30
0.0
 10
9.5146421417
 20
7.5046809316
 30
0.0
 10
9.5146465356
 20
7.5146062954
 30
0.0
 10
9.5153757885
 20
7.5244551162
 30
0.0
 10
9.516826114
 20
7.5341747656
 30
0.0
 10
9.5189899283
 20
7.5437133902
 30
0.0
 10
9.5218556205
 20
7.5530196601
 30
0.0
 10
9.5248192205
 20
7.5605478878
 30
0.0
 10
9.5275236653
 20
7.5664022456
 30
0.0
 10
9.5304422707
 20
7.5721293154
 30
0.0
 10
9.534494596
 20
7.5790565019
 30
0.0
 10
9.5390681221
 20
7.5856401628
 30
0.0
 10
9.5430202962
 20
7.5906725675
 30
0.0
 10
9.5471610375
 20
7.5955406863
 30
0.0
 10
9.5504784765
 20
7.599006385
 30
0.0
 10
9.5527752969
 20
7.6012249411
 30
0.0
  0
SPLINE
  5
404
100
AcDbEntity
  8
0
100
AcDbSpline
 62
7
  6
CONTINUOUS
 70
0
 71
3
 72
40
 73
36
 74
0
 42
0.0000001
 43
0.0000001
 44
0.0000000001
 40
0.0
 40
0.0
 40
0.0
 40
0.0
 40
0.0760183971
 40
0.1532630994
 40
0.2310388191
 40
0.3086433293
 40
0.38537653
 40
0.4232009292
 40
0.4605499824
 40
0.4973403465
 40
0.5334903325
 40
0.5689201664
 40
0.603552258
 40
0.6373114854
 40
0.6701255083
 40
0.701925066
 40
0.7326443052
 40
0.7622211437
 40
0.7905976829
 40
0.8177207047
 40
0.8435422253
 40
0.8680201529
 40
0.8911191326
 40
0.9021430516
 40
0.9128126745
 40
0.9231259492
 40
0.9330816543
 40
0.9426792603
 40
0.9519190646
 40
0.9608023529
 40
0.9693313912
 40
0.9775099653
 40
0.9853431854
 40
0.9928373226
 40
1.0
 40
1.0
 40
1.0
 40
1.0
 10
12.1490206915
 20
9.0081591902
 30
0.0
 10
12.1490206915
 20
9.0201453798
 30
0.0
 10
12.149341212
 20
9.044312151
 30
0.0
 10
12.1507398582
 20
9.0807178232
 30
0.0
 10
12.1530484705
 20
9.117327957
 30
0.0
 10
12.1562449503
 20
9.1537901265
 30
0.0
 10
12.1596386714
 20
9.1839021483
 30
0.0
 10
12.1627802624
 20
9.2076476533
 30
0.0
 10
12.1653254747
 20
9.2251176406
 30
0.0
 10
12.1680646429
 20
9.2422909668
 30
0.0
 10
12.1709911767
 20
9.2591263248
 30
0.0
 10
12.1740979954
 20
9.2755831877
 30
0.0
 10
12.1773775905
 20
9.2916219542
 30
0.0
 10
12.1808220328
 20
9.3072040364
 30
0.0
 10
12.1844229853
 20
9.3222919618
 30
0.0
 10
12.1881717309
 20
9.3368494632
 30
0.0
 10
12.1920591936
 20
9.3508415675
 30
0.0
 10
12.1960759597
 20
9.3642346808
 30
0.0
 10
12.2002123047
 20
9.3769966853
 30
0.0
 10
12.2044582104
 20
9.38909701
 30
0.0
 10
12.2088033986
 20
9.400506789
 30
0.0
 10
12.2132373653
 20
9.4111986893
 30
0.0
 10
12.217054502
 20
9.4196155366
 30
0.0
 10
12.2201513164
 20
9.4259634674
 30
0.0
 10
12.2224532236
 20
9.4304549831
 30
0.0
 10
12.2247693145
 20
9.4347487799
 30
0.0
 10
12.2270981904
 20
9.438842316
 30
0.0
 10
12.2294384715
 20
9.442733149
 30
0.0
 10
12.2317887791
 20
9.4464189511
 30
0.0
 10
12.2341476634
 20
9.4498975507
 30
0.0
 10
12.2365137991
 20
9.4531668746
 30
0.0
 10
12.2388857919
 20
9.4562250452
 30
0.0
 10
12.2412623402
 20
9.4590702703
 30
0.0
 10
12.2436419127
 20
9.461700708
 30
0.0
 10
12.2452654458
 20
9.4633466958
 30
0.0
 10
12.2460777533
 20
9.4641313247
 30
0.0
  0
SPLINE
  5
405
100
AcDbEntity
  8
0
100
AcDbSpline
 62
7
  6
CONTINUOUS
 70
0
 71
3
 72
18
 73
14
 74
0
 42
0.0000001
 43
0.0000001
 44
0.0000000001
 40
0.0
 40
0.0
 40
0.0
 40
0.0
 40
0.150466514
 40
0.2917140478
 40
0.4244427524
 40
0.4879100217
 40
0.5496093045
 40
0.6682623303
 40
0.7817883775
 40
0.8371380958
 40
0.8918079631
 40
0.946019364
 40
1.0
 40
1.0
 40
1.0
 40
1.0
 10
12.4158629068
 20
9.628131199
 30
0.0
 10
12.4169230496
 20
9.6291552184
 30
0.0
 10
12.4190419214
 20
9.631076588
 30
0.0
 10
12.4223227543
 20
9.6336370771
 30
0.0
 10
12.425094001
 20
9.6354479842
 30
0.0
 10
12.4273038078
 20
9.6366742834
 30
0.0
 10
12.4294486027
 20
9.6377270902
 30
0.0
 10
12.4321302834
 20
9.6387909079
 30
0.0
 10
12.4348596597
 20
9.6395169058
 30
0.0
 10
12.4370214175
 20
9.6398745177
 30
0.0
 10
12.4386235721
 20
9.6400332645
 30
0.0
 10
12.4402192485
 20
9.6400845373
 30
0.0
 10
12.4412793756
 20
9.6400470316
 30
0.0
 10
12.4418068945
 20
9.6400104485
 30
0.0
  0
SPLINE
  5
406
100
AcDbEntity
  8
0
100
AcDbSpline
 62
7
  6
CONTINUOUS
 70
0
 71
3
 72
24
 73
20
 74
0
 42
0.0000001
 43
0.0000001
 44
0.0000000001
 40
0.0
 40
0.0
 40
0.0
 40
0.0
 40
0.1695752918
 40
0.2507435375
 40
0.3291972428
 40
0.404682531
 40
0.4769257938
 40
0.5456719005
 40
0.6106541799
 40
0.6716518283
 40
0.7285128086
 40
0.7812046632
 40
0.8299005301
 40
0.8750603777
 40
0.9175414199
 40
0.9381877212
 40
0.9586743598
 40
0.9792081991
 40
1.0
 40
1.0
 40
1.0
 40
1.0
 10
9.7111713608
 20
8.0006647497
 30
0.0
 10
9.71016812
 20
8.0011606232
 30
0.0
 10
9.7086987611
 20
8.0019233424
 30
0.0
 10
9.7068095311
 20
8.0029964205
 30
0.0
 10
9.7054820661
 20
8.0038001234
 30
0.0
 10
9.7042299714
 20
8.0046132475
 30
0.0
 10
9.7030606787
 20
8.0054346578
 30
0.0
 10
9.7019820902
 20
8.0062626809
 30
0.0
 10
9.7010028925
 20
8.0070959038
 30
0.0
 10
9.7001322669
 20
8.0079326464
 30
0.0
 10
9.6993796824
 20
8.0087712604
 30
0.0
 10
9.6987550535
 20
8.0096104428
 30
0.0
 10
9.6982682032
 20
8.0104491293
 30
0.0
 10
9.69792958
 20
8.0112865252
 30
0.0
 10
9.6977785485
 20
8.0119897236
 30
0.0
 10
9.6977447595
 20
8.0125413407
 30
0.0
 10
9.6977617718
 20
8.0129487102
 30
0.0
 10
9.6978212563
 20
8.0133529842
 30
0.0
 10
9.6978888104
 20
8.0136177909
 30
0.0
 10
9.6979293197
 20
8.0137488888
 30
0.0
  0
SPLINE
  5
407
100
AcDbEntity
  8
0
100
AcDbSpline
 62
7
  6
CONTINUOUS
 70
0
 71
3
 72
42
 73
38
 74
0
 42
0.0000001
 43
0.0000001
 44
0.0000000001
 40
0.0
 40
0.0
 40
0.0
 40
0.0
 40
0.0632311053
 40
0.1265438118
 40
0.1899383353
 40
0.2534127121
 40
0.3169621175
 40
0.3805786424
 40
0.4442514756
 40
0.5079660854
 40
0.5717022684
 40
0.6035738424
 40
0.6354388227
 40
0.6672911698
 40
0.6991230736
 40
0.7309241614
 40
0.7626802008
 40
0.794370863
 40
0.8259656752
 40
0.8574161686
 40
0.8730640658
 40
0.8886402015
 40
0.9041220774
 40
0.9194765793
 40
0.9346526131
 40
0.9495663766
 40
0.9568829486
 40
0.9640701774
 40
0.9710873853
 40
0.9778745002
 40
0.984340257
 40
0.9874111153
 40
0.9903439277
 40
0.9931074912
 40
0.9956665578
 40
0.997978773
 40
1.0
 40
1.0
 40
1.0
 40
1.0
 10
11.1336270747
 20
8.2310467416
 30
0.0
 10
11.1302279673
 20
8.2338607109
 30
0.0
 10
11.1236030823
 20
8.2397109763
 30
0.0
 10
11.1142388944
 20
8.2491046383
 30
0.0
 10
11.1054773792
 20
8.2590860917
 30
0.0
 10
11.09735481
 20
8.2696147148
 30
0.0
 10
11.0899046057
 20
8.280648098
 30
0.0
 10
11.0831581883
 20
8.292141357
 30
0.0
 10
11.0771447153
 20
8.3040475358
 30
0.0
 10
11.0718914329
 20
8.3163169371
 30
0.0
 10
11.0681678858
 20
8.3268022967
 30
0.0
 10
11.065593883
 20
8.3353190849
 30
0.0
 10
11.063868619
 20
8.3417642861
 30
0.0
 10
11.0623518583
 20
8.3482588157
 30
0.0
 10
11.0610467343
 20
8.3547946513
 30
0.0
 10
11.0599566512
 20
8.3613629793
 30
0.0
 10
11.0590853958
 20
8.3679539857
 30
0.0
 10
11.0584373914
 20
8.3745562689
 30
0.0
 10
11.0580181395
 20
8.381155663
 30
0.0
 10
11.0578650153
 20
8.3866466824
 30
0.0
 10
11.0578663161
 20
8.3910208139
 30
0.0
 10
11.0579308343
 20
8.3942798942
 30
0.0
 10
11.0580611561
 20
8.3975165262
 30
0.0
 10
11.0582602322
 20
8.4007217271
 30
0.0
 10
11.0585319921
 20
8.4038818242
 30
0.0
 10
11.0588251321
 20
8.4064762351
 30
0.0
 10
11.059104807
 20
8.4085101685
 30
0.0
 10
11.0593363918
 20
8.4099942019
 30
0.0
 10
11.0595926206
 20
8.4114367056
 30
0.0
 10
11.0598752705
 20
8.4128229476
 30
0.0
 10
11.0601384184
 20
8.4139316542
 30
0.0
 10
11.0603677212
 20
8.4147711939
 30
0.0
 10
11.0605447575
 20
8.4153569647
 30
0.0
 10
11.0607299443
 20
8.4159026516
 30
0.0
 10
11.0609228636
 20
8.4163995826
 30
0.0
 10
11.0611229997
 20
8.4168372849
 30
0.0
 10
11.0612711607
 20
8.4171017063
 30
0.0
 10
11.061348298
 20
8.417219803
 30
0.0
  0
SPLINE
  5
408
100
AcDbEntity
  8
0
100
AcDbSpline
 62
7
  6
CONTINUOUS
 70
0
 71
3
 72
39
 73
35
 74
0
 42
0.0000001
 43
0.0000001
 44
0.0000000001
 40
0.0
 40
0.0
 40
0.0
 40
0.0
 40
0.0760185458
 40
0.1532632554
 40
0.2310390604
 40
0.3086436563
 40
0.3853769375
 40
0.42320137
 40
0.4605504649
 40
0.4973408779
 40
0.533490906
 40
0.5689207649
 40
0.6035528818
 40
0.6373121533
 40
0.6701262286
 40
0.7019258193
 40
0.7326450735
 40
0.7622219321
 40
0.790598514
 40
0.817721583
 40
0.8435431249
 40
0.868021063
 40
0.8911200625
 40
0.9128125786
 40
0.9231258585
 40
0.9330815931
 40
0.9426792004
 40
0.9519190187
 40
0.9608022954
 40
0.9693313294
 40
0.9775099463
 40
0.9853432204
 40
0.9928373695
 40
1.0
 40
1.0
 40
1.0
 40
1.0
 10
12.7588159256
 20
8.9741761647
 30
0.0
 10
12.7588159256
 20
8.9851715058
 30
0.0
 10
12.7591099507
 20
9.0073404897
 30
0.0
 10
12.7603929724
 20
9.040736626
 30
0.0
 10
12.7625107458
 20
9.0743203118
 30
0.0
 10
12.7654429764
 20
9.1077682767
 30
0.0
 10
12.7685561514
 20
9.1353910374
 30
0.0
 10
12.7714380426
 20
9.1571735792
 30
0.0
 10
12.7737728484
 20
9.173199382
 30
0.0
 10
12.7762855747
 20
9.1889530495
 30
0.0
 10
12.7789701806
 20
9.204396685
 30
0.0
 10
12.7818201736
 20
9.2194931101
 30
0.0
 10
12.7848286585
 20
9.2342060023
 30
0.0
 10
12.7879883575
 20
9.2484999685
 30
0.0
 10
12.7912916264
 20
9.2623406303
 30
0.0
 10
12.7947304766
 20
9.2756947115
 30
0.0
 10
12.7982965796
 20
9.2885301294
 30
0.0
 10
12.8019812954
 20
9.3008160763
 30
0.0
 10
12.8057756996
 20
9.3125230896
 30
0.0
 10
12.8096706062
 20
9.3236231358
 30
0.0
 10
12.8136565939
 20
9.3340896718
 30
0.0
 10
12.8177240243
 20
9.3438978178
 30
0.0
 10
12.8218630842
 20
9.3530241339
 30
0.0
 10
12.825421136
 20
9.3601588381
 30
0.0
 10
12.8283026531
 20
9.3655010112
 30
0.0
 10
12.8304390163
 20
9.3692561551
 30
0.0
 10
12.832585842
 20
9.3728253409
 30
0.0
 10
12.83474185
 20
9.3762064509
 30
0.0
 10
12.8369057295
 20
9.3793974835
 30
0.0
 10
12.8390762668
 20
9.3823965416
 30
0.0
 10
12.8412521779
 20
9.3852019134
 30
0.0
 10
12.8434322786
 20
9.3878119376
 30
0.0
 10
12.845615138
 20
9.3902249263
 30
0.0
 10
12.8471044525
 20
9.391734842
 30
0.0
 10
12.8478496036
 20
9.3924546027
 30
0.0
  0
SPLINE
  5
409
100
AcDbEntity
  8
0
100
AcDbSpline
 62
7
  6
CONTINUOUS
 70
0
 71
3
 72
35
 73
31
 74
0
 42
0.0000001
 43
0.0000001
 44
0.0000000001
 40
0.0
 40
0.0
 40
0.0
 40
0.0
 40
0.0723573214
 40
0.1443788937
 40
0.2871243323
 40
0.3577107432
 40
0.4276501372
 40
0.496821564
 40
0.5650591781
 40
0.6321251762
 40
0.6651142788
 40
0.6976632258
 40
0.7296973782
 40
0.7611203384
 40
0.7918112773
 40
0.8216191782
 40
0.8503525867
 40
0.8777795681
 40
0.890919905
 40
0.9036281653
 40
0.9158666371
 40
0.9275969637
 40
0.938782474
 40
0.9493906536
 40
0.9593934378
 40
0.9687717348
 40
0.9775142218
 40
0.9856231803
 40
0.9931104382
 40
1.0
 40
1.0
 40
1.0
 40
1.0
 10
9.8778247373
 20
8.0618375918
 30
0.0
 10
9.8736871491
 20
8.0603074262
 30
0.0
 10
9.8653796668
 20
8.0573916746
 30
0.0
 10
9.8486917257
 20
8.0520984587
 30
0.0
 10
9.8318967215
 20
8.0475263641
 30
0.0
 10
9.8150881013
 20
8.04355624
 30
0.0
 10
9.8025890205
 20
8.0408645745
 30
0.0
 10
9.7901870186
 20
8.0384127314
 30
0.0
 10
9.7779254081
 20
8.0361608403
 30
0.0
 10
9.7678166825
 20
8.0344025154
 30
0.0
 10
9.7598476542
 20
8.0330405584
 30
0.0
 10
9.753983817
 20
8.0320389557
 30
0.0
 10
9.7482160108
 20
8.0310422701
 30
0.0
 10
9.7425643117
 20
8.0300391292
 30
0.0
 10
9.7370539094
 20
8.0290172675
 30
0.0
 10
9.7317165235
 20
8.0279631767
 30
0.0
 10
9.7265918912
 20
8.0268620705
 30
0.0
 10
9.7224819464
 20
8.0258797331
 30
0.0
 10
9.7193416275
 20
8.0250493876
 30
0.0
 10
9.717107787
 20
8.0244147677
 30
0.0
 10
9.7149700687
 20
8.0237580728
 30
0.0
 10
9.7129370102
 20
8.0230788189
 30
0.0
 10
9.7110172828
 20
8.0223764057
 30
0.0
 10
9.7092189167
 20
8.0216515465
 30
0.0
 10
9.70754947
 20
8.0209047592
 30
0.0
 10
9.7060150875
 20
8.0201381405
 30
0.0
 10
9.7046208423
 20
8.0193534481
 30
0.0
 10
9.7033696815
 20
8.0185539489
 30
0.0
 10
9.7022634544
 20
8.0177425638
 30
0.0
 10
9.7015953118
 20
8.0171735908
 30
0.0
 10
9.7012875159
 20
8.0168877647
 30
0.0
  0
SPLINE
  5
40A
100
AcDbEntity
  8
0
100
AcDbSpline
 62
7
  6
CONTINUOUS
 70
0
 71
3
 72
40
 73
36
 74
0
 42
0.0000001
 43
0.0000001
 44
0.0000000001
 40
0.0
 40
0.0
 40
0.0
 40
0.0
 40
0.0760184654
 40
0.1532630934
 40
0.2310388162
 40
0.30864333
 40
0.3853765301
 40
0.4232009226
 40
0.460549978
 40
0.4973403521
 40
0.533490342
 40
0.5689201634
 40
0.6035522438
 40
0.6373114796
 40
0.6701255202
 40
0.7019250773
 40
0.7326442989
 40
0.7622211263
 40
0.7905976782
 40
0.8177207186
 40
0.8435422331
 40
0.8680201454
 40
0.8911191204
 40
0.9021430562
 40
0.9128126708
 40
0.9231259398
 40
0.9330816638
 40
0.942679261
 40
0.9519190696
 40
0.9608023368
 40
0.9693313618
 40
0.9775099701
 40
0.9853432359
 40
0.9928373771
 40
1.0
 40
1.0
 40
1.0
 40
1.0
 10
12.7208488394
 20
8.9685027734
 30
0.0
 10
12.7208488394
 20
8.9804889738
 30
0.0
 10
12.721169361
 20
9.004655744
 30
0.0
 10
12.7225680038
 20
9.0410614159
 30
0.0
 10
12.7248766231
 20
9.0776715385
 30
0.0
 10
12.7280730954
 20
9.1141337095
 30
0.0
 10
12.7314668182
 20
9.1442457306
 30
0.0
 10
12.7346084147
 20
9.167991234
 30
0.0
 10
12.7371536244
 20
9.1854612226
 30
0.0
 10
12.7398927883
 20
9.202634552
 30
0.0
 10
12.7428193209
 20
9.2194699104
 30
0.0
 10
12.7459261447
 20
9.2359267692
 30
0.0
 10
12.7492057431
 20
9.2519655325
 30
0.0
 10
12.7526501824
 20
9.2675476178
 30
0.0
 10
12.7562511296
 20
9.2826355485
 30
0.0
 10
12.7599998761
 20
9.2971930497
 30
0.0
 10
12.7638873431
 20
9.3111851479
 30
0.0
 10
12.7679041117
 20
9.3245782578
 30
0.0
 10
12.7720404536
 20
9.3373402666
 30
0.0
 10
12.7762863543
 20
9.3494405973
 30
0.0
 10
12.7806315457
 20
9.3608503746
 30
0.0
 10
12.7850655134
 20
9.3715422701
 30
0.0
 10
12.7888826562
 20
9.3799591139
 30
0.0
 10
12.791979461
 20
9.3863070501
 30
0.0
 10
12.7942813706
 20
9.3907985651
 30
0.0
 10
12.7965974658
 20
9.3950923603
 30
0.0
 10
12.7989263332
 20
9.3991859022
 30
0.0
 10
12.8012666271
 20
9.4030767301
 30
0.0
 10
12.8036169254
 20
9.4067625332
 30
0.0
 10
12.805975806
 20
9.4102411297
 30
0.0
 10
12.808341944
 20
9.4135104518
 30
0.0
 10
12.8107139401
 20
9.4165686332
 30
0.0
 10
12.8130905034
 20
9.4194138631
 30
0.0
 10
12.8154700739
 20
9.4220443014
 30
0.0
 10
12.8170935999
 20
9.423690285
 30
0.0
 10
12.8179059012
 20
9.4244749079
 30
0.0
  0
SPLINE
  5
40B
100
AcDbEntity
  8
0
100
AcDbSpline
 62
7
  6
CONTINUOUS
 70
0
 71
3
 72
11
 73
7
 74
0
 42
0.0000001
 43
0.0000001
 44
0.0000000001
 40
0.0
 40
0.0
 40
0.0
 40
0.0
 40
0.2443404125
 40
0.4909850281
 40
0.7421697282
 40
1.0
 40
1.0
 40
1.0
 40
1.0
 10
12.9625256033
 20
8.9080534538
 30
0.0
 10
12.9634275023
 20
8.9079909122
 30
0.0
 10
12.9652347405
 20
8.9077734477
 30
0.0
 10
12.9679188588
 20
8.9071735181
 30
0.0
 10
12.9705792479
 20
8.9063001526
 30
0.0
 10
12.9723091168
 20
8.9055478956
 30
0.0
 10
12.9731667616
 20
8.905130141
 30
0.0
  0
LINE
  5
40C
100
AcDbEntity
  8
0
100
AcDbLine
 62
7
  6
CONTINUOUS
 10
12.9731667616
 20
8.905130141
 11
12.9733652766
 21
8.9050326289
  0
SPLINE
  5
40D
100
AcDbEntity
  8
0
100
AcDbSpline
 62
7
  6
CONTINUOUS
 70
0
 71
3
 72
54
 73
50
 74
0
 42
0.0000001
 43
0.0000001
 44
0.0000000001
 40
0.0
 40
0.0
 40
0.0
 40
0.0
 40
0.0095822273
 40
0.0187372185
 40
0.0274871819
 40
0.035859765
 40
0.0515977889
 40
0.0590555803
 40
0.0662982983
 40
0.0733794635
 40
0.0803567208
 40
0.0872905371
 40
0.0942426171
 40
0.1012741388
 40
0.1084440685
 40
0.1158077003
 40
0.1234157401
 40
0.1313135413
 40
0.1395410807
 40
0.1481330115
 40
0.1571188616
 40
0.1665237243
 40
0.1763684224
 40
0.1866701818
 40
0.1974430944
 40
0.208698266
 40
0.2204445386
 40
0.2326884814
 40
0.2454347664
 40
0.258686547
 40
0.2724452901
 40
0.2867113279
 40
0.301483763
 40
0.3325374411
 40
0.3655814066
 40
0.4005761908
 40
0.437471444
 40
0.4762074098
 40
0.5167161537
 40
0.5589224948
 40
0.6027447509
 40
0.6480953336
 40
0.6948814082
 40
0.7430053452
 40
0.7923652918
 40
0.8428556327
 40
0.8943662074
 40
0.9467873312
 40
1.0
 40
1.0
 40
1.0
 40
1.0
 10
12.8470082717
 20
7.1574702128
 30
0.0
 10
12.8463006634
 20
7.1568116817
 30
0.0
 10
12.8448860168
 20
7.1555566273
 30
0.0
 10
12.8427156221
 20
7.1538288262
 30
0.0
 10
12.8405471603
 20
7.1523008648
 30
0.0
 10
12.8377198155
 20
7.150567792
 30
0.0
 10
12.8348353807
 20
7.1491840053
 30
0.0
 10
12.8319202965
 20
7.1482092449
 30
0.0
 10
12.8297807761
 20
7.1476956436
 30
0.0
 10
12.8276510355
 20
7.1473874103
 30
0.0
 10
12.8255325656
 20
7.1472849611
 30
0.0
 10
12.823427137
 20
7.1473886642
 30
0.0
 10
12.8213365214
 20
7.1476983494
 30
0.0
 10
12.8192624587
 20
7.1482137155
 30
0.0
 10
12.8172065591
 20
7.1489341036
 30
0.0
 10
12.81517022
 20
7.1498586093
 30
0.0
 10
12.8131547421
 20
7.1509863573
 30
0.0
 10
12.8111612002
 20
7.1523162381
 30
0.0
 10
12.809190639
 20
7.1538472258
 30
0.0
 10
12.8072440603
 20
7.1555782423
 30
0.0
 10
12.8053223738
 20
7.1575081013
 30
0.0
 10
12.8034266071
 20
7.1596356639
 30
0.0
 10
12.8015576926
 20
7.161959618
 30
0.0
 10
12.7997166186
 20
7.1644786068
 30
0.0
 10
12.7979044211
 20
7.1671911868
 30
0.0
 10
12.7961220406
 20
7.1700957519
 30
0.0
 10
12.7943705325
 20
7.1731906452
 30
0.0
 10
12.7926508737
 20
7.1764740547
 30
0.0
 10
12.7909640376
 20
7.1799440614
 30
0.0
 10
12.7893110531
 20
7.1835986548
 30
0.0
 10
12.7876928383
 20
7.187435672
 30
0.0
 10
12.7861103581
 20
7.191452877
 30
0.0
 10
12.7840143327
 20
7.1971413567
 30
0.0
 10
12.7814996721
 20
7.2046920753
 30
0.0
 10
12.7786869527
 20
7.2142863005
 30
0.0
 10
12.7760377164
 20
7.2245366081
 30
0.0
 10
12.7735583158
 20
7.2354187743
 30
0.0
 10
12.7712547142
 20
7.2469071993
 30
0.0
 10
12.7691324647
 20
7.258974723
 30
0.0
 10
12.7671966898
 20
7.2715927876
 30
0.0
 10
12.7654520677
 20
7.2847314837
 30
0.0
 10
12.763902801
 20
7.2983596349
 30
0.0
 10
12.7625526272
 20
7.3124448757
 30
0.0
 10
12.7614048041
 20
7.3269537465
 30
0.0
 10
12.7604621073
 20
7.341851785
 30
0.0
 10
12.7597268295
 20
7.3571035003
 30
0.0
 10
12.7592007054
 20
7.372672821
 30
0.0
 10
12.7588850748
 20
7.3885224531
 30
0.0
 10
12.7588159256
 20
7.3991786515
 30
0.0
 10
12.7588159256
 20
7.4045466039
 30
0.0
  0
SPLINE
  5
40E
100
AcDbEntity
  8
0
100
AcDbSpline
 62
7
  6
CONTINUOUS
 70
0
 71
3
 72
38
 73
34
 74
0
 42
0.0000001
 43
0.0000001
 44
0.0000000001
 40
0.0
 40
0.0
 40
0.0
 40
0.0
 40
0.0019940928
 40
0.0042020975
 40
0.0092262904
 40
0.0149731687
 40
0.0213115455
 40
0.0281096692
 40
0.0352559493
 40
0.042663838
 40
0.050265796
 40
0.0658709426
 40
0.081813037
 40
0.0979483487
 40
0.1141941883
 40
0.1305010919
 40
0.1468383447
 40
0.1795333296
 40
0.2121904697
 40
0.2447704309
 40
0.2772554856
 40
0.3096381991
 40
0.3419163063
 40
0.3740902387
 40
0.4381319463
 40
0.5017862804
 40
0.5650782408
 40
0.6280330705
 40
0.6906753257
 40
0.7530289693
 40
0.8151175224
 40
0.8769628386
 40
1.0
 40
1.0
 40
1.0
 40
1.0
 10
11.0616124191
 20
8.4176203358
 30
0.0
 10
11.0616564143
 20
8.4176864261
 30
0.0
 10
11.0617433648
 20
8.4178295612
 30
0.0
 10
11.0619141846
 20
8.4181549635
 30
0.0
 10
11.0621178678
 20
8.4186306884
 30
0.0
 10
11.0623433658
 20
8.4192737957
 30
0.0
 10
11.0625577585
 20
8.4199946592
 30
0.0
 10
11.0627607442
 20
8.4207764062
 30
0.0
 10
11.0629528825
 20
8.4216046253
 30
0.0
 10
11.063135104
 20
8.4224677892
 30
0.0
 10
11.0633685902
 20
8.4236641885
 30
0.0
 10
11.0636397308
 20
8.4251992584
 30
0.0
 10
11.0639428361
 20
8.4270734147
 30
0.0
 10
11.0642328291
 20
8.4289754389
 30
0.0
 10
11.0645148483
 20
8.4308933304
 30
0.0
 10
11.0647928574
 20
8.4328199284
 30
0.0
 10
11.0651624239
 20
8.4353950173
 30
0.0
 10
11.0656279331
 20
8.4386139956
 30
0.0
 10
11.0662073541
 20
8.4424698954
 30
0.0
 10
11.0668168486
 20
8.4463127164
 30
0.0
 10
11.0674629792
 20
8.4501384885
 30
0.0
 10
11.0681505098
 20
8.4539448406
 30
0.0
 10
11.0688830359
 20
8.4577301983
 30
0.0
 10
11.069921698
 20
8.4627397479
 30
0.0
 10
11.0713444519
 20
8.4689449087
 30
0.0
 10
11.073266414
 20
8.4763034176
 30
0.0
 10
11.0754078331
 20
8.4835561056
 30
0.0
 10
11.0777734358
 20
8.4906964357
 30
0.0
 10
11.0803659689
 20
8.4977178147
 30
0.0
 10
11.0831866739
 20
8.5046134335
 30
0.0
 10
11.0862358404
 20
8.5113765927
 30
0.0
 10
11.0905964273
 20
8.5201915179
 30
0.0
 10
11.0942188835
 20
8.5266096489
 30
0.0
 10
11.0967840396
 20
8.5307830649
 30
0.0
  0
SPLINE
  5
40F
100
AcDbEntity
  8
0
100
AcDbSpline
 62
7
  6
CONTINUOUS
 70
0
 71
3
 72
15
 73
11
 74
0
 42
0.0000001
 43
0.0000001
 44
0.0000000001
 40
0.0
 40
0.0
 40
0.0
 40
0.0
 40
0.1238895991
 40
0.2481091971
 40
0.3726626136
 40
0.4975431546
 40
0.6227389057
 40
0.7482314281
 40
0.8739945198
 40
1.0
 40
1.0
 40
1.0
 40
1.0
 10
11.0995865784
 20
8.5352094615
 30
0.0
 10
11.0966385688
 20
8.5309353795
 30
0.0
 10
11.0910470959
 20
8.5221555334
 30
0.0
 10
11.0836344804
 20
8.5083936617
 30
0.0
 10
11.0772221468
 20
8.4940918601
 30
0.0
 10
11.0718445509
 20
8.4793265312
 30
0.0
 10
11.0675298055
 20
8.4641755632
 30
0.0
 10
11.0643007099
 20
8.4487187933
 30
0.0
 10
11.0621741811
 20
8.4330388294
 30
0.0
 10
11.0614995455
 20
8.4224984735
 30
0.0
 10
11.061348298
 20
8.417219803
 30
0.0
  0
SPLINE
  5
410
100
AcDbEntity
  8
0
100
AcDbSpline
 62
7
  6
CONTINUOUS
 70
0
 71
3
 72
39
 73
35
 74
0
 42
0.0000001
 43
0.0000001
 44
0.0000000001
 40
0.0
 40
0.0
 40
0.0
 40
0.0
 40
0.00631605
 40
0.0126710036
 40
0.0191030137
 40
0.0256487366
 40
0.0323427745
 40
0.0392173093
 40
0.0536154999
 40
0.0690527098
 40
0.0856860775
 40
0.103634432
 40
0.1229846057
 40
0.1437975285
 40
0.1661136281
 40
0.1899566057
 40
0.2153367
 40
0.2422532743
 40
0.2706963086
 40
0.3006480514
 40
0.3320841722
 40
0.3649743116
 40
0.3992830784
 40
0.4349705379
 40
0.4719924585
 40
0.5103010083
 40
0.5498449224
 40
0.5905696991
 40
0.6324181177
 40
0.6753302619
 40
0.7192436941
 40
0.8098127521
 40
0.903586456
 40
1.0
 40
1.0
 40
1.0
 40
1.0
 10
12.7919618772
 20
7.1185216858
 30
0.0
 10
12.7913280572
 20
7.1185656458
 30
0.0
 10
12.7900595092
 20
7.1187057128
 30
0.0
 10
12.7881708949
 20
7.1190707612
 30
0.0
 10
12.7862949137
 20
7.1195908193
 30
0.0
 10
12.7844326527
 20
7.120265434
 30
0.0
 10
12.7825848458
 20
7.1210941674
 30
0.0
 10
12.780103662
 20
7.1224242459
 30
0.0
 10
12.7770333822
 20
7.1244952616
 30
0.0
 10
12.7734821504
 20
7.1275481179
 30
0.0
 10
12.7700100031
 20
7.1311997195
 30
0.0
 10
12.7666210089
 20
7.1354433638
 30
0.0
 10
12.7633188289
 20
7.1402723974
 30
0.0
 10
12.7601077698
 20
7.1456793595
 30
0.0
 10
12.7569924255
 20
7.1516559669
 30
0.0
 10
12.7539774815
 20
7.1581928974
 30
0.0
 10
12.7510676401
 20
7.1652798314
 30
0.0
 10
12.7482676145
 20
7.1729054749
 30
0.0
 10
12.745581935
 20
7.1810575425
 30
0.0
 10
12.7430150126
 20
7.1897228279
 30
0.0
 10
12.7405711262
 20
7.1988872337
 30
0.0
 10
12.7382542963
 20
7.2085357827
 30
0.0
 10
12.7360683832
 20
7.2186526768
 30
0.0
 10
12.7340170484
 20
7.229221321
 30
0.0
 10
12.7321036761
 20
7.2402243476
 30
0.0
 10
12.7303314712
 20
7.2516436628
 30
0.0
 10
12.7287033982
 20
7.2634604722
 30
0.0
 10
12.7272221409
 20
7.2756553147
 30
0.0
 10
12.7258901968
 20
7.2882080948
 30
0.0
 10
12.7247097604
 20
7.3010981415
 30
0.0
 10
12.7233263355
 20
7.318889337
 30
0.0
 10
12.7220009153
 20
7.3418144731
 30
0.0
 10
12.7210542729
 20
7.3700427586
 30
0.0
 10
12.7208488394
 20
7.3891748036
 30
0.0
 10
12.7208488394
 20
7.3988732127
 30
0.0
  0
SPLINE
  5
411
100
AcDbEntity
  8
0
100
AcDbSpline
 62
7
  6
CONTINUOUS
 70
0
 71
3
 72
40
 73
36
 74
0
 42
0.0000001
 43
0.0000001
 44
0.0000000001
 40
0.0
 40
0.0
 40
0.0
 40
0.0
 40
0.0063160386
 40
0.0126709845
 40
0.0191029824
 40
0.0256486811
 40
0.0323427179
 40
0.0392172413
 40
0.0536153955
 40
0.0690525477
 40
0.0856859168
 40
0.1036342145
 40
0.1229843191
 40
0.1437972506
 40
0.1661132731
 40
0.1899561788
 40
0.2153362815
 40
0.2422527623
 40
0.2706957268
 40
0.3006474695
 40
0.3320834873
 40
0.3649735603
 40
0.3992823117
 40
0.4349696663
 40
0.4719915233
 40
0.5103000389
 40
0.5498438519
 40
0.5905685667
 40
0.6324169314
 40
0.6753289781
 40
0.7192423596
 40
0.7640925246
 40
0.8098130177
 40
0.9035866552
 40
1.0
 40
1.0
 40
1.0
 40
1.0
 10
12.2201337655
 20
7.1581781019
 30
0.0
 10
12.2194999451
 20
7.1582220569
 30
0.0
 10
12.2182313943
 20
7.1583621082
 30
0.0
 10
12.2163427827
 20
7.158727176
 30
0.0
 10
12.2144668029
 20
7.159247232
 30
0.0
 10
12.2126045319
 20
7.1599218211
 30
0.0
 10
12.2107567334
 20
7.1607505748
 30
0.0
 10
12.2082755457
 20
7.1620806457
 30
0.0
 10
12.2052052689
 20
7.1641516595
 30
0.0
 10
12.2016540185
 20
7.1672044942
 30
0.0
 10
12.1981818918
 20
7.1708561141
 30
0.0
 10
12.1947928867
 20
7.1750997452
 30
0.0
 10
12.1914906922
 20
7.1799287696
 30
0.0
 10
12.1882796555
 20
7.185335743
 30
0.0
 10
12.1851642959
 20
7.1913123403
 30
0.0
 10
12.1821493417
 20
7.1978492665
 30
0.0
 10
12.1792395213
 20
7.2049362079
 30
0.0
 10
12.1764394786
 20
7.2125618448
 30
0.0
 10
12.173753793
 20
7.220713911
 30
0.0
 10
12.1711868884
 20
7.2293792016
 30
0.0
 10
12.1687429851
 20
7.2385436039
 30
0.0
 10
12.1664261526
 20
7.2481921531
 30
0.0
 10
12.1642402532
 20
7.2583090512
 30
0.0
 10
12.1621889034
 20
7.2688776947
 30
0.0
 10
12.160275531
 20
7.2798807226
 30
0.0
 10
12.1585033357
 20
7.2913000414
 30
0.0
 10
12.1568752503
 20
7.3031168526
 30
0.0
 10
12.1553939956
 20
7.3153116964
 30
0.0
 10
12.1540620532
 20
7.3278644831
 30
0.0
 10
12.1528816231
 20
7.3407545213
 30
0.0
 10
12.1518546831
 20
7.3539605531
 30
0.0
 10
12.150982936
 20
7.3674608339
 30
0.0
 10
12.1500214548
 20
7.3859798647
 30
0.0
 10
12.1492261615
 20
7.4096992567
 30
0.0
 10
12.1490206915
 20
7.4288312217
 30
0.0
 10
12.1490206915
 20
7.4385296294
 30
0.0
  0
SPLINE
  5
412
100
AcDbEntity
  8
0
100
AcDbSpline
 62
7
  6
CONTINUOUS
 70
0
 71
3
 72
23
 73
19
 74
0
 42
0.0000001
 43
0.0000001
 44
0.0000000001
 40
0.0
 40
0.0
 40
0.0
 40
0.0
 40
0.075595957
 40
0.1466391305
 40
0.2134651345
 40
0.2765138419
 40
0.3363259052
 40
0.3935462661
 40
0.4489224105
 40
0.5032874244
 40
0.5575253055
 40
0.6125266122
 40
0.6691426489
 40
0.72814827
 40
0.7902188159
 40
0.8559231893
 40
0.9257261654
 40
1.0
 40
1.0
 40
1.0
 40
1.0
 10
13.0176347571
 20
9.5564544771
 30
0.0
 10
13.0185908198
 20
9.5573779628
 30
0.0
 10
13.0205016899
 20
9.5591125588
 30
0.0
 10
13.0234589453
 20
9.5614298867
 30
0.0
 10
13.0264127473
 20
9.5633761111
 30
0.0
 10
13.0293603533
 20
9.5649483074
 30
0.0
 10
13.0322993178
 20
9.5661436178
 30
0.0
 10
13.0352266055
 20
9.5669591345
 30
0.0
 10
13.0381383884
 20
9.5673919469
 30
0.0
 10
13.0410298022
 20
9.5674400343
 30
0.0
 10
13.0438952992
 20
9.5671026711
 30
0.0
 10
13.0467293172
 20
9.5663808598
 30
0.0
 10
13.0495270582
 20
9.5652770592
 30
0.0
 10
13.0522847846
 20
9.5637944438
 30
0.0
 10
13.0549997479
 20
9.5619364681
 30
0.0
 10
13.0576697012
 20
9.5597062881
 30
0.0
 10
13.0602925545
 20
9.5571072666
 30
0.0
 10
13.0619548474
 20
9.5551922822
 30
0.0
 10
13.0627788888
 20
9.5541790818
 30
0.0
  0
SPLINE
  5
413
100
AcDbEntity
  8
0
100
AcDbSpline
 62
4
  6
CONTINUOUS
 70
0
 71
3
 72
292
 73
288
 74
0
 42
0.0000001
 43
0.0000001
 44
0.0000000001
 40
0.0
 40
0.0
 40
0.0
 40
0.0
 40
0.015625
 40
0.03125
 40
0.0390625
 40
0.046875
 40
0.0546875
 40
0.05859375
 40
0.060546875
 40
0.0625
 40
0.064453125
 40
0.06640625
 40
0.0703125
 40
0.078125
 40
0.0859375
 40
0.09375
 40
0.1015625
 40
0.109375
 40
0.11328125
 40
0.1171875
 40
0.12109375
 40
0.123046875
 40
0.125
 40
0.126953125
 40
0.12890625
 40
0.1328125
 40
0.13671875
 40
0.140625
 40
0.1484375
 40
0.15625
 40
0.1640625
 40
0.171875
 40
0.17578125
 40
0.1796875
 40
0.18359375
 40
0.185546875
 40
0.1865234375
 40
0.1875
 40
0.1884765625
 40
0.189453125
 40
0.19140625
 40
0.1953125
 40
0.19921875
 40
0.203125
 40
0.2109375
 40
0.21875
 40
0.2265625
 40
0.234375
 40
0.23828125
 40
0.2421875
 40
0.244140625
 40
0.24609375
 40
0.248046875
 40
0.2490234375
 40
0.2495117188
 40
0.25
 40
0.2504882812
 40
0.2509765625
 40
0.251953125
 40
0.25390625
 40
0.255859375
 40
0.2578125
 40
0.26171875
 40
0.265625
 40
0.2734375
 40
0.28125
 40
0.2890625
 40
0.296875
 40
0.30078125
 40
0.3046875
 40
0.306640625
 40
0.30859375
 40
0.310546875
 40
0.3115234375
 40
0.3120117188
 40
0.3125
 40
0.3129882812
 40
0.3134765625
 40
0.314453125
 40
0.31640625
 40
0.318359375
 40
0.3203125
 40
0.32421875
 40
0.328125
 40
0.3359375
 40
0.34375
 40
0.3515625
 40
0.359375
 40
0.36328125
 40
0.3671875
 40
0.369140625
 40
0.37109375
 40
0.373046875
 40
0.3740234375
 40
0.3745117188
 40
0.375
 40
0.3754882812
 40
0.3759765625
 40
0.376953125
 40
0.37890625
 40
0.380859375
 40
0.3828125
 40
0.38671875
 40
0.390625
 40
0.3984375
 40
0.40625
 40
0.4140625
 40
0.421875
 40
0.42578125
 40
0.4296875
 40
0.431640625
 40
0.43359375
 40
0.435546875
 40
0.4365234375
 40
0.4370117188
 40
0.4375
 40
0.4379882812
 40
0.4384765625
 40
0.439453125
 40
0.44140625
 40
0.443359375
 40
0.4453125
 40
0.44921875
 40
0.453125
 40
0.4609375
 40
0.46875
 40
0.4765625
 40
0.484375
 40
0.48828125
 40
0.4921875
 40
0.494140625
 40
0.49609375
 40
0.498046875
 40
0.4990234375
 40
0.4995117188
 40
0.5
 40
0.5004882812
 40
0.5009765625
 40
0.501953125
 40
0.50390625
 40
0.505859375
 40
0.5078125
 40
0.51171875
 40
0.515625
 40
0.5234375
 40
0.53125
 40
0.5390625
 40
0.546875
 40
0.55078125
 40
0.5546875
 40
0.556640625
 40
0.55859375
 40
0.560546875
 40
0.5615234375
 40
0.5620117188
 40
0.5625
 40
0.5629882812
 40
0.5634765625
 40
0.564453125
 40
0.56640625
 40
0.568359375
 40
0.5703125
 40
0.57421875
 40
0.578125
 40
0.5859375
 40
0.59375
 40
0.6015625
 40
0.609375
 40
0.61328125
 40
0.6171875
 40
0.619140625
 40
0.62109375
 40
0.623046875
 40
0.6240234375
 40
0.6245117188
 40
0.625
 40
0.6254882812
 40
0.6259765625
 40
0.626953125
 40
0.62890625
 40
0.630859375
 40
0.6328125
 40
0.63671875
 40
0.640625
 40
0.6484375
 40
0.65625
 40
0.6640625
 40
0.671875
 40
0.67578125
 40
0.6796875
 40
0.681640625
 40
0.68359375
 40
0.685546875
 40
0.6865234375
 40
0.6870117188
 40
0.6875
 40
0.6879882812
 40
0.6884765625
 40
0.689453125
 40
0.69140625
 40
0.693359375
 40
0.6953125
 40
0.69921875
 40
0.703125
 40
0.7109375
 40
0.71875
 40
0.7265625
 40
0.734375
 40
0.73828125
 40
0.7421875
 40
0.744140625
 40
0.74609375
 40
0.748046875
 40
0.7490234375
 40
0.7495117188
 40
0.75
 40
0.7504882812
 40
0.7509765625
 40
0.751953125
 40
0.75390625
 40
0.755859375
 40
0.7578125
 40
0.76171875
 40
0.765625
 40
0.7734375
 40
0.78125
 40
0.7890625
 40
0.796875
 40
0.80078125
 40
0.8046875
 40
0.806640625
 40
0.80859375
 40
0.810546875
 40
0.8115234375
 40
0.8120117188
 40
0.8125
 40
0.8129882812
 40
0.8134765625
 40
0.814453125
 40
0.81640625
 40
0.818359375
 40
0.8203125
 40
0.82421875
 40
0.828125
 40
0.8359375
 40
0.84375
 40
0.8515625
 40
0.859375
 40
0.86328125
 40
0.8671875
 40
0.869140625
 40
0.87109375
 40
0.873046875
 40
0.8740234375
 40
0.8745117188
 40
0.875
 40
0.8754882812
 40
0.8759765625
 40
0.876953125
 40
0.87890625
 40
0.880859375
 40
0.8828125
 40
0.88671875
 40
0.890625
 40
0.8984375
 40
0.90625
 40
0.9140625
 40
0.921875
 40
0.92578125
 40
0.9296875
 40
0.931640625
 40
0.93359375
 40
0.935546875
 40
0.9365234375
 40
0.9375
 40
0.9384765625
 40
0.939453125
 40
0.94140625
 40
0.943359375
 40
0.9453125
 40
0.94921875
 40
0.953125
 40
0.9609375
 40
0.96875
 40
0.9765625
 40
0.984375
 40
1.0
 40
1.0
 40
1.0
 40
1.0
 10
10.5913948604
 20
9.7956835997
 30
0.0
 10
10.5887152736
 20
9.7957984123
 30
0.0
 10
10.5833560926
 20
9.7960280078
 30
0.0
 10
10.5766571542
 20
9.7963151504
 30
0.0
 10
10.5712979237
 20
9.7965445533
 30
0.0
 10
10.5672787176
 20
9.7967174499
 30
0.0
 10
10.56392869
 20
9.7968588454
 30
0.0
 10
10.5615850229
 20
9.7969630914
 30
0.0
 10
10.5602436733
 20
9.7970144333
 30
0.0
 10
10.5592436087
 20
9.7970761158
 30
0.0
 10
10.5582208093
 20
9.7970492077
 30
0.0
 10
10.556865007
 20
9.7970442316
 30
0.0
 10
10.5544886581
 20
9.7970211259
 30
0.0
 10
10.5510958064
 20
9.7969956452
 30
0.0
 10
10.5470235538
 20
9.7969618454
 30
0.0
 10
10.5429515315
 20
9.7969288937
 30
0.0
 10
10.5388794185
 20
9.7968957722
 30
0.0
 10
10.5354861016
 20
9.7968680304
 30
0.0
 10
10.5327712279
 20
9.7968462591
 30
0.0
 10
10.5307356669
 20
9.7968287486
 30
0.0
 10
10.5290374768
 20
9.7968179208
 30
0.0
 10
10.5276831618
 20
9.7968008152
 30
0.0
 10
10.526655848
 20
9.7968110577
 30
0.0
 10
10.525672726
 20
9.7967332349
 30
0.0
 10
10.52434646
 20
9.7966602335
 30
0.0
 10
10.5226939238
 20
9.7965584273
 30
0.0
 10
10.5207086133
 20
9.7964407775
 30
0.0
 10
10.5180623244
 20
9.7962823332
 30
0.0
 10
10.5147541927
 20
9.7960848181
 30
0.0
 10
10.5107845456
 20
9.7958475738
 30
0.0
 10
10.5068148879
 20
9.7956103697
 30
0.0
 10
10.5035067829
 20
9.7954127541
 30
0.0
 10
10.5008604407
 20
9.7952545107
 30
0.0
 10
10.4988752928
 20
9.7951362481
 30
0.0
 10
10.4972222479
 20
9.7950363593
 30
0.0
 10
10.4960626731
 20
9.7949690602
 30
0.0
 10
10.4954038741
 20
9.7949265079
 30
0.0
 10
10.4948990274
 20
9.7949061312
 30
0.0
 10
10.4944352626
 20
9.7948416523
 30
0.0
 10
10.4938025797
 20
9.7947710638
 30
0.0
 10
10.4927020612
 20
9.7946403665
 30
0.0
 10
10.4911264013
 20
9.7944574033
 30
0.0
 10
10.4892371035
 20
9.7942362435
 30
0.0
 10
10.4867175178
 20
9.7939419241
 30
0.0
 10
10.4835682151
 20
9.7935738324
 30
0.0
 10
10.4797889738
 20
9.7931322054
 30
0.0
 10
10.4760097579
 20
9.7926905544
 30
0.0
 10
10.4728603916
 20
9.7923225225
 30
0.0
 10
10.4703409331
 20
9.7920280836
 30
0.0
 10
10.468766195
 20
9.7918440876
 30
0.0
 10
10.4675065796
 20
9.7916968261
 30
0.0
 10
10.4665613886
 20
9.7915865569
 30
0.0
 10
10.4657752547
 20
9.7914941032
 30
0.0
 10
10.4652219678
 20
9.79143049
 30
0.0
 10
10.4649104774
 20
9.7913924151
 30
0.0
 10
10.4646636942
 20
9.791368717
 30
0.0
 10
10.4644672357
 20
9.7913264485
 30
0.0
 10
10.4641877373
 20
9.7912765681
 30
0.0
 10
10.4637067937
 20
9.7911862593
 30
0.0
 10
10.4630154556
 20
9.7910588246
 30
0.0
 10
10.46218768
 20
9.7909052276
 30
0.0
 10
10.46108334
 20
9.7907006674
 30
0.0
 10
10.4597031339
 20
9.7904448865
 30
0.0
 10
10.4574946818
 20
9.7900356822
 30
0.0
 10
10.4547341589
 20
9.7895241611
 30
0.0
 10
10.4514215119
 20
9.788910343
 30
0.0
 10
10.4481088752
 20
9.7882965215
 30
0.0
 10
10.4453483267
 20
9.7877850089
 30
0.0
 10
10.4431399258
 20
9.7873757877
 30
0.0
 10
10.4417595894
 20
9.7871200498
 30
0.0
 10
10.4406555168
 20
9.7869154013
 30
0.0
 10
10.4398269242
 20
9.7867620741
 30
0.0
 10
10.4391381424
 20
9.7866337953
 30
0.0
 10
10.4386526353
 20
9.7865449934
 30
0.0
 10
10.4383804487
 20
9.7864926985
 30
0.0
 10
10.4381615307
 20
9.7864578464
 30
0.0
 10
10.4379991022
 20
9.7864062934
 30
0.0
 10
10.4377628266
 20
9.7863433816
 30
0.0
 10
10.437358525
 20
9.7862305716
 30
0.0
 10
10.4367761516
 20
9.7860708335
 30
0.0
 10
10.4360793579
 20
9.7858785405
 30
0.0
 10
10.435149582
 20
9.7856223618
 30
0.0
 10
10.4339876079
 20
9.7853020659
 30
0.0
 10
10.432128312
 20
9.7847896331
 30
0.0
 10
10.4298042396
 20
9.784149078
 30
0.0
 10
10.4270153308
 20
9.7833804183
 30
0.0
 10
10.4242264338
 20
9.7826117556
 30
0.0
 10
10.4219023316
 20
9.7819712078
 30
0.0
 10
10.4200430954
 20
9.7814587605
 30
0.0
 10
10.4188809695
 20
9.7811385015
 30
0.0
 10
10.4179515052
 20
9.7808822471
 30
0.0
 10
10.4172537597
 20
9.7806901854
 30
0.0
 10
10.4166743643
 20
9.7805297235
 30
0.0
 10
10.4162647463
 20
9.7804182057
 30
0.0
 10
10.416036989
 20
9.7803532235
 30
0.0
 10
10.4158483954
 20
9.7803080298
 30
0.0
 10
10.415727749
 20
9.7802492931
 30
0.0
 10
10.4155431864
 20
9.7801757015
 30
0.0
 10
10.4152312445
 20
9.7800447151
 30
0.0
 10
10.4147798401
 20
9.7798587425
 30
0.0
 10
10.4142406258
 20
9.7796350827
 30
0.0
 10
10.4135208104
 20
9.7793370417
 30
0.0
 10
10.4126213366
 20
9.7789644316
 30
0.0
 10
10.4111820134
 20
9.7783682884
 30
0.0
 10
10.4093829164
 20
9.777623098
 30
0.0
 10
10.4072239738
 20
9.7767288746
 30
0.0
 10
10.4050650449
 20
9.7758346488
 30
0.0
 10
10.4032659137
 20
9.7750894645
 30
0.0
 10
10.4018266589
 20
9.7744933091
 30
0.0
 10
10.4009270111
 20
9.7741207299
 30
0.0
 10
10.4002075529
 20
9.7738226254
 30
0.0
 10
10.399667247
 20
9.7735991598
 30
0.0
 10
10.3992192581
 20
9.7734125798
 30
0.0
 10
10.3989012189
 20
9.7732826776
 30
0.0
 10
10.3987264258
 20
9.7732073488
 30
0.0
 10
10.3985757707
 20
9.7731539479
 30
0.0
 10
10.3984998849
 20
9.7730887138
 30
0.0
 10
10.3983726235
 20
9.7730058626
 30
0.0
 10
10.3981620674
 20
9.7728589497
 30
0.0
 10
10.3978549201
 20
9.7726500797
 30
0.0
 10
10.3974890626
 20
9.7723990053
 30
0.0
 10
10.3970003028
 20
9.7720643898
 30
0.0
 10
10.3963896783
 20
9.7716460689
 30
0.0
 10
10.3954124972
 20
9.7709767842
 30
0.0
 10
10.3941910837
 20
9.7701401685
 30
0.0
 10
10.3927253585
 20
9.7691362339
 30
0.0
 10
10.3912596488
 20
9.7681322979
 30
0.0
 10
10.3900381966
 20
9.7672956859
 30
0.0
 10
10.3890610928
 20
9.7666263937
 30
0.0
 10
10.3884502718
 20
9.766208092
 30
0.0
 10
10.3879619153
 20
9.765873437
 30
0.0
 10
10.3875948256
 20
9.7656224831
 30
0.0
 10
10.3872915336
 20
9.765413236
 30
0.0
 10
10.3870740951
 20
9.7652669963
 30
0.0
 10
10.386957861
 20
9.7651830666
 30
0.0
 10
10.3868481031
 20
9.7651211451
 30
0.0
 10
10.3868246659
 20
9.7650553024
 30
0.0
 10
10.3867633067
 20
9.7649688799
 30
0.0
 10
10.3866699566
 20
9.7648170032
 30
0.0
 10
10.3865292651
 20
9.7646003697
 30
0.0
 10
10.3863635746
 20
9.7643402669
 30
0.0
 10
10.3861415574
 20
9.763993513
 30
0.0
 10
10.3858644114
 20
9.7635600535
 30
0.0
 10
10.3854207679
 20
9.7628665279
 30
0.0
 10
10.384866286
 20
9.7619996176
 30
0.0
 10
10.3842008746
 20
9.7609593266
 30
0.0
 10
10.3835354796
 20
9.7599190352
 30
0.0
 10
10.3829809565
 20
9.7590521262
 30
0.0
 10
10.3825373955
 20
9.7583585979
 30
0.0
 10
10.3822600398
 20
9.757925145
 30
0.0
 10
10.382038453
 20
9.7575783776
 30
0.0
 10
10.3818714476
 20
9.757318316
 30
0.0
 10
10.3817348699
 20
9.7571015535
 30
0.0
 10
10.381634176
 20
9.7569499072
 30
0.0
 10
10.3815845835
 20
9.7568631156
 30
0.0
 10
10.3815250027
 20
9.7567984067
 30
0.0
 10
10.381550994
 20
9.7567322267
 30
0.0
 10
10.3815558005
 20
9.7566444999
 30
0.0
 10
10.3815781189
 20
9.756490739
 30
0.0
 10
10.3816027316
 20
9.7562712055
 30
0.0
 10
10.3816353789
 20
9.7560077117
 30
0.0
 10
10.3816778216
 20
9.7556564055
 30
0.0
 10
10.3817312473
 20
9.7552172662
 30
0.0
 10
10.3818165202
 20
9.754514647
 30
0.0
 10
10.3819231833
 20
9.7536363717
 30
0.0
 10
10.3820511461
 20
9.7525824419
 30
0.0
 10
10.3821791254
 20
9.7515285122
 30
0.0
 10
10.3822857475
 20
9.7506502366
 30
0.0
 10
10.3823711023
 20
9.749947618
 30
0.0
 10
10.3824243198
 20
9.7495084771
 30
0.0
 10
10.3824671898
 20
9.7491571743
 30
0.0
 10
10.382498532
 20
9.74889367
 30
0.0
 10
10.382527228
 20
9.7486741696
 30
0.0
 10
10.382542257
 20
9.7485203494
 30
0.0
 10
10.382558743
 20
9.7484327176
 30
0.0
 10
10.3825488586
 20
9.7483662459
 30
0.0
 10
10.3826240206
 20
9.7483026329
 30
0.0
 10
10.3826945714
 20
9.7482168185
 30
0.0
 10
10.3828318569
 20
9.7480671079
 30
0.0
 10
10.383020753
 20
9.7478529927
 30
0.0
 10
10.3832505212
 20
9.7475961584
 30
0.0
 10
10.3835557985
 20
9.7472536763
 30
0.0
 10
10.3839377651
 20
9.7468255862
 30
0.0
 10
10.3845487049
 20
9.7461406351
 30
0.0
 10
10.385312451
 20
9.7452844485
 30
0.0
 10
10.3862289137
 20
9.7442570235
 30
0.0
 10
10.3871453927
 20
9.7432295993
 30
0.0
 10
10.387909098
 20
9.7423734108
 30
0.0
 10
10.3885201194
 20
9.7416884636
 30
0.0
 10
10.3889018784
 20
9.7412603635
 30
0.0
 10
10.389207582
 20
9.7409179019
 30
0.0
 10
10.389436048
 20
9.7406610051
 30
0.0
 10
10.3896290184
 20
9.7404470855
 30
0.0
 10
10.3897590304
 20
9.7402970256
 30
0.0
 10
10.3898412352
 20
9.7402117708
 30
0.0
 10
10.3898806
 20
9.7401464389
 30
0.0
 10
10.3900051637
 20
9.7400864234
 30
0.0
 10
10.3901415304
 20
9.7400045483
 30
0.0
 10
10.3903940184
 20
9.7398621308
 30
0.0
 10
10.3907474764
 20
9.7396582256
 30
0.0
 10
10.3911747247
 20
9.7394137327
 30
0.0
 10
10.3917433067
 20
9.7390876746
 30
0.0
 10
10.3924544049
 20
9.7386801251
 30
0.0
 10
10.3935919547
 20
9.7380280329
 30
0.0
 10
10.3950139635
 20
9.7372129223
 30
0.0
 10
10.3967203418
 20
9.7362347872
 30
0.0
 10
10.398426735
 20
9.735256654
 30
0.0
 10
10.3998487062
 20
9.7344415389
 30
0.0
 10
10.4009863314
 20
9.7337894556
 30
0.0
 10
10.4016972381
 20
9.7333818837
 30
0.0
 10
10.4022662131
 20
9.7330558715
 30
0.0
 10
10.4026922608
 20
9.7328112383
 30
0.0
 10
10.4030494751
 20
9.732607772
 30
0.0
 10
10.4032952576
 20
9.732464571
 30
0.0
 10
10.403442368
 20
9.7323839514
 30
0.0
 10
10.4035339302
 20
9.7323200792
 30
0.0
 10
10.4036972434
 20
9.7322692321
 30
0.0
 10
10.4038899668
 20
9.7321968926
 30
0.0
 10
10.4042388935
 20
9.7320724154
 30
0.0
 10
10.4047312637
 20
9.7318934841
 30
0.0
 10
10.4053247175
 20
9.7316792402
 30
0.0
 10
10.4061150779
 20
9.7313934162
 30
0.0
 10
10.4071033403
 20
9.7310361928
 30
0.0
 10
10.4086843858
 20
9.7304646038
 30
0.0
 10
10.4106607528
 20
9.7297501285
 30
0.0
 10
10.4130323659
 20
9.7288927531
 30
0.0
 10
10.4154039921
 20
9.7280353803
 30
0.0
 10
10.4173803265
 20
9.7273208984
 30
0.0
 10
10.4189614374
 20
9.7267493227
 30
0.0
 10
10.4199495336
 20
9.7263920656
 30
0.0
 10
10.4207402351
 20
9.7261063108
 30
0.0
 10
10.4213326465
 20
9.7258918555
 30
0.0
 10
10.4218282782
 20
9.7257135858
 30
0.0
 10
10.4221713826
 20
9.7255879274
 30
0.0
 10
10.4223734348
 20
9.7255174804
 30
0.0
 10
10.4225080929
 20
9.7254608203
 30
0.0
 10
10.4227072786
 20
9.7254187807
 30
0.0
 10
10.4229503516
 20
9.7253576281
 30
0.0
 10
10.4233862162
 20
9.7252529873
 30
0.0
 10
10.4240033972
 20
9.7251022581
 30
0.0
 10
10.4247463612
 20
9.7249219147
 30
0.0
 10
10.4257361601
 20
9.7246812712
 30
0.0
 10
10.4269736895
 20
9.7243805305
 30
0.0
 10
10.4289535796
 20
9.7238993097
 30
0.0
 10
10.4314284964
 20
9.723297796
 30
0.0
 10
10.434398372
 20
9.7225759738
 30
0.0
 10
10.4373682589
 20
9.7218541548
 30
0.0
 10
10.4398431476
 20
9.7212526333
 30
0.0
 10
10.4418230937
 20
9.720771428
 30
0.0
 10
10.4430604806
 20
9.7204706479
 30
0.0
 10
10.4440505721
 20
9.7202300851
 30
0.0
 10
10.4447926423
 20
9.7200494954
 30
0.0
 10
10.4454126199
 20
9.719899537
 30
0.0
 10
10.4458434921
 20
9.7197935201
 30
0.0
 10
10.4460945641
 20
9.7197345722
 30
0.0
 10
10.4462691792
 20
9.7196857607
 30
0.0
 10
10.4464961206
 20
9.7196545351
 30
0.0
 10
10.4467804571
 20
9.7196067668
 30
0.0
 10
10.4472865499
 20
9.7195260304
 30
0.0
 10
10.4480050938
 20
9.7194091984
 30
0.0
 10
10.4488692494
 20
9.7192696396
 30
0.0
 10
10.4500207922
 20
9.7190833378
 30
0.0
 10
10.4514604483
 20
9.7188505371
 30
0.0
 10
10.4537637709
 20
9.7184780132
 30
0.0
 10
10.4566429672
 20
9.7180123726
 30
0.0
 10
10.4600979873
 20
9.7174535991
 30
0.0
 10
10.4635530001
 20
9.7168948221
 30
0.0
 10
10.4664322147
 20
9.7164291904
 30
0.0
 10
10.4687355005
 20
9.7160566487
 30
0.0
 10
10.4701752501
 20
9.7158238931
 30
0.0
 10
10.471326601
 20
9.7156374987
 30
0.0
 10
10.4721913431
 20
9.715498223
 30
0.0
 10
10.4729080518
 20
9.7153805051
 30
0.0
 10
10.4734901878
 20
9.7152900424
 30
0.0
 10
10.4739028285
 20
9.7152120534
 30
0.0
 10
10.4744069297
 20
9.7151727763
 30
0.0
 10
10.4750471163
 20
9.7151068842
 30
0.0
 10
10.4758583108
 20
9.7150291586
 30
0.0
 10
10.4768270525
 20
9.7149339021
 30
0.0
 10
10.4781203468
 20
9.714807587
 30
0.0
 10
10.4797364036
 20
9.7146494556
 30
0.0
 10
10.4823224081
 20
9.7143965781
 30
0.0
 10
10.485554806
 20
9.7140804357
 30
0.0
 10
10.4894337297
 20
9.7137010843
 30
0.0
 10
10.4933126411
 20
9.7133217277
 30
0.0
 10
10.4984845272
 20
9.7128159208
 30
0.0
 10
10.5023634408
 20
9.7124365651
 30
0.0
 10
10.5049493835
 20
9.7121836615
 30
0.0
  0
SPLINE
  5
414
100
AcDbEntity
  8
0
100
AcDbSpline
 62
4
  6
CONTINUOUS
 70
0
 71
3
 72
292
 73
288
 74
0
 42
0.0000001
 43
0.0000001
 44
0.0000000001
 40
0.0
 40
0.0
 40
0.0
 40
0.0
 40
0.015625
 40
0.03125
 40
0.0390625
 40
0.046875
 40
0.0546875
 40
0.05859375
 40
0.060546875
 40
0.0625
 40
0.064453125
 40
0.06640625
 40
0.0703125
 40
0.078125
 40
0.0859375
 40
0.09375
 40
0.1015625
 40
0.109375
 40
0.11328125
 40
0.1171875
 40
0.12109375
 40
0.123046875
 40
0.125
 40
0.126953125
 40
0.12890625
 40
0.1328125
 40
0.13671875
 40
0.140625
 40
0.1484375
 40
0.15625
 40
0.1640625
 40
0.171875
 40
0.17578125
 40
0.1796875
 40
0.18359375
 40
0.185546875
 40
0.1865234375
 40
0.1875
 40
0.1884765625
 40
0.189453125
 40
0.19140625
 40
0.1953125
 40
0.19921875
 40
0.203125
 40
0.2109375
 40
0.21875
 40
0.2265625
 40
0.234375
 40
0.23828125
 40
0.2421875
 40
0.244140625
 40
0.24609375
 40
0.248046875
 40
0.2490234375
 40
0.2495117188
 40
0.25
 40
0.2504882812
 40
0.2509765625
 40
0.251953125
 40
0.25390625
 40
0.255859375
 40
0.2578125
 40
0.26171875
 40
0.265625
 40
0.2734375
 40
0.28125
 40
0.2890625
 40
0.296875
 40
0.30078125
 40
0.3046875
 40
0.306640625
 40
0.30859375
 40
0.310546875
 40
0.3115234375
 40
0.3120117188
 40
0.3125
 40
0.3129882812
 40
0.3134765625
 40
0.314453125
 40
0.31640625
 40
0.318359375
 40
0.3203125
 40
0.32421875
 40
0.328125
 40
0.3359375
 40
0.34375
 40
0.3515625
 40
0.359375
 40
0.36328125
 40
0.3671875
 40
0.369140625
 40
0.37109375
 40
0.373046875
 40
0.3740234375
 40
0.3745117188
 40
0.375
 40
0.3754882812
 40
0.3759765625
 40
0.376953125
 40
0.37890625
 40
0.380859375
 40
0.3828125
 40
0.38671875
 40
0.390625
 40
0.3984375
 40
0.40625
 40
0.4140625
 40
0.421875
 40
0.42578125
 40
0.4296875
 40
0.431640625
 40
0.43359375
 40
0.435546875
 40
0.4365234375
 40
0.4370117188
 40
0.4375
 40
0.4379882812
 40
0.4384765625
 40
0.439453125
 40
0.44140625
 40
0.443359375
 40
0.4453125
 40
0.44921875
 40
0.453125
 40
0.4609375
 40
0.46875
 40
0.4765625
 40
0.484375
 40
0.48828125
 40
0.4921875
 40
0.494140625
 40
0.49609375
 40
0.498046875
 40
0.4990234375
 40
0.4995117188
 40
0.5
 40
0.5004882812
 40
0.5009765625
 40
0.501953125
 40
0.50390625
 40
0.505859375
 40
0.5078125
 40
0.51171875
 40
0.515625
 40
0.5234375
 40
0.53125
 40
0.5390625
 40
0.546875
 40
0.55078125
 40
0.5546875
 40
0.556640625
 40
0.55859375
 40
0.560546875
 40
0.5615234375
 40
0.5620117188
 40
0.5625
 40
0.5629882812
 40
0.5634765625
 40
0.564453125
 40
0.56640625
 40
0.568359375
 40
0.5703125
 40
0.57421875
 40
0.578125
 40
0.5859375
 40
0.59375
 40
0.6015625
 40
0.609375
 40
0.61328125
 40
0.6171875
 40
0.619140625
 40
0.62109375
 40
0.623046875
 40
0.6240234375
 40
0.6245117188
 40
0.625
 40
0.6254882812
 40
0.6259765625
 40
0.626953125
 40
0.62890625
 40
0.630859375
 40
0.6328125
 40
0.63671875
 40
0.640625
 40
0.6484375
 40
0.65625
 40
0.6640625
 40
0.671875
 40
0.67578125
 40
0.6796875
 40
0.681640625
 40
0.68359375
 40
0.685546875
 40
0.6865234375
 40
0.6870117188
 40
0.6875
 40
0.6879882812
 40
0.6884765625
 40
0.689453125
 40
0.69140625
 40
0.693359375
 40
0.6953125
 40
0.69921875
 40
0.703125
 40
0.7109375
 40
0.71875
 40
0.7265625
 40
0.734375
 40
0.73828125
 40
0.7421875
 40
0.744140625
 40
0.74609375
 40
0.748046875
 40
0.7490234375
 40
0.7495117188
 40
0.75
 40
0.7504882812
 40
0.7509765625
 40
0.751953125
 40
0.75390625
 40
0.755859375
 40
0.7578125
 40
0.76171875
 40
0.765625
 40
0.7734375
 40
0.78125
 40
0.7890625
 40
0.796875
 40
0.80078125
 40
0.8046875
 40
0.806640625
 40
0.80859375
 40
0.810546875
 40
0.8115234375
 40
0.8120117188
 40
0.8125
 40
0.8129882812
 40
0.8134765625
 40
0.814453125
 40
0.81640625
 40
0.818359375
 40
0.8203125
 40
0.82421875
 40
0.828125
 40
0.8359375
 40
0.84375
 40
0.8515625
 40
0.859375
 40
0.86328125
 40
0.8671875
 40
0.869140625
 40
0.87109375
 40
0.873046875
 40
0.8740234375
 40
0.8745117188
 40
0.875
 40
0.8754882812
 40
0.8759765625
 40
0.876953125
 40
0.87890625
 40
0.880859375
 40
0.8828125
 40
0.88671875
 40
0.890625
 40
0.8984375
 40
0.90625
 40
0.9140625
 40
0.921875
 40
0.92578125
 40
0.9296875
 40
0.931640625
 40
0.93359375
 40
0.935546875
 40
0.9365234375
 40
0.9375
 40
0.9384765625
 40
0.939453125
 40
0.94140625
 40
0.943359375
 40
0.9453125
 40
0.94921875
 40
0.953125
 40
0.9609375
 40
0.96875
 40
0.9765625
 40
0.984375
 40
1.0
 40
1.0
 40
1.0
 40
1.0
 10
10.5049493694
 20
9.7121836625
 30
0.0
 10
10.5076289561
 20
9.7120688499
 30
0.0
 10
10.5129881372
 20
9.7118392544
 30
0.0
 10
10.5196870755
 20
9.7115521118
 30
0.0
 10
10.525046306
 20
9.7113227089
 30
0.0
 10
10.5290655122
 20
9.7111498123
 30
0.0
 10
10.5324155397
 20
9.7110084168
 30
0.0
 10
10.5347592068
 20
9.7109041709
 30
0.0
 10
10.5361005564
 20
9.7108528289
 30
0.0
 10
10.5371006211
 20
9.7107911464
 30
0.0
 10
10.5381234204
 20
9.7108180545
 30
0.0
 10
10.5394792227
 20
9.7108230306
 30
0.0
 10
10.5418555716
 20
9.7108461363
 30
0.0
 10
10.5452484233
 20
9.710871617
 30
0.0
 10
10.5493206759
 20
9.7109054169
 30
0.0
 10
10.5533926982
 20
9.7109383685
 30
0.0
 10
10.5574648112
 20
9.71097149
 30
0.0
 10
10.5608581281
 20
9.7109992318
 30
0.0
 10
10.5635730018
 20
9.7110210031
 30
0.0
 10
10.5656085628
 20
9.7110385136
 30
0.0
 10
10.5673067529
 20
9.7110493414
 30
0.0
 10
10.5686610679
 20
9.711066447
 30
0.0
 10
10.5696883818
 20
9.7110562045
 30
0.0
 10
10.5706715037
 20
9.7111340273
 30
0.0
 10
10.5719977697
 20
9.7112070287
 30
0.0
 10
10.573650306
 20
9.7113088349
 30
0.0
 10
10.5756356164
 20
9.7114264847
 30
0.0
 10
10.5782819053
 20
9.711584929
 30
0.0
 10
10.581590037
 20
9.7117824441
 30
0.0
 10
10.5855596841
 20
9.7120196884
 30
0.0
 10
10.5895293419
 20
9.7122568925
 30
0.0
 10
10.5928374468
 20
9.7124545081
 30
0.0
 10
10.5954837891
 20
9.7126127515
 30
0.0
 10
10.5974689369
 20
9.7127310142
 30
0.0
 10
10.5991219818
 20
9.7128309029
 30
0.0
 10
10.6002815566
 20
9.712898202
 30
0.0
 10
10.6009403557
 20
9.7129407543
 30
0.0
 10
10.6014452023
 20
9.712961131
 30
0.0
 10
10.6019089671
 20
9.7130256099
 30
0.0
 10
10.60254165
 20
9.7130961984
 30
0.0
 10
10.6036421685
 20
9.7132268957
 30
0.0
 10
10.6052178284
 20
9.7134098589
 30
0.0
 10
10.6071071262
 20
9.7136310187
 30
0.0
 10
10.6096267119
 20
9.7139253381
 30
0.0
 10
10.6127760146
 20
9.7142934298
 30
0.0
 10
10.6165552559
 20
9.7147350568
 30
0.0
 10
10.6203344718
 20
9.7151767078
 30
0.0
 10
10.6234838381
 20
9.7155447397
 30
0.0
 10
10.6260032966
 20
9.7158391786
 30
0.0
 10
10.6275780347
 20
9.7160231746
 30
0.0
 10
10.6288376501
 20
9.7161704361
 30
0.0
 10
10.6297828411
 20
9.7162807053
 30
0.0
 10
10.630568975
 20
9.716373159
 30
0.0
 10
10.6311222619
 20
9.7164367722
 30
0.0
 10
10.6314337523
 20
9.7164748472
 30
0.0
 10
10.6316805355
 20
9.7164985452
 30
0.0
 10
10.631876994
 20
9.7165408137
 30
0.0
 10
10.6321564924
 20
9.7165906941
 30
0.0
 10
10.632637436
 20
9.7166810029
 30
0.0
 10
10.6333287741
 20
9.7168084376
 30
0.0
 10
10.6341565497
 20
9.7169620347
 30
0.0
 10
10.6352608897
 20
9.7171665948
 30
0.0
 10
10.6366410958
 20
9.7174223757
 30
0.0
 10
10.638849548
 20
9.7178315801
 30
0.0
 10
10.6416100708
 20
9.7183431011
 30
0.0
 10
10.6449227178
 20
9.7189569192
 30
0.0
 10
10.6482353545
 20
9.7195707407
 30
0.0
 10
10.650995903
 20
9.7200822533
 30
0.0
 10
10.6532043039
 20
9.7204914745
 30
0.0
 10
10.6545846404
 20
9.7207472124
 30
0.0
 10
10.6556887129
 20
9.7209518609
 30
0.0
 10
10.6565173055
 20
9.7211051881
 30
0.0
 10
10.6572060873
 20
9.7212334669
 30
0.0
 10
10.6576915944
 20
9.7213222688
 30
0.0
 10
10.657963781
 20
9.7213745637
 30
0.0
 10
10.6581826991
 20
9.7214094158
 30
0.0
 10
10.6583451275
 20
9.7214609688
 30
0.0
 10
10.6585814031
 20
9.7215238807
 30
0.0
 10
10.6589857047
 20
9.7216366906
 30
0.0
 10
10.6595680781
 20
9.7217964287
 30
0.0
 10
10.6602648718
 20
9.7219887218
 30
0.0
 10
10.6611946477
 20
9.7222449004
 30
0.0
 10
10.6623566218
 20
9.7225651963
 30
0.0
 10
10.6642159177
 20
9.7230776291
 30
0.0
 10
10.6665399901
 20
9.7237181842
 30
0.0
 10
10.669328899
 20
9.7244868439
 30
0.0
 10
10.6721177959
 20
9.7252555066
 30
0.0
 10
10.6744418981
 20
9.7258960544
 30
0.0
 10
10.6763011343
 20
9.7264085017
 30
0.0
 10
10.6774632602
 20
9.7267287607
 30
0.0
 10
10.6783927245
 20
9.7269850151
 30
0.0
 10
10.67909047
 20
9.7271770768
 30
0.0
 10
10.6796698654
 20
9.7273375387
 30
0.0
 10
10.6800794834
 20
9.7274490565
 30
0.0
 10
10.6803072408
 20
9.7275140387
 30
0.0
 10
10.6804958343
 20
9.7275592324
 30
0.0
 10
10.6806164807
 20
9.7276179691
 30
0.0
 10
10.6808010433
 20
9.7276915607
 30
0.0
 10
10.6811129852
 20
9.7278225471
 30
0.0
 10
10.6815643896
 20
9.7280085198
 30
0.0
 10
10.6821036039
 20
9.7282321795
 30
0.0
 10
10.6828234193
 20
9.7285302205
 30
0.0
 10
10.6837228931
 20
9.7289028306
 30
0.0
 10
10.6851622163
 20
9.7294989738
 30
0.0
 10
10.6869613133
 20
9.7302441642
 30
0.0
 10
10.6891202559
 20
9.7311383876
 30
0.0
 10
10.6912791848
 20
9.7320326134
 30
0.0
 10
10.693078316
 20
9.7327777977
 30
0.0
 10
10.6945175708
 20
9.7333739531
 30
0.0
 10
10.6954172187
 20
9.7337465323
 30
0.0
 10
10.6961366768
 20
9.7340446368
 30
0.0
 10
10.6966769827
 20
9.7342681024
 30
0.0
 10
10.6971249716
 20
9.7344546824
 30
0.0
 10
10.6974430108
 20
9.7345845846
 30
0.0
 10
10.6976178039
 20
9.7346599134
 30
0.0
 10
10.697768459
 20
9.7347133143
 30
0.0
 10
10.6978443448
 20
9.7347785484
 30
0.0
 10
10.6979716062
 20
9.7348613997
 30
0.0
 10
10.6981821623
 20
9.7350083125
 30
0.0
 10
10.6984893096
 20
9.7352171825
 30
0.0
 10
10.6988551671
 20
9.7354682569
 30
0.0
 10
10.6993439269
 20
9.7358028724
 30
0.0
 10
10.6999545514
 20
9.7362211933
 30
0.0
 10
10.7009317325
 20
9.736890478
 30
0.0
 10
10.702153146
 20
9.7377270938
 30
0.0
 10
10.7036188712
 20
9.7387310283
 30
0.0
 10
10.705084581
 20
9.7397349644
 30
0.0
 10
10.7063060331
 20
9.7405715763
 30
0.0
 10
10.7072831369
 20
9.7412408685
 30
0.0
 10
10.7078939579
 20
9.7416591702
 30
0.0
 10
10.7083823144
 20
9.7419938252
 30
0.0
 10
10.7087494041
 20
9.7422447791
 30
0.0
 10
10.7090526961
 20
9.7424540262
 30
0.0
 10
10.7092701346
 20
9.7426002659
 30
0.0
 10
10.7093863687
 20
9.7426841956
 30
0.0
 10
10.7094961266
 20
9.7427461171
 30
0.0
 10
10.7095195638
 20
9.7428119598
 30
0.0
 10
10.709580923
 20
9.7428983823
 30
0.0
 10
10.7096742731
 20
9.743050259
 30
0.0
 10
10.7098149646
 20
9.7432668925
 30
0.0
 10
10.7099806551
 20
9.7435269953
 30
0.0
 10
10.7102026723
 20
9.7438737492
 30
0.0
 10
10.7104798183
 20
9.7443072087
 30
0.0
 10
10.7109234618
 20
9.7450007343
 30
0.0
 10
10.7114779437
 20
9.7458676446
 30
0.0
 10
10.7121433551
 20
9.7469079356
 30
0.0
 10
10.7128087501
 20
9.747948227
 30
0.0
 10
10.7133632732
 20
9.7488151361
 30
0.0
 10
10.7138068343
 20
9.7495086643
 30
0.0
 10
10.71408419
 20
9.7499421172
 30
0.0
 10
10.7143057768
 20
9.7502888846
 30
0.0
 10
10.7144727821
 20
9.7505489462
 30
0.0
 10
10.7146093598
 20
9.7507657087
 30
0.0
 10
10.7147100537
 20
9.750917355
 30
0.0
 10
10.7147596462
 20
9.7510041466
 30
0.0
 10
10.714819227
 20
9.7510688555
 30
0.0
 10
10.7147932357
 20
9.7511350355
 30
0.0
 10
10.7147884292
 20
9.7512227623
 30
0.0
 10
10.7147661108
 20
9.7513765232
 30
0.0
 10
10.7147414982
 20
9.7515960567
 30
0.0
 10
10.7147088508
 20
9.7518595505
 30
0.0
 10
10.7146664081
 20
9.7522108568
 30
0.0
 10
10.7146129824
 20
9.752649996
 30
0.0
 10
10.7145277095
 20
9.7533526152
 30
0.0
 10
10.7144210464
 20
9.7542308905
 30
0.0
 10
10.7142930836
 20
9.7552848203
 30
0.0
 10
10.7141651044
 20
9.75633875
 30
0.0
 10
10.7140584822
 20
9.7572170256
 30
0.0
 10
10.7139731274
 20
9.7579196442
 30
0.0
 10
10.7139199099
 20
9.7583587851
 30
0.0
 10
10.7138770399
 20
9.7587100879
 30
0.0
 10
10.7138456977
 20
9.7589735923
 30
0.0
 10
10.7138170017
 20
9.7591930926
 30
0.0
 10
10.7138019727
 20
9.7593469128
 30
0.0
 10
10.7137854867
 20
9.7594345446
 30
0.0
 10
10.7137953711
 20
9.7595010163
 30
0.0
 10
10.7137202091
 20
9.7595646293
 30
0.0
 10
10.7136496583
 20
9.7596504437
 30
0.0
 10
10.7135123728
 20
9.7598001543
 30
0.0
 10
10.7133234768
 20
9.7600142695
 30
0.0
 10
10.7130937085
 20
9.7602711038
 30
0.0
 10
10.7127884312
 20
9.7606135859
 30
0.0
 10
10.7124064646
 20
9.761041676
 30
0.0
 10
10.7117955248
 20
9.7617266272
 30
0.0
 10
10.7110317787
 20
9.7625828137
 30
0.0
 10
10.710115316
 20
9.7636102387
 30
0.0
 10
10.709198837
 20
9.7646376629
 30
0.0
 10
10.7084351317
 20
9.7654938514
 30
0.0
 10
10.7078241103
 20
9.7661787986
 30
0.0
 10
10.7074423514
 20
9.7666068987
 30
0.0
 10
10.7071366478
 20
9.7669493603
 30
0.0
 10
10.7069081818
 20
9.7672062571
 30
0.0
 10
10.7067152113
 20
9.7674201767
 30
0.0
 10
10.7065851993
 20
9.7675702366
 30
0.0
 10
10.7065029945
 20
9.7676554914
 30
0.0
 10
10.7064636297
 20
9.7677208233
 30
0.0
 10
10.706339066
 20
9.7677808388
 30
0.0
 10
10.7062026993
 20
9.7678627139
 30
0.0
 10
10.7059502114
 20
9.7680051314
 30
0.0
 10
10.7055967533
 20
9.7682090366
 30
0.0
 10
10.705169505
 20
9.7684535295
 30
0.0
 10
10.704600923
 20
9.7687795876
 30
0.0
 10
10.7038898248
 20
9.7691871371
 30
0.0
 10
10.702752275
 20
9.7698392293
 30
0.0
 10
10.7013302662
 20
9.7706543399
 30
0.0
 10
10.699623888
 20
9.771632475
 30
0.0
 10
10.6979174947
 20
9.7726106082
 30
0.0
 10
10.6964955235
 20
9.7734257233
 30
0.0
 10
10.6953578983
 20
9.7740778066
 30
0.0
 10
10.6946469917
 20
9.7744853785
 30
0.0
 10
10.6940780166
 20
9.7748113907
 30
0.0
 10
10.6936519689
 20
9.7750560239
 30
0.0
 10
10.6932947547
 20
9.7752594902
 30
0.0
 10
10.6930489721
 20
9.7754026912
 30
0.0
 10
10.6929018617
 20
9.7754833108
 30
0.0
 10
10.6928102995
 20
9.775547183
 30
0.0
 10
10.6926469863
 20
9.7755980301
 30
0.0
 10
10.6924542629
 20
9.7756703696
 30
0.0
 10
10.6921053363
 20
9.7757948468
 30
0.0
 10
10.691612966
 20
9.7759737782
 30
0.0
 10
10.6910195122
 20
9.7761880221
 30
0.0
 10
10.6902291519
 20
9.776473846
 30
0.0
 10
10.6892408894
 20
9.7768310694
 30
0.0
 10
10.6876598439
 20
9.7774026584
 30
0.0
 10
10.6856834769
 20
9.7781171337
 30
0.0
 10
10.6833118638
 20
9.7789745091
 30
0.0
 10
10.6809402376
 20
9.7798318819
 30
0.0
 10
10.6789639032
 20
9.7805463638
 30
0.0
 10
10.6773827923
 20
9.7811179396
 30
0.0
 10
10.6763946961
 20
9.7814751966
 30
0.0
 10
10.6756039946
 20
9.7817609514
 30
0.0
 10
10.6750115832
 20
9.7819754068
 30
0.0
 10
10.6745159515
 20
9.7821536765
 30
0.0
 10
10.6741728471
 20
9.7822793348
 30
0.0
 10
10.6739707949
 20
9.7823497818
 30
0.0
 10
10.6738361368
 20
9.782406442
 30
0.0
 10
10.6736369511
 20
9.7824484815
 30
0.0
 10
10.6733938781
 20
9.7825096341
 30
0.0
 10
10.6729580135
 20
9.7826142749
 30
0.0
 10
10.6723408325
 20
9.7827650042
 30
0.0
 10
10.6715978685
 20
9.7829453475
 30
0.0
 10
10.6706080696
 20
9.783185991
 30
0.0
 10
10.6693705402
 20
9.7834867318
 30
0.0
 10
10.6673906501
 20
9.7839679526
 30
0.0
 10
10.6649157333
 20
9.7845694663
 30
0.0
 10
10.6619458577
 20
9.7852912884
 30
0.0
 10
10.6589759708
 20
9.7860131074
 30
0.0
 10
10.6565010821
 20
9.7866146289
 30
0.0
 10
10.654521136
 20
9.7870958342
 30
0.0
 10
10.6532837491
 20
9.7873966143
 30
0.0
 10
10.6522936576
 20
9.7876371771
 30
0.0
 10
10.6515515874
 20
9.7878177668
 30
0.0
 10
10.6509316098
 20
9.7879677252
 30
0.0
 10
10.6505007377
 20
9.7880737421
 30
0.0
 10
10.6502496656
 20
9.78813269
 30
0.0
 10
10.6500750505
 20
9.7881815016
 30
0.0
 10
10.6498481091
 20
9.7882127271
 30
0.0
 10
10.6495637726
 20
9.7882604954
 30
0.0
 10
10.6490576798
 20
9.7883412318
 30
0.0
 10
10.6483391359
 20
9.7884580638
 30
0.0
 10
10.6474749803
 20
9.7885976226
 30
0.0
 10
10.6463234375
 20
9.7887839244
 30
0.0
 10
10.6448837814
 20
9.7890167251
 30
0.0
 10
10.6425804588
 20
9.7893892491
 30
0.0
 10
10.6397012626
 20
9.7898548896
 30
0.0
 10
10.6362462424
 20
9.7904136631
 30
0.0
 10
10.6327912296
 20
9.7909724401
 30
0.0
 10
10.629912015
 20
9.7914380718
 30
0.0
 10
10.6276087292
 20
9.7918106135
 30
0.0
 10
10.6261689796
 20
9.7920433691
 30
0.0
 10
10.6250176287
 20
9.7922297636
 30
0.0
 10
10.6241528866
 20
9.7923690392
 30
0.0
 10
10.6234361779
 20
9.7924867571
 30
0.0
 10
10.6228540419
 20
9.7925772198
 30
0.0
 10
10.6224414012
 20
9.7926552088
 30
0.0
 10
10.6219373
 20
9.7926944859
 30
0.0
 10
10.6212971134
 20
9.792760378
 30
0.0
 10
10.6204859189
 20
9.7928381036
 30
0.0
 10
10.6195171772
 20
9.7929333601
 30
0.0
 10
10.6182238829
 20
9.7930596752
 30
0.0
 10
10.6166078261
 20
9.7932178066
 30
0.0
 10
10.6140218216
 20
9.7934706841
 30
0.0
 10
10.6107894237
 20
9.7937868265
 30
0.0
 10
10.6069105
 20
9.7941661779
 30
0.0
 10
10.6030315886
 20
9.7945455345
 30
0.0
 10
10.5978597025
 20
9.7950513414
 30
0.0
 10
10.5939807889
 20
9.7954306971
 30
0.0
 10
10.5913948463
 20
9.7956836007
 30
0.0
  0
ELLIPSE
  5
415
100
AcDbEntity
  8
0
100
AcDbEllipse
 62
7
  6
CONTINUOUS
 10
10.6898484047
 20
8.955909074
 30
0.0
 11
-0.1136445354
 21
0.1925936577
 31
0.0
 40
0.9263984221
 41
0.0
 42
6.2831853072
  0
ELLIPSE
  5
416
100
AcDbEntity
  8
0
100
AcDbEllipse
 62
7
  6
CONTINUOUS
 10
11.5995907898
 20
7.8910279976
 30
0.0
 11
0.1989453661
 21
-0.0949714021
 31
0.0
 40
0.9095800463
 41
0.0
 42
6.2831853072
  0
ELLIPSE
  5
417
100
AcDbEntity
  8
0
100
AcDbEllipse
 62
7
  6
CONTINUOUS
 10
9.7801061347
 20
8.017209687
 30
0.0
 11
0.1989453661
 21
-0.0949714021
 31
0.0
 40
0.9095800463
 41
0.0
 42
6.2831853072
  0
ELLIPSE
  5
418
100
AcDbEntity
  8
0
100
AcDbEllipse
 62
7
  6
CONTINUOUS
 10
10.3029955936
 20
8.4035026514
 30
0.0
 11
0.2113841472
 21
-0.0239311316
 31
0.0
 40
0.9299803463
 41
0.0
 42
6.2831853072
  0
ELLIPSE
  5
419
100
AcDbEntity
  8
0
100
AcDbEllipse
 62
7
  6
CONTINUOUS
 10
11.082014446
 20
8.3474475736
 30
0.0
 11
-0.1351658165
 21
0.1746059688
 31
0.0
 40
0.9319380116
 41
0.0
 42
6.2831853072
  0
ENDSEC
  0
SECTION
  2
OBJECTS
  0
DICTIONARY
  5
C
100
AcDbDictionary
280
0
281
1
  3
ACAD_GROUP
350
D
  3
ACAD_MLINESTYLE
350
17
  3
ACAD_LAYOUT
350
1A
  3
ACAD_PLOTSETTINGS
350
19
  3
ACAD_PLOTSTYLENAME
350
E
  3
ACAD_IMAGE_DICT
350
       41B
  3
ACAD_IMAGE_VARS
350
       41C
  3
ACAD_TABLESTYLE
350
       41D
  0
IMAGEDEF_REACTOR
  5
41A
100
AcDbRasterImageDefReactor
 90
2
330
278
  0
DICTIONARY
  5
D
102
{ACAD_REACTORS
330
C
102
}
100
AcDbDictionary
280
0
281
1
  0
ACDBDICTIONARYWDFLT
  5
E
102
{ACAD_REACTORS
330
C
102
}
100
AcDbDictionary
281
1
  3
Normal
350
F
100
AcDbDictionaryWithDefault
340
F
  0
DICTIONARY
  5
41B
330
C
100
AcDbDictionary
281
1
  3
FB7_assy_2_img_1
350
       420
  0
RASTERVARIABLES
  5
41C
330
C
100
AcDbRasterVariables
 90
0
 70
0
 71
1
 72
5
  0
DICTIONARY
  5
17
102
{ACAD_REACTORS
330
C
102
}
100
AcDbDictionary
280
0
281
1
  3
Standard
350
18
  0
DICTIONARY
  5
41D
330
C
100
AcDbDictionary
281
1
  3
Standard
350
       421
  3
Standard1
350
       422
  0
DICTIONARY
  5
19
102
{ACAD_REACTORS
330
C
102
}
100
AcDbDictionary
281
1
  0
DICTIONARY
  5
1A
102
{ACAD_REACTORS
330
C
102
}
100
AcDbDictionary
281
1
  3
Model
350
41E
  3
Layout1
350
41F
  0
ACDBPLACEHOLDER
  5
F
102
{ACAD_REACTORS
330
E
102
}
  0
MLINESTYLE
  5
18
102
{ACAD_REACTORS
330
17
102
}
100
AcDbMlineStyle
  2
STANDARD
 70
0
  3

 62
256
 51
90.0
 52
90.0
 71
2
 49
0.5
 62
256
  6
BYLAYER
 49
-0.5
 62
256
  6
BYLAYER
  0
LAYOUT
  5
41E
102
{ACAD_REACTORS
330
1A
102
}
100
AcDbPlotSettings
  1

  2
none_device
  4
ANSI_C_(22.00_x_17.00_Inches)
  6

 40
0.0
 41
0.0
 42
0.0
 43
0.0
 44
558.8
 45
431.8
 46
0.0
 47
0.0
 48
0.0
 49
0.0
140
0.0
141
0.0
142
1.0
143
1.0
 70
1024
 72
0
 73
0
 74
0
  7

 75
0
147
1.0
148
0.0
149
0.0
100
AcDbLayout
  1
Model
 70
0
 71
0
 10
0.0
 20
0.0
 11
22.0
 21
17.0
 12
0.0
 22
0.0
 32
0.0
 14
0.0
 24
0.0
 34
0.0
 15
0.0
 25
0.0
 35
0.0
146
0.0
 13
0.0
 23
0.0
 33
0.0
 16
1.0
 26
0.0
 36
0.0
 17
0.0
 27
1.0
 37
0.0
 76
0
330
207
345
0
346
0
  0
LAYOUT
  5
41F
102
{ACAD_REACTORS
330
1A
102
}
100
AcDbPlotSettings
  1

  2
none_device
  4
ANSI_C_(22.00_x_17.00_Inches)
  6

 40
0.0
 41
0.0
 42
0.0
 43
0.0
 44
558.8
 45
431.8
 46
0.0
 47
0.0
 48
0.0
 49
0.0
140
0.0
141
0.0
142
1.0
143
1.0
 70
0
 72
0
 73
0
 74
0
  7

 75
0
147
1.0
148
0.0
149
0.0
100
AcDbLayout
  1
Layout1
 70
0
 71
1
 10
0.0
 20
0.0
 11
22.0
 21
17.0
 12
0.0
 22
0.0
 32
0.0
 14
0.0
 24
0.0
 34
0.0
 15
0.0
 25
0.0
 35
0.0
146
0.0
 13
0.0
 23
0.0
 33
0.0
 16
1.0
 26
0.0
 36
0.0
 17
0.0
 27
1.0
 37
0.0
 76
0
330
208
345
0
346
0
  0
IMAGEDEF
  5
420
102
{ACAD_REACTORS
330
41B
330
41A
102
}
100
AcDbRasterImageDef
 90
0
  1
FB7_assy_2_img_1.png
 10
369.0
 20
92.0
 11
0.0066666667
 21
0.0066666667
280
1
281
0
  0
TABLESTYLE
  5
421
102
{ACAD_REACTORS
330
41D
330
27B
102
}
330
41D
100
AcDbTableStyle
  3
Standard
 70
0
 71
0
 40
0.06
 41
0.06
280
1
281
1
  7
Standard
140
0.18
170
1
 62
0
 63
7
283
0
  7
Standard
140
0.18
170
1
 62
0
 63
7
283
0
  7
Standard
140
0.18
170
1
 62
0
 63
7
283
0
  0
TABLESTYLE
  5
422
102
{ACAD_REACTORS
330
41D
330
27A
102
}
330
41D
100
AcDbTableStyle
  3
Standard1
 70
1
 71
0
 40
0.06
 41
0.06
280
1
281
1
  7
Standard
140
0.18
170
1
 62
0
 63
7
283
0
  7
Standard
140
0.18
170
1
 62
0
 63
7
283
0
  7
Standard
140
0.18
170
1
 62
0
 63
7
283
0
  0
ENDSEC
  0
EOF
