999
DXF file: FB4_assy_2.dxf
999
Pro/ENGINEER 2014200 by Parametric Technology Corporation
  0
SECTION
  2
HEADER
  9
$ACADVER
  1
AC1021
  9
$DWGCODEPAGE
  3
ANSI_1252
  9
$EXTMAX
 10
22.0
 20
17.0
 30
0.0
  9
$EXTMIN
 10
0.0
 20
0.0
 30
0.0
  9
$LIMMIN
 10
0.0
 20
0.0
  9
$LIMMAX
 10
22.0
 20
17.0
  9
$VIEWCTR
 10
11.0
 20
8.5
  9
$VIEWSIZE
 40
17.0
  9
$CLAYER
  8
0
  9
$LTSCALE
 40
1.21
  9
$CELTYPE
  6
BYLAYER
  9
$DIMSCALE
 40
1.0
  9
$DIMASZ
 40
0.1875
  9
$DIMEXO
 40
0.0625
  9
$DIMDLI
 40
0.836
  9
$DIMEXE
 40
0.125
  9
$DIMCEN
 40
0.198
  9
$DIMLFAC
 40
1.0
  9
$DIMBLK
  1
_FILLED
  9
$DIMTXT
 40
0.1
  9
$DIMTOL
 70
0
  9
$DIMLIM
 70
0
  9
$DIMTFAC
 40
1.0
  9
$DIMGAP
 40
0.09
  9
$DIMDSEP
 70
46
  9
$AUNITS
 70
0
  9
$PDMODE
 70
3
  9
$PDSIZE
 40
0.3125
  9
$HANDSEED
  5
40A
  9
$TILEMODE
 70
1
  9
$MEASUREMENT
 70
0
  9
$INSUNITS
 70
1
  0
ENDSEC
  0
SECTION
  2
CLASSES
  0
CLASS
  1
ACDBDICTIONARYWDFLT
  2
AcDbDictionaryWithDefault
  3
AutoCAD 2000
 90
0
 91
1
280
0
281
0
  0
CLASS
  1
ACDBPLACEHOLDER
  2
AcDbPlaceHolder
  3
AutoCAD 2000
 90
0
 91
1
280
0
281
0
  0
CLASS
  1
LAYOUT
  2
AcDbLayout
  3
AutoCAD 2000
 90
0
 91
0
280
0
281
0
  0
CLASS
  1
RASTERVARIABLES
  2
AcDbRasterVariables
  3
ISM
 90
0
 91
1
280
0
281
0
  0
CLASS
  1
IMAGEDEF
  2
AcDbRasterImageDef
  3
ISM
 90
0
 91
1
280
0
281
0
  0
CLASS
  1
IMAGEDEF_REACTOR
  2
AcDbRasterImageDefReactor
  3
ISM
 90
0
 91
1
280
0
281
0
  0
CLASS
  1
IMAGE
  2
AcDbRasterImage
  3
ISM
 90
127
 91
1
280
0
281
1
  0
CLASS
  1
TABLESTYLE
  2
AcDbTableStyle
  3
ObjectDBX Classes
 90
2047
 91
1
280
0
281
0
  0
CLASS
  1
ACAD_TABLE
  2
AcDbTable
  3
ObjectDBX Classes
 90
1025
 91
2
280
0
281
1
  0
ENDSEC
  0
SECTION
  2
TABLES
  0
TABLE
  2
VPORT
  5
8
100
AcDbSymbolTable
 70
2
  0
VPORT
  5
1F4
100
AcDbSymbolTableRecord
100
AcDbViewportTableRecord
  2
*ACTIVE
 70
0
 10
0.0
 20
0.0
 11
1.0
 21
1.0
 12
11.0
 22
8.5
 13
0.0
 23
0.0
 14
1.0
 24
1.0
 15
0.0
 25
0.0
 16
0.0
 26
0.0
 36
1.0
 17
0.0
 27
0.0
 37
0.0
 40
17.0
 41
1.2941176471
 42
50.0
 43
0.0
 44
0.0
 50
0.0
 51
0.0
 71
0
 72
100
 73
1
 74
1
 75
0
 76
0
 77
0
 78
0
  0
ENDTAB
  0
TABLE
  2
LTYPE
  5
5
100
AcDbSymbolTable
 70
6
  0
LTYPE
  5
14
100
AcDbSymbolTableRecord
100
AcDbLinetypeTableRecord
  2
BYBLOCK
 70
0
  3

 72
65
 73
0
 40
0.0
  0
LTYPE
  5
15
100
AcDbSymbolTableRecord
100
AcDbLinetypeTableRecord
  2
BYLAYER
 70
0
  3

 72
65
 73
0
 40
0.0
  0
LTYPE
  5
16
100
AcDbSymbolTableRecord
100
AcDbLinetypeTableRecord
  2
CONTINUOUS
 70
64
  3
Solid line
 72
65
 73
0
 40
0.0
  0
LTYPE
  5
1F5
100
AcDbSymbolTableRecord
100
AcDbLinetypeTableRecord
  2
CENTER
 70
64
  3
____ _ ____ _ ____ _ ____ _ ____ _ ____ _ ____
 72
65
 73
4
 40
0.6
 49
0.375
 74
0
 49
-0.075
 74
0
 49
0.075
 74
0
 49
-0.075
 74
0
  0
LTYPE
  5
1F6
100
AcDbSymbolTableRecord
100
AcDbLinetypeTableRecord
  2
HIDDEN
 70
64
  3
- - - - - - - - - - - - - - - - - - - -
 72
65
 73
2
 40
0.2
 49
0.1
 74
0
 49
-0.1
 74
0
  0
LTYPE
  5
1F7
100
AcDbSymbolTableRecord
100
AcDbLinetypeTableRecord
  2
PHANTOM
 70
64
  3
_____ _ _ _____ _ _ _____ _ _ _____
 72
65
 73
6
 40
0.8
 49
0.45
 74
0
 49
-0.05
 74
0
 49
0.1
 74
0
 49
-0.05
 74
0
 49
0.1
 74
0
 49
-0.05
 74
0
  0
LTYPE
  5
1F8
100
AcDbSymbolTableRecord
100
AcDbLinetypeTableRecord
  2
DOT
 70
64
  3
. . . . . . . . . . . . . . . . . . . .
 72
65
 73
2
 40
0.2
 49
0.1
 74
0
 49
-0.1
 74
0
  0
LTYPE
  5
1F9
100
AcDbSymbolTableRecord
100
AcDbLinetypeTableRecord
  2
DASHED
 70
64
  3
- - - - - - - - - - - - - - - - - - - -
 72
65
 73
2
 40
0.2
 49
0.1
 74
0
 49
-0.1
 74
0
  0
ENDTAB
  0
TABLE
  2
LAYER
  5
2
100
AcDbSymbolTable
 70
36
  0
LAYER
  5
10
100
AcDbSymbolTableRecord
100
AcDbLayerTableRecord
  2
0
 70
0
 62
7
  6
CONTINUOUS
370
-3
390
F
  0
LAYER
  5
1FA
100
AcDbSymbolTableRecord
100
AcDbLayerTableRecord
  2
DEFAULT_1
 70
0
 62
7
  6
CENTER
370
-3
390
F
  0
LAYER
  5
1FB
100
AcDbSymbolTableRecord
100
AcDbLayerTableRecord
  2
DEFAULT_2
 70
0
 62
8
  6
HIDDEN
370
-3
390
F
  0
LAYER
  5
1FC
100
AcDbSymbolTableRecord
100
AcDbLayerTableRecord
  2
DEFAULT_3
 70
0
 62
7
  6
PHANTOM
370
-3
390
F
  0
LAYER
  5
1FD
100
AcDbSymbolTableRecord
100
AcDbLayerTableRecord
  2
01___PRT_ALL_DTM_PLN
 70
0
 62
7
  6
CONTINUOUS
370
-3
390
F
  0
LAYER
  5
1FE
100
AcDbSymbolTableRecord
100
AcDbLayerTableRecord
  2
01___PRT_DEF_DTM_PLN
 70
0
 62
7
  6
CONTINUOUS
370
-3
390
F
  0
LAYER
  5
1FF
100
AcDbSymbolTableRecord
100
AcDbLayerTableRecord
  2
02___PRT_ALL_AXES
 70
0
 62
7
  6
CONTINUOUS
370
-3
390
F
  0
LAYER
  5
200
100
AcDbSymbolTableRecord
100
AcDbLayerTableRecord
  2
03___PRT_ALL_CURVES
 70
0
 62
7
  6
CONTINUOUS
370
-3
390
F
  0
LAYER
  5
201
100
AcDbSymbolTableRecord
100
AcDbLayerTableRecord
  2
04___PRT_ALL_DTM_PNT
 70
0
 62
7
  6
CONTINUOUS
370
-3
390
F
  0
LAYER
  5
202
100
AcDbSymbolTableRecord
100
AcDbLayerTableRecord
  2
05___PRT_ALL_DTM_CSYS
 70
0
 62
7
  6
CONTINUOUS
370
-3
390
F
  0
LAYER
  5
203
100
AcDbSymbolTableRecord
100
AcDbLayerTableRecord
  2
05___PRT_DEF_DTM_CSYS
 70
0
 62
7
  6
CONTINUOUS
370
-3
390
F
  0
LAYER
  5
204
100
AcDbSymbolTableRecord
100
AcDbLayerTableRecord
  2
06___PRT_ALL_SURFS
 70
0
 62
7
  6
CONTINUOUS
370
-3
390
F
  0
LAYER
  5
205
100
AcDbSymbolTableRecord
100
AcDbLayerTableRecord
  2
DATUM_PLANES
 70
0
 62
7
  6
CONTINUOUS
370
-3
390
F
  0
LAYER
  5
206
100
AcDbSymbolTableRecord
100
AcDbLayerTableRecord
  2
PORT_AREAS
 70
0
 62
7
  6
CONTINUOUS
370
-3
390
F
  0
LAYER
  5
207
100
AcDbSymbolTableRecord
100
AcDbLayerTableRecord
  2
SUNNBOMCOSMETIC
 70
0
 62
7
  6
CONTINUOUS
370
-3
390
F
  0
LAYER
  5
208
100
AcDbSymbolTableRecord
100
AcDbLayerTableRecord
  2
SUNNBOMSTAMPING
 70
0
 62
7
  6
CONTINUOUS
370
-3
390
F
  0
LAYER
  5
209
100
AcDbSymbolTableRecord
100
AcDbLayerTableRecord
  2
THREADS
 70
0
 62
7
  6
CONTINUOUS
370
-3
390
F
  0
ENDTAB
  0
TABLE
  2
STYLE
  5
3
100
AcDbSymbolTable
 70
1
  0
STYLE
  5
11
100
AcDbSymbolTableRecord
100
AcDbTextStyleTableRecord
  2
STANDARD
 70
0
 40
0.0
 41
0.8
 50
0.0
 71
0
 42
0.2
  3
txt
  4

  0
STYLE
  5
20A
100
AcDbSymbolTableRecord
100
AcDbTextStyleTableRecord
  2
TEXTSTYLE_1
 70
0
 40
0.0
 41
0.8
 50
0.0
 71
0
 42
0.2
  3
gdt
  4

  0
ENDTAB
  0
TABLE
  2
VIEW
  5
6
100
AcDbSymbolTable
 70
0
  0
ENDTAB
  0
TABLE
  2
UCS
  5
7
100
AcDbSymbolTable
 70
0
  0
ENDTAB
  0
TABLE
  2
APPID
  5
9
100
AcDbSymbolTable
 70
1
  0
APPID
  5
20B
100
AcDbSymbolTableRecord
100
AcDbRegAppTableRecord
  2
ACAD
 70
0
  0
ENDTAB
  0
TABLE
  2
BLOCK_RECORD
  5
1
100
AcDbSymbolTable
 70
0
  0
BLOCK_RECORD
  5
20C
100
AcDbSymbolTableRecord
100
AcDbBlockTableRecord
  2
*Model_Space
  0
BLOCK_RECORD
  5
20D
100
AcDbSymbolTableRecord
100
AcDbBlockTableRecord
  2
*Paper_Space
  0
BLOCK_RECORD
  5
20E
100
AcDbSymbolTableRecord
100
AcDbBlockTableRecord
  2
SUN_FIRST_THIRD_ANGLE_BL0
  0
BLOCK_RECORD
  5
20F
100
AcDbSymbolTableRecord
100
AcDbBlockTableRecord
  2
*T1
  0
BLOCK_RECORD
  5
210
100
AcDbSymbolTableRecord
100
AcDbBlockTableRecord
  2
*T2
  0
ENDTAB
  0
TABLE
  2
DIMSTYLE
  5
A
100
AcDbSymbolTable
 70
1
100
AcDbDimStyleTable
 71
0
  0
DIMSTYLE
105
211
100
AcDbSymbolTableRecord
100
AcDbDimStyleTableRecord
  2
STANDARD
 70
0
  3

  4

 40
1.0
 41
0.1875
 42
0.0625
 43
0.38
 44
0.125
 45
0.0
 46
0.0
 47
0.001
 48
0.001
140
0.1
141
0.09
142
0.0
143
25.4
144
1.0
145
0.0
146
1.0
147
0.09
 71
0.0
 72
0.0
 73
1
 74
1
 75
0
 76
0
 77
0
 78
4
170
0
171
2
172
0
173
0
174
0
175
0
176
0
177
0
178
0
270
2
271
3
272
3
273
2
274
2
275
0
280
0
281
0
282
0
283
1
284
4
285
0
286
0
287
3
288
0
340
11
278
46
  0
ENDTAB
  0
ENDSEC
  0
SECTION
  2
BLOCKS
  0
BLOCK
  5
20
100
AcDbEntity
  8
0
100
AcDbBlockBegin
  2
*Model_Space
 70
0
 10
0.0
 20
0.0
 30
0.0
  3
*Model_Space
  1

  0
ENDBLK
  5
21
100
AcDbEntity
  8
0
100
AcDbBlockEnd
  0
BLOCK
  5
1C
100
AcDbEntity
  8
0
100
AcDbBlockBegin
  2
*Paper_Space
 70
0
 10
0.0
 20
0.0
 30
0.0
  3
*Paper_Space
  1

  0
ENDBLK
  5
1D
100
AcDbEntity
  8
0
100
AcDbBlockEnd
  0
BLOCK
  5
212
100
AcDbEntity
  8
0
100
AcDbBlockBegin
 62
2
  6
CONTINUOUS
  2
SUN_FIRST_THIRD_ANGLE_BL0
 70
64
 10
20.4816717061
 20
1.2289683772
  3
SUN_FIRST_THIRD_ANGLE_BL0
  1

  0
TEXT
  5
213
100
AcDbEntity
  8
0
100
AcDbText
 62
2
  6
CONTINUOUS
 10
19.4750896608
 20
1.4136269581
  7
STANDARD
 40
0.08
  1
FIRST ANGLE
 41
0.8
 72
0
100
AcDbText
  0
TEXT
  5
214
100
AcDbEntity
  8
0
100
AcDbText
 62
2
  6
CONTINUOUS
 10
20.7842537513
 20
1.4047600029
  7
STANDARD
 40
0.08
  1
THIRD ANGLE
 41
0.8
 72
0
100
AcDbText
  0
LINE
  5
215
100
AcDbEntity
  8
0
100
AcDbLine
 62
7
  6
CONTINUOUS
 10
19.4767170086
 20
1.1727031207
 11
19.6334271527
 21
1.1717972817
  0
LINE
  5
216
100
AcDbEntity
  8
0
100
AcDbLine
 62
7
  6
CONTINUOUS
 10
19.6596964832
 20
1.1717972817
 11
19.6950230232
 21
1.171593082
  0
LINE
  5
217
100
AcDbEntity
  8
0
100
AcDbLine
 62
7
  6
CONTINUOUS
 10
19.7194818561
 20
1.1708914427
 11
19.8852396156
 21
1.1699333054
  0
LINE
  5
218
100
AcDbEntity
  8
0
100
AcDbLine
 62
7
  6
CONTINUOUS
 10
19.4758111696
 20
1.2723454088
 11
19.88525039
 21
1.3511534004
  0
LINE
  5
219
100
AcDbEntity
  8
0
100
AcDbLine
 62
7
  6
CONTINUOUS
 10
19.88525039
 20
1.3511534004
 11
19.8831348489
 21
0.9851647912
  0
LINE
  5
21A
100
AcDbEntity
  8
0
100
AcDbLine
 62
7
  6
CONTINUOUS
 10
19.8831348489
 20
0.9851647912
 11
19.4767170086
 21
1.0658141206
  0
LINE
  5
21B
100
AcDbEntity
  8
0
100
AcDbLine
 62
7
  6
CONTINUOUS
 10
19.4767170086
 20
1.0658141206
 11
19.4779056764
 21
1.2714536432
  0
CIRCLE
  5
21C
100
AcDbEntity
  8
0
100
AcDbCircle
 62
7
  6
CONTINUOUS
 10
20.2068232291
 20
1.1717972817
 40
0.175742101
  0
CIRCLE
  5
21D
100
AcDbEntity
  8
0
100
AcDbCircle
 62
7
  6
CONTINUOUS
 10
20.2068232291
 20
1.1717972817
 40
0.1005522074
  0
LINE
  5
21E
100
AcDbEntity
  8
0
100
AcDbLine
 62
7
  6
CONTINUOUS
 10
20.2077290681
 20
1.3756110529
 11
20.2071171714
 21
1.2379342989
  0
LINE
  5
21F
100
AcDbEntity
  8
0
100
AcDbLine
 62
7
  6
CONTINUOUS
 10
20.2077290681
 20
1.2016899681
 11
20.2074674401
 21
1.1428236749
  0
LINE
  5
220
100
AcDbEntity
  8
0
100
AcDbLine
 62
7
  6
CONTINUOUS
 10
20.208634907
 20
1.101141841
 11
20.2080230104
 21
0.963465087
  0
LINE
  5
221
100
AcDbEntity
  8
0
100
AcDbLine
 62
7
  6
CONTINUOUS
 10
20.0066328138
 20
1.1745147986
 11
20.1443095678
 21
1.1739029019
  0
LINE
  5
222
100
AcDbEntity
  8
0
100
AcDbLine
 62
7
  6
CONTINUOUS
 10
20.1832714155
 20
1.1727031207
 11
20.238153505
 21
1.172335442
  0
LINE
  5
223
100
AcDbEntity
  8
0
100
AcDbLine
 62
7
  6
CONTINUOUS
 10
20.2756669918
 20
1.1717972817
 11
20.407916871
 21
1.1712095044
  0
CIRCLE
  5
224
100
AcDbEntity
  8
0
100
AcDbCircle
 62
7
  6
CONTINUOUS
 10
20.7509457401
 20
1.1693297793
 40
0.1722024983
  0
CIRCLE
  5
225
100
AcDbEntity
  8
0
100
AcDbCircle
 62
7
  6
CONTINUOUS
 10
20.7509457401
 20
1.1693297793
 40
0.0985164967
  0
LINE
  5
226
100
AcDbEntity
  8
0
100
AcDbLine
 62
7
  6
CONTINUOUS
 10
20.7169767782
 20
1.170462078
 11
20.7825395137
 21
1.1682766535
  0
LINE
  5
227
100
AcDbEntity
  8
0
100
AcDbLine
 62
7
  6
CONTINUOUS
 10
20.8177513651
 20
1.1693297793
 11
20.947965719
 21
1.1693297793
  0
LINE
  5
228
100
AcDbEntity
  8
0
100
AcDbLine
 62
7
  6
CONTINUOUS
 10
20.6875370113
 20
1.170462078
 11
20.5573226574
 21
1.170462078
  0
LINE
  5
229
100
AcDbEntity
  8
0
100
AcDbLine
 62
7
  6
CONTINUOUS
 10
20.7486811426
 20
1.1987695462
 11
20.7486811426
 21
1.1432869085
  0
LINE
  5
22A
100
AcDbEntity
  8
0
100
AcDbLine
 62
7
  6
CONTINUOUS
 10
20.7498134414
 20
1.1059210505
 11
20.7498134414
 21
0.9757066966
  0
LINE
  5
22B
100
AcDbEntity
  8
0
100
AcDbLine
 62
7
  6
CONTINUOUS
 10
20.7486811426
 20
1.2338708068
 11
20.7486811426
 21
1.3640851607
  0
LINE
  5
22C
100
AcDbEntity
  8
0
100
AcDbLine
 62
7
  6
CONTINUOUS
 10
21.0702539817
 20
1.2701043662
 11
21.4790138229
 21
1.3448360823
  0
LINE
  5
22D
100
AcDbEntity
  8
0
100
AcDbLine
 62
7
  6
CONTINUOUS
 10
21.4790138229
 20
1.3448360823
 11
21.4790138229
 21
0.9779712941
  0
LINE
  5
22E
100
AcDbEntity
  8
0
100
AcDbLine
 62
7
  6
CONTINUOUS
 10
21.4790138229
 20
0.9779712941
 11
21.069121683
 21
1.0617614
  0
LINE
  5
22F
100
AcDbEntity
  8
0
100
AcDbLine
 62
7
  6
CONTINUOUS
 10
21.0702539817
 20
1.2701043662
 11
21.069121683
 21
1.0617614
  0
LINE
  5
230
100
AcDbEntity
  8
0
100
AcDbLine
 62
7
  6
CONTINUOUS
 10
21.4790138229
 20
1.1693297793
 11
21.3159628059
 21
1.1693297793
  0
LINE
  5
231
100
AcDbEntity
  8
0
100
AcDbLine
 62
7
  6
CONTINUOUS
 10
21.2876553377
 20
1.1693297793
 11
21.2502894796
 21
1.1693297793
  0
LINE
  5
232
100
AcDbEntity
  8
0
100
AcDbLine
 62
7
  6
CONTINUOUS
 10
21.2208497126
 20
1.1659328831
 11
21.0713862804
 21
1.1659328831
  0
LINE
  5
233
100
AcDbEntity
  8
0
100
AcDbLine
 62
7
  6
CONTINUOUS
 10
20.4796138713
 20
1.5284908897
 11
20.4766766948
 21
0.9294458646
  0
ENDBLK
  5
234
100
AcDbEntity
  8
0
  6
BYBLOCK
 62
0
100
AcDbBlockEnd
  0
BLOCK
  5
235
100
AcDbEntity
  8
0
100
AcDbBlockBegin
  2
*T1
 70
1
 10
0.0
 20
0.0
  3
*T1
  1

  0
LINE
  5
236
100
AcDbEntity
  8
0
100
AcDbLine
 62
2
  6
CONTINUOUS
 10
9.275
 20
0.0
 11
-0.0
 21
0.0
  0
LINE
  5
237
100
AcDbEntity
  8
0
100
AcDbLine
 62
2
  6
CONTINUOUS
 10
9.275
 20
0.0
 11
9.275
 21
1.25
  0
LINE
  5
238
100
AcDbEntity
  8
0
100
AcDbLine
 62
2
  6
CONTINUOUS
 10
9.275
 20
0.625
 11
-0.0
 21
0.625
  0
LINE
  5
239
100
AcDbEntity
  8
0
100
AcDbLine
 62
2
  6
CONTINUOUS
 10
9.275
 20
1.25
 11
-0.0
 21
1.25
  0
LINE
  5
23A
100
AcDbEntity
  8
0
100
AcDbLine
 62
2
  6
CONTINUOUS
 10
6.8
 20
0.0
 11
6.8
 21
1.25
  0
LINE
  5
23B
100
AcDbEntity
  8
0
100
AcDbLine
 62
2
  6
CONTINUOUS
 10
6.4
 20
0.0
 11
6.4
 21
0.625
  0
LINE
  5
23C
100
AcDbEntity
  8
0
100
AcDbLine
 62
2
  6
CONTINUOUS
 10
5.9
 20
0.0
 11
5.9
 21
0.625
  0
LINE
  5
23D
100
AcDbEntity
  8
0
100
AcDbLine
 62
2
  6
CONTINUOUS
 10
5.2
 20
0.0
 11
5.2
 21
0.625
  0
LINE
  5
23E
100
AcDbEntity
  8
0
100
AcDbLine
 62
2
  6
CONTINUOUS
 10
4.1
 20
0.0
 11
4.1
 21
1.25
  0
LINE
  5
23F
100
AcDbEntity
  8
0
100
AcDbLine
 62
2
  6
CONTINUOUS
 10
-0.0
 20
0.0
 11
-0.0
 21
1.25
  0
MTEXT
  5
240
100
AcDbEntity
  8
0
100
AcDbMText
 62
2
  6
CONTINUOUS
  7
STANDARD
 71
2
 72
1
 10
6.6
 20
0.325
 30
0.0
 11
1.0
 21
0.0
 31
0.0
 44
0.9
  1
2
 40
0.125
 41
0.2
  0
MTEXT
  5
241
100
AcDbEntity
  8
0
100
AcDbMText
 62
2
  6
CONTINUOUS
  7
STANDARD
 71
2
 72
1
 10
6.15
 20
0.325
 30
0.0
 11
1.0
 21
0.0
 31
0.0
 44
0.9
  1
C
 40
0.125
 41
0.2
  0
MTEXT
  5
242
100
AcDbEntity
  8
0
100
AcDbMText
 62
2
  6
CONTINUOUS
  7
STANDARD
 71
2
 72
1
 10
5.55
 20
0.325
 30
0.0
 11
1.0
 21
0.0
 31
0.0
 44
0.9
  1
1.000
 40
0.125
 41
1.0
  0
MTEXT
  5
243
100
AcDbEntity
  8
0
100
AcDbMText
 62
2
  6
CONTINUOUS
  7
STANDARD
 71
2
 72
1
 10
4.65
 20
0.325
 30
0.0
 11
1.0
 21
0.0
 31
0.0
 44
0.9
  1
Mar-13-19
 40
0.125
 41
1.8
  0
MTEXT
  5
244
100
AcDbEntity
  8
0
100
AcDbMText
 62
2
  6
CONTINUOUS
  7
STANDARD
 71
2
 72
1
 10
2.05
 20
0.4625
 30
0.0
 11
1.0
 21
0.0
 31
0.0
 44
0.9
  1
T-10A Sandwich ISO 03\POn A or B with reverse flow check
 40
0.125
 41
6.6
  0
MTEXT
  5
245
100
AcDbEntity
  8
0
100
AcDbMText
 62
2
  6
CONTINUOUS
  7
STANDARD
 71
1
 72
1
 10
6.45
 20
0.5625
 30
0.0
 11
1.0
 21
0.0
 31
0.0
 44
0.9
  1
SHEET
 40
0.06
 41
0.48
  0
MTEXT
  5
246
100
AcDbEntity
  8
0
100
AcDbMText
 62
2
  6
CONTINUOUS
  7
STANDARD
 71
1
 72
1
 10
5.95
 20
0.5625
 30
0.0
 11
1.0
 21
0.0
 31
0.0
 44
0.9
  1
DWG SIZE
 40
0.06
 41
0.768
  0
MTEXT
  5
247
100
AcDbEntity
  8
0
100
AcDbMText
 62
2
  6
CONTINUOUS
  7
STANDARD
 71
1
 72
1
 10
5.25
 20
0.5625
 30
0.0
 11
1.0
 21
0.0
 31
0.0
 44
0.9
  1
SCALE
 40
0.06
 41
0.48
  0
MTEXT
  5
248
100
AcDbEntity
  8
0
100
AcDbMText
 62
2
  6
CONTINUOUS
  7
STANDARD
 71
1
 72
1
 10
4.15
 20
0.5625
 30
0.0
 11
1.0
 21
0.0
 31
0.0
 44
0.9
  1
DATE
 40
0.06
 41
0.384
  0
MTEXT
  5
249
100
AcDbEntity
  8
0
100
AcDbMText
 62
2
  6
CONTINUOUS
  7
STANDARD
 71
1
 72
1
 10
0.05
 20
0.5625
 30
0.0
 11
1.0
 21
0.0
 31
0.0
 44
0.9
  1
DESCRIPTION
 40
0.06
 41
1.056
  0
MTEXT
  5
24A
100
AcDbEntity
  8
0
100
AcDbMText
 62
2
  6
CONTINUOUS
  7
STANDARD
 71
2
 72
1
 10
5.45
 20
1.0375
 30
0.0
 11
1.0
 21
0.0
 31
0.0
 44
0.9
  1
ALL DIMENSIONS IN INCH\PVIEWS ARE THIRD ANGLE
 40
0.12
 41
4.224
  0
MTEXT
  5
24B
100
AcDbEntity
  8
0
100
AcDbMText
 62
2
  6
CONTINUOUS
  7
STANDARD
 71
2
 72
1
 10
2.05
 20
0.95
 30
0.0
 11
1.0
 21
0.0
 31
0.0
 44
0.9
  1
FB4
 40
0.125
 41
0.6
  0
MTEXT
  5
24C
100
AcDbEntity
  8
0
100
AcDbMText
 62
2
  6
CONTINUOUS
  7
STANDARD
 71
1
 72
1
 10
0.05
 20
1.1875
 30
0.0
 11
1.0
 21
0.0
 31
0.0
 44
0.9
  1
MODEL
 40
0.06
 41
0.48
  0
ENDBLK
  5
24D
100
AcDbEntity
  8
0
  6
BYBLOCK
 62
0
100
AcDbBlockEnd
  0
BLOCK
  5
24E
100
AcDbEntity
  8
0
100
AcDbBlockBegin
  2
*T2
 70
1
 10
0.0
 20
0.0
  3
*T2
  1

  0
LINE
  5
24F
100
AcDbEntity
  8
0
100
AcDbLine
 62
2
  6
CONTINUOUS
 10
0.0
 20
0.0
 11
9.055
 21
0.0
  0
LINE
  5
250
100
AcDbEntity
  8
0
100
AcDbLine
 62
2
  6
CONTINUOUS
 10
0.0
 20
0.0
 11
0.0
 21
-2.094
  0
LINE
  5
251
100
AcDbEntity
  8
0
100
AcDbLine
 62
2
  6
CONTINUOUS
 10
0.0
 20
-0.344
 11
9.055
 21
-0.344
  0
LINE
  5
252
100
AcDbEntity
  8
0
100
AcDbLine
 62
2
  6
CONTINUOUS
 10
0.0
 20
-0.594
 11
9.055
 21
-0.594
  0
LINE
  5
253
100
AcDbEntity
  8
0
100
AcDbLine
 62
2
  6
CONTINUOUS
 10
0.0
 20
-0.844
 11
9.055
 21
-0.844
  0
LINE
  5
254
100
AcDbEntity
  8
0
100
AcDbLine
 62
2
  6
CONTINUOUS
 10
0.0
 20
-1.094
 11
9.055
 21
-1.094
  0
LINE
  5
255
100
AcDbEntity
  8
0
100
AcDbLine
 62
2
  6
CONTINUOUS
 10
0.0
 20
-1.344
 11
9.055
 21
-1.344
  0
LINE
  5
256
100
AcDbEntity
  8
0
100
AcDbLine
 62
2
  6
CONTINUOUS
 10
0.0
 20
-1.594
 11
9.055
 21
-1.594
  0
LINE
  5
257
100
AcDbEntity
  8
0
100
AcDbLine
 62
2
  6
CONTINUOUS
 10
0.0
 20
-1.844
 11
9.055
 21
-1.844
  0
LINE
  5
258
100
AcDbEntity
  8
0
100
AcDbLine
 62
2
  6
CONTINUOUS
 10
0.0
 20
-2.094
 11
9.055
 21
-2.094
  0
LINE
  5
259
100
AcDbEntity
  8
0
100
AcDbLine
 62
2
  6
CONTINUOUS
 10
3.055
 20
0.0
 11
3.055
 21
-2.094
  0
LINE
  5
25A
100
AcDbEntity
  8
0
100
AcDbLine
 62
2
  6
CONTINUOUS
 10
9.055
 20
0.0
 11
9.055
 21
-2.094
  0
MTEXT
  5
25B
100
AcDbEntity
  8
0
100
AcDbMText
 62
2
  6
CONTINUOUS
  7
STANDARD
 71
2
 72
1
 10
1.5275
 20
-0.0995
 30
0.0
 11
1.0
 21
0.0
 31
0.0
 44
0.9
  1
Technical Data
 40
0.145
 41
3.248
  0
MTEXT
  5
25C
100
AcDbEntity
  8
0
100
AcDbMText
 62
2
  6
CONTINUOUS
  7
STANDARD
 71
2
 72
1
 10
4.555
 20
-0.0995
 30
0.0
 11
1.0
 21
0.0
 31
0.0
 44
0.9
  1
U.S. Units
 40
0.145
 41
2.32
  0
MTEXT
  5
25D
100
AcDbEntity
  8
0
100
AcDbMText
 62
2
  6
CONTINUOUS
  7
STANDARD
 71
2
 72
1
 10
7.555
 20
-0.0995
 30
0.0
 11
1.0
 21
0.0
 31
0.0
 44
0.9
  1
Metric Units
 40
0.145
 41
2.784
  0
MTEXT
  5
25E
100
AcDbEntity
  8
0
100
AcDbMText
 62
2
  6
CONTINUOUS
  7
STANDARD
 71
2
 72
1
 10
1.5275
 20
-0.4065
 30
0.0
 11
1.0
 21
0.0
 31
0.0
 44
0.9
  1
Cavity
 40
0.125
 41
1.2
  0
MTEXT
  5
25F
100
AcDbEntity
  8
0
100
AcDbMText
 62
2
  6
CONTINUOUS
  7
STANDARD
 71
2
 72
1
 10
6.055
 20
-0.4065
 30
0.0
 11
1.0
 21
0.0
 31
0.0
 44
0.9
  1
T-10A
 40
0.125
 41
1.0
  0
MTEXT
  5
260
100
AcDbEntity
  8
0
100
AcDbMText
 62
2
  6
CONTINUOUS
  7
STANDARD
 71
2
 72
1
 10
1.5275
 20
-0.6565
 30
0.0
 11
1.0
 21
0.0
 31
0.0
 44
0.9
  1
Body Features
 40
0.125
 41
2.6
  0
MTEXT
  5
261
100
AcDbEntity
  8
0
100
AcDbMText
 62
2
  6
CONTINUOUS
  7
STANDARD
 71
2
 72
1
 10
6.055
 20
-0.6565
 30
0.0
 11
1.0
 21
0.0
 31
0.0
 44
0.9
  1
On A or B with reverse flow check
 40
0.125
 41
6.6
  0
MTEXT
  5
262
100
AcDbEntity
  8
0
100
AcDbMText
 62
2
  6
CONTINUOUS
  7
STANDARD
 71
2
 72
1
 10
1.5275
 20
-0.9065
 30
0.0
 11
1.0
 21
0.0
 31
0.0
 44
0.9
  1
Body Type
 40
0.125
 41
1.8
  0
MTEXT
  5
263
100
AcDbEntity
  8
0
100
AcDbMText
 62
2
  6
CONTINUOUS
  7
STANDARD
 71
2
 72
1
 10
6.055
 20
-0.9065
 30
0.0
 11
1.0
 21
0.0
 31
0.0
 44
0.9
  1
Sandwich
 40
0.125
 41
1.6
  0
MTEXT
  5
264
100
AcDbEntity
  8
0
100
AcDbMText
 62
2
  6
CONTINUOUS
  7
STANDARD
 71
2
 72
1
 10
1.5275
 20
-1.1565
 30
0.0
 11
1.0
 21
0.0
 31
0.0
 44
0.9
  1
Interface
 40
0.125
 41
1.8
  0
MTEXT
  5
265
100
AcDbEntity
  8
0
100
AcDbMText
 62
2
  6
CONTINUOUS
  7
STANDARD
 71
2
 72
1
 10
6.055
 20
-1.1565
 30
0.0
 11
1.0
 21
0.0
 31
0.0
 44
0.9
  1
ISO 03
 40
0.125
 41
1.2
  0
MTEXT
  5
266
100
AcDbEntity
  8
0
100
AcDbMText
 62
2
  6
CONTINUOUS
  7
STANDARD
 71
2
 72
1
 10
1.5275
 20
-1.4065
 30
0.0
 11
1.0
 21
0.0
 31
0.0
 44
0.9
  1
Open Cavity Quantity
 40
0.125
 41
4.0
  0
MTEXT
  5
267
100
AcDbEntity
  8
0
100
AcDbMText
 62
2
  6
CONTINUOUS
  7
STANDARD
 71
2
 72
1
 10
6.055
 20
-1.4065
 30
0.0
 11
1.0
 21
0.0
 31
0.0
 44
0.9
  1
1
 40
0.125
 41
0.2
  0
MTEXT
  5
268
100
AcDbEntity
  8
0
100
AcDbMText
 62
2
  6
CONTINUOUS
  7
STANDARD
 71
2
 72
1
 10
1.5275
 20
-1.6565
 30
0.0
 11
1.0
 21
0.0
 31
0.0
 44
0.9
  1
Stack Height
 40
0.125
 41
2.4
  0
MTEXT
  5
269
100
AcDbEntity
  8
0
100
AcDbMText
 62
2
  6
CONTINUOUS
  7
STANDARD
 71
2
 72
1
 10
4.555
 20
-1.6565
 30
0.0
 11
1.0
 21
0.0
 31
0.0
 44
0.9
  1
1.75 in.
 40
0.125
 41
1.6
  0
MTEXT
  5
26A
100
AcDbEntity
  8
0
100
AcDbMText
 62
2
  6
CONTINUOUS
  7
STANDARD
 71
2
 72
1
 10
7.555
 20
-1.6565
 30
0.0
 11
1.0
 21
0.0
 31
0.0
 44
0.9
  1
44,5 mm
 40
0.125
 41
1.4
  0
MTEXT
  5
26B
100
AcDbEntity
  8
0
100
AcDbMText
 62
2
  6
CONTINUOUS
  7
STANDARD
 71
2
 72
1
 10
1.5275
 20
-1.9065
 30
0.0
 11
1.0
 21
0.0
 31
0.0
 44
0.9
  1
Weight
 40
0.125
 41
1.2
  0
MTEXT
  5
26C
100
AcDbEntity
  8
0
100
AcDbMText
 62
2
  6
CONTINUOUS
  7
STANDARD
 71
2
 72
1
 10
4.555
 20
-1.9065
 30
0.0
 11
1.0
 21
0.0
 31
0.0
 44
0.9
  1
0.974 lb.
 40
0.125
 41
1.8
  0
MTEXT
  5
26D
100
AcDbEntity
  8
0
100
AcDbMText
 62
2
  6
CONTINUOUS
  7
STANDARD
 71
2
 72
1
 10
7.555
 20
-1.9065
 30
0.0
 11
1.0
 21
0.0
 31
0.0
 44
0.9
  1
0,442 kg.
 40
0.125
 41
1.8
  0
ENDBLK
  5
26E
100
AcDbEntity
  8
0
  6
BYBLOCK
 62
0
100
AcDbBlockEnd
  0
ENDSEC
  0
SECTION
  2
ENTITIES
  0
IMAGE
  5
26F
100
AcDbEntity
  8
0
100
AcDbRasterImage
 62
7
  6
CONTINUOUS
 10
19.2297077316
 20
0.3094318264
 30
0.0
 11
0.0066666667
 21
0.0
 31
0.0
 12
0.0
 22
0.0066666667
 32
0.0
 13
369.0
 23
92.0
340
       407
 70
9
280
0
281
50
282
50
283
0
360
       401
 71
1
 91
2
 14
-0.5
 24
-0.5
 14
368.5
 24
91.5
  0
INSERT
  5
270
100
AcDbEntity
  8
0
100
AcDbBlockReference
 62
2
  6
CONTINUOUS
  2
SUN_FIRST_THIRD_ANGLE_BL0
 10
20.4816717061
 20
1.2289683772
  0
ACAD_TABLE
  5
271
100
AcDbEntity
  8
0
 62
2
  6
CONTINUOUS
100
AcDbBlockReference
  2
*T1
 10
12.42375
 20
0.30125
 30
0.0
100
AcDbTable
342
       409
343
20F
 11
1.0
 21
0.0
 31
0.0
 90
6
 91
4
 92
6
 93
20
 94
0
 95
0
 96
0
 70
1
 41
0.0
141
0.525
141
0.1
141
0.525
141
0.1
142
4.1
142
1.1
142
0.7
142
0.5
142
0.4
142
2.475
171
1
172
0
173
0
174
0
175
1
176
1
 91
33
178
0
145
0.0
301
CELL_VALUE
 90
4
  1
T-10A Sandwich ISO 03\POn A or B with reverse flow check
304
ACVALUE_END
170
2
140
0.125
171
1
172
0
173
0
174
0
175
1
176
1
 91
33
178
0
145
0.0
301
CELL_VALUE
 90
4
  1
Mar-13-19
304
ACVALUE_END
170
5
140
0.125
171
1
172
0
173
0
174
0
175
1
176
1
 91
33
178
0
145
0.0
301
CELL_VALUE
 90
4
  1
1.000
304
ACVALUE_END
170
5
140
0.125
171
1
172
0
173
0
174
0
175
1
176
1
 91
33
178
0
145
0.0
301
CELL_VALUE
 90
4
  1
C
304
ACVALUE_END
170
5
140
0.125
171
1
172
0
173
0
174
0
175
1
176
1
 91
33
178
0
145
0.0
301
CELL_VALUE
 90
4
  1
2
304
ACVALUE_END
170
5
140
0.125
171
1
172
0
173
0
174
0
175
1
176
1
 91
33
178
0
145
0.0
301
CELL_VALUE
 90
4
  1
 
304
ACVALUE_END
170
1
140
0.125
171
1
172
0
173
0
174
0
175
1
176
1
 91
33
178
0
145
0.0
301
CELL_VALUE
 90
4
  1
DESCRIPTION
304
ACVALUE_END
170
1
140
0.06
171
1
172
0
173
0
174
0
175
1
176
1
 91
33
178
0
145
0.0
301
CELL_VALUE
 90
4
  1
DATE
304
ACVALUE_END
170
1
140
0.06
171
1
172
0
173
0
174
0
175
1
176
1
 91
33
178
0
145
0.0
301
CELL_VALUE
 90
4
  1
SCALE
304
ACVALUE_END
170
1
140
0.06
171
1
172
0
173
0
174
0
175
1
176
1
 91
33
178
0
145
0.0
301
CELL_VALUE
 90
4
  1
DWG SIZE
304
ACVALUE_END
170
1
140
0.06
171
1
172
0
173
0
174
0
175
1
176
1
 91
33
178
0
145
0.0
301
CELL_VALUE
 90
4
  1
SHEET
304
ACVALUE_END
170
1
140
0.06
171
1
172
0
173
0
174
0
175
1
176
1
 91
33
178
0
145
0.0
301
CELL_VALUE
 90
4
  1
 
304
ACVALUE_END
170
1
140
0.125
171
1
172
0
173
0
174
0
175
1
176
1
 91
33
178
0
145
0.0
301
CELL_VALUE
 90
4
  1
FB4
304
ACVALUE_END
170
5
140
0.125
171
1
172
0
173
0
174
0
175
4
176
1
 91
33
178
0
145
0.0
301
CELL_VALUE
 90
4
  1
ALL DIMENSIONS IN INCH\PVIEWS ARE THIRD ANGLE
304
ACVALUE_END
170
5
140
0.12
171
1
172
0
173
1
174
0
175
1
176
1
 91
1
178
0
145
0.0
170
1
171
1
172
0
173
1
174
0
175
1
176
1
 91
1
178
0
145
0.0
170
1
171
1
172
0
173
1
174
0
175
1
176
1
 91
1
178
0
145
0.0
170
5
171
1
172
0
173
0
174
0
175
1
176
1
 91
33
178
0
145
0.0
301
CELL_VALUE
 90
4
  1
 
304
ACVALUE_END
170
1
140
0.125
171
1
172
0
173
0
174
0
175
1
176
1
 91
33
178
0
145
0.0
301
CELL_VALUE
 90
4
  1
MODEL
304
ACVALUE_END
170
1
140
0.06
171
1
172
0
173
0
174
0
175
1
176
1
 91
33
178
0
145
0.0
301
CELL_VALUE
 90
4
  1
 
304
ACVALUE_END
170
1
140
0.125
171
1
172
0
173
0
174
0
175
1
176
1
 91
33
178
0
145
0.0
301
CELL_VALUE
 90
4
  1
 
304
ACVALUE_END
170
1
140
0.125
171
1
172
0
173
0
174
0
175
1
176
1
 91
33
178
0
145
0.0
301
CELL_VALUE
 90
4
  1
 
304
ACVALUE_END
170
1
140
0.125
171
1
172
0
173
0
174
0
175
1
176
1
 91
33
178
0
145
0.0
301
CELL_VALUE
 90
4
  1
 
304
ACVALUE_END
170
1
140
0.125
171
1
172
0
173
0
174
0
175
1
176
1
 91
33
178
0
145
0.0
301
CELL_VALUE
 90
4
  1
 
304
ACVALUE_END
170
1
140
0.125
  0
ACAD_TABLE
  5
272
100
AcDbEntity
  8
0
 62
2
  6
CONTINUOUS
100
AcDbBlockReference
  2
*T2
 10
12.4237499994
 20
16.47875
 30
0.0
100
AcDbTable
342
       408
343
210
 11
1.0
 21
0.0
 31
0.0
 90
22
 91
8
 92
3
 93
16
 94
0
 95
0
 96
0
 41
0.028
141
0.344
141
0.25
141
0.25
141
0.25
141
0.25
141
0.25
141
0.25
141
0.25
142
3.055
142
3.0
142
3.0
171
1
172
0
173
0
174
0
175
1
176
1
 91
33
178
0
145
0.0
301
CELL_VALUE
 90
4
  1
Technical Data
304
ACVALUE_END
170
5
140
0.145
171
1
172
0
173
0
174
0
175
1
176
1
 91
33
178
0
145
0.0
301
CELL_VALUE
 90
4
  1
U.S. Units
304
ACVALUE_END
170
5
140
0.145
171
1
172
0
173
0
174
0
175
1
176
1
 91
33
178
0
145
0.0
301
CELL_VALUE
 90
4
  1
Metric Units
304
ACVALUE_END
170
5
140
0.145
171
1
172
0
173
0
174
0
175
1
176
1
 91
33
178
0
145
0.0
301
CELL_VALUE
 90
4
  1
Cavity
304
ACVALUE_END
170
5
140
0.125
171
1
172
0
173
0
174
0
175
2
176
1
 91
33
178
0
145
0.0
301
CELL_VALUE
 90
4
  1
T-10A
304
ACVALUE_END
170
5
140
0.125
171
1
172
0
173
1
174
0
175
1
176
1
 91
1
178
0
145
0.0
170
1
171
1
172
0
173
0
174
0
175
1
176
1
 91
33
178
0
145
0.0
301
CELL_VALUE
 90
4
  1
Body Features
304
ACVALUE_END
170
5
140
0.125
171
1
172
0
173
0
174
0
175
2
176
1
 91
33
178
0
145
0.0
301
CELL_VALUE
 90
4
  1
On A or B with reverse flow check
304
ACVALUE_END
170
5
140
0.125
171
1
172
0
173
1
174
0
175
1
176
1
 91
1
178
0
145
0.0
170
1
171
1
172
0
173
0
174
0
175
1
176
1
 91
33
178
0
145
0.0
301
CELL_VALUE
 90
4
  1
Body Type
304
ACVALUE_END
170
5
140
0.125
171
1
172
0
173
0
174
0
175
2
176
1
 91
33
178
0
145
0.0
301
CELL_VALUE
 90
4
  1
Sandwich
304
ACVALUE_END
170
5
140
0.125
171
1
172
0
173
1
174
0
175
1
176
1
 91
1
178
0
145
0.0
170
1
171
1
172
0
173
0
174
0
175
1
176
1
 91
33
178
0
145
0.0
301
CELL_VALUE
 90
4
  1
Interface
304
ACVALUE_END
170
5
140
0.125
171
1
172
0
173
0
174
0
175
2
176
1
 91
33
178
0
145
0.0
301
CELL_VALUE
 90
4
  1
ISO 03
304
ACVALUE_END
170
5
140
0.125
171
1
172
0
173
1
174
0
175
1
176
1
 91
1
178
0
145
0.0
170
1
171
1
172
0
173
0
174
0
175
1
176
1
 91
33
178
0
145
0.0
301
CELL_VALUE
 90
4
  1
Open Cavity Quantity
304
ACVALUE_END
170
5
140
0.125
171
1
172
0
173
0
174
0
175
2
176
1
 91
33
178
0
145
0.0
301
CELL_VALUE
 90
4
  1
1
304
ACVALUE_END
170
5
140
0.125
171
1
172
0
173
1
174
0
175
1
176
1
 91
1
178
0
145
0.0
170
1
171
1
172
0
173
0
174
0
175
1
176
1
 91
33
178
0
145
0.0
301
CELL_VALUE
 90
4
  1
Stack Height
304
ACVALUE_END
170
5
140
0.125
171
1
172
0
173
0
174
0
175
1
176
1
 91
33
178
0
145
0.0
301
CELL_VALUE
 90
4
  1
1.75 in.
304
ACVALUE_END
170
5
140
0.125
171
1
172
0
173
0
174
0
175
1
176
1
 91
33
178
0
145
0.0
301
CELL_VALUE
 90
4
  1
44,5 mm
304
ACVALUE_END
170
5
140
0.125
171
1
172
0
173
0
174
0
175
1
176
1
 91
33
178
0
145
0.0
301
CELL_VALUE
 90
4
  1
Weight
304
ACVALUE_END
170
5
140
0.125
171
1
172
0
173
0
174
0
175
1
176
1
 91
33
178
0
145
0.0
301
CELL_VALUE
 90
4
  1
0.974 lb.
304
ACVALUE_END
170
5
140
0.125
171
1
172
0
173
0
174
0
175
1
176
1
 91
33
178
0
145
0.0
301
CELL_VALUE
 90
4
  1
0,442 kg.
304
ACVALUE_END
170
5
140
0.125
  0
MTEXT
  5
273
100
AcDbEntity
  8
0
100
AcDbMText
 62
2
  6
CONTINUOUS
  7
STANDARD
 71
1
 72
1
 10
0.52125
 20
5.75995
 30
0.0
 11
1.0
 21
0.0
 31
0.0
 44
0.6
  3
Notes\P \P1. Important: Carefully consider\P   the maximum system pressure. The\P   pressure rating of the manifold is\P   dependent on the manifold material,\P   with the port type/size a secondary\P   consideration. Manifolds\P   constructed of alu
  1
minum are not\P   rated for pressures higher than\P   3000 psi (210 bar), regardless of\P   the port type/size specified.\P2. Items without balloons are\P   shipped loose.
 40
0.1
 41
3.04
  0
LINE
  5
274
100
AcDbEntity
  8
0
100
AcDbLine
 62
7
  6
CONTINUOUS
 10
0.30125
 20
0.30125
 11
0.30125
 21
16.69875
  0
LINE
  5
275
100
AcDbEntity
  8
0
100
AcDbLine
 62
7
  6
CONTINUOUS
 10
0.30125
 20
0.30125
 11
21.69875
 21
0.30125
  0
LINE
  5
276
100
AcDbEntity
  8
0
100
AcDbLine
 62
7
  6
CONTINUOUS
 10
0.30125
 20
16.69875
 11
21.69875
 21
16.69875
  0
LINE
  5
277
100
AcDbEntity
  8
0
100
AcDbLine
 62
7
  6
CONTINUOUS
 10
21.69875
 20
0.30125
 11
21.69875
 21
16.69875
  0
LINE
  5
278
100
AcDbEntity
  8
0
100
AcDbLine
 62
7
  6
CONTINUOUS
 10
9.934818839
 20
10.2199891506
 11
10.3748108649
 21
10.644988837
  0
LINE
  5
279
100
AcDbEntity
  8
0
100
AcDbLine
 62
7
  6
CONTINUOUS
 10
10.625508917
 20
6.422701768
 11
10.6418117452
 21
6.414648483
  0
LINE
  5
27A
100
AcDbEntity
  8
0
100
AcDbLine
 62
7
  6
CONTINUOUS
 10
10.3690929413
 20
6.9424658897
 11
11.2142780894
 21
6.8838521006
  0
LINE
  5
27B
100
AcDbEntity
  8
0
100
AcDbLine
 62
7
  6
CONTINUOUS
 10
10.3610695575
 20
6.964659598
 11
11.2062547056
 21
6.9060458089
  0
LINE
  5
27C
100
AcDbEntity
  8
0
100
AcDbLine
 62
7
  6
CONTINUOUS
 10
10.0968392031
 20
7.0324031879
 11
10.1267056295
 21
7.0046093428
  0
LINE
  5
27D
100
AcDbEntity
  8
0
100
AcDbLine
 62
7
  6
CONTINUOUS
 10
10.3690929413
 20
6.9424658897
 11
10.3610695575
 21
6.964659598
  0
LINE
  5
27E
100
AcDbEntity
  8
0
100
AcDbLine
 62
7
  6
CONTINUOUS
 10
9.934818839
 20
10.2199891506
 11
9.934818839
 21
8.0466559127
  0
LINE
  5
27F
100
AcDbEntity
  8
0
100
AcDbLine
 62
7
  6
CONTINUOUS
 10
10.0831266194
 20
8.0363707332
 11
10.0831266194
 21
7.0584095262
  0
LINE
  5
280
100
AcDbEntity
  8
0
100
AcDbLine
 62
7
  6
CONTINUOUS
 10
10.3610695575
 20
6.964659598
 11
10.3610695575
 21
8.0170953249
  0
LINE
  5
281
100
AcDbEntity
  8
0
100
AcDbLine
 62
7
  6
CONTINUOUS
 10
10.2479461678
 20
9.1116070776
 11
10.248209305
 21
9.1194368855
  0
LINE
  5
282
100
AcDbEntity
  8
0
100
AcDbLine
 62
7
  6
CONTINUOUS
 10
12.065181161
 20
10.5277612588
 11
11.6251891351
 21
10.1027615724
  0
LINE
  5
283
100
AcDbEntity
  8
0
100
AcDbLine
 62
7
  6
CONTINUOUS
 10
10.4968202631
 20
9.0943475954
 11
10.4965571257
 21
9.086517792
  0
LINE
  5
284
100
AcDbEntity
  8
0
100
AcDbLine
 62
4
  6
CONTINUOUS
 10
11.6769529006
 20
9.9982133918
 11
11.6717765253
 21
9.993213397
  0
LINE
  5
285
100
AcDbEntity
  8
0
100
AcDbLine
 62
4
  6
CONTINUOUS
 10
11.9435363047
 20
10.0890909769
 11
11.9745945638
 21
10.1190909532
  0
LINE
  5
286
100
AcDbEntity
  8
0
100
AcDbLine
 62
7
  6
CONTINUOUS
 10
11.6251891351
 20
7.9294283345
 11
9.934818839
 21
8.0466559127
  0
LINE
  5
287
100
AcDbEntity
  8
0
100
AcDbLine
 62
7
  6
CONTINUOUS
 10
10.5435626654
 20
6.9303663733
 11
10.5435626654
 21
6.5244954271
  0
LINE
  5
288
100
AcDbEntity
  8
0
100
AcDbLine
 62
7
  6
CONTINUOUS
 10
10.6566174773
 20
6.8358922769
 11
10.6566174773
 21
6.4152930512
  0
LINE
  5
289
100
AcDbEntity
  8
0
100
AcDbLine
 62
7
  6
CONTINUOUS
 10
10.6984977048
 20
6.8250528902
 11
10.6984977048
 21
6.4044536644
  0
LINE
  5
28A
100
AcDbEntity
  8
0
100
AcDbLine
 62
4
  6
CONTINUOUS
 10
11.9487126819
 20
9.9202243184
 11
11.9538890572
 21
9.9252243132
  0
LINE
  5
28B
100
AcDbEntity
  8
0
100
AcDbLine
 62
4
  6
CONTINUOUS
 10
11.7549682886
 20
9.6837503379
 11
11.7483129471
 21
9.6773217712
  0
LINE
  5
28C
100
AcDbEntity
  8
0
100
AcDbLine
 62
4
  6
CONTINUOUS
 10
11.9745945638
 20
9.8872687463
 11
11.9435363047
 21
9.85726877
  0
LINE
  5
28D
100
AcDbEntity
  8
0
100
AcDbLine
 62
7
  6
CONTINUOUS
 10
11.2142780894
 20
6.8838521006
 11
11.2062547056
 21
6.9060458089
  0
LINE
  5
28E
100
AcDbEntity
  8
0
100
AcDbLine
 62
4
  6
CONTINUOUS
 10
11.7438760532
 20
9.6233599523
 11
11.7372207123
 21
9.6169313864
  0
LINE
  5
28F
100
AcDbEntity
  8
0
100
AcDbLine
 62
4
  6
CONTINUOUS
 10
11.9435363047
 20
9.7703354424
 11
11.9745945638
 21
9.8003354188
  0
LINE
  5
290
100
AcDbEntity
  8
0
100
AcDbLine
 62
4
  6
CONTINUOUS
 10
11.7549682886
 20
9.5595599015
 11
11.7372207123
 21
9.5424170582
  0
LINE
  5
291
100
AcDbEntity
  8
0
100
AcDbLine
 62
4
  6
CONTINUOUS
 10
11.7571867358
 20
9.5175461488
 11
11.7350022645
 21
9.4961175938
  0
LINE
  5
292
100
AcDbEntity
  8
0
100
AcDbLine
 62
4
  6
CONTINUOUS
 10
11.7283469246
 20
9.4896890287
 11
11.7261284767
 21
9.4875461725
  0
LINE
  5
293
100
AcDbEntity
  8
0
100
AcDbLine
 62
4
  6
CONTINUOUS
 10
11.9745945638
 20
9.7134020912
 11
11.9435363047
 21
9.6834021148
  0
LINE
  5
294
100
AcDbEntity
  8
0
100
AcDbLine
 62
4
  6
CONTINUOUS
 10
11.9155838571
 20
9.6512275492
 11
11.884525598
 21
9.6212275728
  0
LINE
  5
295
100
AcDbEntity
  8
0
100
AcDbLine
 62
4
  6
CONTINUOUS
 10
11.8889624919
 20
9.5785968424
 11
11.9111469628
 21
9.600025397
  0
LINE
  5
296
100
AcDbEntity
  8
0
100
AcDbLine
 62
4
  6
CONTINUOUS
 10
11.9745945638
 20
9.6554465395
 11
11.9435363047
 21
9.6254465631
  0
LINE
  5
297
100
AcDbEntity
  8
0
100
AcDbLine
 62
4
  6
CONTINUOUS
 10
11.7549682886
 20
9.4408890204
 11
11.7261284767
 21
9.4130318996
  0
LINE
  5
298
100
AcDbEntity
  8
0
100
AcDbLine
 62
4
  6
CONTINUOUS
 10
11.7571867358
 20
9.4099144336
 11
11.7350022645
 21
9.3884858786
  0
LINE
  5
299
100
AcDbEntity
  8
0
100
AcDbLine
 62
4
  6
CONTINUOUS
 10
11.9155838571
 20
9.5463555564
 11
11.884525598
 21
9.51635558
  0
LINE
  5
29A
100
AcDbEntity
  8
0
100
AcDbLine
 62
4
  6
CONTINUOUS
 10
11.8889624919
 20
9.4875238483
 11
11.9111469628
 21
9.5089524029
  0
LINE
  5
29B
100
AcDbEntity
  8
0
100
AcDbLine
 62
4
  6
CONTINUOUS
 10
11.7350022645
 20
9.3388096598
 11
11.7549682886
 21
9.3580953593
  0
LINE
  5
29C
100
AcDbEntity
  8
0
100
AcDbLine
 62
4
  6
CONTINUOUS
 10
11.7571867358
 20
9.3271207725
 11
11.7394391584
 21
9.3099779281
  0
LINE
  5
29D
100
AcDbEntity
  8
0
100
AcDbLine
 62
4
  6
CONTINUOUS
 10
11.9111469628
 20
9.4509968512
 11
11.8889624919
 21
9.4295682966
  0
LINE
  5
29E
100
AcDbEntity
  8
0
100
AcDbLine
 62
4
  6
CONTINUOUS
 10
11.7549682886
 20
9.2753017535
 11
11.7483129471
 21
9.2688731868
  0
LINE
  5
29F
100
AcDbEntity
  8
0
100
AcDbLine
 62
4
  6
CONTINUOUS
 10
11.7372207123
 20
9.222281635
 11
11.7416576062
 21
9.2265673456
  0
LINE
  5
2A0
100
AcDbEntity
  8
0
100
AcDbLine
 62
4
  6
CONTINUOUS
 10
11.8472556871
 20
9.3271873675
 11
11.8317265576
 21
9.3121873793
  0
LINE
  5
2A1
100
AcDbEntity
  8
0
100
AcDbLine
 62
4
  6
CONTINUOUS
 10
11.9111469628
 20
9.3544043019
 11
11.8889624919
 21
9.3329757473
  0
LINE
  5
2A2
100
AcDbEntity
  8
0
100
AcDbLine
 62
4
  6
CONTINUOUS
 10
11.7571867358
 20
9.2029303362
 11
11.7350022645
 21
9.1815017811
  0
LINE
  5
2A3
100
AcDbEntity
  8
0
100
AcDbLine
 62
7
  6
CONTINUOUS
 10
11.1204236837
 20
6.7957922241
 11
11.1204236837
 21
6.3751929984
  0
LINE
  5
2A4
100
AcDbEntity
  8
0
100
AcDbLine
 62
7
  6
CONTINUOUS
 10
11.1776331224
 20
6.7997597192
 11
11.1776331224
 21
6.3791604935
  0
LINE
  5
2A5
100
AcDbEntity
  8
0
100
AcDbLine
 62
4
  6
CONTINUOUS
 10
11.9513008695
 20
10.0458798632
 11
11.9590654343
 21
10.0606243012
  0
LINE
  5
2A6
100
AcDbEntity
  8
0
100
AcDbLine
 62
4
  6
CONTINUOUS
 10
11.9668299991
 20
9.9884354117
 11
11.9590654343
 21
9.9736909737
  0
LINE
  5
2A7
100
AcDbEntity
  8
0
100
AcDbLine
 62
4
  6
CONTINUOUS
 10
11.7261284767
 20
9.1398128622
 11
11.7571867358
 21
9.1698128385
  0
LINE
  5
2A8
100
AcDbEntity
  8
0
100
AcDbLine
 62
4
  6
CONTINUOUS
 10
11.8361634515
 20
9.2447185947
 11
11.8428187928
 21
9.2511471611
  0
LINE
  5
2A9
100
AcDbEntity
  8
0
100
AcDbLine
 62
4
  6
CONTINUOUS
 10
11.8206343219
 20
9.221439246
 11
11.8272896637
 21
9.2278678128
  0
LINE
  5
2AA
100
AcDbEntity
  8
0
100
AcDbLine
 62
4
  6
CONTINUOUS
 10
11.7549682886
 20
9.1179938195
 11
11.7372207123
 21
9.1008509762
  0
LINE
  5
2AB
100
AcDbEntity
  8
0
100
AcDbLine
 62
4
  6
CONTINUOUS
 10
11.8472556871
 20
9.1974773205
 11
11.816197428
 21
9.1674773442
  0
LINE
  5
2AC
100
AcDbEntity
  8
0
100
AcDbLine
 62
4
  6
CONTINUOUS
 10
12.0211819419
 20
9.3220104992
 11
12.0522402009
 21
9.3520104756
  0
LINE
  5
2AD
100
AcDbEntity
  8
0
100
AcDbLine
 62
4
  6
CONTINUOUS
 10
11.9155838571
 20
9.1848233302
 11
11.884525598
 21
9.1548233538
  0
LINE
  5
2AE
100
AcDbEntity
  8
0
100
AcDbLine
 62
4
  6
CONTINUOUS
 10
11.8472556871
 20
9.1146836732
 11
11.816197428
 21
9.0846836969
  0
LINE
  5
2AF
100
AcDbEntity
  8
0
100
AcDbLine
 62
4
  6
CONTINUOUS
 10
11.7372207123
 20
8.995979011
 11
11.7571867358
 21
9.0152647099
  0
LINE
  5
2B0
100
AcDbEntity
  8
0
100
AcDbLine
 62
4
  6
CONTINUOUS
 10
11.9435363047
 20
9.1907799253
 11
11.9745945638
 21
9.2207799016
  0
LINE
  5
2B1
100
AcDbEntity
  8
0
100
AcDbLine
 62
4
  6
CONTINUOUS
 10
12.0522402009
 20
9.2940549238
 11
12.0211819419
 21
9.2640549475
  0
LINE
  5
2B2
100
AcDbEntity
  8
0
100
AcDbLine
 62
7
  6
CONTINUOUS
 10
11.2062547056
 20
6.9060458089
 11
11.2062547056
 21
7.9584815358
  0
LINE
  5
2B3
100
AcDbEntity
  8
0
100
AcDbLine
 62
4
  6
CONTINUOUS
 10
11.6795410901
 20
10.007957835
 11
11.6769529006
 21
9.9982133918
  0
LINE
  5
2B4
100
AcDbEntity
  8
0
100
AcDbLine
 62
4
  6
CONTINUOUS
 10
11.9590654343
 20
9.908490978
 11
11.9745945638
 21
9.9452242981
  0
LINE
  5
2B5
100
AcDbEntity
  8
0
100
AcDbLine
 62
4
  6
CONTINUOUS
 10
11.9513008695
 20
9.5822354495
 11
11.9590654343
 21
9.5969798875
  0
LINE
  5
2B6
100
AcDbEntity
  8
0
100
AcDbLine
 62
4
  6
CONTINUOUS
 10
11.9155838571
 20
9.1185884179
 11
11.884525598
 21
9.0885884415
  0
LINE
  5
2B7
100
AcDbEntity
  8
0
100
AcDbLine
 62
4
  6
CONTINUOUS
 10
11.7571867358
 20
8.9655885187
 11
11.7261284767
 21
8.9355885424
  0
LINE
  5
2B8
100
AcDbEntity
  8
0
100
AcDbLine
 62
4
  6
CONTINUOUS
 10
11.9487126819
 20
9.1088465943
 11
11.9538890572
 21
9.1138465892
  0
LINE
  5
2B9
100
AcDbEntity
  8
0
100
AcDbLine
 62
4
  6
CONTINUOUS
 10
12.0478033066
 20
9.1931766358
 11
12.0256188357
 21
9.1717480812
  0
LINE
  5
2BA
100
AcDbEntity
  8
0
100
AcDbLine
 62
4
  6
CONTINUOUS
 10
11.9745945638
 20
9.0758910223
 11
11.9435363047
 21
9.045891046
  0
LINE
  5
2BB
100
AcDbEntity
  8
0
100
AcDbLine
 62
4
  6
CONTINUOUS
 10
12.0522402009
 20
9.1312274346
 11
12.0211819419
 21
9.1012274582
  0
LINE
  5
2BC
100
AcDbEntity
  8
0
100
AcDbLine
 62
4
  6
CONTINUOUS
 10
11.7571867358
 20
8.8413980547
 11
11.7261284767
 21
8.8113980784
  0
LINE
  5
2BD
100
AcDbEntity
  8
0
100
AcDbLine
 62
4
  6
CONTINUOUS
 10
11.8889624919
 20
8.9134879141
 11
11.9111469628
 21
8.9349164687
  0
LINE
  5
2BE
100
AcDbEntity
  8
0
100
AcDbLine
 62
4
  6
CONTINUOUS
 10
11.7571867358
 20
8.783442503
 11
11.7261284767
 21
8.7534425266
  0
LINE
  5
2BF
100
AcDbEntity
  8
0
100
AcDbLine
 62
4
  6
CONTINUOUS
 10
12.0256188357
 20
9.0392782566
 11
12.0478033066
 21
9.0607068112
  0
LINE
  5
2C0
100
AcDbEntity
  8
0
100
AcDbLine
 62
4
  6
CONTINUOUS
 10
11.9745945638
 20
8.6050021646
 11
11.9435363047
 21
8.6112244081
  0
LINE
  5
2C1
100
AcDbEntity
  8
0
100
AcDbLine
 62
7
  6
CONTINUOUS
 10
11.4865042894
 20
6.8797014291
 11
11.4865042894
 21
6.4591022033
  0
LINE
  5
2C2
100
AcDbEntity
  8
0
100
AcDbLine
 62
4
  6
CONTINUOUS
 10
11.6821292778
 20
10.0249467204
 11
11.6795410901
 21
10.007957835
  0
LINE
  5
2C3
100
AcDbEntity
  8
0
100
AcDbLine
 62
4
  6
CONTINUOUS
 10
11.7350022645
 20
9.6561853054
 11
11.7372207123
 21
9.6666074946
  0
LINE
  5
2C4
100
AcDbEntity
  8
0
100
AcDbLine
 62
4
  6
CONTINUOUS
 10
11.7394391584
 20
9.3099779281
 11
11.7350022645
 21
9.2974128845
  0
LINE
  5
2C5
100
AcDbEntity
  8
0
100
AcDbLine
 62
4
  6
CONTINUOUS
 10
11.7350022645
 20
9.0269536248
 11
11.7571867358
 21
9.0732202892
  0
LINE
  5
2C6
100
AcDbEntity
  8
0
100
AcDbLine
 62
4
  6
CONTINUOUS
 10
11.9668299991
 20
9.524790998
 11
11.9590654343
 21
9.5100465599
  0
LINE
  5
2C7
100
AcDbEntity
  8
0
100
AcDbLine
 62
4
  6
CONTINUOUS
 10
11.9668299991
 20
9.4088798946
 11
11.9590654343
 21
9.3941354565
  0
LINE
  5
2C8
100
AcDbEntity
  8
0
100
AcDbLine
 62
4
  6
CONTINUOUS
 10
11.7527498414
 20
8.7460393357
 11
11.7261284767
 21
8.7203250705
  0
LINE
  5
2C9
100
AcDbEntity
  8
0
100
AcDbLine
 62
4
  6
CONTINUOUS
 10
11.9155838571
 20
8.881246635
 11
11.884525598
 21
8.8512466586
  0
LINE
  5
2CA
100
AcDbEntity
  8
0
100
AcDbLine
 62
4
  6
CONTINUOUS
 10
12.0478033066
 20
9.0027512594
 11
12.0256188357
 21
8.9813227048
  0
LINE
  5
2CB
100
AcDbEntity
  8
0
100
AcDbLine
 62
4
  6
CONTINUOUS
 10
11.7261284767
 20
8.6623695188
 11
11.7527498414
 21
8.688083784
  0
LINE
  5
2CC
100
AcDbEntity
  8
0
100
AcDbLine
 62
4
  6
CONTINUOUS
 10
11.9487126819
 20
8.8770243875
 11
11.9538890572
 21
8.8820243823
  0
LINE
  5
2CD
100
AcDbEntity
  8
0
100
AcDbLine
 62
4
  6
CONTINUOUS
 10
12.0522402009
 20
8.9739195144
 11
12.0211819419
 21
8.943919538
  0
LINE
  5
2CE
100
AcDbEntity
  8
0
100
AcDbLine
 62
4
  6
CONTINUOUS
 10
11.7527498414
 20
8.6549663279
 11
11.7483129471
 21
8.6506806168
  0
LINE
  5
2CF
100
AcDbEntity
  8
0
100
AcDbLine
 62
4
  6
CONTINUOUS
 10
11.9745945638
 20
8.8440688154
 11
11.9435363047
 21
8.8140688391
  0
LINE
  5
2D0
100
AcDbEntity
  8
0
100
AcDbLine
 62
4
  6
CONTINUOUS
 10
12.0522402009
 20
8.9159639627
 11
12.0211819419
 21
8.8859639863
  0
LINE
  5
2D1
100
AcDbEntity
  8
0
100
AcDbLine
 62
4
  6
CONTINUOUS
 10
11.7350022645
 20
8.5798679322
 11
11.7305653706
 21
8.5755822216
  0
LINE
  5
2D2
100
AcDbEntity
  8
0
100
AcDbLine
 62
4
  6
CONTINUOUS
 10
12.0522402009
 20
8.8248909543
 11
12.0172996595
 21
8.7911409809
  0
LINE
  5
2D3
100
AcDbEntity
  8
0
100
AcDbLine
 62
4
  6
CONTINUOUS
 10
11.9590654343
 20
8.9304910428
 11
11.9513008695
 21
8.9302354927
  0
LINE
  5
2D4
100
AcDbEntity
  8
0
100
AcDbLine
 62
4
  6
CONTINUOUS
 10
11.9590654343
 20
9.0174243704
 11
11.9668299991
 21
9.0176799205
  0
LINE
  5
2D5
100
AcDbEntity
  8
0
100
AcDbLine
 62
7
  6
CONTINUOUS
 10
11.5018335005
 20
6.8945083109
 11
11.5018335005
 21
6.4739090852
  0
LINE
  5
2D6
100
AcDbEntity
  8
0
100
AcDbLine
 62
7
  6
CONTINUOUS
 10
11.6251891351
 20
10.1027615724
 11
11.6251891351
 21
7.9294283345
  0
LINE
  5
2D7
100
AcDbEntity
  8
0
100
AcDbLine
 62
4
  6
CONTINUOUS
 10
11.6510710187
 20
10.0311689638
 11
11.6510710187
 21
9.9732134121
  0
LINE
  5
2D8
100
AcDbEntity
  8
0
100
AcDbLine
 62
4
  6
CONTINUOUS
 10
11.7571867358
 20
9.2940033302
 11
11.7549682886
 21
9.2753017535
  0
LINE
  5
2D9
100
AcDbEntity
  8
0
100
AcDbLine
 62
4
  6
CONTINUOUS
 10
11.7483129471
 20
9.6773217712
 11
11.7468339824
 21
9.6676138681
  0
LINE
  5
2DA
100
AcDbEntity
  8
0
100
AcDbLine
 62
4
  6
CONTINUOUS
 10
11.7453550178
 20
9.6330678555
 11
11.7438760532
 21
9.6233599523
  0
LINE
  5
2DB
100
AcDbEntity
  8
0
100
AcDbLine
 62
4
  6
CONTINUOUS
 10
11.7549682886
 20
9.6340742296
 11
11.7571867358
 21
9.6444964181
  0
LINE
  5
2DC
100
AcDbEntity
  8
0
100
AcDbLine
 62
4
  6
CONTINUOUS
 10
11.7571867358
 20
9.56998209
 11
11.7549682886
 21
9.5595599015
  0
LINE
  5
2DD
100
AcDbEntity
  8
0
100
AcDbLine
 62
4
  6
CONTINUOUS
 10
11.7571867358
 20
9.4513112642
 11
11.7549682886
 21
9.4408890204
  0
LINE
  5
2DE
100
AcDbEntity
  8
0
100
AcDbLine
 62
4
  6
CONTINUOUS
 10
11.7549682886
 20
9.3580953593
 11
11.7571867358
 21
9.3685176031
  0
LINE
  5
2DF
100
AcDbEntity
  8
0
100
AcDbLine
 62
4
  6
CONTINUOUS
 10
11.7350022645
 20
8.9855567942
 11
11.7372207123
 21
8.995979011
  0
LINE
  5
2E0
100
AcDbEntity
  8
0
100
AcDbLine
 62
4
  6
CONTINUOUS
 10
11.884525598
 20
9.5577524106
 11
11.8889624919
 21
9.5785968424
  0
LINE
  5
2E1
100
AcDbEntity
  8
0
100
AcDbLine
 62
4
  6
CONTINUOUS
 10
11.9461244924
 20
10.0263909786
 11
11.9513008695
 21
10.0458798632
  0
LINE
  5
2E2
100
AcDbEntity
  8
0
100
AcDbLine
 62
4
  6
CONTINUOUS
 10
11.9461244924
 20
9.9104798752
 11
11.9487126819
 21
9.9202243184
  0
LINE
  5
2E3
100
AcDbEntity
  8
0
100
AcDbLine
 62
4
  6
CONTINUOUS
 10
11.9720063755
 20
10.0079242956
 11
11.9668299991
 21
9.9884354117
  0
LINE
  5
2E4
100
AcDbEntity
  8
0
100
AcDbLine
 62
4
  6
CONTINUOUS
 10
11.9461244924
 20
9.5627465649
 11
11.9513008695
 21
9.5822354495
  0
LINE
  5
2E5
100
AcDbEntity
  8
0
100
AcDbLine
 62
4
  6
CONTINUOUS
 10
11.7350022645
 20
9.2146192234
 11
11.7372207123
 21
9.222281635
  0
LINE
  5
2E6
100
AcDbEntity
  8
0
100
AcDbLine
 62
4
  6
CONTINUOUS
 10
11.9435363047
 20
9.6254465631
 11
11.9745945638
 21
9.7134020912
  0
LINE
  5
2E7
100
AcDbEntity
  8
0
100
AcDbLine
 62
4
  6
CONTINUOUS
 10
11.7261284767
 20
8.7534425266
 11
11.7571867358
 21
8.8413980547
  0
LINE
  5
2E8
100
AcDbEntity
  8
0
100
AcDbLine
 62
4
  6
CONTINUOUS
 10
11.9590654343
 20
9.097113254
 11
11.9745945638
 21
9.133846574
  0
LINE
  5
2E9
100
AcDbEntity
  8
0
100
AcDbLine
 62
4
  6
CONTINUOUS
 10
11.884525598
 20
8.9892360593
 11
11.9155838571
 21
9.0523535056
  0
LINE
  5
2EA
100
AcDbEntity
  8
0
100
AcDbLine
 62
4
  6
CONTINUOUS
 10
11.9513008695
 20
9.0026799323
 11
11.9590654343
 21
9.0174243704
  0
LINE
  5
2EB
100
AcDbEntity
  8
0
100
AcDbLine
 62
4
  6
CONTINUOUS
 10
11.9668299991
 20
8.9452354808
 11
11.9590654343
 21
8.9304910428
  0
LINE
  5
2EC
100
AcDbEntity
  8
0
100
AcDbLine
 62
4
  6
CONTINUOUS
 10
11.9155838571
 20
8.9861185795
 11
11.884525598
 21
8.9892360593
  0
LINE
  5
2ED
100
AcDbEntity
  8
0
100
AcDbLine
 62
7
  6
CONTINUOUS
 10
11.6655339738
 20
6.9746755418
 11
11.6655339738
 21
7.9683984584
  0
LINE
  5
2EE
100
AcDbEntity
  8
0
100
AcDbLine
 62
4
  6
CONTINUOUS
 10
11.6821292778
 20
10.0394356083
 11
11.6821292778
 21
10.0249467204
  0
LINE
  5
2EF
100
AcDbEntity
  8
0
100
AcDbLine
 62
4
  6
CONTINUOUS
 10
11.7261284767
 20
8.5878552407
 11
11.7261284767
 21
8.6209726986
  0
LINE
  5
2F0
100
AcDbEntity
  8
0
100
AcDbLine
 62
4
  6
CONTINUOUS
 10
11.7261284767
 20
9.4875461725
 11
11.7261284767
 21
9.4903059501
  0
LINE
  5
2F1
100
AcDbEntity
  8
0
100
AcDbLine
 62
4
  6
CONTINUOUS
 10
11.7350022645
 20
9.2974128845
 11
11.7350022645
 21
9.256016054
  0
LINE
  5
2F2
100
AcDbEntity
  8
0
100
AcDbLine
 62
4
  6
CONTINUOUS
 10
11.7350022645
 20
8.9441599637
 11
11.7350022645
 21
8.9855567942
  0
LINE
  5
2F3
100
AcDbEntity
  8
0
100
AcDbLine
 62
4
  6
CONTINUOUS
 10
11.7350022645
 20
9.1152668412
 11
11.7350022645
 21
9.1483842835
  0
LINE
  5
2F4
100
AcDbEntity
  8
0
100
AcDbLine
 62
4
  6
CONTINUOUS
 10
11.7350022645
 20
9.1815017811
 11
11.7350022645
 21
9.2146192234
  0
LINE
  5
2F5
100
AcDbEntity
  8
0
100
AcDbLine
 62
4
  6
CONTINUOUS
 10
11.7350022645
 20
9.5485535349
 11
11.7350022645
 21
9.5816710878
  0
LINE
  5
2F6
100
AcDbEntity
  8
0
100
AcDbLine
 62
4
  6
CONTINUOUS
 10
11.7350022645
 20
9.6230678631
 11
11.7350022645
 21
9.6561853054
  0
LINE
  5
2F7
100
AcDbEntity
  8
0
100
AcDbLine
 62
4
  6
CONTINUOUS
 10
11.7460945001
 20
9.2832890527
 11
11.7460945001
 21
9.316406495
  0
LINE
  5
2F8
100
AcDbEntity
  8
0
100
AcDbLine
 62
4
  6
CONTINUOUS
 10
11.7571867358
 20
9.6030996429
 11
11.7571867358
 21
9.56998209
  0
LINE
  5
2F9
100
AcDbEntity
  8
0
100
AcDbLine
 62
4
  6
CONTINUOUS
 10
11.7571867358
 20
9.4678699853
 11
11.7571867358
 21
9.4513112642
  0
LINE
  5
2FA
100
AcDbEntity
  8
0
100
AcDbLine
 62
4
  6
CONTINUOUS
 10
11.7571867358
 20
9.3271207725
 11
11.7571867358
 21
9.2940033302
  0
LINE
  5
2FB
100
AcDbEntity
  8
0
100
AcDbLine
 62
4
  6
CONTINUOUS
 10
11.7571867358
 20
9.1698128385
 11
11.7571867358
 21
9.1366953962
  0
LINE
  5
2FC
100
AcDbEntity
  8
0
100
AcDbLine
 62
4
  6
CONTINUOUS
 10
11.7571867358
 20
8.6095758522
 11
11.7571867358
 21
8.6426933109
  0
LINE
  5
2FD
100
AcDbEntity
  8
0
100
AcDbLine
 62
4
  6
CONTINUOUS
 10
11.7571867358
 20
8.7089282232
 11
11.7571867358
 21
8.7337663257
  0
LINE
  5
2FE
100
AcDbEntity
  8
0
100
AcDbLine
 62
4
  6
CONTINUOUS
 10
11.7571867358
 20
9.3685176031
 11
11.7571867358
 21
9.4099144336
  0
LINE
  5
2FF
100
AcDbEntity
  8
0
100
AcDbLine
 62
4
  6
CONTINUOUS
 10
11.7571867358
 20
9.6444964181
 11
11.7571867358
 21
9.6776138605
  0
LINE
  5
300
100
AcDbEntity
  8
0
100
AcDbLine
 62
4
  6
CONTINUOUS
 10
11.7645815594
 20
9.0555250314
 11
11.7645815594
 21
9.0720837525
  0
LINE
  5
301
100
AcDbEntity
  8
0
100
AcDbLine
 62
4
  6
CONTINUOUS
 10
11.816197428
 20
9.0846836969
 11
11.816197428
 21
9.1343598846
  0
LINE
  5
302
100
AcDbEntity
  8
0
100
AcDbLine
 62
4
  6
CONTINUOUS
 10
11.816197428
 20
9.1674773442
 11
11.816197428
 21
9.1923154328
  0
LINE
  5
303
100
AcDbEntity
  8
0
100
AcDbLine
 62
4
  6
CONTINUOUS
 10
11.7468339824
 20
9.6676138681
 11
11.7453550178
 21
9.6330678555
  0
LINE
  5
304
100
AcDbEntity
  8
0
100
AcDbLine
 62
4
  6
CONTINUOUS
 10
11.816197428
 20
9.1923154328
 11
11.8169369113
 21
9.2013090863
  0
LINE
  5
305
100
AcDbEntity
  8
0
100
AcDbLine
 62
4
  6
CONTINUOUS
 10
11.7571867358
 20
9.1366953962
 11
11.7549682886
 21
9.1179938195
  0
LINE
  5
306
100
AcDbEntity
  8
0
100
AcDbLine
 62
4
  6
CONTINUOUS
 10
11.8963573151
 20
9.7154497404
 11
11.9022731745
 21
9.7653206304
  0
LINE
  5
307
100
AcDbEntity
  8
0
100
AcDbLine
 62
4
  6
CONTINUOUS
 10
11.9435363047
 20
10.0094020932
 11
11.9461244924
 21
10.0263909786
  0
LINE
  5
308
100
AcDbEntity
  8
0
100
AcDbLine
 62
4
  6
CONTINUOUS
 10
11.9435363047
 20
9.8934909898
 11
11.9461244924
 21
9.9104798752
  0
LINE
  5
309
100
AcDbEntity
  8
0
100
AcDbLine
 62
4
  6
CONTINUOUS
 10
11.9745945638
 20
10.0249131817
 11
11.9720063755
 21
10.0079242956
  0
LINE
  5
30A
100
AcDbEntity
  8
0
100
AcDbLine
 62
4
  6
CONTINUOUS
 10
11.9435363047
 20
9.5457576795
 11
11.9461244924
 21
9.5627465649
  0
LINE
  5
30B
100
AcDbEntity
  8
0
100
AcDbLine
 62
4
  6
CONTINUOUS
 10
11.9435363047
 20
9.4298465761
 11
11.9461244924
 21
9.4468354614
  0
LINE
  5
30C
100
AcDbEntity
  8
0
100
AcDbLine
 62
4
  6
CONTINUOUS
 10
11.9745945638
 20
9.5612687679
 11
11.9720063755
 21
9.5442798819
  0
LINE
  5
30D
100
AcDbEntity
  8
0
100
AcDbLine
 62
4
  6
CONTINUOUS
 10
11.8169369113
 20
9.2013090863
 11
11.8206343219
 21
9.221439246
  0
LINE
  5
30E
100
AcDbEntity
  8
0
100
AcDbLine
 62
4
  6
CONTINUOUS
 10
11.7483129471
 20
8.6506806168
 11
11.7350022645
 21
8.5798679322
  0
LINE
  5
30F
100
AcDbEntity
  8
0
100
AcDbLine
 62
4
  6
CONTINUOUS
 10
11.8317265576
 20
9.2238741491
 11
11.8361634515
 21
9.2447185947
  0
LINE
  5
310
100
AcDbEntity
  8
0
100
AcDbLine
 62
4
  6
CONTINUOUS
 10
11.884525598
 20
9.4666794165
 11
11.8889624919
 21
9.4875238483
  0
LINE
  5
311
100
AcDbEntity
  8
0
100
AcDbLine
 62
4
  6
CONTINUOUS
 10
11.7261284767
 20
8.6209726986
 11
11.7283469246
 21
8.6313949188
  0
LINE
  5
312
100
AcDbEntity
  8
0
100
AcDbLine
 62
4
  6
CONTINUOUS
 10
11.9155838571
 20
9.4718412835
 11
11.9111469628
 21
9.4509968512
  0
LINE
  5
313
100
AcDbEntity
  8
0
100
AcDbLine
 62
4
  6
CONTINUOUS
 10
11.7527498414
 20
8.688083784
 11
11.7571867358
 21
8.7089282232
  0
LINE
  5
314
100
AcDbEntity
  8
0
100
AcDbLine
 62
4
  6
CONTINUOUS
 10
11.9155838571
 20
9.3752487341
 11
11.9111469628
 21
9.3544043019
  0
LINE
  5
315
100
AcDbEntity
  8
0
100
AcDbLine
 62
4
  6
CONTINUOUS
 10
11.7549682886
 20
8.5991536317
 11
11.7571867358
 21
8.6095758522
  0
LINE
  5
316
100
AcDbEntity
  8
0
100
AcDbLine
 62
4
  6
CONTINUOUS
 10
11.884525598
 20
8.8926434754
 11
11.8889624919
 21
8.9134879141
  0
LINE
  5
317
100
AcDbEntity
  8
0
100
AcDbLine
 62
4
  6
CONTINUOUS
 10
11.9461244924
 20
9.4468354614
 11
11.9487126819
 21
9.4565799046
  0
LINE
  5
318
100
AcDbEntity
  8
0
100
AcDbLine
 62
4
  6
CONTINUOUS
 10
11.9720063755
 20
9.5442798819
 11
11.9668299991
 21
9.524790998
  0
LINE
  5
319
100
AcDbEntity
  8
0
100
AcDbLine
 62
4
  6
CONTINUOUS
 10
11.9720063755
 20
9.4283687785
 11
11.9668299991
 21
9.4088798946
  0
LINE
  5
31A
100
AcDbEntity
  8
0
100
AcDbLine
 62
4
  6
CONTINUOUS
 10
11.9461244924
 20
9.0991021511
 11
11.9487126819
 21
9.1088465943
  0
LINE
  5
31B
100
AcDbEntity
  8
0
100
AcDbLine
 62
4
  6
CONTINUOUS
 10
11.9461244924
 20
8.9831910477
 11
11.9513008695
 21
9.0026799323
  0
LINE
  5
31C
100
AcDbEntity
  8
0
100
AcDbLine
 62
4
  6
CONTINUOUS
 10
11.9435363047
 20
8.6112244081
 11
11.9745945638
 21
8.6774466043
  0
LINE
  5
31D
100
AcDbEntity
  8
0
100
AcDbLine
 62
4
  6
CONTINUOUS
 10
12.0082410126
 20
8.4539761056
 11
12.0392992717
 21
8.483976082
  0
LINE
  5
31E
100
AcDbEntity
  8
0
100
AcDbLine
 62
4
  6
CONTINUOUS
 10
11.7645815594
 20
9.0720837525
 11
11.7350022645
 21
9.0766297883
  0
LINE
  5
31F
100
AcDbEntity
  8
0
100
AcDbLine
 62
4
  6
CONTINUOUS
 10
11.7305653706
 20
8.5755822216
 11
11.7261284767
 21
8.5878552407
  0
LINE
  5
320
100
AcDbEntity
  8
0
100
AcDbLine
 62
4
  6
CONTINUOUS
 10
11.7571867358
 20
8.6426933109
 11
11.7527498414
 21
8.6549663279
  0
LINE
  5
321
100
AcDbEntity
  8
0
100
AcDbLine
 62
4
  6
CONTINUOUS
 10
11.7571867358
 20
8.7337663257
 11
11.7527498414
 21
8.7460393357
  0
LINE
  5
322
100
AcDbEntity
  8
0
100
AcDbLine
 62
4
  6
CONTINUOUS
 10
11.8295081097
 20
9.1472170165
 11
11.8295081097
 21
9.0975408288
  0
LINE
  5
323
100
AcDbEntity
  8
0
100
AcDbLine
 62
4
  6
CONTINUOUS
 10
11.8317265576
 20
9.1824773324
 11
11.8317265576
 21
9.2238741491
  0
LINE
  5
324
100
AcDbEntity
  8
0
100
AcDbLine
 62
4
  6
CONTINUOUS
 10
11.8406003458
 20
9.3400773137
 11
11.8406003458
 21
9.282121762
  0
LINE
  5
325
100
AcDbEntity
  8
0
100
AcDbLine
 62
4
  6
CONTINUOUS
 10
11.8472556871
 20
9.2388741373
 11
11.8472556871
 21
9.1974773205
  0
LINE
  5
326
100
AcDbEntity
  8
0
100
AcDbLine
 62
4
  6
CONTINUOUS
 10
11.884525598
 20
8.8512466586
 11
11.884525598
 21
8.8926434754
  0
LINE
  5
327
100
AcDbEntity
  8
0
100
AcDbLine
 62
4
  6
CONTINUOUS
 10
11.884525598
 20
9.0554709716
 11
11.884525598
 21
9.1217058839
  0
LINE
  5
328
100
AcDbEntity
  8
0
100
AcDbLine
 62
4
  6
CONTINUOUS
 10
11.884525598
 20
9.1548233538
 11
11.884525598
 21
9.204499545
  0
LINE
  5
329
100
AcDbEntity
  8
0
100
AcDbLine
 62
4
  6
CONTINUOUS
 10
11.884525598
 20
9.3452487578
 11
11.884525598
 21
9.3783662001
  0
LINE
  5
32A
100
AcDbEntity
  8
0
100
AcDbLine
 62
4
  6
CONTINUOUS
 10
11.884525598
 20
9.4418413071
 11
11.884525598
 21
9.4666794165
  0
LINE
  5
32B
100
AcDbEntity
  8
0
100
AcDbLine
 62
4
  6
CONTINUOUS
 10
11.884525598
 20
9.51635558
 11
11.884525598
 21
9.5577524106
  0
LINE
  5
32C
100
AcDbEntity
  8
0
100
AcDbLine
 62
4
  6
CONTINUOUS
 10
11.884525598
 20
9.6212275728
 11
11.884525598
 21
9.6709037363
  0
LINE
  5
32D
100
AcDbEntity
  8
0
100
AcDbLine
 62
4
  6
CONTINUOUS
 10
11.8978362797
 20
9.6672021471
 11
11.8978362797
 21
9.6340847048
  0
LINE
  5
32E
100
AcDbEntity
  8
0
100
AcDbLine
 62
4
  6
CONTINUOUS
 10
11.8978362797
 20
9.2007979557
 11
11.8978362797
 21
9.1676804858
  0
LINE
  5
32F
100
AcDbEntity
  8
0
100
AcDbLine
 62
7
  6
CONTINUOUS
 10
11.9031296611
 20
7.204175366
 11
11.9031296611
 21
8.1978982826
  0
LINE
  5
330
100
AcDbEntity
  8
0
100
AcDbLine
 62
4
  6
CONTINUOUS
 10
11.9067100684
 20
8.9885863093
 11
11.9067100684
 21
9.0327429175
  0
LINE
  5
331
100
AcDbEntity
  8
0
100
AcDbLine
 62
4
  6
CONTINUOUS
 10
11.9155838571
 20
9.5877523869
 11
11.9155838571
 21
9.5463555564
  0
LINE
  5
332
100
AcDbEntity
  8
0
100
AcDbLine
 62
4
  6
CONTINUOUS
 10
11.9155838571
 20
9.4966793929
 11
11.9155838571
 21
9.4718412835
  0
LINE
  5
333
100
AcDbEntity
  8
0
100
AcDbLine
 62
4
  6
CONTINUOUS
 10
11.9155838571
 20
9.4083661765
 11
11.9155838571
 21
9.3752487341
  0
LINE
  5
334
100
AcDbEntity
  8
0
100
AcDbLine
 62
4
  6
CONTINUOUS
 10
11.9155838571
 20
8.9226434517
 11
11.9155838571
 21
8.881246635
  0
LINE
  5
335
100
AcDbEntity
  8
0
100
AcDbLine
 62
4
  6
CONTINUOUS
 10
11.9155838571
 20
9.1848233302
 11
11.9155838571
 21
9.2344995213
  0
LINE
  5
336
100
AcDbEntity
  8
0
100
AcDbLine
 62
4
  6
CONTINUOUS
 10
11.9155838571
 20
9.6512275492
 11
11.9155838571
 21
9.7009037127
  0
LINE
  5
337
100
AcDbEntity
  8
0
100
AcDbLine
 62
7
  6
CONTINUOUS
 10
11.9159074548
 20
8.2102406842
 11
11.9159074548
 21
7.2292955613
  0
LINE
  5
338
100
AcDbEntity
  8
0
100
AcDbLine
 62
4
  6
CONTINUOUS
 10
11.9435363047
 20
8.8140688391
 11
11.9435363047
 21
8.8502910589
  0
LINE
  5
339
100
AcDbEntity
  8
0
100
AcDbLine
 62
4
  6
CONTINUOUS
 10
11.9435363047
 20
8.9517132744
 11
11.9435363047
 21
8.9662021624
  0
LINE
  5
33A
100
AcDbEntity
  8
0
100
AcDbLine
 62
4
  6
CONTINUOUS
 10
11.9435363047
 20
9.045891046
 11
11.9435363047
 21
9.0821132658
  0
LINE
  5
33B
100
AcDbEntity
  8
0
100
AcDbLine
 62
4
  6
CONTINUOUS
 10
11.9435363047
 20
9.1545577054
 11
11.9435363047
 21
9.2270021451
  0
LINE
  5
33C
100
AcDbEntity
  8
0
100
AcDbLine
 62
4
  6
CONTINUOUS
 10
11.9435363047
 20
9.4153576882
 11
11.9435363047
 21
9.4298465761
  0
LINE
  5
33D
100
AcDbEntity
  8
0
100
AcDbLine
 62
4
  6
CONTINUOUS
 10
11.9435363047
 20
9.5312687916
 11
11.9435363047
 21
9.5457576795
  0
LINE
  5
33E
100
AcDbEntity
  8
0
100
AcDbLine
 62
4
  6
CONTINUOUS
 10
11.9435363047
 20
9.7341132226
 11
11.9435363047
 21
9.8065576622
  0
LINE
  5
33F
100
AcDbEntity
  8
0
100
AcDbLine
 62
4
  6
CONTINUOUS
 10
11.9435363047
 20
9.85726877
 11
11.9435363047
 21
9.8934909898
  0
LINE
  5
340
100
AcDbEntity
  8
0
100
AcDbLine
 62
4
  6
CONTINUOUS
 10
11.9435363047
 20
9.9949132053
 11
11.9435363047
 21
10.0094020932
  0
LINE
  5
341
100
AcDbEntity
  8
0
100
AcDbLine
 62
4
  6
CONTINUOUS
 10
11.9590654343
 20
9.908490978
 11
11.9590654343
 21
9.8722687582
  0
LINE
  5
342
100
AcDbEntity
  8
0
100
AcDbLine
 62
4
  6
CONTINUOUS
 10
11.9590654343
 20
9.097113254
 11
11.9590654343
 21
9.0608910341
  0
LINE
  5
343
100
AcDbEntity
  8
0
100
AcDbLine
 62
4
  6
CONTINUOUS
 10
11.9590654343
 20
8.8652910471
 11
11.9590654343
 21
8.8290688273
  0
LINE
  5
344
100
AcDbEntity
  8
0
100
AcDbLine
 62
4
  6
CONTINUOUS
 10
11.9642418105
 20
8.6094910601
 11
11.9642418105
 21
8.6529577239
  0
LINE
  5
345
100
AcDbEntity
  8
0
100
AcDbLine
 62
4
  6
CONTINUOUS
 10
11.9745945638
 20
10.0394020696
 11
11.9745945638
 21
10.0249131817
  0
LINE
  5
346
100
AcDbEntity
  8
0
100
AcDbLine
 62
4
  6
CONTINUOUS
 10
11.9745945638
 20
9.5757576559
 11
11.9745945638
 21
9.5612687679
  0
LINE
  5
347
100
AcDbEntity
  8
0
100
AcDbLine
 62
4
  6
CONTINUOUS
 10
11.9745945638
 20
9.4598465524
 11
11.9745945638
 21
9.4453576645
  0
LINE
  5
348
100
AcDbEntity
  8
0
100
AcDbLine
 62
4
  6
CONTINUOUS
 10
11.9745945638
 20
8.9962021387
 11
11.9745945638
 21
8.9817132508
  0
LINE
  5
349
100
AcDbEntity
  8
0
100
AcDbLine
 62
4
  6
CONTINUOUS
 10
11.9745945638
 20
10.1190909532
 11
11.9745945638
 21
10.1770465049
  0
LINE
  5
34A
100
AcDbEntity
  8
0
100
AcDbLine
 62
4
  6
CONTINUOUS
 10
11.9022731745
 20
8.8021545829
 11
11.9081890335
 21
8.8520254759
  0
LINE
  5
34B
100
AcDbEntity
  8
0
100
AcDbLine
 62
4
  6
CONTINUOUS
 10
11.9745945638
 20
9.4453576645
 11
11.9720063755
 21
9.4283687785
  0
LINE
  5
34C
100
AcDbEntity
  8
0
100
AcDbLine
 62
4
  6
CONTINUOUS
 10
11.9435363047
 20
9.0821132658
 11
11.9461244924
 21
9.0991021511
  0
LINE
  5
34D
100
AcDbEntity
  8
0
100
AcDbLine
 62
4
  6
CONTINUOUS
 10
11.9435363047
 20
8.9662021624
 11
11.9461244924
 21
8.9831910477
  0
LINE
  5
34E
100
AcDbEntity
  8
0
100
AcDbLine
 62
4
  6
CONTINUOUS
 10
11.9435363047
 20
8.8502910589
 11
11.9461244924
 21
8.8672799443
  0
LINE
  5
34F
100
AcDbEntity
  8
0
100
AcDbLine
 62
4
  6
CONTINUOUS
 10
11.9745945638
 20
8.9817132508
 11
11.9720063755
 21
8.9647243647
  0
LINE
  5
350
100
AcDbEntity
  8
0
100
AcDbLine
 62
4
  6
CONTINUOUS
 10
12.0522402009
 20
9.2140210957
 11
12.0478033066
 21
9.1931766358
  0
LINE
  5
351
100
AcDbEntity
  8
0
100
AcDbLine
 62
4
  6
CONTINUOUS
 10
12.0211819419
 20
9.0184338247
 11
12.0256188357
 21
9.0392782566
  0
LINE
  5
352
100
AcDbEntity
  8
0
100
AcDbLine
 62
4
  6
CONTINUOUS
 10
12.0522402009
 20
9.0235957055
 11
12.0478033066
 21
9.0027512594
  0
LINE
  5
353
100
AcDbEntity
  8
0
100
AcDbLine
 62
4
  6
CONTINUOUS
 10
11.9461244924
 20
8.8672799443
 11
11.9487126819
 21
8.8770243875
  0
LINE
  5
354
100
AcDbEntity
  8
0
100
AcDbLine
 62
4
  6
CONTINUOUS
 10
11.9720063755
 20
8.9647243647
 11
11.9668299991
 21
8.9452354808
  0
LINE
  5
355
100
AcDbEntity
  8
0
100
AcDbLine
 62
4
  6
CONTINUOUS
 10
12.0211819419
 20
8.8859639863
 11
12.0522402009
 21
8.9739195144
  0
LINE
  5
356
100
AcDbEntity
  8
0
100
AcDbLine
 62
4
  6
CONTINUOUS
 10
12.0522402009
 20
8.8248909543
 11
12.0333808118
 21
8.7738534623
  0
LINE
  5
357
100
AcDbEntity
  8
0
100
AcDbLine
 62
7
  6
CONTINUOUS
 10
12.065181161
 20
8.3544280208
 11
11.6251891351
 21
7.9294283345
  0
LINE
  5
358
100
AcDbEntity
  8
0
100
AcDbLine
 62
4
  6
CONTINUOUS
 10
11.9590654343
 20
9.3941354565
 11
11.9513008695
 21
9.3938799064
  0
LINE
  5
359
100
AcDbEntity
  8
0
100
AcDbLine
 62
4
  6
CONTINUOUS
 10
11.9590654343
 20
9.5100465599
 11
11.9513008695
 21
9.5097910098
  0
LINE
  5
35A
100
AcDbEntity
  8
0
100
AcDbLine
 62
4
  6
CONTINUOUS
 10
11.8406003458
 20
9.282121762
 11
11.816197428
 21
9.2833884476
  0
LINE
  5
35B
100
AcDbEntity
  8
0
100
AcDbLine
 62
4
  6
CONTINUOUS
 10
12.0522402009
 20
8.8248909543
 11
12.0333808118
 21
8.839494902
  0
LINE
  5
35C
100
AcDbEntity
  8
0
100
AcDbLine
 62
4
  6
CONTINUOUS
 10
11.6691883359
 20
9.9979578417
 11
11.6640119596
 21
10.0219356218
  0
LINE
  5
35D
100
AcDbEntity
  8
0
100
AcDbLine
 62
4
  6
CONTINUOUS
 10
11.7372207123
 20
9.1008509762
 11
11.7350022645
 21
9.1152668412
  0
LINE
  5
35E
100
AcDbEntity
  8
0
100
AcDbLine
 62
4
  6
CONTINUOUS
 10
11.7483129471
 20
9.2688731868
 11
11.7460945001
 21
9.2832890527
  0
LINE
  5
35F
100
AcDbEntity
  8
0
100
AcDbLine
 62
4
  6
CONTINUOUS
 10
11.8963573151
 20
8.8405969128
 11
11.9022731745
 21
8.8021545829
  0
LINE
  5
360
100
AcDbEntity
  8
0
100
AcDbLine
 62
4
  6
CONTINUOUS
 10
12.0172996595
 20
8.7911409809
 11
12.0172996595
 21
9.3127409463
  0
LINE
  5
361
100
AcDbEntity
  8
0
100
AcDbLine
 62
4
  6
CONTINUOUS
 10
12.0211819419
 20
8.9935957292
 11
12.0211819419
 21
9.0184338247
  0
LINE
  5
362
100
AcDbEntity
  8
0
100
AcDbLine
 62
4
  6
CONTINUOUS
 10
12.0211819419
 20
9.0681100159
 11
12.0211819419
 21
9.1343449282
  0
LINE
  5
363
100
AcDbEntity
  8
0
100
AcDbLine
 62
4
  6
CONTINUOUS
 10
12.0211819419
 20
9.1840211193
 11
12.0211819419
 21
9.2171385616
  0
LINE
  5
364
100
AcDbEntity
  8
0
100
AcDbLine
 62
4
  6
CONTINUOUS
 10
12.0344926235
 20
9.2769120794
 11
12.0344926235
 21
9.3348676312
  0
LINE
  5
365
100
AcDbEntity
  8
0
100
AcDbLine
 62
4
  6
CONTINUOUS
 10
12.0522402009
 20
9.247138538
 11
12.0522402009
 21
9.2140210957
  0
LINE
  5
366
100
AcDbEntity
  8
0
100
AcDbLine
 62
4
  6
CONTINUOUS
 10
12.0522402009
 20
9.0484338011
 11
12.0522402009
 21
9.0235957055
  0
LINE
  5
367
100
AcDbEntity
  8
0
100
AcDbLine
 62
7
  6
CONTINUOUS
 10
12.065181161
 20
10.5277612588
 11
12.065181161
 21
8.3544280208
  0
LINE
  5
368
100
AcDbEntity
  8
0
100
AcDbLine
 62
4
  6
CONTINUOUS
 10
11.9590654343
 20
9.5969798875
 11
11.9668299991
 21
9.5972354376
  0
LINE
  5
369
100
AcDbEntity
  8
0
100
AcDbLine
 62
4
  6
CONTINUOUS
 10
11.9538890572
 20
8.8820243823
 11
11.9564772467
 21
8.8772799376
  0
LINE
  5
36A
100
AcDbEntity
  8
0
100
AcDbLine
 62
4
  6
CONTINUOUS
 10
11.9513008695
 20
8.9302354927
 11
11.9461244924
 21
8.9397243839
  0
LINE
  5
36B
100
AcDbEntity
  8
0
100
AcDbLine
 62
4
  6
CONTINUOUS
 10
11.9668299991
 20
9.0176799205
 11
11.9720063755
 21
9.0081910285
  0
LINE
  5
36C
100
AcDbEntity
  8
0
100
AcDbLine
 62
4
  6
CONTINUOUS
 10
11.9538890572
 20
9.1138465892
 11
11.9564772467
 21
9.1091021445
  0
LINE
  5
36D
100
AcDbEntity
  8
0
100
AcDbLine
 62
4
  6
CONTINUOUS
 10
11.9111469628
 20
8.9349164687
 11
11.9155838571
 21
8.9226434517
  0
LINE
  5
36E
100
AcDbEntity
  8
0
100
AcDbLine
 62
4
  6
CONTINUOUS
 10
11.8272896637
 20
9.2278678128
 11
11.8317265576
 21
9.2155947885
  0
LINE
  5
36F
100
AcDbEntity
  8
0
100
AcDbLine
 62
4
  6
CONTINUOUS
 10
11.7372207123
 20
9.5424170582
 11
11.7350022645
 21
9.5485535349
  0
LINE
  5
370
100
AcDbEntity
  8
0
100
AcDbLine
 62
4
  6
CONTINUOUS
 10
11.8428187928
 20
9.2511471611
 11
11.8472556871
 21
9.2388741373
  0
LINE
  5
371
100
AcDbEntity
  8
0
100
AcDbLine
 62
4
  6
CONTINUOUS
 10
11.7372207123
 20
9.6169313864
 11
11.7350022645
 21
9.6230678631
  0
LINE
  5
372
100
AcDbEntity
  8
0
100
AcDbLine
 62
4
  6
CONTINUOUS
 10
11.7571867358
 20
9.6776138605
 11
11.7549682886
 21
9.6837503379
  0
LINE
  5
373
100
AcDbEntity
  8
0
100
AcDbLine
 62
4
  6
CONTINUOUS
 10
11.8889624919
 20
9.3329757473
 11
11.884525598
 21
9.3452487578
  0
LINE
  5
374
100
AcDbEntity
  8
0
100
AcDbLine
 62
4
  6
CONTINUOUS
 10
12.0256188357
 20
8.9813227048
 11
12.0211819419
 21
8.9935957292
  0
LINE
  5
375
100
AcDbEntity
  8
0
100
AcDbLine
 62
4
  6
CONTINUOUS
 10
11.6795410901
 20
10.0514244988
 11
11.6821292778
 21
10.0394356083
  0
LINE
  5
376
100
AcDbEntity
  8
0
100
AcDbLine
 62
4
  6
CONTINUOUS
 10
11.9564772467
 20
8.8772799376
 11
11.9590654343
 21
8.8652910471
  0
LINE
  5
377
100
AcDbEntity
  8
0
100
AcDbLine
 62
4
  6
CONTINUOUS
 10
11.9461244924
 20
8.9397243839
 11
11.9435363047
 21
8.9517132744
  0
LINE
  5
378
100
AcDbEntity
  8
0
100
AcDbLine
 62
4
  6
CONTINUOUS
 10
11.9720063755
 20
9.0081910285
 11
11.9745945638
 21
8.9962021387
  0
LINE
  5
379
100
AcDbEntity
  8
0
100
AcDbLine
 62
4
  6
CONTINUOUS
 10
11.9564772467
 20
9.1091021445
 11
11.9590654343
 21
9.097113254
  0
LINE
  5
37A
100
AcDbEntity
  8
0
100
AcDbLine
 62
4
  6
CONTINUOUS
 10
11.9461244924
 20
9.4033687977
 11
11.9435363047
 21
9.4153576882
  0
LINE
  5
37B
100
AcDbEntity
  8
0
100
AcDbLine
 62
4
  6
CONTINUOUS
 10
11.9022731745
 20
9.7653206304
 11
11.9081890335
 21
9.7268783035
  0
LINE
  5
37C
100
AcDbEntity
  8
0
100
AcDbLine
 62
4
  6
CONTINUOUS
 10
11.7261284767
 20
9.4903059501
 11
11.7283469246
 21
9.4896890287
  0
LINE
  5
37D
100
AcDbEntity
  8
0
100
AcDbLine
 62
4
  6
CONTINUOUS
 10
11.9513008695
 20
9.3938799064
 11
11.9461244924
 21
9.4033687977
  0
LINE
  5
37E
100
AcDbEntity
  8
0
100
AcDbLine
 62
4
  6
CONTINUOUS
 10
11.8889624919
 20
9.4295682966
 11
11.884525598
 21
9.4418413071
  0
LINE
  5
37F
100
AcDbEntity
  8
0
100
AcDbLine
 62
4
  6
CONTINUOUS
 10
12.0478033066
 20
9.0607068112
 11
12.0522402009
 21
9.0484338011
  0
LINE
  5
380
100
AcDbEntity
  8
0
100
AcDbLine
 62
4
  6
CONTINUOUS
 10
12.0256188357
 20
9.1717480812
 11
12.0211819419
 21
9.1840211193
  0
LINE
  5
381
100
AcDbEntity
  8
0
100
AcDbLine
 62
4
  6
CONTINUOUS
 10
11.9111469628
 20
9.5089524029
 11
11.9155838571
 21
9.4966793929
  0
LINE
  5
382
100
AcDbEntity
  8
0
100
AcDbLine
 62
4
  6
CONTINUOUS
 10
11.9111469628
 20
9.600025397
 11
11.9155838571
 21
9.5877523869
  0
LINE
  5
383
100
AcDbEntity
  8
0
100
AcDbLine
 62
4
  6
CONTINUOUS
 10
11.9461244924
 20
9.5192799011
 11
11.9435363047
 21
9.5312687916
  0
LINE
  5
384
100
AcDbEntity
  8
0
100
AcDbLine
 62
4
  6
CONTINUOUS
 10
11.9720063755
 20
9.4718354423
 11
11.9745945638
 21
9.4598465524
  0
LINE
  5
385
100
AcDbEntity
  8
0
100
AcDbLine
 62
4
  6
CONTINUOUS
 10
11.9720063755
 20
9.5877465457
 11
11.9745945638
 21
9.5757576559
  0
LINE
  5
386
100
AcDbEntity
  8
0
100
AcDbLine
 62
4
  6
CONTINUOUS
 10
11.9564772467
 20
9.9204798685
 11
11.9590654343
 21
9.908490978
  0
LINE
  5
387
100
AcDbEntity
  8
0
100
AcDbLine
 62
4
  6
CONTINUOUS
 10
11.9461244924
 20
9.9829243148
 11
11.9435363047
 21
9.9949132053
  0
LINE
  5
388
100
AcDbEntity
  8
0
100
AcDbLine
 62
4
  6
CONTINUOUS
 10
11.9720063755
 20
10.0513909594
 11
11.9745945638
 21
10.0394020696
  0
LINE
  5
389
100
AcDbEntity
  8
0
100
AcDbLine
 62
4
  6
CONTINUOUS
 10
11.9590654343
 20
9.9736909737
 11
11.9513008695
 21
9.9734354235
  0
LINE
  5
38A
100
AcDbEntity
  8
0
100
AcDbLine
 62
4
  6
CONTINUOUS
 10
11.6717765253
 20
9.993213397
 11
11.6691883359
 21
9.9979578417
  0
LINE
  5
38B
100
AcDbEntity
  8
0
100
AcDbLine
 62
4
  6
CONTINUOUS
 10
11.6640119596
 20
10.0219356218
 11
11.6588355834
 21
10.031424514
  0
LINE
  5
38C
100
AcDbEntity
  8
0
100
AcDbLine
 62
4
  6
CONTINUOUS
 10
11.9694181872
 20
9.4765798881
 11
11.9720063755
 21
9.4718354423
  0
LINE
  5
38D
100
AcDbEntity
  8
0
100
AcDbLine
 62
4
  6
CONTINUOUS
 10
11.9513008695
 20
9.5097910098
 11
11.9461244924
 21
9.5192799011
  0
LINE
  5
38E
100
AcDbEntity
  8
0
100
AcDbLine
 62
4
  6
CONTINUOUS
 10
11.6769529006
 20
10.0561689435
 11
11.6795410901
 21
10.0514244988
  0
LINE
  5
38F
100
AcDbEntity
  8
0
100
AcDbLine
 62
4
  6
CONTINUOUS
 10
11.9668299991
 20
9.5972354376
 11
11.9720063755
 21
9.5877465457
  0
LINE
  5
390
100
AcDbEntity
  8
0
100
AcDbLine
 62
7
  6
CONTINUOUS
 10
11.6655339738
 20
6.9746755418
 11
11.9031296611
 21
7.204175366
  0
LINE
  5
391
100
AcDbEntity
  8
0
100
AcDbLine
 62
7
  6
CONTINUOUS
 10
11.6645991837
 20
6.9737893988
 11
11.6655339738
 21
6.9746755418
  0
LINE
  5
392
100
AcDbEntity
  8
0
100
AcDbLine
 62
7
  6
CONTINUOUS
 10
11.6645991837
 20
6.9737893988
 11
11.6347327573
 21
6.9459955537
  0
LINE
  5
393
100
AcDbEntity
  8
0
100
AcDbLine
 62
4
  6
CONTINUOUS
 10
11.6588355834
 20
10.031424514
 11
11.6510710187
 21
10.0311689638
  0
LINE
  5
394
100
AcDbEntity
  8
0
100
AcDbLine
 62
4
  6
CONTINUOUS
 10
11.9590654343
 20
10.0606243012
 11
11.9668299991
 21
10.0608798514
  0
LINE
  5
395
100
AcDbEntity
  8
0
100
AcDbLine
 62
4
  6
CONTINUOUS
 10
11.9538890572
 20
9.9252243132
 11
11.9564772467
 21
9.9204798685
  0
LINE
  5
396
100
AcDbEntity
  8
0
100
AcDbLine
 62
4
  6
CONTINUOUS
 10
11.9513008695
 20
9.9734354235
 11
11.9461244924
 21
9.9829243148
  0
LINE
  5
397
100
AcDbEntity
  8
0
100
AcDbLine
 62
4
  6
CONTINUOUS
 10
11.9668299991
 20
10.0608798514
 11
11.9720063755
 21
10.0513909594
  0
LINE
  5
398
100
AcDbEntity
  8
0
100
AcDbLine
 62
7
  6
CONTINUOUS
 10
11.6251891351
 20
10.1027615724
 11
9.934818839
 21
10.2199891506
  0
LINE
  5
399
100
AcDbEntity
  8
0
100
AcDbLine
 62
7
  6
CONTINUOUS
 10
11.4287500303
 20
6.4270798123
 11
11.4035844207
 21
6.414648483
  0
LINE
  5
39A
100
AcDbEntity
  8
0
100
AcDbLine
 62
7
  6
CONTINUOUS
 10
10.3748108649
 20
10.644988837
 11
12.065181161
 21
10.5277612588
  0
ARC
  5
39B
100
AcDbEntity
  8
0
100
AcDbCircle
 62
7
  6
CONTINUOUS
 10
11.0305003396
 20
8.5068956714
 40
1.7134646816
100
AcDbArc
 50
273.0082884861
 51
274.9259735842
  0
ARC
  5
39C
100
AcDbEntity
  8
0
100
AcDbCircle
 62
7
  6
CONTINUOUS
 10
11.0305003396
 20
8.0862964457
 40
1.7134646816
100
AcDbArc
 50
273.0082884861
 51
274.9259735841
  0
ARC
  5
39D
100
AcDbEntity
  8
0
100
AcDbCircle
 62
7
  6
CONTINUOUS
 10
10.6336215635
 20
6.5647522223
 40
0.9287254952
100
AcDbArc
 50
20.7973074057
 51
20.9673901851
  0
ARC
  5
39E
100
AcDbEntity
  8
0
100
AcDbCircle
 62
7
  6
CONTINUOUS
 10
11.1662659012
 20
6.9580153045
 40
0.5922756118
100
AcDbArc
 50
293.5909107106
 51
296.3039528614
  0
ARC
  5
39F
100
AcDbEntity
  8
0
100
AcDbCircle
 62
7
  6
CONTINUOUS
 10
10.3881924372
 20
9.3378813514
 40
0.1289476502
100
AcDbArc
 50
245.4952643173
 51
269.7686245725
  0
ARC
  5
3A0
100
AcDbEntity
  8
0
100
AcDbCircle
 62
7
  6
CONTINUOUS
 10
10.808965581
 20
8.7441624666
 40
0.1101179088
100
AcDbArc
 50
256.1914844027
 51
269.3936683519
  0
SPLINE
  5
3A1
100
AcDbEntity
  8
0
100
AcDbSpline
 62
7
  6
CONTINUOUS
 70
0
 71
3
 72
9
 73
5
 74
0
 42
0.0000001
 43
0.0000001
 44
0.0000000001
 40
0.0
 40
0.0
 40
0.0
 40
0.0
 40
0.4865082157
 40
1.0
 40
1.0
 40
1.0
 40
1.0
 10
11.49503584
 20
6.4664455214
 30
0.0
 10
11.49372237
 20
6.4651768067
 30
0.0
 10
11.4909412287
 20
6.4626524018
 30
0.0
 10
11.4880279227
 20
6.4602826974
 30
0.0
 10
11.4865042894
 20
6.4591022033
 30
0.0
  0
SPLINE
  5
3A2
100
AcDbEntity
  8
0
100
AcDbSpline
 62
7
  6
CONTINUOUS
 70
0
 71
3
 72
9
 73
5
 74
0
 42
0.0000001
 43
0.0000001
 44
0.0000000001
 40
0.0
 40
0.0
 40
0.0
 40
0.0
 40
0.4864210225
 40
1.0
 40
1.0
 40
1.0
 40
1.0
 10
11.5018335005
 20
6.4739090852
 30
0.0
 10
11.5008197935
 20
6.4726227351
 30
0.0
 10
11.4986333033
 20
6.4700579503
 30
0.0
 10
11.4962795842
 20
6.4676468862
 30
0.0
 10
11.49503584
 20
6.4664455214
 30
0.0
  0
SPLINE
  5
3A3
100
AcDbEntity
  8
0
100
AcDbSpline
 62
7
  6
CONTINUOUS
 70
0
 71
3
 72
9
 73
5
 74
0
 42
0.0000001
 43
0.0000001
 44
0.0000000001
 40
0.0
 40
0.0
 40
0.0
 40
0.0
 40
0.503991706
 40
1.0
 40
1.0
 40
1.0
 40
1.0
 10
11.4865042894
 20
6.4591022033
 30
0.0
 10
11.4770309419
 20
6.4533133281
 30
0.0
 10
11.4580155248
 20
6.4421801478
 30
0.0
 10
11.43851886
 20
6.4319056343
 30
0.0
 10
11.4287227929
 20
6.4270663612
 30
0.0
  0
SPLINE
  5
3A4
100
AcDbEntity
  8
0
100
AcDbSpline
 62
7
  6
CONTINUOUS
 70
0
 71
3
 72
23
 73
19
 74
0
 42
0.0000001
 43
0.0000001
 44
0.0000000001
 40
0.0
 40
0.0
 40
0.0
 40
0.0
 40
0.0439943064
 40
0.0899281819
 40
0.1380403338
 40
0.1885309998
 40
0.2415683448
 40
0.2972701743
 40
0.3557174883
 40
0.4169406608
 40
0.4809367475
 40
0.5476614984
 40
0.617045644
 40
0.688992165
 40
0.7633891149
 40
0.8401121098
 40
0.9190285012
 40
1.0
 40
1.0
 40
1.0
 40
1.0
 10
10.6255098108
 20
6.4227013264
 30
0.0
 10
10.6237659294
 20
6.4235627859
 30
0.0
 10
10.6202657988
 20
6.4254570926
 30
0.0
 10
10.6151093266
 20
6.4287297673
 30
0.0
 10
10.6099459335
 20
6.4325018647
 30
0.0
 10
10.6047782142
 20
6.436778731
 30
0.0
 10
10.5996103741
 20
6.4415639673
 30
0.0
 10
10.5944444833
 20
6.4468545766
 30
0.0
 10
10.589284815
 20
6.4526452136
 30
0.0
 10
10.5841332504
 20
6.4589246498
 30
0.0
 10
10.578993577
 20
6.4656794073
 30
0.0
 10
10.5738674127
 20
6.4728915723
 30
0.0
 10
10.568757683
 20
6.4805416066
 30
0.0
 10
10.5636656158
 20
6.4886072906
 30
0.0
 10
10.5585930794
 20
6.4970657481
 30
0.0
 10
10.5535408271
 20
6.5058930635
 30
0.0
 10
10.5485097994
 20
6.5150652987
 30
0.0
 10
10.5452107309
 20
6.5213174789
 30
0.0
 10
10.5435626654
 20
6.5244954271
 30
0.0
  0
SPLINE
  5
3A5
100
AcDbEntity
  8
0
100
AcDbSpline
 62
7
  6
CONTINUOUS
 70
0
 71
3
 72
46
 73
42
 74
0
 42
0.0000001
 43
0.0000001
 44
0.0000000001
 40
0.0
 40
0.0
 40
0.0
 40
0.0
 40
0.0099874435
 40
0.0204476157
 40
0.0313771114
 40
0.0427707225
 40
0.054621686
 40
0.0669224317
 40
0.0796639566
 40
0.0928360449
 40
0.1204269131
 40
0.1495981875
 40
0.1802403745
 40
0.2122335405
 40
0.2454486791
 40
0.2797494061
 40
0.3149926211
 40
0.3510295021
 40
0.387706851
 40
0.4248677397
 40
0.4623524596
 40
0.499999592
 40
0.537646712
 40
0.5751314595
 40
0.6122923998
 40
0.6489698028
 40
0.6850067986
 40
0.7202500982
 40
0.7545508962
 40
0.7877662248
 40
0.8197595459
 40
0.8504018313
 40
0.8795733387
 40
0.9071643906
 40
0.9330770134
 40
0.9453779539
 40
0.9572290359
 40
0.9686226679
 40
0.9795523026
 40
0.9900125123
 40
1.0
 40
1.0
 40
1.0
 40
1.0
 10
11.4035879506
 20
6.4146502704
 30
0.0
 10
11.4012709717
 20
6.4135057093
 30
0.0
 10
11.3964877788
 20
6.4112418593
 30
0.0
 10
11.3890482765
 20
6.4079882
 30
0.0
 10
11.3811857368
 20
6.4048017425
 30
0.0
 10
11.3729093026
 20
6.4016861831
 30
0.0
 10
11.3642284833
 20
6.3986449173
 30
0.0
 10
11.3551531689
 20
6.3956816839
 30
0.0
 10
11.3456937914
 20
6.3927998113
 30
0.0
 10
11.3323771547
 20
6.3890114823
 30
0.0
 10
11.3148437903
 20
6.3845213227
 30
0.0
 10
11.2927695223
 20
6.37958705
 30
0.0
 10
11.2694488363
 20
6.3750502332
 30
0.0
 10
11.2449892394
 20
6.370932094
 30
0.0
 10
11.219503336
 20
6.3672517919
 30
0.0
 10
11.1931086316
 20
6.3640266575
 30
0.0
 10
11.1659268853
 20
6.3612718324
 30
0.0
 10
11.1380835878
 20
6.3590000421
 30
0.0
 10
11.1097073015
 20
6.3572219925
 30
0.0
 10
11.0809290682
 20
6.3559460524
 30
0.0
 10
11.0518818225
 20
6.355178031
 30
0.0
 10
11.0226997575
 20
6.3549215861
 30
0.0
 10
10.9935176855
 20
6.3551779955
 30
0.0
 10
10.9644704198
 20
6.3559459132
 30
0.0
 10
10.9356921498
 20
6.357221813
 30
0.0
 10
10.9073158051
 20
6.3589998359
 30
0.0
 10
10.8794724333
 20
6.361271523
 30
0.0
 10
10.8522906123
 20
6.3640263064
 30
0.0
 10
10.8258958148
 20
6.3672514234
 30
0.0
 10
10.8004097937
 20
6.3709316278
 30
0.0
 10
10.7759500542
 20
6.3750497201
 30
0.0
 10
10.7526293043
 20
6.3795865524
 30
0.0
 10
10.7305546577
 20
6.3845206724
 30
0.0
 10
10.7098277186
 20
6.389828985
 30
0.0
 10
10.6934850481
 20
6.394623347
 30
0.0
 10
10.681169709
 20
6.3986441889
 30
0.0
 10
10.672488785
 20
6.4016854716
 30
0.0
 10
10.664212296
 20
6.4048010755
 30
0.0
 10
10.6563496559
 20
6.4079874223
 30
0.0
 10
10.6489100691
 20
6.4112410333
 30
0.0
 10
10.644126862
 20
6.4135049029
 30
0.0
 10
10.6418098699
 20
6.4146494631
 30
0.0
  0
SPLINE
  5
3A6
100
AcDbEntity
  8
0
100
AcDbSpline
 62
7
  6
CONTINUOUS
 70
0
 71
3
 72
9
 73
5
 74
0
 42
0.0000001
 43
0.0000001
 44
0.0000000001
 40
0.0
 40
0.0
 40
0.0
 40
0.0
 40
0.5132482879
 40
1.0
 40
1.0
 40
1.0
 40
1.0
 10
10.6984977048
 20
6.8250528902
 30
0.0
 10
10.6912829235
 20
6.8267065861
 30
0.0
 10
10.6772666791
 20
6.8301104456
 30
0.0
 10
10.6633553774
 20
6.8339231059
 30
0.0
 10
10.6566174773
 20
6.8358922769
 30
0.0
  0
SPLINE
  5
3A7
100
AcDbEntity
  8
0
100
AcDbSpline
 62
7
  6
CONTINUOUS
 70
0
 71
3
 72
9
 73
5
 74
0
 42
0.0000001
 43
0.0000001
 44
0.0000000001
 40
0.0
 40
0.0
 40
0.0
 40
0.0
 40
0.4865082157
 40
1.0
 40
1.0
 40
1.0
 40
1.0
 10
11.49503584
 20
6.8870447472
 30
0.0
 10
11.49372237
 20
6.8857760325
 30
0.0
 10
11.4909412287
 20
6.8832516275
 30
0.0
 10
11.4880279227
 20
6.8808819231
 30
0.0
 10
11.4865042894
 20
6.8797014291
 30
0.0
  0
SPLINE
  5
3A8
100
AcDbEntity
  8
0
100
AcDbSpline
 62
7
  6
CONTINUOUS
 70
0
 71
3
 72
29
 73
25
 74
0
 42
0.0000001
 43
0.0000001
 44
0.0000000001
 40
0.0
 40
0.0
 40
0.0
 40
0.0
 40
0.0638229809
 40
0.1301979036
 40
0.198560133
 40
0.2683218449
 40
0.3388793635
 40
0.4096200144
 40
0.4799290277
 40
0.5491965654
 40
0.6168245023
 40
0.682233519
 40
0.7139328669
 40
0.7448724025
 40
0.7749885586
 40
0.8042198854
 40
0.8325082811
 40
0.8597985235
 40
0.8860391697
 40
0.9111826187
 40
0.9351856481
 40
0.9580102219
 40
0.9796235824
 40
1.0
 40
1.0
 40
1.0
 40
1.0
 10
11.2319635432
 20
6.8827236939
 30
0.0
 10
11.2196857747
 20
6.8809398006
 30
0.0
 10
11.194578308
 20
6.8777112156
 30
0.0
 10
11.1561624661
 20
6.8739112764
 30
0.0
 10
11.1165054651
 20
6.8710822855
 30
0.0
 10
11.0759763638
 20
6.8692511375
 30
0.0
 10
11.0349517961
 20
6.8684352288
 30
0.0
 10
10.9938132827
 20
6.868642301
 30
0.0
 10
10.9529433957
 20
6.8698703952
 30
0.0
 10
10.9127220738
 20
6.8721078283
 30
0.0
 10
10.873523481
 20
6.875333424
 30
0.0
 10
10.8416891654
 20
6.8788548657
 30
0.0
 10
10.8170171509
 20
6.8821597365
 30
0.0
 10
10.7991855081
 20
6.8848381509
 30
0.0
 10
10.7818743559
 20
6.8877355433
 30
0.0
 10
10.765123914
 20
6.8908453727
 30
0.0
 10
10.7489731351
 20
6.8941601685
 30
0.0
 10
10.7334595251
 20
6.897672261
 30
0.0
 10
10.7186190994
 20
6.9013733616
 30
0.0
 10
10.7044862436
 20
6.9052547589
 30
0.0
 10
10.6910937047
 20
6.9093074433
 30
0.0
 10
10.6784722846
 20
6.9135217637
 30
0.0
 10
10.6666513421
 20
6.9178880503
 30
0.0
 10
10.659096924
 20
6.9209855837
 30
0.0
 10
10.6554637676
 20
6.9225635001
 30
0.0
  0
SPLINE
  5
3A9
100
AcDbEntity
  8
0
100
AcDbSpline
 62
7
  6
CONTINUOUS
 70
0
 71
3
 72
9
 73
5
 74
0
 42
0.0000001
 43
0.0000001
 44
0.0000000001
 40
0.0
 40
0.0
 40
0.0
 40
0.0
 40
0.5135789775
 40
1.0
 40
1.0
 40
1.0
 40
1.0
 10
11.49503584
 20
6.8870447472
 30
0.0
 10
11.4962795842
 20
6.8882461119
 30
0.0
 10
11.4986333033
 20
6.8906571761
 30
0.0
 10
11.5008197935
 20
6.8932219608
 30
0.0
 10
11.5018335005
 20
6.8945083109
 30
0.0
  0
SPLINE
  5
3AA
100
AcDbEntity
  8
0
100
AcDbSpline
 62
7
  6
CONTINUOUS
 70
0
 71
3
 72
9
 73
5
 74
0
 42
0.0000001
 43
0.0000001
 44
0.0000000001
 40
0.0
 40
0.0
 40
0.0
 40
0.0
 40
0.5132482879
 40
1.0
 40
1.0
 40
1.0
 40
1.0
 10
10.6984977048
 20
6.4044536644
 30
0.0
 10
10.6912829235
 20
6.4061073604
 30
0.0
 10
10.6772666791
 20
6.4095112198
 30
0.0
 10
10.6633553774
 20
6.4133238802
 30
0.0
 10
10.6566174773
 20
6.4152930512
 30
0.0
  0
SPLINE
  5
3AB
100
AcDbEntity
  8
0
100
AcDbSpline
 62
7
  6
CONTINUOUS
 70
0
 71
3
 72
9
 73
5
 74
0
 42
0.0000001
 43
0.0000001
 44
0.0000000001
 40
0.0
 40
0.0
 40
0.0
 40
0.0
 40
0.5002251922
 40
1.0
 40
1.0
 40
1.0
 40
1.0
 10
11.4865042894
 20
6.8797014291
 30
0.0
 10
11.4808558587
 20
6.8816857069
 30
0.0
 10
11.469467574
 20
6.8853840996
 30
0.0
 10
11.4578963264
 20
6.8884697738
 30
0.0
 10
11.4520737725
 20
6.8898392556
 30
0.0
  0
SPLINE
  5
3AC
100
AcDbEntity
  8
0
100
AcDbSpline
 62
7
  6
CONTINUOUS
 70
0
 71
3
 72
15
 73
11
 74
0
 42
0.0000001
 43
0.0000001
 44
0.0000000001
 40
0.0
 40
0.0
 40
0.0
 40
0.0
 40
0.1175378585
 40
0.2373747007
 40
0.3594842275
 40
0.4837812594
 40
0.6101388819
 40
0.7384034771
 40
0.8684154972
 40
1.0
 40
1.0
 40
1.0
 40
1.0
 10
11.3057301614
 20
6.8811143723
 30
0.0
 10
11.300133834
 20
6.8790175541
 30
0.0
 10
11.2889655094
 20
6.8744177323
 30
0.0
 10
11.2724974525
 20
6.8664662074
 30
0.0
 10
11.2561835657
 20
6.857469547
 30
0.0
 10
11.2400487177
 20
6.8475121318
 30
0.0
 10
11.2241087869
 20
6.836680679
 30
0.0
 10
11.2083725836
 20
6.825061014
 30
0.0
 10
11.192842989
 20
6.8127361202
 30
0.0
 10
11.1826833503
 20
6.8041480394
 30
0.0
 10
11.1776331224
 20
6.7997597192
 30
0.0
  0
SPLINE
  5
3AD
100
AcDbEntity
  8
0
100
AcDbSpline
 62
7
  6
CONTINUOUS
 70
0
 71
3
 72
21
 73
17
 74
0
 42
0.0000001
 43
0.0000001
 44
0.0000000001
 40
0.0
 40
0.0
 40
0.0
 40
0.0
 40
0.1230814817
 40
0.1847942657
 40
0.2466337258
 40
0.3086097846
 40
0.3707312098
 40
0.4330051319
 40
0.4954352436
 40
0.5580223626
 40
0.6207641208
 40
0.6836547008
 40
0.7466862848
 40
0.8098488395
 40
0.8731308835
 40
1.0
 40
1.0
 40
1.0
 40
1.0
 10
11.1204236837
 20
6.3751929984
 30
0.0
 10
11.1031710432
 20
6.371940615
 30
0.0
 10
11.0771399056
 20
6.3676898965
 30
0.0
 10
11.0422033154
 20
6.3635225471
 30
0.0
 10
11.0158366177
 20
6.3612005007
 30
0.0
 10
10.989349551
 20
6.3597408006
 30
0.0
 10
10.9627654919
 20
6.3591906588
 30
0.0
 10
10.9361136276
 20
6.3595870904
 30
0.0
 10
10.9094271347
 20
6.3609520781
 30
0.0
 10
10.8827413629
 20
6.3632909015
 30
0.0
 10
10.8560916598
 20
6.3665931909
 30
0.0
 10
10.8295109956
 20
6.3708322106
 30
0.0
 10
10.8030281523
 20
6.3759668518
 30
0.0
 10
10.776666275
 20
6.3819465996
 30
0.0
 10
10.7416756005
 20
6.3909757193
 30
0.0
 10
10.7156971419
 20
6.3988257406
 30
0.0
 10
10.6984977048
 20
6.4044536644
 30
0.0
  0
SPLINE
  5
3AE
100
AcDbEntity
  8
0
100
AcDbSpline
 62
7
  6
CONTINUOUS
 70
0
 71
3
 72
28
 73
24
 74
0
 42
0.0000001
 43
0.0000001
 44
0.0000000001
 40
0.0
 40
0.0
 40
0.0
 40
0.0
 40
0.0640274484
 40
0.1279405369
 40
0.1917105404
 40
0.2553123355
 40
0.3187161223
 40
0.3818930725
 40
0.4133919091
 40
0.4448254452
 40
0.4761912782
 40
0.5074882562
 40
0.5387156619
 40
0.5698732312
 40
0.6009621492
 40
0.6319833386
 40
0.6938248821
 40
0.7554274775
 40
0.8168179251
 40
0.8780243018
 40
0.9085700262
 40
0.9390802882
 40
1.0
 40
1.0
 40
1.0
 40
1.0
 10
11.1204236837
 20
6.7957922241
 30
0.0
 10
11.1121228331
 20
6.8000753478
 30
0.0
 10
11.0953917733
 20
6.8083587351
 30
0.0
 10
11.0698726071
 20
6.8198207214
 30
0.0
 10
11.0439488288
 20
6.8301749839
 30
0.0
 10
11.0176356537
 20
6.8392770399
 30
0.0
 10
10.990967824
 20
6.8469805143
 30
0.0
 10
10.9684723919
 20
6.8521247462
 30
0.0
 10
10.9503683198
 20
6.8554118016
 30
0.0
 10
10.9367610644
 20
6.8574505282
 30
0.0
 10
10.9231257368
 20
6.8590572055
 30
0.0
 10
10.9094758856
 20
6.8602242824
 30
0.0
 10
10.8958259523
 20
6.8609514322
 30
0.0
 10
10.8821900449
 20
6.8612369646
 30
0.0
 10
10.8685819955
 20
6.8610864911
 30
0.0
 10
10.850513171
 20
6.8603132155
 30
0.0
 10
10.8280536815
 20
6.8582978117
 30
0.0
 10
10.8013727248
 20
6.8542967052
 30
0.0
 10
10.7750463631
 20
6.8488459909
 30
0.0
 10
10.7534178905
 20
6.843210166
 30
0.0
 10
10.7363222956
 20
6.8381188079
 30
0.0
 10
10.7193817744
 20
6.8326685798
 30
0.0
 10
10.7068129299
 20
6.8281901052
 30
0.0
 10
10.6984977048
 20
6.8250528902
 30
0.0
  0
SPLINE
  5
3AF
100
AcDbEntity
  8
0
100
AcDbSpline
 62
7
  6
CONTINUOUS
 70
0
 71
3
 72
13
 73
9
 74
0
 42
0.0000001
 43
0.0000001
 44
0.0000000001
 40
0.0
 40
0.0
 40
0.0
 40
0.0
 40
0.2392401476
 40
0.3604630295
 40
0.4832816768
 40
0.6081576999
 40
0.7355839368
 40
1.0
 40
1.0
 40
1.0
 40
1.0
 10
10.6566174773
 20
6.4152930512
 30
0.0
 10
10.6540454658
 20
6.4153022033
 30
0.0
 10
10.6501662394
 20
6.4155210952
 30
0.0
 10
10.6450198798
 20
6.416249913
 30
0.0
 10
10.6411291207
 20
6.4170316515
 30
0.0
 10
10.6372261024
 20
6.4180563828
 30
0.0
 10
10.6319428837
 20
6.4197805876
 30
0.0
 10
10.6280584873
 20
6.4214423063
 30
0.0
 10
10.6255098108
 20
6.4227013264
 30
0.0
  0
SPLINE
  5
3B0
100
AcDbEntity
  8
0
100
AcDbSpline
 62
7
  6
CONTINUOUS
 70
0
 71
3
 72
16
 73
12
 74
0
 42
0.0000001
 43
0.0000001
 44
0.0000000001
 40
0.0
 40
0.0
 40
0.0
 40
0.0
 40
0.1453661313
 40
0.2859985622
 40
0.4213585413
 40
0.550890119
 40
0.6740300867
 40
0.7902314427
 40
0.8990082843
 40
0.9504955395
 40
1.0
 40
1.0
 40
1.0
 40
1.0
 10
10.6566174773
 20
6.8358922769
 30
0.0
 10
10.6548938721
 20
6.8404301687
 30
0.0
 10
10.6514343513
 20
6.8493324426
 30
0.0
 10
10.6461004355
 20
6.8623535731
 30
0.0
 10
10.6407018287
 20
6.8747738646
 30
0.0
 10
10.6352392541
 20
6.8865253928
 30
0.0
 10
10.6297154515
 20
6.8975376307
 30
0.0
 10
10.6241344483
 20
6.907738101
 30
0.0
 10
10.6193575118
 20
6.9156427867
 30
0.0
 10
10.6154979663
 20
6.9214892838
 30
0.0
 10
10.6135590968
 20
6.9242493958
 30
0.0
 10
10.6125869238
 20
6.9255864137
 30
0.0
  0
SPLINE
  5
3B1
100
AcDbEntity
  8
0
100
AcDbSpline
 62
7
  6
CONTINUOUS
 70
0
 71
3
 72
15
 73
11
 74
0
 42
0.0000001
 43
0.0000001
 44
0.0000000001
 40
0.0
 40
0.0
 40
0.0
 40
0.0
 40
0.1319943798
 40
0.2615530082
 40
0.3887795478
 40
0.5138991626
 40
0.6372282088
 40
0.759125931
 40
0.8799459217
 40
1.0
 40
1.0
 40
1.0
 40
1.0
 10
11.4032967673
 20
6.4152383992
 30
0.0
 10
11.3939747601
 20
6.411176117
 30
0.0
 10
11.3752738782
 20
6.403636934
 30
0.0
 10
11.3468353185
 20
6.3941754934
 30
0.0
 10
11.3183393307
 20
6.3867621178
 30
0.0
 10
11.2898708313
 20
6.3814232435
 30
0.0
 10
11.2615108815
 20
6.378108371
 30
0.0
 10
11.2333266149
 20
6.3767004429
 30
0.0
 10
11.205365453
 20
6.377035779
 30
0.0
 10
11.1868418259
 20
6.378300108
 30
0.0
 10
11.1776331224
 20
6.3791604935
 30
0.0
  0
SPLINE
  5
3B2
100
AcDbEntity
  8
0
100
AcDbSpline
 62
7
  6
CONTINUOUS
 70
0
 71
3
 72
86
 73
82
 74
0
 42
0.0000001
 43
0.0000001
 44
0.0000000001
 40
0.0
 40
0.0
 40
0.0
 40
0.0
 40
0.0039801841
 40
0.0081241271
 40
0.0124359952
 40
0.0169193592
 40
0.0215772398
 40
0.0264119885
 40
0.031425264
 40
0.036618254
 40
0.0419916531
 40
0.0475457825
 40
0.0532805662
 40
0.0591955739
 40
0.0652900956
 40
0.0715630905
 40
0.0846387887
 40
0.0984101281
 40
0.1128607274
 40
0.1279712825
 40
0.143719905
 40
0.1600823987
 40
0.1770324898
 40
0.1945420214
 40
0.2125811325
 40
0.231118413
 40
0.2501210443
 40
0.2695549284
 40
0.2893848097
 40
0.3095743878
 40
0.3300864317
 40
0.3508828895
 40
0.3719249936
 40
0.3931733644
 40
0.4145881114
 40
0.4577544787
 40
0.5010993416
 40
0.544295442
 40
0.5657361251
 40
0.5870177332
 40
0.608100294
 40
0.6289443274
 40
0.6495109469
 40
0.6697619625
 40
0.6896599858
 40
0.7091685391
 40
0.7282521684
 40
0.7468765565
 40
0.7650086425
 40
0.7826167502
 40
0.7996707255
 40
0.8161420892
 40
0.8320042114
 40
0.8472325024
 40
0.8618046347
 40
0.8757008111
 40
0.88890409
 40
0.9014007911
 40
0.9073811846
 40
0.9131815866
 40
0.9188014495
 40
0.9242405693
 40
0.9294991173
 40
0.9345776326
 40
0.9394771495
 40
0.9441991485
 40
0.9487457085
 40
0.9531195098
 40
0.9573239345
 40
0.9613631777
 40
0.9652422844
 40
0.9689673442
 40
0.9725455204
 40
0.9759852395
 40
0.9824864298
 40
0.985575299
 40
0.9885737758
 40
0.9914977082
 40
0.9943643177
 40
0.9971920015
 40
1.0
 40
1.0
 40
1.0
 40
1.0
 10
11.3916829688
 20
10.3467118985
 30
0.0
 10
11.3908303376
 20
10.34588832
 30
0.0
 10
11.3890512744
 20
10.344246986
 30
0.0
 10
11.386226667
 20
10.3418496912
 30
0.0
 10
11.3831946368
 20
10.339469588
 30
0.0
 10
11.3799568476
 20
10.3371079489
 30
0.0
 10
11.3765148834
 20
10.3347658712
 30
0.0
 10
11.3728704247
 20
10.3324445006
 30
0.0
 10
11.3690252967
 20
10.3301449409
 30
0.0
 10
11.3649814054
 20
10.3278683893
 30
0.0
 10
11.3607407927
 20
10.3256159428
 30
0.0
 10
11.3563055705
 20
10.3233887501
 30
0.0
 10
11.3516779631
 20
10.321187921
 30
0.0
 10
11.3468602987
 20
10.3190145535
 30
0.0
 10
11.3418549846
 20
10.3168697548
 30
0.0
 10
11.3348370967
 20
10.3140099401
 30
0.0
 10
11.3256079836
 20
10.3105221228
 30
0.0
 10
11.3139745827
 20
10.3065232892
 30
0.0
 10
11.3016578568
 20
10.3026633012
 30
0.0
 10
11.2886826398
 20
10.2989500039
 30
0.0
 10
11.2750749792
 20
10.2953909551
 30
0.0
 10
11.2608622852
 20
10.291993404
 30
0.0
 10
11.2460732089
 20
10.288764273
 30
0.0
 10
11.2307375959
 20
10.2857101387
 30
0.0
 10
11.2148864146
 20
10.2828372211
 30
0.0
 10
11.1985516896
 20
10.2801513709
 30
0.0
 10
11.181766434
 20
10.2776580566
 30
0.0
 10
11.1645645807
 20
10.2753623542
 30
0.0
 10
11.1469809134
 20
10.2732689373
 30
0.0
 10
11.1290509953
 20
10.2713820649
 30
0.0
 10
11.1108110965
 20
10.2697055744
 30
0.0
 10
11.0922981144
 20
10.2682428739
 30
0.0
 10
11.0735495124
 20
10.2669969434
 30
0.0
 10
11.054603191
 20
10.2659702963
 30
0.0
 10
11.0290623569
 20
10.2648938869
 30
0.0
 10
10.9969245025
 20
10.2641120365
 30
0.0
 10
10.958289885
 20
10.2640712778
 30
0.0
 10
10.9261338732
 20
10.2647851773
 30
0.0
 10
10.9005643122
 20
10.2658073341
 30
0.0
 10
10.8815861482
 20
10.2667938626
 30
0.0
 10
10.8627987597
 20
10.2680000877
 30
0.0
 10
10.844240126
 20
10.2694235764
 30
0.0
 10
10.8259478033
 20
10.2710614286
 30
0.0
 10
10.8079587957
 20
10.2729103149
 30
0.0
 10
10.7903094935
 20
10.2749664751
 30
0.0
 10
10.7730355937
 20
10.2772257265
 30
0.0
 10
10.7561720271
 20
10.2796834698
 30
0.0
 10
10.7397528865
 20
10.2823347016
 30
0.0
 10
10.7238113576
 20
10.285174024
 30
0.0
 10
10.7083796497
 20
10.288195655
 30
0.0
 10
10.6934889287
 20
10.2913934408
 30
0.0
 10
10.6791692484
 20
10.2947608689
 30
0.0
 10
10.665449485
 20
10.2982910784
 30
0.0
 10
10.6523572674
 20
10.3019768781
 30
0.0
 10
10.6399189361
 20
10.3058107648
 30
0.0
 10
10.6281594096
 20
10.3097849451
 30
0.0
 10
10.6171023688
 20
10.3138913505
 30
0.0
 10
10.6083683105
 20
10.3174670828
 30
0.0
 10
10.6017561675
 20
10.3203941963
 30
0.0
 10
10.5970591544
 20
10.3225851743
 30
0.0
 10
10.5925536977
 20
10.3248029059
 30
0.0
 10
10.5882420528
 20
10.327046301
 30
0.0
 10
10.5841263722
 20
10.329314209
 30
0.0
 10
10.5802087294
 20
10.3316055365
 30
0.0
 10
10.5764910608
 20
10.3339190997
 30
0.0
 10
10.5729752382
 20
10.3362537972
 30
0.0
 10
10.5696629978
 20
10.3386084545
 30
0.0
 10
10.5665559894
 20
10.3409819339
 30
0.0
 10
10.5636557679
 20
10.3433731084
 30
0.0
 10
10.5609637581
 20
10.3457807993
 30
0.0
 10
10.5584813307
 20
10.3482039473
 30
0.0
 10
10.5562097588
 20
10.3506413
 30
0.0
 10
10.5541500624
 20
10.353092078
 30
0.0
 10
10.5517338167
 20
10.356314544
 30
0.0
 10
10.5496820477
 20
10.3596238869
 30
0.0
 10
10.5480530096
 20
10.3630038803
 30
0.0
 10
10.5470687663
 20
10.3655036458
 30
0.0
 10
10.5463022749
 20
10.3680094849
 30
0.0
 10
10.545754214
 20
10.3705201967
 30
0.0
 10
10.5454251418
 20
10.3730339789
 30
0.0
 10
10.5453518793
 20
10.3747133846
 30
0.0
 10
10.5453518769
 20
10.3755497043
 30
0.0
  0
SPLINE
  5
3B3
100
AcDbEntity
  8
0
100
AcDbSpline
 62
7
  6
CONTINUOUS
 70
0
 71
3
 72
42
 73
38
 74
0
 42
0.0000001
 43
0.0000001
 44
0.0000000001
 40
0.0
 40
0.0
 40
0.0
 40
0.0
 40
0.0311444614
 40
0.0467771749
 40
0.0624471243
 40
0.0938918364
 40
0.1254739609
 40
0.1571813407
 40
0.1889991953
 40
0.220910588
 40
0.2528967324
 40
0.2849373871
 40
0.3170112522
 40
0.3490963865
 40
0.3811706317
 40
0.4132120391
 40
0.4451992945
 40
0.4771121343
 40
0.508931746
 40
0.54064115
 40
0.572225553
 40
0.6036726688
 40
0.634972998
 40
0.6661200609
 40
0.6971105755
 40
0.7279445747
 40
0.758625456
 40
0.7891599579
 40
0.8195580604
 40
0.8498328062
 40
0.864931572
 40
0.8800056552
 40
0.9100837089
 40
0.9400929741
 40
0.955081501
 40
0.9700611858
 40
1.0
 40
1.0
 40
1.0
 40
1.0
 10
10.1763003098
 20
10.0293756859
 30
0.0
 10
10.1797911811
 20
10.0291335932
 30
0.0
 10
10.1850235346
 20
10.028578473
 30
0.0
 10
10.1919516386
 20
10.0274629064
 30
0.0
 10
10.1988687423
 20
10.0260933321
 30
0.0
 10
10.2074458394
 20
10.0239121641
 30
0.0
 10
10.217558571
 20
10.0205642391
 30
0.0
 10
10.2274509745
 20
10.0165004328
 30
0.0
 10
10.2370700093
 20
10.0117425354
 30
0.0
 10
10.2463645066
 20
10.0063159609
 30
0.0
 10
10.2552849199
 20
10.0002496861
 30
0.0
 10
10.2637837268
 20
9.9935760801
 30
0.0
 10
10.2718156408
 20
9.986330736
 30
0.0
 10
10.27933786
 20
9.9785522822
 30
0.0
 10
10.2863102905
 20
9.9702821786
 30
0.0
 10
10.2926957584
 20
9.9615644973
 30
0.0
 10
10.2984602062
 20
9.9524456908
 30
0.0
 10
10.3035728728
 20
9.9429743466
 30
0.0
 10
10.3080064567
 20
9.9332009317
 30
0.0
 10
10.3117372608
 20
9.9231775271
 30
0.0
 10
10.3147453192
 20
9.9129575533
 30
0.0
 10
10.3170145043
 20
9.90259549
 30
0.0
 10
10.3185326142
 20
9.8921465895
 30
0.0
 10
10.3192914408
 20
9.8816665853
 30
0.0
 10
10.3192868179
 20
9.8712114013
 30
0.0
 10
10.3185186435
 20
9.8608368458
 30
0.0
 10
10.3169909056
 20
9.8505983562
 30
0.0
 10
10.314711593
 20
9.840550554
 30
0.0
 10
10.3116929365
 20
9.8307475089
 30
0.0
 10
10.3085711435
 20
9.8228174186
 30
0.0
 10
10.3057223409
 20
9.8166505494
 30
0.0
 10
10.3026479424
 20
9.8106177643
 30
0.0
 10
10.2983793087
 20
9.8033207981
 30
0.0
 10
10.293561654
 20
9.7963856921
 30
0.0
 10
10.2893985105
 20
9.7910846559
 30
0.0
 10
10.2850367443
 20
9.7859566665
 30
0.0
 10
10.2815422218
 20
9.7823059645
 30
0.0
 10
10.2791227971
 20
9.7799689797
 30
0.0
  0
SPLINE
  5
3B4
100
AcDbEntity
  8
0
100
AcDbSpline
 62
7
  6
CONTINUOUS
 70
0
 71
3
 72
42
 73
38
 74
0
 42
0.0000001
 43
0.0000001
 44
0.0000000001
 40
0.0
 40
0.0
 40
0.0
 40
0.0
 40
0.0311444614
 40
0.0467771749
 40
0.0624471243
 40
0.0938918364
 40
0.1254739609
 40
0.1571813407
 40
0.1889991953
 40
0.220910588
 40
0.2528967324
 40
0.2849373871
 40
0.3170112522
 40
0.3490963865
 40
0.3811706317
 40
0.4132120391
 40
0.4451992945
 40
0.4771121343
 40
0.508931746
 40
0.54064115
 40
0.572225553
 40
0.6036726688
 40
0.634972998
 40
0.6661200609
 40
0.6971105755
 40
0.7279445747
 40
0.758625456
 40
0.7891599579
 40
0.8195580604
 40
0.8498328062
 40
0.864931572
 40
0.8800056552
 40
0.9100837089
 40
0.9400929741
 40
0.955081501
 40
0.9700611858
 40
1.0
 40
1.0
 40
1.0
 40
1.0
 10
11.3837076643
 20
9.9456417015
 30
0.0
 10
11.3871985355
 20
9.9453996088
 30
0.0
 10
11.392430889
 20
9.9448444886
 30
0.0
 10
11.399358993
 20
9.9437289219
 30
0.0
 10
11.4062760967
 20
9.9423593476
 30
0.0
 10
11.4148531938
 20
9.9401781797
 30
0.0
 10
11.4249659254
 20
9.9368302547
 30
0.0
 10
11.4348583289
 20
9.9327664484
 30
0.0
 10
11.4444773637
 20
9.9280085509
 30
0.0
 10
11.453771861
 20
9.9225819764
 30
0.0
 10
11.4626922743
 20
9.9165157017
 30
0.0
 10
11.4711910812
 20
9.9098420956
 30
0.0
 10
11.4792229952
 20
9.9025967515
 30
0.0
 10
11.4867452144
 20
9.8948182978
 30
0.0
 10
11.4937176449
 20
9.8865481941
 30
0.0
 10
11.5001031128
 20
9.8778305129
 30
0.0
 10
11.5058675606
 20
9.8687117064
 30
0.0
 10
11.5109802272
 20
9.8592403622
 30
0.0
 10
11.5154138111
 20
9.8494669473
 30
0.0
 10
11.5191446152
 20
9.8394435426
 30
0.0
 10
11.5221526736
 20
9.8292235688
 30
0.0
 10
11.5244218587
 20
9.8188615055
 30
0.0
 10
11.5259399686
 20
9.8084126051
 30
0.0
 10
11.5266987952
 20
9.7979326008
 30
0.0
 10
11.5266941723
 20
9.7874774169
 30
0.0
 10
11.5259259979
 20
9.7771028614
 30
0.0
 10
11.52439826
 20
9.7668643718
 30
0.0
 10
11.5221189474
 20
9.7568165696
 30
0.0
 10
11.5191002909
 20
9.7470135245
 30
0.0
 10
11.5159784979
 20
9.7390834342
 30
0.0
 10
11.5131296953
 20
9.732916565
 30
0.0
 10
11.5100552968
 20
9.7268837798
 30
0.0
 10
11.5057866631
 20
9.7195868137
 30
0.0
 10
11.5009690084
 20
9.7126517077
 30
0.0
 10
11.4968058649
 20
9.7073506715
 30
0.0
 10
11.4924440987
 20
9.7022226821
 30
0.0
 10
11.4889495762
 20
9.6985719801
 30
0.0
 10
11.4865301515
 20
9.6962349953
 30
0.0
  0
SPLINE
  5
3B5
100
AcDbEntity
  8
0
100
AcDbSpline
 62
7
  6
CONTINUOUS
 70
0
 71
3
 72
42
 73
38
 74
0
 42
0.0000001
 43
0.0000001
 44
0.0000000001
 40
0.0
 40
0.0
 40
0.0
 40
0.0
 40
0.0311444614
 40
0.0467771749
 40
0.0624471243
 40
0.0938918364
 40
0.1254739609
 40
0.1571813407
 40
0.1889991953
 40
0.220910588
 40
0.2528967324
 40
0.2849373871
 40
0.3170112522
 40
0.3490963865
 40
0.3811706317
 40
0.4132120391
 40
0.4451992945
 40
0.4771121343
 40
0.508931746
 40
0.54064115
 40
0.572225553
 40
0.6036726688
 40
0.634972998
 40
0.6661200609
 40
0.6971105755
 40
0.7279445747
 40
0.758625456
 40
0.7891599579
 40
0.8195580604
 40
0.8498328062
 40
0.864931572
 40
0.8800056552
 40
0.9100837089
 40
0.9400929741
 40
0.955081501
 40
0.9700611858
 40
1.0
 40
1.0
 40
1.0
 40
1.0
 10
11.3837076643
 20
8.4059558031
 30
0.0
 10
11.3871985355
 20
8.4057137104
 30
0.0
 10
11.392430889
 20
8.4051585902
 30
0.0
 10
11.399358993
 20
8.4040430235
 30
0.0
 10
11.4062760967
 20
8.4026734492
 30
0.0
 10
11.4148531938
 20
8.4004922813
 30
0.0
 10
11.4249659254
 20
8.3971443563
 30
0.0
 10
11.4348583289
 20
8.39308055
 30
0.0
 10
11.4444773637
 20
8.3883226525
 30
0.0
 10
11.453771861
 20
8.382896078
 30
0.0
 10
11.4626922743
 20
8.3768298033
 30
0.0
 10
11.4711910812
 20
8.3701561972
 30
0.0
 10
11.4792229952
 20
8.3629108531
 30
0.0
 10
11.4867452144
 20
8.3551323994
 30
0.0
 10
11.4937176449
 20
8.3468622957
 30
0.0
 10
11.5001031128
 20
8.3381446145
 30
0.0
 10
11.5058675606
 20
8.329025808
 30
0.0
 10
11.5109802272
 20
8.3195544637
 30
0.0
 10
11.5154138111
 20
8.3097810489
 30
0.0
 10
11.5191446152
 20
8.2997576442
 30
0.0
 10
11.5221526736
 20
8.2895376704
 30
0.0
 10
11.5244218587
 20
8.2791756071
 30
0.0
 10
11.5259399686
 20
8.2687267067
 30
0.0
 10
11.5266987952
 20
8.2582467024
 30
0.0
 10
11.5266941723
 20
8.2477915185
 30
0.0
 10
11.5259259979
 20
8.237416963
 30
0.0
 10
11.52439826
 20
8.2271784734
 30
0.0
 10
11.5221189474
 20
8.2171306712
 30
0.0
 10
11.5191002909
 20
8.2073276261
 30
0.0
 10
11.5159784979
 20
8.1993975358
 30
0.0
 10
11.5131296953
 20
8.1932306665
 30
0.0
 10
11.5100552968
 20
8.1871978814
 30
0.0
 10
11.5057866631
 20
8.1799009153
 30
0.0
 10
11.5009690084
 20
8.1729658092
 30
0.0
 10
11.4968058649
 20
8.1676647731
 30
0.0
 10
11.4924440987
 20
8.1625367837
 30
0.0
 10
11.4889495762
 20
8.1588860817
 30
0.0
 10
11.4865301515
 20
8.1565490969
 30
0.0
  0
SPLINE
  5
3B6
100
AcDbEntity
  8
0
100
AcDbSpline
 62
7
  6
CONTINUOUS
 70
0
 71
3
 72
42
 73
38
 74
0
 42
0.0000001
 43
0.0000001
 44
0.0000000001
 40
0.0
 40
0.0
 40
0.0
 40
0.0
 40
0.0311444614
 40
0.0467771749
 40
0.0624471243
 40
0.0938918364
 40
0.1254739609
 40
0.1571813407
 40
0.1889991953
 40
0.220910588
 40
0.2528967324
 40
0.2849373871
 40
0.3170112522
 40
0.3490963865
 40
0.3811706317
 40
0.4132120391
 40
0.4451992945
 40
0.4771121343
 40
0.508931746
 40
0.54064115
 40
0.572225553
 40
0.6036726688
 40
0.634972998
 40
0.6661200609
 40
0.6971105755
 40
0.7279445747
 40
0.758625456
 40
0.7891599579
 40
0.8195580604
 40
0.8498328062
 40
0.864931572
 40
0.8800056552
 40
0.9100837089
 40
0.9400929741
 40
0.955081501
 40
0.9700611858
 40
1.0
 40
1.0
 40
1.0
 40
1.0
 10
10.1763003098
 20
8.4896897875
 30
0.0
 10
10.1797911811
 20
8.4894476948
 30
0.0
 10
10.1850235346
 20
8.4888925746
 30
0.0
 10
10.1919516386
 20
8.487777008
 30
0.0
 10
10.1988687423
 20
8.4864074337
 30
0.0
 10
10.2074458394
 20
8.4842262657
 30
0.0
 10
10.217558571
 20
8.4808783407
 30
0.0
 10
10.2274509745
 20
8.4768145344
 30
0.0
 10
10.2370700093
 20
8.472056637
 30
0.0
 10
10.2463645066
 20
8.4666300624
 30
0.0
 10
10.2552849199
 20
8.4605637877
 30
0.0
 10
10.2637837268
 20
8.4538901817
 30
0.0
 10
10.2718156408
 20
8.4466448376
 30
0.0
 10
10.27933786
 20
8.4388663838
 30
0.0
 10
10.2863102905
 20
8.4305962802
 30
0.0
 10
10.2926957584
 20
8.4218785989
 30
0.0
 10
10.2984602062
 20
8.4127597924
 30
0.0
 10
10.3035728728
 20
8.4032884482
 30
0.0
 10
10.3080064567
 20
8.3935150333
 30
0.0
 10
10.3117372608
 20
8.3834916286
 30
0.0
 10
10.3147453192
 20
8.3732716549
 30
0.0
 10
10.3170145043
 20
8.3629095916
 30
0.0
 10
10.3185326142
 20
8.3524606911
 30
0.0
 10
10.3192914408
 20
8.3419806869
 30
0.0
 10
10.3192868179
 20
8.3315255029
 30
0.0
 10
10.3185186435
 20
8.3211509474
 30
0.0
 10
10.3169909056
 20
8.3109124578
 30
0.0
 10
10.314711593
 20
8.3008646556
 30
0.0
 10
10.3116929365
 20
8.2910616105
 30
0.0
 10
10.3085711435
 20
8.2831315202
 30
0.0
 10
10.3057223409
 20
8.276964651
 30
0.0
 10
10.3026479424
 20
8.2709318659
 30
0.0
 10
10.2983793087
 20
8.2636348997
 30
0.0
 10
10.293561654
 20
8.2566997937
 30
0.0
 10
10.2893985105
 20
8.2513987575
 30
0.0
 10
10.2850367443
 20
8.2462707681
 30
0.0
 10
10.2815422218
 20
8.2426200661
 30
0.0
 10
10.2791227971
 20
8.2402830813
 30
0.0
  0
SPLINE
  5
3B7
100
AcDbEntity
  8
0
100
AcDbSpline
 62
7
  6
CONTINUOUS
 70
0
 71
3
 72
39
 73
35
 74
0
 42
0.0000001
 43
0.0000001
 44
0.0000000001
 40
0.0
 40
0.0
 40
0.0
 40
0.0
 40
0.0311445376
 40
0.062443355
 40
0.09388824
 40
0.1254709996
 40
0.1571788478
 40
0.1889972257
 40
0.2209091305
 40
0.2528957945
 40
0.2849369709
 40
0.3170113586
 40
0.3490970145
 40
0.3811717799
 40
0.4132137068
 40
0.4452014824
 40
0.4771148435
 40
0.5089349783
 40
0.5406449062
 40
0.5722298317
 40
0.6036774666
 40
0.6349783114
 40
0.6661258871
 40
0.6971169127
 40
0.7279514223
 40
0.7586328137
 40
0.7891678252
 40
0.8195664354
 40
0.8498416851
 40
0.8800094226
 40
0.9100879711
 40
0.9400977272
 40
0.9700606997
 40
1.0
 40
1.0
 40
1.0
 40
1.0
 10
11.3991624809
 20
9.5446766081
 30
0.0
 10
11.4010022326
 20
9.5445490208
 30
0.0
 10
11.4046828774
 20
9.5441585367
 30
0.0
 10
11.4101592039
 20
9.5431749632
 30
0.0
 10
11.4155768959
 20
9.5417971948
 30
0.0
 10
11.4209066402
 20
9.5400327604
 30
0.0
 10
11.4261201662
 20
9.5378910339
 30
0.0
 10
11.4311896497
 20
9.5353835148
 30
0.0
 10
11.4360880879
 20
9.5325235835
 30
0.0
 10
11.4407893785
 20
9.5293265159
 30
0.0
 10
11.4452684714
 20
9.525809367
 30
0.0
 10
11.4495014994
 20
9.5219908958
 30
0.0
 10
11.4534659063
 20
9.5178914624
 30
0.0
 10
11.4571405625
 20
9.513532918
 30
0.0
 10
11.4605058776
 20
9.50893849
 30
0.0
 10
11.4635439029
 20
9.5041326595
 30
0.0
 10
11.4662384266
 20
9.4991410326
 30
0.0
 10
11.4685750593
 20
9.4939902059
 30
0.0
 10
11.4705413106
 20
9.4887076265
 30
0.0
 10
11.4721266552
 20
9.4833214478
 30
0.0
 10
11.4733225945
 20
9.4778603828
 30
0.0
 10
11.4741227001
 20
9.4723535512
 30
0.0
 10
11.4745226473
 20
9.466830326
 30
0.0
 10
11.4745202408
 20
9.4613201788
 30
0.0
 10
11.4741154285
 20
9.455852525
 30
0.0
 10
11.4733103046
 20
9.4504565674
 30
0.0
 10
11.4721091024
 20
9.4451611423
 30
0.0
 10
11.4705181744
 20
9.4399945638
 30
0.0
 10
11.4685459654
 20
9.4349844746
 30
0.0
 10
11.4662029664
 20
9.4301576839
 30
0.0
 10
11.46350169
 20
9.4255400577
 30
0.0
 10
11.4604564758
 20
9.4211562459
 30
0.0
 10
11.4570839015
 20
9.4170300349
 30
0.0
 10
11.4546282306
 20
9.4144646038
 30
0.0
 10
11.4533531382
 20
9.4132329484
 30
0.0
  0
SPLINE
  5
3B8
100
AcDbEntity
  8
0
100
AcDbSpline
 62
7
  6
CONTINUOUS
 70
0
 71
3
 72
39
 73
35
 74
0
 42
0.0000001
 43
0.0000001
 44
0.0000000001
 40
0.0
 40
0.0
 40
0.0
 40
0.0
 40
0.0311445376
 40
0.062443355
 40
0.09388824
 40
0.1254709996
 40
0.1571788478
 40
0.1889972257
 40
0.2209091305
 40
0.2528957945
 40
0.2849369709
 40
0.3170113586
 40
0.3490970145
 40
0.3811717799
 40
0.4132137068
 40
0.4452014824
 40
0.4771148435
 40
0.5089349783
 40
0.5406449062
 40
0.5722298317
 40
0.6036774666
 40
0.6349783114
 40
0.6661258871
 40
0.6971169127
 40
0.7279514223
 40
0.7586328137
 40
0.7891678252
 40
0.8195664354
 40
0.8498416851
 40
0.8800094226
 40
0.9100879711
 40
0.9400977272
 40
0.9700606997
 40
1.0
 40
1.0
 40
1.0
 40
1.0
 10
10.1608454644
 20
8.7554253744
 30
0.0
 10
10.1626852161
 20
8.7552977872
 30
0.0
 10
10.1663658609
 20
8.7549073031
 30
0.0
 10
10.1718421873
 20
8.7539237296
 30
0.0
 10
10.1772598794
 20
8.7525459612
 30
0.0
 10
10.1825896236
 20
8.7507815268
 30
0.0
 10
10.1878031497
 20
8.7486398003
 30
0.0
 10
10.1928726332
 20
8.7461322812
 30
0.0
 10
10.1977710714
 20
8.7432723499
 30
0.0
 10
10.202472362
 20
8.7400752822
 30
0.0
 10
10.2069514549
 20
8.7365581334
 30
0.0
 10
10.2111844829
 20
8.7327396622
 30
0.0
 10
10.2151488897
 20
8.7286402288
 30
0.0
 10
10.218823546
 20
8.7242816844
 30
0.0
 10
10.2221888611
 20
8.7196872564
 30
0.0
 10
10.2252268864
 20
8.7148814259
 30
0.0
 10
10.2279214101
 20
8.709889799
 30
0.0
 10
10.2302580427
 20
8.7047389723
 30
0.0
 10
10.2322242941
 20
8.6994563928
 30
0.0
 10
10.2338096387
 20
8.6940702141
 30
0.0
 10
10.235005578
 20
8.6886091491
 30
0.0
 10
10.2358056835
 20
8.6831023176
 30
0.0
 10
10.2362056308
 20
8.6775790923
 30
0.0
 10
10.2362032243
 20
8.6720689452
 30
0.0
 10
10.235798412
 20
8.6666012913
 30
0.0
 10
10.2349932881
 20
8.6612053338
 30
0.0
 10
10.2337920859
 20
8.6559099087
 30
0.0
 10
10.2322011578
 20
8.6507433302
 30
0.0
 10
10.2302289489
 20
8.645733241
 30
0.0
 10
10.2278859499
 20
8.6409064502
 30
0.0
 10
10.2251846734
 20
8.6362888241
 30
0.0
 10
10.2221394593
 20
8.6319050123
 30
0.0
 10
10.218766885
 20
8.6277788013
 30
0.0
 10
10.216311214
 20
8.6252133702
 30
0.0
 10
10.2150361217
 20
8.6239817148
 30
0.0
  0
SPLINE
  5
3B9
100
AcDbEntity
  8
0
100
AcDbSpline
 62
7
  6
CONTINUOUS
 70
0
 71
3
 72
37
 73
33
 74
0
 42
0.0000001
 43
0.0000001
 44
0.0000000001
 40
0.0
 40
0.0
 40
0.0
 40
0.0
 40
0.0311467573
 40
0.0624481077
 40
0.0938952645
 40
0.125480423
 40
0.1571906467
 40
0.189011416
 40
0.2209257215
 40
0.2529147894
 40
0.2849583708
 40
0.3170351623
 40
0.381163081
 40
0.4451600481
 40
0.4770758024
 40
0.508898317
 40
0.5406106103
 40
0.5721978896
 40
0.6036478697
 40
0.6349510521
 40
0.6661009568
 40
0.6970942988
 40
0.7279311085
 40
0.7586147837
 40
0.7891520652
 40
0.819552936
 40
0.8498304416
 40
0.8800004329
 40
0.9100812331
 40
0.9400932378
 40
0.9700584557
 40
1.0
 40
1.0
 40
1.0
 40
1.0
 10
10.7800039871
 20
9.137493925
 30
0.0
 10
10.7815371145
 20
9.1373876022
 30
0.0
 10
10.784604335
 20
9.1370621931
 30
0.0
 10
10.7891679605
 20
9.1362425485
 30
0.0
 10
10.7936827277
 20
9.135094392
 30
0.0
 10
10.7981241976
 20
9.1336240239
 30
0.0
 10
10.8024688218
 20
9.1318392372
 30
0.0
 10
10.806693406
 20
9.1297496257
 30
0.0
 10
10.8107754597
 20
9.1273663218
 30
0.0
 10
10.8146931828
 20
9.1247021073
 30
0.0
 10
10.8184258732
 20
9.1217709987
 30
0.0
 10
10.8231276287
 20
9.1175298227
 30
0.0
 10
10.8284437899
 20
9.1116448547
 30
0.0
 10
10.8329049737
 20
9.105097302
 30
0.0
 10
10.835900678
 20
9.099547433
 30
0.0
 10
10.8378479491
 20
9.0952549169
 30
0.0
 10
10.8394864452
 20
9.0908527739
 30
0.0
 10
10.8408075526
 20
9.0863642572
 30
0.0
 10
10.8418041482
 20
9.081813349
 30
0.0
 10
10.8424708836
 20
9.0772242999
 30
0.0
 10
10.8428041493
 20
9.0726215913
 30
0.0
 10
10.8428021121
 20
9.0680297828
 30
0.0
 10
10.842464728
 20
9.0634733891
 30
0.0
 10
10.8417937473
 20
9.0589767465
 30
0.0
 10
10.8407927007
 20
9.0545638847
 30
0.0
 10
10.8394668846
 20
9.0502583978
 30
0.0
 10
10.8378233377
 20
9.04608332
 30
0.0
 10
10.8358707986
 20
9.0420609933
 30
0.0
 10
10.8336196909
 20
9.0382129749
 30
0.0
 10
10.8310819608
 20
9.0345598109
 30
0.0
 10
10.8282714335
 20
9.0311213155
 30
0.0
 10
10.8262249968
 20
9.0289834815
 30
0.0
 10
10.8251624095
 20
9.0279571035
 30
0.0
  0
SPLINE
  5
3BA
100
AcDbEntity
  8
0
100
AcDbSpline
 62
7
  6
CONTINUOUS
 70
0
 71
3
 72
28
 73
24
 74
0
 42
0.0000001
 43
0.0000001
 44
0.0000000001
 40
0.0
 40
0.0
 40
0.0
 40
0.0
 40
0.0319827493
 40
0.0638447213
 40
0.0955840805
 40
0.1272085276
 40
0.1587239617
 40
0.1901383632
 40
0.2214609787
 40
0.2527015754
 40
0.2838708228
 40
0.3149793282
 40
0.3460376336
 40
0.3770564661
 40
0.4389976027
 40
0.5008952916
 40
0.5628125881
 40
0.6248017161
 40
0.6869047765
 40
0.7491549761
 40
0.8115780214
 40
0.8741934666
 40
1.0
 40
1.0
 40
1.0
 40
1.0
 10
10.9353682834
 20
9.4107016104
 30
0.0
 10
10.9353682834
 20
9.4089517342
 30
0.0
 10
10.9352704481
 20
9.4054577807
 30
0.0
 10
10.9348293857
 20
9.4002440492
 30
0.0
 10
10.9340971218
 20
9.3950828253
 30
0.0
 10
10.9330786128
 20
9.3899897922
 30
0.0
 10
10.9317804052
 20
9.3849791787
 30
0.0
 10
10.9302106857
 20
9.3800642865
 30
0.0
 10
10.9283788259
 20
9.3752571326
 30
0.0
 10
10.9262952242
 20
9.3705683975
 30
0.0
 10
10.9239711387
 20
9.3660073426
 30
0.0
 10
10.9214182486
 20
9.3615819654
 30
0.0
 10
10.9186484557
 20
9.3572988148
 30
0.0
 10
10.9146850982
 20
9.3517883889
 30
0.0
 10
10.9092452015
 20
9.3452747873
 30
0.0
 10
10.9020386676
 20
9.3380901139
 30
0.0
 10
10.8942418297
 20
9.3315482318
 30
0.0
 10
10.885934595
 20
9.3256511242
 30
0.0
 10
10.8771882043
 20
9.3203940631
 30
0.0
 10
10.8680664948
 20
9.3157688581
 30
0.0
 10
10.8586252084
 20
9.3117649926
 30
0.0
 10
10.8456628978
 20
9.3072345757
 30
0.0
 10
10.8356253984
 20
9.3047449377
 30
0.0
 10
10.8288607589
 20
9.3034725207
 30
0.0
  0
SPLINE
  5
3BB
100
AcDbEntity
  8
0
100
AcDbSpline
 62
7
  6
CONTINUOUS
 70
0
 71
3
 72
25
 73
21
 74
0
 42
0.0000001
 43
0.0000001
 44
0.0000000001
 40
0.0
 40
0.0
 40
0.0
 40
0.0
 40
0.0639318784
 40
0.0957891642
 40
0.1275696973
 40
0.1909016924
 40
0.2539539152
 40
0.3167467996
 40
0.3793065447
 40
0.4416636331
 40
0.5038523934
 40
0.5659100741
 40
0.6278760033
 40
0.6897906915
 40
0.751694962
 40
0.8136291194
 40
0.8756321835
 40
0.9066759034
 40
0.9377505395
 40
1.0
 40
1.0
 40
1.0
 40
1.0
 10
11.3120617487
 20
9.0378104114
 30
0.0
 10
11.3120617487
 20
9.0351113801
 30
0.0
 10
11.3119218341
 20
9.0310655329
 30
0.0
 10
11.3114533246
 20
9.0256994998
 30
0.0
 10
11.3107998399
 20
9.0203781667
 30
0.0
 10
11.3096360719
 20
9.0137969482
 30
0.0
 10
11.3076891551
 20
9.006044521
 30
0.0
 10
11.3052040179
 20
8.9984815756
 30
0.0
 10
11.3021942758
 20
8.9911434059
 30
0.0
 10
11.2986761407
 20
8.9840634073
 30
0.0
 10
11.2946683077
 20
8.9772732679
 30
0.0
 10
11.2901917011
 20
8.9708027113
 30
0.0
 10
11.285269249
 20
8.9646794
 30
0.0
 10
11.2799256657
 20
8.9589288612
 30
0.0
 10
11.2741871392
 20
8.9535743895
 30
0.0
 10
11.2680814169
 20
8.9486372205
 30
0.0
 10
11.2627126023
 20
8.9448874533
 30
0.0
 10
11.2582649876
 20
8.9421149226
 30
0.0
 10
11.2537151176
 20
8.9394930676
 30
0.0
 10
11.2502005185
 20
8.937703513
 30
0.0
 10
11.2478193152
 20
8.9365916332
 30
0.0
  0
SPLINE
  5
3BC
100
AcDbEntity
  8
0
100
AcDbSpline
 62
7
  6
CONTINUOUS
 70
0
 71
3
 72
41
 73
37
 74
0
 42
0.0000001
 43
0.0000001
 44
0.0000000001
 40
0.0
 40
0.0
 40
0.0
 40
0.0
 40
0.0311445478
 40
0.0624424446
 40
0.0938872679
 40
0.125469566
 40
0.1571770992
 40
0.1889951145
 40
0.2209066667
 40
0.2528929719
 40
0.2849337877
 40
0.3170078142
 40
0.3490931102
 40
0.381167517
 40
0.4132090858
 40
0.4451965025
 40
0.4771095029
 40
0.5089292747
 40
0.5406388381
 40
0.5722233999
 40
0.6036706736
 40
0.63497116
 40
0.6661183793
 40
0.6971090497
 40
0.7279432042
 40
0.7586242401
 40
0.7891588962
 40
0.8195571523
 40
0.8498320512
 40
0.8649308901
 40
0.8800050513
 40
0.9100832572
 40
0.940092674
 40
0.9550812744
 40
0.9700610349
 40
1.0
 40
1.0
 40
1.0
 40
1.0
 10
10.7800039871
 20
8.8486821171
 30
0.0
 10
10.7829523505
 20
8.8484776474
 30
0.0
 10
10.7888508214
 20
8.8478518891
 30
0.0
 10
10.7976270136
 20
8.8462756047
 30
0.0
 10
10.8063092137
 20
8.8440676809
 30
0.0
 10
10.8148505098
 20
8.8412400189
 30
0.0
 10
10.8232055404
 20
8.8378077592
 30
0.0
 10
10.8313297337
 20
8.8337892668
 30
0.0
 10
10.8391798117
 20
8.8292060151
 30
0.0
 10
10.8467139442
 20
8.8240824759
 30
0.0
 10
10.8538919897
 20
8.818445988
 30
0.0
 10
10.8606757003
 20
8.8123266132
 30
0.0
 10
10.8670289258
 20
8.8057569769
 30
0.0
 10
10.8729178029
 20
8.7987720958
 30
0.0
 10
10.8783109349
 20
8.791409193
 30
0.0
 10
10.8831795569
 20
8.7837075019
 30
0.0
 10
10.8874976883
 20
8.7757080594
 30
0.0
 10
10.8912422704
 20
8.7674534897
 30
0.0
 10
10.894393289
 20
8.7589877799
 30
0.0
 10
10.8969338809
 20
8.7503560489
 30
0.0
 10
10.898850425
 20
8.7416043098
 30
0.0
 10
10.9001326157
 20
8.7327792283
 30
0.0
 10
10.9007735207
 20
8.7239278766
 30
0.0
 10
10.9007696214
 20
8.7150974875
 30
0.0
 10
10.9001208315
 20
8.7063351963
 30
0.0
 10
10.8988305188
 20
8.6976878252
 30
0.0
 10
10.8969054321
 20
8.6892015062
 30
0.0
 10
10.8943558946
 20
8.6809219096
 30
0.0
 10
10.8917192646
 20
8.6742241921
 30
0.0
 10
10.8893131605
 20
8.6690156995
 30
0.0
 10
10.8867165718
 20
8.6639204277
 30
0.0
 10
10.8831112959
 20
8.6577574581
 30
0.0
 10
10.8790423575
 20
8.6519000883
 30
0.0
 10
10.8755261607
 20
8.6474228867
 30
0.0
 10
10.8718422745
 20
8.6430917853
 30
0.0
 10
10.8688908121
 20
8.6400084295
 30
0.0
 10
10.8668473806
 20
8.6380346245
 30
0.0
  0
SPLINE
  5
3BD
100
AcDbEntity
  8
0
100
AcDbSpline
 62
7
  6
CONTINUOUS
 70
0
 71
3
 72
31
 73
27
 74
0
 42
0.0000001
 43
0.0000001
 44
0.0000000001
 40
0.0
 40
0.0
 40
0.0
 40
0.0
 40
0.031866905
 40
0.0636884952
 40
0.0954623601
 40
0.1271951577
 40
0.1588923196
 40
0.1905606637
 40
0.2222084072
 40
0.2538447805
 40
0.285479561
 40
0.3171227653
 40
0.3804606142
 40
0.4439527059
 40
0.5076608581
 40
0.5716118317
 40
0.6357654184
 40
0.6999635125
 40
0.7638528436
 40
0.8267962401
 40
0.8576297011
 40
0.887851423
 40
0.917318566
 40
0.9458985588
 40
0.9734847959
 40
1.0
 40
1.0
 40
1.0
 40
1.0
 10
10.7826830733
 20
8.6372278747
 30
0.0
 10
10.7809482486
 20
8.6376558177
 30
0.0
 10
10.7775016602
 20
8.6385972411
 30
0.0
 10
10.7724124652
 20
8.6402628186
 30
0.0
 10
10.7674189964
 20
8.6421759685
 30
0.0
 10
10.7625324865
 20
8.6443304156
 30
0.0
 10
10.7577627675
 20
8.6467191291
 30
0.0
 10
10.7531188842
 20
8.6493343031
 30
0.0
 10
10.748608852
 20
8.6521676024
 30
0.0
 10
10.7442396235
 20
8.6552101089
 30
0.0
 10
10.7400171025
 20
8.6584527882
 30
0.0
 10
10.7345885756
 20
8.6630314026
 30
0.0
 10
10.7281882083
 20
8.6692134166
 30
0.0
 10
10.7211612048
 20
8.6772771668
 30
0.0
 10
10.7147955172
 20
8.6859143382
 30
0.0
 10
10.7090960558
 20
8.6950470961
 30
0.0
 10
10.7040612717
 20
8.7045921817
 30
0.0
 10
10.6996858392
 20
8.7144518871
 30
0.0
 10
10.6959615989
 20
8.7245017941
 30
0.0
 10
10.693372084
 20
8.7329597609
 30
0.0
 10
10.6916056492
 20
8.7396850652
 30
0.0
 10
10.6904428001
 20
8.7446263863
 30
0.0
 10
10.6894294011
 20
8.7494714013
 30
0.0
 10
10.6885611893
 20
8.7541943398
 30
0.0
 10
10.6878332966
 20
8.7587733511
 30
0.0
 10
10.6874297726
 20
8.7617803072
 30
0.0
 10
10.6872506263
 20
8.7632562237
 30
0.0
  0
SPLINE
  5
3BE
100
AcDbEntity
  8
0
100
AcDbSpline
 62
7
  6
CONTINUOUS
 70
0
 71
3
 72
42
 73
38
 74
0
 42
0.0000001
 43
0.0000001
 44
0.0000000001
 40
0.0
 40
0.0
 40
0.0
 40
0.0
 40
0.0761041521
 40
0.1533633247
 40
0.2310937022
 40
0.2699207035
 40
0.3086067525
 40
0.3470660793
 40
0.3852135537
 40
0.4229649445
 40
0.460237175
 40
0.4969485815
 40
0.5330191624
 40
0.5683708368
 40
0.6029277115
 40
0.6366163733
 40
0.6693661921
 40
0.7011096155
 40
0.7317825011
 40
0.7613244836
 40
0.789679404
 40
0.8167958085
 40
0.8426274916
 40
0.8671341752
 40
0.8902823636
 40
0.9013391825
 40
0.9120475461
 40
0.9224056801
 40
0.9324125622
 40
0.9420679781
 40
0.9513724554
 40
0.9603275654
 40
0.9689358276
 40
0.9772011609
 40
0.9851289764
 40
0.9927259489
 40
1.0
 40
1.0
 40
1.0
 40
1.0
 10
11.2142780894
 20
6.8838521006
 30
0.0
 10
11.2252012531
 20
6.8830945766
 30
0.0
 10
11.2472351003
 20
6.8818668218
 30
0.0
 10
11.2804719243
 20
6.880873951
 30
0.0
 10
11.3083600445
 20
6.8807456388
 30
0.0
 10
11.3306937089
 20
6.8810654623
 30
0.0
 10
11.3473734915
 20
6.8815161596
 30
0.0
 10
11.3639484213
 20
6.8821766103
 30
0.0
 10
11.380379105
 20
6.8830452557
 30
0.0
 10
11.396626446
 20
6.884120016
 30
0.0
 10
11.4126517998
 20
6.8853983204
 30
0.0
 10
11.4284170516
 20
6.8868771064
 30
0.0
 10
11.4438847101
 20
6.8885528341
 30
0.0
 10
11.4590179951
 20
6.8904214923
 30
0.0
 10
11.4737809263
 20
6.8924786096
 30
0.0
 10
11.4881384144
 20
6.8947192597
 30
0.0
 10
11.502056348
 20
6.8971380704
 30
0.0
 10
11.5155016744
 20
6.8997292438
 30
0.0
 10
11.528442479
 20
6.9024865685
 30
0.0
 10
11.540848065
 20
6.9054034358
 30
0.0
 10
11.5526890417
 20
6.9084728546
 30
0.0
 10
11.5639373876
 20
6.9116874633
 30
0.0
 10
11.5745665914
 20
6.9150395608
 30
0.0
 10
11.5845514889
 20
6.9185211342
 30
0.0
 10
11.5924319898
 20
6.9215681885
 30
0.0
 10
11.5983899322
 20
6.924070843
 30
0.0
 10
11.6026143962
 20
6.9259462691
 30
0.0
 10
11.606660911
 20
6.9278477613
 30
0.0
 10
11.6105270964
 20
6.9297742193
 30
0.0
 10
11.6142106881
 20
6.9317244771
 30
0.0
 10
11.6177094986
 20
6.9336974382
 30
0.0
 10
11.6210214895
 20
6.9356918864
 30
0.0
 10
11.6241447139
 20
6.9377066948
 30
0.0
 10
11.6270773669
 20
6.9397407181
 30
0.0
 10
11.6298177994
 20
6.9417928283
 30
0.0
 10
11.6323642595
 20
6.9438618075
 30
0.0
 10
11.6339657846
 20
6.9452818461
 30
0.0
 10
11.6347319264
 20
6.9459947872
 30
0.0
  0
SPLINE
  5
3BF
100
AcDbEntity
  8
0
100
AcDbSpline
 62
7
  6
CONTINUOUS
 70
0
 71
3
 72
18
 73
14
 74
0
 42
0.0000001
 43
0.0000001
 44
0.0000000001
 40
0.0
 40
0.0
 40
0.0
 40
0.0
 40
0.1480418171
 40
0.2876687388
 40
0.4195635278
 40
0.4828951528
 40
0.5446365507
 40
0.6638665445
 40
0.7785244891
 40
0.8345987202
 40
0.8900707894
 40
0.9451373579
 40
1.0
 40
1.0
 40
1.0
 40
1.0
 10
11.9031296611
 20
7.204175366
 30
0.0
 10
11.9041575399
 20
7.2051682208
 30
0.0
 10
11.906094638
 20
7.207161621
 30
0.0
 10
11.9086991116
 20
7.2102682441
 30
0.0
 10
11.9105672104
 20
7.212911835
 30
0.0
 10
11.911853762
 20
7.2150337284
 30
0.0
 10
11.9129773434
 20
7.217108081
 30
0.0
 10
11.9141450205
 20
7.2197182273
 30
0.0
 10
11.9149976032
 20
7.2223914802
 30
0.0
 10
11.9154708466
 20
7.2245243792
 30
0.0
 10
11.9157227079
 20
7.2261139834
 30
0.0
 10
11.9158738352
 20
7.2277044736
 30
0.0
 10
11.9159074429
 20
7.2287659569
 30
0.0
 10
11.9159074429
 20
7.2292955613
 30
0.0
  0
SPLINE
  5
3C0
100
AcDbEntity
  8
0
100
AcDbSpline
 62
7
  6
CONTINUOUS
 70
0
 71
3
 72
15
 73
11
 74
0
 42
0.0000001
 43
0.0000001
 44
0.0000000001
 40
0.0
 40
0.0
 40
0.0
 40
0.0
 40
0.1194417037
 40
0.2404051451
 40
0.3628801584
 40
0.4869023278
 40
0.6125408689
 40
0.739880285
 40
0.8690075459
 40
1.0
 40
1.0
 40
1.0
 40
1.0
 10
10.6872506263
 20
8.7632562237
 30
0.0
 10
10.6869184004
 20
8.7659933023
 30
0.0
 10
10.6865226245
 20
8.7715392537
 30
0.0
 10
10.6867495022
 20
8.7799256416
 30
0.0
 10
10.6878093386
 20
8.7883553957
 30
0.0
 10
10.689710102
 20
8.7967466767
 30
0.0
 10
10.6924505043
 20
8.8050208032
 30
0.0
 10
10.6960206814
 20
8.8131012922
 30
0.0
 10
10.7004012646
 20
8.8209136414
 30
0.0
 10
10.7038201583
 20
8.8258621484
 30
0.0
 10
10.7056504335
 20
8.8282691125
 30
0.0
  0
SPLINE
  5
3C1
100
AcDbEntity
  8
0
100
AcDbSpline
 62
7
  6
CONTINUOUS
 70
0
 71
3
 72
17
 73
13
 74
0
 42
0.0000001
 43
0.0000001
 44
0.0000000001
 40
0.0
 40
0.0
 40
0.0
 40
0.0
 40
0.0548647235
 40
0.1099333874
 40
0.1654074707
 40
0.2214837756
 40
0.3361456801
 40
0.4553802048
 40
0.5804214439
 40
0.7123204126
 40
0.8519508383
 40
1.0
 40
1.0
 40
1.0
 40
1.0
 10
11.406351875
 20
10.3755500613
 30
0.0
 10
11.4063518768
 20
10.3749420715
 30
0.0
 10
11.4063132869
 20
10.3737234807
 30
0.0
 10
11.4061397943
 20
10.3718975887
 30
0.0
 10
11.405850692
 20
10.3700727042
 30
0.0
 10
11.405307404
 20
10.3676241405
 30
0.0
 10
11.4043286087
 20
10.3645551231
 30
0.0
 10
11.4027013399
 20
10.3609175429
 30
0.0
 10
11.4006162473
 20
10.3573002212
 30
0.0
 10
11.3980768109
 20
10.3537067101
 30
0.0
 10
11.395086783
 20
10.3501401053
 30
0.0
 10
11.392862995
 20
10.3478517164
 30
0.0
 10
11.3916829688
 20
10.3467118985
 30
0.0
  0
SPLINE
  5
3C2
100
AcDbEntity
  8
0
100
AcDbSpline
 62
7
  6
CONTINUOUS
 70
0
 71
3
 72
21
 73
17
 74
0
 42
0.0000001
 43
0.0000001
 44
0.0000000001
 40
0.0
 40
0.0
 40
0.0
 40
0.0
 40
0.0616532251
 40
0.1233294846
 40
0.1850515438
 40
0.2468416586
 40
0.3087213407
 40
0.3707111063
 40
0.4328302458
 40
0.4950966346
 40
0.5575265706
 40
0.6201345761
 40
0.6829331563
 40
0.7459331329
 40
0.8725263342
 40
1.0
 40
1.0
 40
1.0
 40
1.0
 10
10.0734778226
 20
9.9928683306
 30
0.0
 10
10.0751386874
 20
9.9944726028
 30
0.0
 10
10.0785480536
 20
9.997593047
 30
0.0
 10
10.0839073073
 20
10.0019929938
 30
0.0
 10
10.0894992938
 20
10.0061020948
 30
0.0
 10
10.0953097116
 20
10.0099098424
 30
0.0
 10
10.1013239687
 20
10.0134067019
 30
0.0
 10
10.107526908
 20
10.0165838352
 30
0.0
 10
10.1139028957
 20
10.0194332622
 30
0.0
 10
10.1204358536
 20
10.0219478367
 30
0.0
 10
10.1271093427
 20
10.0241212309
 30
0.0
 10
10.1339065045
 20
10.0259479606
 30
0.0
 10
10.1408104052
 20
10.0274234874
 30
0.0
 10
10.1501478785
 20
10.0289198714
 30
0.0
 10
10.1620049804
 20
10.0298920272
 30
0.0
 10
10.1715373771
 20
10.0297059964
 30
0.0
 10
10.1763003098
 20
10.0293756859
 30
0.0
  0
SPLINE
  5
3C3
100
AcDbEntity
  8
0
100
AcDbSpline
 62
7
  6
CONTINUOUS
 70
0
 71
3
 72
21
 73
17
 74
0
 42
0.0000001
 43
0.0000001
 44
0.0000000001
 40
0.0
 40
0.0
 40
0.0
 40
0.0
 40
0.0616532251
 40
0.1233294846
 40
0.1850515438
 40
0.2468416586
 40
0.3087213407
 40
0.3707111063
 40
0.4328302458
 40
0.4950966346
 40
0.5575265706
 40
0.6201345761
 40
0.6829331563
 40
0.7459331329
 40
0.8725263342
 40
1.0
 40
1.0
 40
1.0
 40
1.0
 10
11.280885177
 20
9.9091343462
 30
0.0
 10
11.2825460418
 20
9.9107386184
 30
0.0
 10
11.285955408
 20
9.9138590626
 30
0.0
 10
11.2913146617
 20
9.9182590094
 30
0.0
 10
11.2969066482
 20
9.9223681104
 30
0.0
 10
11.302717066
 20
9.926175858
 30
0.0
 10
11.3087313231
 20
9.9296727175
 30
0.0
 10
11.3149342624
 20
9.9328498507
 30
0.0
 10
11.3213102501
 20
9.9356992777
 30
0.0
 10
11.327843208
 20
9.9382138523
 30
0.0
 10
11.3345166971
 20
9.9403872465
 30
0.0
 10
11.3413138589
 20
9.9422139761
 30
0.0
 10
11.3482177596
 20
9.943689503
 30
0.0
 10
11.3575552329
 20
9.945185887
 30
0.0
 10
11.3694123348
 20
9.9461580428
 30
0.0
 10
11.3789447315
 20
9.945972012
 30
0.0
 10
11.3837076643
 20
9.9456417015
 30
0.0
  0
SPLINE
  5
3C4
100
AcDbEntity
  8
0
100
AcDbSpline
 62
7
  6
CONTINUOUS
 70
0
 71
3
 72
21
 73
17
 74
0
 42
0.0000001
 43
0.0000001
 44
0.0000000001
 40
0.0
 40
0.0
 40
0.0
 40
0.0
 40
0.0616532251
 40
0.1233294846
 40
0.1850515438
 40
0.2468416586
 40
0.3087213407
 40
0.3707111063
 40
0.4328302458
 40
0.4950966346
 40
0.5575265706
 40
0.6201345761
 40
0.6829331563
 40
0.7459331329
 40
0.8725263342
 40
1.0
 40
1.0
 40
1.0
 40
1.0
 10
11.280885177
 20
8.3694484478
 30
0.0
 10
11.2825460418
 20
8.37105272
 30
0.0
 10
11.285955408
 20
8.3741731642
 30
0.0
 10
11.2913146617
 20
8.378573111
 30
0.0
 10
11.2969066482
 20
8.3826822119
 30
0.0
 10
11.302717066
 20
8.3864899595
 30
0.0
 10
11.3087313231
 20
8.3899868191
 30
0.0
 10
11.3149342624
 20
8.3931639523
 30
0.0
 10
11.3213102501
 20
8.3960133793
 30
0.0
 10
11.327843208
 20
8.3985279539
 30
0.0
 10
11.3345166971
 20
8.4007013481
 30
0.0
 10
11.3413138589
 20
8.4025280777
 30
0.0
 10
11.3482177596
 20
8.4040036046
 30
0.0
 10
11.3575552329
 20
8.4054999886
 30
0.0
 10
11.3694123348
 20
8.4064721444
 30
0.0
 10
11.3789447315
 20
8.4062861136
 30
0.0
 10
11.3837076643
 20
8.4059558031
 30
0.0
  0
SPLINE
  5
3C5
100
AcDbEntity
  8
0
100
AcDbSpline
 62
7
  6
CONTINUOUS
 70
0
 71
3
 72
21
 73
17
 74
0
 42
0.0000001
 43
0.0000001
 44
0.0000000001
 40
0.0
 40
0.0
 40
0.0
 40
0.0
 40
0.0616532251
 40
0.1233294846
 40
0.1850515438
 40
0.2468416586
 40
0.3087213407
 40
0.3707111063
 40
0.4328302458
 40
0.4950966346
 40
0.5575265706
 40
0.6201345761
 40
0.6829331563
 40
0.7459331329
 40
0.8725263342
 40
1.0
 40
1.0
 40
1.0
 40
1.0
 10
10.0734778226
 20
8.4531824322
 30
0.0
 10
10.0751386874
 20
8.4547867044
 30
0.0
 10
10.0785480536
 20
8.4579071486
 30
0.0
 10
10.0839073073
 20
8.4623070954
 30
0.0
 10
10.0894992938
 20
8.4664161964
 30
0.0
 10
10.0953097116
 20
8.470223944
 30
0.0
 10
10.1013239687
 20
8.4737208035
 30
0.0
 10
10.107526908
 20
8.4768979368
 30
0.0
 10
10.1139028957
 20
8.4797473638
 30
0.0
 10
10.1204358536
 20
8.4822619383
 30
0.0
 10
10.1271093427
 20
8.4844353325
 30
0.0
 10
10.1339065045
 20
8.4862620622
 30
0.0
 10
10.1408104052
 20
8.487737589
 30
0.0
 10
10.1501478785
 20
8.489233973
 30
0.0
 10
10.1620049804
 20
8.4902061288
 30
0.0
 10
10.1715373771
 20
8.490020098
 30
0.0
 10
10.1763003098
 20
8.4896897875
 30
0.0
  0
SPLINE
  5
3C6
100
AcDbEntity
  8
0
100
AcDbSpline
 62
7
  6
CONTINUOUS
 70
0
 71
3
 72
15
 73
11
 74
0
 42
0.0000001
 43
0.0000001
 44
0.0000000001
 40
0.0
 40
0.0
 40
0.0
 40
0.0
 40
0.1233171364
 40
0.2468171961
 40
0.3706749962
 40
0.495049573
 40
0.6200773082
 40
0.7458671136
 40
0.8724927176
 40
1.0
 40
1.0
 40
1.0
 40
1.0
 10
11.3449718236
 20
9.5254358299
 30
0.0
 10
11.3467221698
 20
9.5271265493
 30
0.0
 10
11.3504106938
 20
9.5303245603
 30
0.0
 10
11.3564307413
 20
9.5345034966
 30
0.0
 10
11.3628814367
 20
9.5380262867
 30
0.0
 10
11.3696967501
 20
9.540856722
 30
0.0
 10
11.3768079324
 20
9.542966701
 30
0.0
 10
11.3841433471
 20
9.5443351264
 30
0.0
 10
11.3916281149
 20
9.5449486881
 30
0.0
 10
11.3966522547
 20
9.5448506928
 30
0.0
 10
11.3991624809
 20
9.5446766081
 30
0.0
  0
SPLINE
  5
3C7
100
AcDbEntity
  8
0
100
AcDbSpline
 62
7
  6
CONTINUOUS
 70
0
 71
3
 72
15
 73
11
 74
0
 42
0.0000001
 43
0.0000001
 44
0.0000000001
 40
0.0
 40
0.0
 40
0.0
 40
0.0
 40
0.1233171364
 40
0.2468171961
 40
0.3706749962
 40
0.495049573
 40
0.6200773082
 40
0.7458671136
 40
0.8724927176
 40
1.0
 40
1.0
 40
1.0
 40
1.0
 10
10.1066548071
 20
8.7361845962
 30
0.0
 10
10.1084051533
 20
8.7378753157
 30
0.0
 10
10.1120936773
 20
8.7410733267
 30
0.0
 10
10.1181137248
 20
8.745252263
 30
0.0
 10
10.1245644202
 20
8.7487750531
 30
0.0
 10
10.1313797336
 20
8.7516054884
 30
0.0
 10
10.1384909158
 20
8.7537154674
 30
0.0
 10
10.1458263306
 20
8.7550838928
 30
0.0
 10
10.1533110984
 20
8.7556974545
 30
0.0
 10
10.1583352382
 20
8.7555994592
 30
0.0
 10
10.1608454644
 20
8.7554253744
 30
0.0
  0
SPLINE
  5
3C8
100
AcDbEntity
  8
0
100
AcDbSpline
 62
7
  6
CONTINUOUS
 70
0
 71
3
 72
15
 73
11
 74
0
 42
0.0000001
 43
0.0000001
 44
0.0000000001
 40
0.0
 40
0.0
 40
0.0
 40
0.0
 40
0.1233171217
 40
0.2468171833
 40
0.3706749954
 40
0.4950495965
 40
0.6200773092
 40
0.7458671694
 40
0.8724927499
 40
1.0
 40
1.0
 40
1.0
 40
1.0
 10
10.7348455646
 20
9.1214603816
 30
0.0
 10
10.7363041755
 20
9.1228692881
 30
0.0
 10
10.7393779404
 20
9.1255342237
 30
0.0
 10
10.7443946084
 20
9.1290165866
 30
0.0
 10
10.7497701459
 20
9.1319521597
 30
0.0
 10
10.7554495164
 20
9.1343107864
 30
0.0
 10
10.7613754333
 20
9.1360690555
 30
0.0
 10
10.767488204
 20
9.1372093754
 30
0.0
 10
10.7737254311
 20
9.1377206588
 30
0.0
 10
10.7779121593
 20
9.1376389937
 30
0.0
 10
10.7800039871
 20
9.137493925
 30
0.0
  0
SPLINE
  5
3C9
100
AcDbEntity
  8
0
100
AcDbSpline
 62
7
  6
CONTINUOUS
 70
0
 71
3
 72
31
 73
27
 74
0
 42
0.0000001
 43
0.0000001
 44
0.0000000001
 40
0.0
 40
0.0
 40
0.0
 40
0.0
 40
0.0607022727
 40
0.1217580768
 40
0.1831707036
 40
0.2449379626
 40
0.3070525692
 40
0.3695016689
 40
0.432265553
 40
0.4953147346
 40
0.5586066536
 40
0.5903356069
 40
0.6221012711
 40
0.6856686555
 40
0.717466523
 40
0.7492418812
 40
0.7809743377
 40
0.8126415021
 40
0.8442195522
 40
0.8599704113
 40
0.8756901222
 40
0.9070178325
 40
0.938187784
 40
0.9537113651
 40
0.9691899848
 40
1.0
 40
1.0
 40
1.0
 40
1.0
 10
10.7311472156
 20
9.5394798014
 30
0.0
 10
10.7365490651
 20
9.54049588
 30
0.0
 10
10.7474832223
 20
9.5420391598
 30
0.0
 10
10.7640650741
 20
9.5429195003
 30
0.0
 10
10.7807590537
 20
9.5423952514
 30
0.0
 10
10.7974467416
 20
9.540478643
 30
0.0
 10
10.8140116911
 20
9.5371728842
 30
0.0
 10
10.8303307691
 20
9.5324724927
 30
0.0
 10
10.8462693059
 20
9.5263645816
 30
0.0
 10
10.8616725704
 20
9.5188321245
 30
0.0
 10
10.8739068425
 20
9.5113560333
 30
0.0
 10
10.8832301157
 20
9.5046488816
 30
0.0
 10
10.8922103799
 20
9.4974503836
 30
0.0
 10
10.9005986398
 20
9.4895232097
 30
0.0
 10
10.9082327944
 20
9.4808981595
 30
0.0
 10
10.913542258
 20
9.4740870638
 30
0.0
 10
10.9183874318
 20
9.4669521358
 30
0.0
 10
10.922720968
 20
9.4595154606
 30
0.0
 10
10.9258689019
 20
9.4530842947
 30
0.0
 10
10.9280832229
 20
9.4478208158
 30
0.0
 10
10.9300836001
 20
9.4424965832
 30
0.0
 10
10.9321789092
 20
9.4357225179
 30
0.0
 10
10.9337048748
 20
9.4288153905
 30
0.0
 10
10.9345652577
 20
9.4232502081
 30
0.0
 10
10.9351808921
 20
9.4176858624
 30
0.0
 10
10.9353682834
 20
9.4134914519
 30
0.0
 10
10.9353682834
 20
9.4107016104
 30
0.0
  0
SPLINE
  5
3CA
100
AcDbEntity
  8
0
100
AcDbSpline
 62
7
  6
CONTINUOUS
 70
0
 71
3
 72
39
 73
35
 74
0
 42
0.0000001
 43
0.0000001
 44
0.0000000001
 40
0.0
 40
0.0
 40
0.0
 40
0.0
 40
0.0300165499
 40
0.0601272705
 40
0.0903433979
 40
0.1206743215
 40
0.1511275093
 40
0.1817084621
 40
0.2124206929
 40
0.2432657259
 40
0.2742431155
 40
0.3053504813
 40
0.3365835584
 40
0.36793626
 40
0.3994007524
 40
0.4309675402
 40
0.4626255671
 40
0.4943623378
 40
0.5261640531
 40
0.5580157642
 40
0.5899015482
 40
0.6218047057
 40
0.6537079827
 40
0.6855938167
 40
0.7174446071
 40
0.7492430114
 40
0.7809722582
 40
0.8126164646
 40
0.8441609841
 40
0.8755926701
 40
0.9069003763
 40
0.9380747106
 40
0.9691095894
 40
1.0
 40
1.0
 40
1.0
 40
1.0
 10
11.1274300871
 20
9.1562886668
 30
0.0
 10
11.1297762049
 20
9.1573841638
 30
0.0
 10
11.1345510954
 20
9.1594212113
 30
0.0
 10
11.1419115141
 20
9.1619984115
 30
0.0
 10
11.1494516534
 20
9.164094071
 30
0.0
 10
11.15714072
 20
9.1657015269
 30
0.0
 10
11.1649482683
 20
9.1668160522
 30
0.0
 10
11.1728435762
 20
9.1674345021
 30
0.0
 10
11.1807958719
 20
9.1675553655
 30
0.0
 10
11.1887743233
 20
9.1671787101
 30
0.0
 10
11.1967480835
 20
9.1663061684
 30
0.0
 10
11.204686316
 20
9.1649409293
 30
0.0
 10
11.2125582265
 20
9.1630877426
 30
0.0
 10
11.2203330957
 20
9.160752933
 30
0.0
 10
11.2279803174
 20
9.1579444234
 30
0.0
 10
11.2354694474
 20
9.1546717705
 30
0.0
 10
11.2427702622
 20
9.1509462033
 30
0.0
 10
11.2498528285
 20
9.1467806602
 30
0.0
 10
11.2566875891
 20
9.1421898335
 30
0.0
 10
11.2632454656
 20
9.137190212
 30
0.0
 10
11.2694979767
 20
9.1318001177
 30
0.0
 10
11.2754173768
 20
9.126039736
 30
0.0
 10
11.2809768102
 20
9.1199311314
 30
0.0
 10
11.2861504847
 20
9.1134982492
 30
0.0
 10
11.2909138609
 20
9.1067668958
 30
0.0
 10
11.2952438493
 20
9.0997646905
 30
0.0
 10
11.2991190168
 20
9.0925209934
 30
0.0
 10
11.3025198016
 20
9.0850668011
 30
0.0
 10
11.3054287107
 20
9.0774346175
 30
0.0
 10
11.3078305485
 20
9.0696582664
 30
0.0
 10
11.3097125394
 20
9.0617727705
 30
0.0
 10
11.3110646136
 20
9.0538138547
 30
0.0
 10
11.3118793464
 20
9.0458185935
 30
0.0
 10
11.3120617487
 20
9.0404750745
 30
0.0
 10
11.3120617487
 20
9.0378104114
 30
0.0
  0
SPLINE
  5
3CB
100
AcDbEntity
  8
0
100
AcDbSpline
 62
7
  6
CONTINUOUS
 70
0
 71
3
 72
39
 73
35
 74
0
 42
0.0000001
 43
0.0000001
 44
0.0000000001
 40
0.0
 40
0.0
 40
0.0
 40
0.0
 40
0.0309663873
 40
0.0617280783
 40
0.0923044421
 40
0.1227227415
 40
0.1530165262
 40
0.1832240032
 40
0.213386152
 40
0.2435448625
 40
0.2737410901
 40
0.3040132596
 40
0.3343959633
 40
0.3649188936
 40
0.3956060827
 40
0.4264754232
 40
0.4575383922
 40
0.4887999577
 40
0.5202586447
 40
0.5519067043
 40
0.5837303862
 40
0.6157103211
 40
0.6478219814
 40
0.6800362301
 40
0.71232005
 40
0.7446374021
 40
0.7769501994
 40
0.8092195187
 40
0.8414069761
 40
0.8734761767
 40
0.9053943114
 40
0.9371337534
 40
0.9686731175
 40
1.0
 40
1.0
 40
1.0
 40
1.0
 10
10.2482093181
 20
9.1194368837
 30
0.0
 10
10.2484715161
 20
9.1233248923
 30
0.0
 10
10.2493874
 20
9.1310547131
 30
0.0
 10
10.2519346642
 20
9.142407835
 30
0.0
 10
10.2556217186
 20
9.1533723245
 30
0.0
 10
10.2604062148
 20
9.1638393598
 30
0.0
 10
10.2662342355
 20
9.1737094717
 30
0.0
 10
10.2730415714
 20
9.1828911554
 30
0.0
 10
10.2807552791
 20
9.1913023277
 30
0.0
 10
10.2892950995
 20
9.1988706986
 30
0.0
 10
10.2985750401
 20
9.2055338849
 30
0.0
 10
10.3085046883
 20
9.2112392771
 30
0.0
 10
10.318990316
 20
9.2159438385
 30
0.0
 10
10.3299358779
 20
9.2196136502
 30
0.0
 10
10.3412437573
 20
9.2222234494
 30
0.0
 10
10.3528153161
 20
9.2237562488
 30
0.0
 10
10.3645513189
 20
9.2242029924
 30
0.0
 10
10.3763522445
 20
9.2235622296
 30
0.0
 10
10.3881185065
 20
9.2218399552
 30
0.0
 10
10.3997506644
 20
9.2190496147
 30
0.0
 10
10.411149646
 20
9.2152121378
 30
0.0
 10
10.4222170129
 20
9.2103560778
 30
0.0
 10
10.4328553238
 20
9.2045178697
 30
0.0
 10
10.4429686629
 20
9.1977421713
 30
0.0
 10
10.4524632708
 20
9.1900821001
 30
0.0
 10
10.4612483543
 20
9.1815994843
 30
0.0
 10
10.4692371631
 20
9.1723650962
 30
0.0
 10
10.4763481608
 20
9.1624586093
 30
0.0
 10
10.4825063035
 20
9.1519683654
 30
0.0
 10
10.487644581
 20
9.1409909181
 30
0.0
 10
10.4917054645
 20
9.1296303872
 30
0.0
 10
10.494642176
 20
9.117996659
 30
0.0
 10
10.4964202628
 20
9.1062064614
 30
0.0
 10
10.4968202631
 20
9.0982898
 30
0.0
 10
10.4968202631
 20
9.0943475954
 30
0.0
  0
SPLINE
  5
3CC
100
AcDbEntity
  8
0
100
AcDbSpline
 62
7
  6
CONTINUOUS
 70
0
 71
3
 72
17
 73
13
 74
0
 42
0.0000001
 43
0.0000001
 44
0.0000000001
 40
0.0
 40
0.0
 40
0.0
 40
0.0
 40
0.1214441565
 40
0.2446017618
 40
0.3690478223
 40
0.4316529167
 40
0.4944538436
 40
0.6204792255
 40
0.7468857264
 40
0.8101731775
 40
0.873474108
 40
1.0
 40
1.0
 40
1.0
 40
1.0
 10
10.883212671
 20
8.6580296438
 30
0.0
 10
10.8805070613
 20
8.6562260733
 30
0.0
 10
10.8749510028
 20
8.6527501361
 30
0.0
 10
10.8662588686
 20
8.6480372872
 30
0.0
 10
10.8587025167
 20
8.644571843
 30
0.0
 10
10.8524804088
 20
8.6421110708
 30
0.0
 10
10.8461322745
 20
8.6398662572
 30
0.0
 10
10.8380194665
 20
8.6375058466
 30
0.0
 10
10.8297306348
 20
8.6357958801
 30
0.0
 10
10.8230219843
 20
8.634844428
 30
0.0
 10
10.8162762134
 20
8.6341791307
 30
0.0
 10
10.8111877476
 20
8.6340102283
 30
0.0
 10
10.8078002719
 20
8.6340497973
 30
0.0
  0
SPLINE
  5
3CD
100
AcDbEntity
  8
0
100
AcDbSpline
 62
7
  6
CONTINUOUS
 70
0
 71
3
 72
21
 73
17
 74
0
 42
0.0000001
 43
0.0000001
 44
0.0000000001
 40
0.0
 40
0.0
 40
0.0
 40
0.0
 40
0.0616532317
 40
0.1233294843
 40
0.1850515407
 40
0.2468416642
 40
0.3087213449
 40
0.3707111025
 40
0.432830246
 40
0.4950966374
 40
0.5575265756
 40
0.6201345674
 40
0.6829331401
 40
0.7459332076
 40
0.8725262003
 40
1.0
 40
1.0
 40
1.0
 40
1.0
 10
10.6931605935
 20
8.8178481389
 30
0.0
 10
10.6945633519
 20
8.8192031007
 30
0.0
 10
10.6974428923
 20
8.8218386084
 30
0.0
 10
10.7019692962
 20
8.8255547794
 30
0.0
 10
10.7066922454
 20
8.8290253308
 30
0.0
 10
10.7115997004
 20
8.8322413349
 30
0.0
 10
10.7166793211
 20
8.8351947548
 30
0.0
 10
10.721918286
 20
8.8378781647
 30
0.0
 10
10.7273034134
 20
8.8402847855
 30
0.0
 10
10.7328211249
 20
8.842408572
 30
0.0
 10
10.7384575215
 20
8.844244215
 30
0.0
 10
10.744198369
 20
8.8457870779
 30
0.0
 10
10.7500293765
 20
8.8470332932
 30
0.0
 10
10.7579157605
 20
8.848297128
 30
0.0
 10
10.7679302143
 20
8.8491182201
 30
0.0
 10
10.7759812314
 20
8.8489610962
 30
0.0
 10
10.7800039871
 20
8.8486821171
 30
0.0
  0
SPLINE
  5
3CE
100
AcDbEntity
  8
0
100
AcDbSpline
 62
7
  6
CONTINUOUS
 70
0
 71
3
 72
19
 73
15
 74
0
 42
0.0000001
 43
0.0000001
 44
0.0000000001
 40
0.0
 40
0.0
 40
0.0
 40
0.0
 40
0.054425604
 40
0.1090683872
 40
0.1641427816
 40
0.2198575875
 40
0.2764138701
 40
0.3340031652
 40
0.4529437179
 40
0.5146626154
 40
0.5780596594
 40
0.7103594626
 40
0.8507701127
 40
1.0
 40
1.0
 40
1.0
 40
1.0
 10
10.0831266312
 20
7.0584095262
 30
0.0
 10
10.0831266311
 20
7.0578607575
 30
0.0
 10
10.0831627226
 20
7.0567606919
 30
0.0
 10
10.0833250241
 20
7.0551125177
 30
0.0
 10
10.0835954693
 20
7.0534653788
 30
0.0
 10
10.0839738838
 20
7.0518199176
 30
0.0
 10
10.0844601401
 20
7.0501765653
 30
0.0
 10
10.0852604075
 20
7.0479656425
 30
0.0
 10
10.0862735233
 20
7.0457811298
 30
0.0
 10
10.0874788068
 20
7.0436348965
 30
0.0
 10
10.0888607375
 20
7.0414367076
 30
0.0
 10
10.0908671266
 20
7.0386994086
 30
0.0
 10
10.0936618699
 20
7.0354863888
 30
0.0
 10
10.0957377069
 20
7.033428243
 30
0.0
 10
10.0968392063
 20
7.0324031881
 30
0.0
  0
SPLINE
  5
3CF
100
AcDbEntity
  8
0
100
AcDbSpline
 62
7
  6
CONTINUOUS
 70
0
 71
3
 72
32
 73
28
 74
0
 42
0.0000001
 43
0.0000001
 44
0.0000000001
 40
0.0
 40
0.0
 40
0.0
 40
0.0
 40
0.0165872297
 40
0.0341539251
 40
0.0527306248
 40
0.0723390504
 40
0.0929938799
 40
0.1147033461
 40
0.1374706632
 40
0.1612942218
 40
0.1861686795
 40
0.212085005
 40
0.2390312295
 40
0.2669925191
 40
0.2959515941
 40
0.3258889268
 40
0.3567828591
 40
0.3886099528
 40
0.4213448639
 40
0.4549608172
 40
0.5247191545
 40
0.5976434059
 40
0.6734706647
 40
0.7519208761
 40
0.8326994762
 40
0.9154983147
 40
1.0
 40
1.0
 40
1.0
 40
1.0
 10
10.1267059521
 20
7.0046090465
 30
0.0
 10
10.1277316821
 20
7.0036545035
 30
0.0
 10
10.1299073066
 20
7.0017566244
 30
0.0
 10
10.1334229902
 20
6.9990184429
 30
0.0
 10
10.1372790258
 20
6.996311573
 30
0.0
 10
10.1414712881
 20
6.9936387429
 30
0.0
 10
10.1459956008
 20
6.9910026307
 30
0.0
 10
10.1508472956
 20
6.9884058481
 30
0.0
 10
10.156021419
 20
6.9858511208
 30
0.0
 10
10.1615126113
 20
6.9833410309
 30
0.0
 10
10.1673152014
 20
6.9808782433
 30
0.0
 10
10.1734231515
 20
6.978465292
 30
0.0
 10
10.1798301077
 20
6.9761047361
 30
0.0
 10
10.1865293828
 20
6.973799041
 30
0.0
 10
10.1935139774
 20
6.9715506361
 30
0.0
 10
10.2007765854
 20
6.9693618999
 30
0.0
 10
10.2083096003
 20
6.9672351178
 30
0.0
 10
10.216105128
 20
6.9651725678
 30
0.0
 10
10.2241550018
 20
6.9631763684
 30
0.0
 10
10.2353544977
 20
6.9605740181
 30
0.0
 10
10.2499306988
 20
6.9575117799
 30
0.0
 10
10.2680868643
 20
6.9541769953
 30
0.0
 10
10.2870410778
 20
6.9511525116
 30
0.0
 10
10.3067137697
 20
6.9484511659
 30
0.0
 10
10.3270224358
 20
6.9460844645
 30
0.0
 10
10.3478817845
 20
6.9440624458
 30
0.0
 10
10.3619719548
 20
6.9429597318
 30
0.0
 10
10.3690929413
 20
6.9424658897
 30
0.0
  0
SPLINE
  5
3D0
100
AcDbEntity
  8
0
100
AcDbSpline
 62
7
  6
CONTINUOUS
 70
0
 71
3
 72
78
 73
74
 74
0
 42
0.0000001
 43
0.0000001
 44
0.0000000001
 40
0.0
 40
0.0
 40
0.0
 40
0.0
 40
0.006295317
 40
0.0096165562
 40
0.013064589
 40
0.016647048
 40
0.0203704746
 40
0.0242404622
 40
0.0282617539
 40
0.0324382771
 40
0.0367733114
 40
0.0412694807
 40
0.0459288631
 40
0.0507530643
 40
0.0557431982
 40
0.0609000281
 40
0.0662239223
 40
0.077372265
 40
0.0891858347
 40
0.1016575754
 40
0.1147770173
 40
0.1285307277
 40
0.1429026911
 40
0.157874611
 40
0.1734261514
 40
0.1895351335
 40
0.2061776978
 40
0.2233284675
 40
0.2409606836
 40
0.2590463231
 40
0.2775562027
 40
0.2964600777
 40
0.3157267491
 40
0.3353241557
 40
0.3552194618
 40
0.3753791376
 40
0.3957690454
 40
0.4370998099
 40
0.4789304222
 40
0.520974361
 40
0.5629432232
 40
0.604549264
 40
0.6455079688
 40
0.665657536
 40
0.6855413563
 40
0.7051259296
 40
0.7243784473
 40
0.7432668766
 40
0.7617600541
 40
0.7798277853
 40
0.7974409336
 40
0.8145715204
 40
0.8311928337
 40
0.8472795575
 40
0.8628079096
 40
0.8777557811
 40
0.8921029078
 40
0.9058310737
 40
0.918924369
 40
0.9313694851
 40
0.9431560779
 40
0.9488003749
 40
0.9542777795
 40
0.9595880447
 40
0.9647312792
 40
0.9697078746
 40
0.9745185983
 40
0.9791646147
 40
0.9836475219
 40
0.9879695402
 40
0.9921334125
 40
0.9961423281
 40
1.0
 40
1.0
 40
1.0
 40
1.0
 10
11.4024419394
 20
10.3605890002
 30
0.0
 10
11.4015865163
 20
10.3622204983
 30
0.0
 10
11.400107892
 20
10.3646258073
 30
0.0
 10
11.3978359208
 20
10.3677016543
 30
0.0
 10
11.3959074001
 20
10.3700396079
 30
0.0
 10
11.3937861607
 20
10.3723655738
 30
0.0
 10
11.3914730441
 20
10.3746789141
 30
0.0
 10
11.388969169
 20
10.3769785643
 30
0.0
 10
11.3862756464
 20
10.3792635394
 30
0.0
 10
11.3833937335
 20
10.3815328852
 30
0.0
 10
11.380324706
 20
10.3837855694
 30
0.0
 10
11.3770699691
 20
10.3860206194
 30
0.0
 10
11.3736309957
 20
10.3882370426
 30
0.0
 10
11.3700093302
 20
10.3904338182
 30
0.0
 10
11.3662066364
 20
10.3926099901
 30
0.0
 10
11.3622246195
 20
10.394764559
 30
0.0
 10
11.3565917925
 20
10.3976516232
 30
0.0
 10
11.3491071678
 20
10.4011914282
 30
0.0
 10
11.3395741925
 20
10.4052748403
 30
0.0
 10
11.3293738022
 20
10.409249242
 30
0.0
 10
11.3185246113
 20
10.4131073251
 30
0.0
 10
11.3070462828
 20
10.4168420017
 30
0.0
 10
11.2949597488
 20
10.4204463827
 30
0.0
 10
11.2822870769
 20
10.4239138099
 30
0.0
 10
11.2690514451
 20
10.4272378707
 30
0.0
 10
11.2552770908
 20
10.4304124133
 30
0.0
 10
11.240989266
 20
10.4334315698
 30
0.0
 10
11.2262141822
 20
10.436289757
 30
0.0
 10
11.2109789551
 20
10.4389816885
 30
0.0
 10
11.1953115544
 20
10.4415023842
 30
0.0
 10
11.1792407546
 20
10.4438471815
 30
0.0
 10
11.1627960808
 20
10.4460117506
 30
0.0
 10
11.1460077505
 20
10.4479920915
 30
0.0
 10
11.1289066125
 20
10.4497845463
 30
0.0
 10
11.1115241022
 20
10.4513857951
 30
0.0
 10
11.0938921437
 20
10.4527928995
 30
0.0
 10
11.0699864929
 20
10.454413883
 30
0.0
 10
11.0397201357
 20
10.4559322494
 30
0.0
 10
11.0030930852
 20
10.4569407642
 30
0.0
 10
10.9662658894
 20
10.4571361904
 30
0.0
 10
10.9295090849
 20
10.4565171095
 30
0.0
 10
10.8930926931
 20
10.4550880878
 30
0.0
 10
10.8630911247
 20
10.4532213206
 30
0.0
 10
10.8394665205
 20
10.4513243567
 30
0.0
 10
10.822094831
 20
10.4497152412
 30
0.0
 10
10.8050058285
 20
10.4479150726
 30
0.0
 10
10.7882308947
 20
10.4459271548
 30
0.0
 10
10.7718008652
 20
10.4437551642
 30
0.0
 10
10.755745928
 20
10.4414031108
 30
0.0
 10
10.7400955753
 20
10.4388753467
 30
0.0
 10
10.7248785481
 20
10.4361765459
 30
0.0
 10
10.710122786
 20
10.4333116988
 30
0.0
 10
10.6958553727
 20
10.4302861007
 30
0.0
 10
10.6821024796
 20
10.4271053469
 30
0.0
 10
10.6688893126
 20
10.4237753252
 30
0.0
 10
10.6562400677
 20
10.4203021948
 30
0.0
 10
10.6441778797
 20
10.4166923768
 30
0.0
 10
10.6327247896
 20
10.4129525359
 30
0.0
 10
10.6219016237
 20
10.4090895681
 30
0.0
 10
10.6117281735
 20
10.4051105936
 30
0.0
 10
10.6036949984
 20
10.4016561354
 30
0.0
 10
10.5976140617
 20
10.3988340831
 30
0.0
 10
10.5932931746
 20
10.3967237084
 30
0.0
 10
10.5891480612
 20
10.3945898511
 30
0.0
 10
10.5851805872
 20
10.3924335007
 30
0.0
 10
10.5813925709
 20
10.390255612
 30
0.0
 10
10.5777857368
 20
10.3880571823
 30
0.0
 10
10.5743617169
 20
10.3858392326
 30
0.0
 10
10.5711220701
 20
10.3836027105
 30
0.0
 10
10.5680682181
 20
10.3813486234
 30
0.0
 10
10.565201541
 20
10.3790779102
 30
0.0
 10
10.5625234717
 20
10.3767917105
 30
0.0
 10
10.5608327091
 20
10.3752284255
 30
0.0
 10
10.5600207831
 20
10.3744441651
 30
0.0
  0
SPLINE
  5
3D1
100
AcDbEntity
  8
0
100
AcDbSpline
 62
7
  6
CONTINUOUS
 70
0
 71
3
 72
84
 73
80
 74
0
 42
0.0000001
 43
0.0000001
 44
0.0000000001
 40
0.0
 40
0.0
 40
0.0
 40
0.0
 40
0.002814891
 40
0.0056697783
 40
0.0085825689
 40
0.0115699992
 40
0.0178251928
 40
0.0211229315
 40
0.024547937
 40
0.0281096951
 40
0.0318164216
 40
0.0356751141
 40
0.0396916877
 40
0.043871121
 40
0.0482174806
 40
0.0527341162
 40
0.057423661
 40
0.0622881458
 40
0.0673290867
 40
0.0725474647
 40
0.077943881
 40
0.0835185025
 40
0.0892711548
 40
0.0952013606
 40
0.1013083021
 40
0.1140475309
 40
0.1274779744
 40
0.1415848263
 40
0.1563503013
 40
0.1717539889
 40
0.1877731349
 40
0.204382875
 40
0.2215564493
 40
0.2392653793
 40
0.257479622
 40
0.2761677075
 40
0.2952968614
 40
0.3148331343
 40
0.3347415171
 40
0.3549860496
 40
0.3755299232
 40
0.3963355795
 40
0.4173648152
 40
0.4599378442
 40
0.5029350097
 40
0.5460374373
 40
0.5889252519
 40
0.610189568
 40
0.6312813844
 40
0.6521618034
 40
0.6727924416
 40
0.6931355266
 40
0.7131539981
 40
0.7328116157
 40
0.7520730605
 40
0.7709040391
 40
0.7892713953
 40
0.8071432277
 40
0.8244890261
 40
0.8412798042
 40
0.8574882451
 40
0.8730888688
 40
0.8880582249
 40
0.902375129
 40
0.9160209354
 40
0.9289798571
 40
0.9412393806
 40
0.9471042486
 40
0.9527913706
 40
0.9583003358
 40
0.9636311282
 40
0.968784065
 40
0.9737598633
 40
0.9785597021
 40
0.983185231
 40
0.9876387989
 40
0.9919233645
 40
0.9960424069
 40
1.0
 40
1.0
 40
1.0
 40
1.0
 10
11.3932250129
 20
10.3482697692
 30
0.0
 10
11.3931481364
 20
10.3490766684
 30
0.0
 10
11.392923251
 20
10.3506960745
 30
0.0
 10
11.3923789779
 20
10.3531094646
 30
0.0
 10
11.3916264278
 20
10.3555184676
 30
0.0
 10
11.3903269364
 20
10.3587715087
 30
0.0
 10
11.3886164333
 20
10.3619671645
 30
0.0
 10
11.3865496035
 20
10.3650822658
 30
0.0
 10
11.3847677302
 20
10.3674499337
 30
0.0
 10
11.3827828749
 20
10.3698058467
 30
0.0
 10
11.3805958819
 20
10.3721492411
 30
0.0
 10
11.378207924
 20
10.3744789873
 30
0.0
 10
11.3756201878
 20
10.3767940654
 30
0.0
 10
11.3728339246
 20
10.3790933599
 30
0.0
 10
11.3698505326
 20
10.3813758452
 30
0.0
 10
11.3666714435
 20
10.383640398
 30
0.0
 10
11.3632982254
 20
10.3858859554
 30
0.0
 10
11.3597325303
 20
10.3881114408
 30
0.0
 10
11.3559760914
 20
10.3903157418
 30
0.0
 10
11.3520307714
 20
10.3924978253
 30
0.0
 10
11.3478984929
 20
10.3946565798
 30
0.0
 10
11.3435813006
 20
10.3967909678
 30
0.0
 10
11.3390813235
 20
10.3988999308
 30
0.0
 10
11.3344007704
 20
10.4009824212
 30
0.0
 10
11.3278295712
 20
10.4037616106
 30
0.0
 10
11.3191748381
 20
10.4071544204
 30
0.0
 10
11.308248852
 20
10.4110489073
 30
0.0
 10
11.296662619
 20
10.4148140156
 30
0.0
 10
11.2844390904
 20
10.4184422275
 30
0.0
 10
11.2716023642
 20
10.4219262866
 30
0.0
 10
11.258177846
 20
10.4252592182
 30
0.0
 10
11.2441921297
 20
10.4284343535
 30
0.0
 10
11.2296729518
 20
10.4314453359
 30
0.0
 10
11.2146491235
 20
10.434286137
 30
0.0
 10
11.1991504725
 20
10.4369510689
 30
0.0
 10
11.1832077834
 20
10.439434795
 30
0.0
 10
11.1668527364
 20
10.4417323485
 30
0.0
 10
11.1501178392
 20
10.4438391349
 30
0.0
 10
11.1330363595
 20
10.4457509402
 30
0.0
 10
11.1156422551
 20
10.447463942
 30
0.0
 10
11.0979701197
 20
10.4489747068
 30
0.0
 10
11.0800550684
 20
10.4502802372
 30
0.0
 10
11.0557936135
 20
10.4517496806
 30
0.0
 10
11.0251225997
 20
10.4530516667
 30
0.0
 10
10.9880746091
 20
10.4537595512
 30
0.0
 10
10.950929518
 20
10.4536133314
 30
0.0
 10
10.9200535994
 20
10.452778528
 30
0.0
 10
10.8955315193
 20
10.4516809999
 30
0.0
 10
10.8773512207
 20
10.4506494472
 30
0.0
 10
10.8593668668
 20
10.4494093138
 30
0.0
 10
10.841614195
 20
10.4479630591
 30
0.0
 10
10.8241285189
 20
10.4463135776
 30
0.0
 10
10.8069446079
 20
10.4444641628
 30
0.0
 10
10.7900966284
 20
10.4424185156
 30
0.0
 10
10.7736180723
 20
10.4401807287
 30
0.0
 10
10.7575416923
 20
10.4377552785
 30
0.0
 10
10.7418994368
 20
10.435147017
 30
0.0
 10
10.726722383
 20
10.4323611605
 30
0.0
 10
10.7120406692
 20
10.4294032869
 30
0.0
 10
10.6978834331
 20
10.4262793203
 30
0.0
 10
10.6842787532
 20
10.4229955155
 30
0.0
 10
10.6712535926
 20
10.4195584471
 30
0.0
 10
10.6588337316
 20
10.4159749912
 30
0.0
 10
10.6470437251
 20
10.4122523158
 30
0.0
 10
10.6359067724
 20
10.4083978583
 30
0.0
 10
10.6254449076
 20
10.4044193061
 30
0.0
 10
10.6171885571
 20
10.4009577973
 30
0.0
 10
10.6109436282
 20
10.3981260696
 30
0.0
 10
10.6065107221
 20
10.3960076196
 30
0.0
 10
10.6022614108
 20
10.3938641258
 30
0.0
 10
10.5981977689
 20
10.3916966561
 30
0.0
 10
10.5943218017
 20
10.389506265
 30
0.0
 10
10.5906354248
 20
10.3872940178
 30
0.0
 10
10.5871404369
 20
10.3850610388
 30
0.0
 10
10.5838385607
 20
10.3828083589
 30
0.0
 10
10.5807313673
 20
10.3805370731
 30
0.0
 10
10.5778203664
 20
10.3782482064
 30
0.0
 10
10.5751071294
 20
10.3759429861
 30
0.0
 10
10.5733974793
 20
10.3743650622
 30
0.0
 10
10.5725778196
 20
10.3735733317
 30
0.0
  0
SPLINE
  5
3D2
100
AcDbEntity
  8
0
100
AcDbSpline
 62
7
  6
CONTINUOUS
 70
0
 71
3
 72
80
 73
76
 74
0
 42
0.0000001
 43
0.0000001
 44
0.0000000001
 40
0.0
 40
0.0
 40
0.0
 40
0.0
 40
0.0029490065
 40
0.0059856904
 40
0.0091229819
 40
0.0123724255
 40
0.0157442371
 40
0.0192473059
 40
0.0228893599
 40
0.0266770119
 40
0.030615871
 40
0.0347106908
 40
0.0389653755
 40
0.0433831575
 40
0.0479666196
 40
0.0527177584
 40
0.0576381089
 40
0.0627286972
 40
0.0679901788
 40
0.0734228339
 40
0.0848005367
 40
0.0968584601
 40
0.1095885067
 40
0.1229790828
 40
0.1370155667
 40
0.1516806984
 40
0.1669548818
 40
0.1828164288
 40
0.1992417538
 40
0.2162055538
 40
0.2336809744
 40
0.2516397453
 40
0.2700523015
 40
0.2888878878
 40
0.3081146754
 40
0.327699868
 40
0.3476097976
 40
0.367810014
 40
0.3882653723
 40
0.4297973238
 40
0.4719148854
 40
0.5143211255
 40
0.5567164833
 40
0.5988014913
 40
0.640279526
 40
0.6607000585
 40
0.6808603073
 40
0.7007252292
 40
0.7202604809
 40
0.7394325092
 40
0.7582086474
 40
0.7765572236
 40
0.7944476554
 40
0.8118505537
 40
0.8287378373
 40
0.8450828656
 40
0.8608605875
 40
0.8760476855
 40
0.8906227532
 40
0.904566507
 40
0.917862053
 40
0.9304951979
 40
0.9424548246
 40
0.9481798153
 40
0.953733936
 40
0.9591168846
 40
0.9643287287
 40
0.9693698286
 40
0.974240939
 40
0.9789432268
 40
0.983478314
 40
0.9878484733
 40
0.9920565228
 40
0.9961057509
 40
1.0
 40
1.0
 40
1.0
 40
1.0
 10
11.3810548944
 20
10.3379271176
 30
0.0
 10
11.3807740743
 20
10.3386980077
 30
0.0
 10
11.3801444581
 20
10.3402415834
 30
0.0
 10
11.3790207299
 20
10.3425194856
 30
0.0
 10
11.3777059067
 20
10.3447897769
 30
0.0
 10
11.3762008549
 20
10.3470513023
 30
0.0
 10
11.3745063452
 20
10.3493031135
 30
0.0
 10
11.372623317
 20
10.3515442845
 30
0.0
 10
11.3705526713
 20
10.3537738355
 30
0.0
 10
11.3682954217
 20
10.3559908147
 30
0.0
 10
11.3658526547
 20
10.3581942793
 30
0.0
 10
11.3632254872
 20
10.3603832168
 30
0.0
 10
11.3604151782
 20
10.3625566938
 30
0.0
 10
11.3574230178
 20
10.3647137017
 30
0.0
 10
11.3542504021
 20
10.3668532586
 30
0.0
 10
11.3508988221
 20
10.3689744064
 30
0.0
 10
11.3473698211
 20
10.3710761249
 30
0.0
 10
11.343665069
 20
10.3731574701
 30
0.0
 10
11.3397862839
 20
10.3752174712
 30
0.0
 10
11.334300143
 20
10.3779769509
 30
0.0
 10
11.327012577
 20
10.3813581953
 30
0.0
 10
11.3177341321
 20
10.385255217
 30
0.0
 10
11.3078095149
 20
10.3890445908
 30
0.0
 10
11.2972573855
 20
10.3927191363
 30
0.0
 10
11.2860974547
 20
10.3962718959
 30
0.0
 10
11.2743506898
 20
10.399696114
 30
0.0
 10
11.2620391855
 20
10.4029852727
 30
0.0
 10
11.2491861399
 20
10.406133102
 30
0.0
 10
11.2358158028
 20
10.4091336049
 30
0.0
 10
11.2219534252
 20
10.4119810673
 30
0.0
 10
11.207625202
 20
10.4146700634
 30
0.0
 10
11.1928582185
 20
10.4171954695
 30
0.0
 10
11.1776804007
 20
10.4195524709
 30
0.0
 10
11.1621204637
 20
10.4217365819
 30
0.0
 10
11.1462078535
 20
10.4237436459
 30
0.0
 10
11.1299726845
 20
10.4255698437
 30
0.0
 10
11.1134456925
 20
10.4272116923
 30
0.0
 10
11.0966581378
 20
10.4286660846
 30
0.0
 10
11.0738550305
 20
10.4303600709
 30
0.0
 10
11.0449345684
 20
10.4319845025
 30
0.0
 10
11.009880655
 20
10.4331427524
 30
0.0
 10
10.9745692713
 20
10.4335105889
 30
0.0
 10
10.9392675884
 20
10.433085234
 30
0.0
 10
10.9042427026
 20
10.4318698964
 30
0.0
 10
10.8753587245
 20
10.4301981885
 30
0.0
 10
10.8525943391
 20
10.4284667545
 30
0.0
 10
10.8358426372
 20
10.4269849713
 30
0.0
 10
10.8193560686
 20
10.4253161685
 30
0.0
 10
10.8031658166
 20
10.4234635011
 30
0.0
 10
10.7873025354
 20
10.4214304991
 30
0.0
 10
10.7717962469
 20
10.4192210276
 30
0.0
 10
10.7566762912
 20
10.4168392976
 30
0.0
 10
10.7419712688
 20
10.4142898465
 30
0.0
 10
10.7277089894
 20
10.4115775305
 30
0.0
 10
10.7139164174
 20
10.4087075146
 30
0.0
 10
10.7006196141
 20
10.4056852649
 30
0.0
 10
10.6878436824
 20
10.4025165451
 30
0.0
 10
10.6756127207
 20
10.3992073936
 30
0.0
 10
10.663949771
 20
10.3957641134
 30
0.0
 10
10.6528767863
 20
10.3921932546
 30
0.0
 10
10.6424145086
 20
10.3885016007
 30
0.0
 10
10.6325826427
 20
10.3846961631
 30
0.0
 10
10.6248208326
 20
10.3813897561
 30
0.0
 10
10.618947078
 20
10.3786872821
 30
0.0
 10
10.6147750078
 20
10.3766660405
 30
0.0
 10
10.6107738161
 20
10.374621792
 30
0.0
 10
10.6069453576
 20
10.3725555138
 30
0.0
 10
10.6032914401
 20
10.3704681466
 30
0.0
 10
10.599813776
 20
10.3683606769
 30
0.0
 10
10.5965139857
 20
10.3662341119
 30
0.0
 10
10.5933936162
 20
10.3640893864
 30
0.0
 10
10.5904540766
 20
10.3619274959
 30
0.0
 10
10.5876967357
 20
10.3597493661
 30
0.0
 10
10.5851230122
 20
10.3575561233
 30
0.0
 10
10.5834992981
 20
10.3560558271
 30
0.0
 10
10.5827200413
 20
10.3553031228
 30
0.0
  0
SPLINE
  5
3D3
100
AcDbEntity
  8
0
100
AcDbSpline
 62
7
  6
CONTINUOUS
 70
0
 71
3
 72
27
 73
23
 74
0
 42
0.0000001
 43
0.0000001
 44
0.0000000001
 40
0.0
 40
0.0
 40
0.0
 40
0.0
 40
0.0279780673
 40
0.0565736281
 40
0.0857507716
 40
0.1154724977
 40
0.176395667
 40
0.239029213
 40
0.303045776
 40
0.3681082034
 40
0.4338720327
 40
0.4999879714
 40
0.5661043003
 40
0.6318693006
 40
0.6969336586
 40
0.7609529179
 40
0.823589899
 40
0.8845171971
 40
0.9142412651
 40
0.9434209056
 40
0.9720191074
 40
1.0
 40
1.0
 40
1.0
 40
1.0
 10
11.2071333871
 20
10.2816001107
 30
0.0
 10
11.2028682942
 20
10.2823624517
 30
0.0
 10
11.1942329745
 20
10.2838430182
 30
0.0
 10
11.1811154296
 20
10.2859121352
 30
0.0
 10
11.1677052015
 20
10.2878517666
 30
0.0
 10
11.1493089148
 20
10.2902814674
 30
0.0
 10
11.1257222151
 20
10.2929665721
 30
0.0
 10
11.0967926646
 20
10.2956074216
 30
0.0
 10
11.0671741191
 20
10.2976775256
 30
0.0
 10
11.0370353745
 20
10.2991649569
 30
0.0
 10
11.0065480633
 20
10.3000611355
 30
0.0
 10
10.9758858739
 20
10.3003608763
 30
0.0
 10
10.9452234905
 20
10.3000624559
 30
0.0
 10
10.9147355993
 20
10.2991676041
 30
0.0
 10
10.8845958921
 20
10.2976814652
 30
0.0
 10
10.8549760061
 20
10.2956126426
 30
0.0
 10
10.8260447457
 20
10.2929730487
 30
0.0
 10
10.8024563871
 20
10.2902889583
 30
0.0
 10
10.7840585924
 20
10.2878600707
 30
0.0
 10
10.7706471098
 20
10.2859210211
 30
0.0
 10
10.757528229
 20
10.2838524597
 30
0.0
 10
10.7488919833
 20
10.2823722854
 30
0.0
 10
10.7446264132
 20
10.2816101277
 30
0.0
  0
SPLINE
  5
3D4
100
AcDbEntity
  8
0
100
AcDbSpline
 62
7
  6
CONTINUOUS
 70
0
 71
3
 72
42
 73
38
 74
0
 42
0.0000001
 43
0.0000001
 44
0.0000000001
 40
0.0
 40
0.0
 40
0.0
 40
0.0
 40
0.0311444614
 40
0.0467771749
 40
0.0624471243
 40
0.0938918364
 40
0.1254739609
 40
0.1571813407
 40
0.1889991953
 40
0.220910588
 40
0.2528967324
 40
0.2849373871
 40
0.3170112522
 40
0.3490963865
 40
0.3811706317
 40
0.4132120391
 40
0.4451992945
 40
0.4771121343
 40
0.508931746
 40
0.54064115
 40
0.572225553
 40
0.6036726688
 40
0.634972998
 40
0.6661200609
 40
0.6971105755
 40
0.7279445747
 40
0.758625456
 40
0.7891599579
 40
0.8195580604
 40
0.8498328062
 40
0.864931572
 40
0.8800056552
 40
0.9100837089
 40
0.9400929741
 40
0.955081501
 40
0.9700611858
 40
1.0
 40
1.0
 40
1.0
 40
1.0
 10
11.3837076643
 20
8.1200417416
 30
0.0
 10
11.380216793
 20
8.1202838343
 30
0.0
 10
11.3749844395
 20
8.1208389545
 30
0.0
 10
11.3680563355
 20
8.1219545212
 30
0.0
 10
11.3611392318
 20
8.1233240954
 30
0.0
 10
11.3525621347
 20
8.1255052634
 30
0.0
 10
11.3424494031
 20
8.1288531884
 30
0.0
 10
11.3325569996
 20
8.1329169947
 30
0.0
 10
11.3229379648
 20
8.1376748921
 30
0.0
 10
11.3136434675
 20
8.1431014667
 30
0.0
 10
11.3047230542
 20
8.1491677414
 30
0.0
 10
11.2962242473
 20
8.1558413474
 30
0.0
 10
11.2881923333
 20
8.1630866916
 30
0.0
 10
11.2806701141
 20
8.1708651453
 30
0.0
 10
11.2736976836
 20
8.1791352489
 30
0.0
 10
11.2673122157
 20
8.1878529302
 30
0.0
 10
11.2615477679
 20
8.1969717367
 30
0.0
 10
11.2564351013
 20
8.2064430809
 30
0.0
 10
11.2520015174
 20
8.2162164958
 30
0.0
 10
11.2482707133
 20
8.2262399005
 30
0.0
 10
11.2452626549
 20
8.2364598743
 30
0.0
 10
11.2429934698
 20
8.2468219375
 30
0.0
 10
11.2414753599
 20
8.257270838
 30
0.0
 10
11.2407165333
 20
8.2677508422
 30
0.0
 10
11.2407211562
 20
8.2782060262
 30
0.0
 10
11.2414893306
 20
8.2885805817
 30
0.0
 10
11.2430170685
 20
8.2988190713
 30
0.0
 10
11.2452963811
 20
8.3088668735
 30
0.0
 10
11.2483150376
 20
8.3186699186
 30
0.0
 10
11.2514368306
 20
8.3266000089
 30
0.0
 10
11.2542856332
 20
8.3327668781
 30
0.0
 10
11.2573600317
 20
8.3387996632
 30
0.0
 10
11.2616286654
 20
8.3460966294
 30
0.0
 10
11.2664463201
 20
8.3530317354
 30
0.0
 10
11.2706094636
 20
8.3583327716
 30
0.0
 10
11.2749712298
 20
8.363460761
 30
0.0
 10
11.2784657523
 20
8.367111463
 30
0.0
 10
11.280885177
 20
8.3694484478
 30
0.0
  0
SPLINE
  5
3D5
100
AcDbEntity
  8
0
100
AcDbSpline
 62
7
  6
CONTINUOUS
 70
0
 71
3
 72
39
 73
35
 74
0
 42
0.0000001
 43
0.0000001
 44
0.0000000001
 40
0.0
 40
0.0
 40
0.0
 40
0.0
 40
0.0311445376
 40
0.062443355
 40
0.09388824
 40
0.1254709996
 40
0.1571788478
 40
0.1889972257
 40
0.2209091305
 40
0.2528957945
 40
0.2849369709
 40
0.3170113586
 40
0.3490970145
 40
0.3811717799
 40
0.4132137068
 40
0.4452014824
 40
0.4771148435
 40
0.5089349783
 40
0.5406449062
 40
0.5722298317
 40
0.6036774666
 40
0.6349783114
 40
0.6661258871
 40
0.6971169127
 40
0.7279514223
 40
0.7586328137
 40
0.7891678252
 40
0.8195664354
 40
0.8498416851
 40
0.8800094226
 40
0.9100879711
 40
0.9400977272
 40
0.9700606997
 40
1.0
 40
1.0
 40
1.0
 40
1.0
 10
11.3991624809
 20
9.3939921702
 30
0.0
 10
11.3973227292
 20
9.3941197574
 30
0.0
 10
11.3936420844
 20
9.3945102416
 30
0.0
 10
11.388165758
 20
9.3954938151
 30
0.0
 10
11.3827480659
 20
9.3968715835
 30
0.0
 10
11.3774183217
 20
9.3986360179
 30
0.0
 10
11.3722047956
 20
9.4007777444
 30
0.0
 10
11.3671353121
 20
9.4032852634
 30
0.0
 10
11.362236874
 20
9.4061451948
 30
0.0
 10
11.3575355833
 20
9.4093422624
 30
0.0
 10
11.3530564904
 20
9.4128594113
 30
0.0
 10
11.3488234624
 20
9.4166778825
 30
0.0
 10
11.3448590556
 20
9.4207773159
 30
0.0
 10
11.3411843993
 20
9.4251358603
 30
0.0
 10
11.3378190842
 20
9.4297302883
 30
0.0
 10
11.3347810589
 20
9.4345361188
 30
0.0
 10
11.3320865352
 20
9.4395277457
 30
0.0
 10
11.3297499026
 20
9.4446785724
 30
0.0
 10
11.3277836513
 20
9.4499611518
 30
0.0
 10
11.3261983066
 20
9.4553473305
 30
0.0
 10
11.3250023673
 20
9.4608083955
 30
0.0
 10
11.3242022618
 20
9.4663152271
 30
0.0
 10
11.3238023145
 20
9.4718384523
 30
0.0
 10
11.323804721
 20
9.4773485995
 30
0.0
 10
11.3242095333
 20
9.4828162533
 30
0.0
 10
11.3250146572
 20
9.4882122108
 30
0.0
 10
11.3262158594
 20
9.493507636
 30
0.0
 10
11.3278067875
 20
9.4986742144
 30
0.0
 10
11.3297789964
 20
9.5036843037
 30
0.0
 10
11.3321219955
 20
9.5085110944
 30
0.0
 10
11.3348232719
 20
9.5131287206
 30
0.0
 10
11.337868486
 20
9.5175125324
 30
0.0
 10
11.3412410603
 20
9.5216387434
 30
0.0
 10
11.3436967313
 20
9.5242041745
 30
0.0
 10
11.3449718236
 20
9.5254358299
 30
0.0
  0
SPLINE
  5
3D6
100
AcDbEntity
  8
0
100
AcDbSpline
 62
7
  6
CONTINUOUS
 70
0
 71
3
 72
41
 73
37
 74
0
 42
0.0000001
 43
0.0000001
 44
0.0000000001
 40
0.0
 40
0.0
 40
0.0
 40
0.0
 40
0.0311445478
 40
0.0624424446
 40
0.0938872679
 40
0.125469566
 40
0.1571770992
 40
0.1889951145
 40
0.2209066667
 40
0.2528929719
 40
0.2849337877
 40
0.3170078142
 40
0.3490931102
 40
0.381167517
 40
0.4132090858
 40
0.4451965025
 40
0.4771095029
 40
0.5089292747
 40
0.5406388381
 40
0.5722233999
 40
0.6036706736
 40
0.63497116
 40
0.6661183793
 40
0.6971090497
 40
0.7279432042
 40
0.7586242401
 40
0.7891588962
 40
0.8195571523
 40
0.8498320512
 40
0.8649308901
 40
0.8800050513
 40
0.9100832572
 40
0.940092674
 40
0.9550812744
 40
0.9700610349
 40
1.0
 40
1.0
 40
1.0
 40
1.0
 10
10.7800039871
 20
8.6072006462
 30
0.0
 10
10.7770556236
 20
8.6074051159
 30
0.0
 10
10.7711571527
 20
8.6080308742
 30
0.0
 10
10.7623809605
 20
8.6096071586
 30
0.0
 10
10.7536987604
 20
8.6118150824
 30
0.0
 10
10.7451574643
 20
8.6146427445
 30
0.0
 10
10.7368024337
 20
8.6180750042
 30
0.0
 10
10.7286782404
 20
8.6220934966
 30
0.0
 10
10.7208281624
 20
8.6266767482
 30
0.0
 10
10.7132940299
 20
8.6318002875
 30
0.0
 10
10.7061159844
 20
8.6374367754
 30
0.0
 10
10.6993322738
 20
8.6435561501
 30
0.0
 10
10.6929790483
 20
8.6501257864
 30
0.0
 10
10.6870901712
 20
8.6571106676
 30
0.0
 10
10.6816970392
 20
8.6644735704
 30
0.0
 10
10.6768284172
 20
8.6721752615
 30
0.0
 10
10.6725102858
 20
8.6801747039
 30
0.0
 10
10.6687657037
 20
8.6884292737
 30
0.0
 10
10.6656146851
 20
8.6968949834
 30
0.0
 10
10.6630740932
 20
8.7055267145
 30
0.0
 10
10.6611575491
 20
8.7142784536
 30
0.0
 10
10.6598753584
 20
8.723103535
 30
0.0
 10
10.6592344534
 20
8.7319548868
 30
0.0
 10
10.6592383527
 20
8.7407852758
 30
0.0
 10
10.6598871426
 20
8.7495475671
 30
0.0
 10
10.6611774553
 20
8.7581949382
 30
0.0
 10
10.663102542
 20
8.7666812571
 30
0.0
 10
10.6656520795
 20
8.7749608538
 30
0.0
 10
10.6682887095
 20
8.7816585713
 30
0.0
 10
10.6706948136
 20
8.7868670639
 30
0.0
 10
10.6732914023
 20
8.7919623356
 30
0.0
 10
10.6768966782
 20
8.7981253053
 30
0.0
 10
10.6809656166
 20
8.8039826751
 30
0.0
 10
10.6844818134
 20
8.8084598767
 30
0.0
 10
10.6881656996
 20
8.8127909781
 30
0.0
 10
10.691117162
 20
8.8158743338
 30
0.0
 10
10.6931605935
 20
8.8178481389
 30
0.0
  0
SPLINE
  5
3D7
100
AcDbEntity
  8
0
100
AcDbSpline
 62
7
  6
CONTINUOUS
 70
0
 71
3
 72
21
 73
17
 74
0
 42
0.0000001
 43
0.0000001
 44
0.0000000001
 40
0.0
 40
0.0
 40
0.0
 40
0.0
 40
0.0616532251
 40
0.1233294846
 40
0.1850515438
 40
0.2468416586
 40
0.3087213407
 40
0.3707111063
 40
0.4328302458
 40
0.4950966346
 40
0.5575265706
 40
0.6201345761
 40
0.6829331563
 40
0.7459331329
 40
0.8725263342
 40
1.0
 40
1.0
 40
1.0
 40
1.0
 10
10.2791227971
 20
9.7799689797
 30
0.0
 10
10.2774619323
 20
9.7783647075
 30
0.0
 10
10.2740525661
 20
9.7752442633
 30
0.0
 10
10.2686933124
 20
9.7708443166
 30
0.0
 10
10.2631013259
 20
9.7667352156
 30
0.0
 10
10.2572909081
 20
9.762927468
 30
0.0
 10
10.251276651
 20
9.7594306084
 30
0.0
 10
10.2450737117
 20
9.7562534752
 30
0.0
 10
10.238697724
 20
9.7534040482
 30
0.0
 10
10.2321647661
 20
9.7508894737
 30
0.0
 10
10.225491277
 20
9.7487160794
 30
0.0
 10
10.2186941152
 20
9.7468893498
 30
0.0
 10
10.2117902145
 20
9.7454138229
 30
0.0
 10
10.2024527412
 20
9.7439174389
 30
0.0
 10
10.1905956393
 20
9.7429452831
 30
0.0
 10
10.1810632426
 20
9.7431313139
 30
0.0
 10
10.1763003098
 20
9.7434616244
 30
0.0
  0
SPLINE
  5
3D8
100
AcDbEntity
  8
0
100
AcDbSpline
 62
7
  6
CONTINUOUS
 70
0
 71
3
 72
15
 73
11
 74
0
 42
0.0000001
 43
0.0000001
 44
0.0000000001
 40
0.0
 40
0.0
 40
0.0
 40
0.0
 40
0.1041235416
 40
0.2144259167
 40
0.33081053
 40
0.4531863509
 40
0.5814360731
 40
0.7154255072
 40
0.8550123086
 40
1.0
 40
1.0
 40
1.0
 40
1.0
 10
10.6996993691
 20
8.8023050803
 30
0.0
 10
10.7008223979
 20
8.8026275377
 30
0.0
 10
10.703144318
 20
8.8032597664
 30
0.0
 10
10.7067486338
 20
8.8041491887
 30
0.0
 10
10.7105711937
 20
8.8050052158
 30
0.0
 10
10.7146071956
 20
8.8058258635
 30
0.0
 10
10.7188516334
 20
8.8066091806
 30
0.0
 10
10.7232990599
 20
8.8073531578
 30
0.0
 10
10.7279432376
 20
8.8080557324
 30
0.0
 10
10.7311073915
 20
8.808487183
 30
0.0
 10
10.7327208837
 20
8.8086960625
 30
0.0
  0
SPLINE
  5
3D9
100
AcDbEntity
  8
0
100
AcDbSpline
 62
7
  6
CONTINUOUS
 70
0
 71
3
 72
37
 73
33
 74
0
 42
0.0000001
 43
0.0000001
 44
0.0000000001
 40
0.0
 40
0.0
 40
0.0
 40
0.0
 40
0.0311467573
 40
0.0624481077
 40
0.0938952645
 40
0.125480423
 40
0.1571906467
 40
0.189011416
 40
0.2209257215
 40
0.2529147894
 40
0.2849583708
 40
0.3170351623
 40
0.381163081
 40
0.4451600481
 40
0.4770758024
 40
0.508898317
 40
0.5406106103
 40
0.5721978896
 40
0.6036478697
 40
0.6349510521
 40
0.6661009568
 40
0.6970942988
 40
0.7279311085
 40
0.7586147837
 40
0.7891520652
 40
0.819552936
 40
0.8498304416
 40
0.8800004329
 40
0.9100812331
 40
0.9400932378
 40
0.9700584557
 40
1.0
 40
1.0
 40
1.0
 40
1.0
 10
10.7800039871
 20
9.0119235601
 30
0.0
 10
10.7784708596
 20
9.0120298829
 30
0.0
 10
10.7754036391
 20
9.012355292
 30
0.0
 10
10.7708400136
 20
9.0131749366
 30
0.0
 10
10.7663252464
 20
9.0143230931
 30
0.0
 10
10.7618837765
 20
9.0157934612
 30
0.0
 10
10.7575391523
 20
9.0175782479
 30
0.0
 10
10.7533145681
 20
9.0196678594
 30
0.0
 10
10.7492325144
 20
9.0220511633
 30
0.0
 10
10.7453147913
 20
9.0247153778
 30
0.0
 10
10.7415821009
 20
9.0276464864
 30
0.0
 10
10.7368803454
 20
9.0318876624
 30
0.0
 10
10.7315641842
 20
9.0377726304
 30
0.0
 10
10.7271030004
 20
9.0443201831
 30
0.0
 10
10.7241072961
 20
9.0498700521
 30
0.0
 10
10.722160025
 20
9.0541625682
 30
0.0
 10
10.7205215289
 20
9.0585647112
 30
0.0
 10
10.7192004215
 20
9.0630532279
 30
0.0
 10
10.7182038259
 20
9.0676041361
 30
0.0
 10
10.7175370905
 20
9.0721931852
 30
0.0
 10
10.7172038248
 20
9.0767958938
 30
0.0
 10
10.717205862
 20
9.0813877023
 30
0.0
 10
10.7175432461
 20
9.085944096
 30
0.0
 10
10.7182142268
 20
9.0904407386
 30
0.0
 10
10.7192152734
 20
9.0948536004
 30
0.0
 10
10.7205410895
 20
9.0991590872
 30
0.0
 10
10.7221846364
 20
9.1033341651
 30
0.0
 10
10.7241371755
 20
9.1073564918
 30
0.0
 10
10.7263882832
 20
9.1112045102
 30
0.0
 10
10.7289260133
 20
9.1148576742
 30
0.0
 10
10.7317365406
 20
9.1182961696
 30
0.0
 10
10.7337829773
 20
9.1204340036
 30
0.0
 10
10.7348455646
 20
9.1214603816
 30
0.0
  0
SPLINE
  5
3DA
100
AcDbEntity
  8
0
100
AcDbSpline
 62
7
  6
CONTINUOUS
 70
0
 71
3
 72
46
 73
42
 74
0
 42
0.0000001
 43
0.0000001
 44
0.0000000001
 40
0.0
 40
0.0
 40
0.0
 40
0.0
 40
0.0378655739
 40
0.0761055552
 40
0.1146338256
 40
0.1533661811
 40
0.1922162457
 40
0.2310979153
 40
0.2699248135
 40
0.3086107585
 40
0.3470699723
 40
0.3852173272
 40
0.4229685975
 40
0.4602407067
 40
0.4969519807
 40
0.5330224119
 40
0.5683739232
 40
0.6029306333
 40
0.6366191341
 40
0.6693687835
 40
0.7011120154
 40
0.7317846849
 40
0.7613264442
 40
0.7896811482
 40
0.816797333
 40
0.8426287807
 40
0.8671352061
 40
0.8788812014
 40
0.8902840373
 40
0.9013407391
 40
0.9120489515
 40
0.922406966
 40
0.9324137016
 40
0.9420689696
 40
0.9513733116
 40
0.9603282817
 40
0.9689364306
 40
0.9772016121
 40
0.9851292473
 40
0.9927260583
 40
1.0
 40
1.0
 40
1.0
 40
1.0
 10
11.2062547056
 20
6.9060458089
 30
0.0
 10
11.2121793334
 20
6.9056349346
 30
0.0
 10
11.2240929049
 20
6.9048897198
 30
0.0
 10
11.2420507693
 20
6.904003546
 30
0.0
 10
11.260154476
 20
6.9033448598
 30
0.0
 10
11.2783607613
 20
6.9029152069
 30
0.0
 10
11.2966264508
 20
6.9027156357
 30
0.0
 10
11.3149080306
 20
6.9027466132
 30
0.0
 10
11.3331620259
 20
6.9030080722
 30
0.0
 10
11.351345004
 20
6.9034993847
 30
0.0
 10
11.3694137084
 20
6.9042193741
 30
0.0
 10
11.3873251552
 20
6.9051663178
 30
0.0
 10
11.4050367364
 20
6.9063379503
 30
0.0
 10
11.4225063211
 20
6.9077314693
 30
0.0
 10
11.439692357
 20
6.9093435422
 30
0.0
 10
11.4565539717
 20
6.91117031
 30
0.0
 10
11.4730510717
 20
6.9132073975
 30
0.0
 10
11.4891444379
 20
6.9154499263
 30
0.0
 10
11.5047958195
 20
6.9178925247
 30
0.0
 10
11.5199680268
 20
6.920529341
 30
0.0
 10
11.5346250235
 20
6.9233540576
 30
0.0
 10
11.5487320172
 20
6.9263599035
 30
0.0
 10
11.5622555541
 20
6.9295396691
 30
0.0
 10
11.5751635851
 20
6.9328857302
 30
0.0
 10
11.5874256098
 20
6.9363900638
 30
0.0
 10
11.5990125509
 20
6.9400442834
 30
0.0
 10
11.608208667
 20
6.9432507518
 30
0.0
 10
11.6152015296
 20
6.9458907547
 30
0.0
 10
11.6201863436
 20
6.9478747347
 30
0.0
 10
11.6249827246
 20
6.9498895407
 30
0.0
 10
11.6295878421
 20
6.9519339936
 30
0.0
 10
11.6339989822
 20
6.9540068552
 30
0.0
 10
11.6382135322
 20
6.9561069431
 30
0.0
 10
11.6422290309
 20
6.9582329716
 30
0.0
 10
11.6460430994
 20
6.9603837421
 30
0.0
 10
11.6496535054
 20
6.9625579542
 30
0.0
 10
11.6530581367
 20
6.9647543464
 30
0.0
 10
11.6562550098
 20
6.9669716888
 30
0.0
 10
11.6592423344
 20
6.9692087374
 30
0.0
 10
11.6620182089
 20
6.9714641782
 30
0.0
 10
11.6637640129
 20
6.9730122008
 30
0.0
 10
11.6645991771
 20
6.9737893993
 30
0.0
  0
SPLINE
  5
3DB
100
AcDbEntity
  8
0
100
AcDbSpline
 62
7
  6
CONTINUOUS
 70
0
 71
3
 72
21
 73
17
 74
0
 42
0.0000001
 43
0.0000001
 44
0.0000000001
 40
0.0
 40
0.0
 40
0.0
 40
0.0
 40
0.0616532251
 40
0.1233294846
 40
0.1850515438
 40
0.2468416586
 40
0.3087213407
 40
0.3707111063
 40
0.4328302458
 40
0.4950966346
 40
0.5575265706
 40
0.6201345761
 40
0.6829331563
 40
0.7459331329
 40
0.8725263342
 40
1.0
 40
1.0
 40
1.0
 40
1.0
 10
11.4865301515
 20
9.6962349953
 30
0.0
 10
11.4848692867
 20
9.6946307231
 30
0.0
 10
11.4814599205
 20
9.6915102789
 30
0.0
 10
11.4761006668
 20
9.6871103321
 30
0.0
 10
11.4705086803
 20
9.6830012311
 30
0.0
 10
11.4646982625
 20
9.6791934835
 30
0.0
 10
11.4586840054
 20
9.675696624
 30
0.0
 10
11.4524810661
 20
9.6725194908
 30
0.0
 10
11.4461050784
 20
9.6696700638
 30
0.0
 10
11.4395721205
 20
9.6671554892
 30
0.0
 10
11.4328986314
 20
9.664982095
 30
0.0
 10
11.4261014696
 20
9.6631553654
 30
0.0
 10
11.4191975689
 20
9.6616798385
 30
0.0
 10
11.4098600956
 20
9.6601834545
 30
0.0
 10
11.3980029937
 20
9.6592112987
 30
0.0
 10
11.388470597
 20
9.6593973295
 30
0.0
 10
11.3837076643
 20
9.65972764
 30
0.0
  0
SPLINE
  5
3DC
100
AcDbEntity
  8
0
100
AcDbSpline
 62
7
  6
CONTINUOUS
 70
0
 71
3
 72
28
 73
24
 74
0
 42
0.0000001
 43
0.0000001
 44
0.0000000001
 40
0.0
 40
0.0
 40
0.0
 40
0.0
 40
0.0319827489
 40
0.063844721
 40
0.0955840802
 40
0.1272085273
 40
0.1587239615
 40
0.1901383631
 40
0.2214609786
 40
0.2527015754
 40
0.2838708229
 40
0.3149793283
 40
0.3460376337
 40
0.3770564662
 40
0.4389976029
 40
0.5008952918
 40
0.5628125882
 40
0.6248017162
 40
0.6869047766
 40
0.7491549761
 40
0.8115780214
 40
0.8741934666
 40
1.0
 40
1.0
 40
1.0
 40
1.0
 10
10.624639689
 20
9.4322507072
 30
0.0
 10
10.624639689
 20
9.4340005835
 30
0.0
 10
10.6247375255
 20
9.4374945371
 30
0.0
 10
10.6251785884
 20
9.4427082686
 30
0.0
 10
10.6259108515
 20
9.4478694927
 30
0.0
 10
10.6269293604
 20
9.4529625261
 30
0.0
 10
10.6282275679
 20
9.4579731397
 30
0.0
 10
10.6297972872
 20
9.4628880321
 30
0.0
 10
10.6316291469
 20
9.4676951862
 30
0.0
 10
10.6337127485
 20
9.4723839216
 30
0.0
 10
10.6360368339
 20
9.4769449767
 30
0.0
 10
10.638589724
 20
9.4813703541
 30
0.0
 10
10.6413595168
 20
9.485653505
 30
0.0
 10
10.6453228743
 20
9.4911639311
 30
0.0
 10
10.6507627711
 20
9.497677533
 30
0.0
 10
10.657969305
 20
9.5048622068
 30
0.0
 10
10.665766143
 20
9.5114040891
 30
0.0
 10
10.6740733779
 20
9.517301197
 30
0.0
 10
10.6828197688
 20
9.5225582583
 30
0.0
 10
10.6919414786
 20
9.5271834635
 30
0.0
 10
10.7013827652
 20
9.5311873292
 30
0.0
 10
10.7143450762
 20
9.5357177463
 30
0.0
 10
10.7243825759
 20
9.5382073843
 30
0.0
 10
10.7311472156
 20
9.5394798014
 30
0.0
  0
SPLINE
  5
3DD
100
AcDbEntity
  8
0
100
AcDbSpline
 62
7
  6
CONTINUOUS
 70
0
 71
3
 72
21
 73
17
 74
0
 42
0.0000001
 43
0.0000001
 44
0.0000000001
 40
0.0
 40
0.0
 40
0.0
 40
0.0
 40
0.0616532251
 40
0.1233294846
 40
0.1850515438
 40
0.2468416586
 40
0.3087213407
 40
0.3707111063
 40
0.4328302458
 40
0.4950966346
 40
0.5575265706
 40
0.6201345761
 40
0.6829331563
 40
0.7459331329
 40
0.8725263342
 40
1.0
 40
1.0
 40
1.0
 40
1.0
 10
11.4865301515
 20
8.1565490969
 30
0.0
 10
11.4848692867
 20
8.1549448247
 30
0.0
 10
11.4814599205
 20
8.1518243805
 30
0.0
 10
11.4761006668
 20
8.1474244337
 30
0.0
 10
11.4705086803
 20
8.1433153327
 30
0.0
 10
11.4646982625
 20
8.1395075851
 30
0.0
 10
11.4586840054
 20
8.1360107256
 30
0.0
 10
11.4524810661
 20
8.1328335923
 30
0.0
 10
11.4461050784
 20
8.1299841653
 30
0.0
 10
11.4395721205
 20
8.1274695908
 30
0.0
 10
11.4328986314
 20
8.1252961966
 30
0.0
 10
11.4261014696
 20
8.1234694669
 30
0.0
 10
11.4191975689
 20
8.1219939401
 30
0.0
 10
11.4098600956
 20
8.1204975561
 30
0.0
 10
11.3980029937
 20
8.1195254003
 30
0.0
 10
11.388470597
 20
8.1197114311
 30
0.0
 10
11.3837076643
 20
8.1200417416
 30
0.0
  0
SPLINE
  5
3DE
100
AcDbEntity
  8
0
100
AcDbSpline
 62
7
  6
CONTINUOUS
 70
0
 71
3
 72
20
 73
16
 74
0
 42
0.0000001
 43
0.0000001
 44
0.0000000001
 40
0.0
 40
0.0
 40
0.0
 40
0.0
 40
0.0638883025
 40
0.1270275552
 40
0.1895189923
 40
0.2514966127
 40
0.3130981473
 40
0.3744656498
 40
0.4357367179
 40
0.4970419214
 40
0.6201869461
 40
0.7447229597
 40
0.8077052247
 40
0.8712259005
 40
1.0
 40
1.0
 40
1.0
 40
1.0
 10
10.7327208837
 20
8.8086960625
 30
0.0
 10
10.7332057802
 20
8.8098614887
 30
0.0
 10
10.7342383527
 20
8.8121508847
 30
0.0
 10
10.7359767191
 20
8.8154696259
 30
0.0
 10
10.7378851154
 20
8.8186496935
 30
0.0
 10
10.7399535747
 20
8.8216911919
 30
0.0
 10
10.742172841
 20
8.8245964211
 30
0.0
 10
10.7445341556
 20
8.8273689045
 30
0.0
 10
10.7470295004
 20
8.8300132285
 30
0.0
 10
10.7505299891
 20
8.8333794828
 30
0.0
 10
10.7552187277
 20
8.8373022083
 30
0.0
 10
10.7602374347
 20
8.8408465088
 30
0.0
 10
10.7644368982
 20
8.8434872099
 30
0.0
 10
10.7687946422
 20
8.8460280602
 30
0.0
 10
10.7721655821
 20
8.8477867222
 30
0.0
 10
10.7744520036
 20
8.848902762
 30
0.0
  0
SPLINE
  5
3DF
100
AcDbEntity
  8
0
100
AcDbSpline
 62
7
  6
CONTINUOUS
 70
0
 71
3
 72
14
 73
10
 74
0
 42
0.0000001
 43
0.0000001
 44
0.0000000001
 40
0.0
 40
0.0
 40
0.0
 40
0.0
 40
0.1074876035
 40
0.2198500048
 40
0.3372635981
 40
0.4597804197
 40
0.5873871928
 40
0.7200255474
 40
1.0
 40
1.0
 40
1.0
 40
1.0
 10
10.691069925
 20
8.8006366023
 30
0.0
 10
10.6913856841
 20
8.8006391585
 30
0.0
 10
10.6920314349
 20
8.8006690224
 30
0.0
 10
10.6930171633
 20
8.8007729213
 30
0.0
 10
10.6940404913
 20
8.8009295861
 30
0.0
 10
10.6951012035
 20
8.8011323196
 30
0.0
 10
10.6961990918
 20
8.8013758856
 30
0.0
 10
10.6977401277
 20
8.801755565
 30
0.0
 10
10.6989088228
 20
8.8020780893
 30
0.0
 10
10.6996993691
 20
8.8023050803
 30
0.0
  0
SPLINE
  5
3E0
100
AcDbEntity
  8
0
100
AcDbSpline
 62
7
  6
CONTINUOUS
 70
0
 71
3
 72
86
 73
82
 74
0
 42
0.0000001
 43
0.0000001
 44
0.0000000001
 40
0.0
 40
0.0
 40
0.0
 40
0.0
 40
0.0039801841
 40
0.0081241271
 40
0.0124359952
 40
0.0169193592
 40
0.0215772398
 40
0.0264119885
 40
0.031425264
 40
0.036618254
 40
0.0419916531
 40
0.0475457825
 40
0.0532805662
 40
0.0591955739
 40
0.0652900956
 40
0.0715630905
 40
0.0846387887
 40
0.0984101281
 40
0.1128607274
 40
0.1279712825
 40
0.143719905
 40
0.1600823987
 40
0.1770324898
 40
0.1945420214
 40
0.2125811325
 40
0.231118413
 40
0.2501210443
 40
0.2695549284
 40
0.2893848097
 40
0.3095743878
 40
0.3300864317
 40
0.3508828895
 40
0.3719249936
 40
0.3931733644
 40
0.4145881114
 40
0.4577544787
 40
0.5010993416
 40
0.544295442
 40
0.5657361251
 40
0.5870177332
 40
0.608100294
 40
0.6289443274
 40
0.6495109469
 40
0.6697619625
 40
0.6896599858
 40
0.7091685391
 40
0.7282521684
 40
0.7468765565
 40
0.7650086425
 40
0.7826167502
 40
0.7996707255
 40
0.8161420892
 40
0.8320042114
 40
0.8472325024
 40
0.8618046347
 40
0.8757008111
 40
0.88890409
 40
0.9014007911
 40
0.9073811846
 40
0.9131815866
 40
0.9188014495
 40
0.9242405693
 40
0.9294991173
 40
0.9345776326
 40
0.9394771495
 40
0.9441991485
 40
0.9487457085
 40
0.9531195098
 40
0.9573239345
 40
0.9613631777
 40
0.9652422844
 40
0.9689673442
 40
0.9725455204
 40
0.9759852395
 40
0.9824864298
 40
0.985575299
 40
0.9885737758
 40
0.9914977082
 40
0.9943643177
 40
0.9971920015
 40
1.0
 40
1.0
 40
1.0
 40
1.0
 10
10.5600207831
 20
10.404387867
 30
0.0
 10
10.5608734143
 20
10.4052114456
 30
0.0
 10
10.5626524775
 20
10.4068527795
 30
0.0
 10
10.5654770848
 20
10.4092500743
 30
0.0
 10
10.5685091151
 20
10.4116301776
 30
0.0
 10
10.5717469043
 20
10.4139918167
 30
0.0
 10
10.5751888685
 20
10.4163338943
 30
0.0
 10
10.5788333272
 20
10.4186552649
 30
0.0
 10
10.5826784552
 20
10.4209548246
 30
0.0
 10
10.5867223465
 20
10.4232313762
 30
0.0
 10
10.5909629592
 20
10.4254838227
 30
0.0
 10
10.5953981814
 20
10.4277110154
 30
0.0
 10
10.6000257888
 20
10.4299118446
 30
0.0
 10
10.6048434532
 20
10.4320852121
 30
0.0
 10
10.6098487673
 20
10.4342300108
 30
0.0
 10
10.6168666552
 20
10.4370898254
 30
0.0
 10
10.6260957683
 20
10.4405776427
 30
0.0
 10
10.6377291692
 20
10.4445764763
 30
0.0
 10
10.6500458951
 20
10.4484364643
 30
0.0
 10
10.663021112
 20
10.4521497617
 30
0.0
 10
10.6766287727
 20
10.4557088105
 30
0.0
 10
10.6908414667
 20
10.4591063616
 30
0.0
 10
10.705630543
 20
10.4623354925
 30
0.0
 10
10.720966156
 20
10.4653896269
 30
0.0
 10
10.7368173373
 20
10.4682625444
 30
0.0
 10
10.7531520623
 20
10.4709483947
 30
0.0
 10
10.7699373179
 20
10.4734417089
 30
0.0
 10
10.7871391712
 20
10.4757374114
 30
0.0
 10
10.8047228385
 20
10.4778308282
 30
0.0
 10
10.8226527565
 20
10.4797177007
 30
0.0
 10
10.8408926554
 20
10.4813941911
 30
0.0
 10
10.8594056375
 20
10.4828568916
 30
0.0
 10
10.8781542395
 20
10.4841028222
 30
0.0
 10
10.8971005609
 20
10.4851294693
 30
0.0
 10
10.922641395
 20
10.4862058787
 30
0.0
 10
10.9547792493
 20
10.486987729
 30
0.0
 10
10.9934138669
 20
10.4870284878
 30
0.0
 10
11.0255698787
 20
10.4863145883
 30
0.0
 10
11.0511394397
 20
10.4852924314
 30
0.0
 10
11.0701176037
 20
10.4843059029
 30
0.0
 10
11.0889049922
 20
10.4830996779
 30
0.0
 10
11.1074636259
 20
10.4816761892
 30
0.0
 10
11.1257559486
 20
10.4800383369
 30
0.0
 10
11.1437449562
 20
10.4781894506
 30
0.0
 10
11.1613942584
 20
10.4761332904
 30
0.0
 10
11.1786681582
 20
10.473874039
 30
0.0
 10
11.1955317248
 20
10.4714162958
 30
0.0
 10
11.2119508653
 20
10.4687650639
 30
0.0
 10
11.2278923943
 20
10.4659257416
 30
0.0
 10
11.2433241022
 20
10.4629041105
 30
0.0
 10
11.2582148232
 20
10.4597063248
 30
0.0
 10
11.2725345035
 20
10.4563388966
 30
0.0
 10
11.2862542669
 20
10.4528086872
 30
0.0
 10
11.2993464844
 20
10.4491228874
 30
0.0
 10
11.3117848157
 20
10.4452890008
 30
0.0
 10
11.3235443422
 20
10.4413148205
 30
0.0
 10
11.3346013831
 20
10.437208415
 30
0.0
 10
11.3433354414
 20
10.4336326828
 30
0.0
 10
11.3499475844
 20
10.4307055692
 30
0.0
 10
11.3546445974
 20
10.4285145913
 30
0.0
 10
11.3591500542
 20
10.4262968597
 30
0.0
 10
11.3634616991
 20
10.4240534645
 30
0.0
 10
11.3675773797
 20
10.4217855566
 30
0.0
 10
11.3714950225
 20
10.4194942291
 30
0.0
 10
11.3752126911
 20
10.4171806659
 30
0.0
 10
11.3787285136
 20
10.4148459684
 30
0.0
 10
11.382040754
 20
10.412491311
 30
0.0
 10
11.3851477624
 20
10.4101178316
 30
0.0
 10
11.388047984
 20
10.4077266571
 30
0.0
 10
11.3907399938
 20
10.4053189663
 30
0.0
 10
11.3932224212
 20
10.4028958183
 30
0.0
 10
11.3954939931
 20
10.4004584655
 30
0.0
 10
11.3975536894
 20
10.3980076875
 30
0.0
 10
11.3999699352
 20
10.3947852216
 30
0.0
 10
11.4020217042
 20
10.3914758786
 30
0.0
 10
11.4036507423
 20
10.3880958852
 30
0.0
 10
11.4046349856
 20
10.3855961197
 30
0.0
 10
11.405401477
 20
10.3830902807
 30
0.0
 10
11.4059495379
 20
10.3805795688
 30
0.0
 10
11.40627861
 20
10.3780657866
 30
0.0
 10
11.4063518726
 20
10.3763863809
 30
0.0
 10
11.406351875
 20
10.3755500613
 30
0.0
  0
SPLINE
  5
3E1
100
AcDbEntity
  8
0
100
AcDbSpline
 62
7
  6
CONTINUOUS
 70
0
 71
3
 72
21
 73
17
 74
0
 42
0.0000001
 43
0.0000001
 44
0.0000000001
 40
0.0
 40
0.0
 40
0.0
 40
0.0
 40
0.0616532251
 40
0.1233294846
 40
0.1850515438
 40
0.2468416586
 40
0.3087213407
 40
0.3707111063
 40
0.4328302458
 40
0.4950966346
 40
0.5575265706
 40
0.6201345761
 40
0.6829331563
 40
0.7459331329
 40
0.8725263342
 40
1.0
 40
1.0
 40
1.0
 40
1.0
 10
10.2791227971
 20
8.2402830813
 30
0.0
 10
10.2774619323
 20
8.2386788091
 30
0.0
 10
10.2740525661
 20
8.2355583649
 30
0.0
 10
10.2686933124
 20
8.2311584181
 30
0.0
 10
10.2631013259
 20
8.2270493172
 30
0.0
 10
10.2572909081
 20
8.2232415696
 30
0.0
 10
10.251276651
 20
8.21974471
 30
0.0
 10
10.2450737117
 20
8.2165675768
 30
0.0
 10
10.238697724
 20
8.2137181498
 30
0.0
 10
10.2321647661
 20
8.2112035753
 30
0.0
 10
10.225491277
 20
8.209030181
 30
0.0
 10
10.2186941152
 20
8.2072034514
 30
0.0
 10
10.2117902145
 20
8.2057279245
 30
0.0
 10
10.2024527412
 20
8.2042315405
 30
0.0
 10
10.1905956393
 20
8.2032593847
 30
0.0
 10
10.1810632426
 20
8.2034454155
 30
0.0
 10
10.1763003098
 20
8.203775726
 30
0.0
  0
LINE
  5
3E2
100
AcDbEntity
  8
0
100
AcDbLine
 62
7
  6
CONTINUOUS
 10
10.6996993691
 20
8.8023050803
 11
10.6931424667
 21
8.80647049
  0
SPLINE
  5
3E3
100
AcDbEntity
  8
0
100
AcDbSpline
 62
7
  6
CONTINUOUS
 70
0
 71
3
 72
15
 73
11
 74
0
 42
0.0000001
 43
0.0000001
 44
0.0000000001
 40
0.0
 40
0.0
 40
0.0
 40
0.0
 40
0.1233171364
 40
0.2468171961
 40
0.3706749962
 40
0.495049573
 40
0.6200773082
 40
0.7458671136
 40
0.8724927176
 40
1.0
 40
1.0
 40
1.0
 40
1.0
 10
11.4533531382
 20
9.4132329484
 30
0.0
 10
11.451602792
 20
9.4115422289
 30
0.0
 10
11.447914268
 20
9.408344218
 30
0.0
 10
11.4418942205
 20
9.4041652816
 30
0.0
 10
11.4354435251
 20
9.4006424915
 30
0.0
 10
11.4286282117
 20
9.3978120562
 30
0.0
 10
11.4215170295
 20
9.3957020773
 30
0.0
 10
11.4141816148
 20
9.3943336519
 30
0.0
 10
11.4066968469
 20
9.3937200902
 30
0.0
 10
11.4016727071
 20
9.3938180854
 30
0.0
 10
11.3991624809
 20
9.3939921702
 30
0.0
  0
SPLINE
  5
3E4
100
AcDbEntity
  8
0
100
AcDbSpline
 62
7
  6
CONTINUOUS
 70
0
 71
3
 72
11
 73
7
 74
0
 42
0.0000001
 43
0.0000001
 44
0.0000000001
 40
0.0
 40
0.0
 40
0.0
 40
0.0
 40
0.2475815487
 40
0.4966839438
 40
0.7474586034
 40
1.0
 40
1.0
 40
1.0
 40
1.0
 10
11.4693067
 20
9.4370580114
 30
0.0
 10
11.4669584984
 20
9.4362108974
 30
0.0
 10
11.4621531367
 20
9.434761978
 30
0.0
 10
11.4547357219
 20
9.4333546087
 30
0.0
 10
11.4471627159
 20
9.4327198152
 30
0.0
 10
11.4420784555
 20
9.4328159752
 30
0.0
 10
11.4395382195
 20
9.4329921412
 30
0.0
  0
SPLINE
  5
3E5
100
AcDbEntity
  8
0
100
AcDbSpline
 62
7
  6
CONTINUOUS
 70
0
 71
3
 72
29
 73
25
 74
0
 42
0.0000001
 43
0.0000001
 44
0.0000000001
 40
0.0
 40
0.0
 40
0.0
 40
0.0
 40
0.0300868559
 40
0.0602783354
 40
0.0905830413
 40
0.1210078367
 40
0.1515577344
 40
0.1822358416
 40
0.2130433709
 40
0.2439796283
 40
0.2750420228
 40
0.306226156
 40
0.337525914
 40
0.3689335434
 40
0.4320077495
 40
0.4953860439
 40
0.558962441
 40
0.6226203685
 40
0.6862389134
 40
0.7496992441
 40
0.8128910099
 40
0.8757183052
 40
0.9381045004
 40
1.0
 40
1.0
 40
1.0
 40
1.0
 10
11.3693527359
 20
9.5405960384
 30
0.0
 10
11.3687975031
 20
9.5392119942
 30
0.0
 10
11.3677732332
 20
9.5364028173
 30
0.0
 10
11.3665042108
 20
9.5320931783
 30
0.0
 10
11.3655043509
 20
9.5276959232
 30
0.0
 10
11.3647774231
 20
9.5232274866
 30
0.0
 10
11.3643260838
 20
9.5187042846
 30
0.0
 10
11.3641519434
 20
9.5141430136
 30
0.0
 10
11.36425561
 20
9.5095604756
 30
0.0
 10
11.3646367057
 20
9.5049735596
 30
0.0
 10
11.3652938027
 20
9.5003991505
 30
0.0
 10
11.3662244091
 20
9.4958541372
 30
0.0
 10
11.3674251762
 20
9.4913550763
 30
0.0
 10
11.369382635
 20
9.4854328868
 30
0.0
 10
11.3724830309
 20
9.4782282978
 30
0.0
 10
11.3771824742
 20
9.4700425524
 30
0.0
 10
11.3827984117
 20
9.4624196831
 30
0.0
 10
11.3892482363
 20
9.4554721934
 30
0.0
 10
11.3964373926
 20
9.4493015976
 30
0.0
 10
11.4042606658
 20
9.4439985295
 30
0.0
 10
11.4126033723
 20
9.4396409075
 30
0.0
 10
11.4213438135
 20
9.4362929835
 30
0.0
 10
11.4303521966
 20
9.4340044796
 30
0.0
 10
11.436477706
 20
9.4332043885
 30
0.0
 10
11.4395382195
 20
9.4329921412
 30
0.0
  0
SPLINE
  5
3E6
100
AcDbEntity
  8
0
100
AcDbSpline
 62
7
  6
CONTINUOUS
 70
0
 71
3
 72
15
 73
11
 74
0
 42
0.0000001
 43
0.0000001
 44
0.0000000001
 40
0.0
 40
0.0
 40
0.0
 40
0.0
 40
0.1233171364
 40
0.2468171961
 40
0.3706749962
 40
0.495049573
 40
0.6200773082
 40
0.7458671136
 40
0.8724927176
 40
1.0
 40
1.0
 40
1.0
 40
1.0
 10
10.2150361217
 20
8.6239817148
 30
0.0
 10
10.2132857755
 20
8.6222909953
 30
0.0
 10
10.2095972515
 20
8.6190929844
 30
0.0
 10
10.203577204
 20
8.614914048
 30
0.0
 10
10.1971265086
 20
8.6113912579
 30
0.0
 10
10.1903111952
 20
8.6085608226
 30
0.0
 10
10.1832000129
 20
8.6064508436
 30
0.0
 10
10.1758645982
 20
8.6050824183
 30
0.0
 10
10.1683798304
 20
8.6044688566
 30
0.0
 10
10.1633556906
 20
8.6045668518
 30
0.0
 10
10.1608454644
 20
8.6047409366
 30
0.0
  0
SPLINE
  5
3E7
100
AcDbEntity
  8
0
100
AcDbSpline
 62
7
  6
CONTINUOUS
 70
0
 71
3
 72
11
 73
7
 74
0
 42
0.0000001
 43
0.0000001
 44
0.0000000001
 40
0.0
 40
0.0
 40
0.0
 40
0.0
 40
0.2475815487
 40
0.4966839438
 40
0.7474586034
 40
1.0
 40
1.0
 40
1.0
 40
1.0
 10
10.2309896835
 20
8.6478067777
 30
0.0
 10
10.2286414819
 20
8.6469596638
 30
0.0
 10
10.2238361201
 20
8.6455107444
 30
0.0
 10
10.2164187054
 20
8.6441033751
 30
0.0
 10
10.2088456994
 20
8.6434685816
 30
0.0
 10
10.203761439
 20
8.6435647416
 30
0.0
 10
10.2012212029
 20
8.6437409075
 30
0.0
  0
SPLINE
  5
3E8
100
AcDbEntity
  8
0
100
AcDbSpline
 62
7
  6
CONTINUOUS
 70
0
 71
3
 72
29
 73
25
 74
0
 42
0.0000001
 43
0.0000001
 44
0.0000000001
 40
0.0
 40
0.0
 40
0.0
 40
0.0
 40
0.0300868559
 40
0.0602783354
 40
0.0905830413
 40
0.1210078367
 40
0.1515577344
 40
0.1822358416
 40
0.2130433709
 40
0.2439796283
 40
0.2750420228
 40
0.306226156
 40
0.337525914
 40
0.3689335434
 40
0.4320077495
 40
0.4953860439
 40
0.558962441
 40
0.6226203685
 40
0.6862389134
 40
0.7496992441
 40
0.8128910099
 40
0.8757183052
 40
0.9381045004
 40
1.0
 40
1.0
 40
1.0
 40
1.0
 10
10.1310357194
 20
8.7513448047
 30
0.0
 10
10.1304804866
 20
8.7499607606
 30
0.0
 10
10.1294562167
 20
8.7471515836
 30
0.0
 10
10.1281871943
 20
8.7428419446
 30
0.0
 10
10.1271873343
 20
8.7384446896
 30
0.0
 10
10.1264604066
 20
8.7339762529
 30
0.0
 10
10.1260090673
 20
8.729453051
 30
0.0
 10
10.1258349269
 20
8.7248917799
 30
0.0
 10
10.1259385934
 20
8.720309242
 30
0.0
 10
10.1263196892
 20
8.715722326
 30
0.0
 10
10.1269767862
 20
8.7111479169
 30
0.0
 10
10.1279073926
 20
8.7066029036
 30
0.0
 10
10.1291081596
 20
8.7021038427
 30
0.0
 10
10.1310656185
 20
8.6961816532
 30
0.0
 10
10.1341660144
 20
8.6889770642
 30
0.0
 10
10.1388654577
 20
8.6807913188
 30
0.0
 10
10.1444813951
 20
8.6731684495
 30
0.0
 10
10.1509312198
 20
8.6662209598
 30
0.0
 10
10.1581203761
 20
8.6600503639
 30
0.0
 10
10.1659436493
 20
8.6547472958
 30
0.0
 10
10.1742863558
 20
8.6503896739
 30
0.0
 10
10.1830267969
 20
8.6470417499
 30
0.0
 10
10.1920351801
 20
8.644753246
 30
0.0
 10
10.1981606895
 20
8.6439531549
 30
0.0
 10
10.2012212029
 20
8.6437409075
 30
0.0
  0
SPLINE
  5
3E9
100
AcDbEntity
  8
0
100
AcDbSpline
 62
7
  6
CONTINUOUS
 70
0
 71
3
 72
15
 73
11
 74
0
 42
0.0000001
 43
0.0000001
 44
0.0000000001
 40
0.0
 40
0.0
 40
0.0
 40
0.0
 40
0.1233171217
 40
0.2468171833
 40
0.3706749954
 40
0.4950495965
 40
0.6200773092
 40
0.7458671694
 40
0.8724927499
 40
1.0
 40
1.0
 40
1.0
 40
1.0
 10
10.8251624095
 20
9.0279571035
 30
0.0
 10
10.8237037986
 20
9.026548197
 30
0.0
 10
10.8206300337
 20
9.0238832614
 30
0.0
 10
10.8156133657
 20
9.0204008984
 30
0.0
 10
10.8102378282
 20
9.0174653254
 30
0.0
 10
10.8045584577
 20
9.0151066986
 30
0.0
 10
10.7986325408
 20
9.0133484296
 30
0.0
 10
10.7925197701
 20
9.0122081097
 30
0.0
 10
10.786282543
 20
9.0116968263
 30
0.0
 10
10.7820958148
 20
9.0117784914
 30
0.0
 10
10.7800039871
 20
9.0119235601
 30
0.0
  0
SPLINE
  5
3EA
100
AcDbEntity
  8
0
100
AcDbSpline
 62
7
  6
CONTINUOUS
 70
0
 71
3
 72
15
 73
11
 74
0
 42
0.0000001
 43
0.0000001
 44
0.0000000001
 40
0.0
 40
0.0
 40
0.0
 40
0.0
 40
0.1232685507
 40
0.2468889796
 40
0.370948403
 40
0.4955223615
 40
0.6206745137
 40
0.7464506782
 40
0.8728896254
 40
1.0
 40
1.0
 40
1.0
 40
1.0
 10
10.8323217656
 20
9.0364449827
 30
0.0
 10
10.8310054154
 20
9.0356046199
 30
0.0
 10
10.8282984446
 20
9.034029164
 30
0.0
 10
10.8240527361
 20
9.0320025366
 30
0.0
 10
10.8196409645
 20
9.0303208858
 30
0.0
 10
10.8150896794
 20
9.0289943376
 30
0.0
 10
10.810425848
 20
9.0280306776
 30
0.0
 10
10.805677028
 20
9.0274355006
 30
0.0
 10
10.8008717903
 20
9.0272123364
 30
0.0
 10
10.7976572948
 20
9.027312134
 30
0.0
 10
10.7960507543
 20
9.027423548
 30
0.0
  0
SPLINE
  5
3EB
100
AcDbEntity
  8
0
100
AcDbSpline
 62
7
  6
CONTINUOUS
 70
0
 71
3
 72
39
 73
35
 74
0
 42
0.0000001
 43
0.0000001
 44
0.0000000001
 40
0.0
 40
0.0
 40
0.0
 40
0.0
 40
0.0299348114
 40
0.0599413979
 40
0.0900363211
 40
0.1202344111
 40
0.1505484986
 40
0.1809891813
 40
0.2115646394
 40
0.2422805184
 40
0.2731398751
 40
0.3041431498
 40
0.3352881838
 40
0.3665702877
 40
0.3979823788
 40
0.4295151317
 40
0.4611571521
 40
0.4928951831
 40
0.5247143615
 40
0.5565984851
 40
0.5885302766
 40
0.6204916631
 40
0.6524640874
 40
0.6844288228
 40
0.7163672701
 40
0.7482612484
 40
0.7800933018
 40
0.8118470293
 40
0.8435072757
 40
0.8750605229
 40
0.9064951743
 40
0.9378005257
 40
0.9689720362
 40
1.0
 40
1.0
 40
1.0
 40
1.0
 10
10.7436448445
 20
9.1284205253
 30
0.0
 10
10.7428683964
 20
9.1272975683
 30
0.0
 10
10.7413938954
 20
9.1249922489
 30
0.0
 10
10.7394326001
 20
9.1213808218
 30
0.0
 10
10.7377278162
 20
9.1176280676
 30
0.0
 10
10.736287402
 20
9.1137512525
 30
0.0
 10
10.7351178139
 20
9.1097679077
 30
0.0
 10
10.7342243438
 20
9.1056961147
 30
0.0
 10
10.7336110128
 20
9.101554332
 30
0.0
 10
10.7332805453
 20
9.0973613373
 30
0.0
 10
10.733234398
 20
9.0931361256
 30
0.0
 10
10.7334727485
 20
9.0888978304
 30
0.0
 10
10.7339945012
 20
9.0846656411
 30
0.0
 10
10.7347972481
 20
9.0804587115
 30
0.0
 10
10.7358773179
 20
9.0762960733
 30
0.0
 10
10.7372297985
 20
9.0721965541
 30
0.0
 10
10.7388485625
 20
9.0681786989
 30
0.0
 10
10.7407262667
 20
9.0642606778
 30
0.0
 10
10.7428543872
 20
9.0604601995
 30
0.0
 10
10.7452232858
 20
9.0567944448
 30
0.0
 10
10.747822247
 20
9.0532799912
 30
0.0
 10
10.7506395209
 20
9.0499327382
 30
0.0
 10
10.753662349
 20
9.0467678108
 30
0.0
 10
10.756877058
 20
9.043799518
 30
0.0
 10
10.7602691148
 20
9.0410412873
 30
0.0
 10
10.7638231934
 20
9.0385056131
 30
0.0
 10
10.7675232182
 20
9.0362039641
 30
0.0
 10
10.7713524568
 20
9.0341467555
 30
0.0
 10
10.7752935949
 20
9.0323433036
 30
0.0
 10
10.7793288303
 20
9.0308017926
 30
0.0
 10
10.7834398686
 20
9.0295292624
 30
0.0
 10
10.787608253
 20
9.0285313751
 30
0.0
 10
10.7918147885
 20
9.0278128533
 30
0.0
 10
10.7946390405
 20
9.0275214507
 30
0.0
 10
10.7960507543
 20
9.027423548
 30
0.0
  0
SPLINE
  5
3EC
100
AcDbEntity
  8
0
100
AcDbSpline
 62
7
  6
CONTINUOUS
 70
0
 71
3
 72
11
 73
7
 74
0
 42
0.0000001
 43
0.0000001
 44
0.0000000001
 40
0.0
 40
0.0
 40
0.0
 40
0.0
 40
0.2558834839
 40
0.5078160669
 40
0.7558032383
 40
1.0
 40
1.0
 40
1.0
 40
1.0
 10
10.3478267148
 20
9.2229537963
 30
0.0
 10
10.3509667402
 20
9.221146082
 30
0.0
 10
10.3573610969
 20
9.2178323514
 30
0.0
 10
10.367288894
 20
9.2137959836
 30
0.0
 10
10.3773963715
 20
9.2107654817
 30
0.0
 10
10.3842490282
 20
9.2094239981
 30
0.0
 10
10.3876717069
 20
9.2089329616
 30
0.0
  0
SPLINE
  5
3ED
100
AcDbEntity
  8
0
100
AcDbSpline
 62
7
  6
CONTINUOUS
 70
0
 71
3
 72
31
 73
27
 74
0
 42
0.0000001
 43
0.0000001
 44
0.0000000001
 40
0.0
 40
0.0
 40
0.0
 40
0.0
 40
0.0607022726
 40
0.1217580767
 40
0.1831707034
 40
0.2449379624
 40
0.3070525688
 40
0.3695016685
 40
0.4322655525
 40
0.495314734
 40
0.558606653
 40
0.5903356062
 40
0.6221012704
 40
0.6856686547
 40
0.7174665222
 40
0.7492418804
 40
0.7809743369
 40
0.8126415013
 40
0.8442195514
 40
0.8599704105
 40
0.8756901215
 40
0.9070178317
 40
0.9381877834
 40
0.9537113644
 40
0.9691899841
 40
1.0
 40
1.0
 40
1.0
 40
1.0
 10
10.8288607589
 20
9.3034725207
 30
0.0
 10
10.8234589095
 20
9.3024564421
 30
0.0
 10
10.8125247524
 20
9.3009131622
 30
0.0
 10
10.7959429008
 20
9.3000328217
 30
0.0
 10
10.7792489215
 20
9.3005570705
 30
0.0
 10
10.7625612338
 20
9.3024736788
 30
0.0
 10
10.7459962846
 20
9.3057794373
 30
0.0
 10
10.7296772068
 20
9.3104798287
 30
0.0
 10
10.7137386702
 20
9.3165877395
 30
0.0
 10
10.6983354059
 20
9.3241201963
 30
0.0
 10
10.6861011338
 20
9.3315962872
 30
0.0
 10
10.6767778607
 20
9.3383034387
 30
0.0
 10
10.6677975964
 20
9.3455019364
 30
0.0
 10
10.6594093366
 20
9.35342911
 30
0.0
 10
10.6517751818
 20
9.3620541599
 30
0.0
 10
10.6464657181
 20
9.3688652553
 30
0.0
 10
10.6416205442
 20
9.3760001831
 30
0.0
 10
10.6372870079
 20
9.3834368581
 30
0.0
 10
10.6341390738
 20
9.3898680238
 30
0.0
 10
10.6319247526
 20
9.3951315025
 30
0.0
 10
10.6299243753
 20
9.400455735
 30
0.0
 10
10.6278290661
 20
9.4072298002
 30
0.0
 10
10.6263030999
 20
9.4141369274
 30
0.0
 10
10.6254427171
 20
9.4197021097
 30
0.0
 10
10.6248270829
 20
9.4252664554
 30
0.0
 10
10.624639689
 20
9.4294608657
 30
0.0
 10
10.624639689
 20
9.4322507072
 30
0.0
  0
SPLINE
  5
3EE
100
AcDbEntity
  8
0
100
AcDbSpline
 62
7
  6
CONTINUOUS
 70
0
 71
3
 72
39
 73
35
 74
0
 42
0.0000001
 43
0.0000001
 44
0.0000000001
 40
0.0
 40
0.0
 40
0.0
 40
0.0
 40
0.0300165499
 40
0.0601272705
 40
0.0903433979
 40
0.1206743215
 40
0.1511275094
 40
0.1817084622
 40
0.212420693
 40
0.2432657261
 40
0.2742431157
 40
0.3053504815
 40
0.3365835586
 40
0.3679362603
 40
0.3994007527
 40
0.4309675405
 40
0.4626255675
 40
0.4943623382
 40
0.5261640535
 40
0.5580157647
 40
0.5899015486
 40
0.6218047061
 40
0.6537079832
 40
0.6855938172
 40
0.7174446075
 40
0.7492430119
 40
0.7809722586
 40
0.812616465
 40
0.8441609844
 40
0.8755926704
 40
0.9069003765
 40
0.9380747107
 40
0.9691095894
 40
1.0
 40
1.0
 40
1.0
 40
1.0
 10
11.2478193152
 20
8.9365916332
 30
0.0
 10
11.2454731973
 20
8.9354961362
 30
0.0
 10
11.2406983067
 20
8.9334590886
 30
0.0
 10
11.2333378878
 20
8.9308818884
 30
0.0
 10
11.2257977484
 20
8.9287862289
 30
0.0
 10
11.2181086817
 20
8.9271787731
 30
0.0
 10
11.2103011332
 20
8.9260642478
 30
0.0
 10
11.2024058252
 20
8.9254457979
 30
0.0
 10
11.1944535293
 20
8.9253249346
 30
0.0
 10
11.1864750776
 20
8.92570159
 30
0.0
 10
11.1785013173
 20
8.9265741318
 30
0.0
 10
11.1705630847
 20
8.927939371
 30
0.0
 10
11.162691174
 20
8.9297925579
 30
0.0
 10
11.1549163047
 20
8.9321273676
 30
0.0
 10
11.1472690829
 20
8.9349358774
 30
0.0
 10
11.1397799528
 20
8.9382085305
 30
0.0
 10
11.1324791379
 20
8.9419340979
 30
0.0
 10
11.1253965716
 20
8.9460996413
 30
0.0
 10
11.1185618108
 20
8.9506904681
 30
0.0
 10
11.1120039344
 20
8.9556900899
 30
0.0
 10
11.1057514232
 20
8.9610801844
 30
0.0
 10
11.0998320231
 20
8.9668405664
 30
0.0
 10
11.0942725898
 20
8.9729491713
 30
0.0
 10
11.0890989154
 20
8.9793820538
 30
0.0
 10
11.0843355392
 20
8.9861134074
 30
0.0
 10
11.0800055509
 20
8.993115613
 30
0.0
 10
11.0761303836
 20
9.0003593104
 30
0.0
 10
11.0727295991
 20
9.0078135028
 30
0.0
 10
11.0698206901
 20
9.0154456867
 30
0.0
 10
11.0674188525
 20
9.0232220381
 30
0.0
 10
11.0655368619
 20
9.0311075342
 30
0.0
 10
11.0641847881
 20
9.0390664502
 30
0.0
 10
11.0633700556
 20
9.0470617115
 30
0.0
 10
11.0631876534
 20
9.0524052306
 30
0.0
 10
11.0631876534
 20
9.0550698937
 30
0.0
  0
SPLINE
  5
3EF
100
AcDbEntity
  8
0
100
AcDbSpline
 62
7
  6
CONTINUOUS
 70
0
 71
3
 72
39
 73
35
 74
0
 42
0.0000001
 43
0.0000001
 44
0.0000000001
 40
0.0
 40
0.0
 40
0.0
 40
0.0
 40
0.0309663873
 40
0.0617280783
 40
0.0923044421
 40
0.1227227415
 40
0.1530165262
 40
0.1832240031
 40
0.213386152
 40
0.2435448624
 40
0.2737410901
 40
0.3040132596
 40
0.3343959633
 40
0.3649188936
 40
0.3956060826
 40
0.4264754231
 40
0.4575383921
 40
0.4887999576
 40
0.5202586445
 40
0.551906704
 40
0.5837303859
 40
0.6157103207
 40
0.647821981
 40
0.6800362297
 40
0.7123200496
 40
0.7446374017
 40
0.776950199
 40
0.8092195184
 40
0.8414069758
 40
0.8734761764
 40
0.9053943112
 40
0.9371337533
 40
0.9686731174
 40
1.0
 40
1.0
 40
1.0
 40
1.0
 10
10.4965571126
 20
9.0865177938
 30
0.0
 10
10.4962949145
 20
9.0826297852
 30
0.0
 10
10.4953790307
 20
9.0748999645
 30
0.0
 10
10.4928317665
 20
9.0635468428
 30
0.0
 10
10.4891447121
 20
9.0525823535
 30
0.0
 10
10.484360216
 20
9.0421153184
 30
0.0
 10
10.4785321954
 20
9.0322452066
 30
0.0
 10
10.4717248596
 20
9.023063523
 30
0.0
 10
10.464011152
 20
9.0146523509
 30
0.0
 10
10.4554713319
 20
9.00708398
 30
0.0
 10
10.4461913914
 20
9.0004207937
 30
0.0
 10
10.4362617434
 20
8.9947154015
 30
0.0
 10
10.425776116
 20
8.9900108401
 30
0.0
 10
10.4148305543
 20
8.9863410284
 30
0.0
 10
10.4035226751
 20
8.9837312291
 30
0.0
 10
10.3919511165
 20
8.9821984295
 30
0.0
 10
10.3802151139
 20
8.9817516857
 30
0.0
 10
10.3684141885
 20
8.9823924483
 30
0.0
 10
10.3566479266
 20
8.9841147225
 30
0.0
 10
10.3450157689
 20
8.9869050627
 30
0.0
 10
10.3336167874
 20
8.9907425394
 30
0.0
 10
10.3225494206
 20
8.995598599
 30
0.0
 10
10.3119111097
 20
9.0014368068
 30
0.0
 10
10.3017977706
 20
9.0082125048
 30
0.0
 10
10.2923031627
 20
9.0158725756
 30
0.0
 10
10.2835180791
 20
9.0243551911
 30
0.0
 10
10.2755292701
 20
9.0335895788
 30
0.0
 10
10.2684182722
 20
9.0434960653
 30
0.0
 10
10.2622601293
 20
9.0539863089
 30
0.0
 10
10.2571218515
 20
9.0649637558
 30
0.0
 10
10.2530609676
 20
9.0763242865
 30
0.0
 10
10.2501242557
 20
9.0879580144
 30
0.0
 10
10.2483461684
 20
9.0997482117
 30
0.0
 10
10.2479461678
 20
9.107664873
 30
0.0
 10
10.2479461678
 20
9.1116070776
 30
0.0
  0
SPLINE
  5
3F0
100
AcDbEntity
  8
0
100
AcDbSpline
 62
7
  6
CONTINUOUS
 70
0
 71
3
 72
21
 73
17
 74
0
 42
0.0000001
 43
0.0000001
 44
0.0000000001
 40
0.0
 40
0.0
 40
0.0
 40
0.0
 40
0.0616532317
 40
0.1233294843
 40
0.1850515407
 40
0.2468416642
 40
0.3087213449
 40
0.3707111025
 40
0.432830246
 40
0.4950966374
 40
0.5575265756
 40
0.6201345674
 40
0.6829331401
 40
0.7459332076
 40
0.8725262003
 40
1.0
 40
1.0
 40
1.0
 40
1.0
 10
10.8668473806
 20
8.6380346245
 30
0.0
 10
10.8654446222
 20
8.6366796627
 30
0.0
 10
10.8625650818
 20
8.6340441549
 30
0.0
 10
10.8580386779
 20
8.630327984
 30
0.0
 10
10.8533157287
 20
8.6268574325
 30
0.0
 10
10.8484082737
 20
8.6236414285
 30
0.0
 10
10.843328653
 20
8.6206880086
 30
0.0
 10
10.8380896881
 20
8.6180045987
 30
0.0
 10
10.8327045607
 20
8.6155979778
 30
0.0
 10
10.8271868492
 20
8.6134741914
 30
0.0
 10
10.8215504526
 20
8.6116385484
 30
0.0
 10
10.8158096051
 20
8.6100956855
 30
0.0
 10
10.8099785976
 20
8.6088494702
 30
0.0
 10
10.8020922136
 20
8.6075856353
 30
0.0
 10
10.7920777598
 20
8.6067645433
 30
0.0
 10
10.7840267427
 20
8.6069216672
 30
0.0
 10
10.7800039871
 20
8.6072006462
 30
0.0
  0
SPLINE
  5
3F1
100
AcDbEntity
  8
0
100
AcDbSpline
 62
7
  6
CONTINUOUS
 70
0
 71
3
 72
11
 73
7
 74
0
 42
0.0000001
 43
0.0000001
 44
0.0000000001
 40
0.0
 40
0.0
 40
0.0
 40
0.0
 40
0.2639888759
 40
0.5196321869
 40
0.7654395649
 40
1.0
 40
1.0
 40
1.0
 40
1.0
 10
10.8703474493
 20
8.7483103459
 30
0.0
 10
10.8729361385
 20
8.7474755456
 30
0.0
 10
10.8780167635
 20
8.7457855084
 30
0.0
 10
10.8854472028
 20
8.7431404049
 30
0.0
 10
10.8925310783
 20
8.7404317421
 30
0.0
 10
10.8971076902
 20
8.7385454038
 30
0.0
 10
10.8993283615
 20
8.7375918243
 30
0.0
  0
SPLINE
  5
3F2
100
AcDbEntity
  8
0
100
AcDbSpline
 62
7
  6
CONTINUOUS
 70
0
 71
3
 72
42
 73
38
 74
0
 42
0.0000001
 43
0.0000001
 44
0.0000000001
 40
0.0
 40
0.0
 40
0.0
 40
0.0
 40
0.0311444614
 40
0.0467771749
 40
0.0624471243
 40
0.0938918364
 40
0.1254739609
 40
0.1571813407
 40
0.1889991953
 40
0.220910588
 40
0.2528967324
 40
0.2849373871
 40
0.3170112522
 40
0.3490963865
 40
0.3811706317
 40
0.4132120391
 40
0.4451992945
 40
0.4771121343
 40
0.508931746
 40
0.54064115
 40
0.572225553
 40
0.6036726688
 40
0.634972998
 40
0.6661200609
 40
0.6971105755
 40
0.7279445747
 40
0.758625456
 40
0.7891599579
 40
0.8195580604
 40
0.8498328062
 40
0.864931572
 40
0.8800056552
 40
0.9100837089
 40
0.9400929741
 40
0.955081501
 40
0.9700611858
 40
1.0
 40
1.0
 40
1.0
 40
1.0
 10
10.1763003098
 20
8.203775726
 30
0.0
 10
10.1728094386
 20
8.2040178188
 30
0.0
 10
10.1675770851
 20
8.2045729389
 30
0.0
 10
10.1606489811
 20
8.2056885056
 30
0.0
 10
10.1537318774
 20
8.2070580799
 30
0.0
 10
10.1451547803
 20
8.2092392479
 30
0.0
 10
10.1350420487
 20
8.2125871728
 30
0.0
 10
10.1251496452
 20
8.2166509791
 30
0.0
 10
10.1155306104
 20
8.2214088766
 30
0.0
 10
10.1062361131
 20
8.2268354511
 30
0.0
 10
10.0973156998
 20
8.2329017259
 30
0.0
 10
10.0888168929
 20
8.2395753319
 30
0.0
 10
10.0807849789
 20
8.246820676
 30
0.0
 10
10.0732627597
 20
8.2545991297
 30
0.0
 10
10.0662903292
 20
8.2628692334
 30
0.0
 10
10.0599048613
 20
8.2715869146
 30
0.0
 10
10.0541404135
 20
8.2807057212
 30
0.0
 10
10.0490277469
 20
8.2901770654
 30
0.0
 10
10.044594163
 20
8.2999504802
 30
0.0
 10
10.0408633589
 20
8.3099738849
 30
0.0
 10
10.0378553005
 20
8.3201938587
 30
0.0
 10
10.0355861154
 20
8.330555922
 30
0.0
 10
10.0340680055
 20
8.3410048225
 30
0.0
 10
10.0333091789
 20
8.3514848267
 30
0.0
 10
10.0333138018
 20
8.3619400107
 30
0.0
 10
10.0340819762
 20
8.3723145661
 30
0.0
 10
10.0356097141
 20
8.3825530557
 30
0.0
 10
10.0378890267
 20
8.3926008579
 30
0.0
 10
10.0409076832
 20
8.402403903
 30
0.0
 10
10.0440294762
 20
8.4103339933
 30
0.0
 10
10.0468782788
 20
8.4165008626
 30
0.0
 10
10.0499526773
 20
8.4225336477
 30
0.0
 10
10.054221311
 20
8.4298306138
 30
0.0
 10
10.0590389657
 20
8.4367657199
 30
0.0
 10
10.0632021092
 20
8.442066756
 30
0.0
 10
10.0675638754
 20
8.4471947454
 30
0.0
 10
10.0710583979
 20
8.4508454474
 30
0.0
 10
10.0734778226
 20
8.4531824322
 30
0.0
  0
SPLINE
  5
3F3
100
AcDbEntity
  8
0
100
AcDbSpline
 62
7
  6
CONTINUOUS
 70
0
 71
3
 72
39
 73
35
 74
0
 42
0.0000001
 43
0.0000001
 44
0.0000000001
 40
0.0
 40
0.0
 40
0.0
 40
0.0
 40
0.0311445376
 40
0.062443355
 40
0.09388824
 40
0.1254709996
 40
0.1571788478
 40
0.1889972257
 40
0.2209091305
 40
0.2528957945
 40
0.2849369709
 40
0.3170113586
 40
0.3490970145
 40
0.3811717799
 40
0.4132137068
 40
0.4452014824
 40
0.4771148435
 40
0.5089349783
 40
0.5406449062
 40
0.5722298317
 40
0.6036774666
 40
0.6349783114
 40
0.6661258871
 40
0.6971169127
 40
0.7279514223
 40
0.7586328137
 40
0.7891678252
 40
0.8195664354
 40
0.8498416851
 40
0.8800094226
 40
0.9100879711
 40
0.9400977272
 40
0.9700606997
 40
1.0
 40
1.0
 40
1.0
 40
1.0
 10
10.1608454644
 20
8.6047409366
 30
0.0
 10
10.1590057127
 20
8.6048685238
 30
0.0
 10
10.1553250679
 20
8.605259008
 30
0.0
 10
10.1498487415
 20
8.6062425815
 30
0.0
 10
10.1444310494
 20
8.6076203499
 30
0.0
 10
10.1391013052
 20
8.6093847842
 30
0.0
 10
10.1338877791
 20
8.6115265107
 30
0.0
 10
10.1288182956
 20
8.6140340298
 30
0.0
 10
10.1239198574
 20
8.6168939611
 30
0.0
 10
10.1192185668
 20
8.6200910288
 30
0.0
 10
10.1147394739
 20
8.6236081777
 30
0.0
 10
10.1105064459
 20
8.6274266489
 30
0.0
 10
10.106542039
 20
8.6315260822
 30
0.0
 10
10.1028673828
 20
8.6358846266
 30
0.0
 10
10.0995020677
 20
8.6404790547
 30
0.0
 10
10.0964640424
 20
8.6452848852
 30
0.0
 10
10.0937695187
 20
8.650276512
 30
0.0
 10
10.0914328861
 20
8.6554273388
 30
0.0
 10
10.0894666347
 20
8.6607099182
 30
0.0
 10
10.0878812901
 20
8.6660960969
 30
0.0
 10
10.0866853508
 20
8.6715571619
 30
0.0
 10
10.0858852453
 20
8.6770639935
 30
0.0
 10
10.085485298
 20
8.6825872187
 30
0.0
 10
10.0854877045
 20
8.6880973658
 30
0.0
 10
10.0858925168
 20
8.6935650197
 30
0.0
 10
10.0866976407
 20
8.6989609772
 30
0.0
 10
10.0878988429
 20
8.7042564024
 30
0.0
 10
10.089489771
 20
8.7094229808
 30
0.0
 10
10.0914619799
 20
8.71443307
 30
0.0
 10
10.0938049789
 20
8.7192598608
 30
0.0
 10
10.0965062553
 20
8.723877487
 30
0.0
 10
10.0995514695
 20
8.7282612988
 30
0.0
 10
10.1029240438
 20
8.7323875098
 30
0.0
 10
10.1053797147
 20
8.7349529408
 30
0.0
 10
10.1066548071
 20
8.7361845962
 30
0.0
  0
SPLINE
  5
3F4
100
AcDbEntity
  8
0
100
AcDbSpline
 62
7
  6
CONTINUOUS
 70
0
 71
3
 72
42
 73
38
 74
0
 42
0.0000001
 43
0.0000001
 44
0.0000000001
 40
0.0
 40
0.0
 40
0.0
 40
0.0
 40
0.0311444614
 40
0.0467771749
 40
0.0624471243
 40
0.0938918364
 40
0.1254739609
 40
0.1571813407
 40
0.1889991953
 40
0.220910588
 40
0.2528967324
 40
0.2849373871
 40
0.3170112522
 40
0.3490963865
 40
0.3811706317
 40
0.4132120391
 40
0.4451992945
 40
0.4771121343
 40
0.508931746
 40
0.54064115
 40
0.572225553
 40
0.6036726688
 40
0.634972998
 40
0.6661200609
 40
0.6971105755
 40
0.7279445747
 40
0.758625456
 40
0.7891599579
 40
0.8195580604
 40
0.8498328062
 40
0.864931572
 40
0.8800056552
 40
0.9100837089
 40
0.9400929741
 40
0.955081501
 40
0.9700611858
 40
1.0
 40
1.0
 40
1.0
 40
1.0
 10
10.1763003098
 20
9.7434616244
 30
0.0
 10
10.1728094386
 20
9.7437037172
 30
0.0
 10
10.1675770851
 20
9.7442588373
 30
0.0
 10
10.1606489811
 20
9.745374404
 30
0.0
 10
10.1537318774
 20
9.7467439783
 30
0.0
 10
10.1451547803
 20
9.7489251463
 30
0.0
 10
10.1350420487
 20
9.7522730713
 30
0.0
 10
10.1251496452
 20
9.7563368775
 30
0.0
 10
10.1155306104
 20
9.761094775
 30
0.0
 10
10.1062361131
 20
9.7665213495
 30
0.0
 10
10.0973156998
 20
9.7725876243
 30
0.0
 10
10.0888168929
 20
9.7792612303
 30
0.0
 10
10.0807849789
 20
9.7865065744
 30
0.0
 10
10.0732627597
 20
9.7942850281
 30
0.0
 10
10.0662903292
 20
9.8025551318
 30
0.0
 10
10.0599048613
 20
9.811272813
 30
0.0
 10
10.0541404135
 20
9.8203916196
 30
0.0
 10
10.0490277469
 20
9.8298629638
 30
0.0
 10
10.044594163
 20
9.8396363786
 30
0.0
 10
10.0408633589
 20
9.8496597833
 30
0.0
 10
10.0378553005
 20
9.8598797571
 30
0.0
 10
10.0355861154
 20
9.8702418204
 30
0.0
 10
10.0340680055
 20
9.8806907209
 30
0.0
 10
10.0333091789
 20
9.8911707251
 30
0.0
 10
10.0333138018
 20
9.9016259091
 30
0.0
 10
10.0340819762
 20
9.9120004645
 30
0.0
 10
10.0356097141
 20
9.9222389541
 30
0.0
 10
10.0378890267
 20
9.9322867563
 30
0.0
 10
10.0409076832
 20
9.9420898015
 30
0.0
 10
10.0440294762
 20
9.9500198917
 30
0.0
 10
10.0468782788
 20
9.956186761
 30
0.0
 10
10.0499526773
 20
9.9622195461
 30
0.0
 10
10.054221311
 20
9.9695165122
 30
0.0
 10
10.0590389657
 20
9.9764516183
 30
0.0
 10
10.0632021092
 20
9.9817526544
 30
0.0
 10
10.0675638754
 20
9.9868806438
 30
0.0
 10
10.0710583979
 20
9.9905313458
 30
0.0
 10
10.0734778226
 20
9.9928683306
 30
0.0
  0
SPLINE
  5
3F5
100
AcDbEntity
  8
0
100
AcDbSpline
 62
7
  6
CONTINUOUS
 70
0
 71
3
 72
25
 73
21
 74
0
 42
0.0000001
 43
0.0000001
 44
0.0000000001
 40
0.0
 40
0.0
 40
0.0
 40
0.0
 40
0.0639318782
 40
0.0957891639
 40
0.127569697
 40
0.1909016919
 40
0.2539539147
 40
0.3167467991
 40
0.3793065442
 40
0.4416636326
 40
0.5038523929
 40
0.5659100736
 40
0.6278760028
 40
0.6897906911
 40
0.7516949617
 40
0.8136291192
 40
0.8756321833
 40
0.9066759033
 40
0.9377505395
 40
1.0
 40
1.0
 40
1.0
 40
1.0
 10
11.0631876534
 20
9.0550698937
 30
0.0
 10
11.0631876534
 20
9.057768925
 30
0.0
 10
11.0633275685
 20
9.061814772
 30
0.0
 10
11.0637960782
 20
9.0671808049
 30
0.0
 10
11.064449563
 20
9.0725021377
 30
0.0
 10
11.0656133313
 20
9.0790833559
 30
0.0
 10
11.0675602482
 20
9.0868357827
 30
0.0
 10
11.0700453856
 20
9.0943987277
 30
0.0
 10
11.0730551278
 20
9.1017368969
 30
0.0
 10
11.076573263
 20
9.1088168952
 30
0.0
 10
11.080581096
 20
9.1156070342
 30
0.0
 10
11.0850577025
 20
9.1220775905
 30
0.0
 10
11.0899801545
 20
9.1282009014
 30
0.0
 10
11.0953237376
 20
9.1339514399
 30
0.0
 10
11.101062264
 20
9.1393059113
 30
0.0
 10
11.1071679862
 20
9.14424308
 30
0.0
 10
11.1125368006
 20
9.1479928471
 30
0.0
 10
11.1169844151
 20
9.1507653776
 30
0.0
 10
11.1215342849
 20
9.1533872326
 30
0.0
 10
11.1250488839
 20
9.155176787
 30
0.0
 10
11.1274300871
 20
9.1562886668
 30
0.0
  0
SPLINE
  5
3F6
100
AcDbEntity
  8
0
100
AcDbSpline
 62
7
  6
CONTINUOUS
 70
0
 71
3
 72
34
 73
30
 74
0
 42
0.0000001
 43
0.0000001
 44
0.0000000001
 40
0.0
 40
0.0
 40
0.0
 40
0.0
 40
0.0277252243
 40
0.054663855
 40
0.0809915386
 40
0.106915187
 40
0.1326479703
 40
0.1583923404
 40
0.1843262848
 40
0.2105977755
 40
0.2373234209
 40
0.2645899503
 40
0.2924586635
 40
0.3209692831
 40
0.3501436834
 40
0.3799897759
 40
0.4105037433
 40
0.4416726662
 40
0.4734761294
 40
0.5058878656
 40
0.5388763444
 40
0.5724059445
 40
0.6064371198
 40
0.6409272837
 40
0.7111001461
 40
0.7825322831
 40
0.8547978837
 40
0.9274443839
 40
1.0
 40
1.0
 40
1.0
 40
1.0
 10
10.7327208837
 20
8.8086960625
 30
0.0
 10
10.7330009811
 20
8.8075182009
 30
0.0
 10
10.7336623153
 20
8.8052199839
 30
0.0
 10
10.7349729768
 20
8.8019289895
 30
0.0
 10
10.7365706342
 20
8.7988555078
 30
0.0
 10
10.7384360301
 20
8.7959999837
 30
0.0
 10
10.7405491084
 20
8.7933557881
 30
0.0
 10
10.7428901187
 20
8.790911432
 30
0.0
 10
10.745440772
 20
8.7886521657
 30
0.0
 10
10.7481845623
 20
8.7865614901
 30
0.0
 10
10.7511069782
 20
8.7846225454
 30
0.0
 10
10.7541951568
 20
8.7828187421
 30
0.0
 10
10.7574376268
 20
8.7811342142
 30
0.0
 10
10.7608241957
 20
8.7795544029
 30
0.0
 10
10.7643453489
 20
8.7780654238
 30
0.0
 10
10.7679924605
 20
8.7766550219
 30
0.0
 10
10.7717571998
 20
8.775311528
 30
0.0
 10
10.7756317202
 20
8.7740246372
 30
0.0
 10
10.7796083371
 20
8.7727847296
 30
0.0
 10
10.7836795384
 20
8.7715830979
 30
0.0
 10
10.7878379084
 20
8.7704118682
 30
0.0
 10
10.7920759856
 20
8.769263711
 30
0.0
 10
10.7963863267
 20
8.7681321257
 30
0.0
 10
10.802253331
 20
8.7666288339
 30
0.0
 10
10.8097142695
 20
8.7647667997
 30
0.0
 10
10.8187811199
 20
8.7625274119
 30
0.0
 10
10.8279476444
 20
8.7602410129
 30
0.0
 10
10.8371471305
 20
8.7578845962
 30
0.0
 10
10.8432740118
 20
8.7562512236
 30
0.0
 10
10.8463301127
 20
8.7554152919
 30
0.0
  0
SPLINE
  5
3F7
100
AcDbEntity
  8
0
100
AcDbSpline
 62
7
  6
CONTINUOUS
 70
0
 71
3
 72
17
 73
13
 74
0
 42
0.0000001
 43
0.0000001
 44
0.0000000001
 40
0.0
 40
0.0
 40
0.0
 40
0.0
 40
0.0548647235
 40
0.1099333874
 40
0.1654074707
 40
0.2214837756
 40
0.3361456801
 40
0.4553802048
 40
0.5804214439
 40
0.7123204126
 40
0.8519508383
 40
1.0
 40
1.0
 40
1.0
 40
1.0
 10
10.5453518769
 20
10.3755497043
 30
0.0
 10
10.5453518751
 20
10.3761576941
 30
0.0
 10
10.5453904649
 20
10.3773762849
 30
0.0
 10
10.5455639576
 20
10.3792021769
 30
0.0
 10
10.5458530599
 20
10.3810270614
 30
0.0
 10
10.5463963479
 20
10.3834756251
 30
0.0
 10
10.5473751432
 20
10.3865446425
 30
0.0
 10
10.549002412
 20
10.3901822226
 30
0.0
 10
10.5510875046
 20
10.3937995444
 30
0.0
 10
10.553626941
 20
10.3973930555
 30
0.0
 10
10.5566169689
 20
10.4009596603
 30
0.0
 10
10.5588407569
 20
10.4032480492
 30
0.0
 10
10.5600207831
 20
10.404387867
 30
0.0
  0
SPLINE
  5
3F8
100
AcDbEntity
  8
0
100
AcDbSpline
 62
7
  6
CONTINUOUS
 70
0
 71
3
 72
10
 73
6
 74
0
 42
0.0000001
 43
0.0000001
 44
0.0000000001
 40
0.0
 40
0.0
 40
0.0
 40
0.0
 40
0.4723048392
 40
0.728664264
 40
1.0
 40
1.0
 40
1.0
 40
1.0
 10
10.5492630022
 20
10.36059126
 30
0.0
 10
10.5505498851
 20
10.3630453179
 30
0.0
 10
10.552927868
 20
10.3666331555
 30
0.0
 10
10.5567138425
 20
10.3711174259
 30
0.0
 10
10.5588757856
 20
10.3733381824
 30
0.0
 10
10.5600207831
 20
10.3744441651
 30
0.0
  0
SPLINE
  5
3F9
100
AcDbEntity
  8
0
100
AcDbSpline
 62
7
  6
CONTINUOUS
 70
0
 71
3
 72
9
 73
5
 74
0
 42
0.0000001
 43
0.0000001
 44
0.0000000001
 40
0.0
 40
0.0
 40
0.0
 40
0.0
 40
0.505920786
 40
1.0
 40
1.0
 40
1.0
 40
1.0
 10
10.8463301127
 20
8.7554152919
 30
0.0
 10
10.8504045086
 20
8.7543008271
 30
0.0
 10
10.8584391994
 20
8.7520285307
 30
0.0
 10
10.8664213476
 20
8.7495764349
 30
0.0
 10
10.8703474493
 20
8.7483103459
 30
0.0
  0
SPLINE
  5
3FA
100
AcDbEntity
  8
0
100
AcDbSpline
 62
7
  6
CONTINUOUS
 70
0
 71
3
 72
15
 73
11
 74
0
 42
0.0000001
 43
0.0000001
 44
0.0000000001
 40
0.0
 40
0.0
 40
0.0
 40
0.0
 40
0.109476203
 40
0.221323217
 40
0.3367309113
 40
0.4567703747
 40
0.5823787857
 40
0.7143605038
 40
0.853389707
 40
1.0
 40
1.0
 40
1.0
 40
1.0
 10
10.5584785136
 20
10.3482673615
 30
0.0
 10
10.5585807762
 20
10.3493417955
 30
0.0
 10
10.5589124761
 20
10.3515039009
 30
0.0
 10
10.5597763335
 20
10.3547155553
 30
0.0
 10
10.5610081999
 20
10.3579164747
 30
0.0
 10
10.5626057209
 20
10.3611031264
 30
0.0
 10
10.5645665486
 20
10.3642731054
 30
0.0
 10
10.5668883115
 20
10.3674241394
 30
0.0
 10
10.5695684142
 20
10.3705537525
 30
0.0
 10
10.5715382217
 20
10.3725691572
 30
0.0
 10
10.5725778196
 20
10.3735733317
 30
0.0
  0
SPLINE
  5
3FB
100
AcDbEntity
  8
0
100
AcDbSpline
 62
7
  6
CONTINUOUS
 70
0
 71
3
 72
42
 73
38
 74
0
 42
0.0000001
 43
0.0000001
 44
0.0000000001
 40
0.0
 40
0.0
 40
0.0
 40
0.0
 40
0.0311444614
 40
0.0467771749
 40
0.0624471243
 40
0.0938918364
 40
0.1254739609
 40
0.1571813407
 40
0.1889991953
 40
0.220910588
 40
0.2528967324
 40
0.2849373871
 40
0.3170112522
 40
0.3490963865
 40
0.3811706317
 40
0.4132120391
 40
0.4451992945
 40
0.4771121343
 40
0.508931746
 40
0.54064115
 40
0.572225553
 40
0.6036726688
 40
0.634972998
 40
0.6661200609
 40
0.6971105755
 40
0.7279445747
 40
0.758625456
 40
0.7891599579
 40
0.8195580604
 40
0.8498328062
 40
0.864931572
 40
0.8800056552
 40
0.9100837089
 40
0.9400929741
 40
0.955081501
 40
0.9700611858
 40
1.0
 40
1.0
 40
1.0
 40
1.0
 10
11.3837076643
 20
9.65972764
 30
0.0
 10
11.380216793
 20
9.6599697327
 30
0.0
 10
11.3749844395
 20
9.6605248529
 30
0.0
 10
11.3680563355
 20
9.6616404196
 30
0.0
 10
11.3611392318
 20
9.6630099939
 30
0.0
 10
11.3525621347
 20
9.6651911618
 30
0.0
 10
11.3424494031
 20
9.6685390868
 30
0.0
 10
11.3325569996
 20
9.6726028931
 30
0.0
 10
11.3229379648
 20
9.6773607906
 30
0.0
 10
11.3136434675
 20
9.6827873651
 30
0.0
 10
11.3047230542
 20
9.6888536398
 30
0.0
 10
11.2962242473
 20
9.6955272459
 30
0.0
 10
11.2881923333
 20
9.70277259
 30
0.0
 10
11.2806701141
 20
9.7105510437
 30
0.0
 10
11.2736976836
 20
9.7188211473
 30
0.0
 10
11.2673122157
 20
9.7275388286
 30
0.0
 10
11.2615477679
 20
9.7366576351
 30
0.0
 10
11.2564351013
 20
9.7461289793
 30
0.0
 10
11.2520015174
 20
9.7559023942
 30
0.0
 10
11.2482707133
 20
9.7659257989
 30
0.0
 10
11.2452626549
 20
9.7761457727
 30
0.0
 10
11.2429934698
 20
9.786507836
 30
0.0
 10
11.2414753599
 20
9.7969567364
 30
0.0
 10
11.2407165333
 20
9.8074367406
 30
0.0
 10
11.2407211562
 20
9.8178919246
 30
0.0
 10
11.2414893306
 20
9.8282664801
 30
0.0
 10
11.2430170685
 20
9.8385049697
 30
0.0
 10
11.2452963811
 20
9.8485527719
 30
0.0
 10
11.2483150376
 20
9.858355817
 30
0.0
 10
11.2514368306
 20
9.8662859073
 30
0.0
 10
11.2542856332
 20
9.8724527765
 30
0.0
 10
11.2573600317
 20
9.8784855617
 30
0.0
 10
11.2616286654
 20
9.8857825278
 30
0.0
 10
11.2664463201
 20
9.8927176338
 30
0.0
 10
11.2706094636
 20
9.89801867
 30
0.0
 10
11.2749712298
 20
9.9031466594
 30
0.0
 10
11.2784657523
 20
9.9067973614
 30
0.0
 10
11.280885177
 20
9.9091343462
 30
0.0
  0
SPLINE
  5
3FC
100
AcDbEntity
  8
0
100
AcDbSpline
 62
7
  6
CONTINUOUS
 70
0
 71
3
 72
14
 73
10
 74
0
 42
0.0000001
 43
0.0000001
 44
0.0000000001
 40
0.0
 40
0.0
 40
0.0
 40
0.0
 40
0.111169116
 40
0.2255048494
 40
0.4653226804
 40
0.591679901
 40
0.722739346
 40
0.8587705819
 40
1.0
 40
1.0
 40
1.0
 40
1.0
 10
10.5706740374
 20
10.3379960252
 30
0.0
 10
10.5709453571
 20
10.3387356374
 30
0.0
 10
10.5715505394
 20
10.3402164074
 30
0.0
 10
10.5730038829
 20
10.3431785521
 30
0.0
 10
10.5748003062
 20
10.3460830135
 30
0.0
 10
10.5768956315
 20
10.3489172559
 30
0.0
 10
10.578668721
 20
10.3510707826
 30
0.0
 10
10.5806147003
 20
10.3532135834
 30
0.0
 10
10.5820001884
 20
10.3546077982
 30
0.0
 10
10.5827200413
 20
10.3553031228
 30
0.0
  0
SPLINE
  5
3FD
100
AcDbEntity
  8
0
100
AcDbSpline
 62
7
  6
CONTINUOUS
 70
0
 71
3
 72
11
 73
7
 74
0
 42
0.0000001
 43
0.0000001
 44
0.0000000001
 40
0.0
 40
0.0
 40
0.0
 40
0.0
 40
0.2483618216
 40
0.4977932296
 40
0.7483374416
 40
1.0
 40
1.0
 40
1.0
 40
1.0
 10
10.420417504
 20
9.2109176045
 30
0.0
 10
10.4177447932
 20
9.2103955959
 30
0.0
 10
10.4123510993
 20
9.2095287461
 30
0.0
 10
10.4041756865
 20
9.2087650943
 30
0.0
 10
10.3959317343
 20
9.2085371981
 30
0.0
 10
10.3904244755
 20
9.2087417414
 30
0.0
 10
10.3876717069
 20
9.2089329616
 30
0.0
  0
SPLINE
  5
3FE
100
AcDbEntity
  8
0
100
AcDbSpline
 62
7
  6
CONTINUOUS
 70
0
 71
3
 72
33
 73
29
 74
0
 42
0.0000001
 43
0.0000001
 44
0.0000000001
 40
0.0
 40
0.0
 40
0.0
 40
0.0
 40
0.0165871243
 40
0.0341537416
 40
0.052730305
 40
0.0723386827
 40
0.0929933571
 40
0.1147027941
 40
0.1374699616
 40
0.1612934883
 40
0.1861678255
 40
0.212084099
 40
0.2390302439
 40
0.2669914567
 40
0.2959504928
 40
0.3258877313
 40
0.3567816543
 40
0.3886086532
 40
0.421343566
 40
0.4549594399
 40
0.4894279437
 40
0.5247192765
 40
0.5976434849
 40
0.6734707091
 40
0.7519208962
 40
0.8326994995
 40
0.9154982536
 40
1.0
 40
1.0
 40
1.0
 40
1.0
 10
10.0968392063
 20
7.0324031881
 30
0.0
 10
10.0979573674
 20
7.0313626279
 30
0.0
 10
10.1003290199
 20
7.0292936936
 30
0.0
 10
10.1041615117
 20
7.0263087634
 30
0.0
 10
10.1083650037
 20
7.0233579231
 30
0.0
 10
10.1129350516
 20
7.0204442437
 30
0.0
 10
10.1178670482
 20
7.0175705283
 30
0.0
 10
10.1231559584
 20
7.0147397539
 30
0.0
 10
10.1287963334
 20
7.0119547592
 30
0.0
 10
10.1347823712
 20
7.0092184828
 30
0.0
 10
10.141107859
 20
7.0065337252
 30
0.0
 10
10.1477662349
 20
7.0039033264
 30
0.0
 10
10.1547505616
 20
7.0013300298
 30
0.0
 10
10.1620535525
 20
6.9988165371
 30
0.0
 10
10.1696675795
 20
6.9963655132
 30
0.0
 10
10.1775846729
 20
6.9939795074
 30
0.0
 10
10.1857965471
 20
6.9916610767
 30
0.0
 10
10.1942945919
 20
6.9894126217
 30
0.0
 10
10.2030699002
 20
6.9872365545
 30
0.0
 10
10.212113261
 20
6.9851351422
 30
0.0
 10
10.2214151951
 20
6.9831106051
 30
0.0
 10
10.2342902427
 20
6.980487976
 30
0.0
 10
10.2509609263
 20
6.9774261375
 30
0.0
 10
10.2716231857
 20
6.9741290631
 30
0.0
 10
10.2930687987
 20
6.9711842738
 30
0.0
 10
10.3152076613
 20
6.9686042818
 30
0.0
 10
10.3379468514
 20
6.9664000359
 30
0.0
 10
10.3533068231
 20
6.9651979455
 30
0.0
 10
10.3610695575
 20
6.964659598
 30
0.0
  0
SPLINE
  5
3FF
100
AcDbEntity
  8
0
100
AcDbSpline
 62
4
  6
CONTINUOUS
 70
0
 71
3
 72
351
 73
347
 74
0
 42
0.0000001
 43
0.0000001
 44
0.0000000001
 40
0.0
 40
0.0
 40
0.0
 40
0.0
 40
0.015625
 40
0.0234375
 40
0.03125
 40
0.0390625
 40
0.04296875
 40
0.046875
 40
0.05078125
 40
0.0546875
 40
0.056640625
 40
0.05859375
 40
0.0595703125
 40
0.060546875
 40
0.0615234375
 40
0.0620117188
 40
0.0622558594
 40
0.0625
 40
0.0627441406
 40
0.0629882812
 40
0.0634765625
 40
0.064453125
 40
0.0654296875
 40
0.06640625
 40
0.068359375
 40
0.0703125
 40
0.07421875
 40
0.078125
 40
0.08203125
 40
0.0859375
 40
0.09375
 40
0.1015625
 40
0.10546875
 40
0.109375
 40
0.11328125
 40
0.1171875
 40
0.119140625
 40
0.12109375
 40
0.1220703125
 40
0.123046875
 40
0.1240234375
 40
0.1245117188
 40
0.1247558594
 40
0.125
 40
0.1252441406
 40
0.1254882812
 40
0.1259765625
 40
0.126953125
 40
0.1279296875
 40
0.12890625
 40
0.130859375
 40
0.1328125
 40
0.13671875
 40
0.140625
 40
0.14453125
 40
0.1484375
 40
0.15625
 40
0.1640625
 40
0.16796875
 40
0.171875
 40
0.17578125
 40
0.1796875
 40
0.181640625
 40
0.18359375
 40
0.1845703125
 40
0.185546875
 40
0.1865234375
 40
0.1870117188
 40
0.1872558594
 40
0.1875
 40
0.1877441406
 40
0.1879882812
 40
0.1884765625
 40
0.189453125
 40
0.1904296875
 40
0.19140625
 40
0.193359375
 40
0.1953125
 40
0.19921875
 40
0.203125
 40
0.20703125
 40
0.2109375
 40
0.21875
 40
0.2265625
 40
0.234375
 40
0.23828125
 40
0.2421875
 40
0.244140625
 40
0.24609375
 40
0.248046875
 40
0.2490234375
 40
0.2495117188
 40
0.25
 40
0.2504882812
 40
0.2509765625
 40
0.251953125
 40
0.25390625
 40
0.255859375
 40
0.2578125
 40
0.26171875
 40
0.265625
 40
0.2734375
 40
0.28125
 40
0.2890625
 40
0.296875
 40
0.30078125
 40
0.3046875
 40
0.306640625
 40
0.30859375
 40
0.310546875
 40
0.3115234375
 40
0.3120117188
 40
0.3125
 40
0.3129882812
 40
0.3134765625
 40
0.314453125
 40
0.31640625
 40
0.318359375
 40
0.3203125
 40
0.32421875
 40
0.328125
 40
0.3359375
 40
0.34375
 40
0.3515625
 40
0.359375
 40
0.36328125
 40
0.3671875
 40
0.37109375
 40
0.373046875
 40
0.3740234375
 40
0.375
 40
0.3759765625
 40
0.376953125
 40
0.37890625
 40
0.3828125
 40
0.38671875
 40
0.390625
 40
0.3984375
 40
0.40625
 40
0.4140625
 40
0.421875
 40
0.42578125
 40
0.4296875
 40
0.43359375
 40
0.435546875
 40
0.4365234375
 40
0.4375
 40
0.4384765625
 40
0.439453125
 40
0.44140625
 40
0.4453125
 40
0.44921875
 40
0.453125
 40
0.4609375
 40
0.46875
 40
0.4765625
 40
0.484375
 40
0.48828125
 40
0.4921875
 40
0.494140625
 40
0.49609375
 40
0.498046875
 40
0.4990234375
 40
0.4995117188
 40
0.5
 40
0.5004882812
 40
0.5009765625
 40
0.501953125
 40
0.50390625
 40
0.505859375
 40
0.5078125
 40
0.51171875
 40
0.515625
 40
0.5234375
 40
0.53125
 40
0.5390625
 40
0.546875
 40
0.55078125
 40
0.5546875
 40
0.556640625
 40
0.55859375
 40
0.560546875
 40
0.5615234375
 40
0.5620117188
 40
0.5625
 40
0.5629882812
 40
0.5634765625
 40
0.564453125
 40
0.56640625
 40
0.568359375
 40
0.5703125
 40
0.57421875
 40
0.578125
 40
0.5859375
 40
0.59375
 40
0.6015625
 40
0.609375
 40
0.61328125
 40
0.6171875
 40
0.619140625
 40
0.62109375
 40
0.623046875
 40
0.6240234375
 40
0.6245117188
 40
0.625
 40
0.6254882812
 40
0.6259765625
 40
0.626953125
 40
0.62890625
 40
0.630859375
 40
0.6328125
 40
0.63671875
 40
0.640625
 40
0.6484375
 40
0.65625
 40
0.6640625
 40
0.66796875
 40
0.671875
 40
0.67578125
 40
0.6796875
 40
0.681640625
 40
0.68359375
 40
0.6845703125
 40
0.685546875
 40
0.6865234375
 40
0.6870117188
 40
0.6875
 40
0.6879882812
 40
0.6884765625
 40
0.689453125
 40
0.6904296875
 40
0.69140625
 40
0.693359375
 40
0.6953125
 40
0.69921875
 40
0.703125
 40
0.70703125
 40
0.7109375
 40
0.71875
 40
0.7265625
 40
0.73046875
 40
0.734375
 40
0.73828125
 40
0.7421875
 40
0.744140625
 40
0.74609375
 40
0.7470703125
 40
0.748046875
 40
0.7490234375
 40
0.7495117188
 40
0.7497558594
 40
0.75
 40
0.7502441406
 40
0.7504882812
 40
0.7509765625
 40
0.751953125
 40
0.7529296875
 40
0.75390625
 40
0.755859375
 40
0.7578125
 40
0.76171875
 40
0.765625
 40
0.76953125
 40
0.7734375
 40
0.78125
 40
0.7890625
 40
0.79296875
 40
0.796875
 40
0.80078125
 40
0.8046875
 40
0.806640625
 40
0.80859375
 40
0.8095703125
 40
0.810546875
 40
0.8115234375
 40
0.8120117188
 40
0.8122558594
 40
0.8125
 40
0.8127441406
 40
0.8129882812
 40
0.8134765625
 40
0.814453125
 40
0.8154296875
 40
0.81640625
 40
0.818359375
 40
0.8203125
 40
0.82421875
 40
0.828125
 40
0.83203125
 40
0.8359375
 40
0.84375
 40
0.8515625
 40
0.85546875
 40
0.859375
 40
0.86328125
 40
0.8671875
 40
0.869140625
 40
0.87109375
 40
0.8720703125
 40
0.873046875
 40
0.8740234375
 40
0.8745117188
 40
0.8747558594
 40
0.875
 40
0.8752441406
 40
0.8754882812
 40
0.8759765625
 40
0.876953125
 40
0.8779296875
 40
0.87890625
 40
0.880859375
 40
0.8828125
 40
0.88671875
 40
0.890625
 40
0.89453125
 40
0.8984375
 40
0.90625
 40
0.9140625
 40
0.91796875
 40
0.921875
 40
0.92578125
 40
0.9296875
 40
0.931640625
 40
0.93359375
 40
0.9345703125
 40
0.935546875
 40
0.9365234375
 40
0.9370117188
 40
0.9372558594
 40
0.9375
 40
0.9377441406
 40
0.9379882812
 40
0.9384765625
 40
0.939453125
 40
0.9404296875
 40
0.94140625
 40
0.943359375
 40
0.9453125
 40
0.94921875
 40
0.953125
 40
0.95703125
 40
0.9609375
 40
0.96875
 40
0.9765625
 40
0.984375
 40
1.0
 40
1.0
 40
1.0
 40
1.0
 10
11.7416576062
 20
8.509629572
 30
0.0
 10
11.7424971404
 20
8.5107477114
 30
0.0
 10
11.7437564416
 20
8.5124249206
 30
0.0
 10
11.74543551
 20
8.5146611994
 30
0.0
 10
11.7466948112
 20
8.5163384086
 30
0.0
 10
11.7477442289
 20
8.5177360828
 30
0.0
 10
11.748583763
 20
8.5188542225
 30
0.0
 10
11.7492134137
 20
8.5196928262
 30
0.0
 10
11.7498430641
 20
8.5205314343
 30
0.0
 10
11.7503677736
 20
8.5212302605
 30
0.0
 10
11.7507875394
 20
8.5217893524
 30
0.0
 10
11.751049897
 20
8.5221387146
 30
0.0
 10
11.7512597741
 20
8.5224183653
 30
0.0
 10
11.7514172065
 20
8.5226276626
 30
0.0
 10
11.7515483218
 20
8.5228034789
 30
0.0
 10
11.7516402564
 20
8.5229237991
 30
0.0
 10
11.7516925502
 20
8.5229968494
 30
0.0
 10
11.7517324473
 20
8.5230395356
 30
0.0
 10
11.7517697576
 20
8.5231284796
 30
0.0
 10
11.751820407
 20
8.5232309364
 30
0.0
 10
11.7519086229
 20
8.5234177536
 30
0.0
 10
11.7520348656
 20
8.5236807048
 30
0.0
 10
11.7521862626
 20
8.5239979286
 30
0.0
 10
11.7523881582
 20
8.5244203061
 30
0.0
 10
11.7526405165
 20
8.5249484791
 30
0.0
 10
11.753044296
 20
8.5257934436
 30
0.0
 10
11.7535490183
 20
8.5268496877
 30
0.0
 10
11.7541546859
 20
8.5281171641
 30
0.0
 10
11.7547603533
 20
8.5293846449
 30
0.0
 10
11.7555679099
 20
8.5310746177
 30
0.0
 10
11.7565773556
 20
8.5331870844
 30
0.0
 10
11.7575868013
 20
8.5352995507
 30
0.0
 10
11.7583943578
 20
8.5369895242
 30
0.0
 10
11.7590000253
 20
8.5382570032
 30
0.0
 10
11.7596056924
 20
8.5395244862
 30
0.0
 10
11.7601104164
 20
8.5405807098
 30
0.0
 10
11.7605141923
 20
8.5414257161
 30
0.0
 10
11.7607665599
 20
8.5419537826
 30
0.0
 10
11.7609684363
 20
8.5423763787
 30
0.0
 10
11.761119892
 20
8.5426929347
 30
0.0
 10
11.7612459513
 20
8.5429579754
 30
0.0
 10
11.7613344946
 20
8.5431410624
 30
0.0
 10
11.7613846195
 20
8.5432494958
 30
0.0
 10
11.7614235408
 20
8.5433200817
 30
0.0
 10
11.7614573871
 20
8.5434317181
 30
0.0
 10
11.7615042857
 20
8.5435662478
 30
0.0
 10
11.7615855335
 20
8.5438083463
 30
0.0
 10
11.761702033
 20
8.5441507133
 30
0.0
 10
11.7618416478
 20
8.5445630466
 30
0.0
 10
11.7620278654
 20
8.5451123029
 30
0.0
 10
11.7622606152
 20
8.5457990518
 30
0.0
 10
11.7626330274
 20
8.5468977503
 30
0.0
 10
11.7630985383
 20
8.5482711577
 30
0.0
 10
11.7636571532
 20
8.5499192319
 30
0.0
 10
11.7642157677
 20
8.55156731
 30
0.0
 10
11.7649605871
 20
8.5537647461
 30
0.0
 10
11.7658916113
 20
8.5565115417
 30
0.0
 10
11.7668226356
 20
8.559258337
 30
0.0
 10
11.7675674549
 20
8.5614557737
 30
0.0
 10
11.7681260696
 20
8.5631038502
 30
0.0
 10
11.7686846837
 20
8.5647519304
 30
0.0
 10
11.7691501973
 20
8.5661253191
 30
0.0
 10
11.7695226039
 20
8.5672240556
 30
0.0
 10
11.7697553679
 20
8.5679107078
 30
0.0
 10
11.7699415564
 20
8.5684601628
 30
0.0
 10
11.7700812598
 20
8.5688718889
 30
0.0
 10
11.7701974822
 20
8.5692161557
 30
0.0
 10
11.7702792247
 20
8.5694548627
 30
0.0
 10
11.7703253306
 20
8.5695948263
 30
0.0
 10
11.7703616119
 20
8.5696897716
 30
0.0
 10
11.7703913877
 20
8.5698230469
 30
0.0
 10
11.770433358
 20
8.5699873773
 30
0.0
 10
11.7705057488
 20
8.570281185
 30
0.0
 10
11.7706097169
 20
8.5706976534
 30
0.0
 10
11.770734242
 20
8.5711988095
 30
0.0
 10
11.7709003582
 20
8.5718665307
 30
0.0
 10
11.771107975
 20
8.572701349
 30
0.0
 10
11.7714401779
 20
8.5740369651
 30
0.0
 10
11.771855426
 20
8.5757065171
 30
0.0
 10
11.772353726
 20
8.5777099658
 30
0.0
 10
11.7728520254
 20
8.5797134182
 30
0.0
 10
11.7735164248
 20
8.5823846869
 30
0.0
 10
11.7743469245
 20
8.5857237722
 30
0.0
 10
11.775343522
 20
8.5897306789
 30
0.0
 10
11.7761740262
 20
8.5930697544
 30
0.0
 10
11.7768384156
 20
8.5957410448
 30
0.0
 10
11.7772536907
 20
8.5974105328
 30
0.0
 10
11.7775858381
 20
8.5987462801
 30
0.0
 10
11.7778351475
 20
8.5997476611
 30
0.0
 10
11.778042273
 20
8.6005835115
 30
0.0
 10
11.7781885018
 20
8.6011659255
 30
0.0
 10
11.7782701234
 20
8.6015029202
 30
0.0
 10
11.7783367981
 20
8.6017438723
 30
0.0
 10
11.7783826077
 20
8.6020299064
 30
0.0
 10
11.7784509652
 20
8.6023955602
 30
0.0
 10
11.7785671998
 20
8.6030427808
 30
0.0
 10
11.7787350221
 20
8.6039635513
 30
0.0
 10
11.77893565
 20
8.6050701154
 30
0.0
 10
11.7792034189
 20
8.6065449616
 30
0.0
 10
11.7795380393
 20
8.6083887154
 30
0.0
 10
11.7800734827
 20
8.6113386119
 30
0.0
 10
11.7807427694
 20
8.6150260203
 30
0.0
 10
11.7815459214
 20
8.6194508934
 30
0.0
 10
11.7823490694
 20
8.623875774
 30
0.0
 10
11.7830183664
 20
8.6275631635
 30
0.0
 10
11.7835537891
 20
8.6305130978
 30
0.0
 10
11.783888462
 20
8.6323567553
 30
0.0
 10
11.7841561232
 20
8.6338317993
 30
0.0
 10
11.78435708
 20
8.6349377591
 30
0.0
 10
11.7845238732
 20
8.6358604203
 30
0.0
 10
11.7846419449
 20
8.6365042657
 30
0.0
 10
11.784707359
 20
8.6368753274
 30
0.0
 10
11.7847622099
 20
8.63714475
 30
0.0
 10
11.7847949269
 20
8.6374480921
 30
0.0
 10
11.7848462702
 20
8.6378407167
 30
0.0
 10
11.7849325238
 20
8.6385333224
 30
0.0
 10
11.7850576238
 20
8.6395198769
 30
0.0
 10
11.7852069389
 20
8.640704976
 30
0.0
 10
11.7854063068
 20
8.6422846773
 30
0.0
 10
11.7856554204
 20
8.6442594514
 30
0.0
 10
11.7860540561
 20
8.6474190074
 30
0.0
 10
11.7865523309
 20
8.6513684816
 30
0.0
 10
11.7871502753
 20
8.6561078345
 30
0.0
 10
11.7877481929
 20
8.6608472051
 30
0.0
 10
11.7882465346
 20
8.6647966349
 30
0.0
 10
11.7886450364
 20
8.6679562797
 30
0.0
 10
11.7889443814
 20
8.6703257379
 30
0.0
 10
11.789192345
 20
8.6723011622
 30
0.0
 10
11.7893688446
 20
8.6736822406
 30
0.0
 10
11.7894651342
 20
8.6744741118
 30
0.0
 10
11.7895502175
 20
8.6750604554
 30
0.0
 10
11.7895861201
 20
8.6756756965
 30
0.0
 10
11.789651145
 20
8.6764859382
 30
0.0
 10
11.7897569458
 20
8.6779085576
 30
0.0
 10
11.7899122685
 20
8.6799384157
 30
0.0
 10
11.7900968671
 20
8.6823752964
 30
0.0
 10
11.7903436236
 20
8.6856241035
 30
0.0
 10
11.7906518533
 20
8.6896852385
 30
0.0
 10
11.7910218279
 20
8.6945585456
 30
0.0
 10
11.7913917517
 20
8.6994318707
 30
0.0
 10
11.7917001085
 20
8.7034929606
 30
0.0
 10
11.7919466107
 20
8.7067418579
 30
0.0
 10
11.792131985
 20
8.7091784633
 30
0.0
 10
11.7922848811
 20
8.7112091825
 30
0.0
 10
11.7923950137
 20
8.7126302647
 30
0.0
 10
11.7924530979
 20
8.7134429695
 30
0.0
 10
11.7925103201
 20
8.7140506449
 30
0.0
 10
11.7925153304
 20
8.7146654039
 30
0.0
 10
11.7925402228
 20
8.7154826117
 30
0.0
 10
11.7925752993
 20
8.7169138766
 30
0.0
 10
11.7926298447
 20
8.7189579388
 30
0.0
 10
11.7926934004
 20
8.7214110711
 30
0.0
 10
11.7927788046
 20
8.7246818242
 30
0.0
 10
11.792885332
 20
8.7287702962
 30
0.0
 10
11.7930132633
 20
8.7336764503
 30
0.0
 10
11.7931411658
 20
8.7385826046
 30
0.0
 10
11.7932477653
 20
8.7426710762
 30
0.0
 10
11.7933330255
 20
8.7459418302
 30
0.0
 10
11.7933863545
 20
8.7479861048
 30
0.0
 10
11.7934289233
 20
8.7496214023
 30
0.0
 10
11.7934611082
 20
8.75084821
 30
0.0
 10
11.7934871072
 20
8.7518694853
 30
0.0
 10
11.7935069192
 20
8.752586467
 30
0.0
 10
11.7935157223
 20
8.752992909
 30
0.0
 10
11.7935294179
 20
8.7533069291
 30
0.0
 10
11.7935159995
 20
8.7535858258
 30
0.0
 10
11.7935075659
 20
8.7539699394
 30
0.0
 10
11.7934884006
 20
8.7546364302
 30
0.0
 10
11.7934633255
 20
8.7555915442
 30
0.0
 10
11.7934322492
 20
8.7567364035
 30
0.0
 10
11.7933911585
 20
8.7582633288
 30
0.0
 10
11.7933396773
 20
8.7601718327
 30
0.0
 10
11.7932573733
 20
8.7632255243
 30
0.0
 10
11.7931544705
 20
8.7670426093
 30
0.0
 10
11.7930309975
 20
8.771623125
 30
0.0
 10
11.7929075194
 20
8.776203633
 30
0.0
 10
11.7928046294
 20
8.7800207371
 30
0.0
 10
11.7927222998
 20
8.7830743905
 30
0.0
 10
11.7926708835
 20
8.7849829916
 30
0.0
 10
11.7926296596
 20
8.7865097174
 30
0.0
 10
11.7925989905
 20
8.7876551862
 30
0.0
 10
11.7925726411
 20
8.7886083935
 30
0.0
 10
11.7925557506
 20
8.789278288
 30
0.0
 10
11.7925436724
 20
8.789656948
 30
0.0
 10
11.7925414491
 20
8.7899525966
 30
0.0
 10
11.7925130974
 20
8.7902036991
 30
0.0
 10
11.792484409
 20
8.7905540405
 30
0.0
 10
11.7924299581
 20
8.7911598986
 30
0.0
 10
11.792354391
 20
8.7920291949
 30
0.0
 10
11.7922627602
 20
8.7930707305
 30
0.0
 10
11.7921409178
 20
8.7944600105
 30
0.0
 10
11.7919885011
 20
8.7961964167
 30
0.0
 10
11.7917446979
 20
8.798974775
 30
0.0
 10
11.791439922
 20
8.8024476854
 30
0.0
 10
11.791074201
 20
8.8066151954
 30
0.0
 10
11.790708475
 20
8.8107826952
 30
0.0
 10
11.7904037113
 20
8.814255631
 30
0.0
 10
11.7901598838
 20
8.8170339383
 30
0.0
 10
11.790007529
 20
8.8187704741
 30
0.0
 10
11.7898855595
 20
8.8201594882
 30
0.0
 10
11.789794317
 20
8.8212018362
 30
0.0
 10
11.7897175352
 20
8.8220685906
 30
0.0
 10
11.7896652526
 20
8.8226789865
 30
0.0
 10
11.7896330899
 20
8.8230220572
 30
0.0
 10
11.7896154103
 20
8.823295493
 30
0.0
 10
11.7895731046
 20
8.8235072613
 30
0.0
 10
11.7895252869
 20
8.8238111293
 30
0.0
 10
11.7894376038
 20
8.8243328762
 30
0.0
 10
11.7893144346
 20
8.8250834687
 30
0.0
 10
11.7891657359
 20
8.8259819369
 30
0.0
 10
11.7889677838
 20
8.8271806778
 30
0.0
 10
11.7887202366
 20
8.8286788358
 30
0.0
 10
11.7883242209
 20
8.8310760384
 30
0.0
 10
11.7878291807
 20
8.8340724902
 30
0.0
 10
11.7872351414
 20
8.8376682546
 30
0.0
 10
11.7867401065
 20
8.8406647194
 30
0.0
 10
11.7863440793
 20
8.8430618933
 30
0.0
 10
11.7860470579
 20
8.8448597711
 30
0.0
 10
11.7857500399
 20
8.8466576585
 30
0.0
 10
11.7855025148
 20
8.8481558679
 30
0.0
 10
11.7853045172
 20
8.8493545029
 30
0.0
 10
11.7851807174
 20
8.8501034962
 30
0.0
 10
11.785081795
 20
8.8507030425
 30
0.0
 10
11.7850072818
 20
8.8511517392
 30
0.0
 10
11.7849462098
 20
8.8515287168
 30
0.0
 10
11.7848950594
 20
8.8518234276
 30
0.0
 10
11.7848629616
 20
8.8520632364
 30
0.0
 10
11.7848069501
 20
8.8522313782
 30
0.0
 10
11.7847406215
 20
8.8524806015
 30
0.0
 10
11.7846548448
 20
8.8527835415
 30
0.0
 10
11.7845531395
 20
8.8531507459
 30
0.0
 10
11.7844171038
 20
8.8536390677
 30
0.0
 10
11.784247206
 20
8.8542499096
 30
0.0
 10
11.7839752876
 20
8.855227011
 30
0.0
 10
11.7836354176
 20
8.856448472
 30
0.0
 10
11.7832275616
 20
8.857914189
 30
0.0
 10
11.7828197088
 20
8.8593799158
 30
0.0
 10
11.782275904
 20
8.8613342147
 30
0.0
 10
11.7815961483
 20
8.8637770895
 30
0.0
 10
11.7809163925
 20
8.866219964
 30
0.0
 10
11.7803725879
 20
8.8681742633
 30
0.0
 10
11.7799647346
 20
8.869639989
 30
0.0
 10
11.7795568805
 20
8.8711057101
 30
0.0
 10
11.7792170046
 20
8.8723271585
 30
0.0
 10
11.7789450981
 20
8.8733042856
 30
0.0
 10
11.7787751699
 20
8.873915062
 30
0.0
 10
11.7786391968
 20
8.8744035183
 30
0.0
 10
11.7785373003
 20
8.8747703118
 30
0.0
 10
11.7784521217
 20
8.8750745373
 30
0.0
 10
11.7783930164
 20
8.8752903129
 30
0.0
 10
11.7783584304
 20
8.8754092135
 30
0.0
 10
11.7783347773
 20
8.8755107832
 30
0.0
 10
11.7783023842
 20
8.8755649758
 30
0.0
 10
11.778262242
 20
8.8756537584
 30
0.0
 10
11.7781905728
 20
8.8758014282
 30
0.0
 10
11.7780889309
 20
8.8760164105
 30
0.0
 10
11.7779666426
 20
8.8762726662
 30
0.0
 10
11.7778037027
 20
8.8766149424
 30
0.0
 10
11.7775999898
 20
8.8770425815
 30
0.0
 10
11.7772740704
 20
8.8777269193
 30
0.0
 10
11.7768666638
 20
8.878582302
 30
0.0
 10
11.776377779
 20
8.8796087782
 30
0.0
 10
11.7758888934
 20
8.8806352499
 30
0.0
 10
11.7752370462
 20
8.8820038803
 30
0.0
 10
11.7744222371
 20
8.8837146678
 30
0.0
 10
11.7736074281
 20
8.8854254557
 30
0.0
 10
11.7729555808
 20
8.8867940855
 30
0.0
 10
11.7724666956
 20
8.8878205591
 30
0.0
 10
11.7719778096
 20
8.888847028
 30
0.0
 10
11.7715704068
 20
8.8897024333
 30
0.0
 10
11.7712444796
 20
8.8903867251
 30
0.0
 10
11.7710407864
 20
8.8908144811
 30
0.0
 10
11.770877806
 20
8.8911565174
 30
0.0
 10
11.7707556413
 20
8.8914135062
 30
0.0
 10
11.7706536129
 20
8.8916261949
 30
0.0
 10
11.7705826336
 20
8.8917779591
 30
0.0
 10
11.770541386
 20
8.8918601814
 30
0.0
 10
11.7705123885
 20
8.8919345252
 30
0.0
 10
11.7704759823
 20
8.8919604104
 30
0.0
 10
11.7704300249
 20
8.8920118269
 30
0.0
 10
11.7703483955
 20
8.8920939304
 30
0.0
 10
11.7702324115
 20
8.8922153385
 30
0.0
 10
11.7700929612
 20
8.8923592658
 30
0.0
 10
11.7699071216
 20
8.8925517845
 30
0.0
 10
11.76967479
 20
8.8927922221
 30
0.0
 10
11.7693030773
 20
8.89317704
 30
0.0
 10
11.7688384302
 20
8.8936580219
 30
0.0
 10
11.7682808565
 20
8.8942352176
 30
0.0
 10
11.767723282
 20
8.8948124087
 30
0.0
 10
11.7669798496
 20
8.8955819984
 30
0.0
 10
11.766050559
 20
8.8965439849
 30
0.0
 10
11.7651212684
 20
8.8975059718
 30
0.0
 10
11.7643778359
 20
8.8982755608
 30
0.0
 10
11.7638202617
 20
8.8988527539
 30
0.0
 10
11.7632626869
 20
8.8994299421
 30
0.0
 10
11.7627980428
 20
8.8999109474
 30
0.0
 10
11.7624263242
 20
8.9002957177
 30
0.0
 10
11.7621940078
 20
8.9005362764
 30
0.0
 10
11.7620081368
 20
8.9007285464
 30
0.0
 10
11.7618687824
 20
8.9008732333
 30
0.0
 10
11.7617524986
 20
8.9009922651
 30
0.0
 10
11.7616714043
 20
8.9010786106
 30
0.0
 10
11.7616245894
 20
8.9011232304
 30
0.0
 10
11.7615908172
 20
8.9011699928
 30
0.0
 10
11.761551927
 20
8.9011659253
 30
0.0
 10
11.7615018585
 20
8.901178232
 30
0.0
 10
11.761413407
 20
8.901191508
 30
0.0
 10
11.7612874825
 20
8.9012147925
 30
0.0
 10
11.761136187
 20
8.9012408852
 30
0.0
 10
11.7609345247
 20
8.9012763213
 30
0.0
 10
11.7606824245
 20
8.9013203953
 30
0.0
 10
11.7602790767
 20
8.9013910372
 30
0.0
 10
11.7597748876
 20
8.9014792973
 30
0.0
 10
11.7591698626
 20
8.9015852275
 30
0.0
 10
11.758564837
 20
8.9016911528
 30
0.0
 10
11.7577581365
 20
8.9018323884
 30
0.0
 10
11.7567497608
 20
8.9020089321
 30
0.0
 10
11.7557413851
 20
8.9021854763
 30
0.0
 10
11.7549346845
 20
8.9023267111
 30
0.0
 10
11.7543296591
 20
8.9024326385
 30
0.0
 10
11.7537246334
 20
8.9025385609
 30
0.0
 10
11.7532204465
 20
8.9026268453
 30
0.0
 10
11.7528170943
 20
8.9026974377
 30
0.0
 10
11.7525650051
 20
8.9027416377
 30
0.0
 10
11.7523633203
 20
8.9027768152
 30
0.0
 10
11.7522120934
 20
8.9028036979
 30
0.0
 10
11.7520859542
 20
8.9028245109
 30
0.0
 10
11.751997886
 20
8.9028421988
 30
0.0
 10
11.7519472034
 20
8.9028474365
 30
0.0
 10
11.7519101995
 20
8.9028650826
 30
0.0
 10
11.7518693427
 20
8.9028302925
 30
0.0
 10
11.7518162108
 20
8.9028021961
 30
0.0
 10
11.7517226039
 20
8.9027445055
 30
0.0
 10
11.7515892071
 20
8.9026665457
 30
0.0
 10
11.7514289908
 20
8.902571087
 30
0.0
 10
11.751215418
 20
8.9024444747
 30
0.0
 10
11.7509484353
 20
8.9022859813
 30
0.0
 10
11.7505212724
 20
8.9020325194
 30
0.0
 10
11.7499873154
 20
8.9017156482
 30
0.0
 10
11.7493465685
 20
8.9013354215
 30
0.0
 10
11.7487058212
 20
8.9009551898
 30
0.0
 10
11.7478514916
 20
8.900448216
 30
0.0
 10
11.7467835795
 20
8.8998144981
 30
0.0
 10
11.7455020851
 20
8.8990540369
 30
0.0
 10
11.7437934258
 20
8.8980400885
 30
0.0
 10
11.7425119313
 20
8.8972796272
 30
0.0
 10
11.7416576017
 20
8.896772653
 30
0.0
  0
SPLINE
  5
400
100
AcDbEntity
  8
0
100
AcDbSpline
 62
4
  6
CONTINUOUS
 70
0
 71
3
 72
351
 73
347
 74
0
 42
0.0000001
 43
0.0000001
 44
0.0000000001
 40
0.0
 40
0.0
 40
0.0
 40
0.0
 40
0.015625
 40
0.0234375
 40
0.03125
 40
0.0390625
 40
0.04296875
 40
0.046875
 40
0.05078125
 40
0.0546875
 40
0.056640625
 40
0.05859375
 40
0.0595703125
 40
0.060546875
 40
0.0615234375
 40
0.0620117188
 40
0.0622558594
 40
0.0625
 40
0.0627441406
 40
0.0629882812
 40
0.0634765625
 40
0.064453125
 40
0.0654296875
 40
0.06640625
 40
0.068359375
 40
0.0703125
 40
0.07421875
 40
0.078125
 40
0.08203125
 40
0.0859375
 40
0.09375
 40
0.1015625
 40
0.10546875
 40
0.109375
 40
0.11328125
 40
0.1171875
 40
0.119140625
 40
0.12109375
 40
0.1220703125
 40
0.123046875
 40
0.1240234375
 40
0.1245117188
 40
0.1247558594
 40
0.125
 40
0.1252441406
 40
0.1254882812
 40
0.1259765625
 40
0.126953125
 40
0.1279296875
 40
0.12890625
 40
0.130859375
 40
0.1328125
 40
0.13671875
 40
0.140625
 40
0.14453125
 40
0.1484375
 40
0.15625
 40
0.1640625
 40
0.16796875
 40
0.171875
 40
0.17578125
 40
0.1796875
 40
0.181640625
 40
0.18359375
 40
0.1845703125
 40
0.185546875
 40
0.1865234375
 40
0.1870117188
 40
0.1872558594
 40
0.1875
 40
0.1877441406
 40
0.1879882812
 40
0.1884765625
 40
0.189453125
 40
0.1904296875
 40
0.19140625
 40
0.193359375
 40
0.1953125
 40
0.19921875
 40
0.203125
 40
0.20703125
 40
0.2109375
 40
0.21875
 40
0.2265625
 40
0.234375
 40
0.23828125
 40
0.2421875
 40
0.244140625
 40
0.24609375
 40
0.248046875
 40
0.2490234375
 40
0.2495117188
 40
0.25
 40
0.2504882812
 40
0.2509765625
 40
0.251953125
 40
0.25390625
 40
0.255859375
 40
0.2578125
 40
0.26171875
 40
0.265625
 40
0.2734375
 40
0.28125
 40
0.2890625
 40
0.296875
 40
0.30078125
 40
0.3046875
 40
0.306640625
 40
0.30859375
 40
0.310546875
 40
0.3115234375
 40
0.3120117188
 40
0.3125
 40
0.3129882812
 40
0.3134765625
 40
0.314453125
 40
0.31640625
 40
0.318359375
 40
0.3203125
 40
0.32421875
 40
0.328125
 40
0.3359375
 40
0.34375
 40
0.3515625
 40
0.359375
 40
0.36328125
 40
0.3671875
 40
0.37109375
 40
0.373046875
 40
0.3740234375
 40
0.375
 40
0.3759765625
 40
0.376953125
 40
0.37890625
 40
0.3828125
 40
0.38671875
 40
0.390625
 40
0.3984375
 40
0.40625
 40
0.4140625
 40
0.421875
 40
0.42578125
 40
0.4296875
 40
0.43359375
 40
0.435546875
 40
0.4365234375
 40
0.4375
 40
0.4384765625
 40
0.439453125
 40
0.44140625
 40
0.4453125
 40
0.44921875
 40
0.453125
 40
0.4609375
 40
0.46875
 40
0.4765625
 40
0.484375
 40
0.48828125
 40
0.4921875
 40
0.494140625
 40
0.49609375
 40
0.498046875
 40
0.4990234375
 40
0.4995117188
 40
0.5
 40
0.5004882812
 40
0.5009765625
 40
0.501953125
 40
0.50390625
 40
0.505859375
 40
0.5078125
 40
0.51171875
 40
0.515625
 40
0.5234375
 40
0.53125
 40
0.5390625
 40
0.546875
 40
0.55078125
 40
0.5546875
 40
0.556640625
 40
0.55859375
 40
0.560546875
 40
0.5615234375
 40
0.5620117188
 40
0.5625
 40
0.5629882812
 40
0.5634765625
 40
0.564453125
 40
0.56640625
 40
0.568359375
 40
0.5703125
 40
0.57421875
 40
0.578125
 40
0.5859375
 40
0.59375
 40
0.6015625
 40
0.609375
 40
0.61328125
 40
0.6171875
 40
0.619140625
 40
0.62109375
 40
0.623046875
 40
0.6240234375
 40
0.6245117188
 40
0.625
 40
0.6254882812
 40
0.6259765625
 40
0.626953125
 40
0.62890625
 40
0.630859375
 40
0.6328125
 40
0.63671875
 40
0.640625
 40
0.6484375
 40
0.65625
 40
0.6640625
 40
0.66796875
 40
0.671875
 40
0.67578125
 40
0.6796875
 40
0.681640625
 40
0.68359375
 40
0.6845703125
 40
0.685546875
 40
0.6865234375
 40
0.6870117188
 40
0.6875
 40
0.6879882812
 40
0.6884765625
 40
0.689453125
 40
0.6904296875
 40
0.69140625
 40
0.693359375
 40
0.6953125
 40
0.69921875
 40
0.703125
 40
0.70703125
 40
0.7109375
 40
0.71875
 40
0.7265625
 40
0.73046875
 40
0.734375
 40
0.73828125
 40
0.7421875
 40
0.744140625
 40
0.74609375
 40
0.7470703125
 40
0.748046875
 40
0.7490234375
 40
0.7495117188
 40
0.7497558594
 40
0.75
 40
0.7502441406
 40
0.7504882812
 40
0.7509765625
 40
0.751953125
 40
0.7529296875
 40
0.75390625
 40
0.755859375
 40
0.7578125
 40
0.76171875
 40
0.765625
 40
0.76953125
 40
0.7734375
 40
0.78125
 40
0.7890625
 40
0.79296875
 40
0.796875
 40
0.80078125
 40
0.8046875
 40
0.806640625
 40
0.80859375
 40
0.8095703125
 40
0.810546875
 40
0.8115234375
 40
0.8120117188
 40
0.8122558594
 40
0.8125
 40
0.8127441406
 40
0.8129882812
 40
0.8134765625
 40
0.814453125
 40
0.8154296875
 40
0.81640625
 40
0.818359375
 40
0.8203125
 40
0.82421875
 40
0.828125
 40
0.83203125
 40
0.8359375
 40
0.84375
 40
0.8515625
 40
0.85546875
 40
0.859375
 40
0.86328125
 40
0.8671875
 40
0.869140625
 40
0.87109375
 40
0.8720703125
 40
0.873046875
 40
0.8740234375
 40
0.8745117188
 40
0.8747558594
 40
0.875
 40
0.8752441406
 40
0.8754882812
 40
0.8759765625
 40
0.876953125
 40
0.8779296875
 40
0.87890625
 40
0.880859375
 40
0.8828125
 40
0.88671875
 40
0.890625
 40
0.89453125
 40
0.8984375
 40
0.90625
 40
0.9140625
 40
0.91796875
 40
0.921875
 40
0.92578125
 40
0.9296875
 40
0.931640625
 40
0.93359375
 40
0.9345703125
 40
0.935546875
 40
0.9365234375
 40
0.9370117188
 40
0.9372558594
 40
0.9375
 40
0.9377441406
 40
0.9379882812
 40
0.9384765625
 40
0.939453125
 40
0.9404296875
 40
0.94140625
 40
0.943359375
 40
0.9453125
 40
0.94921875
 40
0.953125
 40
0.95703125
 40
0.9609375
 40
0.96875
 40
0.9765625
 40
0.984375
 40
1.0
 40
1.0
 40
1.0
 40
1.0
 10
11.7416576062
 20
8.8967726574
 30
0.0
 10
11.7408180721
 20
8.895654518
 30
0.0
 10
11.7395587708
 20
8.8939773088
 30
0.0
 10
11.7378797025
 20
8.89174103
 30
0.0
 10
11.7366204013
 20
8.8900638207
 30
0.0
 10
11.7355709835
 20
8.8886661466
 30
0.0
 10
11.7347314494
 20
8.8875480068
 30
0.0
 10
11.7341017987
 20
8.8867094032
 30
0.0
 10
11.7334721483
 20
8.8858707951
 30
0.0
 10
11.7329474388
 20
8.8851719688
 30
0.0
 10
11.732527673
 20
8.884612877
 30
0.0
 10
11.7322653154
 20
8.8842635148
 30
0.0
 10
11.7320554384
 20
8.8839838641
 30
0.0
 10
11.7318980059
 20
8.8837745668
 30
0.0
 10
11.7317668906
 20
8.8835987505
 30
0.0
 10
11.731674956
 20
8.8834784303
 30
0.0
 10
11.7316226622
 20
8.88340538
 30
0.0
 10
11.7315827652
 20
8.8833626938
 30
0.0
 10
11.7315454549
 20
8.8832737497
 30
0.0
 10
11.7314948055
 20
8.8831712929
 30
0.0
 10
11.7314065895
 20
8.8829844758
 30
0.0
 10
11.7312803469
 20
8.8827215246
 30
0.0
 10
11.7311289498
 20
8.8824043008
 30
0.0
 10
11.7309270542
 20
8.8819819233
 30
0.0
 10
11.7306746959
 20
8.8814537503
 30
0.0
 10
11.7302709164
 20
8.8806087858
 30
0.0
 10
11.7297661942
 20
8.8795525417
 30
0.0
 10
11.7291605265
 20
8.8782850653
 30
0.0
 10
11.7285548592
 20
8.8770175845
 30
0.0
 10
11.7277473026
 20
8.8753276116
 30
0.0
 10
11.7267378569
 20
8.873215145
 30
0.0
 10
11.7257284112
 20
8.8711026787
 30
0.0
 10
11.7249208546
 20
8.8694127052
 30
0.0
 10
11.7243151871
 20
8.8681452261
 30
0.0
 10
11.7237095201
 20
8.8668777432
 30
0.0
 10
11.723204796
 20
8.8658215196
 30
0.0
 10
11.7228010202
 20
8.8649765133
 30
0.0
 10
11.7225486525
 20
8.8644484467
 30
0.0
 10
11.7223467761
 20
8.8640258507
 30
0.0
 10
11.7221953204
 20
8.8637092947
 30
0.0
 10
11.7220692612
 20
8.863444254
 30
0.0
 10
11.7219807179
 20
8.863261167
 30
0.0
 10
11.721930593
 20
8.8631527336
 30
0.0
 10
11.7218916716
 20
8.8630821477
 30
0.0
 10
11.7218578254
 20
8.8629705112
 30
0.0
 10
11.7218109267
 20
8.8628359815
 30
0.0
 10
11.7217296789
 20
8.8625938831
 30
0.0
 10
11.7216131795
 20
8.8622515161
 30
0.0
 10
11.7214735646
 20
8.8618391828
 30
0.0
 10
11.7212873471
 20
8.8612899265
 30
0.0
 10
11.7210545972
 20
8.8606031775
 30
0.0
 10
11.7206821851
 20
8.859504479
 30
0.0
 10
11.7202166742
 20
8.8581310717
 30
0.0
 10
11.7196580592
 20
8.8564829975
 30
0.0
 10
11.7190994448
 20
8.8548349194
 30
0.0
 10
11.7183546254
 20
8.8526374833
 30
0.0
 10
11.7174236011
 20
8.8498906876
 30
0.0
 10
11.7164925769
 20
8.8471438923
 30
0.0
 10
11.7157477575
 20
8.8449464557
 30
0.0
 10
11.7151891428
 20
8.8432983792
 30
0.0
 10
11.7146305288
 20
8.841650299
 30
0.0
 10
11.7141650151
 20
8.8402769103
 30
0.0
 10
11.7137926086
 20
8.8391781737
 30
0.0
 10
11.7135598446
 20
8.8384915216
 30
0.0
 10
11.713373656
 20
8.8379420666
 30
0.0
 10
11.7132339526
 20
8.8375303404
 30
0.0
 10
11.7131177303
 20
8.8371860737
 30
0.0
 10
11.7130359877
 20
8.8369473667
 30
0.0
 10
11.7129898818
 20
8.8368074031
 30
0.0
 10
11.7129536005
 20
8.8367124578
 30
0.0
 10
11.7129238247
 20
8.8365791825
 30
0.0
 10
11.7128818544
 20
8.836414852
 30
0.0
 10
11.7128094637
 20
8.8361210444
 30
0.0
 10
11.7127054956
 20
8.835704576
 30
0.0
 10
11.7125809704
 20
8.8352034199
 30
0.0
 10
11.7124148543
 20
8.8345356986
 30
0.0
 10
11.7122072374
 20
8.8337008804
 30
0.0
 10
11.7118750346
 20
8.8323652643
 30
0.0
 10
11.7114597865
 20
8.8306957123
 30
0.0
 10
11.7109614864
 20
8.8286922636
 30
0.0
 10
11.710463187
 20
8.8266888112
 30
0.0
 10
11.7097987876
 20
8.8240175425
 30
0.0
 10
11.708968288
 20
8.8206784571
 30
0.0
 10
11.7079716904
 20
8.8166715505
 30
0.0
 10
11.7071411863
 20
8.813332475
 30
0.0
 10
11.7064767969
 20
8.8106611846
 30
0.0
 10
11.7060615218
 20
8.8089916965
 30
0.0
 10
11.7057293743
 20
8.8076559493
 30
0.0
 10
11.7054800649
 20
8.8066545683
 30
0.0
 10
11.7052729395
 20
8.8058187178
 30
0.0
 10
11.7051267107
 20
8.8052363038
 30
0.0
 10
11.705045089
 20
8.8048993092
 30
0.0
 10
11.7049784143
 20
8.8046583571
 30
0.0
 10
11.7049326047
 20
8.8043723229
 30
0.0
 10
11.7048642473
 20
8.8040066692
 30
0.0
 10
11.7047480126
 20
8.8033594486
 30
0.0
 10
11.7045801904
 20
8.8024386781
 30
0.0
 10
11.7043795625
 20
8.8013321139
 30
0.0
 10
11.7041117935
 20
8.7998572678
 30
0.0
 10
11.7037771731
 20
8.798013514
 30
0.0
 10
11.7032417298
 20
8.7950636175
 30
0.0
 10
11.7025724431
 20
8.7913762091
 30
0.0
 10
11.701769291
 20
8.786951336
 30
0.0
 10
11.7009661431
 20
8.7825264554
 30
0.0
 10
11.7002968461
 20
8.7788390659
 30
0.0
 10
11.6997614233
 20
8.7758891315
 30
0.0
 10
11.6994267505
 20
8.7740454741
 30
0.0
 10
11.6991590892
 20
8.7725704301
 30
0.0
 10
11.6989581324
 20
8.7714644703
 30
0.0
 10
11.6987913392
 20
8.7705418091
 30
0.0
 10
11.6986732675
 20
8.7698979637
 30
0.0
 10
11.6986078535
 20
8.769526902
 30
0.0
 10
11.6985530026
 20
8.7692574793
 30
0.0
 10
11.6985202855
 20
8.7689541373
 30
0.0
 10
11.6984689423
 20
8.7685615126
 30
0.0
 10
11.6983826887
 20
8.767868907
 30
0.0
 10
11.6982575886
 20
8.7668823524
 30
0.0
 10
11.6981082736
 20
8.7656972533
 30
0.0
 10
11.6979089057
 20
8.7641175521
 30
0.0
 10
11.6976597921
 20
8.762142778
 30
0.0
 10
11.6972611563
 20
8.758983222
 30
0.0
 10
11.6967628815
 20
8.7550337478
 30
0.0
 10
11.6961649372
 20
8.7502943949
 30
0.0
 10
11.6955670196
 20
8.7455550242
 30
0.0
 10
11.6950686778
 20
8.7416055944
 30
0.0
 10
11.694670176
 20
8.7384459497
 30
0.0
 10
11.6943708311
 20
8.7360764915
 30
0.0
 10
11.6941228675
 20
8.7341010671
 30
0.0
 10
11.6939463679
 20
8.7327199888
 30
0.0
 10
11.6938500782
 20
8.7319281176
 30
0.0
 10
11.6937649949
 20
8.731341774
 30
0.0
 10
11.6937290923
 20
8.7307265329
 30
0.0
 10
11.6936640674
 20
8.7299162911
 30
0.0
 10
11.6935582666
 20
8.7284936718
 30
0.0
 10
11.6934029439
 20
8.7264638137
 30
0.0
 10
11.6932183453
 20
8.724026933
 30
0.0
 10
11.6929715888
 20
8.7207781259
 30
0.0
 10
11.6926633592
 20
8.7167169909
 30
0.0
 10
11.6922933845
 20
8.7118436838
 30
0.0
 10
11.6919234607
 20
8.7069703587
 30
0.0
 10
11.6916151039
 20
8.7029092688
 30
0.0
 10
11.6913686018
 20
8.6996603715
 30
0.0
 10
11.6911832275
 20
8.697223766
 30
0.0
 10
11.6910303314
 20
8.6951930468
 30
0.0
 10
11.6909201987
 20
8.6937719647
 30
0.0
 10
11.6908621145
 20
8.6929592599
 30
0.0
 10
11.6908048923
 20
8.6923515845
 30
0.0
 10
11.6907998821
 20
8.6917368255
 30
0.0
 10
11.6907749896
 20
8.6909196177
 30
0.0
 10
11.6907399132
 20
8.6894883528
 30
0.0
 10
11.6906853677
 20
8.6874442906
 30
0.0
 10
11.6906218121
 20
8.6849911583
 30
0.0
 10
11.6905364079
 20
8.6817204052
 30
0.0
 10
11.6904298804
 20
8.6776319332
 30
0.0
 10
11.6903019491
 20
8.6727257791
 30
0.0
 10
11.6901740466
 20
8.6678196248
 30
0.0
 10
11.6900674472
 20
8.6637311532
 30
0.0
 10
11.689982187
 20
8.6604603992
 30
0.0
 10
11.689928858
 20
8.6584161246
 30
0.0
 10
11.6898862892
 20
8.6567808271
 30
0.0
 10
11.6898541042
 20
8.6555540194
 30
0.0
 10
11.6898281052
 20
8.6545327441
 30
0.0
 10
11.6898082933
 20
8.6538157624
 30
0.0
 10
11.6897994901
 20
8.6534093204
 30
0.0
 10
11.6897857945
 20
8.6530953003
 30
0.0
 10
11.689799213
 20
8.6528164036
 30
0.0
 10
11.6898076466
 20
8.6524322899
 30
0.0
 10
11.6898268118
 20
8.6517657992
 30
0.0
 10
11.689851887
 20
8.6508106852
 30
0.0
 10
11.6898829633
 20
8.6496658259
 30
0.0
 10
11.6899240539
 20
8.6481389005
 30
0.0
 10
11.6899755351
 20
8.6462303967
 30
0.0
 10
11.6900578392
 20
8.6431767051
 30
0.0
 10
11.690160742
 20
8.6393596201
 30
0.0
 10
11.690284215
 20
8.6347791044
 30
0.0
 10
11.6904076931
 20
8.6301985963
 30
0.0
 10
11.6905105831
 20
8.6263814923
 30
0.0
 10
11.6905929127
 20
8.6233278389
 30
0.0
 10
11.690644329
 20
8.6214192378
 30
0.0
 10
11.6906855529
 20
8.619892512
 30
0.0
 10
11.6907162219
 20
8.6187470432
 30
0.0
 10
11.6907425713
 20
8.6177938359
 30
0.0
 10
11.6907594619
 20
8.6171239414
 30
0.0
 10
11.6907715401
 20
8.6167452814
 30
0.0
 10
11.6907737633
 20
8.6164496328
 30
0.0
 10
11.690802115
 20
8.6161985303
 30
0.0
 10
11.6908308034
 20
8.6158481889
 30
0.0
 10
11.6908852544
 20
8.6152423308
 30
0.0
 10
11.6909608215
 20
8.6143730344
 30
0.0
 10
11.6910524522
 20
8.6133314989
 30
0.0
 10
11.6911742947
 20
8.6119422189
 30
0.0
 10
11.6913267114
 20
8.6102058126
 30
0.0
 10
11.6915705145
 20
8.6074274544
 30
0.0
 10
11.6918752904
 20
8.603954544
 30
0.0
 10
11.6922410115
 20
8.599787034
 30
0.0
 10
11.6926067374
 20
8.5956195342
 30
0.0
 10
11.6929115011
 20
8.5921465984
 30
0.0
 10
11.6931553287
 20
8.5893682911
 30
0.0
 10
11.6933076834
 20
8.5876317553
 30
0.0
 10
11.6934296529
 20
8.5862427412
 30
0.0
 10
11.6935208955
 20
8.5852003932
 30
0.0
 10
11.6935976772
 20
8.5843336387
 30
0.0
 10
11.6936499598
 20
8.5837232429
 30
0.0
 10
11.6936821225
 20
8.5833801722
 30
0.0
 10
11.6936998022
 20
8.5831067364
 30
0.0
 10
11.6937421078
 20
8.5828949681
 30
0.0
 10
11.6937899255
 20
8.5825911001
 30
0.0
 10
11.6938776086
 20
8.5820693531
 30
0.0
 10
11.6940007779
 20
8.5813187607
 30
0.0
 10
11.6941494765
 20
8.5804202925
 30
0.0
 10
11.6943474286
 20
8.5792215516
 30
0.0
 10
11.6945949759
 20
8.5777233936
 30
0.0
 10
11.6949909915
 20
8.575326191
 30
0.0
 10
11.6954860317
 20
8.5723297392
 30
0.0
 10
11.6960800711
 20
8.5687339748
 30
0.0
 10
11.696575106
 20
8.5657375099
 30
0.0
 10
11.6969711332
 20
8.5633403361
 30
0.0
 10
11.6972681545
 20
8.5615424583
 30
0.0
 10
11.6975651726
 20
8.5597445709
 30
0.0
 10
11.6978126977
 20
8.5582463615
 30
0.0
 10
11.6980106953
 20
8.5570477265
 30
0.0
 10
11.698134495
 20
8.5562987332
 30
0.0
 10
11.6982334174
 20
8.5556991868
 30
0.0
 10
11.6983079306
 20
8.5552504901
 30
0.0
 10
11.6983690026
 20
8.5548735126
 30
0.0
 10
11.698420153
 20
8.5545788018
 30
0.0
 10
11.6984522508
 20
8.554338993
 30
0.0
 10
11.6985082623
 20
8.5541708512
 30
0.0
 10
11.6985745909
 20
8.5539216279
 30
0.0
 10
11.6986603676
 20
8.5536186879
 30
0.0
 10
11.698762073
 20
8.5532514835
 30
0.0
 10
11.6988981086
 20
8.5527631617
 30
0.0
 10
11.6990680064
 20
8.5521523197
 30
0.0
 10
11.6993399249
 20
8.5511752184
 30
0.0
 10
11.6996797948
 20
8.5499537574
 30
0.0
 10
11.7000876508
 20
8.5484880403
 30
0.0
 10
11.7004955036
 20
8.5470223136
 30
0.0
 10
11.7010393085
 20
8.5450680147
 30
0.0
 10
11.7017190641
 20
8.5426251399
 30
0.0
 10
11.7023988199
 20
8.5401822653
 30
0.0
 10
11.7029426246
 20
8.538227966
 30
0.0
 10
11.7033504779
 20
8.5367622404
 30
0.0
 10
11.703758332
 20
8.5352965193
 30
0.0
 10
11.7040982078
 20
8.5340750709
 30
0.0
 10
11.7043701143
 20
8.5330979438
 30
0.0
 10
11.7045400426
 20
8.5324871674
 30
0.0
 10
11.7046760156
 20
8.5319987111
 30
0.0
 10
11.7047779121
 20
8.5316319176
 30
0.0
 10
11.7048630908
 20
8.5313276921
 30
0.0
 10
11.704922196
 20
8.5311119165
 30
0.0
 10
11.7049567821
 20
8.5309930159
 30
0.0
 10
11.7049804352
 20
8.5308914462
 30
0.0
 10
11.7050128283
 20
8.5308372535
 30
0.0
 10
11.7050529704
 20
8.530748471
 30
0.0
 10
11.7051246396
 20
8.5306008012
 30
0.0
 10
11.7052262816
 20
8.5303858189
 30
0.0
 10
11.7053485698
 20
8.5301295631
 30
0.0
 10
11.7055115097
 20
8.529787287
 30
0.0
 10
11.7057152227
 20
8.5293596479
 30
0.0
 10
11.7060411421
 20
8.5286753101
 30
0.0
 10
11.7064485487
 20
8.5278199274
 30
0.0
 10
11.7069374334
 20
8.5267934512
 30
0.0
 10
11.707426319
 20
8.5257669795
 30
0.0
 10
11.7080781662
 20
8.5243983491
 30
0.0
 10
11.7088929753
 20
8.5226875616
 30
0.0
 10
11.7097077843
 20
8.5209767737
 30
0.0
 10
11.7103596316
 20
8.5196081439
 30
0.0
 10
11.7108485169
 20
8.5185816703
 30
0.0
 10
11.7113374029
 20
8.5175552013
 30
0.0
 10
11.7117448057
 20
8.5166997961
 30
0.0
 10
11.7120707328
 20
8.5160155043
 30
0.0
 10
11.7122744261
 20
8.5155877482
 30
0.0
 10
11.7124374064
 20
8.515245712
 30
0.0
 10
11.7125595711
 20
8.5149887232
 30
0.0
 10
11.7126615995
 20
8.5147760345
 30
0.0
 10
11.7127325788
 20
8.5146242702
 30
0.0
 10
11.7127738264
 20
8.514542048
 30
0.0
 10
11.7128028239
 20
8.5144677042
 30
0.0
 10
11.7128392301
 20
8.514441819
 30
0.0
 10
11.7128851875
 20
8.5143904025
 30
0.0
 10
11.712966817
 20
8.514308299
 30
0.0
 10
11.713082801
 20
8.5141868909
 30
0.0
 10
11.7132222512
 20
8.5140429635
 30
0.0
 10
11.7134080908
 20
8.5138504449
 30
0.0
 10
11.7136404225
 20
8.5136100073
 30
0.0
 10
11.7140121352
 20
8.5132251894
 30
0.0
 10
11.7144767822
 20
8.5127442074
 30
0.0
 10
11.715034356
 20
8.5121670117
 30
0.0
 10
11.7155919305
 20
8.5115898207
 30
0.0
 10
11.7163353629
 20
8.510820231
 30
0.0
 10
11.7172646535
 20
8.5098582445
 30
0.0
 10
11.718193944
 20
8.5088962576
 30
0.0
 10
11.7189373765
 20
8.5081266686
 30
0.0
 10
11.7194949508
 20
8.5075494755
 30
0.0
 10
11.7200525255
 20
8.5069722873
 30
0.0
 10
11.7205171696
 20
8.506491282
 30
0.0
 10
11.7208888883
 20
8.5061065117
 30
0.0
 10
11.7211212047
 20
8.505865953
 30
0.0
 10
11.7213070756
 20
8.5056736829
 30
0.0
 10
11.7214464301
 20
8.5055289961
 30
0.0
 10
11.7215627139
 20
8.5054099643
 30
0.0
 10
11.7216438081
 20
8.5053236188
 30
0.0
 10
11.721690623
 20
8.505278999
 30
0.0
 10
11.7217243953
 20
8.5052322366
 30
0.0
 10
11.7217632855
 20
8.5052363041
 30
0.0
 10
11.7218133539
 20
8.5052239974
 30
0.0
 10
11.7219018055
 20
8.5052107214
 30
0.0
 10
11.7220277299
 20
8.5051874369
 30
0.0
 10
11.7221790254
 20
8.5051613441
 30
0.0
 10
11.7223806878
 20
8.5051259081
 30
0.0
 10
11.7226327879
 20
8.5050818341
 30
0.0
 10
11.7230361358
 20
8.5050111921
 30
0.0
 10
11.7235403248
 20
8.5049229321
 30
0.0
 10
11.7241453499
 20
8.5048170019
 30
0.0
 10
11.7247503754
 20
8.5047110765
 30
0.0
 10
11.7255570759
 20
8.504569841
 30
0.0
 10
11.7265654517
 20
8.5043932973
 30
0.0
 10
11.7275738274
 20
8.5042167531
 30
0.0
 10
11.728380528
 20
8.5040755183
 30
0.0
 10
11.7289855533
 20
8.5039695909
 30
0.0
 10
11.729590579
 20
8.5038636684
 30
0.0
 10
11.730094766
 20
8.5037753841
 30
0.0
 10
11.7304981181
 20
8.5037047917
 30
0.0
 10
11.7307502074
 20
8.5036605917
 30
0.0
 10
11.7309518921
 20
8.5036254142
 30
0.0
 10
11.731103119
 20
8.5035985315
 30
0.0
 10
11.7312292582
 20
8.5035777185
 30
0.0
 10
11.7313173265
 20
8.5035600306
 30
0.0
 10
11.731368009
 20
8.5035547929
 30
0.0
 10
11.731405013
 20
8.5035371468
 30
0.0
 10
11.7314458698
 20
8.5035719369
 30
0.0
 10
11.7314990017
 20
8.5036000333
 30
0.0
 10
11.7315926086
 20
8.5036577239
 30
0.0
 10
11.7317260054
 20
8.5037356837
 30
0.0
 10
11.7318862216
 20
8.5038311424
 30
0.0
 10
11.7320997944
 20
8.5039577547
 30
0.0
 10
11.7323667771
 20
8.5041162481
 30
0.0
 10
11.7327939401
 20
8.50436971
 30
0.0
 10
11.733327897
 20
8.5046865812
 30
0.0
 10
11.733968644
 20
8.5050668079
 30
0.0
 10
11.7346093913
 20
8.5054470396
 30
0.0
 10
11.7354637209
 20
8.5059540134
 30
0.0
 10
11.7365316329
 20
8.5065877313
 30
0.0
 10
11.7378131274
 20
8.5073481925
 30
0.0
 10
11.7395217867
 20
8.5083621409
 30
0.0
 10
11.7408032811
 20
8.5091226022
 30
0.0
 10
11.7416576108
 20
8.5096295763
 30
0.0
  0
ENDSEC
  0
SECTION
  2
OBJECTS
  0
DICTIONARY
  5
C
100
AcDbDictionary
280
0
281
1
  3
ACAD_GROUP
350
D
  3
ACAD_MLINESTYLE
350
17
  3
ACAD_LAYOUT
350
1A
  3
ACAD_PLOTSETTINGS
350
19
  3
ACAD_PLOTSTYLENAME
350
E
  3
ACAD_IMAGE_DICT
350
       402
  3
ACAD_IMAGE_VARS
350
       403
  3
ACAD_TABLESTYLE
350
       404
  0
IMAGEDEF_REACTOR
  5
401
100
AcDbRasterImageDefReactor
 90
2
330
26F
  0
DICTIONARY
  5
D
102
{ACAD_REACTORS
330
C
102
}
100
AcDbDictionary
280
0
281
1
  0
ACDBDICTIONARYWDFLT
  5
E
102
{ACAD_REACTORS
330
C
102
}
100
AcDbDictionary
281
1
  3
Normal
350
F
100
AcDbDictionaryWithDefault
340
F
  0
DICTIONARY
  5
402
330
C
100
AcDbDictionary
281
1
  3
FB4_assy_2_img_1
350
       407
  0
RASTERVARIABLES
  5
403
330
C
100
AcDbRasterVariables
 90
0
 70
0
 71
1
 72
5
  0
DICTIONARY
  5
17
102
{ACAD_REACTORS
330
C
102
}
100
AcDbDictionary
280
0
281
1
  3
Standard
350
18
  0
DICTIONARY
  5
404
330
C
100
AcDbDictionary
281
1
  3
Standard
350
       408
  3
Standard1
350
       409
  0
DICTIONARY
  5
19
102
{ACAD_REACTORS
330
C
102
}
100
AcDbDictionary
281
1
  0
DICTIONARY
  5
1A
102
{ACAD_REACTORS
330
C
102
}
100
AcDbDictionary
281
1
  3
Model
350
405
  3
Layout1
350
406
  0
ACDBPLACEHOLDER
  5
F
102
{ACAD_REACTORS
330
E
102
}
  0
MLINESTYLE
  5
18
102
{ACAD_REACTORS
330
17
102
}
100
AcDbMlineStyle
  2
STANDARD
 70
0
  3

 62
256
 51
90.0
 52
90.0
 71
2
 49
0.5
 62
256
  6
BYLAYER
 49
-0.5
 62
256
  6
BYLAYER
  0
LAYOUT
  5
405
102
{ACAD_REACTORS
330
1A
102
}
100
AcDbPlotSettings
  1

  2
none_device
  4
ANSI_C_(22.00_x_17.00_Inches)
  6

 40
0.0
 41
0.0
 42
0.0
 43
0.0
 44
558.8
 45
431.8
 46
0.0
 47
0.0
 48
0.0
 49
0.0
140
0.0
141
0.0
142
1.0
143
1.0
 70
1024
 72
0
 73
0
 74
0
  7

 75
0
147
1.0
148
0.0
149
0.0
100
AcDbLayout
  1
Model
 70
0
 71
0
 10
0.0
 20
0.0
 11
22.0
 21
17.0
 12
0.0
 22
0.0
 32
0.0
 14
0.0
 24
0.0
 34
0.0
 15
0.0
 25
0.0
 35
0.0
146
0.0
 13
0.0
 23
0.0
 33
0.0
 16
1.0
 26
0.0
 36
0.0
 17
0.0
 27
1.0
 37
0.0
 76
0
330
20C
345
0
346
0
  0
LAYOUT
  5
406
102
{ACAD_REACTORS
330
1A
102
}
100
AcDbPlotSettings
  1

  2
none_device
  4
ANSI_C_(22.00_x_17.00_Inches)
  6

 40
0.0
 41
0.0
 42
0.0
 43
0.0
 44
558.8
 45
431.8
 46
0.0
 47
0.0
 48
0.0
 49
0.0
140
0.0
141
0.0
142
1.0
143
1.0
 70
0
 72
0
 73
0
 74
0
  7

 75
0
147
1.0
148
0.0
149
0.0
100
AcDbLayout
  1
Layout1
 70
0
 71
1
 10
0.0
 20
0.0
 11
22.0
 21
17.0
 12
0.0
 22
0.0
 32
0.0
 14
0.0
 24
0.0
 34
0.0
 15
0.0
 25
0.0
 35
0.0
146
0.0
 13
0.0
 23
0.0
 33
0.0
 16
1.0
 26
0.0
 36
0.0
 17
0.0
 27
1.0
 37
0.0
 76
0
330
20D
345
0
346
0
  0
IMAGEDEF
  5
407
102
{ACAD_REACTORS
330
402
330
401
102
}
100
AcDbRasterImageDef
 90
0
  1
FB4_assy_2_img_1.png
 10
369.0
 20
92.0
 11
0.0066666667
 21
0.0066666667
280
1
281
0
  0
TABLESTYLE
  5
408
102
{ACAD_REACTORS
330
404
330
272
102
}
330
404
100
AcDbTableStyle
  3
Standard
 70
0
 71
0
 40
0.06
 41
0.06
280
1
281
1
  7
Standard
140
0.18
170
1
 62
0
 63
7
283
0
  7
Standard
140
0.18
170
1
 62
0
 63
7
283
0
  7
Standard
140
0.18
170
1
 62
0
 63
7
283
0
  0
TABLESTYLE
  5
409
102
{ACAD_REACTORS
330
404
330
271
102
}
330
404
100
AcDbTableStyle
  3
Standard1
 70
1
 71
0
 40
0.06
 41
0.06
280
1
281
1
  7
Standard
140
0.18
170
1
 62
0
 63
7
283
0
  7
Standard
140
0.18
170
1
 62
0
 63
7
283
0
  7
Standard
140
0.18
170
1
 62
0
 63
7
283
0
  0
ENDSEC
  0
EOF
