999
DXF file: FB2_assy_2.dxf
999
Pro/ENGINEER 2014200 by Parametric Technology Corporation
  0
SECTION
  2
HEADER
  9
$ACADVER
  1
AC1021
  9
$DWGCODEPAGE
  3
ANSI_1252
  9
$EXTMAX
 10
22.0
 20
17.0
 30
0.0
  9
$EXTMIN
 10
0.0
 20
0.0
 30
0.0
  9
$LIMMIN
 10
0.0
 20
0.0
  9
$LIMMAX
 10
22.0
 20
17.0
  9
$VIEWCTR
 10
11.0
 20
8.5
  9
$VIEWSIZE
 40
17.0
  9
$CLAYER
  8
0
  9
$LTSCALE
 40
1.21
  9
$CELTYPE
  6
BYLAYER
  9
$DIMSCALE
 40
1.0
  9
$DIMASZ
 40
0.1875
  9
$DIMEXO
 40
0.0625
  9
$DIMDLI
 40
0.836
  9
$DIMEXE
 40
0.125
  9
$DIMCEN
 40
0.198
  9
$DIMLFAC
 40
1.0
  9
$DIMBLK
  1
_FILLED
  9
$DIMTXT
 40
0.1
  9
$DIMTOL
 70
0
  9
$DIMLIM
 70
0
  9
$DIMTFAC
 40
1.0
  9
$DIMGAP
 40
0.09
  9
$DIMDSEP
 70
46
  9
$AUNITS
 70
0
  9
$PDMODE
 70
3
  9
$PDSIZE
 40
0.3125
  9
$HANDSEED
  5
36B
  9
$TILEMODE
 70
1
  9
$MEASUREMENT
 70
0
  9
$INSUNITS
 70
1
  0
ENDSEC
  0
SECTION
  2
CLASSES
  0
CLASS
  1
ACDBDICTIONARYWDFLT
  2
AcDbDictionaryWithDefault
  3
AutoCAD 2000
 90
0
 91
1
280
0
281
0
  0
CLASS
  1
ACDBPLACEHOLDER
  2
AcDbPlaceHolder
  3
AutoCAD 2000
 90
0
 91
1
280
0
281
0
  0
CLASS
  1
LAYOUT
  2
AcDbLayout
  3
AutoCAD 2000
 90
0
 91
0
280
0
281
0
  0
CLASS
  1
RASTERVARIABLES
  2
AcDbRasterVariables
  3
ISM
 90
0
 91
1
280
0
281
0
  0
CLASS
  1
IMAGEDEF
  2
AcDbRasterImageDef
  3
ISM
 90
0
 91
1
280
0
281
0
  0
CLASS
  1
IMAGEDEF_REACTOR
  2
AcDbRasterImageDefReactor
  3
ISM
 90
0
 91
1
280
0
281
0
  0
CLASS
  1
IMAGE
  2
AcDbRasterImage
  3
ISM
 90
127
 91
1
280
0
281
1
  0
CLASS
  1
TABLESTYLE
  2
AcDbTableStyle
  3
ObjectDBX Classes
 90
2047
 91
1
280
0
281
0
  0
CLASS
  1
ACAD_TABLE
  2
AcDbTable
  3
ObjectDBX Classes
 90
1025
 91
2
280
0
281
1
  0
ENDSEC
  0
SECTION
  2
TABLES
  0
TABLE
  2
VPORT
  5
8
100
AcDbSymbolTable
 70
2
  0
VPORT
  5
1F4
100
AcDbSymbolTableRecord
100
AcDbViewportTableRecord
  2
*ACTIVE
 70
0
 10
0.0
 20
0.0
 11
1.0
 21
1.0
 12
11.0
 22
8.5
 13
0.0
 23
0.0
 14
1.0
 24
1.0
 15
0.0
 25
0.0
 16
0.0
 26
0.0
 36
1.0
 17
0.0
 27
0.0
 37
0.0
 40
17.0
 41
1.2941176471
 42
50.0
 43
0.0
 44
0.0
 50
0.0
 51
0.0
 71
0
 72
100
 73
1
 74
1
 75
0
 76
0
 77
0
 78
0
  0
ENDTAB
  0
TABLE
  2
LTYPE
  5
5
100
AcDbSymbolTable
 70
6
  0
LTYPE
  5
14
100
AcDbSymbolTableRecord
100
AcDbLinetypeTableRecord
  2
BYBLOCK
 70
0
  3

 72
65
 73
0
 40
0.0
  0
LTYPE
  5
15
100
AcDbSymbolTableRecord
100
AcDbLinetypeTableRecord
  2
BYLAYER
 70
0
  3

 72
65
 73
0
 40
0.0
  0
LTYPE
  5
16
100
AcDbSymbolTableRecord
100
AcDbLinetypeTableRecord
  2
CONTINUOUS
 70
64
  3
Solid line
 72
65
 73
0
 40
0.0
  0
LTYPE
  5
1F5
100
AcDbSymbolTableRecord
100
AcDbLinetypeTableRecord
  2
CENTER
 70
64
  3
____ _ ____ _ ____ _ ____ _ ____ _ ____ _ ____
 72
65
 73
4
 40
0.6
 49
0.375
 74
0
 49
-0.075
 74
0
 49
0.075
 74
0
 49
-0.075
 74
0
  0
LTYPE
  5
1F6
100
AcDbSymbolTableRecord
100
AcDbLinetypeTableRecord
  2
HIDDEN
 70
64
  3
- - - - - - - - - - - - - - - - - - - -
 72
65
 73
2
 40
0.2
 49
0.1
 74
0
 49
-0.1
 74
0
  0
LTYPE
  5
1F7
100
AcDbSymbolTableRecord
100
AcDbLinetypeTableRecord
  2
PHANTOM
 70
64
  3
_____ _ _ _____ _ _ _____ _ _ _____
 72
65
 73
6
 40
0.8
 49
0.45
 74
0
 49
-0.05
 74
0
 49
0.1
 74
0
 49
-0.05
 74
0
 49
0.1
 74
0
 49
-0.05
 74
0
  0
LTYPE
  5
1F8
100
AcDbSymbolTableRecord
100
AcDbLinetypeTableRecord
  2
DOT
 70
64
  3
. . . . . . . . . . . . . . . . . . . .
 72
65
 73
2
 40
0.2
 49
0.1
 74
0
 49
-0.1
 74
0
  0
LTYPE
  5
1F9
100
AcDbSymbolTableRecord
100
AcDbLinetypeTableRecord
  2
DASHED
 70
64
  3
- - - - - - - - - - - - - - - - - - - -
 72
65
 73
2
 40
0.2
 49
0.1
 74
0
 49
-0.1
 74
0
  0
ENDTAB
  0
TABLE
  2
LAYER
  5
2
100
AcDbSymbolTable
 70
36
  0
LAYER
  5
10
100
AcDbSymbolTableRecord
100
AcDbLayerTableRecord
  2
0
 70
0
 62
7
  6
CONTINUOUS
370
-3
390
F
  0
LAYER
  5
1FA
100
AcDbSymbolTableRecord
100
AcDbLayerTableRecord
  2
DEFAULT_1
 70
0
 62
7
  6
CENTER
370
-3
390
F
  0
LAYER
  5
1FB
100
AcDbSymbolTableRecord
100
AcDbLayerTableRecord
  2
DEFAULT_2
 70
0
 62
8
  6
HIDDEN
370
-3
390
F
  0
LAYER
  5
1FC
100
AcDbSymbolTableRecord
100
AcDbLayerTableRecord
  2
DEFAULT_3
 70
0
 62
7
  6
PHANTOM
370
-3
390
F
  0
LAYER
  5
1FD
100
AcDbSymbolTableRecord
100
AcDbLayerTableRecord
  2
DATUM_PLANES
 70
0
 62
7
  6
CONTINUOUS
370
-3
390
F
  0
LAYER
  5
1FE
100
AcDbSymbolTableRecord
100
AcDbLayerTableRecord
  2
PORT_AREAS
 70
0
 62
7
  6
CONTINUOUS
370
-3
390
F
  0
LAYER
  5
1FF
100
AcDbSymbolTableRecord
100
AcDbLayerTableRecord
  2
SUNNBOMCOSMETIC
 70
0
 62
7
  6
CONTINUOUS
370
-3
390
F
  0
LAYER
  5
200
100
AcDbSymbolTableRecord
100
AcDbLayerTableRecord
  2
SUNNBOMSTAMPING
 70
0
 62
7
  6
CONTINUOUS
370
-3
390
F
  0
LAYER
  5
201
100
AcDbSymbolTableRecord
100
AcDbLayerTableRecord
  2
THREADS
 70
0
 62
7
  6
CONTINUOUS
370
-3
390
F
  0
ENDTAB
  0
TABLE
  2
STYLE
  5
3
100
AcDbSymbolTable
 70
1
  0
STYLE
  5
11
100
AcDbSymbolTableRecord
100
AcDbTextStyleTableRecord
  2
STANDARD
 70
0
 40
0.0
 41
0.8
 50
0.0
 71
0
 42
0.2
  3
txt
  4

  0
STYLE
  5
202
100
AcDbSymbolTableRecord
100
AcDbTextStyleTableRecord
  2
TEXTSTYLE_1
 70
0
 40
0.0
 41
0.8
 50
0.0
 71
0
 42
0.2
  3
gdt
  4

  0
ENDTAB
  0
TABLE
  2
VIEW
  5
6
100
AcDbSymbolTable
 70
0
  0
ENDTAB
  0
TABLE
  2
UCS
  5
7
100
AcDbSymbolTable
 70
0
  0
ENDTAB
  0
TABLE
  2
APPID
  5
9
100
AcDbSymbolTable
 70
1
  0
APPID
  5
203
100
AcDbSymbolTableRecord
100
AcDbRegAppTableRecord
  2
ACAD
 70
0
  0
ENDTAB
  0
TABLE
  2
BLOCK_RECORD
  5
1
100
AcDbSymbolTable
 70
0
  0
BLOCK_RECORD
  5
204
100
AcDbSymbolTableRecord
100
AcDbBlockTableRecord
  2
*Model_Space
  0
BLOCK_RECORD
  5
205
100
AcDbSymbolTableRecord
100
AcDbBlockTableRecord
  2
*Paper_Space
  0
BLOCK_RECORD
  5
206
100
AcDbSymbolTableRecord
100
AcDbBlockTableRecord
  2
SUN_FIRST_THIRD_ANGLE_BL0
  0
BLOCK_RECORD
  5
207
100
AcDbSymbolTableRecord
100
AcDbBlockTableRecord
  2
*T1
  0
BLOCK_RECORD
  5
208
100
AcDbSymbolTableRecord
100
AcDbBlockTableRecord
  2
*T2
  0
ENDTAB
  0
TABLE
  2
DIMSTYLE
  5
A
100
AcDbSymbolTable
 70
1
100
AcDbDimStyleTable
 71
0
  0
DIMSTYLE
105
209
100
AcDbSymbolTableRecord
100
AcDbDimStyleTableRecord
  2
STANDARD
 70
0
  3

  4

 40
1.0
 41
0.1875
 42
0.0625
 43
0.38
 44
0.125
 45
0.0
 46
0.0
 47
0.001
 48
0.001
140
0.1
141
0.09
142
0.0
143
25.4
144
1.0
145
0.0
146
1.0
147
0.09
 71
0.0
 72
0.0
 73
1
 74
1
 75
0
 76
0
 77
0
 78
4
170
0
171
2
172
0
173
0
174
0
175
0
176
0
177
0
178
0
270
2
271
3
272
3
273
2
274
2
275
0
280
0
281
0
282
0
283
1
284
4
285
0
286
0
287
3
288
0
340
11
278
46
  0
ENDTAB
  0
ENDSEC
  0
SECTION
  2
BLOCKS
  0
BLOCK
  5
20
100
AcDbEntity
  8
0
100
AcDbBlockBegin
  2
*Model_Space
 70
0
 10
0.0
 20
0.0
 30
0.0
  3
*Model_Space
  1

  0
ENDBLK
  5
21
100
AcDbEntity
  8
0
100
AcDbBlockEnd
  0
BLOCK
  5
1C
100
AcDbEntity
  8
0
100
AcDbBlockBegin
  2
*Paper_Space
 70
0
 10
0.0
 20
0.0
 30
0.0
  3
*Paper_Space
  1

  0
ENDBLK
  5
1D
100
AcDbEntity
  8
0
100
AcDbBlockEnd
  0
BLOCK
  5
20A
100
AcDbEntity
  8
0
100
AcDbBlockBegin
 62
2
  6
CONTINUOUS
  2
SUN_FIRST_THIRD_ANGLE_BL0
 70
64
 10
20.4816717061
 20
1.2289683772
  3
SUN_FIRST_THIRD_ANGLE_BL0
  1

  0
TEXT
  5
20B
100
AcDbEntity
  8
0
100
AcDbText
 62
2
  6
CONTINUOUS
 10
19.4750896608
 20
1.4136269581
  7
STANDARD
 40
0.08
  1
FIRST ANGLE
 41
0.8
 72
0
100
AcDbText
  0
TEXT
  5
20C
100
AcDbEntity
  8
0
100
AcDbText
 62
2
  6
CONTINUOUS
 10
20.7842537513
 20
1.4047600029
  7
STANDARD
 40
0.08
  1
THIRD ANGLE
 41
0.8
 72
0
100
AcDbText
  0
LINE
  5
20D
100
AcDbEntity
  8
0
100
AcDbLine
 62
7
  6
CONTINUOUS
 10
19.4767170086
 20
1.1727031207
 11
19.6334271527
 21
1.1717972817
  0
LINE
  5
20E
100
AcDbEntity
  8
0
100
AcDbLine
 62
7
  6
CONTINUOUS
 10
19.6596964832
 20
1.1717972817
 11
19.6950230232
 21
1.171593082
  0
LINE
  5
20F
100
AcDbEntity
  8
0
100
AcDbLine
 62
7
  6
CONTINUOUS
 10
19.7194818561
 20
1.1708914427
 11
19.8852396156
 21
1.1699333054
  0
LINE
  5
210
100
AcDbEntity
  8
0
100
AcDbLine
 62
7
  6
CONTINUOUS
 10
19.4758111696
 20
1.2723454088
 11
19.88525039
 21
1.3511534004
  0
LINE
  5
211
100
AcDbEntity
  8
0
100
AcDbLine
 62
7
  6
CONTINUOUS
 10
19.88525039
 20
1.3511534004
 11
19.8831348489
 21
0.9851647912
  0
LINE
  5
212
100
AcDbEntity
  8
0
100
AcDbLine
 62
7
  6
CONTINUOUS
 10
19.8831348489
 20
0.9851647912
 11
19.4767170086
 21
1.0658141206
  0
LINE
  5
213
100
AcDbEntity
  8
0
100
AcDbLine
 62
7
  6
CONTINUOUS
 10
19.4767170086
 20
1.0658141206
 11
19.4779056764
 21
1.2714536432
  0
CIRCLE
  5
214
100
AcDbEntity
  8
0
100
AcDbCircle
 62
7
  6
CONTINUOUS
 10
20.2068232291
 20
1.1717972817
 40
0.175742101
  0
CIRCLE
  5
215
100
AcDbEntity
  8
0
100
AcDbCircle
 62
7
  6
CONTINUOUS
 10
20.2068232291
 20
1.1717972817
 40
0.1005522074
  0
LINE
  5
216
100
AcDbEntity
  8
0
100
AcDbLine
 62
7
  6
CONTINUOUS
 10
20.2077290681
 20
1.3756110529
 11
20.2071171714
 21
1.2379342989
  0
LINE
  5
217
100
AcDbEntity
  8
0
100
AcDbLine
 62
7
  6
CONTINUOUS
 10
20.2077290681
 20
1.2016899681
 11
20.2074674401
 21
1.1428236749
  0
LINE
  5
218
100
AcDbEntity
  8
0
100
AcDbLine
 62
7
  6
CONTINUOUS
 10
20.208634907
 20
1.101141841
 11
20.2080230104
 21
0.963465087
  0
LINE
  5
219
100
AcDbEntity
  8
0
100
AcDbLine
 62
7
  6
CONTINUOUS
 10
20.0066328138
 20
1.1745147986
 11
20.1443095678
 21
1.1739029019
  0
LINE
  5
21A
100
AcDbEntity
  8
0
100
AcDbLine
 62
7
  6
CONTINUOUS
 10
20.1832714155
 20
1.1727031207
 11
20.238153505
 21
1.172335442
  0
LINE
  5
21B
100
AcDbEntity
  8
0
100
AcDbLine
 62
7
  6
CONTINUOUS
 10
20.2756669918
 20
1.1717972817
 11
20.407916871
 21
1.1712095044
  0
CIRCLE
  5
21C
100
AcDbEntity
  8
0
100
AcDbCircle
 62
7
  6
CONTINUOUS
 10
20.7509457401
 20
1.1693297793
 40
0.1722024983
  0
CIRCLE
  5
21D
100
AcDbEntity
  8
0
100
AcDbCircle
 62
7
  6
CONTINUOUS
 10
20.7509457401
 20
1.1693297793
 40
0.0985164967
  0
LINE
  5
21E
100
AcDbEntity
  8
0
100
AcDbLine
 62
7
  6
CONTINUOUS
 10
20.7169767782
 20
1.170462078
 11
20.7825395137
 21
1.1682766535
  0
LINE
  5
21F
100
AcDbEntity
  8
0
100
AcDbLine
 62
7
  6
CONTINUOUS
 10
20.8177513651
 20
1.1693297793
 11
20.947965719
 21
1.1693297793
  0
LINE
  5
220
100
AcDbEntity
  8
0
100
AcDbLine
 62
7
  6
CONTINUOUS
 10
20.6875370113
 20
1.170462078
 11
20.5573226574
 21
1.170462078
  0
LINE
  5
221
100
AcDbEntity
  8
0
100
AcDbLine
 62
7
  6
CONTINUOUS
 10
20.7486811426
 20
1.1987695462
 11
20.7486811426
 21
1.1432869085
  0
LINE
  5
222
100
AcDbEntity
  8
0
100
AcDbLine
 62
7
  6
CONTINUOUS
 10
20.7498134414
 20
1.1059210505
 11
20.7498134414
 21
0.9757066966
  0
LINE
  5
223
100
AcDbEntity
  8
0
100
AcDbLine
 62
7
  6
CONTINUOUS
 10
20.7486811426
 20
1.2338708068
 11
20.7486811426
 21
1.3640851607
  0
LINE
  5
224
100
AcDbEntity
  8
0
100
AcDbLine
 62
7
  6
CONTINUOUS
 10
21.0702539817
 20
1.2701043662
 11
21.4790138229
 21
1.3448360823
  0
LINE
  5
225
100
AcDbEntity
  8
0
100
AcDbLine
 62
7
  6
CONTINUOUS
 10
21.4790138229
 20
1.3448360823
 11
21.4790138229
 21
0.9779712941
  0
LINE
  5
226
100
AcDbEntity
  8
0
100
AcDbLine
 62
7
  6
CONTINUOUS
 10
21.4790138229
 20
0.9779712941
 11
21.069121683
 21
1.0617614
  0
LINE
  5
227
100
AcDbEntity
  8
0
100
AcDbLine
 62
7
  6
CONTINUOUS
 10
21.0702539817
 20
1.2701043662
 11
21.069121683
 21
1.0617614
  0
LINE
  5
228
100
AcDbEntity
  8
0
100
AcDbLine
 62
7
  6
CONTINUOUS
 10
21.4790138229
 20
1.1693297793
 11
21.3159628059
 21
1.1693297793
  0
LINE
  5
229
100
AcDbEntity
  8
0
100
AcDbLine
 62
7
  6
CONTINUOUS
 10
21.2876553377
 20
1.1693297793
 11
21.2502894796
 21
1.1693297793
  0
LINE
  5
22A
100
AcDbEntity
  8
0
100
AcDbLine
 62
7
  6
CONTINUOUS
 10
21.2208497126
 20
1.1659328831
 11
21.0713862804
 21
1.1659328831
  0
LINE
  5
22B
100
AcDbEntity
  8
0
100
AcDbLine
 62
7
  6
CONTINUOUS
 10
20.4796138713
 20
1.5284908897
 11
20.4766766948
 21
0.9294458646
  0
ENDBLK
  5
22C
100
AcDbEntity
  8
0
  6
BYBLOCK
 62
0
100
AcDbBlockEnd
  0
BLOCK
  5
22D
100
AcDbEntity
  8
0
100
AcDbBlockBegin
  2
*T1
 70
1
 10
0.0
 20
0.0
  3
*T1
  1

  0
LINE
  5
22E
100
AcDbEntity
  8
0
100
AcDbLine
 62
2
  6
CONTINUOUS
 10
9.275
 20
0.0
 11
-0.0
 21
0.0
  0
LINE
  5
22F
100
AcDbEntity
  8
0
100
AcDbLine
 62
2
  6
CONTINUOUS
 10
9.275
 20
0.0
 11
9.275
 21
1.25
  0
LINE
  5
230
100
AcDbEntity
  8
0
100
AcDbLine
 62
2
  6
CONTINUOUS
 10
9.275
 20
0.625
 11
-0.0
 21
0.625
  0
LINE
  5
231
100
AcDbEntity
  8
0
100
AcDbLine
 62
2
  6
CONTINUOUS
 10
9.275
 20
1.25
 11
-0.0
 21
1.25
  0
LINE
  5
232
100
AcDbEntity
  8
0
100
AcDbLine
 62
2
  6
CONTINUOUS
 10
6.8
 20
0.0
 11
6.8
 21
1.25
  0
LINE
  5
233
100
AcDbEntity
  8
0
100
AcDbLine
 62
2
  6
CONTINUOUS
 10
6.4
 20
0.0
 11
6.4
 21
0.625
  0
LINE
  5
234
100
AcDbEntity
  8
0
100
AcDbLine
 62
2
  6
CONTINUOUS
 10
5.9
 20
0.0
 11
5.9
 21
0.625
  0
LINE
  5
235
100
AcDbEntity
  8
0
100
AcDbLine
 62
2
  6
CONTINUOUS
 10
5.2
 20
0.0
 11
5.2
 21
0.625
  0
LINE
  5
236
100
AcDbEntity
  8
0
100
AcDbLine
 62
2
  6
CONTINUOUS
 10
4.1
 20
0.0
 11
4.1
 21
1.25
  0
LINE
  5
237
100
AcDbEntity
  8
0
100
AcDbLine
 62
2
  6
CONTINUOUS
 10
-0.0
 20
0.0
 11
-0.0
 21
1.25
  0
MTEXT
  5
238
100
AcDbEntity
  8
0
100
AcDbMText
 62
2
  6
CONTINUOUS
  7
STANDARD
 71
2
 72
1
 10
6.6
 20
0.325
 30
0.0
 11
1.0
 21
0.0
 31
0.0
 44
0.9
  1
2
 40
0.125
 41
0.2
  0
MTEXT
  5
239
100
AcDbEntity
  8
0
100
AcDbMText
 62
2
  6
CONTINUOUS
  7
STANDARD
 71
2
 72
1
 10
6.15
 20
0.325
 30
0.0
 11
1.0
 21
0.0
 31
0.0
 44
0.9
  1
C
 40
0.125
 41
0.2
  0
MTEXT
  5
23A
100
AcDbEntity
  8
0
100
AcDbMText
 62
2
  6
CONTINUOUS
  7
STANDARD
 71
2
 72
1
 10
5.55
 20
0.325
 30
0.0
 11
1.0
 21
0.0
 31
0.0
 44
0.9
  1
2.000
 40
0.125
 41
1.0
  0
MTEXT
  5
23B
100
AcDbEntity
  8
0
100
AcDbMText
 62
2
  6
CONTINUOUS
  7
STANDARD
 71
2
 72
1
 10
4.65
 20
0.325
 30
0.0
 11
1.0
 21
0.0
 31
0.0
 44
0.9
  1
Aug-14-19
 40
0.125
 41
1.8
  0
MTEXT
  5
23C
100
AcDbEntity
  8
0
100
AcDbMText
 62
2
  6
CONTINUOUS
  7
STANDARD
 71
2
 72
1
 10
2.05
 20
0.4625
 30
0.0
 11
1.0
 21
0.0
 31
0.0
 44
0.9
  1
T-10A Sandwich ISO 03\PA or B to T with make up check
 40
0.125
 41
6.0
  0
MTEXT
  5
23D
100
AcDbEntity
  8
0
100
AcDbMText
 62
2
  6
CONTINUOUS
  7
STANDARD
 71
1
 72
1
 10
6.45
 20
0.5625
 30
0.0
 11
1.0
 21
0.0
 31
0.0
 44
0.9
  1
SHEET
 40
0.06
 41
0.48
  0
MTEXT
  5
23E
100
AcDbEntity
  8
0
100
AcDbMText
 62
2
  6
CONTINUOUS
  7
STANDARD
 71
1
 72
1
 10
5.95
 20
0.5625
 30
0.0
 11
1.0
 21
0.0
 31
0.0
 44
0.9
  1
DWG SIZE
 40
0.06
 41
0.768
  0
MTEXT
  5
23F
100
AcDbEntity
  8
0
100
AcDbMText
 62
2
  6
CONTINUOUS
  7
STANDARD
 71
1
 72
1
 10
5.25
 20
0.5625
 30
0.0
 11
1.0
 21
0.0
 31
0.0
 44
0.9
  1
SCALE
 40
0.06
 41
0.48
  0
MTEXT
  5
240
100
AcDbEntity
  8
0
100
AcDbMText
 62
2
  6
CONTINUOUS
  7
STANDARD
 71
1
 72
1
 10
4.15
 20
0.5625
 30
0.0
 11
1.0
 21
0.0
 31
0.0
 44
0.9
  1
DATE
 40
0.06
 41
0.384
  0
MTEXT
  5
241
100
AcDbEntity
  8
0
100
AcDbMText
 62
2
  6
CONTINUOUS
  7
STANDARD
 71
1
 72
1
 10
0.05
 20
0.5625
 30
0.0
 11
1.0
 21
0.0
 31
0.0
 44
0.9
  1
DESCRIPTION
 40
0.06
 41
1.056
  0
MTEXT
  5
242
100
AcDbEntity
  8
0
100
AcDbMText
 62
2
  6
CONTINUOUS
  7
STANDARD
 71
2
 72
1
 10
5.45
 20
1.0375
 30
0.0
 11
1.0
 21
0.0
 31
0.0
 44
0.9
  1
ALL DIMENSIONS IN INCH\PVIEWS ARE THIRD ANGLE
 40
0.12
 41
4.224
  0
MTEXT
  5
243
100
AcDbEntity
  8
0
100
AcDbMText
 62
2
  6
CONTINUOUS
  7
STANDARD
 71
2
 72
1
 10
2.05
 20
0.95
 30
0.0
 11
1.0
 21
0.0
 31
0.0
 44
0.9
  1
FB2
 40
0.125
 41
0.6
  0
MTEXT
  5
244
100
AcDbEntity
  8
0
100
AcDbMText
 62
2
  6
CONTINUOUS
  7
STANDARD
 71
1
 72
1
 10
0.05
 20
1.1875
 30
0.0
 11
1.0
 21
0.0
 31
0.0
 44
0.9
  1
MODEL
 40
0.06
 41
0.48
  0
ENDBLK
  5
245
100
AcDbEntity
  8
0
  6
BYBLOCK
 62
0
100
AcDbBlockEnd
  0
BLOCK
  5
246
100
AcDbEntity
  8
0
100
AcDbBlockBegin
  2
*T2
 70
1
 10
0.0
 20
0.0
  3
*T2
  1

  0
LINE
  5
247
100
AcDbEntity
  8
0
100
AcDbLine
 62
2
  6
CONTINUOUS
 10
0.0
 20
0.0
 11
9.055
 21
0.0
  0
LINE
  5
248
100
AcDbEntity
  8
0
100
AcDbLine
 62
2
  6
CONTINUOUS
 10
0.0
 20
0.0
 11
0.0
 21
-2.094
  0
LINE
  5
249
100
AcDbEntity
  8
0
100
AcDbLine
 62
2
  6
CONTINUOUS
 10
0.0
 20
-0.344
 11
9.055
 21
-0.344
  0
LINE
  5
24A
100
AcDbEntity
  8
0
100
AcDbLine
 62
2
  6
CONTINUOUS
 10
0.0
 20
-0.594
 11
9.055
 21
-0.594
  0
LINE
  5
24B
100
AcDbEntity
  8
0
100
AcDbLine
 62
2
  6
CONTINUOUS
 10
0.0
 20
-0.844
 11
9.055
 21
-0.844
  0
LINE
  5
24C
100
AcDbEntity
  8
0
100
AcDbLine
 62
2
  6
CONTINUOUS
 10
0.0
 20
-1.094
 11
9.055
 21
-1.094
  0
LINE
  5
24D
100
AcDbEntity
  8
0
100
AcDbLine
 62
2
  6
CONTINUOUS
 10
0.0
 20
-1.344
 11
9.055
 21
-1.344
  0
LINE
  5
24E
100
AcDbEntity
  8
0
100
AcDbLine
 62
2
  6
CONTINUOUS
 10
0.0
 20
-1.594
 11
9.055
 21
-1.594
  0
LINE
  5
24F
100
AcDbEntity
  8
0
100
AcDbLine
 62
2
  6
CONTINUOUS
 10
0.0
 20
-1.844
 11
9.055
 21
-1.844
  0
LINE
  5
250
100
AcDbEntity
  8
0
100
AcDbLine
 62
2
  6
CONTINUOUS
 10
0.0
 20
-2.094
 11
9.055
 21
-2.094
  0
LINE
  5
251
100
AcDbEntity
  8
0
100
AcDbLine
 62
2
  6
CONTINUOUS
 10
3.055
 20
0.0
 11
3.055
 21
-2.094
  0
LINE
  5
252
100
AcDbEntity
  8
0
100
AcDbLine
 62
2
  6
CONTINUOUS
 10
9.055
 20
0.0
 11
9.055
 21
-2.094
  0
MTEXT
  5
253
100
AcDbEntity
  8
0
100
AcDbMText
 62
2
  6
CONTINUOUS
  7
STANDARD
 71
2
 72
1
 10
1.5275
 20
-0.0995
 30
0.0
 11
1.0
 21
0.0
 31
0.0
 44
0.9
  1
Technical Data
 40
0.145
 41
3.248
  0
MTEXT
  5
254
100
AcDbEntity
  8
0
100
AcDbMText
 62
2
  6
CONTINUOUS
  7
STANDARD
 71
2
 72
1
 10
4.555
 20
-0.0995
 30
0.0
 11
1.0
 21
0.0
 31
0.0
 44
0.9
  1
U.S. Units
 40
0.145
 41
2.32
  0
MTEXT
  5
255
100
AcDbEntity
  8
0
100
AcDbMText
 62
2
  6
CONTINUOUS
  7
STANDARD
 71
2
 72
1
 10
7.555
 20
-0.0995
 30
0.0
 11
1.0
 21
0.0
 31
0.0
 44
0.9
  1
Metric Units
 40
0.145
 41
2.784
  0
MTEXT
  5
256
100
AcDbEntity
  8
0
100
AcDbMText
 62
2
  6
CONTINUOUS
  7
STANDARD
 71
2
 72
1
 10
1.5275
 20
-0.4065
 30
0.0
 11
1.0
 21
0.0
 31
0.0
 44
0.9
  1
Cavity
 40
0.125
 41
1.2
  0
MTEXT
  5
257
100
AcDbEntity
  8
0
100
AcDbMText
 62
2
  6
CONTINUOUS
  7
STANDARD
 71
2
 72
1
 10
6.055
 20
-0.4065
 30
0.0
 11
1.0
 21
0.0
 31
0.0
 44
0.9
  1
T-10A
 40
0.125
 41
1.0
  0
MTEXT
  5
258
100
AcDbEntity
  8
0
100
AcDbMText
 62
2
  6
CONTINUOUS
  7
STANDARD
 71
2
 72
1
 10
1.5275
 20
-0.6565
 30
0.0
 11
1.0
 21
0.0
 31
0.0
 44
0.9
  1
Body Features
 40
0.125
 41
2.6
  0
MTEXT
  5
259
100
AcDbEntity
  8
0
100
AcDbMText
 62
2
  6
CONTINUOUS
  7
STANDARD
 71
2
 72
1
 10
6.055
 20
-0.6565
 30
0.0
 11
1.0
 21
0.0
 31
0.0
 44
0.9
  1
A or B to T with make up check
 40
0.125
 41
6.0
  0
MTEXT
  5
25A
100
AcDbEntity
  8
0
100
AcDbMText
 62
2
  6
CONTINUOUS
  7
STANDARD
 71
2
 72
1
 10
1.5275
 20
-0.9065
 30
0.0
 11
1.0
 21
0.0
 31
0.0
 44
0.9
  1
Body Type
 40
0.125
 41
1.8
  0
MTEXT
  5
25B
100
AcDbEntity
  8
0
100
AcDbMText
 62
2
  6
CONTINUOUS
  7
STANDARD
 71
2
 72
1
 10
6.055
 20
-0.9065
 30
0.0
 11
1.0
 21
0.0
 31
0.0
 44
0.9
  1
Sandwich
 40
0.125
 41
1.6
  0
MTEXT
  5
25C
100
AcDbEntity
  8
0
100
AcDbMText
 62
2
  6
CONTINUOUS
  7
STANDARD
 71
2
 72
1
 10
1.5275
 20
-1.1565
 30
0.0
 11
1.0
 21
0.0
 31
0.0
 44
0.9
  1
Interface
 40
0.125
 41
1.8
  0
MTEXT
  5
25D
100
AcDbEntity
  8
0
100
AcDbMText
 62
2
  6
CONTINUOUS
  7
STANDARD
 71
2
 72
1
 10
6.055
 20
-1.1565
 30
0.0
 11
1.0
 21
0.0
 31
0.0
 44
0.9
  1
ISO 03
 40
0.125
 41
1.2
  0
MTEXT
  5
25E
100
AcDbEntity
  8
0
100
AcDbMText
 62
2
  6
CONTINUOUS
  7
STANDARD
 71
2
 72
1
 10
1.5275
 20
-1.4065
 30
0.0
 11
1.0
 21
0.0
 31
0.0
 44
0.9
  1
Open Cavity Quantity
 40
0.125
 41
4.0
  0
MTEXT
  5
25F
100
AcDbEntity
  8
0
100
AcDbMText
 62
2
  6
CONTINUOUS
  7
STANDARD
 71
2
 72
1
 10
6.055
 20
-1.4065
 30
0.0
 11
1.0
 21
0.0
 31
0.0
 44
0.9
  1
1
 40
0.125
 41
0.2
  0
MTEXT
  5
260
100
AcDbEntity
  8
0
100
AcDbMText
 62
2
  6
CONTINUOUS
  7
STANDARD
 71
2
 72
1
 10
1.5275
 20
-1.6565
 30
0.0
 11
1.0
 21
0.0
 31
0.0
 44
0.9
  1
Stack Height
 40
0.125
 41
2.4
  0
MTEXT
  5
261
100
AcDbEntity
  8
0
100
AcDbMText
 62
2
  6
CONTINUOUS
  7
STANDARD
 71
2
 72
1
 10
4.555
 20
-1.6565
 30
0.0
 11
1.0
 21
0.0
 31
0.0
 44
0.9
  1
1.75 in.
 40
0.125
 41
1.6
  0
MTEXT
  5
262
100
AcDbEntity
  8
0
100
AcDbMText
 62
2
  6
CONTINUOUS
  7
STANDARD
 71
2
 72
1
 10
7.555
 20
-1.6565
 30
0.0
 11
1.0
 21
0.0
 31
0.0
 44
0.9
  1
44,5 mm
 40
0.125
 41
1.4
  0
MTEXT
  5
263
100
AcDbEntity
  8
0
100
AcDbMText
 62
2
  6
CONTINUOUS
  7
STANDARD
 71
2
 72
1
 10
1.5275
 20
-1.9065
 30
0.0
 11
1.0
 21
0.0
 31
0.0
 44
0.9
  1
Weight
 40
0.125
 41
1.2
  0
MTEXT
  5
264
100
AcDbEntity
  8
0
100
AcDbMText
 62
2
  6
CONTINUOUS
  7
STANDARD
 71
2
 72
1
 10
4.555
 20
-1.9065
 30
0.0
 11
1.0
 21
0.0
 31
0.0
 44
0.9
  1
1.141 lb.
 40
0.125
 41
1.8
  0
MTEXT
  5
265
100
AcDbEntity
  8
0
100
AcDbMText
 62
2
  6
CONTINUOUS
  7
STANDARD
 71
2
 72
1
 10
7.555
 20
-1.9065
 30
0.0
 11
1.0
 21
0.0
 31
0.0
 44
0.9
  1
0,518 kg.
 40
0.125
 41
1.8
  0
ENDBLK
  5
266
100
AcDbEntity
  8
0
  6
BYBLOCK
 62
0
100
AcDbBlockEnd
  0
ENDSEC
  0
SECTION
  2
ENTITIES
  0
IMAGE
  5
267
100
AcDbEntity
  8
0
100
AcDbRasterImage
 62
7
  6
CONTINUOUS
 10
19.2297077316
 20
0.3094318264
 30
0.0
 11
0.0066666667
 21
0.0
 31
0.0
 12
0.0
 22
0.0066666667
 32
0.0
 13
369.0
 23
92.0
340
       368
 70
9
280
0
281
50
282
50
283
0
360
       362
 71
1
 91
2
 14
-0.5
 24
-0.5
 14
368.5
 24
91.5
  0
INSERT
  5
268
100
AcDbEntity
  8
0
100
AcDbBlockReference
 62
2
  6
CONTINUOUS
  2
SUN_FIRST_THIRD_ANGLE_BL0
 10
20.4816717061
 20
1.2289683772
  0
ACAD_TABLE
  5
269
100
AcDbEntity
  8
0
 62
2
  6
CONTINUOUS
100
AcDbBlockReference
  2
*T1
 10
12.42375
 20
0.30125
 30
0.0
100
AcDbTable
342
       36A
343
207
 11
1.0
 21
0.0
 31
0.0
 90
6
 91
4
 92
6
 93
20
 94
0
 95
0
 96
0
 70
1
 41
0.0
141
0.525
141
0.1
141
0.525
141
0.1
142
4.1
142
1.1
142
0.7
142
0.5
142
0.4
142
2.475
171
1
172
0
173
0
174
0
175
1
176
1
 91
33
178
0
145
0.0
301
CELL_VALUE
 90
4
  1
T-10A Sandwich ISO 03\PA or B to T with make up check
304
ACVALUE_END
170
2
140
0.125
171
1
172
0
173
0
174
0
175
1
176
1
 91
33
178
0
145
0.0
301
CELL_VALUE
 90
4
  1
Aug-14-19
304
ACVALUE_END
170
5
140
0.125
171
1
172
0
173
0
174
0
175
1
176
1
 91
33
178
0
145
0.0
301
CELL_VALUE
 90
4
  1
2.000
304
ACVALUE_END
170
5
140
0.125
171
1
172
0
173
0
174
0
175
1
176
1
 91
33
178
0
145
0.0
301
CELL_VALUE
 90
4
  1
C
304
ACVALUE_END
170
5
140
0.125
171
1
172
0
173
0
174
0
175
1
176
1
 91
33
178
0
145
0.0
301
CELL_VALUE
 90
4
  1
2
304
ACVALUE_END
170
5
140
0.125
171
1
172
0
173
0
174
0
175
1
176
1
 91
33
178
0
145
0.0
301
CELL_VALUE
 90
4
  1
 
304
ACVALUE_END
170
1
140
0.125
171
1
172
0
173
0
174
0
175
1
176
1
 91
33
178
0
145
0.0
301
CELL_VALUE
 90
4
  1
DESCRIPTION
304
ACVALUE_END
170
1
140
0.06
171
1
172
0
173
0
174
0
175
1
176
1
 91
33
178
0
145
0.0
301
CELL_VALUE
 90
4
  1
DATE
304
ACVALUE_END
170
1
140
0.06
171
1
172
0
173
0
174
0
175
1
176
1
 91
33
178
0
145
0.0
301
CELL_VALUE
 90
4
  1
SCALE
304
ACVALUE_END
170
1
140
0.06
171
1
172
0
173
0
174
0
175
1
176
1
 91
33
178
0
145
0.0
301
CELL_VALUE
 90
4
  1
DWG SIZE
304
ACVALUE_END
170
1
140
0.06
171
1
172
0
173
0
174
0
175
1
176
1
 91
33
178
0
145
0.0
301
CELL_VALUE
 90
4
  1
SHEET
304
ACVALUE_END
170
1
140
0.06
171
1
172
0
173
0
174
0
175
1
176
1
 91
33
178
0
145
0.0
301
CELL_VALUE
 90
4
  1
 
304
ACVALUE_END
170
1
140
0.125
171
1
172
0
173
0
174
0
175
1
176
1
 91
33
178
0
145
0.0
301
CELL_VALUE
 90
4
  1
FB2
304
ACVALUE_END
170
5
140
0.125
171
1
172
0
173
0
174
0
175
4
176
1
 91
33
178
0
145
0.0
301
CELL_VALUE
 90
4
  1
ALL DIMENSIONS IN INCH\PVIEWS ARE THIRD ANGLE
304
ACVALUE_END
170
5
140
0.12
171
1
172
0
173
1
174
0
175
1
176
1
 91
1
178
0
145
0.0
170
1
171
1
172
0
173
1
174
0
175
1
176
1
 91
1
178
0
145
0.0
170
1
171
1
172
0
173
1
174
0
175
1
176
1
 91
1
178
0
145
0.0
170
5
171
1
172
0
173
0
174
0
175
1
176
1
 91
33
178
0
145
0.0
301
CELL_VALUE
 90
4
  1
 
304
ACVALUE_END
170
1
140
0.125
171
1
172
0
173
0
174
0
175
1
176
1
 91
33
178
0
145
0.0
301
CELL_VALUE
 90
4
  1
MODEL
304
ACVALUE_END
170
1
140
0.06
171
1
172
0
173
0
174
0
175
1
176
1
 91
33
178
0
145
0.0
301
CELL_VALUE
 90
4
  1
 
304
ACVALUE_END
170
1
140
0.125
171
1
172
0
173
0
174
0
175
1
176
1
 91
33
178
0
145
0.0
301
CELL_VALUE
 90
4
  1
 
304
ACVALUE_END
170
1
140
0.125
171
1
172
0
173
0
174
0
175
1
176
1
 91
33
178
0
145
0.0
301
CELL_VALUE
 90
4
  1
 
304
ACVALUE_END
170
1
140
0.125
171
1
172
0
173
0
174
0
175
1
176
1
 91
33
178
0
145
0.0
301
CELL_VALUE
 90
4
  1
 
304
ACVALUE_END
170
1
140
0.125
171
1
172
0
173
0
174
0
175
1
176
1
 91
33
178
0
145
0.0
301
CELL_VALUE
 90
4
  1
 
304
ACVALUE_END
170
1
140
0.125
  0
ACAD_TABLE
  5
26A
100
AcDbEntity
  8
0
 62
2
  6
CONTINUOUS
100
AcDbBlockReference
  2
*T2
 10
12.4237499994
 20
16.47875
 30
0.0
100
AcDbTable
342
       369
343
208
 11
1.0
 21
0.0
 31
0.0
 90
22
 91
8
 92
3
 93
16
 94
0
 95
0
 96
0
 41
0.028
141
0.344
141
0.25
141
0.25
141
0.25
141
0.25
141
0.25
141
0.25
141
0.25
142
3.055
142
3.0
142
3.0
171
1
172
0
173
0
174
0
175
1
176
1
 91
33
178
0
145
0.0
301
CELL_VALUE
 90
4
  1
Technical Data
304
ACVALUE_END
170
5
140
0.145
171
1
172
0
173
0
174
0
175
1
176
1
 91
33
178
0
145
0.0
301
CELL_VALUE
 90
4
  1
U.S. Units
304
ACVALUE_END
170
5
140
0.145
171
1
172
0
173
0
174
0
175
1
176
1
 91
33
178
0
145
0.0
301
CELL_VALUE
 90
4
  1
Metric Units
304
ACVALUE_END
170
5
140
0.145
171
1
172
0
173
0
174
0
175
1
176
1
 91
33
178
0
145
0.0
301
CELL_VALUE
 90
4
  1
Cavity
304
ACVALUE_END
170
5
140
0.125
171
1
172
0
173
0
174
0
175
2
176
1
 91
33
178
0
145
0.0
301
CELL_VALUE
 90
4
  1
T-10A
304
ACVALUE_END
170
5
140
0.125
171
1
172
0
173
1
174
0
175
1
176
1
 91
1
178
0
145
0.0
170
1
171
1
172
0
173
0
174
0
175
1
176
1
 91
33
178
0
145
0.0
301
CELL_VALUE
 90
4
  1
Body Features
304
ACVALUE_END
170
5
140
0.125
171
1
172
0
173
0
174
0
175
2
176
1
 91
33
178
0
145
0.0
301
CELL_VALUE
 90
4
  1
A or B to T with make up check
304
ACVALUE_END
170
5
140
0.125
171
1
172
0
173
1
174
0
175
1
176
1
 91
1
178
0
145
0.0
170
1
171
1
172
0
173
0
174
0
175
1
176
1
 91
33
178
0
145
0.0
301
CELL_VALUE
 90
4
  1
Body Type
304
ACVALUE_END
170
5
140
0.125
171
1
172
0
173
0
174
0
175
2
176
1
 91
33
178
0
145
0.0
301
CELL_VALUE
 90
4
  1
Sandwich
304
ACVALUE_END
170
5
140
0.125
171
1
172
0
173
1
174
0
175
1
176
1
 91
1
178
0
145
0.0
170
1
171
1
172
0
173
0
174
0
175
1
176
1
 91
33
178
0
145
0.0
301
CELL_VALUE
 90
4
  1
Interface
304
ACVALUE_END
170
5
140
0.125
171
1
172
0
173
0
174
0
175
2
176
1
 91
33
178
0
145
0.0
301
CELL_VALUE
 90
4
  1
ISO 03
304
ACVALUE_END
170
5
140
0.125
171
1
172
0
173
1
174
0
175
1
176
1
 91
1
178
0
145
0.0
170
1
171
1
172
0
173
0
174
0
175
1
176
1
 91
33
178
0
145
0.0
301
CELL_VALUE
 90
4
  1
Open Cavity Quantity
304
ACVALUE_END
170
5
140
0.125
171
1
172
0
173
0
174
0
175
2
176
1
 91
33
178
0
145
0.0
301
CELL_VALUE
 90
4
  1
1
304
ACVALUE_END
170
5
140
0.125
171
1
172
0
173
1
174
0
175
1
176
1
 91
1
178
0
145
0.0
170
1
171
1
172
0
173
0
174
0
175
1
176
1
 91
33
178
0
145
0.0
301
CELL_VALUE
 90
4
  1
Stack Height
304
ACVALUE_END
170
5
140
0.125
171
1
172
0
173
0
174
0
175
1
176
1
 91
33
178
0
145
0.0
301
CELL_VALUE
 90
4
  1
1.75 in.
304
ACVALUE_END
170
5
140
0.125
171
1
172
0
173
0
174
0
175
1
176
1
 91
33
178
0
145
0.0
301
CELL_VALUE
 90
4
  1
44,5 mm
304
ACVALUE_END
170
5
140
0.125
171
1
172
0
173
0
174
0
175
1
176
1
 91
33
178
0
145
0.0
301
CELL_VALUE
 90
4
  1
Weight
304
ACVALUE_END
170
5
140
0.125
171
1
172
0
173
0
174
0
175
1
176
1
 91
33
178
0
145
0.0
301
CELL_VALUE
 90
4
  1
1.141 lb.
304
ACVALUE_END
170
5
140
0.125
171
1
172
0
173
0
174
0
175
1
176
1
 91
33
178
0
145
0.0
301
CELL_VALUE
 90
4
  1
0,518 kg.
304
ACVALUE_END
170
5
140
0.125
  0
MTEXT
  5
26B
100
AcDbEntity
  8
0
100
AcDbMText
 62
2
  6
CONTINUOUS
  7
STANDARD
 71
1
 72
1
 10
0.52125
 20
5.75995
 30
0.0
 11
1.0
 21
0.0
 31
0.0
 44
0.6
  3
Notes\P \P1. Important: Carefully consider\P   the maximum system pressure. The\P   pressure rating of the manifold is\P   dependent on the manifold material,\P   with the port type/size a secondary\P   consideration. Manifolds\P   constructed of alu
  1
minum are not\P   rated for pressures higher than\P   3000 psi (210 bar), regardless of\P   the port type/size specified.\P2. Items without balloons are\P   shipped loose.
 40
0.1
 41
3.04
  0
LINE
  5
26C
100
AcDbEntity
  8
0
100
AcDbLine
 62
7
  6
CONTINUOUS
 10
0.30125
 20
0.30125
 11
0.30125
 21
16.69875
  0
LINE
  5
26D
100
AcDbEntity
  8
0
100
AcDbLine
 62
7
  6
CONTINUOUS
 10
0.30125
 20
0.30125
 11
21.69875
 21
0.30125
  0
LINE
  5
26E
100
AcDbEntity
  8
0
100
AcDbLine
 62
7
  6
CONTINUOUS
 10
0.30125
 20
16.69875
 11
21.69875
 21
16.69875
  0
LINE
  5
26F
100
AcDbEntity
  8
0
100
AcDbLine
 62
7
  6
CONTINUOUS
 10
21.69875
 20
0.30125
 11
21.69875
 21
16.69875
  0
LINE
  5
270
100
AcDbEntity
  8
0
100
AcDbLine
 62
7
  6
CONTINUOUS
 10
6.0079153314
 20
9.2274150648
 11
6.0079153314
 21
7.5370447687
  0
LINE
  5
271
100
AcDbEntity
  8
0
100
AcDbLine
 62
7
  6
CONTINUOUS
 10
6.0517559687
 20
9.2077618711
 11
6.0517559687
 21
7.5173915749
  0
LINE
  5
272
100
AcDbEntity
  8
0
100
AcDbLine
 62
7
  6
CONTINUOUS
 10
6.1474452557
 20
6.9854080365
 11
6.095694304
 21
7.0490385361
  0
LINE
  5
273
100
AcDbEntity
  8
0
100
AcDbLine
 62
7
  6
CONTINUOUS
 10
6.6611740622
 20
10.5229715893
 11
6.1859826875
 21
10.0639719409
  0
LINE
  5
274
100
AcDbEntity
  8
0
100
AcDbLine
 62
7
  6
CONTINUOUS
 10
6.7210614669
 20
10.5787057885
 11
6.2458700923
 21
10.1197061401
  0
LINE
  5
275
100
AcDbEntity
  8
0
100
AcDbLine
 62
7
  6
CONTINUOUS
 10
6.7228938731
 20
10.5804434785
 11
6.7210614669
 21
10.5787057885
  0
LINE
  5
276
100
AcDbEntity
  8
0
100
AcDbLine
 62
7
  6
CONTINUOUS
 10
6.662856578
 20
10.5245668819
 11
6.6611740622
 21
10.5229715893
  0
LINE
  5
277
100
AcDbEntity
  8
0
100
AcDbLine
 62
7
  6
CONTINUOUS
 10
6.6611740622
 20
10.5229715893
 11
6.7210453685
 21
10.5787230857
  0
LINE
  5
278
100
AcDbEntity
  8
0
100
AcDbLine
 62
7
  6
CONTINUOUS
 10
6.1859826875
 20
10.0639719409
 11
6.2458700923
 21
10.1197061401
  0
LINE
  5
279
100
AcDbEntity
  8
0
100
AcDbLine
 62
7
  6
CONTINUOUS
 10
7.915438116
 20
9.9160917698
 11
7.915438116
 21
6.5353511775
  0
LINE
  5
27A
100
AcDbEntity
  8
0
100
AcDbLine
 62
7
  6
CONTINUOUS
 10
8.7954221678
 20
10.7660911425
 11
7.915438116
 21
9.9160917698
  0
LINE
  5
27B
100
AcDbEntity
  8
0
100
AcDbLine
 62
7
  6
CONTINUOUS
 10
6.0079153314
 20
7.5370447687
 11
6.0517559687
 21
7.5173915749
  0
LINE
  5
27C
100
AcDbEntity
  8
0
100
AcDbLine
 62
7
  6
CONTINUOUS
 10
7.915438116
 20
6.5353511775
 11
12.2621042464
 21
6.2339088575
  0
LINE
  5
27D
100
AcDbEntity
  8
0
100
AcDbLine
 62
7
  6
CONTINUOUS
 10
13.8550968186
 20
6.9928408842
 11
13.7791626463
 21
6.9814941017
  0
LINE
  5
27E
100
AcDbEntity
  8
0
100
AcDbLine
 62
7
  6
CONTINUOUS
 10
7.915438116
 20
6.8373051132
 11
6.1939820426
 21
6.9566884974
  0
LINE
  5
27F
100
AcDbEntity
  8
0
100
AcDbLine
 62
7
  6
CONTINUOUS
 10
12.4126125353
 20
6.5254250079
 11
13.9213887202
 21
6.4207910241
  0
LINE
  5
280
100
AcDbEntity
  8
0
100
AcDbLine
 62
7
  6
CONTINUOUS
 10
13.7791626463
 20
6.9814941017
 11
12.2703864613
 21
7.0861280855
  0
LINE
  5
281
100
AcDbEntity
  8
0
100
AcDbLine
 62
7
  6
CONTINUOUS
 10
6.0517559687
 20
7.5173915749
 11
7.915438116
 21
7.388144779
  0
LINE
  5
282
100
AcDbEntity
  8
0
100
AcDbLine
 62
7
  6
CONTINUOUS
 10
6.0079153314
 20
9.2274150648
 11
6.0517559687
 21
9.2077618711
  0
LINE
  5
283
100
AcDbEntity
  8
0
100
AcDbLine
 62
7
  6
CONTINUOUS
 10
14.8471668577
 20
7.3553164632
 11
15.6883653092
 21
7.2969791524
  0
LINE
  5
284
100
AcDbEntity
  8
0
100
AcDbLine
 62
7
  6
CONTINUOUS
 10
14.2967414972
 20
7.4952466059
 11
14.3638474152
 21
7.4905927947
  0
LINE
  5
285
100
AcDbEntity
  8
0
100
AcDbLine
 62
7
  6
CONTINUOUS
 10
14.4024844505
 20
7.4879133072
 11
14.6578389578
 21
7.4702044119
  0
LINE
  5
286
100
AcDbEntity
  8
0
100
AcDbLine
 62
7
  6
CONTINUOUS
 10
14.6513505026
 20
7.5880983563
 11
15.4925489541
 21
7.5297610456
  0
LINE
  5
287
100
AcDbEntity
  8
0
100
AcDbLine
 62
7
  6
CONTINUOUS
 10
14.6360212915
 20
7.6723811406
 11
15.477219743
 21
7.6140438299
  0
LINE
  5
288
100
AcDbEntity
  8
0
100
AcDbLine
 62
7
  6
CONTINUOUS
 10
13.8550968186
 20
8.6832111803
 11
13.7791626463
 21
8.6718643978
  0
LINE
  5
289
100
AcDbEntity
  8
0
100
AcDbLine
 62
7
  6
CONTINUOUS
 10
13.1420882982
 20
10.4646488225
 11
12.2621042464
 21
9.6146494498
  0
LINE
  5
28A
100
AcDbEntity
  8
0
100
AcDbLine
 62
7
  6
CONTINUOUS
 10
12.464500585
 20
9.6884426507
 11
12.9396919596
 21
10.147442299
  0
LINE
  5
28B
100
AcDbEntity
  8
0
100
AcDbLine
 62
7
  6
CONTINUOUS
 10
14.6360212915
 20
8.5162330985
 11
15.477219743
 21
8.4578957877
  0
LINE
  5
28C
100
AcDbEntity
  8
0
100
AcDbLine
 62
7
  6
CONTINUOUS
 10
13.7791626463
 20
8.6718643978
 11
12.2703864613
 21
8.7764983816
  0
LINE
  5
28D
100
AcDbEntity
  8
0
100
AcDbLine
 62
7
  6
CONTINUOUS
 10
6.0517559687
 20
9.2077618711
 11
7.915438116
 21
9.0785150752
  0
LINE
  5
28E
100
AcDbEntity
  8
0
100
AcDbLine
 62
7
  6
CONTINUOUS
 10
14.6513505026
 20
8.6301296465
 11
15.4925489541
 21
8.5717923357
  0
LINE
  5
28F
100
AcDbEntity
  8
0
100
AcDbLine
 62
7
  6
CONTINUOUS
 10
14.4149516176
 20
9.201155858
 11
14.4821521685
 21
9.196495484
  0
LINE
  5
290
100
AcDbEntity
  8
0
100
AcDbLine
 62
7
  6
CONTINUOUS
 10
14.5207892038
 20
9.1938159965
 11
14.7748359435
 21
9.1761977952
  0
LINE
  5
291
100
AcDbEntity
  8
0
100
AcDbLine
 62
7
  6
CONTINUOUS
 10
14.8471668577
 20
9.2411997112
 11
15.6883653092
 21
9.1828624004
  0
LINE
  5
292
100
AcDbEntity
  8
0
100
AcDbLine
 62
7
  6
CONTINUOUS
 10
14.87782528
 20
9.2708134748
 11
15.7190237315
 21
9.212476164
  0
LINE
  5
293
100
AcDbEntity
  8
0
100
AcDbLine
 62
7
  6
CONTINUOUS
 10
12.2621042464
 20
9.6146494498
 11
12.2621042464
 21
6.2339088575
  0
LINE
  5
294
100
AcDbEntity
  8
0
100
AcDbLine
 62
7
  6
CONTINUOUS
 10
12.2703864613
 20
7.0861280855
 11
12.2703864613
 21
8.7764983816
  0
LINE
  5
295
100
AcDbEntity
  8
0
100
AcDbLine
 62
7
  6
CONTINUOUS
 10
13.9732767699
 20
9.5838086668
 11
14.4484681445
 21
10.0428083152
  0
LINE
  5
296
100
AcDbEntity
  8
0
100
AcDbLine
 62
7
  6
CONTINUOUS
 10
14.0331641747
 20
9.5197680564
 11
14.5083555493
 21
9.9787677048
  0
LINE
  5
297
100
AcDbEntity
  8
0
100
AcDbLine
 62
7
  6
CONTINUOUS
 10
7.915438116
 20
9.9160917698
 11
12.2621042464
 21
9.6146494498
  0
LINE
  5
298
100
AcDbEntity
  8
0
100
AcDbLine
 62
7
  6
CONTINUOUS
 10
13.9732767699
 20
9.5838086668
 11
12.464500585
 21
9.6884426507
  0
LINE
  5
299
100
AcDbEntity
  8
0
100
AcDbLine
 62
7
  6
CONTINUOUS
 10
6.2458700923
 20
10.1197061401
 11
8.0002748402
 21
9.9980377576
  0
LINE
  5
29A
100
AcDbEntity
  8
0
100
AcDbLine
 62
4
  6
CONTINUOUS
 10
14.2604071012
 20
9.4977864164
 11
14.2759362308
 21
9.5127864046
  0
LINE
  5
29B
100
AcDbEntity
  8
0
100
AcDbLine
 62
4
  6
CONTINUOUS
 10
14.318641337
 20
9.5540363721
 11
14.3264059018
 21
9.5615363661
  0
LINE
  5
29C
100
AcDbEntity
  8
0
100
AcDbLine
 62
4
  6
CONTINUOUS
 10
14.4428743734
 20
9.6740362775
 11
14.4506389382
 21
9.6815362715
  0
LINE
  5
29D
100
AcDbEntity
  8
0
100
AcDbLine
 62
4
  6
CONTINUOUS
 10
14.4506389382
 20
9.4497140647
 11
14.4428743734
 21
9.4422140706
  0
LINE
  5
29E
100
AcDbEntity
  8
0
100
AcDbLine
 62
4
  6
CONTINUOUS
 10
14.3264059018
 20
9.3297141593
 11
14.318641337
 21
9.3222141652
  0
LINE
  5
29F
100
AcDbEntity
  8
0
100
AcDbLine
 62
4
  6
CONTINUOUS
 10
14.2759362308
 20
9.2809641977
 11
14.2604071012
 21
9.2659642095
  0
LINE
  5
2A0
100
AcDbEntity
  8
0
100
AcDbLine
 62
7
  6
CONTINUOUS
 10
14.4484681445
 20
10.0428083152
 11
12.9396919596
 21
10.147442299
  0
LINE
  5
2A1
100
AcDbEntity
  8
0
100
AcDbLine
 62
7
  6
CONTINUOUS
 10
6.7210614669
 20
10.5787057885
 11
8.4754662148
 21
10.457037406
  0
LINE
  5
2A2
100
AcDbEntity
  8
0
100
AcDbLine
 62
7
  6
CONTINUOUS
 10
8.50189102
 20
10.4825618092
 11
6.7729495166
 21
10.6024643097
  0
LINE
  5
2A3
100
AcDbEntity
  8
0
100
AcDbLine
 62
7
  6
CONTINUOUS
 10
12.9915800093
 20
10.1712008203
 11
14.5003561942
 21
10.0665668365
  0
LINE
  5
2A4
100
AcDbEntity
  8
0
100
AcDbLine
 62
7
  6
CONTINUOUS
 10
13.1420882982
 20
10.160763035
 11
13.1420882982
 21
10.4646488225
  0
LINE
  5
2A5
100
AcDbEntity
  8
0
100
AcDbLine
 62
7
  6
CONTINUOUS
 10
14.4415937664
 20
9.1462468724
 11
14.4579770583
 21
9.163083265
  0
LINE
  5
2A6
100
AcDbEntity
  8
0
100
AcDbLine
 62
7
  6
CONTINUOUS
 10
14.4616368272
 20
9.1667312822
 11
14.4579766248
 21
9.1630828196
  0
LINE
  5
2A7
100
AcDbEntity
  8
0
100
AcDbLine
 62
7
  6
CONTINUOUS
 10
14.7457763907
 20
9.1491522344
 11
14.7436871852
 21
9.1471710235
  0
LINE
  5
2A8
100
AcDbEntity
  8
0
100
AcDbLine
 62
7
  6
CONTINUOUS
 10
14.8648855346
 20
9.2600064383
 11
14.8624960688
 21
9.2577404831
  0
LINE
  5
2A9
100
AcDbEntity
  8
0
100
AcDbLine
 62
7
  6
CONTINUOUS
 10
14.7457761282
 20
9.14915199
 11
14.8648855264
 21
9.2600064308
  0
LINE
  5
2AA
100
AcDbEntity
  8
0
100
AcDbLine
 62
7
  6
CONTINUOUS
 10
8.7954221678
 20
10.7660911425
 11
13.1420882982
 21
10.4646488225
  0
LINE
  5
2AB
100
AcDbEntity
  8
0
100
AcDbLine
 62
7
  6
CONTINUOUS
 10
14.6314828714
 20
7.501093323
 11
14.6484077027
 21
7.4802833584
  0
LINE
  5
2AC
100
AcDbEntity
  8
0
100
AcDbLine
 62
7
  6
CONTINUOUS
 10
14.3306134204
 20
7.5459589264
 11
14.344515839
 21
7.5270222126
  0
LINE
  5
2AD
100
AcDbEntity
  8
0
100
AcDbLine
 62
7
  6
CONTINUOUS
 10
12.2621042464
 20
6.2339088575
 11
12.5537693686
 21
6.5156357483
  0
LINE
  5
2AE
100
AcDbEntity
  8
0
100
AcDbLine
 62
7
  6
CONTINUOUS
 10
13.7791626463
 20
6.9814941017
 11
13.7791626463
 21
8.6718643978
  0
LINE
  5
2AF
100
AcDbEntity
  8
0
100
AcDbLine
 62
7
  6
CONTINUOUS
 10
13.8550968186
 20
6.9928408842
 11
13.8550968186
 21
8.6832111803
  0
LINE
  5
2B0
100
AcDbEntity
  8
0
100
AcDbLine
 62
4
  6
CONTINUOUS
 10
14.2526425365
 20
9.4709679045
 11
14.2604071012
 21
9.4977864164
  0
LINE
  5
2B1
100
AcDbEntity
  8
0
100
AcDbLine
 62
4
  6
CONTINUOUS
 10
14.3108767723
 20
9.5272178602
 11
14.318641337
 21
9.5540363721
  0
LINE
  5
2B2
100
AcDbEntity
  8
0
100
AcDbLine
 62
4
  6
CONTINUOUS
 10
14.3341704666
 20
9.356532666
 11
14.3264059018
 21
9.3297141593
  0
LINE
  5
2B3
100
AcDbEntity
  8
0
100
AcDbLine
 62
7
  6
CONTINUOUS
 10
14.0331641747
 20
9.5197680564
 11
13.9732767699
 21
9.5838086668
  0
LINE
  5
2B4
100
AcDbEntity
  8
0
100
AcDbLine
 62
4
  6
CONTINUOUS
 10
14.2448779717
 20
9.3089197731
 11
14.2409956893
 21
9.3631253278
  0
LINE
  5
2B5
100
AcDbEntity
  8
0
100
AcDbLine
 62
4
  6
CONTINUOUS
 10
14.2759362308
 20
9.5127864046
 11
14.2759362308
 21
9.2809641977
  0
LINE
  5
2B6
100
AcDbEntity
  8
0
100
AcDbLine
 62
4
  6
CONTINUOUS
 10
14.2409956893
 20
9.3631253278
 11
14.2448779717
 21
9.4248308765
  0
LINE
  5
2B7
100
AcDbEntity
  8
0
100
AcDbLine
 62
4
  6
CONTINUOUS
 10
14.3458173137
 20
9.4643752479
 11
14.3419350313
 21
9.4026696992
  0
LINE
  5
2B8
100
AcDbEntity
  8
0
100
AcDbLine
 62
4
  6
CONTINUOUS
 10
14.4001692671
 20
9.63278631
 11
14.369111008
 21
9.3709641268
  0
LINE
  5
2B9
100
AcDbEntity
  8
0
100
AcDbLine
 62
4
  6
CONTINUOUS
 10
14.2448779717
 20
9.4248308765
 11
14.2526425365
 21
9.4709679045
  0
LINE
  5
2BA
100
AcDbEntity
  8
0
100
AcDbLine
 62
4
  6
CONTINUOUS
 10
14.3069944899
 20
9.5041493453
 11
14.3108767723
 21
9.5272178602
  0
LINE
  5
2BB
100
AcDbEntity
  8
0
100
AcDbLine
 62
4
  6
CONTINUOUS
 10
14.3419350313
 20
9.4026696992
 11
14.3341704666
 21
9.356532666
  0
LINE
  5
2BC
100
AcDbEntity
  8
0
100
AcDbLine
 62
4
  6
CONTINUOUS
 10
14.4312275262
 20
9.6241492507
 11
14.4351098086
 21
9.6472177656
  0
LINE
  5
2BD
100
AcDbEntity
  8
0
100
AcDbLine
 62
4
  6
CONTINUOUS
 10
14.4661680677
 20
9.5226696046
 11
14.4584035029
 21
9.4765325714
  0
LINE
  5
2BE
100
AcDbEntity
  8
0
100
AcDbLine
 62
4
  6
CONTINUOUS
 10
14.4351098086
 20
9.6472177656
 11
14.4428743734
 21
9.6740362775
  0
LINE
  5
2BF
100
AcDbEntity
  8
0
100
AcDbLine
 62
4
  6
CONTINUOUS
 10
14.4584035029
 20
9.4765325714
 11
14.4506389382
 21
9.4497140647
  0
LINE
  5
2C0
100
AcDbEntity
  8
0
100
AcDbLine
 62
4
  6
CONTINUOUS
 10
14.2604071012
 20
9.2659642095
 11
14.2526425365
 21
9.2777827281
  0
LINE
  5
2C1
100
AcDbEntity
  8
0
100
AcDbLine
 62
4
  6
CONTINUOUS
 10
14.318641337
 20
9.3222141652
 11
14.3108767723
 21
9.3340326837
  0
LINE
  5
2C2
100
AcDbEntity
  8
0
100
AcDbLine
 62
4
  6
CONTINUOUS
 10
14.3419350313
 20
9.5185808026
 11
14.3458173137
 21
9.4643752479
  0
LINE
  5
2C3
100
AcDbEntity
  8
0
100
AcDbLine
 62
4
  6
CONTINUOUS
 10
14.4661680677
 20
9.638580708
 11
14.4700503501
 21
9.5843751533
  0
LINE
  5
2C4
100
AcDbEntity
  8
0
100
AcDbLine
 62
7
  6
CONTINUOUS
 10
14.6864229054
 20
9.4862105652
 11
14.6864229054
 21
9.1823292602
  0
LINE
  5
2C5
100
AcDbEntity
  8
0
100
AcDbLine
 62
4
  6
CONTINUOUS
 10
14.4700503501
 20
9.5843751533
 11
14.4661680677
 21
9.5226696046
  0
LINE
  5
2C6
100
AcDbEntity
  8
0
100
AcDbLine
 62
7
  6
CONTINUOUS
 10
14.5083555493
 20
6.9592833929
 11
14.0331641747
 21
6.5002837445
  0
LINE
  5
2C7
100
AcDbEntity
  8
0
100
AcDbLine
 62
7
  6
CONTINUOUS
 10
14.0331641747
 20
6.5002837445
 11
14.0314816588
 21
6.498688452
  0
LINE
  5
2C8
100
AcDbEntity
  8
0
100
AcDbLine
 62
7
  6
CONTINUOUS
 10
13.9714443638
 20
6.4428118554
 11
14.0314832474
 21
6.4986897036
  0
LINE
  5
2C9
100
AcDbEntity
  8
0
100
AcDbLine
 62
7
  6
CONTINUOUS
 10
14.5083555493
 20
9.9787677048
 11
14.4484681445
 21
10.0428083152
  0
LINE
  5
2CA
100
AcDbEntity
  8
0
100
AcDbLine
 62
4
  6
CONTINUOUS
 10
14.3264059018
 20
9.5615363661
 11
14.3341704666
 21
9.5497178424
  0
LINE
  5
2CB
100
AcDbEntity
  8
0
100
AcDbLine
 62
4
  6
CONTINUOUS
 10
14.4428743734
 20
9.4422140706
 11
14.4351098086
 21
9.4540325891
  0
LINE
  5
2CC
100
AcDbEntity
  8
0
100
AcDbLine
 62
4
  6
CONTINUOUS
 10
14.4506389382
 20
9.6815362715
 11
14.4584035029
 21
9.6697177478
  0
LINE
  5
2CD
100
AcDbEntity
  8
0
100
AcDbLine
 62
4
  6
CONTINUOUS
 10
14.2526425365
 20
9.2777827281
 11
14.2448779717
 21
9.3089197731
  0
LINE
  5
2CE
100
AcDbEntity
  8
0
100
AcDbLine
 62
4
  6
CONTINUOUS
 10
14.3108767723
 20
9.3340326837
 11
14.3069944899
 21
9.3496012131
  0
LINE
  5
2CF
100
AcDbEntity
  8
0
100
AcDbLine
 62
4
  6
CONTINUOUS
 10
14.3341704666
 20
9.5497178424
 11
14.3419350313
 21
9.5185808026
  0
LINE
  5
2D0
100
AcDbEntity
  8
0
100
AcDbLine
 62
4
  6
CONTINUOUS
 10
14.4351098086
 20
9.4540325891
 11
14.4312275262
 21
9.4696011185
  0
LINE
  5
2D1
100
AcDbEntity
  8
0
100
AcDbLine
 62
4
  6
CONTINUOUS
 10
14.4584035029
 20
9.6697177478
 11
14.4661680677
 21
9.638580708
  0
LINE
  5
2D2
100
AcDbEntity
  8
0
100
AcDbLine
 62
4
  6
CONTINUOUS
 10
14.4001692671
 20
9.4009641031
 11
14.369111008
 21
9.6027863336
  0
LINE
  5
2D3
100
AcDbEntity
  8
0
100
AcDbLine
 62
7
  6
CONTINUOUS
 10
14.5468929812
 20
10.0378472974
 11
14.5986439328
 21
9.9742167978
  0
LINE
  5
2D4
100
AcDbEntity
  8
0
100
AcDbLine
 62
7
  6
CONTINUOUS
 10
15.7789034384
 20
7.4196869306
 11
15.812203953
 21
7.4761474463
  0
LINE
  5
2D5
100
AcDbEntity
  8
0
100
AcDbLine
 62
7
  6
CONTINUOUS
 10
15.9049819275
 20
9.0436857274
 11
15.9186377641
 21
9.0108763509
  0
ARC
  5
2D6
100
AcDbEntity
  8
0
100
AcDbCircle
 62
7
  6
CONTINUOUS
 10
18.1805126637
 20
8.0971637473
 40
3.5691789264
100
AcDbArc
 50
171.4122169565
 51
173.2571553889
  0
ARC
  5
2D7
100
AcDbEntity
  8
0
100
AcDbCircle
 62
7
  6
CONTINUOUS
 10
19.0217111152
 20
8.0388264365
 40
3.5691789264
100
AcDbArc
 50
171.4122169565
 51
173.2571553889
  0
ARC
  5
2D8
100
AcDbEntity
  8
0
100
AcDbCircle
 62
7
  6
CONTINUOUS
 10
10.1629131042
 20
8.9514574597
 40
0.2476913688
100
AcDbArc
 50
170.373021218
 51
174.8804184592
  0
ARC
  5
2D9
100
AcDbEntity
  8
0
100
AcDbCircle
 62
7
  6
CONTINUOUS
 10
9.3973075186
 20
7.0747804651
 40
0.1391500452
100
AcDbArc
 50
213.2682999863
 51
234.8433935263
  0
ARC
  5
2DA
100
AcDbEntity
  8
0
100
AcDbCircle
 62
7
  6
CONTINUOUS
 10
14.4091686787
 20
7.6002528914
 40
0.0994031928
100
AcDbArc
 50
228.2534394231
 51
228.7143256807
  0
ARC
  5
2DB
100
AcDbEntity
  8
0
100
AcDbCircle
 62
7
  6
CONTINUOUS
 10
14.510284944
 20
9.0840919443
 40
0.0964567099
100
AcDbArc
 50
121.8152307958
 51
123.4619251078
  0
ARC
  5
2DC
100
AcDbEntity
  8
0
100
AcDbCircle
 62
7
  6
CONTINUOUS
 10
14.404728986
 20
7.5951358346
 40
0.0926287255
100
AcDbArc
 50
228.6894658466
 51
232.9657810926
  0
ARC
  5
2DD
100
AcDbEntity
  8
0
100
AcDbCircle
 62
7
  6
CONTINUOUS
 10
14.5075244919
 20
9.0885145787
 40
0.0912433061
100
AcDbArc
 50
120.2691682457
 51
121.8063332828
  0
ARC
  5
2DE
100
AcDbEntity
  8
0
100
AcDbCircle
 62
7
  6
CONTINUOUS
 10
14.5057224612
 20
9.0915745109
 40
0.0876922081
100
AcDbArc
 50
119.5096010022
 51
120.2600497885
  0
SPLINE
  5
2DF
100
AcDbEntity
  8
0
100
AcDbSpline
 62
7
  6
CONTINUOUS
 70
0
 71
3
 72
19
 73
15
 74
0
 42
0.0000001
 43
0.0000001
 44
0.0000000001
 40
0.0
 40
0.0
 40
0.0
 40
0.0
 40
0.0539783854
 40
0.1081876053
 40
0.1628548449
 40
0.2182011496
 40
0.2744390797
 40
0.3317707377
 40
0.4504138856
 40
0.5121103727
 40
0.5755776343
 40
0.7083167748
 40
0.8495618203
 40
1.0
 40
1.0
 40
1.0
 40
1.0
 10
14.5207892966
 20
9.193815967
 30
0.0
 10
14.519586536
 20
9.1938993523
 30
0.0
 10
14.5171694123
 20
9.1939847646
 30
0.0
 10
14.5135312167
 20
9.1938677386
 30
0.0
 10
14.5098783557
 20
9.1935058844
 30
0.0
 10
14.5062123024
 20
9.1928994207
 30
0.0
 10
14.5025340317
 20
9.1920485278
 30
0.0
 10
14.4975592729
 20
9.1905720633
 30
0.0
 10
14.4926122976
 20
9.1886100561
 30
0.0
 10
14.4877224656
 20
9.1862097238
 30
0.0
 10
14.4826835546
 20
9.1834135807
 30
0.0
 10
14.4763648999
 20
9.1792840214
 30
0.0
 10
14.468884523
 20
9.1734461127
 30
0.0
 10
14.4640536298
 20
9.1690657345
 30
0.0
 10
14.4616368272
 20
9.1667312822
 30
0.0
  0
SPLINE
  5
2E0
100
AcDbEntity
  8
0
100
AcDbSpline
 62
7
  6
CONTINUOUS
 70
0
 71
3
 72
9
 73
5
 74
0
 42
0.0000001
 43
0.0000001
 44
0.0000000001
 40
0.0
 40
0.0
 40
0.0
 40
0.0
 40
0.4880283949
 40
1.0
 40
1.0
 40
1.0
 40
1.0
 10
14.87782528
 20
9.2708134748
 30
0.0
 10
14.8756192815
 20
9.2691821444
 30
0.0
 10
14.8712041312
 20
9.2656957457
 30
0.0
 10
14.8669924783
 20
9.2619673572
 30
0.0
 10
14.8648855345
 20
9.2600064373
 30
0.0
  0
SPLINE
  5
2E1
100
AcDbEntity
  8
0
100
AcDbSpline
 62
7
  6
CONTINUOUS
 70
0
 71
3
 72
9
 73
5
 74
0
 42
0.0000001
 43
0.0000001
 44
0.0000000001
 40
0.0
 40
0.0
 40
0.0
 40
0.0
 40
0.4861313864
 40
1.0
 40
1.0
 40
1.0
 40
1.0
 10
15.7036945203
 20
7.3100521442
 30
0.0
 10
15.7063238438
 20
7.3125918757
 30
0.0
 10
15.711576562
 20
7.3179792241
 30
0.0
 10
15.7165406049
 20
7.3236321495
 30
0.0
 10
15.7190237315
 20
7.3265929161
 30
0.0
  0
SPLINE
  5
2E2
100
AcDbEntity
  8
0
100
AcDbSpline
 62
7
  6
CONTINUOUS
 70
0
 71
3
 72
9
 73
5
 74
0
 42
0.0000001
 43
0.0000001
 44
0.0000000001
 40
0.0
 40
0.0
 40
0.0
 40
0.0
 40
0.4858145728
 40
1.0
 40
1.0
 40
1.0
 40
1.0
 10
15.6883653092
 20
7.2969791524
 30
0.0
 10
15.690989893
 20
7.2989200256
 30
0.0
 10
15.6962431146
 20
7.3031193995
 30
0.0
 10
15.7012095722
 20
7.3076518684
 30
0.0
 10
15.7036945203
 20
7.3100521442
 30
0.0
  0
SPLINE
  5
2E3
100
AcDbEntity
  8
0
100
AcDbSpline
 62
7
  6
CONTINUOUS
 70
0
 71
3
 72
9
 73
5
 74
0
 42
0.0000001
 43
0.0000001
 44
0.0000000001
 40
0.0
 40
0.0
 40
0.0
 40
0.0
 40
0.5031634817
 40
1.0
 40
1.0
 40
1.0
 40
1.0
 10
15.7190237315
 20
7.3265929161
 30
0.0
 10
15.7296336009
 20
7.3418880568
 30
0.0
 10
15.7502384263
 20
7.3726237495
 30
0.0
 10
15.7697054489
 20
7.4040962538
 30
0.0
 10
15.7790451745
 20
7.4199272571
 30
0.0
  0
SPLINE
  5
2E4
100
AcDbEntity
  8
0
100
AcDbSpline
 62
7
  6
CONTINUOUS
 70
0
 71
3
 72
11
 73
7
 74
0
 42
0.0000001
 43
0.0000001
 44
0.0000000001
 40
0.0
 40
0.0
 40
0.0
 40
0.0
 40
0.256312563
 40
0.5072570365
 40
0.7545521251
 40
1.0
 40
1.0
 40
1.0
 40
1.0
 10
14.5010531712
 20
9.1917252805
 30
0.0
 10
14.4995219783
 20
9.1924002945
 30
0.0
 10
14.4964370464
 20
9.1936166983
 30
0.0
 10
14.4917126516
 20
9.1950329919
 30
0.0
 10
14.4869519051
 20
9.1960170737
 30
0.0
 10
14.4837508707
 20
9.1963846257
 30
0.0
 10
14.4821522613
 20
9.1964954545
 30
0.0
  0
SPLINE
  5
2E5
100
AcDbEntity
  8
0
100
AcDbSpline
 62
7
  6
CONTINUOUS
 70
0
 71
3
 72
18
 73
14
 74
0
 42
0.0000001
 43
0.0000001
 44
0.0000000001
 40
0.0
 40
0.0
 40
0.0
 40
0.0
 40
0.1526010403
 40
0.2952838907
 40
0.4287720129
 40
0.5540010669
 40
0.6721545374
 40
0.7290453286
 40
0.7847300095
 40
0.8394292653
 40
0.8933766342
 40
0.9468162505
 40
1.0
 40
1.0
 40
1.0
 40
1.0
 10
14.3445157476
 20
7.5270223407
 30
0.0
 10
14.3466882311
 20
7.5240631352
 30
0.0
 10
14.3510737034
 20
7.5184665505
 30
0.0
 10
14.3580270043
 20
7.5108337459
 30
0.0
 10
14.3651219195
 20
7.504263606
 30
0.0
 10
14.3723514833
 20
7.4987673426
 30
0.0
 10
14.3785621165
 20
7.4950431145
 30
0.0
 10
14.38356998
 20
7.492641964
 30
0.0
 10
14.3873052855
 20
7.4911372309
 30
0.0
 10
14.3910653486
 20
7.4899068916
 30
0.0
 10
14.3948490171
 20
7.4889514416
 30
0.0
 10
14.3986546084
 20
7.4882714443
 30
0.0
 10
14.4012080067
 20
7.4880018238
 30
0.0
 10
14.4024843578
 20
7.4879133366
 30
0.0
  0
SPLINE
  5
2E6
100
AcDbEntity
  8
0
100
AcDbSpline
 62
7
  6
CONTINUOUS
 70
0
 71
3
 72
53
 73
49
 74
0
 42
0.0000001
 43
0.0000001
 44
0.0000000001
 40
0.0
 40
0.0
 40
0.0
 40
0.0
 40
0.0097388932
 40
0.019969199
 40
0.0306878547
 40
0.0418898797
 40
0.0535686807
 40
0.0657166484
 40
0.0783244891
 40
0.0913819854
 40
0.1048780195
 40
0.1188001844
 40
0.1331355737
 40
0.1478703159
 40
0.178477947
 40
0.2104991538
 40
0.2437997172
 40
0.2782370741
 40
0.3136616152
 40
0.3499178195
 40
0.386845234
 40
0.4242794521
 40
0.4620531563
 40
0.4999971084
 40
0.5379410772
 40
0.5757148414
 40
0.6131491579
 40
0.6500767202
 40
0.68633311
 40
0.7217578613
 40
0.7561954602
 40
0.789496325
 40
0.8056758548
 40
0.8215184687
 40
0.8370075263
 40
0.8521271136
 40
0.8668620684
 40
0.8811976014
 40
0.8951200087
 40
0.9086162295
 40
0.9216739156
 40
0.9342820259
 40
0.9464301701
 40
0.9581092375
 40
0.9693115214
 40
0.9800303071
 40
0.9902608478
 40
1.0
 40
1.0
 40
1.0
 40
1.0
 10
15.8122016836
 20
7.4761436449
 30
0.0
 10
15.814786234
 20
7.4805256877
 30
0.0
 10
15.8199270593
 20
7.4896051931
 30
0.0
 10
15.8273882118
 20
7.5037964106
 30
0.0
 10
15.8347805361
 20
7.5188796073
 30
0.0
 10
15.8420951624
 20
7.534836646
 30
0.0
 10
15.8493236709
 20
7.5516486338
 30
0.0
 10
15.8564569788
 20
7.5692957592
 30
0.0
 10
15.8634869276
 20
7.5877569395
 30
0.0
 10
15.8704049907
 20
7.607010227
 30
0.0
 10
15.8772026323
 20
7.6270327286
 30
0.0
 10
15.8838720795
 20
7.6478004671
 30
0.0
 10
15.8904050608
 20
7.669288747
 30
0.0
 10
15.8990327727
 20
7.6992468615
 30
0.0
 10
15.9093935602
 20
7.7383152854
 30
0.0
 10
15.9210114542
 20
7.7870668902
 30
0.0
 10
15.9319102735
 20
7.8380316842
 30
0.0
 10
15.9420375382
 20
7.890966118
 30
0.0
 10
15.9513444655
 20
7.9456174885
 30
0.0
 10
15.9597862214
 20
8.0017246766
 30
0.0
 10
15.9673220795
 20
8.0590195608
 30
0.0
 10
15.9739158579
 20
8.1172282226
 30
0.0
 10
15.9795359503
 20
8.1760723297
 30
0.0
 10
15.9841553889
 20
8.235270495
 30
0.0
 10
15.9877519577
 20
8.2945396305
 30
0.0
 10
15.9903085301
 20
8.3535962912
 30
0.0
 10
15.9918130254
 20
8.4121580649
 30
0.0
 10
15.9922583796
 20
8.4699449227
 30
0.0
 10
15.9916425568
 20
8.5266805522
 30
0.0
 10
15.9899688542
 20
8.5820938254
 30
0.0
 10
15.9872455866
 20
8.6359197329
 30
0.0
 10
15.9840835312
 20
8.6796471722
 30
0.0
 10
15.9810222758
 20
8.7136340645
 30
0.0
 10
15.9784956821
 20
8.7383249425
 30
0.0
 10
15.9757193654
 20
8.7624317324
 30
0.0
 10
15.9726966094
 20
8.7859256404
 30
0.0
 10
15.9694313399
 20
8.8087785839
 30
0.0
 10
15.9659271105
 20
8.8309632479
 30
0.0
 10
15.9621884062
 20
8.85245315
 30
0.0
 10
15.9582197639
 20
8.8732226474
 30
0.0
 10
15.9540256421
 20
8.8932469277
 30
0.0
 10
15.9496115194
 20
8.9125021611
 30
0.0
 10
15.9449824375
 20
8.9309653925
 30
0.0
 10
15.940143914
 20
8.9486146508
 30
0.0
 10
15.9351021289
 20
8.9654290288
 30
0.0
 10
15.9298626091
 20
8.9813885912
 30
0.0
 10
15.9244320207
 20
8.9964742983
 30
0.0
 10
15.9205937718
 20
9.0061768125
 30
0.0
 10
15.91863882
 20
9.0108738052
 30
0.0
  0
SPLINE
  5
2E7
100
AcDbEntity
  8
0
100
AcDbSpline
 62
7
  6
CONTINUOUS
 70
0
 71
3
 72
23
 73
19
 74
0
 42
0.0000001
 43
0.0000001
 44
0.0000000001
 40
0.0
 40
0.0
 40
0.0
 40
0.0
 40
0.0436683839
 40
0.0893202458
 40
0.1371934141
 40
0.1874955979
 40
0.2403889896
 40
0.2959962854
 40
0.3543911639
 40
0.4156069058
 40
0.4796348865
 40
0.546432344
 40
0.6159269489
 40
0.6880225745
 40
0.7626057965
 40
0.8395523646
 40
0.9187297615
 40
1.0
 40
1.0
 40
1.0
 40
1.0
 10
15.9052883082
 20
9.0429492027
 30
0.0
 10
15.9038600994
 20
9.0463851938
 30
0.0
 10
15.900670018
 20
9.0533042359
 30
0.0
 10
15.8950298916
 20
9.0635538447
 30
0.0
 10
15.8884194069
 20
9.0738837787
 30
0.0
 10
15.8808254268
 20
9.0842868554
 30
0.0
 10
15.8722456218
 20
9.0947589748
 30
0.0
 10
15.8626832716
 20
9.1052927432
 30
0.0
 10
15.8521519055
 20
9.1158825603
 30
0.0
 10
15.8406713404
 20
9.1265209181
 30
0.0
 10
15.8282691923
 20
9.1372012069
 30
0.0
 10
15.8149787607
 20
9.1479164788
 30
0.0
 10
15.8008381391
 20
9.1586600019
 30
0.0
 10
15.7858892895
 20
9.1694257597
 30
0.0
 10
15.7701761788
 20
9.180207867
 30
0.0
 10
15.7537442583
 20
9.1910014188
 30
0.0
 10
15.7366392873
 20
9.2018017576
 30
0.0
 10
15.7249630474
 20
9.2089151231
 30
0.0
 10
15.7190237315
 20
9.212476164
 30
0.0
  0
SPLINE
  5
2E8
100
AcDbEntity
  8
0
100
AcDbSpline
 62
7
  6
CONTINUOUS
 70
0
 71
3
 72
11
 73
7
 74
0
 42
0.0000001
 43
0.0000001
 44
0.0000000001
 40
0.0
 40
0.0
 40
0.0
 40
0.0
 40
0.2452787389
 40
0.4924751051
 40
0.7434559264
 40
1.0
 40
1.0
 40
1.0
 40
1.0
 10
14.3638473224
 20
7.4905928241
 30
0.0
 10
14.3654770312
 20
7.4904798393
 30
0.0
 10
14.3687615698
 20
7.4904034653
 30
0.0
 10
14.3737081998
 20
7.4907400774
 30
0.0
 10
14.3786792148
 20
7.4915267721
 30
0.0
 10
14.3819648522
 20
7.4923403367
 30
0.0
 10
14.38360556
 20
7.4928173742
 30
0.0
  0
SPLINE
  5
2E9
100
AcDbEntity
  8
0
100
AcDbSpline
 62
7
  6
CONTINUOUS
 70
0
 71
3
 72
23
 73
19
 74
0
 42
0.0000001
 43
0.0000001
 44
0.0000000001
 40
0.0
 40
0.0
 40
0.0
 40
0.0
 40
0.0428975767
 40
0.0885558807
 40
0.137047975
 40
0.1883979549
 40
0.2425910221
 40
0.2995790577
 40
0.3592852981
 40
0.4216143276
 40
0.4864533733
 40
0.5536806967
 40
0.623168325
 40
0.6947842665
 40
0.7684015096
 40
0.8438923367
 40
0.9211322434
 40
1.0
 40
1.0
 40
1.0
 40
1.0
 10
14.6482257619
 20
7.4805071344
 30
0.0
 10
14.6503617217
 20
7.4778805702
 30
0.0
 10
14.6549613393
 20
7.4726113251
 30
0.0
 10
14.6625474789
 20
7.4648950868
 30
0.0
 10
14.6710165719
 20
7.4571339745
 30
0.0
 10
14.68034643
 20
7.4493353979
 30
0.0
 10
14.6905112743
 20
7.4415072746
 30
0.0
 10
14.7014803727
 20
7.4336572213
 30
0.0
 10
14.7132194709
 20
7.4257921503
 30
0.0
 10
14.7256921212
 20
7.417919291
 30
0.0
 10
14.7388596726
 20
7.4100441973
 30
0.0
 10
14.7526832383
 20
7.4021728559
 30
0.0
 10
14.7671232809
 20
7.3943096958
 30
0.0
 10
14.7821413067
 20
7.3864588854
 30
0.0
 10
14.7976997712
 20
7.3786238579
 30
0.0
 10
14.8137624662
 20
7.3708072063
 30
0.0
 10
14.8302945011
 20
7.3630114267
 30
0.0
 10
14.8414953625
 20
7.3578805166
 30
0.0
 10
14.8471668577
 20
7.3553164632
 30
0.0
  0
SPLINE
  5
2EA
100
AcDbEntity
  8
0
100
AcDbSpline
 62
7
  6
CONTINUOUS
 70
0
 71
3
 72
31
 73
27
 74
0
 42
0.0000001
 43
0.0000001
 44
0.0000000001
 40
0.0
 40
0.0
 40
0.0
 40
0.0
 40
0.0841495858
 40
0.1666076608
 40
0.2470502183
 40
0.3251943026
 40
0.4007567324
 40
0.4734684558
 40
0.5430774762
 40
0.6093491736
 40
0.6411668265
 40
0.6720716026
 40
0.702040465
 40
0.7310524432
 40
0.7590876062
 40
0.7861285756
 40
0.8121604276
 40
0.8371698511
 40
0.8611469443
 40
0.8840849458
 40
0.9059797435
 40
0.9268319972
 40
0.9466468526
 40
0.9654340344
 40
0.9832104106
 40
1.0
 40
1.0
 40
1.0
 40
1.0
 10
14.2287220056
 20
8.1329302729
 30
0.0
 10
14.2287220056
 20
8.1160324661
 30
0.0
 10
14.2290030823
 20
8.0825757487
 30
0.0
 10
14.230290779
 20
8.0329805602
 30
0.0
 10
14.2324361462
 20
7.9846218186
 30
0.0
 10
14.2354299096
 20
7.9376953802
 30
0.0
 10
14.2392598649
 20
7.8923872159
 30
0.0
 10
14.2439102369
 20
7.8488786985
 30
0.0
 10
14.249362128
 20
7.8073439915
 30
0.0
 10
14.2546233614
 20
7.77407766
 30
0.0
 10
14.2592379135
 20
7.7485882361
 30
0.0
 10
14.2628378224
 20
7.7303258099
 30
0.0
 10
14.2666200823
 20
7.7126760183
 30
0.0
 10
14.270580663
 20
7.6956564099
 30
0.0
 10
14.2747158403
 20
7.6792840261
 30
0.0
 10
14.2790214253
 20
7.6635751819
 30
0.0
 10
14.2834928309
 20
7.6485454467
 30
0.0
 10
14.2881259029
 20
7.6342098401
 30
0.0
 10
14.2929159052
 20
7.620582555
 30
0.0
 10
14.2978578181
 20
7.6076769772
 30
0.0
 10
14.3029471309
 20
7.5955059622
 30
0.0
 10
14.3081786634
 20
7.5840813847
 30
0.0
 10
14.3135470826
 20
7.5734143143
 30
0.0
 10
14.3190477859
 20
7.5635151971
 30
0.0
 10
14.3246750485
 20
7.5543938574
 30
0.0
 10
14.3286182247
 20
7.548676641
 30
0.0
 10
14.3306134209
 20
7.5459589293
 30
0.0
  0
SPLINE
  5
2EB
100
AcDbEntity
  8
0
100
AcDbSpline
 62
7
  6
CONTINUOUS
 70
0
 71
3
 72
33
 73
29
 74
0
 42
0.0000001
 43
0.0000001
 44
0.0000000001
 40
0.0
 40
0.0
 40
0.0
 40
0.0
 40
0.0847074859
 40
0.1676830804
 40
0.2485927981
 40
0.3271437931
 40
0.4030432107
 40
0.4760137684
 40
0.5113195386
 40
0.5457974222
 40
0.5794174863
 40
0.6121517086
 40
0.6439736746
 40
0.6748578052
 40
0.7047809311
 40
0.73372162
 40
0.7616597376
 40
0.7885782231
 40
0.8144620851
 40
0.8392984104
 40
0.8630782394
 40
0.885795404
 40
0.9074471611
 40
0.9280361123
 40
0.9475692098
 40
0.9660592183
 40
0.9835267623
 40
1.0
 40
1.0
 40
1.0
 40
1.0
 10
14.2230115985
 20
8.133326291
 30
0.0
 10
14.2230115985
 20
8.116193371
 30
0.0
 10
14.2233004837
 20
8.0822770191
 30
0.0
 10
14.2246243226
 20
8.0320114562
 30
0.0
 10
14.2268297953
 20
7.9830229393
 30
0.0
 10
14.229907044
 20
7.9355153013
 30
0.0
 10
14.2338433334
 20
7.8896824162
 30
0.0
 10
14.2378681681
 20
7.852645279
 30
0.0
 10
14.2415220836
 20
7.8240033024
 30
0.0
 10
14.2444359199
 20
7.8032922292
 30
0.0
 10
14.2475504264
 20
7.7831364936
 30
0.0
 10
14.2508623513
 20
7.7635568059
 30
0.0
 10
14.254368046
 20
7.7445732791
 30
0.0
 10
14.2580641884
 20
7.7262054608
 30
0.0
 10
14.2619467987
 20
7.7084721959
 30
0.0
 10
14.2660116969
 20
7.6913916578
 30
0.0
 10
14.2702550249
 20
7.6749814338
 30
0.0
 10
14.2746721503
 20
7.6592582847
 30
0.0
 10
14.2792584165
 20
7.644238262
 30
0.0
 10
14.2840094693
 20
7.6299368019
 30
0.0
 10
14.2889200883
 20
7.616368376
 30
0.0
 10
14.2939852442
 20
7.6035467393
 30
0.0
 10
14.2992001517
 20
7.5914850028
 30
0.0
 10
14.3045591463
 20
7.580195134
 30
0.0
 10
14.3100569793
 20
7.5696884831
 30
0.0
 10
14.3156887082
 20
7.5599755404
 30
0.0
 10
14.32144817
 20
7.5510661021
 30
0.0
 10
14.3254856296
 20
7.5455083726
 30
0.0
 10
14.32752799
 20
7.5428758553
 30
0.0
  0
SPLINE
  5
2EC
100
AcDbEntity
  8
0
100
AcDbSpline
 62
7
  6
CONTINUOUS
 70
0
 71
3
 72
10
 73
6
 74
0
 42
0.0000001
 43
0.0000001
 44
0.0000000001
 40
0.0
 40
0.0
 40
0.0
 40
0.0
 40
0.2644960786
 40
0.5190874562
 40
1.0
 40
1.0
 40
1.0
 40
1.0
 10
14.32752799
 20
7.5428758553
 30
0.0
 10
14.3287625585
 20
7.541284548
 30
0.0
 10
14.3312456351
 20
7.538207226
 30
0.0
 10
14.3362728536
 20
7.5324865633
 30
0.0
 10
14.3402501455
 20
7.5285267118
 30
0.0
 10
14.3429823669
 20
7.526088433
 30
0.0
  0
SPLINE
  5
2ED
100
AcDbEntity
  8
0
100
AcDbSpline
 62
7
  6
CONTINUOUS
 70
0
 71
3
 72
44
 73
40
 74
0
 42
0.0000001
 43
0.0000001
 44
0.0000000001
 40
0.0
 40
0.0
 40
0.0
 40
0.0
 40
0.0375891586
 40
0.075573571
 40
0.1138581822
 40
0.1523603015
 40
0.1909977472
 40
0.2296843937
 40
0.2683340853
 40
0.3068615829
 40
0.3451819535
 40
0.3832105976
 40
0.4208638296
 40
0.4580589957
 40
0.4947148716
 40
0.530751595
 40
0.5660913741
 40
0.6006581621
 40
0.6343786549
 40
0.6671816789
 40
0.6989995275
 40
0.729767096
 40
0.759423516
 40
0.7879111707
 40
0.8151775324
 40
0.8411742865
 40
0.8658592712
 40
0.8891960204
 40
0.9111557892
 40
0.9216129734
 40
0.9317191211
 40
0.9414732065
 40
0.9508748785
 40
0.9599249609
 40
0.968625184
 40
0.9769781548
 40
0.9849876954
 40
0.9926593186
 40
1.0
 40
1.0
 40
1.0
 40
1.0
 10
14.2287220056
 20
8.1329302729
 30
0.0
 10
14.2287220056
 20
8.146084819
 30
0.0
 10
14.2288951598
 20
8.1725325293
 30
0.0
 10
14.2296618402
 20
8.2123714862
 30
0.0
 10
14.2309360754
 20
8.2525171454
 30
0.0
 10
14.2327143571
 20
8.2928723554
 30
0.0
 10
14.234992741
 20
8.3333433343
 30
0.0
 10
14.2377656138
 20
8.3738352023
 30
0.0
 10
14.2410267643
 20
8.4142520745
 30
0.0
 10
14.2447682339
 20
8.4544985928
 30
0.0
 10
14.2489813388
 20
8.4944799564
 30
0.0
 10
14.2536560544
 20
8.5341019425
 30
0.0
 10
14.2587813499
 20
8.5732711039
 30
0.0
 10
14.2643451662
 20
8.6118951183
 30
0.0
 10
14.2703342108
 20
8.6498829453
 30
0.0
 10
14.2767345305
 20
8.6871450594
 30
0.0
 10
14.2835306955
 20
8.7235936492
 30
0.0
 10
14.2907069761
 20
8.7591428365
 30
0.0
 10
14.2982459586
 20
8.7937088924
 30
0.0
 10
14.3061302695
 20
8.8272104049
 30
0.0
 10
14.3143406958
 20
8.8595685384
 30
0.0
 10
14.3228583517
 20
8.8907071323
 30
0.0
 10
14.3316624461
 20
8.9205530268
 30
0.0
 10
14.3407327149
 20
8.9490360636
 30
0.0
 10
14.35004705
 20
8.9760895143
 30
0.0
 10
14.3595839597
 20
9.0016499274
 30
0.0
 10
14.3693203291
 20
9.0256578234
 30
0.0
 10
14.3792336418
 20
9.0480568639
 30
0.0
 10
14.3877556416
 20
9.0656144574
 30
0.0
 10
14.3946596904
 20
9.0787982693
 30
0.0
 10
14.3997827095
 20
9.0880902311
 30
0.0
 10
14.404932326
 20
9.0969427151
 30
0.0
 10
14.4101057569
 20
9.105350431
 30
0.0
 10
14.4152998392
 20
9.113308596
 30
0.0
 10
14.4205115204
 20
9.1208126926
 30
0.0
 10
14.4257378399
 20
9.1278582788
 30
0.0
 10
14.430976015
 20
9.1344411798
 30
0.0
 10
14.4362227585
 20
9.1405576225
 30
0.0
 10
14.4398022335
 20
9.1444056976
 30
0.0
 10
14.4415937667
 20
9.1462468195
 30
0.0
  0
SPLINE
  5
2EE
100
AcDbEntity
  8
0
100
AcDbSpline
 62
7
  6
CONTINUOUS
 70
0
 71
3
 72
47
 73
43
 74
0
 42
0.0000001
 43
0.0000001
 44
0.0000000001
 40
0.0
 40
0.0
 40
0.0
 40
0.0
 40
0.0389442881
 40
0.0783169117
 40
0.1180081702
 40
0.1579220668
 40
0.1979612312
 40
0.2380245115
 40
0.2780115036
 40
0.317822582
 40
0.3573585207
 40
0.3965207196
 40
0.4352120358
 40
0.4733366872
 40
0.5108008316
 40
0.5475127903
 40
0.5833832948
 40
0.6183262068
 40
0.6522582148
 40
0.6851001546
 40
0.7167763292
 40
0.7472160903
 40
0.7763533747
 40
0.8041279802
 40
0.830486027
 40
0.8553805867
 40
0.8672673008
 40
0.8787745906
 40
0.8898990064
 40
0.9006381713
 40
0.9109904503
 40
0.9209548466
 40
0.930531442
 40
0.9397217099
 40
0.9485281728
 40
0.9569546069
 40
0.9650067386
 40
0.9726922102
 40
0.9800205991
 40
0.9870039924
 40
0.9936576578
 40
1.0
 40
1.0
 40
1.0
 40
1.0
 10
14.2230115985
 20
8.133326291
 30
0.0
 10
14.2230115985
 20
8.1473162168
 30
0.0
 10
14.2232074501
 20
8.1754502944
 30
0.0
 10
14.2240739144
 20
8.2178346132
 30
0.0
 10
14.2255134735
 20
8.2605519065
 30
0.0
 10
14.2275218739
 20
8.303485895
 30
0.0
 10
14.2300937679
 20
8.3465236918
 30
0.0
 10
14.2332224819
 20
8.389550919
 30
0.0
 10
14.2368994942
 20
8.4324525343
 30
0.0
 10
14.2411152618
 20
8.4751142227
 30
0.0
 10
14.2458581467
 20
8.5174224228
 30
0.0
 10
14.2511159206
 20
8.5592643771
 30
0.0
 10
14.2568741298
 20
8.600528622
 30
0.0
 10
14.2631176945
 20
8.6411052218
 30
0.0
 10
14.2698297348
 20
8.680886122
 30
0.0
 10
14.2769923244
 20
8.7197653661
 30
0.0
 10
14.2845864329
 20
8.7576394413
 30
0.0
 10
14.2925914333
 20
8.7944075366
 30
0.0
 10
14.3009863105
 20
8.8299717983
 30
0.0
 10
14.309748072
 20
8.864237668
 30
0.0
 10
14.318853742
 20
8.8971140304
 30
0.0
 10
14.3282784618
 20
8.9285136326
 30
0.0
 10
14.3379972734
 20
8.9583531338
 30
0.0
 10
14.3479839869
 20
8.9865536494
 30
0.0
 10
14.3582117776
 20
9.013040371
 30
0.0
 10
14.3670439971
 20
9.0339366816
 30
0.0
 10
14.3742260281
 20
9.0497276619
 30
0.0
 10
14.3795726265
 20
9.0609166989
 30
0.0
 10
14.3849590727
 20
9.0716271675
 30
0.0
 10
14.3903816953
 20
9.0818520931
 30
0.0
 10
14.395836815
 20
9.0915848106
 30
0.0
 10
14.4013209399
 20
9.1008188018
 30
0.0
 10
14.4068305583
 20
9.1095479231
 30
0.0
 10
14.412361873
 20
9.117766621
 30
0.0
 10
14.4179112757
 20
9.1254695422
 30
0.0
 10
14.4234754055
 20
9.1326514622
 30
0.0
 10
14.4290506096
 20
9.1393077918
 30
0.0
 10
14.4346332809
 20
9.1454343752
 30
0.0
 10
14.4402200291
 20
9.1510270989
 30
0.0
 10
14.4458077717
 20
9.1560821337
 30
0.0
 10
14.4513926156
 20
9.1605961111
 30
0.0
 10
14.4551995697
 20
9.1633050762
 30
0.0
 10
14.4571003809
 20
9.1645611877
 30
0.0
  0
SPLINE
  5
2EF
100
AcDbEntity
  8
0
100
AcDbSpline
 62
7
  6
CONTINUOUS
 70
0
 71
3
 72
15
 73
11
 74
0
 42
0.0000001
 43
0.0000001
 44
0.0000000001
 40
0.0
 40
0.0
 40
0.0
 40
0.0
 40
0.107285305
 40
0.2194639682
 40
0.3366448151
 40
0.4589139124
 40
0.5863387382
 40
0.7189715431
 40
0.8568501854
 40
1.0
 40
1.0
 40
1.0
 40
1.0
 10
15.7695004735
 20
7.4194677401
 30
0.0
 10
15.7713310079
 20
7.4212359006
 30
0.0
 10
15.7749898861
 20
7.4249424157
 30
0.0
 10
15.7803549951
 20
7.4308605104
 30
0.0
 10
15.7857141208
 20
7.437255169
 30
0.0
 10
15.7910635347
 20
7.444122246
 30
0.0
 10
15.7963998266
 20
7.4514577405
 30
0.0
 10
15.8017201537
 20
7.459257203
 30
0.0
 10
15.8070215915
 20
7.4675162109
 30
0.0
 10
15.8104765202
 20
7.473218672
 30
0.0
 10
15.8122016836
 20
7.4761436449
 30
0.0
  0
SPLINE
  5
2F0
100
AcDbEntity
  8
0
100
AcDbSpline
 62
7
  6
CONTINUOUS
 70
0
 71
3
 72
95
 73
91
 74
0
 42
0.0000001
 43
0.0000001
 44
0.0000000001
 40
0.0
 40
0.0
 40
0.0
 40
0.0
 40
0.004212471
 40
0.0086203763
 40
0.0132281095
 40
0.0180391299
 40
0.0230561388
 40
0.0282812109
 40
0.0337158328
 40
0.0393609753
 40
0.0452168887
 40
0.0512831327
 40
0.057558926
 40
0.064043185
 40
0.070734328
 40
0.0776304075
 40
0.0920281687
 40
0.1072162533
 40
0.1231698962
 40
0.1398608079
 40
0.1572577706
 40
0.1753266221
 40
0.194030997
 40
0.2133319986
 40
0.2331890437
 40
0.2535594144
 40
0.2743990845
 40
0.2956622868
 40
0.3173022179
 40
0.3392707209
 40
0.3615188428
 40
0.3839966914
 40
0.4066537985
 40
0.4294391077
 40
0.4523012379
 40
0.4751885496
 40
0.4980493773
 40
0.5208320879
 40
0.5434853271
 40
0.5659580168
 40
0.5881997294
 40
0.610160563
 40
0.6317916112
 40
0.6530447512
 40
0.6738731812
 40
0.6942312053
 40
0.7140747677
 40
0.7333613029
 40
0.7520501426
 40
0.7701026008
 40
0.7874821861
 40
0.8041549948
 40
0.820089684
 40
0.8352582579
 40
0.8496358499
 40
0.8565217243
 40
0.863202514
 40
0.8696762613
 40
0.8759415308
 40
0.8819972383
 40
0.8878425825
 40
0.8934772035
 40
0.8989014294
 40
0.9041160759
 40
0.9091224725
 40
0.9139227299
 40
0.918519912
 40
0.922917908
 40
0.9271215749
 40
0.9311371138
 40
0.9349721778
 40
0.9386358962
 40
0.94213913
 40
0.9454948632
 40
0.9487182169
 40
0.9518264954
 40
0.954839287
 40
0.9577784199
 40
0.9606675275
 40
0.9635315848
 40
0.9663963054
 40
0.9692873494
 40
0.9722296066
 40
0.9752466213
 40
0.9783601154
 40
0.9849480942
 40
0.9884595806
 40
0.9921321195
 40
0.9959760422
 40
1.0
 40
1.0
 40
1.0
 40
1.0
 10
15.7695004735
 20
9.0808602597
 30
0.0
 10
15.7676378374
 20
9.0790610913
 30
0.0
 10
15.7639148876
 20
9.0752865349
 30
0.0
 10
15.7584579925
 20
9.0692541761
 30
0.0
 10
15.7530074238
 20
9.0627289494
 30
0.0
 10
15.7475671108
 20
9.0557152061
 30
0.0
 10
15.742140592
 20
9.0482171798
 30
0.0
 10
15.7367308549
 20
9.0402395691
 30
0.0
 10
15.7313409373
 20
9.0317869622
 30
0.0
 10
15.7259740224
 20
9.0228641094
 30
0.0
 10
15.720633236
 20
9.0134762598
 30
0.0
 10
15.7153216484
 20
9.0036291408
 30
0.0
 10
15.7100424945
 20
8.9933286406
 30
0.0
 10
15.7047991487
 20
8.9825808111
 30
0.0
 10
15.699594644
 20
8.9713921419
 30
0.0
 10
15.6926106358
 20
8.9556685384
 30
0.0
 10
15.6840179721
 20
8.934947753
 30
0.0
 10
15.67405298
 20
8.9087815706
 30
0.0
 10
15.6643157529
 20
8.8810314076
 30
0.0
 10
15.6548296637
 20
8.8517639052
 30
0.0
 10
15.6456179729
 20
8.8210490284
 30
0.0
 10
15.636702608
 20
8.7889604934
 30
0.0
 10
15.6281056148
 20
8.755575282
 30
0.0
 10
15.6198472969
 20
8.7209736418
 30
0.0
 10
15.6119481861
 20
8.6852387253
 30
0.0
 10
15.6044268427
 20
8.6484565013
 30
0.0
 10
15.5973019959
 20
8.6107154362
 30
0.0
 10
15.5905903671
 20
8.5721063558
 30
0.0
 10
15.5843086321
 20
8.5327221771
 30
0.0
 10
15.5784715804
 20
8.4926577137
 30
0.0
 10
15.5730936253
 20
8.4520094213
 30
0.0
 10
15.5681875225
 20
8.4108751581
 30
0.0
 10
15.5637652524
 20
8.3693539693
 30
0.0
 10
15.5598374369
 20
8.3275458219
 30
0.0
 10
15.556413506
 20
8.2855514127
 30
0.0
 10
15.553501842
 20
8.243471846
 30
0.0
 10
15.5511092417
 20
8.201408476
 30
0.0
 10
15.5492417521
 20
8.1594625544
 30
0.0
 10
15.5479034943
 20
8.1177351306
 30
0.0
 10
15.5470980886
 20
8.0763266445
 30
0.0
 10
15.5468269853
 20
8.0353368538
 30
0.0
 10
15.5470912844
 20
7.9948643961
 30
0.0
 10
15.5478898124
 20
7.9550067573
 30
0.0
 10
15.5492210683
 20
7.9158598429
 30
0.0
 10
15.5510813334
 20
7.8775179285
 30
0.0
 10
15.5534664447
 20
7.8400732564
 30
0.0
 10
15.5563702414
 20
7.8036159419
 30
0.0
 10
15.5597858697
 20
7.7682336598
 30
0.0
 10
15.5637048351
 20
7.73401149
 30
0.0
 10
15.5681176069
 20
7.7010316839
 30
0.0
 10
15.5730134757
 20
7.6693734212
 30
0.0
 10
15.5783802928
 20
7.6391126808
 30
0.0
 10
15.5842052606
 20
7.6103218613
 30
0.0
 10
15.5904737649
 20
7.5830700805
 30
0.0
 10
15.5961331944
 20
7.561395636
 30
0.0
 10
15.6008869496
 20
7.5448865763
 30
0.0
 10
15.6045022045
 20
7.5331081137
 30
0.0
 10
15.6082167553
 20
7.5217613278
 30
0.0
 10
15.6120282714
 20
7.5108529248
 30
0.0
 10
15.6159343797
 20
7.5003893492
 30
0.0
 10
15.6199328012
 20
7.4903769137
 30
0.0
 10
15.624021312
 20
7.4808216768
 30
0.0
 10
15.6281972885
 20
7.4717291994
 30
0.0
 10
15.6324582172
 20
7.4631048125
 30
0.0
 10
15.6368017207
 20
7.4549537341
 30
0.0
 10
15.6412253579
 20
7.4472808353
 30
0.0
 10
15.6457263852
 20
7.4400904613
 30
0.0
 10
15.6503022349
 20
7.4333867979
 30
0.0
 10
15.6549505637
 20
7.4271739731
 30
0.0
 10
15.6596688062
 20
7.4214556362
 30
0.0
 10
15.6644543013
 20
7.4162350007
 30
0.0
 10
15.669304598
 20
7.4115152601
 30
0.0
 10
15.6742174831
 20
7.407299719
 30
0.0
 10
15.6791903381
 20
7.4035910731
 30
0.0
 10
15.6842205622
 20
7.4003918847
 30
0.0
 10
15.6893055642
 20
7.3977049389
 30
0.0
 10
15.6944425481
 20
7.3955331933
 30
0.0
 10
15.6996280194
 20
7.3938786908
 30
0.0
 10
15.7048582292
 20
7.3927433378
 30
0.0
 10
15.7101290527
 20
7.3921288987
 30
0.0
 10
15.7154359342
 20
7.3920363017
 30
0.0
 10
15.720774283
 20
7.3924649124
 30
0.0
 10
15.7261396895
 20
7.3934137367
 30
0.0
 10
15.7315284027
 20
7.3948817397
 30
0.0
 10
15.7388758131
 20
7.3975786011
 30
0.0
 10
15.7461347701
 20
7.4013029753
 30
0.0
 10
15.7532469352
 20
7.4059023023
 30
0.0
 10
15.7587035864
 20
7.4099334838
 30
0.0
 10
15.7641637096
 20
7.4144684481
 30
0.0
 10
15.7677211927
 20
7.4177490867
 30
0.0
 10
15.7695004735
 20
7.4194677401
 30
0.0
  0
SPLINE
  5
2F1
100
AcDbEntity
  8
0
100
AcDbSpline
 62
7
  6
CONTINUOUS
 70
0
 71
3
 72
9
 73
5
 74
0
 42
0.0000001
 43
0.0000001
 44
0.0000000001
 40
0.0
 40
0.0
 40
0.0
 40
0.0
 40
0.5172395726
 40
1.0
 40
1.0
 40
1.0
 40
1.0
 10
15.91863882
 20
9.0108738052
 30
0.0
 10
15.9163368277
 20
9.016404602
 30
0.0
 10
15.9116632333
 20
9.0270066486
 30
0.0
 10
15.9064742228
 20
9.0373684016
 30
0.0
 10
15.903824945
 20
9.042292321
 30
0.0
  0
LINE
  5
2F2
100
AcDbEntity
  8
0
100
AcDbLine
 62
7
  6
CONTINUOUS
 10
15.903824945
 20
9.042292321
 11
15.9036355012
 21
9.0426438258
  0
SPLINE
  5
2F3
100
AcDbEntity
  8
0
100
AcDbSpline
 62
7
  6
CONTINUOUS
 70
0
 71
3
 72
34
 73
30
 74
0
 42
0.0000001
 43
0.0000001
 44
0.0000000001
 40
0.0
 40
0.0
 40
0.0
 40
0.0
 40
0.0854639479
 40
0.1259711726
 40
0.1650236223
 40
0.2026506869
 40
0.2388883863
 40
0.2737801956
 40
0.3073765297
 40
0.3397355628
 40
0.370924402
 40
0.4300875519
 40
0.4582760486
 40
0.4856704081
 40
0.5123924797
 40
0.5385750717
 40
0.5643599083
 40
0.5898958433
 40
0.6153366126
 40
0.6408378697
 40
0.6665538109
 40
0.6926344177
 40
0.7192231161
 40
0.746454818
 40
0.8033050688
 40
0.8640859028
 40
0.8961810091
 40
0.9294972472
 40
1.0
 40
1.0
 40
1.0
 40
1.0
 10
15.9036355012
 20
9.0426438258
 30
0.0
 10
15.9013237711
 20
9.0469259066
 30
0.0
 10
15.8977529009
 20
9.0531526465
 30
0.0
 10
15.8927018239
 20
9.0610773223
 30
0.0
 10
15.8889307887
 20
9.0665836758
 30
0.0
 10
15.8851107267
 20
9.0717569708
 30
0.0
 10
15.8812429946
 20
9.0765951461
 30
0.0
 10
15.8773291589
 20
9.0810964016
 30
0.0
 10
15.8733707821
 20
9.0852588618
 30
0.0
 10
15.8693689078
 20
9.0890810499
 30
0.0
 10
15.8640714508
 20
9.0936399075
 30
0.0
 10
15.8585959612
 20
9.0976195517
 30
0.0
 10
15.8529594258
 20
9.1009315775
 30
0.0
 10
15.8487637363
 20
9.1030280329
 30
0.0
 10
15.8445341136
 20
9.1047750705
 30
0.0
 10
15.8402723068
 20
9.1061719107
 30
0.0
 10
15.8359803153
 20
9.1072176131
 30
0.0
 10
15.8316602154
 20
9.1079113775
 30
0.0
 10
15.8273142136
 20
9.1082524102
 30
0.0
 10
15.8229446621
 20
9.1082406679
 30
0.0
 10
15.8185538563
 20
9.1078764827
 30
0.0
 10
15.8141440578
 20
9.107160297
 30
0.0
 10
15.8097172534
 20
9.1060925409
 30
0.0
 10
15.8037099581
 20
9.1041740167
 30
0.0
 10
15.7961342042
 20
9.1008475837
 30
0.0
 10
15.7887853176
 20
9.0964900862
 30
0.0
 10
15.7829050367
 20
9.0923567018
 30
0.0
 10
15.7767970048
 20
9.087600653
 30
0.0
 10
15.7723878238
 20
9.0836492261
 30
0.0
 10
15.7695004735
 20
9.0808602597
 30
0.0
  0
SPLINE
  5
2F4
100
AcDbEntity
  8
0
100
AcDbSpline
 62
7
  6
CONTINUOUS
 70
0
 71
3
 72
65
 73
61
 74
0
 42
0.0000001
 43
0.0000001
 44
0.0000000001
 40
0.0
 40
0.0
 40
0.0
 40
0.0
 40
0.0075206973
 40
0.0114985877
 40
0.0156250397
 40
0.0199024126
 40
0.0243326507
 40
0.0289172257
 40
0.0336571229
 40
0.043604801
 40
0.0541787581
 40
0.0653766871
 40
0.0771932046
 40
0.089619678
 40
0.1026449911
 40
0.1162558691
 40
0.1304367849
 40
0.1451708006
 40
0.1604389014
 40
0.1762210539
 40
0.1924955086
 40
0.2092395627
 40
0.2264292419
 40
0.2440395192
 40
0.2620445578
 40
0.2991299709
 40
0.3374627295
 40
0.3768087792
 40
0.416925789
 40
0.4575651945
 40
0.4984742337
 40
0.5393980653
 40
0.5800816633
 40
0.6202719719
 40
0.6597198363
 40
0.6981820702
 40
0.7169700849
 40
0.7354242901
 40
0.7535168822
 40
0.7712209537
 40
0.7885102253
 40
0.805359672
 40
0.8217449125
 40
0.8376430384
 40
0.8530320297
 40
0.8678913938
 40
0.8822020248
 40
0.8959462804
 40
0.9091085187
 40
0.9216746489
 40
0.9336333083
 40
0.9449751143
 40
0.9556938786
 40
0.9657864044
 40
0.9752540164
 40
0.984103236
 40
0.9882997588
 40
0.9923463988
 40
0.9962455215
 40
1.0
 40
1.0
 40
1.0
 40
1.0
 10
14.6314833382
 20
7.5010928458
 30
0.0
 10
14.6287904253
 20
7.5044038084
 30
0.0
 10
14.6248850107
 20
7.509641368
 30
0.0
 10
14.6199565303
 20
7.5170132563
 30
0.0
 10
14.6162426482
 20
7.5229794294
 30
0.0
 10
14.6125819052
 20
7.5292767021
 30
0.0
 10
14.6089757299
 20
7.5359028997
 30
0.0
 10
14.6054256128
 20
7.5428552638
 30
0.0
 10
14.6006923237
 20
7.5527154259
 30
0.0
 10
14.5949419823
 20
7.5658523111
 30
0.0
 10
14.5883949331
 20
7.5826239612
 30
0.0
 10
14.5821043954
 20
7.6006205631
 30
0.0
 10
14.5760813498
 20
7.6198126184
 30
0.0
 10
14.5703354629
 20
7.6401687717
 30
0.0
 10
14.5648763862
 20
7.6616555873
 30
0.0
 10
14.5597134449
 20
7.684237677
 30
0.0
 10
14.5548548933
 20
7.7078777585
 30
0.0
 10
14.5503094228
 20
7.7325367439
 30
0.0
 10
14.5460840599
 20
7.7581738029
 30
0.0
 10
14.542186476
 20
7.7847464359
 30
0.0
 10
14.5386227375
 20
7.8122105916
 30
0.0
 10
14.5353991443
 20
7.8405207014
 30
0.0
 10
14.5325209827
 20
7.8696297606
 30
0.0
 10
14.5299929866
 20
7.8994894889
 30
0.0
 10
14.5270665654
 20
7.9406425294
 30
0.0
 10
14.5243379822
 20
7.9935937505
 30
0.0
 10
14.5225420858
 20
8.0587005582
 30
0.0
 10
14.5222062993
 20
8.1255514845
 30
0.0
 10
14.5233333085
 20
8.1937025259
 30
0.0
 10
14.5259160586
 20
8.2627013531
 30
0.0
 10
14.5299376288
 20
8.3320898097
 30
0.0
 10
14.5353713858
 20
8.4014071388
 30
0.0
 10
14.5421811786
 20
8.4701930586
 30
0.0
 10
14.5503215671
 20
8.5379909549
 30
0.0
 10
14.5597382073
 20
8.6043504943
 30
0.0
 10
14.5686643828
 20
8.6584989562
 30
0.0
 10
14.5764124185
 20
8.7007558711
 30
0.0
 10
14.5824556805
 20
8.7315709136
 30
0.0
 10
14.5887664037
 20
8.7617041212
 30
0.0
 10
14.5953337997
 20
8.7911055015
 30
0.0
 10
14.6021473432
 20
8.8197261928
 30
0.0
 10
14.6091951619
 20
8.8475187167
 30
0.0
 10
14.6164660147
 20
8.8744369112
 30
0.0
 10
14.6239473171
 20
8.9004361466
 30
0.0
 10
14.6316268973
 20
8.9254732891
 30
0.0
 10
14.6394918111
 20
8.9495068576
 30
0.0
 10
14.6475288592
 20
8.9724970941
 30
0.0
 10
14.655724931
 20
8.9944059218
 30
0.0
 10
14.6640658556
 20
9.0151972617
 30
0.0
 10
14.6725383848
 20
9.0348367346
 30
0.0
 10
14.6811277872
 20
9.0532922668
 30
0.0
 10
14.6898205311
 20
9.0705334732
 30
0.0
 10
14.6986016534
 20
9.0865323267
 30
0.0
 10
14.7074571153
 20
9.1012630841
 30
0.0
 10
14.716372799
 20
9.1147019069
 30
0.0
 10
14.7239702679
 20
9.1249820453
 30
0.0
 10
14.7300777383
 20
9.1325189725
 30
0.0
 10
14.7345827548
 20
9.1377344025
 30
0.0
 10
14.7390911167
 20
9.1426104543
 30
0.0
 10
14.7421547581
 20
9.1456908125
 30
0.0
 10
14.7436871852
 20
9.1471710235
 30
0.0
  0
SPLINE
  5
2F5
100
AcDbEntity
  8
0
100
AcDbSpline
 62
7
  6
CONTINUOUS
 70
0
 71
3
 72
19
 73
15
 74
0
 42
0.0000001
 43
0.0000001
 44
0.0000000001
 40
0.0
 40
0.0
 40
0.0
 40
0.0
 40
0.0539783854
 40
0.1081876053
 40
0.1628548449
 40
0.2182011496
 40
0.2744390797
 40
0.3317707377
 40
0.4504138856
 40
0.5121103727
 40
0.5755776343
 40
0.7083167748
 40
0.8495618203
 40
1.0
 40
1.0
 40
1.0
 40
1.0
 10
14.4821522613
 20
9.1964954545
 30
0.0
 10
14.4809495007
 20
9.1965788398
 30
0.0
 10
14.478532377
 20
9.1966642522
 30
0.0
 10
14.4748941814
 20
9.1965472261
 30
0.0
 10
14.4712413204
 20
9.1961853719
 30
0.0
 10
14.4675752671
 20
9.1955789082
 30
0.0
 10
14.4638969963
 20
9.1947280153
 30
0.0
 10
14.4589222375
 20
9.1932515508
 30
0.0
 10
14.4539752623
 20
9.1912895436
 30
0.0
 10
14.4490854303
 20
9.1888892113
 30
0.0
 10
14.4440465193
 20
9.1860930682
 30
0.0
 10
14.4377278645
 20
9.1819635089
 30
0.0
 10
14.4302474877
 20
9.1761256002
 30
0.0
 10
14.4254165945
 20
9.171745222
 30
0.0
 10
14.4229997918
 20
9.1694107697
 30
0.0
  0
SPLINE
  5
2F6
100
AcDbEntity
  8
0
100
AcDbSpline
 62
7
  6
CONTINUOUS
 70
0
 71
3
 72
11
 73
7
 74
0
 42
0.0000001
 43
0.0000001
 44
0.0000000001
 40
0.0
 40
0.0
 40
0.0
 40
0.0
 40
0.239729613
 40
0.4864244055
 40
0.7399099899
 40
1.0
 40
1.0
 40
1.0
 40
1.0
 10
14.6513505026
 20
7.5880983563
 30
0.0
 10
14.6499194767
 20
7.5947935469
 30
0.0
 10
14.6471276397
 20
7.6084025644
 30
0.0
 10
14.6431980164
 20
7.6291657381
 30
0.0
 10
14.639469331
 20
7.6505563817
 30
0.0
 10
14.637149018
 20
7.6650393606
 30
0.0
 10
14.6360212915
 20
7.6723811406
 30
0.0
  0
SPLINE
  5
2F7
100
AcDbEntity
  8
0
100
AcDbSpline
 62
7
  6
CONTINUOUS
 70
0
 71
3
 72
9
 73
5
 74
0
 42
0.0000001
 43
0.0000001
 44
0.0000000001
 40
0.0
 40
0.0
 40
0.0
 40
0.0
 40
0.5138686136
 40
1.0
 40
1.0
 40
1.0
 40
1.0
 10
14.8471668577
 20
9.2411997112
 30
0.0
 10
14.8496499843
 20
9.2441604777
 30
0.0
 10
14.8546140272
 20
9.2498134031
 30
0.0
 10
14.8598667454
 20
9.2552007515
 30
0.0
 10
14.8624960688
 20
9.2577404831
 30
0.0
  0
SPLINE
  5
2F8
100
AcDbEntity
  8
0
100
AcDbSpline
 62
7
  6
CONTINUOUS
 70
0
 71
3
 72
46
 73
42
 74
0
 42
0.0000001
 43
0.0000001
 44
0.0000000001
 40
0.0
 40
0.0
 40
0.0
 40
0.0
 40
0.0071616337
 40
0.0146555257
 40
0.0224891458
 40
0.0306683752
 40
0.0391978065
 40
0.0480809667
 40
0.0573203825
 40
0.0669177043
 40
0.0768733579
 40
0.0871865951
 40
0.0978560885
 40
0.1088799961
 40
0.1202556284
 40
0.131979674
 40
0.1564573487
 40
0.1822786514
 40
0.2094014818
 40
0.2377777475
 40
0.2673543775
 40
0.2980732855
 40
0.3298726381
 40
0.362686317
 40
0.3964453387
 40
0.4310770717
 40
0.4665066576
 40
0.5026562826
 40
0.5394463783
 40
0.5767950861
 40
0.6146191901
 40
0.6528338663
 40
0.6913532809
 40
0.7300905722
 40
0.768958522
 40
0.8078695894
 40
0.8467353269
 40
0.8854671729
 40
0.9239805348
 40
0.9621906193
 40
1.0
 40
1.0
 40
1.0
 40
1.0
 10
14.4229997918
 20
9.1694107697
 30
0.0
 10
14.4211479851
 20
9.1676220617
 30
0.0
 10
14.4174466803
 20
9.1638694504
 30
0.0
 10
14.4120215114
 20
9.1578721635
 30
0.0
 10
14.406602632
 20
9.1513848741
 30
0.0
 10
14.4011939485
 20
9.1444119081
 30
0.0
 10
14.3957989791
 20
9.1369574745
 30
0.0
 10
14.3904206938
 20
9.129026245
 30
0.0
 10
14.385062113
 20
9.1206227813
 30
0.0
 10
14.3797264013
 20
9.1117518061
 30
0.0
 10
14.3744166664
 20
9.1024185379
 30
0.0
 10
14.3691359605
 20
9.0926286705
 30
0.0
 10
14.3638874996
 20
9.0823880571
 30
0.0
 10
14.3586746382
 20
9.0717027143
 30
0.0
 10
14.3535003918
 20
9.0605790942
 30
0.0
 10
14.3465569876
 20
9.0449469059
 30
0.0
 10
14.3380142811
 20
9.0243465902
 30
0.0
 10
14.3281072256
 20
8.9983325379
 30
0.0
 10
14.3184266108
 20
8.9707437147
 30
0.0
 10
14.3089956728
 20
8.9416463712
 30
0.0
 10
14.2998375379
 20
8.9111100662
 30
0.0
 10
14.2909740064
 20
8.8792080922
 30
0.0
 10
14.2824269962
 20
8.846016985
 30
0.0
 10
14.2742166931
 20
8.811616521
 30
0.0
 10
14.2663635071
 20
8.7760893637
 30
0.0
 10
14.2588858907
 20
8.7395209837
 30
0.0
 10
14.2518024671
 20
8.7019993402
 30
0.0
 10
14.2451298602
 20
8.6636147353
 30
0.0
 10
14.238884648
 20
8.624459542
 30
0.0
 10
14.2330815331
 20
8.584628014
 30
0.0
 10
14.2277348426
 20
8.5442160392
 30
0.0
 10
14.2228572639
 20
8.5033209153
 30
0.0
 10
14.2184607103
 20
8.4620411462
 30
0.0
 10
14.2145557251
 20
8.4204761041
 30
0.0
 10
14.2111516879
 20
8.3787257819
 30
0.0
 10
14.2082569769
 20
8.3368907743
 30
0.0
 10
14.2058783128
 20
8.2950722584
 30
0.0
 10
14.2040216044
 20
8.2533704309
 30
0.0
 10
14.2026911062
 20
8.2118842884
 30
0.0
 10
14.2018905268
 20
8.1707162775
 30
0.0
 10
14.2017096909
 20
8.1433868389
 30
0.0
 10
14.2017096909
 20
8.1297943031
 30
0.0
  0
SPLINE
  5
2F9
100
AcDbEntity
  8
0
100
AcDbSpline
 62
7
  6
CONTINUOUS
 70
0
 71
3
 72
45
 73
41
 74
0
 42
0.0000001
 43
0.0000001
 44
0.0000000001
 40
0.0
 40
0.0
 40
0.0
 40
0.0
 40
0.0964094973
 40
0.1901841986
 40
0.2359024449
 40
0.280751767
 40
0.3246647977
 40
0.3675759735
 40
0.4094235247
 40
0.4501472943
 40
0.489690465
 40
0.5279981834
 40
0.565019353
 40
0.6007060854
 40
0.6350140567
 40
0.6679036599
 40
0.6993389267
 40
0.7292902329
 40
0.75773254
 40
0.7846486179
 40
0.8100282017
 40
0.8338706286
 40
0.8561863556
 40
0.8667794076
 40
0.877001066
 40
0.8868569644
 40
0.8963538739
 40
0.9054999722
 40
0.9143053388
 40
0.9227818057
 40
0.9309430555
 40
0.9388048647
 40
0.9463855549
 40
0.9607834818
 40
0.9676579106
 40
0.9743517865
 40
0.9808973278
 40
0.9873291985
 40
0.9936840488
 40
1.0
 40
1.0
 40
1.0
 40
1.0
 10
14.2017096909
 20
8.1297943031
 30
0.0
 10
14.2017096909
 20
8.1076824016
 30
0.0
 10
14.2021782286
 20
8.0640613441
 30
0.0
 10
14.2039913669
 20
8.0099812657
 30
0.0
 10
14.2061836297
 20
7.9677575512
 30
0.0
 10
14.2081712598
 20
7.9369771265
 30
0.0
 10
14.210512548
 20
7.9068672703
 30
0.0
 10
14.2132040527
 20
7.8774779082
 30
0.0
 10
14.2162407655
 20
7.8488576062
 30
0.0
 10
14.2196181357
 20
7.8210534017
 30
0.0
 10
14.223330064
 20
7.7941110957
 30
0.0
 10
14.2273707269
 20
7.768075051
 30
0.0
 10
14.2317332103
 20
7.7429881537
 30
0.0
 10
14.2364102079
 20
7.7188916494
 30
0.0
 10
14.241394188
 20
7.6958251379
 30
0.0
 10
14.246676388
 20
7.6738264382
 30
0.0
 10
14.2522486504
 20
7.6529316183
 30
0.0
 10
14.258101029
 20
7.633174748
 30
0.0
 10
14.2642245229
 20
7.6145880476
 30
0.0
 10
14.2706085102
 20
7.5972015989
 30
0.0
 10
14.2772429407
 20
7.5810432899
 30
0.0
 10
14.2841170351
 20
7.5661393965
 30
0.0
 10
14.290136193
 20
7.5545912397
 30
0.0
 10
14.2950763475
 20
7.5460195646
 30
0.0
 10
14.2987698659
 20
7.5400314773
 30
0.0
 10
14.302514714
 20
7.5343744156
 30
0.0
 10
14.3063094941
 20
7.5290507281
 30
0.0
 10
14.3101528548
 20
7.5240627127
 30
0.0
 10
14.3140431978
 20
7.5194122962
 30
0.0
 10
14.3179790531
 20
7.5151012631
 30
0.0
 10
14.321958826
 20
7.5111314968
 30
0.0
 10
14.3259815922
 20
7.5075045436
 30
0.0
 10
14.3313074961
 20
7.5032028772
 30
0.0
 10
14.3368107914
 20
7.4994907306
 30
0.0
 10
14.3424676458
 20
7.4964581306
 30
0.0
 10
14.3466806823
 20
7.4945686105
 30
0.0
 10
14.3509266487
 20
7.493030601
 30
0.0
 10
14.3552038813
 20
7.4918448842
 30
0.0
 10
14.3595098958
 20
7.4910123878
 30
0.0
 10
14.3624022027
 20
7.4906930118
 30
0.0
 10
14.3638473224
 20
7.4905928241
 30
0.0
  0
SPLINE
  5
2FA
100
AcDbEntity
  8
0
100
AcDbSpline
 62
7
  6
CONTINUOUS
 70
0
 71
3
 72
9
 73
5
 74
0
 42
0.0000001
 43
0.0000001
 44
0.0000000001
 40
0.0
 40
0.0
 40
0.0
 40
0.0
 40
0.4858145728
 40
1.0
 40
1.0
 40
1.0
 40
1.0
 10
15.7190237315
 20
9.212476164
 30
0.0
 10
15.7163991476
 20
9.2105352909
 30
0.0
 10
15.7111459261
 20
9.2063359169
 30
0.0
 10
15.7061794685
 20
9.2018034481
 30
0.0
 10
15.7036945203
 20
9.1994031723
 30
0.0
  0
SPLINE
  5
2FB
100
AcDbEntity
  8
0
100
AcDbSpline
 62
7
  6
CONTINUOUS
 70
0
 71
3
 72
9
 73
5
 74
0
 42
0.0000001
 43
0.0000001
 44
0.0000000001
 40
0.0
 40
0.0
 40
0.0
 40
0.0
 40
0.4861313864
 40
1.0
 40
1.0
 40
1.0
 40
1.0
 10
15.7036945203
 20
9.1994031723
 30
0.0
 10
15.7010651969
 20
9.1968634408
 30
0.0
 10
15.6958124787
 20
9.1914760924
 30
0.0
 10
15.6908484358
 20
9.185823167
 30
0.0
 10
15.6883653092
 20
9.1828624004
 30
0.0
  0
SPLINE
  5
2FC
100
AcDbEntity
  8
0
100
AcDbSpline
 62
7
  6
CONTINUOUS
 70
0
 71
3
 72
11
 73
7
 74
0
 42
0.0000001
 43
0.0000001
 44
0.0000000001
 40
0.0
 40
0.0
 40
0.0
 40
0.0
 40
0.2600900101
 40
0.5135755945
 40
0.760270387
 40
1.0
 40
1.0
 40
1.0
 40
1.0
 10
15.477219743
 20
7.6140438299
 30
0.0
 10
15.4783474695
 20
7.6067020499
 30
0.0
 10
15.4806677825
 20
7.5922190709
 30
0.0
 10
15.4843964679
 20
7.5708284274
 30
0.0
 10
15.4883260912
 20
7.5500652537
 30
0.0
 10
15.4911179282
 20
7.5364562361
 30
0.0
 10
15.4925489541
 20
7.5297610456
 30
0.0
  0
SPLINE
  5
2FD
100
AcDbEntity
  8
0
100
AcDbSpline
 62
7
  6
CONTINUOUS
 70
0
 71
3
 72
26
 73
22
 74
0
 42
0.0000001
 43
0.0000001
 44
0.0000000001
 40
0.0
 40
0.0
 40
0.0
 40
0.0
 40
0.1268917481
 40
0.1901794871
 40
0.2533439739
 40
0.3163742478
 40
0.3478370349
 40
0.3792629951
 40
0.410651093
 40
0.4420006622
 40
0.504579847
 40
0.567001231
 40
0.5981543947
 40
0.629268913
 40
0.6603456099
 40
0.6913850787
 40
0.7533549648
 40
0.8151903011
 40
0.8769017073
 40
0.9385017404
 40
1.0
 40
1.0
 40
1.0
 40
1.0
 10
15.477219743
 20
8.4578957877
 30
0.0
 10
15.4860895169
 20
8.4228837458
 30
0.0
 10
15.4981863113
 20
8.370089316
 30
0.0
 10
15.511391544
 20
8.2991897719
 30
0.0
 10
15.5196950003
 20
8.2458903397
 30
0.0
 10
15.5251948139
 20
8.2013447297
 30
0.0
 10
15.5286912048
 20
8.1656729888
 30
0.0
 10
15.5308499701
 20
8.1389239068
 30
0.0
 10
15.5325393294
 20
8.112173303
 30
0.0
 10
15.5341535538
 20
8.0765384602
 30
0.0
 10
15.5349676908
 20
8.0320324714
 30
0.0
 10
15.5341566022
 20
7.9875822125
 30
0.0
 10
15.5325411234
 20
7.9521262568
 30
0.0
 10
15.5308523046
 20
7.9256092418
 30
0.0
 10
15.5286940393
 20
7.8991588203
 30
0.0
 10
15.5252022464
 20
7.8640108563
 30
0.0
 10
15.5197111114
 20
7.8202704457
 30
0.0
 10
15.5114097152
 20
7.7681133091
 30
0.0
 10
15.5015146283
 20
7.7163428192
 30
0.0
 10
15.4901478854
 20
7.6649752404
 30
0.0
 10
15.48166511
 20
7.6309746447
 30
0.0
 10
15.477219743
 20
7.6140438299
 30
0.0
  0
SPLINE
  5
2FE
100
AcDbEntity
  8
0
100
AcDbSpline
 62
7
  6
CONTINUOUS
 70
0
 71
3
 72
26
 73
22
 74
0
 42
0.0000001
 43
0.0000001
 44
0.0000000001
 40
0.0
 40
0.0
 40
0.0
 40
0.0
 40
0.0609415941
 40
0.1220071211
 40
0.1832193043
 40
0.2138921773
 40
0.244613127
 40
0.2753854665
 40
0.3062129363
 40
0.3370991868
 40
0.3680470188
 40
0.4301311465
 40
0.4924887147
 40
0.5551254933
 40
0.6180358919
 40
0.6812040332
 40
0.7446063566
 40
0.8082152847
 40
0.8720014684
 40
0.9359389091
 40
1.0
 40
1.0
 40
1.0
 40
1.0
 10
14.6360212915
 20
8.5162330985
 30
0.0
 10
14.6285939266
 20
8.500118613
 30
0.0
 10
14.61432082
 20
8.4675767411
 30
0.0
 10
14.594933032
 20
8.417861306
 30
0.0
 10
14.5806803816
 20
8.3756497866
 30
0.0
 10
14.5705586072
 20
8.3414131387
 30
0.0
 10
14.5636381523
 20
8.3154821316
 30
0.0
 10
14.5574291853
 20
8.289325208
 30
0.0
 10
14.5519666952
 20
8.2629528748
 30
0.0
 10
14.5472827359
 20
8.2363787843
 30
0.0
 10
14.5421088039
 20
8.2006668951
 30
0.0
 10
14.5377325184
 20
8.1556022681
 30
0.0
 10
14.5359726659
 20
8.1011233565
 30
0.0
 10
14.5377482596
 20
8.0464037466
 30
0.0
 10
14.5430068798
 20
7.9916739859
 30
0.0
 10
14.5516009199
 20
7.9371459781
 30
0.0
 10
14.5633090976
 20
7.882997234
 30
0.0
 10
14.577863622
 20
7.8293614639
 30
0.0
 10
14.5949767283
 20
7.7763269408
 30
0.0
 10
14.6143614721
 20
7.7239441713
 30
0.0
 10
14.6286067606
 20
7.6894961803
 30
0.0
 10
14.6360212915
 20
7.6723811406
 30
0.0
  0
SPLINE
  5
2FF
100
AcDbEntity
  8
0
100
AcDbSpline
 62
7
  6
CONTINUOUS
 70
0
 71
3
 72
35
 73
31
 74
0
 42
0.0000001
 43
0.0000001
 44
0.0000000001
 40
0.0
 40
0.0
 40
0.0
 40
0.0
 40
0.0905814806
 40
0.17778373
 40
0.2613094626
 40
0.3016083937
 40
0.3408883673
 40
0.3791209478
 40
0.4162831355
 40
0.4523558022
 40
0.4873252971
 40
0.5211862859
 40
0.5539380451
 40
0.5855896879
 40
0.616158687
 40
0.6456688786
 40
0.6741562388
 40
0.728226153
 40
0.7539324991
 40
0.778832698
 40
0.8029983482
 40
0.8265046527
 40
0.8494286401
 40
0.8718498469
 40
0.8938463108
 40
0.9154944901
 40
0.9368680282
 40
0.9580355764
 40
0.9790604789
 40
1.0
 40
1.0
 40
1.0
 40
1.0
 10
15.4925489541
 20
7.5297610456
 30
0.0
 10
15.5008427182
 20
7.5247883461
 30
0.0
 10
15.5170254859
 20
7.5148677819
 30
0.0
 10
15.5404619136
 20
7.4997310993
 30
0.0
 10
15.5590448357
 20
7.4869876877
 30
0.0
 10
15.573157153
 20
7.4767861842
 30
0.0
 10
15.5832179788
 20
7.4692372361
 30
0.0
 10
15.5928668854
 20
7.4617009466
 30
0.0
 10
15.6020901162
 20
7.4541799785
 30
0.0
 10
15.6108745786
 20
7.4466767022
 30
0.0
 10
15.6192080933
 20
7.4391931891
 30
0.0
 10
15.6270808024
 20
7.4317327318
 30
0.0
 10
15.6344832757
 20
7.4242971957
 30
0.0
 10
15.6414085987
 20
7.4168893051
 30
0.0
 10
15.6478519639
 20
7.4095120789
 30
0.0
 10
15.653809428
 20
7.4021665761
 30
0.0
 10
15.6609794686
 20
7.3925865922
 30
0.0
 10
15.6673343356
 20
7.3829107954
 30
0.0
 10
15.6727920958
 20
7.3731550471
 30
0.0
 10
15.6763449868
 20
7.3660029357
 30
0.0
 10
15.6794349794
 20
7.358894402
 30
0.0
 10
15.6820723961
 20
7.3518304276
 30
0.0
 10
15.6842677468
 20
7.3448116598
 30
0.0
 10
15.6860343139
 20
7.3378390563
 30
0.0
 10
15.6873852483
 20
7.3309129012
 30
0.0
 10
15.688334656
 20
7.3240333711
 30
0.0
 10
15.6888976737
 20
7.3172004411
 30
0.0
 10
15.6890893144
 20
7.3104137289
 30
0.0
 10
15.6889249581
 20
7.303673022
 30
0.0
 10
15.6885878941
 20
7.2992035001
 30
0.0
 10
15.6883653092
 20
7.2969791524
 30
0.0
  0
SPLINE
  5
300
100
AcDbEntity
  8
0
100
AcDbSpline
 62
7
  6
CONTINUOUS
 70
0
 71
3
 72
23
 73
19
 74
0
 42
0.0000001
 43
0.0000001
 44
0.0000000001
 40
0.0
 40
0.0
 40
0.0
 40
0.0
 40
0.0657840035
 40
0.1295554792
 40
0.1914150041
 40
0.2515264523
 40
0.3101278703
 40
0.3675464419
 40
0.4241992263
 40
0.4805992106
 40
0.5373441186
 40
0.5950963153
 40
0.6545543295
 40
0.7164117869
 40
0.7813335927
 40
0.8499108858
 40
0.9226627226
 40
1.0
 40
1.0
 40
1.0
 40
1.0
 10
14.6513505026
 20
7.5880983563
 30
0.0
 10
14.6496231672
 20
7.586127143
 30
0.0
 10
14.6463175193
 20
7.58215901
 30
0.0
 10
14.6417774263
 20
7.5760257211
 30
0.0
 10
14.6377642564
 20
7.5698011952
 30
0.0
 10
14.6343103156
 20
7.5634822268
 30
0.0
 10
14.6314495975
 20
7.5570651573
 30
0.0
 10
14.6292169451
 20
7.550547386
 30
0.0
 10
14.6276475601
 20
7.5439274882
 30
0.0
 10
14.6267776703
 20
7.5372056805
 30
0.0
 10
14.6266407638
 20
7.5303845043
 30
0.0
 10
14.6272682328
 20
7.5234681483
 30
0.0
 10
14.6286877899
 20
7.5164623915
 30
0.0
 10
14.6309204577
 20
7.5093726619
 30
0.0
 10
14.6339857215
 20
7.5022056015
 30
0.0
 10
14.6378937902
 20
7.4949652531
 30
0.0
 10
14.6426544834
 20
7.4876588031
 30
0.0
 10
14.6462817195
 20
7.4828977001
 30
0.0
 10
14.6482257619
 20
7.4805071344
 30
0.0
  0
SPLINE
  5
301
100
AcDbEntity
  8
0
100
AcDbSpline
 62
7
  6
CONTINUOUS
 70
0
 71
3
 72
27
 73
23
 74
0
 42
0.0000001
 43
0.0000001
 44
0.0000000001
 40
0.0
 40
0.0
 40
0.0
 40
0.0
 40
0.0587345969
 40
0.1176746661
 40
0.1768811896
 40
0.2364266544
 40
0.2963889131
 40
0.3265535541
 40
0.3568530475
 40
0.3872968365
 40
0.4178946016
 40
0.4795818038
 40
0.5419791414
 40
0.5734602843
 40
0.6051337954
 40
0.6370019347
 40
0.6690659479
 40
0.7337775931
 40
0.7992593693
 40
0.8654834994
 40
0.9324128556
 40
1.0
 40
1.0
 40
1.0
 40
1.0
 10
15.6883653092
 20
9.1828624004
 30
0.0
 10
15.6888106189
 20
9.1700622862
 30
0.0
 10
15.6892668597
 20
9.1443995474
 30
0.0
 10
15.6885288341
 20
9.105826255
 30
0.0
 10
15.68624763
 20
9.0671342388
 30
0.0
 10
15.6823065803
 20
9.0283509788
 30
0.0
 10
15.6775593124
 20
8.9960475357
 30
0.0
 10
15.6728439854
 20
8.9702117597
 30
0.0
 10
15.6688283347
 20
8.950797137
 30
0.0
 10
15.6643351817
 20
8.9313904466
 30
0.0
 10
15.6576814212
 20
8.9054659548
 30
0.0
 10
15.6481341693
 20
8.8731007993
 30
0.0
 10
15.6370209126
 20
8.841036221
 30
0.0
 10
15.6271848377
 20
8.8154838495
 30
0.0
 10
15.6193138044
 20
8.7963141552
 30
0.0
 10
15.610981347
 20
8.7772018691
 30
0.0
 10
15.5992331814
 20
8.7517260275
 30
0.0
 10
15.5834406635
 20
8.7200524823
 30
0.0
 10
15.5628992611
 20
8.6824579747
 30
0.0
 10
15.54083188
 20
8.6451764908
 30
0.0
 10
15.5173657493
 20
8.6082162746
 30
0.0
 10
15.5009493228
 20
8.58390227
 30
0.0
 10
15.4925489541
 20
8.5717923357
 30
0.0
  0
SPLINE
  5
302
100
AcDbEntity
  8
0
100
AcDbSpline
 62
7
  6
CONTINUOUS
 70
0
 71
3
 72
30
 73
26
 74
0
 42
0.0000001
 43
0.0000001
 44
0.0000000001
 40
0.0
 40
0.0
 40
0.0
 40
0.0
 40
0.0708186336
 40
0.1058572082
 40
0.1406259408
 40
0.1751093164
 40
0.2092936082
 40
0.2767000492
 40
0.3427508681
 40
0.4073835067
 40
0.4705890417
 40
0.5324260663
 40
0.5930237918
 40
0.6229218215
 40
0.6525847597
 40
0.6820411262
 40
0.7113211357
 40
0.740453783
 40
0.7694675633
 40
0.7983892626
 40
0.827243059
 40
0.8560515586
 40
0.8848336435
 40
0.9423812913
 40
1.0
 40
1.0
 40
1.0
 40
1.0
 10
14.8471668577
 20
9.2411997112
 30
0.0
 10
14.8359644216
 20
9.2297582195
 30
0.0
 10
14.8194983565
 20
9.2123777956
 30
0.0
 10
14.7983032573
 20
9.1886736555
 30
0.0
 10
14.7829490352
 20
9.1707742299
 30
0.0
 10
14.7681161192
 20
9.1526891688
 30
0.0
 10
14.7491720215
 20
9.1284428379
 30
0.0
 10
14.7269690626
 20
9.0976970649
 30
0.0
 10
14.7028708331
 20
9.0599100965
 30
0.0
 10
14.6817359431
 20
9.0214620352
 30
0.0
 10
14.6638252263
 20
8.9824490929
 30
0.0
 10
14.649338313
 20
8.9430062248
 30
0.0
 10
14.6401707832
 20
8.9097588046
 30
0.0
 10
14.6346398973
 20
8.8831520733
 30
0.0
 10
14.6313821481
 20
8.8632836676
 30
0.0
 10
14.6289842078
 20
8.8434344959
 30
0.0
 10
14.6274241386
 20
8.8236223956
 30
0.0
 10
14.6266775982
 20
8.8038634394
 30
0.0
 10
14.6267162172
 20
8.7841717833
 30
0.0
 10
14.6275078435
 20
8.7645594638
 30
0.0
 10
14.6290200874
 20
8.7450364849
 30
0.0
 10
14.6312175471
 20
8.7256107413
 30
0.0
 10
14.6350143225
 20
8.6998513631
 30
0.0
 10
14.6413039675
 20
8.6678952946
 30
0.0
 10
14.647789286
 20
8.6426614416
 30
0.0
 10
14.6513505026
 20
8.6301296465
 30
0.0
  0
SPLINE
  5
303
100
AcDbEntity
  8
0
100
AcDbSpline
 62
7
  6
CONTINUOUS
 70
0
 71
3
 72
31
 73
27
 74
0
 42
0.0000001
 43
0.0000001
 44
0.0000000001
 40
0.0
 40
0.0
 40
0.0
 40
0.0
 40
0.0841495728
 40
0.1666076266
 40
0.2470501576
 40
0.3251942383
 40
0.4007566652
 40
0.4734683743
 40
0.5430773786
 40
0.6093490789
 40
0.6411667385
 40
0.6720715191
 40
0.7020403821
 40
0.731052359
 40
0.7590875208
 40
0.7861284908
 40
0.8121603463
 40
0.8371697777
 40
0.8611468825
 40
0.8840848962
 40
0.9059797033
 40
0.9268319636
 40
0.9466468248
 40
0.9654340138
 40
0.9832103993
 40
1.0
 40
1.0
 40
1.0
 40
1.0
 10
14.2403467262
 20
8.1271148156
 30
0.0
 10
14.2403467262
 20
8.1098392793
 30
0.0
 10
14.2406340862
 20
8.0756346804
 30
0.0
 10
14.2419505665
 20
8.0249308579
 30
0.0
 10
14.2441438898
 20
7.9754911198
 30
0.0
 10
14.2472045735
 20
7.9275156987
 30
0.0
 10
14.2511201407
 20
7.8811947237
 30
0.0
 10
14.2558744635
 20
7.8367136274
 30
0.0
 10
14.2614482213
 20
7.7942504623
 30
0.0
 10
14.2668270608
 20
7.7602404991
 30
0.0
 10
14.2715447634
 20
7.7341812835
 30
0.0
 10
14.2752251422
 20
7.7155106178
 30
0.0
 10
14.279091948
 20
7.6974662829
 30
0.0
 10
14.2831410603
 20
7.6800662195
 30
0.0
 10
14.2873686717
 20
7.6633278485
 30
0.0
 10
14.2917704999
 20
7.6472678486
 30
0.0
 10
14.2963418558
 20
7.6319021366
 30
0.0
 10
14.3010784929
 20
7.6172460674
 30
0.0
 10
14.3059755684
 20
7.6033141516
 30
0.0
 10
14.3110279501
 20
7.5901200755
 30
0.0
 10
14.3162310258
 20
7.5776769832
 30
0.0
 10
14.3215795001
 20
7.5659970151
 30
0.0
 10
14.3270679208
 20
7.5550914876
 30
0.0
 10
14.3326915828
 20
7.5449710793
 30
0.0
 10
14.3384446333
 20
7.5356458332
 30
0.0
 10
14.3424759523
 20
7.5298008077
 30
0.0
 10
14.3445157476
 20
7.5270223407
 30
0.0
  0
SPLINE
  5
304
100
AcDbEntity
  8
0
100
AcDbSpline
 62
7
  6
CONTINUOUS
 70
0
 71
3
 72
44
 73
40
 74
0
 42
0.0000001
 43
0.0000001
 44
0.0000000001
 40
0.0
 40
0.0
 40
0.0
 40
0.0
 40
0.0073403722
 40
0.0150126728
 40
0.0230231243
 40
0.0313766007
 40
0.0400769057
 40
0.0491268475
 40
0.0585283546
 40
0.0682823943
 40
0.0783885944
 40
0.0888458758
 40
0.1108057884
 40
0.1341425763
 40
0.1588275885
 40
0.1848243792
 40
0.2120907675
 40
0.2405784323
 40
0.2702348459
 40
0.301002392
 40
0.3328202038
 40
0.3656231837
 40
0.3993436284
 40
0.4339103554
 40
0.4692500558
 40
0.5052866884
 40
0.5419424673
 40
0.5791375355
 40
0.6167906666
 40
0.6548191975
 40
0.6931394426
 40
0.7316668119
 40
0.7703163774
 40
0.8090029005
 40
0.8476402205
 40
0.8861422052
 40
0.9244266802
 40
0.9624109651
 40
1.0
 40
1.0
 40
1.0
 40
1.0
 10
14.4579766253
 20
9.1630827084
 30
0.0
 10
14.4561451523
 20
9.1612004809
 30
0.0
 10
14.4524856373
 20
9.1572662331
 30
0.0
 10
14.4471213242
 20
9.1510127109
 30
0.0
 10
14.4417655364
 20
9.1442821159
 30
0.0
 10
14.4364220574
 20
9.137078614
 30
0.0
 10
14.4310938373
 20
9.1294066063
 30
0.0
 10
14.4257837893
 20
9.1212705517
 30
0.0
 10
14.4204948882
 20
9.1126749343
 30
0.0
 10
14.415230259
 20
9.1036245742
 30
0.0
 10
14.4099927468
 20
9.0941248485
 30
0.0
 10
14.4029343512
 20
9.0806462224
 30
0.0
 10
14.3942218571
 20
9.0626960417
 30
0.0
 10
14.3840870115
 20
9.0397961926
 30
0.0
 10
14.3741330626
 20
9.0152515706
 30
0.0
 10
14.3643830171
 20
8.9891197396
 30
0.0
 10
14.3548605241
 20
8.9614615036
 30
0.0
 10
14.3455875561
 20
8.932341742
 30
0.0
 10
14.3365867121
 20
8.9018286777
 30
0.0
 10
14.3278787094
 20
8.8699940362
 30
0.0
 10
14.3194848031
 20
8.836912609
 30
0.0
 10
14.3114243008
 20
8.8026622549
 30
0.0
 10
14.303716844
 20
8.7673235711
 30
0.0
 10
14.296380195
 20
8.730979793
 30
0.0
 10
14.2894321579
 20
8.6937165237
 30
0.0
 10
14.2828888132
 20
8.6556215589
 30
0.0
 10
14.2767659338
 20
8.6167846667
 30
0.0
 10
14.2710777854
 20
8.5772973705
 30
0.0
 10
14.2658379573
 20
8.5372527479
 30
0.0
 10
14.2610587783
 20
8.4967451889
 30
0.0
 10
14.2567515266
 20
8.4558702294
 30
0.0
 10
14.2529264495
 20
8.4147241933
 30
0.0
 10
14.2495924243
 20
8.3734039949
 30
0.0
 10
14.2467575883
 20
8.3320071238
 30
0.0
 10
14.2444282912
 20
8.2906316121
 30
0.0
 10
14.2426102716
 20
8.2493744621
 30
0.0
 10
14.2413075626
 20
8.2083315478
 30
0.0
 10
14.24052375
 20
8.1676021881
 30
0.0
 10
14.2403467262
 20
8.1405633679
 30
0.0
 10
14.2403467262
 20
8.1271148156
 30
0.0
  0
SPLINE
  5
305
100
AcDbEntity
  8
0
100
AcDbSpline
 62
7
  6
CONTINUOUS
 70
0
 71
3
 72
59
 73
55
 74
0
 42
0.0000001
 43
0.0000001
 44
0.0000000001
 40
0.0
 40
0.0
 40
0.0
 40
0.0
 40
0.0417736767
 40
0.0840362765
 40
0.1266574811
 40
0.1695051262
 40
0.2124463914
 40
0.2553479967
 40
0.2980768488
 40
0.3405005256
 40
0.3824878146
 40
0.4239092383
 40
0.464637589
 40
0.5045484688
 40
0.5435208413
 40
0.5814375992
 40
0.6181861539
 40
0.6360888024
 40
0.6536595531
 40
0.6708859017
 40
0.6877557363
 40
0.7042573867
 40
0.720379648
 40
0.7361117919
 40
0.7514436399
 40
0.7663655339
 40
0.7808684645
 40
0.7949440033
 40
0.8085844873
 40
0.8217829218
 40
0.83453322
 40
0.8468300923
 40
0.8586693371
 40
0.8700477415
 40
0.8809634199
 40
0.8914157604
 40
0.9014058112
 40
0.9109363168
 40
0.9200121632
 40
0.9286405545
 40
0.9368315416
 40
0.9445983908
 40
0.9519582219
 40
0.9589325919
 40
0.9655482195
 40
0.9718376843
 40
0.9778400275
 40
0.9836011664
 40
0.9864084736
 40
0.9891757902
 40
0.9919106587
 40
0.9946209114
 40
0.9973146138
 40
1.0
 40
1.0
 40
1.0
 40
1.0
 10
14.157656039
 20
8.1312417405
 30
0.0
 10
14.157656039
 20
8.1473044417
 30
0.0
 10
14.1579066342
 20
8.1796183486
 30
0.0
 10
14.15901447
 20
8.2283094302
 30
0.0
 10
14.1608532053
 20
8.2773917201
 30
0.0
 10
14.1634168125
 20
8.3267027439
 30
0.0
 10
14.1666968199
 20
8.3760793555
 30
0.0
 10
14.1706823859
 20
8.4253582052
 30
0.0
 10
14.1753603075
 20
8.4743762564
 30
0.0
 10
14.1807150775
 20
8.5229713464
 30
0.0
 10
14.1867289297
 20
8.5709827198
 30
0.0
 10
14.1933818995
 20
8.6182515655
 30
0.0
 10
14.200651887
 20
8.6646215518
 30
0.0
 10
14.2085147317
 20
8.7099393314
 30
0.0
 10
14.2169442828
 20
8.7540551228
 30
0.0
 10
14.2259125111
 20
8.7968229765
 30
0.0
 10
14.2338776471
 20
8.8315169003
 30
0.0
 10
14.2405065056
 20
8.858485171
 30
0.0
 10
14.2455506386
 20
8.8781117168
 30
0.0
 10
14.2507062392
 20
8.8972983521
 30
0.0
 10
14.2559690693
 20
8.9160292268
 30
0.0
 10
14.2613347541
 20
8.9342888523
 30
0.0
 10
14.2667988396
 20
8.9520621372
 30
0.0
 10
14.272356811
 20
8.9693343932
 30
0.0
 10
14.2780040311
 20
8.9860913546
 30
0.0
 10
14.2837358569
 20
9.0023191794
 30
0.0
 10
14.2895474853
 20
9.0180044799
 30
0.0
 10
14.2954341611
 20
9.0331343071
 30
0.0
 10
14.3013909343
 20
9.047696201
 30
0.0
 10
14.3074129544
 20
9.0616781512
 30
0.0
 10
14.3134951474
 20
9.0750686733
 30
0.0
 10
14.3196325852
 20
9.0878567393
 30
0.0
 10
14.3258200993
 20
9.1000318864
 30
0.0
 10
14.3320527042
 20
9.1115841123
 30
0.0
 10
14.3383251761
 20
9.122504018
 30
0.0
 10
14.3446324997
 20
9.1327826686
 30
0.0
 10
14.3509694495
 20
9.1424117653
 30
0.0
 10
14.3573310239
 20
9.1513834757
 30
0.0
 10
14.3637120705
 20
9.1596906209
 30
0.0
 10
14.3701076718
 20
9.1673264858
 30
0.0
 10
14.3765128532
 20
9.1742849895
 30
0.0
 10
14.3829228837
 20
9.1805604887
 30
0.0
 10
14.3893330848
 20
9.1861478767
 30
0.0
 10
14.3957390147
 20
9.1910424001
 30
0.0
 10
14.4021362868
 20
9.1952396053
 30
0.0
 10
14.4085207738
 20
9.1987352555
 30
0.0
 10
14.4148875355
 20
9.2015250053
 30
0.0
 10
14.4202214194
 20
9.2032732241
 30
0.0
 10
14.4244587555
 20
9.2043024503
 30
0.0
 10
14.4276010626
 20
9.2048899756
 30
0.0
 10
14.4307338436
 20
9.205299426
 30
0.0
 10
14.4338565014
 20
9.2055306962
 30
0.0
 10
14.436968156
 20
9.2055836443
 30
0.0
 10
14.4390361672
 20
9.2054999779
 30
0.0
 10
14.4400662707
 20
9.2054285425
 30
0.0
  0
SPLINE
  5
306
100
AcDbEntity
  8
0
100
AcDbSpline
 62
7
  6
CONTINUOUS
 70
0
 71
3
 72
23
 73
19
 74
0
 42
0.0000001
 43
0.0000001
 44
0.0000000001
 40
0.0
 40
0.0
 40
0.0
 40
0.0
 40
0.0637757517
 40
0.1273453038
 40
0.1907021142
 40
0.2538559682
 40
0.3168132565
 40
0.3795821027
 40
0.442173382
 40
0.5045993411
 40
0.5668738656
 40
0.6290123776
 40
0.6910316412
 40
0.7529496359
 40
0.8147853464
 40
0.8765585919
 40
0.9382898467
 40
1.0
 40
1.0
 40
1.0
 40
1.0
 10
8.8349994594
 20
9.3693570323
 30
0.0
 10
8.8349994594
 20
9.3647901837
 30
0.0
 10
8.8347808231
 20
9.3556697061
 30
0.0
 10
8.8337942588
 20
9.3420445013
 30
0.0
 10
8.8321515247
 20
9.3285272326
 30
0.0
 10
8.8298565516
 20
9.3151498196
 30
0.0
 10
8.8269145965
 20
9.3019427055
 30
0.0
 10
8.8233323878
 20
9.2889364223
 30
0.0
 10
8.819118107
 20
9.27616099
 30
0.0
 10
8.8142814997
 20
9.2636458351
 30
0.0
 10
8.808833709
 20
9.2514198127
 30
0.0
 10
8.8027871889
 20
9.239511164
 30
0.0
 10
8.7961559264
 20
9.2279473337
 30
0.0
 10
8.7889552146
 20
9.2167549738
 30
0.0
 10
8.78120159
 20
9.2059599828
 30
0.0
 10
8.7729128855
 20
9.1955871527
 30
0.0
 10
8.7641085838
 20
9.1856606937
 30
0.0
 10
8.7579075963
 20
9.1793548224
 30
0.0
 10
8.7547292474
 20
9.1762847918
 30
0.0
  0
SPLINE
  5
307
100
AcDbEntity
  8
0
100
AcDbSpline
 62
7
  6
CONTINUOUS
 70
0
 71
3
 72
23
 73
19
 74
0
 42
0.0000001
 43
0.0000001
 44
0.0000000001
 40
0.0
 40
0.0
 40
0.0
 40
0.0
 40
0.0637757517
 40
0.1273453038
 40
0.1907021142
 40
0.2538559682
 40
0.3168132565
 40
0.3795821027
 40
0.442173382
 40
0.5045993411
 40
0.5668738656
 40
0.6290123776
 40
0.6910316412
 40
0.7529496359
 40
0.8147853464
 40
0.8765585919
 40
0.9382898467
 40
1.0
 40
1.0
 40
1.0
 40
1.0
 10
11.9143711411
 20
9.1558018808
 30
0.0
 10
11.9143711411
 20
9.1512350323
 30
0.0
 10
11.9141525047
 20
9.1421145547
 30
0.0
 10
11.9131659404
 20
9.1284893499
 30
0.0
 10
11.9115232063
 20
9.1149720812
 30
0.0
 10
11.9092282333
 20
9.1015946681
 30
0.0
 10
11.9062862781
 20
9.0883875541
 30
0.0
 10
11.9027040694
 20
9.0753812708
 30
0.0
 10
11.8984897886
 20
9.0626058385
 30
0.0
 10
11.8936531814
 20
9.0500906836
 30
0.0
 10
11.8882053907
 20
9.0378646613
 30
0.0
 10
11.8821588705
 20
9.0259560125
 30
0.0
 10
11.875527608
 20
9.0143921823
 30
0.0
 10
11.8683268963
 20
9.0031998223
 30
0.0
 10
11.8605732717
 20
8.9924048313
 30
0.0
 10
11.8522845671
 20
8.9820320012
 30
0.0
 10
11.8434802655
 20
8.9721055422
 30
0.0
 10
11.837279278
 20
8.965799671
 30
0.0
 10
11.8341009291
 20
8.9627296404
 30
0.0
  0
SPLINE
  5
308
100
AcDbEntity
  8
0
100
AcDbSpline
 62
7
  6
CONTINUOUS
 70
0
 71
3
 72
23
 73
19
 74
0
 42
0.0000001
 43
0.0000001
 44
0.0000000001
 40
0.0
 40
0.0
 40
0.0
 40
0.0
 40
0.0637757517
 40
0.1273453038
 40
0.1907021142
 40
0.2538559682
 40
0.3168132565
 40
0.3795821027
 40
0.442173382
 40
0.5045993411
 40
0.5668738656
 40
0.6290123776
 40
0.6910316412
 40
0.7529496359
 40
0.8147853464
 40
0.8765585919
 40
0.9382898467
 40
1.0
 40
1.0
 40
1.0
 40
1.0
 10
11.9143711411
 20
6.740987172
 30
0.0
 10
11.9143711411
 20
6.7364203235
 30
0.0
 10
11.9141525047
 20
6.7272998459
 30
0.0
 10
11.9131659404
 20
6.713674641
 30
0.0
 10
11.9115232063
 20
6.7001573724
 30
0.0
 10
11.9092282333
 20
6.6867799593
 30
0.0
 10
11.9062862781
 20
6.6735728453
 30
0.0
 10
11.9027040694
 20
6.660566562
 30
0.0
 10
11.8984897886
 20
6.6477911297
 30
0.0
 10
11.8936531814
 20
6.6352759748
 30
0.0
 10
11.8882053907
 20
6.6230499525
 30
0.0
 10
11.8821588705
 20
6.6111413037
 30
0.0
 10
11.875527608
 20
6.5995774735
 30
0.0
 10
11.8683268963
 20
6.5883851135
 30
0.0
 10
11.8605732717
 20
6.5775901225
 30
0.0
 10
11.8522845671
 20
6.5672172924
 30
0.0
 10
11.8434802655
 20
6.5572908334
 30
0.0
 10
11.837279278
 20
6.5509849622
 30
0.0
 10
11.8341009291
 20
6.5479149316
 30
0.0
  0
SPLINE
  5
309
100
AcDbEntity
  8
0
100
AcDbSpline
 62
7
  6
CONTINUOUS
 70
0
 71
3
 72
23
 73
19
 74
0
 42
0.0000001
 43
0.0000001
 44
0.0000000001
 40
0.0
 40
0.0
 40
0.0
 40
0.0
 40
0.0637757517
 40
0.1273453038
 40
0.1907021142
 40
0.2538559682
 40
0.3168132565
 40
0.3795821027
 40
0.442173382
 40
0.5045993411
 40
0.5668738656
 40
0.6290123776
 40
0.6910316412
 40
0.7529496359
 40
0.8147853464
 40
0.8765585919
 40
0.9382898467
 40
1.0
 40
1.0
 40
1.0
 40
1.0
 10
8.8349994594
 20
6.9545423235
 30
0.0
 10
8.8349994594
 20
6.9499754749
 30
0.0
 10
8.8347808231
 20
6.9408549973
 30
0.0
 10
8.8337942588
 20
6.9272297925
 30
0.0
 10
8.8321515247
 20
6.9137125238
 30
0.0
 10
8.8298565516
 20
6.9003351108
 30
0.0
 10
8.8269145965
 20
6.8871279967
 30
0.0
 10
8.8233323878
 20
6.8741217135
 30
0.0
 10
8.819118107
 20
6.8613462812
 30
0.0
 10
8.8142814997
 20
6.8488311263
 30
0.0
 10
8.808833709
 20
6.8366051039
 30
0.0
 10
8.8027871889
 20
6.8246964552
 30
0.0
 10
8.7961559264
 20
6.8131326249
 30
0.0
 10
8.7889552146
 20
6.801940265
 30
0.0
 10
8.78120159
 20
6.7911452739
 30
0.0
 10
8.7729128855
 20
6.7807724439
 30
0.0
 10
8.7641085838
 20
6.7708459849
 30
0.0
 10
8.7579075963
 20
6.7645401136
 30
0.0
 10
8.7547292474
 20
6.761470083
 30
0.0
  0
SPLINE
  5
30A
100
AcDbEntity
  8
0
100
AcDbSpline
 62
7
  6
CONTINUOUS
 70
0
 71
3
 72
21
 73
17
 74
0
 42
0.0000001
 43
0.0000001
 44
0.0000000001
 40
0.0
 40
0.0
 40
0.0
 40
0.0
 40
0.1273176253
 40
0.2537997538
 40
0.3167617031
 40
0.3795356349
 40
0.4421315552
 40
0.5045621127
 40
0.5668413504
 40
0.6289845238
 40
0.6910084429
 40
0.7529310808
 40
0.8147714271
 40
0.8765493234
 40
0.9382852026
 40
1.0
 40
1.0
 40
1.0
 40
1.0
 10
10.2143417188
 20
8.0662919673
 30
0.0
 10
10.2143417188
 20
8.0622881772
 30
0.0
 10
10.2139595365
 20
8.0543017166
 30
0.0
 10
10.2125160974
 20
8.0444287312
 30
0.0
 10
10.2107908897
 20
8.0366842277
 30
0.0
 10
10.2092175862
 20
8.0309718776
 30
0.0
 10
10.2073667245
 20
8.0253610227
 30
0.0
 10
10.2052424781
 20
8.0198644832
 30
0.0
 10
10.2028498722
 20
8.0144949074
 30
0.0
 10
10.2001942344
 20
8.0092647517
 30
0.0
 10
10.1972818703
 20
8.004185992
 30
0.0
 10
10.1941193041
 20
7.999270444
 30
0.0
 10
10.1907139941
 20
7.9945293581
 30
0.0
 10
10.1870736264
 20
7.9899737222
 30
0.0
 10
10.1832068247
 20
7.9856141223
 30
0.0
 10
10.1804833895
 20
7.982844646
 30
0.0
 10
10.1790874805
 20
7.9814963167
 30
0.0
  0
SPLINE
  5
30B
100
AcDbEntity
  8
0
100
AcDbSpline
 62
7
  6
CONTINUOUS
 70
0
 71
3
 72
21
 73
17
 74
0
 42
0.0000001
 43
0.0000001
 44
0.0000000001
 40
0.0
 40
0.0
 40
0.0
 40
0.0
 40
0.1273176253
 40
0.2537997538
 40
0.3167617031
 40
0.3795356349
 40
0.4421315552
 40
0.5045621127
 40
0.5668413504
 40
0.6289845238
 40
0.6910084429
 40
0.7529310808
 40
0.8147714271
 40
0.8765493234
 40
0.9382852026
 40
1.0
 40
1.0
 40
1.0
 40
1.0
 10
9.3392129659
 20
6.8886653071
 30
0.0
 10
9.3392129659
 20
6.884661517
 30
0.0
 10
9.3388307837
 20
6.8766750564
 30
0.0
 10
9.3373873446
 20
6.866802071
 30
0.0
 10
9.3356621368
 20
6.8590575675
 30
0.0
 10
9.3340888334
 20
6.8533452174
 30
0.0
 10
9.3322379717
 20
6.8477343626
 30
0.0
 10
9.3301137252
 20
6.842237823
 30
0.0
 10
9.3277211194
 20
6.8368682472
 30
0.0
 10
9.3250654815
 20
6.8316380915
 30
0.0
 10
9.3221531174
 20
6.8265593318
 30
0.0
 10
9.3189905513
 20
6.8216437838
 30
0.0
 10
9.3155852413
 20
6.816902698
 30
0.0
 10
9.3119448736
 20
6.812347062
 30
0.0
 10
9.3080780719
 20
6.8079874622
 30
0.0
 10
9.3053546367
 20
6.8052179858
 30
0.0
 10
9.3039587277
 20
6.8038696566
 30
0.0
  0
SPLINE
  5
30C
100
AcDbEntity
  8
0
100
AcDbSpline
 62
7
  6
CONTINUOUS
 70
0
 71
3
 72
15
 73
11
 74
0
 42
0.0000001
 43
0.0000001
 44
0.0000000001
 40
0.0
 40
0.0
 40
0.0
 40
0.0
 40
0.1273482228
 40
0.253860527
 40
0.3795879206
 40
0.5046050801
 40
0.6290174363
 40
0.7529533709
 40
0.8765605784
 40
1.0
 40
1.0
 40
1.0
 40
1.0
 10
11.1145847749
 20
6.765542854
 30
0.0
 10
11.1145847749
 20
6.7607383933
 30
0.0
 10
11.11412605
 20
6.7511543662
 30
0.0
 10
11.1120515006
 20
6.7369626517
 30
0.0
 10
11.108611546
 20
6.7231275189
 30
0.0
 10
11.1038372503
 20
6.7097783581
 30
0.0
 10
11.0977724481
 20
6.6970382664
 30
0.0
 10
11.090472401
 20
6.6850248851
 30
0.0
 10
11.0820057486
 20
6.6738507808
 30
0.0
 10
11.0756307895
 20
6.6670249898
 30
0.0
 10
11.0722812327
 20
6.663789552
 30
0.0
  0
SPLINE
  5
30D
100
AcDbEntity
  8
0
100
AcDbSpline
 62
7
  6
CONTINUOUS
 70
0
 71
3
 72
23
 73
19
 74
0
 42
0.0000001
 43
0.0000001
 44
0.0000000001
 40
0.0
 40
0.0
 40
0.0
 40
0.0
 40
0.0637751697
 40
0.127345371
 40
0.1907022537
 40
0.2538558573
 40
0.3168132315
 40
0.3795821093
 40
0.4421733555
 40
0.5045993354
 40
0.5668738704
 40
0.6290123786
 40
0.6910316578
 40
0.7529496568
 40
0.8147853611
 40
0.8765586146
 40
0.9382898649
 40
1.0
 40
1.0
 40
1.0
 40
1.0
 10
10.3302528248
 20
8.873494933
 30
0.0
 10
10.3302528248
 20
8.8696378925
 30
0.0
 10
10.3300681563
 20
8.8619349027
 30
0.0
 10
10.3292349587
 20
8.8504272967
 30
0.0
 10
10.3278475564
 20
8.8390108301
 30
0.0
 10
10.3259092675
 20
8.827712521
 30
0.0
 10
10.3234246219
 20
8.816558029
 30
0.0
 10
10.3203991827
 20
8.8055731495
 30
0.0
 10
10.3168399207
 20
8.7947832426
 30
0.0
 10
10.3127551144
 20
8.7842131349
 30
0.0
 10
10.3081540443
 20
8.7738872458
 30
0.0
 10
10.3030473403
 20
8.7638293842
 30
0.0
 10
10.2974468226
 20
8.7540627145
 30
0.0
 10
10.2913652742
 20
8.7446098278
 30
0.0
 10
10.2848168083
 20
8.7354925077
 30
0.0
 10
10.2778164577
 20
8.7267316971
 30
0.0
 10
10.2703805424
 20
8.7183479659
 30
0.0
 10
10.2651434201
 20
8.7130220311
 30
0.0
 10
10.2624590631
 20
8.7104291235
 30
0.0
  0
SPLINE
  5
30E
100
AcDbEntity
  8
0
100
AcDbSpline
 62
7
  6
CONTINUOUS
 70
0
 71
3
 72
15
 73
11
 74
0
 42
0.0000001
 43
0.0000001
 44
0.0000000001
 40
0.0
 40
0.0
 40
0.0
 40
0.0
 40
0.1233350559
 40
0.2472082292
 40
0.3715904915
 40
0.4964610659
 40
0.6217816928
 40
0.747510951
 40
0.8736009798
 40
1.0
 40
1.0
 40
1.0
 40
1.0
 10
9.3952366322
 20
7.8607611961
 30
0.0
 10
9.3904909173
 20
7.8610903126
 30
0.0
 10
9.3809971328
 20
7.8620536169
 30
0.0
 10
9.3668484586
 20
7.8643968621
 30
0.0
 10
9.3528150248
 20
7.867629911
 30
0.0
 10
9.3389536765
 20
7.871735227
 30
0.0
 10
9.3253181291
 20
7.8766911489
 30
0.0
 10
9.3119599798
 20
7.8824715252
 30
0.0
 10
9.2989285269
 20
7.889046137
 30
0.0
 10
9.2904969047
 20
7.8939321037
 30
0.0
 10
9.2863499684
 20
7.8964955772
 30
0.0
  0
SPLINE
  5
30F
100
AcDbEntity
  8
0
100
AcDbSpline
 62
7
  6
CONTINUOUS
 70
0
 71
3
 72
15
 73
11
 74
0
 42
0.0000001
 43
0.0000001
 44
0.0000000001
 40
0.0
 40
0.0
 40
0.0
 40
0.0
 40
0.1233350559
 40
0.2472082292
 40
0.3715904915
 40
0.4964610659
 40
0.6217816928
 40
0.747510951
 40
0.8736009798
 40
1.0
 40
1.0
 40
1.0
 40
1.0
 10
10.7823060756
 20
7.7645676035
 30
0.0
 10
10.7775603607
 20
7.76489672
 30
0.0
 10
10.7680665763
 20
7.7658600242
 30
0.0
 10
10.7539179021
 20
7.7682032695
 30
0.0
 10
10.7398844683
 20
7.7714363183
 30
0.0
 10
10.7260231199
 20
7.7755416344
 30
0.0
 10
10.7123875726
 20
7.7804975563
 30
0.0
 10
10.6990294233
 20
7.7862779325
 30
0.0
 10
10.6859979704
 20
7.7928525444
 30
0.0
 10
10.6775663481
 20
7.797738511
 30
0.0
 10
10.6734194119
 20
7.8003019845
 30
0.0
  0
SPLINE
  5
310
100
AcDbEntity
  8
0
100
AcDbSpline
 62
7
  6
CONTINUOUS
 70
0
 71
3
 72
23
 73
19
 74
0
 42
0.0000001
 43
0.0000001
 44
0.0000000001
 40
0.0
 40
0.0
 40
0.0
 40
0.0
 40
0.0637751697
 40
0.127345371
 40
0.1907022537
 40
0.2538558573
 40
0.3168132315
 40
0.3795821093
 40
0.4421733555
 40
0.5045993354
 40
0.5668738704
 40
0.6290123786
 40
0.6910316578
 40
0.7529496568
 40
0.8147853611
 40
0.8765586146
 40
0.9382898649
 40
1.0
 40
1.0
 40
1.0
 40
1.0
 10
10.3302528248
 20
7.2430119614
 30
0.0
 10
10.3302528248
 20
7.239154921
 30
0.0
 10
10.3300681563
 20
7.2314519312
 30
0.0
 10
10.3292349587
 20
7.2199443252
 30
0.0
 10
10.3278475564
 20
7.2085278586
 30
0.0
 10
10.3259092675
 20
7.1972295494
 30
0.0
 10
10.3234246219
 20
7.1860750575
 30
0.0
 10
10.3203991827
 20
7.175090178
 30
0.0
 10
10.3168399207
 20
7.1643002711
 30
0.0
 10
10.3127551144
 20
7.1537301634
 30
0.0
 10
10.3081540443
 20
7.1434042743
 30
0.0
 10
10.3030473403
 20
7.1333464127
 30
0.0
 10
10.2974468226
 20
7.123579743
 30
0.0
 10
10.2913652742
 20
7.1141268563
 30
0.0
 10
10.2848168083
 20
7.1050095361
 30
0.0
 10
10.2778164577
 20
7.0962487255
 30
0.0
 10
10.2703805424
 20
7.0878649944
 30
0.0
 10
10.2651434201
 20
7.0825390596
 30
0.0
 10
10.2624590631
 20
7.079946152
 30
0.0
  0
SPLINE
  5
311
100
AcDbEntity
  8
0
100
AcDbSpline
 62
7
  6
CONTINUOUS
 70
0
 71
3
 72
48
 73
44
 74
0
 42
0.0000001
 43
0.0000001
 44
0.0000000001
 40
0.0
 40
0.0
 40
0.0
 40
0.0
 40
0.0071626074
 40
0.0146566713
 40
0.0224898148
 40
0.030668309
 40
0.0391972639
 40
0.0480804654
 40
0.0573201794
 40
0.0669176915
 40
0.0768732994
 40
0.0871864733
 40
0.0978559919
 40
0.1088798031
 40
0.1202553551
 40
0.1319794325
 40
0.1440483172
 40
0.1564578568
 40
0.1692033375
 40
0.1822797519
 40
0.2094025086
 40
0.2377787704
 40
0.2673553198
 40
0.2980742587
 40
0.3298735056
 40
0.3626872076
 40
0.3964461051
 40
0.4310778582
 40
0.4665073457
 40
0.5026569784
 40
0.5394469828
 40
0.5767956709
 40
0.6146197004
 40
0.6528343283
 40
0.691353678
 40
0.7300909944
 40
0.7689589057
 40
0.807869652
 40
0.8467353316
 40
0.8854683467
 40
0.9239807756
 40
0.9621873118
 40
1.0
 40
1.0
 40
1.0
 40
1.0
 10
6.1859826875
 20
10.0639719409
 30
0.0
 10
6.184492374
 20
10.0625324086
 30
0.0
 10
6.181513732
 20
10.0595125696
 30
0.0
 10
6.1771480097
 20
10.0546865931
 30
0.0
 10
6.1727878357
 20
10.0494665535
 30
0.0
 10
6.1684360195
 20
10.0438558298
 30
0.0
 10
6.1640949493
 20
10.0378577103
 30
0.0
 10
6.1597671828
 20
10.0314756395
 30
0.0
 10
6.1554551519
 20
10.0247134214
 30
0.0
 10
6.1511615158
 20
10.0175750397
 30
0.0
 10
6.1468888065
 20
10.0100647657
 30
0.0
 10
6.1426395449
 20
10.0021870787
 30
0.0
 10
6.1384163396
 20
9.9939466491
 30
0.0
 10
6.1342216328
 20
9.9853484304
 30
0.0
 10
6.1300580269
 20
9.9763975409
 30
0.0
 10
6.1259279823
 20
9.9670993575
 30
0.0
 10
6.121833978
 20
9.9574594526
 30
0.0
 10
6.1177785363
 20
9.9474835989
 30
0.0
 10
6.1137639995
 20
9.9371777928
 30
0.0
 10
6.1084038453
 20
9.9228299051
 30
0.0
 10
6.1018348781
 20
9.9041088484
 30
0.0
 10
6.0942460634
 20
9.8806949196
 30
0.0
 10
6.0868766367
 20
9.8561229937
 30
0.0
 10
6.0797444385
 20
9.8304521542
 30
0.0
 10
6.0728667399
 20
9.8037439894
 30
0.0
 10
6.0662601924
 20
9.7760626763
 30
0.0
 10
6.0599407888
 20
9.7474747492
 30
0.0
 10
6.0539238251
 20
9.7180489591
 30
0.0
 10
6.0482238479
 20
9.6878561007
 30
0.0
 10
6.0428546361
 20
9.6569688329
 30
0.0
 10
6.0378291668
 20
9.6254614948
 30
0.0
 10
6.0331595843
 20
9.5934099259
 30
0.0
 10
6.0288571745
 20
9.5608912858
 30
0.0
 10
6.0249323232
 20
9.5279838689
 30
0.0
 10
6.021394499
 20
9.4947669123
 30
0.0
 10
6.0182522361
 20
9.4613203984
 30
0.0
 10
6.0155131136
 20
9.4277248652
 30
0.0
 10
6.0131837397
 20
9.394061218
 30
0.0
 10
6.0112697163
 20
9.360410485
 30
0.0
 10
6.0097756703
 20
9.3268538279
 30
0.0
 10
6.0087051216
 20
9.2934717373
 30
0.0
 10
6.0080607281
 20
9.2603450265
 30
0.0
 10
6.0079153314
 20
9.2383536564
 30
0.0
 10
6.0079153314
 20
9.2274150648
 30
0.0
  0
SPLINE
  5
312
100
AcDbEntity
  8
0
100
AcDbSpline
 62
7
  6
CONTINUOUS
 70
0
 71
3
 72
35
 73
31
 74
0
 42
0.0000001
 43
0.0000001
 44
0.0000000001
 40
0.0
 40
0.0
 40
0.0
 40
0.0
 40
0.0851783445
 40
0.168579649
 40
0.2498817933
 40
0.3287721894
 40
0.3672196909
 40
0.4049533592
 40
0.4419382782
 40
0.478140495
 40
0.5135273868
 40
0.5480673716
 40
0.5817304191
 40
0.6144877089
 40
0.6463121604
 40
0.6771781599
 40
0.7070620226
 40
0.735941894
 40
0.763798074
 40
0.7906131793
 40
0.8163723064
 40
0.8410635107
 40
0.8646778482
 40
0.8872101958
 40
0.908659289
 40
0.9290288865
 40
0.9483280125
 40
0.9665724673
 40
0.9837855591
 40
1.0
 40
1.0
 40
1.0
 40
1.0
 10
6.0079153314
 20
7.5370447687
 30
0.0
 10
6.0079153314
 20
7.5227897209
 30
0.0
 10
6.0081582396
 20
7.4945763408
 30
0.0
 10
6.0092723401
 20
7.4527698497
 30
0.0
 10
6.0111279214
 20
7.4120428845
 30
0.0
 10
6.0133035427
 20
7.3788680783
 30
0.0
 10
6.0154191405
 20
7.3530019626
 30
0.0
 10
6.0171718663
 20
7.334143879
 30
0.0
 10
6.0191022336
 20
7.3156809106
 30
0.0
 10
6.0212082804
 20
7.2976324765
 30
0.0
 10
6.0234876903
 20
7.2800175921
 30
0.0
 10
6.0259381327
 20
7.2628547962
 30
0.0
 10
6.0285569187
 20
7.2461621587
 30
0.0
 10
6.0313413585
 20
7.2299572402
 30
0.0
 10
6.0342884179
 20
7.2142570871
 30
0.0
 10
6.0373950409
 20
7.1990782039
 30
0.0
 10
6.0406578808
 20
7.1844365376
 30
0.0
 10
6.0440735127
 20
7.1703474598
 30
0.0
 10
6.047638309
 20
7.1568257459
 30
0.0
 10
6.0513484835
 20
7.1438855573
 30
0.0
 10
6.0552001578
 20
7.1315404297
 30
0.0
 10
6.0591892062
 20
7.1198032357
 30
0.0
 10
6.0633115305
 20
7.1086862053
 30
0.0
 10
6.0675627116
 20
7.098200844
 30
0.0
 10
6.0719384676
 20
7.0883580124
 30
0.0
 10
6.0764341784
 20
7.0791677702
 30
0.0
 10
6.0810454158
 20
7.0706395776
 30
0.0
 10
6.0857675842
 20
7.0627819091
 30
0.0
 10
6.0905959603
 20
7.055603146
 30
0.0
 10
6.093981593
 20
7.0511444298
 30
0.0
 10
6.0956937641
 20
7.0490392108
 30
0.0
  0
SPLINE
  5
313
100
AcDbEntity
  8
0
100
AcDbSpline
 62
7
  6
CONTINUOUS
 70
0
 71
3
 72
11
 73
7
 74
0
 42
0.0000001
 43
0.0000001
 44
0.0000000001
 40
0.0
 40
0.0
 40
0.0
 40
0.0
 40
0.2499066702
 40
0.4998757409
 40
0.7499105616
 40
1.0
 40
1.0
 40
1.0
 40
1.0
 10
10.0833800536
 20
8.7318634418
 30
0.0
 10
10.0898081729
 20
8.7296411915
 30
0.0
 10
10.1028662889
 20
8.7257533572
 30
0.0
 10
10.1228797602
 20
8.7216315054
 30
0.0
 10
10.143176132
 20
8.7192291078
 30
0.0
 10
10.1567983624
 20
8.7187716158
 30
0.0
 10
10.1636045312
 20
8.7188251726
 30
0.0
  0
SPLINE
  5
314
100
AcDbEntity
  8
0
100
AcDbSpline
 62
7
  6
CONTINUOUS
 70
0
 71
3
 72
34
 73
30
 74
0
 42
0.0000001
 43
0.0000001
 44
0.0000000001
 40
0.0
 40
0.0
 40
0.0
 40
0.0
 40
0.0625624908
 40
0.0938877594
 40
0.1252255916
 40
0.1565692337
 40
0.1879110545
 40
0.2192449946
 40
0.2505662962
 40
0.2818709473
 40
0.3131561165
 40
0.3444198893
 40
0.3756615583
 40
0.4068811726
 40
0.4380799637
 40
0.4692599327
 40
0.5004238477
 40
0.531575418
 40
0.5627185696
 40
0.5938581489
 40
0.6249987254
 40
0.6561455514
 40
0.6873033934
 40
0.7184772227
 40
0.7496712732
 40
0.8121224555
 40
0.8746835066
 40
0.9373346393
 40
1.0
 40
1.0
 40
1.0
 40
1.0
 10
9.9162098688
 20
8.9735601249
 30
0.0
 10
9.9156207499
 20
8.9669569242
 30
0.0
 10
9.9151433917
 20
8.9570042345
 30
0.0
 10
9.9153532379
 20
8.9437335559
 30
0.0
 10
9.9159405279
 20
8.9337860752
 30
0.0
 10
9.9169625972
 20
8.9238722946
 30
0.0
 10
9.9184228318
 20
8.914013783
 30
0.0
 10
9.920322019
 20
8.9042327206
 30
0.0
 10
9.9226596149
 20
8.8945510704
 30
0.0
 10
9.9254325715
 20
8.8849903677
 30
0.0
 10
9.9286361383
 20
8.8755716313
 30
0.0
 10
9.9322638674
 20
8.8663151598
 30
0.0
 10
9.9363070832
 20
8.8572400948
 30
0.0
 10
9.9407562069
 20
8.8483647113
 30
0.0
 10
9.9455995787
 20
8.8397057114
 30
0.0
 10
9.9508248057
 20
8.8312786421
 30
0.0
 10
9.9564182588
 20
8.8230974886
 30
0.0
 10
9.9623654189
 20
8.8151746996
 30
0.0
 10
9.968651434
 20
8.8075214256
 30
0.0
 10
9.9752605461
 20
8.8001470478
 30
0.0
 10
9.9821772018
 20
8.7930599101
 30
0.0
 10
9.9893852163
 20
8.7862666222
 30
0.0
 10
9.9968687305
 20
8.7797729024
 30
0.0
 10
10.0046118039
 20
8.7735829076
 30
0.0
 10
10.0152634195
 20
8.7657370853
 30
0.0
 10
10.0291528385
 20
8.7567015039
 30
0.0
 10
10.0465941994
 20
8.7471140213
 30
0.0
 10
10.0646880784
 20
8.7387734726
 30
0.0
 10
10.0771041702
 20
8.7340330631
 30
0.0
 10
10.0833800536
 20
8.7318634418
 30
0.0
  0
SPLINE
  5
315
100
AcDbEntity
  8
0
100
AcDbSpline
 62
7
  6
CONTINUOUS
 70
0
 71
3
 72
35
 73
31
 74
0
 42
0.0000001
 43
0.0000001
 44
0.0000000001
 40
0.0
 40
0.0
 40
0.0
 40
0.0
 40
0.0844253006
 40
0.1672924418
 40
0.2482527433
 40
0.326968296
 40
0.365382747
 40
0.4031152944
 40
0.4401277465
 40
0.4763829893
 40
0.5118450613
 40
0.546479366
 40
0.5802525235
 40
0.6131328046
 40
0.6450898526
 40
0.6760951924
 40
0.7061220317
 40
0.7351456434
 40
0.7631434516
 40
0.790095168
 40
0.8159832619
 40
0.8407928846
 40
0.8645126561
 40
0.8871346358
 40
0.90865532
 40
0.9290757923
 40
0.9484027079
 40
0.9666499665
 40
0.9838394163
 40
1.0
 40
1.0
 40
1.0
 40
1.0
 10
14.6654054816
 20
7.462328666
 30
0.0
 10
14.6635318197
 20
7.4474334415
 30
0.0
 10
14.6595606641
 20
7.4179496701
 30
0.0
 10
14.652871881
 20
7.3743122814
 30
0.0
 10
14.645528595
 20
7.3318100465
 30
0.0
 10
14.6388388
 20
7.2972236843
 30
0.0
 10
14.6331753386
 20
7.2702740409
 30
0.0
 10
14.6288202366
 20
7.2506283951
 30
0.0
 10
14.6243282356
 20
7.2314076859
 30
0.0
 10
14.6197044368
 20
7.2126337672
 30
0.0
 10
14.6149541005
 20
7.1943280045
 30
0.0
 10
14.6100826986
 20
7.1765112164
 30
0.0
 10
14.6050957233
 20
7.1592036707
 30
0.0
 10
14.5999989509
 20
7.142425036
 30
0.0
 10
14.5947981191
 20
7.1261943891
 30
0.0
 10
14.5894992378
 20
7.1105301575
 30
0.0
 10
14.5841083072
 20
7.0954501296
 30
0.0
 10
14.5786315008
 20
7.0809714086
 30
0.0
 10
14.5730750806
 20
7.0671103995
 30
0.0
 10
14.5674453339
 20
7.0538828006
 30
0.0
 10
14.5617487482
 20
7.041303541
 30
0.0
 10
14.5559916985
 20
7.0293868349
 30
0.0
 10
14.5501808234
 20
7.0181460542
 30
0.0
 10
14.544322578
 20
7.0075938246
 30
0.0
 10
14.5384236097
 20
6.9977419069
 30
0.0
 10
14.5324904474
 20
6.9886012752
 30
0.0
 10
14.5265296672
 20
6.9801820095
 30
0.0
 10
14.520547495
 20
6.9724931331
 30
0.0
 10
14.5145506211
 20
6.9655436797
 30
0.0
 10
14.5104224668
 20
6.961279882
 30
0.0
 10
14.5083555493
 20
6.9592833929
 30
0.0
  0
SPLINE
  5
316
100
AcDbEntity
  8
0
100
AcDbSpline
 62
7
  6
CONTINUOUS
 70
0
 71
3
 72
14
 73
10
 74
0
 42
0.0000001
 43
0.0000001
 44
0.0000000001
 40
0.0
 40
0.0
 40
0.0
 40
0.0
 40
0.2539054332
 40
0.3794531972
 40
0.5042807911
 40
0.6285761276
 40
0.7525143359
 40
0.8762674876
 40
1.0
 40
1.0
 40
1.0
 40
1.0
 10
10.2346826851
 20
8.7221300423
 30
0.0
 10
10.2397593676
 20
8.7233519439
 30
0.0
 10
10.2472861679
 20
8.7254464028
 30
0.0
 10
10.2571067237
 20
8.7287848189
 30
0.0
 10
10.2643041069
 20
8.7315416144
 30
0.0
 10
10.2713587012
 20
8.7345621608
 30
0.0
 10
10.2782694121
 20
8.7378479336
 30
0.0
 10
10.285033934
 20
8.7413999532
 30
0.0
 10
10.2894432937
 20
8.7439452206
 30
0.0
 10
10.2916211
 20
8.7452613436
 30
0.0
  0
SPLINE
  5
317
100
AcDbEntity
  8
0
100
AcDbSpline
 62
7
  6
CONTINUOUS
 70
0
 71
3
 72
11
 73
7
 74
0
 42
0.0000001
 43
0.0000001
 44
0.0000000001
 40
0.0
 40
0.0
 40
0.0
 40
0.0
 40
0.2470759508
 40
0.4960096856
 40
0.7469280163
 40
1.0
 40
1.0
 40
1.0
 40
1.0
 10
10.1636045312
 20
8.7188251726
 30
0.0
 10
10.1694358327
 20
8.7179689898
 30
0.0
 10
10.1812323701
 20
8.7168110714
 30
0.0
 10
10.1990760321
 20
8.7167738951
 30
0.0
 10
10.2169842429
 20
8.7184544819
 30
0.0
 10
10.2288134457
 20
8.7207173809
 30
0.0
 10
10.2346826851
 20
8.7221300423
 30
0.0
  0
SPLINE
  5
318
100
AcDbEntity
  8
0
100
AcDbSpline
 62
7
  6
CONTINUOUS
 70
0
 71
3
 72
21
 73
17
 74
0
 42
0.0000001
 43
0.0000001
 44
0.0000000001
 40
0.0
 40
0.0
 40
0.0
 40
0.0
 40
0.0544269362
 40
0.1090706352
 40
0.1641451988
 40
0.2198591755
 40
0.2764134207
 40
0.3339993848
 40
0.4529295423
 40
0.514640558
 40
0.5780283771
 40
0.6432231334
 40
0.7103429475
 40
0.7794947081
 40
0.850773216
 40
1.0
 40
1.0
 40
1.0
 40
1.0
 10
6.7729495147
 20
10.6024642823
 30
0.0
 10
6.7719313221
 20
10.6025348949
 30
0.0
 10
6.7698856293
 20
10.6026097017
 30
0.0
 10
6.7668067158
 20
10.6025216446
 30
0.0
 10
6.7637157233
 20
10.6022334612
 30
0.0
 10
6.7606137984
 20
10.6017453854
 30
0.0
 10
6.7575016885
 20
10.6010575965
 30
0.0
 10
6.753295591
 20
10.5998621158
 30
0.0
 10
6.7491103716
 20
10.5982694453
 30
0.0
 10
6.7449705551
 20
10.5963163775
 30
0.0
 10
6.7418209785
 20
10.5946355996
 30
0.0
 10
6.7386665259
 20
10.592757682
 30
0.0
 10
6.7355077232
 20
10.5906831065
 30
0.0
 10
6.732345334
 20
10.5884123872
 30
0.0
 10
6.7280599215
 20
10.5850731569
 30
0.0
 10
6.724942342
 20
10.582349936
 30
0.0
 10
6.722893873
 20
10.5804434641
 30
0.0
  0
SPLINE
  5
319
100
AcDbEntity
  8
0
100
AcDbSpline
 62
7
  6
CONTINUOUS
 70
0
 71
3
 72
21
 73
17
 74
0
 42
0.0000001
 43
0.0000001
 44
0.0000000001
 40
0.0
 40
0.0
 40
0.0
 40
0.0
 40
0.1492271706
 40
0.2205019358
 40
0.2896518956
 40
0.3567720269
 40
0.4219681063
 40
0.4853571873
 40
0.5470688767
 40
0.6659992874
 40
0.7235852768
 40
0.7801397289
 40
0.8358539995
 40
0.8909288577
 40
0.9455728231
 40
1.0
 40
1.0
 40
1.0
 40
1.0
 10
6.147445257
 20
6.9854080466
 30
0.0
 10
6.1492109505
 20
6.9832370499
 30
0.0
 10
6.15192272
 20
6.9801095867
 30
0.0
 10
6.1557061295
 20
6.9762108713
 30
0.0
 10
6.1585247434
 20
6.9735254442
 30
0.0
 10
6.16136693
 20
6.9710346921
 30
0.0
 10
6.1642319903
 20
6.9687392676
 30
0.0
 10
6.1671194467
 20
6.9666397726
 30
0.0
 10
6.1709500632
 20
6.9641339186
 30
0.0
 10
6.1748753832
 20
6.9619787639
 30
0.0
 10
6.178876211
 20
6.9602141436
 30
0.0
 10
6.1818635957
 20
6.9591033449
 30
0.0
 10
6.184868465
 20
6.9581917477
 30
0.0
 10
6.1878901029
 20
6.957479646
 30
0.0
 10
6.1909274028
 20
6.9569674324
 30
0.0
 10
6.1929638474
 20
6.9567591377
 30
0.0
 10
6.1939820445
 20
6.9566885248
 30
0.0
  0
SPLINE
  5
31A
100
AcDbEntity
  8
0
100
AcDbSpline
 62
7
  6
CONTINUOUS
 70
0
 71
3
 72
15
 73
11
 74
0
 42
0.0000001
 43
0.0000001
 44
0.0000000001
 40
0.0
 40
0.0
 40
0.0
 40
0.0
 40
0.1197100517
 40
0.2416078812
 40
0.3652618048
 40
0.4903323433
 40
0.6165483227
 40
0.7436848989
 40
0.8715578655
 40
1.0
 40
1.0
 40
1.0
 40
1.0
 10
9.9656720614
 20
9.1064402728
 30
0.0
 10
9.9629085336
 20
9.1023450819
 30
0.0
 10
9.9575058484
 20
9.0939601044
 30
0.0
 10
9.9499184199
 20
9.0809284829
 30
0.0
 10
9.9428627876
 20
9.0673504431
 30
0.0
 10
9.9364311193
 20
9.0532690162
 30
0.0
 10
9.9307078934
 20
9.038729679
 30
0.0
 10
9.9257711243
 20
9.0237819624
 30
0.0
 10
9.9216935433
 20
9.0084821113
 30
0.0
 10
9.9195956836
 20
8.9981058773
 30
0.0
 10
9.9187098735
 20
8.992879631
 30
0.0
  0
SPLINE
  5
31B
100
AcDbEntity
  8
0
100
AcDbSpline
 62
7
  6
CONTINUOUS
 70
0
 71
3
 72
52
 73
48
 74
0
 42
0.0000001
 43
0.0000001
 44
0.0000000001
 40
0.0
 40
0.0
 40
0.0
 40
0.0
 40
0.0063158568
 40
0.0126706178
 40
0.0191024266
 40
0.0256479345
 40
0.0323417789
 40
0.0392160908
 40
0.0536138298
 40
0.0611945069
 40
0.0690562056
 40
0.0772172859
 40
0.0856936163
 40
0.094498959
 40
0.1036450353
 40
0.1131417384
 40
0.1229974561
 40
0.1332190303
 40
0.1438120572
 40
0.1547810415
 40
0.1661293353
 40
0.1778594655
 40
0.1899731041
 40
0.2024710934
 40
0.2153537091
 40
0.2286205088
 40
0.2422704818
 40
0.2563021821
 40
0.2707135511
 40
0.3006644045
 40
0.3320995118
 40
0.364988637
 40
0.399296387
 40
0.4349827261
 40
0.4720035166
 40
0.5103109065
 40
0.549853604
 40
0.5905771631
 40
0.632424299
 40
0.6753351168
 40
0.7192472758
 40
0.7640961515
 40
0.8098152405
 40
0.8563361104
 40
0.9035880427
 40
0.9515014724
 40
1.0
 40
1.0
 40
1.0
 40
1.0
 10
14.3209318352
 20
7.4875546086
 30
0.0
 10
14.3194765828
 20
7.4876555271
 30
0.0
 10
14.3165639896
 20
7.4879770866
 30
0.0
 10
14.3122277348
 20
7.4888152648
 30
0.0
 10
14.3079204768
 20
7.4900092928
 30
0.0
 10
14.3036447067
 20
7.4915581324
 30
0.0
 10
14.2994021302
 20
7.4934609771
 30
0.0
 10
14.2937054887
 20
7.4965146609
 30
0.0
 10
14.2881635371
 20
7.5002528247
 30
0.0
 10
14.2828003497
 20
7.5045847879
 30
0.0
 10
14.2787493212
 20
7.5082371378
 30
0.0
 10
14.2747415791
 20
7.5122346688
 30
0.0
 10
14.2707780693
 20
7.5165759049
 30
0.0
 10
14.26686046
 20
7.5212590148
 30
0.0
 10
14.262990184
 20
7.5262820848
 30
0.0
 10
14.2591686854
 20
7.5316430332
 30
0.0
 10
14.2553975251
 20
7.5373397368
 30
0.0
 10
14.2516781264
 20
7.5433698479
 30
0.0
 10
14.2480119643
 20
7.5497309256
 30
0.0
 10
14.244400563
 20
7.5564204148
 30
0.0
 10
14.2408453017
 20
7.5634355609
 30
0.0
 10
14.2373476641
 20
7.5707735278
 30
0.0
 10
14.2339090847
 20
7.5784313254
 30
0.0
 10
14.2305309101
 20
7.5864058066
 30
0.0
 10
14.2272145889
 20
7.5946937318
 30
0.0
 10
14.2239614477
 20
7.6032916955
 30
0.0
 10
14.2207728095
 20
7.6121961659
 30
0.0
 10
14.2176500223
 20
7.6214035177
 30
0.0
 10
14.2135227419
 20
7.6342439919
 30
0.0
 10
14.2085496897
 20
7.6510322135
 30
0.0
 10
14.2029384784
 20
7.6720735739
 30
0.0
 10
14.1976190305
 20
7.6942266773
 30
0.0
 10
14.1926001896
 20
7.7174550719
 30
0.0
 10
14.1878902941
 20
7.7417206897
 30
0.0
 10
14.1834971881
 20
7.7669836477
 30
0.0
 10
14.1794282056
 20
7.7932024107
 30
0.0
 10
14.1756901296
 20
7.8203338249
 30
0.0
 10
14.1722891745
 20
7.8483332012
 30
0.0
 10
14.169231009
 20
7.8771544083
 30
0.0
 10
14.1665207447
 20
7.9067499517
 30
0.0
 10
14.1641628969
 20
7.9370710311
 30
0.0
 10
14.1621613798
 20
7.9680676536
 30
0.0
 10
14.1605195399
 20
7.9996887109
 30
0.0
 10
14.1592401436
 20
8.0318819316
 30
0.0
 10
14.158325271
 20
8.0645945677
 30
0.0
 10
14.1577765401
 20
8.097772158
 30
0.0
 10
14.157656039
 20
8.120040235
 30
0.0
 10
14.157656039
 20
8.1312417405
 30
0.0
  0
SPLINE
  5
31C
100
AcDbEntity
  8
0
100
AcDbSpline
 62
7
  6
CONTINUOUS
 70
0
 71
3
 72
21
 73
17
 74
0
 42
0.0000001
 43
0.0000001
 44
0.0000000001
 40
0.0
 40
0.0
 40
0.0
 40
0.0
 40
0.0544271769
 40
0.1090711423
 40
0.1641460005
 40
0.2198602711
 40
0.2764147232
 40
0.3340007126
 40
0.4529311233
 40
0.5146428127
 40
0.5780318937
 40
0.6432279731
 40
0.7103481044
 40
0.7794980642
 40
0.8507728294
 40
1.0
 40
1.0
 40
1.0
 40
1.0
 10
14.5003561923
 20
10.0665668091
 30
0.0
 10
14.5013743895
 20
10.0664961962
 30
0.0
 10
14.503410834
 20
10.0662879015
 30
0.0
 10
14.5064481339
 20
10.0657756878
 30
0.0
 10
14.5094697718
 20
10.0650635862
 30
0.0
 10
14.5124746411
 20
10.064151989
 30
0.0
 10
14.5154620258
 20
10.0630411903
 30
0.0
 10
14.5194628536
 20
10.06127657
 30
0.0
 10
14.5233881737
 20
10.0591214153
 30
0.0
 10
14.5272187902
 20
10.0566155613
 30
0.0
 10
14.5301062465
 20
10.0545160663
 30
0.0
 10
14.5329713068
 20
10.0522206418
 30
0.0
 10
14.5358134934
 20
10.0497298897
 30
0.0
 10
14.5386321073
 20
10.0470444626
 30
0.0
 10
14.5424155168
 20
10.0431457472
 30
0.0
 10
14.5451272864
 20
10.040018284
 30
0.0
 10
14.5468929798
 20
10.0378472873
 30
0.0
  0
SPLINE
  5
31D
100
AcDbEntity
  8
0
100
AcDbSpline
 62
7
  6
CONTINUOUS
 70
0
 71
3
 72
35
 73
31
 74
0
 42
0.0000001
 43
0.0000001
 44
0.0000000001
 40
0.0
 40
0.0
 40
0.0
 40
0.0
 40
0.0162144409
 40
0.0334275327
 40
0.0516719875
 40
0.0709711135
 40
0.091340711
 40
0.1127898042
 40
0.1353221518
 40
0.1589364893
 40
0.1836276936
 40
0.2093868207
 40
0.236201926
 40
0.264058106
 40
0.2929379774
 40
0.3228218401
 40
0.3536878396
 40
0.3855122911
 40
0.4182695809
 40
0.4519326284
 40
0.4864726132
 40
0.521859505
 40
0.5580617218
 40
0.5950466408
 40
0.6327803091
 40
0.6712278106
 40
0.7501182067
 40
0.831420351
 40
0.9148216555
 40
1.0
 40
1.0
 40
1.0
 40
1.0
 10
14.5986444727
 20
9.9742161231
 30
0.0
 10
14.6003566438
 20
9.9721109041
 30
0.0
 10
14.6037422765
 20
9.9676521879
 30
0.0
 10
14.6085706526
 20
9.9604734248
 30
0.0
 10
14.613292821
 20
9.9526157563
 30
0.0
 10
14.6179040584
 20
9.9440875637
 30
0.0
 10
14.6223997692
 20
9.9348973215
 30
0.0
 10
14.6267755252
 20
9.9250544899
 30
0.0
 10
14.6310267063
 20
9.9145691285
 30
0.0
 10
14.6351490306
 20
9.9034520981
 30
0.0
 10
14.639138079
 20
9.8917149042
 30
0.0
 10
14.6429897533
 20
9.8793697766
 30
0.0
 10
14.6466999278
 20
9.8664295879
 30
0.0
 10
14.6502647241
 20
9.8529078741
 30
0.0
 10
14.6536803561
 20
9.8388187962
 30
0.0
 10
14.6569431959
 20
9.82417713
 30
0.0
 10
14.6600498189
 20
9.8089982468
 30
0.0
 10
14.6629968783
 20
9.7932980936
 30
0.0
 10
14.6657813181
 20
9.7770931752
 30
0.0
 10
14.6684001041
 20
9.7604005377
 30
0.0
 10
14.6708505465
 20
9.7432377418
 30
0.0
 10
14.6731299564
 20
9.7256228574
 30
0.0
 10
14.6752360032
 20
9.7075744233
 30
0.0
 10
14.6771663706
 20
9.6891114549
 30
0.0
 10
14.6789190963
 20
9.6702533713
 30
0.0
 10
14.6810346942
 20
9.6443872556
 30
0.0
 10
14.6832103154
 20
9.6112124494
 30
0.0
 10
14.6850658967
 20
9.5704854841
 30
0.0
 10
14.6861799972
 20
9.5286789931
 30
0.0
 10
14.6864229054
 20
9.500465613
 30
0.0
 10
14.6864229054
 20
9.4862105652
 30
0.0
  0
SPLINE
  5
31E
100
AcDbEntity
  8
0
100
AcDbSpline
 62
7
  6
CONTINUOUS
 70
0
 71
3
 72
21
 73
17
 74
0
 42
0.0000001
 43
0.0000001
 44
0.0000000001
 40
0.0
 40
0.0
 40
0.0
 40
0.0
 40
0.149226784
 40
0.2205052919
 40
0.2896570525
 40
0.3567768666
 40
0.4219716229
 40
0.485359442
 40
0.5470704577
 40
0.6660006152
 40
0.7235865793
 40
0.7801408245
 40
0.8358548012
 40
0.8909293648
 40
0.9455730638
 40
1.0
 40
1.0
 40
1.0
 40
1.0
 10
13.9714443638
 20
6.4428118698
 30
0.0
 10
13.9693958948
 20
6.4409053979
 30
0.0
 10
13.9662783153
 20
6.4381821769
 30
0.0
 10
13.9619929028
 20
6.4348429467
 30
0.0
 10
13.9588305137
 20
6.4325722273
 30
0.0
 10
13.955671711
 20
6.4304976519
 30
0.0
 10
13.9525172583
 20
6.4286197343
 30
0.0
 10
13.9493676818
 20
6.4269389564
 30
0.0
 10
13.9452278653
 20
6.4249858886
 30
0.0
 10
13.9410426459
 20
6.4233932181
 30
0.0
 10
13.9368365483
 20
6.4221977374
 30
0.0
 10
13.9337244384
 20
6.4215099485
 30
0.0
 10
13.9306225135
 20
6.4210218727
 30
0.0
 10
13.927531521
 20
6.4207336893
 30
0.0
 10
13.9244526076
 20
6.4206456322
 30
0.0
 10
13.9224069148
 20
6.420720439
 30
0.0
 10
13.9213887221
 20
6.4207910516
 30
0.0
  0
SPLINE
  5
31F
100
AcDbEntity
  8
0
100
AcDbSpline
 62
7
  6
CONTINUOUS
 70
0
 71
3
 72
39
 73
35
 74
0
 42
0.0000001
 43
0.0000001
 44
0.0000000001
 40
0.0
 40
0.0
 40
0.0
 40
0.0
 40
0.0299424689
 40
0.059909316
 40
0.0899243238
 40
0.120010106
 40
0.150187569
 40
0.1804754262
 40
0.2108897768
 40
0.2414437599
 40
0.2721472906
 40
0.3030068794
 40
0.3340255372
 40
0.3652027613
 40
0.3965346002
 40
0.4280137884
 40
0.4596299473
 40
0.4913698423
 40
0.5232176895
 40
0.5551555049
 40
0.5871634868
 40
0.6192204263
 40
0.6513041383
 40
0.683391905
 40
0.7154609283
 40
0.7474887827
 40
0.7794538622
 40
0.8113358179
 40
0.8431159726
 40
0.8747777271
 40
0.9063068788
 40
0.9376920781
 40
0.9689247389
 40
1.0
 40
1.0
 40
1.0
 40
1.0
 10
8.3434415484
 20
9.6020856877
 30
0.0
 10
8.3483520927
 20
9.6068288804
 30
0.0
 10
8.3585593533
 20
9.6159324171
 30
0.0
 10
8.3749129178
 20
9.6283344023
 30
0.0
 10
8.3922256185
 20
9.6394209486
 30
0.0
 10
8.4104007069
 20
9.6491298773
 30
0.0
 10
8.4293382617
 20
9.6574081425
 30
0.0
 10
8.4489337682
 20
9.6642102393
 30
0.0
 10
8.4690792442
 20
9.6694989503
 30
0.0
 10
8.4896637027
 20
9.6732454015
 30
0.0
 10
8.5105738095
 20
9.6754292426
 30
0.0
 10
8.5316945008
 20
9.6760387334
 30
0.0
 10
8.5529096187
 20
9.6750707952
 30
0.0
 10
8.5741025453
 20
9.6725310129
 30
0.0
 10
8.595156839
 20
9.6684335929
 30
0.0
 10
8.6159568659
 20
9.662801275
 30
0.0
 10
8.6363884268
 20
9.6556651999
 30
0.0
 10
8.6563393752
 20
9.6470647336
 30
0.0
 10
8.6757002242
 20
9.6370472478
 30
0.0
 10
8.6943647389
 20
9.6256678591
 30
0.0
 10
8.7122305117
 20
9.6129891264
 30
0.0
 10
8.7291995166
 20
9.5990807093
 30
0.0
 10
8.7451786415
 20
9.5840189883
 30
0.0
 10
8.7600801925
 20
9.5678866491
 30
0.0
 10
8.7738223707
 20
9.5507722332
 30
0.0
 10
8.7863297164
 20
9.5327696564
 30
0.0
 10
8.7975335205
 20
9.5139777005
 30
0.0
 10
8.8073721963
 20
9.4944994735
 30
0.0
 10
8.8157916231
 20
9.4744418641
 30
0.0
 10
8.8227454241
 20
9.4539149158
 30
0.0
 10
8.8281952659
 20
9.4330314013
 30
0.0
 10
8.832110979
 20
9.4119055795
 30
0.0
 10
8.8344708908
 20
9.3906549899
 30
0.0
 10
8.8349994594
 20
9.3764425712
 30
0.0
 10
8.8349994594
 20
9.3693570323
 30
0.0
  0
SPLINE
  5
320
100
AcDbEntity
  8
0
100
AcDbSpline
 62
7
  6
CONTINUOUS
 70
0
 71
3
 72
39
 73
35
 74
0
 42
0.0000001
 43
0.0000001
 44
0.0000000001
 40
0.0
 40
0.0
 40
0.0
 40
0.0
 40
0.0299424689
 40
0.059909316
 40
0.0899243238
 40
0.120010106
 40
0.150187569
 40
0.1804754262
 40
0.2108897768
 40
0.2414437599
 40
0.2721472906
 40
0.3030068794
 40
0.3340255372
 40
0.3652027613
 40
0.3965346002
 40
0.4280137884
 40
0.4596299473
 40
0.4913698423
 40
0.5232176895
 40
0.5551555049
 40
0.5871634868
 40
0.6192204263
 40
0.6513041383
 40
0.683391905
 40
0.7154609283
 40
0.7474887827
 40
0.7794538622
 40
0.8113358179
 40
0.8431159726
 40
0.8747777271
 40
0.9063068788
 40
0.9376920781
 40
0.9689247389
 40
1.0
 40
1.0
 40
1.0
 40
1.0
 10
11.4228132301
 20
9.3885305363
 30
0.0
 10
11.4277237743
 20
9.3932737289
 30
0.0
 10
11.4379310349
 20
9.4023772656
 30
0.0
 10
11.4542845995
 20
9.4147792509
 30
0.0
 10
11.4715973002
 20
9.4258657972
 30
0.0
 10
11.4897723885
 20
9.4355747259
 30
0.0
 10
11.5087099434
 20
9.443852991
 30
0.0
 10
11.5283054499
 20
9.4506550879
 30
0.0
 10
11.5484509259
 20
9.4559437988
 30
0.0
 10
11.5690353843
 20
9.45969025
 30
0.0
 10
11.5899454911
 20
9.4618740912
 30
0.0
 10
11.6110661825
 20
9.462483582
 30
0.0
 10
11.6322813003
 20
9.4615156437
 30
0.0
 10
11.653474227
 20
9.4589758614
 30
0.0
 10
11.6745285207
 20
9.4548784415
 30
0.0
 10
11.6953285476
 20
9.4492461235
 30
0.0
 10
11.7157601084
 20
9.4421100484
 30
0.0
 10
11.7357110568
 20
9.4335095821
 30
0.0
 10
11.7550719059
 20
9.4234920963
 30
0.0
 10
11.7737364206
 20
9.4121127076
 30
0.0
 10
11.7916021933
 20
9.3994339749
 30
0.0
 10
11.8085711983
 20
9.3855255578
 30
0.0
 10
11.8245503231
 20
9.3704638368
 30
0.0
 10
11.8394518741
 20
9.3543314976
 30
0.0
 10
11.8531940523
 20
9.3372170817
 30
0.0
 10
11.865701398
 20
9.319214505
 30
0.0
 10
11.8769052021
 20
9.3004225491
 30
0.0
 10
11.886743878
 20
9.2809443221
 30
0.0
 10
11.8951633048
 20
9.2608867127
 30
0.0
 10
11.9021171058
 20
9.2403597644
 30
0.0
 10
11.9075669475
 20
9.2194762499
 30
0.0
 10
11.9114826607
 20
9.198350428
 30
0.0
 10
11.9138425725
 20
9.1770998385
 30
0.0
 10
11.9143711411
 20
9.1628874197
 30
0.0
 10
11.9143711411
 20
9.1558018808
 30
0.0
  0
SPLINE
  5
321
100
AcDbEntity
  8
0
100
AcDbSpline
 62
7
  6
CONTINUOUS
 70
0
 71
3
 72
39
 73
35
 74
0
 42
0.0000001
 43
0.0000001
 44
0.0000000001
 40
0.0
 40
0.0
 40
0.0
 40
0.0
 40
0.0299424689
 40
0.059909316
 40
0.0899243238
 40
0.120010106
 40
0.150187569
 40
0.1804754262
 40
0.2108897768
 40
0.2414437599
 40
0.2721472906
 40
0.3030068794
 40
0.3340255372
 40
0.3652027613
 40
0.3965346002
 40
0.4280137884
 40
0.4596299473
 40
0.4913698423
 40
0.5232176895
 40
0.5551555049
 40
0.5871634868
 40
0.6192204263
 40
0.6513041383
 40
0.683391905
 40
0.7154609283
 40
0.7474887827
 40
0.7794538622
 40
0.8113358179
 40
0.8431159726
 40
0.8747777271
 40
0.9063068788
 40
0.9376920781
 40
0.9689247389
 40
1.0
 40
1.0
 40
1.0
 40
1.0
 10
11.4228132301
 20
6.9737158275
 30
0.0
 10
11.4277237743
 20
6.9784590201
 30
0.0
 10
11.4379310349
 20
6.9875625568
 30
0.0
 10
11.4542845995
 20
6.9999645421
 30
0.0
 10
11.4715973002
 20
7.0110510884
 30
0.0
 10
11.4897723885
 20
7.0207600171
 30
0.0
 10
11.5087099434
 20
7.0290382822
 30
0.0
 10
11.5283054499
 20
7.0358403791
 30
0.0
 10
11.5484509259
 20
7.04112909
 30
0.0
 10
11.5690353843
 20
7.0448755412
 30
0.0
 10
11.5899454911
 20
7.0470593824
 30
0.0
 10
11.6110661825
 20
7.0476688732
 30
0.0
 10
11.6322813003
 20
7.0467009349
 30
0.0
 10
11.653474227
 20
7.0441611526
 30
0.0
 10
11.6745285207
 20
7.0400637327
 30
0.0
 10
11.6953285476
 20
7.0344314147
 30
0.0
 10
11.7157601084
 20
7.0272953396
 30
0.0
 10
11.7357110568
 20
7.0186948733
 30
0.0
 10
11.7550719059
 20
7.0086773875
 30
0.0
 10
11.7737364206
 20
6.9972979988
 30
0.0
 10
11.7916021933
 20
6.9846192661
 30
0.0
 10
11.8085711983
 20
6.970710849
 30
0.0
 10
11.8245503231
 20
6.955649128
 30
0.0
 10
11.8394518741
 20
6.9395167888
 30
0.0
 10
11.8531940523
 20
6.9224023729
 30
0.0
 10
11.865701398
 20
6.9043997961
 30
0.0
 10
11.8769052021
 20
6.8856078403
 30
0.0
 10
11.886743878
 20
6.8661296133
 30
0.0
 10
11.8951633048
 20
6.8460720039
 30
0.0
 10
11.9021171058
 20
6.8255450556
 30
0.0
 10
11.9075669475
 20
6.8046615411
 30
0.0
 10
11.9114826607
 20
6.7835357192
 30
0.0
 10
11.9138425725
 20
6.7622851297
 30
0.0
 10
11.9143711411
 20
6.7480727109
 30
0.0
 10
11.9143711411
 20
6.740987172
 30
0.0
  0
SPLINE
  5
322
100
AcDbEntity
  8
0
100
AcDbSpline
 62
7
  6
CONTINUOUS
 70
0
 71
3
 72
39
 73
35
 74
0
 42
0.0000001
 43
0.0000001
 44
0.0000000001
 40
0.0
 40
0.0
 40
0.0
 40
0.0
 40
0.0299424689
 40
0.059909316
 40
0.0899243238
 40
0.120010106
 40
0.150187569
 40
0.1804754262
 40
0.2108897768
 40
0.2414437599
 40
0.2721472906
 40
0.3030068794
 40
0.3340255372
 40
0.3652027613
 40
0.3965346002
 40
0.4280137884
 40
0.4596299473
 40
0.4913698423
 40
0.5232176895
 40
0.5551555049
 40
0.5871634868
 40
0.6192204263
 40
0.6513041383
 40
0.683391905
 40
0.7154609283
 40
0.7474887827
 40
0.7794538622
 40
0.8113358179
 40
0.8431159726
 40
0.8747777271
 40
0.9063068788
 40
0.9376920781
 40
0.9689247389
 40
1.0
 40
1.0
 40
1.0
 40
1.0
 10
8.3434415484
 20
7.1872709789
 30
0.0
 10
8.3483520927
 20
7.1920141716
 30
0.0
 10
8.3585593533
 20
7.2011177083
 30
0.0
 10
8.3749129178
 20
7.2135196935
 30
0.0
 10
8.3922256185
 20
7.2246062398
 30
0.0
 10
8.4104007069
 20
7.2343151685
 30
0.0
 10
8.4293382617
 20
7.2425934337
 30
0.0
 10
8.4489337682
 20
7.2493955305
 30
0.0
 10
8.4690792442
 20
7.2546842415
 30
0.0
 10
8.4896637027
 20
7.2584306927
 30
0.0
 10
8.5105738095
 20
7.2606145338
 30
0.0
 10
8.5316945008
 20
7.2612240246
 30
0.0
 10
8.5529096187
 20
7.2602560863
 30
0.0
 10
8.5741025453
 20
7.2577163041
 30
0.0
 10
8.595156839
 20
7.2536188841
 30
0.0
 10
8.6159568659
 20
7.2479865662
 30
0.0
 10
8.6363884268
 20
7.2408504911
 30
0.0
 10
8.6563393752
 20
7.2322500248
 30
0.0
 10
8.6757002242
 20
7.222232539
 30
0.0
 10
8.6943647389
 20
7.2108531503
 30
0.0
 10
8.7122305117
 20
7.1981744176
 30
0.0
 10
8.7291995166
 20
7.1842660004
 30
0.0
 10
8.7451786415
 20
7.1692042795
 30
0.0
 10
8.7600801925
 20
7.1530719403
 30
0.0
 10
8.7738223707
 20
7.1359575244
 30
0.0
 10
8.7863297164
 20
7.1179549476
 30
0.0
 10
8.7975335205
 20
7.0991629917
 30
0.0
 10
8.8073721963
 20
7.0796847647
 30
0.0
 10
8.8157916231
 20
7.0596271553
 30
0.0
 10
8.8227454241
 20
7.039100207
 30
0.0
 10
8.8281952659
 20
7.0182166925
 30
0.0
 10
8.832110979
 20
6.9970908707
 30
0.0
 10
8.8344708908
 20
6.9758402811
 30
0.0
 10
8.8349994594
 20
6.9616278624
 30
0.0
 10
8.8349994594
 20
6.9545423235
 30
0.0
  0
SPLINE
  5
323
100
AcDbEntity
  8
0
100
AcDbSpline
 62
7
  6
CONTINUOUS
 70
0
 71
3
 72
41
 73
37
 74
0
 42
0.0000001
 43
0.0000001
 44
0.0000000001
 40
0.0
 40
0.0
 40
0.0
 40
0.0
 40
0.0299421172
 40
0.04492376
 40
0.059914511
 40
0.089929166
 40
0.1200145972
 40
0.135093366
 40
0.1501974852
 40
0.1804849961
 40
0.2108989984
 40
0.2414526287
 40
0.272155802
 40
0.3030150309
 40
0.334033329
 40
0.3652101953
 40
0.3965416763
 40
0.4280205023
 40
0.459636293
 40
0.4913758157
 40
0.5232232898
 40
0.5551607336
 40
0.5871683456
 40
0.6192249134
 40
0.6513082489
 40
0.6833956359
 40
0.7154642792
 40
0.7474917569
 40
0.7794564628
 40
0.8113380448
 40
0.8431178358
 40
0.8747791645
 40
0.9063081103
 40
0.9376924636
 40
0.9689257188
 40
1.0
 40
1.0
 40
1.0
 40
1.0
 10
9.9984552273
 20
8.1685042866
 30
0.0
 10
10.0006118861
 20
8.1705874355
 30
0.0
 10
10.0039740331
 20
8.1735858902
 30
0.0
 10
10.0086825727
 20
8.1773063964
 30
0.0
 10
10.0135411214
 20
8.1808416781
 30
0.0
 10
10.0198806651
 20
8.1849013975
 30
0.0
 10
10.0265284534
 20
8.1884524605
 30
0.0
 10
10.0320111581
 20
8.190978676
 30
0.0
 10
10.0376071087
 20
8.1932963702
 30
0.0
 10
10.0447864695
 20
8.1957885157
 30
0.0
 10
10.0536339373
 20
8.198111126
 30
0.0
 10
10.062674454
 20
8.1997565047
 30
0.0
 10
10.0718579173
 20
8.2007155819
 30
0.0
 10
10.0811338828
 20
8.2009832392
 30
0.0
 10
10.0904513131
 20
8.2005581116
 30
0.0
 10
10.0997589981
 20
8.1994426477
 30
0.0
 10
10.1090057933
 20
8.1976430759
 30
0.0
 10
10.118140914
 20
8.1951693941
 30
0.0
 10
10.127114207
 20
8.1920352857
 30
0.0
 10
10.1358764214
 20
8.1882580423
 30
0.0
 10
10.1443794732
 20
8.1838584678
 30
0.0
 10
10.1525767047
 20
8.1788607646
 30
0.0
 10
10.1604231346
 20
8.1732923999
 30
0.0
 10
10.1678757069
 20
8.1671839653
 30
0.0
 10
10.1748935343
 20
8.1605690162
 30
0.0
 10
10.1814381066
 20
8.1534838702
 30
0.0
 10
10.1874735016
 20
8.1459674138
 30
0.0
 10
10.1929665777
 20
8.1380608913
 30
0.0
 10
10.1978871547
 20
8.1298076831
 30
0.0
 10
10.2022081775
 20
8.1212530682
 30
0.0
 10
10.2059058655
 20
8.1124439962
 30
0.0
 10
10.2089599016
 20
8.1034287905
 30
0.0
 10
10.2113533528
 20
8.0942570209
 30
0.0
 10
10.2130731665
 20
8.084978756
 30
0.0
 10
10.214109543
 20
8.0756457508
 30
0.0
 10
10.2143417188
 20
8.0694037913
 30
0.0
 10
10.2143417188
 20
8.0662919673
 30
0.0
  0
SPLINE
  5
324
100
AcDbEntity
  8
0
100
AcDbSpline
 62
7
  6
CONTINUOUS
 70
0
 71
3
 72
41
 73
37
 74
0
 42
0.0000001
 43
0.0000001
 44
0.0000000001
 40
0.0
 40
0.0
 40
0.0
 40
0.0
 40
0.0299421172
 40
0.04492376
 40
0.059914511
 40
0.089929166
 40
0.1200145972
 40
0.135093366
 40
0.1501974852
 40
0.1804849961
 40
0.2108989984
 40
0.2414526287
 40
0.272155802
 40
0.3030150309
 40
0.334033329
 40
0.3652101953
 40
0.3965416763
 40
0.4280205023
 40
0.459636293
 40
0.4913758157
 40
0.5232232898
 40
0.5551607336
 40
0.5871683456
 40
0.6192249134
 40
0.6513082489
 40
0.6833956359
 40
0.7154642792
 40
0.7474917569
 40
0.7794564628
 40
0.8113380448
 40
0.8431178358
 40
0.8747791645
 40
0.9063081103
 40
0.9376924636
 40
0.9689257188
 40
1.0
 40
1.0
 40
1.0
 40
1.0
 10
9.1233264744
 20
6.9908776264
 30
0.0
 10
9.1254831333
 20
6.9929607753
 30
0.0
 10
9.1288452803
 20
6.99595923
 30
0.0
 10
9.1335538199
 20
6.9996797362
 30
0.0
 10
9.1384123686
 20
7.003215018
 30
0.0
 10
9.1447519123
 20
7.0072747373
 30
0.0
 10
9.1513997006
 20
7.0108258003
 30
0.0
 10
9.1568824053
 20
7.0133520159
 30
0.0
 10
9.1624783558
 20
7.01566971
 30
0.0
 10
9.1696577167
 20
7.0181618556
 30
0.0
 10
9.1785051845
 20
7.0204844658
 30
0.0
 10
9.1875457012
 20
7.0221298445
 30
0.0
 10
9.1967291645
 20
7.0230889217
 30
0.0
 10
9.20600513
 20
7.0233565791
 30
0.0
 10
9.2153225603
 20
7.0229314514
 30
0.0
 10
9.2246302453
 20
7.0218159875
 30
0.0
 10
9.2338770404
 20
7.0200164157
 30
0.0
 10
9.2430121611
 20
7.0175427339
 30
0.0
 10
9.2519854542
 20
7.0144086255
 30
0.0
 10
9.2607476686
 20
7.0106313822
 30
0.0
 10
9.2692507204
 20
7.0062318076
 30
0.0
 10
9.2774479519
 20
7.0012341044
 30
0.0
 10
9.2852943818
 20
6.9956657397
 30
0.0
 10
9.2927469541
 20
6.9895573052
 30
0.0
 10
9.2997647815
 20
6.9829423561
 30
0.0
 10
9.3063093538
 20
6.97585721
 30
0.0
 10
9.3123447488
 20
6.9683407536
 30
0.0
 10
9.3178378249
 20
6.9604342311
 30
0.0
 10
9.3227584019
 20
6.9521810229
 30
0.0
 10
9.3270794247
 20
6.943626408
 30
0.0
 10
9.3307771127
 20
6.934817336
 30
0.0
 10
9.3338311487
 20
6.9258021303
 30
0.0
 10
9.3362246
 20
6.9166303607
 30
0.0
 10
9.3379444137
 20
6.9073520958
 30
0.0
 10
9.3389807901
 20
6.8980190906
 30
0.0
 10
9.3392129659
 20
6.8917771311
 30
0.0
 10
9.3392129659
 20
6.8886653071
 30
0.0
  0
SPLINE
  5
325
100
AcDbEntity
  8
0
100
AcDbSpline
 62
7
  6
CONTINUOUS
 70
0
 71
3
 72
41
 73
37
 74
0
 42
0.0000001
 43
0.0000001
 44
0.0000000001
 40
0.0
 40
0.0
 40
0.0
 40
0.0
 40
0.0299421261
 40
0.0449237712
 40
0.0599145221
 40
0.0899291772
 40
0.1200146013
 40
0.1350933596
 40
0.1501974793
 40
0.1804849718
 40
0.2108989568
 40
0.2414525746
 40
0.27215574
 40
0.3030149616
 40
0.3340332486
 40
0.3652100987
 40
0.3965415618
 40
0.4280203745
 40
0.4596361601
 40
0.4913756848
 40
0.5232231637
 40
0.55516061
 40
0.587168221
 40
0.6192247883
 40
0.6513081285
 40
0.6833955259
 40
0.7154641834
 40
0.747491675
 40
0.7794563926
 40
0.8113379819
 40
0.8431177834
 40
0.8747791281
 40
0.9063080575
 40
0.9376925183
 40
0.9689255783
 40
1.0
 40
1.0
 40
1.0
 40
1.0
 10
10.8555194414
 20
6.8881961585
 30
0.0
 10
10.8581074285
 20
6.8906959731
 30
0.0
 10
10.8621419228
 20
6.8942942623
 30
0.0
 10
10.867792198
 20
6.8987589065
 30
0.0
 10
10.8736223781
 20
6.9030014232
 30
0.0
 10
10.8812298314
 20
6.907873193
 30
0.0
 10
10.8892071815
 20
6.9121345598
 30
0.0
 10
10.8957863883
 20
6.9151662031
 30
0.0
 10
10.9025015675
 20
6.9179474484
 30
0.0
 10
10.9111167886
 20
6.9209381995
 30
0.0
 10
10.9217337743
 20
6.9237254819
 30
0.0
 10
10.9325824274
 20
6.9257000925
 30
0.0
 10
10.943602634
 20
6.9268511107
 30
0.0
 10
10.9547338528
 20
6.9271724022
 30
0.0
 10
10.9659148358
 20
6.926662337
 30
0.0
 10
10.9770841295
 20
6.9253238651
 30
0.0
 10
10.9881803643
 20
6.9231644736
 30
0.0
 10
10.9991425992
 20
6.9201961461
 30
0.0
 10
11.0099106472
 20
6.9164352916
 30
0.0
 10
11.0204254021
 20
6.9119026527
 30
0.0
 10
11.0306291562
 20
6.9066231891
 30
0.0
 10
11.0404659205
 20
6.900625954
 30
0.0
 10
11.049881725
 20
6.8939439231
 30
0.0
 10
11.058824909
 20
6.8866138115
 30
0.0
 10
11.0672464006
 20
6.8786758744
 30
0.0
 10
11.0750999826
 20
6.8701736885
 30
0.0
 10
11.0823425424
 20
6.8611539154
 30
0.0
 10
11.0889343069
 20
6.8516660494
 30
0.0
 10
11.0948390555
 20
6.8417621486
 30
0.0
 10
11.1000243395
 20
6.8314965591
 30
0.0
 10
11.104461623
 20
6.8209256186
 30
0.0
 10
11.1081265126
 20
6.8101073147
 30
0.0
 10
11.1109987036
 20
6.7991011205
 30
0.0
 10
11.1130624869
 20
6.7879671482
 30
0.0
 10
11.1143061702
 20
6.7767674719
 30
0.0
 10
11.1145847749
 20
6.7692770818
 30
0.0
 10
11.1145847749
 20
6.765542854
 30
0.0
  0
SPLINE
  5
326
100
AcDbEntity
  8
0
100
AcDbSpline
 62
7
  6
CONTINUOUS
 70
0
 71
3
 72
39
 73
35
 74
0
 42
0.0000001
 43
0.0000001
 44
0.0000000001
 40
0.0
 40
0.0
 40
0.0
 40
0.0
 40
0.0299424725
 40
0.0599093195
 40
0.0899243237
 40
0.1200100993
 40
0.1501875534
 40
0.1804753997
 40
0.2108897381
 40
0.2414437083
 40
0.2721472261
 40
0.3030068024
 40
0.3340254485
 40
0.3652026624
 40
0.3965344927
 40
0.4280136743
 40
0.4596298287
 40
0.4913697214
 40
0.5232175685
 40
0.5551553859
 40
0.5871633717
 40
0.6192203171
 40
0.6513040363
 40
0.6833918115
 40
0.7154608445
 40
0.747488709
 40
0.7794537991
 40
0.8113357648
 40
0.8431159318
 40
0.87477769
 40
0.9063068705
 40
0.9376920244
 40
0.9689248101
 40
1.0
 40
1.0
 40
1.0
 40
1.0
 10
9.9150836447
 20
9.0700543362
 30
0.0
 10
9.9192310587
 20
9.0740604579
 30
0.0
 10
9.9278519636
 20
9.081749442
 30
0.0
 10
9.9416640503
 20
9.0922242964
 30
0.0
 10
9.9562862191
 20
9.1015881552
 30
0.0
 10
9.9716367803
 20
9.1097884757
 30
0.0
 10
9.9876313337
 20
9.1167804609
 30
0.0
 10
10.0041816077
 20
9.1225256746
 30
0.0
 10
10.0211963996
 20
9.1269926823
 30
0.0
 10
10.0385819694
 20
9.1301570958
 30
0.0
 10
10.0562425949
 20
9.1320017261
 30
0.0
 10
10.0740810924
 20
9.1325166562
 30
0.0
 10
10.0919993541
 20
9.1316992846
 30
0.0
 10
10.1098988839
 20
9.1295543278
 30
0.0
 10
10.1276813342
 20
9.1260937834
 30
0.0
 10
10.1452490396
 20
9.121336857
 30
0.0
 10
10.1625055465
 20
9.1153098493
 30
0.0
 10
10.1793561347
 20
9.1080460086
 30
0.0
 10
10.1957083307
 20
9.0995853448
 30
0.0
 10
10.2114724071
 20
9.0899744091
 30
0.0
 10
10.2265618694
 20
9.0792660389
 30
0.0
 10
10.240893924
 20
9.0675190688
 30
0.0
 10
10.254389927
 20
9.0547980101
 30
0.0
 10
10.2669758113
 20
9.0411726996
 30
0.0
 10
10.2785824887
 20
9.0267179198
 30
0.0
 10
10.2891462252
 20
9.0115129927
 30
0.0
 10
10.2986089877
 20
8.9956413499
 30
0.0
 10
10.3069187612
 20
8.9791900773
 30
0.0
 10
10.3140298303
 20
8.9622494541
 30
0.0
 10
10.3199030356
 20
8.9449124218
 30
0.0
 10
10.3245059766
 20
8.9272742379
 30
0.0
 10
10.3278132165
 20
8.9094313805
 30
0.0
 10
10.329806387
 20
8.8914831568
 30
0.0
 10
10.3302528248
 20
8.8794793564
 30
0.0
 10
10.3302528248
 20
8.873494933
 30
0.0
  0
SPLINE
  5
327
100
AcDbEntity
  8
0
100
AcDbSpline
 62
7
  6
CONTINUOUS
 70
0
 71
3
 72
53
 73
49
 74
0
 42
0.0000001
 43
0.0000001
 44
0.0000000001
 40
0.0
 40
0.0
 40
0.0
 40
0.0
 40
0.0323137869
 40
0.0646924219
 40
0.097103722
 40
0.1295165091
 40
0.1619014579
 40
0.1780779158
 40
0.1942374794
 40
0.2264888663
 40
0.2586403541
 40
0.2746756311
 40
0.2906793883
 40
0.3066499398
 40
0.3225856705
 40
0.3543422054
 40
0.3859456904
 40
0.4016908463
 40
0.4173958879
 40
0.4486795476
 40
0.4798025594
 40
0.5107685974
 40
0.5415845619
 40
0.5722606868
 40
0.6028106465
 40
0.6332516398
 40
0.6636044158
 40
0.6938931964
 40
0.7090257641
 40
0.7241529336
 40
0.7392785867
 40
0.754406747
 40
0.7695414795
 40
0.7846870416
 40
0.7998475781
 40
0.8150273774
 40
0.8302305655
 40
0.8454612186
 40
0.8607232853
 40
0.8760204316
 40
0.8913561726
 40
0.9067335889
 40
0.9221555263
 40
0.9376244409
 40
0.953141926
 40
0.9687096978
 40
0.9843299413
 40
1.0
 40
1.0
 40
1.0
 40
1.0
 10
9.5041232958
 20
8.3496986189
 30
0.0
 10
9.510321761
 20
8.3458669705
 30
0.0
 10
9.5224104093
 20
8.3376635429
 30
0.0
 10
9.5394664764
 20
8.3238927812
 30
0.0
 10
9.5553680784
 20
8.3087701705
 30
0.0
 10
9.5700210554
 20
8.2924355891
 30
0.0
 10
9.5811339477
 20
8.2779210505
 30
0.0
 10
9.5893300275
 20
8.2658406597
 30
0.0
 10
9.5970466557
 20
8.2534839136
 30
0.0
 10
9.6057947025
 20
8.2375404096
 30
0.0
 10
9.6133224589
 20
8.2210169914
 30
0.0
 10
9.6185875366
 20
8.2075297878
 30
0.0
 10
9.6221524678
 20
8.1973041417
 30
0.0
 10
9.625333805
 20
8.1869762373
 30
0.0
 10
9.6290561622
 20
8.1731076966
 30
0.0
 10
9.6327429551
 20
8.1555923833
 30
0.0
 10
9.6351330146
 20
8.1378969008
 30
0.0
 10
9.6362560248
 20
8.1237190978
 30
0.0
 10
9.6368522896
 20
8.1095816893
 30
0.0
 10
9.6366168631
 20
8.0919504583
 30
0.0
 10
9.6347589177
 20
8.0709563308
 30
0.0
 10
9.6313305578
 20
8.0502666781
 30
0.0
 10
9.626340607
 20
8.0300004734
 30
0.0
 10
9.6198027935
 20
8.010277363
 30
0.0
 10
9.6117365704
 20
7.9912193932
 30
0.0
 10
9.6021678623
 20
7.9729506679
 30
0.0
 10
9.5911315366
 20
7.9555987352
 30
0.0
 10
9.5807416684
 20
7.9420025015
 30
0.0
 10
9.5717508269
 20
7.9317210209
 30
0.0
 10
9.5646749885
 20
7.9243210423
 30
0.0
 10
9.5572743881
 20
7.9172474617
 30
0.0
 10
9.5495586538
 20
7.9105162442
 30
0.0
 10
9.541538685
 20
7.9041432462
 30
0.0
 10
9.5332261304
 20
7.8981442841
 30
0.0
 10
9.5246339164
 20
7.8925344944
 30
0.0
 10
9.5157758306
 20
7.8873288854
 30
0.0
 10
9.5066668754
 20
7.8825416877
 30
0.0
 10
9.4973231131
 20
7.8781864973
 30
0.0
 10
9.4877616235
 20
7.8742762937
 30
0.0
 10
9.4780006773
 20
7.8708227957
 30
0.0
 10
9.4680594342
 20
7.867837099
 30
0.0
 10
9.4579581195
 20
7.8653288067
 30
0.0
 10
9.4477177982
 20
7.8633063664
 30
0.0
 10
9.4373603743
 20
7.8617770646
 30
0.0
 10
9.4269085065
 20
7.8607462138
 30
0.0
 10
9.4163849869
 20
7.8602181018
 30
0.0
 10
9.4058141147
 20
7.8601952803
 30
0.0
 10
9.398761951
 20
7.8605167144
 30
0.0
 10
9.3952366322
 20
7.8607611961
 30
0.0
  0
SPLINE
  5
328
100
AcDbEntity
  8
0
100
AcDbSpline
 62
7
  6
CONTINUOUS
 70
0
 71
3
 72
53
 73
49
 74
0
 42
0.0000001
 43
0.0000001
 44
0.0000000001
 40
0.0
 40
0.0
 40
0.0
 40
0.0
 40
0.0323137869
 40
0.0646924219
 40
0.097103722
 40
0.1295165091
 40
0.1619014579
 40
0.1780779158
 40
0.1942374794
 40
0.2264888663
 40
0.2586403541
 40
0.2746756311
 40
0.2906793883
 40
0.3066499398
 40
0.3225856705
 40
0.3543422054
 40
0.3859456904
 40
0.4016908463
 40
0.4173958879
 40
0.4486795476
 40
0.4798025594
 40
0.5107685974
 40
0.5415845619
 40
0.5722606868
 40
0.6028106465
 40
0.6332516398
 40
0.6636044158
 40
0.6938931964
 40
0.7090257641
 40
0.7241529336
 40
0.7392785867
 40
0.754406747
 40
0.7695414795
 40
0.7846870416
 40
0.7998475781
 40
0.8150273774
 40
0.8302305655
 40
0.8454612186
 40
0.8607232853
 40
0.8760204316
 40
0.8913561726
 40
0.9067335889
 40
0.9221555263
 40
0.9376244409
 40
0.953141926
 40
0.9687096978
 40
0.9843299413
 40
1.0
 40
1.0
 40
1.0
 40
1.0
 10
10.8911927393
 20
8.2535050263
 30
0.0
 10
10.8973912045
 20
8.2496733779
 30
0.0
 10
10.9094798527
 20
8.2414699503
 30
0.0
 10
10.9265359198
 20
8.2276991886
 30
0.0
 10
10.9424375219
 20
8.2125765778
 30
0.0
 10
10.9570904988
 20
8.1962419965
 30
0.0
 10
10.9682033911
 20
8.1817274579
 30
0.0
 10
10.976399471
 20
8.1696470671
 30
0.0
 10
10.9841160992
 20
8.157290321
 30
0.0
 10
10.9928641459
 20
8.141346817
 30
0.0
 10
11.0003919024
 20
8.1248233988
 30
0.0
 10
11.0056569801
 20
8.1113361952
 30
0.0
 10
11.0092219112
 20
8.1011105491
 30
0.0
 10
11.0124032485
 20
8.0907826447
 30
0.0
 10
11.0161256056
 20
8.076914104
 30
0.0
 10
11.0198123985
 20
8.0593987906
 30
0.0
 10
11.0222024581
 20
8.0417033082
 30
0.0
 10
11.0233254683
 20
8.0275255052
 30
0.0
 10
11.023921733
 20
8.0133880967
 30
0.0
 10
11.0236863066
 20
7.9957568657
 30
0.0
 10
11.0218283612
 20
7.9747627382
 30
0.0
 10
11.0184000012
 20
7.9540730855
 30
0.0
 10
11.0134100505
 20
7.9338068807
 30
0.0
 10
11.0068722369
 20
7.9140837703
 30
0.0
 10
10.9988060139
 20
7.8950258006
 30
0.0
 10
10.9892373057
 20
7.8767570753
 30
0.0
 10
10.9782009801
 20
7.8594051426
 30
0.0
 10
10.9678111119
 20
7.8458089089
 30
0.0
 10
10.9588202704
 20
7.8355274283
 30
0.0
 10
10.9517444319
 20
7.8281274497
 30
0.0
 10
10.9443438316
 20
7.8210538691
 30
0.0
 10
10.9366280972
 20
7.8143226516
 30
0.0
 10
10.9286081284
 20
7.8079496536
 30
0.0
 10
10.9202955738
 20
7.8019506915
 30
0.0
 10
10.9117033599
 20
7.7963409017
 30
0.0
 10
10.9028452741
 20
7.7911352928
 30
0.0
 10
10.8937363189
 20
7.7863480951
 30
0.0
 10
10.8843925565
 20
7.7819929047
 30
0.0
 10
10.8748310669
 20
7.7780827011
 30
0.0
 10
10.8650701208
 20
7.7746292031
 30
0.0
 10
10.8551288777
 20
7.7716435064
 30
0.0
 10
10.845027563
 20
7.7691352141
 30
0.0
 10
10.8347872417
 20
7.7671127737
 30
0.0
 10
10.8244298178
 20
7.7655834719
 30
0.0
 10
10.8139779499
 20
7.7645526212
 30
0.0
 10
10.8034544303
 20
7.7640245092
 30
0.0
 10
10.7928835581
 20
7.7640016877
 30
0.0
 10
10.7858313944
 20
7.7643231218
 30
0.0
 10
10.7823060756
 20
7.7645676035
 30
0.0
  0
SPLINE
  5
329
100
AcDbEntity
  8
0
100
AcDbSpline
 62
7
  6
CONTINUOUS
 70
0
 71
3
 72
39
 73
35
 74
0
 42
0.0000001
 43
0.0000001
 44
0.0000000001
 40
0.0
 40
0.0
 40
0.0
 40
0.0
 40
0.0299424725
 40
0.0599093195
 40
0.0899243237
 40
0.1200100993
 40
0.1501875534
 40
0.1804753997
 40
0.2108897381
 40
0.2414437083
 40
0.2721472261
 40
0.3030068024
 40
0.3340254485
 40
0.3652026624
 40
0.3965344927
 40
0.4280136743
 40
0.4596298287
 40
0.4913697214
 40
0.5232175685
 40
0.5551553859
 40
0.5871633717
 40
0.6192203171
 40
0.6513040363
 40
0.6833918115
 40
0.7154608445
 40
0.747488709
 40
0.7794537991
 40
0.8113357648
 40
0.8431159318
 40
0.87477769
 40
0.9063068705
 40
0.9376920244
 40
0.9689248101
 40
1.0
 40
1.0
 40
1.0
 40
1.0
 10
9.9150836447
 20
7.4395713646
 30
0.0
 10
9.9192310587
 20
7.4435774864
 30
0.0
 10
9.9278519636
 20
7.4512664705
 30
0.0
 10
9.9416640503
 20
7.4617413249
 30
0.0
 10
9.9562862191
 20
7.4711051836
 30
0.0
 10
9.9716367803
 20
7.4793055041
 30
0.0
 10
9.9876313337
 20
7.4862974894
 30
0.0
 10
10.0041816077
 20
7.492042703
 30
0.0
 10
10.0211963996
 20
7.4965097108
 30
0.0
 10
10.0385819694
 20
7.4996741243
 30
0.0
 10
10.0562425949
 20
7.5015187546
 30
0.0
 10
10.0740810924
 20
7.5020336846
 30
0.0
 10
10.0919993541
 20
7.5012163131
 30
0.0
 10
10.1098988839
 20
7.4990713562
 30
0.0
 10
10.1276813342
 20
7.4956108119
 30
0.0
 10
10.1452490396
 20
7.4908538854
 30
0.0
 10
10.1625055465
 20
7.4848268778
 30
0.0
 10
10.1793561347
 20
7.4775630371
 30
0.0
 10
10.1957083307
 20
7.4691023732
 30
0.0
 10
10.2114724071
 20
7.4594914375
 30
0.0
 10
10.2265618694
 20
7.4487830673
 30
0.0
 10
10.240893924
 20
7.4370360973
 30
0.0
 10
10.254389927
 20
7.4243150386
 30
0.0
 10
10.2669758113
 20
7.4106897281
 30
0.0
 10
10.2785824887
 20
7.3962349482
 30
0.0
 10
10.2891462252
 20
7.3810300211
 30
0.0
 10
10.2986089877
 20
7.3651583784
 30
0.0
 10
10.3069187612
 20
7.3487071058
 30
0.0
 10
10.3140298303
 20
7.3317664825
 30
0.0
 10
10.3199030356
 20
7.3144294503
 30
0.0
 10
10.3245059766
 20
7.2967912663
 30
0.0
 10
10.3278132165
 20
7.2789484089
 30
0.0
 10
10.329806387
 20
7.2610001853
 30
0.0
 10
10.3302528248
 20
7.2489963848
 30
0.0
 10
10.3302528248
 20
7.2430119614
 30
0.0
  0
SPLINE
  5
32A
100
AcDbEntity
  8
0
100
AcDbSpline
 62
7
  6
CONTINUOUS
 70
0
 71
3
 72
26
 73
22
 74
0
 42
0.0000001
 43
0.0000001
 44
0.0000000001
 40
0.0
 40
0.0
 40
0.0
 40
0.0
 40
0.0628977082
 40
0.0943036027
 40
0.125680159
 40
0.1883439021
 40
0.2509079829
 40
0.3133861701
 40
0.3757938039
 40
0.438147586
 40
0.5004652459
 40
0.562765468
 40
0.6250674558
 40
0.6873906896
 40
0.7185702855
 40
0.7497624152
 40
0.8121859352
 40
0.8746872998
 40
0.905975864
 40
0.9372903456
 40
1.0
 40
1.0
 40
1.0
 40
1.0
 10
9.3976986408
 20
8.1584070056
 30
0.0
 10
9.4004650205
 20
8.1623466204
 30
0.0
 10
9.4047869014
 20
8.168133962
 30
0.0
 10
9.4108792901
 20
8.1755788472
 30
0.0
 10
9.4171784135
 20
8.1828262647
 30
0.0
 10
9.4254433577
 20
8.1915173356
 30
0.0
 10
9.435958643
 20
8.2013183603
 30
0.0
 10
9.4470353355
 20
8.2104499567
 30
0.0
 10
9.458638029
 20
8.2188759268
 30
0.0
 10
9.4707289804
 20
8.2265623153
 30
0.0
 10
9.4832677903
 20
8.2334773131
 30
0.0
 10
9.4962117076
 20
8.2395916977
 30
0.0
 10
9.5095151919
 20
8.2448789239
 30
0.0
 10
9.5208612742
 20
8.2485759629
 30
0.0
 10
9.530067012
 20
8.2510978195
 30
0.0
 10
9.5393557024
 20
8.2533277924
 30
0.0
 10
9.5511022608
 20
8.2555612369
 30
0.0
 10
9.5629744336
 20
8.2570435324
 30
0.0
 10
9.572522761
 20
8.2577755219
 30
0.0
 10
9.582105129
 20
8.2582044396
 30
0.0
 10
9.5893075974
 20
8.2581832129
 30
0.0
 10
9.5941042143
 20
8.2580173029
 30
0.0
  0
SPLINE
  5
32B
100
AcDbEntity
  8
0
100
AcDbSpline
 62
7
  6
CONTINUOUS
 70
0
 71
3
 72
26
 73
22
 74
0
 42
0.0000001
 43
0.0000001
 44
0.0000000001
 40
0.0
 40
0.0
 40
0.0
 40
0.0
 40
0.0628977082
 40
0.0943036027
 40
0.125680159
 40
0.1883439021
 40
0.2509079829
 40
0.3133861701
 40
0.3757938039
 40
0.4381475859
 40
0.5004652459
 40
0.5627654679
 40
0.6250674558
 40
0.6873906896
 40
0.7185702855
 40
0.7497624152
 40
0.8121859352
 40
0.8746872998
 40
0.905975864
 40
0.9372903456
 40
1.0
 40
1.0
 40
1.0
 40
1.0
 10
10.7847680844
 20
8.0622134133
 30
0.0
 10
10.7875344642
 20
8.0661530281
 30
0.0
 10
10.7918563451
 20
8.0719403697
 30
0.0
 10
10.7979487338
 20
8.0793852548
 30
0.0
 10
10.8042478572
 20
8.0866326724
 30
0.0
 10
10.8125128014
 20
8.0953237432
 30
0.0
 10
10.8230280867
 20
8.1051247679
 30
0.0
 10
10.8341047792
 20
8.1142563643
 30
0.0
 10
10.8457074727
 20
8.1226823343
 30
0.0
 10
10.8577984241
 20
8.1303687228
 30
0.0
 10
10.870337234
 20
8.1372837206
 30
0.0
 10
10.8832811513
 20
8.1433981052
 30
0.0
 10
10.8965846357
 20
8.1486853313
 30
0.0
 10
10.9079307179
 20
8.1523823703
 30
0.0
 10
10.9171364557
 20
8.154904227
 30
0.0
 10
10.9264251461
 20
8.1571341998
 30
0.0
 10
10.9381717045
 20
8.1593676443
 30
0.0
 10
10.9500438773
 20
8.1608499398
 30
0.0
 10
10.9595922047
 20
8.1615819293
 30
0.0
 10
10.9691745727
 20
8.162010847
 30
0.0
 10
10.9763770411
 20
8.1619896203
 30
0.0
 10
10.9811736579
 20
8.1618237102
 30
0.0
  0
SPLINE
  5
32C
100
AcDbEntity
  8
0
100
AcDbSpline
 62
7
  6
CONTINUOUS
 70
0
 71
3
 72
48
 73
44
 74
0
 42
0.0000001
 43
0.0000001
 44
0.0000000001
 40
0.0
 40
0.0
 40
0.0
 40
0.0
 40
0.0378126882
 40
0.0760192244
 40
0.1145316533
 40
0.1532646684
 40
0.192130348
 40
0.2310410943
 40
0.2699090056
 40
0.308646322
 40
0.3471656717
 40
0.3853802996
 40
0.4232043291
 40
0.4605530172
 40
0.4973430216
 40
0.5334926543
 40
0.5689221418
 40
0.6035538949
 40
0.6373127924
 40
0.6701264944
 40
0.7019257413
 40
0.7326446802
 40
0.7622212296
 40
0.7905974914
 40
0.8177202481
 40
0.8307966625
 40
0.8435421432
 40
0.8559516828
 40
0.8680205675
 40
0.8797446449
 40
0.8911201969
 40
0.9021440081
 40
0.9128135267
 40
0.9231267006
 40
0.9330823085
 40
0.9426798206
 40
0.9519195346
 40
0.9608027361
 40
0.969331691
 40
0.9775101852
 40
0.9853433287
 40
0.9928373926
 40
1.0
 40
1.0
 40
1.0
 40
1.0
 10
13.8550968186
 20
8.6832111803
 30
0.0
 10
13.8550968186
 20
8.6941497719
 30
0.0
 10
13.8552422153
 20
8.716141142
 30
0.0
 10
13.8558866088
 20
8.7492678528
 30
0.0
 10
13.8569571574
 20
8.7826499433
 30
0.0
 10
13.8584512034
 20
8.8162066005
 30
0.0
 10
13.8603652268
 20
8.8498573335
 30
0.0
 10
13.8626946008
 20
8.8835209807
 30
0.0
 10
13.8654337233
 20
8.9171165139
 30
0.0
 10
13.8685759862
 20
8.9505630278
 30
0.0
 10
13.8721138103
 20
8.9837799844
 30
0.0
 10
13.8760386616
 20
9.0166874013
 30
0.0
 10
13.8803410715
 20
9.0492060414
 30
0.0
 10
13.8850106539
 20
9.0812576103
 30
0.0
 10
13.8900361232
 20
9.1127649484
 30
0.0
 10
13.8954053351
 20
9.1436522162
 30
0.0
 10
13.9011053123
 20
9.1738450746
 30
0.0
 10
13.907122276
 20
9.2032708647
 30
0.0
 10
13.9134416796
 20
9.2318587918
 30
0.0
 10
13.920048227
 20
9.2595401049
 30
0.0
 10
13.9269259256
 20
9.2862482697
 30
0.0
 10
13.9340581239
 20
9.3119191092
 30
0.0
 10
13.9414275505
 20
9.3364910351
 30
0.0
 10
13.9490163653
 20
9.3599049639
 30
0.0
 10
13.9555853324
 20
9.3786260206
 30
0.0
 10
13.9609454867
 20
9.3929739083
 30
0.0
 10
13.9649600234
 20
9.4032797144
 30
0.0
 10
13.9690154651
 20
9.4132555681
 30
0.0
 10
13.9731094695
 20
9.422895473
 30
0.0
 10
13.977239514
 20
9.4321936564
 30
0.0
 10
13.98140312
 20
9.4411445459
 30
0.0
 10
13.9855978267
 20
9.4497427646
 30
0.0
 10
13.989821032
 20
9.4579831942
 30
0.0
 10
13.9940702936
 20
9.4658608812
 30
0.0
 10
13.998343003
 20
9.4733711552
 30
0.0
 10
14.0026366391
 20
9.4805095369
 30
0.0
 10
14.00694867
 20
9.487271755
 30
0.0
 10
14.0112764365
 20
9.4936538258
 30
0.0
 10
14.0156175067
 20
9.4996519453
 30
0.0
 10
14.0199693229
 20
9.505262669
 30
0.0
 10
14.0243294968
 20
9.5104827086
 30
0.0
 10
14.0286952192
 20
9.5153086851
 30
0.0
 10
14.0316738612
 20
9.5183285241
 30
0.0
 10
14.0331641747
 20
9.5197680564
 30
0.0
  0
SPLINE
  5
32D
100
AcDbEntity
  8
0
100
AcDbSpline
 62
7
  6
CONTINUOUS
 70
0
 71
3
 72
49
 73
45
 74
0
 42
0.0000001
 43
0.0000001
 44
0.0000000001
 40
0.0
 40
0.0
 40
0.0
 40
0.0
 40
0.0378126678
 40
0.0760191833
 40
0.1145315913
 40
0.1532645855
 40
0.1921302441
 40
0.2310409693
 40
0.2699088596
 40
0.3086461551
 40
0.347165484
 40
0.3853800912
 40
0.4232041003
 40
0.4605527681
 40
0.4973427527
 40
0.5334923658
 40
0.5689218342
 40
0.6035535685
 40
0.6373124477
 40
0.670126132
 40
0.7019253617
 40
0.732644284
 40
0.7622208174
 40
0.7905970638
 40
0.8043185081
 40
0.8177203466
 40
0.830796754
 40
0.8435422278
 40
0.8559517607
 40
0.8680206388
 40
0.8797447099
 40
0.8911202558
 40
0.9021440611
 40
0.9128135739
 40
0.9231267422
 40
0.9330823447
 40
0.9426798516
 40
0.9519195606
 40
0.9608027573
 40
0.9693317075
 40
0.9775101973
 40
0.9853433366
 40
0.9928373965
 40
1.0
 40
1.0
 40
1.0
 40
1.0
 10
13.7791626463
 20
8.6718643978
 30
0.0
 10
13.7791626463
 20
8.6837887346
 30
0.0
 10
13.7793211456
 20
8.7077618851
 30
0.0
 10
13.7800236094
 20
8.7438738518
 30
0.0
 10
13.7811906319
 20
8.7802642122
 30
0.0
 10
13.7828193158
 20
8.8168448704
 30
0.0
 10
13.7849058239
 20
8.8535280822
 30
0.0
 10
13.7874451123
 20
8.890225372
 30
0.0
 10
13.7904310744
 20
8.9268484097
 30
0.0
 10
13.7938565063
 20
8.963308999
 30
0.0
 10
13.797713146
 20
8.9995193441
 30
0.0
 10
13.8019916903
 20
9.035392255
 30
0.0
 10
13.8066818173
 20
9.070841354
 30
0.0
 10
13.8117722051
 20
9.1057812909
 30
0.0
 10
13.817250551
 20
9.1401279531
 30
0.0
 10
13.8231036163
 20
9.1737986666
 30
0.0
 10
13.8293172542
 20
9.206712393
 30
0.0
 10
13.8358764443
 20
9.238789926
 30
0.0
 10
13.842765329
 20
9.26995409
 30
0.0
 10
13.8499672339
 20
9.3001299426
 30
0.0
 10
13.8574647255
 20
9.3292449387
 30
0.0
 10
13.8652396493
 20
9.3572291711
 30
0.0
 10
13.8732731869
 20
9.3840153134
 30
0.0
 10
13.8802427271
 20
9.4055189693
 30
0.0
 10
13.8859419708
 20
9.4220673863
 30
0.0
 10
13.8902210587
 20
9.4340008377
 30
0.0
 10
13.8945500151
 20
9.4455883067
 30
0.0
 10
13.8989263111
 20
9.4568228277
 30
0.0
 10
13.9033472182
 20
9.4676976697
 30
0.0
 10
13.9078101579
 20
9.4782062866
 30
0.0
 10
13.912312387
 20
9.4883423877
 30
0.0
 10
13.9168512015
 20
9.4980998981
 30
0.0
 10
13.9214239197
 20
9.5074729563
 30
0.0
 10
13.9260277045
 20
9.5164559828
 30
0.0
 10
13.9306598938
 20
9.5250435776
 30
0.0
 10
13.9353176438
 20
9.5332306495
 30
0.0
 10
13.9399982064
 20
9.5410123156
 30
0.0
 10
13.9446988215
 20
9.5483839197
 30
0.0
 10
13.9494165902
 20
9.5553411189
 30
0.0
 10
13.9541488615
 20
9.5618797666
 30
0.0
 10
13.9588928472
 20
9.5679961078
 30
0.0
 10
13.9636459438
 20
9.573686558
 30
0.0
 10
13.9684050888
 20
9.5789474335
 30
0.0
 10
13.9716521549
 20
9.5822394092
 30
0.0
 10
13.9732767699
 20
9.5838086668
 30
0.0
  0
SPLINE
  5
32E
100
AcDbEntity
  8
0
100
AcDbSpline
 62
7
  6
CONTINUOUS
 70
0
 71
3
 72
29
 73
25
 74
0
 42
0.0000001
 43
0.0000001
 44
0.0000000001
 40
0.0
 40
0.0
 40
0.0
 40
0.0
 40
0.0755836755
 40
0.1466143562
 40
0.2134286572
 40
0.2764666867
 40
0.3362686904
 40
0.3651658039
 40
0.3935045519
 40
0.4213816903
 40
0.4488992609
 40
0.4761636692
 40
0.503284649
 40
0.5303738152
 40
0.5575431712
 40
0.5849037119
 40
0.6125638739
 40
0.6406282505
 40
0.6691966684
 40
0.7281925824
 40
0.7902529585
 40
0.8559465767
 40
0.925738346
 40
1.0
 40
1.0
 40
1.0
 40
1.0
 10
14.5083555493
 20
9.9787677048
 30
0.0
 10
14.5102677034
 20
9.980614704
 30
0.0
 10
14.5140894779
 20
9.9840839353
 30
0.0
 10
14.5200040074
 20
9.9887185937
 30
0.0
 10
14.525911757
 20
9.9926110806
 30
0.0
 10
14.5318066127
 20
9.9957553719
 30
0.0
 10
14.5367614551
 20
9.9977703398
 30
0.0
 10
14.540696843
 20
9.9989852894
 30
0.0
 10
14.5436067276
 20
9.9996967448
 30
0.0
 10
14.5465072935
 20
10.0002183861
 30
0.0
 10
14.5493977378
 20
10.0005500203
 30
0.0
 10
14.5522771336
 20
10.0006914016
 30
0.0
 10
14.5551445455
 20
10.0006424278
 30
0.0
 10
14.557999028
 20
10.0004031542
 30
0.0
 10
14.5608396427
 20
9.9999736573
 30
0.0
 10
14.563665453
 20
9.999354037
 30
0.0
 10
14.5664755431
 20
9.9985446205
 30
0.0
 10
14.569269136
 20
9.9975457211
 30
0.0
 10
14.5730102098
 20
9.9959449549
 30
0.0
 10
14.5776564516
 20
9.9934472138
 30
0.0
 10
14.5830860008
 20
9.9897312856
 30
0.0
 10
14.5884260769
 20
9.9852707853
 30
0.0
 10
14.5936717491
 20
9.9800726005
 30
0.0
 10
14.5969963765
 20
9.9762425581
 30
0.0
 10
14.5986444727
 20
9.9742161231
 30
0.0
  0
SPLINE
  5
32F
100
AcDbEntity
  8
0
100
AcDbSpline
 62
7
  6
CONTINUOUS
 70
0
 71
3
 72
18
 73
14
 74
0
 42
0.0000001
 43
0.0000001
 44
0.0000000001
 40
0.0
 40
0.0
 40
0.0
 40
0.0
 40
0.1504645181
 40
0.2917101655
 40
0.4244370866
 40
0.5495623595
 40
0.6682137793
 40
0.7255498063
 40
0.7817912969
 40
0.8371402695
 40
0.8918094031
 40
0.9460200802
 40
1.0
 40
1.0
 40
1.0
 40
1.0
 10
14.4484681445
 20
10.0428083152
 30
0.0
 10
14.4505884331
 20
10.0448563569
 30
0.0
 10
14.4548261166
 20
10.0486990589
 30
0.0
 10
14.4613880684
 20
10.0538202188
 30
0.0
 10
14.4679424039
 20
10.0581032476
 30
0.0
 10
14.4744821781
 20
10.0615411572
 30
0.0
 10
14.4799787815
 20
10.0637211332
 30
0.0
 10
14.4843428376
 20
10.0650164106
 30
0.0
 10
14.4875694201
 20
10.0657629037
 30
0.0
 10
14.4907852755
 20
10.0662949901
 30
0.0
 10
14.4939895258
 20
10.0666124425
 30
0.0
 10
14.4971808999
 20
10.0667149939
 30
0.0
 10
14.4993011531
 20
10.066639977
 30
0.0
 10
14.5003561923
 20
10.0665668091
 30
0.0
  0
SPLINE
  5
330
100
AcDbEntity
  8
0
100
AcDbSpline
 62
7
  6
CONTINUOUS
 70
0
 71
3
 72
49
 73
45
 74
0
 42
0.0000001
 43
0.0000001
 44
0.0000000001
 40
0.0
 40
0.0
 40
0.0
 40
0.0
 40
0.0071626035
 40
0.0146566634
 40
0.0224898027
 40
0.0306682925
 40
0.0391972427
 40
0.0480804394
 40
0.0573201484
 40
0.0669176553
 40
0.0768732578
 40
0.0871864261
 40
0.0978559389
 40
0.1088797442
 40
0.1202552901
 40
0.1319793612
 40
0.1440482393
 40
0.1564577722
 40
0.169203246
 40
0.1822796534
 40
0.1956814919
 40
0.2094029362
 40
0.2377791826
 40
0.267355716
 40
0.2980746383
 40
0.329873868
 40
0.3626875523
 40
0.3964464315
 40
0.4310781658
 40
0.4665076342
 40
0.5026572473
 40
0.5394472319
 40
0.5767958997
 40
0.6146199088
 40
0.652834516
 40
0.6913538449
 40
0.7300911404
 40
0.7689590307
 40
0.8078697559
 40
0.8467354145
 40
0.8854684087
 40
0.9239808167
 40
0.9621873322
 40
1.0
 40
1.0
 40
1.0
 40
1.0
 10
6.2458700923
 20
10.1197061401
 30
0.0
 10
6.2442454773
 20
10.1181368824
 30
0.0
 10
6.2409984112
 20
10.1148449068
 30
0.0
 10
6.2362392662
 20
10.1095840313
 30
0.0
 10
6.2314861696
 20
10.1038935811
 30
0.0
 10
6.2267421839
 20
10.0977772399
 30
0.0
 10
6.2220099126
 20
10.0912385921
 30
0.0
 10
6.2172921439
 20
10.0842813929
 30
0.0
 10
6.2125915288
 20
10.0769097889
 30
0.0
 10
6.2079109662
 20
10.0691281227
 30
0.0
 10
6.2032532162
 20
10.0609410508
 30
0.0
 10
6.1986210269
 20
10.052353456
 30
0.0
 10
6.1940172421
 20
10.0433704295
 30
0.0
 10
6.1894445239
 20
10.0339973713
 30
0.0
 10
6.1849057094
 20
10.0242398609
 30
0.0
 10
6.1804034803
 20
10.0141037598
 30
0.0
 10
6.1759405406
 20
10.0035951429
 30
0.0
 10
6.1715196335
 20
9.9927203009
 30
0.0
 10
6.1671433375
 20
9.98148578
 30
0.0
 10
6.1628143811
 20
9.9698983109
 30
0.0
 10
6.1585352932
 20
9.9579648595
 30
0.0
 10
6.1528360495
 20
9.9414164426
 30
0.0
 10
6.1458665093
 20
9.9199127867
 30
0.0
 10
6.1378329717
 20
9.8931266444
 30
0.0
 10
6.1300580479
 20
9.8651424119
 30
0.0
 10
6.1225605563
 20
9.8360274158
 30
0.0
 10
6.1153586514
 20
9.8058515632
 30
0.0
 10
6.1084697667
 20
9.7746873992
 30
0.0
 10
6.1019105766
 20
9.7426098662
 30
0.0
 10
6.0956969387
 20
9.7096961398
 30
0.0
 10
6.0898438734
 20
9.6760254263
 30
0.0
 10
6.0843655275
 20
9.6416787642
 30
0.0
 10
6.0792751397
 20
9.6067388272
 30
0.0
 10
6.0745850127
 20
9.5712897283
 30
0.0
 10
6.0703064684
 20
9.5354168173
 30
0.0
 10
6.0664498287
 20
9.4992064722
 30
0.0
 10
6.0630243968
 20
9.462745883
 30
0.0
 10
6.0600384347
 20
9.4261228453
 30
0.0
 10
6.0574991463
 20
9.3894255555
 30
0.0
 10
6.0554126382
 20
9.3527423436
 30
0.0
 10
6.0537839543
 20
9.3161616854
 30
0.0
 10
6.0526169318
 20
9.2797713251
 30
0.0
 10
6.051914468
 20
9.2436593584
 30
0.0
 10
6.0517559687
 20
9.2196862078
 30
0.0
 10
6.0517559687
 20
9.2077618711
 30
0.0
  0
SPLINE
  5
331
100
AcDbEntity
  8
0
100
AcDbSpline
 62
7
  6
CONTINUOUS
 70
0
 71
3
 72
9
 73
5
 74
0
 42
0.0000001
 43
0.0000001
 44
0.0000000001
 40
0.0
 40
0.0
 40
0.0
 40
0.0
 40
0.5314333017
 40
1.0
 40
1.0
 40
1.0
 40
1.0
 10
10.0460714041
 20
9.0989967431
 30
0.0
 10
10.0451466038
 20
9.1045048402
 30
0.0
 10
10.0436236772
 20
9.1149075609
 30
0.0
 10
10.0425658621
 20
9.1253678157
 30
0.0
 10
10.0421870388
 20
9.1302777092
 30
0.0
  0
SPLINE
  5
332
100
AcDbEntity
  8
0
100
AcDbSpline
 62
7
  6
CONTINUOUS
 70
0
 71
3
 72
23
 73
19
 74
0
 42
0.0000001
 43
0.0000001
 44
0.0000000001
 40
0.0
 40
0.0
 40
0.0
 40
0.0
 40
0.0567741892
 40
0.1153065346
 40
0.1756296062
 40
0.2377450123
 40
0.3015908111
 40
0.3670238298
 40
0.433791172
 40
0.501506362
 40
0.5696359647
 40
0.6375105174
 40
0.704369607
 40
0.7694366041
 40
0.8320058873
 40
0.8915154915
 40
0.9475818003
 40
1.0
 40
1.0
 40
1.0
 40
1.0
 10
10.1306660966
 20
8.8938994522
 30
0.0
 10
10.128237708
 20
8.8973636611
 30
0.0
 10
10.1234097088
 20
8.9044728108
 30
0.0
 10
10.1163661955
 20
8.915504862
 30
0.0
 10
10.1094265193
 20
8.927069386
 30
0.0
 10
10.1026107246
 20
8.9391639405
 30
0.0
 10
10.0959465857
 20
8.9517750836
 30
0.0
 10
10.0894709728
 20
8.9648719584
 30
0.0
 10
10.0832302189
 20
8.9784006133
 30
0.0
 10
10.0772793965
 20
8.9922782416
 30
0.0
 10
10.0716796314
 20
9.0063900532
 30
0.0
 10
10.06649308
 20
9.0205910451
 30
0.0
 10
10.061776055
 20
9.0347144256
 30
0.0
 10
10.0575716422
 20
9.0485861828
 30
0.0
 10
10.0539041135
 20
9.0620425447
 30
0.0
 10
10.0507768846
 20
9.0749454429
 30
0.0
 10
10.0481740146
 20
9.0871917188
 30
0.0
 10
10.0467181606
 20
9.0951446701
 30
0.0
 10
10.0460714041
 20
9.0989967431
 30
0.0
  0
SPLINE
  5
333
100
AcDbEntity
  8
0
100
AcDbSpline
 62
7
  6
CONTINUOUS
 70
0
 71
3
 72
21
 73
17
 74
0
 42
0.0000001
 43
0.0000001
 44
0.0000000001
 40
0.0
 40
0.0
 40
0.0
 40
0.0
 40
0.1273176253
 40
0.2537997538
 40
0.3167617031
 40
0.3795356349
 40
0.4421315552
 40
0.5045621127
 40
0.5668413504
 40
0.6289845238
 40
0.6910084429
 40
0.7529310808
 40
0.8147714271
 40
0.8765493234
 40
0.9382852026
 40
1.0
 40
1.0
 40
1.0
 40
1.0
 10
9.963200989
 20
8.083708636
 30
0.0
 10
9.963200989
 20
8.0877124261
 30
0.0
 10
9.9635831713
 20
8.0956988868
 30
0.0
 10
9.9650266104
 20
8.1055718721
 30
0.0
 10
9.9667518181
 20
8.1133163756
 30
0.0
 10
9.9683251216
 20
8.1190287257
 30
0.0
 10
9.9701759833
 20
8.1246395806
 30
0.0
 10
9.9723002297
 20
8.1301361201
 30
0.0
 10
9.9746928356
 20
8.1355056959
 30
0.0
 10
9.9773484735
 20
8.1407358517
 30
0.0
 10
9.9802608375
 20
8.1458146114
 30
0.0
 10
9.9834234037
 20
8.1507301593
 30
0.0
 10
9.9868287137
 20
8.1554712452
 30
0.0
 10
9.9904690814
 20
8.1600268812
 30
0.0
 10
9.9943358831
 20
8.164386481
 30
0.0
 10
9.9970593183
 20
8.1671559573
 30
0.0
 10
9.9984552273
 20
8.1685042866
 30
0.0
  0
SPLINE
  5
334
100
AcDbEntity
  8
0
100
AcDbSpline
 62
7
  6
CONTINUOUS
 70
0
 71
3
 72
23
 73
19
 74
0
 42
0.0000001
 43
0.0000001
 44
0.0000000001
 40
0.0
 40
0.0
 40
0.0
 40
0.0
 40
0.0637751697
 40
0.127345371
 40
0.1907022537
 40
0.2538558573
 40
0.3168132315
 40
0.3795821093
 40
0.4421733555
 40
0.5045993354
 40
0.5668738704
 40
0.6290123786
 40
0.6910316578
 40
0.7529496568
 40
0.8147853611
 40
0.8765586146
 40
0.9382898649
 40
1.0
 40
1.0
 40
1.0
 40
1.0
 10
9.847289883
 20
7.2765055552
 30
0.0
 10
9.847289883
 20
7.2803625956
 30
0.0
 10
9.8474745515
 20
7.2880655855
 30
0.0
 10
9.8483077491
 20
7.2995731915
 30
0.0
 10
9.8496951514
 20
7.310989658
 30
0.0
 10
9.8516334403
 20
7.3222879672
 30
0.0
 10
9.8541180859
 20
7.3334424591
 30
0.0
 10
9.8571435251
 20
7.3444273387
 30
0.0
 10
9.8607027872
 20
7.3552172456
 30
0.0
 10
9.8647875934
 20
7.3657873532
 30
0.0
 10
9.8693886635
 20
7.3761132424
 30
0.0
 10
9.8744953675
 20
7.386171104
 30
0.0
 10
9.8800958852
 20
7.3959377736
 30
0.0
 10
9.8861774336
 20
7.4053906604
 30
0.0
 10
9.8927258995
 20
7.4145079805
 30
0.0
 10
9.8997262501
 20
7.4232687911
 30
0.0
 10
9.9071621654
 20
7.4316525222
 30
0.0
 10
9.9123992877
 20
7.4369784571
 30
0.0
 10
9.9150836447
 20
7.4395713646
 30
0.0
  0
SPLINE
  5
335
100
AcDbEntity
  8
0
100
AcDbSpline
 62
7
  6
CONTINUOUS
 70
0
 71
3
 72
15
 73
11
 74
0
 42
0.0000001
 43
0.0000001
 44
0.0000000001
 40
0.0
 40
0.0
 40
0.0
 40
0.0
 40
0.1273482228
 40
0.253860527
 40
0.3795879206
 40
0.5046050801
 40
0.6290174363
 40
0.7529533709
 40
0.8765605784
 40
1.0
 40
1.0
 40
1.0
 40
1.0
 10
10.8132158992
 20
6.7864428565
 30
0.0
 10
10.8132158992
 20
6.7912473172
 30
0.0
 10
10.8136746241
 20
6.8008313442
 30
0.0
 10
10.8157491735
 20
6.8150230588
 30
0.0
 10
10.819189128
 20
6.8288581916
 30
0.0
 10
10.8239634237
 20
6.8422073524
 30
0.0
 10
10.830028226
 20
6.8549474441
 30
0.0
 10
10.837328273
 20
6.8669608254
 30
0.0
 10
10.8457949254
 20
6.8781349296
 30
0.0
 10
10.8521698845
 20
6.8849607207
 30
0.0
 10
10.8555194414
 20
6.8881961585
 30
0.0
  0
SPLINE
  5
336
100
AcDbEntity
  8
0
100
AcDbSpline
 62
7
  6
CONTINUOUS
 70
0
 71
3
 72
14
 73
10
 74
0
 42
0.0000001
 43
0.0000001
 44
0.0000000001
 40
0.0
 40
0.0
 40
0.0
 40
0.0
 40
0.1245140961
 40
0.2489699525
 40
0.4980483225
 40
0.6228964655
 40
0.7480937185
 40
0.8737619398
 40
1.0
 40
1.0
 40
1.0
 40
1.0
 10
10.3231294844
 20
8.8158827514
 30
0.0
 10
10.3201005161
 20
8.8147784464
 30
0.0
 10
10.3140156048
 20
8.8126471048
 30
0.0
 10
10.3017379642
 20
8.8086993316
 30
0.0
 10
10.2892978119
 20
8.8052398466
 30
0.0
 10
10.2767094694
 20
8.8023089432
 30
0.0
 10
10.2671717475
 20
8.8003852017
 30
0.0
 10
10.2575436121
 20
8.7987516986
 30
0.0
 10
10.2510792543
 20
8.7978716879
 30
0.0
 10
10.2478333883
 20
8.7974865773
 30
0.0
  0
SPLINE
  5
337
100
AcDbEntity
  8
0
100
AcDbSpline
 62
7
  6
CONTINUOUS
 70
0
 71
3
 72
23
 73
19
 74
0
 42
0.0000001
 43
0.0000001
 44
0.0000000001
 40
0.0
 40
0.0
 40
0.0
 40
0.0
 40
0.0637757517
 40
0.1273453038
 40
0.1907021142
 40
0.2538559682
 40
0.3168132565
 40
0.3795821027
 40
0.442173382
 40
0.5045993411
 40
0.5668738656
 40
0.6290123776
 40
0.6910316412
 40
0.7529496359
 40
0.8147853464
 40
0.8765585919
 40
0.9382898467
 40
1.0
 40
1.0
 40
1.0
 40
1.0
 10
8.2631713364
 20
6.9941987385
 30
0.0
 10
8.2631713364
 20
6.998765587
 30
0.0
 10
8.2633899728
 20
7.0078860646
 30
0.0
 10
8.2643765371
 20
7.0215112694
 30
0.0
 10
8.2660192712
 20
7.0350285381
 30
0.0
 10
8.2683142442
 20
7.0484059512
 30
0.0
 10
8.2712561994
 20
7.0616130652
 30
0.0
 10
8.2748384081
 20
7.0746193485
 30
0.0
 10
8.2790526889
 20
7.0873947808
 30
0.0
 10
8.2838892962
 20
7.0999099357
 30
0.0
 10
8.2893370868
 20
7.112135958
 30
0.0
 10
8.295383607
 20
7.1240446068
 30
0.0
 10
8.3020148695
 20
7.135608437
 30
0.0
 10
8.3092155813
 20
7.1468007969
 30
0.0
 10
8.3169692059
 20
7.157595788
 30
0.0
 10
8.3252579104
 20
7.167968618
 30
0.0
 10
8.334062212
 20
7.1778950771
 30
0.0
 10
8.3402631995
 20
7.1842009483
 30
0.0
 10
8.3434415484
 20
7.1872709789
 30
0.0
  0
SPLINE
  5
338
100
AcDbEntity
  8
0
100
AcDbSpline
 62
7
  6
CONTINUOUS
 70
0
 71
3
 72
14
 73
10
 74
0
 42
0.0000001
 43
0.0000001
 44
0.0000000001
 40
0.0
 40
0.0
 40
0.0
 40
0.0
 40
0.1211948593
 40
0.2427635924
 40
0.3650765439
 40
0.4884966129
 40
0.6133759569
 40
0.740053633
 40
1.0
 40
1.0
 40
1.0
 40
1.0
 10
14.4400662707
 20
9.2054285425
 30
0.0
 10
14.4410945347
 20
9.2053572347
 30
0.0
 10
14.443150614
 20
9.205155116
 30
0.0
 10
14.4462197098
 20
9.2046745441
 30
0.0
 10
14.4492751454
 20
9.2040164627
 30
0.0
 10
14.4523160473
 20
9.2031811225
 30
0.0
 10
14.4553419188
 20
9.2021687066
 30
0.0
 10
14.4593892569
 20
9.2005698683
 30
0.0
 10
14.462350035
 20
9.1991229379
 30
0.0
 10
14.4642884163
 20
9.1980598124
 30
0.0
  0
SPLINE
  5
339
100
AcDbEntity
  8
0
100
AcDbSpline
 62
7
  6
CONTINUOUS
 70
0
 71
3
 72
15
 73
11
 74
0
 42
0.0000001
 43
0.0000001
 44
0.0000000001
 40
0.0
 40
0.0
 40
0.0
 40
0.0
 40
0.126971304
 40
0.2533124933
 40
0.3790289776
 40
0.5041655229
 40
0.6287654938
 40
0.7528894769
 40
0.8766077127
 40
1.0
 40
1.0
 40
1.0
 40
1.0
 10
9.9952945236
 20
8.1147086118
 30
0.0
 10
9.9952945236
 20
8.1177616283
 30
0.0
 10
9.9955169004
 20
8.1238549344
 30
0.0
 10
9.9965215552
 20
8.1329211533
 30
0.0
 10
9.9981915157
 20
8.1418444525
 30
0.0
 10
10.0005176308
 20
8.1505762776
 30
0.0
 10
10.0034877532
 20
8.1590701219
 30
0.0
 10
10.0070861012
 20
8.1672805199
 30
0.0
 10
10.011293101
 20
8.1751628915
 30
0.0
 10
10.0144930153
 20
8.1801778204
 30
0.0
 10
10.016185371
 20
8.1826147817
 30
0.0
  0
SPLINE
  5
33A
100
AcDbEntity
  8
0
100
AcDbSpline
 62
7
  6
CONTINUOUS
 70
0
 71
3
 72
39
 73
35
 74
0
 42
0.0000001
 43
0.0000001
 44
0.0000000001
 40
0.0
 40
0.0
 40
0.0
 40
0.0
 40
0.0309603327
 40
0.0620684281
 40
0.0933151759
 40
0.1246972126
 40
0.1562045023
 40
0.1878259345
 40
0.2195483455
 40
0.2513567115
 40
0.2832345922
 40
0.3151643247
 40
0.3471273784
 40
0.3791046697
 40
0.4110768659
 40
0.4430247083
 40
0.4749293603
 40
0.5067727276
 40
0.5385377518
 40
0.5702087051
 40
0.6017714964
 40
0.6332139314
 40
0.6645259303
 40
0.6956997247
 40
0.7267300534
 40
0.7576142921
 40
0.788352523
 40
0.8189475615
 40
0.8494049627
 40
0.8797329584
 40
0.9099423169
 40
0.9400461496
 40
0.9700596862
 40
1.0
 40
1.0
 40
1.0
 40
1.0
 10
9.9952945236
 20
8.1147086118
 30
0.0
 10
9.9952945236
 20
8.1118396369
 30
0.0
 10
9.9954918477
 20
8.1060861163
 30
0.0
 10
9.9963731455
 20
8.0974777248
 30
0.0
 10
9.9978366215
 20
8.0889090103
 30
0.0
 10
9.9998750287
 20
8.0804207487
 30
0.0
 10
10.0024790356
 20
8.0720522679
 30
0.0
 10
10.0056363287
 20
8.0638427429
 30
0.0
 10
10.009332099
 20
8.055830462
 30
0.0
 10
10.0135490674
 20
8.0480528284
 30
0.0
 10
10.0182675423
 20
8.040546164
 30
0.0
 10
10.0234654629
 20
8.0333455049
 30
0.0
 10
10.0291185178
 20
8.026484441
 30
0.0
 10
10.0352003086
 20
8.0199949966
 30
0.0
 10
10.0416824641
 20
8.0139074911
 30
0.0
 10
10.0485347278
 20
8.0082503617
 30
0.0
 10
10.0557250881
 20
8.00305
 30
0.0
 10
10.0632199863
 20
7.9983306994
 30
0.0
 10
10.070984455
 20
7.9941145401
 30
0.0
 10
10.0789822636
 20
7.9904212702
 30
0.0
 10
10.0871760584
 20
7.987268138
 30
0.0
 10
10.0955275875
 20
7.9846699096
 30
0.0
 10
10.1039978613
 20
7.9826387905
 30
0.0
 10
10.1125473259
 20
7.9811843748
 30
0.0
 10
10.12113603
 20
7.9803134879
 30
0.0
 10
10.1297238383
 20
7.9800302585
 30
0.0
 10
10.1382706063
 20
7.9803360958
 30
0.0
 10
10.1467363574
 20
7.9812296967
 30
0.0
 10
10.1550814765
 20
7.9827069309
 30
0.0
 10
10.1632669166
 20
7.984760945
 30
0.0
 10
10.1712543122
 20
7.9873821805
 30
0.0
 10
10.1790063612
 20
7.9905585551
 30
0.0
 10
10.1864862324
 20
7.9942749358
 30
0.0
 10
10.1912740878
 20
7.9971045577
 30
0.0
 10
10.1936094694
 20
7.9986024182
 30
0.0
  0
SPLINE
  5
33B
100
AcDbEntity
  8
0
100
AcDbSpline
 62
7
  6
CONTINUOUS
 70
0
 71
3
 72
51
 73
47
 74
0
 42
0.0000001
 43
0.0000001
 44
0.0000000001
 40
0.0
 40
0.0
 40
0.0
 40
0.0
 40
0.0063158563
 40
0.0126706275
 40
0.0191024426
 40
0.0256479667
 40
0.0323418396
 40
0.039216169
 40
0.0536139777
 40
0.0611946825
 40
0.0690564228
 40
0.077217543
 40
0.085693909
 40
0.0944992921
 40
0.103645413
 40
0.1131421541
 40
0.1229979076
 40
0.1332195316
 40
0.1438125903
 40
0.1547816094
 40
0.1661299566
 40
0.1778601045
 40
0.1899737833
 40
0.2024718248
 40
0.2153544436
 40
0.2286212918
 40
0.2422713076
 40
0.2707135166
 40
0.3006643912
 40
0.3320995589
 40
0.3649887452
 40
0.3992964972
 40
0.4349828494
 40
0.4720036907
 40
0.51031109
 40
0.5498537661
 40
0.5905773424
 40
0.6324244885
 40
0.6753352842
 40
0.7192474223
 40
0.7640962813
 40
0.8098154002
 40
0.8563361693
 40
0.9035880242
 40
0.951501774
 40
1.0
 40
1.0
 40
1.0
 40
1.0
 10
12.4126121148
 20
6.5254250566
 30
0.0
 10
12.4113444765
 20
6.5255129731
 30
0.0
 10
12.4088073786
 20
6.5257930991
 30
0.0
 10
12.4050301768
 20
6.5265233153
 30
0.0
 10
12.4012782159
 20
6.5275634221
 30
0.0
 10
12.3975536916
 20
6.5289126363
 30
0.0
 10
12.3938580929
 20
6.5305702315
 30
0.0
 10
12.3888958628
 20
6.5332302626
 30
0.0
 10
12.3840684181
 20
6.5364865829
 30
0.0
 10
12.3793966585
 20
6.5402601022
 30
0.0
 10
12.3758679097
 20
6.543441635
 30
0.0
 10
12.3723768597
 20
6.5469238383
 30
0.0
 10
12.3689243368
 20
6.5507054315
 30
0.0
 10
12.3655118002
 20
6.5547848259
 30
0.0
 10
12.3621404974
 20
6.5591603534
 30
0.0
 10
12.3588116792
 20
6.5638301937
 30
0.0
 10
12.3555267058
 20
6.5687925011
 30
0.0
 10
12.3522868357
 20
6.5740452392
 30
0.0
 10
12.3490933226
 20
6.5795862644
 30
0.0
 10
12.3459475128
 20
6.5854133636
 30
0.0
 10
12.3428506244
 20
6.5915241413
 30
0.0
 10
12.3398038995
 20
6.5979161067
 30
0.0
 10
12.336808639
 20
6.6045866783
 30
0.0
 10
12.3338660061
 20
6.6115331075
 30
0.0
 10
12.3309772181
 20
6.6187525544
 30
0.0
 10
12.3281434837
 20
6.6262420904
 30
0.0
 10
12.3243885605
 20
6.6367282239
 30
0.0
 10
12.3198524902
 20
6.6504973531
 30
0.0
 10
12.3147186673
 20
6.6678278123
 30
0.0
 10
12.3098308925
 20
6.686156649
 30
0.0
 10
12.3051972606
 20
6.7054537345
 30
0.0
 10
12.300825456
 20
6.725687513
 30
0.0
 10
12.2967227742
 20
6.7468247806
 30
0.0
 10
12.292896063
 20
6.7688308185
 30
0.0
 10
12.28935167
 20
6.7916694257
 30
0.0
 10
12.2860955077
 20
6.8153030151
 30
0.0
 10
12.2831330277
 20
6.8396926707
 30
0.0
 10
12.2804691426
 20
6.8647982045
 30
0.0
 10
12.2781082875
 20
6.8905782363
 30
0.0
 10
12.2760544221
 20
6.9169902621
 30
0.0
 10
12.2743109556
 20
6.9439907498
 30
0.0
 10
12.2728807924
 20
6.9715351526
 30
0.0
 10
12.2717663324
 20
6.9995779418
 30
0.0
 10
12.270969411
 20
7.0280732413
 30
0.0
 10
12.2704914319
 20
7.056973512
 30
0.0
 10
12.2703864613
 20
7.0763707567
 30
0.0
 10
12.2703864613
 20
7.0861280855
 30
0.0
  0
SPLINE
  5
33C
100
AcDbEntity
  8
0
100
AcDbSpline
 62
7
  6
CONTINUOUS
 70
0
 71
3
 72
52
 73
48
 74
0
 42
0.0000001
 43
0.0000001
 44
0.0000000001
 40
0.0
 40
0.0
 40
0.0
 40
0.0
 40
0.0063158553
 40
0.0126706174
 40
0.01910243
 40
0.0256479406
 40
0.0323417857
 40
0.0392161126
 40
0.053613856
 40
0.0611945619
 40
0.0690562627
 40
0.0772173394
 40
0.0856937117
 40
0.0944990433
 40
0.1036451224
 40
0.1131418745
 40
0.1229975663
 40
0.1332191544
 40
0.1438122273
 40
0.1547811769
 40
0.1661294967
 40
0.1778596595
 40
0.1899732643
 40
0.2024712882
 40
0.21535392
 40
0.2286206932
 40
0.2422707016
 40
0.2563024051
 40
0.2707137575
 40
0.3006646369
 40
0.3320997476
 40
0.3649888706
 40
0.3992966303
 40
0.4349829523
 40
0.4720037374
 40
0.5103111432
 40
0.5498538098
 40
0.5905773434
 40
0.6324244938
 40
0.6753352948
 40
0.7192474009
 40
0.764096263
 40
0.8098154275
 40
0.8563361116
 40
0.903587964
 40
0.9515019894
 40
1.0
 40
1.0
 40
1.0
 40
1.0
 10
13.9213887221
 20
6.4207910516
 30
0.0
 10
13.9201210817
 20
6.4208789636
 30
0.0
 10
13.9175839809
 20
6.4211590701
 30
0.0
 10
13.9138067598
 20
6.4218892109
 30
0.0
 10
13.9100547996
 20
6.4229293294
 30
0.0
 10
13.9063302675
 20
6.4242785081
 30
0.0
 10
13.9026346404
 20
6.4259360385
 30
0.0
 10
13.8976724345
 20
6.428596092
 30
0.0
 10
13.8928449277
 20
6.4318523111
 30
0.0
 10
13.8881731969
 20
6.4356258508
 30
0.0
 10
13.8846444231
 20
6.4388073402
 30
0.0
 10
13.8811533455
 20
6.4422895072
 30
0.0
 10
13.8777008514
 20
6.4460711135
 30
0.0
 10
13.8742882802
 20
6.4501504661
 30
0.0
 10
13.8709169562
 20
6.4545259689
 30
0.0
 10
13.8675881679
 20
6.4591958186
 30
0.0
 10
13.8643031531
 20
6.4641580884
 30
0.0
 10
13.8610632691
 20
6.469410811
 30
0.0
 10
13.8578697841
 20
6.4749518426
 30
0.0
 10
13.8547239285
 20
6.4807789099
 30
0.0
 10
13.8516270335
 20
6.4868896789
 30
0.0
 10
13.848580333
 20
6.4932816488
 30
0.0
 10
13.8455850247
 20
6.4999521949
 30
0.0
 10
13.8426423928
 20
6.5068986202
 30
0.0
 10
13.8397536199
 20
6.5141180723
 30
0.0
 10
13.8369198533
 20
6.5216075823
 30
0.0
 10
13.8341423223
 20
6.5293640993
 30
0.0
 10
13.8314221234
 20
6.5373844412
 30
0.0
 10
13.8278269243
 20
6.548569519
 30
0.0
 10
13.8234950211
 20
6.5631934091
 30
0.0
 10
13.8186072092
 20
6.5815221189
 30
0.0
 10
13.813973549
 20
6.600819243
 30
0.0
 10
13.809601752
 20
6.6210530294
 30
0.0
 10
13.8054990549
 20
6.6421903159
 30
0.0
 10
13.8016723122
 20
6.6641963677
 30
0.0
 10
13.7981279237
 20
6.6870350015
 30
0.0
 10
13.7948717547
 20
6.7106686192
 30
0.0
 10
13.7919092472
 20
6.7350583016
 30
0.0
 10
13.7892453634
 20
6.7601638697
 30
0.0
 10
13.7868845063
 20
6.7859439385
 30
0.0
 10
13.784830621
 20
6.8123560006
 30
0.0
 10
13.7830871532
 20
6.8393565353
 30
0.0
 10
13.7816569924
 20
6.8669009752
 30
0.0
 10
13.7805425188
 20
6.8949438006
 30
0.0
 10
13.7797455961
 20
6.9234391838
 30
0.0
 10
13.7792676215
 20
6.9523395126
 30
0.0
 10
13.7791626463
 20
6.9717368005
 30
0.0
 10
13.7791626463
 20
6.9814941017
 30
0.0
  0
SPLINE
  5
33D
100
AcDbEntity
  8
0
100
AcDbSpline
 62
7
  6
CONTINUOUS
 70
0
 71
3
 72
59
 73
55
 74
0
 42
0.0000001
 43
0.0000001
 44
0.0000000001
 40
0.0
 40
0.0
 40
0.0
 40
0.0
 40
0.0095821467
 40
0.0187369712
 40
0.0274867415
 40
0.0358591934
 40
0.0438870998
 40
0.0516083199
 40
0.0590660033
 40
0.0663085998
 40
0.0733896609
 40
0.0803668098
 40
0.087300521
 40
0.09425249
 40
0.101283904
 40
0.1084537049
 40
0.1158172299
 40
0.1234251353
 40
0.131322794
 40
0.1395502227
 40
0.1481419754
 40
0.1571277033
 40
0.1665323992
 40
0.1763769094
 40
0.1866785429
 40
0.1974512268
 40
0.2087062439
 40
0.2204523196
 40
0.2326960261
 40
0.2454421585
 40
0.2586936669
 40
0.2724522139
 40
0.2867180262
 40
0.3014901792
 40
0.3167667858
 40
0.3325448312
 40
0.3488206197
 40
0.3655895205
 40
0.3828462148
 40
0.4005847778
 40
0.418798505
 40
0.437480288
 40
0.4762156161
 40
0.5167237306
 40
0.55892943
 40
0.6027509884
 40
0.6481008402
 40
0.6948861679
 40
0.7430093738
 40
0.7923685352
 40
0.8428580748
 40
0.89436795
 40
0.9467879518
 40
1.0
 40
1.0
 40
1.0
 40
1.0
 10
14.0314816583
 20
6.4986882378
 30
0.0
 10
14.0300664338
 20
6.4973711619
 30
0.0
 10
14.0272371709
 20
6.4948610502
 30
0.0
 10
14.0228962546
 20
6.491405382
 30
0.0
 10
14.0185597879
 20
6.4883496716
 30
0.0
 10
14.0142303029
 20
6.4856960545
 30
0.0
 10
14.0099099113
 20
6.4834463975
 30
0.0
 10
14.0056008517
 20
6.4816025361
 30
0.0
 10
14.00130558
 20
6.4801661261
 30
0.0
 10
13.9970266892
 20
6.4791390255
 30
0.0
 10
13.9927671729
 20
6.4785224793
 30
0.0
 10
13.9885302367
 20
6.4783176226
 30
0.0
 10
13.9843193742
 20
6.4785249835
 30
0.0
 10
13.9801381336
 20
6.4791443278
 30
0.0
 10
13.9759900205
 20
6.4801750989
 30
0.0
 10
13.9718781932
 20
6.4816157989
 30
0.0
 10
13.967805537
 20
6.4834648579
 30
0.0
 10
13.9637745666
 20
6.4857203162
 30
0.0
 10
13.9597874618
 20
6.4883800502
 30
0.0
 10
13.9558463789
 20
6.4914420645
 30
0.0
 10
13.9519531649
 20
6.4949040353
 30
0.0
 10
13.9481098306
 20
6.498763786
 30
0.0
 10
13.9443182814
 20
6.5030188891
 30
0.0
 10
13.9405804214
 20
6.5076667741
 30
0.0
 10
13.9368983262
 20
6.512704779
 30
0.0
 10
13.9332738669
 20
6.5181298994
 30
0.0
 10
13.9297091431
 20
6.5239390459
 30
0.0
 10
13.9262061186
 20
6.5301288228
 30
0.0
 10
13.9227667638
 20
6.5366956252
 30
0.0
 10
13.9193931455
 20
6.5436356558
 30
0.0
 10
13.9160871185
 20
6.5509448199
 30
0.0
 10
13.9128507104
 20
6.5586188639
 30
0.0
 10
13.9096857783
 20
6.5666532623
 30
0.0
 10
13.906594179
 20
6.5750432852
 30
0.0
 10
13.9035778087
 20
6.5837839974
 30
0.0
 10
13.9006383668
 20
6.5928702186
 30
0.0
 10
13.8977776856
 20
6.6022965908
 30
0.0
 10
13.8949974189
 20
6.6120575241
 30
0.0
 10
13.8922992207
 20
6.6221472381
 30
0.0
 10
13.8896847548
 20
6.6325597519
 30
0.0
 10
13.8871554816
 20
6.6432888945
 30
0.0
 10
13.8838590976
 20
6.6581881209
 30
0.0
 10
13.8799744257
 20
6.6775619778
 30
0.0
 10
13.8757299136
 20
6.7016969512
 30
0.0
 10
13.8718583745
 20
6.7269331228
 30
0.0
 10
13.8683691217
 20
6.7532105191
 30
0.0
 10
13.8652705791
 20
6.7804668282
 30
0.0
 10
13.8625702243
 20
6.8086373218
 30
0.0
 10
13.8602745817
 20
6.8376550792
 30
0.0
 10
13.8583891893
 20
6.8674511728
 30
0.0
 10
13.8569186265
 20
6.8979546369
 30
0.0
 10
13.8558663818
 20
6.9290932543
 30
0.0
 10
13.8552351124
 20
6.9607925397
 30
0.0
 10
13.8550968186
 20
6.9821049305
 30
0.0
 10
13.8550968186
 20
6.9928408842
 30
0.0
  0
SPLINE
  5
33E
100
AcDbEntity
  8
0
100
AcDbSpline
 62
7
  6
CONTINUOUS
 70
0
 71
3
 72
11
 73
7
 74
0
 42
0.0000001
 43
0.0000001
 44
0.0000000001
 40
0.0
 40
0.0
 40
0.0
 40
0.0
 40
0.2522450887
 40
0.5029322618
 40
0.7521421404
 40
1.0
 40
1.0
 40
1.0
 40
1.0
 10
10.8960379234
 20
6.8664427934
 30
0.0
 10
10.8960379234
 20
6.8709618829
 30
0.0
 10
10.896443769
 20
6.8799776068
 30
0.0
 10
10.8982790356
 20
6.8933455862
 30
0.0
 10
10.9013237053
 20
6.9064105168
 30
0.0
 10
10.9041518808
 20
6.9148710625
 30
0.0
 10
10.9057576379
 20
6.9190110502
 30
0.0
  0
SPLINE
  5
33F
100
AcDbEntity
  8
0
100
AcDbSpline
 62
7
  6
CONTINUOUS
 70
0
 71
3
 72
39
 73
35
 74
0
 42
0.0000001
 43
0.0000001
 44
0.0000000001
 40
0.0
 40
0.0
 40
0.0
 40
0.0
 40
0.0308169995
 40
0.0617674182
 40
0.0928422046
 40
0.1240400473
 40
0.1553536841
 40
0.1867746668
 40
0.2182934461
 40
0.2498988089
 40
0.2815783903
 40
0.3133188287
 40
0.3451058958
 40
0.3769247156
 40
0.4087600001
 40
0.4405962318
 40
0.4724178615
 40
0.5042095579
 40
0.535956404
 40
0.5676440749
 40
0.5992590737
 40
0.6307889251
 40
0.6622223214
 40
0.6935493131
 40
0.7247614864
 40
0.7558520629
 40
0.7868160146
 40
0.8176502008
 40
0.8483534108
 40
0.8789263823
 40
0.9093718573
 40
0.9396945618
 40
0.9699011219
 40
1.0
 40
1.0
 40
1.0
 40
1.0
 10
10.8960379234
 20
6.8664427934
 30
0.0
 10
10.8960379234
 20
6.8633496856
 30
0.0
 10
10.8962290058
 20
6.8571484392
 30
0.0
 10
10.8970830751
 20
6.8478636143
 30
0.0
 10
10.8985023221
 20
6.8386092661
 30
0.0
 10
10.9004810696
 20
6.8294210875
 30
0.0
 10
10.9030119363
 20
6.8203333751
 30
0.0
 10
10.9060852745
 20
6.8113805009
 30
0.0
 10
10.9096894609
 20
6.8025962262
 30
0.0
 10
10.9138109336
 20
6.794013697
 30
0.0
 10
10.9184340408
 20
6.7856652475
 30
0.0
 10
10.9235413303
 20
6.777582353
 30
0.0
 10
10.9291135921
 20
6.7697955381
 30
0.0
 10
10.9351297465
 20
6.762334135
 30
0.0
 10
10.9415670732
 20
6.7552262556
 30
0.0
 10
10.9484013405
 20
6.7484987497
 30
0.0
 10
10.955606773
 20
6.7421770003
 30
0.0
 10
10.9631561533
 20
6.7362848032
 30
0.0
 10
10.9710210357
 20
6.7308444106
 30
0.0
 10
10.9791717984
 20
6.7258764144
 30
0.0
 10
10.9875776633
 20
6.7213995061
 30
0.0
 10
10.9962069344
 20
6.7174305848
 30
0.0
 10
11.0050271029
 20
6.7139847256
 30
0.0
 10
11.0140048855
 20
6.7110749292
 30
0.0
 10
11.0231064075
 20
6.7087121638
 30
0.0
 10
11.03229735
 20
6.7069054391
 30
0.0
 10
11.0415430342
 20
6.7056616543
 30
0.0
 10
11.0508085556
 20
6.7049854753
 30
0.0
 10
11.0600589423
 20
6.7048795196
 30
0.0
 10
11.0692592703
 20
6.7053443278
 30
0.0
 10
11.0783747528
 20
6.706378116
 30
0.0
 10
11.0873710838
 20
6.7079770551
 30
0.0
 10
11.0962137806
 20
6.7101350652
 30
0.0
 10
11.101995024
 20
6.7119444848
 30
0.0
 10
11.1048475603
 20
6.7129393004
 30
0.0
  0
SPLINE
  5
340
100
AcDbEntity
  8
0
100
AcDbSpline
 62
7
  6
CONTINUOUS
 70
0
 71
3
 72
39
 73
35
 74
0
 42
0.0000001
 43
0.0000001
 44
0.0000000001
 40
0.0
 40
0.0
 40
0.0
 40
0.0
 40
0.0299424689
 40
0.059909316
 40
0.0899243238
 40
0.120010106
 40
0.150187569
 40
0.1804754262
 40
0.2108897768
 40
0.2414437599
 40
0.2721472906
 40
0.3030068794
 40
0.3340255372
 40
0.3652027613
 40
0.3965346002
 40
0.4280137884
 40
0.4596299473
 40
0.4913698423
 40
0.5232176895
 40
0.5551555049
 40
0.5871634868
 40
0.6192204263
 40
0.6513041383
 40
0.683391905
 40
0.7154609283
 40
0.7474887827
 40
0.7794538622
 40
0.8113358179
 40
0.8431159726
 40
0.8747777271
 40
0.9063068788
 40
0.9376920781
 40
0.9689247389
 40
1.0
 40
1.0
 40
1.0
 40
1.0
 10
8.7547292474
 20
9.1762847918
 30
0.0
 10
8.7498187032
 20
9.1715415992
 30
0.0
 10
8.7396114426
 20
9.1624380625
 30
0.0
 10
8.7232578781
 20
9.1500360772
 30
0.0
 10
8.7059451773
 20
9.1389495309
 30
0.0
 10
8.687770089
 20
9.1292406022
 30
0.0
 10
8.6688325342
 20
9.1209623371
 30
0.0
 10
8.6492370276
 20
9.1141602402
 30
0.0
 10
8.6290915516
 20
9.1088715293
 30
0.0
 10
8.6085070932
 20
9.1051250781
 30
0.0
 10
8.5875969864
 20
9.1029412369
 30
0.0
 10
8.566476295
 20
9.1023317461
 30
0.0
 10
8.5452611772
 20
9.1032996844
 30
0.0
 10
8.5240682505
 20
9.1058394667
 30
0.0
 10
8.5030139568
 20
9.1099368866
 30
0.0
 10
8.4822139299
 20
9.1155692046
 30
0.0
 10
8.4617823691
 20
9.1227052797
 30
0.0
 10
8.4418314207
 20
9.131305746
 30
0.0
 10
8.4224705716
 20
9.1413232318
 30
0.0
 10
8.4038060569
 20
9.1527026205
 30
0.0
 10
8.3859402842
 20
9.1653813532
 30
0.0
 10
8.3689712792
 20
9.1792897703
 30
0.0
 10
8.3529921544
 20
9.1943514913
 30
0.0
 10
8.3380906034
 20
9.2104838305
 30
0.0
 10
8.3243484252
 20
9.2275982464
 30
0.0
 10
8.3118410795
 20
9.2456008231
 30
0.0
 10
8.3006372754
 20
9.264392779
 30
0.0
 10
8.2907985995
 20
9.283871006
 30
0.0
 10
8.2823791727
 20
9.3039286154
 30
0.0
 10
8.2754253718
 20
9.3244555637
 30
0.0
 10
8.26997553
 20
9.3453390782
 30
0.0
 10
8.2660598168
 20
9.3664649001
 30
0.0
 10
8.263699905
 20
9.3877154896
 30
0.0
 10
8.2631713364
 20
9.4019279084
 30
0.0
 10
8.2631713364
 20
9.4090134473
 30
0.0
  0
SPLINE
  5
341
100
AcDbEntity
  8
0
100
AcDbSpline
 62
7
  6
CONTINUOUS
 70
0
 71
3
 72
39
 73
35
 74
0
 42
0.0000001
 43
0.0000001
 44
0.0000000001
 40
0.0
 40
0.0
 40
0.0
 40
0.0
 40
0.0299424689
 40
0.059909316
 40
0.0899243238
 40
0.120010106
 40
0.150187569
 40
0.1804754262
 40
0.2108897768
 40
0.2414437599
 40
0.2721472906
 40
0.3030068794
 40
0.3340255372
 40
0.3652027613
 40
0.3965346002
 40
0.4280137884
 40
0.4596299473
 40
0.4913698423
 40
0.5232176895
 40
0.5551555049
 40
0.5871634868
 40
0.6192204263
 40
0.6513041383
 40
0.683391905
 40
0.7154609283
 40
0.7474887827
 40
0.7794538622
 40
0.8113358179
 40
0.8431159726
 40
0.8747777271
 40
0.9063068788
 40
0.9376920781
 40
0.9689247389
 40
1.0
 40
1.0
 40
1.0
 40
1.0
 10
11.8341009291
 20
8.9627296404
 30
0.0
 10
11.8291903849
 20
8.9579864477
 30
0.0
 10
11.8189831243
 20
8.948882911
 30
0.0
 10
11.8026295597
 20
8.9364809258
 30
0.0
 10
11.785316859
 20
8.9253943795
 30
0.0
 10
11.7671417706
 20
8.9156854508
 30
0.0
 10
11.7482042158
 20
8.9074071856
 30
0.0
 10
11.7286087093
 20
8.9006050888
 30
0.0
 10
11.7084632333
 20
8.8953163778
 30
0.0
 10
11.6878787749
 20
8.8915699266
 30
0.0
 10
11.666968668
 20
8.8893860855
 30
0.0
 10
11.6458479767
 20
8.8887765947
 30
0.0
 10
11.6246328588
 20
8.8897445329
 30
0.0
 10
11.6034399322
 20
8.8922843152
 30
0.0
 10
11.5823856385
 20
8.8963817352
 30
0.0
 10
11.5615856116
 20
8.9020140531
 30
0.0
 10
11.5411540507
 20
8.9091501282
 30
0.0
 10
11.5212031023
 20
8.9177505945
 30
0.0
 10
11.5018422533
 20
8.9277680803
 30
0.0
 10
11.4831777386
 20
8.939147469
 30
0.0
 10
11.4653119658
 20
8.9518262017
 30
0.0
 10
11.4483429609
 20
8.9657346188
 30
0.0
 10
11.432363836
 20
8.9807963398
 30
0.0
 10
11.4174622851
 20
8.996928679
 30
0.0
 10
11.4037201068
 20
9.0140430949
 30
0.0
 10
11.3912127611
 20
9.0320456717
 30
0.0
 10
11.380008957
 20
9.0508376276
 30
0.0
 10
11.3701702812
 20
9.0703158546
 30
0.0
 10
11.3617508544
 20
9.090373464
 30
0.0
 10
11.3547970534
 20
9.1109004123
 30
0.0
 10
11.3493472117
 20
9.1317839268
 30
0.0
 10
11.3454314985
 20
9.1529097486
 30
0.0
 10
11.3430715867
 20
9.1741603382
 30
0.0
 10
11.3425430181
 20
9.1883727569
 30
0.0
 10
11.3425430181
 20
9.1954582958
 30
0.0
  0
SPLINE
  5
342
100
AcDbEntity
  8
0
100
AcDbSpline
 62
7
  6
CONTINUOUS
 70
0
 71
3
 72
23
 73
19
 74
0
 42
0.0000001
 43
0.0000001
 44
0.0000000001
 40
0.0
 40
0.0
 40
0.0
 40
0.0
 40
0.063375126
 40
0.1266731693
 40
0.1898744095
 40
0.2529726957
 40
0.3159569201
 40
0.3788187971
 40
0.4415515871
 40
0.5041498419
 40
0.5666098299
 40
0.6289294796
 40
0.6911084361
 40
0.7531480661
 40
0.8150514412
 40
0.87682334
 40
0.938470194
 40
1.0
 40
1.0
 40
1.0
 40
1.0
 10
9.3584185133
 20
8.0708125606
 30
0.0
 10
9.3570361842
 20
8.0664284561
 30
0.0
 10
9.3545065981
 20
8.0575899965
 30
0.0
 10
9.3514293294
 20
8.0441593442
 30
0.0
 10
9.349080458
 20
8.0306022871
 30
0.0
 10
9.3474671437
 20
8.0169611633
 30
0.0
 10
9.3465944457
 20
8.0032773175
 30
0.0
 10
9.3464650026
 20
7.9895927648
 30
0.0
 10
9.3470792085
 20
7.97594937
 30
0.0
 10
9.3484352471
 20
7.9623888961
 30
0.0
 10
9.3505290252
 20
7.9489528724
 30
0.0
 10
9.3533541162
 20
7.9356824333
 30
0.0
 10
9.3569018894
 20
7.922618216
 30
0.0
 10
9.3611615409
 20
7.9098002297
 30
0.0
 10
9.3661200629
 20
7.8972677872
 30
0.0
 10
9.3717623362
 20
7.8850591401
 30
0.0
 10
9.3780707827
 20
7.8732121624
 30
0.0
 10
9.3827126413
 20
7.8655714589
 30
0.0
 10
9.3851373913
 20
7.8618245753
 30
0.0
  0
SPLINE
  5
343
100
AcDbEntity
  8
0
100
AcDbSpline
 62
7
  6
CONTINUOUS
 70
0
 71
3
 72
10
 73
6
 74
0
 42
0.0000001
 43
0.0000001
 44
0.0000000001
 40
0.0
 40
0.0
 40
0.0
 40
0.0
 40
0.2512057074
 40
0.5016339881
 40
1.0
 40
1.0
 40
1.0
 40
1.0
 10
9.3538604566
 20
8.0483234103
 30
0.0
 10
9.354182312
 20
8.0502179936
 30
0.0
 10
9.3548504962
 20
8.0539970682
 30
0.0
 10
9.356299635
 20
8.0615087522
 30
0.0
 10
9.3575290202
 20
8.0671052683
 30
0.0
 10
9.3584185133
 20
8.0708125606
 30
0.0
  0
SPLINE
  5
344
100
AcDbEntity
  8
0
100
AcDbSpline
 62
7
  6
CONTINUOUS
 70
0
 71
3
 72
23
 73
19
 74
0
 42
0.0000001
 43
0.0000001
 44
0.0000000001
 40
0.0
 40
0.0
 40
0.0
 40
0.0
 40
0.0637757517
 40
0.1273453038
 40
0.1907021142
 40
0.2538559682
 40
0.3168132565
 40
0.3795821027
 40
0.442173382
 40
0.5045993411
 40
0.5668738656
 40
0.6290123776
 40
0.6910316412
 40
0.7529496359
 40
0.8147853464
 40
0.8765585919
 40
0.9382898467
 40
1.0
 40
1.0
 40
1.0
 40
1.0
 10
8.2631713364
 20
9.4090134473
 30
0.0
 10
8.2631713364
 20
9.4135802958
 30
0.0
 10
8.2633899728
 20
9.4227007734
 30
0.0
 10
8.2643765371
 20
9.4363259782
 30
0.0
 10
8.2660192712
 20
9.4498432469
 30
0.0
 10
8.2683142442
 20
9.46322066
 30
0.0
 10
8.2712561994
 20
9.476427774
 30
0.0
 10
8.2748384081
 20
9.4894340573
 30
0.0
 10
8.2790526889
 20
9.5022094896
 30
0.0
 10
8.2838892962
 20
9.5147246445
 30
0.0
 10
8.2893370868
 20
9.5269506668
 30
0.0
 10
8.295383607
 20
9.5388593156
 30
0.0
 10
8.3020148695
 20
9.5504231458
 30
0.0
 10
8.3092155813
 20
9.5616155058
 30
0.0
 10
8.3169692059
 20
9.5724104968
 30
0.0
 10
8.3252579104
 20
9.5827833269
 30
0.0
 10
8.334062212
 20
9.5927097859
 30
0.0
 10
8.3402631995
 20
9.5990156571
 30
0.0
 10
8.3434415484
 20
9.6020856877
 30
0.0
  0
SPLINE
  5
345
100
AcDbEntity
  8
0
100
AcDbSpline
 62
7
  6
CONTINUOUS
 70
0
 71
3
 72
21
 73
17
 74
0
 42
0.0000001
 43
0.0000001
 44
0.0000000001
 40
0.0
 40
0.0
 40
0.0
 40
0.0
 40
0.1249835438
 40
0.2501139497
 40
0.3127302984
 40
0.3753550553
 40
0.4379787603
 40
0.5005916068
 40
0.56318385
 40
0.6257459897
 40
0.6882687989
 40
0.750743422
 40
0.8131614269
 40
0.8755149334
 40
0.9377966672
 40
1.0
 40
1.0
 40
1.0
 40
1.0
 10
9.3538604566
 20
8.0483234103
 30
0.0
 10
9.3524878969
 20
8.0402439166
 30
0.0
 10
9.3505161181
 20
8.0239335874
 30
0.0
 10
9.3500100624
 20
8.0034014662
 30
0.0
 10
9.3507801256
 20
7.9869972146
 30
0.0
 10
9.3519442914
 20
7.9747290499
 30
0.0
 10
9.3536921687
 20
7.9625308299
 30
0.0
 10
9.3560193912
 20
7.9504318742
 30
0.0
 10
9.3589203499
 20
7.9384616855
 30
0.0
 10
9.3623880546
 20
7.9266493668
 30
0.0
 10
9.3664139737
 20
7.9150236142
 30
0.0
 10
9.3709883778
 20
7.9036126999
 30
0.0
 10
9.3761001829
 20
7.8924444174
 30
0.0
 10
9.3817369281
 20
7.8815457965
 30
0.0
 10
9.3878847573
 20
7.8709436753
 30
0.0
 10
9.3923175604
 20
7.8640851619
 30
0.0
 10
9.3946138532
 20
7.8607142668
 30
0.0
  0
SPLINE
  5
346
100
AcDbEntity
  8
0
100
AcDbSpline
 62
7
  6
CONTINUOUS
 70
0
 71
3
 72
39
 73
35
 74
0
 42
0.0000001
 43
0.0000001
 44
0.0000000001
 40
0.0
 40
0.0
 40
0.0
 40
0.0
 40
0.0299424689
 40
0.059909316
 40
0.0899243238
 40
0.120010106
 40
0.150187569
 40
0.1804754262
 40
0.2108897768
 40
0.2414437599
 40
0.2721472906
 40
0.3030068794
 40
0.3340255372
 40
0.3652027613
 40
0.3965346002
 40
0.4280137884
 40
0.4596299473
 40
0.4913698423
 40
0.5232176895
 40
0.5551555049
 40
0.5871634868
 40
0.6192204263
 40
0.6513041383
 40
0.683391905
 40
0.7154609283
 40
0.7474887827
 40
0.7794538622
 40
0.8113358179
 40
0.8431159726
 40
0.8747777271
 40
0.9063068788
 40
0.9376920781
 40
0.9689247389
 40
1.0
 40
1.0
 40
1.0
 40
1.0
 10
11.8341009291
 20
6.5479149316
 30
0.0
 10
11.8291903849
 20
6.5431717389
 30
0.0
 10
11.8189831243
 20
6.5340682022
 30
0.0
 10
11.8026295597
 20
6.521666217
 30
0.0
 10
11.785316859
 20
6.5105796707
 30
0.0
 10
11.7671417706
 20
6.500870742
 30
0.0
 10
11.7482042158
 20
6.4925924768
 30
0.0
 10
11.7286087093
 20
6.48579038
 30
0.0
 10
11.7084632333
 20
6.480501669
 30
0.0
 10
11.6878787749
 20
6.4767552178
 30
0.0
 10
11.666968668
 20
6.4745713766
 30
0.0
 10
11.6458479767
 20
6.4739618859
 30
0.0
 10
11.6246328588
 20
6.4749298241
 30
0.0
 10
11.6034399322
 20
6.4774696064
 30
0.0
 10
11.5823856385
 20
6.4815670264
 30
0.0
 10
11.5615856116
 20
6.4871993443
 30
0.0
 10
11.5411540507
 20
6.4943354194
 30
0.0
 10
11.5212031023
 20
6.5029358857
 30
0.0
 10
11.5018422533
 20
6.5129533715
 30
0.0
 10
11.4831777386
 20
6.5243327602
 30
0.0
 10
11.4653119658
 20
6.5370114929
 30
0.0
 10
11.4483429609
 20
6.55091991
 30
0.0
 10
11.432363836
 20
6.565981631
 30
0.0
 10
11.4174622851
 20
6.5821139702
 30
0.0
 10
11.4037201068
 20
6.5992283861
 30
0.0
 10
11.3912127611
 20
6.6172309629
 30
0.0
 10
11.380008957
 20
6.6360229187
 30
0.0
 10
11.3701702812
 20
6.6555011458
 30
0.0
 10
11.3617508544
 20
6.6755587552
 30
0.0
 10
11.3547970534
 20
6.6960857035
 30
0.0
 10
11.3493472117
 20
6.716969218
 30
0.0
 10
11.3454314985
 20
6.7380950398
 30
0.0
 10
11.3430715867
 20
6.7593456294
 30
0.0
 10
11.3425430181
 20
6.7735580481
 30
0.0
 10
11.3425430181
 20
6.780643587
 30
0.0
  0
SPLINE
  5
347
100
AcDbEntity
  8
0
100
AcDbSpline
 62
7
  6
CONTINUOUS
 70
0
 71
3
 72
13
 73
9
 74
0
 42
0.0000001
 43
0.0000001
 44
0.0000000001
 40
0.0
 40
0.0
 40
0.0
 40
0.0
 40
0.2513847188
 40
0.5018149613
 40
0.6267084621
 40
0.7513664379
 40
0.8757945867
 40
1.0
 40
1.0
 40
1.0
 40
1.0
 10
9.3584185133
 20
8.0708125606
 30
0.0
 10
9.3603060019
 20
8.0786793691
 30
0.0
 10
9.3647948205
 20
8.0942198023
 30
0.0
 10
9.3721747672
 20
8.1130228291
 30
0.0
 10
9.3790976494
 20
8.1275534888
 30
0.0
 10
9.384785371
 20
8.1381655699
 30
0.0
 10
9.3909617097
 20
8.148474586
 30
0.0
 10
9.3954015888
 20
8.1551357627
 30
0.0
 10
9.3976986408
 20
8.1584070056
 30
0.0
  0
SPLINE
  5
348
100
AcDbEntity
  8
0
100
AcDbSpline
 62
7
  6
CONTINUOUS
 70
0
 71
3
 72
39
 73
35
 74
0
 42
0.0000001
 43
0.0000001
 44
0.0000000001
 40
0.0
 40
0.0
 40
0.0
 40
0.0
 40
0.0299424689
 40
0.059909316
 40
0.0899243238
 40
0.120010106
 40
0.150187569
 40
0.1804754262
 40
0.2108897768
 40
0.2414437599
 40
0.2721472906
 40
0.3030068794
 40
0.3340255372
 40
0.3652027613
 40
0.3965346002
 40
0.4280137884
 40
0.4596299473
 40
0.4913698423
 40
0.5232176895
 40
0.5551555049
 40
0.5871634868
 40
0.6192204263
 40
0.6513041383
 40
0.683391905
 40
0.7154609283
 40
0.7474887827
 40
0.7794538622
 40
0.8113358179
 40
0.8431159726
 40
0.8747777271
 40
0.9063068788
 40
0.9376920781
 40
0.9689247389
 40
1.0
 40
1.0
 40
1.0
 40
1.0
 10
8.7547292474
 20
6.761470083
 30
0.0
 10
8.7498187032
 20
6.7567268904
 30
0.0
 10
8.7396114426
 20
6.7476233537
 30
0.0
 10
8.7232578781
 20
6.7352213684
 30
0.0
 10
8.7059451773
 20
6.7241348221
 30
0.0
 10
8.687770089
 20
6.7144258934
 30
0.0
 10
8.6688325342
 20
6.7061476283
 30
0.0
 10
8.6492370276
 20
6.6993455314
 30
0.0
 10
8.6290915516
 20
6.6940568204
 30
0.0
 10
8.6085070932
 20
6.6903103693
 30
0.0
 10
8.5875969864
 20
6.6881265281
 30
0.0
 10
8.566476295
 20
6.6875170373
 30
0.0
 10
8.5452611772
 20
6.6884849756
 30
0.0
 10
8.5240682505
 20
6.6910247579
 30
0.0
 10
8.5030139568
 20
6.6951221778
 30
0.0
 10
8.4822139299
 20
6.7007544958
 30
0.0
 10
8.4617823691
 20
6.7078905709
 30
0.0
 10
8.4418314207
 20
6.7164910372
 30
0.0
 10
8.4224705716
 20
6.726508523
 30
0.0
 10
8.4038060569
 20
6.7378879117
 30
0.0
 10
8.3859402842
 20
6.7505666444
 30
0.0
 10
8.3689712792
 20
6.7644750615
 30
0.0
 10
8.3529921544
 20
6.7795367825
 30
0.0
 10
8.3380906034
 20
6.7956691217
 30
0.0
 10
8.3243484252
 20
6.8127835376
 30
0.0
 10
8.3118410795
 20
6.8307861143
 30
0.0
 10
8.3006372754
 20
6.8495780702
 30
0.0
 10
8.2907985995
 20
6.8690562972
 30
0.0
 10
8.2823791727
 20
6.8891139066
 30
0.0
 10
8.2754253718
 20
6.9096408549
 30
0.0
 10
8.26997553
 20
6.9305243694
 30
0.0
 10
8.2660598168
 20
6.9516501913
 30
0.0
 10
8.263699905
 20
6.9729007808
 30
0.0
 10
8.2631713364
 20
6.9871131996
 30
0.0
 10
8.2631713364
 20
6.9941987385
 30
0.0
  0
SPLINE
  5
349
100
AcDbEntity
  8
0
100
AcDbSpline
 62
7
  6
CONTINUOUS
 70
0
 71
3
 72
23
 73
19
 74
0
 42
0.0000001
 43
0.0000001
 44
0.0000000001
 40
0.0
 40
0.0
 40
0.0
 40
0.0
 40
0.063375126
 40
0.1266731693
 40
0.1898744095
 40
0.2529726957
 40
0.3159569201
 40
0.3788187971
 40
0.4415515871
 40
0.5041498419
 40
0.5666098299
 40
0.6289294796
 40
0.6911084361
 40
0.7531480661
 40
0.8150514412
 40
0.87682334
 40
0.938470194
 40
1.0
 40
1.0
 40
1.0
 40
1.0
 10
10.7454879568
 20
7.974618968
 30
0.0
 10
10.7441056276
 20
7.9702348635
 30
0.0
 10
10.7415760416
 20
7.9613964038
 30
0.0
 10
10.7384987729
 20
7.9479657516
 30
0.0
 10
10.7361499015
 20
7.9344086945
 30
0.0
 10
10.7345365872
 20
7.9207675707
 30
0.0
 10
10.7336638892
 20
7.9070837248
 30
0.0
 10
10.733534446
 20
7.8933991722
 30
0.0
 10
10.7341486519
 20
7.8797557774
 30
0.0
 10
10.7355046905
 20
7.8661953035
 30
0.0
 10
10.7375984687
 20
7.8527592797
 30
0.0
 10
10.7404235597
 20
7.8394888407
 30
0.0
 10
10.7439713328
 20
7.8264246234
 30
0.0
 10
10.7482309844
 20
7.813606637
 30
0.0
 10
10.7531895064
 20
7.8010741946
 30
0.0
 10
10.7588317797
 20
7.7888655475
 30
0.0
 10
10.7651402262
 20
7.7770185698
 30
0.0
 10
10.7697820848
 20
7.7693778663
 30
0.0
 10
10.7722068348
 20
7.7656309827
 30
0.0
  0
SPLINE
  5
34A
100
AcDbEntity
  8
0
100
AcDbSpline
 62
7
  6
CONTINUOUS
 70
0
 71
3
 72
10
 73
6
 74
0
 42
0.0000001
 43
0.0000001
 44
0.0000000001
 40
0.0
 40
0.0
 40
0.0
 40
0.0
 40
0.2512057083
 40
0.5016339901
 40
1.0
 40
1.0
 40
1.0
 40
1.0
 10
10.7409299
 20
7.9521298177
 30
0.0
 10
10.7412517554
 20
7.954024401
 30
0.0
 10
10.7419199397
 20
7.9578034756
 30
0.0
 10
10.7433690785
 20
7.9653151596
 30
0.0
 10
10.7445984637
 20
7.9709116757
 30
0.0
 10
10.7454879568
 20
7.974618968
 30
0.0
  0
SPLINE
  5
34B
100
AcDbEntity
  8
0
100
AcDbSpline
 62
7
  6
CONTINUOUS
 70
0
 71
3
 72
21
 73
17
 74
0
 42
0.0000001
 43
0.0000001
 44
0.0000000001
 40
0.0
 40
0.0
 40
0.0
 40
0.0
 40
0.1249835438
 40
0.2501139497
 40
0.3127302984
 40
0.3753550553
 40
0.4379787603
 40
0.5005916068
 40
0.56318385
 40
0.6257459897
 40
0.6882687989
 40
0.750743422
 40
0.8131614269
 40
0.8755149334
 40
0.9377966672
 40
1.0
 40
1.0
 40
1.0
 40
1.0
 10
10.7409299
 20
7.9521298177
 30
0.0
 10
10.7395573404
 20
7.944050324
 30
0.0
 10
10.7375855615
 20
7.9277399948
 30
0.0
 10
10.7370795058
 20
7.9072078736
 30
0.0
 10
10.7378495691
 20
7.890803622
 30
0.0
 10
10.7390137348
 20
7.8785354573
 30
0.0
 10
10.7407616121
 20
7.8663372372
 30
0.0
 10
10.7430888346
 20
7.8542382816
 30
0.0
 10
10.7459897934
 20
7.8422680929
 30
0.0
 10
10.749457498
 20
7.8304557741
 30
0.0
 10
10.7534834172
 20
7.8188300216
 30
0.0
 10
10.7580578212
 20
7.8074191072
 30
0.0
 10
10.7631696264
 20
7.7962508248
 30
0.0
 10
10.7688063716
 20
7.7853522039
 30
0.0
 10
10.7749542008
 20
7.7747500827
 30
0.0
 10
10.7793870039
 20
7.7678915693
 30
0.0
 10
10.7816832967
 20
7.7645206742
 30
0.0
  0
SPLINE
  5
34C
100
AcDbEntity
  8
0
100
AcDbSpline
 62
7
  6
CONTINUOUS
 70
0
 71
3
 72
41
 73
37
 74
0
 42
0.0000001
 43
0.0000001
 44
0.0000000001
 40
0.0
 40
0.0
 40
0.0
 40
0.0
 40
0.0299421172
 40
0.04492376
 40
0.059914511
 40
0.089929166
 40
0.1200145972
 40
0.135093366
 40
0.1501974852
 40
0.1804849961
 40
0.2108989984
 40
0.2414526287
 40
0.272155802
 40
0.3030150309
 40
0.334033329
 40
0.3652101953
 40
0.3965416763
 40
0.4280205023
 40
0.459636293
 40
0.4913758157
 40
0.5232232898
 40
0.5551607336
 40
0.5871683456
 40
0.6192249134
 40
0.6513082489
 40
0.6833956359
 40
0.7154642792
 40
0.7474917569
 40
0.7794564628
 40
0.8113380448
 40
0.8431178358
 40
0.8747791645
 40
0.9063081103
 40
0.9376924636
 40
0.9689257188
 40
1.0
 40
1.0
 40
1.0
 40
1.0
 10
10.1790874805
 20
7.9814963167
 30
0.0
 10
10.1769308217
 20
7.9794131678
 30
0.0
 10
10.1735686747
 20
7.9764147131
 30
0.0
 10
10.1688601351
 20
7.9726942069
 30
0.0
 10
10.1640015864
 20
7.9691589252
 30
0.0
 10
10.1576620427
 20
7.9650992058
 30
0.0
 10
10.1510142544
 20
7.9615481428
 30
0.0
 10
10.1455315497
 20
7.9590219273
 30
0.0
 10
10.1399355991
 20
7.9567042331
 30
0.0
 10
10.1327562383
 20
7.9542120876
 30
0.0
 10
10.1239087705
 20
7.9518894774
 30
0.0
 10
10.1148682538
 20
7.9502440987
 30
0.0
 10
10.1056847905
 20
7.9492850215
 30
0.0
 10
10.096408825
 20
7.9490173641
 30
0.0
 10
10.0870913947
 20
7.9494424917
 30
0.0
 10
10.0777837097
 20
7.9505579556
 30
0.0
 10
10.0685369146
 20
7.9523575275
 30
0.0
 10
10.0594017938
 20
7.9548312092
 30
0.0
 10
10.0504285008
 20
7.9579653176
 30
0.0
 10
10.0416662864
 20
7.961742561
 30
0.0
 10
10.0331632346
 20
7.9661421355
 30
0.0
 10
10.0249660031
 20
7.9711398387
 30
0.0
 10
10.0171195732
 20
7.9767082034
 30
0.0
 10
10.0096670009
 20
7.982816638
 30
0.0
 10
10.0026491735
 20
7.9894315871
 30
0.0
 10
9.9961046012
 20
7.9965167332
 30
0.0
 10
9.9900692062
 20
8.0040331895
 30
0.0
 10
9.9845761301
 20
8.0119397121
 30
0.0
 10
9.9796555531
 20
8.0201929202
 30
0.0
 10
9.9753345303
 20
8.0287475352
 30
0.0
 10
9.9716368423
 20
8.0375566072
 30
0.0
 10
9.9685828062
 20
8.0465718128
 30
0.0
 10
9.966189355
 20
8.0557435824
 30
0.0
 10
9.9644695413
 20
8.0650218474
 30
0.0
 10
9.9634331648
 20
8.0743548525
 30
0.0
 10
9.963200989
 20
8.0805968121
 30
0.0
 10
9.963200989
 20
8.083708636
 30
0.0
  0
SPLINE
  5
34D
100
AcDbEntity
  8
0
100
AcDbSpline
 62
7
  6
CONTINUOUS
 70
0
 71
3
 72
13
 73
9
 74
0
 42
0.0000001
 43
0.0000001
 44
0.0000000001
 40
0.0
 40
0.0
 40
0.0
 40
0.0
 40
0.2513847188
 40
0.5018149613
 40
0.6267084621
 40
0.7513664379
 40
0.8757945867
 40
1.0
 40
1.0
 40
1.0
 40
1.0
 10
10.7454879568
 20
7.974618968
 30
0.0
 10
10.7473754453
 20
7.9824857765
 30
0.0
 10
10.751864264
 20
7.9980262097
 30
0.0
 10
10.7592442107
 20
8.0168292366
 30
0.0
 10
10.766167093
 20
8.0313598964
 30
0.0
 10
10.7718548145
 20
8.0419719775
 30
0.0
 10
10.7780311533
 20
8.0522809937
 30
0.0
 10
10.7824710324
 20
8.0589421704
 30
0.0
 10
10.7847680844
 20
8.0622134133
 30
0.0
  0
SPLINE
  5
34E
100
AcDbEntity
  8
0
100
AcDbSpline
 62
7
  6
CONTINUOUS
 70
0
 71
3
 72
41
 73
37
 74
0
 42
0.0000001
 43
0.0000001
 44
0.0000000001
 40
0.0
 40
0.0
 40
0.0
 40
0.0
 40
0.0299421172
 40
0.04492376
 40
0.059914511
 40
0.089929166
 40
0.1200145972
 40
0.135093366
 40
0.1501974852
 40
0.1804849961
 40
0.2108989984
 40
0.2414526287
 40
0.272155802
 40
0.3030150309
 40
0.334033329
 40
0.3652101953
 40
0.3965416763
 40
0.4280205023
 40
0.459636293
 40
0.4913758157
 40
0.5232232898
 40
0.5551607336
 40
0.5871683456
 40
0.6192249134
 40
0.6513082489
 40
0.6833956359
 40
0.7154642792
 40
0.7474917569
 40
0.7794564628
 40
0.8113380448
 40
0.8431178358
 40
0.8747791645
 40
0.9063081103
 40
0.9376924636
 40
0.9689257188
 40
1.0
 40
1.0
 40
1.0
 40
1.0
 10
9.3039587277
 20
6.8038696566
 30
0.0
 10
9.3018020688
 20
6.8017865076
 30
0.0
 10
9.2984399219
 20
6.798788053
 30
0.0
 10
9.2937313822
 20
6.7950675467
 30
0.0
 10
9.2888728336
 20
6.791532265
 30
0.0
 10
9.2825332899
 20
6.7874725456
 30
0.0
 10
9.2758855016
 20
6.7839214827
 30
0.0
 10
9.2704027969
 20
6.7813952671
 30
0.0
 10
9.2648068463
 20
6.779077573
 30
0.0
 10
9.2576274855
 20
6.7765854274
 30
0.0
 10
9.2487800176
 20
6.7742628172
 30
0.0
 10
9.239739501
 20
6.7726174385
 30
0.0
 10
9.2305560376
 20
6.7716583613
 30
0.0
 10
9.2212800722
 20
6.7713907039
 30
0.0
 10
9.2119626419
 20
6.7718158315
 30
0.0
 10
9.2026549569
 20
6.7729312955
 30
0.0
 10
9.1934081617
 20
6.7747308673
 30
0.0
 10
9.184273041
 20
6.777204549
 30
0.0
 10
9.1752997479
 20
6.7803386574
 30
0.0
 10
9.1665375336
 20
6.7841159008
 30
0.0
 10
9.1580344818
 20
6.7885154753
 30
0.0
 10
9.1498372503
 20
6.7935131786
 30
0.0
 10
9.1419908204
 20
6.7990815433
 30
0.0
 10
9.134538248
 20
6.8051899778
 30
0.0
 10
9.1275204206
 20
6.8118049269
 30
0.0
 10
9.1209758483
 20
6.818890073
 30
0.0
 10
9.1149404533
 20
6.8264065293
 30
0.0
 10
9.1094473773
 20
6.8343130519
 30
0.0
 10
9.1045268003
 20
6.8425662601
 30
0.0
 10
9.1002057775
 20
6.851120875
 30
0.0
 10
9.0965080894
 20
6.859929947
 30
0.0
 10
9.0934540534
 20
6.8689451527
 30
0.0
 10
9.0910606021
 20
6.8781169223
 30
0.0
 10
9.0893407885
 20
6.8873951872
 30
0.0
 10
9.088304412
 20
6.8967281923
 30
0.0
 10
9.0880722362
 20
6.9029701519
 30
0.0
 10
9.0880722362
 20
6.9060819759
 30
0.0
  0
SPLINE
  5
34F
100
AcDbEntity
  8
0
100
AcDbSpline
 62
7
  6
CONTINUOUS
 70
0
 71
3
 72
41
 73
37
 74
0
 42
0.0000001
 43
0.0000001
 44
0.0000000001
 40
0.0
 40
0.0
 40
0.0
 40
0.0
 40
0.0299421261
 40
0.0449237712
 40
0.0599145221
 40
0.0899291772
 40
0.1200146013
 40
0.1350933596
 40
0.1501974793
 40
0.1804849718
 40
0.2108989568
 40
0.2414525746
 40
0.27215574
 40
0.3030149616
 40
0.3340332486
 40
0.3652100987
 40
0.3965415618
 40
0.4280203745
 40
0.4596361601
 40
0.4913756848
 40
0.5232231637
 40
0.55516061
 40
0.587168221
 40
0.6192247883
 40
0.6513081285
 40
0.6833955259
 40
0.7154641834
 40
0.747491675
 40
0.7794563926
 40
0.8113379819
 40
0.8431177834
 40
0.8747791281
 40
0.9063080575
 40
0.9376925183
 40
0.9689255783
 40
1.0
 40
1.0
 40
1.0
 40
1.0
 10
11.0722812327
 20
6.663789552
 30
0.0
 10
11.0696932455
 20
6.6612897374
 30
0.0
 10
11.0656587512
 20
6.6576914482
 30
0.0
 10
11.0600084761
 20
6.653226804
 30
0.0
 10
11.0541782959
 20
6.6489842873
 30
0.0
 10
11.0465708427
 20
6.6441125174
 30
0.0
 10
11.0385934926
 20
6.6398511507
 30
0.0
 10
11.0320142858
 20
6.6368195073
 30
0.0
 10
11.0252991065
 20
6.6340382621
 30
0.0
 10
11.0166838854
 20
6.6310475109
 30
0.0
 10
11.0060668998
 20
6.6282602285
 30
0.0
 10
10.9952182467
 20
6.6262856179
 30
0.0
 10
10.9841980401
 20
6.6251345998
 30
0.0
 10
10.9730668212
 20
6.6248133082
 30
0.0
 10
10.9618858383
 20
6.6253233735
 30
0.0
 10
10.9507165446
 20
6.6266618454
 30
0.0
 10
10.9396203097
 20
6.6288212369
 30
0.0
 10
10.9286580749
 20
6.6317895643
 30
0.0
 10
10.9178900268
 20
6.6355504188
 30
0.0
 10
10.9073752719
 20
6.6400830578
 30
0.0
 10
10.8971715178
 20
6.6453625214
 30
0.0
 10
10.8873347536
 20
6.6513597565
 30
0.0
 10
10.877918949
 20
6.6580417874
 30
0.0
 10
10.8689757651
 20
6.665371899
 30
0.0
 10
10.8605542735
 20
6.673309836
 30
0.0
 10
10.8527006915
 20
6.681812022
 30
0.0
 10
10.8454581316
 20
6.690831795
 30
0.0
 10
10.8388663671
 20
6.7003196611
 30
0.0
 10
10.8329616186
 20
6.7102235619
 30
0.0
 10
10.8277763346
 20
6.7204891514
 30
0.0
 10
10.823339051
 20
6.7310600919
 30
0.0
 10
10.8196741615
 20
6.7418783957
 30
0.0
 10
10.8168019705
 20
6.75288459
 30
0.0
 10
10.8147381871
 20
6.7640185623
 30
0.0
 10
10.8134945039
 20
6.7752182386
 30
0.0
 10
10.8132158992
 20
6.7827086287
 30
0.0
 10
10.8132158992
 20
6.7864428565
 30
0.0
  0
SPLINE
  5
350
100
AcDbEntity
  8
0
100
AcDbSpline
 62
7
  6
CONTINUOUS
 70
0
 71
3
 72
39
 73
35
 74
0
 42
0.0000001
 43
0.0000001
 44
0.0000000001
 40
0.0
 40
0.0
 40
0.0
 40
0.0
 40
0.0299424725
 40
0.0599093195
 40
0.0899243237
 40
0.1200100993
 40
0.1501875534
 40
0.1804753997
 40
0.2108897381
 40
0.2414437083
 40
0.2721472261
 40
0.3030068024
 40
0.3340254485
 40
0.3652026624
 40
0.3965344927
 40
0.4280136743
 40
0.4596298287
 40
0.4913697214
 40
0.5232175685
 40
0.5551553859
 40
0.5871633717
 40
0.6192203171
 40
0.6513040363
 40
0.6833918115
 40
0.7154608445
 40
0.747488709
 40
0.7794537991
 40
0.8113357648
 40
0.8431159318
 40
0.87477769
 40
0.9063068705
 40
0.9376920244
 40
0.9689248101
 40
1.0
 40
1.0
 40
1.0
 40
1.0
 10
10.2624590631
 20
8.7104291235
 30
0.0
 10
10.2583116491
 20
8.7064230018
 30
0.0
 10
10.2496907442
 20
8.6987340177
 30
0.0
 10
10.2358786575
 20
8.6882591633
 30
0.0
 10
10.2212564887
 20
8.6788953045
 30
0.0
 10
10.2059059276
 20
8.670694984
 30
0.0
 10
10.1899113741
 20
8.6637029988
 30
0.0
 10
10.1733611001
 20
8.6579577851
 30
0.0
 10
10.1563463083
 20
8.6534907774
 30
0.0
 10
10.1389607384
 20
8.6503263639
 30
0.0
 10
10.1213001129
 20
8.6484817336
 30
0.0
 10
10.1034616154
 20
8.6479668036
 30
0.0
 10
10.0855433537
 20
8.6487841751
 30
0.0
 10
10.0676438239
 20
8.6509291319
 30
0.0
 10
10.0498613736
 20
8.6543896763
 30
0.0
 10
10.0322936682
 20
8.6591466027
 30
0.0
 10
10.0150371613
 20
8.6651736104
 30
0.0
 10
9.9981865731
 20
8.6724374511
 30
0.0
 10
9.9818343772
 20
8.6808981149
 30
0.0
 10
9.9660703007
 20
8.6905090506
 30
0.0
 10
9.9509808384
 20
8.7012174208
 30
0.0
 10
9.9366487838
 20
8.7129643909
 30
0.0
 10
9.9231527808
 20
8.7256854496
 30
0.0
 10
9.9105668965
 20
8.7393107601
 30
0.0
 10
9.8989602191
 20
8.7537655399
 30
0.0
 10
9.8883964826
 20
8.768970467
 30
0.0
 10
9.8789337201
 20
8.7848421098
 30
0.0
 10
9.8706239466
 20
8.8012933824
 30
0.0
 10
9.8635128775
 20
8.8182340056
 30
0.0
 10
9.8576396722
 20
8.8355710379
 30
0.0
 10
9.8530367312
 20
8.8532092218
 30
0.0
 10
9.8497294913
 20
8.8710520792
 30
0.0
 10
9.8477363208
 20
8.8890003029
 30
0.0
 10
9.847289883
 20
8.9010041034
 30
0.0
 10
9.847289883
 20
8.9069885267
 30
0.0
  0
SPLINE
  5
351
100
AcDbEntity
  8
0
100
AcDbSpline
 62
7
  6
CONTINUOUS
 70
0
 71
3
 72
14
 73
10
 74
0
 42
0.0000001
 43
0.0000001
 44
0.0000000001
 40
0.0
 40
0.0
 40
0.0
 40
0.0
 40
0.2600164904
 40
0.3867066394
 40
0.5115854314
 40
0.6349944229
 40
0.7572883487
 40
0.878832543
 40
1.0
 40
1.0
 40
1.0
 40
1.0
 10
14.3460351493
 20
7.4915460095
 30
0.0
 10
14.3439608572
 20
7.4907542317
 30
0.0
 10
14.3408167752
 20
7.4897212694
 30
0.0
 10
14.336570939
 20
7.4886873874
 30
0.0
 10
14.3334222006
 20
7.4880970585
 30
0.0
 10
14.3302830807
 20
7.4876855382
 30
0.0
 10
14.3271541031
 20
7.4874529072
 30
0.0
 10
14.3240361737
 20
7.4873993154
 30
0.0
 10
14.3219640003
 20
7.4874830303
 30
0.0
 10
14.3209318352
 20
7.4875546086
 30
0.0
  0
SPLINE
  5
352
100
AcDbEntity
  8
0
100
AcDbSpline
 62
7
  6
CONTINUOUS
 70
0
 71
3
 72
53
 73
49
 74
0
 42
0.0000001
 43
0.0000001
 44
0.0000000001
 40
0.0
 40
0.0
 40
0.0
 40
0.0
 40
0.0323137869
 40
0.0646924219
 40
0.097103722
 40
0.129516509
 40
0.1619014578
 40
0.1780779157
 40
0.1942374792
 40
0.226488866
 40
0.2586403535
 40
0.2746756304
 40
0.2906793874
 40
0.3066499388
 40
0.3225856694
 40
0.3543422039
 40
0.3859456885
 40
0.4016908441
 40
0.4173958854
 40
0.4486795447
 40
0.4798025559
 40
0.5107685933
 40
0.5415845573
 40
0.5722606816
 40
0.6028106408
 40
0.6332516336
 40
0.6636044092
 40
0.6938931896
 40
0.7090257572
 40
0.7241529266
 40
0.7392785797
 40
0.7544067401
 40
0.7695414727
 40
0.784687035
 40
0.7998475717
 40
0.8150273712
 40
0.8302305595
 40
0.8454612131
 40
0.8607232801
 40
0.8760204269
 40
0.8913561685
 40
0.9067335853
 40
0.9221555233
 40
0.9376244386
 40
0.9531419244
 40
0.9687096969
 40
0.984329941
 40
1.0
 40
1.0
 40
1.0
 40
1.0
 10
9.2863499684
 20
7.8964955772
 30
0.0
 10
9.2801515017
 20
7.9003272264
 30
0.0
 10
9.2680628508
 20
7.9085306561
 30
0.0
 10
9.2510067801
 20
7.9223014215
 30
0.0
 10
9.2351051751
 20
7.9374240365
 30
0.0
 10
9.2204521958
 20
7.9537586226
 30
0.0
 10
9.2093393021
 20
7.9682731654
 30
0.0
 10
9.2011432215
 20
7.9803535598
 30
0.0
 10
9.1934265928
 20
7.9927103094
 30
0.0
 10
9.1846785458
 20
8.008653818
 30
0.0
 10
9.1771507898
 20
8.0251772409
 30
0.0
 10
9.1718857129
 20
8.0386644484
 30
0.0
 10
9.1683207824
 20
8.0488900973
 30
0.0
 10
9.1651394461
 20
8.0592180045
 30
0.0
 10
9.1614170904
 20
8.0730865489
 30
0.0
 10
9.1577302998
 20
8.0906018667
 30
0.0
 10
9.1553402432
 20
8.1082973535
 30
0.0
 10
9.1542172357
 20
8.1224751598
 30
0.0
 10
9.153620974
 20
8.1366125716
 30
0.0
 10
9.1538564046
 20
8.1542438063
 30
0.0
 10
9.1557143557
 20
8.1752379379
 30
0.0
 10
9.1591427221
 20
8.195927594
 30
0.0
 10
9.16413268
 20
8.2161938016
 30
0.0
 10
9.1706705013
 20
8.2359169142
 30
0.0
 10
9.1787367327
 20
8.2549748852
 30
0.0
 10
9.1883054498
 20
8.2732436109
 30
0.0
 10
9.1993417849
 20
8.290595543
 30
0.0
 10
9.2097316614
 20
8.3041917752
 30
0.0
 10
9.2187225096
 20
8.314473254
 30
0.0
 10
9.2257983531
 20
8.3218732309
 30
0.0
 10
9.2331989587
 20
8.3289468096
 30
0.0
 10
9.2409146982
 20
8.3356780248
 30
0.0
 10
9.2489346722
 20
8.3420510201
 30
0.0
 10
9.2572472321
 20
8.3480499793
 30
0.0
 10
9.2658394512
 20
8.3536597656
 30
0.0
 10
9.2746975422
 20
8.3588653709
 30
0.0
 10
9.2838065025
 20
8.3636525645
 30
0.0
 10
9.2931502698
 20
8.3680077505
 30
0.0
 10
9.3027117642
 20
8.3719179493
 30
0.0
 10
9.3124727151
 20
8.3753714421
 30
0.0
 10
9.3224139627
 20
8.3783571333
 30
0.0
 10
9.3325152818
 20
8.3808654197
 30
0.0
 10
9.3427556072
 20
8.3828878539
 30
0.0
 10
9.3531130349
 20
8.3844171494
 30
0.0
 10
9.3635649064
 20
8.3854479932
 30
0.0
 10
9.3740884293
 20
8.3859760977
 30
0.0
 10
9.3846593043
 20
8.3859989128
 30
0.0
 10
9.3917114697
 20
8.3856774767
 30
0.0
 10
9.3952367894
 20
8.385432995
 30
0.0
  0
SPLINE
  5
353
100
AcDbEntity
  8
0
100
AcDbSpline
 62
7
  6
CONTINUOUS
 70
0
 71
3
 72
23
 73
19
 74
0
 42
0.0000001
 43
0.0000001
 44
0.0000000001
 40
0.0
 40
0.0
 40
0.0
 40
0.0
 40
0.0599424861
 40
0.1202169826
 40
0.1808319198
 40
0.2418039662
 40
0.3031397295
 40
0.3648426289
 40
0.4269121828
 40
0.4893434704
 40
0.5521276301
 40
0.6152519471
 40
0.6787000661
 40
0.7424522029
 40
0.8064853768
 40
0.87077374
 40
0.9352888598
 40
1.0
 40
1.0
 40
1.0
 40
1.0
 10
9.3538604566
 20
8.0483234103
 30
0.0
 10
9.3534792179
 20
8.04424243
 30
0.0
 10
9.3529478794
 20
8.036034218
 30
0.0
 10
9.3528440244
 20
8.0236635979
 30
0.0
 10
9.3534315851
 20
8.0112357199
 30
0.0
 10
9.3547086166
 20
7.9987869461
 30
0.0
 10
9.3566715318
 20
7.9863525101
 30
0.0
 10
9.3593145781
 20
7.9739680615
 30
0.0
 10
9.362630114
 20
7.9616689688
 30
0.0
 10
9.3666086683
 20
7.9494903817
 30
0.0
 10
9.3712387848
 20
7.9374670864
 30
0.0
 10
9.3765071495
 20
7.9256334049
 30
0.0
 10
9.3823986788
 20
7.9140231322
 30
0.0
 10
9.3888965462
 20
7.902669435
 30
0.0
 10
9.3959820892
 20
7.8916047254
 30
0.0
 10
9.403635102
 20
7.8808605018
 30
0.0
 10
9.4118334462
 20
7.8704677461
 30
0.0
 10
9.4176398233
 20
7.8638015982
 30
0.0
 10
9.4206258144
 20
7.8605361899
 30
0.0
  0
SPLINE
  5
354
100
AcDbEntity
  8
0
100
AcDbSpline
 62
7
  6
CONTINUOUS
 70
0
 71
3
 72
53
 73
49
 74
0
 42
0.0000001
 43
0.0000001
 44
0.0000000001
 40
0.0
 40
0.0
 40
0.0
 40
0.0
 40
0.0323137869
 40
0.0646924219
 40
0.097103722
 40
0.129516509
 40
0.1619014577
 40
0.1780779157
 40
0.1942374792
 40
0.226488866
 40
0.2586403535
 40
0.2746756304
 40
0.2906793874
 40
0.3066499388
 40
0.3225856693
 40
0.3543422038
 40
0.3859456884
 40
0.401690844
 40
0.4173958853
 40
0.4486795445
 40
0.4798025558
 40
0.5107685931
 40
0.5415845571
 40
0.5722606814
 40
0.6028106405
 40
0.6332516333
 40
0.663604409
 40
0.6938931893
 40
0.7090257569
 40
0.7241529263
 40
0.7392785794
 40
0.7544067398
 40
0.7695414724
 40
0.7846870347
 40
0.7998475714
 40
0.815027371
 40
0.8302305593
 40
0.8454612128
 40
0.8607232799
 40
0.8760204267
 40
0.8913561683
 40
0.9067335851
 40
0.9221555232
 40
0.9376244385
 40
0.9531419243
 40
0.9687096968
 40
0.984329941
 40
1.0
 40
1.0
 40
1.0
 40
1.0
 10
10.6734194119
 20
7.8003019845
 30
0.0
 10
10.6672209451
 20
7.8041336338
 30
0.0
 10
10.655132294
 20
7.8123370636
 30
0.0
 10
10.6380762232
 20
7.8261078291
 30
0.0
 10
10.6221746181
 20
7.8412304443
 30
0.0
 10
10.6075216387
 20
7.8575650306
 30
0.0
 10
10.596408745
 20
7.8720795736
 30
0.0
 10
10.5882126643
 20
7.8841599681
 30
0.0
 10
10.5804960356
 20
7.8965167179
 30
0.0
 10
10.5717479887
 20
7.9124602267
 30
0.0
 10
10.5642202327
 20
7.9289836498
 30
0.0
 10
10.5589551557
 20
7.9424708573
 30
0.0
 10
10.5553902253
 20
7.9526965063
 30
0.0
 10
10.552208889
 20
7.9630244137
 30
0.0
 10
10.5484865334
 20
7.9768929582
 30
0.0
 10
10.5447997429
 20
7.9944082762
 30
0.0
 10
10.5424096864
 20
8.0121037632
 30
0.0
 10
10.541286679
 20
8.0262815697
 30
0.0
 10
10.5406904174
 20
8.0404189815
 30
0.0
 10
10.5409258482
 20
8.0580502164
 30
0.0
 10
10.5427837995
 20
8.0790443481
 30
0.0
 10
10.5462121662
 20
8.0997340044
 30
0.0
 10
10.5512021243
 20
8.1200002121
 30
0.0
 10
10.557739946
 20
8.1397233248
 30
0.0
 10
10.5658061777
 20
8.1587812959
 30
0.0
 10
10.5753748952
 20
8.1770500216
 30
0.0
 10
10.5864112307
 20
8.1944019536
 30
0.0
 10
10.5968011074
 20
8.2079981858
 30
0.0
 10
10.6057919559
 20
8.2182796645
 30
0.0
 10
10.6128677997
 20
8.2256796414
 30
0.0
 10
10.6202684054
 20
8.23275322
 30
0.0
 10
10.6279841452
 20
8.2394844351
 30
0.0
 10
10.6360041194
 20
8.2458574303
 30
0.0
 10
10.6443166794
 20
8.2518563893
 30
0.0
 10
10.6529088988
 20
8.2574661756
 30
0.0
 10
10.6617669899
 20
8.2626717807
 30
0.0
 10
10.6708759504
 20
8.2674589741
 30
0.0
 10
10.6802197179
 20
8.2718141599
 30
0.0
 10
10.6897812126
 20
8.2757243586
 30
0.0
 10
10.6995421636
 20
8.2791778512
 30
0.0
 10
10.7094834115
 20
8.2821635421
 30
0.0
 10
10.7195847307
 20
8.2846718283
 30
0.0
 10
10.7298250563
 20
8.2866942623
 30
0.0
 10
10.7401824841
 20
8.2882235575
 30
0.0
 10
10.7506343558
 20
8.289254401
 30
0.0
 10
10.7611578788
 20
8.2897825052
 30
0.0
 10
10.7717287539
 20
8.2898053201
 30
0.0
 10
10.7787809193
 20
8.2894838839
 30
0.0
 10
10.7823062391
 20
8.2892394022
 30
0.0
  0
SPLINE
  5
355
100
AcDbEntity
  8
0
100
AcDbSpline
 62
7
  6
CONTINUOUS
 70
0
 71
3
 72
23
 73
19
 74
0
 42
0.0000001
 43
0.0000001
 44
0.0000000001
 40
0.0
 40
0.0
 40
0.0
 40
0.0
 40
0.0599424861
 40
0.1202169826
 40
0.1808319198
 40
0.2418039662
 40
0.3031397295
 40
0.3648426289
 40
0.4269121828
 40
0.4893434704
 40
0.5521276301
 40
0.6152519471
 40
0.6787000661
 40
0.7424522029
 40
0.8064853768
 40
0.87077374
 40
0.9352888598
 40
1.0
 40
1.0
 40
1.0
 40
1.0
 10
10.7409299
 20
7.9521298177
 30
0.0
 10
10.7405486614
 20
7.9480488373
 30
0.0
 10
10.7400173229
 20
7.9398406254
 30
0.0
 10
10.7399134679
 20
7.9274700053
 30
0.0
 10
10.7405010285
 20
7.9150421273
 30
0.0
 10
10.7417780601
 20
7.9025933535
 30
0.0
 10
10.7437409752
 20
7.8901589175
 30
0.0
 10
10.7463840216
 20
7.8777744689
 30
0.0
 10
10.7496995575
 20
7.8654753762
 30
0.0
 10
10.7536781118
 20
7.8532967891
 30
0.0
 10
10.7583082282
 20
7.8412734938
 30
0.0
 10
10.763576593
 20
7.8294398123
 30
0.0
 10
10.7694681222
 20
7.8178295396
 30
0.0
 10
10.7759659896
 20
7.8064758424
 30
0.0
 10
10.7830515327
 20
7.7954111328
 30
0.0
 10
10.7907045454
 20
7.7846669092
 30
0.0
 10
10.7989028896
 20
7.7742741534
 30
0.0
 10
10.8047092668
 20
7.7676080056
 30
0.0
 10
10.8076952579
 20
7.7643425973
 30
0.0
  0
SPLINE
  5
356
100
AcDbEntity
  8
0
100
AcDbSpline
 62
7
  6
CONTINUOUS
 70
0
 71
3
 72
39
 73
35
 74
0
 42
0.0000001
 43
0.0000001
 44
0.0000000001
 40
0.0
 40
0.0
 40
0.0
 40
0.0
 40
0.0299424725
 40
0.0599093195
 40
0.0899243237
 40
0.1200100993
 40
0.1501875534
 40
0.1804753997
 40
0.2108897381
 40
0.2414437083
 40
0.2721472261
 40
0.3030068024
 40
0.3340254485
 40
0.3652026624
 40
0.3965344927
 40
0.4280136743
 40
0.4596298287
 40
0.4913697214
 40
0.5232175685
 40
0.5551553859
 40
0.5871633717
 40
0.6192203171
 40
0.6513040363
 40
0.6833918115
 40
0.7154608445
 40
0.747488709
 40
0.7794537991
 40
0.8113357648
 40
0.8431159318
 40
0.87477769
 40
0.9063068705
 40
0.9376920244
 40
0.9689248101
 40
1.0
 40
1.0
 40
1.0
 40
1.0
 10
10.2624590631
 20
7.079946152
 30
0.0
 10
10.2583116491
 20
7.0759400303
 30
0.0
 10
10.2496907442
 20
7.0682510462
 30
0.0
 10
10.2358786575
 20
7.0577761917
 30
0.0
 10
10.2212564887
 20
7.048412333
 30
0.0
 10
10.2059059276
 20
7.0402120125
 30
0.0
 10
10.1899113741
 20
7.0332200273
 30
0.0
 10
10.1733611001
 20
7.0274748136
 30
0.0
 10
10.1563463083
 20
7.0230078059
 30
0.0
 10
10.1389607384
 20
7.0198433924
 30
0.0
 10
10.1213001129
 20
7.0179987621
 30
0.0
 10
10.1034616154
 20
7.017483832
 30
0.0
 10
10.0855433537
 20
7.0183012036
 30
0.0
 10
10.0676438239
 20
7.0204461604
 30
0.0
 10
10.0498613736
 20
7.0239067047
 30
0.0
 10
10.0322936682
 20
7.0286636312
 30
0.0
 10
10.0150371613
 20
7.0346906388
 30
0.0
 10
9.9981865731
 20
7.0419544796
 30
0.0
 10
9.9818343772
 20
7.0504151434
 30
0.0
 10
9.9660703007
 20
7.0600260791
 30
0.0
 10
9.9509808384
 20
7.0707344493
 30
0.0
 10
9.9366487838
 20
7.0824814194
 30
0.0
 10
9.9231527808
 20
7.0952024781
 30
0.0
 10
9.9105668965
 20
7.1088277886
 30
0.0
 10
9.8989602191
 20
7.1232825684
 30
0.0
 10
9.8883964826
 20
7.1384874955
 30
0.0
 10
9.8789337201
 20
7.1543591383
 30
0.0
 10
9.8706239466
 20
7.1708104109
 30
0.0
 10
9.8635128775
 20
7.1877510341
 30
0.0
 10
9.8576396722
 20
7.2050880664
 30
0.0
 10
9.8530367312
 20
7.2227262503
 30
0.0
 10
9.8497294913
 20
7.2405691077
 30
0.0
 10
9.8477363208
 20
7.2585173314
 30
0.0
 10
9.847289883
 20
7.2705211318
 30
0.0
 10
9.847289883
 20
7.2765055552
 30
0.0
  0
SPLINE
  5
357
100
AcDbEntity
  8
0
100
AcDbSpline
 62
7
  6
CONTINUOUS
 70
0
 71
3
 72
26
 73
22
 74
0
 42
0.0000001
 43
0.0000001
 44
0.0000000001
 40
0.0
 40
0.0
 40
0.0
 40
0.0
 40
0.0298656725
 40
0.0594748312
 40
0.0888764501
 40
0.1181167885
 40
0.1472427361
 40
0.1762986215
 40
0.2343548017
 40
0.292582745
 40
0.3512340104
 40
0.4105288337
 40
0.4706618721
 40
0.5318064651
 40
0.5941199356
 40
0.657747056
 40
0.7228220263
 40
0.7894696897
 40
0.8578095491
 40
0.9279564891
 40
1.0
 40
1.0
 40
1.0
 40
1.0
 10
10.2478333883
 20
8.7974865773
 30
0.0
 10
10.2463501959
 20
8.7978994984
 30
0.0
 10
10.2434108875
 20
8.7987742982
 30
0.0
 10
10.2390668083
 20
8.8002331414
 30
0.0
 10
10.2348043496
 20
8.8018256914
 30
0.0
 10
10.2306187094
 20
8.8035456784
 30
0.0
 10
10.2265052717
 20
8.8053886268
 30
0.0
 10
10.2211125846
 20
8.8080027723
 30
0.0
 10
10.2145146898
 20
8.8115619999
 30
0.0
 10
10.2068162725
 20
8.8162661701
 30
0.0
 10
10.1993071874
 20
8.8213806239
 30
0.0
 10
10.1919631606
 20
8.8268937336
 30
0.0
 10
10.1847603441
 20
8.8327944832
 30
0.0
 10
10.1776811776
 20
8.8390794903
 30
0.0
 10
10.1707085672
 20
8.8457455587
 30
0.0
 10
10.1638304871
 20
8.8527948179
 30
0.0
 10
10.1570355797
 20
8.8602296644
 30
0.0
 10
10.1503164181
 20
8.8680559613
 30
0.0
 10
10.14366671
 20
8.8762803139
 30
0.0
 10
10.1370837237
 20
8.8849105386
 30
0.0
 10
10.1327979054
 20
8.8908583282
 30
0.0
 10
10.1306660966
 20
8.8938994522
 30
0.0
  0
SPLINE
  5
358
100
AcDbEntity
  8
0
100
AcDbSpline
 62
7
  6
CONTINUOUS
 70
0
 71
3
 72
21
 73
17
 74
0
 42
0.0000001
 43
0.0000001
 44
0.0000000001
 40
0.0
 40
0.0
 40
0.0
 40
0.0
 40
0.0454017762
 40
0.093088276
 40
0.1430774711
 40
0.1953821459
 40
0.2500079507
 40
0.3069553498
 40
0.3662185478
 40
0.427785991
 40
0.4916409391
 40
0.5577603217
 40
0.6261159709
 40
0.6966714319
 40
0.8442156725
 40
1.0
 40
1.0
 40
1.0
 40
1.0
 10
10.2165914919
 20
8.7186505956
 30
0.0
 10
10.2173055805
 20
8.7197233476
 30
0.0
 10
10.2187306323
 20
8.721949036
 30
0.0
 10
10.2208104732
 20
8.7254378503
 30
0.0
 10
10.2228821598
 20
8.7291574733
 30
0.0
 10
10.2249428916
 20
8.7331066804
 30
0.0
 10
10.2269900952
 20
8.737283995
 30
0.0
 10
10.2290211007
 20
8.741687658
 30
0.0
 10
10.2310332961
 20
8.7463155896
 30
0.0
 10
10.2330240714
 20
8.7511653796
 30
0.0
 10
10.2349907722
 20
8.7562342805
 30
0.0
 10
10.2369308004
 20
8.761519163
 30
0.0
 10
10.2388414634
 20
8.7670164795
 30
0.0
 10
10.2413843591
 20
8.7747397148
 30
0.0
 10
10.2444634175
 20
8.7848973519
 30
0.0
 10
10.2467261363
 20
8.793205654
 30
0.0
 10
10.2478333883
 20
8.7974865773
 30
0.0
  0
SPLINE
  5
359
100
AcDbEntity
  8
0
100
AcDbSpline
 62
7
  6
CONTINUOUS
 70
0
 71
3
 72
15
 73
11
 74
0
 42
0.0000001
 43
0.0000001
 44
0.0000000001
 40
0.0
 40
0.0
 40
0.0
 40
0.0
 40
0.1233350608
 40
0.2472082393
 40
0.3715904997
 40
0.4964610749
 40
0.6217817003
 40
0.7475109566
 40
0.8736009828
 40
1.0
 40
1.0
 40
1.0
 40
1.0
 10
9.3952367894
 20
8.385432995
 30
0.0
 10
9.399982498
 20
8.385103879
 30
0.0
 10
9.4094762686
 20
8.3841405597
 30
0.0
 10
9.423624922
 20
8.3817973089
 30
0.0
 10
9.437658336
 20
8.3785642602
 30
0.0
 10
9.4515196635
 20
8.3744589431
 30
0.0
 10
9.4651551909
 20
8.3695030246
 30
0.0
 10
9.4785133207
 20
8.3637226534
 30
0.0
 10
9.4915447549
 20
8.357148049
 30
0.0
 10
9.4999763653
 20
8.3522620888
 30
0.0
 10
9.5041232958
 20
8.3496986189
 30
0.0
  0
SPLINE
  5
35A
100
AcDbEntity
  8
0
100
AcDbSpline
 62
7
  6
CONTINUOUS
 70
0
 71
3
 72
23
 73
19
 74
0
 42
0.0000001
 43
0.0000001
 44
0.0000000001
 40
0.0
 40
0.0
 40
0.0
 40
0.0
 40
0.0637757517
 40
0.1273453038
 40
0.1907021142
 40
0.2538559682
 40
0.3168132565
 40
0.3795821027
 40
0.442173382
 40
0.5045993411
 40
0.5668738656
 40
0.6290123776
 40
0.6910316412
 40
0.7529496359
 40
0.8147853464
 40
0.8765585919
 40
0.9382898467
 40
1.0
 40
1.0
 40
1.0
 40
1.0
 10
11.3425430181
 20
9.1954582958
 30
0.0
 10
11.3425430181
 20
9.2000251444
 30
0.0
 10
11.3427616544
 20
9.209145622
 30
0.0
 10
11.3437482187
 20
9.2227708268
 30
0.0
 10
11.3453909528
 20
9.2362880955
 30
0.0
 10
11.3476859259
 20
9.2496655085
 30
0.0
 10
11.350627881
 20
9.2628726226
 30
0.0
 10
11.3542100897
 20
9.2758789058
 30
0.0
 10
11.3584243705
 20
9.2886543381
 30
0.0
 10
11.3632609778
 20
9.301169493
 30
0.0
 10
11.3687087685
 20
9.3133955154
 30
0.0
 10
11.3747552887
 20
9.3253041641
 30
0.0
 10
11.3813865511
 20
9.3368679944
 30
0.0
 10
11.3885872629
 20
9.3480603543
 30
0.0
 10
11.3963408875
 20
9.3588553453
 30
0.0
 10
11.404629592
 20
9.3692281754
 30
0.0
 10
11.4134338937
 20
9.3791546344
 30
0.0
 10
11.4196348812
 20
9.3854605057
 30
0.0
 10
11.4228132301
 20
9.3885305363
 30
0.0
  0
SPLINE
  5
35B
100
AcDbEntity
  8
0
100
AcDbSpline
 62
7
  6
CONTINUOUS
 70
0
 71
3
 72
23
 73
19
 74
0
 42
0.0000001
 43
0.0000001
 44
0.0000000001
 40
0.0
 40
0.0
 40
0.0
 40
0.0
 40
0.0637757517
 40
0.1273453038
 40
0.1907021142
 40
0.2538559682
 40
0.3168132565
 40
0.3795821027
 40
0.442173382
 40
0.5045993411
 40
0.5668738656
 40
0.6290123776
 40
0.6910316412
 40
0.7529496359
 40
0.8147853464
 40
0.8765585919
 40
0.9382898467
 40
1.0
 40
1.0
 40
1.0
 40
1.0
 10
11.3425430181
 20
6.780643587
 30
0.0
 10
11.3425430181
 20
6.7852104356
 30
0.0
 10
11.3427616544
 20
6.7943309132
 30
0.0
 10
11.3437482187
 20
6.807956118
 30
0.0
 10
11.3453909528
 20
6.8214733867
 30
0.0
 10
11.3476859259
 20
6.8348507997
 30
0.0
 10
11.350627881
 20
6.8480579138
 30
0.0
 10
11.3542100897
 20
6.861064197
 30
0.0
 10
11.3584243705
 20
6.8738396293
 30
0.0
 10
11.3632609778
 20
6.8863547842
 30
0.0
 10
11.3687087685
 20
6.8985808066
 30
0.0
 10
11.3747552887
 20
6.9104894553
 30
0.0
 10
11.3813865511
 20
6.9220532856
 30
0.0
 10
11.3885872629
 20
6.9332456455
 30
0.0
 10
11.3963408875
 20
6.9440406365
 30
0.0
 10
11.404629592
 20
6.9544134666
 30
0.0
 10
11.4134338937
 20
6.9643399256
 30
0.0
 10
11.4196348812
 20
6.9706457969
 30
0.0
 10
11.4228132301
 20
6.9737158275
 30
0.0
  0
SPLINE
  5
35C
100
AcDbEntity
  8
0
100
AcDbSpline
 62
7
  6
CONTINUOUS
 70
0
 71
3
 72
15
 73
11
 74
0
 42
0.0000001
 43
0.0000001
 44
0.0000000001
 40
0.0
 40
0.0
 40
0.0
 40
0.0
 40
0.123335061
 40
0.2472082397
 40
0.3715905
 40
0.4964610752
 40
0.6217817006
 40
0.7475109568
 40
0.873600983
 40
1.0
 40
1.0
 40
1.0
 40
1.0
 10
10.7823062391
 20
8.2892394022
 30
0.0
 10
10.7870519475
 20
8.2889102862
 30
0.0
 10
10.7965457175
 20
8.2879469663
 30
0.0
 10
10.8106943701
 20
8.2856037153
 30
0.0
 10
10.8247277833
 20
8.2823706666
 30
0.0
 10
10.83858911
 20
8.2782653495
 30
0.0
 10
10.8522246366
 20
8.2733094311
 30
0.0
 10
10.8655827656
 20
8.2675290601
 30
0.0
 10
10.878614199
 20
8.260954456
 30
0.0
 10
10.887045809
 20
8.2560684961
 30
0.0
 10
10.8911927393
 20
8.2535050263
 30
0.0
  0
SPLINE
  5
35D
100
AcDbEntity
  8
0
100
AcDbSpline
 62
7
  6
CONTINUOUS
 70
0
 71
3
 72
35
 73
31
 74
0
 42
0.0000001
 43
0.0000001
 44
0.0000000001
 40
0.0
 40
0.0
 40
0.0
 40
0.0
 40
0.0851784852
 40
0.1685799203
 40
0.2498821825
 40
0.328772681
 40
0.3672202273
 40
0.4049539356
 40
0.4419388896
 40
0.4781411363
 40
0.5135280525
 40
0.5480680559
 40
0.5817311163
 40
0.6144884129
 40
0.6463128652
 40
0.677178859
 40
0.7070627097
 40
0.7359425626
 40
0.7637987178
 40
0.7906137917
 40
0.8163728811
 40
0.8410640414
 40
0.8646783289
 40
0.8872106208
 40
0.9086596528
 40
0.9290291842
 40
0.9483282399
 40
0.9665726208
 40
0.9837856364
 40
1.0
 40
1.0
 40
1.0
 40
1.0
 10
6.0517559687
 20
7.5173915749
 30
0.0
 10
6.0517559687
 20
7.5018518631
 30
0.0
 10
6.0520207686
 20
7.4710958961
 30
0.0
 10
6.0532352759
 20
7.4255218109
 30
0.0
 10
6.0552580888
 20
7.3811245436
 30
0.0
 10
6.0576297849
 20
7.3449600378
 30
0.0
 10
6.0599360481
 20
7.3167628826
 30
0.0
 10
6.0618467358
 20
7.2962053225
 30
0.0
 10
6.0639510746
 20
7.2760784875
 30
0.0
 10
6.0662469257
 20
7.256403547
 30
0.0
 10
6.0687317639
 20
7.2372012301
 30
0.0
 10
6.0714030485
 20
7.2184917465
 30
0.0
 10
6.0742578484
 20
7.2002947946
 30
0.0
 10
6.0772932313
 20
7.1826295177
 30
0.0
 10
6.0805058894
 20
7.1655144985
 30
0.0
 10
6.0838924914
 20
7.148967729
 30
0.0
 10
6.0874493889
 20
7.1330065933
 30
0.0
 10
6.0911728483
 20
7.1176478485
 30
0.0
 10
6.0950589151
 20
7.1029076017
 30
0.0
 10
6.0991034618
 20
7.0888012903
 30
0.0
 10
6.1033022605
 20
7.0753436702
 30
0.0
 10
6.1076508136
 20
7.0625487739
 30
0.0
 10
6.1121446535
 20
7.0504299337
 30
0.0
 10
6.1167789629
 20
7.0389996919
 30
0.0
 10
6.1215490738
 20
7.0282698879
 30
0.0
 10
6.1264499498
 20
7.0182514881
 30
0.0
 10
6.1314767638
 20
7.0089548052
 30
0.0
 10
6.1366245057
 20
7.0003890773
 30
0.0
 10
6.1418880266
 20
6.9925634412
 30
0.0
 10
6.145578781
 20
6.9877029599
 30
0.0
 10
6.147445257
 20
6.9854080466
 30
0.0
  0
SPLINE
  5
35E
100
AcDbEntity
  8
0
100
AcDbSpline
 62
7
  6
CONTINUOUS
 70
0
 71
3
 72
18
 73
14
 74
0
 42
0.0000001
 43
0.0000001
 44
0.0000000001
 40
0.0
 40
0.0
 40
0.0
 40
0.0
 40
0.1504655604
 40
0.2917104522
 40
0.4244369587
 40
0.5495624319
 40
0.6682139564
 40
0.7255497878
 40
0.7817912235
 40
0.8371401983
 40
0.8918093099
 40
0.9460200145
 40
1.0
 40
1.0
 40
1.0
 40
1.0
 10
12.9396919596
 20
10.147442299
 30
0.0
 10
12.9418122782
 20
10.1494903696
 30
0.0
 10
12.9460499897
 20
10.1533331112
 30
0.0
 10
12.9526120044
 20
10.1584542837
 30
0.0
 10
12.959166373
 20
10.1627373317
 30
0.0
 10
12.9657062105
 20
10.1661752276
 30
0.0
 10
12.971202851
 20
10.1683552359
 30
0.0
 10
12.9755669538
 20
10.1696504628
 30
0.0
 10
12.9787935565
 20
10.1703969492
 30
0.0
 10
12.9820094348
 20
10.1709290356
 30
0.0
 10
12.9852137128
 20
10.1712464508
 30
0.0
 10
12.988405112
 20
10.1713489622
 30
0.0
 10
12.9905253819
 20
10.171273944
 30
0.0
 10
12.9915804298
 20
10.1712007716
 30
0.0
  0
SPLINE
  5
35F
100
AcDbEntity
  8
0
100
AcDbSpline
 62
7
  6
CONTINUOUS
 70
0
 71
3
 72
48
 73
44
 74
0
 42
0.0000001
 43
0.0000001
 44
0.0000000001
 40
0.0
 40
0.0
 40
0.0
 40
0.0
 40
0.0378128049
 40
0.0760191634
 40
0.114531669
 40
0.1532646687
 40
0.1921303453
 40
0.2310410956
 40
0.2699090056
 40
0.3086463241
 40
0.347165672
 40
0.3853802961
 40
0.4232043248
 40
0.4605530193
 40
0.4973430301
 40
0.5334926606
 40
0.5689221386
 40
0.6035538838
 40
0.6373127868
 40
0.6701265016
 40
0.701925756
 40
0.7326446872
 40
0.7622212211
 40
0.7905974793
 40
0.817720246
 40
0.8307966593
 40
0.8435421524
 40
0.8559516716
 40
0.8680205801
 40
0.8797446401
 40
0.891120199
 40
0.9021440122
 40
0.9128135202
 40
0.9231267123
 40
0.933082304
 40
0.9426798185
 40
0.9519195308
 40
0.9608027428
 40
0.9693317176
 40
0.9775101859
 40
0.9853432874
 40
0.9928373451
 40
1.0
 40
1.0
 40
1.0
 40
1.0
 10
12.2703864613
 20
8.7764983816
 30
0.0
 10
12.2703864613
 20
8.7884227552
 30
0.0
 10
12.2705449566
 20
8.8123958866
 30
0.0
 10
12.2712474269
 20
8.8485078581
 30
0.0
 10
12.2724144435
 20
8.8848981819
 30
0.0
 10
12.2740431328
 20
8.9214788584
 30
0.0
 10
12.2761296424
 20
8.9581620656
 30
0.0
 10
12.2786689261
 20
8.9948593556
 30
0.0
 10
12.2816548847
 20
9.0314823952
 30
0.0
 10
12.2850803175
 20
9.0679429841
 30
0.0
 10
12.2889369613
 20
9.1041533276
 30
0.0
 10
12.2932155102
 20
9.140026236
 30
0.0
 10
12.2979056367
 20
9.1754753356
 30
0.0
 10
12.3029960174
 20
9.2104152774
 30
0.0
 10
12.3084743591
 20
9.2447619437
 30
0.0
 10
12.3143274274
 20
9.278432655
 30
0.0
 10
12.3205410714
 20
9.311346374
 30
0.0
 10
12.3271002661
 20
9.3434239021
 30
0.0
 10
12.3339891464
 20
9.3745880711
 30
0.0
 10
12.3411910456
 20
9.4047639309
 30
0.0
 10
12.3486885336
 20
9.4338789411
 30
0.0
 10
12.3564634629
 20
9.461863135
 30
0.0
 10
12.3644970014
 20
9.4886493807
 30
0.0
 10
12.3727696946
 20
9.5141732815
 30
0.0
 10
12.3799306211
 20
9.5345814163
 30
0.0
 10
12.3857738238
 20
9.5502222851
 30
0.0
 10
12.3901501165
 20
9.5614568166
 30
0.0
 10
12.3945710487
 20
9.5723316505
 30
0.0
 10
12.3990339583
 20
9.5828402762
 30
0.0
 10
12.4035362107
 20
9.5929763715
 30
0.0
 10
12.4080750144
 20
9.6027338838
 30
0.0
 10
12.4126477283
 20
9.6121069437
 30
0.0
 10
12.4172515315
 20
9.621089964
 30
0.0
 10
12.4218836982
 20
9.629677568
 30
0.0
 10
12.4265414677
 20
9.6378646305
 30
0.0
 10
12.4312220126
 20
9.6456463014
 30
0.0
 10
12.4359226335
 20
9.6530179063
 30
0.0
 10
12.4406404163
 20
9.6599751066
 30
0.0
 10
12.4453726805
 20
9.6665137614
 30
0.0
 10
12.4501166637
 20
9.6726300852
 30
0.0
 10
12.4548697345
 20
9.6783205264
 30
0.0
 10
12.4596288811
 20
9.6835814005
 30
0.0
 10
12.4628759592
 20
9.6868733826
 30
0.0
 10
12.464500585
 20
9.6884426507
 30
0.0
  0
SPLINE
  5
360
100
AcDbEntity
  8
0
100
AcDbSpline
 62
7
  6
CONTINUOUS
 70
0
 71
3
 72
23
 73
19
 74
0
 42
0.0000001
 43
0.0000001
 44
0.0000000001
 40
0.0
 40
0.0
 40
0.0
 40
0.0
 40
0.0637751697
 40
0.127345371
 40
0.1907022537
 40
0.2538558573
 40
0.3168132315
 40
0.3795821093
 40
0.4421733555
 40
0.5045993354
 40
0.5668738704
 40
0.6290123786
 40
0.6910316578
 40
0.7529496568
 40
0.8147853611
 40
0.8765586146
 40
0.9382898649
 40
1.0
 40
1.0
 40
1.0
 40
1.0
 10
9.847289883
 20
8.9069885267
 30
0.0
 10
9.847289883
 20
8.9108455672
 30
0.0
 10
9.8474745515
 20
8.918548557
 30
0.0
 10
9.8483077491
 20
8.930056163
 30
0.0
 10
9.8496951514
 20
8.9414726296
 30
0.0
 10
9.8516334403
 20
8.9527709387
 30
0.0
 10
9.8541180859
 20
8.9639254307
 30
0.0
 10
9.8571435251
 20
8.9749103102
 30
0.0
 10
9.8607027872
 20
8.9857002171
 30
0.0
 10
9.8647875934
 20
8.9962703248
 30
0.0
 10
9.8693886635
 20
9.0065962139
 30
0.0
 10
9.8744953675
 20
9.0166540755
 30
0.0
 10
9.8800958852
 20
9.0264207452
 30
0.0
 10
9.8861774336
 20
9.0358736319
 30
0.0
 10
9.8927258995
 20
9.044990952
 30
0.0
 10
9.8997262501
 20
9.0537517626
 30
0.0
 10
9.9071621654
 20
9.0621354938
 30
0.0
 10
9.9123992877
 20
9.0674614286
 30
0.0
 10
9.9150836447
 20
9.0700543362
 30
0.0
  0
SPLINE
  5
361
100
AcDbEntity
  8
0
100
AcDbSpline
 62
7
  6
CONTINUOUS
 70
0
 71
3
 72
21
 73
17
 74
0
 42
0.0000001
 43
0.0000001
 44
0.0000000001
 40
0.0
 40
0.0
 40
0.0
 40
0.0
 40
0.1273176253
 40
0.2537997538
 40
0.3167617031
 40
0.3795356349
 40
0.4421315552
 40
0.5045621127
 40
0.5668413504
 40
0.6289845238
 40
0.6910084429
 40
0.7529310808
 40
0.8147714271
 40
0.8765493234
 40
0.9382852026
 40
1.0
 40
1.0
 40
1.0
 40
1.0
 10
9.0880722362
 20
6.9060819759
 30
0.0
 10
9.0880722362
 20
6.9100857659
 30
0.0
 10
9.0884544185
 20
6.9180722266
 30
0.0
 10
9.0898978576
 20
6.9279452119
 30
0.0
 10
9.0916230653
 20
6.9356897155
 30
0.0
 10
9.0931963688
 20
6.9414020655
 30
0.0
 10
9.0950472304
 20
6.9470129204
 30
0.0
 10
9.0971714769
 20
6.9525094599
 30
0.0
 10
9.0995640828
 20
6.9578790358
 30
0.0
 10
9.1022197206
 20
6.9631091915
 30
0.0
 10
9.1051320847
 20
6.9681879512
 30
0.0
 10
9.1082946509
 20
6.9731034992
 30
0.0
 10
9.1116999609
 20
6.977844585
 30
0.0
 10
9.1153403286
 20
6.982400221
 30
0.0
 10
9.1192071303
 20
6.9867598208
 30
0.0
 10
9.1219305655
 20
6.9895292972
 30
0.0
 10
9.1233264744
 20
6.9908776264
 30
0.0
  0
ENDSEC
  0
SECTION
  2
OBJECTS
  0
DICTIONARY
  5
C
100
AcDbDictionary
280
0
281
1
  3
ACAD_GROUP
350
D
  3
ACAD_MLINESTYLE
350
17
  3
ACAD_LAYOUT
350
1A
  3
ACAD_PLOTSETTINGS
350
19
  3
ACAD_PLOTSTYLENAME
350
E
  3
ACAD_IMAGE_DICT
350
       363
  3
ACAD_IMAGE_VARS
350
       364
  3
ACAD_TABLESTYLE
350
       365
  0
IMAGEDEF_REACTOR
  5
362
100
AcDbRasterImageDefReactor
 90
2
330
267
  0
DICTIONARY
  5
D
102
{ACAD_REACTORS
330
C
102
}
100
AcDbDictionary
280
0
281
1
  0
ACDBDICTIONARYWDFLT
  5
E
102
{ACAD_REACTORS
330
C
102
}
100
AcDbDictionary
281
1
  3
Normal
350
F
100
AcDbDictionaryWithDefault
340
F
  0
DICTIONARY
  5
363
330
C
100
AcDbDictionary
281
1
  3
FB2_assy_2_img_1
350
       368
  0
RASTERVARIABLES
  5
364
330
C
100
AcDbRasterVariables
 90
0
 70
0
 71
1
 72
5
  0
DICTIONARY
  5
17
102
{ACAD_REACTORS
330
C
102
}
100
AcDbDictionary
280
0
281
1
  3
Standard
350
18
  0
DICTIONARY
  5
365
330
C
100
AcDbDictionary
281
1
  3
Standard
350
       369
  3
Standard1
350
       36A
  0
DICTIONARY
  5
19
102
{ACAD_REACTORS
330
C
102
}
100
AcDbDictionary
281
1
  0
DICTIONARY
  5
1A
102
{ACAD_REACTORS
330
C
102
}
100
AcDbDictionary
281
1
  3
Model
350
366
  3
Layout1
350
367
  0
ACDBPLACEHOLDER
  5
F
102
{ACAD_REACTORS
330
E
102
}
  0
MLINESTYLE
  5
18
102
{ACAD_REACTORS
330
17
102
}
100
AcDbMlineStyle
  2
STANDARD
 70
0
  3

 62
256
 51
90.0
 52
90.0
 71
2
 49
0.5
 62
256
  6
BYLAYER
 49
-0.5
 62
256
  6
BYLAYER
  0
LAYOUT
  5
366
102
{ACAD_REACTORS
330
1A
102
}
100
AcDbPlotSettings
  1

  2
none_device
  4
ANSI_C_(22.00_x_17.00_Inches)
  6

 40
0.0
 41
0.0
 42
0.0
 43
0.0
 44
558.8
 45
431.8
 46
0.0
 47
0.0
 48
0.0
 49
0.0
140
0.0
141
0.0
142
1.0
143
1.0
 70
1024
 72
0
 73
0
 74
0
  7

 75
0
147
1.0
148
0.0
149
0.0
100
AcDbLayout
  1
Model
 70
0
 71
0
 10
0.0
 20
0.0
 11
22.0
 21
17.0
 12
0.0
 22
0.0
 32
0.0
 14
0.0
 24
0.0
 34
0.0
 15
0.0
 25
0.0
 35
0.0
146
0.0
 13
0.0
 23
0.0
 33
0.0
 16
1.0
 26
0.0
 36
0.0
 17
0.0
 27
1.0
 37
0.0
 76
0
330
204
345
0
346
0
  0
LAYOUT
  5
367
102
{ACAD_REACTORS
330
1A
102
}
100
AcDbPlotSettings
  1

  2
none_device
  4
ANSI_C_(22.00_x_17.00_Inches)
  6

 40
0.0
 41
0.0
 42
0.0
 43
0.0
 44
558.8
 45
431.8
 46
0.0
 47
0.0
 48
0.0
 49
0.0
140
0.0
141
0.0
142
1.0
143
1.0
 70
0
 72
0
 73
0
 74
0
  7

 75
0
147
1.0
148
0.0
149
0.0
100
AcDbLayout
  1
Layout1
 70
0
 71
1
 10
0.0
 20
0.0
 11
22.0
 21
17.0
 12
0.0
 22
0.0
 32
0.0
 14
0.0
 24
0.0
 34
0.0
 15
0.0
 25
0.0
 35
0.0
146
0.0
 13
0.0
 23
0.0
 33
0.0
 16
1.0
 26
0.0
 36
0.0
 17
0.0
 27
1.0
 37
0.0
 76
0
330
205
345
0
346
0
  0
IMAGEDEF
  5
368
102
{ACAD_REACTORS
330
363
330
362
102
}
100
AcDbRasterImageDef
 90
0
  1
FB2_assy_2_img_1.png
 10
369.0
 20
92.0
 11
0.0066666667
 21
0.0066666667
280
1
281
0
  0
TABLESTYLE
  5
369
102
{ACAD_REACTORS
330
365
330
26A
102
}
330
365
100
AcDbTableStyle
  3
Standard
 70
0
 71
0
 40
0.06
 41
0.06
280
1
281
1
  7
Standard
140
0.18
170
1
 62
0
 63
7
283
0
  7
Standard
140
0.18
170
1
 62
0
 63
7
283
0
  7
Standard
140
0.18
170
1
 62
0
 63
7
283
0
  0
TABLESTYLE
  5
36A
102
{ACAD_REACTORS
330
365
330
269
102
}
330
365
100
AcDbTableStyle
  3
Standard1
 70
1
 71
0
 40
0.06
 41
0.06
280
1
281
1
  7
Standard
140
0.18
170
1
 62
0
 63
7
283
0
  7
Standard
140
0.18
170
1
 62
0
 63
7
283
0
  7
Standard
140
0.18
170
1
 62
0
 63
7
283
0
  0
ENDSEC
  0
EOF
