999
DXF file: FAW_assy_2.dxf
999
Pro/ENGINEER 2014200 by Parametric Technology Corporation
  0
SECTION
  2
HEADER
  9
$ACADVER
  1
AC1021
  9
$DWGCODEPAGE
  3
ANSI_1252
  9
$EXTMAX
 10
22.0
 20
17.0
 30
0.0
  9
$EXTMIN
 10
0.0
 20
0.0
 30
0.0
  9
$LIMMIN
 10
0.0
 20
0.0
  9
$LIMMAX
 10
22.0
 20
17.0
  9
$VIEWCTR
 10
11.0
 20
8.5
  9
$VIEWSIZE
 40
17.0
  9
$CLAYER
  8
0
  9
$LTSCALE
 40
1.21
  9
$CELTYPE
  6
BYLAYER
  9
$DIMSCALE
 40
1.0
  9
$DIMASZ
 40
0.1875
  9
$DIMEXO
 40
0.0625
  9
$DIMDLI
 40
0.836
  9
$DIMEXE
 40
0.125
  9
$DIMCEN
 40
0.198
  9
$DIMLFAC
 40
1.0
  9
$DIMBLK
  1
_FILLED
  9
$DIMTXT
 40
0.1
  9
$DIMTOL
 70
0
  9
$DIMLIM
 70
0
  9
$DIMTFAC
 40
1.0
  9
$DIMGAP
 40
0.09
  9
$DIMDSEP
 70
46
  9
$AUNITS
 70
0
  9
$PDMODE
 70
3
  9
$PDSIZE
 40
0.3125
  9
$HANDSEED
  5
334
  9
$TILEMODE
 70
1
  9
$MEASUREMENT
 70
0
  9
$INSUNITS
 70
1
  0
ENDSEC
  0
SECTION
  2
CLASSES
  0
CLASS
  1
ACDBDICTIONARYWDFLT
  2
AcDbDictionaryWithDefault
  3
AutoCAD 2000
 90
0
 91
1
280
0
281
0
  0
CLASS
  1
ACDBPLACEHOLDER
  2
AcDbPlaceHolder
  3
AutoCAD 2000
 90
0
 91
1
280
0
281
0
  0
CLASS
  1
LAYOUT
  2
AcDbLayout
  3
AutoCAD 2000
 90
0
 91
0
280
0
281
0
  0
CLASS
  1
RASTERVARIABLES
  2
AcDbRasterVariables
  3
ISM
 90
0
 91
1
280
0
281
0
  0
CLASS
  1
IMAGEDEF
  2
AcDbRasterImageDef
  3
ISM
 90
0
 91
1
280
0
281
0
  0
CLASS
  1
IMAGEDEF_REACTOR
  2
AcDbRasterImageDefReactor
  3
ISM
 90
0
 91
1
280
0
281
0
  0
CLASS
  1
IMAGE
  2
AcDbRasterImage
  3
ISM
 90
127
 91
1
280
0
281
1
  0
CLASS
  1
TABLESTYLE
  2
AcDbTableStyle
  3
ObjectDBX Classes
 90
2047
 91
1
280
0
281
0
  0
CLASS
  1
ACAD_TABLE
  2
AcDbTable
  3
ObjectDBX Classes
 90
1025
 91
3
280
0
281
1
  0
ENDSEC
  0
SECTION
  2
TABLES
  0
TABLE
  2
VPORT
  5
8
100
AcDbSymbolTable
 70
2
  0
VPORT
  5
1F4
100
AcDbSymbolTableRecord
100
AcDbViewportTableRecord
  2
*ACTIVE
 70
0
 10
0.0
 20
0.0
 11
1.0
 21
1.0
 12
11.0
 22
8.5
 13
0.0
 23
0.0
 14
1.0
 24
1.0
 15
0.0
 25
0.0
 16
0.0
 26
0.0
 36
1.0
 17
0.0
 27
0.0
 37
0.0
 40
17.0
 41
1.2941176471
 42
50.0
 43
0.0
 44
0.0
 50
0.0
 51
0.0
 71
0
 72
100
 73
1
 74
1
 75
0
 76
0
 77
0
 78
0
  0
ENDTAB
  0
TABLE
  2
LTYPE
  5
5
100
AcDbSymbolTable
 70
6
  0
LTYPE
  5
14
100
AcDbSymbolTableRecord
100
AcDbLinetypeTableRecord
  2
BYBLOCK
 70
0
  3

 72
65
 73
0
 40
0.0
  0
LTYPE
  5
15
100
AcDbSymbolTableRecord
100
AcDbLinetypeTableRecord
  2
BYLAYER
 70
0
  3

 72
65
 73
0
 40
0.0
  0
LTYPE
  5
16
100
AcDbSymbolTableRecord
100
AcDbLinetypeTableRecord
  2
CONTINUOUS
 70
64
  3
Solid line
 72
65
 73
0
 40
0.0
  0
LTYPE
  5
1F5
100
AcDbSymbolTableRecord
100
AcDbLinetypeTableRecord
  2
CENTER
 70
64
  3
____ _ ____ _ ____ _ ____ _ ____ _ ____ _ ____
 72
65
 73
4
 40
0.6
 49
0.375
 74
0
 49
-0.075
 74
0
 49
0.075
 74
0
 49
-0.075
 74
0
  0
LTYPE
  5
1F6
100
AcDbSymbolTableRecord
100
AcDbLinetypeTableRecord
  2
HIDDEN
 70
64
  3
- - - - - - - - - - - - - - - - - - - -
 72
65
 73
2
 40
0.2
 49
0.1
 74
0
 49
-0.1
 74
0
  0
LTYPE
  5
1F7
100
AcDbSymbolTableRecord
100
AcDbLinetypeTableRecord
  2
PHANTOM
 70
64
  3
_____ _ _ _____ _ _ _____ _ _ _____
 72
65
 73
6
 40
0.8
 49
0.45
 74
0
 49
-0.05
 74
0
 49
0.1
 74
0
 49
-0.05
 74
0
 49
0.1
 74
0
 49
-0.05
 74
0
  0
LTYPE
  5
1F8
100
AcDbSymbolTableRecord
100
AcDbLinetypeTableRecord
  2
DOT
 70
64
  3
. . . . . . . . . . . . . . . . . . . .
 72
65
 73
2
 40
0.2
 49
0.1
 74
0
 49
-0.1
 74
0
  0
LTYPE
  5
1F9
100
AcDbSymbolTableRecord
100
AcDbLinetypeTableRecord
  2
DASHED
 70
64
  3
- - - - - - - - - - - - - - - - - - - -
 72
65
 73
2
 40
0.2
 49
0.1
 74
0
 49
-0.1
 74
0
  0
ENDTAB
  0
TABLE
  2
LAYER
  5
2
100
AcDbSymbolTable
 70
36
  0
LAYER
  5
10
100
AcDbSymbolTableRecord
100
AcDbLayerTableRecord
  2
0
 70
0
 62
7
  6
CONTINUOUS
370
-3
390
F
  0
LAYER
  5
1FA
100
AcDbSymbolTableRecord
100
AcDbLayerTableRecord
  2
DEFAULT_1
 70
0
 62
7
  6
CENTER
370
-3
390
F
  0
LAYER
  5
1FB
100
AcDbSymbolTableRecord
100
AcDbLayerTableRecord
  2
DEFAULT_2
 70
0
 62
8
  6
HIDDEN
370
-3
390
F
  0
LAYER
  5
1FC
100
AcDbSymbolTableRecord
100
AcDbLayerTableRecord
  2
DEFAULT_3
 70
0
 62
7
  6
PHANTOM
370
-3
390
F
  0
LAYER
  5
1FD
100
AcDbSymbolTableRecord
100
AcDbLayerTableRecord
  2
DATUM_PLANES
 70
0
 62
7
  6
CONTINUOUS
370
-3
390
F
  0
LAYER
  5
1FE
100
AcDbSymbolTableRecord
100
AcDbLayerTableRecord
  2
PORT_AREAS
 70
0
 62
7
  6
CONTINUOUS
370
-3
390
F
  0
LAYER
  5
1FF
100
AcDbSymbolTableRecord
100
AcDbLayerTableRecord
  2
SUNNBOMCOSMETIC
 70
0
 62
7
  6
CONTINUOUS
370
-3
390
F
  0
LAYER
  5
200
100
AcDbSymbolTableRecord
100
AcDbLayerTableRecord
  2
SUNNBOMSTAMPING
 70
0
 62
7
  6
CONTINUOUS
370
-3
390
F
  0
LAYER
  5
201
100
AcDbSymbolTableRecord
100
AcDbLayerTableRecord
  2
THREADS
 70
0
 62
7
  6
CONTINUOUS
370
-3
390
F
  0
ENDTAB
  0
TABLE
  2
STYLE
  5
3
100
AcDbSymbolTable
 70
1
  0
STYLE
  5
11
100
AcDbSymbolTableRecord
100
AcDbTextStyleTableRecord
  2
STANDARD
 70
0
 40
0.0
 41
0.8
 50
0.0
 71
0
 42
0.2
  3
txt
  4

  0
STYLE
  5
202
100
AcDbSymbolTableRecord
100
AcDbTextStyleTableRecord
  2
TEXTSTYLE_1
 70
0
 40
0.0
 41
0.8
 50
0.0
 71
0
 42
0.2
  3
gdt
  4

  0
ENDTAB
  0
TABLE
  2
VIEW
  5
6
100
AcDbSymbolTable
 70
0
  0
ENDTAB
  0
TABLE
  2
UCS
  5
7
100
AcDbSymbolTable
 70
0
  0
ENDTAB
  0
TABLE
  2
APPID
  5
9
100
AcDbSymbolTable
 70
1
  0
APPID
  5
203
100
AcDbSymbolTableRecord
100
AcDbRegAppTableRecord
  2
ACAD
 70
0
  0
ENDTAB
  0
TABLE
  2
BLOCK_RECORD
  5
1
100
AcDbSymbolTable
 70
0
  0
BLOCK_RECORD
  5
204
100
AcDbSymbolTableRecord
100
AcDbBlockTableRecord
  2
*Model_Space
  0
BLOCK_RECORD
  5
205
100
AcDbSymbolTableRecord
100
AcDbBlockTableRecord
  2
*Paper_Space
  0
BLOCK_RECORD
  5
206
100
AcDbSymbolTableRecord
100
AcDbBlockTableRecord
  2
SUN_FIRST_THIRD_ANGLE_BL0
  0
BLOCK_RECORD
  5
207
100
AcDbSymbolTableRecord
100
AcDbBlockTableRecord
  2
*T1
  0
BLOCK_RECORD
  5
208
100
AcDbSymbolTableRecord
100
AcDbBlockTableRecord
  2
*T2
  0
BLOCK_RECORD
  5
209
100
AcDbSymbolTableRecord
100
AcDbBlockTableRecord
  2
*T3
  0
ENDTAB
  0
TABLE
  2
DIMSTYLE
  5
A
100
AcDbSymbolTable
 70
1
100
AcDbDimStyleTable
 71
0
  0
DIMSTYLE
105
20A
100
AcDbSymbolTableRecord
100
AcDbDimStyleTableRecord
  2
STANDARD
 70
0
  3

  4

 40
1.0
 41
0.1875
 42
0.0625
 43
0.38
 44
0.125
 45
0.0
 46
0.0
 47
0.001
 48
0.001
140
0.1
141
0.09
142
0.0
143
25.4
144
1.0
145
0.0
146
1.0
147
0.09
 71
0.0
 72
0.0
 73
1
 74
1
 75
0
 76
0
 77
0
 78
4
170
0
171
2
172
0
173
0
174
0
175
0
176
0
177
0
178
0
270
2
271
3
272
3
273
2
274
2
275
0
280
0
281
0
282
0
283
1
284
4
285
0
286
0
287
3
288
0
340
11
278
46
  0
ENDTAB
  0
ENDSEC
  0
SECTION
  2
BLOCKS
  0
BLOCK
  5
20
100
AcDbEntity
  8
0
100
AcDbBlockBegin
  2
*Model_Space
 70
0
 10
0.0
 20
0.0
 30
0.0
  3
*Model_Space
  1

  0
ENDBLK
  5
21
100
AcDbEntity
  8
0
100
AcDbBlockEnd
  0
BLOCK
  5
1C
100
AcDbEntity
  8
0
100
AcDbBlockBegin
  2
*Paper_Space
 70
0
 10
0.0
 20
0.0
 30
0.0
  3
*Paper_Space
  1

  0
ENDBLK
  5
1D
100
AcDbEntity
  8
0
100
AcDbBlockEnd
  0
BLOCK
  5
20B
100
AcDbEntity
  8
0
100
AcDbBlockBegin
 62
2
  6
CONTINUOUS
  2
SUN_FIRST_THIRD_ANGLE_BL0
 70
64
 10
20.4816717061
 20
1.2289683772
  3
SUN_FIRST_THIRD_ANGLE_BL0
  1

  0
TEXT
  5
20C
100
AcDbEntity
  8
0
100
AcDbText
 62
2
  6
CONTINUOUS
 10
19.4750896608
 20
1.4136269581
  7
STANDARD
 40
0.08
  1
FIRST ANGLE
 41
0.8
 72
0
100
AcDbText
  0
TEXT
  5
20D
100
AcDbEntity
  8
0
100
AcDbText
 62
2
  6
CONTINUOUS
 10
20.7842537513
 20
1.4047600029
  7
STANDARD
 40
0.08
  1
THIRD ANGLE
 41
0.8
 72
0
100
AcDbText
  0
LINE
  5
20E
100
AcDbEntity
  8
0
100
AcDbLine
 62
7
  6
CONTINUOUS
 10
19.4767170086
 20
1.1727031207
 11
19.6334271527
 21
1.1717972817
  0
LINE
  5
20F
100
AcDbEntity
  8
0
100
AcDbLine
 62
7
  6
CONTINUOUS
 10
19.6596964832
 20
1.1717972817
 11
19.6950230232
 21
1.171593082
  0
LINE
  5
210
100
AcDbEntity
  8
0
100
AcDbLine
 62
7
  6
CONTINUOUS
 10
19.7194818561
 20
1.1708914427
 11
19.8852396156
 21
1.1699333054
  0
LINE
  5
211
100
AcDbEntity
  8
0
100
AcDbLine
 62
7
  6
CONTINUOUS
 10
19.4758111696
 20
1.2723454088
 11
19.88525039
 21
1.3511534004
  0
LINE
  5
212
100
AcDbEntity
  8
0
100
AcDbLine
 62
7
  6
CONTINUOUS
 10
19.88525039
 20
1.3511534004
 11
19.8831348489
 21
0.9851647912
  0
LINE
  5
213
100
AcDbEntity
  8
0
100
AcDbLine
 62
7
  6
CONTINUOUS
 10
19.8831348489
 20
0.9851647912
 11
19.4767170086
 21
1.0658141206
  0
LINE
  5
214
100
AcDbEntity
  8
0
100
AcDbLine
 62
7
  6
CONTINUOUS
 10
19.4767170086
 20
1.0658141206
 11
19.4779056764
 21
1.2714536432
  0
CIRCLE
  5
215
100
AcDbEntity
  8
0
100
AcDbCircle
 62
7
  6
CONTINUOUS
 10
20.2068232291
 20
1.1717972817
 40
0.175742101
  0
CIRCLE
  5
216
100
AcDbEntity
  8
0
100
AcDbCircle
 62
7
  6
CONTINUOUS
 10
20.2068232291
 20
1.1717972817
 40
0.1005522074
  0
LINE
  5
217
100
AcDbEntity
  8
0
100
AcDbLine
 62
7
  6
CONTINUOUS
 10
20.2077290681
 20
1.3756110529
 11
20.2071171714
 21
1.2379342989
  0
LINE
  5
218
100
AcDbEntity
  8
0
100
AcDbLine
 62
7
  6
CONTINUOUS
 10
20.2077290681
 20
1.2016899681
 11
20.2074674401
 21
1.1428236749
  0
LINE
  5
219
100
AcDbEntity
  8
0
100
AcDbLine
 62
7
  6
CONTINUOUS
 10
20.208634907
 20
1.101141841
 11
20.2080230104
 21
0.963465087
  0
LINE
  5
21A
100
AcDbEntity
  8
0
100
AcDbLine
 62
7
  6
CONTINUOUS
 10
20.0066328138
 20
1.1745147986
 11
20.1443095678
 21
1.1739029019
  0
LINE
  5
21B
100
AcDbEntity
  8
0
100
AcDbLine
 62
7
  6
CONTINUOUS
 10
20.1832714155
 20
1.1727031207
 11
20.238153505
 21
1.172335442
  0
LINE
  5
21C
100
AcDbEntity
  8
0
100
AcDbLine
 62
7
  6
CONTINUOUS
 10
20.2756669918
 20
1.1717972817
 11
20.407916871
 21
1.1712095044
  0
CIRCLE
  5
21D
100
AcDbEntity
  8
0
100
AcDbCircle
 62
7
  6
CONTINUOUS
 10
20.7509457401
 20
1.1693297793
 40
0.1722024983
  0
CIRCLE
  5
21E
100
AcDbEntity
  8
0
100
AcDbCircle
 62
7
  6
CONTINUOUS
 10
20.7509457401
 20
1.1693297793
 40
0.0985164967
  0
LINE
  5
21F
100
AcDbEntity
  8
0
100
AcDbLine
 62
7
  6
CONTINUOUS
 10
20.7169767782
 20
1.170462078
 11
20.7825395137
 21
1.1682766535
  0
LINE
  5
220
100
AcDbEntity
  8
0
100
AcDbLine
 62
7
  6
CONTINUOUS
 10
20.8177513651
 20
1.1693297793
 11
20.947965719
 21
1.1693297793
  0
LINE
  5
221
100
AcDbEntity
  8
0
100
AcDbLine
 62
7
  6
CONTINUOUS
 10
20.6875370113
 20
1.170462078
 11
20.5573226574
 21
1.170462078
  0
LINE
  5
222
100
AcDbEntity
  8
0
100
AcDbLine
 62
7
  6
CONTINUOUS
 10
20.7486811426
 20
1.1987695462
 11
20.7486811426
 21
1.1432869085
  0
LINE
  5
223
100
AcDbEntity
  8
0
100
AcDbLine
 62
7
  6
CONTINUOUS
 10
20.7498134414
 20
1.1059210505
 11
20.7498134414
 21
0.9757066966
  0
LINE
  5
224
100
AcDbEntity
  8
0
100
AcDbLine
 62
7
  6
CONTINUOUS
 10
20.7486811426
 20
1.2338708068
 11
20.7486811426
 21
1.3640851607
  0
LINE
  5
225
100
AcDbEntity
  8
0
100
AcDbLine
 62
7
  6
CONTINUOUS
 10
21.0702539817
 20
1.2701043662
 11
21.4790138229
 21
1.3448360823
  0
LINE
  5
226
100
AcDbEntity
  8
0
100
AcDbLine
 62
7
  6
CONTINUOUS
 10
21.4790138229
 20
1.3448360823
 11
21.4790138229
 21
0.9779712941
  0
LINE
  5
227
100
AcDbEntity
  8
0
100
AcDbLine
 62
7
  6
CONTINUOUS
 10
21.4790138229
 20
0.9779712941
 11
21.069121683
 21
1.0617614
  0
LINE
  5
228
100
AcDbEntity
  8
0
100
AcDbLine
 62
7
  6
CONTINUOUS
 10
21.0702539817
 20
1.2701043662
 11
21.069121683
 21
1.0617614
  0
LINE
  5
229
100
AcDbEntity
  8
0
100
AcDbLine
 62
7
  6
CONTINUOUS
 10
21.4790138229
 20
1.1693297793
 11
21.3159628059
 21
1.1693297793
  0
LINE
  5
22A
100
AcDbEntity
  8
0
100
AcDbLine
 62
7
  6
CONTINUOUS
 10
21.2876553377
 20
1.1693297793
 11
21.2502894796
 21
1.1693297793
  0
LINE
  5
22B
100
AcDbEntity
  8
0
100
AcDbLine
 62
7
  6
CONTINUOUS
 10
21.2208497126
 20
1.1659328831
 11
21.0713862804
 21
1.1659328831
  0
LINE
  5
22C
100
AcDbEntity
  8
0
100
AcDbLine
 62
7
  6
CONTINUOUS
 10
20.4796138713
 20
1.5284908897
 11
20.4766766948
 21
0.9294458646
  0
ENDBLK
  5
22D
100
AcDbEntity
  8
0
  6
BYBLOCK
 62
0
100
AcDbBlockEnd
  0
BLOCK
  5
22E
100
AcDbEntity
  8
0
100
AcDbBlockBegin
  2
*T1
 70
1
 10
0.0
 20
0.0
  3
*T1
  1

  0
LINE
  5
22F
100
AcDbEntity
  8
0
100
AcDbLine
 62
2
  6
CONTINUOUS
 10
9.275
 20
0.0
 11
-0.0
 21
0.0
  0
LINE
  5
230
100
AcDbEntity
  8
0
100
AcDbLine
 62
2
  6
CONTINUOUS
 10
9.275
 20
0.0
 11
9.275
 21
1.25
  0
LINE
  5
231
100
AcDbEntity
  8
0
100
AcDbLine
 62
2
  6
CONTINUOUS
 10
9.275
 20
0.625
 11
-0.0
 21
0.625
  0
LINE
  5
232
100
AcDbEntity
  8
0
100
AcDbLine
 62
2
  6
CONTINUOUS
 10
9.275
 20
1.25
 11
-0.0
 21
1.25
  0
LINE
  5
233
100
AcDbEntity
  8
0
100
AcDbLine
 62
2
  6
CONTINUOUS
 10
6.8
 20
0.0
 11
6.8
 21
1.25
  0
LINE
  5
234
100
AcDbEntity
  8
0
100
AcDbLine
 62
2
  6
CONTINUOUS
 10
6.4
 20
0.0
 11
6.4
 21
0.625
  0
LINE
  5
235
100
AcDbEntity
  8
0
100
AcDbLine
 62
2
  6
CONTINUOUS
 10
5.9
 20
0.0
 11
5.9
 21
0.625
  0
LINE
  5
236
100
AcDbEntity
  8
0
100
AcDbLine
 62
2
  6
CONTINUOUS
 10
5.2
 20
0.0
 11
5.2
 21
0.625
  0
LINE
  5
237
100
AcDbEntity
  8
0
100
AcDbLine
 62
2
  6
CONTINUOUS
 10
4.1
 20
0.0
 11
4.1
 21
1.25
  0
LINE
  5
238
100
AcDbEntity
  8
0
100
AcDbLine
 62
2
  6
CONTINUOUS
 10
-0.0
 20
0.0
 11
-0.0
 21
1.25
  0
MTEXT
  5
239
100
AcDbEntity
  8
0
100
AcDbMText
 62
2
  6
CONTINUOUS
  7
STANDARD
 71
2
 72
1
 10
6.6
 20
0.325
 30
0.0
 11
1.0
 21
0.0
 31
0.0
 44
0.9
  1
2
 40
0.125
 41
0.2
  0
MTEXT
  5
23A
100
AcDbEntity
  8
0
100
AcDbMText
 62
2
  6
CONTINUOUS
  7
STANDARD
 71
2
 72
1
 10
6.15
 20
0.325
 30
0.0
 11
1.0
 21
0.0
 31
0.0
 44
0.9
  1
C
 40
0.125
 41
0.2
  0
MTEXT
  5
23B
100
AcDbEntity
  8
0
100
AcDbMText
 62
2
  6
CONTINUOUS
  7
STANDARD
 71
2
 72
1
 10
5.55
 20
0.325
 30
0.0
 11
1.0
 21
0.0
 31
0.0
 44
0.9
  1
2.000
 40
0.125
 41
1.0
  0
MTEXT
  5
23C
100
AcDbEntity
  8
0
100
AcDbMText
 62
2
  6
CONTINUOUS
  7
STANDARD
 71
2
 72
1
 10
4.65
 20
0.325
 30
0.0
 11
1.0
 21
0.0
 31
0.0
 44
0.9
  1
Jul-11-19
 40
0.125
 41
1.8
  0
MTEXT
  5
23D
100
AcDbEntity
  8
0
100
AcDbMText
 62
2
  6
CONTINUOUS
  7
STANDARD
 71
2
 72
1
 10
2.05
 20
0.4625
 30
0.0
 11
1.0
 21
0.0
 31
0.0
 44
0.9
  1
T-10A Line mount\PNinety degree
 40
0.125
 41
3.2
  0
MTEXT
  5
23E
100
AcDbEntity
  8
0
100
AcDbMText
 62
2
  6
CONTINUOUS
  7
STANDARD
 71
1
 72
1
 10
6.45
 20
0.5625
 30
0.0
 11
1.0
 21
0.0
 31
0.0
 44
0.9
  1
SHEET
 40
0.06
 41
0.48
  0
MTEXT
  5
23F
100
AcDbEntity
  8
0
100
AcDbMText
 62
2
  6
CONTINUOUS
  7
STANDARD
 71
1
 72
1
 10
5.95
 20
0.5625
 30
0.0
 11
1.0
 21
0.0
 31
0.0
 44
0.9
  1
DWG SIZE
 40
0.06
 41
0.768
  0
MTEXT
  5
240
100
AcDbEntity
  8
0
100
AcDbMText
 62
2
  6
CONTINUOUS
  7
STANDARD
 71
1
 72
1
 10
5.25
 20
0.5625
 30
0.0
 11
1.0
 21
0.0
 31
0.0
 44
0.9
  1
SCALE
 40
0.06
 41
0.48
  0
MTEXT
  5
241
100
AcDbEntity
  8
0
100
AcDbMText
 62
2
  6
CONTINUOUS
  7
STANDARD
 71
1
 72
1
 10
4.15
 20
0.5625
 30
0.0
 11
1.0
 21
0.0
 31
0.0
 44
0.9
  1
DATE
 40
0.06
 41
0.384
  0
MTEXT
  5
242
100
AcDbEntity
  8
0
100
AcDbMText
 62
2
  6
CONTINUOUS
  7
STANDARD
 71
1
 72
1
 10
0.05
 20
0.5625
 30
0.0
 11
1.0
 21
0.0
 31
0.0
 44
0.9
  1
DESCRIPTION
 40
0.06
 41
1.056
  0
MTEXT
  5
243
100
AcDbEntity
  8
0
100
AcDbMText
 62
2
  6
CONTINUOUS
  7
STANDARD
 71
2
 72
1
 10
5.45
 20
1.0375
 30
0.0
 11
1.0
 21
0.0
 31
0.0
 44
0.9
  1
ALL DIMENSIONS IN INCH\PVIEWS ARE THIRD ANGLE
 40
0.12
 41
4.224
  0
MTEXT
  5
244
100
AcDbEntity
  8
0
100
AcDbMText
 62
2
  6
CONTINUOUS
  7
STANDARD
 71
2
 72
1
 10
2.05
 20
0.95
 30
0.0
 11
1.0
 21
0.0
 31
0.0
 44
0.9
  1
FAW
 40
0.125
 41
0.6
  0
MTEXT
  5
245
100
AcDbEntity
  8
0
100
AcDbMText
 62
2
  6
CONTINUOUS
  7
STANDARD
 71
1
 72
1
 10
0.05
 20
1.1875
 30
0.0
 11
1.0
 21
0.0
 31
0.0
 44
0.9
  1
MODEL
 40
0.06
 41
0.48
  0
ENDBLK
  5
246
100
AcDbEntity
  8
0
  6
BYBLOCK
 62
0
100
AcDbBlockEnd
  0
BLOCK
  5
247
100
AcDbEntity
  8
0
100
AcDbBlockBegin
  2
*T2
 70
1
 10
0.0
 20
0.0
  3
*T2
  1

  0
LINE
  5
248
100
AcDbEntity
  8
0
100
AcDbLine
 62
2
  6
CONTINUOUS
 10
0.0
 20
0.0
 11
9.055
 21
0.0
  0
LINE
  5
249
100
AcDbEntity
  8
0
100
AcDbLine
 62
2
  6
CONTINUOUS
 10
0.0
 20
0.0
 11
0.0
 21
-2.594
  0
LINE
  5
24A
100
AcDbEntity
  8
0
100
AcDbLine
 62
2
  6
CONTINUOUS
 10
0.0
 20
-0.344
 11
9.055
 21
-0.344
  0
LINE
  5
24B
100
AcDbEntity
  8
0
100
AcDbLine
 62
2
  6
CONTINUOUS
 10
0.0
 20
-0.594
 11
9.055
 21
-0.594
  0
LINE
  5
24C
100
AcDbEntity
  8
0
100
AcDbLine
 62
2
  6
CONTINUOUS
 10
0.0
 20
-0.844
 11
9.055
 21
-0.844
  0
LINE
  5
24D
100
AcDbEntity
  8
0
100
AcDbLine
 62
2
  6
CONTINUOUS
 10
0.0
 20
-1.094
 11
9.055
 21
-1.094
  0
LINE
  5
24E
100
AcDbEntity
  8
0
100
AcDbLine
 62
2
  6
CONTINUOUS
 10
0.0
 20
-1.344
 11
9.055
 21
-1.344
  0
LINE
  5
24F
100
AcDbEntity
  8
0
100
AcDbLine
 62
2
  6
CONTINUOUS
 10
0.0
 20
-1.594
 11
9.055
 21
-1.594
  0
LINE
  5
250
100
AcDbEntity
  8
0
100
AcDbLine
 62
2
  6
CONTINUOUS
 10
0.0
 20
-1.844
 11
9.055
 21
-1.844
  0
LINE
  5
251
100
AcDbEntity
  8
0
100
AcDbLine
 62
2
  6
CONTINUOUS
 10
0.0
 20
-2.094
 11
9.055
 21
-2.094
  0
LINE
  5
252
100
AcDbEntity
  8
0
100
AcDbLine
 62
2
  6
CONTINUOUS
 10
0.0
 20
-2.344
 11
9.055
 21
-2.344
  0
LINE
  5
253
100
AcDbEntity
  8
0
100
AcDbLine
 62
2
  6
CONTINUOUS
 10
0.0
 20
-2.594
 11
9.055
 21
-2.594
  0
LINE
  5
254
100
AcDbEntity
  8
0
100
AcDbLine
 62
2
  6
CONTINUOUS
 10
3.055
 20
0.0
 11
3.055
 21
-2.594
  0
LINE
  5
255
100
AcDbEntity
  8
0
100
AcDbLine
 62
2
  6
CONTINUOUS
 10
9.055
 20
0.0
 11
9.055
 21
-2.594
  0
MTEXT
  5
256
100
AcDbEntity
  8
0
100
AcDbMText
 62
2
  6
CONTINUOUS
  7
STANDARD
 71
2
 72
1
 10
1.5275
 20
-0.0995
 30
0.0
 11
1.0
 21
0.0
 31
0.0
 44
0.9
  1
Technical Data
 40
0.145
 41
3.248
  0
MTEXT
  5
257
100
AcDbEntity
  8
0
100
AcDbMText
 62
2
  6
CONTINUOUS
  7
STANDARD
 71
2
 72
1
 10
4.555
 20
-0.0995
 30
0.0
 11
1.0
 21
0.0
 31
0.0
 44
0.9
  1
U.S. Units
 40
0.145
 41
2.32
  0
MTEXT
  5
258
100
AcDbEntity
  8
0
100
AcDbMText
 62
2
  6
CONTINUOUS
  7
STANDARD
 71
2
 72
1
 10
7.555
 20
-0.0995
 30
0.0
 11
1.0
 21
0.0
 31
0.0
 44
0.9
  1
Metric Units
 40
0.145
 41
2.784
  0
MTEXT
  5
259
100
AcDbEntity
  8
0
100
AcDbMText
 62
2
  6
CONTINUOUS
  7
STANDARD
 71
2
 72
1
 10
1.5275
 20
-0.4065
 30
0.0
 11
1.0
 21
0.0
 31
0.0
 44
0.9
  1
Cavity
 40
0.125
 41
1.2
  0
MTEXT
  5
25A
100
AcDbEntity
  8
0
100
AcDbMText
 62
2
  6
CONTINUOUS
  7
STANDARD
 71
2
 72
1
 10
6.055
 20
-0.4065
 30
0.0
 11
1.0
 21
0.0
 31
0.0
 44
0.9
  1
T-10A
 40
0.125
 41
1.0
  0
MTEXT
  5
25B
100
AcDbEntity
  8
0
100
AcDbMText
 62
2
  6
CONTINUOUS
  7
STANDARD
 71
2
 72
1
 10
1.5275
 20
-0.6565
 30
0.0
 11
1.0
 21
0.0
 31
0.0
 44
0.9
  1
Body Features
 40
0.125
 41
2.6
  0
MTEXT
  5
25C
100
AcDbEntity
  8
0
100
AcDbMText
 62
2
  6
CONTINUOUS
  7
STANDARD
 71
2
 72
1
 10
6.055
 20
-0.6565
 30
0.0
 11
1.0
 21
0.0
 31
0.0
 44
0.9
  1
Ninety degree
 40
0.125
 41
2.6
  0
MTEXT
  5
25D
100
AcDbEntity
  8
0
100
AcDbMText
 62
2
  6
CONTINUOUS
  7
STANDARD
 71
2
 72
1
 10
1.5275
 20
-0.9065
 30
0.0
 11
1.0
 21
0.0
 31
0.0
 44
0.9
  1
Body Type
 40
0.125
 41
1.8
  0
MTEXT
  5
25E
100
AcDbEntity
  8
0
100
AcDbMText
 62
2
  6
CONTINUOUS
  7
STANDARD
 71
2
 72
1
 10
6.055
 20
-0.9065
 30
0.0
 11
1.0
 21
0.0
 31
0.0
 44
0.9
  1
Line mount
 40
0.125
 41
2.0
  0
MTEXT
  5
25F
100
AcDbEntity
  8
0
100
AcDbMText
 62
2
  6
CONTINUOUS
  7
STANDARD
 71
2
 72
1
 10
1.5275
 20
-1.1565
 30
0.0
 11
1.0
 21
0.0
 31
0.0
 44
0.9
  1
Interface
 40
0.125
 41
1.8
  0
MTEXT
  5
260
100
AcDbEntity
  8
0
100
AcDbMText
 62
2
  6
CONTINUOUS
  7
STANDARD
 71
2
 72
1
 10
6.055
 20
-1.1565
 30
0.0
 11
1.0
 21
0.0
 31
0.0
 44
0.9
  1
None
 40
0.125
 41
0.8
  0
MTEXT
  5
261
100
AcDbEntity
  8
0
100
AcDbMText
 62
2
  6
CONTINUOUS
  7
STANDARD
 71
2
 72
1
 10
1.5275
 20
-1.4065
 30
0.0
 11
1.0
 21
0.0
 31
0.0
 44
0.9
  1
Open Cavity Quantity
 40
0.125
 41
4.0
  0
MTEXT
  5
262
100
AcDbEntity
  8
0
100
AcDbMText
 62
2
  6
CONTINUOUS
  7
STANDARD
 71
2
 72
1
 10
6.055
 20
-1.4065
 30
0.0
 11
1.0
 21
0.0
 31
0.0
 44
0.9
  1
1
 40
0.125
 41
0.2
  0
MTEXT
  5
263
100
AcDbEntity
  8
0
100
AcDbMText
 62
2
  6
CONTINUOUS
  7
STANDARD
 71
2
 72
1
 10
1.5275
 20
-1.6565
 30
0.0
 11
1.0
 21
0.0
 31
0.0
 44
0.9
  1
Weight
 40
0.125
 41
1.2
  0
MTEXT
  5
264
100
AcDbEntity
  8
0
100
AcDbMText
 62
2
  6
CONTINUOUS
  7
STANDARD
 71
2
 72
1
 10
4.555
 20
-1.6565
 30
0.0
 11
1.0
 21
0.0
 31
0.0
 44
0.9
  1
0.748 lb.
 40
0.125
 41
1.8
  0
MTEXT
  5
265
100
AcDbEntity
  8
0
100
AcDbMText
 62
2
  6
CONTINUOUS
  7
STANDARD
 71
2
 72
1
 10
7.555
 20
-1.6565
 30
0.0
 11
1.0
 21
0.0
 31
0.0
 44
0.9
  1
0,339 kg.
 40
0.125
 41
1.8
  0
MTEXT
  5
266
100
AcDbEntity
  8
0
100
AcDbMText
 62
2
  6
CONTINUOUS
  7
STANDARD
 71
2
 72
1
 10
1.5275
 20
-1.9065
 30
0.0
 11
1.0
 21
0.0
 31
0.0
 44
0.9
  1
Mounting Hole Diameter
 40
0.125
 41
4.4
  0
MTEXT
  5
267
100
AcDbEntity
  8
0
100
AcDbMText
 62
2
  6
CONTINUOUS
  7
STANDARD
 71
2
 72
1
 10
4.555
 20
-1.9065
 30
0.0
 11
1.0
 21
0.0
 31
0.0
 44
0.9
  1
.34 in.
 40
0.125
 41
1.4
  0
MTEXT
  5
268
100
AcDbEntity
  8
0
100
AcDbMText
 62
2
  6
CONTINUOUS
  7
STANDARD
 71
2
 72
1
 10
7.555
 20
-1.9065
 30
0.0
 11
1.0
 21
0.0
 31
0.0
 44
0.9
  1
8.6 mm
 40
0.125
 41
1.2
  0
MTEXT
  5
269
100
AcDbEntity
  8
0
100
AcDbMText
 62
2
  6
CONTINUOUS
  7
STANDARD
 71
2
 72
1
 10
1.5275
 20
-2.1565
 30
0.0
 11
1.0
 21
0.0
 31
0.0
 44
0.9
  1
Mounting Hole Depth
 40
0.125
 41
3.8
  0
MTEXT
  5
26A
100
AcDbEntity
  8
0
100
AcDbMText
 62
2
  6
CONTINUOUS
  7
STANDARD
 71
2
 72
1
 10
6.055
 20
-2.1565
 30
0.0
 11
1.0
 21
0.0
 31
0.0
 44
0.9
  1
Through
 40
0.125
 41
1.4
  0
MTEXT
  5
26B
100
AcDbEntity
  8
0
100
AcDbMText
 62
2
  6
CONTINUOUS
  7
STANDARD
 71
2
 72
1
 10
1.5275
 20
-2.4065
 30
0.0
 11
1.0
 21
0.0
 31
0.0
 44
0.9
  1
Mounting Hole Quantity
 40
0.125
 41
4.4
  0
MTEXT
  5
26C
100
AcDbEntity
  8
0
100
AcDbMText
 62
2
  6
CONTINUOUS
  7
STANDARD
 71
2
 72
1
 10
6.055
 20
-2.4065
 30
0.0
 11
1.0
 21
0.0
 31
0.0
 44
0.9
  1
1
 40
0.125
 41
0.2
  0
ENDBLK
  5
26D
100
AcDbEntity
  8
0
  6
BYBLOCK
 62
0
100
AcDbBlockEnd
  0
BLOCK
  5
26E
100
AcDbEntity
  8
0
100
AcDbBlockBegin
  2
*T3
 70
1
 10
0.0
 20
0.0
  3
*T3
  1

  0
LINE
  5
26F
100
AcDbEntity
  8
0
100
AcDbLine
 62
2
  6
CONTINUOUS
 10
0.0
 20
0.0
 11
4.6
 21
0.0
  0
LINE
  5
270
100
AcDbEntity
  8
0
100
AcDbLine
 62
2
  6
CONTINUOUS
 10
0.0
 20
0.0
 11
0.0
 21
-0.93775
  0
LINE
  5
271
100
AcDbEntity
  8
0
100
AcDbLine
 62
2
  6
CONTINUOUS
 10
0.0
 20
-0.34375
 11
4.6
 21
-0.34375
  0
LINE
  5
272
100
AcDbEntity
  8
0
100
AcDbLine
 62
2
  6
CONTINUOUS
 10
0.0
 20
-0.68775
 11
4.6
 21
-0.68775
  0
LINE
  5
273
100
AcDbEntity
  8
0
100
AcDbLine
 62
2
  6
CONTINUOUS
 10
0.0
 20
-0.93775
 11
4.6
 21
-0.93775
  0
LINE
  5
274
100
AcDbEntity
  8
0
100
AcDbLine
 62
2
  6
CONTINUOUS
 10
1.3
 20
-0.34375
 11
1.3
 21
-0.93775
  0
LINE
  5
275
100
AcDbEntity
  8
0
100
AcDbLine
 62
2
  6
CONTINUOUS
 10
3.3
 20
-0.34375
 11
3.3
 21
-0.93775
  0
LINE
  5
276
100
AcDbEntity
  8
0
100
AcDbLine
 62
2
  6
CONTINUOUS
 10
4.6
 20
0.0
 11
4.6
 21
-0.93775
  0
MTEXT
  5
277
100
AcDbEntity
  8
0
100
AcDbMText
 62
2
  6
CONTINUOUS
  7
STANDARD
 71
2
 72
1
 10
2.3
 20
-0.099375
 30
0.0
 11
1.0
 21
0.0
 31
0.0
 44
0.9
  1
Port Headings
 40
0.145
 41
3.016
  0
MTEXT
  5
278
100
AcDbEntity
  8
0
100
AcDbMText
 62
2
  6
CONTINUOUS
  7
STANDARD
 71
2
 72
1
 10
0.65
 20
-0.44325
 30
0.0
 11
1.0
 21
0.0
 31
0.0
 44
0.9
  1
Product
 40
0.145
 41
1.624
  0
MTEXT
  5
279
100
AcDbEntity
  8
0
100
AcDbMText
 62
2
  6
CONTINUOUS
  7
STANDARD
 71
2
 72
1
 10
2.3
 20
-0.44325
 30
0.0
 11
1.0
 21
0.0
 31
0.0
 44
0.9
  1
Port
 40
0.145
 41
0.928
  0
MTEXT
  5
27A
100
AcDbEntity
  8
0
100
AcDbMText
 62
2
  6
CONTINUOUS
  7
STANDARD
 71
2
 72
1
 10
3.95
 20
-0.44325
 30
0.0
 11
1.0
 21
0.0
 31
0.0
 44
0.9
  1
Size
 40
0.145
 41
0.928
  0
MTEXT
  5
27B
100
AcDbEntity
  8
0
100
AcDbMText
 62
2
  6
CONTINUOUS
  7
STANDARD
 71
2
 72
1
 10
0.65
 20
-0.75025
 30
0.0
 11
1.0
 21
0.0
 31
0.0
 44
0.9
  1
FAW
 40
0.125
 41
0.6
  0
MTEXT
  5
27C
100
AcDbEntity
  8
0
100
AcDbMText
 62
2
  6
CONTINUOUS
  7
STANDARD
 71
2
 72
1
 10
2.3
 20
-0.75025
 30
0.0
 11
1.0
 21
0.0
 31
0.0
 44
0.9
  1
All Ports
 40
0.125
 41
1.8
  0
MTEXT
  5
27D
100
AcDbEntity
  8
0
100
AcDbMText
 62
2
  6
CONTINUOUS
  7
STANDARD
 71
2
 72
1
 10
3.95
 20
-0.75025
 30
0.0
 11
1.0
 21
0.0
 31
0.0
 44
0.9
  1
3/4" BSPP
 40
0.125
 41
1.8
  0
ENDBLK
  5
27E
100
AcDbEntity
  8
0
  6
BYBLOCK
 62
0
100
AcDbBlockEnd
  0
ENDSEC
  0
SECTION
  2
ENTITIES
  0
IMAGE
  5
27F
100
AcDbEntity
  8
0
100
AcDbRasterImage
 62
7
  6
CONTINUOUS
 10
19.2297077316
 20
0.3094318264
 30
0.0
 11
0.0066666667
 21
0.0
 31
0.0
 12
0.0
 22
0.0066666667
 32
0.0
 13
369.0
 23
92.0
340
       331
 70
9
280
0
281
50
282
50
283
0
360
       32B
 71
1
 91
2
 14
-0.5
 24
-0.5
 14
368.5
 24
91.5
  0
INSERT
  5
280
100
AcDbEntity
  8
0
100
AcDbBlockReference
 62
2
  6
CONTINUOUS
  2
SUN_FIRST_THIRD_ANGLE_BL0
 10
20.4816717061
 20
1.2289683772
  0
ACAD_TABLE
  5
281
100
AcDbEntity
  8
0
 62
2
  6
CONTINUOUS
100
AcDbBlockReference
  2
*T1
 10
12.42375
 20
0.30125
 30
0.0
100
AcDbTable
342
       333
343
207
 11
1.0
 21
0.0
 31
0.0
 90
6
 91
4
 92
6
 93
20
 94
0
 95
0
 96
0
 70
1
 41
0.0
141
0.525
141
0.1
141
0.525
141
0.1
142
4.1
142
1.1
142
0.7
142
0.5
142
0.4
142
2.475
171
1
172
0
173
0
174
0
175
1
176
1
 91
33
178
0
145
0.0
301
CELL_VALUE
 90
4
  1
T-10A Line mount\PNinety degree
304
ACVALUE_END
170
2
140
0.125
171
1
172
0
173
0
174
0
175
1
176
1
 91
33
178
0
145
0.0
301
CELL_VALUE
 90
4
  1
Jul-11-19
304
ACVALUE_END
170
5
140
0.125
171
1
172
0
173
0
174
0
175
1
176
1
 91
33
178
0
145
0.0
301
CELL_VALUE
 90
4
  1
2.000
304
ACVALUE_END
170
5
140
0.125
171
1
172
0
173
0
174
0
175
1
176
1
 91
33
178
0
145
0.0
301
CELL_VALUE
 90
4
  1
C
304
ACVALUE_END
170
5
140
0.125
171
1
172
0
173
0
174
0
175
1
176
1
 91
33
178
0
145
0.0
301
CELL_VALUE
 90
4
  1
2
304
ACVALUE_END
170
5
140
0.125
171
1
172
0
173
0
174
0
175
1
176
1
 91
33
178
0
145
0.0
301
CELL_VALUE
 90
4
  1
 
304
ACVALUE_END
170
1
140
0.125
171
1
172
0
173
0
174
0
175
1
176
1
 91
33
178
0
145
0.0
301
CELL_VALUE
 90
4
  1
DESCRIPTION
304
ACVALUE_END
170
1
140
0.06
171
1
172
0
173
0
174
0
175
1
176
1
 91
33
178
0
145
0.0
301
CELL_VALUE
 90
4
  1
DATE
304
ACVALUE_END
170
1
140
0.06
171
1
172
0
173
0
174
0
175
1
176
1
 91
33
178
0
145
0.0
301
CELL_VALUE
 90
4
  1
SCALE
304
ACVALUE_END
170
1
140
0.06
171
1
172
0
173
0
174
0
175
1
176
1
 91
33
178
0
145
0.0
301
CELL_VALUE
 90
4
  1
DWG SIZE
304
ACVALUE_END
170
1
140
0.06
171
1
172
0
173
0
174
0
175
1
176
1
 91
33
178
0
145
0.0
301
CELL_VALUE
 90
4
  1
SHEET
304
ACVALUE_END
170
1
140
0.06
171
1
172
0
173
0
174
0
175
1
176
1
 91
33
178
0
145
0.0
301
CELL_VALUE
 90
4
  1
 
304
ACVALUE_END
170
1
140
0.125
171
1
172
0
173
0
174
0
175
1
176
1
 91
33
178
0
145
0.0
301
CELL_VALUE
 90
4
  1
FAW
304
ACVALUE_END
170
5
140
0.125
171
1
172
0
173
0
174
0
175
4
176
1
 91
33
178
0
145
0.0
301
CELL_VALUE
 90
4
  1
ALL DIMENSIONS IN INCH\PVIEWS ARE THIRD ANGLE
304
ACVALUE_END
170
5
140
0.12
171
1
172
0
173
1
174
0
175
1
176
1
 91
1
178
0
145
0.0
170
1
171
1
172
0
173
1
174
0
175
1
176
1
 91
1
178
0
145
0.0
170
1
171
1
172
0
173
1
174
0
175
1
176
1
 91
1
178
0
145
0.0
170
5
171
1
172
0
173
0
174
0
175
1
176
1
 91
33
178
0
145
0.0
301
CELL_VALUE
 90
4
  1
 
304
ACVALUE_END
170
1
140
0.125
171
1
172
0
173
0
174
0
175
1
176
1
 91
33
178
0
145
0.0
301
CELL_VALUE
 90
4
  1
MODEL
304
ACVALUE_END
170
1
140
0.06
171
1
172
0
173
0
174
0
175
1
176
1
 91
33
178
0
145
0.0
301
CELL_VALUE
 90
4
  1
 
304
ACVALUE_END
170
1
140
0.125
171
1
172
0
173
0
174
0
175
1
176
1
 91
33
178
0
145
0.0
301
CELL_VALUE
 90
4
  1
 
304
ACVALUE_END
170
1
140
0.125
171
1
172
0
173
0
174
0
175
1
176
1
 91
33
178
0
145
0.0
301
CELL_VALUE
 90
4
  1
 
304
ACVALUE_END
170
1
140
0.125
171
1
172
0
173
0
174
0
175
1
176
1
 91
33
178
0
145
0.0
301
CELL_VALUE
 90
4
  1
 
304
ACVALUE_END
170
1
140
0.125
171
1
172
0
173
0
174
0
175
1
176
1
 91
33
178
0
145
0.0
301
CELL_VALUE
 90
4
  1
 
304
ACVALUE_END
170
1
140
0.125
  0
ACAD_TABLE
  5
282
100
AcDbEntity
  8
0
 62
2
  6
CONTINUOUS
100
AcDbBlockReference
  2
*T2
 10
12.4237499994
 20
16.47875
 30
0.0
100
AcDbTable
342
       332
343
208
 11
1.0
 21
0.0
 31
0.0
 90
22
 91
10
 92
3
 93
16
 94
0
 95
0
 96
0
 41
0.028
141
0.344
141
0.25
141
0.25
141
0.25
141
0.25
141
0.25
141
0.25
141
0.25
141
0.25
141
0.25
142
3.055
142
3.0
142
3.0
171
1
172
0
173
0
174
0
175
1
176
1
 91
33
178
0
145
0.0
301
CELL_VALUE
 90
4
  1
Technical Data
304
ACVALUE_END
170
5
140
0.145
171
1
172
0
173
0
174
0
175
1
176
1
 91
33
178
0
145
0.0
301
CELL_VALUE
 90
4
  1
U.S. Units
304
ACVALUE_END
170
5
140
0.145
171
1
172
0
173
0
174
0
175
1
176
1
 91
33
178
0
145
0.0
301
CELL_VALUE
 90
4
  1
Metric Units
304
ACVALUE_END
170
5
140
0.145
171
1
172
0
173
0
174
0
175
1
176
1
 91
33
178
0
145
0.0
301
CELL_VALUE
 90
4
  1
Cavity
304
ACVALUE_END
170
5
140
0.125
171
1
172
0
173
0
174
0
175
2
176
1
 91
33
178
0
145
0.0
301
CELL_VALUE
 90
4
  1
T-10A
304
ACVALUE_END
170
5
140
0.125
171
1
172
0
173
1
174
0
175
1
176
1
 91
1
178
0
145
0.0
170
1
171
1
172
0
173
0
174
0
175
1
176
1
 91
33
178
0
145
0.0
301
CELL_VALUE
 90
4
  1
Body Features
304
ACVALUE_END
170
5
140
0.125
171
1
172
0
173
0
174
0
175
2
176
1
 91
33
178
0
145
0.0
301
CELL_VALUE
 90
4
  1
Ninety degree
304
ACVALUE_END
170
5
140
0.125
171
1
172
0
173
1
174
0
175
1
176
1
 91
1
178
0
145
0.0
170
1
171
1
172
0
173
0
174
0
175
1
176
1
 91
33
178
0
145
0.0
301
CELL_VALUE
 90
4
  1
Body Type
304
ACVALUE_END
170
5
140
0.125
171
1
172
0
173
0
174
0
175
2
176
1
 91
33
178
0
145
0.0
301
CELL_VALUE
 90
4
  1
Line mount
304
ACVALUE_END
170
5
140
0.125
171
1
172
0
173
1
174
0
175
1
176
1
 91
1
178
0
145
0.0
170
1
171
1
172
0
173
0
174
0
175
1
176
1
 91
33
178
0
145
0.0
301
CELL_VALUE
 90
4
  1
Interface
304
ACVALUE_END
170
5
140
0.125
171
1
172
0
173
0
174
0
175
2
176
1
 91
33
178
0
145
0.0
301
CELL_VALUE
 90
4
  1
None
304
ACVALUE_END
170
5
140
0.125
171
1
172
0
173
1
174
0
175
1
176
1
 91
1
178
0
145
0.0
170
1
171
1
172
0
173
0
174
0
175
1
176
1
 91
33
178
0
145
0.0
301
CELL_VALUE
 90
4
  1
Open Cavity Quantity
304
ACVALUE_END
170
5
140
0.125
171
1
172
0
173
0
174
0
175
2
176
1
 91
33
178
0
145
0.0
301
CELL_VALUE
 90
4
  1
1
304
ACVALUE_END
170
5
140
0.125
171
1
172
0
173
1
174
0
175
1
176
1
 91
1
178
0
145
0.0
170
1
171
1
172
0
173
0
174
0
175
1
176
1
 91
33
178
0
145
0.0
301
CELL_VALUE
 90
4
  1
Weight
304
ACVALUE_END
170
5
140
0.125
171
1
172
0
173
0
174
0
175
1
176
1
 91
33
178
0
145
0.0
301
CELL_VALUE
 90
4
  1
0.748 lb.
304
ACVALUE_END
170
5
140
0.125
171
1
172
0
173
0
174
0
175
1
176
1
 91
33
178
0
145
0.0
301
CELL_VALUE
 90
4
  1
0,339 kg.
304
ACVALUE_END
170
5
140
0.125
171
1
172
0
173
0
174
0
175
1
176
1
 91
33
178
0
145
0.0
301
CELL_VALUE
 90
4
  1
Mounting Hole Diameter
304
ACVALUE_END
170
5
140
0.125
171
1
172
0
173
0
174
0
175
1
176
1
 91
33
178
0
145
0.0
301
CELL_VALUE
 90
4
  1
.34 in.
304
ACVALUE_END
170
5
140
0.125
171
1
172
0
173
0
174
0
175
1
176
1
 91
33
178
0
145
0.0
301
CELL_VALUE
 90
4
  1
8.6 mm
304
ACVALUE_END
170
5
140
0.125
171
1
172
0
173
0
174
0
175
1
176
1
 91
33
178
0
145
0.0
301
CELL_VALUE
 90
4
  1
Mounting Hole Depth
304
ACVALUE_END
170
5
140
0.125
171
1
172
0
173
0
174
0
175
2
176
1
 91
33
178
0
145
0.0
301
CELL_VALUE
 90
4
  1
Through
304
ACVALUE_END
170
5
140
0.125
171
1
172
0
173
1
174
0
175
1
176
1
 91
1
178
0
145
0.0
170
1
171
1
172
0
173
0
174
0
175
1
176
1
 91
33
178
0
145
0.0
301
CELL_VALUE
 90
4
  1
Mounting Hole Quantity
304
ACVALUE_END
170
5
140
0.125
171
1
172
0
173
0
174
0
175
2
176
1
 91
33
178
0
145
0.0
301
CELL_VALUE
 90
4
  1
1
304
ACVALUE_END
170
5
140
0.125
171
1
172
0
173
1
174
0
175
1
176
1
 91
1
178
0
145
0.0
170
1
  0
ACAD_TABLE
  5
283
100
AcDbEntity
  8
0
 62
2
  6
CONTINUOUS
100
AcDbBlockReference
  2
*T3
 10
0.52125
 20
1.459
 30
0.0
100
AcDbTable
342
       332
343
209
 11
1.0
 21
0.0
 31
0.0
 90
22
 91
3
 92
3
 93
16
 94
0
 95
0
 96
0
 41
0.05
141
0.34375
141
0.344
141
0.25
142
1.3
142
2.0
142
1.3
171
1
172
0
173
0
174
0
175
3
176
1
 91
33
178
0
145
0.0
301
CELL_VALUE
 90
4
  1
Port Headings
304
ACVALUE_END
170
5
140
0.145
171
1
172
0
173
1
174
0
175
1
176
1
 91
1
178
0
145
0.0
170
1
171
1
172
0
173
1
174
0
175
1
176
1
 91
1
178
0
145
0.0
170
1
171
1
172
0
173
0
174
0
175
1
176
1
 91
33
178
0
145
0.0
301
CELL_VALUE
 90
4
  1
Product
304
ACVALUE_END
170
5
140
0.145
171
1
172
0
173
0
174
0
175
1
176
1
 91
33
178
0
145
0.0
301
CELL_VALUE
 90
4
  1
Port
304
ACVALUE_END
170
5
140
0.145
171
1
172
0
173
0
174
0
175
1
176
1
 91
33
178
0
145
0.0
301
CELL_VALUE
 90
4
  1
Size
304
ACVALUE_END
170
5
140
0.145
171
1
172
0
173
0
174
0
175
1
176
1
 91
33
178
0
145
0.0
301
CELL_VALUE
 90
4
  1
FAW
304
ACVALUE_END
170
5
140
0.125
171
1
172
0
173
0
174
0
175
1
176
1
 91
33
178
0
145
0.0
301
CELL_VALUE
 90
4
  1
All Ports
304
ACVALUE_END
170
5
140
0.125
171
1
172
0
173
0
174
0
175
1
176
1
 91
33
178
0
145
0.0
301
CELL_VALUE
 90
4
  1
3/4" BSPP
304
ACVALUE_END
170
5
140
0.125
  0
MTEXT
  5
284
100
AcDbEntity
  8
0
100
AcDbMText
 62
2
  6
CONTINUOUS
  7
STANDARD
 71
1
 72
1
 10
0.52125
 20
5.75995
 30
0.0
 11
1.0
 21
0.0
 31
0.0
 44
0.6
  3
Notes\P \P1. Important: Carefully consider\P   the maximum system pressure. The\P   pressure rating of the manifold is\P   dependent on the manifold material,\P   with the port type/size a secondary\P   consideration. Manifolds\P   constructed of alu
  1
minum are not\P   rated for pressures higher than\P   3000 psi (210 bar), regardless of\P   the port type/size specified.
 40
0.1
 41
3.04
  0
LINE
  5
285
100
AcDbEntity
  8
0
100
AcDbLine
 62
7
  6
CONTINUOUS
 10
0.30125
 20
0.30125
 11
0.30125
 21
16.69875
  0
LINE
  5
286
100
AcDbEntity
  8
0
100
AcDbLine
 62
7
  6
CONTINUOUS
 10
0.30125
 20
0.30125
 11
21.69875
 21
0.30125
  0
LINE
  5
287
100
AcDbEntity
  8
0
100
AcDbLine
 62
7
  6
CONTINUOUS
 10
0.30125
 20
16.69875
 11
21.69875
 21
16.69875
  0
LINE
  5
288
100
AcDbEntity
  8
0
100
AcDbLine
 62
7
  6
CONTINUOUS
 10
21.69875
 20
0.30125
 11
21.69875
 21
16.69875
  0
LINE
  5
289
100
AcDbEntity
  8
0
100
AcDbLine
 62
7
  6
CONTINUOUS
 10
7.7139941022
 20
10.4992950878
 11
8.4904505967
 21
11.2492945133
  0
LINE
  5
28A
100
AcDbEntity
  8
0
100
AcDbLine
 62
7
  6
CONTINUOUS
 10
7.7139941022
 20
6.152628612
 11
7.7139941022
 21
10.4992950878
  0
LINE
  5
28B
100
AcDbEntity
  8
0
100
AcDbLine
 62
7
  6
CONTINUOUS
 10
13.5095494033
 20
5.7507054867
 11
7.7139941022
 21
6.152628612
  0
LINE
  5
28C
100
AcDbEntity
  8
0
100
AcDbLine
 62
4
  6
CONTINUOUS
 10
9.3309541101
 20
6.5833423785
 11
9.3116355837
 21
6.5991710108
  0
LINE
  5
28D
100
AcDbEntity
  8
0
100
AcDbLine
 62
4
  6
CONTINUOUS
 10
9.4661837262
 20
6.5884530607
 11
9.5241392779
 21
6.5699449416
  0
LINE
  5
28E
100
AcDbEntity
  8
0
100
AcDbLine
 62
4
  6
CONTINUOUS
 10
9.427546694
 20
6.6201103239
 11
9.4661837262
 21
6.5884530607
  0
LINE
  5
28F
100
AcDbEntity
  8
0
100
AcDbLine
 62
4
  6
CONTINUOUS
 10
9.3695911354
 20
6.6965739951
 11
9.3889096618
 21
6.6807453629
  0
LINE
  5
290
100
AcDbEntity
  8
0
100
AcDbLine
 62
4
  6
CONTINUOUS
 10
9.3116355837
 20
6.5991710108
 11
9.292317071
 21
6.6294885301
  0
LINE
  5
291
100
AcDbEntity
  8
0
100
AcDbLine
 62
4
  6
CONTINUOUS
 10
9.3889096618
 20
6.6807453629
 11
9.427546694
 21
6.6201103239
  0
LINE
  5
292
100
AcDbEntity
  8
0
100
AcDbLine
 62
4
  6
CONTINUOUS
 10
9.292317071
 20
6.6294885301
 11
9.292317071
 21
6.6584663059
  0
LINE
  5
293
100
AcDbEntity
  8
0
100
AcDbLine
 62
4
  6
CONTINUOUS
 10
9.3309541101
 20
6.6992534819
 11
9.3695911354
 21
6.6965739951
  0
LINE
  5
294
100
AcDbEntity
  8
0
100
AcDbLine
 62
4
  6
CONTINUOUS
 10
9.5241392779
 20
6.5699449416
 11
9.5241392779
 21
6.6858560451
  0
LINE
  5
295
100
AcDbEntity
  8
0
100
AcDbLine
 62
4
  6
CONTINUOUS
 10
10.5620955616
 20
7.0438486124
 11
10.5289781055
 21
7.0461453158
  0
LINE
  5
296
100
AcDbEntity
  8
0
100
AcDbLine
 62
4
  6
CONTINUOUS
 10
11.6781539043
 20
7.4963290414
 11
11.9099761112
 21
7.5464870567
  0
LINE
  5
297
100
AcDbEntity
  8
0
100
AcDbLine
 62
4
  6
CONTINUOUS
 10
10.6945653966
 20
7.1505729016
 11
10.661447937
 21
7.1528696052
  0
LINE
  5
298
100
AcDbEntity
  8
0
100
AcDbLine
 62
4
  6
CONTINUOUS
 10
10.4958606493
 20
7.2305880349
 11
10.6945653966
 21
7.2168078139
  0
LINE
  5
299
100
AcDbEntity
  8
0
100
AcDbLine
 62
4
  6
CONTINUOUS
 10
11.9099761112
 20
7.2042733155
 11
11.6781539043
 21
7.2203502402
  0
LINE
  5
29A
100
AcDbEntity
  8
0
100
AcDbLine
 62
4
  6
CONTINUOUS
 10
10.6945653966
 20
7.3327189173
 11
10.4958606493
 21
7.3464991383
  0
LINE
  5
29B
100
AcDbEntity
  8
0
100
AcDbLine
 62
4
  6
CONTINUOUS
 10
10.7276828562
 20
7.396657126
 11
10.4958606493
 21
7.4127340506
  0
LINE
  5
29C
100
AcDbEntity
  8
0
100
AcDbLine
 62
4
  6
CONTINUOUS
 10
11.7112713605
 20
7.3339646264
 11
11.8768586516
 21
7.3224811088
  0
LINE
  5
29D
100
AcDbEntity
  8
0
100
AcDbLine
 62
4
  6
CONTINUOUS
 10
10.5289781055
 20
7.0461453158
 11
10.4958606493
 21
7.0815594788
  0
LINE
  5
29E
100
AcDbEntity
  8
0
100
AcDbLine
 62
4
  6
CONTINUOUS
 10
10.7276828562
 20
7.1151587418
 11
10.6945653966
 21
7.1505729016
  0
LINE
  5
29F
100
AcDbEntity
  8
0
100
AcDbLine
 62
4
  6
CONTINUOUS
 10
10.7276828562
 20
7.5125682294
 11
10.4958606493
 21
7.5286451541
  0
LINE
  5
2A0
100
AcDbEntity
  8
0
100
AcDbLine
 62
4
  6
CONTINUOUS
 10
10.7276828562
 20
7.2973047714
 11
10.6945653966
 21
7.3327189173
  0
LINE
  5
2A1
100
AcDbEntity
  8
0
100
AcDbLine
 62
4
  6
CONTINUOUS
 10
10.661447937
 20
9.2061519141
 11
10.6504087849
 21
9.190358816
  0
LINE
  5
2A2
100
AcDbEntity
  8
0
100
AcDbLine
 62
4
  6
CONTINUOUS
 10
10.6393696329
 20
9.1248894991
 11
10.6283304808
 21
9.109096401
  0
LINE
  5
2A3
100
AcDbEntity
  8
0
100
AcDbLine
 62
4
  6
CONTINUOUS
 10
10.5620955616
 20
9.1964833588
 11
10.5786542966
 21
9.2118936726
  0
LINE
  5
2A4
100
AcDbEntity
  8
0
100
AcDbLine
 62
4
  6
CONTINUOUS
 10
10.7111241264
 20
9.1033546422
 11
10.7276828562
 21
9.1187649563
  0
LINE
  5
2A5
100
AcDbEntity
  8
0
100
AcDbLine
 62
4
  6
CONTINUOUS
 10
11.9099761112
 20
7.6789568813
 11
11.6781539043
 21
7.6950338059
  0
LINE
  5
2A6
100
AcDbEntity
  8
0
100
AcDbLine
 62
4
  6
CONTINUOUS
 10
10.7276828562
 20
7.7609491574
 11
10.4958606493
 21
7.7770260821
  0
LINE
  5
2A7
100
AcDbEntity
  8
0
100
AcDbLine
 62
4
  6
CONTINUOUS
 10
11.3999672561
 20
7.7888403484
 11
11.1681450492
 21
7.804917273
  0
LINE
  5
2A8
100
AcDbEntity
  8
0
100
AcDbLine
 62
4
  6
CONTINUOUS
 10
10.5786542966
 20
7.8706367054
 11
10.7276828562
 21
7.8603015397
  0
LINE
  5
2A9
100
AcDbEntity
  8
0
100
AcDbLine
 62
4
  6
CONTINUOUS
 10
11.9099761112
 20
7.8114267059
 11
11.6781539043
 21
7.8275036305
  0
LINE
  5
2AA
100
AcDbEntity
  8
0
100
AcDbLine
 62
4
  6
CONTINUOUS
 10
11.9099761112
 20
7.4140172045
 11
11.6781539043
 21
7.4963290414
  0
LINE
  5
2AB
100
AcDbEntity
  8
0
100
AcDbLine
 62
4
  6
CONTINUOUS
 10
10.7828786199
 20
7.9558260828
 11
10.5620955616
 21
8.0373723245
  0
LINE
  5
2AC
100
AcDbEntity
  8
0
100
AcDbLine
 62
4
  6
CONTINUOUS
 10
10.5786542966
 20
8.0803806358
 11
10.5620955616
 21
8.1146464303
  0
LINE
  5
2AD
100
AcDbEntity
  8
0
100
AcDbLine
 62
4
  6
CONTINUOUS
 10
10.4958606493
 20
7.0815594788
 11
10.4958606493
 21
7.1477943945
  0
LINE
  5
2AE
100
AcDbEntity
  8
0
100
AcDbLine
 62
4
  6
CONTINUOUS
 10
10.4958606493
 20
8.8809413424
 11
10.4958606493
 21
8.8864608976
  0
LINE
  5
2AF
100
AcDbEntity
  8
0
100
AcDbLine
 62
4
  6
CONTINUOUS
 10
10.5620955616
 20
8.4789385171
 11
10.5620955616
 21
8.396144856
  0
LINE
  5
2B0
100
AcDbEntity
  8
0
100
AcDbLine
 62
4
  6
CONTINUOUS
 10
10.5620955616
 20
7.7724326753
 11
10.5620955616
 21
7.8552263364
  0
LINE
  5
2B1
100
AcDbEntity
  8
0
100
AcDbLine
 62
4
  6
CONTINUOUS
 10
10.5620955616
 20
8.1146464303
 11
10.5620955616
 21
8.180881315
  0
LINE
  5
2B2
100
AcDbEntity
  8
0
100
AcDbLine
 62
4
  6
CONTINUOUS
 10
10.5620955616
 20
8.2471163102
 11
10.5620955616
 21
8.3133511949
  0
LINE
  5
2B3
100
AcDbEntity
  8
0
100
AcDbLine
 62
4
  6
CONTINUOUS
 10
10.5620955616
 20
8.9812198179
 11
10.5620955616
 21
9.0474549236
  0
LINE
  5
2B4
100
AcDbEntity
  8
0
100
AcDbLine
 62
4
  6
CONTINUOUS
 10
10.5620955616
 20
9.1302484742
 11
10.5620955616
 21
9.1964833588
  0
LINE
  5
2B5
100
AcDbEntity
  8
0
100
AcDbLine
 62
4
  6
CONTINUOUS
 10
10.6448892089
 20
8.4235205394
 11
10.6448892089
 21
8.489755424
  0
LINE
  5
2B6
100
AcDbEntity
  8
0
100
AcDbLine
 62
4
  6
CONTINUOUS
 10
10.7276828562
 20
9.0359714057
 11
10.7276828562
 21
8.9697363
  0
LINE
  5
2B7
100
AcDbEntity
  8
0
100
AcDbLine
 62
4
  6
CONTINUOUS
 10
10.7276828562
 20
8.7655120907
 11
10.7276828562
 21
8.7323946484
  0
LINE
  5
2B8
100
AcDbEntity
  8
0
100
AcDbLine
 62
4
  6
CONTINUOUS
 10
10.7276828562
 20
8.4840136651
 11
10.7276828562
 21
8.4177787804
  0
LINE
  5
2B9
100
AcDbEntity
  8
0
100
AcDbLine
 62
4
  6
CONTINUOUS
 10
10.7276828562
 20
8.1693977971
 11
10.7276828562
 21
8.1031629124
  0
LINE
  5
2BA
100
AcDbEntity
  8
0
100
AcDbLine
 62
4
  6
CONTINUOUS
 10
10.7276828562
 20
7.0489238243
 11
10.7276828562
 21
7.1151587418
  0
LINE
  5
2BB
100
AcDbEntity
  8
0
100
AcDbLine
 62
4
  6
CONTINUOUS
 10
10.7276828562
 20
7.2476285664
 11
10.7276828562
 21
7.2973047714
  0
LINE
  5
2BC
100
AcDbEntity
  8
0
100
AcDbLine
 62
4
  6
CONTINUOUS
 10
10.7276828562
 20
8.5668073262
 11
10.7276828562
 21
8.6496009873
  0
LINE
  5
2BD
100
AcDbEntity
  8
0
100
AcDbLine
 62
4
  6
CONTINUOUS
 10
10.7276828562
 20
9.1187649563
 11
10.7276828562
 21
9.184999841
  0
LINE
  5
2BE
100
AcDbEntity
  8
0
100
AcDbLine
 62
4
  6
CONTINUOUS
 10
10.6504087849
 20
9.190358816
 11
10.6393696329
 21
9.1248894991
  0
LINE
  5
2BF
100
AcDbEntity
  8
0
100
AcDbLine
 62
4
  6
CONTINUOUS
 10
9.292317071
 20
6.6584663059
 11
9.3116355837
 21
6.6861043384
  0
LINE
  5
2C0
100
AcDbEntity
  8
0
100
AcDbLine
 62
4
  6
CONTINUOUS
 10
10.7276828562
 20
8.9697363
 11
10.7111241264
 21
8.9543259859
  0
LINE
  5
2C1
100
AcDbEntity
  8
0
100
AcDbLine
 62
4
  6
CONTINUOUS
 10
10.7276828562
 20
8.7323946484
 11
10.7111241264
 21
8.7169842237
  0
LINE
  5
2C2
100
AcDbEntity
  8
0
100
AcDbLine
 62
4
  6
CONTINUOUS
 10
10.5620955616
 20
7.9380199975
 11
10.7276828562
 21
7.9762126984
  0
LINE
  5
2C3
100
AcDbEntity
  8
0
100
AcDbLine
 62
4
  6
CONTINUOUS
 10
11.2343799615
 20
8.26396828
 11
11.3999672561
 21
8.3021609256
  0
LINE
  5
2C4
100
AcDbEntity
  8
0
100
AcDbLine
 62
4
  6
CONTINUOUS
 10
11.1681450492
 20
8.0367394799
 11
11.3999672561
 21
8.0868974675
  0
LINE
  5
2C5
100
AcDbEntity
  8
0
100
AcDbLine
 62
4
  6
CONTINUOUS
 10
11.1681450492
 20
8.1692093045
 11
11.3999672561
 21
8.202808571
  0
LINE
  5
2C6
100
AcDbEntity
  8
0
100
AcDbLine
 62
4
  6
CONTINUOUS
 10
10.7111241264
 20
8.0711938219
 11
10.5786542966
 21
8.0803806358
  0
LINE
  5
2C7
100
AcDbEntity
  8
0
100
AcDbLine
 62
4
  6
CONTINUOUS
 10
10.4958606493
 20
8.1854747218
 11
10.7276828562
 21
8.1693977971
  0
LINE
  5
2C8
100
AcDbEntity
  8
0
100
AcDbLine
 62
4
  6
CONTINUOUS
 10
10.7276828562
 20
8.2356327923
 11
10.5620955616
 21
8.2471163102
  0
LINE
  5
2C9
100
AcDbEntity
  8
0
100
AcDbLine
 62
4
  6
CONTINUOUS
 10
11.8768586516
 20
8.1614567751
 11
11.7112713605
 21
8.1729402927
  0
LINE
  5
2CA
100
AcDbEntity
  8
0
100
AcDbLine
 62
4
  6
CONTINUOUS
 10
11.3999672561
 20
7.9544276429
 11
11.1681450492
 21
8.0367394799
  0
LINE
  5
2CB
100
AcDbEntity
  8
0
100
AcDbLine
 62
4
  6
CONTINUOUS
 10
10.661447937
 20
8.3892547453
 11
10.6448892089
 21
8.4235205394
  0
LINE
  5
2CC
100
AcDbEntity
  8
0
100
AcDbLine
 62
4
  6
CONTINUOUS
 10
10.7828786199
 20
7.9227086404
 11
10.7828786199
 21
7.9558260828
  0
LINE
  5
2CD
100
AcDbEntity
  8
0
100
AcDbLine
 62
4
  6
CONTINUOUS
 10
10.7276828562
 20
8.4177787804
 11
10.7111241264
 21
8.3858096899
  0
LINE
  5
2CE
100
AcDbEntity
  8
0
100
AcDbLine
 62
4
  6
CONTINUOUS
 10
10.7276828562
 20
8.1031629124
 11
10.7111241264
 21
8.0711938219
  0
LINE
  5
2CF
100
AcDbEntity
  8
0
100
AcDbLine
 62
4
  6
CONTINUOUS
 10
10.7111241264
 20
8.5513969015
 11
10.7276828562
 21
8.5668073262
  0
LINE
  5
2D0
100
AcDbEntity
  8
0
100
AcDbLine
 62
4
  6
CONTINUOUS
 10
10.5620955616
 20
8.3133511949
 11
10.5786542966
 21
8.3232419533
  0
LINE
  5
2D1
100
AcDbEntity
  8
0
100
AcDbLine
 62
4
  6
CONTINUOUS
 10
10.5952130178
 20
8.4932004796
 11
10.5620955616
 21
8.4789385171
  0
LINE
  5
2D2
100
AcDbEntity
  8
0
100
AcDbLine
 62
4
  6
CONTINUOUS
 10
10.5786542966
 20
8.3232419533
 11
10.6117717527
 21
8.3209452499
  0
LINE
  5
2D3
100
AcDbEntity
  8
0
100
AcDbLine
 62
4
  6
CONTINUOUS
 10
10.7111241264
 20
8.3858096899
 11
10.661447937
 21
8.3892547453
  0
LINE
  5
2D4
100
AcDbEntity
  8
0
100
AcDbLine
 62
4
  6
CONTINUOUS
 10
11.8768586516
 20
8.3546418738
 11
11.7112713605
 21
8.3661253914
  0
LINE
  5
2D5
100
AcDbEntity
  8
0
100
AcDbLine
 62
4
  6
CONTINUOUS
 10
10.7276828562
 20
8.4840136651
 11
10.5952130178
 21
8.4932004796
  0
LINE
  5
2D6
100
AcDbEntity
  8
0
100
AcDbLine
 62
4
  6
CONTINUOUS
 10
10.5620955616
 20
8.5617320676
 11
10.7111241264
 21
8.5513969015
  0
LINE
  5
2D7
100
AcDbEntity
  8
0
100
AcDbLine
 62
4
  6
CONTINUOUS
 10
11.7112713605
 20
8.4820364948
 11
11.8768586516
 21
8.4705529772
  0
LINE
  5
2D8
100
AcDbEntity
  8
0
100
AcDbLine
 62
4
  6
CONTINUOUS
 10
11.3999672561
 20
8.3021609256
 11
11.1681450492
 21
8.367914069
  0
LINE
  5
2D9
100
AcDbEntity
  8
0
100
AcDbLine
 62
4
  6
CONTINUOUS
 10
11.3999672561
 20
8.202808571
 11
11.2343799615
 21
8.26396828
  0
LINE
  5
2DA
100
AcDbEntity
  8
0
100
AcDbLine
 62
4
  6
CONTINUOUS
 10
11.8768586516
 20
7.3224811088
 11
11.9099761112
 21
7.287066949
  0
LINE
  5
2DB
100
AcDbEntity
  8
0
100
AcDbLine
 62
4
  6
CONTINUOUS
 10
10.5786542966
 20
8.9635127998
 11
10.5620955616
 21
8.9812198179
  0
LINE
  5
2DC
100
AcDbEntity
  8
0
100
AcDbLine
 62
4
  6
CONTINUOUS
 10
11.1681450492
 20
7.804917273
 11
11.1681450492
 21
7.9042696484
  0
LINE
  5
2DD
100
AcDbEntity
  8
0
100
AcDbLine
 62
4
  6
CONTINUOUS
 10
11.2674974177
 20
7.8973795382
 11
11.2674974177
 21
7.7980271629
  0
LINE
  5
2DE
100
AcDbEntity
  8
0
100
AcDbLine
 62
4
  6
CONTINUOUS
 10
10.5620955616
 20
7.8552263364
 11
10.5786542966
 21
7.8706367054
  0
LINE
  5
2DF
100
AcDbEntity
  8
0
100
AcDbLine
 62
4
  6
CONTINUOUS
 10
11.9099761112
 20
8.5344911582
 11
11.6781539043
 21
8.5505680829
  0
LINE
  5
2E0
100
AcDbEntity
  8
0
100
AcDbLine
 62
4
  6
CONTINUOUS
 10
10.7276828562
 20
8.6496009873
 11
10.5620955616
 21
8.6610845052
  0
LINE
  5
2E1
100
AcDbEntity
  8
0
100
AcDbLine
 62
4
  6
CONTINUOUS
 10
10.7111241264
 20
8.7169842237
 11
10.4958606493
 21
8.7319127966
  0
LINE
  5
2E2
100
AcDbEntity
  8
0
100
AcDbLine
 62
4
  6
CONTINUOUS
 10
11.7112713605
 20
8.6641824829
 11
11.8768586516
 21
8.6526989653
  0
LINE
  5
2E3
100
AcDbEntity
  8
0
100
AcDbLine
 62
4
  6
CONTINUOUS
 10
11.9099761112
 20
8.7442351439
 11
11.6781539043
 21
8.7603120686
  0
LINE
  5
2E4
100
AcDbEntity
  8
0
100
AcDbLine
 62
4
  6
CONTINUOUS
 10
12.7348768725
 20
8.6983430836
 11
12.9666990793
 21
8.682266159
  0
LINE
  5
2E5
100
AcDbEntity
  8
0
100
AcDbLine
 62
4
  6
CONTINUOUS
 10
10.4958606493
 20
8.8864608976
 11
10.5124193843
 21
8.8797929902
  0
LINE
  5
2E6
100
AcDbEntity
  8
0
100
AcDbLine
 62
4
  6
CONTINUOUS
 10
10.5786542966
 20
9.1125414561
 11
10.5620955616
 21
9.1302484742
  0
LINE
  5
2E7
100
AcDbEntity
  8
0
100
AcDbLine
 62
4
  6
CONTINUOUS
 10
10.7276828562
 20
9.184999841
 11
10.7111241264
 21
9.2027068587
  0
LINE
  5
2E8
100
AcDbEntity
  8
0
100
AcDbLine
 62
4
  6
CONTINUOUS
 10
11.7112713605
 20
8.1729402927
 11
11.6781539043
 21
8.2083544384
  0
LINE
  5
2E9
100
AcDbEntity
  8
0
100
AcDbLine
 62
4
  6
CONTINUOUS
 10
11.7664671207
 20
7.1700690827
 11
11.8106237358
 21
7.0786935877
  0
LINE
  5
2EA
100
AcDbEntity
  8
0
100
AcDbLine
 62
4
  6
CONTINUOUS
 10
11.3337323369
 20
7.9810993543
 11
11.3337323369
 21
8.0694125707
  0
LINE
  5
2EB
100
AcDbEntity
  8
0
100
AcDbLine
 62
4
  6
CONTINUOUS
 10
11.7664671207
 20
8.9197747379
 11
11.8106237358
 21
9.0050256826
  0
LINE
  5
2EC
100
AcDbEntity
  8
0
100
AcDbLine
 62
7
  6
CONTINUOUS
 10
13.5095494033
 20
10.0973719626
 11
14.2860058978
 21
10.847371388
  0
LINE
  5
2ED
100
AcDbEntity
  8
0
100
AcDbLine
 62
4
  6
CONTINUOUS
 10
11.6781539043
 20
8.633361744
 11
11.7112713605
 21
8.6641824829
  0
LINE
  5
2EE
100
AcDbEntity
  8
0
100
AcDbLine
 62
4
  6
CONTINUOUS
 10
11.6781539043
 20
8.4512157559
 11
11.7112713605
 21
8.4820364948
  0
LINE
  5
2EF
100
AcDbEntity
  8
0
100
AcDbLine
 62
4
  6
CONTINUOUS
 10
9.3116355837
 20
6.6861043384
 11
9.3309541101
 21
6.6992534819
  0
LINE
  5
2F0
100
AcDbEntity
  8
0
100
AcDbLine
 62
4
  6
CONTINUOUS
 10
10.7276828562
 20
8.8648644177
 11
10.5620955616
 21
8.8763479356
  0
LINE
  5
2F1
100
AcDbEntity
  8
0
100
AcDbLine
 62
4
  6
CONTINUOUS
 10
10.5124193843
 20
8.8797929902
 11
10.4958606493
 21
8.8809413424
  0
LINE
  5
2F2
100
AcDbEntity
  8
0
100
AcDbLine
 62
4
  6
CONTINUOUS
 10
10.7111241264
 20
8.9543259859
 11
10.5786542966
 21
8.9635127998
  0
LINE
  5
2F3
100
AcDbEntity
  8
0
100
AcDbLine
 62
4
  6
CONTINUOUS
 10
10.6283304808
 20
9.109096401
 11
10.5786542966
 21
9.1125414561
  0
LINE
  5
2F4
100
AcDbEntity
  8
0
100
AcDbLine
 62
4
  6
CONTINUOUS
 10
11.7112713605
 20
8.3661253914
 11
11.6781539043
 21
8.4015395371
  0
LINE
  5
2F5
100
AcDbEntity
  8
0
100
AcDbLine
 62
4
  6
CONTINUOUS
 10
11.6781539043
 20
7.2203502402
 11
11.6781539043
 21
7.3031438736
  0
LINE
  5
2F6
100
AcDbEntity
  8
0
100
AcDbLine
 62
4
  6
CONTINUOUS
 10
11.6781539043
 20
7.628798866
 11
11.6781539043
 21
7.7612686906
  0
LINE
  5
2F7
100
AcDbEntity
  8
0
100
AcDbLine
 62
4
  6
CONTINUOUS
 10
11.6781539043
 20
7.8275036305
 11
11.6781539043
 21
7.9268560128
  0
LINE
  5
2F8
100
AcDbEntity
  8
0
100
AcDbLine
 62
4
  6
CONTINUOUS
 10
11.6781539043
 20
8.2083544384
 11
11.6781539043
 21
8.2745893231
  0
LINE
  5
2F9
100
AcDbEntity
  8
0
100
AcDbLine
 62
4
  6
CONTINUOUS
 10
11.6781539043
 20
8.4015395371
 11
11.6781539043
 21
8.4512157559
  0
LINE
  5
2FA
100
AcDbEntity
  8
0
100
AcDbLine
 62
4
  6
CONTINUOUS
 10
11.6781539043
 20
8.5505680829
 11
11.6781539043
 21
8.633361744
  0
LINE
  5
2FB
100
AcDbEntity
  8
0
100
AcDbLine
 62
4
  6
CONTINUOUS
 10
11.6781539043
 20
8.7603120686
 11
11.6781539043
 21
8.8596643956
  0
LINE
  5
2FC
100
AcDbEntity
  8
0
100
AcDbLine
 62
4
  6
CONTINUOUS
 10
11.7775062728
 20
8.8196568431
 11
11.7775062728
 21
8.7534219584
  0
LINE
  5
2FD
100
AcDbEntity
  8
0
100
AcDbLine
 62
4
  6
CONTINUOUS
 10
11.7775062728
 20
7.8868484603
 11
11.7775062728
 21
7.8206135204
  0
LINE
  5
2FE
100
AcDbEntity
  8
0
100
AcDbLine
 62
4
  6
CONTINUOUS
 10
11.843741192
 20
7.4406889158
 11
11.843741192
 21
7.5290021322
  0
LINE
  5
2FF
100
AcDbEntity
  8
0
100
AcDbLine
 62
4
  6
CONTINUOUS
 10
10.661447937
 20
7.1528696052
 11
10.5620955616
 21
7.0438486124
  0
LINE
  5
300
100
AcDbEntity
  8
0
100
AcDbLine
 62
4
  6
CONTINUOUS
 10
10.4958606493
 20
7.1477943945
 11
10.5124193843
 21
7.1632047704
  0
LINE
  5
301
100
AcDbEntity
  8
0
100
AcDbLine
 62
4
  6
CONTINUOUS
 10
11.9099761112
 20
8.3854626125
 11
11.8768586516
 21
8.3546418738
  0
LINE
  5
302
100
AcDbEntity
  8
0
100
AcDbLine
 62
4
  6
CONTINUOUS
 10
10.6945653966
 20
7.2168078139
 11
10.7276828562
 21
7.2476285664
  0
LINE
  5
303
100
AcDbEntity
  8
0
100
AcDbLine
 62
4
  6
CONTINUOUS
 10
11.9099761112
 20
8.1922775138
 11
11.8768586516
 21
8.1614567751
  0
LINE
  5
304
100
AcDbEntity
  8
0
100
AcDbLine
 62
4
  6
CONTINUOUS
 10
10.7111241264
 20
7.0335134463
 11
10.7276828562
 21
7.0489238243
  0
LINE
  5
305
100
AcDbEntity
  8
0
100
AcDbLine
 62
4
  6
CONTINUOUS
 10
10.4958606493
 20
7.4127340506
 11
10.7276828562
 21
7.5125682294
  0
LINE
  5
306
100
AcDbEntity
  8
0
100
AcDbLine
 62
4
  6
CONTINUOUS
 10
10.7111241264
 20
9.2027068587
 11
10.661447937
 21
9.2061519141
  0
LINE
  5
307
100
AcDbEntity
  8
0
100
AcDbLine
 62
4
  6
CONTINUOUS
 10
11.8768586516
 20
8.4705529772
 11
11.9099761112
 21
8.4351388312
  0
LINE
  5
308
100
AcDbEntity
  8
0
100
AcDbLine
 62
4
  6
CONTINUOUS
 10
11.8768586516
 20
8.6526989653
 11
11.9099761112
 21
8.6172848193
  0
LINE
  5
309
100
AcDbEntity
  8
0
100
AcDbLine
 62
4
  6
CONTINUOUS
 10
11.9099761112
 20
8.6172848193
 11
11.9099761112
 21
8.5344911582
  0
LINE
  5
30A
100
AcDbEntity
  8
0
100
AcDbLine
 62
4
  6
CONTINUOUS
 10
11.9099761112
 20
8.4351388312
 11
11.9099761112
 21
8.3854626125
  0
LINE
  5
30B
100
AcDbEntity
  8
0
100
AcDbLine
 62
4
  6
CONTINUOUS
 10
11.9099761112
 20
8.2585123985
 11
11.9099761112
 21
8.1922775138
  0
LINE
  5
30C
100
AcDbEntity
  8
0
100
AcDbLine
 62
4
  6
CONTINUOUS
 10
11.9099761112
 20
7.287066949
 11
11.9099761112
 21
7.2042733155
  0
LINE
  5
30D
100
AcDbEntity
  8
0
100
AcDbLine
 62
4
  6
CONTINUOUS
 10
11.9099761112
 20
7.8114267059
 11
11.9099761112
 21
7.9107790882
  0
LINE
  5
30E
100
AcDbEntity
  8
0
100
AcDbLine
 62
4
  6
CONTINUOUS
 10
11.9099761112
 20
8.7442351439
 11
11.9099761112
 21
8.8435874709
  0
LINE
  5
30F
100
AcDbEntity
  8
0
100
AcDbLine
 62
7
  6
CONTINUOUS
 10
13.8385254421
 20
9.9246514606
 11
13.8359583926
 21
9.9222173283
  0
LINE
  5
310
100
AcDbEntity
  8
0
100
AcDbLine
 62
4
  6
CONTINUOUS
 10
11.8106237358
 20
9.0050256826
 11
11.8547803475
 21
8.9136501948
  0
LINE
  5
311
100
AcDbEntity
  8
0
100
AcDbLine
 62
4
  6
CONTINUOUS
 10
11.8106237358
 20
7.0786935877
 11
11.8547803475
 21
7.1639445396
  0
LINE
  5
312
100
AcDbEntity
  8
0
100
AcDbLine
 62
4
  6
CONTINUOUS
 10
11.6781539043
 20
7.3031438736
 11
11.7112713605
 21
7.3339646264
  0
LINE
  5
313
100
AcDbEntity
  8
0
100
AcDbLine
 62
7
  6
CONTINUOUS
 10
13.5095494033
 20
10.0973719626
 11
7.7139941022
 21
10.4992950878
  0
LINE
  5
314
100
AcDbEntity
  8
0
100
AcDbLine
 62
7
  6
CONTINUOUS
 10
13.5095494033
 20
5.7507054867
 11
13.5095494033
 21
10.0973719626
  0
LINE
  5
315
100
AcDbEntity
  8
0
100
AcDbLine
 62
7
  6
CONTINUOUS
 10
14.2860058978
 20
10.847371388
 11
8.4904505967
 21
11.2492945133
  0
LINE
  5
316
100
AcDbEntity
  8
0
100
AcDbLine
 62
7
  6
CONTINUOUS
 10
14.2860058978
 20
10.847371388
 11
14.2860058978
 21
6.5007049122
  0
LINE
  5
317
100
AcDbEntity
  8
0
100
AcDbLine
 62
7
  6
CONTINUOUS
 10
14.2860058978
 20
6.5007049122
 11
13.5095494033
 21
5.7507054867
  0
SPLINE
  5
318
100
AcDbEntity
  8
0
100
AcDbSpline
 62
7
  6
CONTINUOUS
 70
0
 71
3
 72
23
 73
19
 74
0
 42
0.0000001
 43
0.0000001
 44
0.0000000001
 40
0.0
 40
0.0
 40
0.0
 40
0.0
 40
0.0764222838
 40
0.1504661461
 40
0.2222018012
 40
0.2917109382
 40
0.3590900495
 40
0.4244475032
 40
0.4879038951
 40
0.5495927372
 40
0.6096609962
 40
0.6682702169
 40
0.7255962326
 40
0.7818281432
 40
0.8371677418
 40
0.8918276491
 40
0.9460291917
 40
1.0
 40
1.0
 40
1.0
 40
1.0
 10
13.8977776506
 20
10.2463449485
 30
0.0
 10
13.8997738781
 20
10.2482731564
 30
0.0
 10
13.9037655457
 20
10.2520067886
 30
0.0
 10
13.9098481654
 20
10.2573122422
 30
0.0
 10
13.9159280326
 20
10.2622311473
 30
0.0
 10
13.9220033298
 20
10.2667617651
 30
0.0
 10
13.9280723634
 20
10.2709028209
 30
0.0
 10
13.9341335918
 20
10.2746530758
 30
0.0
 10
13.9401854418
 20
10.2780113608
 30
0.0
 10
13.9462262475
 20
10.2809766424
 30
0.0
 10
13.952254389
 20
10.2835478006
 30
0.0
 10
13.9582681722
 20
10.2857238776
 30
0.0
 10
13.9642658519
 20
10.2875040806
 30
0.0
 10
13.9702456929
 20
10.2888875418
 30
0.0
 10
13.9762058062
 20
10.2898736617
 30
0.0
 10
13.9821443784
 20
10.2904619589
 30
0.0
 10
13.9880590924
 20
10.2906519936
 30
0.0
 10
13.9919886496
 20
10.2905129695
 30
0.0
 10
13.993943999
 20
10.2903773599
 30
0.0
  0
SPLINE
  5
319
100
AcDbEntity
  8
0
100
AcDbSpline
 62
7
  6
CONTINUOUS
 70
0
 71
3
 72
23
 73
19
 74
0
 42
0.0000001
 43
0.0000001
 44
0.0000000001
 40
0.0
 40
0.0
 40
0.0
 40
0.0
 40
0.0637764154
 40
0.1273451281
 40
0.190701988
 40
0.253856063
 40
0.3168132283
 40
0.3795820791
 40
0.4421733864
 40
0.5045993414
 40
0.5668738629
 40
0.629012379
 40
0.6910316532
 40
0.7529496461
 40
0.8147853522
 40
0.8765586034
 40
0.9382898574
 40
1.0
 40
1.0
 40
1.0
 40
1.0
 10
13.2989775833
 20
6.308159016
 30
0.0
 10
13.2989775833
 20
6.3028515829
 30
0.0
 10
13.2987235197
 20
6.292252204
 30
0.0
 10
13.2975769566
 20
6.2764176395
 30
0.0
 10
13.2956678555
 20
6.2607085499
 30
0.0
 10
13.2930008153
 20
6.2451619211
 30
0.0
 10
13.2895818063
 20
6.2298132219
 30
0.0
 10
13.285418738
 20
6.2146979348
 30
0.0
 10
13.2805211866
 20
6.1998508932
 30
0.0
 10
13.2749003386
 20
6.1853063499
 30
0.0
 10
13.2685691743
 20
6.171097838
 30
0.0
 10
13.2615422837
 20
6.1572581164
 30
0.0
 10
13.2538358117
 20
6.1438191295
 30
0.0
 10
13.2454674889
 20
6.1308118867
 30
0.0
 10
13.2364566731
 20
6.1182663945
 30
0.0
 10
13.2268240254
 20
6.1062114964
 30
0.0
 10
13.2165920954
 20
6.0946754156
 30
0.0
 10
13.2093856712
 20
6.0873469559
 30
0.0
 10
13.2056919547
 20
6.0837790987
 30
0.0
  0
SPLINE
  5
31A
100
AcDbEntity
  8
0
100
AcDbSpline
 62
7
  6
CONTINUOUS
 70
0
 71
3
 72
43
 73
39
 74
0
 42
0.0000001
 43
0.0000001
 44
0.0000000001
 40
0.0
 40
0.0
 40
0.0
 40
0.0
 40
0.0149723098
 40
0.0299476795
 40
0.0449291474
 40
0.05991972
 40
0.0749223413
 40
0.0899398895
 40
0.1049751458
 40
0.1200307886
 40
0.1502075383
 40
0.1804946787
 40
0.2109083087
 40
0.2414615673
 40
0.2721643694
 40
0.303023226
 40
0.3340411482
 40
0.3652176339
 40
0.3965487319
 40
0.4280271774
 40
0.4596425917
 40
0.4913817403
 40
0.5232288393
 40
0.555165905
 40
0.5871731364
 40
0.6192293252
 40
0.6513122868
 40
0.6833993039
 40
0.7154675788
 40
0.7474946857
 40
0.7794590188
 40
0.8113402295
 40
0.8431196416
 40
0.8747806564
 40
0.906309065
 40
0.9376935582
 40
0.9689254026
 40
1.0
 40
1.0
 40
1.0
 40
1.0
 10
12.727706204
 20
6.5786261183
 30
0.0
 10
12.7305598985
 20
6.5813825764
 30
0.0
 10
12.7363781065
 20
6.5867832347
 30
0.0
 10
12.7454214662
 20
6.5945318081
 30
0.0
 10
12.754769275
 20
6.6019183537
 30
0.0
 10
12.7644085686
 20
6.6089324322
 30
0.0
 10
12.7743260955
 20
6.6155645073
 30
0.0
 10
12.7845081445
 20
6.6218054098
 30
0.0
 10
12.794940949
 20
6.6276466017
 30
0.0
 10
12.8091752232
 20
6.6348959107
 30
0.0
 10
12.8275323869
 20
6.6429207504
 30
0.0
 10
12.850305021
 20
6.6508257331
 30
0.0
 10
12.8737174985
 20
6.656972274
 30
0.0
 10
12.8976399714
 20
6.6613263552
 30
0.0
 10
12.921940959
 20
6.663864452
 30
0.0
 10
12.9464866754
 20
6.6645728864
 30
0.0
 10
12.9711421427
 20
6.6634480885
 30
0.0
 10
12.9957718273
 20
6.6604965444
 30
0.0
 10
13.0202404052
 20
6.6557347622
 30
0.0
 10
13.0444134888
 20
6.6491891651
 30
0.0
 10
13.0681583574
 20
6.6408959413
 30
0.0
 10
13.0913446781
 20
6.630900845
 30
0.0
 10
13.113845209
 20
6.619258932
 30
0.0
 10
13.1355364876
 20
6.6060342583
 30
0.0
 10
13.1562994994
 20
6.5912995281
 30
0.0
 10
13.1760203216
 20
6.5751356972
 30
0.0
 10
13.1945907414
 20
6.5576315314
 30
0.0
 10
13.2119088419
 20
6.5388831239
 30
0.0
 10
13.2278795563
 20
6.5189933729
 30
0.0
 10
13.2424151842
 20
6.4980714236
 30
0.0
 10
13.2554358765
 20
6.4762320803
 30
0.0
 10
13.2668700616
 20
6.4535951735
 30
0.0
 10
13.2766548436
 20
6.4302849267
 30
0.0
 10
13.2847363236
 20
6.4064292302
 30
0.0
 10
13.291069962
 20
6.3821591377
 30
0.0
 10
13.2956206682
 20
6.3576074623
 30
0.0
 10
13.2983633032
 20
6.3329107705
 30
0.0
 10
13.2989775833
 20
6.3163935988
 30
0.0
 10
13.2989775833
 20
6.308159016
 30
0.0
  0
SPLINE
  5
31B
100
AcDbEntity
  8
0
100
AcDbSpline
 62
7
  6
CONTINUOUS
 70
0
 71
3
 72
106
 73
102
 74
0
 42
0.0000001
 43
0.0000001
 44
0.0000000001
 40
0.0
 40
0.0
 40
0.0
 40
0.0
 40
0.0013572614
 40
0.0027170801
 40
0.0040819972
 40
0.0054545222
 40
0.0068371197
 40
0.0082321976
 40
0.0110684626
 40
0.0139816382
 40
0.0169879175
 40
0.0201018457
 40
0.0233363321
 40
0.0267026476
 40
0.0302105675
 40
0.0338684402
 40
0.037683369
 40
0.0416612997
 40
0.0458071843
 40
0.0501250681
 40
0.0546182117
 40
0.0592891763
 40
0.0641398973
 40
0.0691717727
 40
0.0743856914
 40
0.079782128
 40
0.0853611333
 40
0.0911224352
 40
0.0970654022
 40
0.1031891457
 40
0.1094924693
 40
0.1159739645
 40
0.1226319594
 40
0.1294645988
 40
0.1364698038
 40
0.1436453299
 40
0.1509887441
 40
0.1584974579
 40
0.1661687265
 40
0.1739996546
 40
0.1819872188
 40
0.1901282493
 40
0.1984194707
 40
0.2154385539
 40
0.2330160976
 40
0.2511218856
 40
0.2697242008
 40
0.2887899589
 40
0.3082848336
 40
0.3281733744
 40
0.3484191186
 40
0.3689846999
 40
0.3898319534
 40
0.4109220189
 40
0.432215442
 40
0.4536722745
 40
0.4752521738
 40
0.4969145015
 40
0.5186184218
 40
0.5403229993
 40
0.5619872972
 40
0.5835704748
 40
0.6050318861
 40
0.6263311775
 40
0.6474283868
 40
0.6682840422
 40
0.6888592629
 40
0.7091158602
 40
0.7290164402
 40
0.7485245095
 40
0.7676045831
 40
0.7862222967
 40
0.8043445243
 40
0.8219395028
 40
0.8389769656
 40
0.8472777114
 40
0.855428486
 40
0.8634259994
 40
0.8712670756
 40
0.8789486853
 40
0.8864679163
 40
0.8938220274
 40
0.9010084015
 40
0.9080246176
 40
0.9148683932
 40
0.9215376665
 40
0.9280305379
 40
0.9343453534
 40
0.9404806572
 40
0.9464352674
 40
0.9522082492
 40
0.9577989756
 40
0.9632071305
 40
0.9684327588
 40
0.9734763047
 40
0.9783386256
 40
0.9830210644
 40
0.9875255238
 40
0.9918546226
 40
0.9960115463
 40
1.0
 40
1.0
 40
1.0
 40
1.0
 10
13.8016113021
 20
7.517038581
 30
0.0
 10
13.8003150672
 20
7.517128479
 30
0.0
 10
13.7977238195
 20
7.5173667288
 30
0.0
 10
13.7938511229
 20
7.5178986785
 30
0.0
 10
13.7899915228
 20
7.5186052481
 30
0.0
 10
13.7861456589
 20
7.5194862834
 30
0.0
 10
13.7823139501
 20
7.5205416893
 30
0.0
 10
13.7771971072
 20
7.5221899735
 30
0.0
 10
13.7708250442
 20
7.5246987833
 30
0.0
 10
13.7632894089
 20
7.5283882555
 30
0.0
 10
13.7558251185
 20
7.5327706924
 30
0.0
 10
13.7484359599
 20
7.5378427435
 30
0.0
 10
13.7411252006
 20
7.5436013578
 30
0.0
 10
13.7338959181
 20
7.5500430342
 30
0.0
 10
13.7267513368
 20
7.5571643713
 30
0.0
 10
13.7196944688
 20
7.5649615566
 30
0.0
 10
13.71272854
 20
7.5734307113
 30
0.0
 10
13.7058566284
 20
7.5825675588
 30
0.0
 10
13.6990819639
 20
7.5923676213
 30
0.0
 10
13.692407692
 20
7.6028260514
 30
0.0
 10
13.6858370079
 20
7.6139377116
 30
0.0
 10
13.679373088
 20
7.6256971283
 30
0.0
 10
13.6730190541
 20
7.6380984884
 30
0.0
 10
13.6667780713
 20
7.6511356713
 30
0.0
 10
13.660653161
 20
7.6648021957
 30
0.0
 10
13.6546474394
 20
7.6790912925
 30
0.0
 10
13.6487638128
 20
7.6939958296
 30
0.0
 10
13.6430053161
 20
7.7095083974
 30
0.0
 10
13.6373747355
 20
7.7256212342
 30
0.0
 10
13.6318749958
 20
7.7423263041
 30
0.0
 10
13.6265087646
 20
7.7596152365
 30
0.0
 10
13.6212788312
 20
7.7774793867
 30
0.0
 10
13.6161877477
 20
7.7959097957
 30
0.0
 10
13.6112381486
 20
7.8148972304
 30
0.0
 10
13.6064324711
 20
7.834432163
 30
0.0
 10
13.6017731816
 20
7.8545047941
 30
0.0
 10
13.5972626004
 20
7.8751050462
 30
0.0
 10
13.5929030172
 20
7.896222577
 30
0.0
 10
13.5886966309
 20
7.9178467792
 30
0.0
 10
13.5846455491
 20
7.9399667923
 30
0.0
 10
13.5807518464
 20
7.9625714963
 30
0.0
 10
13.5770174312
 20
7.9856495519
 30
0.0
 10
13.5722114562
 20
8.0173113035
 30
0.0
 10
13.5666291439
 20
8.057990455
 30
0.0
 10
13.5606511743
 20
8.1080910957
 30
0.0
 10
13.5553494155
 20
8.159791568
 30
0.0
 10
13.5507346376
 20
8.2129878893
 30
0.0
 10
13.5468162437
 20
8.2675732196
 30
0.0
 10
13.5436022145
 20
8.3234378482
 30
0.0
 10
13.5410991033
 20
8.3804694857
 30
0.0
 10
13.5393120212
 20
8.4385534749
 30
0.0
 10
13.538244629
 20
8.4975730301
 30
0.0
 10
13.5378991297
 20
8.557409473
 30
0.0
 10
13.5382762657
 20
8.6179424741
 30
0.0
 10
13.5393753171
 20
8.679050296
 30
0.0
 10
13.5411941043
 20
8.7406100404
 30
0.0
 10
13.5437289925
 20
8.802497896
 30
0.0
 10
13.5469748999
 20
8.8645893894
 30
0.0
 10
13.5509253077
 20
8.9267596361
 30
0.0
 10
13.5555722737
 20
8.9888835926
 30
0.0
 10
13.5609064482
 20
9.0508363092
 30
0.0
 10
13.5669170932
 20
9.1124931819
 30
0.0
 10
13.5735921033
 20
9.1737302041
 30
0.0
 10
13.5809180307
 20
9.2344242173
 30
0.0
 10
13.5888801112
 20
9.2944531595
 30
0.0
 10
13.5974622944
 20
9.3536963127
 30
0.0
 10
13.6066472753
 20
9.4120345465
 30
0.0
 10
13.6164165286
 20
9.4693505602
 30
0.0
 10
13.6267503456
 20
9.5255291206
 30
0.0
 10
13.6376278734
 20
9.5804572955
 30
0.0
 10
13.649027156
 20
9.6340246893
 30
0.0
 10
13.6609251788
 20
9.6861236506
 30
0.0
 10
13.6732979117
 20
9.7366495608
 30
0.0
 10
13.6861203665
 20
9.7855008128
 30
0.0
 10
13.6972531342
 20
9.8250682573
 30
0.0
 10
13.7063749366
 20
9.855803681
 30
0.0
 10
13.7132531578
 20
9.8781764574
 30
0.0
 10
13.7202240325
 20
9.9000591395
 30
0.0
 10
13.7272841055
 20
9.9214407428
 30
0.0
 10
13.7344297705
 20
9.9423105274
 30
0.0
 10
13.7416574866
 20
9.9626580036
 30
0.0
 10
13.7489635478
 20
9.982472963
 30
0.0
 10
13.7563443501
 20
10.0017454455
 30
0.0
 10
13.7637960973
 20
10.0204657924
 30
0.0
 10
13.7713151229
 20
10.0386245959
 30
0.0
 10
13.7788975592
 20
10.0562127666
 30
0.0
 10
13.7865396748
 20
10.0732214707
 30
0.0
 10
13.7942375513
 20
10.0896422058
 30
0.0
 10
13.8019873899
 20
10.1054667351
 30
0.0
 10
13.8097852443
 20
10.1206871596
 30
0.0
 10
13.8176272504
 20
10.1352958609
 30
0.0
 10
13.8255094521
 20
10.149285555
 30
0.0
 10
13.8334279231
 20
10.1626492665
 30
0.0
 10
13.8413787274
 20
10.175380346
 30
0.0
 10
13.8493579012
 20
10.1874724781
 30
0.0
 10
13.8573615218
 20
10.1989196266
 30
0.0
 10
13.865385573
 20
10.2097161588
 30
0.0
 10
13.8734262407
 20
10.2198567328
 30
0.0
 10
13.8814796927
 20
10.2293364953
 30
0.0
 10
13.8895417833
 20
10.2381503261
 30
0.0
 10
13.8950313419
 20
10.243692218
 30
0.0
 10
13.8977776506
 20
10.2463449485
 30
0.0
  0
SPLINE
  5
31C
100
AcDbEntity
  8
0
100
AcDbSpline
 62
7
  6
CONTINUOUS
 70
0
 71
3
 72
93
 73
89
 74
0
 42
0.0000001
 43
0.0000001
 44
0.0000000001
 40
0.0
 40
0.0
 40
0.0
 40
0.0
 40
0.0036898638
 40
0.007521948
 40
0.0114997523
 40
0.0156261472
 40
0.0199035085
 40
0.0243336985
 40
0.0289181642
 40
0.0336579819
 40
0.0385538443
 40
0.0436061737
 40
0.0488150751
 40
0.0541804029
 40
0.0597017945
 40
0.0653786301
 40
0.0712101319
 40
0.0771953083
 40
0.0833329986
 40
0.0896219057
 40
0.0960605422
 40
0.1026473191
 40
0.1093804928
 40
0.1162581924
 40
0.1304389697
 40
0.1451727162
 40
0.1604406533
 40
0.1762225383
 40
0.1924967907
 40
0.2092406004
 40
0.2264300205
 40
0.2440400698
 40
0.262044819
 40
0.2804174694
 40
0.2991304232
 40
0.318155354
 40
0.3374632839
 40
0.3570246521
 40
0.3768093795
 40
0.3967869309
 40
0.4169263812
 40
0.4371964833
 40
0.4575657312
 40
0.4780024211
 40
0.4984747144
 40
0.5189507028
 40
0.5393984719
 40
0.5597861622
 40
0.5800820319
 40
0.6002545222
 40
0.6202723213
 40
0.6401044266
 40
0.6597202066
 40
0.6790894665
 40
0.6981825196
 40
0.7169702499
 40
0.7354241777
 40
0.7535165272
 40
0.7712203023
 40
0.7885093676
 40
0.8053585194
 40
0.8217435675
 40
0.8376414234
 40
0.8530302068
 40
0.8678893588
 40
0.8821997556
 40
0.8891437254
 40
0.8959440691
 40
0.9025988542
 40
0.9091063051
 40
0.9154647343
 40
0.9216726205
 40
0.9277285816
 40
0.93363137
 40
0.9393799445
 40
0.9449734018
 40
0.9504110573
 40
0.9556924341
 40
0.9608172579
 40
0.9657855502
 40
0.9705975644
 40
0.9752538626
 40
0.9797553315
 40
0.9841032123
 40
0.9882992601
 40
0.9923456533
 40
0.9962449198
 40
1.0
 40
1.0
 40
1.0
 40
1.0
 10
13.6981640327
 20
7.9007179085
 30
0.0
 10
13.6965414911
 20
7.9027129012
 30
0.0
 10
13.6933179665
 20
7.9068487941
 30
0.0
 10
13.6886323388
 20
7.913352665
 30
0.0
 10
13.6840081906
 20
7.92026944
 30
0.0
 10
13.6794473836
 20
7.9275961111
 30
0.0
 10
13.6749517913
 20
7.9353297714
 30
0.0
 10
13.6705231747
 20
7.9434672185
 30
0.0
 10
13.6661633308
 20
7.9520051301
 30
0.0
 10
13.6618740846
 20
7.9609400208
 30
0.0
 10
13.6576571149
 20
7.9702681949
 30
0.0
 10
13.65351423
 20
7.9799858402
 30
0.0
 10
13.6494470944
 20
7.9900889389
 30
0.0
 10
13.6454573832
 20
8.0005733251
 30
0.0
 10
13.6415467982
 20
8.0114346816
 30
0.0
 10
13.637716889
 20
8.0226685041
 30
0.0
 10
13.6339693086
 20
8.0342701596
 30
0.0
 10
13.6303055836
 20
8.0462348392
 30
0.0
 10
13.6267272234
 20
8.0585575872
 30
0.0
 10
13.623235768
 20
8.0712333049
 30
0.0
 10
13.6198326039
 20
8.08425673
 30
0.0
 10
13.6165192055
 20
8.097622465
 30
0.0
 10
13.613296913
 20
8.1113249748
 30
0.0
 10
13.60908086
 20
8.1302291943
 30
0.0
 10
13.6040590941
 20
8.1546645727
 30
0.0
 10
13.5984767445
 20
8.1849474723
 30
0.0
 10
13.5932878954
 20
8.2164316037
 30
0.0
 10
13.5885012385
 20
8.2490646659
 30
0.0
 10
13.5841248185
 20
8.2827925841
 30
0.0
 10
13.5801659882
 20
8.3175593895
 30
0.0
 10
13.576631386
 20
8.3533073729
 30
0.0
 10
13.5735269436
 20
8.3899771735
 30
0.0
 10
13.5708578744
 20
8.4275078924
 30
0.0
 10
13.5686286674
 20
8.4658371917
 30
0.0
 10
13.5668430739
 20
8.5049013938
 30
0.0
 10
13.5655040906
 20
8.5446355885
 30
0.0
 10
13.5646139736
 20
8.5849737471
 30
0.0
 10
13.5641742309
 20
8.6258488365
 30
0.0
 10
13.5641856237
 20
8.6671929275
 30
0.0
 10
13.5646481542
 20
8.7089373058
 30
0.0
 10
13.5655610632
 20
8.7510125877
 30
0.0
 10
13.5669228457
 20
8.7933488387
 30
0.0
 10
13.5687312497
 20
8.8358756912
 30
0.0
 10
13.5709832837
 20
8.8785224584
 30
0.0
 10
13.5736752071
 20
8.9212182529
 30
0.0
 10
13.5768025411
 20
8.9638921061
 30
0.0
 10
13.580360086
 20
9.006473087
 30
0.0
 10
13.5843419267
 20
9.0488904181
 30
0.0
 10
13.5887414454
 20
9.0910735938
 30
0.0
 10
13.5935513152
 20
9.1329525007
 30
0.0
 10
13.5987635248
 20
9.1744575348
 30
0.0
 10
13.6043693952
 20
9.2155197147
 30
0.0
 10
13.6103595933
 20
9.2560707944
 30
0.0
 10
13.6167241474
 20
9.2960433808
 30
0.0
 10
13.6234524469
 20
9.3353710511
 30
0.0
 10
13.6305332773
 20
9.3739884614
 30
0.0
 10
13.6379548369
 20
9.4118314505
 30
0.0
 10
13.6457047579
 20
9.4488371474
 30
0.0
 10
13.6537701231
 20
9.4849440837
 30
0.0
 10
13.6621374745
 20
9.5200923027
 30
0.0
 10
13.6707928537
 20
9.554223454
 30
0.0
 10
13.6797218206
 20
9.5872808911
 30
0.0
 10
13.6889094825
 20
9.6192097546
 30
0.0
 10
13.698340509
 20
9.6499571348
 30
0.0
 10
13.7079991547
 20
9.679471967
 30
0.0
 10
13.7163052698
 20
9.7032318727
 30
0.0
 10
13.7230597338
 20
9.7215800797
 30
0.0
 10
13.7281216365
 20
9.7348650677
 30
0.0
 10
13.7332282975
 20
9.7478064244
 30
0.0
 10
13.7383775515
 20
9.7603988061
 30
0.0
 10
13.7435673065
 20
9.7726369756
 30
0.0
 10
13.7487953808
 20
9.7845158665
 30
0.0
 10
13.7540595863
 20
9.7960305617
 30
0.0
 10
13.7593577879
 20
9.8071762755
 30
0.0
 10
13.76468772
 20
9.8179484163
 30
0.0
 10
13.7700472265
 20
9.8283425106
 30
0.0
 10
13.7754340657
 20
9.8383542668
 30
0.0
 10
13.7808459803
 20
9.8479795611
 30
0.0
 10
13.7862807969
 20
9.8572143969
 30
0.0
 10
13.7917362053
 20
9.8660550046
 30
0.0
 10
13.7972100174
 20
9.8744977203
 30
0.0
 10
13.8026999615
 20
9.8825390661
 30
0.0
 10
13.8082037346
 20
9.8901757517
 30
0.0
 10
13.8137191874
 20
9.897404629
 30
0.0
 10
13.8192440727
 20
9.9042228303
 30
0.0
 10
13.8247762787
 20
9.9106275651
 30
0.0
 10
13.8303132937
 20
9.9166159485
 30
0.0
 10
13.8340761359
 20
9.9203992078
 30
0.0
 10
13.8359583926
 20
9.9222173283
 30
0.0
  0
SPLINE
  5
31D
100
AcDbEntity
  8
0
100
AcDbSpline
 62
7
  6
CONTINUOUS
 70
0
 71
3
 72
11
 73
7
 74
0
 42
0.0000001
 43
0.0000001
 44
0.0000000001
 40
0.0
 40
0.0
 40
0.0
 40
0.0
 40
0.2456027029
 40
0.4929886377
 40
0.7439001612
 40
1.0
 40
1.0
 40
1.0
 40
1.0
 10
13.6826083598
 20
7.9563242476
 30
0.0
 10
13.6808457152
 20
7.9564464952
 30
0.0
 10
13.6773165535
 20
7.9568487824
 30
0.0
 10
13.6720666905
 20
7.9579206022
 30
0.0
 10
13.6668560439
 20
7.9594606462
 30
0.0
 10
13.663451557
 20
7.9607826237
 30
0.0
 10
13.6617614557
 20
7.9615160946
 30
0.0
  0
SPLINE
  5
31E
100
AcDbEntity
  8
0
100
AcDbSpline
 62
7
  6
CONTINUOUS
 70
0
 71
3
 72
11
 73
7
 74
0
 42
0.0000001
 43
0.0000001
 44
0.0000000001
 40
0.0
 40
0.0
 40
0.0
 40
0.0
 40
0.2454629862
 40
0.4927668319
 40
0.7437079684
 40
1.0
 40
1.0
 40
1.0
 40
1.0
 10
13.8154417663
 20
9.8717237472
 30
0.0
 10
13.8136502054
 20
9.8718480002
 30
0.0
 10
13.8100403654
 20
9.8719355542
 30
0.0
 10
13.8046039385
 20
9.871581252
 30
0.0
 10
13.7991410086
 20
9.8707423547
 30
0.0
 10
13.7955286026
 20
9.869871358
 30
0.0
 10
13.793724551
 20
9.8693601157
 30
0.0
  0
SPLINE
  5
31F
100
AcDbEntity
  8
0
100
AcDbSpline
 62
7
  6
CONTINUOUS
 70
0
 71
3
 72
43
 73
39
 74
0
 42
0.0000001
 43
0.0000001
 44
0.0000000001
 40
0.0
 40
0.0
 40
0.0
 40
0.0
 40
0.0149723098
 40
0.0299476795
 40
0.0449291474
 40
0.05991972
 40
0.0749223413
 40
0.0899398895
 40
0.1049751458
 40
0.1200307886
 40
0.1502075383
 40
0.1804946787
 40
0.2109083087
 40
0.2414615673
 40
0.2721643694
 40
0.303023226
 40
0.3340411482
 40
0.3652176339
 40
0.3965487319
 40
0.4280271774
 40
0.4596425917
 40
0.4913817403
 40
0.5232288393
 40
0.555165905
 40
0.5871731364
 40
0.6192293252
 40
0.6513122868
 40
0.6833993039
 40
0.7154675788
 40
0.7474946857
 40
0.7794590188
 40
0.8113402295
 40
0.8431196416
 40
0.8747806564
 40
0.906309065
 40
0.9376935582
 40
0.9689254026
 40
1.0
 40
1.0
 40
1.0
 40
1.0
 10
13.2056919547
 20
6.0837790987
 30
0.0
 10
13.2028382602
 20
6.0810226406
 30
0.0
 10
13.1970200522
 20
6.0756219823
 30
0.0
 10
13.1879766925
 20
6.0678734089
 30
0.0
 10
13.1786288837
 20
6.0604868633
 30
0.0
 10
13.1689895901
 20
6.0534727848
 30
0.0
 10
13.1590720632
 20
6.0468407097
 30
0.0
 10
13.1488900141
 20
6.0405998072
 30
0.0
 10
13.1384572097
 20
6.0347586153
 30
0.0
 10
13.1242229355
 20
6.0275093063
 30
0.0
 10
13.1058657718
 20
6.0194844666
 30
0.0
 10
13.0830931376
 20
6.0115794839
 30
0.0
 10
13.0596806602
 20
6.005432943
 30
0.0
 10
13.0357581872
 20
6.0010788619
 30
0.0
 10
13.0114571997
 20
5.998540765
 30
0.0
 10
12.9869114833
 20
5.9978323306
 30
0.0
 10
12.962256016
 20
5.9989571286
 30
0.0
 10
12.9376263314
 20
6.0019086726
 30
0.0
 10
12.9131577534
 20
6.0066704548
 30
0.0
 10
12.8889846699
 20
6.013216052
 30
0.0
 10
12.8652398013
 20
6.0215092757
 30
0.0
 10
12.8420534805
 20
6.0315043721
 30
0.0
 10
12.8195529497
 20
6.0431462851
 30
0.0
 10
12.797861671
 20
6.0563709588
 30
0.0
 10
12.7770986593
 20
6.0711056889
 30
0.0
 10
12.757377837
 20
6.0872695198
 30
0.0
 10
12.7388074173
 20
6.1047736856
 30
0.0
 10
12.7214893167
 20
6.1235220932
 30
0.0
 10
12.7055186024
 20
6.1434118441
 30
0.0
 10
12.6909829745
 20
6.1643337934
 30
0.0
 10
12.6779622822
 20
6.1861731367
 30
0.0
 10
12.6665280971
 20
6.2088100435
 30
0.0
 10
12.6567433151
 20
6.2321202904
 30
0.0
 10
12.648661835
 20
6.2559759868
 30
0.0
 10
12.6423281967
 20
6.2802460793
 30
0.0
 10
12.6377774905
 20
6.3047977547
 30
0.0
 10
12.6350348555
 20
6.3294944465
 30
0.0
 10
12.6344205754
 20
6.3460116183
 30
0.0
 10
12.6344205754
 20
6.354246201
 30
0.0
  0
SPLINE
  5
320
100
AcDbEntity
  8
0
100
AcDbSpline
 62
7
  6
CONTINUOUS
 70
0
 71
3
 72
23
 73
19
 74
0
 42
0.0000001
 43
0.0000001
 44
0.0000000001
 40
0.0
 40
0.0
 40
0.0
 40
0.0
 40
0.0637764154
 40
0.1273451281
 40
0.190701988
 40
0.253856063
 40
0.3168132283
 40
0.3795820791
 40
0.4421733864
 40
0.5045993414
 40
0.5668738629
 40
0.629012379
 40
0.6910316532
 40
0.7529496461
 40
0.8147853522
 40
0.8765586034
 40
0.9382898574
 40
1.0
 40
1.0
 40
1.0
 40
1.0
 10
12.6344205754
 20
6.354246201
 30
0.0
 10
12.6344205754
 20
6.3595536341
 30
0.0
 10
12.6346746389
 20
6.3701530131
 30
0.0
 10
12.635821202
 20
6.3859875775
 30
0.0
 10
12.6377303032
 20
6.4016966672
 30
0.0
 10
12.6403973434
 20
6.417243296
 30
0.0
 10
12.6438163524
 20
6.4325919951
 30
0.0
 10
12.6479794207
 20
6.4477072822
 30
0.0
 10
12.6528769721
 20
6.4625543238
 30
0.0
 10
12.6584978201
 20
6.4770988672
 30
0.0
 10
12.6648289844
 20
6.4913073791
 30
0.0
 10
12.671855875
 20
6.5051471007
 30
0.0
 10
12.679562347
 20
6.5185860876
 30
0.0
 10
12.6879306698
 20
6.5315933304
 30
0.0
 10
12.6969414856
 20
6.5441388225
 30
0.0
 10
12.7065741333
 20
6.5561937207
 30
0.0
 10
12.7168060633
 20
6.5677298015
 30
0.0
 10
12.7240124875
 20
6.5750582611
 30
0.0
 10
12.727706204
 20
6.5786261183
 30
0.0
  0
SPLINE
  5
321
100
AcDbEntity
  8
0
100
AcDbSpline
 62
7
  6
CONTINUOUS
 70
0
 71
3
 72
106
 73
102
 74
0
 42
0.0000001
 43
0.0000001
 44
0.0000000001
 40
0.0
 40
0.0
 40
0.0
 40
0.0
 40
0.0013572614
 40
0.0027170801
 40
0.0040819972
 40
0.0054545222
 40
0.0068371197
 40
0.0082321976
 40
0.0110684626
 40
0.0139816382
 40
0.0169879175
 40
0.0201018457
 40
0.0233363321
 40
0.0267026476
 40
0.0302105675
 40
0.0338684402
 40
0.037683369
 40
0.0416612997
 40
0.0458071843
 40
0.0501250681
 40
0.0546182117
 40
0.0592891763
 40
0.0641398973
 40
0.0691717727
 40
0.0743856914
 40
0.079782128
 40
0.0853611333
 40
0.0911224352
 40
0.0970654022
 40
0.1031891457
 40
0.1094924693
 40
0.1159739645
 40
0.1226319594
 40
0.1294645988
 40
0.1364698038
 40
0.1436453299
 40
0.1509887441
 40
0.1584974579
 40
0.1661687265
 40
0.1739996546
 40
0.1819872188
 40
0.1901282493
 40
0.1984194707
 40
0.2154385539
 40
0.2330160976
 40
0.2511218856
 40
0.2697242008
 40
0.2887899589
 40
0.3082848336
 40
0.3281733744
 40
0.3484191186
 40
0.3689846999
 40
0.3898319534
 40
0.4109220189
 40
0.432215442
 40
0.4536722745
 40
0.4752521738
 40
0.4969145015
 40
0.5186184218
 40
0.5403229993
 40
0.5619872972
 40
0.5835704748
 40
0.6050318861
 40
0.6263311775
 40
0.6474283868
 40
0.6682840422
 40
0.6888592629
 40
0.7091158602
 40
0.7290164402
 40
0.7485245095
 40
0.7676045831
 40
0.7862222967
 40
0.8043445243
 40
0.8219395028
 40
0.8389769656
 40
0.8472777114
 40
0.855428486
 40
0.8634259994
 40
0.8712670756
 40
0.8789486853
 40
0.8864679163
 40
0.8938220274
 40
0.9010084015
 40
0.9080246176
 40
0.9148683932
 40
0.9215376665
 40
0.9280305379
 40
0.9343453534
 40
0.9404806572
 40
0.9464352674
 40
0.9522082492
 40
0.9577989756
 40
0.9632071305
 40
0.9684327588
 40
0.9734763047
 40
0.9783386256
 40
0.9830210644
 40
0.9875255238
 40
0.9918546226
 40
0.9960115463
 40
1.0
 40
1.0
 40
1.0
 40
1.0
 10
13.993943999
 20
10.2903773599
 30
0.0
 10
13.9952402339
 20
10.2902874619
 30
0.0
 10
13.9978314816
 20
10.2900492121
 30
0.0
 10
14.0017041782
 20
10.2895172624
 30
0.0
 10
14.0055637784
 20
10.2888106928
 30
0.0
 10
14.0094096423
 20
10.2879296575
 30
0.0
 10
14.013241351
 20
10.2868742516
 30
0.0
 10
14.0183581939
 20
10.2852259674
 30
0.0
 10
14.024730257
 20
10.2827171576
 30
0.0
 10
14.0322658922
 20
10.2790276854
 30
0.0
 10
14.0397301826
 20
10.2746452485
 30
0.0
 10
14.0471193412
 20
10.2695731974
 30
0.0
 10
14.0544301006
 20
10.2638145831
 30
0.0
 10
14.061659383
 20
10.2573729067
 30
0.0
 10
14.0688039643
 20
10.2502515696
 30
0.0
 10
14.0758608323
 20
10.2424543843
 30
0.0
 10
14.0828267612
 20
10.2339852296
 30
0.0
 10
14.0896986727
 20
10.2248483821
 30
0.0
 10
14.0964733372
 20
10.2150483196
 30
0.0
 10
14.1031476092
 20
10.2045898895
 30
0.0
 10
14.1097182932
 20
10.1934782293
 30
0.0
 10
14.1161822132
 20
10.1817188126
 30
0.0
 10
14.1225362471
 20
10.1693174525
 30
0.0
 10
14.1287772298
 20
10.1562802696
 30
0.0
 10
14.1349021402
 20
10.1426137452
 30
0.0
 10
14.1409078617
 20
10.1283246484
 30
0.0
 10
14.1467914883
 20
10.1134201114
 30
0.0
 10
14.1525499851
 20
10.0979075435
 30
0.0
 10
14.1581805656
 20
10.0817947067
 30
0.0
 10
14.1636803053
 20
10.0650896368
 30
0.0
 10
14.1690465365
 20
10.0478007044
 30
0.0
 10
14.1742764699
 20
10.0299365542
 30
0.0
 10
14.1793675534
 20
10.0115061452
 30
0.0
 10
14.1843171526
 20
9.9925187105
 30
0.0
 10
14.18912283
 20
9.9729837779
 30
0.0
 10
14.1937821195
 20
9.9529111468
 30
0.0
 10
14.1982927007
 20
9.9323108947
 30
0.0
 10
14.202652284
 20
9.9111933639
 30
0.0
 10
14.2068586703
 20
9.8895691617
 30
0.0
 10
14.210909752
 20
9.8674491486
 30
0.0
 10
14.2148034547
 20
9.8448444446
 30
0.0
 10
14.2185378699
 20
9.821766389
 30
0.0
 10
14.223343845
 20
9.7901046374
 30
0.0
 10
14.2289261572
 20
9.7494254859
 30
0.0
 10
14.2349041269
 20
9.6993248452
 30
0.0
 10
14.2402058857
 20
9.6476243729
 30
0.0
 10
14.2448206636
 20
9.5944280516
 30
0.0
 10
14.2487390574
 20
9.5398427213
 30
0.0
 10
14.2519530866
 20
9.4839780927
 30
0.0
 10
14.2544561979
 20
9.4269464552
 30
0.0
 10
14.2562432799
 20
9.368862466
 30
0.0
 10
14.2573106722
 20
9.3098429108
 30
0.0
 10
14.2576561715
 20
9.2500064679
 30
0.0
 10
14.2572790355
 20
9.1894734668
 30
0.0
 10
14.256179984
 20
9.1283656449
 30
0.0
 10
14.2543611969
 20
9.0668059005
 30
0.0
 10
14.2518263086
 20
9.0049180449
 30
0.0
 10
14.2485804012
 20
8.9428265515
 30
0.0
 10
14.2446299935
 20
8.8806563048
 30
0.0
 10
14.2399830275
 20
8.8185323483
 30
0.0
 10
14.2346488529
 20
8.7565796317
 30
0.0
 10
14.2286382079
 20
8.694922759
 30
0.0
 10
14.2219631978
 20
8.6336857368
 30
0.0
 10
14.2146372705
 20
8.5729917236
 30
0.0
 10
14.20667519
 20
8.5129627814
 30
0.0
 10
14.1980930067
 20
8.4537196282
 30
0.0
 10
14.1889080258
 20
8.3953813944
 30
0.0
 10
14.1791387725
 20
8.3380653807
 30
0.0
 10
14.1688049555
 20
8.2818868203
 30
0.0
 10
14.1579274278
 20
8.2269586454
 30
0.0
 10
14.1465281451
 20
8.1733912516
 30
0.0
 10
14.1346301223
 20
8.1212922903
 30
0.0
 10
14.1222573895
 20
8.0707663801
 30
0.0
 10
14.1094349346
 20
8.0219151281
 30
0.0
 10
14.0983021669
 20
7.9823476836
 30
0.0
 10
14.0891803645
 20
7.9516122599
 30
0.0
 10
14.0823021434
 20
7.9292394835
 30
0.0
 10
14.0753312686
 20
7.9073568014
 30
0.0
 10
14.0682711956
 20
7.8859751981
 30
0.0
 10
14.0611255306
 20
7.8651054135
 30
0.0
 10
14.0538978145
 20
7.8447579373
 30
0.0
 10
14.0465917533
 20
7.8249429779
 30
0.0
 10
14.039210951
 20
7.8056704954
 30
0.0
 10
14.0317592038
 20
7.7869501485
 30
0.0
 10
14.0242401783
 20
7.768791345
 30
0.0
 10
14.0166577419
 20
7.7512031743
 30
0.0
 10
14.0090156264
 20
7.7341944703
 30
0.0
 10
14.0013177499
 20
7.7177737351
 30
0.0
 10
13.9935679112
 20
7.7019492058
 30
0.0
 10
13.9857700568
 20
7.6867287813
 30
0.0
 10
13.9779280507
 20
7.67212008
 30
0.0
 10
13.970045849
 20
7.6581303859
 30
0.0
 10
13.9621273781
 20
7.6447666744
 30
0.0
 10
13.9541765737
 20
7.6320355949
 30
0.0
 10
13.9461974
 20
7.6199434628
 30
0.0
 10
13.9381937793
 20
7.6084963143
 30
0.0
 10
13.9301697281
 20
7.5976997821
 30
0.0
 10
13.9221290604
 20
7.5875592081
 30
0.0
 10
13.9140756084
 20
7.5780794456
 30
0.0
 10
13.9060135178
 20
7.5692656148
 30
0.0
 10
13.9005239592
 20
7.5637237229
 30
0.0
 10
13.8977776506
 20
7.5610709924
 30
0.0
  0
SPLINE
  5
322
100
AcDbEntity
  8
0
100
AcDbSpline
 62
7
  6
CONTINUOUS
 70
0
 71
3
 72
101
 73
97
 74
0
 42
0.0000001
 43
0.0000001
 44
0.0000000001
 40
0.0
 40
0.0
 40
0.0
 40
0.0
 40
0.0039054331
 40
0.0079707257
 40
0.0121993085
 40
0.0165941393
 40
0.0211576924
 40
0.025891818
 40
0.0307978207
 40
0.035876584
 40
0.0411285871
 40
0.0465539826
 40
0.0521525557
 40
0.057923835
 40
0.0638670446
 40
0.0699811917
 40
0.0762650348
 40
0.0827171312
 40
0.0893358445
 40
0.0961193426
 40
0.1030656461
 40
0.1101725844
 40
0.1174378716
 40
0.1248590434
 40
0.1324335339
 40
0.1401586234
 40
0.1480314887
 40
0.1560491835
 40
0.1725065673
 40
0.1895052978
 40
0.2070181832
 40
0.2250166383
 40
0.2434708049
 40
0.2623496634
 40
0.2816211371
 40
0.3012521916
 40
0.3212089297
 40
0.3414566849
 40
0.3619601112
 40
0.382683272
 40
0.4035897272
 40
0.4246426193
 40
0.4458047593
 40
0.4670387116
 40
0.488306879
 40
0.5095715874
 40
0.5307951701
 40
0.5519400534
 40
0.5729688406
 40
0.5938443972
 40
0.6145299358
 40
0.6349891023
 40
0.655186062
 40
0.6750855868
 40
0.6946531447
 40
0.7138549898
 40
0.7326582564
 40
0.7510310544
 40
0.7689425691
 40
0.7863631676
 40
0.8032645112
 40
0.8196196778
 40
0.827584545
 40
0.8354034901
 40
0.8430736051
 40
0.8505921137
 40
0.8579563397
 40
0.8651637672
 40
0.872211983
 40
0.8790987545
 40
0.885821971
 40
0.8923797112
 40
0.8987702124
 40
0.9049919044
 40
0.9110434241
 40
0.9169236077
 40
0.9226315535
 40
0.9281665797
 40
0.9335283223
 40
0.9387166835
 40
0.9437319368
 40
0.9485747008
 40
0.9532460248
 40
0.9577474141
 40
0.9620808849
 40
0.966249051
 40
0.9702551539
 40
0.9741032042
 40
0.9777980073
 40
0.981345336
 40
0.9847519776
 40
0.9880259003
 40
0.9911763318
 40
0.9942138763
 40
0.9971505904
 40
1.0
 40
1.0
 40
1.0
 40
1.0
 10
13.8359583926
 20
7.5653581725
 30
0.0
 10
13.838618116
 20
7.5679272682
 30
0.0
 10
13.8439348085
 20
7.5732872091
 30
0.0
 10
13.8517482147
 20
7.5817980122
 30
0.0
 10
13.8595537877
 20
7.5909345628
 30
0.0
 10
13.8673477017
 20
7.6006922073
 30
0.0
 10
13.8751264889
 20
7.6110665345
 30
0.0
 10
13.8828866444
 20
7.6220527542
 30
0.0
 10
13.8906245844
 20
7.6336457601
 30
0.0
 10
13.8983366432
 20
7.6458401507
 30
0.0
 10
13.9060192996
 20
7.6586301979
 30
0.0
 10
13.9136688761
 20
7.6720099633
 30
0.0
 10
13.9212818838
 20
7.6859731476
 30
0.0
 10
13.9288546456
 20
7.7005132388
 30
0.0
 10
13.9363836822
 20
7.7156233834
 30
0.0
 10
13.9438653807
 20
7.7312965046
 30
0.0
 10
13.9512962535
 20
7.7475252219
 30
0.0
 10
13.9586727797
 20
7.7643019054
 30
0.0
 10
13.9659914616
 20
7.78161866
 30
0.0
 10
13.9732488807
 20
7.7994673227
 30
0.0
 10
13.9804415474
 20
7.8178394955
 30
0.0
 10
13.9875661356
 20
7.8367265058
 30
0.0
 10
13.9946191965
 20
7.8561194626
 30
0.0
 10
14.0015974731
 20
7.8760092072
 30
0.0
 10
14.0084975984
 20
7.8963863687
 30
0.0
 10
14.0153163561
 20
7.9172413217
 30
0.0
 10
14.0220505098
 20
7.9385642443
 30
0.0
 10
14.0309899596
 20
7.967859978
 30
0.0
 10
14.0419176075
 20
8.0055811947
 30
0.0
 10
14.054532256
 20
8.0521660748
 30
0.0
 10
14.0667356381
 20
8.1003669559
 30
0.0
 10
14.07850461
 20
8.1500928039
 30
0.0
 10
14.0898168509
 20
8.2012498505
 30
0.0
 10
14.1006509126
 20
8.2537415493
 30
0.0
 10
14.1109862576
 20
8.3074688264
 30
0.0
 10
14.1208032986
 20
8.3623302524
 30
0.0
 10
14.1300834366
 20
8.4182222424
 30
0.0
 10
14.1388090934
 20
8.4750392532
 30
0.0
 10
14.1469637448
 20
8.5326739859
 30
0.0
 10
14.1545319515
 20
8.5910175901
 30
0.0
 10
14.161499388
 20
8.6499598708
 30
0.0
 10
14.1678528689
 20
8.7093894975
 30
0.0
 10
14.1735803741
 20
8.7691942157
 30
0.0
 10
14.1786710714
 20
8.8292610589
 30
0.0
 10
14.1831153361
 20
8.8894765638
 30
0.0
 10
14.1869047704
 20
8.9497269846
 30
0.0
 10
14.1900322202
 20
9.0098985092
 30
0.0
 10
14.192491787
 20
9.0698774754
 30
0.0
 10
14.1942788395
 20
9.1295505864
 30
0.0
 10
14.1953900221
 20
9.1888051255
 30
0.0
 10
14.1958232621
 20
9.2475291694
 30
0.0
 10
14.1955777734
 20
9.3056118013
 30
0.0
 10
14.1946540588
 20
9.3629433203
 30
0.0
 10
14.1930539094
 20
9.419415451
 30
0.0
 10
14.1907804019
 20
9.4749215488
 30
0.0
 10
14.1878378939
 20
9.5293568054
 30
0.0
 10
14.1842320175
 20
9.5826184474
 30
0.0
 10
14.1799696686
 20
9.6346059392
 30
0.0
 10
14.1750589918
 20
9.6852211574
 30
0.0
 10
14.1695093769
 20
9.7343686457
 30
0.0
 10
14.1633314012
 20
9.7819555716
 30
0.0
 10
14.1576202342
 20
9.820568698
 30
0.0
 10
14.1527351866
 20
9.850605494
 30
0.0
 10
14.1489541506
 20
9.8724891685
 30
0.0
 10
14.1450253832
 20
9.8939172645
 30
0.0
 10
14.1409507717
 20
9.9148796873
 30
0.0
 10
14.1367321877
 20
9.9353665413
 30
0.0
 10
14.1323717042
 20
9.9553681644
 30
0.0
 10
14.1278713054
 20
9.9748751213
 30
0.0
 10
14.1232332003
 20
9.9938782173
 30
0.0
 10
14.1184595185
 20
10.0123684928
 30
0.0
 10
14.1135525669
 20
10.030337238
 30
0.0
 10
14.1085146434
 20
10.0477759897
 30
0.0
 10
14.1033481266
 20
10.0646765376
 30
0.0
 10
14.0980554898
 20
10.0810309363
 30
0.0
 10
14.092639173
 20
10.0968314886
 30
0.0
 10
14.0871018118
 20
10.1120707872
 30
0.0
 10
14.0814459167
 20
10.1267416631
 30
0.0
 10
14.075674249
 20
10.1408372626
 30
0.0
 10
14.0697894164
 20
10.1543509661
 30
0.0
 10
14.0637942528
 20
10.1672764801
 30
0.0
 10
14.0576914902
 20
10.1796077599
 30
0.0
 10
14.0514839837
 20
10.1913390714
 30
0.0
 10
14.0451745977
 20
10.2024649695
 30
0.0
 10
14.0387661707
 20
10.2129802742
 30
0.0
 10
14.0322616776
 20
10.2228801541
 30
0.0
 10
14.0256639217
 20
10.2321599725
 30
0.0
 10
14.0189759321
 20
10.2408154995
 30
0.0
 10
14.0122004822
 20
10.2488426262
 30
0.0
 10
14.0053405756
 20
10.2562376616
 30
0.0
 10
13.9983989898
 20
10.2629969922
 30
0.0
 10
13.991378639
 20
10.2691173459
 30
0.0
 10
13.9842824132
 20
10.2745955224
 30
0.0
 10
13.9771130457
 20
10.2794285701
 30
0.0
 10
13.9698742229
 20
10.2836134039
 30
0.0
 10
13.9649366553
 20
10.2860017771
 30
0.0
 10
13.962463463
 20
10.2870799435
 30
0.0
  0
SPLINE
  5
323
100
AcDbEntity
  8
0
100
AcDbSpline
 62
7
  6
CONTINUOUS
 70
0
 71
3
 72
15
 73
11
 74
0
 42
0.0000001
 43
0.0000001
 44
0.0000000001
 40
0.0
 40
0.0
 40
0.0
 40
0.0
 40
0.1435075653
 40
0.2810676243
 40
0.4129360695
 40
0.5394298681
 40
0.660922639
 40
0.7778443899
 40
0.8906852142
 40
1.0
 40
1.0
 40
1.0
 40
1.0
 10
13.8359583926
 20
7.5653581725
 30
0.0
 10
13.83330252
 20
7.5627927965
 30
0.0
 10
13.827992641
 20
7.5578785568
 30
0.0
 10
13.8198579461
 20
7.5510369256
 30
0.0
 10
13.81172924
 20
7.5448882117
 30
0.0
 10
13.803610642
 20
7.5394360049
 30
0.0
 10
13.7955057078
 20
7.5346834258
 30
0.0
 10
13.7874179245
 20
7.53063326
 30
0.0
 10
13.7793517619
 20
7.5272886301
 30
0.0
 10
13.7739134056
 20
7.5255055556
 30
0.0
 10
13.7712070049
 20
7.5247394818
 30
0.0
  0
SPLINE
  5
324
100
AcDbEntity
  8
0
100
AcDbSpline
 62
7
  6
CONTINUOUS
 70
0
 71
3
 72
38
 73
34
 74
0
 42
0.0000001
 43
0.0000001
 44
0.0000000001
 40
0.0
 40
0.0
 40
0.0
 40
0.0
 40
0.0383794579
 40
0.0755854151
 40
0.111651819
 40
0.1466175792
 40
0.1805288033
 40
0.2134376701
 40
0.245402114
 40
0.2764862488
 40
0.3067605516
 40
0.3363020772
 40
0.3651948839
 40
0.3935295844
 40
0.4214027338
 40
0.4489163508
 40
0.4761768773
 40
0.5032939596
 40
0.5303791956
 40
0.5575445937
 40
0.5849011061
 40
0.6125571887
 40
0.640617424
 40
0.6691816064
 40
0.6983438335
 40
0.7281917625
 40
0.7902428216
 40
0.8226078788
 40
0.8559430679
 40
0.8903035098
 40
0.9257381756
 40
0.9622907463
 40
1.0
 40
1.0
 40
1.0
 40
1.0
 10
13.8359583926
 20
7.8937729729
 30
0.0
 10
13.8344763756
 20
7.8923414543
 30
0.0
 10
13.8315128893
 20
7.8895680123
 30
0.0
 10
13.8269982601
 20
7.8856229135
 30
0.0
 10
13.8224855881
 20
7.8819596353
 30
0.0
 10
13.8179761907
 20
7.8785794715
 30
0.0
 10
13.8134713023
 20
7.8754833772
 30
0.0
 10
13.8089720654
 20
7.8726722024
 30
0.0
 10
13.8044795688
 20
7.870146813
 30
0.0
 10
13.7999949896
 20
7.8679079538
 30
0.0
 10
13.7955195246
 20
7.865956342
 30
0.0
 10
13.7910543519
 20
7.8642927516
 30
0.0
 10
13.7866007214
 20
7.8629177847
 30
0.0
 10
13.7821599065
 20
7.8618319477
 30
0.0
 10
13.777733193
 20
7.8610357937
 30
0.0
 10
13.7733219439
 20
7.8605296918
 30
0.0
 10
13.7689275576
 20
7.8603138548
 30
0.0
 10
13.7645514565
 20
7.8603885073
 30
0.0
 10
13.7601950928
 20
7.8607536612
 30
0.0
 10
13.7558598967
 20
7.8614091112
 30
0.0
 10
13.7515472876
 20
7.8623546524
 30
0.0
 10
13.7472586531
 20
7.8635898997
 30
0.0
 10
13.7429952815
 20
7.8651142691
 30
0.0
 10
13.7387584813
 20
7.8669271792
 30
0.0
 10
13.7345493463
 20
7.869028059
 30
0.0
 10
13.7289034055
 20
7.8722532134
 30
0.0
 10
13.7233863909
 20
7.8760285821
 30
0.0
 10
13.7180133025
 20
7.8802937439
 30
0.0
 10
13.7139594268
 20
7.883821494
 30
0.0
 10
13.7099400233
 20
7.8876316338
 30
0.0
 10
13.7059557824
 20
7.8917232268
 30
0.0
 10
13.702007861
 20
7.8960950202
 30
0.0
 10
13.6994414364
 20
7.8991472796
 30
0.0
 10
13.6981640327
 20
7.9007179085
 30
0.0
  0
SPLINE
  5
325
100
AcDbEntity
  8
0
100
AcDbSpline
 62
7
  6
CONTINUOUS
 70
0
 71
3
 72
23
 73
19
 74
0
 42
0.0000001
 43
0.0000001
 44
0.0000000001
 40
0.0
 40
0.0
 40
0.0
 40
0.0
 40
0.0764211171
 40
0.1504647317
 40
0.2222011369
 40
0.2917110755
 40
0.3590903898
 40
0.4244476938
 40
0.4879037581
 40
0.5495924048
 40
0.6096608721
 40
0.6682702369
 40
0.7255962346
 40
0.7818282192
 40
0.8371677925
 40
0.8918276449
 40
0.9460292137
 40
1.0
 40
1.0
 40
1.0
 40
1.0
 10
13.749025063
 20
7.9867351493
 30
0.0
 10
13.7476464009
 20
7.9854034638
 30
0.0
 10
13.744889602
 20
7.9828248785
 30
0.0
 10
13.7406886839
 20
7.9791607131
 30
0.0
 10
13.7364896438
 20
7.9757634657
 30
0.0
 10
13.7322937475
 20
7.9726343822
 30
0.0
 10
13.7281021823
 20
7.9697743795
 30
0.0
 10
13.7239160462
 20
7.9671842738
 30
0.0
 10
13.7197363859
 20
7.9648648988
 30
0.0
 10
13.7155643353
 20
7.9628169684
 30
0.0
 10
13.7114010478
 20
7.9610411715
 30
0.0
 10
13.7072476607
 20
7.9595382534
 30
0.0
 10
13.7031053865
 20
7.9583087874
 30
0.0
 10
13.6989754558
 20
7.957353255
 30
0.0
 10
13.6948591387
 20
7.95667218
 30
0.0
 10
13.6907576973
 20
7.9562659023
 30
0.0
 10
13.6866727384
 20
7.9561345888
 30
0.0
 10
13.6839588101
 20
7.9562305877
 30
0.0
 10
13.6826083598
 20
7.9563242476
 30
0.0
  0
SPLINE
  5
326
100
AcDbEntity
  8
0
100
AcDbSpline
 62
7
  6
CONTINUOUS
 70
0
 71
3
 72
107
 73
103
 74
0
 42
0.0000001
 43
0.0000001
 44
0.0000000001
 40
0.0
 40
0.0
 40
0.0
 40
0.0
 40
0.0042067685
 40
0.0086074933
 40
0.0132066832
 40
0.0180081279
 40
0.023014856
 40
0.0282289565
 40
0.0336518031
 40
0.0392841388
 40
0.0451261851
 40
0.0511776465
 40
0.0574377829
 40
0.0639054521
 40
0.0705791379
 40
0.0774570037
 40
0.0845368822
 40
0.09181635
 40
0.0992926865
 40
0.1069629639
 40
0.1148239836
 40
0.1228723759
 40
0.1311045245
 40
0.1395166671
 40
0.1481048191
 40
0.1568648655
 40
0.1748830537
 40
0.1935353222
 40
0.212783308
 40
0.2325866532
 40
0.2529032003
 40
0.2736891734
 40
0.2948993489
 40
0.3164872194
 40
0.3384051517
 40
0.3606045412
 40
0.3830359635
 40
0.4056493234
 40
0.4283940035
 40
0.451219011
 40
0.4740731241
 40
0.4969050383
 40
0.5196635122
 40
0.5422975137
 40
0.5647563663
 40
0.5869898962
 40
0.60894858
 40
0.6305836941
 40
0.6518474655
 40
0.6726932262
 40
0.6930755704
 40
0.7129505171
 40
0.7322756804
 40
0.751010449
 40
0.7601443763
 40
0.7691163941
 40
0.777921995
 40
0.7865568613
 40
0.7950167962
 40
0.8032978064
 40
0.8113960428
 40
0.8193078723
 40
0.827029837
 40
0.8345587079
 40
0.8418914698
 40
0.8490253529
 40
0.8559578485
 40
0.8626867165
 40
0.8692100355
 40
0.8755261874
 40
0.8816339435
 40
0.8875324316
 40
0.8932212562
 40
0.8987004589
 40
0.9039706694
 40
0.9090330741
 40
0.9138895938
 40
0.9185428786
 40
0.9229965092
 40
0.9272550375
 40
0.9313242088
 40
0.9352110619
 40
0.9389241658
 40
0.9424737756
 40
0.9458720563
 40
0.9491332486
 40
0.9522738059
 40
0.9553124518
 40
0.9582700927
 40
0.9611695978
 40
0.9640353625
 40
0.9668927338
 40
0.9697672994
 40
0.9726841483
 40
0.9756672155
 40
0.9787387272
 40
0.9819188723
 40
0.9852255554
 40
0.9886744539
 40
0.9922791378
 40
0.9960511915
 40
1.0
 40
1.0
 40
1.0
 40
1.0
 10
13.8359583926
 20
7.8937729729
 30
0.0
 10
13.8382259137
 20
7.8959632302
 30
0.0
 10
13.8427579044
 20
7.9005571893
 30
0.0
 10
13.8494007124
 20
7.9078974837
 30
0.0
 10
13.856035019
 20
7.9158355609
 30
0.0
 10
13.8626567961
 20
7.9243663377
 30
0.0
 10
13.8692622951
 20
7.9334849737
 30
0.0
 10
13.8758477956
 20
7.9431861062
 30
0.0
 10
13.8824093516
 20
7.9534640697
 30
0.0
 10
13.8889431437
 20
7.9643127613
 30
0.0
 10
13.8954452752
 20
7.9757257897
 30
0.0
 10
13.9019119177
 20
7.9876963925
 30
0.0
 10
13.908339212
 20
8.0002174763
 30
0.0
 10
13.9147233194
 20
8.0132816042
 30
0.0
 10
13.9210604485
 20
8.0268810023
 30
0.0
 10
13.9273467783
 20
8.0410075831
 30
0.0
 10
13.9335785929
 20
8.0556529197
 30
0.0
 10
13.9397521054
 20
8.0708082909
 30
0.0
 10
13.945863683
 20
8.0864646421
 30
0.0
 10
13.951909592
 20
8.1026126395
 30
0.0
 10
13.9578862861
 20
8.1192426273
 30
0.0
 10
13.9637901025
 20
8.1363446816
 30
0.0
 10
13.9696175842
 20
8.153908572
 30
0.0
 10
13.9753651526
 20
8.1719238055
 30
0.0
 10
13.9810294592
 20
8.1903796164
 30
0.0
 10
13.9885365819
 20
8.2157986056
 30
0.0
 10
13.9976753738
 20
8.2485977914
 30
0.0
 10
14.0081566415
 20
8.2891741009
 30
0.0
 10
14.0182275991
 20
8.3312309843
 30
0.0
 10
14.027864024
 20
8.3746678049
 30
0.0
 10
14.0370427397
 20
8.4193807672
 30
0.0
 10
14.0457416796
 20
8.4652629387
 30
0.0
 10
14.0539399374
 20
8.5122045776
 30
0.0
 10
14.0616178166
 20
8.5600933825
 30
0.0
 10
14.0687568769
 20
8.6088147704
 30
0.0
 10
14.0753399779
 20
8.6582521523
 30
0.0
 10
14.0813513196
 20
8.7082872156
 30
0.0
 10
14.0867764793
 20
8.7588002096
 30
0.0
 10
14.0916024461
 20
8.8096702337
 30
0.0
 10
14.0958176517
 20
8.8607755288
 30
0.0
 10
14.0994119978
 20
8.9119937699
 30
0.0
 10
14.1023768805
 20
8.9632023604
 30
0.0
 10
14.1047052108
 20
9.0142787268
 30
0.0
 10
14.1063914315
 20
9.0651006134
 30
0.0
 10
14.1074315316
 20
9.1155463765
 30
0.0
 10
14.1078230556
 20
9.1654952772
 30
0.0
 10
14.1075651103
 20
9.2148277716
 30
0.0
 10
14.1066583677
 20
9.2634257998
 30
0.0
 10
14.1051050642
 20
9.3111730695
 30
0.0
 10
14.102908997
 20
9.3579553417
 30
0.0
 10
14.1000755128
 20
9.4036606923
 30
0.0
 10
14.0966115101
 20
9.4481798408
 30
0.0
 10
14.0925253736
 20
9.4914062172
 30
0.0
 10
14.0885776257
 20
9.5265549759
 30
0.0
 10
14.0851063504
 20
9.553945088
 30
0.0
 10
14.082375837
 20
9.5739275471
 30
0.0
 10
14.0794979202
 20
9.5935113714
 30
0.0
 10
14.0764743802
 20
9.6126848581
 30
0.0
 10
14.0733069722
 20
9.6314365387
 30
0.0
 10
14.0699976588
 20
9.6497551984
 30
0.0
 10
14.0665483748
 20
9.6676298861
 30
0.0
 10
14.0629612375
 20
9.6850499164
 30
0.0
 10
14.0592383663
 20
9.7020048802
 30
0.0
 10
14.0553820213
 20
9.7184846485
 30
0.0
 10
14.051394506
 20
9.7344793811
 30
0.0
 10
14.0472782126
 20
9.7499795305
 30
0.0
 10
14.0430356259
 20
9.7649758526
 30
0.0
 10
14.0386692598
 20
9.7794594046
 30
0.0
 10
14.0341817739
 20
9.7934215659
 30
0.0
 10
14.0295757948
 20
9.8068540204
 30
0.0
 10
14.0248541457
 20
9.8197487976
 30
0.0
 10
14.0200195562
 20
9.8320982293
 30
0.0
 10
14.0150749961
 20
9.8438950211
 30
0.0
 10
14.0100232869
 20
9.8551321726
 30
0.0
 10
14.0048675188
 20
9.8658030887
 30
0.0
 10
13.9996105914
 20
9.8759014551
 30
0.0
 10
13.9942556759
 20
9.8854213917
 30
0.0
 10
13.9888057289
 20
9.8943572835
 30
0.0
 10
13.9832639486
 20
9.9027039656
 30
0.0
 10
13.9776333154
 20
9.9104565183
 30
0.0
 10
13.9719169881
 20
9.9176104589
 30
0.0
 10
13.9661179297
 20
9.9241615204
 30
0.0
 10
13.9602392017
 20
9.9301058063
 30
0.0
 10
13.9542837344
 20
9.9354395886
 30
0.0
 10
13.9482545113
 20
9.9401593719
 30
0.0
 10
13.9421545405
 20
9.944261782
 30
0.0
 10
13.9359869596
 20
9.9477435099
 30
0.0
 10
13.9297552226
 20
9.9506014307
 30
0.0
 10
13.9234631387
 20
9.9528324646
 30
0.0
 10
13.9171151225
 20
9.9544340892
 30
0.0
 10
13.9107160596
 20
9.955404119
 30
0.0
 10
13.9042713123
 20
9.9557415266
 30
0.0
 10
13.8977863818
 20
9.9554459127
 30
0.0
 10
13.891266633
 20
9.9545182645
 30
0.0
 10
13.884717104
 20
9.9529599716
 30
0.0
 10
13.8781422668
 20
9.950773409
 30
0.0
 10
13.8715462791
 20
9.9479609185
 30
0.0
 10
13.8649327995
 20
9.9445254408
 30
0.0
 10
13.8583054092
 20
9.9404696864
 30
0.0
 10
13.8516673452
 20
9.9357965988
 30
0.0
 10
13.8450223733
 20
9.9305094085
 30
0.0
 10
13.8406917239
 20
9.9266677227
 30
0.0
 10
13.8385254426
 20
9.9246516453
 30
0.0
  0
SPLINE
  5
327
100
AcDbEntity
  8
0
100
AcDbSpline
 62
7
  6
CONTINUOUS
 70
0
 71
3
 72
98
 73
94
 74
0
 42
0.0000001
 43
0.0000001
 44
0.0000000001
 40
0.0
 40
0.0
 40
0.0
 40
0.0
 40
0.0039884218
 40
0.008145372
 40
0.0124745283
 40
0.016979017
 40
0.0216614477
 40
0.0265237845
 40
0.0315673444
 40
0.0367930033
 40
0.0422011717
 40
0.047791918
 40
0.053564922
 40
0.0595195485
 40
0.0656548827
 40
0.0719697104
 40
0.0784626157
 40
0.0851319039
 40
0.0919757113
 40
0.0989919485
 40
0.1061783497
 40
0.1135324882
 40
0.1287331355
 40
0.1445715611
 40
0.1610229432
 40
0.1780604673
 40
0.1956555115
 40
0.213777807
 40
0.232395589
 40
0.2514757306
 40
0.270983868
 40
0.2908845172
 40
0.3111411857
 40
0.3317164801
 40
0.3525722101
 40
0.3736694937
 40
0.3949688593
 40
0.4164303447
 40
0.4380135967
 40
0.4596779692
 40
0.4813826211
 40
0.5030866146
 40
0.5247490144
 40
0.5463289848
 40
0.5677858877
 40
0.5890793805
 40
0.6101695141
 40
0.6310168332
 40
0.6515824776
 40
0.6718282833
 40
0.6917168846
 40
0.7112118189
 40
0.730277635
 40
0.7488800049
 40
0.7669858425
 40
0.7845634319
 40
0.8015825583
 40
0.8180146551
 40
0.8338329672
 40
0.8415042528
 40
0.8490129877
 40
0.8563564143
 40
0.8635319615
 40
0.8705371777
 40
0.8773698332
 40
0.8840278429
 40
0.8905093464
 40
0.8968126902
 40
0.9029364349
 40
0.9088794243
 40
0.9146407249
 40
0.9202197484
 40
0.9256161873
 40
0.9308301165
 40
0.935862
 40
0.940712724
 40
0.9453837001
 40
0.949876843
 40
0.9541947363
 40
0.958340622
 40
0.9623185577
 40
0.966133491
 40
0.9697913652
 40
0.9732992906
 40
0.9766656077
 40
0.9799000973
 40
0.9830140307
 40
0.986020311
 40
0.9889334951
 40
0.9917697619
 40
0.9945468093
 40
0.9972835916
 40
1.0
 40
1.0
 40
1.0
 40
1.0
 10
13.749025063
 20
7.9867351493
 30
0.0
 10
13.7509217735
 20
7.988567231
 30
0.0
 10
13.7547131039
 20
7.992394717
 30
0.0
 10
13.7602811744
 20
7.9984819736
 30
0.0
 10
13.7658433174
 20
8.0050291742
 30
0.0
 10
13.7713965893
 20
8.0120327654
 30
0.0
 10
13.7769383927
 20
8.0194893511
 30
0.0
 10
13.7824660354
 20
8.0273953051
 30
0.0
 10
13.7879768683
 20
8.0357466947
 30
0.0
 10
13.7934680521
 20
8.0445394048
 30
0.0
 10
13.7989369456
 20
8.0537690186
 30
0.0
 10
13.8043807609
 20
8.0634309754
 30
0.0
 10
13.80979682
 20
8.0735204456
 30
0.0
 10
13.8151824086
 20
8.0840323962
 30
0.0
 10
13.8205347916
 20
8.0949615831
 30
0.0
 10
13.8258513449
 20
8.1063025222
 30
0.0
 10
13.8311293217
 20
8.1180495582
 30
0.0
 10
13.836366144
 20
8.1301967863
 30
0.0
 10
13.8415591202
 20
8.1427381335
 30
0.0
 10
13.8467056637
 20
8.1556672989
 30
0.0
 10
13.8518032066
 20
8.1689778087
 30
0.0
 10
13.858606072
 20
8.1874282118
 30
0.0
 10
13.866956595
 20
8.2114026916
 30
0.0
 10
13.8766344829
 20
8.2412759355
 30
0.0
 10
13.8860571997
 20
8.2725013392
 30
0.0
 10
13.8952057001
 20
8.3050161723
 30
0.0
 10
13.9040614942
 20
8.3387552586
 30
0.0
 10
13.9126066912
 20
8.373650864
 30
0.0
 10
13.9208240304
 20
8.4096329144
 30
0.0
 10
13.9286969171
 20
8.4466291248
 30
0.0
 10
13.9362094561
 20
8.4845651548
 30
0.0
 10
13.943346483
 20
8.5233647596
 30
0.0
 10
13.9500935943
 20
8.5629499457
 30
0.0
 10
13.9564371759
 20
8.6032411278
 30
0.0
 10
13.9623644357
 20
8.6441572907
 30
0.0
 10
13.9678634233
 20
8.6856161557
 30
0.0
 10
13.9729230539
 20
8.7275343485
 30
0.0
 10
13.977533131
 20
8.7698275681
 30
0.0
 10
13.9816843659
 20
8.812410756
 30
0.0
 10
13.9853683966
 20
8.8551982675
 30
0.0
 10
13.9885778047
 20
8.8981040447
 30
0.0
 10
13.9913061354
 20
8.9410417903
 30
0.0
 10
13.9935479048
 20
8.9839251431
 30
0.0
 10
13.9952986117
 20
9.0266678525
 30
0.0
 10
13.9965547461
 20
9.0691839516
 30
0.0
 10
13.9973137973
 20
9.1113879306
 30
0.0
 10
13.9975742581
 20
9.1531949089
 30
0.0
 10
13.9973356294
 20
9.1945208081
 30
0.0
 10
13.9965984263
 20
9.2352825228
 30
0.0
 10
13.9953641718
 20
9.2753980896
 30
0.0
 10
13.9936353947
 20
9.3147868518
 30
0.0
 10
13.9914156251
 20
9.3533696227
 30
0.0
 10
13.9887093878
 20
9.3910688464
 30
0.0
 10
13.9855221939
 20
9.4278087558
 30
0.0
 10
13.9818605316
 20
9.4635155356
 30
0.0
 10
13.9777318561
 20
9.4981174598
 30
0.0
 10
13.97314458
 20
9.5315451019
 30
0.0
 10
13.9681080176
 20
9.5637312634
 30
0.0
 10
13.9634993126
 20
9.5897232925
 30
0.0
 10
13.9595858254
 20
9.6098419388
 30
0.0
 10
13.9565748819
 20
9.6244267078
 30
0.0
 10
13.9534596437
 20
9.6386542072
 30
0.0
 10
13.9502417237
 20
9.6525173096
 30
0.0
 10
13.9469226775
 20
9.6660090488
 30
0.0
 10
13.9435042461
 20
9.6791226601
 30
0.0
 10
13.9399881016
 20
9.691851563
 30
0.0
 10
13.9363760375
 20
9.7041893773
 30
0.0
 10
13.9326698845
 20
9.7161299244
 30
0.0
 10
13.9288714609
 20
9.7276672182
 30
0.0
 10
13.9249827479
 20
9.7387954996
 30
0.0
 10
13.9210056114
 20
9.7495091911
 30
0.0
 10
13.916942125
 20
9.7598029613
 30
0.0
 10
13.9127942601
 20
9.7696716669
 30
0.0
 10
13.9085641089
 20
9.7791104009
 30
0.0
 10
13.9042537874
 20
9.7881144815
 30
0.0
 10
13.8998653687
 20
9.7966794239
 30
0.0
 10
13.8954010946
 20
9.8048010242
 30
0.0
 10
13.8908630375
 20
9.8124752317
 30
0.0
 10
13.8862534829
 20
9.8196983077
 30
0.0
 10
13.8815745576
 20
9.826466666
 30
0.0
 10
13.8768284883
 20
9.8327769857
 30
0.0
 10
13.8720174843
 20
9.8386261654
 30
0.0
 10
13.8671436611
 20
9.8440112399
 30
0.0
 10
13.8622092788
 20
9.8489295572
 30
0.0
 10
13.8572163795
 20
9.8533784531
 30
0.0
 10
13.8521672181
 20
9.8573555938
 30
0.0
 10
13.8470639061
 20
9.8608585872
 30
0.0
 10
13.8419087375
 20
9.8638852319
 30
0.0
 10
13.8367041077
 20
9.8664334216
 30
0.0
 10
13.83145263
 20
9.8685010425
 30
0.0
 10
13.8261570882
 20
9.8700864288
 30
0.0
 10
13.8208211913
 20
9.8711878546
 30
0.0
 10
13.8172334874
 20
9.8715994831
 30
0.0
 10
13.8154417663
 20
9.8717237472
 30
0.0
  0
SPLINE
  5
328
100
AcDbEntity
  8
0
100
AcDbSpline
 62
7
  6
CONTINUOUS
 70
0
 71
3
 72
23
 73
19
 74
0
 42
0.0000001
 43
0.0000001
 44
0.0000000001
 40
0.0
 40
0.0
 40
0.0
 40
0.0
 40
0.0764222838
 40
0.1504661461
 40
0.2222018012
 40
0.2917109382
 40
0.3590900495
 40
0.4244475032
 40
0.4879038951
 40
0.5495927372
 40
0.6096609962
 40
0.6682702169
 40
0.7255962326
 40
0.7818281432
 40
0.8371677418
 40
0.8918276491
 40
0.9460291917
 40
1.0
 40
1.0
 40
1.0
 40
1.0
 10
13.8977776506
 20
7.5610709924
 30
0.0
 10
13.895781423
 20
7.5591427845
 30
0.0
 10
13.8917897554
 20
7.5554091523
 30
0.0
 10
13.8857071357
 20
7.5501036987
 30
0.0
 10
13.8796272686
 20
7.5451847936
 30
0.0
 10
13.8735519713
 20
7.5406541758
 30
0.0
 10
13.8674829377
 20
7.53651312
 30
0.0
 10
13.8614217094
 20
7.5327628651
 30
0.0
 10
13.8553698593
 20
7.5294045801
 30
0.0
 10
13.8493290536
 20
7.5264392985
 30
0.0
 10
13.8433009121
 20
7.5238681403
 30
0.0
 10
13.8372871289
 20
7.5216920633
 30
0.0
 10
13.8312894492
 20
7.5199118603
 30
0.0
 10
13.8253096083
 20
7.5185283991
 30
0.0
 10
13.819349495
 20
7.5175422792
 30
0.0
 10
13.8134109227
 20
7.516953982
 30
0.0
 10
13.8074962087
 20
7.5167639473
 30
0.0
 10
13.8035666515
 20
7.5169029714
 30
0.0
 10
13.8016113021
 20
7.517038581
 30
0.0
  0
SPLINE
  5
329
100
AcDbEntity
  8
0
100
AcDbSpline
 62
4
  6
CONTINUOUS
 70
0
 71
3
 72
403
 73
399
 74
0
 42
0.0000001
 43
0.0000001
 44
0.0000000001
 40
0.0
 40
0.0
 40
0.0
 40
0.0
 40
0.015625
 40
0.0234375
 40
0.03125
 40
0.0390625
 40
0.04296875
 40
0.046875
 40
0.05078125
 40
0.0546875
 40
0.056640625
 40
0.05859375
 40
0.0595703125
 40
0.060546875
 40
0.0615234375
 40
0.0620117188
 40
0.0622558594
 40
0.0625
 40
0.0627441406
 40
0.0629882812
 40
0.0634765625
 40
0.064453125
 40
0.0654296875
 40
0.06640625
 40
0.068359375
 40
0.0703125
 40
0.07421875
 40
0.078125
 40
0.08203125
 40
0.0859375
 40
0.09375
 40
0.1015625
 40
0.10546875
 40
0.109375
 40
0.11328125
 40
0.1171875
 40
0.119140625
 40
0.12109375
 40
0.1220703125
 40
0.123046875
 40
0.1240234375
 40
0.1245117188
 40
0.1247558594
 40
0.125
 40
0.1252441406
 40
0.1254882812
 40
0.1259765625
 40
0.126953125
 40
0.1279296875
 40
0.12890625
 40
0.130859375
 40
0.1328125
 40
0.13671875
 40
0.140625
 40
0.14453125
 40
0.1484375
 40
0.15625
 40
0.1640625
 40
0.16796875
 40
0.171875
 40
0.17578125
 40
0.1796875
 40
0.181640625
 40
0.18359375
 40
0.1845703125
 40
0.185546875
 40
0.1865234375
 40
0.1870117188
 40
0.1872558594
 40
0.1875
 40
0.1877441406
 40
0.1879882812
 40
0.1884765625
 40
0.189453125
 40
0.1904296875
 40
0.19140625
 40
0.193359375
 40
0.1953125
 40
0.19921875
 40
0.203125
 40
0.20703125
 40
0.2109375
 40
0.21875
 40
0.2265625
 40
0.23046875
 40
0.234375
 40
0.23828125
 40
0.2421875
 40
0.244140625
 40
0.24609375
 40
0.2470703125
 40
0.248046875
 40
0.2490234375
 40
0.2495117188
 40
0.2497558594
 40
0.25
 40
0.2502441406
 40
0.2504882812
 40
0.2509765625
 40
0.251953125
 40
0.2529296875
 40
0.25390625
 40
0.255859375
 40
0.2578125
 40
0.26171875
 40
0.265625
 40
0.26953125
 40
0.2734375
 40
0.28125
 40
0.2890625
 40
0.29296875
 40
0.296875
 40
0.30078125
 40
0.3046875
 40
0.306640625
 40
0.30859375
 40
0.3095703125
 40
0.310546875
 40
0.3115234375
 40
0.3120117188
 40
0.3122558594
 40
0.3125
 40
0.3127441406
 40
0.3129882812
 40
0.3134765625
 40
0.314453125
 40
0.3154296875
 40
0.31640625
 40
0.318359375
 40
0.3203125
 40
0.32421875
 40
0.328125
 40
0.33203125
 40
0.3359375
 40
0.34375
 40
0.3515625
 40
0.35546875
 40
0.359375
 40
0.36328125
 40
0.3671875
 40
0.369140625
 40
0.37109375
 40
0.3720703125
 40
0.373046875
 40
0.3740234375
 40
0.3745117188
 40
0.3747558594
 40
0.375
 40
0.3752441406
 40
0.3754882812
 40
0.3759765625
 40
0.376953125
 40
0.3779296875
 40
0.37890625
 40
0.380859375
 40
0.3828125
 40
0.38671875
 40
0.390625
 40
0.39453125
 40
0.3984375
 40
0.40625
 40
0.4140625
 40
0.41796875
 40
0.421875
 40
0.42578125
 40
0.4296875
 40
0.431640625
 40
0.43359375
 40
0.4345703125
 40
0.435546875
 40
0.4365234375
 40
0.4370117188
 40
0.4372558594
 40
0.4375
 40
0.4377441406
 40
0.4379882812
 40
0.4384765625
 40
0.439453125
 40
0.4404296875
 40
0.44140625
 40
0.443359375
 40
0.4453125
 40
0.44921875
 40
0.453125
 40
0.45703125
 40
0.4609375
 40
0.46875
 40
0.4765625
 40
0.48046875
 40
0.484375
 40
0.48828125
 40
0.4921875
 40
0.494140625
 40
0.49609375
 40
0.4970703125
 40
0.498046875
 40
0.4990234375
 40
0.4995117188
 40
0.4997558594
 40
0.5
 40
0.5002441406
 40
0.5004882812
 40
0.5009765625
 40
0.501953125
 40
0.5029296875
 40
0.50390625
 40
0.505859375
 40
0.5078125
 40
0.51171875
 40
0.515625
 40
0.51953125
 40
0.5234375
 40
0.53125
 40
0.5390625
 40
0.54296875
 40
0.546875
 40
0.55078125
 40
0.5546875
 40
0.556640625
 40
0.55859375
 40
0.5595703125
 40
0.560546875
 40
0.5615234375
 40
0.5620117188
 40
0.5622558594
 40
0.5625
 40
0.5627441406
 40
0.5629882812
 40
0.5634765625
 40
0.564453125
 40
0.5654296875
 40
0.56640625
 40
0.568359375
 40
0.5703125
 40
0.57421875
 40
0.578125
 40
0.58203125
 40
0.5859375
 40
0.59375
 40
0.6015625
 40
0.60546875
 40
0.609375
 40
0.61328125
 40
0.6171875
 40
0.619140625
 40
0.62109375
 40
0.6220703125
 40
0.623046875
 40
0.6240234375
 40
0.6245117188
 40
0.6247558594
 40
0.625
 40
0.6252441406
 40
0.6254882812
 40
0.6259765625
 40
0.626953125
 40
0.6279296875
 40
0.62890625
 40
0.630859375
 40
0.6328125
 40
0.63671875
 40
0.640625
 40
0.64453125
 40
0.6484375
 40
0.65625
 40
0.6640625
 40
0.66796875
 40
0.671875
 40
0.67578125
 40
0.6796875
 40
0.681640625
 40
0.68359375
 40
0.6845703125
 40
0.685546875
 40
0.6865234375
 40
0.6870117188
 40
0.6872558594
 40
0.6875
 40
0.6877441406
 40
0.6879882812
 40
0.6884765625
 40
0.689453125
 40
0.6904296875
 40
0.69140625
 40
0.693359375
 40
0.6953125
 40
0.69921875
 40
0.703125
 40
0.70703125
 40
0.7109375
 40
0.71875
 40
0.7265625
 40
0.73046875
 40
0.734375
 40
0.73828125
 40
0.7421875
 40
0.744140625
 40
0.74609375
 40
0.7470703125
 40
0.748046875
 40
0.7490234375
 40
0.7495117188
 40
0.7497558594
 40
0.75
 40
0.7502441406
 40
0.7504882812
 40
0.7509765625
 40
0.751953125
 40
0.7529296875
 40
0.75390625
 40
0.755859375
 40
0.7578125
 40
0.76171875
 40
0.765625
 40
0.76953125
 40
0.7734375
 40
0.78125
 40
0.7890625
 40
0.79296875
 40
0.796875
 40
0.80078125
 40
0.8046875
 40
0.806640625
 40
0.80859375
 40
0.8095703125
 40
0.810546875
 40
0.8115234375
 40
0.8120117188
 40
0.8122558594
 40
0.8125
 40
0.8127441406
 40
0.8129882812
 40
0.8134765625
 40
0.814453125
 40
0.8154296875
 40
0.81640625
 40
0.818359375
 40
0.8203125
 40
0.82421875
 40
0.828125
 40
0.83203125
 40
0.8359375
 40
0.84375
 40
0.8515625
 40
0.85546875
 40
0.859375
 40
0.86328125
 40
0.8671875
 40
0.869140625
 40
0.87109375
 40
0.8720703125
 40
0.873046875
 40
0.8740234375
 40
0.8745117188
 40
0.8747558594
 40
0.875
 40
0.8752441406
 40
0.8754882812
 40
0.8759765625
 40
0.876953125
 40
0.8779296875
 40
0.87890625
 40
0.880859375
 40
0.8828125
 40
0.88671875
 40
0.890625
 40
0.89453125
 40
0.8984375
 40
0.90625
 40
0.9140625
 40
0.91796875
 40
0.921875
 40
0.92578125
 40
0.9296875
 40
0.931640625
 40
0.93359375
 40
0.9345703125
 40
0.935546875
 40
0.9365234375
 40
0.9370117188
 40
0.9372558594
 40
0.9375
 40
0.9377441406
 40
0.9379882812
 40
0.9384765625
 40
0.939453125
 40
0.9404296875
 40
0.94140625
 40
0.943359375
 40
0.9453125
 40
0.94921875
 40
0.953125
 40
0.95703125
 40
0.9609375
 40
0.96875
 40
0.9765625
 40
0.984375
 40
1.0
 40
1.0
 40
1.0
 40
1.0
 10
10.6117717527
 20
7.6613558735
 30
0.0
 10
10.6055053789
 20
7.6611760247
 30
0.0
 10
10.5961058182
 20
7.6609062515
 30
0.0
 10
10.5835730705
 20
7.6605465538
 30
0.0
 10
10.5741735097
 20
7.6602767805
 30
0.0
 10
10.5663405424
 20
7.6600519698
 30
0.0
 10
10.5600741687
 20
7.6598721203
 30
0.0
 10
10.5553743879
 20
7.6597372357
 30
0.0
 10
10.550674609
 20
7.6596023416
 30
0.0
 10
10.5467581208
 20
7.6594899593
 30
0.0
 10
10.5436249431
 20
7.6593999875
 30
0.0
 10
10.5416666778
 20
7.6593439053
 30
0.0
 10
10.5401001326
 20
7.6592986956
 30
0.0
 10
10.5389250399
 20
7.6592657301
 30
0.0
 10
10.537946381
 20
7.659235263
 30
0.0
 10
10.5372601715
 20
7.6592198153
 30
0.0
 10
10.5368698448
 20
7.659201808
 30
0.0
 10
10.5365720487
 20
7.6592141629
 30
0.0
 10
10.5362935606
 20
7.6591276661
 30
0.0
 10
10.5359155083
 20
7.6590468175
 30
0.0
 10
10.5352570547
 20
7.6588892674
 30
0.0
 10
10.5343147661
 20
7.6586725949
 30
0.0
 10
10.533184722
 20
7.6584089928
 30
0.0
 10
10.5316777512
 20
7.658058779
 30
0.0
 10
10.5297941218
 20
7.6576205819
 30
0.0
 10
10.5267802677
 20
7.6569197067
 30
0.0
 10
10.5230129663
 20
7.6560435303
 30
0.0
 10
10.5184921976
 20
7.6549921539
 30
0.0
 10
10.5139714308
 20
7.6539407681
 30
0.0
 10
10.507943741
 20
7.6525389237
 30
0.0
 10
10.5004091291
 20
7.6507866169
 30
0.0
 10
10.492874517
 20
7.6490343109
 30
0.0
 10
10.4868468276
 20
7.6476324652
 30
0.0
 10
10.4823260597
 20
7.6465810833
 30
0.0
 10
10.4778052953
 20
7.6455296923
 30
0.0
 10
10.4740379804
 20
7.6446535614
 30
0.0
 10
10.4710241538
 20
7.6439525935
 30
0.0
 10
10.4691404546
 20
7.6435146322
 30
0.0
 10
10.467633627
 20
7.6431639343
 30
0.0
 10
10.4665031455
 20
7.6429018114
 30
0.0
 10
10.4655622255
 20
7.6426805107
 30
0.0
 10
10.4649013286
 20
7.6425312227
 30
0.0
 10
10.4645271911
 20
7.6424371363
 30
0.0
 10
10.464236678
 20
7.6423913019
 30
0.0
 10
10.4639840457
 20
7.6422509351
 30
0.0
 10
10.4636339893
 20
7.6420967534
 30
0.0
 10
10.4630275469
 20
7.6418115722
 30
0.0
 10
10.4621579822
 20
7.6414122024
 30
0.0
 10
10.4611158821
 20
7.6409295208
 30
0.0
 10
10.4597259341
 20
7.6402871461
 30
0.0
 10
10.4579886639
 20
7.6394837666
 30
0.0
 10
10.4552089394
 20
7.6381985891
 30
0.0
 10
10.4517343155
 20
7.6365920385
 30
0.0
 10
10.4475647532
 20
7.6346642115
 30
0.0
 10
10.4433951946
 20
7.6327363754
 30
0.0
 10
10.4378357818
 20
7.6301659306
 30
0.0
 10
10.4308865163
 20
7.6269528733
 30
0.0
 10
10.4239372504
 20
7.6237398168
 30
0.0
 10
10.4183778382
 20
7.6211693706
 30
0.0
 10
10.4142082778
 20
7.6192415384
 30
0.0
 10
10.410038722
 20
7.6173136972
 30
0.0
 10
10.4065640778
 20
7.6157071905
 30
0.0
 10
10.4037843948
 20
7.6144219234
 30
0.0
 10
10.4020470191
 20
7.6136187721
 30
0.0
 10
10.4006572876
 20
7.6129759289
 30
0.0
 10
10.3996145263
 20
7.6124946786
 30
0.0
 10
10.3987470302
 20
7.6120908305
 30
0.0
 10
10.3981368949
 20
7.611813644
 30
0.0
 10
10.3977927555
 20
7.6116466527
 30
0.0
 10
10.397521948
 20
7.6115456329
 30
0.0
 10
10.397299698
 20
7.6113520178
 30
0.0
 10
10.3969864272
 20
7.6111261627
 30
0.0
 10
10.3964460948
 20
7.6107158678
 30
0.0
 10
10.3956700657
 20
7.6101375997
 30
0.0
 10
10.3947405966
 20
7.6094403105
 30
0.0
 10
10.3935006878
 20
7.6085117677
 30
0.0
 10
10.3919510129
 20
7.6073506865
 30
0.0
 10
10.3894714151
 20
7.6054931818
 30
0.0
 10
10.3863719583
 20
7.6031712235
 30
0.0
 10
10.3826525928
 20
7.6003849068
 30
0.0
 10
10.378933232
 20
7.5975985811
 30
0.0
 10
10.3739740826
 20
7.5938834834
 30
0.0
 10
10.3677751464
 20
7.5892396101
 30
0.0
 10
10.3615762097
 20
7.5845957375
 30
0.0
 10
10.3566170612
 20
7.5808806387
 30
0.0
 10
10.3528976978
 20
7.5780943163
 30
0.0
 10
10.3491783418
 20
7.5753079872
 30
0.0
 10
10.3460788553
 20
7.5729860674
 30
0.0
 10
10.3435993181
 20
7.5711284843
 30
0.0
 10
10.342049489
 20
7.5699676023
 30
0.0
 10
10.3408098967
 20
7.5690386508
 30
0.0
 10
10.3398794606
 20
7.5683426102
 30
0.0
 10
10.3391064572
 20
7.5677604356
 30
0.0
 10
10.3385607234
 20
7.5673571145
 30
0.0
 10
10.3382561071
 20
7.5671200856
 30
0.0
 10
10.3380072734
 20
7.5669607929
 30
0.0
 10
10.3378363095
 20
7.5667308639
 30
0.0
 10
10.3375811957
 20
7.5664489306
 30
0.0
 10
10.3371474018
 20
7.5659440677
 30
0.0
 10
10.33652108
 20
7.5652288366
 30
0.0
 10
10.3357723258
 20
7.5643679905
 30
0.0
 10
10.3347729977
 20
7.5632210928
 30
0.0
 10
10.3335241763
 20
7.5617871636
 30
0.0
 10
10.3315258727
 20
7.5594930485
 30
0.0
 10
10.3290280582
 20
7.5566253458
 30
0.0
 10
10.3260306529
 20
7.5531841277
 30
0.0
 10
10.3230332551
 20
7.5497429029
 30
0.0
 10
10.319036722
 20
7.5451546055
 30
0.0
 10
10.3140410567
 20
7.5394192329
 30
0.0
 10
10.3090453907
 20
7.5336838608
 30
0.0
 10
10.3050488587
 20
7.5290955626
 30
0.0
 10
10.3020514576
 20
7.5256543404
 30
0.0
 10
10.2990540645
 20
7.5222131124
 30
0.0
 10
10.2965562122
 20
7.5193454406
 30
0.0
 10
10.2945579855
 20
7.5170512624
 30
0.0
 10
10.2933089684
 20
7.5156174937
 30
0.0
 10
10.292310042
 20
7.5144702665
 30
0.0
 10
10.2915600603
 20
7.5136104274
 30
0.0
 10
10.2909375791
 20
7.5128920454
 30
0.0
 10
10.2904969292
 20
7.5123928076
 30
0.0
 10
10.2902528005
 20
7.5121018614
 30
0.0
 10
10.2900480939
 20
7.5118996171
 30
0.0
 10
10.2899259921
 20
7.5116363451
 30
0.0
 10
10.2897343762
 20
7.5113066028
 30
0.0
 10
10.2894124732
 20
7.5107196358
 30
0.0
 10
10.2889455931
 20
7.5098862969
 30
0.0
 10
10.2883883412
 20
7.5088840706
 30
0.0
 10
10.2876442894
 20
7.5075485441
 30
0.0
 10
10.2867145839
 20
7.5058788706
 30
0.0
 10
10.2852268543
 20
7.5032075414
 30
0.0
 10
10.2833672612
 20
7.4998683289
 30
0.0
 10
10.2811357199
 20
7.4958612957
 30
0.0
 10
10.2789041865
 20
7.4918542567
 30
0.0
 10
10.2759288059
 20
7.4865115401
 30
0.0
 10
10.2722095812
 20
7.4798331435
 30
0.0
 10
10.2684903558
 20
7.4731547475
 30
0.0
 10
10.2655149763
 20
7.4678120301
 30
0.0
 10
10.2632834394
 20
7.4638049933
 30
0.0
 10
10.2610519113
 20
7.4597979521
 30
0.0
 10
10.2591922772
 20
7.4564587644
 30
0.0
 10
10.2577046312
 20
7.4537873846
 30
0.0
 10
10.256774713
 20
7.4521178399
 30
0.0
 10
10.2560310978
 20
7.450782049
 30
0.0
 10
10.255472512
 20
7.4497806305
 30
0.0
 10
10.2550098052
 20
7.4489447644
 30
0.0
 10
10.2546804522
 20
7.4483623087
 30
0.0
 10
10.2545007731
 20
7.4480253382
 30
0.0
 10
10.2543420053
 20
7.4477842691
 30
0.0
 10
10.2542750102
 20
7.4474986342
 30
0.0
 10
10.254153672
 20
7.4471333328
 30
0.0
 10
10.2539562448
 20
7.4464868126
 30
0.0
 10
10.2536664084
 20
7.4455669989
 30
0.0
 10
10.2533219423
 20
7.4444616017
 30
0.0
 10
10.2528614885
 20
7.4429883048
 30
0.0
 10
10.2522863204
 20
7.4411464899
 30
0.0
 10
10.2513658282
 20
7.4381996944
 30
0.0
 10
10.2502152896
 20
7.4345161628
 30
0.0
 10
10.2488346105
 20
7.4300959408
 30
0.0
 10
10.2474539402
 20
7.4256757146
 30
0.0
 10
10.2456130433
 20
7.4197820811
 30
0.0
 10
10.2433119233
 20
7.4124150388
 30
0.0
 10
10.2410108026
 20
7.4050479967
 30
0.0
 10
10.239169907
 20
7.3991543627
 30
0.0
 10
10.2377892328
 20
7.3947341381
 30
0.0
 10
10.236408568
 20
7.3903139101
 30
0.0
 10
10.2352579849
 20
7.3866303973
 30
0.0
 10
10.2343375835
 20
7.3836835634
 30
0.0
 10
10.2337621846
 20
7.3818418462
 30
0.0
 10
10.2333022045
 20
7.3803683488
 30
0.0
 10
10.2329562912
 20
7.3792635641
 30
0.0
 10
10.2326709828
 20
7.3783418339
 30
0.0
 10
10.2324654723
 20
7.377698735
 30
0.0
 10
10.2323570857
 20
7.3773279518
 30
0.0
 10
10.2322503075
 20
7.3770591553
 30
0.0
 10
10.2322409582
 20
7.376754844
 30
0.0
 10
10.2321945082
 20
7.3763614836
 30
0.0
 10
10.2321290546
 20
7.375667331
 30
0.0
 10
10.2320272714
 20
7.374678702
 30
0.0
 10
10.2319086748
 20
7.3734910556
 30
0.0
 10
10.2317493084
 20
7.3719079781
 30
0.0
 10
10.2315505241
 20
7.3699289769
 30
0.0
 10
10.2312322325
 20
7.3667626613
 30
0.0
 10
10.2308344492
 20
7.3628047371
 30
0.0
 10
10.2303570745
 20
7.3580552408
 30
0.0
 10
10.229879709
 20
7.3533057411
 30
0.0
 10
10.2292432185
 20
7.346973076
 30
0.0
 10
10.2284476066
 20
7.3390572442
 30
0.0
 10
10.2276519939
 20
7.3311414126
 30
0.0
 10
10.2270155047
 20
7.3248087472
 30
0.0
 10
10.2265381352
 20
7.3200592482
 30
0.0
 10
10.2260607755
 20
7.3153097493
 30
0.0
 10
10.2256629456
 20
7.3113518331
 30
0.0
 10
10.2253447491
 20
7.3081855013
 30
0.0
 10
10.2251457226
 20
7.3062065411
 30
0.0
 10
10.2249868535
 20
7.3046233795
 30
0.0
 10
10.2248667376
 20
7.3034359901
 30
0.0
 10
10.2247697078
 20
7.302446557
 30
0.0
 10
10.2246957685
 20
7.3017538399
 30
0.0
 10
10.2246629148
 20
7.3013581794
 30
0.0
 10
10.2246118021
 20
7.301060933
 30
0.0
 10
10.2246618804
 20
7.3007656021
 30
0.0
 10
10.224693355
 20
7.3003711595
 30
0.0
 10
10.2247648808
 20
7.2996811962
 30
0.0
 10
10.2248584627
 20
7.2986953715
 30
0.0
 10
10.2249744411
 20
7.2975124516
 30
0.0
 10
10.2251277936
 20
7.2959352008
 30
0.0
 10
10.2253199243
 20
7.2939636455
 30
0.0
 10
10.2256270874
 20
7.2908091525
 30
0.0
 10
10.2260111258
 20
7.2868660378
 30
0.0
 10
10.2264719356
 20
7.2821342995
 30
0.0
 10
10.2269327552
 20
7.2774025613
 30
0.0
 10
10.2275471778
 20
7.2710935771
 30
0.0
 10
10.2283152074
 20
7.2632073468
 30
0.0
 10
10.2290832362
 20
7.2553211165
 30
0.0
 10
10.2296976601
 20
7.2490121323
 30
0.0
 10
10.2301584757
 20
7.2442803939
 30
0.0
 10
10.2306193005
 20
7.2395486567
 30
0.0
 10
10.2310032922
 20
7.2356055386
 30
0.0
 10
10.2313105506
 20
7.2324510525
 30
0.0
 10
10.2315024389
 20
7.2304794796
 30
0.0
 10
10.2316562889
 20
7.2289022649
 30
0.0
 10
10.2317707474
 20
7.2277192344
 30
0.0
 10
10.2318690848
 20
7.2267337559
 30
0.0
 10
10.2319321212
 20
7.2260431747
 30
0.0
 10
10.2319771978
 20
7.225649722
 30
0.0
 10
10.2319854951
 20
7.2253513505
 30
0.0
 10
10.2320913052
 20
7.2250655244
 30
0.0
 10
10.2321983717
 20
7.224680047
 30
0.0
 10
10.2324015857
 20
7.2240075004
 30
0.0
 10
10.2326836062
 20
7.2230456537
 30
0.0
 10
10.2330255771
 20
7.2218918938
 30
0.0
 10
10.2334802997
 20
7.2203533879
 30
0.0
 10
10.234049127
 20
7.2184303102
 30
0.0
 10
10.2349590136
 20
7.2153533553
 30
0.0
 10
10.2360964533
 20
7.2115071721
 30
0.0
 10
10.237461346
 20
7.2068917478
 30
0.0
 10
10.2388262481
 20
7.2022763247
 30
0.0
 10
10.2406461142
 20
7.1961224268
 30
0.0
 10
10.2429209481
 20
7.1884300546
 30
0.0
 10
10.2451957812
 20
7.1807376823
 30
0.0
 10
10.2470156486
 20
7.1745837847
 30
0.0
 10
10.2483805468
 20
7.1699683607
 30
0.0
 10
10.2497454538
 20
7.1653529398
 30
0.0
 10
10.250882849
 20
7.1615067462
 30
0.0
 10
10.2517928264
 20
7.1584298124
 30
0.0
 10
10.2523614227
 20
7.1565066809
 30
0.0
 10
10.2528166195
 20
7.1549682854
 30
0.0
 10
10.2531571415
 20
7.1538141885
 30
0.0
 10
10.2534436952
 20
7.1528533961
 30
0.0
 10
10.2536388166
 20
7.1521789674
 30
0.0
 10
10.2537588496
 20
7.1517965056
 30
0.0
 10
10.2538248311
 20
7.1515014167
 30
0.0
 10
10.253982718
 20
7.1512378348
 30
0.0
 10
10.2541611762
 20
7.1508754023
 30
0.0
 10
10.2544884144
 20
7.1502462659
 30
0.0
 10
10.2549480886
 20
7.1493448226
 30
0.0
 10
10.2555030401
 20
7.1482642365
 30
0.0
 10
10.256241808
 20
7.1468230548
 30
0.0
 10
10.2571656677
 20
7.1450217147
 30
0.0
 10
10.2586436197
 20
7.142139494
 30
0.0
 10
10.2604911363
 20
7.1385367443
 30
0.0
 10
10.2627081234
 20
7.1342134335
 30
0.0
 10
10.2649251193
 20
7.1298901256
 30
0.0
 10
10.2678811108
 20
7.1241257141
 30
0.0
 10
10.2715761013
 20
7.1169202001
 30
0.0
 10
10.275271091
 20
7.1097146859
 30
0.0
 10
10.2782270837
 20
7.1039502748
 30
0.0
 10
10.280444076
 20
7.0996269655
 30
0.0
 10
10.2826610768
 20
7.0953036602
 30
0.0
 10
10.2845085509
 20
7.0917008932
 30
0.0
 10
10.2859865897
 20
7.0888187079
 30
0.0
 10
10.2869102284
 20
7.0870172777
 30
0.0
 10
10.2876494498
 20
7.0855762809
 30
0.0
 10
10.2882030158
 20
7.0844951297
 30
0.0
 10
10.288667025
 20
7.0835954545
 30
0.0
 10
10.2889865245
 20
7.0829631618
 30
0.0
 10
10.289177382
 20
7.0826057865
 30
0.0
 10
10.2892971824
 20
7.0823266707
 30
0.0
 10
10.2895062105
 20
7.0820899246
 30
0.0
 10
10.2897537911
 20
7.081759484
 30
0.0
 10
10.2902015581
 20
7.0811880989
 30
0.0
 10
10.290833644
 20
7.0803682344
 30
0.0
 10
10.2915953921
 20
7.079385938
 30
0.0
 10
10.2926099229
 20
7.0780756712
 30
0.0
 10
10.2938784743
 20
7.076438022
 30
0.0
 10
10.2959079398
 20
7.0738176802
 30
0.0
 10
10.2984448461
 20
7.0705422884
 30
0.0
 10
10.3014891018
 20
7.0666118031
 30
0.0
 10
10.3045333659
 20
7.0626813218
 30
0.0
 10
10.3085923818
 20
7.0574406787
 30
0.0
 10
10.3136661528
 20
7.0508898753
 30
0.0
 10
10.3187399232
 20
7.0443390715
 30
0.0
 10
10.3227989401
 20
7.0390984291
 30
0.0
 10
10.3258432012
 20
7.0351679455
 30
0.0
 10
10.3288874685
 20
7.0312374689
 30
0.0
 10
10.3314243385
 20
7.0279620499
 30
0.0
 10
10.333453878
 20
7.0253417636
 30
0.0
 10
10.3347222411
 20
7.0237039733
 30
0.0
 10
10.3357371585
 20
7.0223939962
 30
0.0
 10
10.3364977251
 20
7.0214108146
 30
0.0
 10
10.3371335077
 20
7.0205937195
 30
0.0
 10
10.3375746755
 20
7.0200173906
 30
0.0
 10
10.3378328297
 20
7.0196948712
 30
0.0
 10
10.338009379
 20
7.0194337939
 30
0.0
 10
10.3382511645
 20
7.019246062
 30
0.0
 10
10.33855079
 20
7.0189701692
 30
0.0
 10
10.3390857366
 20
7.0184992766
 30
0.0
 10
10.3398444032
 20
7.0178203411
 30
0.0
 10
10.3407571756
 20
7.0170082859
 30
0.0
 10
10.3419733769
 20
7.015924614
 30
0.0
 10
10.3434939122
 20
7.014570343
 30
0.0
 10
10.3459266101
 20
7.0124033313
 30
0.0
 10
10.3489675369
 20
7.0096946278
 30
0.0
 10
10.3526166257
 20
7.0064441573
 30
0.0
 10
10.3562657207
 20
7.0031936939
 30
0.0
 10
10.3611311786
 20
6.9988597402
 30
0.0
 10
10.3672130018
 20
6.993442299
 30
0.0
 10
10.3732948245
 20
6.9880248571
 30
0.0
 10
10.3781602832
 20
6.9836909044
 30
0.0
 10
10.3818093758
 20
6.9804404379
 30
0.0
 10
10.3854584738
 20
6.977189979
 30
0.0
 10
10.3884993722
 20
6.9744812397
 30
0.0
 10
10.3909321279
 20
6.9723143009
 30
0.0
 10
10.3924525162
 20
6.9709598444
 30
0.0
 10
10.3936690192
 20
6.9698765533
 30
0.0
 10
10.3945808697
 20
6.9690633346
 30
0.0
 10
10.395342421
 20
6.9683880395
 30
0.0
 10
10.3958722179
 20
6.9679106481
 30
0.0
 10
10.3961800945
 20
6.9676451681
 30
0.0
 10
10.3963965352
 20
6.9674254513
 30
0.0
 10
10.3966682751
 20
6.9672845043
 30
0.0
 10
10.3970113059
 20
6.9670690991
 30
0.0
 10
10.3976205969
 20
6.9667049416
 30
0.0
 10
10.3984863142
 20
6.9661780239
 30
0.0
 10
10.399527186
 20
6.9655485872
 30
0.0
 10
10.4009143126
 20
6.9647083379
 30
0.0
 10
10.4026484614
 20
6.9636583687
 30
0.0
 10
10.4054229651
 20
6.9619782266
 30
0.0
 10
10.4088911408
 20
6.9598781147
 30
0.0
 10
10.4130529319
 20
6.9573579522
 30
0.0
 10
10.4172147282
 20
6.9548377973
 30
0.0
 10
10.4227637882
 20
6.9514775881
 30
0.0
 10
10.4297001138
 20
6.9472773276
 30
0.0
 10
10.4366364391
 20
6.9430770663
 30
0.0
 10
10.4421854997
 20
6.9397168582
 30
0.0
 10
10.4463472942
 20
6.9371966999
 30
0.0
 10
10.4505090923
 20
6.9346765501
 30
0.0
 10
10.453977246
 20
6.9325763988
 30
0.0
 10
10.4567517945
 20
6.9308963371
 30
0.0
 10
10.4584858293
 20
6.9298461632
 30
0.0
 10
10.45987319
 20
6.9290063342
 30
0.0
 10
10.4609133466
 20
6.9283756133
 30
0.0
 10
10.4617813015
 20
6.9278527137
 30
0.0
 10
10.4623865979
 20
6.9274813832
 30
0.0
 10
10.4627360292
 20
6.927277471
 30
0.0
 10
10.4629881089
 20
6.9271012214
 30
0.0
 10
10.4632783899
 20
6.9270140952
 30
0.0
 10
10.4636521061
 20
6.9268668397
 30
0.0
 10
10.464312318
 20
6.9266236266
 30
0.0
 10
10.4652522319
 20
6.926268607
 30
0.0
 10
10.4663815179
 20
6.9258458247
 30
0.0
 10
10.4678867474
 20
6.9252809828
 30
0.0
 10
10.4697684503
 20
6.9245753181
 30
0.0
 10
10.4727790822
 20
6.923446038
 30
0.0
 10
10.4765424039
 20
6.9220345122
 30
0.0
 10
10.4810583763
 20
6.9203406493
 30
0.0
 10
10.4855743523
 20
6.9186467949
 30
0.0
 10
10.4915956524
 20
6.9163883195
 30
0.0
 10
10.499122278
 20
6.9135652263
 30
0.0
 10
10.5066489033
 20
6.9107421323
 30
0.0
 10
10.5126702039
 20
6.9084836581
 30
0.0
 10
10.5171861786
 20
6.9067898
 30
0.0
 10
10.521702156
 20
6.9050959511
 30
0.0
 10
10.525465462
 20
6.9036843819
 30
0.0
 10
10.528476126
 20
6.9025551902
 30
0.0
 10
10.5303577472
 20
6.9018493004
 30
0.0
 10
10.5318631443
 20
6.9012849206
 30
0.0
 10
10.5329919182
 20
6.9008607266
 30
0.0
 10
10.5339334346
 20
6.9005101239
 30
0.0
 10
10.5345907857
 20
6.9002590259
 30
0.0
 10
10.5349690856
 20
6.900124404
 30
0.0
 10
10.5352452871
 20
6.8999984712
 30
0.0
 10
10.5355502469
 20
6.8999679729
 30
0.0
 10
10.5359468289
 20
6.8998940198
 30
0.0
 10
10.536645521
 20
6.8997801118
 30
0.0
 10
10.5376412091
 20
6.8996092773
 30
0.0
 10
10.5388370808
 20
6.8994077468
 30
0.0
 10
10.540431211
 20
6.8991378271
 30
0.0
 10
10.5424239988
 20
6.8988008425
 30
0.0
 10
10.5456123895
 20
6.8982614352
 30
0.0
 10
10.5495979018
 20
6.8975872558
 30
0.0
 10
10.5543805063
 20
6.8967782063
 30
0.0
 10
10.5591631135
 20
6.8959691659
 30
0.0
 10
10.5655399222
 20
6.8948904422
 30
0.0
 10
10.5735109334
 20
6.8935420387
 30
0.0
 10
10.5830761467
 20
6.891923954
 30
0.0
 10
10.5958297644
 20
6.8897665079
 30
0.0
 10
10.6053949777
 20
6.8881484233
 30
0.0
 10
10.6117717866
 20
6.8870697003
 30
0.0
  0
SPLINE
  5
32A
100
AcDbEntity
  8
0
100
AcDbSpline
 62
4
  6
CONTINUOUS
 70
0
 71
3
 72
403
 73
399
 74
0
 42
0.0000001
 43
0.0000001
 44
0.0000000001
 40
0.0
 40
0.0
 40
0.0
 40
0.0
 40
0.015625
 40
0.0234375
 40
0.03125
 40
0.0390625
 40
0.04296875
 40
0.046875
 40
0.05078125
 40
0.0546875
 40
0.056640625
 40
0.05859375
 40
0.0595703125
 40
0.060546875
 40
0.0615234375
 40
0.0620117188
 40
0.0622558594
 40
0.0625
 40
0.0627441406
 40
0.0629882812
 40
0.0634765625
 40
0.064453125
 40
0.0654296875
 40
0.06640625
 40
0.068359375
 40
0.0703125
 40
0.07421875
 40
0.078125
 40
0.08203125
 40
0.0859375
 40
0.09375
 40
0.1015625
 40
0.10546875
 40
0.109375
 40
0.11328125
 40
0.1171875
 40
0.119140625
 40
0.12109375
 40
0.1220703125
 40
0.123046875
 40
0.1240234375
 40
0.1245117188
 40
0.1247558594
 40
0.125
 40
0.1252441406
 40
0.1254882812
 40
0.1259765625
 40
0.126953125
 40
0.1279296875
 40
0.12890625
 40
0.130859375
 40
0.1328125
 40
0.13671875
 40
0.140625
 40
0.14453125
 40
0.1484375
 40
0.15625
 40
0.1640625
 40
0.16796875
 40
0.171875
 40
0.17578125
 40
0.1796875
 40
0.181640625
 40
0.18359375
 40
0.1845703125
 40
0.185546875
 40
0.1865234375
 40
0.1870117188
 40
0.1872558594
 40
0.1875
 40
0.1877441406
 40
0.1879882812
 40
0.1884765625
 40
0.189453125
 40
0.1904296875
 40
0.19140625
 40
0.193359375
 40
0.1953125
 40
0.19921875
 40
0.203125
 40
0.20703125
 40
0.2109375
 40
0.21875
 40
0.2265625
 40
0.23046875
 40
0.234375
 40
0.23828125
 40
0.2421875
 40
0.244140625
 40
0.24609375
 40
0.2470703125
 40
0.248046875
 40
0.2490234375
 40
0.2495117188
 40
0.2497558594
 40
0.25
 40
0.2502441406
 40
0.2504882812
 40
0.2509765625
 40
0.251953125
 40
0.2529296875
 40
0.25390625
 40
0.255859375
 40
0.2578125
 40
0.26171875
 40
0.265625
 40
0.26953125
 40
0.2734375
 40
0.28125
 40
0.2890625
 40
0.29296875
 40
0.296875
 40
0.30078125
 40
0.3046875
 40
0.306640625
 40
0.30859375
 40
0.3095703125
 40
0.310546875
 40
0.3115234375
 40
0.3120117188
 40
0.3122558594
 40
0.3125
 40
0.3127441406
 40
0.3129882812
 40
0.3134765625
 40
0.314453125
 40
0.3154296875
 40
0.31640625
 40
0.318359375
 40
0.3203125
 40
0.32421875
 40
0.328125
 40
0.33203125
 40
0.3359375
 40
0.34375
 40
0.3515625
 40
0.35546875
 40
0.359375
 40
0.36328125
 40
0.3671875
 40
0.369140625
 40
0.37109375
 40
0.3720703125
 40
0.373046875
 40
0.3740234375
 40
0.3745117188
 40
0.3747558594
 40
0.375
 40
0.3752441406
 40
0.3754882812
 40
0.3759765625
 40
0.376953125
 40
0.3779296875
 40
0.37890625
 40
0.380859375
 40
0.3828125
 40
0.38671875
 40
0.390625
 40
0.39453125
 40
0.3984375
 40
0.40625
 40
0.4140625
 40
0.41796875
 40
0.421875
 40
0.42578125
 40
0.4296875
 40
0.431640625
 40
0.43359375
 40
0.4345703125
 40
0.435546875
 40
0.4365234375
 40
0.4370117188
 40
0.4372558594
 40
0.4375
 40
0.4377441406
 40
0.4379882812
 40
0.4384765625
 40
0.439453125
 40
0.4404296875
 40
0.44140625
 40
0.443359375
 40
0.4453125
 40
0.44921875
 40
0.453125
 40
0.45703125
 40
0.4609375
 40
0.46875
 40
0.4765625
 40
0.48046875
 40
0.484375
 40
0.48828125
 40
0.4921875
 40
0.494140625
 40
0.49609375
 40
0.4970703125
 40
0.498046875
 40
0.4990234375
 40
0.4995117188
 40
0.4997558594
 40
0.5
 40
0.5002441406
 40
0.5004882812
 40
0.5009765625
 40
0.501953125
 40
0.5029296875
 40
0.50390625
 40
0.505859375
 40
0.5078125
 40
0.51171875
 40
0.515625
 40
0.51953125
 40
0.5234375
 40
0.53125
 40
0.5390625
 40
0.54296875
 40
0.546875
 40
0.55078125
 40
0.5546875
 40
0.556640625
 40
0.55859375
 40
0.5595703125
 40
0.560546875
 40
0.5615234375
 40
0.5620117188
 40
0.5622558594
 40
0.5625
 40
0.5627441406
 40
0.5629882812
 40
0.5634765625
 40
0.564453125
 40
0.5654296875
 40
0.56640625
 40
0.568359375
 40
0.5703125
 40
0.57421875
 40
0.578125
 40
0.58203125
 40
0.5859375
 40
0.59375
 40
0.6015625
 40
0.60546875
 40
0.609375
 40
0.61328125
 40
0.6171875
 40
0.619140625
 40
0.62109375
 40
0.6220703125
 40
0.623046875
 40
0.6240234375
 40
0.6245117188
 40
0.6247558594
 40
0.625
 40
0.6252441406
 40
0.6254882812
 40
0.6259765625
 40
0.626953125
 40
0.6279296875
 40
0.62890625
 40
0.630859375
 40
0.6328125
 40
0.63671875
 40
0.640625
 40
0.64453125
 40
0.6484375
 40
0.65625
 40
0.6640625
 40
0.66796875
 40
0.671875
 40
0.67578125
 40
0.6796875
 40
0.681640625
 40
0.68359375
 40
0.6845703125
 40
0.685546875
 40
0.6865234375
 40
0.6870117188
 40
0.6872558594
 40
0.6875
 40
0.6877441406
 40
0.6879882812
 40
0.6884765625
 40
0.689453125
 40
0.6904296875
 40
0.69140625
 40
0.693359375
 40
0.6953125
 40
0.69921875
 40
0.703125
 40
0.70703125
 40
0.7109375
 40
0.71875
 40
0.7265625
 40
0.73046875
 40
0.734375
 40
0.73828125
 40
0.7421875
 40
0.744140625
 40
0.74609375
 40
0.7470703125
 40
0.748046875
 40
0.7490234375
 40
0.7495117188
 40
0.7497558594
 40
0.75
 40
0.7502441406
 40
0.7504882812
 40
0.7509765625
 40
0.751953125
 40
0.7529296875
 40
0.75390625
 40
0.755859375
 40
0.7578125
 40
0.76171875
 40
0.765625
 40
0.76953125
 40
0.7734375
 40
0.78125
 40
0.7890625
 40
0.79296875
 40
0.796875
 40
0.80078125
 40
0.8046875
 40
0.806640625
 40
0.80859375
 40
0.8095703125
 40
0.810546875
 40
0.8115234375
 40
0.8120117188
 40
0.8122558594
 40
0.8125
 40
0.8127441406
 40
0.8129882812
 40
0.8134765625
 40
0.814453125
 40
0.8154296875
 40
0.81640625
 40
0.818359375
 40
0.8203125
 40
0.82421875
 40
0.828125
 40
0.83203125
 40
0.8359375
 40
0.84375
 40
0.8515625
 40
0.85546875
 40
0.859375
 40
0.86328125
 40
0.8671875
 40
0.869140625
 40
0.87109375
 40
0.8720703125
 40
0.873046875
 40
0.8740234375
 40
0.8745117188
 40
0.8747558594
 40
0.875
 40
0.8752441406
 40
0.8754882812
 40
0.8759765625
 40
0.876953125
 40
0.8779296875
 40
0.87890625
 40
0.880859375
 40
0.8828125
 40
0.88671875
 40
0.890625
 40
0.89453125
 40
0.8984375
 40
0.90625
 40
0.9140625
 40
0.91796875
 40
0.921875
 40
0.92578125
 40
0.9296875
 40
0.931640625
 40
0.93359375
 40
0.9345703125
 40
0.935546875
 40
0.9365234375
 40
0.9370117188
 40
0.9372558594
 40
0.9375
 40
0.9377441406
 40
0.9379882812
 40
0.9384765625
 40
0.939453125
 40
0.9404296875
 40
0.94140625
 40
0.943359375
 40
0.9453125
 40
0.94921875
 40
0.953125
 40
0.95703125
 40
0.9609375
 40
0.96875
 40
0.9765625
 40
0.984375
 40
1.0
 40
1.0
 40
1.0
 40
1.0
 10
10.6117717527
 20
6.8870697026
 30
0.0
 10
10.6180381266
 20
6.8872495514
 30
0.0
 10
10.6274376873
 20
6.8875193247
 30
0.0
 10
10.639970435
 20
6.8878790223
 30
0.0
 10
10.6493699957
 20
6.8881487956
 30
0.0
 10
10.6572029631
 20
6.8883736064
 30
0.0
 10
10.6634693368
 20
6.8885534558
 30
0.0
 10
10.6681691176
 20
6.8886883405
 30
0.0
 10
10.6728688965
 20
6.8888232345
 30
0.0
 10
10.6767853847
 20
6.8889356168
 30
0.0
 10
10.6799185623
 20
6.8890255886
 30
0.0
 10
10.6818768277
 20
6.8890816708
 30
0.0
 10
10.6834433728
 20
6.8891268805
 30
0.0
 10
10.6846184656
 20
6.889159846
 30
0.0
 10
10.6855971244
 20
6.8891903132
 30
0.0
 10
10.686283334
 20
6.8892057608
 30
0.0
 10
10.6866736606
 20
6.8892237682
 30
0.0
 10
10.6869714568
 20
6.8892114132
 30
0.0
 10
10.6872499449
 20
6.8892979101
 30
0.0
 10
10.6876279972
 20
6.8893787586
 30
0.0
 10
10.6882864508
 20
6.8895363087
 30
0.0
 10
10.6892287394
 20
6.8897529812
 30
0.0
 10
10.6903587835
 20
6.8900165833
 30
0.0
 10
10.6918657543
 20
6.8903667971
 30
0.0
 10
10.6937493837
 20
6.8908049943
 30
0.0
 10
10.6967632378
 20
6.8915058694
 30
0.0
 10
10.7005305392
 20
6.8923820459
 30
0.0
 10
10.7050513079
 20
6.8934334222
 30
0.0
 10
10.7095720747
 20
6.894484808
 30
0.0
 10
10.7155997644
 20
6.8958866525
 30
0.0
 10
10.7231343764
 20
6.8976389592
 30
0.0
 10
10.7306689885
 20
6.8993912652
 30
0.0
 10
10.7366966778
 20
6.9007931109
 30
0.0
 10
10.7412174458
 20
6.9018444928
 30
0.0
 10
10.7457382102
 20
6.9028958838
 30
0.0
 10
10.7495055251
 20
6.9037720148
 30
0.0
 10
10.7525193517
 20
6.9044729826
 30
0.0
 10
10.7544030509
 20
6.9049109439
 30
0.0
 10
10.7559098785
 20
6.9052616419
 30
0.0
 10
10.75704036
 20
6.9055237647
 30
0.0
 10
10.75798128
 20
6.9057450654
 30
0.0
 10
10.7586421769
 20
6.9058943535
 30
0.0
 10
10.7590163144
 20
6.9059884399
 30
0.0
 10
10.7593068275
 20
6.9060342742
 30
0.0
 10
10.7595594598
 20
6.906174641
 30
0.0
 10
10.7599095162
 20
6.9063288227
 30
0.0
 10
10.7605159585
 20
6.906614004
 30
0.0
 10
10.7613855233
 20
6.9070133737
 30
0.0
 10
10.7624276234
 20
6.9074960553
 30
0.0
 10
10.7638175714
 20
6.90813843
 30
0.0
 10
10.7655548416
 20
6.9089418096
 30
0.0
 10
10.7683345661
 20
6.910226987
 30
0.0
 10
10.77180919
 20
6.9118335377
 30
0.0
 10
10.7759787523
 20
6.9137613647
 30
0.0
 10
10.7801483109
 20
6.9156892007
 30
0.0
 10
10.7857077237
 20
6.9182596456
 30
0.0
 10
10.7926569892
 20
6.9214727029
 30
0.0
 10
10.7996062551
 20
6.9246857594
 30
0.0
 10
10.8051656673
 20
6.9272562055
 30
0.0
 10
10.8093352277
 20
6.9291840378
 30
0.0
 10
10.8135047835
 20
6.9311118789
 30
0.0
 10
10.8169794277
 20
6.9327183856
 30
0.0
 10
10.8197591107
 20
6.9340036527
 30
0.0
 10
10.8214964864
 20
6.934806804
 30
0.0
 10
10.8228862179
 20
6.9354496472
 30
0.0
 10
10.8239289792
 20
6.9359308975
 30
0.0
 10
10.8247964753
 20
6.9363347456
 30
0.0
 10
10.8254066106
 20
6.9366119321
 30
0.0
 10
10.8257507499
 20
6.9367789235
 30
0.0
 10
10.8260215575
 20
6.9368799433
 30
0.0
 10
10.8262438075
 20
6.9370735583
 30
0.0
 10
10.8265570783
 20
6.9372994135
 30
0.0
 10
10.8270974107
 20
6.9377097084
 30
0.0
 10
10.8278734398
 20
6.9382879764
 30
0.0
 10
10.8288029089
 20
6.9389852657
 30
0.0
 10
10.8300428177
 20
6.9399138084
 30
0.0
 10
10.8315924926
 20
6.9410748896
 30
0.0
 10
10.8340720904
 20
6.9429323944
 30
0.0
 10
10.8371715472
 20
6.9452543526
 30
0.0
 10
10.8408909127
 20
6.9480406694
 30
0.0
 10
10.8446102735
 20
6.950826995
 30
0.0
 10
10.8495694229
 20
6.9545420927
 30
0.0
 10
10.8557683591
 20
6.959185966
 30
0.0
 10
10.8619672957
 20
6.9638298386
 30
0.0
 10
10.8669264443
 20
6.9675449375
 30
0.0
 10
10.8706458077
 20
6.9703312598
 30
0.0
 10
10.8743651637
 20
6.9731175889
 30
0.0
 10
10.8774646501
 20
6.9754395088
 30
0.0
 10
10.8799441874
 20
6.9772970918
 30
0.0
 10
10.8814940164
 20
6.9784579739
 30
0.0
 10
10.8827336088
 20
6.9793869253
 30
0.0
 10
10.8836640448
 20
6.9800829659
 30
0.0
 10
10.8844370483
 20
6.9806651406
 30
0.0
 10
10.8849827821
 20
6.9810684616
 30
0.0
 10
10.8852873984
 20
6.9813054906
 30
0.0
 10
10.885536232
 20
6.9814647832
 30
0.0
 10
10.885707196
 20
6.9816947123
 30
0.0
 10
10.8859623098
 20
6.9819766456
 30
0.0
 10
10.8863961036
 20
6.9824815085
 30
0.0
 10
10.8870224255
 20
6.9831967395
 30
0.0
 10
10.8877711797
 20
6.9840575857
 30
0.0
 10
10.8887705078
 20
6.9852044833
 30
0.0
 10
10.8900193292
 20
6.9866384125
 30
0.0
 10
10.8920176328
 20
6.9889325276
 30
0.0
 10
10.8945154473
 20
6.9918002304
 30
0.0
 10
10.8975128526
 20
6.9952414484
 30
0.0
 10
10.9005102504
 20
6.9986826732
 30
0.0
 10
10.9045067835
 20
7.0032709706
 30
0.0
 10
10.9095024488
 20
7.0090063433
 30
0.0
 10
10.9144981148
 20
7.0147417153
 30
0.0
 10
10.9184946468
 20
7.0193300136
 30
0.0
 10
10.9214920479
 20
7.0227712358
 30
0.0
 10
10.924489441
 20
7.0262124638
 30
0.0
 10
10.9269872933
 20
7.0290801356
 30
0.0
 10
10.9289855199
 20
7.0313743138
 30
0.0
 10
10.9302345371
 20
7.0328080824
 30
0.0
 10
10.9312334634
 20
7.0339553097
 30
0.0
 10
10.9319834451
 20
7.0348151487
 30
0.0
 10
10.9326059264
 20
7.0355335308
 30
0.0
 10
10.9330465763
 20
7.0360327685
 30
0.0
 10
10.933290705
 20
7.0363237147
 30
0.0
 10
10.9334954116
 20
7.036525959
 30
0.0
 10
10.9336175134
 20
7.0367892311
 30
0.0
 10
10.9338091293
 20
7.0371189733
 30
0.0
 10
10.9341310323
 20
7.0377059403
 30
0.0
 10
10.9345979124
 20
7.0385392793
 30
0.0
 10
10.9351551643
 20
7.0395415055
 30
0.0
 10
10.9358992161
 20
7.040877032
 30
0.0
 10
10.9368289216
 20
7.0425467055
 30
0.0
 10
10.9383166512
 20
7.0452180348
 30
0.0
 10
10.9401762443
 20
7.0485572473
 30
0.0
 10
10.9424077856
 20
7.0525642804
 30
0.0
 10
10.944639319
 20
7.0565713194
 30
0.0
 10
10.9476146996
 20
7.0619140361
 30
0.0
 10
10.9513339243
 20
7.0685924326
 30
0.0
 10
10.9550531497
 20
7.0752708287
 30
0.0
 10
10.9580285292
 20
7.080613546
 30
0.0
 10
10.960260066
 20
7.0846205829
 30
0.0
 10
10.9624915941
 20
7.088627624
 30
0.0
 10
10.9643512282
 20
7.0919668117
 30
0.0
 10
10.9658388743
 20
7.0946381916
 30
0.0
 10
10.9667687925
 20
7.0963077363
 30
0.0
 10
10.9675124077
 20
7.0976435271
 30
0.0
 10
10.9680709935
 20
7.0986449457
 30
0.0
 10
10.9685337003
 20
7.0994808118
 30
0.0
 10
10.9688630533
 20
7.1000632675
 30
0.0
 10
10.9690427324
 20
7.100400238
 30
0.0
 10
10.9692015002
 20
7.1006413071
 30
0.0
 10
10.9692684953
 20
7.1009269419
 30
0.0
 10
10.9693898335
 20
7.1012922433
 30
0.0
 10
10.9695872607
 20
7.1019387635
 30
0.0
 10
10.9698770971
 20
7.1028585772
 30
0.0
 10
10.9702215632
 20
7.1039639745
 30
0.0
 10
10.970682017
 20
7.1054372713
 30
0.0
 10
10.9712571851
 20
7.1072790862
 30
0.0
 10
10.9721776773
 20
7.1102258818
 30
0.0
 10
10.9733282158
 20
7.1139094133
 30
0.0
 10
10.974708895
 20
7.1183296353
 30
0.0
 10
10.9760895653
 20
7.1227498615
 30
0.0
 10
10.9779304622
 20
7.128643495
 30
0.0
 10
10.9802315821
 20
7.1360105374
 30
0.0
 10
10.9825327029
 20
7.1433775794
 30
0.0
 10
10.9843735985
 20
7.1492712135
 30
0.0
 10
10.9857542726
 20
7.1536914381
 30
0.0
 10
10.9871349375
 20
7.1581116661
 30
0.0
 10
10.9882855205
 20
7.1617951788
 30
0.0
 10
10.989205922
 20
7.1647420127
 30
0.0
 10
10.9897813209
 20
7.16658373
 30
0.0
 10
10.990241301
 20
7.1680572273
 30
0.0
 10
10.9905872143
 20
7.169162012
 30
0.0
 10
10.9908725227
 20
7.1700837422
 30
0.0
 10
10.9910780332
 20
7.1707268411
 30
0.0
 10
10.9911864198
 20
7.1710976244
 30
0.0
 10
10.991293198
 20
7.1713664208
 30
0.0
 10
10.9913025473
 20
7.1716707321
 30
0.0
 10
10.9913489973
 20
7.1720640926
 30
0.0
 10
10.9914144509
 20
7.1727582452
 30
0.0
 10
10.9915162341
 20
7.1737468742
 30
0.0
 10
10.9916348307
 20
7.1749345206
 30
0.0
 10
10.9917941971
 20
7.176517598
 30
0.0
 10
10.9919929814
 20
7.1784965992
 30
0.0
 10
10.992311273
 20
7.1816629149
 30
0.0
 10
10.9927090563
 20
7.1856208391
 30
0.0
 10
10.993186431
 20
7.1903703354
 30
0.0
 10
10.9936637964
 20
7.1951198351
 30
0.0
 10
10.994300287
 20
7.2014525002
 30
0.0
 10
10.9950958989
 20
7.209368332
 30
0.0
 10
10.9958915116
 20
7.2172841636
 30
0.0
 10
10.9965280008
 20
7.2236168289
 30
0.0
 10
10.9970053702
 20
7.2283663279
 30
0.0
 10
10.99748273
 20
7.2331158268
 30
0.0
 10
10.9978805599
 20
7.2370737431
 30
0.0
 10
10.9981987564
 20
7.2402400748
 30
0.0
 10
10.9983977829
 20
7.2422190351
 30
0.0
 10
10.998556652
 20
7.2438021966
 30
0.0
 10
10.9986767679
 20
7.244989586
 30
0.0
 10
10.9987737977
 20
7.2459790191
 30
0.0
 10
10.998847737
 20
7.2466717362
 30
0.0
 10
10.9988805907
 20
7.2470673967
 30
0.0
 10
10.9989317034
 20
7.2473646432
 30
0.0
 10
10.998881625
 20
7.247659974
 30
0.0
 10
10.9988501505
 20
7.2480544167
 30
0.0
 10
10.9987786247
 20
7.24874438
 30
0.0
 10
10.9986850428
 20
7.2497302046
 30
0.0
 10
10.9985690644
 20
7.2509131245
 30
0.0
 10
10.9984157119
 20
7.2524903754
 30
0.0
 10
10.9982235812
 20
7.2544619306
 30
0.0
 10
10.9979164181
 20
7.2576164236
 30
0.0
 10
10.9975323797
 20
7.2615595383
 30
0.0
 10
10.9970715698
 20
7.2662912766
 30
0.0
 10
10.9966107503
 20
7.2710230148
 30
0.0
 10
10.9959963277
 20
7.277331999
 30
0.0
 10
10.9952282981
 20
7.2852182293
 30
0.0
 10
10.9944602693
 20
7.2931044597
 30
0.0
 10
10.9938458454
 20
7.2994134438
 30
0.0
 10
10.9933850298
 20
7.3041451823
 30
0.0
 10
10.992924205
 20
7.3088769195
 30
0.0
 10
10.9925402133
 20
7.3128200376
 30
0.0
 10
10.9922329549
 20
7.3159745237
 30
0.0
 10
10.9920410665
 20
7.3179460966
 30
0.0
 10
10.9918872166
 20
7.3195233112
 30
0.0
 10
10.9917727581
 20
7.3207063417
 30
0.0
 10
10.9916744207
 20
7.3216918203
 30
0.0
 10
10.9916113843
 20
7.3223824014
 30
0.0
 10
10.9915663077
 20
7.3227758541
 30
0.0
 10
10.9915580104
 20
7.3230742257
 30
0.0
 10
10.9914522003
 20
7.3233600517
 30
0.0
 10
10.9913451338
 20
7.3237455291
 30
0.0
 10
10.9911419198
 20
7.3244180757
 30
0.0
 10
10.9908598993
 20
7.3253799225
 30
0.0
 10
10.9905179284
 20
7.3265336824
 30
0.0
 10
10.9900632058
 20
7.3280721882
 30
0.0
 10
10.9894943785
 20
7.329995266
 30
0.0
 10
10.9885844919
 20
7.3330722209
 30
0.0
 10
10.9874470522
 20
7.3369184041
 30
0.0
 10
10.9860821595
 20
7.3415338283
 30
0.0
 10
10.9847172574
 20
7.3461492514
 30
0.0
 10
10.9828973913
 20
7.3523031493
 30
0.0
 10
10.9806225574
 20
7.3599955215
 30
0.0
 10
10.9783477243
 20
7.3676878939
 30
0.0
 10
10.9765278569
 20
7.3738417914
 30
0.0
 10
10.9751629587
 20
7.3784572154
 30
0.0
 10
10.9737980516
 20
7.3830726364
 30
0.0
 10
10.9726606565
 20
7.3869188299
 30
0.0
 10
10.9717506791
 20
7.3899957637
 30
0.0
 10
10.9711820828
 20
7.3919188952
 30
0.0
 10
10.970726886
 20
7.3934572908
 30
0.0
 10
10.970386364
 20
7.3946113876
 30
0.0
 10
10.9700998103
 20
7.3955721801
 30
0.0
 10
10.9699046888
 20
7.3962466087
 30
0.0
 10
10.9697846559
 20
7.3966290706
 30
0.0
 10
10.9697186744
 20
7.3969241595
 30
0.0
 10
10.9695607875
 20
7.3971877413
 30
0.0
 10
10.9693823293
 20
7.3975501738
 30
0.0
 10
10.9690550911
 20
7.3981793102
 30
0.0
 10
10.9685954169
 20
7.3990807535
 30
0.0
 10
10.9680404654
 20
7.4001613396
 30
0.0
 10
10.9673016975
 20
7.4016025213
 30
0.0
 10
10.9663778378
 20
7.4034038614
 30
0.0
 10
10.9648998858
 20
7.4062860822
 30
0.0
 10
10.9630523692
 20
7.4098888318
 30
0.0
 10
10.9608353821
 20
7.4142121427
 30
0.0
 10
10.9586183861
 20
7.4185354505
 30
0.0
 10
10.9556623947
 20
7.424299862
 30
0.0
 10
10.9519674042
 20
7.431505376
 30
0.0
 10
10.9482724145
 20
7.4387108903
 30
0.0
 10
10.9453164218
 20
7.4444753013
 30
0.0
 10
10.9430994295
 20
7.4487986106
 30
0.0
 10
10.9408824287
 20
7.4531219159
 30
0.0
 10
10.9390349546
 20
7.4567246829
 30
0.0
 10
10.9375569158
 20
7.4596068682
 30
0.0
 10
10.9366332771
 20
7.4614082985
 30
0.0
 10
10.9358940557
 20
7.4628492952
 30
0.0
 10
10.9353404897
 20
7.4639304464
 30
0.0
 10
10.9348764805
 20
7.4648301217
 30
0.0
 10
10.934556981
 20
7.4654624143
 30
0.0
 10
10.9343661235
 20
7.4658197897
 30
0.0
 10
10.9342463231
 20
7.4660989054
 30
0.0
 10
10.934037295
 20
7.4663356516
 30
0.0
 10
10.9337897144
 20
7.4666660921
 30
0.0
 10
10.9333419474
 20
7.4672374773
 30
0.0
 10
10.9327098615
 20
7.4680573417
 30
0.0
 10
10.9319481134
 20
7.4690396382
 30
0.0
 10
10.9309335826
 20
7.4703499049
 30
0.0
 10
10.9296650311
 20
7.4719875542
 30
0.0
 10
10.9276355657
 20
7.4746078959
 30
0.0
 10
10.9250986594
 20
7.4778832877
 30
0.0
 10
10.9220544037
 20
7.481813773
 30
0.0
 10
10.9190101396
 20
7.4857442543
 30
0.0
 10
10.9149511236
 20
7.4909848975
 30
0.0
 10
10.9098773527
 20
7.4975357008
 30
0.0
 10
10.9048035823
 20
7.5040865047
 30
0.0
 10
10.9007445654
 20
7.509327147
 30
0.0
 10
10.8977003043
 20
7.5132576306
 30
0.0
 10
10.894656037
 20
7.5171881072
 30
0.0
 10
10.892119167
 20
7.5204635263
 30
0.0
 10
10.8900896275
 20
7.5230838125
 30
0.0
 10
10.8888212644
 20
7.5247216029
 30
0.0
 10
10.887806347
 20
7.52603158
 30
0.0
 10
10.8870457804
 20
7.5270147615
 30
0.0
 10
10.8864099978
 20
7.5278318566
 30
0.0
 10
10.88596883
 20
7.5284081855
 30
0.0
 10
10.8857106758
 20
7.5287307049
 30
0.0
 10
10.8855341264
 20
7.5289917823
 30
0.0
 10
10.885292341
 20
7.5291795141
 30
0.0
 10
10.8849927155
 20
7.529455407
 30
0.0
 10
10.8844577689
 20
7.5299262995
 30
0.0
 10
10.8836991023
 20
7.530605235
 30
0.0
 10
10.8827863299
 20
7.5314172902
 30
0.0
 10
10.8815701286
 20
7.5325009622
 30
0.0
 10
10.8800495933
 20
7.5338552331
 30
0.0
 10
10.8776168954
 20
7.5360222449
 30
0.0
 10
10.8745759686
 20
7.5387309484
 30
0.0
 10
10.8709268798
 20
7.5419814188
 30
0.0
 10
10.8672777847
 20
7.5452318823
 30
0.0
 10
10.8624123268
 20
7.549565836
 30
0.0
 10
10.8563305037
 20
7.5549832772
 30
0.0
 10
10.850248681
 20
7.560400719
 30
0.0
 10
10.8453832223
 20
7.5647346717
 30
0.0
 10
10.8417341296
 20
7.5679851382
 30
0.0
 10
10.8380850317
 20
7.5712355972
 30
0.0
 10
10.8350441333
 20
7.5739443364
 30
0.0
 10
10.8326113776
 20
7.5761112753
 30
0.0
 10
10.8310909893
 20
7.5774657317
 30
0.0
 10
10.8298744863
 20
7.5785490228
 30
0.0
 10
10.8289626358
 20
7.5793622416
 30
0.0
 10
10.8282010845
 20
7.5800375366
 30
0.0
 10
10.8276712876
 20
7.5805149281
 30
0.0
 10
10.827363411
 20
7.580780408
 30
0.0
 10
10.8271469703
 20
7.5810001249
 30
0.0
 10
10.8268752304
 20
7.5811410719
 30
0.0
 10
10.8265321996
 20
7.581356477
 30
0.0
 10
10.8259229086
 20
7.5817206345
 30
0.0
 10
10.8250571913
 20
7.5822475523
 30
0.0
 10
10.8240163195
 20
7.5828769889
 30
0.0
 10
10.8226291929
 20
7.5837172383
 30
0.0
 10
10.8208950441
 20
7.5847672074
 30
0.0
 10
10.8181205404
 20
7.5864473495
 30
0.0
 10
10.8146523647
 20
7.5885474614
 30
0.0
 10
10.8104905736
 20
7.5910676239
 30
0.0
 10
10.8063287773
 20
7.5935877788
 30
0.0
 10
10.8007797173
 20
7.5969479881
 30
0.0
 10
10.7938433916
 20
7.6011482486
 30
0.0
 10
10.7869070664
 20
7.6053485098
 30
0.0
 10
10.7813580058
 20
7.6087087179
 30
0.0
 10
10.7771962113
 20
7.6112288762
 30
0.0
 10
10.7730344132
 20
7.613749026
 30
0.0
 10
10.7695662594
 20
7.6158491774
 30
0.0
 10
10.766791711
 20
7.617529239
 30
0.0
 10
10.7650576762
 20
7.6185794129
 30
0.0
 10
10.7636703155
 20
7.619419242
 30
0.0
 10
10.7626301589
 20
7.6200499628
 30
0.0
 10
10.7617622039
 20
7.6205728625
 30
0.0
 10
10.7611569076
 20
7.620944193
 30
0.0
 10
10.7608074763
 20
7.6211481052
 30
0.0
 10
10.7605553966
 20
7.6213243547
 30
0.0
 10
10.7602651156
 20
7.621411481
 30
0.0
 10
10.7598913994
 20
7.6215587365
 30
0.0
 10
10.7592311875
 20
7.6218019495
 30
0.0
 10
10.7582912736
 20
7.6221569691
 30
0.0
 10
10.7571619876
 20
7.6225797514
 30
0.0
 10
10.7556567581
 20
7.6231445933
 30
0.0
 10
10.7537750552
 20
7.623850258
 30
0.0
 10
10.7507644233
 20
7.6249795381
 30
0.0
 10
10.7470011016
 20
7.626391064
 30
0.0
 10
10.7424851292
 20
7.6280849269
 30
0.0
 10
10.7379691532
 20
7.6297787812
 30
0.0
 10
10.7319478531
 20
7.6320372567
 30
0.0
 10
10.7244212275
 20
7.6348603499
 30
0.0
 10
10.7168946021
 20
7.6376834438
 30
0.0
 10
10.7108733016
 20
7.6399419181
 30
0.0
 10
10.7063573269
 20
7.6416357761
 30
0.0
 10
10.7018413495
 20
7.6433296251
 30
0.0
 10
10.6980780435
 20
7.6447411943
 30
0.0
 10
10.6950673795
 20
7.645870386
 30
0.0
 10
10.6931857582
 20
7.6465762758
 30
0.0
 10
10.6916803612
 20
7.6471406555
 30
0.0
 10
10.6905515873
 20
7.6475648496
 30
0.0
 10
10.6896100709
 20
7.6479154523
 30
0.0
 10
10.6889527198
 20
7.6481665503
 30
0.0
 10
10.6885744199
 20
7.6483011721
 30
0.0
 10
10.6882982184
 20
7.6484271049
 30
0.0
 10
10.6879932585
 20
7.6484576032
 30
0.0
 10
10.6875966766
 20
7.6485315563
 30
0.0
 10
10.6868979845
 20
7.6486454643
 30
0.0
 10
10.6859022963
 20
7.6488162988
 30
0.0
 10
10.6847064247
 20
7.6490178294
 30
0.0
 10
10.6831122945
 20
7.6492877491
 30
0.0
 10
10.6811195066
 20
7.6496247336
 30
0.0
 10
10.677931116
 20
7.6501641409
 30
0.0
 10
10.6739456037
 20
7.6508383204
 30
0.0
 10
10.6691629992
 20
7.6516473699
 30
0.0
 10
10.664380392
 20
7.6524564103
 30
0.0
 10
10.6580035833
 20
7.6535351339
 30
0.0
 10
10.6500325721
 20
7.6548835375
 30
0.0
 10
10.6404673588
 20
7.6565016221
 30
0.0
 10
10.6277137411
 20
7.6586590682
 30
0.0
 10
10.6181485278
 20
7.6602771528
 30
0.0
 10
10.6117717189
 20
7.6613558759
 30
0.0
  0
ENDSEC
  0
SECTION
  2
OBJECTS
  0
DICTIONARY
  5
C
100
AcDbDictionary
280
0
281
1
  3
ACAD_GROUP
350
D
  3
ACAD_MLINESTYLE
350
17
  3
ACAD_LAYOUT
350
1A
  3
ACAD_PLOTSETTINGS
350
19
  3
ACAD_PLOTSTYLENAME
350
E
  3
ACAD_IMAGE_DICT
350
       32C
  3
ACAD_IMAGE_VARS
350
       32D
  3
ACAD_TABLESTYLE
350
       32E
  0
IMAGEDEF_REACTOR
  5
32B
100
AcDbRasterImageDefReactor
 90
2
330
27F
  0
DICTIONARY
  5
D
102
{ACAD_REACTORS
330
C
102
}
100
AcDbDictionary
280
0
281
1
  0
ACDBDICTIONARYWDFLT
  5
E
102
{ACAD_REACTORS
330
C
102
}
100
AcDbDictionary
281
1
  3
Normal
350
F
100
AcDbDictionaryWithDefault
340
F
  0
DICTIONARY
  5
32C
330
C
100
AcDbDictionary
281
1
  3
FAW_assy_2_img_1
350
       331
  0
RASTERVARIABLES
  5
32D
330
C
100
AcDbRasterVariables
 90
0
 70
0
 71
1
 72
5
  0
DICTIONARY
  5
17
102
{ACAD_REACTORS
330
C
102
}
100
AcDbDictionary
280
0
281
1
  3
Standard
350
18
  0
DICTIONARY
  5
32E
330
C
100
AcDbDictionary
281
1
  3
Standard
350
       332
  3
Standard1
350
       333
  0
DICTIONARY
  5
19
102
{ACAD_REACTORS
330
C
102
}
100
AcDbDictionary
281
1
  0
DICTIONARY
  5
1A
102
{ACAD_REACTORS
330
C
102
}
100
AcDbDictionary
281
1
  3
Model
350
32F
  3
Layout1
350
330
  0
ACDBPLACEHOLDER
  5
F
102
{ACAD_REACTORS
330
E
102
}
  0
MLINESTYLE
  5
18
102
{ACAD_REACTORS
330
17
102
}
100
AcDbMlineStyle
  2
STANDARD
 70
0
  3

 62
256
 51
90.0
 52
90.0
 71
2
 49
0.5
 62
256
  6
BYLAYER
 49
-0.5
 62
256
  6
BYLAYER
  0
LAYOUT
  5
32F
102
{ACAD_REACTORS
330
1A
102
}
100
AcDbPlotSettings
  1

  2
none_device
  4
ANSI_C_(22.00_x_17.00_Inches)
  6

 40
0.0
 41
0.0
 42
0.0
 43
0.0
 44
558.8
 45
431.8
 46
0.0
 47
0.0
 48
0.0
 49
0.0
140
0.0
141
0.0
142
1.0
143
1.0
 70
1024
 72
0
 73
0
 74
0
  7

 75
0
147
1.0
148
0.0
149
0.0
100
AcDbLayout
  1
Model
 70
0
 71
0
 10
0.0
 20
0.0
 11
22.0
 21
17.0
 12
0.0
 22
0.0
 32
0.0
 14
0.0
 24
0.0
 34
0.0
 15
0.0
 25
0.0
 35
0.0
146
0.0
 13
0.0
 23
0.0
 33
0.0
 16
1.0
 26
0.0
 36
0.0
 17
0.0
 27
1.0
 37
0.0
 76
0
330
204
345
0
346
0
  0
LAYOUT
  5
330
102
{ACAD_REACTORS
330
1A
102
}
100
AcDbPlotSettings
  1

  2
none_device
  4
ANSI_C_(22.00_x_17.00_Inches)
  6

 40
0.0
 41
0.0
 42
0.0
 43
0.0
 44
558.8
 45
431.8
 46
0.0
 47
0.0
 48
0.0
 49
0.0
140
0.0
141
0.0
142
1.0
143
1.0
 70
0
 72
0
 73
0
 74
0
  7

 75
0
147
1.0
148
0.0
149
0.0
100
AcDbLayout
  1
Layout1
 70
0
 71
1
 10
0.0
 20
0.0
 11
22.0
 21
17.0
 12
0.0
 22
0.0
 32
0.0
 14
0.0
 24
0.0
 34
0.0
 15
0.0
 25
0.0
 35
0.0
146
0.0
 13
0.0
 23
0.0
 33
0.0
 16
1.0
 26
0.0
 36
0.0
 17
0.0
 27
1.0
 37
0.0
 76
0
330
205
345
0
346
0
  0
IMAGEDEF
  5
331
102
{ACAD_REACTORS
330
32C
330
32B
102
}
100
AcDbRasterImageDef
 90
0
  1
FAW_assy_2_img_1.png
 10
369.0
 20
92.0
 11
0.0066666667
 21
0.0066666667
280
1
281
0
  0
TABLESTYLE
  5
332
102
{ACAD_REACTORS
330
32E
330
282
330
283
102
}
330
32E
100
AcDbTableStyle
  3
Standard
 70
0
 71
0
 40
0.06
 41
0.06
280
1
281
1
  7
Standard
140
0.18
170
1
 62
0
 63
7
283
0
  7
Standard
140
0.18
170
1
 62
0
 63
7
283
0
  7
Standard
140
0.18
170
1
 62
0
 63
7
283
0
  0
TABLESTYLE
  5
333
102
{ACAD_REACTORS
330
32E
330
281
102
}
330
32E
100
AcDbTableStyle
  3
Standard1
 70
1
 71
0
 40
0.06
 41
0.06
280
1
281
1
  7
Standard
140
0.18
170
1
 62
0
 63
7
283
0
  7
Standard
140
0.18
170
1
 62
0
 63
7
283
0
  7
Standard
140
0.18
170
1
 62
0
 63
7
283
0
  0
ENDSEC
  0
EOF
