999
DXF file: FAV_assy_2.dxf
999
Pro/ENGINEER 2014200 by Parametric Technology Corporation
  0
SECTION
  2
HEADER
  9
$ACADVER
  1
AC1021
  9
$DWGCODEPAGE
  3
ANSI_1252
  9
$EXTMAX
 10
22.0
 20
17.0
 30
0.0
  9
$EXTMIN
 10
0.0
 20
0.0
 30
0.0
  9
$LIMMIN
 10
0.0
 20
0.0
  9
$LIMMAX
 10
22.0
 20
17.0
  9
$VIEWCTR
 10
11.0
 20
8.5
  9
$VIEWSIZE
 40
17.0
  9
$CLAYER
  8
0
  9
$LTSCALE
 40
1.21
  9
$CELTYPE
  6
BYLAYER
  9
$DIMSCALE
 40
1.0
  9
$DIMASZ
 40
0.1875
  9
$DIMEXO
 40
0.0625
  9
$DIMDLI
 40
0.836
  9
$DIMEXE
 40
0.125
  9
$DIMCEN
 40
0.198
  9
$DIMLFAC
 40
1.0
  9
$DIMBLK
  1
_FILLED
  9
$DIMTXT
 40
0.1
  9
$DIMTOL
 70
0
  9
$DIMLIM
 70
0
  9
$DIMTFAC
 40
1.0
  9
$DIMGAP
 40
0.09
  9
$DIMDSEP
 70
46
  9
$AUNITS
 70
0
  9
$PDMODE
 70
3
  9
$PDSIZE
 40
0.3125
  9
$HANDSEED
  5
318
  9
$TILEMODE
 70
1
  9
$MEASUREMENT
 70
0
  9
$INSUNITS
 70
1
  0
ENDSEC
  0
SECTION
  2
CLASSES
  0
CLASS
  1
ACDBDICTIONARYWDFLT
  2
AcDbDictionaryWithDefault
  3
AutoCAD 2000
 90
0
 91
1
280
0
281
0
  0
CLASS
  1
ACDBPLACEHOLDER
  2
AcDbPlaceHolder
  3
AutoCAD 2000
 90
0
 91
1
280
0
281
0
  0
CLASS
  1
LAYOUT
  2
AcDbLayout
  3
AutoCAD 2000
 90
0
 91
0
280
0
281
0
  0
CLASS
  1
RASTERVARIABLES
  2
AcDbRasterVariables
  3
ISM
 90
0
 91
1
280
0
281
0
  0
CLASS
  1
IMAGEDEF
  2
AcDbRasterImageDef
  3
ISM
 90
0
 91
1
280
0
281
0
  0
CLASS
  1
IMAGEDEF_REACTOR
  2
AcDbRasterImageDefReactor
  3
ISM
 90
0
 91
1
280
0
281
0
  0
CLASS
  1
IMAGE
  2
AcDbRasterImage
  3
ISM
 90
127
 91
1
280
0
281
1
  0
CLASS
  1
TABLESTYLE
  2
AcDbTableStyle
  3
ObjectDBX Classes
 90
2047
 91
1
280
0
281
0
  0
CLASS
  1
ACAD_TABLE
  2
AcDbTable
  3
ObjectDBX Classes
 90
1025
 91
3
280
0
281
1
  0
ENDSEC
  0
SECTION
  2
TABLES
  0
TABLE
  2
VPORT
  5
8
100
AcDbSymbolTable
 70
2
  0
VPORT
  5
1F4
100
AcDbSymbolTableRecord
100
AcDbViewportTableRecord
  2
*ACTIVE
 70
0
 10
0.0
 20
0.0
 11
1.0
 21
1.0
 12
11.0
 22
8.5
 13
0.0
 23
0.0
 14
1.0
 24
1.0
 15
0.0
 25
0.0
 16
0.0
 26
0.0
 36
1.0
 17
0.0
 27
0.0
 37
0.0
 40
17.0
 41
1.2941176471
 42
50.0
 43
0.0
 44
0.0
 50
0.0
 51
0.0
 71
0
 72
100
 73
1
 74
1
 75
0
 76
0
 77
0
 78
0
  0
ENDTAB
  0
TABLE
  2
LTYPE
  5
5
100
AcDbSymbolTable
 70
6
  0
LTYPE
  5
14
100
AcDbSymbolTableRecord
100
AcDbLinetypeTableRecord
  2
BYBLOCK
 70
0
  3

 72
65
 73
0
 40
0.0
  0
LTYPE
  5
15
100
AcDbSymbolTableRecord
100
AcDbLinetypeTableRecord
  2
BYLAYER
 70
0
  3

 72
65
 73
0
 40
0.0
  0
LTYPE
  5
16
100
AcDbSymbolTableRecord
100
AcDbLinetypeTableRecord
  2
CONTINUOUS
 70
64
  3
Solid line
 72
65
 73
0
 40
0.0
  0
LTYPE
  5
1F5
100
AcDbSymbolTableRecord
100
AcDbLinetypeTableRecord
  2
CENTER
 70
64
  3
____ _ ____ _ ____ _ ____ _ ____ _ ____ _ ____
 72
65
 73
4
 40
0.6
 49
0.375
 74
0
 49
-0.075
 74
0
 49
0.075
 74
0
 49
-0.075
 74
0
  0
LTYPE
  5
1F6
100
AcDbSymbolTableRecord
100
AcDbLinetypeTableRecord
  2
HIDDEN
 70
64
  3
- - - - - - - - - - - - - - - - - - - -
 72
65
 73
2
 40
0.2
 49
0.1
 74
0
 49
-0.1
 74
0
  0
LTYPE
  5
1F7
100
AcDbSymbolTableRecord
100
AcDbLinetypeTableRecord
  2
PHANTOM
 70
64
  3
_____ _ _ _____ _ _ _____ _ _ _____
 72
65
 73
6
 40
0.8
 49
0.45
 74
0
 49
-0.05
 74
0
 49
0.1
 74
0
 49
-0.05
 74
0
 49
0.1
 74
0
 49
-0.05
 74
0
  0
LTYPE
  5
1F8
100
AcDbSymbolTableRecord
100
AcDbLinetypeTableRecord
  2
DOT
 70
64
  3
. . . . . . . . . . . . . . . . . . . .
 72
65
 73
2
 40
0.2
 49
0.1
 74
0
 49
-0.1
 74
0
  0
LTYPE
  5
1F9
100
AcDbSymbolTableRecord
100
AcDbLinetypeTableRecord
  2
DASHED
 70
64
  3
- - - - - - - - - - - - - - - - - - - -
 72
65
 73
2
 40
0.2
 49
0.1
 74
0
 49
-0.1
 74
0
  0
ENDTAB
  0
TABLE
  2
LAYER
  5
2
100
AcDbSymbolTable
 70
36
  0
LAYER
  5
10
100
AcDbSymbolTableRecord
100
AcDbLayerTableRecord
  2
0
 70
0
 62
7
  6
CONTINUOUS
370
-3
390
F
  0
LAYER
  5
1FA
100
AcDbSymbolTableRecord
100
AcDbLayerTableRecord
  2
DEFAULT_1
 70
0
 62
7
  6
CENTER
370
-3
390
F
  0
LAYER
  5
1FB
100
AcDbSymbolTableRecord
100
AcDbLayerTableRecord
  2
DEFAULT_2
 70
0
 62
8
  6
HIDDEN
370
-3
390
F
  0
LAYER
  5
1FC
100
AcDbSymbolTableRecord
100
AcDbLayerTableRecord
  2
DEFAULT_3
 70
0
 62
7
  6
PHANTOM
370
-3
390
F
  0
LAYER
  5
1FD
100
AcDbSymbolTableRecord
100
AcDbLayerTableRecord
  2
DATUM_PLANES
 70
0
 62
7
  6
CONTINUOUS
370
-3
390
F
  0
LAYER
  5
1FE
100
AcDbSymbolTableRecord
100
AcDbLayerTableRecord
  2
PORT_AREAS
 70
0
 62
7
  6
CONTINUOUS
370
-3
390
F
  0
LAYER
  5
1FF
100
AcDbSymbolTableRecord
100
AcDbLayerTableRecord
  2
SUNNBOMCOSMETIC
 70
0
 62
7
  6
CONTINUOUS
370
-3
390
F
  0
LAYER
  5
200
100
AcDbSymbolTableRecord
100
AcDbLayerTableRecord
  2
SUNNBOMSTAMPING
 70
0
 62
7
  6
CONTINUOUS
370
-3
390
F
  0
LAYER
  5
201
100
AcDbSymbolTableRecord
100
AcDbLayerTableRecord
  2
THREADS
 70
0
 62
7
  6
CONTINUOUS
370
-3
390
F
  0
ENDTAB
  0
TABLE
  2
STYLE
  5
3
100
AcDbSymbolTable
 70
1
  0
STYLE
  5
11
100
AcDbSymbolTableRecord
100
AcDbTextStyleTableRecord
  2
STANDARD
 70
0
 40
0.0
 41
0.8
 50
0.0
 71
0
 42
0.2
  3
txt
  4

  0
STYLE
  5
202
100
AcDbSymbolTableRecord
100
AcDbTextStyleTableRecord
  2
TEXTSTYLE_1
 70
0
 40
0.0
 41
0.8
 50
0.0
 71
0
 42
0.2
  3
gdt
  4

  0
ENDTAB
  0
TABLE
  2
VIEW
  5
6
100
AcDbSymbolTable
 70
0
  0
ENDTAB
  0
TABLE
  2
UCS
  5
7
100
AcDbSymbolTable
 70
0
  0
ENDTAB
  0
TABLE
  2
APPID
  5
9
100
AcDbSymbolTable
 70
1
  0
APPID
  5
203
100
AcDbSymbolTableRecord
100
AcDbRegAppTableRecord
  2
ACAD
 70
0
  0
ENDTAB
  0
TABLE
  2
BLOCK_RECORD
  5
1
100
AcDbSymbolTable
 70
0
  0
BLOCK_RECORD
  5
204
100
AcDbSymbolTableRecord
100
AcDbBlockTableRecord
  2
*Model_Space
  0
BLOCK_RECORD
  5
205
100
AcDbSymbolTableRecord
100
AcDbBlockTableRecord
  2
*Paper_Space
  0
BLOCK_RECORD
  5
206
100
AcDbSymbolTableRecord
100
AcDbBlockTableRecord
  2
SUN_FIRST_THIRD_ANGLE_BL0
  0
BLOCK_RECORD
  5
207
100
AcDbSymbolTableRecord
100
AcDbBlockTableRecord
  2
*T1
  0
BLOCK_RECORD
  5
208
100
AcDbSymbolTableRecord
100
AcDbBlockTableRecord
  2
*T2
  0
BLOCK_RECORD
  5
209
100
AcDbSymbolTableRecord
100
AcDbBlockTableRecord
  2
*T3
  0
ENDTAB
  0
TABLE
  2
DIMSTYLE
  5
A
100
AcDbSymbolTable
 70
1
100
AcDbDimStyleTable
 71
0
  0
DIMSTYLE
105
20A
100
AcDbSymbolTableRecord
100
AcDbDimStyleTableRecord
  2
STANDARD
 70
0
  3

  4

 40
1.0
 41
0.1875
 42
0.0625
 43
0.38
 44
0.125
 45
0.0
 46
0.0
 47
0.001
 48
0.001
140
0.1
141
0.09
142
0.0
143
25.4
144
1.0
145
0.0
146
1.0
147
0.09
 71
0.0
 72
0.0
 73
1
 74
1
 75
0
 76
0
 77
0
 78
4
170
0
171
2
172
0
173
0
174
0
175
0
176
0
177
0
178
0
270
2
271
3
272
3
273
2
274
2
275
0
280
0
281
0
282
0
283
1
284
4
285
0
286
0
287
3
288
0
340
11
278
46
  0
ENDTAB
  0
ENDSEC
  0
SECTION
  2
BLOCKS
  0
BLOCK
  5
20
100
AcDbEntity
  8
0
100
AcDbBlockBegin
  2
*Model_Space
 70
0
 10
0.0
 20
0.0
 30
0.0
  3
*Model_Space
  1

  0
ENDBLK
  5
21
100
AcDbEntity
  8
0
100
AcDbBlockEnd
  0
BLOCK
  5
1C
100
AcDbEntity
  8
0
100
AcDbBlockBegin
  2
*Paper_Space
 70
0
 10
0.0
 20
0.0
 30
0.0
  3
*Paper_Space
  1

  0
ENDBLK
  5
1D
100
AcDbEntity
  8
0
100
AcDbBlockEnd
  0
BLOCK
  5
20B
100
AcDbEntity
  8
0
100
AcDbBlockBegin
 62
2
  6
CONTINUOUS
  2
SUN_FIRST_THIRD_ANGLE_BL0
 70
64
 10
20.4816717061
 20
1.2289683772
  3
SUN_FIRST_THIRD_ANGLE_BL0
  1

  0
TEXT
  5
20C
100
AcDbEntity
  8
0
100
AcDbText
 62
2
  6
CONTINUOUS
 10
19.4750896608
 20
1.4136269581
  7
STANDARD
 40
0.08
  1
FIRST ANGLE
 41
0.8
 72
0
100
AcDbText
  0
TEXT
  5
20D
100
AcDbEntity
  8
0
100
AcDbText
 62
2
  6
CONTINUOUS
 10
20.7842537513
 20
1.4047600029
  7
STANDARD
 40
0.08
  1
THIRD ANGLE
 41
0.8
 72
0
100
AcDbText
  0
LINE
  5
20E
100
AcDbEntity
  8
0
100
AcDbLine
 62
7
  6
CONTINUOUS
 10
19.4767170086
 20
1.1727031207
 11
19.6334271527
 21
1.1717972817
  0
LINE
  5
20F
100
AcDbEntity
  8
0
100
AcDbLine
 62
7
  6
CONTINUOUS
 10
19.6596964832
 20
1.1717972817
 11
19.6950230232
 21
1.171593082
  0
LINE
  5
210
100
AcDbEntity
  8
0
100
AcDbLine
 62
7
  6
CONTINUOUS
 10
19.7194818561
 20
1.1708914427
 11
19.8852396156
 21
1.1699333054
  0
LINE
  5
211
100
AcDbEntity
  8
0
100
AcDbLine
 62
7
  6
CONTINUOUS
 10
19.4758111696
 20
1.2723454088
 11
19.88525039
 21
1.3511534004
  0
LINE
  5
212
100
AcDbEntity
  8
0
100
AcDbLine
 62
7
  6
CONTINUOUS
 10
19.88525039
 20
1.3511534004
 11
19.8831348489
 21
0.9851647912
  0
LINE
  5
213
100
AcDbEntity
  8
0
100
AcDbLine
 62
7
  6
CONTINUOUS
 10
19.8831348489
 20
0.9851647912
 11
19.4767170086
 21
1.0658141206
  0
LINE
  5
214
100
AcDbEntity
  8
0
100
AcDbLine
 62
7
  6
CONTINUOUS
 10
19.4767170086
 20
1.0658141206
 11
19.4779056764
 21
1.2714536432
  0
CIRCLE
  5
215
100
AcDbEntity
  8
0
100
AcDbCircle
 62
7
  6
CONTINUOUS
 10
20.2068232291
 20
1.1717972817
 40
0.175742101
  0
CIRCLE
  5
216
100
AcDbEntity
  8
0
100
AcDbCircle
 62
7
  6
CONTINUOUS
 10
20.2068232291
 20
1.1717972817
 40
0.1005522074
  0
LINE
  5
217
100
AcDbEntity
  8
0
100
AcDbLine
 62
7
  6
CONTINUOUS
 10
20.2077290681
 20
1.3756110529
 11
20.2071171714
 21
1.2379342989
  0
LINE
  5
218
100
AcDbEntity
  8
0
100
AcDbLine
 62
7
  6
CONTINUOUS
 10
20.2077290681
 20
1.2016899681
 11
20.2074674401
 21
1.1428236749
  0
LINE
  5
219
100
AcDbEntity
  8
0
100
AcDbLine
 62
7
  6
CONTINUOUS
 10
20.208634907
 20
1.101141841
 11
20.2080230104
 21
0.963465087
  0
LINE
  5
21A
100
AcDbEntity
  8
0
100
AcDbLine
 62
7
  6
CONTINUOUS
 10
20.0066328138
 20
1.1745147986
 11
20.1443095678
 21
1.1739029019
  0
LINE
  5
21B
100
AcDbEntity
  8
0
100
AcDbLine
 62
7
  6
CONTINUOUS
 10
20.1832714155
 20
1.1727031207
 11
20.238153505
 21
1.172335442
  0
LINE
  5
21C
100
AcDbEntity
  8
0
100
AcDbLine
 62
7
  6
CONTINUOUS
 10
20.2756669918
 20
1.1717972817
 11
20.407916871
 21
1.1712095044
  0
CIRCLE
  5
21D
100
AcDbEntity
  8
0
100
AcDbCircle
 62
7
  6
CONTINUOUS
 10
20.7509457401
 20
1.1693297793
 40
0.1722024983
  0
CIRCLE
  5
21E
100
AcDbEntity
  8
0
100
AcDbCircle
 62
7
  6
CONTINUOUS
 10
20.7509457401
 20
1.1693297793
 40
0.0985164967
  0
LINE
  5
21F
100
AcDbEntity
  8
0
100
AcDbLine
 62
7
  6
CONTINUOUS
 10
20.7169767782
 20
1.170462078
 11
20.7825395137
 21
1.1682766535
  0
LINE
  5
220
100
AcDbEntity
  8
0
100
AcDbLine
 62
7
  6
CONTINUOUS
 10
20.8177513651
 20
1.1693297793
 11
20.947965719
 21
1.1693297793
  0
LINE
  5
221
100
AcDbEntity
  8
0
100
AcDbLine
 62
7
  6
CONTINUOUS
 10
20.6875370113
 20
1.170462078
 11
20.5573226574
 21
1.170462078
  0
LINE
  5
222
100
AcDbEntity
  8
0
100
AcDbLine
 62
7
  6
CONTINUOUS
 10
20.7486811426
 20
1.1987695462
 11
20.7486811426
 21
1.1432869085
  0
LINE
  5
223
100
AcDbEntity
  8
0
100
AcDbLine
 62
7
  6
CONTINUOUS
 10
20.7498134414
 20
1.1059210505
 11
20.7498134414
 21
0.9757066966
  0
LINE
  5
224
100
AcDbEntity
  8
0
100
AcDbLine
 62
7
  6
CONTINUOUS
 10
20.7486811426
 20
1.2338708068
 11
20.7486811426
 21
1.3640851607
  0
LINE
  5
225
100
AcDbEntity
  8
0
100
AcDbLine
 62
7
  6
CONTINUOUS
 10
21.0702539817
 20
1.2701043662
 11
21.4790138229
 21
1.3448360823
  0
LINE
  5
226
100
AcDbEntity
  8
0
100
AcDbLine
 62
7
  6
CONTINUOUS
 10
21.4790138229
 20
1.3448360823
 11
21.4790138229
 21
0.9779712941
  0
LINE
  5
227
100
AcDbEntity
  8
0
100
AcDbLine
 62
7
  6
CONTINUOUS
 10
21.4790138229
 20
0.9779712941
 11
21.069121683
 21
1.0617614
  0
LINE
  5
228
100
AcDbEntity
  8
0
100
AcDbLine
 62
7
  6
CONTINUOUS
 10
21.0702539817
 20
1.2701043662
 11
21.069121683
 21
1.0617614
  0
LINE
  5
229
100
AcDbEntity
  8
0
100
AcDbLine
 62
7
  6
CONTINUOUS
 10
21.4790138229
 20
1.1693297793
 11
21.3159628059
 21
1.1693297793
  0
LINE
  5
22A
100
AcDbEntity
  8
0
100
AcDbLine
 62
7
  6
CONTINUOUS
 10
21.2876553377
 20
1.1693297793
 11
21.2502894796
 21
1.1693297793
  0
LINE
  5
22B
100
AcDbEntity
  8
0
100
AcDbLine
 62
7
  6
CONTINUOUS
 10
21.2208497126
 20
1.1659328831
 11
21.0713862804
 21
1.1659328831
  0
LINE
  5
22C
100
AcDbEntity
  8
0
100
AcDbLine
 62
7
  6
CONTINUOUS
 10
20.4796138713
 20
1.5284908897
 11
20.4766766948
 21
0.9294458646
  0
ENDBLK
  5
22D
100
AcDbEntity
  8
0
  6
BYBLOCK
 62
0
100
AcDbBlockEnd
  0
BLOCK
  5
22E
100
AcDbEntity
  8
0
100
AcDbBlockBegin
  2
*T1
 70
1
 10
0.0
 20
0.0
  3
*T1
  1

  0
LINE
  5
22F
100
AcDbEntity
  8
0
100
AcDbLine
 62
2
  6
CONTINUOUS
 10
9.275
 20
0.0
 11
-0.0
 21
0.0
  0
LINE
  5
230
100
AcDbEntity
  8
0
100
AcDbLine
 62
2
  6
CONTINUOUS
 10
9.275
 20
0.0
 11
9.275
 21
1.25
  0
LINE
  5
231
100
AcDbEntity
  8
0
100
AcDbLine
 62
2
  6
CONTINUOUS
 10
9.275
 20
0.625
 11
-0.0
 21
0.625
  0
LINE
  5
232
100
AcDbEntity
  8
0
100
AcDbLine
 62
2
  6
CONTINUOUS
 10
9.275
 20
1.25
 11
-0.0
 21
1.25
  0
LINE
  5
233
100
AcDbEntity
  8
0
100
AcDbLine
 62
2
  6
CONTINUOUS
 10
6.8
 20
0.0
 11
6.8
 21
1.25
  0
LINE
  5
234
100
AcDbEntity
  8
0
100
AcDbLine
 62
2
  6
CONTINUOUS
 10
6.4
 20
0.0
 11
6.4
 21
0.625
  0
LINE
  5
235
100
AcDbEntity
  8
0
100
AcDbLine
 62
2
  6
CONTINUOUS
 10
5.9
 20
0.0
 11
5.9
 21
0.625
  0
LINE
  5
236
100
AcDbEntity
  8
0
100
AcDbLine
 62
2
  6
CONTINUOUS
 10
5.2
 20
0.0
 11
5.2
 21
0.625
  0
LINE
  5
237
100
AcDbEntity
  8
0
100
AcDbLine
 62
2
  6
CONTINUOUS
 10
4.1
 20
0.0
 11
4.1
 21
1.25
  0
LINE
  5
238
100
AcDbEntity
  8
0
100
AcDbLine
 62
2
  6
CONTINUOUS
 10
-0.0
 20
0.0
 11
-0.0
 21
1.25
  0
MTEXT
  5
239
100
AcDbEntity
  8
0
100
AcDbMText
 62
2
  6
CONTINUOUS
  7
STANDARD
 71
2
 72
1
 10
6.6
 20
0.325
 30
0.0
 11
1.0
 21
0.0
 31
0.0
 44
0.9
  1
2
 40
0.125
 41
0.2
  0
MTEXT
  5
23A
100
AcDbEntity
  8
0
100
AcDbMText
 62
2
  6
CONTINUOUS
  7
STANDARD
 71
2
 72
1
 10
6.15
 20
0.325
 30
0.0
 11
1.0
 21
0.0
 31
0.0
 44
0.9
  1
C
 40
0.125
 41
0.2
  0
MTEXT
  5
23B
100
AcDbEntity
  8
0
100
AcDbMText
 62
2
  6
CONTINUOUS
  7
STANDARD
 71
2
 72
1
 10
5.55
 20
0.325
 30
0.0
 11
1.0
 21
0.0
 31
0.0
 44
0.9
  1
2.000
 40
0.125
 41
1.0
  0
MTEXT
  5
23C
100
AcDbEntity
  8
0
100
AcDbMText
 62
2
  6
CONTINUOUS
  7
STANDARD
 71
2
 72
1
 10
4.65
 20
0.325
 30
0.0
 11
1.0
 21
0.0
 31
0.0
 44
0.9
  1
Apr-24-24
 40
0.125
 41
1.8
  0
MTEXT
  5
23D
100
AcDbEntity
  8
0
100
AcDbMText
 62
2
  6
CONTINUOUS
  7
STANDARD
 71
2
 72
1
 10
2.05
 20
0.4625
 30
0.0
 11
1.0
 21
0.0
 31
0.0
 44
0.9
  1
T-10A Line mount\PNinety degree
 40
0.125
 41
3.2
  0
MTEXT
  5
23E
100
AcDbEntity
  8
0
100
AcDbMText
 62
2
  6
CONTINUOUS
  7
STANDARD
 71
1
 72
1
 10
6.45
 20
0.5625
 30
0.0
 11
1.0
 21
0.0
 31
0.0
 44
0.9
  1
SHEET
 40
0.06
 41
0.48
  0
MTEXT
  5
23F
100
AcDbEntity
  8
0
100
AcDbMText
 62
2
  6
CONTINUOUS
  7
STANDARD
 71
1
 72
1
 10
5.95
 20
0.5625
 30
0.0
 11
1.0
 21
0.0
 31
0.0
 44
0.9
  1
DWG SIZE
 40
0.06
 41
0.768
  0
MTEXT
  5
240
100
AcDbEntity
  8
0
100
AcDbMText
 62
2
  6
CONTINUOUS
  7
STANDARD
 71
1
 72
1
 10
5.25
 20
0.5625
 30
0.0
 11
1.0
 21
0.0
 31
0.0
 44
0.9
  1
SCALE
 40
0.06
 41
0.48
  0
MTEXT
  5
241
100
AcDbEntity
  8
0
100
AcDbMText
 62
2
  6
CONTINUOUS
  7
STANDARD
 71
1
 72
1
 10
4.15
 20
0.5625
 30
0.0
 11
1.0
 21
0.0
 31
0.0
 44
0.9
  1
DATE
 40
0.06
 41
0.384
  0
MTEXT
  5
242
100
AcDbEntity
  8
0
100
AcDbMText
 62
2
  6
CONTINUOUS
  7
STANDARD
 71
1
 72
1
 10
0.05
 20
0.5625
 30
0.0
 11
1.0
 21
0.0
 31
0.0
 44
0.9
  1
DESCRIPTION
 40
0.06
 41
1.056
  0
MTEXT
  5
243
100
AcDbEntity
  8
0
100
AcDbMText
 62
2
  6
CONTINUOUS
  7
STANDARD
 71
2
 72
1
 10
5.45
 20
1.0375
 30
0.0
 11
1.0
 21
0.0
 31
0.0
 44
0.9
  1
ALL DIMENSIONS IN INCH\PVIEWS ARE THIRD ANGLE
 40
0.12
 41
4.224
  0
MTEXT
  5
244
100
AcDbEntity
  8
0
100
AcDbMText
 62
2
  6
CONTINUOUS
  7
STANDARD
 71
2
 72
1
 10
2.05
 20
0.95
 30
0.0
 11
1.0
 21
0.0
 31
0.0
 44
0.9
  1
FAV
 40
0.125
 41
0.6
  0
MTEXT
  5
245
100
AcDbEntity
  8
0
100
AcDbMText
 62
2
  6
CONTINUOUS
  7
STANDARD
 71
1
 72
1
 10
0.05
 20
1.1875
 30
0.0
 11
1.0
 21
0.0
 31
0.0
 44
0.9
  1
MODEL
 40
0.06
 41
0.48
  0
ENDBLK
  5
246
100
AcDbEntity
  8
0
  6
BYBLOCK
 62
0
100
AcDbBlockEnd
  0
BLOCK
  5
247
100
AcDbEntity
  8
0
100
AcDbBlockBegin
  2
*T2
 70
1
 10
0.0
 20
0.0
  3
*T2
  1

  0
LINE
  5
248
100
AcDbEntity
  8
0
100
AcDbLine
 62
2
  6
CONTINUOUS
 10
0.0
 20
0.0
 11
9.055
 21
0.0
  0
LINE
  5
249
100
AcDbEntity
  8
0
100
AcDbLine
 62
2
  6
CONTINUOUS
 10
0.0
 20
0.0
 11
0.0
 21
-2.594
  0
LINE
  5
24A
100
AcDbEntity
  8
0
100
AcDbLine
 62
2
  6
CONTINUOUS
 10
0.0
 20
-0.344
 11
9.055
 21
-0.344
  0
LINE
  5
24B
100
AcDbEntity
  8
0
100
AcDbLine
 62
2
  6
CONTINUOUS
 10
0.0
 20
-0.594
 11
9.055
 21
-0.594
  0
LINE
  5
24C
100
AcDbEntity
  8
0
100
AcDbLine
 62
2
  6
CONTINUOUS
 10
0.0
 20
-0.844
 11
9.055
 21
-0.844
  0
LINE
  5
24D
100
AcDbEntity
  8
0
100
AcDbLine
 62
2
  6
CONTINUOUS
 10
0.0
 20
-1.094
 11
9.055
 21
-1.094
  0
LINE
  5
24E
100
AcDbEntity
  8
0
100
AcDbLine
 62
2
  6
CONTINUOUS
 10
0.0
 20
-1.344
 11
9.055
 21
-1.344
  0
LINE
  5
24F
100
AcDbEntity
  8
0
100
AcDbLine
 62
2
  6
CONTINUOUS
 10
0.0
 20
-1.594
 11
9.055
 21
-1.594
  0
LINE
  5
250
100
AcDbEntity
  8
0
100
AcDbLine
 62
2
  6
CONTINUOUS
 10
0.0
 20
-1.844
 11
9.055
 21
-1.844
  0
LINE
  5
251
100
AcDbEntity
  8
0
100
AcDbLine
 62
2
  6
CONTINUOUS
 10
0.0
 20
-2.094
 11
9.055
 21
-2.094
  0
LINE
  5
252
100
AcDbEntity
  8
0
100
AcDbLine
 62
2
  6
CONTINUOUS
 10
0.0
 20
-2.344
 11
9.055
 21
-2.344
  0
LINE
  5
253
100
AcDbEntity
  8
0
100
AcDbLine
 62
2
  6
CONTINUOUS
 10
0.0
 20
-2.594
 11
9.055
 21
-2.594
  0
LINE
  5
254
100
AcDbEntity
  8
0
100
AcDbLine
 62
2
  6
CONTINUOUS
 10
3.055
 20
0.0
 11
3.055
 21
-2.594
  0
LINE
  5
255
100
AcDbEntity
  8
0
100
AcDbLine
 62
2
  6
CONTINUOUS
 10
9.055
 20
0.0
 11
9.055
 21
-2.594
  0
MTEXT
  5
256
100
AcDbEntity
  8
0
100
AcDbMText
 62
2
  6
CONTINUOUS
  7
STANDARD
 71
2
 72
1
 10
1.5275
 20
-0.0995
 30
0.0
 11
1.0
 21
0.0
 31
0.0
 44
0.9
  1
Technical Data
 40
0.145
 41
3.248
  0
MTEXT
  5
257
100
AcDbEntity
  8
0
100
AcDbMText
 62
2
  6
CONTINUOUS
  7
STANDARD
 71
2
 72
1
 10
4.555
 20
-0.0995
 30
0.0
 11
1.0
 21
0.0
 31
0.0
 44
0.9
  1
U.S. Units
 40
0.145
 41
2.32
  0
MTEXT
  5
258
100
AcDbEntity
  8
0
100
AcDbMText
 62
2
  6
CONTINUOUS
  7
STANDARD
 71
2
 72
1
 10
7.555
 20
-0.0995
 30
0.0
 11
1.0
 21
0.0
 31
0.0
 44
0.9
  1
Metric Units
 40
0.145
 41
2.784
  0
MTEXT
  5
259
100
AcDbEntity
  8
0
100
AcDbMText
 62
2
  6
CONTINUOUS
  7
STANDARD
 71
2
 72
1
 10
1.5275
 20
-0.4065
 30
0.0
 11
1.0
 21
0.0
 31
0.0
 44
0.9
  1
Cavity
 40
0.125
 41
1.2
  0
MTEXT
  5
25A
100
AcDbEntity
  8
0
100
AcDbMText
 62
2
  6
CONTINUOUS
  7
STANDARD
 71
2
 72
1
 10
6.055
 20
-0.4065
 30
0.0
 11
1.0
 21
0.0
 31
0.0
 44
0.9
  1
T-10A
 40
0.125
 41
1.0
  0
MTEXT
  5
25B
100
AcDbEntity
  8
0
100
AcDbMText
 62
2
  6
CONTINUOUS
  7
STANDARD
 71
2
 72
1
 10
1.5275
 20
-0.6565
 30
0.0
 11
1.0
 21
0.0
 31
0.0
 44
0.9
  1
Body Features
 40
0.125
 41
2.6
  0
MTEXT
  5
25C
100
AcDbEntity
  8
0
100
AcDbMText
 62
2
  6
CONTINUOUS
  7
STANDARD
 71
2
 72
1
 10
6.055
 20
-0.6565
 30
0.0
 11
1.0
 21
0.0
 31
0.0
 44
0.9
  1
Ninety degree
 40
0.125
 41
2.6
  0
MTEXT
  5
25D
100
AcDbEntity
  8
0
100
AcDbMText
 62
2
  6
CONTINUOUS
  7
STANDARD
 71
2
 72
1
 10
1.5275
 20
-0.9065
 30
0.0
 11
1.0
 21
0.0
 31
0.0
 44
0.9
  1
Body Type
 40
0.125
 41
1.8
  0
MTEXT
  5
25E
100
AcDbEntity
  8
0
100
AcDbMText
 62
2
  6
CONTINUOUS
  7
STANDARD
 71
2
 72
1
 10
6.055
 20
-0.9065
 30
0.0
 11
1.0
 21
0.0
 31
0.0
 44
0.9
  1
Line mount
 40
0.125
 41
2.0
  0
MTEXT
  5
25F
100
AcDbEntity
  8
0
100
AcDbMText
 62
2
  6
CONTINUOUS
  7
STANDARD
 71
2
 72
1
 10
1.5275
 20
-1.1565
 30
0.0
 11
1.0
 21
0.0
 31
0.0
 44
0.9
  1
Interface
 40
0.125
 41
1.8
  0
MTEXT
  5
260
100
AcDbEntity
  8
0
100
AcDbMText
 62
2
  6
CONTINUOUS
  7
STANDARD
 71
2
 72
1
 10
6.055
 20
-1.1565
 30
0.0
 11
1.0
 21
0.0
 31
0.0
 44
0.9
  1
None
 40
0.125
 41
0.8
  0
MTEXT
  5
261
100
AcDbEntity
  8
0
100
AcDbMText
 62
2
  6
CONTINUOUS
  7
STANDARD
 71
2
 72
1
 10
1.5275
 20
-1.4065
 30
0.0
 11
1.0
 21
0.0
 31
0.0
 44
0.9
  1
Open Cavity Quantity
 40
0.125
 41
4.0
  0
MTEXT
  5
262
100
AcDbEntity
  8
0
100
AcDbMText
 62
2
  6
CONTINUOUS
  7
STANDARD
 71
2
 72
1
 10
6.055
 20
-1.4065
 30
0.0
 11
1.0
 21
0.0
 31
0.0
 44
0.9
  1
1
 40
0.125
 41
0.2
  0
MTEXT
  5
263
100
AcDbEntity
  8
0
100
AcDbMText
 62
2
  6
CONTINUOUS
  7
STANDARD
 71
2
 72
1
 10
1.5275
 20
-1.6565
 30
0.0
 11
1.0
 21
0.0
 31
0.0
 44
0.9
  1
Weight
 40
0.125
 41
1.2
  0
MTEXT
  5
264
100
AcDbEntity
  8
0
100
AcDbMText
 62
2
  6
CONTINUOUS
  7
STANDARD
 71
2
 72
1
 10
4.555
 20
-1.6565
 30
0.0
 11
1.0
 21
0.0
 31
0.0
 44
0.9
  1
0.809 lb.
 40
0.125
 41
1.8
  0
MTEXT
  5
265
100
AcDbEntity
  8
0
100
AcDbMText
 62
2
  6
CONTINUOUS
  7
STANDARD
 71
2
 72
1
 10
7.555
 20
-1.6565
 30
0.0
 11
1.0
 21
0.0
 31
0.0
 44
0.9
  1
0,367 kg.
 40
0.125
 41
1.8
  0
MTEXT
  5
266
100
AcDbEntity
  8
0
100
AcDbMText
 62
2
  6
CONTINUOUS
  7
STANDARD
 71
2
 72
1
 10
1.5275
 20
-1.9065
 30
0.0
 11
1.0
 21
0.0
 31
0.0
 44
0.9
  1
Mounting Hole Diameter
 40
0.125
 41
4.4
  0
MTEXT
  5
267
100
AcDbEntity
  8
0
100
AcDbMText
 62
2
  6
CONTINUOUS
  7
STANDARD
 71
2
 72
1
 10
4.555
 20
-1.9065
 30
0.0
 11
1.0
 21
0.0
 31
0.0
 44
0.9
  1
.34 in.
 40
0.125
 41
1.4
  0
MTEXT
  5
268
100
AcDbEntity
  8
0
100
AcDbMText
 62
2
  6
CONTINUOUS
  7
STANDARD
 71
2
 72
1
 10
7.555
 20
-1.9065
 30
0.0
 11
1.0
 21
0.0
 31
0.0
 44
0.9
  1
8.6 mm
 40
0.125
 41
1.2
  0
MTEXT
  5
269
100
AcDbEntity
  8
0
100
AcDbMText
 62
2
  6
CONTINUOUS
  7
STANDARD
 71
2
 72
1
 10
1.5275
 20
-2.1565
 30
0.0
 11
1.0
 21
0.0
 31
0.0
 44
0.9
  1
Mounting Hole Depth
 40
0.125
 41
3.8
  0
MTEXT
  5
26A
100
AcDbEntity
  8
0
100
AcDbMText
 62
2
  6
CONTINUOUS
  7
STANDARD
 71
2
 72
1
 10
6.055
 20
-2.1565
 30
0.0
 11
1.0
 21
0.0
 31
0.0
 44
0.9
  1
Through
 40
0.125
 41
1.4
  0
MTEXT
  5
26B
100
AcDbEntity
  8
0
100
AcDbMText
 62
2
  6
CONTINUOUS
  7
STANDARD
 71
2
 72
1
 10
1.5275
 20
-2.4065
 30
0.0
 11
1.0
 21
0.0
 31
0.0
 44
0.9
  1
Mounting Hole Quantity
 40
0.125
 41
4.4
  0
MTEXT
  5
26C
100
AcDbEntity
  8
0
100
AcDbMText
 62
2
  6
CONTINUOUS
  7
STANDARD
 71
2
 72
1
 10
6.055
 20
-2.4065
 30
0.0
 11
1.0
 21
0.0
 31
0.0
 44
0.9
  1
1
 40
0.125
 41
0.2
  0
ENDBLK
  5
26D
100
AcDbEntity
  8
0
  6
BYBLOCK
 62
0
100
AcDbBlockEnd
  0
BLOCK
  5
26E
100
AcDbEntity
  8
0
100
AcDbBlockBegin
  2
*T3
 70
1
 10
0.0
 20
0.0
  3
*T3
  1

  0
LINE
  5
26F
100
AcDbEntity
  8
0
100
AcDbLine
 62
2
  6
CONTINUOUS
 10
0.0
 20
0.0
 11
4.6
 21
0.0
  0
LINE
  5
270
100
AcDbEntity
  8
0
100
AcDbLine
 62
2
  6
CONTINUOUS
 10
0.0
 20
0.0
 11
0.0
 21
-0.93775
  0
LINE
  5
271
100
AcDbEntity
  8
0
100
AcDbLine
 62
2
  6
CONTINUOUS
 10
0.0
 20
-0.34375
 11
4.6
 21
-0.34375
  0
LINE
  5
272
100
AcDbEntity
  8
0
100
AcDbLine
 62
2
  6
CONTINUOUS
 10
0.0
 20
-0.68775
 11
4.6
 21
-0.68775
  0
LINE
  5
273
100
AcDbEntity
  8
0
100
AcDbLine
 62
2
  6
CONTINUOUS
 10
0.0
 20
-0.93775
 11
4.6
 21
-0.93775
  0
LINE
  5
274
100
AcDbEntity
  8
0
100
AcDbLine
 62
2
  6
CONTINUOUS
 10
1.3
 20
-0.34375
 11
1.3
 21
-0.93775
  0
LINE
  5
275
100
AcDbEntity
  8
0
100
AcDbLine
 62
2
  6
CONTINUOUS
 10
3.3
 20
-0.34375
 11
3.3
 21
-0.93775
  0
LINE
  5
276
100
AcDbEntity
  8
0
100
AcDbLine
 62
2
  6
CONTINUOUS
 10
4.6
 20
0.0
 11
4.6
 21
-0.93775
  0
MTEXT
  5
277
100
AcDbEntity
  8
0
100
AcDbMText
 62
2
  6
CONTINUOUS
  7
STANDARD
 71
2
 72
1
 10
2.3
 20
-0.099375
 30
0.0
 11
1.0
 21
0.0
 31
0.0
 44
0.9
  1
Port Headings
 40
0.145
 41
3.016
  0
MTEXT
  5
278
100
AcDbEntity
  8
0
100
AcDbMText
 62
2
  6
CONTINUOUS
  7
STANDARD
 71
2
 72
1
 10
0.65
 20
-0.44325
 30
0.0
 11
1.0
 21
0.0
 31
0.0
 44
0.9
  1
Product
 40
0.145
 41
1.624
  0
MTEXT
  5
279
100
AcDbEntity
  8
0
100
AcDbMText
 62
2
  6
CONTINUOUS
  7
STANDARD
 71
2
 72
1
 10
2.3
 20
-0.44325
 30
0.0
 11
1.0
 21
0.0
 31
0.0
 44
0.9
  1
Port
 40
0.145
 41
0.928
  0
MTEXT
  5
27A
100
AcDbEntity
  8
0
100
AcDbMText
 62
2
  6
CONTINUOUS
  7
STANDARD
 71
2
 72
1
 10
3.95
 20
-0.44325
 30
0.0
 11
1.0
 21
0.0
 31
0.0
 44
0.9
  1
Size
 40
0.145
 41
0.928
  0
MTEXT
  5
27B
100
AcDbEntity
  8
0
100
AcDbMText
 62
2
  6
CONTINUOUS
  7
STANDARD
 71
2
 72
1
 10
0.65
 20
-0.75025
 30
0.0
 11
1.0
 21
0.0
 31
0.0
 44
0.9
  1
FAV
 40
0.125
 41
0.6
  0
MTEXT
  5
27C
100
AcDbEntity
  8
0
100
AcDbMText
 62
2
  6
CONTINUOUS
  7
STANDARD
 71
2
 72
1
 10
2.3
 20
-0.75025
 30
0.0
 11
1.0
 21
0.0
 31
0.0
 44
0.9
  1
All Ports
 40
0.125
 41
1.8
  0
MTEXT
  5
27D
100
AcDbEntity
  8
0
100
AcDbMText
 62
2
  6
CONTINUOUS
  7
STANDARD
 71
2
 72
1
 10
3.95
 20
-0.75025
 30
0.0
 11
1.0
 21
0.0
 31
0.0
 44
0.9
  1
1/2" BSPP
 40
0.125
 41
1.8
  0
ENDBLK
  5
27E
100
AcDbEntity
  8
0
  6
BYBLOCK
 62
0
100
AcDbBlockEnd
  0
ENDSEC
  0
SECTION
  2
ENTITIES
  0
IMAGE
  5
27F
100
AcDbEntity
  8
0
100
AcDbRasterImage
 62
7
  6
CONTINUOUS
 10
19.2297077316
 20
0.3094318264
 30
0.0
 11
0.0066666667
 21
0.0
 31
0.0
 12
0.0
 22
0.0066666667
 32
0.0
 13
369.0
 23
92.0
340
       315
 70
9
280
0
281
50
282
50
283
0
360
       30F
 71
1
 91
2
 14
-0.5
 24
-0.5
 14
368.5
 24
91.5
  0
INSERT
  5
280
100
AcDbEntity
  8
0
100
AcDbBlockReference
 62
2
  6
CONTINUOUS
  2
SUN_FIRST_THIRD_ANGLE_BL0
 10
20.4816717061
 20
1.2289683772
  0
ACAD_TABLE
  5
281
100
AcDbEntity
  8
0
 62
2
  6
CONTINUOUS
100
AcDbBlockReference
  2
*T1
 10
12.42375
 20
0.30125
 30
0.0
100
AcDbTable
342
       317
343
207
 11
1.0
 21
0.0
 31
0.0
 90
6
 91
4
 92
6
 93
20
 94
0
 95
0
 96
0
 70
1
 41
0.0
141
0.525
141
0.1
141
0.525
141
0.1
142
4.1
142
1.1
142
0.7
142
0.5
142
0.4
142
2.475
171
1
172
0
173
0
174
0
175
1
176
1
 91
33
178
0
145
0.0
301
CELL_VALUE
 90
4
  1
T-10A Line mount\PNinety degree
304
ACVALUE_END
170
2
140
0.125
171
1
172
0
173
0
174
0
175
1
176
1
 91
33
178
0
145
0.0
301
CELL_VALUE
 90
4
  1
Apr-24-24
304
ACVALUE_END
170
5
140
0.125
171
1
172
0
173
0
174
0
175
1
176
1
 91
33
178
0
145
0.0
301
CELL_VALUE
 90
4
  1
2.000
304
ACVALUE_END
170
5
140
0.125
171
1
172
0
173
0
174
0
175
1
176
1
 91
33
178
0
145
0.0
301
CELL_VALUE
 90
4
  1
C
304
ACVALUE_END
170
5
140
0.125
171
1
172
0
173
0
174
0
175
1
176
1
 91
33
178
0
145
0.0
301
CELL_VALUE
 90
4
  1
2
304
ACVALUE_END
170
5
140
0.125
171
1
172
0
173
0
174
0
175
1
176
1
 91
33
178
0
145
0.0
301
CELL_VALUE
 90
4
  1
 
304
ACVALUE_END
170
1
140
0.125
171
1
172
0
173
0
174
0
175
1
176
1
 91
33
178
0
145
0.0
301
CELL_VALUE
 90
4
  1
DESCRIPTION
304
ACVALUE_END
170
1
140
0.06
171
1
172
0
173
0
174
0
175
1
176
1
 91
33
178
0
145
0.0
301
CELL_VALUE
 90
4
  1
DATE
304
ACVALUE_END
170
1
140
0.06
171
1
172
0
173
0
174
0
175
1
176
1
 91
33
178
0
145
0.0
301
CELL_VALUE
 90
4
  1
SCALE
304
ACVALUE_END
170
1
140
0.06
171
1
172
0
173
0
174
0
175
1
176
1
 91
33
178
0
145
0.0
301
CELL_VALUE
 90
4
  1
DWG SIZE
304
ACVALUE_END
170
1
140
0.06
171
1
172
0
173
0
174
0
175
1
176
1
 91
33
178
0
145
0.0
301
CELL_VALUE
 90
4
  1
SHEET
304
ACVALUE_END
170
1
140
0.06
171
1
172
0
173
0
174
0
175
1
176
1
 91
33
178
0
145
0.0
301
CELL_VALUE
 90
4
  1
 
304
ACVALUE_END
170
1
140
0.125
171
1
172
0
173
0
174
0
175
1
176
1
 91
33
178
0
145
0.0
301
CELL_VALUE
 90
4
  1
FAV
304
ACVALUE_END
170
5
140
0.125
171
1
172
0
173
0
174
0
175
4
176
1
 91
33
178
0
145
0.0
301
CELL_VALUE
 90
4
  1
ALL DIMENSIONS IN INCH\PVIEWS ARE THIRD ANGLE
304
ACVALUE_END
170
5
140
0.12
171
1
172
0
173
1
174
0
175
1
176
1
 91
1
178
0
145
0.0
170
1
171
1
172
0
173
1
174
0
175
1
176
1
 91
1
178
0
145
0.0
170
1
171
1
172
0
173
1
174
0
175
1
176
1
 91
1
178
0
145
0.0
170
5
171
1
172
0
173
0
174
0
175
1
176
1
 91
33
178
0
145
0.0
301
CELL_VALUE
 90
4
  1
 
304
ACVALUE_END
170
1
140
0.125
171
1
172
0
173
0
174
0
175
1
176
1
 91
33
178
0
145
0.0
301
CELL_VALUE
 90
4
  1
MODEL
304
ACVALUE_END
170
1
140
0.06
171
1
172
0
173
0
174
0
175
1
176
1
 91
33
178
0
145
0.0
301
CELL_VALUE
 90
4
  1
 
304
ACVALUE_END
170
1
140
0.125
171
1
172
0
173
0
174
0
175
1
176
1
 91
33
178
0
145
0.0
301
CELL_VALUE
 90
4
  1
 
304
ACVALUE_END
170
1
140
0.125
171
1
172
0
173
0
174
0
175
1
176
1
 91
33
178
0
145
0.0
301
CELL_VALUE
 90
4
  1
 
304
ACVALUE_END
170
1
140
0.125
171
1
172
0
173
0
174
0
175
1
176
1
 91
33
178
0
145
0.0
301
CELL_VALUE
 90
4
  1
 
304
ACVALUE_END
170
1
140
0.125
171
1
172
0
173
0
174
0
175
1
176
1
 91
33
178
0
145
0.0
301
CELL_VALUE
 90
4
  1
 
304
ACVALUE_END
170
1
140
0.125
  0
ACAD_TABLE
  5
282
100
AcDbEntity
  8
0
 62
2
  6
CONTINUOUS
100
AcDbBlockReference
  2
*T2
 10
12.4237499994
 20
16.47875
 30
0.0
100
AcDbTable
342
       316
343
208
 11
1.0
 21
0.0
 31
0.0
 90
22
 91
10
 92
3
 93
16
 94
0
 95
0
 96
0
 41
0.028
141
0.344
141
0.25
141
0.25
141
0.25
141
0.25
141
0.25
141
0.25
141
0.25
141
0.25
141
0.25
142
3.055
142
3.0
142
3.0
171
1
172
0
173
0
174
0
175
1
176
1
 91
33
178
0
145
0.0
301
CELL_VALUE
 90
4
  1
Technical Data
304
ACVALUE_END
170
5
140
0.145
171
1
172
0
173
0
174
0
175
1
176
1
 91
33
178
0
145
0.0
301
CELL_VALUE
 90
4
  1
U.S. Units
304
ACVALUE_END
170
5
140
0.145
171
1
172
0
173
0
174
0
175
1
176
1
 91
33
178
0
145
0.0
301
CELL_VALUE
 90
4
  1
Metric Units
304
ACVALUE_END
170
5
140
0.145
171
1
172
0
173
0
174
0
175
1
176
1
 91
33
178
0
145
0.0
301
CELL_VALUE
 90
4
  1
Cavity
304
ACVALUE_END
170
5
140
0.125
171
1
172
0
173
0
174
0
175
2
176
1
 91
33
178
0
145
0.0
301
CELL_VALUE
 90
4
  1
T-10A
304
ACVALUE_END
170
5
140
0.125
171
1
172
0
173
1
174
0
175
1
176
1
 91
1
178
0
145
0.0
170
1
171
1
172
0
173
0
174
0
175
1
176
1
 91
33
178
0
145
0.0
301
CELL_VALUE
 90
4
  1
Body Features
304
ACVALUE_END
170
5
140
0.125
171
1
172
0
173
0
174
0
175
2
176
1
 91
33
178
0
145
0.0
301
CELL_VALUE
 90
4
  1
Ninety degree
304
ACVALUE_END
170
5
140
0.125
171
1
172
0
173
1
174
0
175
1
176
1
 91
1
178
0
145
0.0
170
1
171
1
172
0
173
0
174
0
175
1
176
1
 91
33
178
0
145
0.0
301
CELL_VALUE
 90
4
  1
Body Type
304
ACVALUE_END
170
5
140
0.125
171
1
172
0
173
0
174
0
175
2
176
1
 91
33
178
0
145
0.0
301
CELL_VALUE
 90
4
  1
Line mount
304
ACVALUE_END
170
5
140
0.125
171
1
172
0
173
1
174
0
175
1
176
1
 91
1
178
0
145
0.0
170
1
171
1
172
0
173
0
174
0
175
1
176
1
 91
33
178
0
145
0.0
301
CELL_VALUE
 90
4
  1
Interface
304
ACVALUE_END
170
5
140
0.125
171
1
172
0
173
0
174
0
175
2
176
1
 91
33
178
0
145
0.0
301
CELL_VALUE
 90
4
  1
None
304
ACVALUE_END
170
5
140
0.125
171
1
172
0
173
1
174
0
175
1
176
1
 91
1
178
0
145
0.0
170
1
171
1
172
0
173
0
174
0
175
1
176
1
 91
33
178
0
145
0.0
301
CELL_VALUE
 90
4
  1
Open Cavity Quantity
304
ACVALUE_END
170
5
140
0.125
171
1
172
0
173
0
174
0
175
2
176
1
 91
33
178
0
145
0.0
301
CELL_VALUE
 90
4
  1
1
304
ACVALUE_END
170
5
140
0.125
171
1
172
0
173
1
174
0
175
1
176
1
 91
1
178
0
145
0.0
170
1
171
1
172
0
173
0
174
0
175
1
176
1
 91
33
178
0
145
0.0
301
CELL_VALUE
 90
4
  1
Weight
304
ACVALUE_END
170
5
140
0.125
171
1
172
0
173
0
174
0
175
1
176
1
 91
33
178
0
145
0.0
301
CELL_VALUE
 90
4
  1
0.809 lb.
304
ACVALUE_END
170
5
140
0.125
171
1
172
0
173
0
174
0
175
1
176
1
 91
33
178
0
145
0.0
301
CELL_VALUE
 90
4
  1
0,367 kg.
304
ACVALUE_END
170
5
140
0.125
171
1
172
0
173
0
174
0
175
1
176
1
 91
33
178
0
145
0.0
301
CELL_VALUE
 90
4
  1
Mounting Hole Diameter
304
ACVALUE_END
170
5
140
0.125
171
1
172
0
173
0
174
0
175
1
176
1
 91
33
178
0
145
0.0
301
CELL_VALUE
 90
4
  1
.34 in.
304
ACVALUE_END
170
5
140
0.125
171
1
172
0
173
0
174
0
175
1
176
1
 91
33
178
0
145
0.0
301
CELL_VALUE
 90
4
  1
8.6 mm
304
ACVALUE_END
170
5
140
0.125
171
1
172
0
173
0
174
0
175
1
176
1
 91
33
178
0
145
0.0
301
CELL_VALUE
 90
4
  1
Mounting Hole Depth
304
ACVALUE_END
170
5
140
0.125
171
1
172
0
173
0
174
0
175
2
176
1
 91
33
178
0
145
0.0
301
CELL_VALUE
 90
4
  1
Through
304
ACVALUE_END
170
5
140
0.125
171
1
172
0
173
1
174
0
175
1
176
1
 91
1
178
0
145
0.0
170
1
171
1
172
0
173
0
174
0
175
1
176
1
 91
33
178
0
145
0.0
301
CELL_VALUE
 90
4
  1
Mounting Hole Quantity
304
ACVALUE_END
170
5
140
0.125
171
1
172
0
173
0
174
0
175
2
176
1
 91
33
178
0
145
0.0
301
CELL_VALUE
 90
4
  1
1
304
ACVALUE_END
170
5
140
0.125
171
1
172
0
173
1
174
0
175
1
176
1
 91
1
178
0
145
0.0
170
1
  0
ACAD_TABLE
  5
283
100
AcDbEntity
  8
0
 62
2
  6
CONTINUOUS
100
AcDbBlockReference
  2
*T3
 10
0.52125
 20
1.459
 30
0.0
100
AcDbTable
342
       316
343
209
 11
1.0
 21
0.0
 31
0.0
 90
22
 91
3
 92
3
 93
16
 94
0
 95
0
 96
0
 41
0.05
141
0.34375
141
0.344
141
0.25
142
1.3
142
2.0
142
1.3
171
1
172
0
173
0
174
0
175
3
176
1
 91
33
178
0
145
0.0
301
CELL_VALUE
 90
4
  1
Port Headings
304
ACVALUE_END
170
5
140
0.145
171
1
172
0
173
1
174
0
175
1
176
1
 91
1
178
0
145
0.0
170
1
171
1
172
0
173
1
174
0
175
1
176
1
 91
1
178
0
145
0.0
170
1
171
1
172
0
173
0
174
0
175
1
176
1
 91
33
178
0
145
0.0
301
CELL_VALUE
 90
4
  1
Product
304
ACVALUE_END
170
5
140
0.145
171
1
172
0
173
0
174
0
175
1
176
1
 91
33
178
0
145
0.0
301
CELL_VALUE
 90
4
  1
Port
304
ACVALUE_END
170
5
140
0.145
171
1
172
0
173
0
174
0
175
1
176
1
 91
33
178
0
145
0.0
301
CELL_VALUE
 90
4
  1
Size
304
ACVALUE_END
170
5
140
0.145
171
1
172
0
173
0
174
0
175
1
176
1
 91
33
178
0
145
0.0
301
CELL_VALUE
 90
4
  1
FAV
304
ACVALUE_END
170
5
140
0.125
171
1
172
0
173
0
174
0
175
1
176
1
 91
33
178
0
145
0.0
301
CELL_VALUE
 90
4
  1
All Ports
304
ACVALUE_END
170
5
140
0.125
171
1
172
0
173
0
174
0
175
1
176
1
 91
33
178
0
145
0.0
301
CELL_VALUE
 90
4
  1
1/2" BSPP
304
ACVALUE_END
170
5
140
0.125
  0
MTEXT
  5
284
100
AcDbEntity
  8
0
100
AcDbMText
 62
2
  6
CONTINUOUS
  7
STANDARD
 71
1
 72
1
 10
0.52125
 20
5.75995
 30
0.0
 11
1.0
 21
0.0
 31
0.0
 44
0.6
  3
Notes\P \P1. Important: Carefully consider\P   the maximum system pressure. The\P   pressure rating of the manifold is\P   dependent on the manifold material,\P   with the port type/size a secondary\P   consideration. Manifolds\P   constructed of alu
  3
minum are not\P   rated for pressures higher than\P   3000 psi (210 bar), regardless of\P   the port type/size specified.\P2. This drawing is for reference\P   only. It is generated by an\P   automated process and does not fall\P   under Sun's docume
  1
nt control\P   process.
 40
0.1
 41
3.04
  0
LINE
  5
285
100
AcDbEntity
  8
0
100
AcDbLine
 62
7
  6
CONTINUOUS
 10
0.30125
 20
0.30125
 11
0.30125
 21
16.69875
  0
LINE
  5
286
100
AcDbEntity
  8
0
100
AcDbLine
 62
7
  6
CONTINUOUS
 10
0.30125
 20
0.30125
 11
21.69875
 21
0.30125
  0
LINE
  5
287
100
AcDbEntity
  8
0
100
AcDbLine
 62
7
  6
CONTINUOUS
 10
0.30125
 20
16.69875
 11
21.69875
 21
16.69875
  0
LINE
  5
288
100
AcDbEntity
  8
0
100
AcDbLine
 62
7
  6
CONTINUOUS
 10
21.69875
 20
0.30125
 11
21.69875
 21
16.69875
  0
LINE
  5
289
100
AcDbEntity
  8
0
100
AcDbLine
 62
7
  6
CONTINUOUS
 10
7.7139941022
 20
10.4992950878
 11
8.4904505967
 21
11.2492945133
  0
LINE
  5
28A
100
AcDbEntity
  8
0
100
AcDbLine
 62
7
  6
CONTINUOUS
 10
7.7139941022
 20
6.152628612
 11
7.7139941022
 21
10.4992950878
  0
LINE
  5
28B
100
AcDbEntity
  8
0
100
AcDbLine
 62
7
  6
CONTINUOUS
 10
13.5095494033
 20
5.7507054867
 11
7.7139941022
 21
6.152628612
  0
LINE
  5
28C
100
AcDbEntity
  8
0
100
AcDbLine
 62
4
  6
CONTINUOUS
 10
9.3309541101
 20
6.3302698311
 11
9.3116355837
 21
6.3460984634
  0
LINE
  5
28D
100
AcDbEntity
  8
0
100
AcDbLine
 62
4
  6
CONTINUOUS
 10
9.427546694
 20
6.3670377765
 11
9.4661837262
 21
6.3353805133
  0
LINE
  5
28E
100
AcDbEntity
  8
0
100
AcDbLine
 62
4
  6
CONTINUOUS
 10
9.3695911354
 20
6.4435014477
 11
9.3889096618
 21
6.4276728155
  0
LINE
  5
28F
100
AcDbEntity
  8
0
100
AcDbLine
 62
4
  6
CONTINUOUS
 10
9.3116355837
 20
6.3460984634
 11
9.292317071
 21
6.3764159827
  0
LINE
  5
290
100
AcDbEntity
  8
0
100
AcDbLine
 62
4
  6
CONTINUOUS
 10
9.4661837262
 20
6.3353805133
 11
9.5241392779
 21
6.3168723942
  0
LINE
  5
291
100
AcDbEntity
  8
0
100
AcDbLine
 62
4
  6
CONTINUOUS
 10
9.3889096618
 20
6.4276728155
 11
9.427546694
 21
6.3670377765
  0
LINE
  5
292
100
AcDbEntity
  8
0
100
AcDbLine
 62
4
  6
CONTINUOUS
 10
9.3309541101
 20
6.4461809345
 11
9.3695911354
 21
6.4435014477
  0
LINE
  5
293
100
AcDbEntity
  8
0
100
AcDbLine
 62
4
  6
CONTINUOUS
 10
9.292317071
 20
6.3764159827
 11
9.292317071
 21
6.4053937585
  0
LINE
  5
294
100
AcDbEntity
  8
0
100
AcDbLine
 62
4
  6
CONTINUOUS
 10
9.5241392779
 20
6.3168723942
 11
9.5241392779
 21
6.4327834977
  0
LINE
  5
295
100
AcDbEntity
  8
0
100
AcDbLine
 62
4
  6
CONTINUOUS
 10
10.4958606493
 20
7.0338151166
 11
10.6117717527
 21
7.0257766543
  0
LINE
  5
296
100
AcDbEntity
  8
0
100
AcDbLine
 62
4
  6
CONTINUOUS
 10
11.6781539043
 20
7.4963289838
 11
11.9099761112
 21
7.5464869991
  0
LINE
  5
297
100
AcDbEntity
  8
0
100
AcDbLine
 62
4
  6
CONTINUOUS
 10
10.6117717527
 20
7.1416877577
 11
10.7276828562
 21
7.1336492954
  0
LINE
  5
298
100
AcDbEntity
  8
0
100
AcDbLine
 62
4
  6
CONTINUOUS
 10
10.7276828562
 20
7.1916048471
 11
10.4958606493
 21
7.2076817717
  0
LINE
  5
299
100
AcDbEntity
  8
0
100
AcDbLine
 62
4
  6
CONTINUOUS
 10
11.9099761112
 20
7.2042732579
 11
11.6781539043
 21
7.2203501826
  0
LINE
  5
29A
100
AcDbEntity
  8
0
100
AcDbLine
 62
4
  6
CONTINUOUS
 10
10.4958606493
 20
7.3235928752
 11
10.7276828562
 21
7.3075159505
  0
LINE
  5
29B
100
AcDbEntity
  8
0
100
AcDbLine
 62
4
  6
CONTINUOUS
 10
10.4958606493
 20
7.3815484269
 11
10.7276828562
 21
7.3654715022
  0
LINE
  5
29C
100
AcDbEntity
  8
0
100
AcDbLine
 62
4
  6
CONTINUOUS
 10
11.7112713605
 20
7.3339645688
 11
11.8768586516
 21
7.3224810512
  0
LINE
  5
29D
100
AcDbEntity
  8
0
100
AcDbLine
 62
4
  6
CONTINUOUS
 10
10.4958606493
 20
7.4974595303
 11
10.7276828562
 21
7.4813826057
  0
LINE
  5
29E
100
AcDbEntity
  8
0
100
AcDbLine
 62
4
  6
CONTINUOUS
 10
10.7276828562
 20
7.7132048125
 11
10.4958606493
 21
7.7292817372
  0
LINE
  5
29F
100
AcDbEntity
  8
0
100
AcDbLine
 62
4
  6
CONTINUOUS
 10
11.9099761112
 20
7.6789568237
 11
11.6781539043
 21
7.6950337484
  0
LINE
  5
2A0
100
AcDbEntity
  8
0
100
AcDbLine
 62
4
  6
CONTINUOUS
 10
10.7276828562
 20
7.829115916
 11
10.6117717527
 21
7.8371543783
  0
LINE
  5
2A1
100
AcDbEntity
  8
0
100
AcDbLine
 62
4
  6
CONTINUOUS
 10
11.3999672561
 20
7.8219578168
 11
11.1681450492
 21
7.8380347414
  0
LINE
  5
2A2
100
AcDbEntity
  8
0
100
AcDbLine
 62
4
  6
CONTINUOUS
 10
11.9099761112
 20
7.8114266483
 11
11.6781539043
 21
7.827503573
  0
LINE
  5
2A3
100
AcDbEntity
  8
0
100
AcDbLine
 62
4
  6
CONTINUOUS
 10
10.7276828562
 20
7.9237766525
 11
10.6117717527
 21
7.9318151149
  0
LINE
  5
2A4
100
AcDbEntity
  8
0
100
AcDbLine
 62
4
  6
CONTINUOUS
 10
11.9099761112
 20
7.4140171469
 11
11.6781539043
 21
7.4963289838
  0
LINE
  5
2A5
100
AcDbEntity
  8
0
100
AcDbLine
 62
4
  6
CONTINUOUS
 10
10.4958606493
 20
7.14972622
 11
10.4958606493
 21
7.0338151166
  0
LINE
  5
2A6
100
AcDbEntity
  8
0
100
AcDbLine
 62
4
  6
CONTINUOUS
 10
10.4958606493
 20
7.3815484269
 11
10.4958606493
 21
7.4974595303
  0
LINE
  5
2A7
100
AcDbEntity
  8
0
100
AcDbLine
 62
4
  6
CONTINUOUS
 10
10.553816201
 20
8.964545389
 11
10.553816201
 21
8.9935231649
  0
LINE
  5
2A8
100
AcDbEntity
  8
0
100
AcDbLine
 62
4
  6
CONTINUOUS
 10
10.6117717527
 20
8.6272817355
 11
10.6117717527
 21
8.5500076665
  0
LINE
  5
2A9
100
AcDbEntity
  8
0
100
AcDbLine
 62
4
  6
CONTINUOUS
 10
10.6117717527
 20
7.8371543783
 11
10.6117717527
 21
7.7212432749
  0
LINE
  5
2AA
100
AcDbEntity
  8
0
100
AcDbLine
 62
4
  6
CONTINUOUS
 10
10.6117717527
 20
7.0257766543
 11
10.6117717527
 21
7.1416877577
  0
LINE
  5
2AB
100
AcDbEntity
  8
0
100
AcDbLine
 62
4
  6
CONTINUOUS
 10
10.6117717527
 20
8.1250002873
 11
10.6117717527
 21
8.2409113907
  0
LINE
  5
2AC
100
AcDbEntity
  8
0
100
AcDbLine
 62
4
  6
CONTINUOUS
 10
10.6117717527
 20
8.3181854596
 11
10.6117717527
 21
8.4340965631
  0
LINE
  5
2AD
100
AcDbEntity
  8
0
100
AcDbLine
 62
4
  6
CONTINUOUS
 10
10.6117717527
 20
9.0522891147
 11
10.6117717527
 21
9.1682002181
  0
LINE
  5
2AE
100
AcDbEntity
  8
0
100
AcDbLine
 62
4
  6
CONTINUOUS
 10
10.6117717527
 20
9.2454742871
 11
10.6117717527
 21
9.3613853905
  0
LINE
  5
2AF
100
AcDbEntity
  8
0
100
AcDbLine
 62
4
  6
CONTINUOUS
 10
10.6504087872
 20
8.5086911446
 11
10.6504087872
 21
8.624602248
  0
LINE
  5
2B0
100
AcDbEntity
  8
0
100
AcDbLine
 62
4
  6
CONTINUOUS
 10
10.6697273045
 20
9.2414550559
 11
10.6697273045
 21
9.3573661594
  0
LINE
  5
2B1
100
AcDbEntity
  8
0
100
AcDbLine
 62
4
  6
CONTINUOUS
 10
10.7276828562
 20
9.3533469282
 11
10.7276828562
 21
9.2374358248
  0
LINE
  5
2B2
100
AcDbEntity
  8
0
100
AcDbLine
 62
4
  6
CONTINUOUS
 10
10.7276828562
 20
8.6192432731
 11
10.7276828562
 21
8.5033321697
  0
LINE
  5
2B3
100
AcDbEntity
  8
0
100
AcDbLine
 62
4
  6
CONTINUOUS
 10
10.7276828562
 20
8.2328729284
 11
10.7276828562
 21
8.1169618249
  0
LINE
  5
2B4
100
AcDbEntity
  8
0
100
AcDbLine
 62
4
  6
CONTINUOUS
 10
10.7276828562
 20
8.039687756
 11
10.7276828562
 21
7.9237766525
  0
LINE
  5
2B5
100
AcDbEntity
  8
0
100
AcDbLine
 62
4
  6
CONTINUOUS
 10
10.7276828562
 20
7.3075159505
 11
10.7276828562
 21
7.1916048471
  0
LINE
  5
2B6
100
AcDbEntity
  8
0
100
AcDbLine
 62
4
  6
CONTINUOUS
 10
10.7276828562
 20
7.1336492954
 11
10.7276828562
 21
7.0177381919
  0
LINE
  5
2B7
100
AcDbEntity
  8
0
100
AcDbLine
 62
4
  6
CONTINUOUS
 10
10.7276828562
 20
8.6965173421
 11
10.7276828562
 21
8.8124284455
  0
LINE
  5
2B8
100
AcDbEntity
  8
0
100
AcDbLine
 62
4
  6
CONTINUOUS
 10
10.7276828562
 20
9.0442506524
 11
10.7276828562
 21
9.1601617558
  0
LINE
  5
2B9
100
AcDbEntity
  8
0
100
AcDbLine
 62
4
  6
CONTINUOUS
 10
11.1681450492
 20
8.0698569483
 11
11.3999672561
 21
8.1200149359
  0
LINE
  5
2BA
100
AcDbEntity
  8
0
100
AcDbLine
 62
4
  6
CONTINUOUS
 10
11.1681450492
 20
8.2023267729
 11
11.3999672561
 21
8.2524847605
  0
LINE
  5
2BB
100
AcDbEntity
  8
0
100
AcDbLine
 62
4
  6
CONTINUOUS
 10
10.6117717527
 20
8.0477262183
 11
10.8435939596
 21
8.0316492937
  0
LINE
  5
2BC
100
AcDbEntity
  8
0
100
AcDbLine
 62
4
  6
CONTINUOUS
 10
10.7276828562
 20
8.1169618249
 11
10.6117717527
 21
8.1250002873
  0
LINE
  5
2BD
100
AcDbEntity
  8
0
100
AcDbLine
 62
4
  6
CONTINUOUS
 10
10.4958606493
 20
8.248949853
 11
10.7276828562
 21
8.2328729284
  0
LINE
  5
2BE
100
AcDbEntity
  8
0
100
AcDbLine
 62
4
  6
CONTINUOUS
 10
11.8768586516
 20
8.1614567175
 11
11.7112713605
 21
8.1729402351
  0
LINE
  5
2BF
100
AcDbEntity
  8
0
100
AcDbLine
 62
4
  6
CONTINUOUS
 10
11.3999672561
 20
7.9875451113
 11
11.1681450492
 21
8.0698569483
  0
LINE
  5
2C0
100
AcDbEntity
  8
0
100
AcDbLine
 62
4
  6
CONTINUOUS
 10
10.8435939596
 20
8.0316492937
 11
10.8435939596
 21
7.9543752247
  0
LINE
  5
2C1
100
AcDbEntity
  8
0
100
AcDbLine
 62
4
  6
CONTINUOUS
 10
9.292317071
 20
6.4053937585
 11
9.3116355837
 21
6.433031791
  0
LINE
  5
2C2
100
AcDbEntity
  8
0
100
AcDbLine
 62
4
  6
CONTINUOUS
 10
10.6117717527
 20
8.3181854596
 11
10.7276828562
 21
8.3101469973
  0
LINE
  5
2C3
100
AcDbEntity
  8
0
100
AcDbLine
 62
4
  6
CONTINUOUS
 10
11.8768586516
 20
8.3546418162
 11
11.7112713605
 21
8.3661253338
  0
LINE
  5
2C4
100
AcDbEntity
  8
0
100
AcDbLine
 62
4
  6
CONTINUOUS
 10
10.7276828562
 20
8.5033321697
 11
10.6504087872
 21
8.5086911446
  0
LINE
  5
2C5
100
AcDbEntity
  8
0
100
AcDbLine
 62
4
  6
CONTINUOUS
 10
11.7112713605
 20
8.4820364373
 11
11.8768586516
 21
8.4705529196
  0
LINE
  5
2C6
100
AcDbEntity
  8
0
100
AcDbLine
 62
4
  6
CONTINUOUS
 10
11.3999672561
 20
8.2524847605
 11
11.1681450492
 21
8.3347965975
  0
LINE
  5
2C7
100
AcDbEntity
  8
0
100
AcDbLine
 62
4
  6
CONTINUOUS
 10
11.8768586516
 20
7.3224810512
 11
11.9099761112
 21
7.2870668914
  0
LINE
  5
2C8
100
AcDbEntity
  8
0
100
AcDbLine
 62
4
  6
CONTINUOUS
 10
11.1681450492
 20
7.8380347414
 11
11.1681450492
 21
7.9373871168
  0
LINE
  5
2C9
100
AcDbEntity
  8
0
100
AcDbLine
 62
4
  6
CONTINUOUS
 10
11.2674974177
 20
7.9304970066
 11
11.2674974177
 21
7.8311446313
  0
LINE
  5
2CA
100
AcDbEntity
  8
0
100
AcDbLine
 62
4
  6
CONTINUOUS
 10
11.9099761112
 20
8.5344911007
 11
11.6781539043
 21
8.5505680253
  0
LINE
  5
2CB
100
AcDbEntity
  8
0
100
AcDbLine
 62
4
  6
CONTINUOUS
 10
10.6117717527
 20
8.6272817355
 11
10.7276828562
 21
8.6192432731
  0
LINE
  5
2CC
100
AcDbEntity
  8
0
100
AcDbLine
 62
4
  6
CONTINUOUS
 10
10.6117717527
 20
8.7045558044
 11
10.7276828562
 21
8.6965173421
  0
LINE
  5
2CD
100
AcDbEntity
  8
0
100
AcDbLine
 62
4
  6
CONTINUOUS
 10
11.7112713605
 20
8.6641824254
 11
11.8768586516
 21
8.6526989077
  0
LINE
  5
2CE
100
AcDbEntity
  8
0
100
AcDbLine
 62
4
  6
CONTINUOUS
 10
10.7276828562
 20
8.8124284455
 11
10.6117717527
 21
8.8204669079
  0
LINE
  5
2CF
100
AcDbEntity
  8
0
100
AcDbLine
 62
4
  6
CONTINUOUS
 10
11.9099761112
 20
8.7442350863
 11
11.6781539043
 21
8.760312011
  0
LINE
  5
2D0
100
AcDbEntity
  8
0
100
AcDbLine
 62
4
  6
CONTINUOUS
 10
12.9879494199
 20
8.6807924429
 11
13.2197716267
 21
8.6647155182
  0
LINE
  5
2D1
100
AcDbEntity
  8
0
100
AcDbLine
 62
4
  6
CONTINUOUS
 10
11.7112713605
 20
8.1729402351
 11
11.6781539043
 21
8.2083543809
  0
LINE
  5
2D2
100
AcDbEntity
  8
0
100
AcDbLine
 62
4
  6
CONTINUOUS
 10
11.7664671207
 20
7.1700690251
 11
11.8106237358
 21
7.0786935302
  0
LINE
  5
2D3
100
AcDbEntity
  8
0
100
AcDbLine
 62
4
  6
CONTINUOUS
 10
11.3337323369
 20
8.0142168227
 11
11.3337323369
 21
8.1025300391
  0
LINE
  5
2D4
100
AcDbEntity
  8
0
100
AcDbLine
 62
4
  6
CONTINUOUS
 10
11.7664671207
 20
8.9197746803
 11
11.8106237358
 21
9.005025625
  0
LINE
  5
2D5
100
AcDbEntity
  8
0
100
AcDbLine
 62
7
  6
CONTINUOUS
 10
13.5095494033
 20
10.0973719626
 11
14.2860058978
 21
10.847371388
  0
LINE
  5
2D6
100
AcDbEntity
  8
0
100
AcDbLine
 62
4
  6
CONTINUOUS
 10
11.6781539043
 20
8.6333616864
 11
11.7112713605
 21
8.6641824254
  0
LINE
  5
2D7
100
AcDbEntity
  8
0
100
AcDbLine
 62
4
  6
CONTINUOUS
 10
11.6781539043
 20
8.4512156983
 11
11.7112713605
 21
8.4820364373
  0
LINE
  5
2D8
100
AcDbEntity
  8
0
100
AcDbLine
 62
4
  6
CONTINUOUS
 10
10.7276828562
 20
8.8897025145
 11
10.4958606493
 21
8.9057794391
  0
LINE
  5
2D9
100
AcDbEntity
  8
0
100
AcDbLine
 62
4
  6
CONTINUOUS
 10
10.7276828562
 20
8.9669765834
 11
10.6117717527
 21
8.9750150458
  0
LINE
  5
2DA
100
AcDbEntity
  8
0
100
AcDbLine
 62
4
  6
CONTINUOUS
 10
10.6117717527
 20
9.0522891147
 11
10.7276828562
 21
9.0442506524
  0
LINE
  5
2DB
100
AcDbEntity
  8
0
100
AcDbLine
 62
4
  6
CONTINUOUS
 10
11.7112713605
 20
8.3661253338
 11
11.6781539043
 21
8.4015394796
  0
LINE
  5
2DC
100
AcDbEntity
  8
0
100
AcDbLine
 62
4
  6
CONTINUOUS
 10
11.6781539043
 20
7.2203501826
 11
11.6781539043
 21
7.3031438161
  0
LINE
  5
2DD
100
AcDbEntity
  8
0
100
AcDbLine
 62
4
  6
CONTINUOUS
 10
11.6781539043
 20
7.6287988084
 11
11.6781539043
 21
7.761268633
  0
LINE
  5
2DE
100
AcDbEntity
  8
0
100
AcDbLine
 62
4
  6
CONTINUOUS
 10
11.6781539043
 20
7.827503573
 11
11.6781539043
 21
7.9268559552
  0
LINE
  5
2DF
100
AcDbEntity
  8
0
100
AcDbLine
 62
4
  6
CONTINUOUS
 10
11.6781539043
 20
8.2083543809
 11
11.6781539043
 21
8.2745892655
  0
LINE
  5
2E0
100
AcDbEntity
  8
0
100
AcDbLine
 62
4
  6
CONTINUOUS
 10
11.6781539043
 20
8.4015394796
 11
11.6781539043
 21
8.4512156983
  0
LINE
  5
2E1
100
AcDbEntity
  8
0
100
AcDbLine
 62
4
  6
CONTINUOUS
 10
11.6781539043
 20
8.5505680253
 11
11.6781539043
 21
8.6333616864
  0
LINE
  5
2E2
100
AcDbEntity
  8
0
100
AcDbLine
 62
4
  6
CONTINUOUS
 10
11.6781539043
 20
8.760312011
 11
11.6781539043
 21
8.859664338
  0
LINE
  5
2E3
100
AcDbEntity
  8
0
100
AcDbLine
 62
4
  6
CONTINUOUS
 10
11.7775062728
 20
8.8196567855
 11
11.7775062728
 21
8.7534219008
  0
LINE
  5
2E4
100
AcDbEntity
  8
0
100
AcDbLine
 62
4
  6
CONTINUOUS
 10
11.7775062728
 20
7.8868484027
 11
11.7775062728
 21
7.8206134628
  0
LINE
  5
2E5
100
AcDbEntity
  8
0
100
AcDbLine
 62
4
  6
CONTINUOUS
 10
11.843741192
 20
7.4406888582
 11
11.843741192
 21
7.5290020746
  0
LINE
  5
2E6
100
AcDbEntity
  8
0
100
AcDbLine
 62
4
  6
CONTINUOUS
 10
11.9099761112
 20
8.3854625549
 11
11.8768586516
 21
8.3546418162
  0
LINE
  5
2E7
100
AcDbEntity
  8
0
100
AcDbLine
 62
4
  6
CONTINUOUS
 10
11.9099761112
 20
8.1922774562
 11
11.8768586516
 21
8.1614567175
  0
LINE
  5
2E8
100
AcDbEntity
  8
0
100
AcDbLine
 62
4
  6
CONTINUOUS
 10
9.3116355837
 20
6.433031791
 11
9.3309541101
 21
6.4461809345
  0
LINE
  5
2E9
100
AcDbEntity
  8
0
100
AcDbLine
 62
4
  6
CONTINUOUS
 10
10.6117717527
 20
9.2454742871
 11
10.6697273045
 21
9.2414550559
  0
LINE
  5
2EA
100
AcDbEntity
  8
0
100
AcDbLine
 62
4
  6
CONTINUOUS
 10
10.6697273045
 20
9.3573661594
 11
10.7276828562
 21
9.3533469282
  0
LINE
  5
2EB
100
AcDbEntity
  8
0
100
AcDbLine
 62
4
  6
CONTINUOUS
 10
11.8768586516
 20
8.4705529196
 11
11.9099761112
 21
8.4351387737
  0
LINE
  5
2EC
100
AcDbEntity
  8
0
100
AcDbLine
 62
4
  6
CONTINUOUS
 10
11.8768586516
 20
8.6526989077
 11
11.9099761112
 21
8.6172847618
  0
LINE
  5
2ED
100
AcDbEntity
  8
0
100
AcDbLine
 62
4
  6
CONTINUOUS
 10
11.9099761112
 20
8.6172847618
 11
11.9099761112
 21
8.5344911007
  0
LINE
  5
2EE
100
AcDbEntity
  8
0
100
AcDbLine
 62
4
  6
CONTINUOUS
 10
11.9099761112
 20
8.4351387737
 11
11.9099761112
 21
8.3854625549
  0
LINE
  5
2EF
100
AcDbEntity
  8
0
100
AcDbLine
 62
4
  6
CONTINUOUS
 10
11.9099761112
 20
8.2585123409
 11
11.9099761112
 21
8.1922774562
  0
LINE
  5
2F0
100
AcDbEntity
  8
0
100
AcDbLine
 62
4
  6
CONTINUOUS
 10
11.9099761112
 20
7.2870668914
 11
11.9099761112
 21
7.2042732579
  0
LINE
  5
2F1
100
AcDbEntity
  8
0
100
AcDbLine
 62
4
  6
CONTINUOUS
 10
11.9099761112
 20
7.8114266483
 11
11.9099761112
 21
7.9107790306
  0
LINE
  5
2F2
100
AcDbEntity
  8
0
100
AcDbLine
 62
4
  6
CONTINUOUS
 10
11.9099761112
 20
8.7442350863
 11
11.9099761112
 21
8.8435874133
  0
LINE
  5
2F3
100
AcDbEntity
  8
0
100
AcDbLine
 62
7
  6
CONTINUOUS
 10
13.8688974378
 20
9.7094943351
 11
13.8668680208
 21
9.7075700439
  0
LINE
  5
2F4
100
AcDbEntity
  8
0
100
AcDbLine
 62
4
  6
CONTINUOUS
 10
11.8106237358
 20
9.005025625
 11
11.8547803475
 21
8.9136501372
  0
LINE
  5
2F5
100
AcDbEntity
  8
0
100
AcDbLine
 62
4
  6
CONTINUOUS
 10
11.8106237358
 20
7.0786935302
 11
11.8547803475
 21
7.163944482
  0
LINE
  5
2F6
100
AcDbEntity
  8
0
100
AcDbLine
 62
4
  6
CONTINUOUS
 10
11.6781539043
 20
7.3031438161
 11
11.7112713605
 21
7.3339645688
  0
LINE
  5
2F7
100
AcDbEntity
  8
0
100
AcDbLine
 62
7
  6
CONTINUOUS
 10
13.5095494033
 20
10.0973719626
 11
7.7139941022
 21
10.4992950878
  0
LINE
  5
2F8
100
AcDbEntity
  8
0
100
AcDbLine
 62
7
  6
CONTINUOUS
 10
13.5095494033
 20
5.7507054867
 11
13.5095494033
 21
10.0973719626
  0
LINE
  5
2F9
100
AcDbEntity
  8
0
100
AcDbLine
 62
7
  6
CONTINUOUS
 10
14.2860058978
 20
10.847371388
 11
8.4904505967
 21
11.2492945133
  0
LINE
  5
2FA
100
AcDbEntity
  8
0
100
AcDbLine
 62
7
  6
CONTINUOUS
 10
14.2860058978
 20
10.847371388
 11
14.2860058978
 21
6.5007049122
  0
LINE
  5
2FB
100
AcDbEntity
  8
0
100
AcDbLine
 62
7
  6
CONTINUOUS
 10
14.2860058978
 20
6.5007049122
 11
13.5095494033
 21
5.7507054867
  0
SPLINE
  5
2FC
100
AcDbEntity
  8
0
100
AcDbSpline
 62
7
  6
CONTINUOUS
 70
0
 71
3
 72
23
 73
19
 74
0
 42
0.0000001
 43
0.0000001
 44
0.0000000001
 40
0.0
 40
0.0
 40
0.0
 40
0.0
 40
0.0764219057
 40
0.1504656864
 40
0.2222015765
 40
0.2917109238
 40
0.3590900758
 40
0.4244474746
 40
0.487903775
 40
0.5495925967
 40
0.6096609602
 40
0.6682702092
 40
0.7255962386
 40
0.7818281892
 40
0.8371677688
 40
0.8918276742
 40
0.9460292214
 40
1.0
 40
1.0
 40
1.0
 40
1.0
 10
13.8977776506
 20
10.0531597718
 30
0.0
 10
13.8994866355
 20
10.0548105246
 30
0.0
 10
13.9029039384
 20
10.0580069198
 30
0.0
 10
13.9081113347
 20
10.0625489742
 30
0.0
 10
13.9133163818
 20
10.0667601199
 30
0.0
 10
13.918517522
 20
10.0706388484
 30
0.0
 10
13.9237132958
 20
10.0741840585
 30
0.0
 10
13.9289023726
 20
10.0773947058
 30
0.0
 10
13.9340834257
 20
10.0802697721
 30
0.0
 10
13.9392550281
 20
10.0828083841
 30
0.0
 10
13.9444157802
 20
10.0850096129
 30
0.0
 10
13.9495642521
 20
10.0868725846
 30
0.0
 10
13.9546989346
 20
10.0883966441
 30
0.0
 10
13.9598183372
 20
10.0895810816
 30
0.0
 10
13.9649208599
 20
10.0904253118
 30
0.0
 10
13.9700049368
 20
10.090928976
 30
0.0
 10
13.9750685895
 20
10.0910917181
 30
0.0
 10
13.9784327284
 20
10.0909726979
 30
0.0
 10
13.9801067249
 20
10.0908566054
 30
0.0
  0
SPLINE
  5
2FD
100
AcDbEntity
  8
0
100
AcDbSpline
 62
7
  6
CONTINUOUS
 70
0
 71
3
 72
23
 73
19
 74
0
 42
0.0000001
 43
0.0000001
 44
0.0000000001
 40
0.0
 40
0.0
 40
0.0
 40
0.0
 40
0.0637764154
 40
0.1273451281
 40
0.190701988
 40
0.253856063
 40
0.3168132283
 40
0.3795820791
 40
0.4421733864
 40
0.5045993414
 40
0.5668738629
 40
0.629012379
 40
0.6910316532
 40
0.7529496461
 40
0.8147853522
 40
0.8765586034
 40
0.9382898574
 40
1.0
 40
1.0
 40
1.0
 40
1.0
 10
13.2989775833
 20
6.308159016
 30
0.0
 10
13.2989775833
 20
6.3028515829
 30
0.0
 10
13.2987235197
 20
6.292252204
 30
0.0
 10
13.2975769566
 20
6.2764176395
 30
0.0
 10
13.2956678555
 20
6.2607085499
 30
0.0
 10
13.2930008153
 20
6.2451619211
 30
0.0
 10
13.2895818063
 20
6.2298132219
 30
0.0
 10
13.285418738
 20
6.2146979348
 30
0.0
 10
13.2805211866
 20
6.1998508932
 30
0.0
 10
13.2749003386
 20
6.1853063499
 30
0.0
 10
13.2685691743
 20
6.171097838
 30
0.0
 10
13.2615422837
 20
6.1572581164
 30
0.0
 10
13.2538358117
 20
6.1438191295
 30
0.0
 10
13.2454674889
 20
6.1308118867
 30
0.0
 10
13.2364566731
 20
6.1182663945
 30
0.0
 10
13.2268240254
 20
6.1062114964
 30
0.0
 10
13.2165920954
 20
6.0946754156
 30
0.0
 10
13.2093856712
 20
6.0873469559
 30
0.0
 10
13.2056919547
 20
6.0837790987
 30
0.0
  0
SPLINE
  5
2FE
100
AcDbEntity
  8
0
100
AcDbSpline
 62
7
  6
CONTINUOUS
 70
0
 71
3
 72
43
 73
39
 74
0
 42
0.0000001
 43
0.0000001
 44
0.0000000001
 40
0.0
 40
0.0
 40
0.0
 40
0.0
 40
0.0149723098
 40
0.0299476795
 40
0.0449291474
 40
0.05991972
 40
0.0749223413
 40
0.0899398895
 40
0.1049751458
 40
0.1200307886
 40
0.1502075383
 40
0.1804946787
 40
0.2109083087
 40
0.2414615673
 40
0.2721643694
 40
0.303023226
 40
0.3340411482
 40
0.3652176339
 40
0.3965487319
 40
0.4280271774
 40
0.4596425917
 40
0.4913817403
 40
0.5232288393
 40
0.555165905
 40
0.5871731364
 40
0.6192293252
 40
0.6513122868
 40
0.6833993039
 40
0.7154675788
 40
0.7474946857
 40
0.7794590188
 40
0.8113402295
 40
0.8431196416
 40
0.8747806564
 40
0.906309065
 40
0.9376935582
 40
0.9689254026
 40
1.0
 40
1.0
 40
1.0
 40
1.0
 10
12.727706204
 20
6.5786261183
 30
0.0
 10
12.7305598985
 20
6.5813825764
 30
0.0
 10
12.7363781065
 20
6.5867832347
 30
0.0
 10
12.7454214662
 20
6.5945318081
 30
0.0
 10
12.754769275
 20
6.6019183537
 30
0.0
 10
12.7644085686
 20
6.6089324322
 30
0.0
 10
12.7743260955
 20
6.6155645073
 30
0.0
 10
12.7845081445
 20
6.6218054098
 30
0.0
 10
12.794940949
 20
6.6276466017
 30
0.0
 10
12.8091752232
 20
6.6348959107
 30
0.0
 10
12.8275323869
 20
6.6429207504
 30
0.0
 10
12.850305021
 20
6.6508257331
 30
0.0
 10
12.8737174985
 20
6.656972274
 30
0.0
 10
12.8976399714
 20
6.6613263552
 30
0.0
 10
12.921940959
 20
6.663864452
 30
0.0
 10
12.9464866754
 20
6.6645728864
 30
0.0
 10
12.9711421427
 20
6.6634480885
 30
0.0
 10
12.9957718273
 20
6.6604965444
 30
0.0
 10
13.0202404052
 20
6.6557347622
 30
0.0
 10
13.0444134888
 20
6.6491891651
 30
0.0
 10
13.0681583574
 20
6.6408959413
 30
0.0
 10
13.0913446781
 20
6.630900845
 30
0.0
 10
13.113845209
 20
6.619258932
 30
0.0
 10
13.1355364876
 20
6.6060342583
 30
0.0
 10
13.1562994994
 20
6.5912995281
 30
0.0
 10
13.1760203216
 20
6.5751356972
 30
0.0
 10
13.1945907414
 20
6.5576315314
 30
0.0
 10
13.2119088419
 20
6.5388831239
 30
0.0
 10
13.2278795563
 20
6.5189933729
 30
0.0
 10
13.2424151842
 20
6.4980714236
 30
0.0
 10
13.2554358765
 20
6.4762320803
 30
0.0
 10
13.2668700616
 20
6.4535951735
 30
0.0
 10
13.2766548436
 20
6.4302849267
 30
0.0
 10
13.2847363236
 20
6.4064292302
 30
0.0
 10
13.291069962
 20
6.3821591377
 30
0.0
 10
13.2956206682
 20
6.3576074623
 30
0.0
 10
13.2983633032
 20
6.3329107705
 30
0.0
 10
13.2989775833
 20
6.3163935988
 30
0.0
 10
13.2989775833
 20
6.308159016
 30
0.0
  0
SPLINE
  5
2FF
100
AcDbEntity
  8
0
100
AcDbSpline
 62
7
  6
CONTINUOUS
 70
0
 71
3
 72
103
 73
99
 74
0
 42
0.0000001
 43
0.0000001
 44
0.0000000001
 40
0.0
 40
0.0
 40
0.0
 40
0.0
 40
0.0027164048
 40
0.0054531862
 40
0.0082302278
 40
0.0110664952
 40
0.0139796738
 40
0.0169859521
 40
0.0200998844
 40
0.0233343666
 40
0.026700688
 40
0.0302086012
 40
0.033866481
 40
0.0376814028
 40
0.0416593405
 40
0.04580522
 40
0.050123109
 40
0.0546162515
 40
0.059287218
 40
0.0641379428
 40
0.0691698167
 40
0.0743837442
 40
0.0797801764
 40
0.0853591945
 40
0.0911204909
 40
0.097063473
 40
0.1031872122
 40
0.1094905507
 40
0.115972045
 40
0.1226300528
 40
0.129462696
 40
0.1364679111
 40
0.1436434462
 40
0.1509868675
 40
0.1584955951
 40
0.1661668689
 40
0.1739978144
 40
0.1819853836
 40
0.1901264332
 40
0.1984176611
 40
0.2154367725
 40
0.2330143466
 40
0.251120167
 40
0.2697225161
 40
0.2887883097
 40
0.3082832214
 40
0.3281718007
 40
0.3484175849
 40
0.3689832078
 40
0.3898305045
 40
0.4109206147
 40
0.4322140837
 40
0.4536709631
 40
0.4752509101
 40
0.4969132863
 40
0.5186172556
 40
0.5403218829
 40
0.561986231
 40
0.5835694595
 40
0.6050309218
 40
0.6263302644
 40
0.6474275243
 40
0.6682832297
 40
0.6888584996
 40
0.7091151451
 40
0.7290157726
 40
0.748523889
 40
0.7676040092
 40
0.7862217692
 40
0.8043440428
 40
0.8219390666
 40
0.8389765737
 40
0.8472773366
 40
0.8554281366
 40
0.8634256636
 40
0.8712667662
 40
0.8789483877
 40
0.8864676444
 40
0.8938217669
 40
0.9010081646
 40
0.9080243933
 40
0.9148681894
 40
0.9215374772
 40
0.9280303652
 40
0.9343451972
 40
0.940480514
 40
0.946435142
 40
0.9522081344
 40
0.9577988776
 40
0.9632070413
 40
0.9684326863
 40
0.9734762434
 40
0.9783385761
 40
0.9830210188
 40
0.9875254912
 40
0.9918546128
 40
0.9960115506
 40
1.0
 40
1.0
 40
1.0
 40
1.0
 10
13.8154485762
 20
7.7165593355
 30
0.0
 10
13.8132275886
 20
7.7167133621
 30
0.0
 10
13.8087803212
 20
7.7172235623
 30
0.0
 10
13.8021660556
 20
7.7185889721
 30
0.0
 10
13.7956017611
 20
7.7205540986
 30
0.0
 10
13.7890921475
 20
7.7231171664
 30
0.0
 10
13.7826405533
 20
7.7262758144
 30
0.0
 10
13.7762502999
 20
7.7300276124
 30
0.0
 10
13.7699243328
 20
7.7343698799
 30
0.0
 10
13.7636654439
 20
7.739299846
 30
0.0
 10
13.7574763802
 20
7.744814674
 30
0.0
 10
13.751359743
 20
7.7509112891
 30
0.0
 10
13.7453182929
 20
7.7575865859
 30
0.0
 10
13.7393546022
 20
7.7648370977
 30
0.0
 10
13.7334714902
 20
7.7726592905
 30
0.0
 10
13.7276715557
 20
7.7810492269
 30
0.0
 10
13.721957629
 20
7.7900028353
 30
0.0
 10
13.7163323452
 20
7.7995156642
 30
0.0
 10
13.7107984819
 20
7.8095830573
 30
0.0
 10
13.7053586981
 20
7.8202000284
 30
0.0
 10
13.7000156727
 20
7.8313613306
 30
0.0
 10
13.6947720649
 20
7.8430614346
 30
0.0
 10
13.689630433
 20
7.8552945173
 30
0.0
 10
13.684593405
 20
7.8680545056
 30
0.0
 10
13.6796634171
 20
7.881335022
 30
0.0
 10
13.6748430295
 20
7.8951294545
 30
0.0
 10
13.6701345689
 20
7.9094308938
 30
0.0
 10
13.6655404884
 20
7.9242321985
 30
0.0
 10
13.6610630235
 20
7.9395259482
 30
0.0
 10
13.6567044876
 20
7.9553044874
 30
0.0
 10
13.6524670365
 20
7.9715599015
 30
0.0
 10
13.6483528246
 20
7.9882840398
 30
0.0
 10
13.6443639285
 20
8.0054685095
 30
0.0
 10
13.6405023371
 20
8.0231046849
 30
0.0
 10
13.6367700385
 20
8.0411837108
 30
0.0
 10
13.6331688608
 20
8.0596965071
 30
0.0
 10
13.6297006846
 20
8.0786337747
 30
0.0
 10
13.6263671943
 20
8.0979859958
 30
0.0
 10
13.6231701228
 20
8.1177434591
 30
0.0
 10
13.6190556202
 20
8.1448495517
 30
0.0
 10
13.6142765209
 20
8.1796755775
 30
0.0
 10
13.6091586739
 20
8.2225674864
 30
0.0
 10
13.604619747
 20
8.2668290388
 30
0.0
 10
13.6006689534
 20
8.3123712121
 30
0.0
 10
13.5973143452
 20
8.3591025388
 30
0.0
 10
13.5945627541
 20
8.4069290942
 30
0.0
 10
13.5924197908
 20
8.4557547456
 30
0.0
 10
13.590889831
 20
8.5054813335
 30
0.0
 10
13.5899760091
 20
8.5560088762
 30
0.0
 10
13.5896802114
 20
8.6072357716
 30
0.0
 10
13.5900030739
 20
8.6590590035
 30
0.0
 10
13.59094398
 20
8.7113743505
 30
0.0
 10
13.5925010634
 20
8.7640765968
 30
0.0
 10
13.5946712121
 20
8.8170597457
 30
0.0
 10
13.5974500753
 20
8.8702172335
 30
0.0
 10
13.6008320722
 20
8.9234421447
 30
0.0
 10
13.6048104033
 20
8.9766274278
 30
0.0
 10
13.6093770645
 20
9.0296661115
 30
0.0
 10
13.6145228627
 20
9.0824515203
 30
0.0
 10
13.6202374347
 20
9.13487749
 30
0.0
 10
13.6265092679
 20
9.1868385821
 30
0.0
 10
13.6333257229
 20
9.2382302969
 30
0.0
 10
13.6406730588
 20
9.288949285
 30
0.0
 10
13.64853646
 20
9.3388935572
 30
0.0
 10
13.6569000661
 20
9.3879626905
 30
0.0
 10
13.665747004
 20
9.4360580329
 30
0.0
 10
13.675059421
 20
9.4830829019
 30
0.0
 10
13.6848185199
 20
9.5289427867
 30
0.0
 10
13.6950045979
 20
9.5735455256
 30
0.0
 10
13.7055970815
 20
9.6168015531
 30
0.0
 10
13.716574583
 20
9.65862388
 30
0.0
 10
13.7261055051
 20
9.6924981936
 30
0.0
 10
13.7339148373
 20
9.7188112702
 30
0.0
 10
13.7398033681
 20
9.7379649576
 30
0.0
 10
13.7457712657
 20
9.7566990626
 30
0.0
 10
13.7518154757
 20
9.7750041923
 30
0.0
 10
13.7579330179
 20
9.7928711385
 30
0.0
 10
13.7641207493
 20
9.8102909361
 30
0.0
 10
13.7703756068
 20
9.8272548298
 30
0.0
 10
13.7766944029
 20
9.8437543083
 30
0.0
 10
13.783073977
 20
9.8597810879
 30
0.0
 10
13.7895111177
 20
9.8753271272
 30
0.0
 10
13.796002566
 20
9.8903846351
 30
0.0
 10
13.8025450977
 20
9.904946054
 30
0.0
 10
13.8091353644
 20
9.9190041047
 30
0.0
 10
13.8157701303
 20
9.9325517299
 30
0.0
 10
13.8224459812
 20
9.9455821785
 30
0.0
 10
13.8291596598
 20
9.9580889108
 30
0.0
 10
13.8359077173
 20
9.9700657127
 30
0.0
 10
13.8426868589
 20
9.9815065888
 30
0.0
 10
13.849493652
 20
9.9924058727
 30
0.0
 10
13.8563247612
 20
10.0027581298
 30
0.0
 10
13.8631767714
 20
10.012558214
 30
0.0
 10
13.8700462874
 20
10.0218012883
 30
0.0
 10
13.8769300287
 20
10.0304827992
 30
0.0
 10
13.8838247284
 20
10.0385985804
 30
0.0
 10
13.8907268123
 20
10.046144239
 30
0.0
 10
13.8954265011
 20
10.0508887357
 30
0.0
 10
13.8977776506
 20
10.0531597718
 30
0.0
  0
SPLINE
  5
300
100
AcDbEntity
  8
0
100
AcDbSpline
 62
7
  6
CONTINUOUS
 70
0
 71
3
 72
88
 73
84
 74
0
 42
0.0000001
 43
0.0000001
 44
0.0000000001
 40
0.0
 40
0.0
 40
0.0
 40
0.0
 40
0.0036898845
 40
0.0075220065
 40
0.0114998302
 40
0.0156262559
 40
0.0199036486
 40
0.0243338601
 40
0.028918361
 40
0.0336582047
 40
0.0385540932
 40
0.0436064549
 40
0.0488153824
 40
0.0541807379
 40
0.0597021589
 40
0.0653790217
 40
0.0712105487
 40
0.0771957557
 40
0.0896221051
 40
0.1026473086
 40
0.1162580122
 40
0.1304388399
 40
0.1451726262
 40
0.1604406035
 40
0.1762225386
 40
0.1924968364
 40
0.2092406787
 40
0.2264301307
 40
0.2440402196
 40
0.2620450052
 40
0.2804176837
 40
0.2991306633
 40
0.3181556229
 40
0.3374635788
 40
0.3570249691
 40
0.3768097177
 40
0.3967872891
 40
0.4169267563
 40
0.4371968739
 40
0.4575661371
 40
0.4780028398
 40
0.4984751437
 40
0.5189511426
 40
0.5393989203
 40
0.5597866163
 40
0.5800824922
 40
0.6002549898
 40
0.6202727924
 40
0.6401048979
 40
0.6597206798
 40
0.6790899444
 40
0.6981829973
 40
0.7169707257
 40
0.7354246534
 40
0.7535170029
 40
0.7712207749
 40
0.7885098391
 40
0.8053589925
 40
0.821744037
 40
0.837641885
 40
0.8530306691
 40
0.8678898268
 40
0.88220022
 40
0.8959443025
 40
0.909106288
 40
0.9154647211
 40
0.9216726128
 40
0.9277285608
 40
0.9336313614
 40
0.9393799309
 40
0.9449733855
 40
0.9504110501
 40
0.9556924141
 40
0.9608172455
 40
0.9657855451
 40
0.9705975565
 40
0.9752538563
 40
0.9797553071
 40
0.9841031875
 40
0.9882992623
 40
0.9923456876
 40
0.9962449562
 40
1.0
 40
1.0
 40
1.0
 40
1.0
 10
13.7579441883
 20
8.1096237152
 30
0.0
 10
13.7566616087
 20
8.1112007199
 30
0.0
 10
13.7541134876
 20
8.114470075
 30
0.0
 10
13.7504096557
 20
8.1196113004
 30
0.0
 10
13.7467543623
 20
8.1250788796
 30
0.0
 10
13.7431491784
 20
8.1308704927
 30
0.0
 10
13.7395955405
 20
8.1369838164
 30
0.0
 10
13.7360948199
 20
8.1434163117
 30
0.0
 10
13.7326484998
 20
8.1501653793
 30
0.0
 10
13.7292579586
 20
8.157228237
 30
0.0
 10
13.7259245553
 20
8.1646019758
 30
0.0
 10
13.7226497262
 20
8.172283586
 30
0.0
 10
13.7194347609
 20
8.1802698819
 30
0.0
 10
13.7162810044
 20
8.1885575762
 30
0.0
 10
13.7131897958
 20
8.1971432573
 30
0.0
 10
13.7101623615
 20
8.2060233582
 30
0.0
 10
13.7071999848
 20
8.2151942303
 30
0.0
 10
13.7032896288
 20
8.2279646684
 30
0.0
 10
13.6985845528
 20
8.2446340272
 30
0.0
 10
13.6932851686
 20
8.2654925419
 30
0.0
 10
13.6882731301
 20
8.2874144279
 30
0.0
 10
13.6835568156
 20
8.3103633286
 30
0.0
 10
13.6791441318
 20
8.3343013323
 30
0.0
 10
13.675042489
 20
8.3591887984
 30
0.0
 10
13.6712587879
 20
8.3849844929
 30
0.0
 10
13.6677993645
 20
8.4116456316
 30
0.0
 10
13.6646700225
 20
8.439127974
 30
0.0
 10
13.6618760225
 20
8.4673859089
 30
0.0
 10
13.6594220666
 20
8.4963725201
 30
0.0
 10
13.6573122602
 20
8.5260396626
 30
0.0
 10
13.6555501454
 20
8.5563380543
 30
0.0
 10
13.6541386932
 20
8.5872173635
 30
0.0
 10
13.6530802851
 20
8.6186262839
 30
0.0
 10
13.6523766916
 20
8.65051262
 30
0.0
 10
13.6520291033
 20
8.6828233819
 30
0.0
 10
13.6520381279
 20
8.7155048743
 30
0.0
 10
13.6524037678
 20
8.7485027804
 30
0.0
 10
13.6531254162
 20
8.7817622541
 30
0.0
 10
13.6542018845
 20
8.8152280148
 30
0.0
 10
13.6556314041
 20
8.8488444384
 30
0.0
 10
13.6574116015
 20
8.8825556485
 30
0.0
 10
13.6595395113
 20
8.9163056112
 30
0.0
 10
13.6620115994
 20
8.9500382277
 30
0.0
 10
13.6648237692
 20
8.9836974273
 30
0.0
 10
13.6679713359
 20
9.0172272631
 30
0.0
 10
13.6714490551
 20
9.0505720052
 30
0.0
 10
13.6752511415
 20
9.0836762298
 30
0.0
 10
13.679371279
 20
9.1164849126
 30
0.0
 10
13.6838025964
 20
9.1489435269
 30
0.0
 10
13.6885377085
 20
9.1809981309
 30
0.0
 10
13.6935687322
 20
9.2125954515
 30
0.0
 10
13.6988872975
 20
9.2436829784
 30
0.0
 10
13.7044845283
 20
9.27420906
 30
0.0
 10
13.7103510925
 20
9.304122982
 30
0.0
 10
13.7164772171
 20
9.3333750452
 30
0.0
 10
13.7228526967
 20
9.3619166592
 30
0.0
 10
13.729466885
 20
9.3897004329
 30
0.0
 10
13.7363087473
 20
9.4166802416
 30
0.0
 10
13.7433668789
 20
9.4428112996
 30
0.0
 10
13.7506295078
 20
9.4680502517
 30
0.0
 10
13.7580845004
 20
9.4923552602
 30
0.0
 10
13.765719414
 20
9.5156860426
 30
0.0
 10
13.7735215234
 20
9.5380040019
 30
0.0
 10
13.7814778094
 20
9.5592721041
 30
0.0
 10
13.788301601
 20
9.5762815218
 30
0.0
 10
13.7938351572
 20
9.5893305551
 30
0.0
 10
13.7979678183
 20
9.5987205262
 30
0.0
 10
13.8021290667
 20
9.6078225886
 30
0.0
 10
13.8063171382
 20
9.6166330012
 30
0.0
 10
13.8105303296
 20
9.6251481011
 30
0.0
 10
13.8147668942
 20
9.6333643648
 30
0.0
 10
13.8190250322
 20
9.6412784127
 30
0.0
 10
13.8233030405
 20
9.6488869517
 30
0.0
 10
13.8275991153
 20
9.6561868627
 30
0.0
 10
13.8319114804
 20
9.6631751457
 30
0.0
 10
13.836238411
 20
9.6698488891
 30
0.0
 10
13.8405780498
 20
9.6762053723
 30
0.0
 10
13.8449286443
 20
9.6822419669
 30
0.0
 10
13.8492884738
 20
9.6879562143
 30
0.0
 10
13.853655773
 20
9.6933458576
 30
0.0
 10
13.8580288775
 20
9.698408652
 30
0.0
 10
13.8624057435
 20
9.7031423194
 30
0.0
 10
13.865380159
 20
9.7061328796
 30
0.0
 10
13.8668680208
 20
9.7075700439
 30
0.0
  0
SPLINE
  5
301
100
AcDbEntity
  8
0
100
AcDbSpline
 62
7
  6
CONTINUOUS
 70
0
 71
3
 72
11
 73
7
 74
0
 42
0.0000001
 43
0.0000001
 44
0.0000000001
 40
0.0
 40
0.0
 40
0.0
 40
0.0
 40
0.2475453776
 40
0.4960803131
 40
0.7465812318
 40
1.0
 40
1.0
 40
1.0
 40
1.0
 10
13.7377059009
 20
8.1630076086
 30
0.0
 10
13.7366859557
 20
8.1630783361
 30
0.0
 10
13.7346460122
 20
8.1632871116
 30
0.0
 10
13.7316035076
 20
8.163800783
 30
0.0
 10
13.7285768285
 20
8.1645149021
 30
0.0
 10
13.7265839151
 20
8.165120304
 30
0.0
 10
13.7255922078
 20
8.1654549652
 30
0.0
  0
SPLINE
  5
302
100
AcDbEntity
  8
0
100
AcDbSpline
 62
7
  6
CONTINUOUS
 70
0
 71
3
 72
11
 73
7
 74
0
 42
0.0000001
 43
0.0000001
 44
0.0000000001
 40
0.0
 40
0.0
 40
0.0
 40
0.0
 40
0.2475307753
 40
0.4960568295
 40
0.7465606203
 40
1.0
 40
1.0
 40
1.0
 40
1.0
 10
13.8414819994
 20
9.6594134625
 30
0.0
 10
13.8404589403
 20
9.6594844059
 30
0.0
 10
13.8384034086
 20
9.6595592239
 30
0.0
 10
13.8353096246
 20
9.6594692882
 30
0.0
 10
13.8322037767
 20
9.6591773825
 30
0.0
 10
13.8301400891
 20
9.6588504327
 30
0.0
 10
13.8291085428
 20
9.6586544686
 30
0.0
  0
SPLINE
  5
303
100
AcDbEntity
  8
0
100
AcDbSpline
 62
7
  6
CONTINUOUS
 70
0
 71
3
 72
43
 73
39
 74
0
 42
0.0000001
 43
0.0000001
 44
0.0000000001
 40
0.0
 40
0.0
 40
0.0
 40
0.0
 40
0.0149723098
 40
0.0299476795
 40
0.0449291474
 40
0.05991972
 40
0.0749223413
 40
0.0899398895
 40
0.1049751458
 40
0.1200307886
 40
0.1502075383
 40
0.1804946787
 40
0.2109083087
 40
0.2414615673
 40
0.2721643694
 40
0.303023226
 40
0.3340411482
 40
0.3652176339
 40
0.3965487319
 40
0.4280271774
 40
0.4596425917
 40
0.4913817403
 40
0.5232288393
 40
0.555165905
 40
0.5871731364
 40
0.6192293252
 40
0.6513122868
 40
0.6833993039
 40
0.7154675788
 40
0.7474946857
 40
0.7794590188
 40
0.8113402295
 40
0.8431196416
 40
0.8747806564
 40
0.906309065
 40
0.9376935582
 40
0.9689254026
 40
1.0
 40
1.0
 40
1.0
 40
1.0
 10
13.2056919547
 20
6.0837790987
 30
0.0
 10
13.2028382602
 20
6.0810226406
 30
0.0
 10
13.1970200522
 20
6.0756219823
 30
0.0
 10
13.1879766925
 20
6.0678734089
 30
0.0
 10
13.1786288837
 20
6.0604868633
 30
0.0
 10
13.1689895901
 20
6.0534727848
 30
0.0
 10
13.1590720632
 20
6.0468407097
 30
0.0
 10
13.1488900141
 20
6.0405998072
 30
0.0
 10
13.1384572097
 20
6.0347586153
 30
0.0
 10
13.1242229355
 20
6.0275093063
 30
0.0
 10
13.1058657718
 20
6.0194844666
 30
0.0
 10
13.0830931376
 20
6.0115794839
 30
0.0
 10
13.0596806602
 20
6.005432943
 30
0.0
 10
13.0357581872
 20
6.0010788619
 30
0.0
 10
13.0114571997
 20
5.998540765
 30
0.0
 10
12.9869114833
 20
5.9978323306
 30
0.0
 10
12.962256016
 20
5.9989571286
 30
0.0
 10
12.9376263314
 20
6.0019086726
 30
0.0
 10
12.9131577534
 20
6.0066704548
 30
0.0
 10
12.8889846699
 20
6.013216052
 30
0.0
 10
12.8652398013
 20
6.0215092757
 30
0.0
 10
12.8420534805
 20
6.0315043721
 30
0.0
 10
12.8195529497
 20
6.0431462851
 30
0.0
 10
12.797861671
 20
6.0563709588
 30
0.0
 10
12.7770986593
 20
6.0711056889
 30
0.0
 10
12.757377837
 20
6.0872695198
 30
0.0
 10
12.7388074173
 20
6.1047736856
 30
0.0
 10
12.7214893167
 20
6.1235220932
 30
0.0
 10
12.7055186024
 20
6.1434118441
 30
0.0
 10
12.6909829745
 20
6.1643337934
 30
0.0
 10
12.6779622822
 20
6.1861731367
 30
0.0
 10
12.6665280971
 20
6.2088100435
 30
0.0
 10
12.6567433151
 20
6.2321202904
 30
0.0
 10
12.648661835
 20
6.2559759868
 30
0.0
 10
12.6423281967
 20
6.2802460793
 30
0.0
 10
12.6377774905
 20
6.3047977547
 30
0.0
 10
12.6350348555
 20
6.3294944465
 30
0.0
 10
12.6344205754
 20
6.3460116183
 30
0.0
 10
12.6344205754
 20
6.354246201
 30
0.0
  0
SPLINE
  5
304
100
AcDbEntity
  8
0
100
AcDbSpline
 62
7
  6
CONTINUOUS
 70
0
 71
3
 72
23
 73
19
 74
0
 42
0.0000001
 43
0.0000001
 44
0.0000000001
 40
0.0
 40
0.0
 40
0.0
 40
0.0
 40
0.0637764154
 40
0.1273451281
 40
0.190701988
 40
0.253856063
 40
0.3168132283
 40
0.3795820791
 40
0.4421733864
 40
0.5045993414
 40
0.5668738629
 40
0.629012379
 40
0.6910316532
 40
0.7529496461
 40
0.8147853522
 40
0.8765586034
 40
0.9382898574
 40
1.0
 40
1.0
 40
1.0
 40
1.0
 10
12.6344205754
 20
6.354246201
 30
0.0
 10
12.6344205754
 20
6.3595536341
 30
0.0
 10
12.6346746389
 20
6.3701530131
 30
0.0
 10
12.635821202
 20
6.3859875775
 30
0.0
 10
12.6377303032
 20
6.4016966672
 30
0.0
 10
12.6403973434
 20
6.417243296
 30
0.0
 10
12.6438163524
 20
6.4325919951
 30
0.0
 10
12.6479794207
 20
6.4477072822
 30
0.0
 10
12.6528769721
 20
6.4625543238
 30
0.0
 10
12.6584978201
 20
6.4770988672
 30
0.0
 10
12.6648289844
 20
6.4913073791
 30
0.0
 10
12.671855875
 20
6.5051471007
 30
0.0
 10
12.679562347
 20
6.5185860876
 30
0.0
 10
12.6879306698
 20
6.5315933304
 30
0.0
 10
12.6969414856
 20
6.5441388225
 30
0.0
 10
12.7065741333
 20
6.5561937207
 30
0.0
 10
12.7168060633
 20
6.5677298015
 30
0.0
 10
12.7240124875
 20
6.5750582611
 30
0.0
 10
12.727706204
 20
6.5786261183
 30
0.0
  0
SPLINE
  5
305
100
AcDbEntity
  8
0
100
AcDbSpline
 62
7
  6
CONTINUOUS
 70
0
 71
3
 72
99
 73
95
 74
0
 42
0.0000001
 43
0.0000001
 44
0.0000000001
 40
0.0
 40
0.0
 40
0.0
 40
0.0
 40
0.0039396717
 40
0.0080427577
 40
0.0123127901
 40
0.0167527978
 40
0.0213653122
 40
0.0261522286
 40
0.0311148576
 40
0.0362540809
 40
0.0415703495
 40
0.0470637864
 40
0.0527341298
 40
0.0585808474
 40
0.0646031033
 40
0.0707998184
 40
0.077169681
 40
0.083711143
 40
0.0904224844
 40
0.097301758
 40
0.1043468815
 40
0.1115555686
 40
0.1189254075
 40
0.1264538208
 40
0.1341380972
 40
0.1419754025
 40
0.1580968978
 40
0.1747933874
 40
0.1920380082
 40
0.2098023235
 40
0.2280564603
 40
0.2467692355
 40
0.2659082716
 40
0.2854401072
 40
0.3053303028
 40
0.3255435403
 40
0.3460437215
 40
0.3667940623
 40
0.3877571867
 40
0.4088952193
 40
0.4301698759
 40
0.4515425552
 40
0.4729744292
 40
0.4944265339
 40
0.5158598586
 40
0.5372354358
 40
0.5585144311
 40
0.5796582335
 40
0.6006285452
 40
0.6213874733
 40
0.6418976216
 40
0.6621221825
 40
0.6820250305
 40
0.7015708173
 40
0.7207250689
 40
0.7394542863
 40
0.7577260495
 40
0.7755091278
 40
0.7927735971
 40
0.809490965
 40
0.8256343076
 40
0.8411784237
 40
0.84871853
 40
0.8561002519
 40
0.8633210154
 40
0.8703783841
 40
0.8772700712
 40
0.883993974
 40
0.890548134
 40
0.8969308202
 40
0.9031404604
 40
0.9091757384
 40
0.9150355419
 40
0.9207190305
 40
0.9262256385
 40
0.9315550909
 40
0.9367074734
 40
0.9416832038
 40
0.9464831527
 40
0.9511086054
 40
0.9555613949
 40
0.9598439043
 40
0.9639591751
 40
0.9679109834
 40
0.9717039123
 40
0.9753435031
 40
0.9788363068
 40
0.9821900759
 40
0.9854138182
 40
0.9885179671
 40
0.9915144351
 40
0.9944166852
 40
0.9972397241
 40
1.0
 40
1.0
 40
1.0
 40
1.0
 10
13.8668680208
 20
7.7563997592
 30
0.0
 10
13.8691757103
 20
7.7586288162
 30
0.0
 10
13.8737886358
 20
7.7632819397
 30
0.0
 10
13.8805659397
 20
7.7706753425
 30
0.0
 10
13.8873362743
 20
7.7786185783
 30
0.0
 10
13.8940962173
 20
7.7871074921
 30
0.0
 10
13.9008426946
 20
7.7961381352
 30
0.0
 10
13.9075725725
 20
7.8057062437
 30
0.0
 10
13.9142826913
 20
7.8158072429
 30
0.0
 10
13.9209697561
 20
7.826436316
 30
0.0
 10
13.9276306558
 20
7.8375883252
 30
0.0
 10
13.9342621024
 20
7.8492579624
 30
0.0
 10
13.9408609928
 20
7.8614395871
 30
0.0
 10
13.9474240701
 20
7.8741273626
 30
0.0
 10
13.9539482065
 20
7.8873151595
 30
0.0
 10
13.9604302329
 20
7.9009966241
 30
0.0
 10
13.9668669929
 20
7.9151651574
 30
0.0
 10
13.9732554129
 20
7.9298139065
 30
0.0
 10
13.9795923289
 20
7.9449358077
 30
0.0
 10
13.9858747451
 20
7.9605235329
 30
0.0
 10
13.992099535
 20
7.976569559
 30
0.0
 10
13.9982637459
 20
7.993066108
 30
0.0
 10
14.0043643374
 20
8.0100052055
 30
0.0
 10
14.0103983684
 20
8.0273786422
 30
0.0
 10
14.0163629302
 20
8.0451780189
 30
0.0
 10
14.0242937013
 20
8.0696976651
 30
0.0
 10
14.0340007843
 20
8.1013545918
 30
0.0
 10
14.0452201039
 20
8.1405534744
 30
0.0
 10
14.0560951078
 20
8.1812356746
 30
0.0
 10
14.0666046151
 20
8.2233223369
 30
0.0
 10
14.0767281585
 20
8.2667320239
 30
0.0
 10
14.0864460268
 20
8.3113806547
 30
0.0
 10
14.0957393058
 20
8.3571817361
 30
0.0
 10
14.1045899117
 20
8.4040465173
 30
0.0
 10
14.1129806264
 20
8.4518841725
 30
0.0
 10
14.1208951303
 20
8.500601978
 30
0.0
 10
14.1283180331
 20
8.5501054944
 30
0.0
 10
14.1352349041
 20
8.6002987511
 30
0.0
 10
14.1416322988
 20
8.6510844337
 30
0.0
 10
14.1474977853
 20
8.7023640735
 30
0.0
 10
14.1528199689
 20
8.7540382391
 30
0.0
 10
14.1575885156
 20
8.8060067304
 30
0.0
 10
14.1617941693
 20
8.8581687749
 30
0.0
 10
14.1654287701
 20
8.9104232236
 30
0.0
 10
14.1684852702
 20
8.9626687483
 30
0.0
 10
14.1709577473
 20
9.0148040378
 30
0.0
 10
14.1728414163
 20
9.0667279953
 30
0.0
 10
14.174132639
 20
9.1183399345
 30
0.0
 10
14.1748289306
 20
9.1695397763
 30
0.0
 10
14.174928968
 20
9.2202282443
 30
0.0
 10
14.1744325911
 20
9.2703070587
 30
0.0
 10
14.1733408024
 20
9.3196791279
 30
0.0
 10
14.1716557656
 20
9.3682487377
 30
0.0
 10
14.1693808024
 20
9.4159217381
 30
0.0
 10
14.1665203865
 20
9.4626057278
 30
0.0
 10
14.1630801356
 20
9.5082102362
 30
0.0
 10
14.1590668013
 20
9.5526469001
 30
0.0
 10
14.1544882578
 20
9.5958296473
 30
0.0
 10
14.1493534874
 20
9.6376748484
 30
0.0
 10
14.1436725704
 20
9.6781015578
 30
0.0
 10
14.1374566291
 20
9.7170314225
 30
0.0
 10
14.131785144
 20
9.748473305
 30
0.0
 10
14.1269782269
 20
9.7728149519
 30
0.0
 10
14.1232835277
 20
9.7904656221
 30
0.0
 10
14.1194646364
 20
9.8076873778
 30
0.0
 10
14.1155233891
 20
9.8244718997
 30
0.0
 10
14.1114616789
 20
9.8408110584
 30
0.0
 10
14.107281532
 20
9.8566969545
 30
0.0
 10
14.1029849062
 20
9.8721218991
 30
0.0
 10
14.0985739716
 20
9.8870784449
 30
0.0
 10
14.0940507862
 20
9.9015593578
 30
0.0
 10
14.0894176138
 20
9.9155576559
 30
0.0
 10
14.0846766514
 20
9.9290665815
 30
0.0
 10
14.0798302104
 20
9.9420796262
 30
0.0
 10
14.0748806477
 20
9.9545905312
 30
0.0
 10
14.069830299
 20
9.9665932693
 30
0.0
 10
14.0646816699
 20
9.9780821003
 30
0.0
 10
14.0594371273
 20
9.9890514903
 30
0.0
 10
14.0540992764
 20
9.9994962268
 30
0.0
 10
14.0486705492
 20
10.0094112916
 30
0.0
 10
14.0431535755
 20
10.0187919903
 30
0.0
 10
14.0375508836
 20
10.0276338475
 30
0.0
 10
14.0318650599
 20
10.0359326629
 30
0.0
 10
14.026098727
 20
10.0436845188
 30
0.0
 10
14.0202543905
 20
10.0508856727
 30
0.0
 10
14.0143347231
 20
10.0575327413
 30
0.0
 10
14.0083421601
 20
10.063622396
 30
0.0
 10
14.0022793578
 20
10.0691516936
 30
0.0
 10
13.996148762
 20
10.0741176692
 30
0.0
 10
13.9899529921
 20
10.078517657
 30
0.0
 10
13.9836947055
 20
10.082348995
 30
0.0
 10
13.9773764918
 20
10.0856091946
 30
0.0
 10
13.9710020142
 20
10.0882957816
 30
0.0
 10
13.9666759973
 20
10.0897162602
 30
0.0
 10
13.9645122071
 20
10.0903256076
 30
0.0
  0
SPLINE
  5
306
100
AcDbEntity
  8
0
100
AcDbSpline
 62
7
  6
CONTINUOUS
 70
0
 71
3
 72
17
 73
13
 74
0
 42
0.0000001
 43
0.0000001
 44
0.0000000001
 40
0.0
 40
0.0
 40
0.0
 40
0.0
 40
0.1467815369
 40
0.2862497943
 40
0.4188145353
 40
0.5449947568
 40
0.6654110133
 40
0.7807914455
 40
0.8368681915
 40
0.8920122925
 40
0.9463465425
 40
1.0
 40
1.0
 40
1.0
 40
1.0
 10
13.8668680208
 20
7.7563997592
 30
0.0
 10
13.8641351723
 20
7.7537600301
 30
0.0
 10
13.8586721907
 20
7.7487473966
 30
0.0
 10
13.8502656973
 20
7.741891187
 30
0.0
 10
13.8418673466
 20
7.7359005558
 30
0.0
 10
13.833482685
 20
7.7307808227
 30
0.0
 10
13.8251173477
 20
7.7265369069
 30
0.0
 10
13.8180996732
 20
7.7237073184
 30
0.0
 10
13.8125162611
 20
7.7219031487
 30
0.0
 10
13.8083776678
 20
7.7207836545
 30
0.0
 10
13.8042497498
 20
7.7198855234
 30
0.0
 10
13.8014899308
 20
7.7194319562
 30
0.0
 10
13.8001139867
 20
7.7192429688
 30
0.0
  0
SPLINE
  5
307
100
AcDbEntity
  8
0
100
AcDbSpline
 62
7
  6
CONTINUOUS
 70
0
 71
3
 72
103
 73
99
 74
0
 42
0.0000001
 43
0.0000001
 44
0.0000000001
 40
0.0
 40
0.0
 40
0.0
 40
0.0
 40
0.0027164048
 40
0.0054531862
 40
0.0082302278
 40
0.0110664952
 40
0.0139796738
 40
0.0169859521
 40
0.0200998844
 40
0.0233343666
 40
0.026700688
 40
0.0302086012
 40
0.033866481
 40
0.0376814028
 40
0.0416593405
 40
0.04580522
 40
0.050123109
 40
0.0546162515
 40
0.059287218
 40
0.0641379428
 40
0.0691698167
 40
0.0743837442
 40
0.0797801764
 40
0.0853591945
 40
0.0911204909
 40
0.097063473
 40
0.1031872122
 40
0.1094905507
 40
0.115972045
 40
0.1226300528
 40
0.129462696
 40
0.1364679111
 40
0.1436434462
 40
0.1509868675
 40
0.1584955951
 40
0.1661668689
 40
0.1739978144
 40
0.1819853836
 40
0.1901264332
 40
0.1984176611
 40
0.2154367725
 40
0.2330143466
 40
0.251120167
 40
0.2697225161
 40
0.2887883097
 40
0.3082832214
 40
0.3281718007
 40
0.3484175849
 40
0.3689832078
 40
0.3898305045
 40
0.4109206147
 40
0.4322140837
 40
0.4536709631
 40
0.4752509101
 40
0.4969132863
 40
0.5186172556
 40
0.5403218829
 40
0.561986231
 40
0.5835694595
 40
0.6050309218
 40
0.6263302644
 40
0.6474275243
 40
0.6682832297
 40
0.6888584996
 40
0.7091151451
 40
0.7290157726
 40
0.748523889
 40
0.7676040092
 40
0.7862217692
 40
0.8043440428
 40
0.8219390666
 40
0.8389765737
 40
0.8472773366
 40
0.8554281366
 40
0.8634256636
 40
0.8712667662
 40
0.8789483877
 40
0.8864676444
 40
0.8938217669
 40
0.9010081646
 40
0.9080243933
 40
0.9148681894
 40
0.9215374772
 40
0.9280303652
 40
0.9343451972
 40
0.940480514
 40
0.946435142
 40
0.9522081344
 40
0.9577988776
 40
0.9632070413
 40
0.9684326863
 40
0.9734762434
 40
0.9783385761
 40
0.9830210188
 40
0.9875254912
 40
0.9918546128
 40
0.9960115506
 40
1.0
 40
1.0
 40
1.0
 40
1.0
 10
13.9801067249
 20
10.0908566054
 30
0.0
 10
13.9823277126
 20
10.0907025788
 30
0.0
 10
13.9867749799
 20
10.0901923786
 30
0.0
 10
13.9933892455
 20
10.0888269688
 30
0.0
 10
13.99995354
 20
10.0868618423
 30
0.0
 10
14.0064631537
 20
10.0842987745
 30
0.0
 10
14.0129147478
 20
10.0811401265
 30
0.0
 10
14.0193050012
 20
10.0773883285
 30
0.0
 10
14.0256309683
 20
10.073046061
 30
0.0
 10
14.0318898572
 20
10.0681160949
 30
0.0
 10
14.038078921
 20
10.0626012669
 30
0.0
 10
14.0441955581
 20
10.0565046518
 30
0.0
 10
14.0502370082
 20
10.049829355
 30
0.0
 10
14.0562006989
 20
10.0425788432
 30
0.0
 10
14.0620838109
 20
10.0347566504
 30
0.0
 10
14.0678837455
 20
10.026366714
 30
0.0
 10
14.0735976721
 20
10.0174131056
 30
0.0
 10
14.0792229559
 20
10.0079002767
 30
0.0
 10
14.0847568192
 20
9.9978328836
 30
0.0
 10
14.090196603
 20
9.9872159125
 30
0.0
 10
14.0955396284
 20
9.9760546103
 30
0.0
 10
14.1007832363
 20
9.9643545063
 30
0.0
 10
14.1059248682
 20
9.9521214236
 30
0.0
 10
14.1109618962
 20
9.9393614353
 30
0.0
 10
14.115891884
 20
9.9260809189
 30
0.0
 10
14.1207122716
 20
9.9122864864
 30
0.0
 10
14.1254207323
 20
9.8979850471
 30
0.0
 10
14.1300148127
 20
9.8831837424
 30
0.0
 10
14.1344922777
 20
9.8678899927
 30
0.0
 10
14.1388508135
 20
9.8521114535
 30
0.0
 10
14.1430882646
 20
9.8358560394
 30
0.0
 10
14.1472024765
 20
9.8191319011
 30
0.0
 10
14.1511913727
 20
9.8019474314
 30
0.0
 10
14.155052964
 20
9.784311256
 30
0.0
 10
14.1587852626
 20
9.7662322301
 30
0.0
 10
14.1623864403
 20
9.7477194338
 30
0.0
 10
14.1658546166
 20
9.7287821662
 30
0.0
 10
14.1691881069
 20
9.7094299452
 30
0.0
 10
14.1723851783
 20
9.6896724818
 30
0.0
 10
14.1764996809
 20
9.6625663892
 30
0.0
 10
14.1812787802
 20
9.6277403634
 30
0.0
 10
14.1863966273
 20
9.5848484545
 30
0.0
 10
14.1909355541
 20
9.5405869021
 30
0.0
 10
14.1948863477
 20
9.4950447288
 30
0.0
 10
14.1982409559
 20
9.4483134021
 30
0.0
 10
14.200992547
 20
9.4004868467
 30
0.0
 10
14.2031355104
 20
9.3516611953
 30
0.0
 10
14.2046654701
 20
9.3019346074
 30
0.0
 10
14.205579292
 20
9.2514070647
 30
0.0
 10
14.2058750897
 20
9.2001801693
 30
0.0
 10
14.2055522272
 20
9.1483569374
 30
0.0
 10
14.2046113211
 20
9.0960415904
 30
0.0
 10
14.2030542377
 20
9.0433393441
 30
0.0
 10
14.200884089
 20
8.9903561952
 30
0.0
 10
14.1981052258
 20
8.9371987074
 30
0.0
 10
14.1947232289
 20
8.8839737962
 30
0.0
 10
14.1907448978
 20
8.8307885131
 30
0.0
 10
14.1861782367
 20
8.7777498294
 30
0.0
 10
14.1810324385
 20
8.7249644206
 30
0.0
 10
14.1753178664
 20
8.6725384509
 30
0.0
 10
14.1690460333
 20
8.6205773588
 30
0.0
 10
14.1622295783
 20
8.569185644
 30
0.0
 10
14.1548822423
 20
8.5184666559
 30
0.0
 10
14.1470188411
 20
8.4685223837
 30
0.0
 10
14.138655235
 20
8.4194532504
 30
0.0
 10
14.1298082971
 20
8.371357908
 30
0.0
 10
14.1204958802
 20
8.324333039
 30
0.0
 10
14.1107367813
 20
8.2784731542
 30
0.0
 10
14.1005507032
 20
8.2338704153
 30
0.0
 10
14.0899582197
 20
8.1906143878
 30
0.0
 10
14.0789807182
 20
8.1487920609
 30
0.0
 10
14.069449796
 20
8.1149177473
 30
0.0
 10
14.0616404638
 20
8.0886046707
 30
0.0
 10
14.055751933
 20
8.0694509833
 30
0.0
 10
14.0497840354
 20
8.0507168783
 30
0.0
 10
14.0437398254
 20
8.0324117486
 30
0.0
 10
14.0376222833
 20
8.0145448024
 30
0.0
 10
14.0314345518
 20
7.9971250048
 30
0.0
 10
14.0251796943
 20
7.9801611111
 30
0.0
 10
14.0188608982
 20
7.9636616326
 30
0.0
 10
14.0124813241
 20
7.947634853
 30
0.0
 10
14.0060441834
 20
7.9320888137
 30
0.0
 10
13.9995527351
 20
7.9170313058
 30
0.0
 10
13.9930102034
 20
7.9024698869
 30
0.0
 10
13.9864199367
 20
7.8884118362
 30
0.0
 10
13.9797851708
 20
7.874864211
 30
0.0
 10
13.9731093199
 20
7.8618337624
 30
0.0
 10
13.9663956413
 20
7.8493270301
 30
0.0
 10
13.9596475838
 20
7.8373502282
 30
0.0
 10
13.9528684422
 20
7.8259093521
 30
0.0
 10
13.9460616491
 20
7.8150100682
 30
0.0
 10
13.9392305399
 20
7.8046578111
 30
0.0
 10
13.9323785298
 20
7.7948577269
 30
0.0
 10
13.9255090138
 20
7.7856146526
 30
0.0
 10
13.9186252724
 20
7.7769331417
 30
0.0
 10
13.9117305727
 20
7.7688173605
 30
0.0
 10
13.9048284888
 20
7.7612717019
 30
0.0
 10
13.9001288
 20
7.7565272052
 30
0.0
 10
13.8977776506
 20
7.7542561691
 30
0.0
  0
SPLINE
  5
308
100
AcDbEntity
  8
0
100
AcDbSpline
 62
7
  6
CONTINUOUS
 70
0
 71
3
 72
33
 73
29
 74
0
 42
0.0000001
 43
0.0000001
 44
0.0000000001
 40
0.0
 40
0.0
 40
0.0
 40
0.0
 40
0.0755798236
 40
0.1466049764
 40
0.2134145337
 40
0.2764488287
 40
0.3362471755
 40
0.3651422692
 40
0.3934791755
 40
0.4213545407
 40
0.448870314
 40
0.4761329752
 40
0.5032522231
 40
0.5303396277
 40
0.5575072292
 40
0.5848659561
 40
0.6125242568
 40
0.6405868422
 40
0.6691534066
 40
0.6983179827
 40
0.7281684592
 40
0.7902247322
 40
0.8225925536
 40
0.8559307029
 40
0.8902940028
 40
0.9257316729
 40
0.9622875374
 40
1.0
 40
1.0
 40
1.0
 40
1.0
 10
13.8668680208
 20
8.1041330772
 30
0.0
 10
13.8645611819
 20
8.1019048418
 30
0.0
 10
13.8599506397
 20
8.0977195637
 30
0.0
 10
13.8528153812
 20
8.0921283954
 30
0.0
 10
13.8456883729
 20
8.0874325263
 30
0.0
 10
13.8385768492
 20
8.0836393067
 30
0.0
 10
13.8325993844
 20
8.0812083708
 30
0.0
 10
13.8278517406
 20
8.0797427328
 30
0.0
 10
13.8243412938
 20
8.0788844106
 30
0.0
 10
13.8208420811
 20
8.0782550619
 30
0.0
 10
13.8173550664
 20
8.0778550143
 30
0.0
 10
13.8138813871
 20
8.0776844615
 30
0.0
 10
13.8104221625
 20
8.0777434739
 30
0.0
 10
13.8069785343
 20
8.078032121
 30
0.0
 10
13.8035516492
 20
8.0785503138
 30
0.0
 10
13.8001426148
 20
8.0792977689
 30
0.0
 10
13.7967525176
 20
8.0802741979
 30
0.0
 10
13.7933824158
 20
8.0814792562
 30
0.0
 10
13.7900333131
 20
8.0829123713
 30
0.0
 10
13.7867060502
 20
8.0845730673
 30
0.0
 10
13.7822430662
 20
8.0871225809
 30
0.0
 10
13.7778819591
 20
8.0901069682
 30
0.0
 10
13.773634633
 20
8.0934785537
 30
0.0
 10
13.7704301485
 20
8.0962672465
 30
0.0
 10
13.7672528692
 20
8.0992791112
 30
0.0
 10
13.7641033969
 20
8.102513477
 30
0.0
 10
13.7609826711
 20
8.1059693716
 30
0.0
 10
13.7589539531
 20
8.1083821518
 30
0.0
 10
13.7579441883
 20
8.1096237152
 30
0.0
  0
SPLINE
  5
309
100
AcDbEntity
  8
0
100
AcDbSpline
 62
7
  6
CONTINUOUS
 70
0
 71
3
 72
18
 73
14
 74
0
 42
0.0000001
 43
0.0000001
 44
0.0000000001
 40
0.0
 40
0.0
 40
0.0
 40
0.0
 40
0.1504662099
 40
0.2917102953
 40
0.4244365401
 40
0.5495623526
 40
0.6682140183
 40
0.7255497764
 40
0.7817912551
 40
0.8371402549
 40
0.8918093422
 40
0.9460200528
 40
1.0
 40
1.0
 40
1.0
 40
1.0
 10
13.7895939501
 20
8.1867661229
 30
0.0
 10
13.7874736376
 20
8.1847180582
 30
0.0
 10
13.7832359663
 20
8.1808753374
 30
0.0
 10
13.7766739993
 20
8.1757542148
 30
0.0
 10
13.7701197021
 20
8.1714711864
 30
0.0
 10
13.7635799148
 20
8.1680333019
 30
0.0
 10
13.7580833218
 20
8.1658532649
 30
0.0
 10
13.753719248
 20
8.1645580478
 30
0.0
 10
13.7504926771
 20
8.1638115327
 30
0.0
 10
13.7472768252
 20
8.1632794194
 30
0.0
 10
13.7440725696
 20
8.1629620116
 30
0.0
 10
13.7408811967
 20
8.1628594602
 30
0.0
 10
13.7387609412
 20
8.1629344475
 30
0.0
 10
13.7377059009
 20
8.1630076086
 30
0.0
  0
SPLINE
  5
30A
100
AcDbEntity
  8
0
100
AcDbSpline
 62
7
  6
CONTINUOUS
 70
0
 71
3
 72
23
 73
19
 74
0
 42
0.0000001
 43
0.0000001
 44
0.0000000001
 40
0.0
 40
0.0
 40
0.0
 40
0.0
 40
0.0764219057
 40
0.1504656864
 40
0.2222015765
 40
0.2917109238
 40
0.3590900758
 40
0.4244474746
 40
0.487903775
 40
0.5495925967
 40
0.6096609602
 40
0.6682702092
 40
0.7255962386
 40
0.7818281892
 40
0.8371677688
 40
0.8918276742
 40
0.9460292214
 40
1.0
 40
1.0
 40
1.0
 40
1.0
 10
13.8977776506
 20
7.7542561691
 30
0.0
 10
13.8960686656
 20
7.7526054163
 30
0.0
 10
13.8926513627
 20
7.7494090211
 30
0.0
 10
13.8874439665
 20
7.7448669667
 30
0.0
 10
13.8822389194
 20
7.740655821
 30
0.0
 10
13.8770377791
 20
7.7367770925
 30
0.0
 10
13.8718420053
 20
7.7332318824
 30
0.0
 10
13.8666529286
 20
7.7300212351
 30
0.0
 10
13.8614718755
 20
7.7271461688
 30
0.0
 10
13.856300273
 20
7.7246075568
 30
0.0
 10
13.851139521
 20
7.722406328
 30
0.0
 10
13.845991049
 20
7.7205433563
 30
0.0
 10
13.8408563665
 20
7.7190192968
 30
0.0
 10
13.8357369639
 20
7.7178348593
 30
0.0
 10
13.8306344412
 20
7.7169906291
 30
0.0
 10
13.8255503643
 20
7.7164869649
 30
0.0
 10
13.8204867116
 20
7.7163242228
 30
0.0
 10
13.8171225728
 20
7.716443243
 30
0.0
 10
13.8154485762
 20
7.7165593355
 30
0.0
  0
SPLINE
  5
30B
100
AcDbEntity
  8
0
100
AcDbSpline
 62
7
  6
CONTINUOUS
 70
0
 71
3
 72
104
 73
100
 74
0
 42
0.0000001
 43
0.0000001
 44
0.0000000001
 40
0.0
 40
0.0
 40
0.0
 40
0.0
 40
0.0042067324
 40
0.0086074713
 40
0.0132066991
 40
0.0180081549
 40
0.0230148642
 40
0.0282289678
 40
0.0336518129
 40
0.0392841632
 40
0.0451262009
 40
0.0511776717
 40
0.0574378045
 40
0.06390548
 40
0.0705791685
 40
0.0774570328
 40
0.0845369207
 40
0.091816381
 40
0.0992927319
 40
0.1069629988
 40
0.114824034
 40
0.1228724176
 40
0.1311045785
 40
0.139516717
 40
0.156864679
 40
0.1748828746
 40
0.1935351495
 40
0.2127831409
 40
0.2325864916
 40
0.2529030449
 40
0.2736890256
 40
0.29489921
 40
0.3164870898
 40
0.3384050312
 40
0.3606044294
 40
0.3830358602
 40
0.405649229
 40
0.4283939189
 40
0.4512189373
 40
0.4740730622
 40
0.4969049887
 40
0.519663475
 40
0.5422974891
 40
0.5647563548
 40
0.5869898986
 40
0.6089485974
 40
0.6305837275
 40
0.6518475157
 40
0.6726932928
 40
0.6930756523
 40
0.7129506139
 40
0.7322757927
 40
0.7510105782
 40
0.7691163272
 40
0.7865565749
 40
0.7950165249
 40
0.8032975427
 40
0.8113957888
 40
0.8193076319
 40
0.8270296016
 40
0.8345584894
 40
0.8418912546
 40
0.8490251543
 40
0.8559576552
 40
0.862686537
 40
0.8692098651
 40
0.8755260274
 40
0.881633796
 40
0.8875322923
 40
0.8932211297
 40
0.8987003416
 40
0.9039705617
 40
0.9090329797
 40
0.9138895043
 40
0.918542807
 40
0.9229964385
 40
0.9272549871
 40
0.9313241576
 40
0.9352110293
 40
0.9389241343
 40
0.9424737572
 40
0.9458720433
 40
0.9491332423
 40
0.9522738082
 40
0.9553124562
 40
0.9582701051
 40
0.9611696109
 40
0.9640353794
 40
0.9668927526
 40
0.9697673162
 40
0.9726841648
 40
0.9756672288
 40
0.9787387443
 40
0.9819188843
 40
0.9852255481
 40
0.9886744376
 40
0.9922791384
 40
0.9960512193
 40
1.0
 40
1.0
 40
1.0
 40
1.0
 10
13.8668680208
 20
8.1041330772
 30
0.0
 10
13.8686604254
 20
8.1058644072
 30
0.0
 10
13.8722428387
 20
8.1094958151
 30
0.0
 10
13.8774938242
 20
8.1152981426
 30
0.0
 10
13.8827381154
 20
8.1215730183
 30
0.0
 10
13.8879724718
 20
8.1283164079
 30
0.0
 10
13.8931939651
 20
8.1355244571
 30
0.0
 10
13.8983996137
 20
8.1431929713
 30
0.0
 10
13.9035863976
 20
8.151317439
 30
0.0
 10
13.9087511756
 20
8.1598930819
 30
0.0
 10
13.9138909833
 20
8.1689147932
 30
0.0
 10
13.9190026804
 20
8.1783772734
 30
0.0
 10
13.9240833215
 20
8.1882748798
 30
0.0
 10
13.9291297943
 20
8.1986017602
 30
0.0
 10
13.9341391431
 20
8.2093517543
 30
0.0
 10
13.9391083447
 20
8.220518472
 30
0.0
 10
13.9440344251
 20
8.2320952589
 30
0.0
 10
13.9489144653
 20
8.2440752068
 30
0.0
 10
13.9537454877
 20
8.2564511783
 30
0.0
 10
13.9585246689
 20
8.2692157723
 30
0.0
 10
13.963249067
 20
8.2823613803
 30
0.0
 10
13.9679159212
 20
8.2958801331
 30
0.0
 10
13.9725223907
 20
8.3097639726
 30
0.0
 10
13.9786429433
 20
8.3289483667
 30
0.0
 10
13.9861118125
 20
8.3537857128
 30
0.0
 10
13.994701405
 20
8.3846134261
 30
0.0
 10
14.002986591
 20
8.416688107
 30
0.0
 10
14.0109474437
 20
8.4499330261
 30
0.0
 10
14.018564808
 20
8.4842687848
 30
0.0
 10
14.0258203648
 20
8.5196132942
 30
0.0
 10
14.0326966699
 20
8.5558820396
 30
0.0
 10
14.0391771964
 20
8.5929882696
 30
0.0
 10
14.0452463761
 20
8.6308432122
 30
0.0
 10
14.0508896331
 20
8.669356291
 30
0.0
 10
14.0560934189
 20
8.708435345
 30
0.0
 10
14.060845244
 20
8.7479868514
 30
0.0
 10
14.0651337077
 20
8.7879161509
 30
0.0
 10
14.0689485247
 20
8.8281276753
 30
0.0
 10
14.0722805501
 20
8.8685251775
 30
0.0
 10
14.0751218001
 20
8.9090119624
 30
0.0
 10
14.0774654727
 20
8.9494911199
 30
0.0
 10
14.0793059654
 20
8.9898657579
 30
0.0
 10
14.0806388865
 20
9.0300392364
 30
0.0
 10
14.0814610656
 20
9.0699153995
 30
0.0
 10
14.081770562
 20
9.1093988064
 30
0.0
 10
14.0815666696
 20
9.1483949612
 30
0.0
 10
14.0808499193
 20
9.1868105401
 30
0.0
 10
14.0796220782
 20
9.2245536166
 30
0.0
 10
14.0778861463
 20
9.2615338844
 30
0.0
 10
14.0756463513
 20
9.2976628762
 30
0.0
 10
14.0729081414
 20
9.3328541849
 30
0.0
 10
14.0696781679
 20
9.3670236578
 30
0.0
 10
14.0659642831
 20
9.4000896624
 30
0.0
 10
14.0617754775
 20
9.4319730808
 30
0.0
 10
14.057858995
 20
9.4577480819
 30
0.0
 10
14.0544865169
 20
9.4777142752
 30
0.0
 10
14.051870571
 20
9.4921947546
 30
0.0
 10
14.0491439995
 20
9.5063242735
 30
0.0
 10
14.0463084665
 20
9.5200944009
 30
0.0
 10
14.0433656151
 20
9.5334969027
 30
0.0
 10
14.0403172896
 20
9.5465237761
 30
0.0
 10
14.0371652386
 20
9.5591672383
 30
0.0
 10
14.0339114294
 20
9.5714197473
 30
0.0
 10
14.0305577556
 20
9.5832739908
 30
0.0
 10
14.0271062616
 20
9.5947229047
 30
0.0
 10
14.0235590112
 20
9.605759671
 30
0.0
 10
14.0199180984
 20
9.6163777174
 30
0.0
 10
14.0161857568
 20
9.6265707448
 30
0.0
 10
14.0123641269
 20
9.6363326871
 30
0.0
 10
14.0084555803
 20
9.6456577843
 30
0.0
 10
14.0044623271
 20
9.6545404975
 30
0.0
 10
14.0003868149
 20
9.6629756142
 30
0.0
 10
13.9962313568
 20
9.6709581518
 30
0.0
 10
13.9919984053
 20
9.6784834402
 30
0.0
 10
13.9876903888
 20
9.6855470808
 30
0.0
 10
13.9833097077
 20
9.6921449294
 30
0.0
 10
13.9788588764
 20
9.6982731814
 30
0.0
 10
13.9743402132
 20
9.7039281874
 30
0.0
 10
13.9697562438
 20
9.7091066951
 30
0.0
 10
13.9651092173
 20
9.7138054997
 30
0.0
 10
13.960401591
 20
9.7180217677
 30
0.0
 10
13.9556356267
 20
9.7217526526
 30
0.0
 10
13.950813747
 20
9.7249955229
 30
0.0
 10
13.9459384386
 20
9.7277477918
 30
0.0
 10
13.9410123821
 20
9.7300068838
 30
0.0
 10
13.9360386668
 20
9.7317705502
 30
0.0
 10
13.9310206945
 20
9.7330365376
 30
0.0
 10
13.9259624044
 20
9.7338034309
 30
0.0
 10
13.9208679835
 20
9.7340700786
 30
0.0
 10
13.9157418019
 20
9.7338365013
 30
0.0
 10
13.9105881068
 20
9.7331031827
 30
0.0
 10
13.9054108513
 20
9.7318714526
 30
0.0
 10
13.9002136076
 20
9.7301430196
 30
0.0
 10
13.894999642
 20
9.7279198471
 30
0.0
 10
13.8897718485
 20
9.7252042273
 30
0.0
 10
13.8845330606
 20
9.721998263
 30
0.0
 10
13.8792858018
 20
9.7183043106
 30
0.0
 10
13.8740331092
 20
9.7141249071
 30
0.0
 10
13.8706098233
 20
9.7110881649
 30
0.0
 10
13.8688974383
 20
9.7094945216
 30
0.0
  0
SPLINE
  5
30C
100
AcDbEntity
  8
0
100
AcDbSpline
 62
7
  6
CONTINUOUS
 70
0
 71
3
 72
97
 73
93
 74
0
 42
0.0000001
 43
0.0000001
 44
0.0000000001
 40
0.0
 40
0.0
 40
0.0
 40
0.0
 40
0.003988382
 40
0.0081453386
 40
0.012474532
 40
0.0169790436
 40
0.0216614594
 40
0.0265237877
 40
0.03156735
 40
0.0367930091
 40
0.0422011911
 40
0.0477919258
 40
0.0535649382
 40
0.0595195649
 40
0.0656548957
 40
0.0719697368
 40
0.0784626284
 40
0.0851319311
 40
0.0919757334
 40
0.0989919717
 40
0.1061783825
 40
0.1135325099
 40
0.1287331651
 40
0.1445716006
 40
0.1610229887
 40
0.1780605141
 40
0.1956555586
 40
0.2137778596
 40
0.2323956479
 40
0.2514757941
 40
0.2709839349
 40
0.2908845889
 40
0.3111412651
 40
0.3317165653
 40
0.3525722988
 40
0.3736695857
 40
0.3949689563
 40
0.4164304488
 40
0.438013707
 40
0.4596780842
 40
0.4813827408
 40
0.5030867403
 40
0.5247491459
 40
0.5463291211
 40
0.5677860287
 40
0.589079527
 40
0.6101696666
 40
0.6310169901
 40
0.6515826388
 40
0.6718284504
 40
0.6917170592
 40
0.7112119995
 40
0.7302778161
 40
0.7488801863
 40
0.7669860296
 40
0.7845636291
 40
0.8015827644
 40
0.818014862
 40
0.8338331722
 40
0.8490129442
 40
0.8563563816
 40
0.8635319248
 40
0.870537144
 40
0.8773698051
 40
0.8840278107
 40
0.8905093205
 40
0.8968126631
 40
0.9029364095
 40
0.9088794023
 40
0.9146407025
 40
0.920219727
 40
0.9256161704
 40
0.9308300962
 40
0.935861986
 40
0.9407127085
 40
0.9453836829
 40
0.9498768344
 40
0.9541947192
 40
0.9583406162
 40
0.9623185461
 40
0.9661334805
 40
0.9697913613
 40
0.9732992776
 40
0.9766656071
 40
0.9799000887
 40
0.9830140267
 40
0.9860203088
 40
0.9889334893
 40
0.9917697621
 40
0.9945468059
 40
0.9972835908
 40
1.0
 40
1.0
 40
1.0
 40
1.0
 10
13.7895939501
 20
8.1867661229
 30
0.0
 10
13.7910757401
 20
8.1881974222
 30
0.0
 10
13.7940377005
 20
8.1911876362
 30
0.0
 10
13.7983877535
 20
8.1959433073
 30
0.0
 10
13.8027332127
 20
8.201058321
 30
0.0
 10
13.8070717111
 20
8.2065299004
 30
0.0
 10
13.8114012536
 20
8.2123553489
 30
0.0
 10
13.815719706
 20
8.2185318732
 30
0.0
 10
13.8200250364
 20
8.225056395
 30
0.0
 10
13.8243150461
 20
8.2319256935
 30
0.0
 10
13.8285875958
 20
8.239136342
 30
0.0
 10
13.8328406031
 20
8.2466847343
 30
0.0
 10
13.8370718779
 20
8.2545671403
 30
0.0
 10
13.8412793735
 20
8.2627795993
 30
0.0
 10
13.8454609356
 20
8.2713180237
 30
0.0
 10
13.8496144666
 20
8.2801781398
 30
0.0
 10
13.8537379192
 20
8.2893555021
 30
0.0
 10
13.8578291568
 20
8.2988455319
 30
0.0
 10
13.8618861865
 20
8.308643455
 30
0.0
 10
13.8659069231
 20
8.318744366
 30
0.0
 10
13.8698893643
 20
8.3291432039
 30
0.0
 10
13.8752041272
 20
8.3435575718
 30
0.0
 10
13.8817279576
 20
8.3622876382
 30
0.0
 10
13.8892888079
 20
8.385626116
 30
0.0
 10
13.896650303
 20
8.410020966
 30
0.0
 10
13.9037975711
 20
8.4354231759
 30
0.0
 10
13.9107161642
 20
8.4617818328
 30
0.0
 10
13.9173920975
 20
8.4890440242
 30
0.0
 10
13.9238118921
 20
8.5171550027
 30
0.0
 10
13.9299625849
 20
8.546058292
 30
0.0
 10
13.9358317579
 20
8.575695814
 30
0.0
 10
13.9414075613
 20
8.6060080056
 30
0.0
 10
13.9466787377
 20
8.6369339345
 30
0.0
 10
13.9516346594
 20
8.6684114215
 30
0.0
 10
13.9562653329
 20
8.7003771718
 30
0.0
 10
13.9605614209
 20
8.7327669074
 30
0.0
 10
13.96451426
 20
8.765515495
 30
0.0
 10
13.9681158784
 20
8.7985570744
 30
0.0
 10
13.9713590261
 20
8.8318251912
 30
0.0
 10
13.9742371742
 20
8.8652529342
 30
0.0
 10
13.9767445287
 20
8.8987730718
 30
0.0
 10
13.9788760416
 20
8.9323181853
 30
0.0
 10
13.9806274218
 20
8.9658208049
 30
0.0
 10
13.9819951586
 20
8.9992135462
 30
0.0
 10
13.9829765125
 20
9.032429248
 30
0.0
 10
13.9835695226
 20
9.0654011066
 30
0.0
 10
13.9837730094
 20
9.0980628085
 30
0.0
 10
13.9835865788
 20
9.1303486666
 30
0.0
 10
13.9830106377
 20
9.1621937557
 30
0.0
 10
13.9820463778
 20
9.1935340436
 30
0.0
 10
13.9806957738
 20
9.2243065165
 30
0.0
 10
13.9789615805
 20
9.254449306
 30
0.0
 10
13.9768473272
 20
9.2839018201
 30
0.0
 10
13.974357328
 20
9.3126048705
 30
0.0
 10
13.9714966557
 20
9.3405007918
 30
0.0
 10
13.9682711343
 20
9.3675335583
 30
0.0
 10
13.9646873251
 20
9.3936488845
 30
0.0
 10
13.9607525215
 20
9.4187944031
 30
0.0
 10
13.9564747222
 20
9.442919587
 30
0.0
 10
13.9525897373
 20
9.4623418516
 30
0.0
 10
13.949308482
 20
9.4773278786
 30
0.0
 10
13.94679446
 20
9.4881584338
 30
0.0
 10
13.9442014599
 20
9.4986988533
 30
0.0
 10
13.9415308175
 20
9.5089438644
 30
0.0
 10
13.9387838174
 20
9.5188883177
 30
0.0
 10
13.9359619033
 20
9.5285272362
 30
0.0
 10
13.9330664649
 20
9.5378557878
 30
0.0
 10
13.9300989473
 20
9.5468692984
 30
0.0
 10
13.9270608933
 20
9.5555632694
 30
0.0
 10
13.923953753
 20
9.5639333399
 30
0.0
 10
13.9207791517
 20
9.5719753473
 30
0.0
 10
13.9175386411
 20
9.5796852762
 30
0.0
 10
13.9142338227
 20
9.5870592834
 30
0.0
 10
13.910866396
 20
9.5940937256
 30
0.0
 10
13.90743794
 20
9.6007850849
 30
0.0
 10
13.9039502155
 20
9.60713008
 30
0.0
 10
13.9004048826
 20
9.6131255664
 30
0.0
 10
13.8968036358
 20
9.6187685786
 30
0.0
 10
13.8931482576
 20
9.6240563768
 30
0.0
 10
13.8894403708
 20
9.6289863021
 30
0.0
 10
13.8856817726
 20
9.6335559704
 30
0.0
 10
13.8818741222
 20
9.6377630804
 30
0.0
 10
13.878019095
 20
9.6416054786
 30
0.0
 10
13.8741184391
 20
9.6450812255
 30
0.0
 10
13.8701737444
 20
9.6481883262
 30
0.0
 10
13.8661867994
 20
9.6509250582
 30
0.0
 10
13.8621593285
 20
9.6532896376
 30
0.0
 10
13.8580931901
 20
9.6552803645
 30
0.0
 10
13.8539905014
 20
9.6568957634
 30
0.0
 10
13.8498533353
 20
9.6581342739
 30
0.0
 10
13.8456846798
 20
9.6589948114
 30
0.0
 10
13.8428817825
 20
9.6593163953
 30
0.0
 10
13.8414819994
 20
9.6594134625
 30
0.0
  0
SPLINE
  5
30D
100
AcDbEntity
  8
0
100
AcDbSpline
 62
4
  6
CONTINUOUS
 70
0
 71
3
 72
403
 73
399
 74
0
 42
0.0000001
 43
0.0000001
 44
0.0000000001
 40
0.0
 40
0.0
 40
0.0
 40
0.0
 40
0.015625
 40
0.0234375
 40
0.03125
 40
0.0390625
 40
0.04296875
 40
0.046875
 40
0.05078125
 40
0.0546875
 40
0.056640625
 40
0.05859375
 40
0.0595703125
 40
0.060546875
 40
0.0615234375
 40
0.0620117188
 40
0.0622558594
 40
0.0625
 40
0.0627441406
 40
0.0629882812
 40
0.0634765625
 40
0.064453125
 40
0.0654296875
 40
0.06640625
 40
0.068359375
 40
0.0703125
 40
0.07421875
 40
0.078125
 40
0.08203125
 40
0.0859375
 40
0.09375
 40
0.1015625
 40
0.10546875
 40
0.109375
 40
0.11328125
 40
0.1171875
 40
0.119140625
 40
0.12109375
 40
0.1220703125
 40
0.123046875
 40
0.1240234375
 40
0.1245117188
 40
0.1247558594
 40
0.125
 40
0.1252441406
 40
0.1254882812
 40
0.1259765625
 40
0.126953125
 40
0.1279296875
 40
0.12890625
 40
0.130859375
 40
0.1328125
 40
0.13671875
 40
0.140625
 40
0.14453125
 40
0.1484375
 40
0.15625
 40
0.1640625
 40
0.16796875
 40
0.171875
 40
0.17578125
 40
0.1796875
 40
0.181640625
 40
0.18359375
 40
0.1845703125
 40
0.185546875
 40
0.1865234375
 40
0.1870117188
 40
0.1872558594
 40
0.1875
 40
0.1877441406
 40
0.1879882812
 40
0.1884765625
 40
0.189453125
 40
0.1904296875
 40
0.19140625
 40
0.193359375
 40
0.1953125
 40
0.19921875
 40
0.203125
 40
0.20703125
 40
0.2109375
 40
0.21875
 40
0.2265625
 40
0.23046875
 40
0.234375
 40
0.23828125
 40
0.2421875
 40
0.244140625
 40
0.24609375
 40
0.2470703125
 40
0.248046875
 40
0.2490234375
 40
0.2495117188
 40
0.2497558594
 40
0.25
 40
0.2502441406
 40
0.2504882812
 40
0.2509765625
 40
0.251953125
 40
0.2529296875
 40
0.25390625
 40
0.255859375
 40
0.2578125
 40
0.26171875
 40
0.265625
 40
0.26953125
 40
0.2734375
 40
0.28125
 40
0.2890625
 40
0.29296875
 40
0.296875
 40
0.30078125
 40
0.3046875
 40
0.306640625
 40
0.30859375
 40
0.3095703125
 40
0.310546875
 40
0.3115234375
 40
0.3120117188
 40
0.3122558594
 40
0.3125
 40
0.3127441406
 40
0.3129882812
 40
0.3134765625
 40
0.314453125
 40
0.3154296875
 40
0.31640625
 40
0.318359375
 40
0.3203125
 40
0.32421875
 40
0.328125
 40
0.33203125
 40
0.3359375
 40
0.34375
 40
0.3515625
 40
0.35546875
 40
0.359375
 40
0.36328125
 40
0.3671875
 40
0.369140625
 40
0.37109375
 40
0.3720703125
 40
0.373046875
 40
0.3740234375
 40
0.3745117188
 40
0.3747558594
 40
0.375
 40
0.3752441406
 40
0.3754882812
 40
0.3759765625
 40
0.376953125
 40
0.3779296875
 40
0.37890625
 40
0.380859375
 40
0.3828125
 40
0.38671875
 40
0.390625
 40
0.39453125
 40
0.3984375
 40
0.40625
 40
0.4140625
 40
0.41796875
 40
0.421875
 40
0.42578125
 40
0.4296875
 40
0.431640625
 40
0.43359375
 40
0.4345703125
 40
0.435546875
 40
0.4365234375
 40
0.4370117188
 40
0.4372558594
 40
0.4375
 40
0.4377441406
 40
0.4379882812
 40
0.4384765625
 40
0.439453125
 40
0.4404296875
 40
0.44140625
 40
0.443359375
 40
0.4453125
 40
0.44921875
 40
0.453125
 40
0.45703125
 40
0.4609375
 40
0.46875
 40
0.4765625
 40
0.48046875
 40
0.484375
 40
0.48828125
 40
0.4921875
 40
0.494140625
 40
0.49609375
 40
0.4970703125
 40
0.498046875
 40
0.4990234375
 40
0.4995117188
 40
0.4997558594
 40
0.5
 40
0.5002441406
 40
0.5004882812
 40
0.5009765625
 40
0.501953125
 40
0.5029296875
 40
0.50390625
 40
0.505859375
 40
0.5078125
 40
0.51171875
 40
0.515625
 40
0.51953125
 40
0.5234375
 40
0.53125
 40
0.5390625
 40
0.54296875
 40
0.546875
 40
0.55078125
 40
0.5546875
 40
0.556640625
 40
0.55859375
 40
0.5595703125
 40
0.560546875
 40
0.5615234375
 40
0.5620117188
 40
0.5622558594
 40
0.5625
 40
0.5627441406
 40
0.5629882812
 40
0.5634765625
 40
0.564453125
 40
0.5654296875
 40
0.56640625
 40
0.568359375
 40
0.5703125
 40
0.57421875
 40
0.578125
 40
0.58203125
 40
0.5859375
 40
0.59375
 40
0.6015625
 40
0.60546875
 40
0.609375
 40
0.61328125
 40
0.6171875
 40
0.619140625
 40
0.62109375
 40
0.6220703125
 40
0.623046875
 40
0.6240234375
 40
0.6245117188
 40
0.6247558594
 40
0.625
 40
0.6252441406
 40
0.6254882812
 40
0.6259765625
 40
0.626953125
 40
0.6279296875
 40
0.62890625
 40
0.630859375
 40
0.6328125
 40
0.63671875
 40
0.640625
 40
0.64453125
 40
0.6484375
 40
0.65625
 40
0.6640625
 40
0.66796875
 40
0.671875
 40
0.67578125
 40
0.6796875
 40
0.681640625
 40
0.68359375
 40
0.6845703125
 40
0.685546875
 40
0.6865234375
 40
0.6870117188
 40
0.6872558594
 40
0.6875
 40
0.6877441406
 40
0.6879882812
 40
0.6884765625
 40
0.689453125
 40
0.6904296875
 40
0.69140625
 40
0.693359375
 40
0.6953125
 40
0.69921875
 40
0.703125
 40
0.70703125
 40
0.7109375
 40
0.71875
 40
0.7265625
 40
0.73046875
 40
0.734375
 40
0.73828125
 40
0.7421875
 40
0.744140625
 40
0.74609375
 40
0.7470703125
 40
0.748046875
 40
0.7490234375
 40
0.7495117188
 40
0.7497558594
 40
0.75
 40
0.7502441406
 40
0.7504882812
 40
0.7509765625
 40
0.751953125
 40
0.7529296875
 40
0.75390625
 40
0.755859375
 40
0.7578125
 40
0.76171875
 40
0.765625
 40
0.76953125
 40
0.7734375
 40
0.78125
 40
0.7890625
 40
0.79296875
 40
0.796875
 40
0.80078125
 40
0.8046875
 40
0.806640625
 40
0.80859375
 40
0.8095703125
 40
0.810546875
 40
0.8115234375
 40
0.8120117188
 40
0.8122558594
 40
0.8125
 40
0.8127441406
 40
0.8129882812
 40
0.8134765625
 40
0.814453125
 40
0.8154296875
 40
0.81640625
 40
0.818359375
 40
0.8203125
 40
0.82421875
 40
0.828125
 40
0.83203125
 40
0.8359375
 40
0.84375
 40
0.8515625
 40
0.85546875
 40
0.859375
 40
0.86328125
 40
0.8671875
 40
0.869140625
 40
0.87109375
 40
0.8720703125
 40
0.873046875
 40
0.8740234375
 40
0.8745117188
 40
0.8747558594
 40
0.875
 40
0.8752441406
 40
0.8754882812
 40
0.8759765625
 40
0.876953125
 40
0.8779296875
 40
0.87890625
 40
0.880859375
 40
0.8828125
 40
0.88671875
 40
0.890625
 40
0.89453125
 40
0.8984375
 40
0.90625
 40
0.9140625
 40
0.91796875
 40
0.921875
 40
0.92578125
 40
0.9296875
 40
0.931640625
 40
0.93359375
 40
0.9345703125
 40
0.935546875
 40
0.9365234375
 40
0.9370117188
 40
0.9372558594
 40
0.9375
 40
0.9377441406
 40
0.9379882812
 40
0.9384765625
 40
0.939453125
 40
0.9404296875
 40
0.94140625
 40
0.943359375
 40
0.9453125
 40
0.94921875
 40
0.953125
 40
0.95703125
 40
0.9609375
 40
0.96875
 40
0.9765625
 40
0.984375
 40
1.0
 40
1.0
 40
1.0
 40
1.0
 10
10.6117717527
 20
6.9098655508
 30
0.0
 10
10.6174002322
 20
6.9100270917
 30
0.0
 10
10.6258429515
 20
6.910269403
 30
0.0
 10
10.6370999105
 20
6.9105924847
 30
0.0
 10
10.6455426297
 20
6.9108347961
 30
0.0
 10
10.6525782291
 20
6.9110367219
 30
0.0
 10
10.6582067085
 20
6.9111982633
 30
0.0
 10
10.6624280685
 20
6.9113194172
 30
0.0
 10
10.6666494268
 20
6.9114405795
 30
0.0
 10
10.6701672305
 20
6.9115415217
 30
0.0
 10
10.672981462
 20
6.9116223347
 30
0.0
 10
10.674740383
 20
6.9116727079
 30
0.0
 10
10.6761474594
 20
6.9117133154
 30
0.0
 10
10.677202932
 20
6.9117429252
 30
0.0
 10
10.6780819668
 20
6.9117702909
 30
0.0
 10
10.6786983227
 20
6.911784166
 30
0.0
 10
10.6790489155
 20
6.9118003403
 30
0.0
 10
10.6793163971
 20
6.911789243
 30
0.0
 10
10.6795665361
 20
6.9118669348
 30
0.0
 10
10.679906104
 20
6.9119395532
 30
0.0
 10
10.6804975295
 20
6.9120810653
 30
0.0
 10
10.6813438965
 20
6.9122756813
 30
0.0
 10
10.6823589061
 20
6.9125124497
 30
0.0
 10
10.6837124727
 20
6.912827013
 30
0.0
 10
10.6854043554
 20
6.9132206032
 30
0.0
 10
10.68811141
 20
6.9138501318
 30
0.0
 10
10.6914952137
 20
6.9146371166
 30
0.0
 10
10.6955557843
 20
6.9155814666
 30
0.0
 10
10.6996163533
 20
6.9165258252
 30
0.0
 10
10.7050304459
 20
6.9177849669
 30
0.0
 10
10.7117980614
 20
6.9193588951
 30
0.0
 10
10.7185656771
 20
6.9209328226
 30
0.0
 10
10.7239797693
 20
6.9221919655
 30
0.0
 10
10.7280403393
 20
6.9231363205
 30
0.0
 10
10.7321009061
 20
6.9240806836
 30
0.0
 10
10.7354847219
 20
6.9248676276
 30
0.0
 10
10.7381917518
 20
6.9254972395
 30
0.0
 10
10.7398836972
 20
6.9258906179
 30
0.0
 10
10.7412371351
 20
6.926205616
 30
0.0
 10
10.7422525377
 20
6.9264410557
 30
0.0
 10
10.7430976754
 20
6.9266398288
 30
0.0
 10
10.7436912954
 20
6.9267739199
 30
0.0
 10
10.7440273471
 20
6.9268584286
 30
0.0
 10
10.7442882869
 20
6.9268995972
 30
0.0
 10
10.7445152022
 20
6.9270256751
 30
0.0
 10
10.7448296241
 20
6.9271641617
 30
0.0
 10
10.7453743328
 20
6.9274203125
 30
0.0
 10
10.746155379
 20
6.9277790279
 30
0.0
 10
10.7470913971
 20
6.9282125742
 30
0.0
 10
10.7483398533
 20
6.9287895575
 30
0.0
 10
10.7499002757
 20
6.9295111559
 30
0.0
 10
10.7523970342
 20
6.9306655069
 30
0.0
 10
10.7555179539
 20
6.9321085165
 30
0.0
 10
10.7592630697
 20
6.9338400976
 30
0.0
 10
10.7630081822
 20
6.9355716868
 30
0.0
 10
10.7680016668
 20
6.9378804697
 30
0.0
 10
10.774243522
 20
6.9407664493
 30
0.0
 10
10.7804853776
 20
6.9436524282
 30
0.0
 10
10.7854788617
 20
6.9459612121
 30
0.0
 10
10.7892239758
 20
6.947692798
 30
0.0
 10
10.7929690857
 20
6.9494243918
 30
0.0
 10
10.7960900237
 20
6.9508673619
 30
0.0
 10
10.7985867449
 20
6.9520217935
 30
0.0
 10
10.800147262
 20
6.9527431868
 30
0.0
 10
10.8013955239
 20
6.9533205909
 30
0.0
 10
10.8023321358
 20
6.9537528516
 30
0.0
 10
10.8031113239
 20
6.9541155895
 30
0.0
 10
10.8036593496
 20
6.9543645594
 30
0.0
 10
10.8039684568
 20
6.9545145516
 30
0.0
 10
10.8042116971
 20
6.954605288
 30
0.0
 10
10.8044113229
 20
6.9547791937
 30
0.0
 10
10.8046927038
 20
6.9549820576
 30
0.0
 10
10.8051780323
 20
6.9553505859
 30
0.0
 10
10.8058750645
 20
6.9558699884
 30
0.0
 10
10.8067099169
 20
6.9564962961
 30
0.0
 10
10.8078236075
 20
6.9573303165
 30
0.0
 10
10.809215531
 20
6.9583732038
 30
0.0
 10
10.8114427147
 20
6.9600416213
 30
0.0
 10
10.8142266579
 20
6.9621272125
 30
0.0
 10
10.8175674054
 20
6.9646298922
 30
0.0
 10
10.8209081486
 20
6.9671325799
 30
0.0
 10
10.8253624745
 20
6.9704694941
 30
0.0
 10
10.8309303812
 20
6.9746406377
 30
0.0
 10
10.8364982884
 20
6.9788117808
 30
0.0
 10
10.8409526134
 20
6.9821486959
 30
0.0
 10
10.844293359
 20
6.9846513807
 30
0.0
 10
10.8476340979
 20
6.9871540715
 30
0.0
 10
10.8504180678
 20
6.9892396282
 30
0.0
 10
10.852645197
 20
6.990908116
 30
0.0
 10
10.8540372591
 20
6.9919508244
 30
0.0
 10
10.8551506653
 20
6.9927852119
 30
0.0
 10
10.8559863864
 20
6.9934103981
 30
0.0
 10
10.8566807008
 20
6.9939333095
 30
0.0
 10
10.8571708809
 20
6.9942955739
 30
0.0
 10
10.8574444884
 20
6.9945084742
 30
0.0
 10
10.8576679916
 20
6.9946515514
 30
0.0
 10
10.8578215521
 20
6.9948580745
 30
0.0
 10
10.8580506962
 20
6.995111308
 30
0.0
 10
10.8584403314
 20
6.9955647777
 30
0.0
 10
10.8590028959
 20
6.9962072008
 30
0.0
 10
10.8596754296
 20
6.9969804159
 30
0.0
 10
10.8605730297
 20
6.9980105634
 30
0.0
 10
10.8616947256
 20
6.9992985238
 30
0.0
 10
10.8634896091
 20
7.0013591062
 30
0.0
 10
10.8657331551
 20
7.0039348871
 30
0.0
 10
10.8684254353
 20
7.0070258016
 30
0.0
 10
10.8711177088
 20
7.0101167221
 30
0.0
 10
10.8747074091
 20
7.0142379473
 30
0.0
 10
10.8791945337
 20
7.0193894796
 30
0.0
 10
10.8836816588
 20
7.0245410113
 30
0.0
 10
10.8872713582
 20
7.0286622373
 30
0.0
 10
10.8899636346
 20
7.0317531555
 30
0.0
 10
10.8926559039
 20
7.0348440788
 30
0.0
 10
10.8948994838
 20
7.0374198319
 30
0.0
 10
10.8966942981
 20
7.039480471
 30
0.0
 10
10.8978161699
 20
7.0407682872
 30
0.0
 10
10.8987134091
 20
7.0417987308
 30
0.0
 10
10.8993870453
 20
7.0425710413
 30
0.0
 10
10.8999461602
 20
7.0432162947
 30
0.0
 10
10.9003419536
 20
7.0436647119
 30
0.0
 10
10.9005612308
 20
7.0439260408
 30
0.0
 10
10.900745099
 20
7.0441076973
 30
0.0
 10
10.9008547713
 20
7.0443441692
 30
0.0
 10
10.9010268814
 20
7.0446403449
 30
0.0
 10
10.9013160158
 20
7.0451675607
 30
0.0
 10
10.9017353692
 20
7.0459160688
 30
0.0
 10
10.9022358948
 20
7.046816272
 30
0.0
 10
10.9029042049
 20
7.0480158467
 30
0.0
 10
10.9037392697
 20
7.0495155534
 30
0.0
 10
10.9050755538
 20
7.051914951
 30
0.0
 10
10.906745847
 20
7.0549142436
 30
0.0
 10
10.9087502254
 20
7.0585133752
 30
0.0
 10
10.9107545967
 20
7.0621125121
 30
0.0
 10
10.9134270942
 20
7.0669113593
 30
0.0
 10
10.9167677152
 20
7.0729099191
 30
0.0
 10
10.9201083369
 20
7.0789084784
 30
0.0
 10
10.9227808334
 20
7.0837073263
 30
0.0
 10
10.9247852078
 20
7.0873064613
 30
0.0
 10
10.9267895744
 20
7.0909056
 30
0.0
 10
10.9284599044
 20
7.0939048704
 30
0.0
 10
10.9297961134
 20
7.0963043134
 30
0.0
 10
10.9306313693
 20
7.0978039044
 30
0.0
 10
10.9312992872
 20
7.0990037166
 30
0.0
 10
10.9318010109
 20
7.0999031943
 30
0.0
 10
10.9322166158
 20
7.1006539722
 30
0.0
 10
10.9325124419
 20
7.101177136
 30
0.0
 10
10.9326738303
 20
7.1014798041
 30
0.0
 10
10.9328164361
 20
7.1016963333
 30
0.0
 10
10.9328766113
 20
7.1019528915
 30
0.0
 10
10.9329855978
 20
7.1022810066
 30
0.0
 10
10.9331629276
 20
7.1028617133
 30
0.0
 10
10.9334232596
 20
7.1036878933
 30
0.0
 10
10.9337326603
 20
7.1046807651
 30
0.0
 10
10.9341462416
 20
7.1060040856
 30
0.0
 10
10.9346628597
 20
7.1076584104
 30
0.0
 10
10.935489649
 20
7.1103052327
 30
0.0
 10
10.9365230669
 20
7.113613794
 30
0.0
 10
10.9377631979
 20
7.1175840532
 30
0.0
 10
10.9390033209
 20
7.1215543163
 30
0.0
 10
10.9406568211
 20
7.1268479991
 30
0.0
 10
10.9427236953
 20
7.133465103
 30
0.0
 10
10.9447905702
 20
7.1400822067
 30
0.0
 10
10.9464440693
 20
7.1453758899
 30
0.0
 10
10.9476841958
 20
7.1493461515
 30
0.0
 10
10.9489243139
 20
7.1533164162
 30
0.0
 10
10.9499577717
 20
7.1566249606
 30
0.0
 10
10.9507844796
 20
7.1592718174
 30
0.0
 10
10.951301305
 20
7.1609260545
 30
0.0
 10
10.9517144608
 20
7.1622495551
 30
0.0
 10
10.9520251614
 20
7.1632418766
 30
0.0
 10
10.9522814263
 20
7.1640697781
 30
0.0
 10
10.9524660166
 20
7.1646474118
 30
0.0
 10
10.9525633699
 20
7.1649804506
 30
0.0
 10
10.9526592785
 20
7.1652218845
 30
0.0
 10
10.952667676
 20
7.1654952181
 30
0.0
 10
10.9527093976
 20
7.1658485358
 30
0.0
 10
10.9527681882
 20
7.1664720262
 30
0.0
 10
10.9528596103
 20
7.1673600163
 30
0.0
 10
10.9529661342
 20
7.1684267646
 30
0.0
 10
10.9531092776
 20
7.1698486904
 30
0.0
 10
10.9532878264
 20
7.1716262364
 30
0.0
 10
10.953573717
 20
7.1744702325
 30
0.0
 10
10.9539310074
 20
7.1780252542
 30
0.0
 10
10.9543597871
 20
7.1822912689
 30
0.0
 10
10.9547885585
 20
7.1865572866
 30
0.0
 10
10.9553602565
 20
7.1922453091
 30
0.0
 10
10.956074878
 20
7.1993553377
 30
0.0
 10
10.9567895002
 20
7.2064653661
 30
0.0
 10
10.9573611971
 20
7.2121533888
 30
0.0
 10
10.957789972
 20
7.2164194059
 30
0.0
 10
10.9582187383
 20
7.2206854229
 30
0.0
 10
10.9585760706
 20
7.2242404375
 30
0.0
 10
10.9588618758
 20
7.227084448
 30
0.0
 10
10.9590406421
 20
7.2288619572
 30
0.0
 10
10.9591833389
 20
7.2302839586
 30
0.0
 10
10.9592912274
 20
7.2313504761
 30
0.0
 10
10.9593783799
 20
7.2322391884
 30
0.0
 10
10.9594447925
 20
7.2328613894
 30
0.0
 10
10.9594743018
 20
7.2332167731
 30
0.0
 10
10.9595202114
 20
7.2334837609
 30
0.0
 10
10.9594752309
 20
7.2337490281
 30
0.0
 10
10.9594469603
 20
7.2341033179
 30
0.0
 10
10.9593827156
 20
7.2347230455
 30
0.0
 10
10.95929866
 20
7.2356085167
 30
0.0
 10
10.9591944878
 20
7.2366710196
 30
0.0
 10
10.959056746
 20
7.238087712
 30
0.0
 10
10.9588841735
 20
7.23985857
 30
0.0
 10
10.9586082785
 20
7.242691947
 30
0.0
 10
10.9582633338
 20
7.2462336667
 30
0.0
 10
10.9578494328
 20
7.2504837311
 30
0.0
 10
10.957435523
 20
7.2547337953
 30
0.0
 10
10.9568836464
 20
7.2604005476
 30
0.0
 10
10.9561937995
 20
7.267483988
 30
0.0
 10
10.9555039533
 20
7.2745674284
 30
0.0
 10
10.9549520754
 20
7.2802341807
 30
0.0
 10
10.9545381693
 20
7.2844842451
 30
0.0
 10
10.9541242547
 20
7.2887343085
 30
0.0
 10
10.953779352
 20
7.2922760313
 30
0.0
 10
10.9535033714
 20
7.2951094021
 30
0.0
 10
10.9533310166
 20
7.2968802759
 30
0.0
 10
10.953192828
 20
7.2982969358
 30
0.0
 10
10.953090021
 20
7.2993595381
 30
0.0
 10
10.953001694
 20
7.3002446984
 30
0.0
 10
10.9529450745
 20
7.3008649809
 30
0.0
 10
10.9529045865
 20
7.3012183815
 30
0.0
 10
10.9528971339
 20
7.3014863799
 30
0.0
 10
10.9528020949
 20
7.3017431099
 30
0.0
 10
10.9527059273
 20
7.3020893471
 30
0.0
 10
10.9525233998
 20
7.3026934309
 30
0.0
 10
10.952270088
 20
7.3035573651
 30
0.0
 10
10.9519629285
 20
7.3045936764
 30
0.0
 10
10.951554495
 20
7.3059755678
 30
0.0
 10
10.9510435723
 20
7.3077028832
 30
0.0
 10
10.9502263088
 20
7.3104666152
 30
0.0
 10
10.9492046565
 20
7.3139212707
 30
0.0
 10
10.9479787049
 20
7.3180668614
 30
0.0
 10
10.946752745
 20
7.322212451
 30
0.0
 10
10.9451181347
 20
7.3277399042
 30
0.0
 10
10.9430748707
 20
7.3346492205
 30
0.0
 10
10.9410316074
 20
7.341558537
 30
0.0
 10
10.939396996
 20
7.3470859899
 30
0.0
 10
10.9381710395
 20
7.3512315803
 30
0.0
 10
10.9369450751
 20
7.355377168
 30
0.0
 10
10.9359234627
 20
7.3588318328
 30
0.0
 10
10.9351061177
 20
7.3615955458
 30
0.0
 10
10.9345954025
 20
7.3633229094
 30
0.0
 10
10.9341865431
 20
7.3647047019
 30
0.0
 10
10.933880685
 20
7.3657413158
 30
0.0
 10
10.9336233014
 20
7.3666043031
 30
0.0
 10
10.9334480427
 20
7.3672100773
 30
0.0
 10
10.9333402286
 20
7.3675536059
 30
0.0
 10
10.9332809638
 20
7.3678186558
 30
0.0
 10
10.9331391492
 20
7.368055406
 30
0.0
 10
10.9329788574
 20
7.3683809441
 30
0.0
 10
10.9326849309
 20
7.3689460367
 30
0.0
 10
10.9322720499
 20
7.3697557163
 30
0.0
 10
10.9317735904
 20
7.3707263026
 30
0.0
 10
10.9311100264
 20
7.3720207772
 30
0.0
 10
10.9302802124
 20
7.3736387474
 30
0.0
 10
10.9289527106
 20
7.3762275684
 30
0.0
 10
10.9272932645
 20
7.3794635711
 30
0.0
 10
10.9253019587
 20
7.3833467844
 30
0.0
 10
10.923310645
 20
7.3872299951
 30
0.0
 10
10.9206555629
 20
7.3924076102
 30
0.0
 10
10.9173367091
 20
7.3988796287
 30
0.0
 10
10.9140178561
 20
7.4053516475
 30
0.0
 10
10.9113627728
 20
7.4105292622
 30
0.0
 10
10.9093714624
 20
7.4144124742
 30
0.0
 10
10.9073801443
 20
7.4182956825
 30
0.0
 10
10.9057207365
 20
7.4215317008
 30
0.0
 10
10.9043931567
 20
7.42412049
 30
0.0
 10
10.9035635411
 20
7.4257385411
 30
0.0
 10
10.9028995698
 20
7.4270328496
 30
0.0
 10
10.9024023548
 20
7.4280039435
 30
0.0
 10
10.9019855801
 20
7.428812035
 30
0.0
 10
10.9016986044
 20
7.4293799626
 30
0.0
 10
10.9015271756
 20
7.4297009584
 30
0.0
 10
10.9014195704
 20
7.4299516611
 30
0.0
 10
10.9012318206
 20
7.4301643074
 30
0.0
 10
10.9010094429
 20
7.4304611103
 30
0.0
 10
10.9006072569
 20
7.4309743305
 30
0.0
 10
10.9000395151
 20
7.4317107357
 30
0.0
 10
10.8993553102
 20
7.4325930379
 30
0.0
 10
10.898444055
 20
7.4337699242
 30
0.0
 10
10.8973046375
 20
7.4352408666
 30
0.0
 10
10.8954817643
 20
7.437594467
 30
0.0
 10
10.893203106
 20
7.4405364357
 30
0.0
 10
10.8904687446
 20
7.4440668117
 30
0.0
 10
10.8877343756
 20
7.4475971841
 30
0.0
 10
10.884088553
 20
7.4523043486
 30
0.0
 10
10.8795312736
 20
7.4581883037
 30
0.0
 10
10.8749739949
 20
7.4640722593
 30
0.0
 10
10.8713281713
 20
7.4687794231
 30
0.0
 10
10.8685938051
 20
7.4723097976
 30
0.0
 10
10.8658594332
 20
7.4758401658
 30
0.0
 10
10.8635808075
 20
7.4787821589
 30
0.0
 10
10.8617578678
 20
7.4811357094
 30
0.0
 10
10.8606186195
 20
7.4826067786
 30
0.0
 10
10.859707017
 20
7.4837834047
 30
0.0
 10
10.8590238734
 20
7.484666502
 30
0.0
 10
10.8584528112
 20
7.4854004197
 30
0.0
 10
10.8580565526
 20
7.4859180804
 30
0.0
 10
10.8578246776
 20
7.4862077685
 30
0.0
 10
10.8576661004
 20
7.4864422691
 30
0.0
 10
10.8574489278
 20
7.4866108905
 30
0.0
 10
10.8571798031
 20
7.4868586985
 30
0.0
 10
10.8566993122
 20
7.4872816558
 30
0.0
 10
10.8560178751
 20
7.4878914782
 30
0.0
 10
10.8551980196
 20
7.4886208691
 30
0.0
 10
10.8541056233
 20
7.4895942271
 30
0.0
 10
10.852739873
 20
7.4908106381
 30
0.0
 10
10.850554815
 20
7.4927570558
 30
0.0
 10
10.8478234437
 20
7.4951900231
 30
0.0
 10
10.844545819
 20
7.4981096073
 30
0.0
 10
10.8412681887
 20
7.5010291852
 30
0.0
 10
10.8368980169
 20
7.504921958
 30
0.0
 10
10.8314353015
 20
7.5097879232
 30
0.0
 10
10.8259725865
 20
7.5146538889
 30
0.0
 10
10.821602414
 20
7.5185466608
 30
0.0
 10
10.8183247859
 20
7.5214662415
 30
0.0
 10
10.815047153
 20
7.5243858154
 30
0.0
 10
10.8123158071
 20
7.5268188147
 30
0.0
 10
10.8101306972
 20
7.528765167
 30
0.0
 10
10.808765079
 20
7.5299817447
 30
0.0
 10
10.8076724116
 20
7.5309547606
 30
0.0
 10
10.8068533842
 20
7.5316851966
 30
0.0
 10
10.8061693561
 20
7.532291749
 30
0.0
 10
10.8056934906
 20
7.5327205438
 30
0.0
 10
10.8054169548
 20
7.5329589988
 30
0.0
 10
10.8052225469
 20
7.5331563493
 30
0.0
 10
10.8049784692
 20
7.5332829484
 30
0.0
 10
10.8046703577
 20
7.5334764261
 30
0.0
 10
10.8041230903
 20
7.5338035136
 30
0.0
 10
10.8033455
 20
7.5342767931
 30
0.0
 10
10.8024105852
 20
7.5348421553
 30
0.0
 10
10.801164663
 20
7.5355968703
 30
0.0
 10
10.7996070444
 20
7.5365399564
 30
0.0
 10
10.7971149752
 20
7.538049066
 30
0.0
 10
10.7939998473
 20
7.5399353941
 30
0.0
 10
10.7902617116
 20
7.5421990131
 30
0.0
 10
10.7865235712
 20
7.5444626253
 30
0.0
 10
10.7815393856
 20
7.5474807773
 30
0.0
 10
10.775309153
 20
7.5512534664
 30
0.0
 10
10.7690789207
 20
7.5550261561
 30
0.0
 10
10.7640947345
 20
7.5580443071
 30
0.0
 10
10.7603565958
 20
7.5603079223
 30
0.0
 10
10.7566184537
 20
7.5625715299
 30
0.0
 10
10.7535033456
 20
7.5644578934
 30
0.0
 10
10.7510112362
 20
7.5659669308
 30
0.0
 10
10.7494537199
 20
7.5669102008
 30
0.0
 10
10.7482075875
 20
7.5676645383
 30
0.0
 10
10.7472733151
 20
7.568231054
 30
0.0
 10
10.7464937149
 20
7.5687007244
 30
0.0
 10
10.7459500355
 20
7.5690342547
 30
0.0
 10
10.7456361751
 20
7.5692174094
 30
0.0
 10
10.7454097562
 20
7.5693757174
 30
0.0
 10
10.7451490248
 20
7.5694539745
 30
0.0
 10
10.7448133515
 20
7.5695862399
 30
0.0
 10
10.7442203469
 20
7.5698046947
 30
0.0
 10
10.7433761128
 20
7.5701235747
 30
0.0
 10
10.742361784
 20
7.5705033193
 30
0.0
 10
10.7410097815
 20
7.5710106622
 30
0.0
 10
10.7393196292
 20
7.5716444928
 30
0.0
 10
10.7366154688
 20
7.5726588163
 30
0.0
 10
10.7332352397
 20
7.5739266539
 30
0.0
 10
10.7291789771
 20
7.5754480876
 30
0.0
 10
10.7251227112
 20
7.5769695136
 30
0.0
 10
10.7197143578
 20
7.5789980844
 30
0.0
 10
10.7129539157
 20
7.5815337969
 30
0.0
 10
10.7061934738
 20
7.58406951
 30
0.0
 10
10.70078512
 20
7.5860980797
 30
0.0
 10
10.6967288553
 20
7.5876195091
 30
0.0
 10
10.6926725881
 20
7.5891409303
 30
0.0
 10
10.6892923732
 20
7.5904088068
 30
0.0
 10
10.686588184
 20
7.5914230509
 30
0.0
 10
10.684898105
 20
7.5920570836
 30
0.0
 10
10.6835459519
 20
7.5925640116
 30
0.0
 10
10.6825320832
 20
7.5929450242
 30
0.0
 10
10.6816864097
 20
7.5932599368
 30
0.0
 10
10.6810959747
 20
7.5934854739
 30
0.0
 10
10.6807561843
 20
7.5936063917
 30
0.0
 10
10.6805080992
 20
7.593719505
 30
0.0
 10
10.6802341831
 20
7.5937468987
 30
0.0
 10
10.6798779718
 20
7.5938133236
 30
0.0
 10
10.679250404
 20
7.5939156362
 30
0.0
 10
10.6783560733
 20
7.5940690803
 30
0.0
 10
10.6772819371
 20
7.5942500958
 30
0.0
 10
10.6758500837
 20
7.5944925387
 30
0.0
 10
10.6740601544
 20
7.5947952194
 30
0.0
 10
10.6711963305
 20
7.595279717
 30
0.0
 10
10.667616529
 20
7.5958852674
 30
0.0
 10
10.6633207765
 20
7.5966119586
 30
0.0
 10
10.6590250215
 20
7.5973386415
 30
0.0
 10
10.653297349
 20
7.598307555
 30
0.0
 10
10.6461377582
 20
7.5995186959
 30
0.0
 10
10.6375462492
 20
7.6009720654
 30
0.0
 10
10.6260909039
 20
7.6029098912
 30
0.0
 10
10.617499395
 20
7.6043632606
 30
0.0
 10
10.6117717223
 20
7.6053321735
 30
0.0
  0
SPLINE
  5
30E
100
AcDbEntity
  8
0
100
AcDbSpline
 62
4
  6
CONTINUOUS
 70
0
 71
3
 72
403
 73
399
 74
0
 42
0.0000001
 43
0.0000001
 44
0.0000000001
 40
0.0
 40
0.0
 40
0.0
 40
0.0
 40
0.015625
 40
0.0234375
 40
0.03125
 40
0.0390625
 40
0.04296875
 40
0.046875
 40
0.05078125
 40
0.0546875
 40
0.056640625
 40
0.05859375
 40
0.0595703125
 40
0.060546875
 40
0.0615234375
 40
0.0620117188
 40
0.0622558594
 40
0.0625
 40
0.0627441406
 40
0.0629882812
 40
0.0634765625
 40
0.064453125
 40
0.0654296875
 40
0.06640625
 40
0.068359375
 40
0.0703125
 40
0.07421875
 40
0.078125
 40
0.08203125
 40
0.0859375
 40
0.09375
 40
0.1015625
 40
0.10546875
 40
0.109375
 40
0.11328125
 40
0.1171875
 40
0.119140625
 40
0.12109375
 40
0.1220703125
 40
0.123046875
 40
0.1240234375
 40
0.1245117188
 40
0.1247558594
 40
0.125
 40
0.1252441406
 40
0.1254882812
 40
0.1259765625
 40
0.126953125
 40
0.1279296875
 40
0.12890625
 40
0.130859375
 40
0.1328125
 40
0.13671875
 40
0.140625
 40
0.14453125
 40
0.1484375
 40
0.15625
 40
0.1640625
 40
0.16796875
 40
0.171875
 40
0.17578125
 40
0.1796875
 40
0.181640625
 40
0.18359375
 40
0.1845703125
 40
0.185546875
 40
0.1865234375
 40
0.1870117188
 40
0.1872558594
 40
0.1875
 40
0.1877441406
 40
0.1879882812
 40
0.1884765625
 40
0.189453125
 40
0.1904296875
 40
0.19140625
 40
0.193359375
 40
0.1953125
 40
0.19921875
 40
0.203125
 40
0.20703125
 40
0.2109375
 40
0.21875
 40
0.2265625
 40
0.23046875
 40
0.234375
 40
0.23828125
 40
0.2421875
 40
0.244140625
 40
0.24609375
 40
0.2470703125
 40
0.248046875
 40
0.2490234375
 40
0.2495117188
 40
0.2497558594
 40
0.25
 40
0.2502441406
 40
0.2504882812
 40
0.2509765625
 40
0.251953125
 40
0.2529296875
 40
0.25390625
 40
0.255859375
 40
0.2578125
 40
0.26171875
 40
0.265625
 40
0.26953125
 40
0.2734375
 40
0.28125
 40
0.2890625
 40
0.29296875
 40
0.296875
 40
0.30078125
 40
0.3046875
 40
0.306640625
 40
0.30859375
 40
0.3095703125
 40
0.310546875
 40
0.3115234375
 40
0.3120117188
 40
0.3122558594
 40
0.3125
 40
0.3127441406
 40
0.3129882812
 40
0.3134765625
 40
0.314453125
 40
0.3154296875
 40
0.31640625
 40
0.318359375
 40
0.3203125
 40
0.32421875
 40
0.328125
 40
0.33203125
 40
0.3359375
 40
0.34375
 40
0.3515625
 40
0.35546875
 40
0.359375
 40
0.36328125
 40
0.3671875
 40
0.369140625
 40
0.37109375
 40
0.3720703125
 40
0.373046875
 40
0.3740234375
 40
0.3745117188
 40
0.3747558594
 40
0.375
 40
0.3752441406
 40
0.3754882812
 40
0.3759765625
 40
0.376953125
 40
0.3779296875
 40
0.37890625
 40
0.380859375
 40
0.3828125
 40
0.38671875
 40
0.390625
 40
0.39453125
 40
0.3984375
 40
0.40625
 40
0.4140625
 40
0.41796875
 40
0.421875
 40
0.42578125
 40
0.4296875
 40
0.431640625
 40
0.43359375
 40
0.4345703125
 40
0.435546875
 40
0.4365234375
 40
0.4370117188
 40
0.4372558594
 40
0.4375
 40
0.4377441406
 40
0.4379882812
 40
0.4384765625
 40
0.439453125
 40
0.4404296875
 40
0.44140625
 40
0.443359375
 40
0.4453125
 40
0.44921875
 40
0.453125
 40
0.45703125
 40
0.4609375
 40
0.46875
 40
0.4765625
 40
0.48046875
 40
0.484375
 40
0.48828125
 40
0.4921875
 40
0.494140625
 40
0.49609375
 40
0.4970703125
 40
0.498046875
 40
0.4990234375
 40
0.4995117188
 40
0.4997558594
 40
0.5
 40
0.5002441406
 40
0.5004882812
 40
0.5009765625
 40
0.501953125
 40
0.5029296875
 40
0.50390625
 40
0.505859375
 40
0.5078125
 40
0.51171875
 40
0.515625
 40
0.51953125
 40
0.5234375
 40
0.53125
 40
0.5390625
 40
0.54296875
 40
0.546875
 40
0.55078125
 40
0.5546875
 40
0.556640625
 40
0.55859375
 40
0.5595703125
 40
0.560546875
 40
0.5615234375
 40
0.5620117188
 40
0.5622558594
 40
0.5625
 40
0.5627441406
 40
0.5629882812
 40
0.5634765625
 40
0.564453125
 40
0.5654296875
 40
0.56640625
 40
0.568359375
 40
0.5703125
 40
0.57421875
 40
0.578125
 40
0.58203125
 40
0.5859375
 40
0.59375
 40
0.6015625
 40
0.60546875
 40
0.609375
 40
0.61328125
 40
0.6171875
 40
0.619140625
 40
0.62109375
 40
0.6220703125
 40
0.623046875
 40
0.6240234375
 40
0.6245117188
 40
0.6247558594
 40
0.625
 40
0.6252441406
 40
0.6254882812
 40
0.6259765625
 40
0.626953125
 40
0.6279296875
 40
0.62890625
 40
0.630859375
 40
0.6328125
 40
0.63671875
 40
0.640625
 40
0.64453125
 40
0.6484375
 40
0.65625
 40
0.6640625
 40
0.66796875
 40
0.671875
 40
0.67578125
 40
0.6796875
 40
0.681640625
 40
0.68359375
 40
0.6845703125
 40
0.685546875
 40
0.6865234375
 40
0.6870117188
 40
0.6872558594
 40
0.6875
 40
0.6877441406
 40
0.6879882812
 40
0.6884765625
 40
0.689453125
 40
0.6904296875
 40
0.69140625
 40
0.693359375
 40
0.6953125
 40
0.69921875
 40
0.703125
 40
0.70703125
 40
0.7109375
 40
0.71875
 40
0.7265625
 40
0.73046875
 40
0.734375
 40
0.73828125
 40
0.7421875
 40
0.744140625
 40
0.74609375
 40
0.7470703125
 40
0.748046875
 40
0.7490234375
 40
0.7495117188
 40
0.7497558594
 40
0.75
 40
0.7502441406
 40
0.7504882812
 40
0.7509765625
 40
0.751953125
 40
0.7529296875
 40
0.75390625
 40
0.755859375
 40
0.7578125
 40
0.76171875
 40
0.765625
 40
0.76953125
 40
0.7734375
 40
0.78125
 40
0.7890625
 40
0.79296875
 40
0.796875
 40
0.80078125
 40
0.8046875
 40
0.806640625
 40
0.80859375
 40
0.8095703125
 40
0.810546875
 40
0.8115234375
 40
0.8120117188
 40
0.8122558594
 40
0.8125
 40
0.8127441406
 40
0.8129882812
 40
0.8134765625
 40
0.814453125
 40
0.8154296875
 40
0.81640625
 40
0.818359375
 40
0.8203125
 40
0.82421875
 40
0.828125
 40
0.83203125
 40
0.8359375
 40
0.84375
 40
0.8515625
 40
0.85546875
 40
0.859375
 40
0.86328125
 40
0.8671875
 40
0.869140625
 40
0.87109375
 40
0.8720703125
 40
0.873046875
 40
0.8740234375
 40
0.8745117188
 40
0.8747558594
 40
0.875
 40
0.8752441406
 40
0.8754882812
 40
0.8759765625
 40
0.876953125
 40
0.8779296875
 40
0.87890625
 40
0.880859375
 40
0.8828125
 40
0.88671875
 40
0.890625
 40
0.89453125
 40
0.8984375
 40
0.90625
 40
0.9140625
 40
0.91796875
 40
0.921875
 40
0.92578125
 40
0.9296875
 40
0.931640625
 40
0.93359375
 40
0.9345703125
 40
0.935546875
 40
0.9365234375
 40
0.9370117188
 40
0.9372558594
 40
0.9375
 40
0.9377441406
 40
0.9379882812
 40
0.9384765625
 40
0.939453125
 40
0.9404296875
 40
0.94140625
 40
0.943359375
 40
0.9453125
 40
0.94921875
 40
0.953125
 40
0.95703125
 40
0.9609375
 40
0.96875
 40
0.9765625
 40
0.984375
 40
1.0
 40
1.0
 40
1.0
 40
1.0
 10
10.6117717527
 20
7.6053321714
 30
0.0
 10
10.6061432732
 20
7.6051706306
 30
0.0
 10
10.597700554
 20
7.6049283193
 30
0.0
 10
10.586443595
 20
7.6046052376
 30
0.0
 10
10.5780008758
 20
7.6043629262
 30
0.0
 10
10.5709652764
 20
7.6041610004
 30
0.0
 10
10.565336797
 20
7.603999459
 30
0.0
 10
10.561115437
 20
7.6038783051
 30
0.0
 10
10.5568940787
 20
7.6037571427
 30
0.0
 10
10.553376275
 20
7.6036562006
 30
0.0
 10
10.5505620435
 20
7.6035753876
 30
0.0
 10
10.5488031225
 20
7.6035250144
 30
0.0
 10
10.5473960461
 20
7.6034844068
 30
0.0
 10
10.5463405735
 20
7.6034547971
 30
0.0
 10
10.5454615386
 20
7.6034274314
 30
0.0
 10
10.5448451828
 20
7.6034135562
 30
0.0
 10
10.54449459
 20
7.603397382
 30
0.0
 10
10.5442271084
 20
7.6034084793
 30
0.0
 10
10.5439769694
 20
7.6033307875
 30
0.0
 10
10.5436374015
 20
7.603258169
 30
0.0
 10
10.543045976
 20
7.603116657
 30
0.0
 10
10.542199609
 20
7.6029220409
 30
0.0
 10
10.5411845993
 20
7.6026852726
 30
0.0
 10
10.5398310328
 20
7.6023707093
 30
0.0
 10
10.5381391501
 20
7.601977119
 30
0.0
 10
10.5354320955
 20
7.6013475904
 30
0.0
 10
10.5320482918
 20
7.6005606056
 30
0.0
 10
10.5279877212
 20
7.5996162556
 30
0.0
 10
10.5239271522
 20
7.5986718971
 30
0.0
 10
10.5185130596
 20
7.5974127554
 30
0.0
 10
10.5117454441
 20
7.5958388272
 30
0.0
 10
10.5049778284
 20
7.5942648996
 30
0.0
 10
10.4995637362
 20
7.5930057568
 30
0.0
 10
10.4955031662
 20
7.5920614018
 30
0.0
 10
10.4914425994
 20
7.5911170386
 30
0.0
 10
10.4880587836
 20
7.5903300946
 30
0.0
 10
10.4853517537
 20
7.5897004828
 30
0.0
 10
10.4836598083
 20
7.5893071044
 30
0.0
 10
10.4823063704
 20
7.5889921062
 30
0.0
 10
10.4812909678
 20
7.5887566665
 30
0.0
 10
10.4804458301
 20
7.5885578935
 30
0.0
 10
10.4798522101
 20
7.5884238024
 30
0.0
 10
10.4795161584
 20
7.5883392936
 30
0.0
 10
10.4792552186
 20
7.5882981251
 30
0.0
 10
10.4790283033
 20
7.5881720471
 30
0.0
 10
10.4787138814
 20
7.5880335605
 30
0.0
 10
10.4781691727
 20
7.5877774097
 30
0.0
 10
10.4773881265
 20
7.5874186944
 30
0.0
 10
10.4764521084
 20
7.586985148
 30
0.0
 10
10.4752036521
 20
7.5864081648
 30
0.0
 10
10.4736432298
 20
7.5856865664
 30
0.0
 10
10.4711464713
 20
7.5845322154
 30
0.0
 10
10.4680255516
 20
7.5830892058
 30
0.0
 10
10.4642804358
 20
7.5813576247
 30
0.0
 10
10.4605353232
 20
7.5796260354
 30
0.0
 10
10.4555418387
 20
7.5773172526
 30
0.0
 10
10.4492999834
 20
7.574431273
 30
0.0
 10
10.4430581279
 20
7.5715452941
 30
0.0
 10
10.4380646438
 20
7.5692365101
 30
0.0
 10
10.4343195297
 20
7.5675049243
 30
0.0
 10
10.4305744198
 20
7.5657733304
 30
0.0
 10
10.4274534818
 20
7.5643303603
 30
0.0
 10
10.4249567606
 20
7.5631759288
 30
0.0
 10
10.4233962435
 20
7.5624545354
 30
0.0
 10
10.4221479816
 20
7.5618771313
 30
0.0
 10
10.4212113697
 20
7.5614448706
 30
0.0
 10
10.4204321816
 20
7.5610821328
 30
0.0
 10
10.4198841559
 20
7.5608331629
 30
0.0
 10
10.4195750487
 20
7.5606831707
 30
0.0
 10
10.4193318083
 20
7.5605924343
 30
0.0
 10
10.4191321826
 20
7.5604185286
 30
0.0
 10
10.4188508017
 20
7.5602156646
 30
0.0
 10
10.4183654732
 20
7.5598471363
 30
0.0
 10
10.417668441
 20
7.5593277338
 30
0.0
 10
10.4168335886
 20
7.5587014262
 30
0.0
 10
10.415719898
 20
7.5578674057
 30
0.0
 10
10.4143279745
 20
7.5568245184
 30
0.0
 10
10.4121007908
 20
7.555156101
 30
0.0
 10
10.4093168476
 20
7.5530705097
 30
0.0
 10
10.4059761001
 20
7.55056783
 30
0.0
 10
10.4026353569
 20
7.5480651423
 30
0.0
 10
10.398181031
 20
7.5447282282
 30
0.0
 10
10.3926131243
 20
7.5405570845
 30
0.0
 10
10.3870452171
 20
7.5363859414
 30
0.0
 10
10.382590892
 20
7.5330490263
 30
0.0
 10
10.3792501465
 20
7.5305463416
 30
0.0
 10
10.3759094076
 20
7.5280436508
 30
0.0
 10
10.3731254377
 20
7.525958094
 30
0.0
 10
10.3708983085
 20
7.5242896063
 30
0.0
 10
10.3695062464
 20
7.5232468978
 30
0.0
 10
10.3683928402
 20
7.5224125103
 30
0.0
 10
10.3675571191
 20
7.5217873241
 30
0.0
 10
10.3668628047
 20
7.5212644128
 30
0.0
 10
10.3663726246
 20
7.5209021484
 30
0.0
 10
10.3660990171
 20
7.5206892481
 30
0.0
 10
10.3658755139
 20
7.5205461709
 30
0.0
 10
10.3657219534
 20
7.5203396478
 30
0.0
 10
10.3654928093
 20
7.5200864143
 30
0.0
 10
10.3651031741
 20
7.5196329446
 30
0.0
 10
10.3645406096
 20
7.5189905215
 30
0.0
 10
10.3638680759
 20
7.5182173064
 30
0.0
 10
10.3629704758
 20
7.5171871588
 30
0.0
 10
10.3618487799
 20
7.5158991984
 30
0.0
 10
10.3600538964
 20
7.513838616
 30
0.0
 10
10.3578103504
 20
7.5112628351
 30
0.0
 10
10.3551180702
 20
7.5081719207
 30
0.0
 10
10.3524257967
 20
7.5050810002
 30
0.0
 10
10.3488360964
 20
7.500959775
 30
0.0
 10
10.3443489718
 20
7.4958082427
 30
0.0
 10
10.3398618467
 20
7.4906567109
 30
0.0
 10
10.3362721473
 20
7.4865354849
 30
0.0
 10
10.3335798709
 20
7.4834445668
 30
0.0
 10
10.3308876016
 20
7.4803536434
 30
0.0
 10
10.3286440217
 20
7.4777778903
 30
0.0
 10
10.3268492073
 20
7.4757172512
 30
0.0
 10
10.3257273356
 20
7.4744294351
 30
0.0
 10
10.3248300964
 20
7.4733989914
 30
0.0
 10
10.3241564602
 20
7.4726266809
 30
0.0
 10
10.3235973453
 20
7.4719814276
 30
0.0
 10
10.3232015519
 20
7.4715330104
 30
0.0
 10
10.3229822747
 20
7.4712716815
 30
0.0
 10
10.3227984064
 20
7.471090025
 30
0.0
 10
10.3226887342
 20
7.470853553
 30
0.0
 10
10.3225166241
 20
7.4705573774
 30
0.0
 10
10.3222274897
 20
7.4700301615
 30
0.0
 10
10.3218081363
 20
7.4692816535
 30
0.0
 10
10.3213076107
 20
7.4683814502
 30
0.0
 10
10.3206393006
 20
7.4671818756
 30
0.0
 10
10.3198042358
 20
7.4656821688
 30
0.0
 10
10.3184679517
 20
7.4632827713
 30
0.0
 10
10.3167976585
 20
7.4602834786
 30
0.0
 10
10.3147932801
 20
7.456684347
 30
0.0
 10
10.3127889088
 20
7.4530852102
 30
0.0
 10
10.3101164113
 20
7.4482863629
 30
0.0
 10
10.3067757903
 20
7.4422878032
 30
0.0
 10
10.3034351686
 20
7.4362892438
 30
0.0
 10
10.3007626721
 20
7.4314903959
 30
0.0
 10
10.2987582977
 20
7.427891261
 30
0.0
 10
10.2967539311
 20
7.4242921222
 30
0.0
 10
10.2950836011
 20
7.4212928519
 30
0.0
 10
10.2937473921
 20
7.4188934089
 30
0.0
 10
10.2929121362
 20
7.4173938178
 30
0.0
 10
10.2922442183
 20
7.4161940057
 30
0.0
 10
10.2917424946
 20
7.4152945279
 30
0.0
 10
10.2913268897
 20
7.41454375
 30
0.0
 10
10.2910310636
 20
7.4140205862
 30
0.0
 10
10.2908696752
 20
7.4137179181
 30
0.0
 10
10.2907270694
 20
7.413501389
 30
0.0
 10
10.2906668941
 20
7.4132448307
 30
0.0
 10
10.2905579077
 20
7.4129167157
 30
0.0
 10
10.2903805779
 20
7.4123360089
 30
0.0
 10
10.2901202458
 20
7.4115098289
 30
0.0
 10
10.2898108452
 20
7.4105169572
 30
0.0
 10
10.2893972639
 20
7.4091936367
 30
0.0
 10
10.2888806458
 20
7.4075393119
 30
0.0
 10
10.2880538565
 20
7.4048924896
 30
0.0
 10
10.2870204386
 20
7.4015839283
 30
0.0
 10
10.2857803076
 20
7.397613669
 30
0.0
 10
10.2845401846
 20
7.3936434059
 30
0.0
 10
10.2828866844
 20
7.3883497232
 30
0.0
 10
10.2808198102
 20
7.3817326192
 30
0.0
 10
10.2787529353
 20
7.3751155156
 30
0.0
 10
10.2770994362
 20
7.3698218323
 30
0.0
 10
10.2758593097
 20
7.3658515707
 30
0.0
 10
10.2746191916
 20
7.361881306
 30
0.0
 10
10.2735857338
 20
7.3585727616
 30
0.0
 10
10.2727590259
 20
7.3559259048
 30
0.0
 10
10.2722422005
 20
7.3542716678
 30
0.0
 10
10.2718290447
 20
7.3529481672
 30
0.0
 10
10.2715183441
 20
7.3519558456
 30
0.0
 10
10.2712620792
 20
7.3511279442
 30
0.0
 10
10.2710774889
 20
7.3505503105
 30
0.0
 10
10.2709801356
 20
7.3502172716
 30
0.0
 10
10.270884227
 20
7.3499758377
 30
0.0
 10
10.2708758295
 20
7.3497025042
 30
0.0
 10
10.2708341079
 20
7.3493491864
 30
0.0
 10
10.2707753173
 20
7.3487256961
 30
0.0
 10
10.2706838952
 20
7.3478377059
 30
0.0
 10
10.2705773713
 20
7.3467709577
 30
0.0
 10
10.2704342279
 20
7.3453490319
 30
0.0
 10
10.2702556791
 20
7.3435714858
 30
0.0
 10
10.2699697884
 20
7.3407274897
 30
0.0
 10
10.2696124981
 20
7.337172468
 30
0.0
 10
10.2691837184
 20
7.3329064534
 30
0.0
 10
10.268754947
 20
7.3286404357
 30
0.0
 10
10.268183249
 20
7.3229524131
 30
0.0
 10
10.2674686275
 20
7.3158423846
 30
0.0
 10
10.2667540052
 20
7.3087323562
 30
0.0
 10
10.2661823084
 20
7.3030443334
 30
0.0
 10
10.2657535334
 20
7.2987783163
 30
0.0
 10
10.2653247672
 20
7.2945122994
 30
0.0
 10
10.2649674349
 20
7.2909572848
 30
0.0
 10
10.2646816297
 20
7.2881132742
 30
0.0
 10
10.2645028634
 20
7.286335765
 30
0.0
 10
10.2643601666
 20
7.2849137636
 30
0.0
 10
10.2642522781
 20
7.2838472462
 30
0.0
 10
10.2641651256
 20
7.2829585338
 30
0.0
 10
10.264098713
 20
7.2823363328
 30
0.0
 10
10.2640692037
 20
7.2819809492
 30
0.0
 10
10.2640232941
 20
7.2817139613
 30
0.0
 10
10.2640682746
 20
7.2814486941
 30
0.0
 10
10.2640965452
 20
7.2810944043
 30
0.0
 10
10.2641607899
 20
7.2804746768
 30
0.0
 10
10.2642448455
 20
7.2795892056
 30
0.0
 10
10.2643490177
 20
7.2785267027
 30
0.0
 10
10.2644867595
 20
7.2771100103
 30
0.0
 10
10.264659332
 20
7.2753391523
 30
0.0
 10
10.264935227
 20
7.2725057753
 30
0.0
 10
10.2652801717
 20
7.2689640555
 30
0.0
 10
10.2656940727
 20
7.2647139911
 30
0.0
 10
10.2661079825
 20
7.2604639269
 30
0.0
 10
10.2666598591
 20
7.2547971746
 30
0.0
 10
10.267349706
 20
7.2477137343
 30
0.0
 10
10.2680395522
 20
7.2406302938
 30
0.0
 10
10.26859143
 20
7.2349635416
 30
0.0
 10
10.2690053362
 20
7.2307134771
 30
0.0
 10
10.2694192508
 20
7.2264634138
 30
0.0
 10
10.2697641534
 20
7.2229216909
 30
0.0
 10
10.270040134
 20
7.2200883202
 30
0.0
 10
10.2702124888
 20
7.2183174463
 30
0.0
 10
10.2703506774
 20
7.2169007864
 30
0.0
 10
10.2704534845
 20
7.2158381842
 30
0.0
 10
10.2705418114
 20
7.2149530238
 30
0.0
 10
10.270598431
 20
7.2143327414
 30
0.0
 10
10.270638919
 20
7.2139793407
 30
0.0
 10
10.2706463716
 20
7.2137113423
 30
0.0
 10
10.2707414106
 20
7.2134546123
 30
0.0
 10
10.2708375782
 20
7.2131083752
 30
0.0
 10
10.2710201057
 20
7.2125042914
 30
0.0
 10
10.2712734175
 20
7.2116403572
 30
0.0
 10
10.271580577
 20
7.2106040459
 30
0.0
 10
10.2719890104
 20
7.2092221544
 30
0.0
 10
10.2724999332
 20
7.2074948391
 30
0.0
 10
10.2733171966
 20
7.2047311071
 30
0.0
 10
10.274338849
 20
7.2012764516
 30
0.0
 10
10.2755648006
 20
7.1971308609
 30
0.0
 10
10.2767907605
 20
7.1929852713
 30
0.0
 10
10.2784253708
 20
7.1874578181
 30
0.0
 10
10.2804686348
 20
7.1805485018
 30
0.0
 10
10.282511898
 20
7.1736391853
 30
0.0
 10
10.2841465095
 20
7.1681117324
 30
0.0
 10
10.285372466
 20
7.163966142
 30
0.0
 10
10.2865984304
 20
7.1598205543
 30
0.0
 10
10.2876200428
 20
7.1563658894
 30
0.0
 10
10.2884373878
 20
7.1536021764
 30
0.0
 10
10.288948103
 20
7.1518748128
 30
0.0
 10
10.2893569624
 20
7.1504930204
 30
0.0
 10
10.2896628205
 20
7.1494564065
 30
0.0
 10
10.2899202041
 20
7.1485934192
 30
0.0
 10
10.2900954628
 20
7.147987645
 30
0.0
 10
10.2902032769
 20
7.1476441164
 30
0.0
 10
10.2902625417
 20
7.1473790665
 30
0.0
 10
10.2904043562
 20
7.1471423163
 30
0.0
 10
10.2905646481
 20
7.1468167781
 30
0.0
 10
10.2908585746
 20
7.1462516856
 30
0.0
 10
10.2912714556
 20
7.1454420059
 30
0.0
 10
10.2917699151
 20
7.1444714196
 30
0.0
 10
10.2924334791
 20
7.143176945
 30
0.0
 10
10.2932632931
 20
7.1415589749
 30
0.0
 10
10.2945907949
 20
7.1389701538
 30
0.0
 10
10.296250241
 20
7.1357341512
 30
0.0
 10
10.2982415468
 20
7.1318509378
 30
0.0
 10
10.3002328605
 20
7.1279677272
 30
0.0
 10
10.3028879426
 20
7.1227901121
 30
0.0
 10
10.3062067964
 20
7.1163180935
 30
0.0
 10
10.3095256494
 20
7.1098460747
 30
0.0
 10
10.3121807327
 20
7.10466846
 30
0.0
 10
10.3141720431
 20
7.1007852481
 30
0.0
 10
10.3161633612
 20
7.0969020397
 30
0.0
 10
10.317822769
 20
7.0936660215
 30
0.0
 10
10.3191503488
 20
7.0910772322
 30
0.0
 10
10.3199799644
 20
7.0894591811
 30
0.0
 10
10.3206439357
 20
7.0881648727
 30
0.0
 10
10.3211411507
 20
7.0871937788
 30
0.0
 10
10.3215579254
 20
7.0863856872
 30
0.0
 10
10.321844901
 20
7.0858177597
 30
0.0
 10
10.3220163299
 20
7.0854967639
 30
0.0
 10
10.322123935
 20
7.0852460611
 30
0.0
 10
10.3223116849
 20
7.0850334149
 30
0.0
 10
10.3225340626
 20
7.084736612
 30
0.0
 10
10.3229362486
 20
7.0842233918
 30
0.0
 10
10.3235039904
 20
7.0834869866
 30
0.0
 10
10.3241881953
 20
7.0826046844
 30
0.0
 10
10.3250994504
 20
7.0814277981
 30
0.0
 10
10.326238868
 20
7.0799568557
 30
0.0
 10
10.3280617411
 20
7.0776032553
 30
0.0
 10
10.3303403995
 20
7.0746612866
 30
0.0
 10
10.3330747608
 20
7.0711309105
 30
0.0
 10
10.3358091299
 20
7.0676005381
 30
0.0
 10
10.3394549525
 20
7.0628933736
 30
0.0
 10
10.3440122319
 20
7.0570094185
 30
0.0
 10
10.3485695106
 20
7.051125463
 30
0.0
 10
10.3522153342
 20
7.0464182992
 30
0.0
 10
10.3549497004
 20
7.0428879247
 30
0.0
 10
10.3576840723
 20
7.0393575565
 30
0.0
 10
10.359962698
 20
7.0364155634
 30
0.0
 10
10.3617856377
 20
7.0340620128
 30
0.0
 10
10.362924886
 20
7.0325909436
 30
0.0
 10
10.3638364885
 20
7.0314143175
 30
0.0
 10
10.3645196321
 20
7.0305312203
 30
0.0
 10
10.3650906943
 20
7.0297973025
 30
0.0
 10
10.3654869528
 20
7.0292796419
 30
0.0
 10
10.3657188279
 20
7.0289899538
 30
0.0
 10
10.3658774051
 20
7.0287554532
 30
0.0
 10
10.3660945776
 20
7.0285868318
 30
0.0
 10
10.3663637023
 20
7.0283390238
 30
0.0
 10
10.3668441933
 20
7.0279160664
 30
0.0
 10
10.3675256304
 20
7.0273062441
 30
0.0
 10
10.3683454859
 20
7.0265768532
 30
0.0
 10
10.3694378822
 20
7.0256034952
 30
0.0
 10
10.3708036325
 20
7.0243870842
 30
0.0
 10
10.3729886905
 20
7.0224406664
 30
0.0
 10
10.3757200618
 20
7.0200076992
 30
0.0
 10
10.3789976865
 20
7.0170881149
 30
0.0
 10
10.3822753168
 20
7.014168537
 30
0.0
 10
10.3866454886
 20
7.0102757642
 30
0.0
 10
10.392108204
 20
7.0054097991
 30
0.0
 10
10.397570919
 20
7.0005438333
 30
0.0
 10
10.4019410915
 20
6.9966510615
 30
0.0
 10
10.4052187196
 20
6.9937314808
 30
0.0
 10
10.4084963525
 20
6.9908119069
 30
0.0
 10
10.4112276984
 20
6.9883789075
 30
0.0
 10
10.4134128083
 20
6.9864325553
 30
0.0
 10
10.4147784265
 20
6.9852159776
 30
0.0
 10
10.4158710939
 20
6.9842429617
 30
0.0
 10
10.4166901212
 20
6.9835125256
 30
0.0
 10
10.4173741494
 20
6.9829059732
 30
0.0
 10
10.4178500149
 20
6.9824771785
 30
0.0
 10
10.4181265507
 20
6.9822387234
 30
0.0
 10
10.4183209585
 20
6.982041373
 30
0.0
 10
10.4185650363
 20
6.9819147739
 30
0.0
 10
10.4188731478
 20
6.9817212962
 30
0.0
 10
10.4194204152
 20
6.9813942086
 30
0.0
 10
10.4201980055
 20
6.9809209292
 30
0.0
 10
10.4211329203
 20
6.980355567
 30
0.0
 10
10.4223788424
 20
6.979600852
 30
0.0
 10
10.4239364611
 20
6.9786577659
 30
0.0
 10
10.4264285303
 20
6.9771486562
 30
0.0
 10
10.4295436582
 20
6.9752623282
 30
0.0
 10
10.4332817939
 20
6.9729987092
 30
0.0
 10
10.4370199343
 20
6.970735097
 30
0.0
 10
10.4420041199
 20
6.967716945
 30
0.0
 10
10.4482343525
 20
6.9639442559
 30
0.0
 10
10.4544645848
 20
6.9601715662
 30
0.0
 10
10.459448771
 20
6.9571534152
 30
0.0
 10
10.4631869097
 20
6.9548897999
 30
0.0
 10
10.4669250518
 20
6.9526261923
 30
0.0
 10
10.4700401599
 20
6.9507398288
 30
0.0
 10
10.4725322693
 20
6.9492307914
 30
0.0
 10
10.4740897856
 20
6.9482875214
 30
0.0
 10
10.475335918
 20
6.947533184
 30
0.0
 10
10.4762701904
 20
6.9469666683
 30
0.0
 10
10.4770497906
 20
6.9464969979
 30
0.0
 10
10.47759347
 20
6.9461634675
 30
0.0
 10
10.4779073304
 20
6.9459803128
 30
0.0
 10
10.4781337493
 20
6.9458220048
 30
0.0
 10
10.4783944807
 20
6.9457437478
 30
0.0
 10
10.478730154
 20
6.9456114823
 30
0.0
 10
10.4793231586
 20
6.9453930275
 30
0.0
 10
10.4801673927
 20
6.9450741476
 30
0.0
 10
10.4811817215
 20
6.944694403
 30
0.0
 10
10.482533724
 20
6.94418706
 30
0.0
 10
10.4842238763
 20
6.9435532295
 30
0.0
 10
10.4869280367
 20
6.942538906
 30
0.0
 10
10.4903082657
 20
6.9412710684
 30
0.0
 10
10.4943645284
 20
6.9397496347
 30
0.0
 10
10.4984207943
 20
6.9382282086
 30
0.0
 10
10.5038291477
 20
6.9361996378
 30
0.0
 10
10.5105895898
 20
6.9336639254
 30
0.0
 10
10.5173500317
 20
6.9311282122
 30
0.0
 10
10.5227583855
 20
6.9290996426
 30
0.0
 10
10.5268146502
 20
6.9275782132
 30
0.0
 10
10.5308709174
 20
6.926056792
 30
0.0
 10
10.5342511323
 20
6.9247889154
 30
0.0
 10
10.5369553215
 20
6.9237746714
 30
0.0
 10
10.5386454005
 20
6.9231406386
 30
0.0
 10
10.5399975536
 20
6.9226337107
 30
0.0
 10
10.5410114223
 20
6.9222526981
 30
0.0
 10
10.5418570957
 20
6.9219377855
 30
0.0
 10
10.5424475308
 20
6.9217122484
 30
0.0
 10
10.5427873212
 20
6.9215913306
 30
0.0
 10
10.5430354063
 20
6.9214782172
 30
0.0
 10
10.5433093224
 20
6.9214508235
 30
0.0
 10
10.5436655337
 20
6.9213843987
 30
0.0
 10
10.5442931015
 20
6.921282086
 30
0.0
 10
10.5451874321
 20
6.9211286419
 30
0.0
 10
10.5462615683
 20
6.9209476264
 30
0.0
 10
10.5476934218
 20
6.9207051836
 30
0.0
 10
10.549483351
 20
6.9204025028
 30
0.0
 10
10.552347175
 20
6.9199180053
 30
0.0
 10
10.5559269764
 20
6.9193124549
 30
0.0
 10
10.560222729
 20
6.9185857637
 30
0.0
 10
10.564518484
 20
6.9178590807
 30
0.0
 10
10.5702461564
 20
6.9168901672
 30
0.0
 10
10.5774057473
 20
6.9156790264
 30
0.0
 10
10.5859972563
 20
6.9142256569
 30
0.0
 10
10.5974526015
 20
6.9122878311
 30
0.0
 10
10.6060441105
 20
6.9108344617
 30
0.0
 10
10.6117717831
 20
6.9098655487
 30
0.0
  0
ENDSEC
  0
SECTION
  2
OBJECTS
  0
DICTIONARY
  5
C
100
AcDbDictionary
280
0
281
1
  3
ACAD_GROUP
350
D
  3
ACAD_MLINESTYLE
350
17
  3
ACAD_LAYOUT
350
1A
  3
ACAD_PLOTSETTINGS
350
19
  3
ACAD_PLOTSTYLENAME
350
E
  3
ACAD_IMAGE_DICT
350
       310
  3
ACAD_IMAGE_VARS
350
       311
  3
ACAD_TABLESTYLE
350
       312
  0
IMAGEDEF_REACTOR
  5
30F
100
AcDbRasterImageDefReactor
 90
2
330
27F
  0
DICTIONARY
  5
D
102
{ACAD_REACTORS
330
C
102
}
100
AcDbDictionary
280
0
281
1
  0
ACDBDICTIONARYWDFLT
  5
E
102
{ACAD_REACTORS
330
C
102
}
100
AcDbDictionary
281
1
  3
Normal
350
F
100
AcDbDictionaryWithDefault
340
F
  0
DICTIONARY
  5
310
330
C
100
AcDbDictionary
281
1
  3
FAV_assy_2_img_1
350
       315
  0
RASTERVARIABLES
  5
311
330
C
100
AcDbRasterVariables
 90
0
 70
0
 71
1
 72
5
  0
DICTIONARY
  5
17
102
{ACAD_REACTORS
330
C
102
}
100
AcDbDictionary
280
0
281
1
  3
Standard
350
18
  0
DICTIONARY
  5
312
330
C
100
AcDbDictionary
281
1
  3
Standard
350
       316
  3
Standard1
350
       317
  0
DICTIONARY
  5
19
102
{ACAD_REACTORS
330
C
102
}
100
AcDbDictionary
281
1
  0
DICTIONARY
  5
1A
102
{ACAD_REACTORS
330
C
102
}
100
AcDbDictionary
281
1
  3
Model
350
313
  3
Layout1
350
314
  0
ACDBPLACEHOLDER
  5
F
102
{ACAD_REACTORS
330
E
102
}
  0
MLINESTYLE
  5
18
102
{ACAD_REACTORS
330
17
102
}
100
AcDbMlineStyle
  2
STANDARD
 70
0
  3

 62
256
 51
90.0
 52
90.0
 71
2
 49
0.5
 62
256
  6
BYLAYER
 49
-0.5
 62
256
  6
BYLAYER
  0
LAYOUT
  5
313
102
{ACAD_REACTORS
330
1A
102
}
100
AcDbPlotSettings
  1

  2
none_device
  4
ANSI_C_(22.00_x_17.00_Inches)
  6

 40
0.0
 41
0.0
 42
0.0
 43
0.0
 44
558.8
 45
431.8
 46
0.0
 47
0.0
 48
0.0
 49
0.0
140
0.0
141
0.0
142
1.0
143
1.0
 70
1024
 72
0
 73
0
 74
0
  7

 75
0
147
1.0
148
0.0
149
0.0
100
AcDbLayout
  1
Model
 70
0
 71
0
 10
0.0
 20
0.0
 11
22.0
 21
17.0
 12
0.0
 22
0.0
 32
0.0
 14
0.0
 24
0.0
 34
0.0
 15
0.0
 25
0.0
 35
0.0
146
0.0
 13
0.0
 23
0.0
 33
0.0
 16
1.0
 26
0.0
 36
0.0
 17
0.0
 27
1.0
 37
0.0
 76
0
330
204
345
0
346
0
  0
LAYOUT
  5
314
102
{ACAD_REACTORS
330
1A
102
}
100
AcDbPlotSettings
  1

  2
none_device
  4
ANSI_C_(22.00_x_17.00_Inches)
  6

 40
0.0
 41
0.0
 42
0.0
 43
0.0
 44
558.8
 45
431.8
 46
0.0
 47
0.0
 48
0.0
 49
0.0
140
0.0
141
0.0
142
1.0
143
1.0
 70
0
 72
0
 73
0
 74
0
  7

 75
0
147
1.0
148
0.0
149
0.0
100
AcDbLayout
  1
Layout1
 70
0
 71
1
 10
0.0
 20
0.0
 11
22.0
 21
17.0
 12
0.0
 22
0.0
 32
0.0
 14
0.0
 24
0.0
 34
0.0
 15
0.0
 25
0.0
 35
0.0
146
0.0
 13
0.0
 23
0.0
 33
0.0
 16
1.0
 26
0.0
 36
0.0
 17
0.0
 27
1.0
 37
0.0
 76
0
330
205
345
0
346
0
  0
IMAGEDEF
  5
315
102
{ACAD_REACTORS
330
310
330
30F
102
}
100
AcDbRasterImageDef
 90
0
  1
FAV_assy_2_img_1.png
 10
369.0
 20
92.0
 11
0.0066666667
 21
0.0066666667
280
1
281
0
  0
TABLESTYLE
  5
316
102
{ACAD_REACTORS
330
312
330
282
330
283
102
}
330
312
100
AcDbTableStyle
  3
Standard
 70
0
 71
0
 40
0.06
 41
0.06
280
1
281
1
  7
Standard
140
0.18
170
1
 62
0
 63
7
283
0
  7
Standard
140
0.18
170
1
 62
0
 63
7
283
0
  7
Standard
140
0.18
170
1
 62
0
 63
7
283
0
  0
TABLESTYLE
  5
317
102
{ACAD_REACTORS
330
312
330
281
102
}
330
312
100
AcDbTableStyle
  3
Standard1
 70
1
 71
0
 40
0.06
 41
0.06
280
1
281
1
  7
Standard
140
0.18
170
1
 62
0
 63
7
283
0
  7
Standard
140
0.18
170
1
 62
0
 63
7
283
0
  7
Standard
140
0.18
170
1
 62
0
 63
7
283
0
  0
ENDSEC
  0
EOF
