999
DXF file: FAT_assy_2.dxf
999
Pro/ENGINEER 2014200 by Parametric Technology Corporation
  0
SECTION
  2
HEADER
  9
$ACADVER
  1
AC1021
  9
$DWGCODEPAGE
  3
ANSI_1252
  9
$EXTMAX
 10
22.0
 20
17.0
 30
0.0
  9
$EXTMIN
 10
0.0
 20
0.0
 30
0.0
  9
$LIMMIN
 10
0.0
 20
0.0
  9
$LIMMAX
 10
22.0
 20
17.0
  9
$VIEWCTR
 10
11.0
 20
8.5
  9
$VIEWSIZE
 40
17.0
  9
$CLAYER
  8
0
  9
$LTSCALE
 40
1.21
  9
$CELTYPE
  6
BYLAYER
  9
$DIMSCALE
 40
1.0
  9
$DIMASZ
 40
0.1875
  9
$DIMEXO
 40
0.0625
  9
$DIMDLI
 40
0.836
  9
$DIMEXE
 40
0.125
  9
$DIMCEN
 40
0.198
  9
$DIMLFAC
 40
1.0
  9
$DIMBLK
  1
_FILLED
  9
$DIMTXT
 40
0.1
  9
$DIMTOL
 70
0
  9
$DIMLIM
 70
0
  9
$DIMTFAC
 40
1.0
  9
$DIMGAP
 40
0.09
  9
$DIMDSEP
 70
46
  9
$AUNITS
 70
0
  9
$PDMODE
 70
3
  9
$PDSIZE
 40
0.3125
  9
$HANDSEED
  5
332
  9
$TILEMODE
 70
1
  9
$MEASUREMENT
 70
0
  9
$INSUNITS
 70
1
  0
ENDSEC
  0
SECTION
  2
CLASSES
  0
CLASS
  1
ACDBDICTIONARYWDFLT
  2
AcDbDictionaryWithDefault
  3
AutoCAD 2000
 90
0
 91
1
280
0
281
0
  0
CLASS
  1
ACDBPLACEHOLDER
  2
AcDbPlaceHolder
  3
AutoCAD 2000
 90
0
 91
1
280
0
281
0
  0
CLASS
  1
LAYOUT
  2
AcDbLayout
  3
AutoCAD 2000
 90
0
 91
0
280
0
281
0
  0
CLASS
  1
RASTERVARIABLES
  2
AcDbRasterVariables
  3
ISM
 90
0
 91
1
280
0
281
0
  0
CLASS
  1
IMAGEDEF
  2
AcDbRasterImageDef
  3
ISM
 90
0
 91
1
280
0
281
0
  0
CLASS
  1
IMAGEDEF_REACTOR
  2
AcDbRasterImageDefReactor
  3
ISM
 90
0
 91
1
280
0
281
0
  0
CLASS
  1
IMAGE
  2
AcDbRasterImage
  3
ISM
 90
127
 91
1
280
0
281
1
  0
CLASS
  1
TABLESTYLE
  2
AcDbTableStyle
  3
ObjectDBX Classes
 90
2047
 91
1
280
0
281
0
  0
CLASS
  1
ACAD_TABLE
  2
AcDbTable
  3
ObjectDBX Classes
 90
1025
 91
3
280
0
281
1
  0
ENDSEC
  0
SECTION
  2
TABLES
  0
TABLE
  2
VPORT
  5
8
100
AcDbSymbolTable
 70
2
  0
VPORT
  5
1F4
100
AcDbSymbolTableRecord
100
AcDbViewportTableRecord
  2
*ACTIVE
 70
0
 10
0.0
 20
0.0
 11
1.0
 21
1.0
 12
11.0
 22
8.5
 13
0.0
 23
0.0
 14
1.0
 24
1.0
 15
0.0
 25
0.0
 16
0.0
 26
0.0
 36
1.0
 17
0.0
 27
0.0
 37
0.0
 40
17.0
 41
1.2941176471
 42
50.0
 43
0.0
 44
0.0
 50
0.0
 51
0.0
 71
0
 72
100
 73
1
 74
1
 75
0
 76
0
 77
0
 78
0
  0
ENDTAB
  0
TABLE
  2
LTYPE
  5
5
100
AcDbSymbolTable
 70
6
  0
LTYPE
  5
14
100
AcDbSymbolTableRecord
100
AcDbLinetypeTableRecord
  2
BYBLOCK
 70
0
  3

 72
65
 73
0
 40
0.0
  0
LTYPE
  5
15
100
AcDbSymbolTableRecord
100
AcDbLinetypeTableRecord
  2
BYLAYER
 70
0
  3

 72
65
 73
0
 40
0.0
  0
LTYPE
  5
16
100
AcDbSymbolTableRecord
100
AcDbLinetypeTableRecord
  2
CONTINUOUS
 70
64
  3
Solid line
 72
65
 73
0
 40
0.0
  0
LTYPE
  5
1F5
100
AcDbSymbolTableRecord
100
AcDbLinetypeTableRecord
  2
CENTER
 70
64
  3
____ _ ____ _ ____ _ ____ _ ____ _ ____ _ ____
 72
65
 73
4
 40
0.6
 49
0.375
 74
0
 49
-0.075
 74
0
 49
0.075
 74
0
 49
-0.075
 74
0
  0
LTYPE
  5
1F6
100
AcDbSymbolTableRecord
100
AcDbLinetypeTableRecord
  2
HIDDEN
 70
64
  3
- - - - - - - - - - - - - - - - - - - -
 72
65
 73
2
 40
0.2
 49
0.1
 74
0
 49
-0.1
 74
0
  0
LTYPE
  5
1F7
100
AcDbSymbolTableRecord
100
AcDbLinetypeTableRecord
  2
PHANTOM
 70
64
  3
_____ _ _ _____ _ _ _____ _ _ _____
 72
65
 73
6
 40
0.8
 49
0.45
 74
0
 49
-0.05
 74
0
 49
0.1
 74
0
 49
-0.05
 74
0
 49
0.1
 74
0
 49
-0.05
 74
0
  0
LTYPE
  5
1F8
100
AcDbSymbolTableRecord
100
AcDbLinetypeTableRecord
  2
DOT
 70
64
  3
. . . . . . . . . . . . . . . . . . . .
 72
65
 73
2
 40
0.2
 49
0.1
 74
0
 49
-0.1
 74
0
  0
LTYPE
  5
1F9
100
AcDbSymbolTableRecord
100
AcDbLinetypeTableRecord
  2
DASHED
 70
64
  3
- - - - - - - - - - - - - - - - - - - -
 72
65
 73
2
 40
0.2
 49
0.1
 74
0
 49
-0.1
 74
0
  0
ENDTAB
  0
TABLE
  2
LAYER
  5
2
100
AcDbSymbolTable
 70
36
  0
LAYER
  5
10
100
AcDbSymbolTableRecord
100
AcDbLayerTableRecord
  2
0
 70
0
 62
7
  6
CONTINUOUS
370
-3
390
F
  0
LAYER
  5
1FA
100
AcDbSymbolTableRecord
100
AcDbLayerTableRecord
  2
DEFAULT_1
 70
0
 62
7
  6
CENTER
370
-3
390
F
  0
LAYER
  5
1FB
100
AcDbSymbolTableRecord
100
AcDbLayerTableRecord
  2
DEFAULT_2
 70
0
 62
8
  6
HIDDEN
370
-3
390
F
  0
LAYER
  5
1FC
100
AcDbSymbolTableRecord
100
AcDbLayerTableRecord
  2
DEFAULT_3
 70
0
 62
7
  6
PHANTOM
370
-3
390
F
  0
LAYER
  5
1FD
100
AcDbSymbolTableRecord
100
AcDbLayerTableRecord
  2
DATUM_PLANES
 70
0
 62
7
  6
CONTINUOUS
370
-3
390
F
  0
LAYER
  5
1FE
100
AcDbSymbolTableRecord
100
AcDbLayerTableRecord
  2
PORT_AREAS
 70
0
 62
7
  6
CONTINUOUS
370
-3
390
F
  0
LAYER
  5
1FF
100
AcDbSymbolTableRecord
100
AcDbLayerTableRecord
  2
SUNNBOMCOSMETIC
 70
0
 62
7
  6
CONTINUOUS
370
-3
390
F
  0
LAYER
  5
200
100
AcDbSymbolTableRecord
100
AcDbLayerTableRecord
  2
SUNNBOMSTAMPING
 70
0
 62
7
  6
CONTINUOUS
370
-3
390
F
  0
LAYER
  5
201
100
AcDbSymbolTableRecord
100
AcDbLayerTableRecord
  2
THREADS
 70
0
 62
7
  6
CONTINUOUS
370
-3
390
F
  0
ENDTAB
  0
TABLE
  2
STYLE
  5
3
100
AcDbSymbolTable
 70
1
  0
STYLE
  5
11
100
AcDbSymbolTableRecord
100
AcDbTextStyleTableRecord
  2
STANDARD
 70
0
 40
0.0
 41
0.8
 50
0.0
 71
0
 42
0.2
  3
txt
  4

  0
STYLE
  5
202
100
AcDbSymbolTableRecord
100
AcDbTextStyleTableRecord
  2
TEXTSTYLE_1
 70
0
 40
0.0
 41
0.8
 50
0.0
 71
0
 42
0.2
  3
gdt
  4

  0
ENDTAB
  0
TABLE
  2
VIEW
  5
6
100
AcDbSymbolTable
 70
0
  0
ENDTAB
  0
TABLE
  2
UCS
  5
7
100
AcDbSymbolTable
 70
0
  0
ENDTAB
  0
TABLE
  2
APPID
  5
9
100
AcDbSymbolTable
 70
1
  0
APPID
  5
203
100
AcDbSymbolTableRecord
100
AcDbRegAppTableRecord
  2
ACAD
 70
0
  0
ENDTAB
  0
TABLE
  2
BLOCK_RECORD
  5
1
100
AcDbSymbolTable
 70
0
  0
BLOCK_RECORD
  5
204
100
AcDbSymbolTableRecord
100
AcDbBlockTableRecord
  2
*Model_Space
  0
BLOCK_RECORD
  5
205
100
AcDbSymbolTableRecord
100
AcDbBlockTableRecord
  2
*Paper_Space
  0
BLOCK_RECORD
  5
206
100
AcDbSymbolTableRecord
100
AcDbBlockTableRecord
  2
SUN_FIRST_THIRD_ANGLE_BL0
  0
BLOCK_RECORD
  5
207
100
AcDbSymbolTableRecord
100
AcDbBlockTableRecord
  2
*T1
  0
BLOCK_RECORD
  5
208
100
AcDbSymbolTableRecord
100
AcDbBlockTableRecord
  2
*T2
  0
BLOCK_RECORD
  5
209
100
AcDbSymbolTableRecord
100
AcDbBlockTableRecord
  2
*T3
  0
ENDTAB
  0
TABLE
  2
DIMSTYLE
  5
A
100
AcDbSymbolTable
 70
1
100
AcDbDimStyleTable
 71
0
  0
DIMSTYLE
105
20A
100
AcDbSymbolTableRecord
100
AcDbDimStyleTableRecord
  2
STANDARD
 70
0
  3

  4

 40
1.0
 41
0.1875
 42
0.0625
 43
0.38
 44
0.125
 45
0.0
 46
0.0
 47
0.001
 48
0.001
140
0.1
141
0.09
142
0.0
143
25.4
144
1.0
145
0.0
146
1.0
147
0.09
 71
0.0
 72
0.0
 73
1
 74
1
 75
0
 76
0
 77
0
 78
4
170
0
171
2
172
0
173
0
174
0
175
0
176
0
177
0
178
0
270
2
271
3
272
3
273
2
274
2
275
0
280
0
281
0
282
0
283
1
284
4
285
0
286
0
287
3
288
0
340
11
278
46
  0
ENDTAB
  0
ENDSEC
  0
SECTION
  2
BLOCKS
  0
BLOCK
  5
20
100
AcDbEntity
  8
0
100
AcDbBlockBegin
  2
*Model_Space
 70
0
 10
0.0
 20
0.0
 30
0.0
  3
*Model_Space
  1

  0
ENDBLK
  5
21
100
AcDbEntity
  8
0
100
AcDbBlockEnd
  0
BLOCK
  5
1C
100
AcDbEntity
  8
0
100
AcDbBlockBegin
  2
*Paper_Space
 70
0
 10
0.0
 20
0.0
 30
0.0
  3
*Paper_Space
  1

  0
ENDBLK
  5
1D
100
AcDbEntity
  8
0
100
AcDbBlockEnd
  0
BLOCK
  5
20B
100
AcDbEntity
  8
0
100
AcDbBlockBegin
 62
2
  6
CONTINUOUS
  2
SUN_FIRST_THIRD_ANGLE_BL0
 70
64
 10
20.4816717061
 20
1.2289683772
  3
SUN_FIRST_THIRD_ANGLE_BL0
  1

  0
TEXT
  5
20C
100
AcDbEntity
  8
0
100
AcDbText
 62
2
  6
CONTINUOUS
 10
19.4750896608
 20
1.4136269581
  7
STANDARD
 40
0.08
  1
FIRST ANGLE
 41
0.8
 72
0
100
AcDbText
  0
TEXT
  5
20D
100
AcDbEntity
  8
0
100
AcDbText
 62
2
  6
CONTINUOUS
 10
20.7842537513
 20
1.4047600029
  7
STANDARD
 40
0.08
  1
THIRD ANGLE
 41
0.8
 72
0
100
AcDbText
  0
LINE
  5
20E
100
AcDbEntity
  8
0
100
AcDbLine
 62
7
  6
CONTINUOUS
 10
19.4767170086
 20
1.1727031207
 11
19.6334271527
 21
1.1717972817
  0
LINE
  5
20F
100
AcDbEntity
  8
0
100
AcDbLine
 62
7
  6
CONTINUOUS
 10
19.6596964832
 20
1.1717972817
 11
19.6950230232
 21
1.171593082
  0
LINE
  5
210
100
AcDbEntity
  8
0
100
AcDbLine
 62
7
  6
CONTINUOUS
 10
19.7194818561
 20
1.1708914427
 11
19.8852396156
 21
1.1699333054
  0
LINE
  5
211
100
AcDbEntity
  8
0
100
AcDbLine
 62
7
  6
CONTINUOUS
 10
19.4758111696
 20
1.2723454088
 11
19.88525039
 21
1.3511534004
  0
LINE
  5
212
100
AcDbEntity
  8
0
100
AcDbLine
 62
7
  6
CONTINUOUS
 10
19.88525039
 20
1.3511534004
 11
19.8831348489
 21
0.9851647912
  0
LINE
  5
213
100
AcDbEntity
  8
0
100
AcDbLine
 62
7
  6
CONTINUOUS
 10
19.8831348489
 20
0.9851647912
 11
19.4767170086
 21
1.0658141206
  0
LINE
  5
214
100
AcDbEntity
  8
0
100
AcDbLine
 62
7
  6
CONTINUOUS
 10
19.4767170086
 20
1.0658141206
 11
19.4779056764
 21
1.2714536432
  0
CIRCLE
  5
215
100
AcDbEntity
  8
0
100
AcDbCircle
 62
7
  6
CONTINUOUS
 10
20.2068232291
 20
1.1717972817
 40
0.175742101
  0
CIRCLE
  5
216
100
AcDbEntity
  8
0
100
AcDbCircle
 62
7
  6
CONTINUOUS
 10
20.2068232291
 20
1.1717972817
 40
0.1005522074
  0
LINE
  5
217
100
AcDbEntity
  8
0
100
AcDbLine
 62
7
  6
CONTINUOUS
 10
20.2077290681
 20
1.3756110529
 11
20.2071171714
 21
1.2379342989
  0
LINE
  5
218
100
AcDbEntity
  8
0
100
AcDbLine
 62
7
  6
CONTINUOUS
 10
20.2077290681
 20
1.2016899681
 11
20.2074674401
 21
1.1428236749
  0
LINE
  5
219
100
AcDbEntity
  8
0
100
AcDbLine
 62
7
  6
CONTINUOUS
 10
20.208634907
 20
1.101141841
 11
20.2080230104
 21
0.963465087
  0
LINE
  5
21A
100
AcDbEntity
  8
0
100
AcDbLine
 62
7
  6
CONTINUOUS
 10
20.0066328138
 20
1.1745147986
 11
20.1443095678
 21
1.1739029019
  0
LINE
  5
21B
100
AcDbEntity
  8
0
100
AcDbLine
 62
7
  6
CONTINUOUS
 10
20.1832714155
 20
1.1727031207
 11
20.238153505
 21
1.172335442
  0
LINE
  5
21C
100
AcDbEntity
  8
0
100
AcDbLine
 62
7
  6
CONTINUOUS
 10
20.2756669918
 20
1.1717972817
 11
20.407916871
 21
1.1712095044
  0
CIRCLE
  5
21D
100
AcDbEntity
  8
0
100
AcDbCircle
 62
7
  6
CONTINUOUS
 10
20.7509457401
 20
1.1693297793
 40
0.1722024983
  0
CIRCLE
  5
21E
100
AcDbEntity
  8
0
100
AcDbCircle
 62
7
  6
CONTINUOUS
 10
20.7509457401
 20
1.1693297793
 40
0.0985164967
  0
LINE
  5
21F
100
AcDbEntity
  8
0
100
AcDbLine
 62
7
  6
CONTINUOUS
 10
20.7169767782
 20
1.170462078
 11
20.7825395137
 21
1.1682766535
  0
LINE
  5
220
100
AcDbEntity
  8
0
100
AcDbLine
 62
7
  6
CONTINUOUS
 10
20.8177513651
 20
1.1693297793
 11
20.947965719
 21
1.1693297793
  0
LINE
  5
221
100
AcDbEntity
  8
0
100
AcDbLine
 62
7
  6
CONTINUOUS
 10
20.6875370113
 20
1.170462078
 11
20.5573226574
 21
1.170462078
  0
LINE
  5
222
100
AcDbEntity
  8
0
100
AcDbLine
 62
7
  6
CONTINUOUS
 10
20.7486811426
 20
1.1987695462
 11
20.7486811426
 21
1.1432869085
  0
LINE
  5
223
100
AcDbEntity
  8
0
100
AcDbLine
 62
7
  6
CONTINUOUS
 10
20.7498134414
 20
1.1059210505
 11
20.7498134414
 21
0.9757066966
  0
LINE
  5
224
100
AcDbEntity
  8
0
100
AcDbLine
 62
7
  6
CONTINUOUS
 10
20.7486811426
 20
1.2338708068
 11
20.7486811426
 21
1.3640851607
  0
LINE
  5
225
100
AcDbEntity
  8
0
100
AcDbLine
 62
7
  6
CONTINUOUS
 10
21.0702539817
 20
1.2701043662
 11
21.4790138229
 21
1.3448360823
  0
LINE
  5
226
100
AcDbEntity
  8
0
100
AcDbLine
 62
7
  6
CONTINUOUS
 10
21.4790138229
 20
1.3448360823
 11
21.4790138229
 21
0.9779712941
  0
LINE
  5
227
100
AcDbEntity
  8
0
100
AcDbLine
 62
7
  6
CONTINUOUS
 10
21.4790138229
 20
0.9779712941
 11
21.069121683
 21
1.0617614
  0
LINE
  5
228
100
AcDbEntity
  8
0
100
AcDbLine
 62
7
  6
CONTINUOUS
 10
21.0702539817
 20
1.2701043662
 11
21.069121683
 21
1.0617614
  0
LINE
  5
229
100
AcDbEntity
  8
0
100
AcDbLine
 62
7
  6
CONTINUOUS
 10
21.4790138229
 20
1.1693297793
 11
21.3159628059
 21
1.1693297793
  0
LINE
  5
22A
100
AcDbEntity
  8
0
100
AcDbLine
 62
7
  6
CONTINUOUS
 10
21.2876553377
 20
1.1693297793
 11
21.2502894796
 21
1.1693297793
  0
LINE
  5
22B
100
AcDbEntity
  8
0
100
AcDbLine
 62
7
  6
CONTINUOUS
 10
21.2208497126
 20
1.1659328831
 11
21.0713862804
 21
1.1659328831
  0
LINE
  5
22C
100
AcDbEntity
  8
0
100
AcDbLine
 62
7
  6
CONTINUOUS
 10
20.4796138713
 20
1.5284908897
 11
20.4766766948
 21
0.9294458646
  0
ENDBLK
  5
22D
100
AcDbEntity
  8
0
  6
BYBLOCK
 62
0
100
AcDbBlockEnd
  0
BLOCK
  5
22E
100
AcDbEntity
  8
0
100
AcDbBlockBegin
  2
*T1
 70
1
 10
0.0
 20
0.0
  3
*T1
  1

  0
LINE
  5
22F
100
AcDbEntity
  8
0
100
AcDbLine
 62
2
  6
CONTINUOUS
 10
9.275
 20
0.0
 11
-0.0
 21
0.0
  0
LINE
  5
230
100
AcDbEntity
  8
0
100
AcDbLine
 62
2
  6
CONTINUOUS
 10
9.275
 20
0.0
 11
9.275
 21
1.25
  0
LINE
  5
231
100
AcDbEntity
  8
0
100
AcDbLine
 62
2
  6
CONTINUOUS
 10
9.275
 20
0.625
 11
-0.0
 21
0.625
  0
LINE
  5
232
100
AcDbEntity
  8
0
100
AcDbLine
 62
2
  6
CONTINUOUS
 10
9.275
 20
1.25
 11
-0.0
 21
1.25
  0
LINE
  5
233
100
AcDbEntity
  8
0
100
AcDbLine
 62
2
  6
CONTINUOUS
 10
6.8
 20
0.0
 11
6.8
 21
1.25
  0
LINE
  5
234
100
AcDbEntity
  8
0
100
AcDbLine
 62
2
  6
CONTINUOUS
 10
6.4
 20
0.0
 11
6.4
 21
0.625
  0
LINE
  5
235
100
AcDbEntity
  8
0
100
AcDbLine
 62
2
  6
CONTINUOUS
 10
5.9
 20
0.0
 11
5.9
 21
0.625
  0
LINE
  5
236
100
AcDbEntity
  8
0
100
AcDbLine
 62
2
  6
CONTINUOUS
 10
5.2
 20
0.0
 11
5.2
 21
0.625
  0
LINE
  5
237
100
AcDbEntity
  8
0
100
AcDbLine
 62
2
  6
CONTINUOUS
 10
4.1
 20
0.0
 11
4.1
 21
1.25
  0
LINE
  5
238
100
AcDbEntity
  8
0
100
AcDbLine
 62
2
  6
CONTINUOUS
 10
-0.0
 20
0.0
 11
-0.0
 21
1.25
  0
MTEXT
  5
239
100
AcDbEntity
  8
0
100
AcDbMText
 62
2
  6
CONTINUOUS
  7
STANDARD
 71
2
 72
1
 10
6.6
 20
0.325
 30
0.0
 11
1.0
 21
0.0
 31
0.0
 44
0.9
  1
2
 40
0.125
 41
0.2
  0
MTEXT
  5
23A
100
AcDbEntity
  8
0
100
AcDbMText
 62
2
  6
CONTINUOUS
  7
STANDARD
 71
2
 72
1
 10
6.15
 20
0.325
 30
0.0
 11
1.0
 21
0.0
 31
0.0
 44
0.9
  1
C
 40
0.125
 41
0.2
  0
MTEXT
  5
23B
100
AcDbEntity
  8
0
100
AcDbMText
 62
2
  6
CONTINUOUS
  7
STANDARD
 71
2
 72
1
 10
5.55
 20
0.325
 30
0.0
 11
1.0
 21
0.0
 31
0.0
 44
0.9
  1
2.000
 40
0.125
 41
1.0
  0
MTEXT
  5
23C
100
AcDbEntity
  8
0
100
AcDbMText
 62
2
  6
CONTINUOUS
  7
STANDARD
 71
2
 72
1
 10
4.65
 20
0.325
 30
0.0
 11
1.0
 21
0.0
 31
0.0
 44
0.9
  1
Aug-29-19
 40
0.125
 41
1.8
  0
MTEXT
  5
23D
100
AcDbEntity
  8
0
100
AcDbMText
 62
2
  6
CONTINUOUS
  7
STANDARD
 71
2
 72
1
 10
2.05
 20
0.4625
 30
0.0
 11
1.0
 21
0.0
 31
0.0
 44
0.9
  1
T-10A Line mount\PNinety degree
 40
0.125
 41
3.2
  0
MTEXT
  5
23E
100
AcDbEntity
  8
0
100
AcDbMText
 62
2
  6
CONTINUOUS
  7
STANDARD
 71
1
 72
1
 10
6.45
 20
0.5625
 30
0.0
 11
1.0
 21
0.0
 31
0.0
 44
0.9
  1
SHEET
 40
0.06
 41
0.48
  0
MTEXT
  5
23F
100
AcDbEntity
  8
0
100
AcDbMText
 62
2
  6
CONTINUOUS
  7
STANDARD
 71
1
 72
1
 10
5.95
 20
0.5625
 30
0.0
 11
1.0
 21
0.0
 31
0.0
 44
0.9
  1
DWG SIZE
 40
0.06
 41
0.768
  0
MTEXT
  5
240
100
AcDbEntity
  8
0
100
AcDbMText
 62
2
  6
CONTINUOUS
  7
STANDARD
 71
1
 72
1
 10
5.25
 20
0.5625
 30
0.0
 11
1.0
 21
0.0
 31
0.0
 44
0.9
  1
SCALE
 40
0.06
 41
0.48
  0
MTEXT
  5
241
100
AcDbEntity
  8
0
100
AcDbMText
 62
2
  6
CONTINUOUS
  7
STANDARD
 71
1
 72
1
 10
4.15
 20
0.5625
 30
0.0
 11
1.0
 21
0.0
 31
0.0
 44
0.9
  1
DATE
 40
0.06
 41
0.384
  0
MTEXT
  5
242
100
AcDbEntity
  8
0
100
AcDbMText
 62
2
  6
CONTINUOUS
  7
STANDARD
 71
1
 72
1
 10
0.05
 20
0.5625
 30
0.0
 11
1.0
 21
0.0
 31
0.0
 44
0.9
  1
DESCRIPTION
 40
0.06
 41
1.056
  0
MTEXT
  5
243
100
AcDbEntity
  8
0
100
AcDbMText
 62
2
  6
CONTINUOUS
  7
STANDARD
 71
2
 72
1
 10
5.45
 20
1.0375
 30
0.0
 11
1.0
 21
0.0
 31
0.0
 44
0.9
  1
ALL DIMENSIONS IN INCH\PVIEWS ARE THIRD ANGLE
 40
0.12
 41
4.224
  0
MTEXT
  5
244
100
AcDbEntity
  8
0
100
AcDbMText
 62
2
  6
CONTINUOUS
  7
STANDARD
 71
2
 72
1
 10
2.05
 20
0.95
 30
0.0
 11
1.0
 21
0.0
 31
0.0
 44
0.9
  1
FAT
 40
0.125
 41
0.6
  0
MTEXT
  5
245
100
AcDbEntity
  8
0
100
AcDbMText
 62
2
  6
CONTINUOUS
  7
STANDARD
 71
1
 72
1
 10
0.05
 20
1.1875
 30
0.0
 11
1.0
 21
0.0
 31
0.0
 44
0.9
  1
MODEL
 40
0.06
 41
0.48
  0
ENDBLK
  5
246
100
AcDbEntity
  8
0
  6
BYBLOCK
 62
0
100
AcDbBlockEnd
  0
BLOCK
  5
247
100
AcDbEntity
  8
0
100
AcDbBlockBegin
  2
*T2
 70
1
 10
0.0
 20
0.0
  3
*T2
  1

  0
LINE
  5
248
100
AcDbEntity
  8
0
100
AcDbLine
 62
2
  6
CONTINUOUS
 10
0.0
 20
0.0
 11
9.055
 21
0.0
  0
LINE
  5
249
100
AcDbEntity
  8
0
100
AcDbLine
 62
2
  6
CONTINUOUS
 10
0.0
 20
0.0
 11
0.0
 21
-2.594
  0
LINE
  5
24A
100
AcDbEntity
  8
0
100
AcDbLine
 62
2
  6
CONTINUOUS
 10
0.0
 20
-0.344
 11
9.055
 21
-0.344
  0
LINE
  5
24B
100
AcDbEntity
  8
0
100
AcDbLine
 62
2
  6
CONTINUOUS
 10
0.0
 20
-0.594
 11
9.055
 21
-0.594
  0
LINE
  5
24C
100
AcDbEntity
  8
0
100
AcDbLine
 62
2
  6
CONTINUOUS
 10
0.0
 20
-0.844
 11
9.055
 21
-0.844
  0
LINE
  5
24D
100
AcDbEntity
  8
0
100
AcDbLine
 62
2
  6
CONTINUOUS
 10
0.0
 20
-1.094
 11
9.055
 21
-1.094
  0
LINE
  5
24E
100
AcDbEntity
  8
0
100
AcDbLine
 62
2
  6
CONTINUOUS
 10
0.0
 20
-1.344
 11
9.055
 21
-1.344
  0
LINE
  5
24F
100
AcDbEntity
  8
0
100
AcDbLine
 62
2
  6
CONTINUOUS
 10
0.0
 20
-1.594
 11
9.055
 21
-1.594
  0
LINE
  5
250
100
AcDbEntity
  8
0
100
AcDbLine
 62
2
  6
CONTINUOUS
 10
0.0
 20
-1.844
 11
9.055
 21
-1.844
  0
LINE
  5
251
100
AcDbEntity
  8
0
100
AcDbLine
 62
2
  6
CONTINUOUS
 10
0.0
 20
-2.094
 11
9.055
 21
-2.094
  0
LINE
  5
252
100
AcDbEntity
  8
0
100
AcDbLine
 62
2
  6
CONTINUOUS
 10
0.0
 20
-2.344
 11
9.055
 21
-2.344
  0
LINE
  5
253
100
AcDbEntity
  8
0
100
AcDbLine
 62
2
  6
CONTINUOUS
 10
0.0
 20
-2.594
 11
9.055
 21
-2.594
  0
LINE
  5
254
100
AcDbEntity
  8
0
100
AcDbLine
 62
2
  6
CONTINUOUS
 10
3.055
 20
0.0
 11
3.055
 21
-2.594
  0
LINE
  5
255
100
AcDbEntity
  8
0
100
AcDbLine
 62
2
  6
CONTINUOUS
 10
9.055
 20
0.0
 11
9.055
 21
-2.594
  0
MTEXT
  5
256
100
AcDbEntity
  8
0
100
AcDbMText
 62
2
  6
CONTINUOUS
  7
STANDARD
 71
2
 72
1
 10
1.5275
 20
-0.0995
 30
0.0
 11
1.0
 21
0.0
 31
0.0
 44
0.9
  1
Technical Data
 40
0.145
 41
3.248
  0
MTEXT
  5
257
100
AcDbEntity
  8
0
100
AcDbMText
 62
2
  6
CONTINUOUS
  7
STANDARD
 71
2
 72
1
 10
4.555
 20
-0.0995
 30
0.0
 11
1.0
 21
0.0
 31
0.0
 44
0.9
  1
U.S. Units
 40
0.145
 41
2.32
  0
MTEXT
  5
258
100
AcDbEntity
  8
0
100
AcDbMText
 62
2
  6
CONTINUOUS
  7
STANDARD
 71
2
 72
1
 10
7.555
 20
-0.0995
 30
0.0
 11
1.0
 21
0.0
 31
0.0
 44
0.9
  1
Metric Units
 40
0.145
 41
2.784
  0
MTEXT
  5
259
100
AcDbEntity
  8
0
100
AcDbMText
 62
2
  6
CONTINUOUS
  7
STANDARD
 71
2
 72
1
 10
1.5275
 20
-0.4065
 30
0.0
 11
1.0
 21
0.0
 31
0.0
 44
0.9
  1
Cavity
 40
0.125
 41
1.2
  0
MTEXT
  5
25A
100
AcDbEntity
  8
0
100
AcDbMText
 62
2
  6
CONTINUOUS
  7
STANDARD
 71
2
 72
1
 10
6.055
 20
-0.4065
 30
0.0
 11
1.0
 21
0.0
 31
0.0
 44
0.9
  1
T-10A
 40
0.125
 41
1.0
  0
MTEXT
  5
25B
100
AcDbEntity
  8
0
100
AcDbMText
 62
2
  6
CONTINUOUS
  7
STANDARD
 71
2
 72
1
 10
1.5275
 20
-0.6565
 30
0.0
 11
1.0
 21
0.0
 31
0.0
 44
0.9
  1
Body Features
 40
0.125
 41
2.6
  0
MTEXT
  5
25C
100
AcDbEntity
  8
0
100
AcDbMText
 62
2
  6
CONTINUOUS
  7
STANDARD
 71
2
 72
1
 10
6.055
 20
-0.6565
 30
0.0
 11
1.0
 21
0.0
 31
0.0
 44
0.9
  1
Ninety degree
 40
0.125
 41
2.6
  0
MTEXT
  5
25D
100
AcDbEntity
  8
0
100
AcDbMText
 62
2
  6
CONTINUOUS
  7
STANDARD
 71
2
 72
1
 10
1.5275
 20
-0.9065
 30
0.0
 11
1.0
 21
0.0
 31
0.0
 44
0.9
  1
Body Type
 40
0.125
 41
1.8
  0
MTEXT
  5
25E
100
AcDbEntity
  8
0
100
AcDbMText
 62
2
  6
CONTINUOUS
  7
STANDARD
 71
2
 72
1
 10
6.055
 20
-0.9065
 30
0.0
 11
1.0
 21
0.0
 31
0.0
 44
0.9
  1
Line mount
 40
0.125
 41
2.0
  0
MTEXT
  5
25F
100
AcDbEntity
  8
0
100
AcDbMText
 62
2
  6
CONTINUOUS
  7
STANDARD
 71
2
 72
1
 10
1.5275
 20
-1.1565
 30
0.0
 11
1.0
 21
0.0
 31
0.0
 44
0.9
  1
Interface
 40
0.125
 41
1.8
  0
MTEXT
  5
260
100
AcDbEntity
  8
0
100
AcDbMText
 62
2
  6
CONTINUOUS
  7
STANDARD
 71
2
 72
1
 10
6.055
 20
-1.1565
 30
0.0
 11
1.0
 21
0.0
 31
0.0
 44
0.9
  1
None
 40
0.125
 41
0.8
  0
MTEXT
  5
261
100
AcDbEntity
  8
0
100
AcDbMText
 62
2
  6
CONTINUOUS
  7
STANDARD
 71
2
 72
1
 10
1.5275
 20
-1.4065
 30
0.0
 11
1.0
 21
0.0
 31
0.0
 44
0.9
  1
Open Cavity Quantity
 40
0.125
 41
4.0
  0
MTEXT
  5
262
100
AcDbEntity
  8
0
100
AcDbMText
 62
2
  6
CONTINUOUS
  7
STANDARD
 71
2
 72
1
 10
6.055
 20
-1.4065
 30
0.0
 11
1.0
 21
0.0
 31
0.0
 44
0.9
  1
1
 40
0.125
 41
0.2
  0
MTEXT
  5
263
100
AcDbEntity
  8
0
100
AcDbMText
 62
2
  6
CONTINUOUS
  7
STANDARD
 71
2
 72
1
 10
1.5275
 20
-1.6565
 30
0.0
 11
1.0
 21
0.0
 31
0.0
 44
0.9
  1
Weight
 40
0.125
 41
1.2
  0
MTEXT
  5
264
100
AcDbEntity
  8
0
100
AcDbMText
 62
2
  6
CONTINUOUS
  7
STANDARD
 71
2
 72
1
 10
4.555
 20
-1.6565
 30
0.0
 11
1.0
 21
0.0
 31
0.0
 44
0.9
  1
0.387 lb.
 40
0.125
 41
1.8
  0
MTEXT
  5
265
100
AcDbEntity
  8
0
100
AcDbMText
 62
2
  6
CONTINUOUS
  7
STANDARD
 71
2
 72
1
 10
7.555
 20
-1.6565
 30
0.0
 11
1.0
 21
0.0
 31
0.0
 44
0.9
  1
0,175 kg.
 40
0.125
 41
1.8
  0
MTEXT
  5
266
100
AcDbEntity
  8
0
100
AcDbMText
 62
2
  6
CONTINUOUS
  7
STANDARD
 71
2
 72
1
 10
1.5275
 20
-1.9065
 30
0.0
 11
1.0
 21
0.0
 31
0.0
 44
0.9
  1
Mounting Hole Diameter
 40
0.125
 41
4.4
  0
MTEXT
  5
267
100
AcDbEntity
  8
0
100
AcDbMText
 62
2
  6
CONTINUOUS
  7
STANDARD
 71
2
 72
1
 10
4.555
 20
-1.9065
 30
0.0
 11
1.0
 21
0.0
 31
0.0
 44
0.9
  1
.34 in.
 40
0.125
 41
1.4
  0
MTEXT
  5
268
100
AcDbEntity
  8
0
100
AcDbMText
 62
2
  6
CONTINUOUS
  7
STANDARD
 71
2
 72
1
 10
7.555
 20
-1.9065
 30
0.0
 11
1.0
 21
0.0
 31
0.0
 44
0.9
  1
8.6 mm
 40
0.125
 41
1.2
  0
MTEXT
  5
269
100
AcDbEntity
  8
0
100
AcDbMText
 62
2
  6
CONTINUOUS
  7
STANDARD
 71
2
 72
1
 10
1.5275
 20
-2.1565
 30
0.0
 11
1.0
 21
0.0
 31
0.0
 44
0.9
  1
Mounting Hole Depth
 40
0.125
 41
3.8
  0
MTEXT
  5
26A
100
AcDbEntity
  8
0
100
AcDbMText
 62
2
  6
CONTINUOUS
  7
STANDARD
 71
2
 72
1
 10
6.055
 20
-2.1565
 30
0.0
 11
1.0
 21
0.0
 31
0.0
 44
0.9
  1
Through
 40
0.125
 41
1.4
  0
MTEXT
  5
26B
100
AcDbEntity
  8
0
100
AcDbMText
 62
2
  6
CONTINUOUS
  7
STANDARD
 71
2
 72
1
 10
1.5275
 20
-2.4065
 30
0.0
 11
1.0
 21
0.0
 31
0.0
 44
0.9
  1
Mounting Hole Quantity
 40
0.125
 41
4.4
  0
MTEXT
  5
26C
100
AcDbEntity
  8
0
100
AcDbMText
 62
2
  6
CONTINUOUS
  7
STANDARD
 71
2
 72
1
 10
6.055
 20
-2.4065
 30
0.0
 11
1.0
 21
0.0
 31
0.0
 44
0.9
  1
1
 40
0.125
 41
0.2
  0
ENDBLK
  5
26D
100
AcDbEntity
  8
0
  6
BYBLOCK
 62
0
100
AcDbBlockEnd
  0
BLOCK
  5
26E
100
AcDbEntity
  8
0
100
AcDbBlockBegin
  2
*T3
 70
1
 10
0.0
 20
0.0
  3
*T3
  1

  0
LINE
  5
26F
100
AcDbEntity
  8
0
100
AcDbLine
 62
2
  6
CONTINUOUS
 10
0.0
 20
0.0
 11
4.6
 21
0.0
  0
LINE
  5
270
100
AcDbEntity
  8
0
100
AcDbLine
 62
2
  6
CONTINUOUS
 10
0.0
 20
0.0
 11
0.0
 21
-0.93775
  0
LINE
  5
271
100
AcDbEntity
  8
0
100
AcDbLine
 62
2
  6
CONTINUOUS
 10
0.0
 20
-0.34375
 11
4.6
 21
-0.34375
  0
LINE
  5
272
100
AcDbEntity
  8
0
100
AcDbLine
 62
2
  6
CONTINUOUS
 10
0.0
 20
-0.68775
 11
4.6
 21
-0.68775
  0
LINE
  5
273
100
AcDbEntity
  8
0
100
AcDbLine
 62
2
  6
CONTINUOUS
 10
0.0
 20
-0.93775
 11
4.6
 21
-0.93775
  0
LINE
  5
274
100
AcDbEntity
  8
0
100
AcDbLine
 62
2
  6
CONTINUOUS
 10
1.3
 20
-0.34375
 11
1.3
 21
-0.93775
  0
LINE
  5
275
100
AcDbEntity
  8
0
100
AcDbLine
 62
2
  6
CONTINUOUS
 10
3.3
 20
-0.34375
 11
3.3
 21
-0.93775
  0
LINE
  5
276
100
AcDbEntity
  8
0
100
AcDbLine
 62
2
  6
CONTINUOUS
 10
4.6
 20
0.0
 11
4.6
 21
-0.93775
  0
MTEXT
  5
277
100
AcDbEntity
  8
0
100
AcDbMText
 62
2
  6
CONTINUOUS
  7
STANDARD
 71
2
 72
1
 10
2.3
 20
-0.099375
 30
0.0
 11
1.0
 21
0.0
 31
0.0
 44
0.9
  1
Port Headings
 40
0.145
 41
3.016
  0
MTEXT
  5
278
100
AcDbEntity
  8
0
100
AcDbMText
 62
2
  6
CONTINUOUS
  7
STANDARD
 71
2
 72
1
 10
0.65
 20
-0.44325
 30
0.0
 11
1.0
 21
0.0
 31
0.0
 44
0.9
  1
Product
 40
0.145
 41
1.624
  0
MTEXT
  5
279
100
AcDbEntity
  8
0
100
AcDbMText
 62
2
  6
CONTINUOUS
  7
STANDARD
 71
2
 72
1
 10
2.3
 20
-0.44325
 30
0.0
 11
1.0
 21
0.0
 31
0.0
 44
0.9
  1
Port
 40
0.145
 41
0.928
  0
MTEXT
  5
27A
100
AcDbEntity
  8
0
100
AcDbMText
 62
2
  6
CONTINUOUS
  7
STANDARD
 71
2
 72
1
 10
3.95
 20
-0.44325
 30
0.0
 11
1.0
 21
0.0
 31
0.0
 44
0.9
  1
Size
 40
0.145
 41
0.928
  0
MTEXT
  5
27B
100
AcDbEntity
  8
0
100
AcDbMText
 62
2
  6
CONTINUOUS
  7
STANDARD
 71
2
 72
1
 10
0.65
 20
-0.75025
 30
0.0
 11
1.0
 21
0.0
 31
0.0
 44
0.9
  1
FAT
 40
0.125
 41
0.6
  0
MTEXT
  5
27C
100
AcDbEntity
  8
0
100
AcDbMText
 62
2
  6
CONTINUOUS
  7
STANDARD
 71
2
 72
1
 10
2.3
 20
-0.75025
 30
0.0
 11
1.0
 21
0.0
 31
0.0
 44
0.9
  1
All Ports
 40
0.125
 41
1.8
  0
MTEXT
  5
27D
100
AcDbEntity
  8
0
100
AcDbMText
 62
2
  6
CONTINUOUS
  7
STANDARD
 71
2
 72
1
 10
3.95
 20
-0.75025
 30
0.0
 11
1.0
 21
0.0
 31
0.0
 44
0.9
  1
1/4" BSPP
 40
0.125
 41
1.8
  0
ENDBLK
  5
27E
100
AcDbEntity
  8
0
  6
BYBLOCK
 62
0
100
AcDbBlockEnd
  0
ENDSEC
  0
SECTION
  2
ENTITIES
  0
IMAGE
  5
27F
100
AcDbEntity
  8
0
100
AcDbRasterImage
 62
7
  6
CONTINUOUS
 10
19.2297077316
 20
0.3094318264
 30
0.0
 11
0.0066666667
 21
0.0
 31
0.0
 12
0.0
 22
0.0066666667
 32
0.0
 13
369.0
 23
92.0
340
       32F
 70
9
280
0
281
50
282
50
283
0
360
       329
 71
1
 91
2
 14
-0.5
 24
-0.5
 14
368.5
 24
91.5
  0
INSERT
  5
280
100
AcDbEntity
  8
0
100
AcDbBlockReference
 62
2
  6
CONTINUOUS
  2
SUN_FIRST_THIRD_ANGLE_BL0
 10
20.4816717061
 20
1.2289683772
  0
ACAD_TABLE
  5
281
100
AcDbEntity
  8
0
 62
2
  6
CONTINUOUS
100
AcDbBlockReference
  2
*T1
 10
12.42375
 20
0.30125
 30
0.0
100
AcDbTable
342
       331
343
207
 11
1.0
 21
0.0
 31
0.0
 90
6
 91
4
 92
6
 93
20
 94
0
 95
0
 96
0
 70
1
 41
0.0
141
0.525
141
0.1
141
0.525
141
0.1
142
4.1
142
1.1
142
0.7
142
0.5
142
0.4
142
2.475
171
1
172
0
173
0
174
0
175
1
176
1
 91
33
178
0
145
0.0
301
CELL_VALUE
 90
4
  1
T-10A Line mount\PNinety degree
304
ACVALUE_END
170
2
140
0.125
171
1
172
0
173
0
174
0
175
1
176
1
 91
33
178
0
145
0.0
301
CELL_VALUE
 90
4
  1
Aug-29-19
304
ACVALUE_END
170
5
140
0.125
171
1
172
0
173
0
174
0
175
1
176
1
 91
33
178
0
145
0.0
301
CELL_VALUE
 90
4
  1
2.000
304
ACVALUE_END
170
5
140
0.125
171
1
172
0
173
0
174
0
175
1
176
1
 91
33
178
0
145
0.0
301
CELL_VALUE
 90
4
  1
C
304
ACVALUE_END
170
5
140
0.125
171
1
172
0
173
0
174
0
175
1
176
1
 91
33
178
0
145
0.0
301
CELL_VALUE
 90
4
  1
2
304
ACVALUE_END
170
5
140
0.125
171
1
172
0
173
0
174
0
175
1
176
1
 91
33
178
0
145
0.0
301
CELL_VALUE
 90
4
  1
 
304
ACVALUE_END
170
1
140
0.125
171
1
172
0
173
0
174
0
175
1
176
1
 91
33
178
0
145
0.0
301
CELL_VALUE
 90
4
  1
DESCRIPTION
304
ACVALUE_END
170
1
140
0.06
171
1
172
0
173
0
174
0
175
1
176
1
 91
33
178
0
145
0.0
301
CELL_VALUE
 90
4
  1
DATE
304
ACVALUE_END
170
1
140
0.06
171
1
172
0
173
0
174
0
175
1
176
1
 91
33
178
0
145
0.0
301
CELL_VALUE
 90
4
  1
SCALE
304
ACVALUE_END
170
1
140
0.06
171
1
172
0
173
0
174
0
175
1
176
1
 91
33
178
0
145
0.0
301
CELL_VALUE
 90
4
  1
DWG SIZE
304
ACVALUE_END
170
1
140
0.06
171
1
172
0
173
0
174
0
175
1
176
1
 91
33
178
0
145
0.0
301
CELL_VALUE
 90
4
  1
SHEET
304
ACVALUE_END
170
1
140
0.06
171
1
172
0
173
0
174
0
175
1
176
1
 91
33
178
0
145
0.0
301
CELL_VALUE
 90
4
  1
 
304
ACVALUE_END
170
1
140
0.125
171
1
172
0
173
0
174
0
175
1
176
1
 91
33
178
0
145
0.0
301
CELL_VALUE
 90
4
  1
FAT
304
ACVALUE_END
170
5
140
0.125
171
1
172
0
173
0
174
0
175
4
176
1
 91
33
178
0
145
0.0
301
CELL_VALUE
 90
4
  1
ALL DIMENSIONS IN INCH\PVIEWS ARE THIRD ANGLE
304
ACVALUE_END
170
5
140
0.12
171
1
172
0
173
1
174
0
175
1
176
1
 91
1
178
0
145
0.0
170
1
171
1
172
0
173
1
174
0
175
1
176
1
 91
1
178
0
145
0.0
170
1
171
1
172
0
173
1
174
0
175
1
176
1
 91
1
178
0
145
0.0
170
5
171
1
172
0
173
0
174
0
175
1
176
1
 91
33
178
0
145
0.0
301
CELL_VALUE
 90
4
  1
 
304
ACVALUE_END
170
1
140
0.125
171
1
172
0
173
0
174
0
175
1
176
1
 91
33
178
0
145
0.0
301
CELL_VALUE
 90
4
  1
MODEL
304
ACVALUE_END
170
1
140
0.06
171
1
172
0
173
0
174
0
175
1
176
1
 91
33
178
0
145
0.0
301
CELL_VALUE
 90
4
  1
 
304
ACVALUE_END
170
1
140
0.125
171
1
172
0
173
0
174
0
175
1
176
1
 91
33
178
0
145
0.0
301
CELL_VALUE
 90
4
  1
 
304
ACVALUE_END
170
1
140
0.125
171
1
172
0
173
0
174
0
175
1
176
1
 91
33
178
0
145
0.0
301
CELL_VALUE
 90
4
  1
 
304
ACVALUE_END
170
1
140
0.125
171
1
172
0
173
0
174
0
175
1
176
1
 91
33
178
0
145
0.0
301
CELL_VALUE
 90
4
  1
 
304
ACVALUE_END
170
1
140
0.125
171
1
172
0
173
0
174
0
175
1
176
1
 91
33
178
0
145
0.0
301
CELL_VALUE
 90
4
  1
 
304
ACVALUE_END
170
1
140
0.125
  0
ACAD_TABLE
  5
282
100
AcDbEntity
  8
0
 62
2
  6
CONTINUOUS
100
AcDbBlockReference
  2
*T2
 10
12.4237499994
 20
16.47875
 30
0.0
100
AcDbTable
342
       330
343
208
 11
1.0
 21
0.0
 31
0.0
 90
22
 91
10
 92
3
 93
16
 94
0
 95
0
 96
0
 41
0.028
141
0.344
141
0.25
141
0.25
141
0.25
141
0.25
141
0.25
141
0.25
141
0.25
141
0.25
141
0.25
142
3.055
142
3.0
142
3.0
171
1
172
0
173
0
174
0
175
1
176
1
 91
33
178
0
145
0.0
301
CELL_VALUE
 90
4
  1
Technical Data
304
ACVALUE_END
170
5
140
0.145
171
1
172
0
173
0
174
0
175
1
176
1
 91
33
178
0
145
0.0
301
CELL_VALUE
 90
4
  1
U.S. Units
304
ACVALUE_END
170
5
140
0.145
171
1
172
0
173
0
174
0
175
1
176
1
 91
33
178
0
145
0.0
301
CELL_VALUE
 90
4
  1
Metric Units
304
ACVALUE_END
170
5
140
0.145
171
1
172
0
173
0
174
0
175
1
176
1
 91
33
178
0
145
0.0
301
CELL_VALUE
 90
4
  1
Cavity
304
ACVALUE_END
170
5
140
0.125
171
1
172
0
173
0
174
0
175
2
176
1
 91
33
178
0
145
0.0
301
CELL_VALUE
 90
4
  1
T-10A
304
ACVALUE_END
170
5
140
0.125
171
1
172
0
173
1
174
0
175
1
176
1
 91
1
178
0
145
0.0
170
1
171
1
172
0
173
0
174
0
175
1
176
1
 91
33
178
0
145
0.0
301
CELL_VALUE
 90
4
  1
Body Features
304
ACVALUE_END
170
5
140
0.125
171
1
172
0
173
0
174
0
175
2
176
1
 91
33
178
0
145
0.0
301
CELL_VALUE
 90
4
  1
Ninety degree
304
ACVALUE_END
170
5
140
0.125
171
1
172
0
173
1
174
0
175
1
176
1
 91
1
178
0
145
0.0
170
1
171
1
172
0
173
0
174
0
175
1
176
1
 91
33
178
0
145
0.0
301
CELL_VALUE
 90
4
  1
Body Type
304
ACVALUE_END
170
5
140
0.125
171
1
172
0
173
0
174
0
175
2
176
1
 91
33
178
0
145
0.0
301
CELL_VALUE
 90
4
  1
Line mount
304
ACVALUE_END
170
5
140
0.125
171
1
172
0
173
1
174
0
175
1
176
1
 91
1
178
0
145
0.0
170
1
171
1
172
0
173
0
174
0
175
1
176
1
 91
33
178
0
145
0.0
301
CELL_VALUE
 90
4
  1
Interface
304
ACVALUE_END
170
5
140
0.125
171
1
172
0
173
0
174
0
175
2
176
1
 91
33
178
0
145
0.0
301
CELL_VALUE
 90
4
  1
None
304
ACVALUE_END
170
5
140
0.125
171
1
172
0
173
1
174
0
175
1
176
1
 91
1
178
0
145
0.0
170
1
171
1
172
0
173
0
174
0
175
1
176
1
 91
33
178
0
145
0.0
301
CELL_VALUE
 90
4
  1
Open Cavity Quantity
304
ACVALUE_END
170
5
140
0.125
171
1
172
0
173
0
174
0
175
2
176
1
 91
33
178
0
145
0.0
301
CELL_VALUE
 90
4
  1
1
304
ACVALUE_END
170
5
140
0.125
171
1
172
0
173
1
174
0
175
1
176
1
 91
1
178
0
145
0.0
170
1
171
1
172
0
173
0
174
0
175
1
176
1
 91
33
178
0
145
0.0
301
CELL_VALUE
 90
4
  1
Weight
304
ACVALUE_END
170
5
140
0.125
171
1
172
0
173
0
174
0
175
1
176
1
 91
33
178
0
145
0.0
301
CELL_VALUE
 90
4
  1
0.387 lb.
304
ACVALUE_END
170
5
140
0.125
171
1
172
0
173
0
174
0
175
1
176
1
 91
33
178
0
145
0.0
301
CELL_VALUE
 90
4
  1
0,175 kg.
304
ACVALUE_END
170
5
140
0.125
171
1
172
0
173
0
174
0
175
1
176
1
 91
33
178
0
145
0.0
301
CELL_VALUE
 90
4
  1
Mounting Hole Diameter
304
ACVALUE_END
170
5
140
0.125
171
1
172
0
173
0
174
0
175
1
176
1
 91
33
178
0
145
0.0
301
CELL_VALUE
 90
4
  1
.34 in.
304
ACVALUE_END
170
5
140
0.125
171
1
172
0
173
0
174
0
175
1
176
1
 91
33
178
0
145
0.0
301
CELL_VALUE
 90
4
  1
8.6 mm
304
ACVALUE_END
170
5
140
0.125
171
1
172
0
173
0
174
0
175
1
176
1
 91
33
178
0
145
0.0
301
CELL_VALUE
 90
4
  1
Mounting Hole Depth
304
ACVALUE_END
170
5
140
0.125
171
1
172
0
173
0
174
0
175
2
176
1
 91
33
178
0
145
0.0
301
CELL_VALUE
 90
4
  1
Through
304
ACVALUE_END
170
5
140
0.125
171
1
172
0
173
1
174
0
175
1
176
1
 91
1
178
0
145
0.0
170
1
171
1
172
0
173
0
174
0
175
1
176
1
 91
33
178
0
145
0.0
301
CELL_VALUE
 90
4
  1
Mounting Hole Quantity
304
ACVALUE_END
170
5
140
0.125
171
1
172
0
173
0
174
0
175
2
176
1
 91
33
178
0
145
0.0
301
CELL_VALUE
 90
4
  1
1
304
ACVALUE_END
170
5
140
0.125
171
1
172
0
173
1
174
0
175
1
176
1
 91
1
178
0
145
0.0
170
1
  0
ACAD_TABLE
  5
283
100
AcDbEntity
  8
0
 62
2
  6
CONTINUOUS
100
AcDbBlockReference
  2
*T3
 10
0.52125
 20
1.459
 30
0.0
100
AcDbTable
342
       330
343
209
 11
1.0
 21
0.0
 31
0.0
 90
22
 91
3
 92
3
 93
16
 94
0
 95
0
 96
0
 41
0.05
141
0.34375
141
0.344
141
0.25
142
1.3
142
2.0
142
1.3
171
1
172
0
173
0
174
0
175
3
176
1
 91
33
178
0
145
0.0
301
CELL_VALUE
 90
4
  1
Port Headings
304
ACVALUE_END
170
5
140
0.145
171
1
172
0
173
1
174
0
175
1
176
1
 91
1
178
0
145
0.0
170
1
171
1
172
0
173
1
174
0
175
1
176
1
 91
1
178
0
145
0.0
170
1
171
1
172
0
173
0
174
0
175
1
176
1
 91
33
178
0
145
0.0
301
CELL_VALUE
 90
4
  1
Product
304
ACVALUE_END
170
5
140
0.145
171
1
172
0
173
0
174
0
175
1
176
1
 91
33
178
0
145
0.0
301
CELL_VALUE
 90
4
  1
Port
304
ACVALUE_END
170
5
140
0.145
171
1
172
0
173
0
174
0
175
1
176
1
 91
33
178
0
145
0.0
301
CELL_VALUE
 90
4
  1
Size
304
ACVALUE_END
170
5
140
0.145
171
1
172
0
173
0
174
0
175
1
176
1
 91
33
178
0
145
0.0
301
CELL_VALUE
 90
4
  1
FAT
304
ACVALUE_END
170
5
140
0.125
171
1
172
0
173
0
174
0
175
1
176
1
 91
33
178
0
145
0.0
301
CELL_VALUE
 90
4
  1
All Ports
304
ACVALUE_END
170
5
140
0.125
171
1
172
0
173
0
174
0
175
1
176
1
 91
33
178
0
145
0.0
301
CELL_VALUE
 90
4
  1
1/4" BSPP
304
ACVALUE_END
170
5
140
0.125
  0
MTEXT
  5
284
100
AcDbEntity
  8
0
100
AcDbMText
 62
2
  6
CONTINUOUS
  7
STANDARD
 71
1
 72
1
 10
0.52125
 20
5.75995
 30
0.0
 11
1.0
 21
0.0
 31
0.0
 44
0.6
  3
Notes\P \P1. Important: Carefully consider\P   the maximum system pressure. The\P   pressure rating of the manifold is\P   dependent on the manifold material,\P   with the port type/size a secondary\P   consideration. Manifolds\P   constructed of alu
  1
minum are not\P   rated for pressures higher than\P   3000 psi (210 bar), regardless of\P   the port type/size specified.
 40
0.1
 41
3.04
  0
LINE
  5
285
100
AcDbEntity
  8
0
100
AcDbLine
 62
7
  6
CONTINUOUS
 10
0.30125
 20
0.30125
 11
0.30125
 21
16.69875
  0
LINE
  5
286
100
AcDbEntity
  8
0
100
AcDbLine
 62
7
  6
CONTINUOUS
 10
0.30125
 20
0.30125
 11
21.69875
 21
0.30125
  0
LINE
  5
287
100
AcDbEntity
  8
0
100
AcDbLine
 62
7
  6
CONTINUOUS
 10
0.30125
 20
16.69875
 11
21.69875
 21
16.69875
  0
LINE
  5
288
100
AcDbEntity
  8
0
100
AcDbLine
 62
7
  6
CONTINUOUS
 10
21.69875
 20
0.30125
 11
21.69875
 21
16.69875
  0
LINE
  5
289
100
AcDbEntity
  8
0
100
AcDbLine
 62
7
  6
CONTINUOUS
 10
8.2616617518
 20
6.7901682723
 11
8.2616617518
 21
9.9197681441
  0
LINE
  5
28A
100
AcDbEntity
  8
0
100
AcDbLine
 62
7
  6
CONTINUOUS
 10
8.2616617518
 20
9.9197681441
 11
8.9087088306
 21
10.5447676654
  0
LINE
  5
28B
100
AcDbEntity
  8
0
100
AcDbLine
 62
4
  6
CONTINUOUS
 10
9.6989594404
 20
6.93197281
 11
9.679640914
 21
6.9478014422
  0
LINE
  5
28C
100
AcDbEntity
  8
0
100
AcDbLine
 62
7
  6
CONTINUOUS
 10
13.0912911694
 20
6.4552323346
 11
8.2616617518
 21
6.7901682723
  0
LINE
  5
28D
100
AcDbEntity
  8
0
100
AcDbLine
 62
4
  6
CONTINUOUS
 10
9.8341890565
 20
6.9370834922
 11
9.8921446082
 21
6.9185753731
  0
LINE
  5
28E
100
AcDbEntity
  8
0
100
AcDbLine
 62
4
  6
CONTINUOUS
 10
9.7955520243
 20
6.9687407553
 11
9.8341890565
 21
6.9370834922
  0
LINE
  5
28F
100
AcDbEntity
  8
0
100
AcDbLine
 62
4
  6
CONTINUOUS
 10
9.7375964657
 20
7.0452044266
 11
9.7569149921
 21
7.0293757943
  0
LINE
  5
290
100
AcDbEntity
  8
0
100
AcDbLine
 62
4
  6
CONTINUOUS
 10
9.679640914
 20
6.9478014422
 11
9.6603224013
 21
6.9781189615
  0
LINE
  5
291
100
AcDbEntity
  8
0
100
AcDbLine
 62
4
  6
CONTINUOUS
 10
9.7569149921
 20
7.0293757943
 11
9.7955520243
 21
6.9687407553
  0
LINE
  5
292
100
AcDbEntity
  8
0
100
AcDbLine
 62
4
  6
CONTINUOUS
 10
9.6603224013
 20
6.9781189615
 11
9.6603224013
 21
7.0070967374
  0
LINE
  5
293
100
AcDbEntity
  8
0
100
AcDbLine
 62
4
  6
CONTINUOUS
 10
9.6989594404
 20
7.0478839134
 11
9.7375964657
 21
7.0452044266
  0
LINE
  5
294
100
AcDbEntity
  8
0
100
AcDbLine
 62
4
  6
CONTINUOUS
 10
10.6268002695
 20
7.1102121607
 11
10.5936828133
 21
7.1125088641
  0
LINE
  5
295
100
AcDbEntity
  8
0
100
AcDbLine
 62
4
  6
CONTINUOUS
 10
10.7592701044
 20
7.2169364499
 11
10.7261526448
 21
7.2192331535
  0
LINE
  5
296
100
AcDbEntity
  8
0
100
AcDbLine
 62
4
  6
CONTINUOUS
 10
10.5605653572
 20
7.2969515832
 11
10.7592701044
 21
7.2831713622
  0
LINE
  5
297
100
AcDbEntity
  8
0
100
AcDbLine
 62
4
  6
CONTINUOUS
 10
11.9746808191
 20
7.2706368639
 11
11.7428586122
 21
7.2867137885
  0
LINE
  5
298
100
AcDbEntity
  8
0
100
AcDbLine
 62
4
  6
CONTINUOUS
 10
10.7592701044
 20
7.3990824657
 11
10.5605653572
 21
7.4128626867
  0
LINE
  5
299
100
AcDbEntity
  8
0
100
AcDbLine
 62
4
  6
CONTINUOUS
 10
10.5936828133
 20
7.1125088641
 11
10.5605653572
 21
7.1479230271
  0
LINE
  5
29A
100
AcDbEntity
  8
0
100
AcDbLine
 62
4
  6
CONTINUOUS
 10
9.8921446082
 20
6.9185753731
 11
9.8921446082
 21
7.0344864765
  0
LINE
  5
29B
100
AcDbEntity
  8
0
100
AcDbLine
 62
4
  6
CONTINUOUS
 10
11.7428586122
 20
7.5626925898
 11
11.9746808191
 21
7.612850605
  0
LINE
  5
29C
100
AcDbEntity
  8
0
100
AcDbLine
 62
4
  6
CONTINUOUS
 10
10.7923875641
 20
7.4630206743
 11
10.5605653572
 21
7.479097599
  0
LINE
  5
29D
100
AcDbEntity
  8
0
100
AcDbLine
 62
4
  6
CONTINUOUS
 10
11.7759760683
 20
7.4003281747
 11
11.9415633595
 21
7.3888446571
  0
LINE
  5
29E
100
AcDbEntity
  8
0
100
AcDbLine
 62
4
  6
CONTINUOUS
 10
10.7923875641
 20
7.5789317778
 11
10.5605653572
 21
7.5950087024
  0
LINE
  5
29F
100
AcDbEntity
  8
0
100
AcDbLine
 62
4
  6
CONTINUOUS
 10
10.7923875641
 20
7.1815222901
 11
10.7592701044
 21
7.2169364499
  0
LINE
  5
2A0
100
AcDbEntity
  8
0
100
AcDbLine
 62
4
  6
CONTINUOUS
 10
10.7923875641
 20
7.3636683197
 11
10.7592701044
 21
7.3990824657
  0
LINE
  5
2A1
100
AcDbEntity
  8
0
100
AcDbLine
 62
4
  6
CONTINUOUS
 10
10.7261526448
 20
9.2725154624
 11
10.7151134928
 21
9.2567223643
  0
LINE
  5
2A2
100
AcDbEntity
  8
0
100
AcDbLine
 62
4
  6
CONTINUOUS
 10
10.6268002695
 20
9.2628469072
 11
10.6433590045
 21
9.2782572209
  0
LINE
  5
2A3
100
AcDbEntity
  8
0
100
AcDbLine
 62
4
  6
CONTINUOUS
 10
10.7923875641
 20
7.8273127058
 11
10.5605653572
 21
7.8433896304
  0
LINE
  5
2A4
100
AcDbEntity
  8
0
100
AcDbLine
 62
4
  6
CONTINUOUS
 10
11.9746808191
 20
7.7453204296
 11
11.7428586122
 21
7.7613973543
  0
LINE
  5
2A5
100
AcDbEntity
  8
0
100
AcDbLine
 62
4
  6
CONTINUOUS
 10
10.5605653572
 20
7.1479230271
 11
10.5605653572
 21
7.2141579429
  0
LINE
  5
2A6
100
AcDbEntity
  8
0
100
AcDbLine
 62
4
  6
CONTINUOUS
 10
10.5605653572
 20
8.9473048907
 11
10.5605653572
 21
8.952824446
  0
LINE
  5
2A7
100
AcDbEntity
  8
0
100
AcDbLine
 62
4
  6
CONTINUOUS
 10
10.7040743407
 20
9.1912530475
 11
10.6930351887
 21
9.1754599494
  0
LINE
  5
2A8
100
AcDbEntity
  8
0
100
AcDbLine
 62
4
  6
CONTINUOUS
 10
10.7758288342
 20
9.1697181906
 11
10.7923875641
 21
9.1851285046
  0
LINE
  5
2A9
100
AcDbEntity
  8
0
100
AcDbLine
 62
4
  6
CONTINUOUS
 10
10.7923875641
 20
9.0360998483
 11
10.7758288342
 21
9.0206895343
  0
LINE
  5
2AA
100
AcDbEntity
  8
0
100
AcDbLine
 62
4
  6
CONTINUOUS
 10
10.6433590045
 20
7.9370002538
 11
10.7923875641
 21
7.9266650881
  0
LINE
  5
2AB
100
AcDbEntity
  8
0
100
AcDbLine
 62
4
  6
CONTINUOUS
 10
11.464671964
 20
7.8883214227
 11
11.2328497571
 21
7.9043983473
  0
LINE
  5
2AC
100
AcDbEntity
  8
0
100
AcDbLine
 62
4
  6
CONTINUOUS
 10
11.9746808191
 20
7.8777902542
 11
11.7428586122
 21
7.8938671789
  0
LINE
  5
2AD
100
AcDbEntity
  8
0
100
AcDbLine
 62
4
  6
CONTINUOUS
 10
11.9746808191
 20
7.4803807528
 11
11.7428586122
 21
7.5626925898
  0
LINE
  5
2AE
100
AcDbEntity
  8
0
100
AcDbLine
 62
4
  6
CONTINUOUS
 10
10.8475833278
 20
8.0221896311
 11
10.6268002695
 21
8.1037358729
  0
LINE
  5
2AF
100
AcDbEntity
  8
0
100
AcDbLine
 62
4
  6
CONTINUOUS
 10
10.6433590045
 20
8.1467441842
 11
10.6268002695
 21
8.1810099787
  0
LINE
  5
2B0
100
AcDbEntity
  8
0
100
AcDbLine
 62
4
  6
CONTINUOUS
 10
10.6268002695
 20
8.5453020654
 11
10.6268002695
 21
8.4625084043
  0
LINE
  5
2B1
100
AcDbEntity
  8
0
100
AcDbLine
 62
4
  6
CONTINUOUS
 10
10.6268002695
 20
7.8387962237
 11
10.6268002695
 21
7.9215898848
  0
LINE
  5
2B2
100
AcDbEntity
  8
0
100
AcDbLine
 62
4
  6
CONTINUOUS
 10
10.6268002695
 20
8.1810099787
 11
10.6268002695
 21
8.2472448633
  0
LINE
  5
2B3
100
AcDbEntity
  8
0
100
AcDbLine
 62
4
  6
CONTINUOUS
 10
10.6268002695
 20
8.3134798585
 11
10.6268002695
 21
8.3797147432
  0
LINE
  5
2B4
100
AcDbEntity
  8
0
100
AcDbLine
 62
4
  6
CONTINUOUS
 10
10.6268002695
 20
9.0475833662
 11
10.6268002695
 21
9.113818472
  0
LINE
  5
2B5
100
AcDbEntity
  8
0
100
AcDbLine
 62
4
  6
CONTINUOUS
 10
10.6268002695
 20
9.1966120225
 11
10.6268002695
 21
9.2628469072
  0
LINE
  5
2B6
100
AcDbEntity
  8
0
100
AcDbLine
 62
4
  6
CONTINUOUS
 10
10.7095939168
 20
8.4898840877
 11
10.7095939168
 21
8.5561189724
  0
LINE
  5
2B7
100
AcDbEntity
  8
0
100
AcDbLine
 62
4
  6
CONTINUOUS
 10
10.7923875641
 20
9.1023349541
 11
10.7923875641
 21
9.0360998483
  0
LINE
  5
2B8
100
AcDbEntity
  8
0
100
AcDbLine
 62
4
  6
CONTINUOUS
 10
10.7923875641
 20
8.831875639
 11
10.7923875641
 21
8.7987581967
  0
LINE
  5
2B9
100
AcDbEntity
  8
0
100
AcDbLine
 62
4
  6
CONTINUOUS
 10
10.7923875641
 20
8.5503772134
 11
10.7923875641
 21
8.4841423287
  0
LINE
  5
2BA
100
AcDbEntity
  8
0
100
AcDbLine
 62
4
  6
CONTINUOUS
 10
10.7923875641
 20
8.2357613454
 11
10.7923875641
 21
8.1695264608
  0
LINE
  5
2BB
100
AcDbEntity
  8
0
100
AcDbLine
 62
4
  6
CONTINUOUS
 10
10.7923875641
 20
7.1152873727
 11
10.7923875641
 21
7.1815222901
  0
LINE
  5
2BC
100
AcDbEntity
  8
0
100
AcDbLine
 62
4
  6
CONTINUOUS
 10
10.7923875641
 20
7.3139921147
 11
10.7923875641
 21
7.3636683197
  0
LINE
  5
2BD
100
AcDbEntity
  8
0
100
AcDbLine
 62
4
  6
CONTINUOUS
 10
10.7923875641
 20
8.6331708745
 11
10.7923875641
 21
8.7159645356
  0
LINE
  5
2BE
100
AcDbEntity
  8
0
100
AcDbLine
 62
4
  6
CONTINUOUS
 10
10.7923875641
 20
9.1851285046
 11
10.7923875641
 21
9.2513633893
  0
LINE
  5
2BF
100
AcDbEntity
  8
0
100
AcDbLine
 62
4
  6
CONTINUOUS
 10
10.7151134928
 20
9.2567223643
 11
10.7040743407
 21
9.1912530475
  0
LINE
  5
2C0
100
AcDbEntity
  8
0
100
AcDbLine
 62
4
  6
CONTINUOUS
 10
9.6603224013
 20
7.0070967374
 11
9.679640914
 21
7.0347347698
  0
LINE
  5
2C1
100
AcDbEntity
  8
0
100
AcDbLine
 62
4
  6
CONTINUOUS
 10
10.7923875641
 20
8.7987581967
 11
10.7758288342
 21
8.7833477721
  0
LINE
  5
2C2
100
AcDbEntity
  8
0
100
AcDbLine
 62
4
  6
CONTINUOUS
 10
10.7758288342
 20
8.6177604499
 11
10.7923875641
 21
8.6331708745
  0
LINE
  5
2C3
100
AcDbEntity
  8
0
100
AcDbLine
 62
4
  6
CONTINUOUS
 10
10.6268002695
 20
8.0043835459
 11
10.7923875641
 21
8.0425762468
  0
LINE
  5
2C4
100
AcDbEntity
  8
0
100
AcDbLine
 62
4
  6
CONTINUOUS
 10
11.2328497571
 20
8.1362205542
 11
11.464671964
 21
8.1863785419
  0
LINE
  5
2C5
100
AcDbEntity
  8
0
100
AcDbLine
 62
4
  6
CONTINUOUS
 10
10.7758288342
 20
8.1375573703
 11
10.6433590045
 21
8.1467441842
  0
LINE
  5
2C6
100
AcDbEntity
  8
0
100
AcDbLine
 62
4
  6
CONTINUOUS
 10
10.5605653572
 20
8.2518382701
 11
10.7923875641
 21
8.2357613454
  0
LINE
  5
2C7
100
AcDbEntity
  8
0
100
AcDbLine
 62
4
  6
CONTINUOUS
 10
10.7923875641
 20
8.3019963407
 11
10.6268002695
 21
8.3134798585
  0
LINE
  5
2C8
100
AcDbEntity
  8
0
100
AcDbLine
 62
4
  6
CONTINUOUS
 10
11.9415633595
 20
8.2278203234
 11
11.7759760683
 21
8.2393038411
  0
LINE
  5
2C9
100
AcDbEntity
  8
0
100
AcDbLine
 62
4
  6
CONTINUOUS
 10
11.464671964
 20
8.0539087173
 11
11.2328497571
 21
8.1362205542
  0
LINE
  5
2CA
100
AcDbEntity
  8
0
100
AcDbLine
 62
4
  6
CONTINUOUS
 10
10.7261526448
 20
8.4556182937
 11
10.7095939168
 21
8.4898840877
  0
LINE
  5
2CB
100
AcDbEntity
  8
0
100
AcDbLine
 62
4
  6
CONTINUOUS
 10
10.8475833278
 20
7.9890721888
 11
10.8475833278
 21
8.0221896311
  0
LINE
  5
2CC
100
AcDbEntity
  8
0
100
AcDbLine
 62
4
  6
CONTINUOUS
 10
10.7923875641
 20
8.4841423287
 11
10.7758288342
 21
8.4521732382
  0
LINE
  5
2CD
100
AcDbEntity
  8
0
100
AcDbLine
 62
4
  6
CONTINUOUS
 10
10.7923875641
 20
8.1695264608
 11
10.7758288342
 21
8.1375573703
  0
LINE
  5
2CE
100
AcDbEntity
  8
0
100
AcDbLine
 62
4
  6
CONTINUOUS
 10
10.6268002695
 20
8.3797147432
 11
10.6433590045
 21
8.3896055016
  0
LINE
  5
2CF
100
AcDbEntity
  8
0
100
AcDbLine
 62
4
  6
CONTINUOUS
 10
10.6599177256
 20
8.5595640279
 11
10.6268002695
 21
8.5453020654
  0
LINE
  5
2D0
100
AcDbEntity
  8
0
100
AcDbLine
 62
4
  6
CONTINUOUS
 10
11.464671964
 20
8.3188483664
 11
11.2328497571
 21
8.3349252911
  0
LINE
  5
2D1
100
AcDbEntity
  8
0
100
AcDbLine
 62
4
  6
CONTINUOUS
 10
10.6433590045
 20
8.3896055016
 11
10.6764764606
 21
8.3873087982
  0
LINE
  5
2D2
100
AcDbEntity
  8
0
100
AcDbLine
 62
4
  6
CONTINUOUS
 10
10.7758288342
 20
8.4521732382
 11
10.7261526448
 21
8.4556182937
  0
LINE
  5
2D3
100
AcDbEntity
  8
0
100
AcDbLine
 62
4
  6
CONTINUOUS
 10
11.9415633595
 20
8.4210054221
 11
11.7759760683
 21
8.4324889398
  0
LINE
  5
2D4
100
AcDbEntity
  8
0
100
AcDbLine
 62
4
  6
CONTINUOUS
 10
11.9415633595
 20
7.3888446571
 11
11.9746808191
 21
7.3534304973
  0
LINE
  5
2D5
100
AcDbEntity
  8
0
100
AcDbLine
 62
4
  6
CONTINUOUS
 10
11.2328497571
 20
7.9043983473
 11
11.2328497571
 21
8.0037507227
  0
LINE
  5
2D6
100
AcDbEntity
  8
0
100
AcDbLine
 62
4
  6
CONTINUOUS
 10
11.2328497571
 20
8.2686903788
 11
11.2328497571
 21
8.4011602034
  0
LINE
  5
2D7
100
AcDbEntity
  8
0
100
AcDbLine
 62
4
  6
CONTINUOUS
 10
10.6268002695
 20
7.9215898848
 11
10.6433590045
 21
7.9370002538
  0
LINE
  5
2D8
100
AcDbEntity
  8
0
100
AcDbLine
 62
4
  6
CONTINUOUS
 10
10.7923875641
 20
8.5503772134
 11
10.6599177256
 21
8.5595640279
  0
LINE
  5
2D9
100
AcDbEntity
  8
0
100
AcDbLine
 62
4
  6
CONTINUOUS
 10
12.5465089754
 20
8.4808885388
 11
12.7783311822
 21
8.4648116141
  0
LINE
  5
2DA
100
AcDbEntity
  8
0
100
AcDbLine
 62
4
  6
CONTINUOUS
 10
10.6268002695
 20
8.628095616
 11
10.7758288342
 21
8.6177604499
  0
LINE
  5
2DB
100
AcDbEntity
  8
0
100
AcDbLine
 62
4
  6
CONTINUOUS
 10
11.7759760683
 20
8.5484000432
 11
11.9415633595
 21
8.5369165255
  0
LINE
  5
2DC
100
AcDbEntity
  8
0
100
AcDbLine
 62
4
  6
CONTINUOUS
 10
11.9746808191
 20
8.6008547066
 11
11.7428586122
 21
8.6169316312
  0
LINE
  5
2DD
100
AcDbEntity
  8
0
100
AcDbLine
 62
4
  6
CONTINUOUS
 10
10.7923875641
 20
8.7159645356
 11
10.6268002695
 21
8.7274480535
  0
LINE
  5
2DE
100
AcDbEntity
  8
0
100
AcDbLine
 62
4
  6
CONTINUOUS
 10
10.5605653572
 20
8.952824446
 11
10.5771240922
 21
8.9461565385
  0
LINE
  5
2DF
100
AcDbEntity
  8
0
100
AcDbLine
 62
4
  6
CONTINUOUS
 10
10.6433590045
 20
9.0298763481
 11
10.6268002695
 21
9.0475833662
  0
LINE
  5
2E0
100
AcDbEntity
  8
0
100
AcDbLine
 62
4
  6
CONTINUOUS
 10
10.6433590045
 20
9.1789050045
 11
10.6268002695
 21
9.1966120225
  0
LINE
  5
2E1
100
AcDbEntity
  8
0
100
AcDbLine
 62
4
  6
CONTINUOUS
 10
11.8311718286
 20
7.236432631
 11
11.8753284437
 21
7.1450571361
  0
LINE
  5
2E2
100
AcDbEntity
  8
0
100
AcDbLine
 62
4
  6
CONTINUOUS
 10
11.3322021255
 20
7.9968606125
 11
11.3322021255
 21
7.8975082372
  0
LINE
  5
2E3
100
AcDbEntity
  8
0
100
AcDbLine
 62
4
  6
CONTINUOUS
 10
11.3984370447
 20
8.0805804286
 11
11.3984370447
 21
8.168893645
  0
LINE
  5
2E4
100
AcDbEntity
  8
0
100
AcDbLine
 62
4
  6
CONTINUOUS
 10
11.7428586122
 20
8.6997252923
 11
11.7759760683
 21
8.7305460313
  0
LINE
  5
2E5
100
AcDbEntity
  8
0
100
AcDbLine
 62
4
  6
CONTINUOUS
 10
9.679640914
 20
7.0347347698
 11
9.6989594404
 21
7.0478839134
  0
LINE
  5
2E6
100
AcDbEntity
  8
0
100
AcDbLine
 62
4
  6
CONTINUOUS
 10
10.7758288342
 20
8.7833477721
 11
10.5605653572
 21
8.7982763449
  0
LINE
  5
2E7
100
AcDbEntity
  8
0
100
AcDbLine
 62
4
  6
CONTINUOUS
 10
11.7759760683
 20
8.7305460313
 11
11.9415633595
 21
8.7190625136
  0
LINE
  5
2E8
100
AcDbEntity
  8
0
100
AcDbLine
 62
4
  6
CONTINUOUS
 10
11.9746808191
 20
8.8105986923
 11
11.7428586122
 21
8.8266756169
  0
LINE
  5
2E9
100
AcDbEntity
  8
0
100
AcDbLine
 62
4
  6
CONTINUOUS
 10
10.7923875641
 20
8.931227966
 11
10.6268002695
 21
8.9427114839
  0
LINE
  5
2EA
100
AcDbEntity
  8
0
100
AcDbLine
 62
4
  6
CONTINUOUS
 10
10.5771240922
 20
8.9461565385
 11
10.5605653572
 21
8.9473048907
  0
LINE
  5
2EB
100
AcDbEntity
  8
0
100
AcDbLine
 62
4
  6
CONTINUOUS
 10
10.7923875641
 20
9.2513633893
 11
10.7758288342
 21
9.269070407
  0
LINE
  5
2EC
100
AcDbEntity
  8
0
100
AcDbLine
 62
4
  6
CONTINUOUS
 10
11.7759760683
 20
8.2393038411
 11
11.7428586122
 21
8.2747179868
  0
LINE
  5
2ED
100
AcDbEntity
  8
0
100
AcDbLine
 62
4
  6
CONTINUOUS
 10
11.8311718286
 20
8.9861382862
 11
11.8753284437
 21
9.0713892309
  0
LINE
  5
2EE
100
AcDbEntity
  8
0
100
AcDbLine
 62
4
  6
CONTINUOUS
 10
10.7261526448
 20
7.2192331535
 11
10.6268002695
 21
7.1102121607
  0
LINE
  5
2EF
100
AcDbEntity
  8
0
100
AcDbLine
 62
7
  6
CONTINUOUS
 10
13.0912911694
 20
9.5848322064
 11
13.7383382482
 21
10.2098317277
  0
LINE
  5
2F0
100
AcDbEntity
  8
0
100
AcDbLine
 62
4
  6
CONTINUOUS
 10
11.7428586122
 20
8.5175793042
 11
11.7759760683
 21
8.5484000432
  0
LINE
  5
2F1
100
AcDbEntity
  8
0
100
AcDbLine
 62
4
  6
CONTINUOUS
 10
10.5605653572
 20
7.2141579429
 11
10.5771240922
 21
7.2295683188
  0
LINE
  5
2F2
100
AcDbEntity
  8
0
100
AcDbLine
 62
4
  6
CONTINUOUS
 10
11.9746808191
 20
8.4518261608
 11
11.9415633595
 21
8.4210054221
  0
LINE
  5
2F3
100
AcDbEntity
  8
0
100
AcDbLine
 62
4
  6
CONTINUOUS
 10
10.7758288342
 20
9.0206895343
 11
10.6433590045
 21
9.0298763481
  0
LINE
  5
2F4
100
AcDbEntity
  8
0
100
AcDbLine
 62
4
  6
CONTINUOUS
 10
10.6930351887
 20
9.1754599494
 11
10.6433590045
 21
9.1789050045
  0
LINE
  5
2F5
100
AcDbEntity
  8
0
100
AcDbLine
 62
4
  6
CONTINUOUS
 10
11.7759760683
 20
8.4324889398
 11
11.7428586122
 21
8.4679030855
  0
LINE
  5
2F6
100
AcDbEntity
  8
0
100
AcDbLine
 62
4
  6
CONTINUOUS
 10
11.9415633595
 20
8.5369165255
 11
11.9746808191
 21
8.5015023796
  0
LINE
  5
2F7
100
AcDbEntity
  8
0
100
AcDbLine
 62
4
  6
CONTINUOUS
 10
11.7428586122
 20
7.2867137885
 11
11.7428586122
 21
7.369507422
  0
LINE
  5
2F8
100
AcDbEntity
  8
0
100
AcDbLine
 62
4
  6
CONTINUOUS
 10
11.7428586122
 20
7.6951624143
 11
11.7428586122
 21
7.8276322389
  0
LINE
  5
2F9
100
AcDbEntity
  8
0
100
AcDbLine
 62
4
  6
CONTINUOUS
 10
11.7428586122
 20
7.8938671789
 11
11.7428586122
 21
7.9932195611
  0
LINE
  5
2FA
100
AcDbEntity
  8
0
100
AcDbLine
 62
4
  6
CONTINUOUS
 10
11.7428586122
 20
8.2747179868
 11
11.7428586122
 21
8.3409528714
  0
LINE
  5
2FB
100
AcDbEntity
  8
0
100
AcDbLine
 62
4
  6
CONTINUOUS
 10
11.7428586122
 20
8.4679030855
 11
11.7428586122
 21
8.5175793042
  0
LINE
  5
2FC
100
AcDbEntity
  8
0
100
AcDbLine
 62
4
  6
CONTINUOUS
 10
11.7428586122
 20
8.6169316312
 11
11.7428586122
 21
8.6997252923
  0
LINE
  5
2FD
100
AcDbEntity
  8
0
100
AcDbLine
 62
4
  6
CONTINUOUS
 10
11.7428586122
 20
8.8266756169
 11
11.7428586122
 21
8.9260279439
  0
LINE
  5
2FE
100
AcDbEntity
  8
0
100
AcDbLine
 62
4
  6
CONTINUOUS
 10
11.8422109806
 20
8.8860203914
 11
11.8422109806
 21
8.8197855068
  0
LINE
  5
2FF
100
AcDbEntity
  8
0
100
AcDbLine
 62
4
  6
CONTINUOUS
 10
11.8422109806
 20
7.9532120087
 11
11.8422109806
 21
7.8869770687
  0
LINE
  5
300
100
AcDbEntity
  8
0
100
AcDbLine
 62
4
  6
CONTINUOUS
 10
11.9084458998
 20
7.5070524641
 11
11.9084458998
 21
7.5953656805
  0
LINE
  5
301
100
AcDbEntity
  8
0
100
AcDbLine
 62
4
  6
CONTINUOUS
 10
10.7592701044
 20
7.2831713622
 11
10.7923875641
 21
7.3139921147
  0
LINE
  5
302
100
AcDbEntity
  8
0
100
AcDbLine
 62
4
  6
CONTINUOUS
 10
11.9746808191
 20
8.2586410621
 11
11.9415633595
 21
8.2278203234
  0
LINE
  5
303
100
AcDbEntity
  8
0
100
AcDbLine
 62
4
  6
CONTINUOUS
 10
10.7758288342
 20
7.0998769947
 11
10.7923875641
 21
7.1152873727
  0
LINE
  5
304
100
AcDbEntity
  8
0
100
AcDbLine
 62
4
  6
CONTINUOUS
 10
10.5605653572
 20
7.479097599
 11
10.7923875641
 21
7.5789317778
  0
LINE
  5
305
100
AcDbEntity
  8
0
100
AcDbLine
 62
4
  6
CONTINUOUS
 10
10.7758288342
 20
9.269070407
 11
10.7261526448
 21
9.2725154624
  0
LINE
  5
306
100
AcDbEntity
  8
0
100
AcDbLine
 62
4
  6
CONTINUOUS
 10
11.9415633595
 20
8.7190625136
 11
11.9746808191
 21
8.6836483677
  0
LINE
  5
307
100
AcDbEntity
  8
0
100
AcDbLine
 62
4
  6
CONTINUOUS
 10
11.9746808191
 20
8.6836483677
 11
11.9746808191
 21
8.6008547066
  0
LINE
  5
308
100
AcDbEntity
  8
0
100
AcDbLine
 62
4
  6
CONTINUOUS
 10
11.9746808191
 20
8.5015023796
 11
11.9746808191
 21
8.4518261608
  0
LINE
  5
309
100
AcDbEntity
  8
0
100
AcDbLine
 62
4
  6
CONTINUOUS
 10
11.9746808191
 20
8.3248759468
 11
11.9746808191
 21
8.2586410621
  0
LINE
  5
30A
100
AcDbEntity
  8
0
100
AcDbLine
 62
4
  6
CONTINUOUS
 10
11.9746808191
 20
7.3534304973
 11
11.9746808191
 21
7.2706368639
  0
LINE
  5
30B
100
AcDbEntity
  8
0
100
AcDbLine
 62
4
  6
CONTINUOUS
 10
11.9746808191
 20
7.8777902542
 11
11.9746808191
 21
7.9771426365
  0
LINE
  5
30C
100
AcDbEntity
  8
0
100
AcDbLine
 62
4
  6
CONTINUOUS
 10
11.9746808191
 20
8.8105986923
 11
11.9746808191
 21
8.9099510192
  0
LINE
  5
30D
100
AcDbEntity
  8
0
100
AcDbLine
 62
7
  6
CONTINUOUS
 10
13.3542914743
 20
9.2170406202
 11
13.3529954508
 21
9.2158117606
  0
LINE
  5
30E
100
AcDbEntity
  8
0
100
AcDbLine
 62
4
  6
CONTINUOUS
 10
11.8753284437
 20
9.0713892309
 11
11.9194850554
 21
8.9800137431
  0
LINE
  5
30F
100
AcDbEntity
  8
0
100
AcDbLine
 62
4
  6
CONTINUOUS
 10
11.7428586122
 20
7.369507422
 11
11.7759760683
 21
7.4003281747
  0
LINE
  5
310
100
AcDbEntity
  8
0
100
AcDbLine
 62
7
  6
CONTINUOUS
 10
13.0912911694
 20
9.5848322064
 11
8.2616617518
 21
9.9197681441
  0
LINE
  5
311
100
AcDbEntity
  8
0
100
AcDbLine
 62
4
  6
CONTINUOUS
 10
11.8753284437
 20
7.1450571361
 11
11.9194850554
 21
7.230308088
  0
LINE
  5
312
100
AcDbEntity
  8
0
100
AcDbLine
 62
7
  6
CONTINUOUS
 10
13.7383382482
 20
10.2098317277
 11
8.9087088306
 21
10.5447676654
  0
LINE
  5
313
100
AcDbEntity
  8
0
100
AcDbLine
 62
7
  6
CONTINUOUS
 10
13.0912911694
 20
6.4552323346
 11
13.0912911694
 21
9.5848322064
  0
LINE
  5
314
100
AcDbEntity
  8
0
100
AcDbLine
 62
7
  6
CONTINUOUS
 10
13.7383382482
 20
10.2098317277
 11
13.7383382482
 21
7.0802318559
  0
LINE
  5
315
100
AcDbEntity
  8
0
100
AcDbLine
 62
7
  6
CONTINUOUS
 10
13.7383382482
 20
7.0802318559
 11
13.0912911694
 21
6.4552323346
  0
ARC
  5
316
100
AcDbEntity
  8
0
100
AcDbCircle
 62
7
  6
CONTINUOUS
 10
13.2645686644
 20
8.2684627577
 40
0.0295172521
100
AcDbArc
 50
259.8041618282
 51
266.0267405793
  0
ARC
  5
317
100
AcDbEntity
  8
0
100
AcDbCircle
 62
7
  6
CONTINUOUS
 10
13.3255181685
 20
9.1473539995
 40
0.0294806418
100
AcDbArc
 50
86.0355086389
 51
92.1255704765
  0
SPLINE
  5
318
100
AcDbEntity
  8
0
100
AcDbSpline
 62
7
  6
CONTINUOUS
 70
0
 71
3
 72
23
 73
19
 74
0
 42
0.0000001
 43
0.0000001
 44
0.0000000001
 40
0.0
 40
0.0
 40
0.0
 40
0.0
 40
0.0764216955
 40
0.1504654227
 40
0.2222014289
 40
0.2917108972
 40
0.3590900786
 40
0.4244474549
 40
0.487903708
 40
0.5495925108
 40
0.6096609283
 40
0.6682702054
 40
0.7255962412
 40
0.7818282176
 40
0.8371677928
 40
0.8918276897
 40
0.9460292397
 40
1.0
 40
1.0
 40
1.0
 40
1.0
 10
13.4148147088
 20
9.5495986398
 30
0.0
 10
13.416078489
 20
9.5508193578
 30
0.0
 10
13.418605559
 20
9.5531830676
 30
0.0
 10
13.4224563936
 20
9.556541886
 30
0.0
 10
13.4263054942
 20
9.5596560075
 30
0.0
 10
13.4301517078
 20
9.5625243095
 30
0.0
 10
13.4339939519
 20
9.5651459726
 30
0.0
 10
13.4378312377
 20
9.567520231
 30
0.0
 10
13.4416625909
 20
9.5696463262
 30
0.0
 10
13.4454869581
 20
9.571523614
 30
0.0
 10
13.4493032982
 20
9.5731514212
 30
0.0
 10
13.453110561
 20
9.574529084
 30
0.0
 10
13.4569076272
 20
9.5756561185
 30
0.0
 10
13.4606933899
 20
9.5765320203
 30
0.0
 10
13.4644666731
 20
9.5771563297
 30
0.0
 10
13.4682263154
 20
9.5775287891
 30
0.0
 10
13.4719708535
 20
9.5776491605
 30
0.0
 10
13.4744586132
 20
9.5775611503
 30
0.0
 10
13.4756965229
 20
9.5774753028
 30
0.0
  0
SPLINE
  5
319
100
AcDbEntity
  8
0
100
AcDbSpline
 62
7
  6
CONTINUOUS
 70
0
 71
3
 72
23
 73
19
 74
0
 42
0.0000001
 43
0.0000001
 44
0.0000000001
 40
0.0
 40
0.0
 40
0.0
 40
0.0
 40
0.063776909
 40
0.1273449468
 40
0.1907019575
 40
0.2538561145
 40
0.3168131979
 40
0.3795820804
 40
0.4421733815
 40
0.5045993354
 40
0.5668738682
 40
0.6290123838
 40
0.6910316538
 40
0.75294965
 40
0.8147853622
 40
0.8765586114
 40
0.9382898593
 40
1.0
 40
1.0
 40
1.0
 40
1.0
 10
12.8807193494
 20
7.0126858639
 30
0.0
 10
12.8807193494
 20
7.0073784152
 30
0.0
 10
12.8804653054
 20
6.9967791015
 30
0.0
 10
12.8793187291
 20
6.9809446166
 30
0.0
 10
12.8774096469
 20
6.9652356388
 30
0.0
 10
12.8747426469
 20
6.9496890673
 30
0.0
 10
12.8713236746
 20
6.9343404343
 30
0.0
 10
12.8671606376
 20
6.9192252211
 30
0.0
 10
12.862263112
 20
6.9043782484
 30
0.0
 10
12.8566423463
 20
6.8898337536
 30
0.0
 10
12.8503112516
 20
6.8756252906
 30
0.0
 10
12.8432843987
 20
6.8617856325
 30
0.0
 10
12.8355779918
 20
6.8483466952
 30
0.0
 10
12.8272097754
 20
6.8353394719
 30
0.0
 10
12.8181990433
 20
6.822794009
 30
0.0
 10
12.808566455
 20
6.8107391583
 30
0.0
 10
12.7983346191
 20
6.7992030959
 30
0.0
 10
12.7911282826
 20
6.7918746191
 30
0.0
 10
12.7874345911
 20
6.7883067717
 30
0.0
  0
SPLINE
  5
31A
100
AcDbEntity
  8
0
100
AcDbSpline
 62
7
  6
CONTINUOUS
 70
0
 71
3
 72
48
 73
44
 74
0
 42
0.0000001
 43
0.0000001
 44
0.0000000001
 40
0.0
 40
0.0
 40
0.0
 40
0.0
 40
0.0149718897
 40
0.0299468369
 40
0.0449278839
 40
0.0599180336
 40
0.0749202322
 40
0.0899373568
 40
0.1049721887
 40
0.1200274064
 40
0.1351055645
 40
0.1502090774
 40
0.1653402142
 40
0.180501073
 40
0.1956935825
 40
0.2109194836
 40
0.2261803205
 40
0.2414774416
 40
0.2568119786
 40
0.2721848576
 40
0.3030428416
 40
0.3340598877
 40
0.365235493
 40
0.3965657058
 40
0.4280432614
 40
0.4596577825
 40
0.4913960356
 40
0.5232422374
 40
0.5551784039
 40
0.5871847345
 40
0.6192400218
 40
0.6513220815
 40
0.6834081967
 40
0.7154755701
 40
0.7475017768
 40
0.7794652126
 40
0.8113455287
 40
0.8431240501
 40
0.8747841728
 40
0.9063117021
 40
0.9376953081
 40
0.9689262526
 40
1.0
 40
1.0
 40
1.0
 40
1.0
 10
12.3094470998
 20
7.2831521411
 30
0.0
 10
12.3123007934
 20
7.2859086093
 30
0.0
 10
12.3181189983
 20
7.2913092886
 30
0.0
 10
12.3271623308
 20
7.2990579224
 30
0.0
 10
12.3365101243
 20
7.3064445161
 30
0.0
 10
12.3461494167
 20
7.3134586312
 30
0.0
 10
12.3560669135
 20
7.3200907651
 30
0.0
 10
12.3662490018
 20
7.3263317118
 30
0.0
 10
12.3766816557
 20
7.3321729093
 30
0.0
 10
12.387350496
 20
7.3376063659
 30
0.0
 10
12.3982408841
 20
7.3426245189
 30
0.0
 10
12.4093377803
 20
7.3472205841
 30
0.0
 10
12.4206259563
 20
7.3513881454
 30
0.0
 10
12.4320898553
 20
7.3551215316
 30
0.0
 10
12.4437137044
 20
7.3584156244
 30
0.0
 10
12.4554815237
 20
7.3612658288
 30
0.0
 10
12.4673771128
 20
7.3636683455
 30
0.0
 10
12.4793840724
 20
7.3656197611
 30
0.0
 10
12.4914860878
 20
7.3671174875
 30
0.0
 10
12.5077448347
 20
7.3685084225
 30
0.0
 10
12.5282280435
 20
7.3690998125
 30
0.0
 10
12.5528829705
 20
7.3679749975
 30
0.0
 10
12.5775128522
 20
7.365023512
 30
0.0
 10
12.6019814323
 20
7.3602617665
 30
0.0
 10
12.6261545763
 20
7.353716216
 30
0.0
 10
12.6498994968
 20
7.3454230389
 30
0.0
 10
12.6730858728
 20
7.335427974
 30
0.0
 10
12.6955864557
 20
7.3237860787
 30
0.0
 10
12.7172777877
 20
7.3105614178
 30
0.0
 10
12.7380408544
 20
7.2958266971
 30
0.0
 10
12.7577617323
 20
7.2796628712
 30
0.0
 10
12.7763322035
 20
7.2621587009
 30
0.0
 10
12.7936503435
 20
7.2434102747
 30
0.0
 10
12.8096210959
 20
7.2235205029
 30
0.0
 10
12.8241567682
 20
7.2025985353
 30
0.0
 10
12.8371775089
 20
7.1807591734
 30
0.0
 10
12.848611742
 20
7.1581222443
 30
0.0
 10
12.8583965553
 20
7.1348119663
 30
0.0
 10
12.8664780543
 20
7.110956232
 30
0.0
 10
12.8728117013
 20
7.0866861009
 30
0.0
 10
12.8773624184
 20
7.062134393
 30
0.0
 10
12.8801050669
 20
7.0374376642
 30
0.0
 10
12.8807193494
 20
7.0209204659
 30
0.0
 10
12.8807193494
 20
7.0126858639
 30
0.0
  0
SPLINE
  5
31B
100
AcDbEntity
  8
0
100
AcDbSpline
 62
7
  6
CONTINUOUS
 70
0
 71
3
 72
101
 73
97
 74
0
 42
0.0000001
 43
0.0000001
 44
0.0000000001
 40
0.0
 40
0.0
 40
0.0
 40
0.0
 40
0.0027164061
 40
0.0054531876
 40
0.0082302297
 40
0.0110664948
 40
0.0139796738
 40
0.0169859478
 40
0.0200998802
 40
0.0233343572
 40
0.0267006776
 40
0.0302085869
 40
0.0338664631
 40
0.0376813836
 40
0.0416593145
 40
0.0458051951
 40
0.0501230749
 40
0.05461622
 40
0.059287177
 40
0.0641379042
 40
0.0691697705
 40
0.0743836981
 40
0.079780127
 40
0.0853591412
 40
0.091120439
 40
0.0970634133
 40
0.1031871573
 40
0.109490486
 40
0.1159719866
 40
0.1226299852
 40
0.1294626337
 40
0.1364678432
 40
0.1436433801
 40
0.1509868012
 40
0.1584955261
 40
0.1661668045
 40
0.1739977437
 40
0.1819853208
 40
0.1984174024
 40
0.2154365146
 40
0.2330140899
 40
0.2511199125
 40
0.2697222653
 40
0.2887880645
 40
0.3082829839
 40
0.3281715722
 40
0.348417366
 40
0.3689829986
 40
0.3898303049
 40
0.4109204245
 40
0.4322139033
 40
0.4536707933
 40
0.4752507518
 40
0.4969131404
 40
0.5186171228
 40
0.5403217633
 40
0.5619861247
 40
0.5835693662
 40
0.6050308417
 40
0.6263301975
 40
0.6474274715
 40
0.6682831916
 40
0.6888584768
 40
0.7091151376
 40
0.7290157797
 40
0.7485239096
 40
0.7676040426
 40
0.7862218148
 40
0.8043441002
 40
0.8219391358
 40
0.838976655
 40
0.8554280343
 40
0.8634255699
 40
0.8712666769
 40
0.8789483041
 40
0.8864675678
 40
0.8938216932
 40
0.9010080993
 40
0.9080243293
 40
0.9148681339
 40
0.9215374229
 40
0.9280303184
 40
0.9343451526
 40
0.9404804751
 40
0.946435107
 40
0.952208103
 40
0.957798851
 40
0.9632070166
 40
0.9684326674
 40
0.9734762271
 40
0.978338563
 40
0.9830210047
 40
0.9875254819
 40
0.9918546131
 40
0.9960115556
 40
1.0
 40
1.0
 40
1.0
 40
1.0
 10
13.3539328947
 20
7.8216924218
 30
0.0
 10
13.3522904832
 20
7.821806321
 30
0.0
 10
13.3490017471
 20
7.822183602
 30
0.0
 10
13.3441105195
 20
7.8231932893
 30
0.0
 10
13.3392562544
 20
7.8246464925
 30
0.0
 10
13.3344424102
 20
7.8265418336
 30
0.0
 10
13.3296714923
 20
7.8288776467
 30
0.0
 10
13.3249459096
 20
7.8316520481
 30
0.0
 10
13.3202678949
 20
7.834863141
 30
0.0
 10
13.3156394562
 20
7.8385087997
 30
0.0
 10
13.3110626763
 20
7.8425869884
 30
0.0
 10
13.3065394408
 20
7.8470953911
 30
0.0
 10
13.3020718089
 20
7.8520317312
 30
0.0
 10
13.2976616899
 20
7.8573934464
 30
0.0
 10
13.2933111351
 20
7.8631779037
 30
0.0
 10
13.2890221241
 20
7.869382224
 30
0.0
 10
13.2847966727
 20
7.8760033561
 30
0.0
 10
13.28063682
 20
7.8830380516
 30
0.0
 10
13.2765445236
 20
7.8904828251
 30
0.0
 10
13.2725218442
 20
7.8983340271
 30
0.0
 10
13.2685706788
 20
7.9065877468
 30
0.0
 10
13.2646930601
 20
7.9152399179
 30
0.0
 10
13.260890838
 20
7.9242862203
 30
0.0
 10
13.2571659691
 20
7.9337221682
 30
0.0
 10
13.2535202717
 20
7.9435430472
 30
0.0
 10
13.2499555942
 20
7.9537439605
 30
0.0
 10
13.2464737254
 20
7.964319809
 30
0.0
 10
13.2430763942
 20
7.9752653004
 30
0.0
 10
13.2397653486
 20
7.9865749586
 30
0.0
 10
13.2365422027
 20
7.9982431124
 30
0.0
 10
13.2334086414
 20
8.0102639175
 30
0.0
 10
13.230366181
 20
8.0226313401
 30
0.0
 10
13.2274164134
 20
8.035339178
 30
0.0
 10
13.2245607786
 20
8.0483810497
 30
0.0
 10
13.2218007492
 20
8.061750409
 30
0.0
 10
13.2191377046
 20
8.0754405372
 30
0.0
 10
13.2165729733
 20
8.08944457
 30
0.0
 10
13.2132549058
 20
8.1087075955
 30
0.0
 10
13.2093718798
 20
8.1335225634
 30
0.0
 10
13.2051668578
 20
8.1641644819
 30
0.0
 10
13.2013822382
 20
8.1958829342
 30
0.0
 10
13.1980257083
 20
8.2286141396
 30
0.0
 10
13.1951041064
 20
8.2622923876
 30
0.0
 10
13.1926233805
 20
8.2968500056
 30
0.0
 10
13.1905885855
 20
8.3322175459
 30
0.0
 10
13.1890038692
 20
8.3683239151
 30
0.0
 10
13.187872467
 20
8.4050965244
 30
0.0
 10
13.187196696
 20
8.4424614366
 30
0.0
 10
13.1869779508
 20
8.4803435169
 30
0.0
 10
13.1872167011
 20
8.5186665856
 30
0.0
 10
13.1879124912
 20
8.5573535719
 30
0.0
 10
13.1890639417
 20
8.5963266699
 30
0.0
 10
13.1906687518
 20
8.6355074957
 30
0.0
 10
13.1927237047
 20
8.6748172459
 30
0.0
 10
13.1952246742
 20
8.7141768565
 30
0.0
 10
13.1981666318
 20
8.7535071627
 30
0.0
 10
13.2015436576
 20
8.7927290592
 30
0.0
 10
13.2053489531
 20
8.8317636599
 30
0.0
 10
13.2095748544
 20
8.8705324571
 30
0.0
 10
13.2142128475
 20
8.9089574799
 30
0.0
 10
13.2192535854
 20
8.9469614518
 30
0.0
 10
13.224686907
 20
8.9844679467
 30
0.0
 10
13.2305018567
 20
9.0214015434
 30
0.0
 10
13.2366867066
 20
9.0576879787
 30
0.0
 10
13.2432289798
 20
9.0932542983
 30
0.0
 10
13.2501154738
 20
9.1280290065
 30
0.0
 10
13.2573322879
 20
9.1619422103
 30
0.0
 10
13.264864851
 20
9.1949257667
 30
0.0
 10
13.2726979513
 20
9.2269134085
 30
0.0
 10
13.2808157637
 20
9.2578409309
 30
0.0
 10
13.2892018925
 20
9.2876461519
 30
0.0
 10
13.2964663874
 20
9.3117197743
 30
0.0
 10
13.3024065846
 20
9.3303670907
 30
0.0
 10
13.3068762667
 20
9.3439036691
 30
0.0
 10
13.3114001623
 20
9.3571162055
 30
0.0
 10
13.3159759611
 20
9.36999808
 30
0.0
 10
13.3206014103
 20
9.3825428125
 30
0.0
 10
13.3252741251
 20
9.3947441148
 30
0.0
 10
13.3299918052
 20
9.4065958542
 30
0.0
 10
13.3347520342
 20
9.4180920923
 30
0.0
 10
13.3395524444
 20
9.4292270587
 30
0.0
 10
13.3443906117
 20
9.4399951735
 30
0.0
 10
13.3492640941
 20
9.450391046
 30
0.0
 10
13.354170473
 20
9.4604094635
 30
0.0
 10
13.3591072394
 20
9.4700454298
 30
0.0
 10
13.3640719793
 20
9.4792941092
 30
0.0
 10
13.3690621369
 20
9.4881509091
 30
0.0
 10
13.3740752901
 20
9.4966113906
 30
0.0
 10
13.3791088816
 20
9.5046713715
 30
0.0
 10
13.3841604657
 20
9.5123268224
 30
0.0
 10
13.3892274937
 20
9.5195739472
 30
0.0
 10
13.3943074748
 20
9.526409162
 30
0.0
 10
13.3993979744
 20
9.5328291087
 30
0.0
 10
13.4044965837
 20
9.5388307003
 30
0.0
 10
13.4096006482
 20
9.5444106855
 30
0.0
 10
13.4130760463
 20
9.5479192207
 30
0.0
 10
13.4148147088
 20
9.5495986398
 30
0.0
  0
SPLINE
  5
31C
100
AcDbEntity
  8
0
100
AcDbSpline
 62
7
  6
CONTINUOUS
 70
0
 71
3
 72
85
 73
81
 74
0
 42
0.0000001
 43
0.0000001
 44
0.0000000001
 40
0.0
 40
0.0
 40
0.0
 40
0.0
 40
0.0036898752
 40
0.0075219583
 40
0.0114997616
 40
0.0156261727
 40
0.0199035251
 40
0.0243337239
 40
0.0289182033
 40
0.0336580104
 40
0.0385538916
 40
0.043606226
 40
0.0488151241
 40
0.0541804733
 40
0.0597018656
 40
0.0653787074
 40
0.0712102255
 40
0.0771954065
 40
0.0896217303
 40
0.1026469036
 40
0.1162575794
 40
0.1304383894
 40
0.145172158
 40
0.1604401225
 40
0.1762220519
 40
0.1924963422
 40
0.2092401811
 40
0.2264296434
 40
0.2440397382
 40
0.2620445286
 40
0.2804172254
 40
0.2991302283
 40
0.3181552041
 40
0.3374631826
 40
0.3570246073
 40
0.3768093867
 40
0.3967869881
 40
0.4169264946
 40
0.4371966535
 40
0.4575659569
 40
0.4984745212
 40
0.5393978628
 40
0.5597856103
 40
0.580081538
 40
0.6002540899
 40
0.6202719473
 40
0.6401041075
 40
0.6597199464
 40
0.6790892661
 40
0.6981823735
 40
0.7169701611
 40
0.7354241463
 40
0.7535165439
 40
0.7712203729
 40
0.7885094985
 40
0.8053586979
 40
0.8217437873
 40
0.8376416958
 40
0.8530305314
 40
0.8678897228
 40
0.882200163
 40
0.8959443014
 40
0.9091063195
 40
0.9216723859
 40
0.9277283641
 40
0.9336311821
 40
0.9393797599
 40
0.9449732418
 40
0.9504109143
 40
0.9556922908
 40
0.9608171483
 40
0.9657854584
 40
0.9705974842
 40
0.9752537929
 40
0.9797552364
 40
0.9841031349
 40
0.9882992468
 40
0.992345707
 40
0.9962449826
 40
1.0
 40
1.0
 40
1.0
 40
1.0
 10
13.2834422366
 20
8.1954356997
 30
0.0
 10
13.2826232378
 20
8.1964426958
 30
0.0
 10
13.2809961325
 20
8.198530339
 30
0.0
 10
13.2786309963
 20
8.2018132298
 30
0.0
 10
13.2762968907
 20
8.2053045407
 30
0.0
 10
13.2739947893
 20
8.2090027678
 30
0.0
 10
13.2717255597
 20
8.2129064036
 30
0.0
 10
13.269490168
 20
8.2170138728
 30
0.0
 10
13.2672894952
 20
8.2213234818
 30
0.0
 10
13.2651244189
 20
8.225833456
 30
0.0
 10
13.2629958718
 20
8.230541963
 30
0.0
 10
13.2609046944
 20
8.2354470507
 30
0.0
 10
13.258851743
 20
8.2405466981
 30
0.0
 10
13.2568379059
 20
8.2458388158
 30
0.0
 10
13.254863976
 20
8.2513212052
 30
0.0
 10
13.2529307825
 20
8.2569916019
 30
0.0
 10
13.2510391435
 20
8.2628476766
 30
0.0
 10
13.2485421371
 20
8.2710022571
 30
0.0
 10
13.2455376842
 20
8.281646509
 30
0.0
 10
13.2421537108
 20
8.2949657562
 30
0.0
 10
13.2389532266
 20
8.3089640283
 30
0.0
 10
13.2359415839
 20
8.323618111
 30
0.0
 10
13.233123821
 20
8.3389037942
 30
0.0
 10
13.2305046758
 20
8.3547957656
 30
0.0
 10
13.228088558
 20
8.3712676943
 30
0.0
 10
13.2258795041
 20
8.3882922589
 30
0.0
 10
13.2238812237
 20
8.4058412124
 30
0.0
 10
13.2220970891
 20
8.4238854297
 30
0.0
 10
13.2205300834
 20
8.4423949485
 30
0.0
 10
13.2191828308
 20
8.4613390261
 30
0.0
 10
13.2180576082
 20
8.4806861973
 30
0.0
 10
13.2171563076
 20
8.5004043201
 30
0.0
 10
13.2164804318
 20
8.5204606294
 30
0.0
 10
13.2160311268
 20
8.5408217986
 30
0.0
 10
13.2158091655
 20
8.5614539922
 30
0.0
 10
13.2158149131
 20
8.5823229194
 30
0.0
 10
13.216048369
 20
8.6033938974
 30
0.0
 10
13.2165091721
 20
8.6246318986
 30
0.0
 10
13.2171965411
 20
8.6460016494
 30
0.0
 10
13.2184153481
 20
8.6746625681
 30
0.0
 10
13.2204957514
 20
8.7105566172
 30
0.0
 10
13.2233059836
 20
8.7464074147
 30
0.0
 10
13.2259890144
 20
8.7749893321
 30
0.0
 10
13.2282097322
 20
8.7962818181
 30
0.0
 10
13.2306375598
 20
8.8174207032
 30
0.0
 10
13.2332684869
 20
8.8383708749
 30
0.0
 10
13.2360981206
 20
8.8590975083
 30
0.0
 10
13.2391217409
 20
8.8795661604
 30
0.0
 10
13.2423343218
 20
8.8997428115
 30
0.0
 10
13.2457305149
 20
8.9195939325
 30
0.0
 10
13.2493046466
 20
8.9390865422
 30
0.0
 10
13.2530507638
 20
8.9581882526
 30
0.0
 10
13.2569626357
 20
8.9768673275
 30
0.0
 10
13.2610337247
 20
8.9950927458
 30
0.0
 10
13.2652572381
 20
9.0128342426
 30
0.0
 10
13.2696261478
 20
9.0300623567
 30
0.0
 10
13.2741331574
 20
9.0467484971
 30
0.0
 10
13.2787707359
 20
9.0628649864
 30
0.0
 10
13.2835311558
 20
9.0783850946
 30
0.0
 10
13.2884064795
 20
9.0932831045
 30
0.0
 10
13.2933885537
 20
9.107534353
 30
0.0
 10
13.2984690729
 20
9.1211153013
 30
0.0
 10
13.3036395811
 20
9.1340034217
 30
0.0
 10
13.3080689204
 20
9.1442710726
 30
0.0
 10
13.311656035
 20
9.1521174441
 30
0.0
 10
13.3143303597
 20
9.1577433894
 30
0.0
 10
13.3170207252
 20
9.1631807506
 30
0.0
 10
13.3197259906
 20
9.1684273003
 30
0.0
 10
13.3224450544
 20
9.1734808583
 30
0.0
 10
13.325176803
 20
9.1783393336
 30
0.0
 10
13.3279200742
 20
9.1830007427
 30
0.0
 10
13.3306737723
 20
9.1874631465
 30
0.0
 10
13.3334367532
 20
9.1917247036
 30
0.0
 10
13.3362078399
 20
9.1957836721
 30
0.0
 10
13.3389859383
 20
9.1996383648
 30
0.0
 10
13.3417699306
 20
9.203287236
 30
0.0
 10
13.3445587061
 20
9.2067288389
 30
0.0
 10
13.3473511938
 20
9.2099617213
 30
0.0
 10
13.3501460594
 20
9.2129844295
 30
0.0
 10
13.3520453775
 20
9.2148940603
 30
0.0
 10
13.3529954508
 20
9.2158117606
 30
0.0
  0
SPLINE
  5
31D
100
AcDbEntity
  8
0
100
AcDbSpline
 62
7
  6
CONTINUOUS
 70
0
 71
3
 72
48
 73
44
 74
0
 42
0.0000001
 43
0.0000001
 44
0.0000000001
 40
0.0
 40
0.0
 40
0.0
 40
0.0
 40
0.0149718897
 40
0.0299468369
 40
0.0449278839
 40
0.0599180336
 40
0.0749202322
 40
0.0899373568
 40
0.1049721887
 40
0.1200274064
 40
0.1351055645
 40
0.1502090774
 40
0.1653402142
 40
0.180501073
 40
0.1956935825
 40
0.2109194836
 40
0.2261803205
 40
0.2414774416
 40
0.2568119786
 40
0.2721848576
 40
0.3030428416
 40
0.3340598877
 40
0.365235493
 40
0.3965657058
 40
0.4280432614
 40
0.4596577825
 40
0.4913960356
 40
0.5232422374
 40
0.5551784039
 40
0.5871847345
 40
0.6192400218
 40
0.6513220815
 40
0.6834081967
 40
0.7154755701
 40
0.7475017768
 40
0.7794652126
 40
0.8113455287
 40
0.8431240501
 40
0.8747841728
 40
0.9063117021
 40
0.9376953081
 40
0.9689262526
 40
1.0
 40
1.0
 40
1.0
 40
1.0
 10
12.7874345911
 20
6.7883067717
 30
0.0
 10
12.7845808975
 20
6.7855503035
 30
0.0
 10
12.7787626926
 20
6.7801496243
 30
0.0
 10
12.7697193601
 20
6.7724009905
 30
0.0
 10
12.7603715667
 20
6.7650143967
 30
0.0
 10
12.7507322742
 20
6.7580002816
 30
0.0
 10
12.7408147774
 20
6.7513681477
 30
0.0
 10
12.7306326892
 20
6.745127201
 30
0.0
 10
12.7202000352
 20
6.7392860035
 30
0.0
 10
12.7095311949
 20
6.7338525469
 30
0.0
 10
12.6986408068
 20
6.728834394
 30
0.0
 10
12.6875439106
 20
6.7242383288
 30
0.0
 10
12.6762557346
 20
6.7200707675
 30
0.0
 10
12.6647918356
 20
6.7163373812
 30
0.0
 10
12.6531679865
 20
6.7130432884
 30
0.0
 10
12.6414001672
 20
6.7101930841
 30
0.0
 10
12.6295045781
 20
6.7077905674
 30
0.0
 10
12.6174976185
 20
6.7058391518
 30
0.0
 10
12.6053956031
 20
6.7043414253
 30
0.0
 10
12.5891368562
 20
6.7029504903
 30
0.0
 10
12.5686536475
 20
6.7023591003
 30
0.0
 10
12.5439987204
 20
6.7034839154
 30
0.0
 10
12.5193688388
 20
6.7064354008
 30
0.0
 10
12.4949002587
 20
6.7111971463
 30
0.0
 10
12.4707271146
 20
6.7177426968
 30
0.0
 10
12.4469821941
 20
6.726035874
 30
0.0
 10
12.4237958181
 20
6.7360309388
 30
0.0
 10
12.4012952352
 20
6.7476728342
 30
0.0
 10
12.3796039032
 20
6.7608974951
 30
0.0
 10
12.3588408365
 20
6.7756322157
 30
0.0
 10
12.3391199586
 20
6.7917960417
 30
0.0
 10
12.3205494874
 20
6.8093002119
 30
0.0
 10
12.3032313474
 20
6.8280486381
 30
0.0
 10
12.287260595
 20
6.84793841
 30
0.0
 10
12.2727249227
 20
6.8688603775
 30
0.0
 10
12.259704182
 20
6.8906997394
 30
0.0
 10
12.2482699489
 20
6.9133366686
 30
0.0
 10
12.2384851356
 20
6.9366469466
 30
0.0
 10
12.2304036366
 20
6.9605026809
 30
0.0
 10
12.2240699896
 20
6.984772812
 30
0.0
 10
12.2195192725
 20
7.0093245198
 30
0.0
 10
12.216776624
 20
7.0340212487
 30
0.0
 10
12.2161623415
 20
7.050538447
 30
0.0
 10
12.2161623415
 20
7.0587730489
 30
0.0
  0
SPLINE
  5
31E
100
AcDbEntity
  8
0
100
AcDbSpline
 62
7
  6
CONTINUOUS
 70
0
 71
3
 72
23
 73
19
 74
0
 42
0.0000001
 43
0.0000001
 44
0.0000000001
 40
0.0
 40
0.0
 40
0.0
 40
0.0
 40
0.063776909
 40
0.1273449468
 40
0.1907019575
 40
0.2538561145
 40
0.3168131979
 40
0.3795820804
 40
0.4421733815
 40
0.5045993354
 40
0.5668738682
 40
0.6290123838
 40
0.6910316538
 40
0.75294965
 40
0.8147853622
 40
0.8765586114
 40
0.9382898593
 40
1.0
 40
1.0
 40
1.0
 40
1.0
 10
12.2161623415
 20
7.0587730489
 30
0.0
 10
12.2161623415
 20
7.0640804977
 30
0.0
 10
12.2164163855
 20
7.0746798113
 30
0.0
 10
12.2175629618
 20
7.0905142962
 30
0.0
 10
12.219472044
 20
7.106223274
 30
0.0
 10
12.2221390441
 20
7.1217698456
 30
0.0
 10
12.2255580163
 20
7.1371184785
 30
0.0
 10
12.2297210533
 20
7.1522336917
 30
0.0
 10
12.234618579
 20
7.1670806645
 30
0.0
 10
12.2402393446
 20
7.1816251592
 30
0.0
 10
12.2465704393
 20
7.1958336222
 30
0.0
 10
12.2535972922
 20
7.2096732803
 30
0.0
 10
12.2613036991
 20
7.2231122177
 30
0.0
 10
12.2696719156
 20
7.2361194409
 30
0.0
 10
12.2786826476
 20
7.2486649039
 30
0.0
 10
12.2883152359
 20
7.2607197546
 30
0.0
 10
12.2985470719
 20
7.2722558169
 30
0.0
 10
12.3057534083
 20
7.2795842937
 30
0.0
 10
12.3094470998
 20
7.2831521411
 30
0.0
  0
SPLINE
  5
31F
100
AcDbEntity
  8
0
100
AcDbSpline
 62
7
  6
CONTINUOUS
 70
0
 71
3
 72
101
 73
97
 74
0
 42
0.0000001
 43
0.0000001
 44
0.0000000001
 40
0.0
 40
0.0
 40
0.0
 40
0.0
 40
0.0027164061
 40
0.0054531876
 40
0.0082302297
 40
0.0110664948
 40
0.0139796738
 40
0.0169859478
 40
0.0200998802
 40
0.0233343572
 40
0.0267006776
 40
0.0302085869
 40
0.0338664631
 40
0.0376813836
 40
0.0416593145
 40
0.0458051951
 40
0.0501230749
 40
0.05461622
 40
0.059287177
 40
0.0641379042
 40
0.0691697705
 40
0.0743836981
 40
0.079780127
 40
0.0853591412
 40
0.091120439
 40
0.0970634133
 40
0.1031871573
 40
0.109490486
 40
0.1159719866
 40
0.1226299852
 40
0.1294626337
 40
0.1364678432
 40
0.1436433801
 40
0.1509868012
 40
0.1584955261
 40
0.1661668045
 40
0.1739977437
 40
0.1819853208
 40
0.1984174024
 40
0.2154365146
 40
0.2330140899
 40
0.2511199125
 40
0.2697222653
 40
0.2887880645
 40
0.3082829839
 40
0.3281715722
 40
0.348417366
 40
0.3689829986
 40
0.3898303049
 40
0.4109204245
 40
0.4322139033
 40
0.4536707933
 40
0.4752507518
 40
0.4969131404
 40
0.5186171228
 40
0.5403217633
 40
0.5619861247
 40
0.5835693662
 40
0.6050308417
 40
0.6263301975
 40
0.6474274715
 40
0.6682831916
 40
0.6888584768
 40
0.7091151376
 40
0.7290157797
 40
0.7485239096
 40
0.7676040426
 40
0.7862218148
 40
0.8043441002
 40
0.8219391358
 40
0.838976655
 40
0.8554280343
 40
0.8634255699
 40
0.8712666769
 40
0.8789483041
 40
0.8864675678
 40
0.8938216932
 40
0.9010080993
 40
0.9080243293
 40
0.9148681339
 40
0.9215374229
 40
0.9280303184
 40
0.9343451526
 40
0.9404804751
 40
0.946435107
 40
0.952208103
 40
0.957798851
 40
0.9632070166
 40
0.9684326674
 40
0.9734762271
 40
0.978338563
 40
0.9830210047
 40
0.9875254819
 40
0.9918546131
 40
0.9960115556
 40
1.0
 40
1.0
 40
1.0
 40
1.0
 10
13.4756965229
 20
9.5774753028
 30
0.0
 10
13.4773389344
 20
9.5773614036
 30
0.0
 10
13.4806276705
 20
9.5769841226
 30
0.0
 10
13.4855188981
 20
9.5759744352
 30
0.0
 10
13.4903731632
 20
9.5745212321
 30
0.0
 10
13.4951870074
 20
9.5726258909
 30
0.0
 10
13.4999579253
 20
9.5702900779
 30
0.0
 10
13.504683508
 20
9.5675156765
 30
0.0
 10
13.5093615227
 20
9.5643045836
 30
0.0
 10
13.5139899614
 20
9.5606589249
 30
0.0
 10
13.5185667413
 20
9.5565807362
 30
0.0
 10
13.5230899768
 20
9.5520723335
 30
0.0
 10
13.5275576087
 20
9.5471359933
 30
0.0
 10
13.5319677277
 20
9.5417742782
 30
0.0
 10
13.5363182825
 20
9.5359898209
 30
0.0
 10
13.5406072935
 20
9.5297855006
 30
0.0
 10
13.5448327449
 20
9.5231643685
 30
0.0
 10
13.5489925976
 20
9.516129673
 30
0.0
 10
13.5530848941
 20
9.5086848995
 30
0.0
 10
13.5571075734
 20
9.5008336974
 30
0.0
 10
13.5610587388
 20
9.4925799777
 30
0.0
 10
13.5649363575
 20
9.4839278066
 30
0.0
 10
13.5687385796
 20
9.4748815042
 30
0.0
 10
13.5724634485
 20
9.4654455563
 30
0.0
 10
13.5761091459
 20
9.4556246774
 30
0.0
 10
13.5796738234
 20
9.4454237641
 30
0.0
 10
13.5831556922
 20
9.4348479155
 30
0.0
 10
13.5865530234
 20
9.4239024242
 30
0.0
 10
13.589864069
 20
9.412592766
 30
0.0
 10
13.5930872149
 20
9.4009246122
 30
0.0
 10
13.5962207763
 20
9.3889038071
 30
0.0
 10
13.5992632366
 20
9.3765363844
 30
0.0
 10
13.6022130042
 20
9.3638285465
 30
0.0
 10
13.605068639
 20
9.3507866748
 30
0.0
 10
13.6078286684
 20
9.3374173156
 30
0.0
 10
13.6104917131
 20
9.3237271874
 30
0.0
 10
13.6130564443
 20
9.3097231546
 30
0.0
 10
13.6163745118
 20
9.290460129
 30
0.0
 10
13.6202575378
 20
9.2656451612
 30
0.0
 10
13.6244625598
 20
9.2350032427
 30
0.0
 10
13.6282471794
 20
9.2032847904
 30
0.0
 10
13.6316037093
 20
9.170553585
 30
0.0
 10
13.6345253112
 20
9.1368753369
 30
0.0
 10
13.6370060371
 20
9.1023177189
 30
0.0
 10
13.6390408321
 20
9.0669501787
 30
0.0
 10
13.6406255485
 20
9.0308438094
 30
0.0
 10
13.6417569506
 20
8.9940712001
 30
0.0
 10
13.6424327216
 20
8.956706288
 30
0.0
 10
13.6426514668
 20
8.9188242076
 30
0.0
 10
13.6424127166
 20
8.8805011389
 30
0.0
 10
13.6417169264
 20
8.8418141527
 30
0.0
 10
13.6405654759
 20
8.8028410547
 30
0.0
 10
13.6389606659
 20
8.7636602288
 30
0.0
 10
13.6369057129
 20
8.7243504786
 30
0.0
 10
13.6344047434
 20
8.6849908681
 30
0.0
 10
13.6314627858
 20
8.6456605619
 30
0.0
 10
13.62808576
 20
8.6064386654
 30
0.0
 10
13.6242804645
 20
8.5674040647
 30
0.0
 10
13.6200545632
 20
8.5286352675
 30
0.0
 10
13.6154165701
 20
8.4902102447
 30
0.0
 10
13.6103758322
 20
8.4522062727
 30
0.0
 10
13.6049425106
 20
8.4146997779
 30
0.0
 10
13.5991275609
 20
8.3777661812
 30
0.0
 10
13.592942711
 20
8.3414797459
 30
0.0
 10
13.5864004378
 20
8.3059134262
 30
0.0
 10
13.5795139439
 20
8.2711387181
 30
0.0
 10
13.5722971297
 20
8.2372255142
 30
0.0
 10
13.5647645666
 20
8.2042419579
 30
0.0
 10
13.5569314663
 20
8.172254316
 30
0.0
 10
13.5488136539
 20
8.1413267937
 30
0.0
 10
13.5404275251
 20
8.1115215727
 30
0.0
 10
13.5331630302
 20
8.0874479503
 30
0.0
 10
13.5272228331
 20
8.0688006339
 30
0.0
 10
13.5227531509
 20
8.0552640555
 30
0.0
 10
13.5182292553
 20
8.0420515191
 30
0.0
 10
13.5136534565
 20
8.0291696446
 30
0.0
 10
13.5090280073
 20
8.0166249121
 30
0.0
 10
13.5043552925
 20
8.0044236097
 30
0.0
 10
13.4996376124
 20
7.9925718703
 30
0.0
 10
13.4948773834
 20
7.9810756323
 30
0.0
 10
13.4900769732
 20
7.9699406658
 30
0.0
 10
13.4852388059
 20
7.959172551
 30
0.0
 10
13.4803653235
 20
7.9487766785
 30
0.0
 10
13.4754589446
 20
7.938758261
 30
0.0
 10
13.4705221782
 20
7.9291222948
 30
0.0
 10
13.4655574383
 20
7.9198736153
 30
0.0
 10
13.4605672807
 20
7.9110168154
 30
0.0
 10
13.4555541275
 20
7.902556334
 30
0.0
 10
13.450520536
 20
7.894496353
 30
0.0
 10
13.4454689519
 20
7.8868409021
 30
0.0
 10
13.4404019239
 20
7.8795937773
 30
0.0
 10
13.4353219428
 20
7.8727585626
 30
0.0
 10
13.4302314432
 20
7.8663386159
 30
0.0
 10
13.4251328339
 20
7.8603370243
 30
0.0
 10
13.4200287694
 20
7.8547570391
 30
0.0
 10
13.4165533713
 20
7.8512485039
 30
0.0
 10
13.4148147088
 20
7.8495690848
 30
0.0
  0
SPLINE
  5
320
100
AcDbEntity
  8
0
100
AcDbSpline
 62
7
  6
CONTINUOUS
 70
0
 71
3
 72
23
 73
19
 74
0
 42
0.0000001
 43
0.0000001
 44
0.0000000001
 40
0.0
 40
0.0
 40
0.0
 40
0.0
 40
0.0764216955
 40
0.1504654227
 40
0.2222014289
 40
0.2917108972
 40
0.3590900786
 40
0.4244474549
 40
0.487903708
 40
0.5495925108
 40
0.6096609283
 40
0.6682702054
 40
0.7255962412
 40
0.7818282176
 40
0.8371677928
 40
0.8918276897
 40
0.9460292397
 40
1.0
 40
1.0
 40
1.0
 40
1.0
 10
13.4148147088
 20
7.8495690848
 30
0.0
 10
13.4135509286
 20
7.8483483668
 30
0.0
 10
13.4110238587
 20
7.8459846569
 30
0.0
 10
13.407173024
 20
7.8426258386
 30
0.0
 10
13.4033239234
 20
7.839511717
 30
0.0
 10
13.3994777098
 20
7.836643415
 30
0.0
 10
13.3956354657
 20
7.834021752
 30
0.0
 10
13.39179818
 20
7.8316474936
 30
0.0
 10
13.3879668267
 20
7.8295213983
 30
0.0
 10
13.3841424595
 20
7.8276441106
 30
0.0
 10
13.3803261194
 20
7.8260163033
 30
0.0
 10
13.3765188566
 20
7.8246386406
 30
0.0
 10
13.3727217904
 20
7.8235116061
 30
0.0
 10
13.3689360277
 20
7.8226357043
 30
0.0
 10
13.3651627445
 20
7.8220113949
 30
0.0
 10
13.3614031023
 20
7.8216389355
 30
0.0
 10
13.3576585641
 20
7.8215185641
 30
0.0
 10
13.3551708044
 20
7.8216065743
 30
0.0
 10
13.3539328947
 20
7.8216924218
 30
0.0
  0
SPLINE
  5
321
100
AcDbEntity
  8
0
100
AcDbSpline
 62
7
  6
CONTINUOUS
 70
0
 71
3
 72
96
 73
92
 74
0
 42
0.0000001
 43
0.0000001
 44
0.0000000001
 40
0.0
 40
0.0
 40
0.0
 40
0.0
 40
0.0038568504
 40
0.0078685761
 40
0.0120384427
 40
0.016369255
 40
0.0208633902
 40
0.0255226907
 40
0.0303484314
 40
0.0353415082
 40
0.0405024178
 40
0.0458313524
 40
0.051328184
 40
0.0569924887
 40
0.062823618
 40
0.0688206473
 40
0.0749824781
 40
0.0813077785
 40
0.0877950452
 40
0.094442607
 40
0.1012486054
 40
0.1082110674
 40
0.1153278343
 40
0.1225966468
 40
0.1375804529
 40
0.1531420787
 40
0.169259122
 40
0.1859075786
 40
0.2030619872
 40
0.2206955543
 40
0.2387802668
 40
0.2572869965
 40
0.276185596
 40
0.295444989
 40
0.3150332624
 40
0.3349177524
 40
0.3550651275
 40
0.3754414691
 40
0.3960123515
 40
0.4167429203
 40
0.4375979721
 40
0.458542034
 40
0.4795394404
 40
0.5005544102
 40
0.5215511238
 40
0.5424938008
 40
0.5633467781
 40
0.5840745877
 40
0.6046420335
 40
0.6250142695
 40
0.6451568775
 40
0.6650359477
 40
0.6846181604
 40
0.7038708669
 40
0.7227621717
 40
0.7412610174
 40
0.7593372731
 40
0.7769618273
 40
0.7941066893
 40
0.8107450922
 40
0.8268516043
 40
0.8424022539
 40
0.8499621698
 40
0.8573748762
 40
0.8646378394
 40
0.8717486822
 40
0.8787051159
 40
0.8855050235
 40
0.8921464093
 40
0.8986274343
 40
0.9049464385
 40
0.911101903
 40
0.9170925384
 40
0.9229172153
 40
0.9285750513
 40
0.9340653886
 40
0.9393878157
 40
0.9445422319
 40
0.9495288035
 40
0.9543480812
 40
0.9590009595
 40
0.9634887695
 40
0.9678133159
 40
0.971976905
 40
0.9759824707
 40
0.9798335688
 40
0.9835345367
 40
0.987090528
 40
0.9905076355
 40
0.9937930082
 40
1.0
 40
1.0
 40
1.0
 40
1.0
 10
13.3529954508
 20
7.8538562649
 30
0.0
 10
13.3546465114
 20
7.8554510671
 30
0.0
 10
13.3579470053
 20
7.8587756535
 30
0.0
 10
13.3627993482
 20
7.8640495253
 30
0.0
 10
13.3676470406
 20
7.8697047004
 30
0.0
 10
13.3724877406
 20
7.8757383991
 30
0.0
 10
13.3773194058
 20
7.8821479633
 30
0.0
 10
13.3821399039
 20
7.8889305839
 30
0.0
 10
13.3869471585
 20
7.8960832042
 30
0.0
 10
13.3917389295
 20
7.9036026393
 30
0.0
 10
13.3965131217
 20
7.9114854749
 30
0.0
 10
13.4012675578
 20
7.9197281821
 30
0.0
 10
13.4060000962
 20
7.9283270477
 30
0.0
 10
13.4107086267
 20
7.9372781837
 30
0.0
 10
13.4153909623
 20
7.9465775655
 30
0.0
 10
13.4200450432
 20
7.956220969
 30
0.0
 10
13.4246687015
 20
7.9662040499
 30
0.0
 10
13.4292598751
 20
7.976522278
 30
0.0
 10
13.4338164682
 20
7.9871709836
 30
0.0
 10
13.4383363905
 20
7.9981453449
 30
0.0
 10
13.4428176299
 20
8.0094403789
 30
0.0
 10
13.4472580895
 20
8.0210509726
 30
0.0
 10
13.4516558205
 20
8.0329718571
 30
0.0
 10
13.4575190402
 20
8.0494395667
 30
0.0
 10
13.4647176789
 20
8.0707654403
 30
0.0
 10
13.4730691691
 20
8.0972542835
 30
0.0
 10
13.4812035065
 20
8.1248450533
 30
0.0
 10
13.4891058434
 20
8.153487635
 30
0.0
 10
13.4967617563
 20
8.1831301148
 30
0.0
 10
13.5041572734
 20
8.213718701
 30
0.0
 10
13.5112789001
 20
8.245197877
 30
0.0
 10
13.5181136437
 20
8.2775104897
 30
0.0
 10
13.5246490364
 20
8.3105978582
 30
0.0
 10
13.5308731643
 20
8.3443998804
 30
0.0
 10
13.5367746819
 20
8.3788551469
 30
0.0
 10
13.5423428336
 20
8.4139010558
 30
0.0
 10
13.5475674729
 20
8.4494739277
 30
0.0
 10
13.5524390805
 20
8.4855091214
 30
0.0
 10
13.5569487805
 20
8.5219411507
 30
0.0
 10
13.5610883623
 20
8.5587038039
 30
0.0
 10
13.5648502918
 20
8.5957302654
 30
0.0
 10
13.5682277231
 20
8.6329532395
 30
0.0
 10
13.5712145116
 20
8.6703050729
 30
0.0
 10
13.5738052247
 20
8.7077178768
 30
0.0
 10
13.5759951513
 20
8.7451236507
 30
0.0
 10
13.5777803135
 20
8.7824544065
 30
0.0
 10
13.5791574756
 20
8.8196422933
 30
0.0
 10
13.5801241447
 20
8.8566197215
 30
0.0
 10
13.5806785769
 20
8.8933194854
 30
0.0
 10
13.5808197798
 20
8.9296748851
 30
0.0
 10
13.5805475148
 20
8.965619848
 30
0.0
 10
13.5798622987
 20
9.001089051
 30
0.0
 10
13.5787654075
 20
9.036018041
 30
0.0
 10
13.5772588691
 20
9.0703433532
 30
0.0
 10
13.5753454601
 20
9.1040026254
 30
0.0
 10
13.5730287008
 20
9.1369347124
 30
0.0
 10
13.5703128499
 20
9.1690797974
 30
0.0
 10
13.5672028965
 20
9.2003795084
 30
0.0
 10
13.563704556
 20
9.230777017
 30
0.0
 10
13.5598242634
 20
9.2602171894
 30
0.0
 10
13.5555691316
 20
9.2886465309
 30
0.0
 10
13.5516817942
 20
9.3116633841
 30
0.0
 10
13.5483831603
 20
9.3295284921
 30
0.0
 10
13.5458436986
 20
9.3425169816
 30
0.0
 10
13.5432166493
 20
9.3552152236
 30
0.0
 10
13.540503248
 20
9.3676174671
 30
0.0
 10
13.5377046826
 20
9.3797180788
 30
0.0
 10
13.5348222664
 20
9.3915115715
 30
0.0
 10
13.5318572965
 20
9.4029925958
 30
0.0
 10
13.5288111112
 20
9.4141559444
 30
0.0
 10
13.5256851352
 20
9.4249965624
 30
0.0
 10
13.5224807338
 20
9.4355095317
 30
0.0
 10
13.519199426
 20
9.4456901015
 30
0.0
 10
13.5158426512
 20
9.4555336587
 30
0.0
 10
13.5124119606
 20
9.4650357574
 30
0.0
 10
13.5089089128
 20
9.4741921084
 30
0.0
 10
13.5053350568
 20
9.4829985715
 30
0.0
 10
13.5016920667
 20
9.4914511945
 30
0.0
 10
13.4979815101
 20
9.4995461543
 30
0.0
 10
13.4942051174
 20
9.5072798343
 30
0.0
 10
13.4903645326
 20
9.5146487548
 30
0.0
 10
13.4864614685
 20
9.5216496183
 30
0.0
 10
13.4824976761
 20
9.5282793129
 30
0.0
 10
13.478474826
 20
9.5345348495
 30
0.0
 10
13.474394735
 20
9.5404134853
 30
0.0
 10
13.4702590788
 20
9.5459125452
 30
0.0
 10
13.4660696112
 20
9.5510296394
 30
0.0
 10
13.4618282016
 20
9.5557623227
 30
0.0
 10
13.4575360041
 20
9.560108867
 30
0.0
 10
13.4518572325
 20
9.5652871438
 30
0.0
 10
13.4473656757
 20
9.5687444168
 30
0.0
 10
13.4442923045
 20
9.5707943017
 30
0.0
  0
SPLINE
  5
322
100
AcDbEntity
  8
0
100
AcDbSpline
 62
7
  6
CONTINUOUS
 70
0
 71
3
 72
14
 73
10
 74
0
 42
0.0000001
 43
0.0000001
 44
0.0000000001
 40
0.0
 40
0.0
 40
0.0
 40
0.0
 40
0.1384719305
 40
0.2728175021
 40
0.4031523147
 40
0.5296083339
 40
0.6523415212
 40
0.7715282165
 40
1.0
 40
1.0
 40
1.0
 40
1.0
 10
13.3529954508
 20
7.8538562649
 30
0.0
 10
13.3517849023
 20
7.8526869647
 30
0.0
 10
13.3493642304
 20
7.8504197105
 30
0.0
 10
13.3456780149
 20
7.8471898577
 30
0.0
 10
13.3419933077
 20
7.8441841403
 30
0.0
 10
13.3383112083
 20
7.8414036055
 30
0.0
 10
13.3346324189
 20
7.8388488566
 30
0.0
 10
13.329802128
 20
7.8357881896
 30
0.0
 10
13.3260837337
 20
7.8337634834
 30
0.0
 10
13.3235801
 20
7.8325620874
 30
0.0
  0
SPLINE
  5
323
100
AcDbEntity
  8
0
100
AcDbSpline
 62
7
  6
CONTINUOUS
 70
0
 71
3
 72
29
 73
25
 74
0
 42
0.0000001
 43
0.0000001
 44
0.0000000001
 40
0.0
 40
0.0
 40
0.0
 40
0.0
 40
0.0755843744
 40
0.1466149352
 40
0.2134293167
 40
0.2764677859
 40
0.336270229
 40
0.3651674222
 40
0.3935062922
 40
0.4213835794
 40
0.4489012704
 40
0.4761657831
 40
0.5032868655
 40
0.5303760999
 40
0.5575455107
 40
0.5849060751
 40
0.612566195
 40
0.6406305308
 40
0.6691989551
 40
0.728194545
 40
0.7902547194
 40
0.8559477318
 40
0.9257390766
 40
1.0
 40
1.0
 40
1.0
 40
1.0
 10
13.3529954508
 20
8.1919303241
 30
0.0
 10
13.3515224331
 20
8.1905074982
 30
0.0
 10
13.3485783714
 20
8.1878350014
 30
0.0
 10
13.3440221697
 20
8.1842647444
 30
0.0
 10
13.3394712114
 20
8.1812661911
 30
0.0
 10
13.3349301636
 20
8.1788440093
 30
0.0
 10
13.3311132583
 20
8.177291744
 30
0.0
 10
13.3280816644
 20
8.176355818
 30
0.0
 10
13.3258400672
 20
8.1758077355
 30
0.0
 10
13.3236056479
 20
8.1754058607
 30
0.0
 10
13.3213790222
 20
8.1751503671
 30
0.0
 10
13.3191609073
 20
8.1750414498
 30
0.0
 10
13.3169520248
 20
8.175079134
 30
0.0
 10
13.3147530994
 20
8.175263412
 30
0.0
 10
13.312564862
 20
8.1755942626
 30
0.0
 10
13.310388028
 20
8.1760715521
 30
0.0
 10
13.308223297
 20
8.1766950235
 30
0.0
 10
13.3060712756
 20
8.1774644765
 30
0.0
 10
13.3031893929
 20
8.1786975959
 30
0.0
 10
13.299610172
 20
8.1806215827
 30
0.0
 10
13.2954276028
 20
8.1834840737
 30
0.0
 10
13.2913138815
 20
8.1869200381
 30
0.0
 10
13.2872729553
 20
8.1909243406
 30
0.0
 10
13.2847118245
 20
8.1938746842
 30
0.0
 10
13.2834422366
 20
8.1954356997
 30
0.0
  0
SPLINE
  5
324
100
AcDbEntity
  8
0
100
AcDbSpline
 62
7
  6
CONTINUOUS
 70
0
 71
3
 72
18
 73
14
 74
0
 42
0.0000001
 43
0.0000001
 44
0.0000000001
 40
0.0
 40
0.0
 40
0.0
 40
0.0
 40
0.1504649899
 40
0.2917102284
 40
0.4244369333
 40
0.5495623349
 40
0.6682138647
 40
0.7255498109
 40
0.7817912827
 40
0.8371402665
 40
0.891809393
 40
0.9460200699
 40
1.0
 40
1.0
 40
1.0
 40
1.0
 10
13.2950398978
 20
8.2539051084
 30
0.0
 10
13.2937111794
 20
8.2526216649
 30
0.0
 10
13.2910555663
 20
8.2502135682
 30
0.0
 10
13.2869434072
 20
8.2470043145
 30
0.0
 10
13.2828360307
 20
8.244320283
 30
0.0
 10
13.2787377691
 20
8.242165866
 30
0.0
 10
13.275293234
 20
8.2407997338
 30
0.0
 10
13.2725584217
 20
8.2399880382
 30
0.0
 10
13.2705364317
 20
8.2395202344
 30
0.0
 10
13.2685211634
 20
8.2391867878
 30
0.0
 10
13.266513166
 20
8.2389878534
 30
0.0
 10
13.264513238
 20
8.2389235958
 30
0.0
 10
13.2631845459
 20
8.2389706006
 30
0.0
 10
13.2625233877
 20
8.2390164504
 30
0.0
  0
SPLINE
  5
325
100
AcDbEntity
  8
0
100
AcDbSpline
 62
7
  6
CONTINUOUS
 70
0
 71
3
 72
101
 73
97
 74
0
 42
0.0000001
 43
0.0000001
 44
0.0000000001
 40
0.0
 40
0.0
 40
0.0
 40
0.0
 40
0.0042066996
 40
0.0086074487
 40
0.0132067121
 40
0.0180081864
 40
0.0230148799
 40
0.0282289837
 40
0.0336518298
 40
0.0392841893
 40
0.0451262352
 40
0.0511776991
 40
0.0574378462
 40
0.063905512
 40
0.0705792164
 40
0.0774570767
 40
0.0845369707
 40
0.0918164396
 40
0.099292784
 40
0.1069630696
 40
0.1228721776
 40
0.1395162029
 40
0.1568641683
 40
0.1748823724
 40
0.1935346611
 40
0.212782667
 40
0.2325860304
 40
0.2529025941
 40
0.2736885838
 40
0.2948987783
 40
0.316486671
 40
0.3384046261
 40
0.3606040376
 40
0.3830354816
 40
0.4056488643
 40
0.4283935691
 40
0.4512186031
 40
0.4740727433
 40
0.496904685
 40
0.5196631876
 40
0.5422972197
 40
0.5647561048
 40
0.5869896672
 40
0.6089483824
 40
0.6305835282
 40
0.6518473334
 40
0.6726931308
 40
0.693075514
 40
0.7129504992
 40
0.7322756982
 40
0.7510105023
 40
0.7691162707
 40
0.7865565399
 40
0.8032972591
 40
0.8113955145
 40
0.8193073712
 40
0.8270293499
 40
0.8345582483
 40
0.8418910277
 40
0.8490249326
 40
0.8559574534
 40
0.8626863374
 40
0.8692096844
 40
0.8755258532
 40
0.8816336311
 40
0.8875321455
 40
0.8932209818
 40
0.8987002203
 40
0.9039704359
 40
0.909032877
 40
0.9138894049
 40
0.9185427177
 40
0.9229963662
 40
0.9272549122
 40
0.9313241079
 40
0.9352109734
 40
0.9389240991
 40
0.9424737235
 40
0.9458720187
 40
0.9491332285
 40
0.9522737948
 40
0.9553124549
 40
0.9582701031
 40
0.9611696156
 40
0.9640353863
 40
0.9668927613
 40
0.9697673238
 40
0.9726841735
 40
0.9756672358
 40
0.9787387579
 40
0.9819188869
 40
0.9852255355
 40
0.9886744214
 40
0.9922791437
 40
0.9960512462
 40
1.0
 40
1.0
 40
1.0
 40
1.0
 10
13.3529954508
 20
8.1919303241
 30
0.0
 10
13.3541399882
 20
8.1930358624
 30
0.0
 10
13.3564275423
 20
8.1953547075
 30
0.0
 10
13.3597805806
 20
8.1990598082
 30
0.0
 10
13.3631293657
 20
8.2030666639
 30
0.0
 10
13.3664717854
 20
8.2073726956
 30
0.0
 10
13.3698059979
 20
8.2119754157
 30
0.0
 10
13.3731300671
 20
8.2168721772
 30
0.0
 10
13.3764421176
 20
8.2220600822
 30
0.0
 10
13.3797401085
 20
8.2275360958
 30
0.0
 10
13.3830221467
 20
8.2332969485
 30
0.0
 10
13.3862862559
 20
8.2393392467
 30
0.0
 10
13.3895304976
 20
8.2456594077
 30
0.0
 10
13.3927529675
 20
8.2522536695
 30
0.0
 10
13.395951686
 20
8.2591181265
 30
0.0
 10
13.3991248041
 20
8.2662486736
 30
0.0
 10
13.4022703684
 20
8.273641078
 30
0.0
 10
13.4053865281
 20
8.2812909202
 30
0.0
 10
13.408471425
 20
8.2891936467
 30
0.0
 10
13.412590609
 20
8.3001956891
 30
0.0
 10
13.4176393482
 20
8.3145509963
 30
0.0
 10
13.4234729704
 20
8.3325048885
 30
0.0
 10
13.4291390594
 20
8.3513469479
 30
0.0
 10
13.4346239752
 20
8.3710321487
 30
0.0
 10
13.439914514
 20
8.3915135512
 30
0.0
 10
13.4449979471
 20
8.4127422317
 30
0.0
 10
13.4498620455
 20
8.4346674655
 30
0.0
 10
13.4544951118
 20
8.4572368396
 30
0.0
 10
13.4588860069
 20
8.4803963863
 30
0.0
 10
13.4630241765
 20
8.5040907128
 30
0.0
 10
13.4668996766
 20
8.5282631347
 30
0.0
 10
13.4705032018
 20
8.5528558132
 30
0.0
 10
13.4738261018
 20
8.5778098971
 30
0.0
 10
13.4768604016
 20
8.6030656671
 30
0.0
 10
13.4795988208
 20
8.6285626789
 30
0.0
 10
13.4820347909
 20
8.6542399075
 30
0.0
 10
13.4841624696
 20
8.6800358936
 30
0.0
 10
13.4859767614
 20
8.7058888917
 30
0.0
 10
13.4874733254
 20
8.7317370194
 30
0.0
 10
13.488648584
 20
8.7575184068
 30
0.0
 10
13.4894997321
 20
8.7831713446
 30
0.0
 10
13.490024744
 20
8.8086344317
 30
0.0
 10
13.4902223775
 20
8.8338467223
 30
0.0
 10
13.4900921818
 20
8.858747875
 30
0.0
 10
13.4896344988
 20
8.8832782984
 30
0.0
 10
13.4888504584
 20
8.9073792944
 30
0.0
 10
13.4877419772
 20
8.9309931993
 30
0.0
 10
13.4863117544
 20
8.9540635222
 30
0.0
 10
13.4845632656
 20
8.9765350822
 30
0.0
 10
13.4825007573
 20
8.9983541499
 30
0.0
 10
13.4801292396
 20
9.0194685686
 30
0.0
 10
13.4774544787
 20
9.0398279278
 30
0.0
 10
13.4744829464
 20
9.0593835307
 30
0.0
 10
13.4717359677
 20
9.0751405299
 30
0.0
 10
13.4693886033
 20
9.087305155
 30
0.0
 10
13.4675779592
 20
9.0960981375
 30
0.0
 10
13.4656987918
 20
9.104656364
 30
0.0
 10
13.4637522711
 20
9.1129747335
 30
0.0
 10
13.4617395251
 20
9.1210482748
 30
0.0
 10
13.4596617827
 20
9.1288721705
 30
0.0
 10
13.4575202983
 20
9.1364417553
 30
0.0
 10
13.4553163189
 20
9.1437525115
 30
0.0
 10
13.4530512232
 20
9.1508000932
 30
0.0
 10
13.4507262995
 20
9.1575802966
 30
0.0
 10
13.448342995
 20
9.1640891023
 30
0.0
 10
13.4459026959
 20
9.1703226427
 30
0.0
 10
13.4434068535
 20
9.1762772234
 30
0.0
 10
13.4408569803
 20
9.1819493353
 30
0.0
 10
13.4382545147
 20
9.1873356122
 30
0.0
 10
13.4356010585
 20
9.1924329129
 30
0.0
 10
13.432898078
 20
9.1972382208
 30
0.0
 10
13.4301471759
 20
9.2017487447
 30
0.0
 10
13.427349896
 20
9.2059618495
 30
0.0
 10
13.4245077669
 20
9.2098750589
 30
0.0
 10
13.4216224015
 20
9.2134861262
 30
0.0
 10
13.4186952472
 20
9.2167928614
 30
0.0
 10
13.4157279067
 20
9.219793342
 30
0.0
 10
13.4127218136
 20
9.2224856503
 30
0.0
 10
13.4096784933
 20
9.2248680348
 30
0.0
 10
13.4065994758
 20
9.2269388143
 30
0.0
 10
13.4034863075
 20
9.2286962597
 30
0.0
 10
13.400340781
 20
9.2301388771
 30
0.0
 10
13.3971647743
 20
9.231265028
 30
0.0
 10
13.3939605437
 20
9.2320734912
 30
0.0
 10
13.3907305456
 20
9.2325631728
 30
0.0
 10
13.3874774872
 20
9.2327334663
 30
0.0
 10
13.3842041422
 20
9.232584341
 30
0.0
 10
13.3809132353
 20
9.2321160644
 30
0.0
 10
13.3776072674
 20
9.231329582
 30
0.0
 10
13.3742885588
 20
9.2302258611
 30
0.0
 10
13.3709591544
 20
9.228806287
 30
0.0
 10
13.3676209362
 20
9.2270722256
 30
0.0
 10
13.3642756809
 20
9.2250250584
 30
0.0
 10
13.3609250081
 20
9.2226662695
 30
0.0
 10
13.3575708773
 20
9.2199974934
 30
0.0
 10
13.3553849196
 20
9.2180583813
 30
0.0
 10
13.3542914747
 20
9.2170407646
 30
0.0
  0
SPLINE
  5
326
100
AcDbEntity
  8
0
100
AcDbSpline
 62
7
  6
CONTINUOUS
 70
0
 71
3
 72
95
 73
91
 74
0
 42
0.0000001
 43
0.0000001
 44
0.0000000001
 40
0.0
 40
0.0
 40
0.0
 40
0.0
 40
0.0039883463
 40
0.0081453066
 40
0.0124745335
 40
0.0169790725
 40
0.0216614865
 40
0.0265237997
 40
0.0315673669
 40
0.0367930236
 40
0.0422012184
 40
0.0477919602
 40
0.0535649633
 40
0.0595196052
 40
0.0656549298
 40
0.0719697768
 40
0.0784626817
 40
0.0851319715
 40
0.091975792
 40
0.0989920285
 40
0.1135323003
 40
0.1287329578
 40
0.1445713917
 40
0.161022792
 40
0.1780603367
 40
0.1956553923
 40
0.2137776949
 40
0.2323954919
 40
0.2514756541
 40
0.2709838082
 40
0.290884471
 40
0.3111411566
 40
0.3317164701
 40
0.3525722158
 40
0.3736695138
 40
0.3949688971
 40
0.4164304023
 40
0.4380136719
 40
0.4596780611
 40
0.4813827308
 40
0.5030867421
 40
0.5247491591
 40
0.5463291479
 40
0.5677860696
 40
0.5890795774
 40
0.6101697257
 40
0.6310170637
 40
0.6515827292
 40
0.6718285501
 40
0.6917171646
 40
0.7112121157
 40
0.7302779501
 40
0.7488803311
 40
0.7669861801
 40
0.7845637881
 40
0.8015829363
 40
0.8180150439
 40
0.833833361
 40
0.8490131431
 40
0.8635318495
 40
0.8705370679
 40
0.8773697325
 40
0.8840277478
 40
0.8905092522
 40
0.896812608
 40
0.9029363536
 40
0.9088793438
 40
0.9146406609
 40
0.9202196746
 40
0.9256161295
 40
0.9308300596
 40
0.9358619399
 40
0.9407126835
 40
0.9453836464
 40
0.9498768036
 40
0.9541946995
 40
0.9583405823
 40
0.9623185311
 40
0.9661334591
 40
0.9697913393
 40
0.9732992696
 40
0.9766655863
 40
0.9799000795
 40
0.9830140178
 40
0.9860202967
 40
0.9889334863
 40
0.9917697546
 40
0.9945468023
 40
0.9972835896
 40
1.0
 40
1.0
 40
1.0
 40
1.0
 10
13.2950398978
 20
8.2539051084
 30
0.0
 10
13.2959684773
 20
8.2548020474
 30
0.0
 10
13.2978246289
 20
8.2566759084
 30
0.0
 10
13.3005506587
 20
8.2596561293
 30
0.0
 10
13.3032738336
 20
8.2628615448
 30
0.0
 10
13.3059926331
 20
8.266290417
 30
0.0
 10
13.3087058146
 20
8.269941031
 30
0.0
 10
13.3114120427
 20
8.2738116465
 30
0.0
 10
13.3141100346
 20
8.2779003485
 30
0.0
 10
13.3167984556
 20
8.2822051019
 30
0.0
 10
13.3194759151
 20
8.2867237812
 30
0.0
 10
13.3221411295
 20
8.2914541092
 30
0.0
 10
13.3247927415
 20
8.2963937445
 30
0.0
 10
13.3274294203
 20
8.3015402245
 30
0.0
 10
13.3300498797
 20
8.3068909652
 30
0.0
 10
13.332652757
 20
8.3124433064
 30
0.0
 10
13.3352367762
 20
8.318194457
 30
0.0
 10
13.3378006367
 20
8.3241415353
 30
0.0
 10
13.3403430312
 20
8.3302815754
 30
0.0
 10
13.3437430578
 20
8.3388231961
 30
0.0
 10
13.3479237207
 20
8.3499643283
 30
0.0
 10
13.3527772095
 20
8.3638985461
 30
0.0
 10
13.3575153454
 20
8.3785240473
 30
0.0
 10
13.362128548
 20
8.3938114703
 30
0.0
 10
13.3666074972
 20
8.4097301994
 30
0.0
 10
13.3709431477
 20
8.4262482905
 30
0.0
 10
13.3751267386
 20
8.4433325928
 30
0.0
 10
13.3791498108
 20
8.4609488038
 30
0.0
 10
13.3830042412
 20
8.4790615344
 30
0.0
 10
13.3866822545
 20
8.4976343834
 30
0.0
 10
13.3901764266
 20
8.5166300223
 30
0.0
 10
13.3934796995
 20
8.5360102696
 30
0.0
 10
13.3965854082
 20
8.5557361617
 30
0.0
 10
13.3994872965
 20
8.5757680322
 30
0.0
 10
13.4021795131
 20
8.5960655996
 30
0.0
 10
13.4046566252
 20
8.6165880478
 30
0.0
 10
13.4069136374
 20
8.6372941044
 30
0.0
 10
13.4089460109
 20
8.6581421239
 30
0.0
 10
13.4107496532
 20
8.6790901758
 30
0.0
 10
13.4123209289
 20
8.7000961285
 30
0.0
 10
13.4136566713
 20
8.7211177331
 30
0.0
 10
13.4147542036
 20
8.7421127079
 30
0.0
 10
13.4156113231
 20
8.7630388263
 30
0.0
 10
13.4162263077
 20
8.7838539995
 30
0.0
 10
13.4165979216
 20
8.804516363
 30
0.0
 10
13.4167254363
 20
8.8249843617
 30
0.0
 10
13.4166086108
 20
8.8452168342
 30
0.0
 10
13.4162476932
 20
8.8651730919
 30
0.0
 10
13.4156434201
 20
8.8848130046
 30
0.0
 10
13.4147970371
 20
8.9040970847
 30
0.0
 10
13.4137102759
 20
8.9229865664
 30
0.0
 10
13.4123853503
 20
8.9414434779
 30
0.0
 10
13.4108249497
 20
8.9594307234
 30
0.0
 10
13.4090322586
 20
8.9769121655
 30
0.0
 10
13.4070109308
 20
8.9938526967
 30
0.0
 10
13.4047650806
 20
9.0102183071
 30
0.0
 10
13.4022992677
 20
9.0259761487
 30
0.0
 10
13.3996185213
 20
9.0410946576
 30
0.0
 10
13.3967282868
 20
9.055543474
 30
0.0
 10
13.3941200236
 20
9.0671360724
 30
0.0
 10
13.3919272759
 20
9.0760496135
 30
0.0
 10
13.3902536634
 20
9.0824698244
 30
0.0
 10
13.3885322209
 20
9.088701682
 30
0.0
 10
13.3867638079
 20
9.0947420696
 30
0.0
 10
13.3849493452
 20
9.1005879642
 30
0.0
 10
13.3830896974
 20
9.1062364296
 30
0.0
 10
13.3811858404
 20
9.111684649
 30
0.0
 10
13.379238719
 20
9.1169298984
 30
0.0
 10
13.3772492818
 20
9.1219695512
 30
0.0
 10
13.375218573
 20
9.1268011096
 30
0.0
 10
13.3731475584
 20
9.1314221558
 30
0.0
 10
13.3710372827
 20
9.1358303981
 30
0.0
 10
13.3688888134
 20
9.1400236622
 30
0.0
 10
13.3667031498
 20
9.1439998497
 30
0.0
 10
13.3644814118
 20
9.1477570219
 30
0.0
 10
13.3622246483
 20
9.1512933198
 30
0.0
 10
13.3599339122
 20
9.1546069873
 30
0.0
 10
13.3576103354
 20
9.1576964276
 30
0.0
 10
13.3552549308
 20
9.1605600764
 30
0.0
 10
13.3528687958
 20
9.1631965239
 30
0.0
 10
13.3504530066
 20
9.1656044535
 30
0.0
 10
13.3480085613
 20
9.1677825531
 30
0.0
 10
13.3455365768
 20
9.1697296953
 30
0.0
 10
13.3430380865
 20
9.171444712
 30
0.0
 10
13.3405141917
 20
9.1729264903
 30
0.0
 10
13.3379661001
 20
9.1741740559
 30
0.0
 10
13.3353950628
 20
9.1751863296
 30
0.0
 10
13.3328024478
 20
9.1759624831
 30
0.0
 10
13.3301900903
 20
9.1765017672
 30
0.0
 10
13.328433605
 20
9.1767032651
 30
0.0
 10
13.3275564079
 20
9.1767640968
 30
0.0
  0
SPLINE
  5
327
100
AcDbEntity
  8
0
100
AcDbSpline
 62
4
  6
CONTINUOUS
 70
0
 71
3
 72
411
 73
407
 74
0
 42
0.0000001
 43
0.0000001
 44
0.0000000001
 40
0.0
 40
0.0
 40
0.0
 40
0.0
 40
0.015625
 40
0.0234375
 40
0.03125
 40
0.0390625
 40
0.04296875
 40
0.046875
 40
0.05078125
 40
0.0546875
 40
0.056640625
 40
0.05859375
 40
0.0595703125
 40
0.060546875
 40
0.0615234375
 40
0.0620117188
 40
0.0622558594
 40
0.0625
 40
0.0627441406
 40
0.0629882812
 40
0.0634765625
 40
0.064453125
 40
0.0654296875
 40
0.06640625
 40
0.068359375
 40
0.0703125
 40
0.07421875
 40
0.078125
 40
0.08203125
 40
0.0859375
 40
0.09375
 40
0.1015625
 40
0.10546875
 40
0.109375
 40
0.11328125
 40
0.1171875
 40
0.119140625
 40
0.12109375
 40
0.1220703125
 40
0.123046875
 40
0.1240234375
 40
0.1245117188
 40
0.1247558594
 40
0.125
 40
0.1252441406
 40
0.1254882812
 40
0.1259765625
 40
0.126953125
 40
0.1279296875
 40
0.12890625
 40
0.130859375
 40
0.1328125
 40
0.13671875
 40
0.140625
 40
0.14453125
 40
0.1484375
 40
0.15625
 40
0.1640625
 40
0.16796875
 40
0.171875
 40
0.17578125
 40
0.177734375
 40
0.1796875
 40
0.181640625
 40
0.18359375
 40
0.1845703125
 40
0.185546875
 40
0.1865234375
 40
0.1870117188
 40
0.1872558594
 40
0.1875
 40
0.1877441406
 40
0.1879882812
 40
0.1884765625
 40
0.189453125
 40
0.1904296875
 40
0.19140625
 40
0.193359375
 40
0.1953125
 40
0.197265625
 40
0.19921875
 40
0.203125
 40
0.20703125
 40
0.2109375
 40
0.21875
 40
0.2265625
 40
0.23046875
 40
0.234375
 40
0.23828125
 40
0.240234375
 40
0.2421875
 40
0.244140625
 40
0.24609375
 40
0.2470703125
 40
0.248046875
 40
0.2490234375
 40
0.2495117188
 40
0.2497558594
 40
0.25
 40
0.2502441406
 40
0.2504882812
 40
0.2509765625
 40
0.251953125
 40
0.2529296875
 40
0.25390625
 40
0.255859375
 40
0.2578125
 40
0.259765625
 40
0.26171875
 40
0.265625
 40
0.26953125
 40
0.2734375
 40
0.28125
 40
0.2890625
 40
0.29296875
 40
0.296875
 40
0.30078125
 40
0.302734375
 40
0.3046875
 40
0.306640625
 40
0.30859375
 40
0.3095703125
 40
0.310546875
 40
0.3115234375
 40
0.3120117188
 40
0.3122558594
 40
0.3125
 40
0.3127441406
 40
0.3129882812
 40
0.3134765625
 40
0.314453125
 40
0.3154296875
 40
0.31640625
 40
0.318359375
 40
0.3203125
 40
0.322265625
 40
0.32421875
 40
0.328125
 40
0.33203125
 40
0.3359375
 40
0.34375
 40
0.3515625
 40
0.35546875
 40
0.359375
 40
0.36328125
 40
0.3671875
 40
0.369140625
 40
0.37109375
 40
0.3720703125
 40
0.373046875
 40
0.3740234375
 40
0.3745117188
 40
0.3747558594
 40
0.375
 40
0.3752441406
 40
0.3754882812
 40
0.3759765625
 40
0.376953125
 40
0.3779296875
 40
0.37890625
 40
0.380859375
 40
0.3828125
 40
0.38671875
 40
0.390625
 40
0.39453125
 40
0.3984375
 40
0.40625
 40
0.4140625
 40
0.41796875
 40
0.421875
 40
0.42578125
 40
0.427734375
 40
0.4296875
 40
0.431640625
 40
0.43359375
 40
0.4345703125
 40
0.435546875
 40
0.4365234375
 40
0.4370117188
 40
0.4372558594
 40
0.4375
 40
0.4377441406
 40
0.4379882812
 40
0.4384765625
 40
0.439453125
 40
0.4404296875
 40
0.44140625
 40
0.443359375
 40
0.4453125
 40
0.447265625
 40
0.44921875
 40
0.453125
 40
0.45703125
 40
0.4609375
 40
0.46875
 40
0.4765625
 40
0.48046875
 40
0.484375
 40
0.48828125
 40
0.4921875
 40
0.494140625
 40
0.49609375
 40
0.4970703125
 40
0.498046875
 40
0.4990234375
 40
0.4995117188
 40
0.4997558594
 40
0.5
 40
0.5002441406
 40
0.5004882812
 40
0.5009765625
 40
0.501953125
 40
0.5029296875
 40
0.50390625
 40
0.505859375
 40
0.5078125
 40
0.51171875
 40
0.515625
 40
0.51953125
 40
0.5234375
 40
0.53125
 40
0.5390625
 40
0.54296875
 40
0.546875
 40
0.55078125
 40
0.5546875
 40
0.556640625
 40
0.55859375
 40
0.5595703125
 40
0.560546875
 40
0.5615234375
 40
0.5620117188
 40
0.5622558594
 40
0.5625
 40
0.5627441406
 40
0.5629882812
 40
0.5634765625
 40
0.564453125
 40
0.5654296875
 40
0.56640625
 40
0.568359375
 40
0.5703125
 40
0.57421875
 40
0.578125
 40
0.58203125
 40
0.5859375
 40
0.59375
 40
0.6015625
 40
0.60546875
 40
0.609375
 40
0.61328125
 40
0.6171875
 40
0.619140625
 40
0.62109375
 40
0.6220703125
 40
0.623046875
 40
0.6240234375
 40
0.6245117188
 40
0.6247558594
 40
0.625
 40
0.6252441406
 40
0.6254882812
 40
0.6259765625
 40
0.626953125
 40
0.6279296875
 40
0.62890625
 40
0.630859375
 40
0.6328125
 40
0.63671875
 40
0.640625
 40
0.64453125
 40
0.6484375
 40
0.65625
 40
0.6640625
 40
0.66796875
 40
0.671875
 40
0.67578125
 40
0.6796875
 40
0.681640625
 40
0.68359375
 40
0.6845703125
 40
0.685546875
 40
0.6865234375
 40
0.6870117188
 40
0.6872558594
 40
0.6875
 40
0.6877441406
 40
0.6879882812
 40
0.6884765625
 40
0.689453125
 40
0.6904296875
 40
0.69140625
 40
0.693359375
 40
0.6953125
 40
0.69921875
 40
0.703125
 40
0.70703125
 40
0.7109375
 40
0.71875
 40
0.7265625
 40
0.73046875
 40
0.734375
 40
0.73828125
 40
0.7421875
 40
0.744140625
 40
0.74609375
 40
0.7470703125
 40
0.748046875
 40
0.7490234375
 40
0.7495117188
 40
0.7497558594
 40
0.75
 40
0.7502441406
 40
0.7504882812
 40
0.7509765625
 40
0.751953125
 40
0.7529296875
 40
0.75390625
 40
0.755859375
 40
0.7578125
 40
0.76171875
 40
0.765625
 40
0.76953125
 40
0.7734375
 40
0.78125
 40
0.7890625
 40
0.79296875
 40
0.796875
 40
0.80078125
 40
0.8046875
 40
0.806640625
 40
0.80859375
 40
0.8095703125
 40
0.810546875
 40
0.8115234375
 40
0.8120117188
 40
0.8122558594
 40
0.8125
 40
0.8127441406
 40
0.8129882812
 40
0.8134765625
 40
0.814453125
 40
0.8154296875
 40
0.81640625
 40
0.818359375
 40
0.8203125
 40
0.82421875
 40
0.828125
 40
0.83203125
 40
0.8359375
 40
0.84375
 40
0.8515625
 40
0.85546875
 40
0.859375
 40
0.86328125
 40
0.8671875
 40
0.869140625
 40
0.87109375
 40
0.8720703125
 40
0.873046875
 40
0.8740234375
 40
0.8745117188
 40
0.8747558594
 40
0.875
 40
0.8752441406
 40
0.8754882812
 40
0.8759765625
 40
0.876953125
 40
0.8779296875
 40
0.87890625
 40
0.880859375
 40
0.8828125
 40
0.88671875
 40
0.890625
 40
0.89453125
 40
0.8984375
 40
0.90625
 40
0.9140625
 40
0.91796875
 40
0.921875
 40
0.92578125
 40
0.9296875
 40
0.931640625
 40
0.93359375
 40
0.9345703125
 40
0.935546875
 40
0.9365234375
 40
0.9370117188
 40
0.9372558594
 40
0.9375
 40
0.9377441406
 40
0.9379882812
 40
0.9384765625
 40
0.939453125
 40
0.9404296875
 40
0.94140625
 40
0.943359375
 40
0.9453125
 40
0.94921875
 40
0.953125
 40
0.95703125
 40
0.9609375
 40
0.96875
 40
0.9765625
 40
0.984375
 40
1.0
 40
1.0
 40
1.0
 40
1.0
 10
10.6764764606
 20
7.7277194794
 30
0.0
 10
10.6702100868
 20
7.7275396306
 30
0.0
 10
10.660810526
 20
7.7272698574
 30
0.0
 10
10.6482777784
 20
7.7269101598
 30
0.0
 10
10.6388782176
 20
7.7266403864
 30
0.0
 10
10.6310452503
 20
7.7264155757
 30
0.0
 10
10.6247788766
 20
7.7262357262
 30
0.0
 10
10.6200790958
 20
7.7261008416
 30
0.0
 10
10.6153793169
 20
7.7259659475
 30
0.0
 10
10.6114628287
 20
7.7258535652
 30
0.0
 10
10.608329651
 20
7.7257635934
 30
0.0
 10
10.6063713856
 20
7.7257075113
 30
0.0
 10
10.6048048405
 20
7.7256623015
 30
0.0
 10
10.6036297477
 20
7.725629336
 30
0.0
 10
10.6026510889
 20
7.7255988689
 30
0.0
 10
10.6019648794
 20
7.7255834212
 30
0.0
 10
10.6015745527
 20
7.7255654139
 30
0.0
 10
10.6012767566
 20
7.7255777689
 30
0.0
 10
10.6009982685
 20
7.725491272
 30
0.0
 10
10.6006202162
 20
7.7254104234
 30
0.0
 10
10.5999617625
 20
7.7252528733
 30
0.0
 10
10.599019474
 20
7.7250362008
 30
0.0
 10
10.5978894298
 20
7.7247725987
 30
0.0
 10
10.5963824591
 20
7.7244223849
 30
0.0
 10
10.5944988296
 20
7.7239841878
 30
0.0
 10
10.5914849756
 20
7.7232833126
 30
0.0
 10
10.5877176741
 20
7.7224071362
 30
0.0
 10
10.5831969055
 20
7.7213557598
 30
0.0
 10
10.5786761387
 20
7.720304374
 30
0.0
 10
10.5726484489
 20
7.7189025296
 30
0.0
 10
10.565113837
 20
7.7171502228
 30
0.0
 10
10.5575792249
 20
7.7153979169
 30
0.0
 10
10.5515515355
 20
7.7139960711
 30
0.0
 10
10.5470307675
 20
7.7129446892
 30
0.0
 10
10.5425100032
 20
7.7118932983
 30
0.0
 10
10.5387426883
 20
7.7110171673
 30
0.0
 10
10.5357288617
 20
7.7103161994
 30
0.0
 10
10.5338451624
 20
7.7098782382
 30
0.0
 10
10.5323383349
 20
7.7095275402
 30
0.0
 10
10.5312078533
 20
7.7092654173
 30
0.0
 10
10.5302669334
 20
7.7090441166
 30
0.0
 10
10.5296060365
 20
7.7088948286
 30
0.0
 10
10.5292318989
 20
7.7088007422
 30
0.0
 10
10.5289413859
 20
7.7087549078
 30
0.0
 10
10.5286887535
 20
7.7086145411
 30
0.0
 10
10.5283386972
 20
7.7084603593
 30
0.0
 10
10.5277322548
 20
7.7081751781
 30
0.0
 10
10.52686269
 20
7.7077758084
 30
0.0
 10
10.5258205899
 20
7.7072931267
 30
0.0
 10
10.524430642
 20
7.706650752
 30
0.0
 10
10.5226933717
 20
7.7058473725
 30
0.0
 10
10.5199136473
 20
7.7045621951
 30
0.0
 10
10.5164390234
 20
7.7029556444
 30
0.0
 10
10.5122694611
 20
7.7010278174
 30
0.0
 10
10.5080999024
 20
7.6990999814
 30
0.0
 10
10.5025404897
 20
7.6965295365
 30
0.0
 10
10.4955912241
 20
7.6933164793
 30
0.0
 10
10.4886419584
 20
7.6901034224
 30
0.0
 10
10.4830825458
 20
7.687532977
 30
0.0
 10
10.4789129866
 20
7.6856051424
 30
0.0
 10
10.475438353
 20
7.6839986155
 30
0.0
 10
10.4726586484
 20
7.6827133896
 30
0.0
 10
10.4705738636
 20
7.6817494822
 30
0.0
 10
10.468489103
 20
7.6807855286
 30
0.0
 10
10.466751727
 20
7.6799823781
 30
0.0
 10
10.4653619954
 20
7.6793395348
 30
0.0
 10
10.4643192342
 20
7.6788582846
 30
0.0
 10
10.463451738
 20
7.6784544364
 30
0.0
 10
10.4628416028
 20
7.6781772499
 30
0.0
 10
10.4624974634
 20
7.6780102586
 30
0.0
 10
10.4622266558
 20
7.6779092388
 30
0.0
 10
10.4620044058
 20
7.6777156237
 30
0.0
 10
10.4616911351
 20
7.6774897686
 30
0.0
 10
10.4611508027
 20
7.6770794737
 30
0.0
 10
10.4603747735
 20
7.6765012056
 30
0.0
 10
10.4594453045
 20
7.6758039164
 30
0.0
 10
10.4582053956
 20
7.6748753737
 30
0.0
 10
10.4566557212
 20
7.6737142918
 30
0.0
 10
10.4547960211
 20
7.6723211664
 30
0.0
 10
10.4529363453
 20
7.6709279948
 30
0.0
 10
10.4504567691
 20
7.6690704488
 30
0.0
 10
10.4473573017
 20
7.6667485108
 30
0.0
 10
10.4436379396
 20
7.6639621875
 30
0.0
 10
10.4386787906
 20
7.660247089
 30
0.0
 10
10.4324798542
 20
7.6556032162
 30
0.0
 10
10.4262809179
 20
7.6509593432
 30
0.0
 10
10.4213217686
 20
7.647244245
 30
0.0
 10
10.4176024072
 20
7.6444579208
 30
0.0
 10
10.4145029377
 20
7.6421359855
 30
0.0
 10
10.4120233659
 20
7.6402784339
 30
0.0
 10
10.4101636768
 20
7.6388852795
 30
0.0
 10
10.4083040266
 20
7.6374920897
 30
0.0
 10
10.4067541968
 20
7.6363312082
 30
0.0
 10
10.4055146046
 20
7.6354022567
 30
0.0
 10
10.4045841685
 20
7.6347062161
 30
0.0
 10
10.4038111651
 20
7.6341240415
 30
0.0
 10
10.4032654313
 20
7.6337207204
 30
0.0
 10
10.4029608149
 20
7.6334836915
 30
0.0
 10
10.4027119813
 20
7.6333243988
 30
0.0
 10
10.4025410174
 20
7.6330944698
 30
0.0
 10
10.4022859036
 20
7.6328125365
 30
0.0
 10
10.4018521097
 20
7.6323076736
 30
0.0
 10
10.4012257879
 20
7.6315924425
 30
0.0
 10
10.4004770337
 20
7.6307315964
 30
0.0
 10
10.3994777055
 20
7.6295846988
 30
0.0
 10
10.3982288848
 20
7.628150769
 30
0.0
 10
10.3967301543
 20
7.6264301852
 30
0.0
 10
10.3952314628
 20
7.624709566
 30
0.0
 10
10.3932331939
 20
7.6224154195
 30
0.0
 10
10.3907353623
 20
7.6195477322
 30
0.0
 10
10.3877379625
 20
7.6161065092
 30
0.0
 10
10.3837414301
 20
7.6115182112
 30
0.0
 10
10.3787457644
 20
7.6057828389
 30
0.0
 10
10.3737500988
 20
7.6000474665
 30
0.0
 10
10.3697535661
 20
7.5954591688
 30
0.0
 10
10.3667561672
 20
7.5920179451
 30
0.0
 10
10.3642583329
 20
7.5891502599
 30
0.0
 10
10.3622600695
 20
7.5868561089
 30
0.0
 10
10.3607613611
 20
7.5851355036
 30
0.0
 10
10.359262694
 20
7.5834148678
 30
0.0
 10
10.3580136762
 20
7.5819810997
 30
0.0
 10
10.3570147499
 20
7.5808338724
 30
0.0
 10
10.3562647682
 20
7.5799740334
 30
0.0
 10
10.3556422869
 20
7.5792556513
 30
0.0
 10
10.355201637
 20
7.5787564135
 30
0.0
 10
10.3549575084
 20
7.5784654673
 30
0.0
 10
10.3547528017
 20
7.578263223
 30
0.0
 10
10.3546307
 20
7.577999951
 30
0.0
 10
10.3544390841
 20
7.5776702088
 30
0.0
 10
10.3541171811
 20
7.5770832418
 30
0.0
 10
10.353650301
 20
7.5762499028
 30
0.0
 10
10.3530930491
 20
7.5752476765
 30
0.0
 10
10.3523489972
 20
7.5739121501
 30
0.0
 10
10.3514192924
 20
7.5722424761
 30
0.0
 10
10.3503034923
 20
7.5702389813
 30
0.0
 10
10.3491877334
 20
7.568235456
 30
0.0
 10
10.3477000406
 20
7.5655640996
 30
0.0
 10
10.3458404294
 20
7.5622249004
 30
0.0
 10
10.3436088939
 20
7.5582178629
 30
0.0
 10
10.340633514
 20
7.5528751458
 30
0.0
 10
10.336914289
 20
7.5461967495
 30
0.0
 10
10.3331950636
 20
7.5395183534
 30
0.0
 10
10.3302196842
 20
7.534175636
 30
0.0
 10
10.3279881473
 20
7.5301685992
 30
0.0
 10
10.3257566192
 20
7.526161558
 30
0.0
 10
10.3238969851
 20
7.5228223704
 30
0.0
 10
10.3224093391
 20
7.5201509905
 30
0.0
 10
10.3214794209
 20
7.5184814458
 30
0.0
 10
10.3207358056
 20
7.5171456549
 30
0.0
 10
10.3201772199
 20
7.5161442364
 30
0.0
 10
10.3197145131
 20
7.5153083703
 30
0.0
 10
10.3193851601
 20
7.5147259146
 30
0.0
 10
10.319205481
 20
7.5143889441
 30
0.0
 10
10.3190467132
 20
7.514147875
 30
0.0
 10
10.318979718
 20
7.5138622401
 30
0.0
 10
10.3188583798
 20
7.5134969387
 30
0.0
 10
10.3186609527
 20
7.5128504185
 30
0.0
 10
10.3183711163
 20
7.5119306048
 30
0.0
 10
10.3180266502
 20
7.5108252076
 30
0.0
 10
10.3175661964
 20
7.5093519107
 30
0.0
 10
10.3169910282
 20
7.5075100958
 30
0.0
 10
10.3160705361
 20
7.5045633003
 30
0.0
 10
10.3149199975
 20
7.5008797687
 30
0.0
 10
10.3135393184
 20
7.4964595468
 30
0.0
 10
10.312158648
 20
7.4920393205
 30
0.0
 10
10.3103177512
 20
7.4861456871
 30
0.0
 10
10.3080166311
 20
7.4787786447
 30
0.0
 10
10.3057155108
 20
7.4714116025
 30
0.0
 10
10.3038746144
 20
7.4655179688
 30
0.0
 10
10.3024939427
 20
7.4610977433
 30
0.0
 10
10.3013433809
 20
7.4574142228
 30
0.0
 10
10.3004229361
 20
7.4544674047
 30
0.0
 10
10.2997325898
 20
7.4522572957
 30
0.0
 10
10.2990422921
 20
7.450047169
 30
0.0
 10
10.2984668924
 20
7.4482054521
 30
0.0
 10
10.2980069124
 20
7.4467319547
 30
0.0
 10
10.297660999
 20
7.44562717
 30
0.0
 10
10.2973756907
 20
7.4447054398
 30
0.0
 10
10.2971701802
 20
7.4440623409
 30
0.0
 10
10.2970617935
 20
7.4436915577
 30
0.0
 10
10.2969550153
 20
7.4434227613
 30
0.0
 10
10.2969456661
 20
7.4431184499
 30
0.0
 10
10.2968992161
 20
7.4427250895
 30
0.0
 10
10.2968337625
 20
7.4420309369
 30
0.0
 10
10.2967319792
 20
7.4410423079
 30
0.0
 10
10.2966133827
 20
7.4398546615
 30
0.0
 10
10.2964540161
 20
7.4382715841
 30
0.0
 10
10.2962552327
 20
7.4362925826
 30
0.0
 10
10.2960165106
 20
7.4339178471
 30
0.0
 10
10.2957778371
 20
7.4315430938
 30
0.0
 10
10.2954595888
 20
7.4283767624
 30
0.0
 10
10.2950617843
 20
7.424418846
 30
0.0
 10
10.2945844164
 20
7.4196693472
 30
0.0
 10
10.2939479267
 20
7.4133366818
 30
0.0
 10
10.2931523144
 20
7.4054208501
 30
0.0
 10
10.2923567018
 20
7.3975050185
 30
0.0
 10
10.2917202126
 20
7.3911723531
 30
0.0
 10
10.2912428431
 20
7.3864228541
 30
0.0
 10
10.2907654834
 20
7.3816733553
 30
0.0
 10
10.2903676534
 20
7.377715439
 30
0.0
 10
10.290049457
 20
7.3745491072
 30
0.0
 10
10.2898504305
 20
7.372570147
 30
0.0
 10
10.2896915614
 20
7.3709869854
 30
0.0
 10
10.2895714455
 20
7.369799596
 30
0.0
 10
10.2894744157
 20
7.3688101629
 30
0.0
 10
10.2894004764
 20
7.3681174458
 30
0.0
 10
10.2893676227
 20
7.3677217854
 30
0.0
 10
10.28931651
 20
7.3674245389
 30
0.0
 10
10.2893665883
 20
7.367129208
 30
0.0
 10
10.2893980629
 20
7.3667347654
 30
0.0
 10
10.2894695887
 20
7.3660448021
 30
0.0
 10
10.2895631705
 20
7.3650589774
 30
0.0
 10
10.289679149
 20
7.3638760576
 30
0.0
 10
10.2898325014
 20
7.3622988067
 30
0.0
 10
10.2900246321
 20
7.3603272515
 30
0.0
 10
10.2903317953
 20
7.3571727584
 30
0.0
 10
10.2907158337
 20
7.3532296437
 30
0.0
 10
10.2911766435
 20
7.3484979054
 30
0.0
 10
10.2916374631
 20
7.3437661673
 30
0.0
 10
10.2922518857
 20
7.337457183
 30
0.0
 10
10.2930199153
 20
7.3295709527
 30
0.0
 10
10.293787944
 20
7.3216847224
 30
0.0
 10
10.294402368
 20
7.3153757382
 30
0.0
 10
10.2948631835
 20
7.3106439998
 30
0.0
 10
10.2953240084
 20
7.3059122626
 30
0.0
 10
10.2957080001
 20
7.3019691445
 30
0.0
 10
10.2960152585
 20
7.2988146584
 30
0.0
 10
10.2962071468
 20
7.2968430855
 30
0.0
 10
10.2963609968
 20
7.2952658708
 30
0.0
 10
10.2964754553
 20
7.2940828403
 30
0.0
 10
10.2965737926
 20
7.2930973618
 30
0.0
 10
10.2966368291
 20
7.2924067807
 30
0.0
 10
10.2966819057
 20
7.2920133279
 30
0.0
 10
10.2966902029
 20
7.2917149564
 30
0.0
 10
10.296796013
 20
7.2914291303
 30
0.0
 10
10.2969030796
 20
7.2910436529
 30
0.0
 10
10.2971062936
 20
7.2903711063
 30
0.0
 10
10.2973883141
 20
7.2894092596
 30
0.0
 10
10.297730285
 20
7.2882554997
 30
0.0
 10
10.2981850075
 20
7.2867169938
 30
0.0
 10
10.2987538348
 20
7.2847939161
 30
0.0
 10
10.2996637215
 20
7.2817169612
 30
0.0
 10
10.3008011612
 20
7.277870778
 30
0.0
 10
10.3021660539
 20
7.2732553537
 30
0.0
 10
10.3035309559
 20
7.2686399306
 30
0.0
 10
10.3053508221
 20
7.2624860327
 30
0.0
 10
10.307625656
 20
7.2547936606
 30
0.0
 10
10.309900489
 20
7.2471012882
 30
0.0
 10
10.3117203565
 20
7.2409473906
 30
0.0
 10
10.3130852547
 20
7.2363319666
 30
0.0
 10
10.3144501617
 20
7.2317165457
 30
0.0
 10
10.3155875569
 20
7.2278703521
 30
0.0
 10
10.3164975343
 20
7.2247934184
 30
0.0
 10
10.3170661306
 20
7.2228702869
 30
0.0
 10
10.3175213274
 20
7.2213318913
 30
0.0
 10
10.3178618494
 20
7.2201777945
 30
0.0
 10
10.3181484031
 20
7.219217002
 30
0.0
 10
10.3183435245
 20
7.2185425733
 30
0.0
 10
10.3184635575
 20
7.2181601115
 30
0.0
 10
10.3185295389
 20
7.2178650226
 30
0.0
 10
10.3186874258
 20
7.2176014407
 30
0.0
 10
10.3188658841
 20
7.2172390082
 30
0.0
 10
10.3191931222
 20
7.2166098719
 30
0.0
 10
10.3196527965
 20
7.2157084285
 30
0.0
 10
10.320207748
 20
7.2146278424
 30
0.0
 10
10.3209465159
 20
7.2131866607
 30
0.0
 10
10.3218703755
 20
7.2113853206
 30
0.0
 10
10.3233483275
 20
7.2085030999
 30
0.0
 10
10.3251958442
 20
7.2049003502
 30
0.0
 10
10.3274128313
 20
7.2005770394
 30
0.0
 10
10.3296298272
 20
7.1962537315
 30
0.0
 10
10.3325858187
 20
7.19048932
 30
0.0
 10
10.3362808092
 20
7.1832838061
 30
0.0
 10
10.3399757989
 20
7.1760782918
 30
0.0
 10
10.3429317916
 20
7.1703138808
 30
0.0
 10
10.3451487839
 20
7.1659905714
 30
0.0
 10
10.3473657847
 20
7.1616672662
 30
0.0
 10
10.3492132588
 20
7.1580644991
 30
0.0
 10
10.3506912976
 20
7.1551823138
 30
0.0
 10
10.3516149363
 20
7.1533808836
 30
0.0
 10
10.3523541577
 20
7.1519398869
 30
0.0
 10
10.3529077237
 20
7.1508587356
 30
0.0
 10
10.3533717329
 20
7.1499590604
 30
0.0
 10
10.3536912324
 20
7.1493267677
 30
0.0
 10
10.3538820899
 20
7.1489693924
 30
0.0
 10
10.3540018902
 20
7.1486902766
 30
0.0
 10
10.3542109184
 20
7.1484535305
 30
0.0
 10
10.354458499
 20
7.1481230899
 30
0.0
 10
10.354906266
 20
7.1475517048
 30
0.0
 10
10.3555383519
 20
7.1467318403
 30
0.0
 10
10.3563001
 20
7.1457495439
 30
0.0
 10
10.3573146307
 20
7.1444392771
 30
0.0
 10
10.3585831822
 20
7.1428016279
 30
0.0
 10
10.3606126477
 20
7.1401812862
 30
0.0
 10
10.363149554
 20
7.1369058943
 30
0.0
 10
10.3661938096
 20
7.132975409
 30
0.0
 10
10.3692380738
 20
7.1290449277
 30
0.0
 10
10.3732970897
 20
7.1238042846
 30
0.0
 10
10.3783708607
 20
7.1172534812
 30
0.0
 10
10.383444631
 20
7.1107026774
 30
0.0
 10
10.387503648
 20
7.105462035
 30
0.0
 10
10.390547909
 20
7.1015315514
 30
0.0
 10
10.3935921764
 20
7.0976010748
 30
0.0
 10
10.3961290463
 20
7.0943256558
 30
0.0
 10
10.3981585859
 20
7.0917053695
 30
0.0
 10
10.3994269489
 20
7.0900675792
 30
0.0
 10
10.4004418664
 20
7.0887576021
 30
0.0
 10
10.401202433
 20
7.0877744205
 30
0.0
 10
10.4018382156
 20
7.0869573254
 30
0.0
 10
10.4022793834
 20
7.0863809965
 30
0.0
 10
10.4025375376
 20
7.0860584771
 30
0.0
 10
10.4027140869
 20
7.0857973998
 30
0.0
 10
10.4029558723
 20
7.085609668
 30
0.0
 10
10.4032554978
 20
7.0853337751
 30
0.0
 10
10.4037904445
 20
7.0848628825
 30
0.0
 10
10.4045491111
 20
7.084183947
 30
0.0
 10
10.4054618835
 20
7.0833718918
 30
0.0
 10
10.4066780847
 20
7.0822882199
 30
0.0
 10
10.40819862
 20
7.080933949
 30
0.0
 10
10.4106313179
 20
7.0787669372
 30
0.0
 10
10.4136722447
 20
7.0760582337
 30
0.0
 10
10.4173213336
 20
7.0728077632
 30
0.0
 10
10.4209704286
 20
7.0695572998
 30
0.0
 10
10.4258358865
 20
7.0652233461
 30
0.0
 10
10.4319177097
 20
7.0598059049
 30
0.0
 10
10.4379995324
 20
7.054388463
 30
0.0
 10
10.4428649911
 20
7.0500545104
 30
0.0
 10
10.4465140837
 20
7.0468040439
 30
0.0
 10
10.4501631816
 20
7.0435535849
 30
0.0
 10
10.4532040801
 20
7.0408448456
 30
0.0
 10
10.4556368358
 20
7.0386779068
 30
0.0
 10
10.4571572241
 20
7.0373234503
 30
0.0
 10
10.4583737271
 20
7.0362401592
 30
0.0
 10
10.4592855775
 20
7.0354269405
 30
0.0
 10
10.4600471289
 20
7.0347516454
 30
0.0
 10
10.4605769258
 20
7.034274254
 30
0.0
 10
10.4608848024
 20
7.034008774
 30
0.0
 10
10.4611012431
 20
7.0337890572
 30
0.0
 10
10.4613729829
 20
7.0336481102
 30
0.0
 10
10.4617160138
 20
7.033432705
 30
0.0
 10
10.4623253048
 20
7.0330685475
 30
0.0
 10
10.463191022
 20
7.0325416298
 30
0.0
 10
10.4642318939
 20
7.0319121932
 30
0.0
 10
10.4656190205
 20
7.0310719438
 30
0.0
 10
10.4673531693
 20
7.0300219746
 30
0.0
 10
10.470127673
 20
7.0283418325
 30
0.0
 10
10.4735958487
 20
7.0262417206
 30
0.0
 10
10.4777576397
 20
7.0237215582
 30
0.0
 10
10.4819194361
 20
7.0212014032
 30
0.0
 10
10.4874684961
 20
7.017841194
 30
0.0
 10
10.4944048217
 20
7.0136409335
 30
0.0
 10
10.501341147
 20
7.0094406723
 30
0.0
 10
10.5068902076
 20
7.0060804642
 30
0.0
 10
10.511052002
 20
7.0035603058
 30
0.0
 10
10.5152138002
 20
7.0010401561
 30
0.0
 10
10.5186819539
 20
6.9989400047
 30
0.0
 10
10.5214565024
 20
6.9972599431
 30
0.0
 10
10.5231905372
 20
6.9962097691
 30
0.0
 10
10.5245778979
 20
6.9953699401
 30
0.0
 10
10.5256180545
 20
6.9947392192
 30
0.0
 10
10.5264860094
 20
6.9942163196
 30
0.0
 10
10.5270913058
 20
6.9938449891
 30
0.0
 10
10.5274407371
 20
6.9936410769
 30
0.0
 10
10.5276928168
 20
6.9934648273
 30
0.0
 10
10.5279830978
 20
6.9933777011
 30
0.0
 10
10.528356814
 20
6.9932304456
 30
0.0
 10
10.5290170258
 20
6.9929872326
 30
0.0
 10
10.5299569398
 20
6.9926322129
 30
0.0
 10
10.5310862258
 20
6.9922094306
 30
0.0
 10
10.5325914552
 20
6.9916445887
 30
0.0
 10
10.5344731582
 20
6.9909389241
 30
0.0
 10
10.5374837901
 20
6.9898096439
 30
0.0
 10
10.5412471118
 20
6.9883981181
 30
0.0
 10
10.5457630841
 20
6.9867042552
 30
0.0
 10
10.5502790602
 20
6.9850104008
 30
0.0
 10
10.5563003603
 20
6.9827519254
 30
0.0
 10
10.5638269859
 20
6.9799288322
 30
0.0
 10
10.5713536112
 20
6.9771057382
 30
0.0
 10
10.5773749118
 20
6.974847264
 30
0.0
 10
10.5818908865
 20
6.9731534059
 30
0.0
 10
10.5864068639
 20
6.971459557
 30
0.0
 10
10.5901701699
 20
6.9700479878
 30
0.0
 10
10.5931808338
 20
6.9689187961
 30
0.0
 10
10.5950624551
 20
6.9682129063
 30
0.0
 10
10.5965678522
 20
6.9676485265
 30
0.0
 10
10.597696626
 20
6.9672243325
 30
0.0
 10
10.5986381425
 20
6.9668737298
 30
0.0
 10
10.5992954936
 20
6.9666226318
 30
0.0
 10
10.5996737935
 20
6.96648801
 30
0.0
 10
10.5999499949
 20
6.9663620771
 30
0.0
 10
10.6002549548
 20
6.9663315788
 30
0.0
 10
10.6006515368
 20
6.9662576258
 30
0.0
 10
10.6013502289
 20
6.9661437177
 30
0.0
 10
10.602345917
 20
6.9659728833
 30
0.0
 10
10.6035417887
 20
6.9657713527
 30
0.0
 10
10.6051359189
 20
6.965501433
 30
0.0
 10
10.6071287067
 20
6.9651644484
 30
0.0
 10
10.6103170974
 20
6.9646250412
 30
0.0
 10
10.6143026097
 20
6.9639508617
 30
0.0
 10
10.6190852142
 20
6.9631418122
 30
0.0
 10
10.6238678214
 20
6.9623327718
 30
0.0
 10
10.6302446301
 20
6.9612540481
 30
0.0
 10
10.6382156413
 20
6.9599056446
 30
0.0
 10
10.6477808545
 20
6.9582875599
 30
0.0
 10
10.6605344723
 20
6.9561301138
 30
0.0
 10
10.6700996856
 20
6.9545120292
 30
0.0
 10
10.6764764945
 20
6.9534333062
 30
0.0
  0
SPLINE
  5
328
100
AcDbEntity
  8
0
100
AcDbSpline
 62
4
  6
CONTINUOUS
 70
0
 71
3
 72
411
 73
407
 74
0
 42
0.0000001
 43
0.0000001
 44
0.0000000001
 40
0.0
 40
0.0
 40
0.0
 40
0.0
 40
0.015625
 40
0.0234375
 40
0.03125
 40
0.0390625
 40
0.04296875
 40
0.046875
 40
0.05078125
 40
0.0546875
 40
0.056640625
 40
0.05859375
 40
0.0595703125
 40
0.060546875
 40
0.0615234375
 40
0.0620117188
 40
0.0622558594
 40
0.0625
 40
0.0627441406
 40
0.0629882812
 40
0.0634765625
 40
0.064453125
 40
0.0654296875
 40
0.06640625
 40
0.068359375
 40
0.0703125
 40
0.07421875
 40
0.078125
 40
0.08203125
 40
0.0859375
 40
0.09375
 40
0.1015625
 40
0.10546875
 40
0.109375
 40
0.11328125
 40
0.1171875
 40
0.119140625
 40
0.12109375
 40
0.1220703125
 40
0.123046875
 40
0.1240234375
 40
0.1245117188
 40
0.1247558594
 40
0.125
 40
0.1252441406
 40
0.1254882812
 40
0.1259765625
 40
0.126953125
 40
0.1279296875
 40
0.12890625
 40
0.130859375
 40
0.1328125
 40
0.13671875
 40
0.140625
 40
0.14453125
 40
0.1484375
 40
0.15625
 40
0.1640625
 40
0.16796875
 40
0.171875
 40
0.17578125
 40
0.177734375
 40
0.1796875
 40
0.181640625
 40
0.18359375
 40
0.1845703125
 40
0.185546875
 40
0.1865234375
 40
0.1870117188
 40
0.1872558594
 40
0.1875
 40
0.1877441406
 40
0.1879882812
 40
0.1884765625
 40
0.189453125
 40
0.1904296875
 40
0.19140625
 40
0.193359375
 40
0.1953125
 40
0.197265625
 40
0.19921875
 40
0.203125
 40
0.20703125
 40
0.2109375
 40
0.21875
 40
0.2265625
 40
0.23046875
 40
0.234375
 40
0.23828125
 40
0.240234375
 40
0.2421875
 40
0.244140625
 40
0.24609375
 40
0.2470703125
 40
0.248046875
 40
0.2490234375
 40
0.2495117188
 40
0.2497558594
 40
0.25
 40
0.2502441406
 40
0.2504882812
 40
0.2509765625
 40
0.251953125
 40
0.2529296875
 40
0.25390625
 40
0.255859375
 40
0.2578125
 40
0.259765625
 40
0.26171875
 40
0.265625
 40
0.26953125
 40
0.2734375
 40
0.28125
 40
0.2890625
 40
0.29296875
 40
0.296875
 40
0.30078125
 40
0.302734375
 40
0.3046875
 40
0.306640625
 40
0.30859375
 40
0.3095703125
 40
0.310546875
 40
0.3115234375
 40
0.3120117188
 40
0.3122558594
 40
0.3125
 40
0.3127441406
 40
0.3129882812
 40
0.3134765625
 40
0.314453125
 40
0.3154296875
 40
0.31640625
 40
0.318359375
 40
0.3203125
 40
0.322265625
 40
0.32421875
 40
0.328125
 40
0.33203125
 40
0.3359375
 40
0.34375
 40
0.3515625
 40
0.35546875
 40
0.359375
 40
0.36328125
 40
0.3671875
 40
0.369140625
 40
0.37109375
 40
0.3720703125
 40
0.373046875
 40
0.3740234375
 40
0.3745117188
 40
0.3747558594
 40
0.375
 40
0.3752441406
 40
0.3754882812
 40
0.3759765625
 40
0.376953125
 40
0.3779296875
 40
0.37890625
 40
0.380859375
 40
0.3828125
 40
0.38671875
 40
0.390625
 40
0.39453125
 40
0.3984375
 40
0.40625
 40
0.4140625
 40
0.41796875
 40
0.421875
 40
0.42578125
 40
0.427734375
 40
0.4296875
 40
0.431640625
 40
0.43359375
 40
0.4345703125
 40
0.435546875
 40
0.4365234375
 40
0.4370117188
 40
0.4372558594
 40
0.4375
 40
0.4377441406
 40
0.4379882812
 40
0.4384765625
 40
0.439453125
 40
0.4404296875
 40
0.44140625
 40
0.443359375
 40
0.4453125
 40
0.447265625
 40
0.44921875
 40
0.453125
 40
0.45703125
 40
0.4609375
 40
0.46875
 40
0.4765625
 40
0.48046875
 40
0.484375
 40
0.48828125
 40
0.4921875
 40
0.494140625
 40
0.49609375
 40
0.4970703125
 40
0.498046875
 40
0.4990234375
 40
0.4995117188
 40
0.4997558594
 40
0.5
 40
0.5002441406
 40
0.5004882812
 40
0.5009765625
 40
0.501953125
 40
0.5029296875
 40
0.50390625
 40
0.505859375
 40
0.5078125
 40
0.51171875
 40
0.515625
 40
0.51953125
 40
0.5234375
 40
0.53125
 40
0.5390625
 40
0.54296875
 40
0.546875
 40
0.55078125
 40
0.5546875
 40
0.556640625
 40
0.55859375
 40
0.5595703125
 40
0.560546875
 40
0.5615234375
 40
0.5620117188
 40
0.5622558594
 40
0.5625
 40
0.5627441406
 40
0.5629882812
 40
0.5634765625
 40
0.564453125
 40
0.5654296875
 40
0.56640625
 40
0.568359375
 40
0.5703125
 40
0.57421875
 40
0.578125
 40
0.58203125
 40
0.5859375
 40
0.59375
 40
0.6015625
 40
0.60546875
 40
0.609375
 40
0.61328125
 40
0.6171875
 40
0.619140625
 40
0.62109375
 40
0.6220703125
 40
0.623046875
 40
0.6240234375
 40
0.6245117188
 40
0.6247558594
 40
0.625
 40
0.6252441406
 40
0.6254882812
 40
0.6259765625
 40
0.626953125
 40
0.6279296875
 40
0.62890625
 40
0.630859375
 40
0.6328125
 40
0.63671875
 40
0.640625
 40
0.64453125
 40
0.6484375
 40
0.65625
 40
0.6640625
 40
0.66796875
 40
0.671875
 40
0.67578125
 40
0.6796875
 40
0.681640625
 40
0.68359375
 40
0.6845703125
 40
0.685546875
 40
0.6865234375
 40
0.6870117188
 40
0.6872558594
 40
0.6875
 40
0.6877441406
 40
0.6879882812
 40
0.6884765625
 40
0.689453125
 40
0.6904296875
 40
0.69140625
 40
0.693359375
 40
0.6953125
 40
0.69921875
 40
0.703125
 40
0.70703125
 40
0.7109375
 40
0.71875
 40
0.7265625
 40
0.73046875
 40
0.734375
 40
0.73828125
 40
0.7421875
 40
0.744140625
 40
0.74609375
 40
0.7470703125
 40
0.748046875
 40
0.7490234375
 40
0.7495117188
 40
0.7497558594
 40
0.75
 40
0.7502441406
 40
0.7504882812
 40
0.7509765625
 40
0.751953125
 40
0.7529296875
 40
0.75390625
 40
0.755859375
 40
0.7578125
 40
0.76171875
 40
0.765625
 40
0.76953125
 40
0.7734375
 40
0.78125
 40
0.7890625
 40
0.79296875
 40
0.796875
 40
0.80078125
 40
0.8046875
 40
0.806640625
 40
0.80859375
 40
0.8095703125
 40
0.810546875
 40
0.8115234375
 40
0.8120117188
 40
0.8122558594
 40
0.8125
 40
0.8127441406
 40
0.8129882812
 40
0.8134765625
 40
0.814453125
 40
0.8154296875
 40
0.81640625
 40
0.818359375
 40
0.8203125
 40
0.82421875
 40
0.828125
 40
0.83203125
 40
0.8359375
 40
0.84375
 40
0.8515625
 40
0.85546875
 40
0.859375
 40
0.86328125
 40
0.8671875
 40
0.869140625
 40
0.87109375
 40
0.8720703125
 40
0.873046875
 40
0.8740234375
 40
0.8745117188
 40
0.8747558594
 40
0.875
 40
0.8752441406
 40
0.8754882812
 40
0.8759765625
 40
0.876953125
 40
0.8779296875
 40
0.87890625
 40
0.880859375
 40
0.8828125
 40
0.88671875
 40
0.890625
 40
0.89453125
 40
0.8984375
 40
0.90625
 40
0.9140625
 40
0.91796875
 40
0.921875
 40
0.92578125
 40
0.9296875
 40
0.931640625
 40
0.93359375
 40
0.9345703125
 40
0.935546875
 40
0.9365234375
 40
0.9370117188
 40
0.9372558594
 40
0.9375
 40
0.9377441406
 40
0.9379882812
 40
0.9384765625
 40
0.939453125
 40
0.9404296875
 40
0.94140625
 40
0.943359375
 40
0.9453125
 40
0.94921875
 40
0.953125
 40
0.95703125
 40
0.9609375
 40
0.96875
 40
0.9765625
 40
0.984375
 40
1.0
 40
1.0
 40
1.0
 40
1.0
 10
10.6764764606
 20
6.9534333085
 30
0.0
 10
10.6827428345
 20
6.9536131573
 30
0.0
 10
10.6921423952
 20
6.9538829306
 30
0.0
 10
10.7046751429
 20
6.9542426282
 30
0.0
 10
10.7140747036
 20
6.9545124016
 30
0.0
 10
10.721907671
 20
6.9547372123
 30
0.0
 10
10.7281740447
 20
6.9549170617
 30
0.0
 10
10.7328738255
 20
6.9550519464
 30
0.0
 10
10.7375736044
 20
6.9551868405
 30
0.0
 10
10.7414900926
 20
6.9552992227
 30
0.0
 10
10.7446232702
 20
6.9553891945
 30
0.0
 10
10.7465815356
 20
6.9554452767
 30
0.0
 10
10.7481480807
 20
6.9554904864
 30
0.0
 10
10.7493231735
 20
6.9555234519
 30
0.0
 10
10.7503018323
 20
6.9555539191
 30
0.0
 10
10.7509880419
 20
6.9555693668
 30
0.0
 10
10.7513783685
 20
6.9555873741
 30
0.0
 10
10.7516761647
 20
6.9555750191
 30
0.0
 10
10.7519546527
 20
6.955661516
 30
0.0
 10
10.7523327051
 20
6.9557423645
 30
0.0
 10
10.7529911587
 20
6.9558999146
 30
0.0
 10
10.7539334473
 20
6.9561165872
 30
0.0
 10
10.7550634914
 20
6.9563801892
 30
0.0
 10
10.7565704621
 20
6.956730403
 30
0.0
 10
10.7584540916
 20
6.9571686002
 30
0.0
 10
10.7614679456
 20
6.9578694754
 30
0.0
 10
10.7652352471
 20
6.9587456518
 30
0.0
 10
10.7697560158
 20
6.9597970281
 30
0.0
 10
10.7742767826
 20
6.9608484139
 30
0.0
 10
10.7803044723
 20
6.9622502584
 30
0.0
 10
10.7878390842
 20
6.9640025651
 30
0.0
 10
10.7953736964
 20
6.9657548711
 30
0.0
 10
10.8014013857
 20
6.9671567168
 30
0.0
 10
10.8059221537
 20
6.9682080987
 30
0.0
 10
10.810442918
 20
6.9692594897
 30
0.0
 10
10.8142102329
 20
6.9701356207
 30
0.0
 10
10.8172240596
 20
6.9708365885
 30
0.0
 10
10.8191077588
 20
6.9712745498
 30
0.0
 10
10.8206145863
 20
6.9716252478
 30
0.0
 10
10.8217450679
 20
6.9718873706
 30
0.0
 10
10.8226859878
 20
6.9721086713
 30
0.0
 10
10.8233468848
 20
6.9722579594
 30
0.0
 10
10.8237210223
 20
6.9723520458
 30
0.0
 10
10.8240115353
 20
6.9723978801
 30
0.0
 10
10.8242641677
 20
6.9725382469
 30
0.0
 10
10.8246142241
 20
6.9726924287
 30
0.0
 10
10.8252206664
 20
6.9729776099
 30
0.0
 10
10.8260902312
 20
6.9733769796
 30
0.0
 10
10.8271323313
 20
6.9738596612
 30
0.0
 10
10.8285222793
 20
6.9745020359
 30
0.0
 10
10.8302595495
 20
6.9753054155
 30
0.0
 10
10.8330392739
 20
6.9765905929
 30
0.0
 10
10.8365138979
 20
6.9781971436
 30
0.0
 10
10.8406834601
 20
6.9801249706
 30
0.0
 10
10.8448530188
 20
6.9820528066
 30
0.0
 10
10.8504124316
 20
6.9846232515
 30
0.0
 10
10.8573616972
 20
6.9878363087
 30
0.0
 10
10.8643109628
 20
6.9910493656
 30
0.0
 10
10.8698703755
 20
6.9936198109
 30
0.0
 10
10.8740399346
 20
6.9955476456
 30
0.0
 10
10.8775145683
 20
6.9971541725
 30
0.0
 10
10.8802942729
 20
6.9984393984
 30
0.0
 10
10.8823790577
 20
6.9994033057
 30
0.0
 10
10.8844638182
 20
7.0003672594
 30
0.0
 10
10.8862011943
 20
7.0011704099
 30
0.0
 10
10.8875909258
 20
7.0018132532
 30
0.0
 10
10.8886336871
 20
7.0022945034
 30
0.0
 10
10.8895011832
 20
7.0026983516
 30
0.0
 10
10.8901113185
 20
7.002975538
 30
0.0
 10
10.8904554578
 20
7.0031425294
 30
0.0
 10
10.8907262654
 20
7.0032435492
 30
0.0
 10
10.8909485154
 20
7.0034371642
 30
0.0
 10
10.8912617862
 20
7.0036630194
 30
0.0
 10
10.8918021185
 20
7.0040733143
 30
0.0
 10
10.8925781477
 20
7.0046515824
 30
0.0
 10
10.8935076167
 20
7.0053488716
 30
0.0
 10
10.8947475256
 20
7.0062774142
 30
0.0
 10
10.8962972001
 20
7.0074384962
 30
0.0
 10
10.8981569002
 20
7.0088316215
 30
0.0
 10
10.900016576
 20
7.0102247931
 30
0.0
 10
10.9024961522
 20
7.0120823391
 30
0.0
 10
10.9055956195
 20
7.0144042772
 30
0.0
 10
10.9093149816
 20
7.0171906004
 30
0.0
 10
10.9142741306
 20
7.0209056989
 30
0.0
 10
10.9204730671
 20
7.0255495718
 30
0.0
 10
10.9266720034
 20
7.0301934448
 30
0.0
 10
10.9316311526
 20
7.033908543
 30
0.0
 10
10.935350514
 20
7.0366948671
 30
0.0
 10
10.9384499835
 20
7.0390168024
 30
0.0
 10
10.9409295554
 20
7.040874354
 30
0.0
 10
10.9427892445
 20
7.0422675085
 30
0.0
 10
10.9446488947
 20
7.0436606982
 30
0.0
 10
10.9461987244
 20
7.0448215797
 30
0.0
 10
10.9474383166
 20
7.0457505312
 30
0.0
 10
10.9483687527
 20
7.0464465719
 30
0.0
 10
10.9491417562
 20
7.0470287465
 30
0.0
 10
10.94968749
 20
7.0474320675
 30
0.0
 10
10.9499921063
 20
7.0476690965
 30
0.0
 10
10.9502409399
 20
7.0478283892
 30
0.0
 10
10.9504119039
 20
7.0480583182
 30
0.0
 10
10.9506670176
 20
7.0483402515
 30
0.0
 10
10.9511008115
 20
7.0488451144
 30
0.0
 10
10.9517271333
 20
7.0495603454
 30
0.0
 10
10.9524758875
 20
7.0504211916
 30
0.0
 10
10.9534752157
 20
7.0515680891
 30
0.0
 10
10.9547240365
 20
7.053002019
 30
0.0
 10
10.9562227669
 20
7.0547226028
 30
0.0
 10
10.9577214584
 20
7.0564432219
 30
0.0
 10
10.9597197274
 20
7.0587373684
 30
0.0
 10
10.9622175589
 20
7.0616050558
 30
0.0
 10
10.9652149587
 20
7.0650462788
 30
0.0
 10
10.9692114911
 20
7.0696345768
 30
0.0
 10
10.9742071569
 20
7.075369949
 30
0.0
 10
10.9792028224
 20
7.0811053214
 30
0.0
 10
10.9831993551
 20
7.0856936192
 30
0.0
 10
10.9861967541
 20
7.0891348429
 30
0.0
 10
10.9886945883
 20
7.092002528
 30
0.0
 10
10.9906928517
 20
7.0942966791
 30
0.0
 10
10.9921915601
 20
7.0960172843
 30
0.0
 10
10.9936902272
 20
7.0977379201
 30
0.0
 10
10.9949392451
 20
7.0991716883
 30
0.0
 10
10.9959381713
 20
7.1003189156
 30
0.0
 10
10.996688153
 20
7.1011787546
 30
0.0
 10
10.9973106343
 20
7.1018971367
 30
0.0
 10
10.9977512842
 20
7.1023963745
 30
0.0
 10
10.9979954129
 20
7.1026873207
 30
0.0
 10
10.9982001195
 20
7.1028895649
 30
0.0
 10
10.9983222213
 20
7.103152837
 30
0.0
 10
10.9985138371
 20
7.1034825792
 30
0.0
 10
10.9988357402
 20
7.1040695462
 30
0.0
 10
10.9993026202
 20
7.1049028852
 30
0.0
 10
10.9998598721
 20
7.1059051115
 30
0.0
 10
11.000603924
 20
7.1072406379
 30
0.0
 10
11.0015336289
 20
7.1089103119
 30
0.0
 10
11.002649429
 20
7.1109138067
 30
0.0
 10
11.0037651878
 20
7.112917332
 30
0.0
 10
11.0052528807
 20
7.1155886884
 30
0.0
 10
11.0071124918
 20
7.1189278876
 30
0.0
 10
11.0093440273
 20
7.122934925
 30
0.0
 10
11.0123194072
 20
7.1282776422
 30
0.0
 10
11.0160386323
 20
7.1349560384
 30
0.0
 10
11.0197578576
 20
7.1416344346
 30
0.0
 10
11.022733237
 20
7.1469771519
 30
0.0
 10
11.0249647739
 20
7.1509841888
 30
0.0
 10
11.027196302
 20
7.1549912299
 30
0.0
 10
11.0290559361
 20
7.1583304176
 30
0.0
 10
11.0305435822
 20
7.1610017975
 30
0.0
 10
11.0314735004
 20
7.1626713422
 30
0.0
 10
11.0322171156
 20
7.164007133
 30
0.0
 10
11.0327757014
 20
7.1650085516
 30
0.0
 10
11.0332384081
 20
7.1658444177
 30
0.0
 10
11.0335677612
 20
7.1664268734
 30
0.0
 10
11.0337474402
 20
7.1667638439
 30
0.0
 10
11.033906208
 20
7.167004913
 30
0.0
 10
11.0339732032
 20
7.1672905478
 30
0.0
 10
11.0340945414
 20
7.1676558492
 30
0.0
 10
11.0342919686
 20
7.1683023694
 30
0.0
 10
11.034581805
 20
7.1692221831
 30
0.0
 10
11.034926271
 20
7.1703275804
 30
0.0
 10
11.0353867249
 20
7.1718008772
 30
0.0
 10
11.035961893
 20
7.1736426921
 30
0.0
 10
11.0368823851
 20
7.1765894877
 30
0.0
 10
11.0380329237
 20
7.1802730192
 30
0.0
 10
11.0394136029
 20
7.1846932412
 30
0.0
 10
11.0407942732
 20
7.1891134674
 30
0.0
 10
11.0426351701
 20
7.1950071009
 30
0.0
 10
11.0449362901
 20
7.2023741433
 30
0.0
 10
11.0472374105
 20
7.2097411855
 30
0.0
 10
11.0490783069
 20
7.2156348192
 30
0.0
 10
11.0504589785
 20
7.2200550447
 30
0.0
 10
11.0516095404
 20
7.2237385652
 30
0.0
 10
11.0525299851
 20
7.2266853833
 30
0.0
 10
11.0532203315
 20
7.2288954922
 30
0.0
 10
11.0539106291
 20
7.2311056189
 30
0.0
 10
11.0544860289
 20
7.2329473359
 30
0.0
 10
11.0549460089
 20
7.2344208333
 30
0.0
 10
11.0552919222
 20
7.2355256179
 30
0.0
 10
11.0555772305
 20
7.2364473482
 30
0.0
 10
11.0557827411
 20
7.237090447
 30
0.0
 10
11.0558911277
 20
7.2374612303
 30
0.0
 10
11.0559979059
 20
7.2377300267
 30
0.0
 10
11.0560072552
 20
7.238034338
 30
0.0
 10
11.0560537052
 20
7.2384276985
 30
0.0
 10
11.0561191587
 20
7.2391218511
 30
0.0
 10
11.056220942
 20
7.2401104801
 30
0.0
 10
11.0563395386
 20
7.2412981265
 30
0.0
 10
11.0564989051
 20
7.2428812039
 30
0.0
 10
11.0566976885
 20
7.2448602054
 30
0.0
 10
11.0569364107
 20
7.2472349409
 30
0.0
 10
11.0571750841
 20
7.2496096941
 30
0.0
 10
11.0574933324
 20
7.2527760256
 30
0.0
 10
11.0578911369
 20
7.256733942
 30
0.0
 10
11.0583685048
 20
7.2614834408
 30
0.0
 10
11.0590049945
 20
7.2678161062
 30
0.0
 10
11.0598006069
 20
7.2757319378
 30
0.0
 10
11.0605962195
 20
7.2836477695
 30
0.0
 10
11.0612327087
 20
7.2899804348
 30
0.0
 10
11.0617100781
 20
7.2947299339
 30
0.0
 10
11.0621874379
 20
7.2994794327
 30
0.0
 10
11.0625852678
 20
7.303437349
 30
0.0
 10
11.0629034642
 20
7.3066036807
 30
0.0
 10
11.0631024907
 20
7.308582641
 30
0.0
 10
11.0632613599
 20
7.3101658025
 30
0.0
 10
11.0633814757
 20
7.3113531919
 30
0.0
 10
11.0634785055
 20
7.312342625
 30
0.0
 10
11.0635524448
 20
7.3130353422
 30
0.0
 10
11.0635852985
 20
7.3134310026
 30
0.0
 10
11.0636364113
 20
7.3137282491
 30
0.0
 10
11.0635863329
 20
7.3140235799
 30
0.0
 10
11.0635548584
 20
7.3144180226
 30
0.0
 10
11.0634833326
 20
7.3151079859
 30
0.0
 10
11.0633897507
 20
7.3160938105
 30
0.0
 10
11.0632737723
 20
7.3172767304
 30
0.0
 10
11.0631204198
 20
7.3188539813
 30
0.0
 10
11.0629282891
 20
7.3208255365
 30
0.0
 10
11.0626211259
 20
7.3239800295
 30
0.0
 10
11.0622370876
 20
7.3279231442
 30
0.0
 10
11.0617762777
 20
7.3326548826
 30
0.0
 10
11.0613154582
 20
7.3373866207
 30
0.0
 10
11.0607010355
 20
7.343695605
 30
0.0
 10
11.059933006
 20
7.3515818352
 30
0.0
 10
11.0591649772
 20
7.3594680656
 30
0.0
 10
11.0585505532
 20
7.3657770497
 30
0.0
 10
11.0580897377
 20
7.3705087882
 30
0.0
 10
11.0576289128
 20
7.3752405254
 30
0.0
 10
11.0572449212
 20
7.3791836435
 30
0.0
 10
11.0569376628
 20
7.3823381296
 30
0.0
 10
11.0567457744
 20
7.3843097025
 30
0.0
 10
11.0565919244
 20
7.3858869171
 30
0.0
 10
11.056477466
 20
7.3870699476
 30
0.0
 10
11.0563791286
 20
7.3880554262
 30
0.0
 10
11.0563160921
 20
7.3887460073
 30
0.0
 10
11.0562710156
 20
7.38913946
 30
0.0
 10
11.0562627183
 20
7.3894378316
 30
0.0
 10
11.0561569082
 20
7.3897236576
 30
0.0
 10
11.0560498417
 20
7.390109135
 30
0.0
 10
11.0558466276
 20
7.3907816816
 30
0.0
 10
11.0555646072
 20
7.3917435284
 30
0.0
 10
11.0552226363
 20
7.3928972883
 30
0.0
 10
11.0547679137
 20
7.3944357941
 30
0.0
 10
11.0541990864
 20
7.3963588719
 30
0.0
 10
11.0532891997
 20
7.3994358268
 30
0.0
 10
11.0521517601
 20
7.40328201
 30
0.0
 10
11.0507868674
 20
7.4078974343
 30
0.0
 10
11.0494219653
 20
7.4125128574
 30
0.0
 10
11.0476020992
 20
7.4186667552
 30
0.0
 10
11.0453272653
 20
7.4263591274
 30
0.0
 10
11.0430524322
 20
7.4340514998
 30
0.0
 10
11.0412325648
 20
7.4402053973
 30
0.0
 10
11.0398676665
 20
7.4448208213
 30
0.0
 10
11.0385027595
 20
7.4494362423
 30
0.0
 10
11.0373653644
 20
7.4532824358
 30
0.0
 10
11.0364553869
 20
7.4563593696
 30
0.0
 10
11.0358867907
 20
7.4582825011
 30
0.0
 10
11.0354315939
 20
7.4598208967
 30
0.0
 10
11.0350910718
 20
7.4609749935
 30
0.0
 10
11.0348045181
 20
7.461935786
 30
0.0
 10
11.0346093967
 20
7.4626102147
 30
0.0
 10
11.0344893638
 20
7.4629926765
 30
0.0
 10
11.0344233823
 20
7.4632877654
 30
0.0
 10
11.0342654954
 20
7.4635513472
 30
0.0
 10
11.0340870372
 20
7.4639137797
 30
0.0
 10
11.033759799
 20
7.4645429161
 30
0.0
 10
11.0333001248
 20
7.4654443594
 30
0.0
 10
11.0327451732
 20
7.4665249455
 30
0.0
 10
11.0320064053
 20
7.4679661272
 30
0.0
 10
11.0310825457
 20
7.4697674673
 30
0.0
 10
11.0296045937
 20
7.4726496881
 30
0.0
 10
11.0277570771
 20
7.4762524377
 30
0.0
 10
11.0255400899
 20
7.4805757486
 30
0.0
 10
11.023323094
 20
7.4848990564
 30
0.0
 10
11.0203671025
 20
7.4906634679
 30
0.0
 10
11.0166721121
 20
7.4978689819
 30
0.0
 10
11.0129771223
 20
7.5050744962
 30
0.0
 10
11.0100211296
 20
7.5108389072
 30
0.0
 10
11.0078041374
 20
7.5151622165
 30
0.0
 10
11.0055871366
 20
7.5194855218
 30
0.0
 10
11.0037396625
 20
7.5230882888
 30
0.0
 10
11.0022616237
 20
7.5259704742
 30
0.0
 10
11.001337985
 20
7.5277719044
 30
0.0
 10
11.0005987636
 20
7.5292129011
 30
0.0
 10
11.0000451976
 20
7.5302940523
 30
0.0
 10
10.9995811884
 20
7.5311937276
 30
0.0
 10
10.9992616889
 20
7.5318260202
 30
0.0
 10
10.9990708314
 20
7.5321833956
 30
0.0
 10
10.998951031
 20
7.5324625113
 30
0.0
 10
10.9987420028
 20
7.5326992575
 30
0.0
 10
10.9984944223
 20
7.533029698
 30
0.0
 10
10.9980466552
 20
7.5336010832
 30
0.0
 10
10.9974145693
 20
7.5344209476
 30
0.0
 10
10.9966528212
 20
7.5354032441
 30
0.0
 10
10.9956382905
 20
7.5367135109
 30
0.0
 10
10.994369739
 20
7.5383511601
 30
0.0
 10
10.9923402735
 20
7.5409715018
 30
0.0
 10
10.9898033672
 20
7.5442468936
 30
0.0
 10
10.9867591116
 20
7.548177379
 30
0.0
 10
10.9837148474
 20
7.5521078602
 30
0.0
 10
10.9796558315
 20
7.5573485034
 30
0.0
 10
10.9745820605
 20
7.5638993067
 30
0.0
 10
10.9695082902
 20
7.5704501106
 30
0.0
 10
10.9654492733
 20
7.5756907529
 30
0.0
 10
10.9624050122
 20
7.5796212366
 30
0.0
 10
10.9593607449
 20
7.5835517131
 30
0.0
 10
10.9568238749
 20
7.5868271322
 30
0.0
 10
10.9547943354
 20
7.5894474184
 30
0.0
 10
10.9535259723
 20
7.5910852088
 30
0.0
 10
10.9525110548
 20
7.5923951859
 30
0.0
 10
10.9517504882
 20
7.5933783674
 30
0.0
 10
10.9511147057
 20
7.5941954625
 30
0.0
 10
10.9506735378
 20
7.5947717914
 30
0.0
 10
10.9504153837
 20
7.5950943108
 30
0.0
 10
10.9502388343
 20
7.5953553882
 30
0.0
 10
10.9499970489
 20
7.59554312
 30
0.0
 10
10.9496974234
 20
7.5958190129
 30
0.0
 10
10.9491624768
 20
7.5962899054
 30
0.0
 10
10.9484038102
 20
7.596968841
 30
0.0
 10
10.9474910377
 20
7.5977808961
 30
0.0
 10
10.9462748365
 20
7.5988645681
 30
0.0
 10
10.9447543012
 20
7.600218839
 30
0.0
 10
10.9423216033
 20
7.6023858508
 30
0.0
 10
10.9392806765
 20
7.6050945543
 30
0.0
 10
10.9356315877
 20
7.6083450247
 30
0.0
 10
10.9319824926
 20
7.6115954882
 30
0.0
 10
10.9271170347
 20
7.6159294419
 30
0.0
 10
10.9210352115
 20
7.6213468831
 30
0.0
 10
10.9149533889
 20
7.6267643249
 30
0.0
 10
10.9100879302
 20
7.6310982776
 30
0.0
 10
10.9064388375
 20
7.6343487441
 30
0.0
 10
10.9027897396
 20
7.6375992031
 30
0.0
 10
10.8997488411
 20
7.6403079423
 30
0.0
 10
10.8973160855
 20
7.6424748812
 30
0.0
 10
10.8957956972
 20
7.6438293376
 30
0.0
 10
10.8945791941
 20
7.6449126287
 30
0.0
 10
10.8936673437
 20
7.6457258475
 30
0.0
 10
10.8929057924
 20
7.6464011425
 30
0.0
 10
10.8923759955
 20
7.646878534
 30
0.0
 10
10.8920681189
 20
7.647144014
 30
0.0
 10
10.8918516782
 20
7.6473637308
 30
0.0
 10
10.8915799383
 20
7.6475046778
 30
0.0
 10
10.8912369075
 20
7.6477200829
 30
0.0
 10
10.8906276164
 20
7.6480842404
 30
0.0
 10
10.8897618992
 20
7.6486111582
 30
0.0
 10
10.8887210274
 20
7.6492405948
 30
0.0
 10
10.8873339008
 20
7.6500808442
 30
0.0
 10
10.8855997519
 20
7.6511308133
 30
0.0
 10
10.8828252483
 20
7.6528109554
 30
0.0
 10
10.8793570726
 20
7.6549110673
 30
0.0
 10
10.8751952815
 20
7.6574312298
 30
0.0
 10
10.8710334851
 20
7.6599513847
 30
0.0
 10
10.8654844252
 20
7.663311594
 30
0.0
 10
10.8585480995
 20
7.6675118545
 30
0.0
 10
10.8516117743
 20
7.6717121157
 30
0.0
 10
10.8460627137
 20
7.6750723238
 30
0.0
 10
10.8419009192
 20
7.6775924821
 30
0.0
 10
10.837739121
 20
7.6801126319
 30
0.0
 10
10.8342709673
 20
7.6822127833
 30
0.0
 10
10.8314964188
 20
7.6838928449
 30
0.0
 10
10.8297623841
 20
7.6849430188
 30
0.0
 10
10.8283750233
 20
7.6857828479
 30
0.0
 10
10.8273348667
 20
7.6864135687
 30
0.0
 10
10.8264669118
 20
7.6869364684
 30
0.0
 10
10.8258616154
 20
7.6873077989
 30
0.0
 10
10.8255121841
 20
7.6875117111
 30
0.0
 10
10.8252601044
 20
7.6876879607
 30
0.0
 10
10.8249698235
 20
7.6877750869
 30
0.0
 10
10.8245961072
 20
7.6879223424
 30
0.0
 10
10.8239358954
 20
7.6881655554
 30
0.0
 10
10.8229959815
 20
7.688520575
 30
0.0
 10
10.8218666955
 20
7.6889433574
 30
0.0
 10
10.820361466
 20
7.6895081992
 30
0.0
 10
10.818479763
 20
7.6902138639
 30
0.0
 10
10.8154691312
 20
7.6913431441
 30
0.0
 10
10.8117058095
 20
7.6927546699
 30
0.0
 10
10.8071898371
 20
7.6944485328
 30
0.0
 10
10.8026738611
 20
7.6961423871
 30
0.0
 10
10.7966525609
 20
7.6984008626
 30
0.0
 10
10.7891259353
 20
7.7012239558
 30
0.0
 10
10.78159931
 20
7.7040470497
 30
0.0
 10
10.7755780095
 20
7.706305524
 30
0.0
 10
10.7710620348
 20
7.707999382
 30
0.0
 10
10.7665460573
 20
7.709693231
 30
0.0
 10
10.7627827514
 20
7.7111048002
 30
0.0
 10
10.7597720874
 20
7.7122339919
 30
0.0
 10
10.7578904661
 20
7.7129398817
 30
0.0
 10
10.756385069
 20
7.7135042615
 30
0.0
 10
10.7552562952
 20
7.7139284555
 30
0.0
 10
10.7543147787
 20
7.7142790582
 30
0.0
 10
10.7536574277
 20
7.7145301562
 30
0.0
 10
10.7532791278
 20
7.714664778
 30
0.0
 10
10.7530029263
 20
7.7147907109
 30
0.0
 10
10.7526979664
 20
7.7148212092
 30
0.0
 10
10.7523013845
 20
7.7148951622
 30
0.0
 10
10.7516026924
 20
7.7150090702
 30
0.0
 10
10.7506070042
 20
7.7151799047
 30
0.0
 10
10.7494111326
 20
7.7153814353
 30
0.0
 10
10.7478170024
 20
7.715651355
 30
0.0
 10
10.7458242145
 20
7.7159883395
 30
0.0
 10
10.7426358239
 20
7.7165277468
 30
0.0
 10
10.7386503116
 20
7.7172019263
 30
0.0
 10
10.7338677071
 20
7.7180109758
 30
0.0
 10
10.7290850998
 20
7.7188200162
 30
0.0
 10
10.7227082912
 20
7.7198987399
 30
0.0
 10
10.71473728
 20
7.7212471434
 30
0.0
 10
10.7051720667
 20
7.7228652281
 30
0.0
 10
10.6924184489
 20
7.7250226741
 30
0.0
 10
10.6828532356
 20
7.7266407587
 30
0.0
 10
10.6764764268
 20
7.7277194818
 30
0.0
  0
ENDSEC
  0
SECTION
  2
OBJECTS
  0
DICTIONARY
  5
C
100
AcDbDictionary
280
0
281
1
  3
ACAD_GROUP
350
D
  3
ACAD_MLINESTYLE
350
17
  3
ACAD_LAYOUT
350
1A
  3
ACAD_PLOTSETTINGS
350
19
  3
ACAD_PLOTSTYLENAME
350
E
  3
ACAD_IMAGE_DICT
350
       32A
  3
ACAD_IMAGE_VARS
350
       32B
  3
ACAD_TABLESTYLE
350
       32C
  0
IMAGEDEF_REACTOR
  5
329
100
AcDbRasterImageDefReactor
 90
2
330
27F
  0
DICTIONARY
  5
D
102
{ACAD_REACTORS
330
C
102
}
100
AcDbDictionary
280
0
281
1
  0
ACDBDICTIONARYWDFLT
  5
E
102
{ACAD_REACTORS
330
C
102
}
100
AcDbDictionary
281
1
  3
Normal
350
F
100
AcDbDictionaryWithDefault
340
F
  0
DICTIONARY
  5
32A
330
C
100
AcDbDictionary
281
1
  3
FAT_assy_2_img_1
350
       32F
  0
RASTERVARIABLES
  5
32B
330
C
100
AcDbRasterVariables
 90
0
 70
0
 71
1
 72
5
  0
DICTIONARY
  5
17
102
{ACAD_REACTORS
330
C
102
}
100
AcDbDictionary
280
0
281
1
  3
Standard
350
18
  0
DICTIONARY
  5
32C
330
C
100
AcDbDictionary
281
1
  3
Standard
350
       330
  3
Standard1
350
       331
  0
DICTIONARY
  5
19
102
{ACAD_REACTORS
330
C
102
}
100
AcDbDictionary
281
1
  0
DICTIONARY
  5
1A
102
{ACAD_REACTORS
330
C
102
}
100
AcDbDictionary
281
1
  3
Model
350
32D
  3
Layout1
350
32E
  0
ACDBPLACEHOLDER
  5
F
102
{ACAD_REACTORS
330
E
102
}
  0
MLINESTYLE
  5
18
102
{ACAD_REACTORS
330
17
102
}
100
AcDbMlineStyle
  2
STANDARD
 70
0
  3

 62
256
 51
90.0
 52
90.0
 71
2
 49
0.5
 62
256
  6
BYLAYER
 49
-0.5
 62
256
  6
BYLAYER
  0
LAYOUT
  5
32D
102
{ACAD_REACTORS
330
1A
102
}
100
AcDbPlotSettings
  1

  2
none_device
  4
ANSI_C_(22.00_x_17.00_Inches)
  6

 40
0.0
 41
0.0
 42
0.0
 43
0.0
 44
558.8
 45
431.8
 46
0.0
 47
0.0
 48
0.0
 49
0.0
140
0.0
141
0.0
142
1.0
143
1.0
 70
1024
 72
0
 73
0
 74
0
  7

 75
0
147
1.0
148
0.0
149
0.0
100
AcDbLayout
  1
Model
 70
0
 71
0
 10
0.0
 20
0.0
 11
22.0
 21
17.0
 12
0.0
 22
0.0
 32
0.0
 14
0.0
 24
0.0
 34
0.0
 15
0.0
 25
0.0
 35
0.0
146
0.0
 13
0.0
 23
0.0
 33
0.0
 16
1.0
 26
0.0
 36
0.0
 17
0.0
 27
1.0
 37
0.0
 76
0
330
204
345
0
346
0
  0
LAYOUT
  5
32E
102
{ACAD_REACTORS
330
1A
102
}
100
AcDbPlotSettings
  1

  2
none_device
  4
ANSI_C_(22.00_x_17.00_Inches)
  6

 40
0.0
 41
0.0
 42
0.0
 43
0.0
 44
558.8
 45
431.8
 46
0.0
 47
0.0
 48
0.0
 49
0.0
140
0.0
141
0.0
142
1.0
143
1.0
 70
0
 72
0
 73
0
 74
0
  7

 75
0
147
1.0
148
0.0
149
0.0
100
AcDbLayout
  1
Layout1
 70
0
 71
1
 10
0.0
 20
0.0
 11
22.0
 21
17.0
 12
0.0
 22
0.0
 32
0.0
 14
0.0
 24
0.0
 34
0.0
 15
0.0
 25
0.0
 35
0.0
146
0.0
 13
0.0
 23
0.0
 33
0.0
 16
1.0
 26
0.0
 36
0.0
 17
0.0
 27
1.0
 37
0.0
 76
0
330
205
345
0
346
0
  0
IMAGEDEF
  5
32F
102
{ACAD_REACTORS
330
32A
330
329
102
}
100
AcDbRasterImageDef
 90
0
  1
FAT_assy_2_img_1.png
 10
369.0
 20
92.0
 11
0.0066666667
 21
0.0066666667
280
1
281
0
  0
TABLESTYLE
  5
330
102
{ACAD_REACTORS
330
32C
330
282
330
283
102
}
330
32C
100
AcDbTableStyle
  3
Standard
 70
0
 71
0
 40
0.06
 41
0.06
280
1
281
1
  7
Standard
140
0.18
170
1
 62
0
 63
7
283
0
  7
Standard
140
0.18
170
1
 62
0
 63
7
283
0
  7
Standard
140
0.18
170
1
 62
0
 63
7
283
0
  0
TABLESTYLE
  5
331
102
{ACAD_REACTORS
330
32C
330
281
102
}
330
32C
100
AcDbTableStyle
  3
Standard1
 70
1
 71
0
 40
0.06
 41
0.06
280
1
281
1
  7
Standard
140
0.18
170
1
 62
0
 63
7
283
0
  7
Standard
140
0.18
170
1
 62
0
 63
7
283
0
  7
Standard
140
0.18
170
1
 62
0
 63
7
283
0
  0
ENDSEC
  0
EOF
