999
DXF file: FAL_assy_2.dxf
999
Pro/ENGINEER 2014200 by Parametric Technology Corporation
  0
SECTION
  2
HEADER
  9
$ACADVER
  1
AC1021
  9
$DWGCODEPAGE
  3
ANSI_1252
  9
$EXTMAX
 10
22.0
 20
17.0
 30
0.0
  9
$EXTMIN
 10
0.0
 20
0.0
 30
0.0
  9
$LIMMIN
 10
0.0
 20
0.0
  9
$LIMMAX
 10
22.0
 20
17.0
  9
$VIEWCTR
 10
11.0
 20
8.5
  9
$VIEWSIZE
 40
17.0
  9
$CLAYER
  8
0
  9
$LTSCALE
 40
1.21
  9
$CELTYPE
  6
BYLAYER
  9
$DIMSCALE
 40
1.0
  9
$DIMASZ
 40
0.1875
  9
$DIMEXO
 40
0.0625
  9
$DIMDLI
 40
0.836
  9
$DIMEXE
 40
0.125
  9
$DIMCEN
 40
0.198
  9
$DIMLFAC
 40
1.0
  9
$DIMBLK
  1
_FILLED
  9
$DIMTXT
 40
0.1
  9
$DIMTOL
 70
0
  9
$DIMLIM
 70
0
  9
$DIMTFAC
 40
1.0
  9
$DIMGAP
 40
0.09
  9
$DIMDSEP
 70
46
  9
$AUNITS
 70
0
  9
$PDMODE
 70
3
  9
$PDSIZE
 40
0.3125
  9
$HANDSEED
  5
33C
  9
$TILEMODE
 70
1
  9
$MEASUREMENT
 70
0
  9
$INSUNITS
 70
1
  0
ENDSEC
  0
SECTION
  2
CLASSES
  0
CLASS
  1
ACDBDICTIONARYWDFLT
  2
AcDbDictionaryWithDefault
  3
AutoCAD 2000
 90
0
 91
1
280
0
281
0
  0
CLASS
  1
ACDBPLACEHOLDER
  2
AcDbPlaceHolder
  3
AutoCAD 2000
 90
0
 91
1
280
0
281
0
  0
CLASS
  1
LAYOUT
  2
AcDbLayout
  3
AutoCAD 2000
 90
0
 91
0
280
0
281
0
  0
CLASS
  1
RASTERVARIABLES
  2
AcDbRasterVariables
  3
ISM
 90
0
 91
1
280
0
281
0
  0
CLASS
  1
IMAGEDEF
  2
AcDbRasterImageDef
  3
ISM
 90
0
 91
1
280
0
281
0
  0
CLASS
  1
IMAGEDEF_REACTOR
  2
AcDbRasterImageDefReactor
  3
ISM
 90
0
 91
1
280
0
281
0
  0
CLASS
  1
IMAGE
  2
AcDbRasterImage
  3
ISM
 90
127
 91
1
280
0
281
1
  0
CLASS
  1
TABLESTYLE
  2
AcDbTableStyle
  3
ObjectDBX Classes
 90
2047
 91
1
280
0
281
0
  0
CLASS
  1
ACAD_TABLE
  2
AcDbTable
  3
ObjectDBX Classes
 90
1025
 91
3
280
0
281
1
  0
ENDSEC
  0
SECTION
  2
TABLES
  0
TABLE
  2
VPORT
  5
8
100
AcDbSymbolTable
 70
2
  0
VPORT
  5
1F4
100
AcDbSymbolTableRecord
100
AcDbViewportTableRecord
  2
*ACTIVE
 70
0
 10
0.0
 20
0.0
 11
1.0
 21
1.0
 12
11.0
 22
8.5
 13
0.0
 23
0.0
 14
1.0
 24
1.0
 15
0.0
 25
0.0
 16
0.0
 26
0.0
 36
1.0
 17
0.0
 27
0.0
 37
0.0
 40
17.0
 41
1.2941176471
 42
50.0
 43
0.0
 44
0.0
 50
0.0
 51
0.0
 71
0
 72
100
 73
1
 74
1
 75
0
 76
0
 77
0
 78
0
  0
ENDTAB
  0
TABLE
  2
LTYPE
  5
5
100
AcDbSymbolTable
 70
6
  0
LTYPE
  5
14
100
AcDbSymbolTableRecord
100
AcDbLinetypeTableRecord
  2
BYBLOCK
 70
0
  3

 72
65
 73
0
 40
0.0
  0
LTYPE
  5
15
100
AcDbSymbolTableRecord
100
AcDbLinetypeTableRecord
  2
BYLAYER
 70
0
  3

 72
65
 73
0
 40
0.0
  0
LTYPE
  5
16
100
AcDbSymbolTableRecord
100
AcDbLinetypeTableRecord
  2
CONTINUOUS
 70
64
  3
Solid line
 72
65
 73
0
 40
0.0
  0
LTYPE
  5
1F5
100
AcDbSymbolTableRecord
100
AcDbLinetypeTableRecord
  2
CENTER
 70
64
  3
____ _ ____ _ ____ _ ____ _ ____ _ ____ _ ____
 72
65
 73
4
 40
0.6
 49
0.375
 74
0
 49
-0.075
 74
0
 49
0.075
 74
0
 49
-0.075
 74
0
  0
LTYPE
  5
1F6
100
AcDbSymbolTableRecord
100
AcDbLinetypeTableRecord
  2
HIDDEN
 70
64
  3
- - - - - - - - - - - - - - - - - - - -
 72
65
 73
2
 40
0.2
 49
0.1
 74
0
 49
-0.1
 74
0
  0
LTYPE
  5
1F7
100
AcDbSymbolTableRecord
100
AcDbLinetypeTableRecord
  2
PHANTOM
 70
64
  3
_____ _ _ _____ _ _ _____ _ _ _____
 72
65
 73
6
 40
0.8
 49
0.45
 74
0
 49
-0.05
 74
0
 49
0.1
 74
0
 49
-0.05
 74
0
 49
0.1
 74
0
 49
-0.05
 74
0
  0
LTYPE
  5
1F8
100
AcDbSymbolTableRecord
100
AcDbLinetypeTableRecord
  2
DOT
 70
64
  3
. . . . . . . . . . . . . . . . . . . .
 72
65
 73
2
 40
0.2
 49
0.1
 74
0
 49
-0.1
 74
0
  0
LTYPE
  5
1F9
100
AcDbSymbolTableRecord
100
AcDbLinetypeTableRecord
  2
DASHED
 70
64
  3
- - - - - - - - - - - - - - - - - - - -
 72
65
 73
2
 40
0.2
 49
0.1
 74
0
 49
-0.1
 74
0
  0
ENDTAB
  0
TABLE
  2
LAYER
  5
2
100
AcDbSymbolTable
 70
36
  0
LAYER
  5
10
100
AcDbSymbolTableRecord
100
AcDbLayerTableRecord
  2
0
 70
0
 62
7
  6
CONTINUOUS
370
-3
390
F
  0
LAYER
  5
1FA
100
AcDbSymbolTableRecord
100
AcDbLayerTableRecord
  2
DEFAULT_1
 70
0
 62
7
  6
CENTER
370
-3
390
F
  0
LAYER
  5
1FB
100
AcDbSymbolTableRecord
100
AcDbLayerTableRecord
  2
DEFAULT_2
 70
0
 62
8
  6
HIDDEN
370
-3
390
F
  0
LAYER
  5
1FC
100
AcDbSymbolTableRecord
100
AcDbLayerTableRecord
  2
DEFAULT_3
 70
0
 62
7
  6
PHANTOM
370
-3
390
F
  0
LAYER
  5
1FD
100
AcDbSymbolTableRecord
100
AcDbLayerTableRecord
  2
DATUM_PLANES
 70
0
 62
7
  6
CONTINUOUS
370
-3
390
F
  0
LAYER
  5
1FE
100
AcDbSymbolTableRecord
100
AcDbLayerTableRecord
  2
PORT_AREAS
 70
0
 62
7
  6
CONTINUOUS
370
-3
390
F
  0
LAYER
  5
1FF
100
AcDbSymbolTableRecord
100
AcDbLayerTableRecord
  2
SUNNBOMCOSMETIC
 70
0
 62
7
  6
CONTINUOUS
370
-3
390
F
  0
LAYER
  5
200
100
AcDbSymbolTableRecord
100
AcDbLayerTableRecord
  2
SUNNBOMSTAMPING
 70
0
 62
7
  6
CONTINUOUS
370
-3
390
F
  0
LAYER
  5
201
100
AcDbSymbolTableRecord
100
AcDbLayerTableRecord
  2
THREADS
 70
0
 62
7
  6
CONTINUOUS
370
-3
390
F
  0
ENDTAB
  0
TABLE
  2
STYLE
  5
3
100
AcDbSymbolTable
 70
1
  0
STYLE
  5
11
100
AcDbSymbolTableRecord
100
AcDbTextStyleTableRecord
  2
STANDARD
 70
0
 40
0.0
 41
0.8
 50
0.0
 71
0
 42
0.2
  3
txt
  4

  0
STYLE
  5
202
100
AcDbSymbolTableRecord
100
AcDbTextStyleTableRecord
  2
TEXTSTYLE_1
 70
0
 40
0.0
 41
0.8
 50
0.0
 71
0
 42
0.2
  3
gdt
  4

  0
ENDTAB
  0
TABLE
  2
VIEW
  5
6
100
AcDbSymbolTable
 70
0
  0
ENDTAB
  0
TABLE
  2
UCS
  5
7
100
AcDbSymbolTable
 70
0
  0
ENDTAB
  0
TABLE
  2
APPID
  5
9
100
AcDbSymbolTable
 70
1
  0
APPID
  5
203
100
AcDbSymbolTableRecord
100
AcDbRegAppTableRecord
  2
ACAD
 70
0
  0
ENDTAB
  0
TABLE
  2
BLOCK_RECORD
  5
1
100
AcDbSymbolTable
 70
0
  0
BLOCK_RECORD
  5
204
100
AcDbSymbolTableRecord
100
AcDbBlockTableRecord
  2
*Model_Space
  0
BLOCK_RECORD
  5
205
100
AcDbSymbolTableRecord
100
AcDbBlockTableRecord
  2
*Paper_Space
  0
BLOCK_RECORD
  5
206
100
AcDbSymbolTableRecord
100
AcDbBlockTableRecord
  2
SUN_FIRST_THIRD_ANGLE_BL0
  0
BLOCK_RECORD
  5
207
100
AcDbSymbolTableRecord
100
AcDbBlockTableRecord
  2
*T1
  0
BLOCK_RECORD
  5
208
100
AcDbSymbolTableRecord
100
AcDbBlockTableRecord
  2
*T2
  0
BLOCK_RECORD
  5
209
100
AcDbSymbolTableRecord
100
AcDbBlockTableRecord
  2
*T3
  0
ENDTAB
  0
TABLE
  2
DIMSTYLE
  5
A
100
AcDbSymbolTable
 70
1
100
AcDbDimStyleTable
 71
0
  0
DIMSTYLE
105
20A
100
AcDbSymbolTableRecord
100
AcDbDimStyleTableRecord
  2
STANDARD
 70
0
  3

  4

 40
1.0
 41
0.1875
 42
0.0625
 43
0.38
 44
0.125
 45
0.0
 46
0.0
 47
0.001
 48
0.001
140
0.1
141
0.09
142
0.0
143
25.4
144
1.0
145
0.0
146
1.0
147
0.09
 71
0.0
 72
0.0
 73
1
 74
1
 75
0
 76
0
 77
0
 78
4
170
0
171
2
172
0
173
0
174
0
175
0
176
0
177
0
178
0
270
2
271
3
272
3
273
2
274
2
275
0
280
0
281
0
282
0
283
1
284
4
285
0
286
0
287
3
288
0
340
11
278
46
  0
ENDTAB
  0
ENDSEC
  0
SECTION
  2
BLOCKS
  0
BLOCK
  5
20
100
AcDbEntity
  8
0
100
AcDbBlockBegin
  2
*Model_Space
 70
0
 10
0.0
 20
0.0
 30
0.0
  3
*Model_Space
  1

  0
ENDBLK
  5
21
100
AcDbEntity
  8
0
100
AcDbBlockEnd
  0
BLOCK
  5
1C
100
AcDbEntity
  8
0
100
AcDbBlockBegin
  2
*Paper_Space
 70
0
 10
0.0
 20
0.0
 30
0.0
  3
*Paper_Space
  1

  0
ENDBLK
  5
1D
100
AcDbEntity
  8
0
100
AcDbBlockEnd
  0
BLOCK
  5
20B
100
AcDbEntity
  8
0
100
AcDbBlockBegin
 62
2
  6
CONTINUOUS
  2
SUN_FIRST_THIRD_ANGLE_BL0
 70
64
 10
20.4816717061
 20
1.2289683772
  3
SUN_FIRST_THIRD_ANGLE_BL0
  1

  0
TEXT
  5
20C
100
AcDbEntity
  8
0
100
AcDbText
 62
2
  6
CONTINUOUS
 10
19.4750896608
 20
1.4136269581
  7
STANDARD
 40
0.08
  1
FIRST ANGLE
 41
0.8
 72
0
100
AcDbText
  0
TEXT
  5
20D
100
AcDbEntity
  8
0
100
AcDbText
 62
2
  6
CONTINUOUS
 10
20.7842537513
 20
1.4047600029
  7
STANDARD
 40
0.08
  1
THIRD ANGLE
 41
0.8
 72
0
100
AcDbText
  0
LINE
  5
20E
100
AcDbEntity
  8
0
100
AcDbLine
 62
7
  6
CONTINUOUS
 10
19.4767170086
 20
1.1727031207
 11
19.6334271527
 21
1.1717972817
  0
LINE
  5
20F
100
AcDbEntity
  8
0
100
AcDbLine
 62
7
  6
CONTINUOUS
 10
19.6596964832
 20
1.1717972817
 11
19.6950230232
 21
1.171593082
  0
LINE
  5
210
100
AcDbEntity
  8
0
100
AcDbLine
 62
7
  6
CONTINUOUS
 10
19.7194818561
 20
1.1708914427
 11
19.8852396156
 21
1.1699333054
  0
LINE
  5
211
100
AcDbEntity
  8
0
100
AcDbLine
 62
7
  6
CONTINUOUS
 10
19.4758111696
 20
1.2723454088
 11
19.88525039
 21
1.3511534004
  0
LINE
  5
212
100
AcDbEntity
  8
0
100
AcDbLine
 62
7
  6
CONTINUOUS
 10
19.88525039
 20
1.3511534004
 11
19.8831348489
 21
0.9851647912
  0
LINE
  5
213
100
AcDbEntity
  8
0
100
AcDbLine
 62
7
  6
CONTINUOUS
 10
19.8831348489
 20
0.9851647912
 11
19.4767170086
 21
1.0658141206
  0
LINE
  5
214
100
AcDbEntity
  8
0
100
AcDbLine
 62
7
  6
CONTINUOUS
 10
19.4767170086
 20
1.0658141206
 11
19.4779056764
 21
1.2714536432
  0
CIRCLE
  5
215
100
AcDbEntity
  8
0
100
AcDbCircle
 62
7
  6
CONTINUOUS
 10
20.2068232291
 20
1.1717972817
 40
0.175742101
  0
CIRCLE
  5
216
100
AcDbEntity
  8
0
100
AcDbCircle
 62
7
  6
CONTINUOUS
 10
20.2068232291
 20
1.1717972817
 40
0.1005522074
  0
LINE
  5
217
100
AcDbEntity
  8
0
100
AcDbLine
 62
7
  6
CONTINUOUS
 10
20.2077290681
 20
1.3756110529
 11
20.2071171714
 21
1.2379342989
  0
LINE
  5
218
100
AcDbEntity
  8
0
100
AcDbLine
 62
7
  6
CONTINUOUS
 10
20.2077290681
 20
1.2016899681
 11
20.2074674401
 21
1.1428236749
  0
LINE
  5
219
100
AcDbEntity
  8
0
100
AcDbLine
 62
7
  6
CONTINUOUS
 10
20.208634907
 20
1.101141841
 11
20.2080230104
 21
0.963465087
  0
LINE
  5
21A
100
AcDbEntity
  8
0
100
AcDbLine
 62
7
  6
CONTINUOUS
 10
20.0066328138
 20
1.1745147986
 11
20.1443095678
 21
1.1739029019
  0
LINE
  5
21B
100
AcDbEntity
  8
0
100
AcDbLine
 62
7
  6
CONTINUOUS
 10
20.1832714155
 20
1.1727031207
 11
20.238153505
 21
1.172335442
  0
LINE
  5
21C
100
AcDbEntity
  8
0
100
AcDbLine
 62
7
  6
CONTINUOUS
 10
20.2756669918
 20
1.1717972817
 11
20.407916871
 21
1.1712095044
  0
CIRCLE
  5
21D
100
AcDbEntity
  8
0
100
AcDbCircle
 62
7
  6
CONTINUOUS
 10
20.7509457401
 20
1.1693297793
 40
0.1722024983
  0
CIRCLE
  5
21E
100
AcDbEntity
  8
0
100
AcDbCircle
 62
7
  6
CONTINUOUS
 10
20.7509457401
 20
1.1693297793
 40
0.0985164967
  0
LINE
  5
21F
100
AcDbEntity
  8
0
100
AcDbLine
 62
7
  6
CONTINUOUS
 10
20.7169767782
 20
1.170462078
 11
20.7825395137
 21
1.1682766535
  0
LINE
  5
220
100
AcDbEntity
  8
0
100
AcDbLine
 62
7
  6
CONTINUOUS
 10
20.8177513651
 20
1.1693297793
 11
20.947965719
 21
1.1693297793
  0
LINE
  5
221
100
AcDbEntity
  8
0
100
AcDbLine
 62
7
  6
CONTINUOUS
 10
20.6875370113
 20
1.170462078
 11
20.5573226574
 21
1.170462078
  0
LINE
  5
222
100
AcDbEntity
  8
0
100
AcDbLine
 62
7
  6
CONTINUOUS
 10
20.7486811426
 20
1.1987695462
 11
20.7486811426
 21
1.1432869085
  0
LINE
  5
223
100
AcDbEntity
  8
0
100
AcDbLine
 62
7
  6
CONTINUOUS
 10
20.7498134414
 20
1.1059210505
 11
20.7498134414
 21
0.9757066966
  0
LINE
  5
224
100
AcDbEntity
  8
0
100
AcDbLine
 62
7
  6
CONTINUOUS
 10
20.7486811426
 20
1.2338708068
 11
20.7486811426
 21
1.3640851607
  0
LINE
  5
225
100
AcDbEntity
  8
0
100
AcDbLine
 62
7
  6
CONTINUOUS
 10
21.0702539817
 20
1.2701043662
 11
21.4790138229
 21
1.3448360823
  0
LINE
  5
226
100
AcDbEntity
  8
0
100
AcDbLine
 62
7
  6
CONTINUOUS
 10
21.4790138229
 20
1.3448360823
 11
21.4790138229
 21
0.9779712941
  0
LINE
  5
227
100
AcDbEntity
  8
0
100
AcDbLine
 62
7
  6
CONTINUOUS
 10
21.4790138229
 20
0.9779712941
 11
21.069121683
 21
1.0617614
  0
LINE
  5
228
100
AcDbEntity
  8
0
100
AcDbLine
 62
7
  6
CONTINUOUS
 10
21.0702539817
 20
1.2701043662
 11
21.069121683
 21
1.0617614
  0
LINE
  5
229
100
AcDbEntity
  8
0
100
AcDbLine
 62
7
  6
CONTINUOUS
 10
21.4790138229
 20
1.1693297793
 11
21.3159628059
 21
1.1693297793
  0
LINE
  5
22A
100
AcDbEntity
  8
0
100
AcDbLine
 62
7
  6
CONTINUOUS
 10
21.2876553377
 20
1.1693297793
 11
21.2502894796
 21
1.1693297793
  0
LINE
  5
22B
100
AcDbEntity
  8
0
100
AcDbLine
 62
7
  6
CONTINUOUS
 10
21.2208497126
 20
1.1659328831
 11
21.0713862804
 21
1.1659328831
  0
LINE
  5
22C
100
AcDbEntity
  8
0
100
AcDbLine
 62
7
  6
CONTINUOUS
 10
20.4796138713
 20
1.5284908897
 11
20.4766766948
 21
0.9294458646
  0
ENDBLK
  5
22D
100
AcDbEntity
  8
0
  6
BYBLOCK
 62
0
100
AcDbBlockEnd
  0
BLOCK
  5
22E
100
AcDbEntity
  8
0
100
AcDbBlockBegin
  2
*T1
 70
1
 10
0.0
 20
0.0
  3
*T1
  1

  0
LINE
  5
22F
100
AcDbEntity
  8
0
100
AcDbLine
 62
2
  6
CONTINUOUS
 10
9.275
 20
0.0
 11
-0.0
 21
0.0
  0
LINE
  5
230
100
AcDbEntity
  8
0
100
AcDbLine
 62
2
  6
CONTINUOUS
 10
9.275
 20
0.0
 11
9.275
 21
1.25
  0
LINE
  5
231
100
AcDbEntity
  8
0
100
AcDbLine
 62
2
  6
CONTINUOUS
 10
9.275
 20
0.625
 11
-0.0
 21
0.625
  0
LINE
  5
232
100
AcDbEntity
  8
0
100
AcDbLine
 62
2
  6
CONTINUOUS
 10
9.275
 20
1.25
 11
-0.0
 21
1.25
  0
LINE
  5
233
100
AcDbEntity
  8
0
100
AcDbLine
 62
2
  6
CONTINUOUS
 10
6.8
 20
0.0
 11
6.8
 21
1.25
  0
LINE
  5
234
100
AcDbEntity
  8
0
100
AcDbLine
 62
2
  6
CONTINUOUS
 10
6.4
 20
0.0
 11
6.4
 21
0.625
  0
LINE
  5
235
100
AcDbEntity
  8
0
100
AcDbLine
 62
2
  6
CONTINUOUS
 10
5.9
 20
0.0
 11
5.9
 21
0.625
  0
LINE
  5
236
100
AcDbEntity
  8
0
100
AcDbLine
 62
2
  6
CONTINUOUS
 10
5.2
 20
0.0
 11
5.2
 21
0.625
  0
LINE
  5
237
100
AcDbEntity
  8
0
100
AcDbLine
 62
2
  6
CONTINUOUS
 10
4.1
 20
0.0
 11
4.1
 21
1.25
  0
LINE
  5
238
100
AcDbEntity
  8
0
100
AcDbLine
 62
2
  6
CONTINUOUS
 10
-0.0
 20
0.0
 11
-0.0
 21
1.25
  0
MTEXT
  5
239
100
AcDbEntity
  8
0
100
AcDbMText
 62
2
  6
CONTINUOUS
  7
STANDARD
 71
2
 72
1
 10
6.6
 20
0.325
 30
0.0
 11
1.0
 21
0.0
 31
0.0
 44
0.9
  1
2
 40
0.125
 41
0.2
  0
MTEXT
  5
23A
100
AcDbEntity
  8
0
100
AcDbMText
 62
2
  6
CONTINUOUS
  7
STANDARD
 71
2
 72
1
 10
6.15
 20
0.325
 30
0.0
 11
1.0
 21
0.0
 31
0.0
 44
0.9
  1
C
 40
0.125
 41
0.2
  0
MTEXT
  5
23B
100
AcDbEntity
  8
0
100
AcDbMText
 62
2
  6
CONTINUOUS
  7
STANDARD
 71
2
 72
1
 10
5.55
 20
0.325
 30
0.0
 11
1.0
 21
0.0
 31
0.0
 44
0.9
  1
2.000
 40
0.125
 41
1.0
  0
MTEXT
  5
23C
100
AcDbEntity
  8
0
100
AcDbMText
 62
2
  6
CONTINUOUS
  7
STANDARD
 71
2
 72
1
 10
4.65
 20
0.325
 30
0.0
 11
1.0
 21
0.0
 31
0.0
 44
0.9
  1
Jul-31-19
 40
0.125
 41
1.8
  0
MTEXT
  5
23D
100
AcDbEntity
  8
0
100
AcDbMText
 62
2
  6
CONTINUOUS
  7
STANDARD
 71
2
 72
1
 10
2.05
 20
0.4625
 30
0.0
 11
1.0
 21
0.0
 31
0.0
 44
0.9
  1
T-10A Line mount\PNinety degree
 40
0.125
 41
3.2
  0
MTEXT
  5
23E
100
AcDbEntity
  8
0
100
AcDbMText
 62
2
  6
CONTINUOUS
  7
STANDARD
 71
1
 72
1
 10
6.45
 20
0.5625
 30
0.0
 11
1.0
 21
0.0
 31
0.0
 44
0.9
  1
SHEET
 40
0.06
 41
0.48
  0
MTEXT
  5
23F
100
AcDbEntity
  8
0
100
AcDbMText
 62
2
  6
CONTINUOUS
  7
STANDARD
 71
1
 72
1
 10
5.95
 20
0.5625
 30
0.0
 11
1.0
 21
0.0
 31
0.0
 44
0.9
  1
DWG SIZE
 40
0.06
 41
0.768
  0
MTEXT
  5
240
100
AcDbEntity
  8
0
100
AcDbMText
 62
2
  6
CONTINUOUS
  7
STANDARD
 71
1
 72
1
 10
5.25
 20
0.5625
 30
0.0
 11
1.0
 21
0.0
 31
0.0
 44
0.9
  1
SCALE
 40
0.06
 41
0.48
  0
MTEXT
  5
241
100
AcDbEntity
  8
0
100
AcDbMText
 62
2
  6
CONTINUOUS
  7
STANDARD
 71
1
 72
1
 10
4.15
 20
0.5625
 30
0.0
 11
1.0
 21
0.0
 31
0.0
 44
0.9
  1
DATE
 40
0.06
 41
0.384
  0
MTEXT
  5
242
100
AcDbEntity
  8
0
100
AcDbMText
 62
2
  6
CONTINUOUS
  7
STANDARD
 71
1
 72
1
 10
0.05
 20
0.5625
 30
0.0
 11
1.0
 21
0.0
 31
0.0
 44
0.9
  1
DESCRIPTION
 40
0.06
 41
1.056
  0
MTEXT
  5
243
100
AcDbEntity
  8
0
100
AcDbMText
 62
2
  6
CONTINUOUS
  7
STANDARD
 71
2
 72
1
 10
5.45
 20
1.0375
 30
0.0
 11
1.0
 21
0.0
 31
0.0
 44
0.9
  1
ALL DIMENSIONS IN INCH\PVIEWS ARE THIRD ANGLE
 40
0.12
 41
4.224
  0
MTEXT
  5
244
100
AcDbEntity
  8
0
100
AcDbMText
 62
2
  6
CONTINUOUS
  7
STANDARD
 71
2
 72
1
 10
2.05
 20
0.95
 30
0.0
 11
1.0
 21
0.0
 31
0.0
 44
0.9
  1
FAL
 40
0.125
 41
0.6
  0
MTEXT
  5
245
100
AcDbEntity
  8
0
100
AcDbMText
 62
2
  6
CONTINUOUS
  7
STANDARD
 71
1
 72
1
 10
0.05
 20
1.1875
 30
0.0
 11
1.0
 21
0.0
 31
0.0
 44
0.9
  1
MODEL
 40
0.06
 41
0.48
  0
ENDBLK
  5
246
100
AcDbEntity
  8
0
  6
BYBLOCK
 62
0
100
AcDbBlockEnd
  0
BLOCK
  5
247
100
AcDbEntity
  8
0
100
AcDbBlockBegin
  2
*T2
 70
1
 10
0.0
 20
0.0
  3
*T2
  1

  0
LINE
  5
248
100
AcDbEntity
  8
0
100
AcDbLine
 62
2
  6
CONTINUOUS
 10
0.0
 20
0.0
 11
9.055
 21
0.0
  0
LINE
  5
249
100
AcDbEntity
  8
0
100
AcDbLine
 62
2
  6
CONTINUOUS
 10
0.0
 20
0.0
 11
0.0
 21
-2.594
  0
LINE
  5
24A
100
AcDbEntity
  8
0
100
AcDbLine
 62
2
  6
CONTINUOUS
 10
0.0
 20
-0.344
 11
9.055
 21
-0.344
  0
LINE
  5
24B
100
AcDbEntity
  8
0
100
AcDbLine
 62
2
  6
CONTINUOUS
 10
0.0
 20
-0.594
 11
9.055
 21
-0.594
  0
LINE
  5
24C
100
AcDbEntity
  8
0
100
AcDbLine
 62
2
  6
CONTINUOUS
 10
0.0
 20
-0.844
 11
9.055
 21
-0.844
  0
LINE
  5
24D
100
AcDbEntity
  8
0
100
AcDbLine
 62
2
  6
CONTINUOUS
 10
0.0
 20
-1.094
 11
9.055
 21
-1.094
  0
LINE
  5
24E
100
AcDbEntity
  8
0
100
AcDbLine
 62
2
  6
CONTINUOUS
 10
0.0
 20
-1.344
 11
9.055
 21
-1.344
  0
LINE
  5
24F
100
AcDbEntity
  8
0
100
AcDbLine
 62
2
  6
CONTINUOUS
 10
0.0
 20
-1.594
 11
9.055
 21
-1.594
  0
LINE
  5
250
100
AcDbEntity
  8
0
100
AcDbLine
 62
2
  6
CONTINUOUS
 10
0.0
 20
-1.844
 11
9.055
 21
-1.844
  0
LINE
  5
251
100
AcDbEntity
  8
0
100
AcDbLine
 62
2
  6
CONTINUOUS
 10
0.0
 20
-2.094
 11
9.055
 21
-2.094
  0
LINE
  5
252
100
AcDbEntity
  8
0
100
AcDbLine
 62
2
  6
CONTINUOUS
 10
0.0
 20
-2.344
 11
9.055
 21
-2.344
  0
LINE
  5
253
100
AcDbEntity
  8
0
100
AcDbLine
 62
2
  6
CONTINUOUS
 10
0.0
 20
-2.594
 11
9.055
 21
-2.594
  0
LINE
  5
254
100
AcDbEntity
  8
0
100
AcDbLine
 62
2
  6
CONTINUOUS
 10
3.055
 20
0.0
 11
3.055
 21
-2.594
  0
LINE
  5
255
100
AcDbEntity
  8
0
100
AcDbLine
 62
2
  6
CONTINUOUS
 10
9.055
 20
0.0
 11
9.055
 21
-2.594
  0
MTEXT
  5
256
100
AcDbEntity
  8
0
100
AcDbMText
 62
2
  6
CONTINUOUS
  7
STANDARD
 71
2
 72
1
 10
1.5275
 20
-0.0995
 30
0.0
 11
1.0
 21
0.0
 31
0.0
 44
0.9
  1
Technical Data
 40
0.145
 41
3.248
  0
MTEXT
  5
257
100
AcDbEntity
  8
0
100
AcDbMText
 62
2
  6
CONTINUOUS
  7
STANDARD
 71
2
 72
1
 10
4.555
 20
-0.0995
 30
0.0
 11
1.0
 21
0.0
 31
0.0
 44
0.9
  1
U.S. Units
 40
0.145
 41
2.32
  0
MTEXT
  5
258
100
AcDbEntity
  8
0
100
AcDbMText
 62
2
  6
CONTINUOUS
  7
STANDARD
 71
2
 72
1
 10
7.555
 20
-0.0995
 30
0.0
 11
1.0
 21
0.0
 31
0.0
 44
0.9
  1
Metric Units
 40
0.145
 41
2.784
  0
MTEXT
  5
259
100
AcDbEntity
  8
0
100
AcDbMText
 62
2
  6
CONTINUOUS
  7
STANDARD
 71
2
 72
1
 10
1.5275
 20
-0.4065
 30
0.0
 11
1.0
 21
0.0
 31
0.0
 44
0.9
  1
Cavity
 40
0.125
 41
1.2
  0
MTEXT
  5
25A
100
AcDbEntity
  8
0
100
AcDbMText
 62
2
  6
CONTINUOUS
  7
STANDARD
 71
2
 72
1
 10
6.055
 20
-0.4065
 30
0.0
 11
1.0
 21
0.0
 31
0.0
 44
0.9
  1
T-10A
 40
0.125
 41
1.0
  0
MTEXT
  5
25B
100
AcDbEntity
  8
0
100
AcDbMText
 62
2
  6
CONTINUOUS
  7
STANDARD
 71
2
 72
1
 10
1.5275
 20
-0.6565
 30
0.0
 11
1.0
 21
0.0
 31
0.0
 44
0.9
  1
Body Features
 40
0.125
 41
2.6
  0
MTEXT
  5
25C
100
AcDbEntity
  8
0
100
AcDbMText
 62
2
  6
CONTINUOUS
  7
STANDARD
 71
2
 72
1
 10
6.055
 20
-0.6565
 30
0.0
 11
1.0
 21
0.0
 31
0.0
 44
0.9
  1
Ninety degree
 40
0.125
 41
2.6
  0
MTEXT
  5
25D
100
AcDbEntity
  8
0
100
AcDbMText
 62
2
  6
CONTINUOUS
  7
STANDARD
 71
2
 72
1
 10
1.5275
 20
-0.9065
 30
0.0
 11
1.0
 21
0.0
 31
0.0
 44
0.9
  1
Body Type
 40
0.125
 41
1.8
  0
MTEXT
  5
25E
100
AcDbEntity
  8
0
100
AcDbMText
 62
2
  6
CONTINUOUS
  7
STANDARD
 71
2
 72
1
 10
6.055
 20
-0.9065
 30
0.0
 11
1.0
 21
0.0
 31
0.0
 44
0.9
  1
Line mount
 40
0.125
 41
2.0
  0
MTEXT
  5
25F
100
AcDbEntity
  8
0
100
AcDbMText
 62
2
  6
CONTINUOUS
  7
STANDARD
 71
2
 72
1
 10
1.5275
 20
-1.1565
 30
0.0
 11
1.0
 21
0.0
 31
0.0
 44
0.9
  1
Interface
 40
0.125
 41
1.8
  0
MTEXT
  5
260
100
AcDbEntity
  8
0
100
AcDbMText
 62
2
  6
CONTINUOUS
  7
STANDARD
 71
2
 72
1
 10
6.055
 20
-1.1565
 30
0.0
 11
1.0
 21
0.0
 31
0.0
 44
0.9
  1
None
 40
0.125
 41
0.8
  0
MTEXT
  5
261
100
AcDbEntity
  8
0
100
AcDbMText
 62
2
  6
CONTINUOUS
  7
STANDARD
 71
2
 72
1
 10
1.5275
 20
-1.4065
 30
0.0
 11
1.0
 21
0.0
 31
0.0
 44
0.9
  1
Open Cavity Quantity
 40
0.125
 41
4.0
  0
MTEXT
  5
262
100
AcDbEntity
  8
0
100
AcDbMText
 62
2
  6
CONTINUOUS
  7
STANDARD
 71
2
 72
1
 10
6.055
 20
-1.4065
 30
0.0
 11
1.0
 21
0.0
 31
0.0
 44
0.9
  1
1
 40
0.125
 41
0.2
  0
MTEXT
  5
263
100
AcDbEntity
  8
0
100
AcDbMText
 62
2
  6
CONTINUOUS
  7
STANDARD
 71
2
 72
1
 10
1.5275
 20
-1.6565
 30
0.0
 11
1.0
 21
0.0
 31
0.0
 44
0.9
  1
Weight
 40
0.125
 41
1.2
  0
MTEXT
  5
264
100
AcDbEntity
  8
0
100
AcDbMText
 62
2
  6
CONTINUOUS
  7
STANDARD
 71
2
 72
1
 10
4.555
 20
-1.6565
 30
0.0
 11
1.0
 21
0.0
 31
0.0
 44
0.9
  1
0.734 lb.
 40
0.125
 41
1.8
  0
MTEXT
  5
265
100
AcDbEntity
  8
0
100
AcDbMText
 62
2
  6
CONTINUOUS
  7
STANDARD
 71
2
 72
1
 10
7.555
 20
-1.6565
 30
0.0
 11
1.0
 21
0.0
 31
0.0
 44
0.9
  1
0,333 kg.
 40
0.125
 41
1.8
  0
MTEXT
  5
266
100
AcDbEntity
  8
0
100
AcDbMText
 62
2
  6
CONTINUOUS
  7
STANDARD
 71
2
 72
1
 10
1.5275
 20
-1.9065
 30
0.0
 11
1.0
 21
0.0
 31
0.0
 44
0.9
  1
Mounting Hole Diameter
 40
0.125
 41
4.4
  0
MTEXT
  5
267
100
AcDbEntity
  8
0
100
AcDbMText
 62
2
  6
CONTINUOUS
  7
STANDARD
 71
2
 72
1
 10
4.555
 20
-1.9065
 30
0.0
 11
1.0
 21
0.0
 31
0.0
 44
0.9
  1
.34 in.
 40
0.125
 41
1.4
  0
MTEXT
  5
268
100
AcDbEntity
  8
0
100
AcDbMText
 62
2
  6
CONTINUOUS
  7
STANDARD
 71
2
 72
1
 10
7.555
 20
-1.9065
 30
0.0
 11
1.0
 21
0.0
 31
0.0
 44
0.9
  1
8.6 mm
 40
0.125
 41
1.2
  0
MTEXT
  5
269
100
AcDbEntity
  8
0
100
AcDbMText
 62
2
  6
CONTINUOUS
  7
STANDARD
 71
2
 72
1
 10
1.5275
 20
-2.1565
 30
0.0
 11
1.0
 21
0.0
 31
0.0
 44
0.9
  1
Mounting Hole Depth
 40
0.125
 41
3.8
  0
MTEXT
  5
26A
100
AcDbEntity
  8
0
100
AcDbMText
 62
2
  6
CONTINUOUS
  7
STANDARD
 71
2
 72
1
 10
6.055
 20
-2.1565
 30
0.0
 11
1.0
 21
0.0
 31
0.0
 44
0.9
  1
Through
 40
0.125
 41
1.4
  0
MTEXT
  5
26B
100
AcDbEntity
  8
0
100
AcDbMText
 62
2
  6
CONTINUOUS
  7
STANDARD
 71
2
 72
1
 10
1.5275
 20
-2.4065
 30
0.0
 11
1.0
 21
0.0
 31
0.0
 44
0.9
  1
Mounting Hole Quantity
 40
0.125
 41
4.4
  0
MTEXT
  5
26C
100
AcDbEntity
  8
0
100
AcDbMText
 62
2
  6
CONTINUOUS
  7
STANDARD
 71
2
 72
1
 10
6.055
 20
-2.4065
 30
0.0
 11
1.0
 21
0.0
 31
0.0
 44
0.9
  1
1
 40
0.125
 41
0.2
  0
ENDBLK
  5
26D
100
AcDbEntity
  8
0
  6
BYBLOCK
 62
0
100
AcDbBlockEnd
  0
BLOCK
  5
26E
100
AcDbEntity
  8
0
100
AcDbBlockBegin
  2
*T3
 70
1
 10
0.0
 20
0.0
  3
*T3
  1

  0
LINE
  5
26F
100
AcDbEntity
  8
0
100
AcDbLine
 62
2
  6
CONTINUOUS
 10
0.0
 20
0.0
 11
4.6
 21
0.0
  0
LINE
  5
270
100
AcDbEntity
  8
0
100
AcDbLine
 62
2
  6
CONTINUOUS
 10
0.0
 20
0.0
 11
0.0
 21
-0.93775
  0
LINE
  5
271
100
AcDbEntity
  8
0
100
AcDbLine
 62
2
  6
CONTINUOUS
 10
0.0
 20
-0.34375
 11
4.6
 21
-0.34375
  0
LINE
  5
272
100
AcDbEntity
  8
0
100
AcDbLine
 62
2
  6
CONTINUOUS
 10
0.0
 20
-0.68775
 11
4.6
 21
-0.68775
  0
LINE
  5
273
100
AcDbEntity
  8
0
100
AcDbLine
 62
2
  6
CONTINUOUS
 10
0.0
 20
-0.93775
 11
4.6
 21
-0.93775
  0
LINE
  5
274
100
AcDbEntity
  8
0
100
AcDbLine
 62
2
  6
CONTINUOUS
 10
1.3
 20
-0.34375
 11
1.3
 21
-0.93775
  0
LINE
  5
275
100
AcDbEntity
  8
0
100
AcDbLine
 62
2
  6
CONTINUOUS
 10
3.3
 20
-0.34375
 11
3.3
 21
-0.93775
  0
LINE
  5
276
100
AcDbEntity
  8
0
100
AcDbLine
 62
2
  6
CONTINUOUS
 10
4.6
 20
0.0
 11
4.6
 21
-0.93775
  0
MTEXT
  5
277
100
AcDbEntity
  8
0
100
AcDbMText
 62
2
  6
CONTINUOUS
  7
STANDARD
 71
2
 72
1
 10
2.3
 20
-0.099375
 30
0.0
 11
1.0
 21
0.0
 31
0.0
 44
0.9
  1
Port Headings
 40
0.145
 41
3.016
  0
MTEXT
  5
278
100
AcDbEntity
  8
0
100
AcDbMText
 62
2
  6
CONTINUOUS
  7
STANDARD
 71
2
 72
1
 10
0.65
 20
-0.44325
 30
0.0
 11
1.0
 21
0.0
 31
0.0
 44
0.9
  1
Product
 40
0.145
 41
1.624
  0
MTEXT
  5
279
100
AcDbEntity
  8
0
100
AcDbMText
 62
2
  6
CONTINUOUS
  7
STANDARD
 71
2
 72
1
 10
2.3
 20
-0.44325
 30
0.0
 11
1.0
 21
0.0
 31
0.0
 44
0.9
  1
Port
 40
0.145
 41
0.928
  0
MTEXT
  5
27A
100
AcDbEntity
  8
0
100
AcDbMText
 62
2
  6
CONTINUOUS
  7
STANDARD
 71
2
 72
1
 10
3.95
 20
-0.44325
 30
0.0
 11
1.0
 21
0.0
 31
0.0
 44
0.9
  1
Size
 40
0.145
 41
0.928
  0
MTEXT
  5
27B
100
AcDbEntity
  8
0
100
AcDbMText
 62
2
  6
CONTINUOUS
  7
STANDARD
 71
2
 72
1
 10
0.65
 20
-0.75025
 30
0.0
 11
1.0
 21
0.0
 31
0.0
 44
0.9
  1
FAL
 40
0.125
 41
0.6
  0
MTEXT
  5
27C
100
AcDbEntity
  8
0
100
AcDbMText
 62
2
  6
CONTINUOUS
  7
STANDARD
 71
2
 72
1
 10
2.3
 20
-0.75025
 30
0.0
 11
1.0
 21
0.0
 31
0.0
 44
0.9
  1
All Ports
 40
0.125
 41
1.8
  0
MTEXT
  5
27D
100
AcDbEntity
  8
0
100
AcDbMText
 62
2
  6
CONTINUOUS
  7
STANDARD
 71
2
 72
1
 10
3.95
 20
-0.75025
 30
0.0
 11
1.0
 21
0.0
 31
0.0
 44
0.9
  1
SAE 12
 40
0.125
 41
1.2
  0
ENDBLK
  5
27E
100
AcDbEntity
  8
0
  6
BYBLOCK
 62
0
100
AcDbBlockEnd
  0
ENDSEC
  0
SECTION
  2
ENTITIES
  0
IMAGE
  5
27F
100
AcDbEntity
  8
0
100
AcDbRasterImage
 62
7
  6
CONTINUOUS
 10
19.2297077316
 20
0.3094318264
 30
0.0
 11
0.0066666667
 21
0.0
 31
0.0
 12
0.0
 22
0.0066666667
 32
0.0
 13
369.0
 23
92.0
340
       339
 70
9
280
0
281
50
282
50
283
0
360
       333
 71
1
 91
2
 14
-0.5
 24
-0.5
 14
368.5
 24
91.5
  0
INSERT
  5
280
100
AcDbEntity
  8
0
100
AcDbBlockReference
 62
2
  6
CONTINUOUS
  2
SUN_FIRST_THIRD_ANGLE_BL0
 10
20.4816717061
 20
1.2289683772
  0
ACAD_TABLE
  5
281
100
AcDbEntity
  8
0
 62
2
  6
CONTINUOUS
100
AcDbBlockReference
  2
*T1
 10
12.42375
 20
0.30125
 30
0.0
100
AcDbTable
342
       33B
343
207
 11
1.0
 21
0.0
 31
0.0
 90
6
 91
4
 92
6
 93
20
 94
0
 95
0
 96
0
 70
1
 41
0.0
141
0.525
141
0.1
141
0.525
141
0.1
142
4.1
142
1.1
142
0.7
142
0.5
142
0.4
142
2.475
171
1
172
0
173
0
174
0
175
1
176
1
 91
33
178
0
145
0.0
301
CELL_VALUE
 90
4
  1
T-10A Line mount\PNinety degree
304
ACVALUE_END
170
2
140
0.125
171
1
172
0
173
0
174
0
175
1
176
1
 91
33
178
0
145
0.0
301
CELL_VALUE
 90
4
  1
Jul-31-19
304
ACVALUE_END
170
5
140
0.125
171
1
172
0
173
0
174
0
175
1
176
1
 91
33
178
0
145
0.0
301
CELL_VALUE
 90
4
  1
2.000
304
ACVALUE_END
170
5
140
0.125
171
1
172
0
173
0
174
0
175
1
176
1
 91
33
178
0
145
0.0
301
CELL_VALUE
 90
4
  1
C
304
ACVALUE_END
170
5
140
0.125
171
1
172
0
173
0
174
0
175
1
176
1
 91
33
178
0
145
0.0
301
CELL_VALUE
 90
4
  1
2
304
ACVALUE_END
170
5
140
0.125
171
1
172
0
173
0
174
0
175
1
176
1
 91
33
178
0
145
0.0
301
CELL_VALUE
 90
4
  1
 
304
ACVALUE_END
170
1
140
0.125
171
1
172
0
173
0
174
0
175
1
176
1
 91
33
178
0
145
0.0
301
CELL_VALUE
 90
4
  1
DESCRIPTION
304
ACVALUE_END
170
1
140
0.06
171
1
172
0
173
0
174
0
175
1
176
1
 91
33
178
0
145
0.0
301
CELL_VALUE
 90
4
  1
DATE
304
ACVALUE_END
170
1
140
0.06
171
1
172
0
173
0
174
0
175
1
176
1
 91
33
178
0
145
0.0
301
CELL_VALUE
 90
4
  1
SCALE
304
ACVALUE_END
170
1
140
0.06
171
1
172
0
173
0
174
0
175
1
176
1
 91
33
178
0
145
0.0
301
CELL_VALUE
 90
4
  1
DWG SIZE
304
ACVALUE_END
170
1
140
0.06
171
1
172
0
173
0
174
0
175
1
176
1
 91
33
178
0
145
0.0
301
CELL_VALUE
 90
4
  1
SHEET
304
ACVALUE_END
170
1
140
0.06
171
1
172
0
173
0
174
0
175
1
176
1
 91
33
178
0
145
0.0
301
CELL_VALUE
 90
4
  1
 
304
ACVALUE_END
170
1
140
0.125
171
1
172
0
173
0
174
0
175
1
176
1
 91
33
178
0
145
0.0
301
CELL_VALUE
 90
4
  1
FAL
304
ACVALUE_END
170
5
140
0.125
171
1
172
0
173
0
174
0
175
4
176
1
 91
33
178
0
145
0.0
301
CELL_VALUE
 90
4
  1
ALL DIMENSIONS IN INCH\PVIEWS ARE THIRD ANGLE
304
ACVALUE_END
170
5
140
0.12
171
1
172
0
173
1
174
0
175
1
176
1
 91
1
178
0
145
0.0
170
1
171
1
172
0
173
1
174
0
175
1
176
1
 91
1
178
0
145
0.0
170
1
171
1
172
0
173
1
174
0
175
1
176
1
 91
1
178
0
145
0.0
170
5
171
1
172
0
173
0
174
0
175
1
176
1
 91
33
178
0
145
0.0
301
CELL_VALUE
 90
4
  1
 
304
ACVALUE_END
170
1
140
0.125
171
1
172
0
173
0
174
0
175
1
176
1
 91
33
178
0
145
0.0
301
CELL_VALUE
 90
4
  1
MODEL
304
ACVALUE_END
170
1
140
0.06
171
1
172
0
173
0
174
0
175
1
176
1
 91
33
178
0
145
0.0
301
CELL_VALUE
 90
4
  1
 
304
ACVALUE_END
170
1
140
0.125
171
1
172
0
173
0
174
0
175
1
176
1
 91
33
178
0
145
0.0
301
CELL_VALUE
 90
4
  1
 
304
ACVALUE_END
170
1
140
0.125
171
1
172
0
173
0
174
0
175
1
176
1
 91
33
178
0
145
0.0
301
CELL_VALUE
 90
4
  1
 
304
ACVALUE_END
170
1
140
0.125
171
1
172
0
173
0
174
0
175
1
176
1
 91
33
178
0
145
0.0
301
CELL_VALUE
 90
4
  1
 
304
ACVALUE_END
170
1
140
0.125
171
1
172
0
173
0
174
0
175
1
176
1
 91
33
178
0
145
0.0
301
CELL_VALUE
 90
4
  1
 
304
ACVALUE_END
170
1
140
0.125
  0
ACAD_TABLE
  5
282
100
AcDbEntity
  8
0
 62
2
  6
CONTINUOUS
100
AcDbBlockReference
  2
*T2
 10
12.4237499994
 20
16.47875
 30
0.0
100
AcDbTable
342
       33A
343
208
 11
1.0
 21
0.0
 31
0.0
 90
22
 91
10
 92
3
 93
16
 94
0
 95
0
 96
0
 41
0.028
141
0.344
141
0.25
141
0.25
141
0.25
141
0.25
141
0.25
141
0.25
141
0.25
141
0.25
141
0.25
142
3.055
142
3.0
142
3.0
171
1
172
0
173
0
174
0
175
1
176
1
 91
33
178
0
145
0.0
301
CELL_VALUE
 90
4
  1
Technical Data
304
ACVALUE_END
170
5
140
0.145
171
1
172
0
173
0
174
0
175
1
176
1
 91
33
178
0
145
0.0
301
CELL_VALUE
 90
4
  1
U.S. Units
304
ACVALUE_END
170
5
140
0.145
171
1
172
0
173
0
174
0
175
1
176
1
 91
33
178
0
145
0.0
301
CELL_VALUE
 90
4
  1
Metric Units
304
ACVALUE_END
170
5
140
0.145
171
1
172
0
173
0
174
0
175
1
176
1
 91
33
178
0
145
0.0
301
CELL_VALUE
 90
4
  1
Cavity
304
ACVALUE_END
170
5
140
0.125
171
1
172
0
173
0
174
0
175
2
176
1
 91
33
178
0
145
0.0
301
CELL_VALUE
 90
4
  1
T-10A
304
ACVALUE_END
170
5
140
0.125
171
1
172
0
173
1
174
0
175
1
176
1
 91
1
178
0
145
0.0
170
1
171
1
172
0
173
0
174
0
175
1
176
1
 91
33
178
0
145
0.0
301
CELL_VALUE
 90
4
  1
Body Features
304
ACVALUE_END
170
5
140
0.125
171
1
172
0
173
0
174
0
175
2
176
1
 91
33
178
0
145
0.0
301
CELL_VALUE
 90
4
  1
Ninety degree
304
ACVALUE_END
170
5
140
0.125
171
1
172
0
173
1
174
0
175
1
176
1
 91
1
178
0
145
0.0
170
1
171
1
172
0
173
0
174
0
175
1
176
1
 91
33
178
0
145
0.0
301
CELL_VALUE
 90
4
  1
Body Type
304
ACVALUE_END
170
5
140
0.125
171
1
172
0
173
0
174
0
175
2
176
1
 91
33
178
0
145
0.0
301
CELL_VALUE
 90
4
  1
Line mount
304
ACVALUE_END
170
5
140
0.125
171
1
172
0
173
1
174
0
175
1
176
1
 91
1
178
0
145
0.0
170
1
171
1
172
0
173
0
174
0
175
1
176
1
 91
33
178
0
145
0.0
301
CELL_VALUE
 90
4
  1
Interface
304
ACVALUE_END
170
5
140
0.125
171
1
172
0
173
0
174
0
175
2
176
1
 91
33
178
0
145
0.0
301
CELL_VALUE
 90
4
  1
None
304
ACVALUE_END
170
5
140
0.125
171
1
172
0
173
1
174
0
175
1
176
1
 91
1
178
0
145
0.0
170
1
171
1
172
0
173
0
174
0
175
1
176
1
 91
33
178
0
145
0.0
301
CELL_VALUE
 90
4
  1
Open Cavity Quantity
304
ACVALUE_END
170
5
140
0.125
171
1
172
0
173
0
174
0
175
2
176
1
 91
33
178
0
145
0.0
301
CELL_VALUE
 90
4
  1
1
304
ACVALUE_END
170
5
140
0.125
171
1
172
0
173
1
174
0
175
1
176
1
 91
1
178
0
145
0.0
170
1
171
1
172
0
173
0
174
0
175
1
176
1
 91
33
178
0
145
0.0
301
CELL_VALUE
 90
4
  1
Weight
304
ACVALUE_END
170
5
140
0.125
171
1
172
0
173
0
174
0
175
1
176
1
 91
33
178
0
145
0.0
301
CELL_VALUE
 90
4
  1
0.734 lb.
304
ACVALUE_END
170
5
140
0.125
171
1
172
0
173
0
174
0
175
1
176
1
 91
33
178
0
145
0.0
301
CELL_VALUE
 90
4
  1
0,333 kg.
304
ACVALUE_END
170
5
140
0.125
171
1
172
0
173
0
174
0
175
1
176
1
 91
33
178
0
145
0.0
301
CELL_VALUE
 90
4
  1
Mounting Hole Diameter
304
ACVALUE_END
170
5
140
0.125
171
1
172
0
173
0
174
0
175
1
176
1
 91
33
178
0
145
0.0
301
CELL_VALUE
 90
4
  1
.34 in.
304
ACVALUE_END
170
5
140
0.125
171
1
172
0
173
0
174
0
175
1
176
1
 91
33
178
0
145
0.0
301
CELL_VALUE
 90
4
  1
8.6 mm
304
ACVALUE_END
170
5
140
0.125
171
1
172
0
173
0
174
0
175
1
176
1
 91
33
178
0
145
0.0
301
CELL_VALUE
 90
4
  1
Mounting Hole Depth
304
ACVALUE_END
170
5
140
0.125
171
1
172
0
173
0
174
0
175
2
176
1
 91
33
178
0
145
0.0
301
CELL_VALUE
 90
4
  1
Through
304
ACVALUE_END
170
5
140
0.125
171
1
172
0
173
1
174
0
175
1
176
1
 91
1
178
0
145
0.0
170
1
171
1
172
0
173
0
174
0
175
1
176
1
 91
33
178
0
145
0.0
301
CELL_VALUE
 90
4
  1
Mounting Hole Quantity
304
ACVALUE_END
170
5
140
0.125
171
1
172
0
173
0
174
0
175
2
176
1
 91
33
178
0
145
0.0
301
CELL_VALUE
 90
4
  1
1
304
ACVALUE_END
170
5
140
0.125
171
1
172
0
173
1
174
0
175
1
176
1
 91
1
178
0
145
0.0
170
1
  0
ACAD_TABLE
  5
283
100
AcDbEntity
  8
0
 62
2
  6
CONTINUOUS
100
AcDbBlockReference
  2
*T3
 10
0.52125
 20
1.459
 30
0.0
100
AcDbTable
342
       33A
343
209
 11
1.0
 21
0.0
 31
0.0
 90
22
 91
3
 92
3
 93
16
 94
0
 95
0
 96
0
 41
0.05
141
0.34375
141
0.344
141
0.25
142
1.3
142
2.0
142
1.3
171
1
172
0
173
0
174
0
175
3
176
1
 91
33
178
0
145
0.0
301
CELL_VALUE
 90
4
  1
Port Headings
304
ACVALUE_END
170
5
140
0.145
171
1
172
0
173
1
174
0
175
1
176
1
 91
1
178
0
145
0.0
170
1
171
1
172
0
173
1
174
0
175
1
176
1
 91
1
178
0
145
0.0
170
1
171
1
172
0
173
0
174
0
175
1
176
1
 91
33
178
0
145
0.0
301
CELL_VALUE
 90
4
  1
Product
304
ACVALUE_END
170
5
140
0.145
171
1
172
0
173
0
174
0
175
1
176
1
 91
33
178
0
145
0.0
301
CELL_VALUE
 90
4
  1
Port
304
ACVALUE_END
170
5
140
0.145
171
1
172
0
173
0
174
0
175
1
176
1
 91
33
178
0
145
0.0
301
CELL_VALUE
 90
4
  1
Size
304
ACVALUE_END
170
5
140
0.145
171
1
172
0
173
0
174
0
175
1
176
1
 91
33
178
0
145
0.0
301
CELL_VALUE
 90
4
  1
FAL
304
ACVALUE_END
170
5
140
0.125
171
1
172
0
173
0
174
0
175
1
176
1
 91
33
178
0
145
0.0
301
CELL_VALUE
 90
4
  1
All Ports
304
ACVALUE_END
170
5
140
0.125
171
1
172
0
173
0
174
0
175
1
176
1
 91
33
178
0
145
0.0
301
CELL_VALUE
 90
4
  1
SAE 12
304
ACVALUE_END
170
5
140
0.125
  0
MTEXT
  5
284
100
AcDbEntity
  8
0
100
AcDbMText
 62
2
  6
CONTINUOUS
  7
STANDARD
 71
1
 72
1
 10
0.52125
 20
5.75995
 30
0.0
 11
1.0
 21
0.0
 31
0.0
 44
0.6
  3
Notes\P \P1. Important: Carefully consider\P   the maximum system pressure. The\P   pressure rating of the manifold is\P   dependent on the manifold material,\P   with the port type/size a secondary\P   consideration. Manifolds\P   constructed of alu
  1
minum are not\P   rated for pressures higher than\P   3000 psi (210 bar), regardless of\P   the port type/size specified.
 40
0.1
 41
3.04
  0
LINE
  5
285
100
AcDbEntity
  8
0
100
AcDbLine
 62
7
  6
CONTINUOUS
 10
0.30125
 20
0.30125
 11
0.30125
 21
16.69875
  0
LINE
  5
286
100
AcDbEntity
  8
0
100
AcDbLine
 62
7
  6
CONTINUOUS
 10
0.30125
 20
0.30125
 11
21.69875
 21
0.30125
  0
LINE
  5
287
100
AcDbEntity
  8
0
100
AcDbLine
 62
7
  6
CONTINUOUS
 10
0.30125
 20
16.69875
 11
21.69875
 21
16.69875
  0
LINE
  5
288
100
AcDbEntity
  8
0
100
AcDbLine
 62
7
  6
CONTINUOUS
 10
21.69875
 20
0.30125
 11
21.69875
 21
16.69875
  0
LINE
  5
289
100
AcDbEntity
  8
0
100
AcDbLine
 62
7
  6
CONTINUOUS
 10
7.7139941022
 20
10.4992950878
 11
8.4904505967
 21
11.2492945133
  0
LINE
  5
28A
100
AcDbEntity
  8
0
100
AcDbLine
 62
7
  6
CONTINUOUS
 10
7.7139941022
 20
6.152628612
 11
7.7139941022
 21
10.4992950878
  0
LINE
  5
28B
100
AcDbEntity
  8
0
100
AcDbLine
 62
7
  6
CONTINUOUS
 10
13.5095494033
 20
5.7507054867
 11
9.9798779224
 21
5.9954890353
  0
LINE
  5
28C
100
AcDbEntity
  8
0
100
AcDbLine
 62
7
  6
CONTINUOUS
 10
8.8288508743
 20
6.0753130322
 11
7.7139941022
 21
6.152628612
  0
LINE
  5
28D
100
AcDbEntity
  8
0
100
AcDbLine
 62
4
  6
CONTINUOUS
 10
9.3309541101
 20
6.3689068584
 11
9.3116355837
 21
6.3847354907
  0
LINE
  5
28E
100
AcDbEntity
  8
0
100
AcDbLine
 62
4
  6
CONTINUOUS
 10
9.427546694
 20
6.4056748037
 11
9.4661837262
 21
6.3740175406
  0
LINE
  5
28F
100
AcDbEntity
  8
0
100
AcDbLine
 62
4
  6
CONTINUOUS
 10
9.3695911354
 20
6.482138475
 11
9.3889096618
 21
6.4663098427
  0
LINE
  5
290
100
AcDbEntity
  8
0
100
AcDbLine
 62
4
  6
CONTINUOUS
 10
9.3116355837
 20
6.3847354907
 11
9.292317071
 21
6.4150530099
  0
LINE
  5
291
100
AcDbEntity
  8
0
100
AcDbLine
 62
7
  6
CONTINUOUS
 10
8.8288508743
 20
6.1371322902
 11
9.9798779224
 21
6.0573082933
  0
LINE
  5
292
100
AcDbEntity
  8
0
100
AcDbLine
 62
4
  6
CONTINUOUS
 10
9.4661837262
 20
6.3740175406
 11
9.5241392779
 21
6.3555094215
  0
LINE
  5
293
100
AcDbEntity
  8
0
100
AcDbLine
 62
4
  6
CONTINUOUS
 10
9.3889096618
 20
6.4663098427
 11
9.427546694
 21
6.4056748037
  0
LINE
  5
294
100
AcDbEntity
  8
0
100
AcDbLine
 62
7
  6
CONTINUOUS
 10
8.8288508743
 20
6.0753130322
 11
8.8288508743
 21
6.1371322902
  0
LINE
  5
295
100
AcDbEntity
  8
0
100
AcDbLine
 62
4
  6
CONTINUOUS
 10
9.3309541101
 20
6.4848179618
 11
9.3695911354
 21
6.482138475
  0
LINE
  5
296
100
AcDbEntity
  8
0
100
AcDbLine
 62
4
  6
CONTINUOUS
 10
9.292317071
 20
6.4150530099
 11
9.292317071
 21
6.4440307858
  0
LINE
  5
297
100
AcDbEntity
  8
0
100
AcDbLine
 62
4
  6
CONTINUOUS
 10
9.5241392779
 20
6.3555094215
 11
9.5241392779
 21
6.4714205249
  0
LINE
  5
298
100
AcDbEntity
  8
0
100
AcDbLine
 62
4
  6
CONTINUOUS
 10
10.5620955616
 20
7.0438486124
 11
10.5289781055
 21
7.0461453158
  0
LINE
  5
299
100
AcDbEntity
  8
0
100
AcDbLine
 62
4
  6
CONTINUOUS
 10
11.6781539043
 20
7.4963290414
 11
11.9099761112
 21
7.5464870567
  0
LINE
  5
29A
100
AcDbEntity
  8
0
100
AcDbLine
 62
4
  6
CONTINUOUS
 10
10.6945653966
 20
7.1505729016
 11
10.661447937
 21
7.1528696052
  0
LINE
  5
29B
100
AcDbEntity
  8
0
100
AcDbLine
 62
4
  6
CONTINUOUS
 10
10.4958606493
 20
7.2305880349
 11
10.6945653966
 21
7.2168078139
  0
LINE
  5
29C
100
AcDbEntity
  8
0
100
AcDbLine
 62
4
  6
CONTINUOUS
 10
11.9099761112
 20
7.2042733155
 11
11.6781539043
 21
7.2203502402
  0
LINE
  5
29D
100
AcDbEntity
  8
0
100
AcDbLine
 62
4
  6
CONTINUOUS
 10
10.6945653966
 20
7.3327189173
 11
10.4958606493
 21
7.3464991383
  0
LINE
  5
29E
100
AcDbEntity
  8
0
100
AcDbLine
 62
4
  6
CONTINUOUS
 10
10.7276828562
 20
7.396657126
 11
10.4958606493
 21
7.4127340506
  0
LINE
  5
29F
100
AcDbEntity
  8
0
100
AcDbLine
 62
4
  6
CONTINUOUS
 10
11.7112713605
 20
7.3339646264
 11
11.8768586516
 21
7.3224811088
  0
LINE
  5
2A0
100
AcDbEntity
  8
0
100
AcDbLine
 62
4
  6
CONTINUOUS
 10
10.5289781055
 20
7.0461453158
 11
10.4958606493
 21
7.0815594788
  0
LINE
  5
2A1
100
AcDbEntity
  8
0
100
AcDbLine
 62
4
  6
CONTINUOUS
 10
10.7276828562
 20
7.1151587418
 11
10.6945653966
 21
7.1505729016
  0
LINE
  5
2A2
100
AcDbEntity
  8
0
100
AcDbLine
 62
7
  6
CONTINUOUS
 10
9.9798779224
 20
5.9954890353
 11
9.9798779224
 21
6.0573082933
  0
LINE
  5
2A3
100
AcDbEntity
  8
0
100
AcDbLine
 62
4
  6
CONTINUOUS
 10
10.7276828562
 20
7.5125682294
 11
10.4958606493
 21
7.5286451541
  0
LINE
  5
2A4
100
AcDbEntity
  8
0
100
AcDbLine
 62
4
  6
CONTINUOUS
 10
10.7276828562
 20
7.2973047714
 11
10.6945653966
 21
7.3327189173
  0
LINE
  5
2A5
100
AcDbEntity
  8
0
100
AcDbLine
 62
4
  6
CONTINUOUS
 10
10.661447937
 20
9.2061519141
 11
10.6504087849
 21
9.190358816
  0
LINE
  5
2A6
100
AcDbEntity
  8
0
100
AcDbLine
 62
4
  6
CONTINUOUS
 10
10.6393696329
 20
9.1248894991
 11
10.6283304808
 21
9.109096401
  0
LINE
  5
2A7
100
AcDbEntity
  8
0
100
AcDbLine
 62
4
  6
CONTINUOUS
 10
10.5620955616
 20
9.1964833588
 11
10.5786542966
 21
9.2118936726
  0
LINE
  5
2A8
100
AcDbEntity
  8
0
100
AcDbLine
 62
4
  6
CONTINUOUS
 10
10.7111241264
 20
9.1033546422
 11
10.7276828562
 21
9.1187649563
  0
LINE
  5
2A9
100
AcDbEntity
  8
0
100
AcDbLine
 62
4
  6
CONTINUOUS
 10
11.9099761112
 20
7.6789568813
 11
11.6781539043
 21
7.6950338059
  0
LINE
  5
2AA
100
AcDbEntity
  8
0
100
AcDbLine
 62
4
  6
CONTINUOUS
 10
10.7276828562
 20
7.7609491574
 11
10.4958606493
 21
7.7770260821
  0
LINE
  5
2AB
100
AcDbEntity
  8
0
100
AcDbLine
 62
4
  6
CONTINUOUS
 10
10.5786542966
 20
7.8706367054
 11
10.7276828562
 21
7.8603015397
  0
LINE
  5
2AC
100
AcDbEntity
  8
0
100
AcDbLine
 62
4
  6
CONTINUOUS
 10
11.3999672561
 20
7.8467958461
 11
11.1681450492
 21
7.8628727708
  0
LINE
  5
2AD
100
AcDbEntity
  8
0
100
AcDbLine
 62
4
  6
CONTINUOUS
 10
11.9099761112
 20
7.8114267059
 11
11.6781539043
 21
7.8275036305
  0
LINE
  5
2AE
100
AcDbEntity
  8
0
100
AcDbLine
 62
4
  6
CONTINUOUS
 10
11.9099761112
 20
7.4140172045
 11
11.6781539043
 21
7.4963290414
  0
LINE
  5
2AF
100
AcDbEntity
  8
0
100
AcDbLine
 62
4
  6
CONTINUOUS
 10
10.7828786199
 20
7.9558260828
 11
10.5620955616
 21
8.0373723245
  0
LINE
  5
2B0
100
AcDbEntity
  8
0
100
AcDbLine
 62
4
  6
CONTINUOUS
 10
10.5786542966
 20
8.0803806358
 11
10.5620955616
 21
8.1146464303
  0
LINE
  5
2B1
100
AcDbEntity
  8
0
100
AcDbLine
 62
4
  6
CONTINUOUS
 10
10.4958606493
 20
7.0815594788
 11
10.4958606493
 21
7.1477943945
  0
LINE
  5
2B2
100
AcDbEntity
  8
0
100
AcDbLine
 62
4
  6
CONTINUOUS
 10
10.4958606493
 20
8.8809413424
 11
10.4958606493
 21
8.8864608976
  0
LINE
  5
2B3
100
AcDbEntity
  8
0
100
AcDbLine
 62
4
  6
CONTINUOUS
 10
10.5620955616
 20
8.4789385171
 11
10.5620955616
 21
8.396144856
  0
LINE
  5
2B4
100
AcDbEntity
  8
0
100
AcDbLine
 62
4
  6
CONTINUOUS
 10
10.5620955616
 20
7.7724326753
 11
10.5620955616
 21
7.8552263364
  0
LINE
  5
2B5
100
AcDbEntity
  8
0
100
AcDbLine
 62
4
  6
CONTINUOUS
 10
10.5620955616
 20
8.1146464303
 11
10.5620955616
 21
8.180881315
  0
LINE
  5
2B6
100
AcDbEntity
  8
0
100
AcDbLine
 62
4
  6
CONTINUOUS
 10
10.5620955616
 20
8.2471163102
 11
10.5620955616
 21
8.3133511949
  0
LINE
  5
2B7
100
AcDbEntity
  8
0
100
AcDbLine
 62
4
  6
CONTINUOUS
 10
10.5620955616
 20
8.9812198179
 11
10.5620955616
 21
9.0474549236
  0
LINE
  5
2B8
100
AcDbEntity
  8
0
100
AcDbLine
 62
4
  6
CONTINUOUS
 10
10.5620955616
 20
9.1302484742
 11
10.5620955616
 21
9.1964833588
  0
LINE
  5
2B9
100
AcDbEntity
  8
0
100
AcDbLine
 62
4
  6
CONTINUOUS
 10
10.6448892089
 20
8.4235205394
 11
10.6448892089
 21
8.489755424
  0
LINE
  5
2BA
100
AcDbEntity
  8
0
100
AcDbLine
 62
4
  6
CONTINUOUS
 10
10.7276828562
 20
9.0359714057
 11
10.7276828562
 21
8.9697363
  0
LINE
  5
2BB
100
AcDbEntity
  8
0
100
AcDbLine
 62
4
  6
CONTINUOUS
 10
10.7276828562
 20
8.7655120907
 11
10.7276828562
 21
8.7323946484
  0
LINE
  5
2BC
100
AcDbEntity
  8
0
100
AcDbLine
 62
4
  6
CONTINUOUS
 10
10.7276828562
 20
8.4840136651
 11
10.7276828562
 21
8.4177787804
  0
LINE
  5
2BD
100
AcDbEntity
  8
0
100
AcDbLine
 62
4
  6
CONTINUOUS
 10
10.7276828562
 20
8.1693977971
 11
10.7276828562
 21
8.1031629124
  0
LINE
  5
2BE
100
AcDbEntity
  8
0
100
AcDbLine
 62
4
  6
CONTINUOUS
 10
10.7276828562
 20
7.0489238243
 11
10.7276828562
 21
7.1151587418
  0
LINE
  5
2BF
100
AcDbEntity
  8
0
100
AcDbLine
 62
4
  6
CONTINUOUS
 10
10.7276828562
 20
7.2476285664
 11
10.7276828562
 21
7.2973047714
  0
LINE
  5
2C0
100
AcDbEntity
  8
0
100
AcDbLine
 62
4
  6
CONTINUOUS
 10
10.7276828562
 20
8.5668073262
 11
10.7276828562
 21
8.6496009873
  0
LINE
  5
2C1
100
AcDbEntity
  8
0
100
AcDbLine
 62
4
  6
CONTINUOUS
 10
10.7276828562
 20
9.1187649563
 11
10.7276828562
 21
9.184999841
  0
LINE
  5
2C2
100
AcDbEntity
  8
0
100
AcDbLine
 62
4
  6
CONTINUOUS
 10
10.6504087849
 20
9.190358816
 11
10.6393696329
 21
9.1248894991
  0
LINE
  5
2C3
100
AcDbEntity
  8
0
100
AcDbLine
 62
4
  6
CONTINUOUS
 10
10.7276828562
 20
8.9697363
 11
10.7111241264
 21
8.9543259859
  0
LINE
  5
2C4
100
AcDbEntity
  8
0
100
AcDbLine
 62
4
  6
CONTINUOUS
 10
10.7276828562
 20
8.7323946484
 11
10.7111241264
 21
8.7169842237
  0
LINE
  5
2C5
100
AcDbEntity
  8
0
100
AcDbLine
 62
4
  6
CONTINUOUS
 10
10.5620955616
 20
7.9380199975
 11
10.7276828562
 21
7.9762126984
  0
LINE
  5
2C6
100
AcDbEntity
  8
0
100
AcDbLine
 62
4
  6
CONTINUOUS
 10
11.1681450492
 20
8.0946949776
 11
11.3999672561
 21
8.1448529653
  0
LINE
  5
2C7
100
AcDbEntity
  8
0
100
AcDbLine
 62
4
  6
CONTINUOUS
 10
10.7111241264
 20
8.0711938219
 11
10.5786542966
 21
8.0803806358
  0
LINE
  5
2C8
100
AcDbEntity
  8
0
100
AcDbLine
 62
7
  6
CONTINUOUS
 10
13.5095494033
 20
7.9531947337
 11
13.4477301453
 21
7.9574819138
  0
LINE
  5
2C9
100
AcDbEntity
  8
0
100
AcDbLine
 62
4
  6
CONTINUOUS
 10
10.4958606493
 20
8.1854747218
 11
10.7276828562
 21
8.1693977971
  0
LINE
  5
2CA
100
AcDbEntity
  8
0
100
AcDbLine
 62
4
  6
CONTINUOUS
 10
10.7276828562
 20
8.2356327923
 11
10.5620955616
 21
8.2471163102
  0
LINE
  5
2CB
100
AcDbEntity
  8
0
100
AcDbLine
 62
4
  6
CONTINUOUS
 10
11.8768586516
 20
8.1614567751
 11
11.7112713605
 21
8.1729402927
  0
LINE
  5
2CC
100
AcDbEntity
  8
0
100
AcDbLine
 62
4
  6
CONTINUOUS
 10
11.1681450492
 20
8.2271648022
 11
11.3999672561
 21
8.2110878776
  0
LINE
  5
2CD
100
AcDbEntity
  8
0
100
AcDbLine
 62
4
  6
CONTINUOUS
 10
11.3999672561
 20
8.0123831407
 11
11.1681450492
 21
8.0946949776
  0
LINE
  5
2CE
100
AcDbEntity
  8
0
100
AcDbLine
 62
4
  6
CONTINUOUS
 10
10.661447937
 20
8.3892547453
 11
10.6448892089
 21
8.4235205394
  0
LINE
  5
2CF
100
AcDbEntity
  8
0
100
AcDbLine
 62
4
  6
CONTINUOUS
 10
10.7828786199
 20
7.9227086404
 11
10.7828786199
 21
7.9558260828
  0
LINE
  5
2D0
100
AcDbEntity
  8
0
100
AcDbLine
 62
4
  6
CONTINUOUS
 10
10.7276828562
 20
8.4177787804
 11
10.7111241264
 21
8.3858096899
  0
LINE
  5
2D1
100
AcDbEntity
  8
0
100
AcDbLine
 62
4
  6
CONTINUOUS
 10
10.7276828562
 20
8.1031629124
 11
10.7111241264
 21
8.0711938219
  0
LINE
  5
2D2
100
AcDbEntity
  8
0
100
AcDbLine
 62
4
  6
CONTINUOUS
 10
9.292317071
 20
6.4440307858
 11
9.3116355837
 21
6.4716688183
  0
LINE
  5
2D3
100
AcDbEntity
  8
0
100
AcDbLine
 62
4
  6
CONTINUOUS
 10
10.7111241264
 20
8.5513969015
 11
10.7276828562
 21
8.5668073262
  0
LINE
  5
2D4
100
AcDbEntity
  8
0
100
AcDbLine
 62
4
  6
CONTINUOUS
 10
10.5620955616
 20
8.3133511949
 11
10.5786542966
 21
8.3232419533
  0
LINE
  5
2D5
100
AcDbEntity
  8
0
100
AcDbLine
 62
4
  6
CONTINUOUS
 10
10.5952130178
 20
8.4932004796
 11
10.5620955616
 21
8.4789385171
  0
LINE
  5
2D6
100
AcDbEntity
  8
0
100
AcDbLine
 62
4
  6
CONTINUOUS
 10
10.5786542966
 20
8.3232419533
 11
10.6117717527
 21
8.3209452499
  0
LINE
  5
2D7
100
AcDbEntity
  8
0
100
AcDbLine
 62
4
  6
CONTINUOUS
 10
10.7111241264
 20
8.3858096899
 11
10.661447937
 21
8.3892547453
  0
LINE
  5
2D8
100
AcDbEntity
  8
0
100
AcDbLine
 62
4
  6
CONTINUOUS
 10
11.8768586516
 20
8.3546418738
 11
11.7112713605
 21
8.3661253914
  0
LINE
  5
2D9
100
AcDbEntity
  8
0
100
AcDbLine
 62
4
  6
CONTINUOUS
 10
10.7276828562
 20
8.4840136651
 11
10.5952130178
 21
8.4932004796
  0
LINE
  5
2DA
100
AcDbEntity
  8
0
100
AcDbLine
 62
4
  6
CONTINUOUS
 10
10.5620955616
 20
8.5617320676
 11
10.7111241264
 21
8.5513969015
  0
LINE
  5
2DB
100
AcDbEntity
  8
0
100
AcDbLine
 62
4
  6
CONTINUOUS
 10
11.7112713605
 20
8.4820364948
 11
11.8768586516
 21
8.4705529772
  0
LINE
  5
2DC
100
AcDbEntity
  8
0
100
AcDbLine
 62
4
  6
CONTINUOUS
 10
11.8768586516
 20
7.3224811088
 11
11.9099761112
 21
7.287066949
  0
LINE
  5
2DD
100
AcDbEntity
  8
0
100
AcDbLine
 62
4
  6
CONTINUOUS
 10
10.5786542966
 20
8.9635127998
 11
10.5620955616
 21
8.9812198179
  0
LINE
  5
2DE
100
AcDbEntity
  8
0
100
AcDbLine
 62
4
  6
CONTINUOUS
 10
11.1681450492
 20
7.8628727708
 11
11.1681450492
 21
7.9622251461
  0
LINE
  5
2DF
100
AcDbEntity
  8
0
100
AcDbLine
 62
4
  6
CONTINUOUS
 10
11.2674974177
 20
7.955335036
 11
11.2674974177
 21
7.8559826606
  0
LINE
  5
2E0
100
AcDbEntity
  8
0
100
AcDbLine
 62
4
  6
CONTINUOUS
 10
10.5620955616
 20
7.8552263364
 11
10.5786542966
 21
7.8706367054
  0
LINE
  5
2E1
100
AcDbEntity
  8
0
100
AcDbLine
 62
4
  6
CONTINUOUS
 10
11.9099761112
 20
8.5344911582
 11
11.6781539043
 21
8.5505680829
  0
LINE
  5
2E2
100
AcDbEntity
  8
0
100
AcDbLine
 62
4
  6
CONTINUOUS
 10
10.7276828562
 20
8.6496009873
 11
10.5620955616
 21
8.6610845052
  0
LINE
  5
2E3
100
AcDbEntity
  8
0
100
AcDbLine
 62
4
  6
CONTINUOUS
 10
10.7111241264
 20
8.7169842237
 11
10.4958606493
 21
8.7319127966
  0
LINE
  5
2E4
100
AcDbEntity
  8
0
100
AcDbLine
 62
4
  6
CONTINUOUS
 10
11.7112713605
 20
8.6641824829
 11
11.8768586516
 21
8.6526989653
  0
LINE
  5
2E5
100
AcDbEntity
  8
0
100
AcDbLine
 62
4
  6
CONTINUOUS
 10
12.9493123926
 20
8.6486985851
 11
13.1811345995
 21
8.6326216604
  0
LINE
  5
2E6
100
AcDbEntity
  8
0
100
AcDbLine
 62
4
  6
CONTINUOUS
 10
11.9099761112
 20
8.7442351439
 11
11.6781539043
 21
8.7603120686
  0
LINE
  5
2E7
100
AcDbEntity
  8
0
100
AcDbLine
 62
4
  6
CONTINUOUS
 10
10.4958606493
 20
8.8864608976
 11
10.5124193843
 21
8.8797929902
  0
LINE
  5
2E8
100
AcDbEntity
  8
0
100
AcDbLine
 62
4
  6
CONTINUOUS
 10
10.5786542966
 20
9.1125414561
 11
10.5620955616
 21
9.1302484742
  0
LINE
  5
2E9
100
AcDbEntity
  8
0
100
AcDbLine
 62
4
  6
CONTINUOUS
 10
10.7276828562
 20
9.184999841
 11
10.7111241264
 21
9.2027068587
  0
LINE
  5
2EA
100
AcDbEntity
  8
0
100
AcDbLine
 62
4
  6
CONTINUOUS
 10
11.7112713605
 20
8.1729402927
 11
11.6781539043
 21
8.2083544384
  0
LINE
  5
2EB
100
AcDbEntity
  8
0
100
AcDbLine
 62
4
  6
CONTINUOUS
 10
11.7664671207
 20
7.1700690827
 11
11.8106237358
 21
7.0786935877
  0
LINE
  5
2EC
100
AcDbEntity
  8
0
100
AcDbLine
 62
4
  6
CONTINUOUS
 10
11.3337323369
 20
8.039054852
 11
11.3337323369
 21
8.1273680684
  0
LINE
  5
2ED
100
AcDbEntity
  8
0
100
AcDbLine
 62
4
  6
CONTINUOUS
 10
11.3999672561
 20
8.2110878776
 11
11.3999672561
 21
8.2938815387
  0
LINE
  5
2EE
100
AcDbEntity
  8
0
100
AcDbLine
 62
4
  6
CONTINUOUS
 10
11.7664671207
 20
8.9197747379
 11
11.8106237358
 21
9.0050256826
  0
LINE
  5
2EF
100
AcDbEntity
  8
0
100
AcDbLine
 62
7
  6
CONTINUOUS
 10
13.5095494033
 20
10.0973719626
 11
14.2860058978
 21
10.847371388
  0
LINE
  5
2F0
100
AcDbEntity
  8
0
100
AcDbLine
 62
4
  6
CONTINUOUS
 10
11.6781539043
 20
8.633361744
 11
11.7112713605
 21
8.6641824829
  0
LINE
  5
2F1
100
AcDbEntity
  8
0
100
AcDbLine
 62
4
  6
CONTINUOUS
 10
11.6781539043
 20
8.4512157559
 11
11.7112713605
 21
8.4820364948
  0
LINE
  5
2F2
100
AcDbEntity
  8
0
100
AcDbLine
 62
4
  6
CONTINUOUS
 10
10.7276828562
 20
8.8648644177
 11
10.5620955616
 21
8.8763479356
  0
LINE
  5
2F3
100
AcDbEntity
  8
0
100
AcDbLine
 62
4
  6
CONTINUOUS
 10
10.5124193843
 20
8.8797929902
 11
10.4958606493
 21
8.8809413424
  0
LINE
  5
2F4
100
AcDbEntity
  8
0
100
AcDbLine
 62
7
  6
CONTINUOUS
 10
14.2860058978
 20
8.7031941591
 11
14.2241866398
 21
8.7074813392
  0
LINE
  5
2F5
100
AcDbEntity
  8
0
100
AcDbLine
 62
4
  6
CONTINUOUS
 10
10.7111241264
 20
8.9543259859
 11
10.5786542966
 21
8.9635127998
  0
LINE
  5
2F6
100
AcDbEntity
  8
0
100
AcDbLine
 62
4
  6
CONTINUOUS
 10
10.6283304808
 20
9.109096401
 11
10.5786542966
 21
9.1125414561
  0
LINE
  5
2F7
100
AcDbEntity
  8
0
100
AcDbLine
 62
4
  6
CONTINUOUS
 10
11.7112713605
 20
8.3661253914
 11
11.6781539043
 21
8.4015395371
  0
LINE
  5
2F8
100
AcDbEntity
  8
0
100
AcDbLine
 62
4
  6
CONTINUOUS
 10
11.6781539043
 20
7.2203502402
 11
11.6781539043
 21
7.3031438736
  0
LINE
  5
2F9
100
AcDbEntity
  8
0
100
AcDbLine
 62
4
  6
CONTINUOUS
 10
11.6781539043
 20
7.628798866
 11
11.6781539043
 21
7.7612686906
  0
LINE
  5
2FA
100
AcDbEntity
  8
0
100
AcDbLine
 62
4
  6
CONTINUOUS
 10
11.6781539043
 20
7.8275036305
 11
11.6781539043
 21
7.9268560128
  0
LINE
  5
2FB
100
AcDbEntity
  8
0
100
AcDbLine
 62
4
  6
CONTINUOUS
 10
11.6781539043
 20
8.2083544384
 11
11.6781539043
 21
8.2745893231
  0
LINE
  5
2FC
100
AcDbEntity
  8
0
100
AcDbLine
 62
4
  6
CONTINUOUS
 10
11.6781539043
 20
8.4015395371
 11
11.6781539043
 21
8.4512157559
  0
LINE
  5
2FD
100
AcDbEntity
  8
0
100
AcDbLine
 62
4
  6
CONTINUOUS
 10
11.6781539043
 20
8.5505680829
 11
11.6781539043
 21
8.633361744
  0
LINE
  5
2FE
100
AcDbEntity
  8
0
100
AcDbLine
 62
4
  6
CONTINUOUS
 10
11.6781539043
 20
8.7603120686
 11
11.6781539043
 21
8.8596643956
  0
LINE
  5
2FF
100
AcDbEntity
  8
0
100
AcDbLine
 62
4
  6
CONTINUOUS
 10
11.7775062728
 20
8.8196568431
 11
11.7775062728
 21
8.7534219584
  0
LINE
  5
300
100
AcDbEntity
  8
0
100
AcDbLine
 62
4
  6
CONTINUOUS
 10
11.7775062728
 20
7.8868484603
 11
11.7775062728
 21
7.8206135204
  0
LINE
  5
301
100
AcDbEntity
  8
0
100
AcDbLine
 62
4
  6
CONTINUOUS
 10
11.843741192
 20
7.4406889158
 11
11.843741192
 21
7.5290021322
  0
LINE
  5
302
100
AcDbEntity
  8
0
100
AcDbLine
 62
4
  6
CONTINUOUS
 10
10.661447937
 20
7.1528696052
 11
10.5620955616
 21
7.0438486124
  0
LINE
  5
303
100
AcDbEntity
  8
0
100
AcDbLine
 62
4
  6
CONTINUOUS
 10
10.4958606493
 20
7.1477943945
 11
10.5124193843
 21
7.1632047704
  0
LINE
  5
304
100
AcDbEntity
  8
0
100
AcDbLine
 62
4
  6
CONTINUOUS
 10
11.9099761112
 20
8.3854626125
 11
11.8768586516
 21
8.3546418738
  0
LINE
  5
305
100
AcDbEntity
  8
0
100
AcDbLine
 62
4
  6
CONTINUOUS
 10
10.6945653966
 20
7.2168078139
 11
10.7276828562
 21
7.2476285664
  0
LINE
  5
306
100
AcDbEntity
  8
0
100
AcDbLine
 62
4
  6
CONTINUOUS
 10
11.9099761112
 20
8.1922775138
 11
11.8768586516
 21
8.1614567751
  0
LINE
  5
307
100
AcDbEntity
  8
0
100
AcDbLine
 62
4
  6
CONTINUOUS
 10
10.7111241264
 20
7.0335134463
 11
10.7276828562
 21
7.0489238243
  0
LINE
  5
308
100
AcDbEntity
  8
0
100
AcDbLine
 62
4
  6
CONTINUOUS
 10
9.3116355837
 20
6.4716688183
 11
9.3309541101
 21
6.4848179618
  0
LINE
  5
309
100
AcDbEntity
  8
0
100
AcDbLine
 62
4
  6
CONTINUOUS
 10
10.4958606493
 20
7.4127340506
 11
10.7276828562
 21
7.5125682294
  0
LINE
  5
30A
100
AcDbEntity
  8
0
100
AcDbLine
 62
4
  6
CONTINUOUS
 10
10.7111241264
 20
9.2027068587
 11
10.661447937
 21
9.2061519141
  0
LINE
  5
30B
100
AcDbEntity
  8
0
100
AcDbLine
 62
7
  6
CONTINUOUS
 10
13.5095494033
 20
9.1042217818
 11
13.4477301453
 21
9.1085089619
  0
LINE
  5
30C
100
AcDbEntity
  8
0
100
AcDbLine
 62
4
  6
CONTINUOUS
 10
11.8768586516
 20
8.4705529772
 11
11.9099761112
 21
8.4351388312
  0
LINE
  5
30D
100
AcDbEntity
  8
0
100
AcDbLine
 62
4
  6
CONTINUOUS
 10
11.8768586516
 20
8.6526989653
 11
11.9099761112
 21
8.6172848193
  0
LINE
  5
30E
100
AcDbEntity
  8
0
100
AcDbLine
 62
4
  6
CONTINUOUS
 10
11.9099761112
 20
8.6172848193
 11
11.9099761112
 21
8.5344911582
  0
LINE
  5
30F
100
AcDbEntity
  8
0
100
AcDbLine
 62
4
  6
CONTINUOUS
 10
11.9099761112
 20
8.4351388312
 11
11.9099761112
 21
8.3854626125
  0
LINE
  5
310
100
AcDbEntity
  8
0
100
AcDbLine
 62
4
  6
CONTINUOUS
 10
11.9099761112
 20
8.2585123985
 11
11.9099761112
 21
8.1922775138
  0
LINE
  5
311
100
AcDbEntity
  8
0
100
AcDbLine
 62
4
  6
CONTINUOUS
 10
11.9099761112
 20
7.287066949
 11
11.9099761112
 21
7.2042733155
  0
LINE
  5
312
100
AcDbEntity
  8
0
100
AcDbLine
 62
4
  6
CONTINUOUS
 10
11.9099761112
 20
7.8114267059
 11
11.9099761112
 21
7.9107790882
  0
LINE
  5
313
100
AcDbEntity
  8
0
100
AcDbLine
 62
4
  6
CONTINUOUS
 10
11.9099761112
 20
8.7442351439
 11
11.9099761112
 21
8.8435874709
  0
LINE
  5
314
100
AcDbEntity
  8
0
100
AcDbLine
 62
4
  6
CONTINUOUS
 10
11.8106237358
 20
9.0050256826
 11
11.8547803475
 21
8.9136501948
  0
LINE
  5
315
100
AcDbEntity
  8
0
100
AcDbLine
 62
4
  6
CONTINUOUS
 10
11.8106237358
 20
7.0786935877
 11
11.8547803475
 21
7.1639445396
  0
LINE
  5
316
100
AcDbEntity
  8
0
100
AcDbLine
 62
4
  6
CONTINUOUS
 10
11.6781539043
 20
7.3031438736
 11
11.7112713605
 21
7.3339646264
  0
LINE
  5
317
100
AcDbEntity
  8
0
100
AcDbLine
 62
7
  6
CONTINUOUS
 10
14.2860058978
 20
9.8542212072
 11
14.2241866398
 21
9.8585083874
  0
LINE
  5
318
100
AcDbEntity
  8
0
100
AcDbLine
 62
7
  6
CONTINUOUS
 10
13.5095494033
 20
10.0973719626
 11
7.7139941022
 21
10.4992950878
  0
LINE
  5
319
100
AcDbEntity
  8
0
100
AcDbLine
 62
7
  6
CONTINUOUS
 10
13.4477301453
 20
9.1085089619
 11
13.4477301453
 21
7.9574819138
  0
LINE
  5
31A
100
AcDbEntity
  8
0
100
AcDbLine
 62
7
  6
CONTINUOUS
 10
13.5095494033
 20
5.7507054867
 11
13.5095494033
 21
7.9531947337
  0
LINE
  5
31B
100
AcDbEntity
  8
0
100
AcDbLine
 62
7
  6
CONTINUOUS
 10
13.5095494033
 20
9.1042217818
 11
13.5095494033
 21
10.0973719626
  0
LINE
  5
31C
100
AcDbEntity
  8
0
100
AcDbLine
 62
7
  6
CONTINUOUS
 10
14.2860058978
 20
10.847371388
 11
8.4904505967
 21
11.2492945133
  0
LINE
  5
31D
100
AcDbEntity
  8
0
100
AcDbLine
 62
7
  6
CONTINUOUS
 10
14.2241866398
 20
9.8585083874
 11
14.2241866398
 21
8.7074813392
  0
LINE
  5
31E
100
AcDbEntity
  8
0
100
AcDbLine
 62
7
  6
CONTINUOUS
 10
14.2860058978
 20
10.847371388
 11
14.2860058978
 21
9.8542212072
  0
LINE
  5
31F
100
AcDbEntity
  8
0
100
AcDbLine
 62
7
  6
CONTINUOUS
 10
14.2860058978
 20
8.7031941591
 11
14.2860058978
 21
6.5007049122
  0
LINE
  5
320
100
AcDbEntity
  8
0
100
AcDbLine
 62
7
  6
CONTINUOUS
 10
14.2860058978
 20
6.5007049122
 11
13.5095494033
 21
5.7507054867
  0
SPLINE
  5
321
100
AcDbEntity
  8
0
100
AcDbSpline
 62
7
  6
CONTINUOUS
 70
0
 71
3
 72
23
 73
19
 74
0
 42
0.0000001
 43
0.0000001
 44
0.0000000001
 40
0.0
 40
0.0
 40
0.0
 40
0.0
 40
0.0637764154
 40
0.1273451281
 40
0.190701988
 40
0.253856063
 40
0.3168132283
 40
0.3795820791
 40
0.4421733864
 40
0.5045993414
 40
0.5668738629
 40
0.629012379
 40
0.6910316532
 40
0.7529496461
 40
0.8147853522
 40
0.8765586034
 40
0.9382898574
 40
1.0
 40
1.0
 40
1.0
 40
1.0
 10
13.2989775833
 20
6.308159016
 30
0.0
 10
13.2989775833
 20
6.3028515829
 30
0.0
 10
13.2987235197
 20
6.292252204
 30
0.0
 10
13.2975769566
 20
6.2764176395
 30
0.0
 10
13.2956678555
 20
6.2607085499
 30
0.0
 10
13.2930008153
 20
6.2451619211
 30
0.0
 10
13.2895818063
 20
6.2298132219
 30
0.0
 10
13.285418738
 20
6.2146979348
 30
0.0
 10
13.2805211866
 20
6.1998508932
 30
0.0
 10
13.2749003386
 20
6.1853063499
 30
0.0
 10
13.2685691743
 20
6.171097838
 30
0.0
 10
13.2615422837
 20
6.1572581164
 30
0.0
 10
13.2538358117
 20
6.1438191295
 30
0.0
 10
13.2454674889
 20
6.1308118867
 30
0.0
 10
13.2364566731
 20
6.1182663945
 30
0.0
 10
13.2268240254
 20
6.1062114964
 30
0.0
 10
13.2165920954
 20
6.0946754156
 30
0.0
 10
13.2093856712
 20
6.0873469559
 30
0.0
 10
13.2056919547
 20
6.0837790987
 30
0.0
  0
SPLINE
  5
322
100
AcDbEntity
  8
0
100
AcDbSpline
 62
7
  6
CONTINUOUS
 70
0
 71
3
 72
64
 73
60
 74
0
 42
0.0000001
 43
0.0000001
 44
0.0000000001
 40
0.0
 40
0.0
 40
0.0
 40
0.0
 40
0.0470067708
 40
0.0937037688
 40
0.1399998207
 40
0.1858047896
 40
0.2310297651
 40
0.2755873238
 40
0.3193917607
 40
0.3623593375
 40
0.4044085335
 40
0.4454603053
 40
0.4854383582
 40
0.505001885
 40
0.524269784
 40
0.5432333971
 40
0.5618843481
 40
0.5802144479
 40
0.5982158149
 40
0.6158807765
 40
0.6332019961
 40
0.650172372
 40
0.666785171
 40
0.6830339254
 40
0.6989125735
 40
0.7144153572
 40
0.7295369695
 40
0.7442724535
 40
0.7586173591
 40
0.7725676462
 40
0.7861198506
 40
0.7992709959
 40
0.8120187712
 40
0.8243614554
 40
0.8362981109
 40
0.8478285262
 40
0.8589534308
 40
0.8696744649
 40
0.8799944224
 40
0.8899172582
 40
0.8994483695
 40
0.9085946531
 40
0.917364834
 40
0.9257695851
 40
0.9338219072
 40
0.9415373117
 40
0.948934235
 40
0.9560342532
 40
0.9628624635
 40
0.9694476304
 40
0.9758223817
 40
0.9789427389
 40
0.9820244452
 40
0.9850725977
 40
0.9880924758
 40
0.9910895217
 40
0.9940693192
 40
0.9970375584
 40
1.0
 40
1.0
 40
1.0
 40
1.0
 10
13.5095494033
 20
9.1042217818
 30
0.0
 10
13.5118937351
 20
9.1285127856
 30
0.0
 10
13.5168459167
 20
9.1769082799
 30
0.0
 10
13.5250885819
 20
9.2491227918
 30
0.0
 10
13.5341087279
 20
9.3206156347
 30
0.0
 10
13.5438874481
 20
9.3912372817
 30
0.0
 10
13.5544042594
 20
9.4608402054
 30
0.0
 10
13.5656371201
 20
9.5292789687
 30
0.0
 10
13.5775624837
 20
9.5964105989
 30
0.0
 10
13.5901553454
 20
9.6620948544
 30
0.0
 10
13.6033892899
 20
9.7261945894
 30
0.0
 10
13.6172365645
 20
9.7885758194
 30
0.0
 10
13.6293482143
 20
9.8393781822
 30
0.0
 10
13.6393320899
 20
9.8790562339
 30
0.0
 10
13.64690109
 20
9.9080909281
 30
0.0
 10
13.6546010922
 20
9.9366006939
 30
0.0
 10
13.66242802
 20
9.9645706594
 30
0.0
 10
13.6703778413
 20
9.9919862058
 30
0.0
 10
13.6784463263
 20
10.0188330211
 30
0.0
 10
13.6866293237
 20
10.0450970789
 30
0.0
 10
13.6949224783
 20
10.0707646726
 30
0.0
 10
13.7033215238
 20
10.095822394
 30
0.0
 10
13.7118219896
 20
10.1202571728
 30
0.0
 10
13.720419504
 20
10.1440562476
 30
0.0
 10
13.7291094908
 20
10.1672072133
 30
0.0
 10
13.7378874827
 20
10.1896979825
 30
0.0
 10
13.746748808
 20
10.2115168433
 30
0.0
 10
13.7556889146
 20
10.2326524089
 30
0.0
 10
13.7647030463
 20
10.2530936873
 30
0.0
 10
13.7737865782
 20
10.2728300176
 30
0.0
 10
13.7829346812
 20
10.291851154
 30
0.0
 10
13.792142671
 20
10.3101471854
 30
0.0
 10
13.8014056599
 20
10.3277086375
 30
0.0
 10
13.8107189195
 20
10.3445263715
 30
0.0
 10
13.8200775201
 20
10.3605917085
 30
0.0
 10
13.8294767083
 20
10.375896303
 30
0.0
 10
13.8389115341
 20
10.3904322929
 30
0.0
 10
13.8483772434
 20
10.4041921427
 30
0.0
 10
13.8578688944
 20
10.4171688245
 30
0.0
 10
13.8673817642
 20
10.429355622
 30
0.0
 10
13.8769109573
 20
10.4407463479
 30
0.0
 10
13.8864518233
 20
10.4513350984
 30
0.0
 10
13.8959995604
 20
10.4611165116
 30
0.0
 10
13.905549637
 20
10.4700854576
 30
0.0
 10
13.9150973926
 20
10.4782373424
 30
0.0
 10
13.9246384411
 20
10.4855677165
 30
0.0
 10
13.9341682818
 20
10.4920726335
 30
0.0
 10
13.9436825915
 20
10.4977481577
 30
0.0
 10
13.9531770319
 20
10.5025908378
 30
0.0
 10
13.9626466901
 20
10.506597006
 30
0.0
 10
13.970570621
 20
10.5092547778
 30
0.0
 10
13.9768783873
 20
10.5109474074
 30
0.0
 10
13.9815659502
 20
10.5119977158
 30
0.0
 10
13.9862427493
 20
10.5128375533
 30
0.0
 10
13.9909082231
 20
10.5134668031
 30
0.0
 10
13.9955616973
 20
10.5138852984
 30
0.0
 10
14.0002025537
 20
10.5140929659
 30
0.0
 10
14.0048300063
 20
10.5140898003
 30
0.0
 10
14.0079069175
 20
10.5139470558
 30
0.0
 10
14.0094412027
 20
10.5138406492
 30
0.0
  0
SPLINE
  5
323
100
AcDbEntity
  8
0
100
AcDbSpline
 62
7
  6
CONTINUOUS
 70
0
 71
3
 72
42
 73
38
 74
0
 42
0.0000001
 43
0.0000001
 44
0.0000000001
 40
0.0
 40
0.0
 40
0.0
 40
0.0
 40
0.0149723971
 40
0.029947854
 40
0.0449294092
 40
0.0599200692
 40
0.0749227779
 40
0.0899404136
 40
0.1200256609
 40
0.1502025864
 40
0.1804899033
 40
0.2109037105
 40
0.2414571471
 40
0.2721601282
 40
0.3030191646
 40
0.3340372675
 40
0.3652139349
 40
0.3965452155
 40
0.4280238444
 40
0.459639443
 40
0.4913787765
 40
0.5232260611
 40
0.5551633129
 40
0.5871707307
 40
0.6192271064
 40
0.6513102549
 40
0.683397459
 40
0.7154659208
 40
0.7474932143
 40
0.7794577337
 40
0.8113391302
 40
0.8431187274
 40
0.8747799267
 40
0.906308519
 40
0.9376931951
 40
0.9689252215
 40
1.0
 40
1.0
 40
1.0
 40
1.0
 10
12.727706204
 20
6.5786261183
 30
0.0
 10
12.7305598985
 20
6.5813825764
 30
0.0
 10
12.736378107
 20
6.586783235
 30
0.0
 10
12.7454214643
 20
6.5945318072
 30
0.0
 10
12.7547692821
 20
6.6019183571
 30
0.0
 10
12.764408542
 20
6.6089324196
 30
0.0
 10
12.7743261947
 20
6.6155645543
 30
0.0
 10
12.7879087157
 20
6.6238898017
 30
0.0
 10
12.8055238762
 20
6.6332999773
 30
0.0
 10
12.8275318531
 20
6.6429204486
 30
0.0
 10
12.8503051649
 20
6.6508258145
 30
0.0
 10
12.8737174597
 20
6.6569722521
 30
0.0
 10
12.8976399819
 20
6.6613263611
 30
0.0
 10
12.9219409562
 20
6.6638644504
 30
0.0
 10
12.9464866761
 20
6.6645728869
 30
0.0
 10
12.9711421425
 20
6.6634480884
 30
0.0
 10
12.9957718274
 20
6.6604965444
 30
0.0
 10
13.0202404052
 20
6.6557347622
 30
0.0
 10
13.0444134888
 20
6.6491891651
 30
0.0
 10
13.0681583574
 20
6.6408959413
 30
0.0
 10
13.0913446781
 20
6.630900845
 30
0.0
 10
13.113845209
 20
6.619258932
 30
0.0
 10
13.1355364876
 20
6.6060342583
 30
0.0
 10
13.1562994994
 20
6.5912995281
 30
0.0
 10
13.1760203216
 20
6.5751356972
 30
0.0
 10
13.1945907414
 20
6.5576315314
 30
0.0
 10
13.2119088419
 20
6.5388831239
 30
0.0
 10
13.2278795563
 20
6.5189933729
 30
0.0
 10
13.2424151842
 20
6.4980714236
 30
0.0
 10
13.2554358765
 20
6.4762320803
 30
0.0
 10
13.2668700616
 20
6.4535951735
 30
0.0
 10
13.2766548436
 20
6.4302849267
 30
0.0
 10
13.2847363236
 20
6.4064292302
 30
0.0
 10
13.291069962
 20
6.3821591377
 30
0.0
 10
13.2956206682
 20
6.3576074623
 30
0.0
 10
13.2983633032
 20
6.3329107705
 30
0.0
 10
13.2989775833
 20
6.3163935988
 30
0.0
 10
13.2989775833
 20
6.308159016
 30
0.0
  0
SPLINE
  5
324
100
AcDbEntity
  8
0
100
AcDbSpline
 62
7
  6
CONTINUOUS
 70
0
 71
3
 72
50
 73
46
 74
0
 42
0.0000001
 43
0.0000001
 44
0.0000000001
 40
0.0
 40
0.0
 40
0.0
 40
0.0
 40
0.0077462999
 40
0.0155166627
 40
0.0233349019
 40
0.031224368
 40
0.0392077255
 40
0.0473067596
 40
0.0555422644
 40
0.0639339104
 40
0.0812535709
 40
0.0994036621
 40
0.1184969778
 40
0.1284289603
 40
0.1386305253
 40
0.1491108424
 40
0.1598780952
 40
0.1709395988
 40
0.1823019186
 40
0.193970835
 40
0.2059514141
 40
0.2182481452
 40
0.230864912
 40
0.2438050051
 40
0.2570712713
 40
0.2706661003
 40
0.2845913824
 40
0.3134381339
 40
0.3436206148
 40
0.3751416511
 40
0.4079994545
 40
0.4421883537
 40
0.4776991172
 40
0.5145193066
 40
0.552633732
 40
0.5920245283
 40
0.6326715012
 40
0.6745523404
 40
0.7176426038
 40
0.7619161345
 40
0.8073450818
 40
0.853899506
 40
0.9015485383
 40
0.9502611364
 40
1.0
 40
1.0
 40
1.0
 40
1.0
 10
13.7861140984
 20
7.2935752917
 30
0.0
 10
13.7841801592
 20
7.2937094154
 30
0.0
 10
13.7803131061
 20
7.2940899825
 30
0.0
 10
13.7745409036
 20
7.2949956238
 30
0.0
 10
13.7687944862
 20
7.2962361154
 30
0.0
 10
13.7630754536
 20
7.2978111429
 30
0.0
 10
13.7573850322
 20
7.2997202617
 30
0.0
 10
13.751724505
 20
7.3019628529
 30
0.0
 10
13.7460949881
 20
7.3045384316
 30
0.0
 10
13.7385534676
 20
7.3084563048
 30
0.0
 10
13.7291926072
 20
7.3142220376
 30
0.0
 10
13.7182290592
 20
7.3223872833
 30
0.0
 10
13.7093429912
 20
7.3301789117
 30
0.0
 10
13.7023152065
 20
7.3370352981
 30
0.0
 10
13.6970157895
 20
7.3425703405
 30
0.0
 10
13.691758491
 20
7.3484290569
 30
0.0
 10
13.6865441936
 20
7.3546103434
 30
0.0
 10
13.6813739488
 20
7.3611128637
 30
0.0
 10
13.6762488174
 20
7.3679353203
 30
0.0
 10
13.6711698214
 20
7.3750762953
 30
0.0
 10
13.6661379524
 20
7.3825342966
 30
0.0
 10
13.6611542588
 20
7.3903078135
 30
0.0
 10
13.6562197617
 20
7.3983952514
 30
0.0
 10
13.6513354266
 20
7.4067949217
 30
0.0
 10
13.6465022779
 20
7.4155051055
 30
0.0
 10
13.6417213018
 20
7.4245240394
 30
0.0
 10
13.6353425224
 20
7.4371065026
 30
0.0
 10
13.6275174886
 20
7.4536063025
 30
0.0
 10
13.618458561
 20
7.4743815219
 30
0.0
 10
13.6096310391
 20
7.4963416209
 30
0.0
 10
13.6010421502
 20
7.5194684107
 30
0.0
 10
13.5926990014
 20
7.5437430123
 30
0.0
 10
13.5846085035
 20
7.5691454623
 30
0.0
 10
13.5767773258
 20
7.5956548459
 30
0.0
 10
13.5692120311
 20
7.6232493132
 30
0.0
 10
13.5619188817
 20
7.6519060762
 30
0.0
 10
13.5549039455
 20
7.6816014531
 30
0.0
 10
13.5481731128
 20
7.712310883
 30
0.0
 10
13.5417319434
 20
7.7440089448
 30
0.0
 10
13.5355858327
 20
7.7766694144
 30
0.0
 10
13.5297399373
 20
7.8102651844
 30
0.0
 10
13.5241990766
 20
7.8447683799
 30
0.0
 10
13.5189678731
 20
7.8801507388
 30
0.0
 10
13.5140507899
 20
7.9163824206
 30
0.0
 10
13.5110157535
 20
7.9408337857
 30
0.0
 10
13.5095494033
 20
7.9531947337
 30
0.0
  0
SPLINE
  5
325
100
AcDbEntity
  8
0
100
AcDbSpline
 62
7
  6
CONTINUOUS
 70
0
 71
3
 72
98
 73
94
 74
0
 42
0.0000001
 43
0.0000001
 44
0.0000000001
 40
0.0
 40
0.0
 40
0.0
 40
0.0
 40
0.0027966105
 40
0.0056681242
 40
0.0086296273
 40
0.0116947345
 40
0.0148755166
 40
0.018182594
 40
0.0216251714
 40
0.0252111741
 40
0.0289473623
 40
0.0328394227
 40
0.0368921374
 40
0.0411094129
 40
0.0454944568
 40
0.0500497886
 40
0.0547773638
 40
0.0596786192
 40
0.0647545114
 40
0.0700056156
 40
0.0754320907
 40
0.0810338029
 40
0.0868102738
 40
0.0927607703
 40
0.0988842964
 40
0.1051796086
 40
0.1116452737
 40
0.1182796171
 40
0.1250808191
 40
0.1320468444
 40
0.1391755212
 40
0.14646451
 40
0.15391132
 40
0.1615133429
 40
0.1771716496
 40
0.1934161697
 40
0.21022161
 40
0.2275610373
 40
0.2454060217
 40
0.2637267658
 40
0.2824922267
 40
0.3016702276
 40
0.3212275628
 40
0.3411300976
 40
0.3613428651
 40
0.3818301597
 40
0.4025556285
 40
0.423482363
 40
0.4445729895
 40
0.4657897573
 40
0.4870946273
 40
0.5084493586
 40
0.5298155968
 40
0.5511549607
 40
0.5724291305
 40
0.5935999357
 40
0.614629442
 40
0.6354800396
 40
0.6561145305
 40
0.6764962179
 40
0.6965889966
 40
0.7163574454
 40
0.7357669192
 40
0.7547836439
 40
0.7733748138
 40
0.7915086938
 40
0.8091547262
 40
0.8262836453
 40
0.8428676036
 40
0.8588803064
 40
0.8742971623
 40
0.8817750922
 40
0.889095697
 40
0.8962564812
 40
0.9032550672
 40
0.9100892428
 40
0.9167569642
 40
0.9232563386
 40
0.929585695
 40
0.9357435185
 40
0.9417285517
 40
0.9475397356
 40
0.9531762803
 40
0.9586376695
 40
0.9639236716
 40
0.9690344244
 40
0.9739703847
 40
0.97873244
 40
0.9833218911
 40
0.9877406322
 40
0.9919911626
 40
0.9960764597
 40
1.0
 40
1.0
 40
1.0
 40
1.0
 10
13.7367440709
 20
7.7648758539
 30
0.0
 10
13.7346734363
 20
7.7656079415
 30
0.0
 10
13.7305363923
 20
7.7672660335
 30
0.0
 10
13.7244559312
 20
7.7702725866
 30
0.0
 10
13.7184313697
 20
7.7738249724
 30
0.0
 10
13.7124660531
 20
7.7779207875
 30
0.0
 10
13.7065622482
 20
7.7825574912
 30
0.0
 10
13.7007225405
 20
7.7877326134
 30
0.0
 10
13.6949492783
 20
7.7934434044
 30
0.0
 10
13.6892448901
 20
7.799687041
 30
0.0
 10
13.6836118344
 20
7.8064605255
 30
0.0
 10
13.6780524692
 20
7.8137605858
 30
0.0
 10
13.6725693511
 20
7.8215838466
 30
0.0
 10
13.6671648182
 20
7.8299265683
 30
0.0
 10
13.6618414267
 20
7.8387848912
 30
0.0
 10
13.6566015499
 20
7.8481546199
 30
0.0
 10
13.6514476469
 20
7.8580313634
 30
0.0
 10
13.646382142
 20
7.8684104703
 30
0.0
 10
13.64140736
 20
7.8792870233
 30
0.0
 10
13.6365257377
 20
7.8906559013
 30
0.0
 10
13.6317394913
 20
7.9025116896
 30
0.0
 10
13.6270509907
 20
7.9148487835
 30
0.0
 10
13.6224624003
 20
7.9276613019
 30
0.0
 10
13.6179759496
 20
7.9409431564
 30
0.0
 10
13.613593785
 20
7.9546880185
 30
0.0
 10
13.6093179687
 20
7.9688893317
 30
0.0
 10
13.6051506147
 20
7.9835403281
 30
0.0
 10
13.6010936415
 20
7.9986340054
 30
0.0
 10
13.5971490764
 20
8.0141631621
 30
0.0
 10
13.5933187461
 20
8.0301203719
 30
0.0
 10
13.5896045301
 20
8.0464980115
 30
0.0
 10
13.5860082063
 20
8.0632882443
 30
0.0
 10
13.5825314625
 20
8.0804830563
 30
0.0
 10
13.5780130833
 20
8.1041714086
 30
0.0
 10
13.5726887383
 20
8.1347375895
 30
0.0
 10
13.5668632592
 20
8.1725453298
 30
0.0
 10
13.5615516276
 20
8.211761263
 30
0.0
 10
13.556764118
 20
8.2523103027
 30
0.0
 10
13.5525100138
 20
8.294114951
 30
0.0
 10
13.5487975541
 20
8.337095223
 30
0.0
 10
13.5456339335
 20
8.381168873
 30
0.0
 10
13.543025285
 20
8.4262515402
 30
0.0
 10
13.5409766706
 20
8.4722569191
 30
0.0
 10
13.5394920715
 20
8.5190969258
 30
0.0
 10
13.5385743817
 20
8.5666818681
 30
0.0
 10
13.5382254034
 20
8.6149206184
 30
0.0
 10
13.5384458389
 20
8.6637207892
 30
0.0
 10
13.5392352934
 20
8.7129889122
 30
0.0
 10
13.5405922776
 20
8.7626306202
 30
0.0
 10
13.5425142101
 20
8.812550828
 30
0.0
 10
13.5449974231
 20
8.8626539157
 30
0.0
 10
13.5480371693
 20
8.9128439111
 30
0.0
 10
13.5516276319
 20
8.9630246744
 30
0.0
 10
13.5557619328
 20
9.0131000833
 30
0.0
 10
13.5604321449
 20
9.0629742187
 30
0.0
 10
13.5656293113
 20
9.1125515489
 30
0.0
 10
13.5713434615
 20
9.1617371136
 30
0.0
 10
13.5775636307
 20
9.2104367054
 30
0.0
 10
13.5842778803
 20
9.2585570508
 30
0.0
 10
13.5914733207
 20
9.3060059897
 30
0.0
 10
13.5991361359
 20
9.3526926543
 30
0.0
 10
13.6072516046
 20
9.3985276464
 30
0.0
 10
13.6158041333
 20
9.4434232096
 30
0.0
 10
13.6247772858
 20
9.4872933984
 30
0.0
 10
13.6341538136
 20
9.5300542442
 30
0.0
 10
13.6439156892
 20
9.5716239182
 30
0.0
 10
13.6540441395
 20
9.6119228966
 30
0.0
 10
13.6645196836
 20
9.6508741002
 30
0.0
 10
13.6753221663
 20
9.6884031214
 30
0.0
 10
13.6864307972
 20
9.7244381276
 30
0.0
 10
13.6960200144
 20
9.7534519824
 30
0.0
 10
13.703838279
 20
9.7758562856
 30
0.0
 10
13.709705637
 20
9.792073048
 30
0.0
 10
13.715633321
 20
9.8078664035
 30
0.0
 10
13.7216185438
 20
9.8232288095
 30
0.0
 10
13.7276584285
 20
9.8381529194
 30
0.0
 10
13.7337500519
 20
9.8526316108
 30
0.0
 10
13.7398905535
 20
9.8666579544
 30
0.0
 10
13.7460769152
 20
9.8802252741
 30
0.0
 10
13.7523062585
 20
9.8933270759
 30
0.0
 10
13.7585755317
 20
9.9059571344
 30
0.0
 10
13.764881788
 20
9.9181094199
 30
0.0
 10
13.7712220009
 20
9.9297781513
 30
0.0
 10
13.7775931245
 20
9.9409577918
 30
0.0
 10
13.7839921886
 20
9.9516430125
 30
0.0
 10
13.7904160799
 20
9.9618287877
 30
0.0
 10
13.7968618554
 20
9.9715102443
 30
0.0
 10
13.8033263614
 20
9.9806828339
 30
0.0
 10
13.8098066332
 20
9.9893422125
 30
0.0
 10
13.8162996786
 20
9.9974843596
 30
0.0
 10
13.8228025955
 20
10.0051055185
 30
0.0
 10
13.829312111
 20
10.0122017472
 30
0.0
 10
13.8337421923
 20
10.0166692314
 30
0.0
 10
13.8359583926
 20
10.0188099166
 30
0.0
  0
SPLINE
  5
326
100
AcDbEntity
  8
0
100
AcDbSpline
 62
7
  6
CONTINUOUS
 70
0
 71
3
 72
15
 73
11
 74
0
 42
0.0000001
 43
0.0000001
 44
0.0000000001
 40
0.0
 40
0.0
 40
0.0
 40
0.0
 40
0.1084410121
 40
0.2203195438
 40
0.3363916335
 40
0.4573228386
 40
0.5836920395
 40
0.7159966226
 40
0.8546549992
 40
1.0
 40
1.0
 40
1.0
 40
1.0
 10
13.8954868221
 20
10.0538668768
 30
0.0
 10
13.8930079367
 20
10.0533608798
 30
0.0
 10
13.8880179726
 20
10.0520920151
 30
0.0
 10
13.8806052302
 20
10.0494863591
 30
0.0
 10
13.8731684979
 20
10.0461558536
 30
0.0
 10
13.8657129579
 20
10.0421042545
 30
0.0
 10
13.8582425336
 20
10.0373348121
 30
0.0
 10
13.850761134
 20
10.0318511472
 30
0.0
 10
13.8432732878
 20
10.0256572873
 30
0.0
 10
13.8383973818
 20
10.0211657994
 30
0.0
 10
13.8359583926
 20
10.0188099166
 30
0.0
  0
SPLINE
  5
327
100
AcDbEntity
  8
0
100
AcDbSpline
 62
7
  6
CONTINUOUS
 70
0
 71
3
 72
23
 73
19
 74
0
 42
0.0000001
 43
0.0000001
 44
0.0000000001
 40
0.0
 40
0.0
 40
0.0
 40
0.0
 40
0.0637764154
 40
0.1273451281
 40
0.190701988
 40
0.253856063
 40
0.3168132283
 40
0.3795820791
 40
0.4421733864
 40
0.5045993414
 40
0.5668738629
 40
0.629012379
 40
0.6910316532
 40
0.7529496461
 40
0.8147853522
 40
0.8765586034
 40
0.9382898574
 40
1.0
 40
1.0
 40
1.0
 40
1.0
 10
12.6344205754
 20
6.354246201
 30
0.0
 10
12.6344205754
 20
6.3595536341
 30
0.0
 10
12.6346746389
 20
6.3701530131
 30
0.0
 10
12.635821202
 20
6.3859875775
 30
0.0
 10
12.6377303032
 20
6.4016966672
 30
0.0
 10
12.6403973434
 20
6.417243296
 30
0.0
 10
12.6438163524
 20
6.4325919951
 30
0.0
 10
12.6479794207
 20
6.4477072822
 30
0.0
 10
12.6528769721
 20
6.4625543238
 30
0.0
 10
12.6584978201
 20
6.4770988672
 30
0.0
 10
12.6648289844
 20
6.4913073791
 30
0.0
 10
12.671855875
 20
6.5051471007
 30
0.0
 10
12.679562347
 20
6.5185860876
 30
0.0
 10
12.6879306698
 20
6.5315933304
 30
0.0
 10
12.6969414856
 20
6.5441388225
 30
0.0
 10
12.7065741333
 20
6.5561937207
 30
0.0
 10
12.7168060633
 20
6.5677298015
 30
0.0
 10
12.7240124875
 20
6.5750582611
 30
0.0
 10
12.727706204
 20
6.5786261183
 30
0.0
  0
SPLINE
  5
328
100
AcDbEntity
  8
0
100
AcDbSpline
 62
7
  6
CONTINUOUS
 70
0
 71
3
 72
42
 73
38
 74
0
 42
0.0000001
 43
0.0000001
 44
0.0000000001
 40
0.0
 40
0.0
 40
0.0
 40
0.0
 40
0.0149723971
 40
0.029947854
 40
0.0449294092
 40
0.0599200692
 40
0.0749227779
 40
0.0899404136
 40
0.1200256609
 40
0.1502025864
 40
0.1804899033
 40
0.2109037105
 40
0.2414571471
 40
0.2721601282
 40
0.3030191646
 40
0.3340372675
 40
0.3652139349
 40
0.3965452155
 40
0.4280238444
 40
0.459639443
 40
0.4913787765
 40
0.5232260611
 40
0.5551633129
 40
0.5871707307
 40
0.6192271064
 40
0.6513102549
 40
0.683397459
 40
0.7154659208
 40
0.7474932143
 40
0.7794577337
 40
0.8113391302
 40
0.8431187274
 40
0.8747799267
 40
0.906308519
 40
0.9376931951
 40
0.9689252215
 40
1.0
 40
1.0
 40
1.0
 40
1.0
 10
13.2056919547
 20
6.0837790987
 30
0.0
 10
13.2028382602
 20
6.0810226406
 30
0.0
 10
13.1970200517
 20
6.0756219821
 30
0.0
 10
13.1879766944
 20
6.0678734098
 30
0.0
 10
13.1786288766
 20
6.0604868599
 30
0.0
 10
13.1689896166
 20
6.0534727974
 30
0.0
 10
13.159071964
 20
6.0468406627
 30
0.0
 10
13.145489443
 20
6.0385154153
 30
0.0
 10
13.1278742824
 20
6.0291052397
 30
0.0
 10
13.1058663056
 20
6.0194847684
 30
0.0
 10
13.0830929937
 20
6.0115794026
 30
0.0
 10
13.059680699
 20
6.005432965
 30
0.0
 10
13.0357581768
 20
6.0010788559
 30
0.0
 10
13.0114572025
 20
5.9985407666
 30
0.0
 10
12.9869114826
 20
5.9978323302
 30
0.0
 10
12.9622560162
 20
5.9989571287
 30
0.0
 10
12.9376263313
 20
6.0019086726
 30
0.0
 10
12.9131577535
 20
6.0066704548
 30
0.0
 10
12.8889846699
 20
6.013216052
 30
0.0
 10
12.8652398013
 20
6.0215092757
 30
0.0
 10
12.8420534805
 20
6.0315043721
 30
0.0
 10
12.8195529497
 20
6.0431462851
 30
0.0
 10
12.797861671
 20
6.0563709588
 30
0.0
 10
12.7770986593
 20
6.0711056889
 30
0.0
 10
12.757377837
 20
6.0872695198
 30
0.0
 10
12.7388074173
 20
6.1047736856
 30
0.0
 10
12.7214893167
 20
6.1235220932
 30
0.0
 10
12.7055186024
 20
6.1434118441
 30
0.0
 10
12.6909829745
 20
6.1643337934
 30
0.0
 10
12.6779622822
 20
6.1861731367
 30
0.0
 10
12.6665280971
 20
6.2088100435
 30
0.0
 10
12.6567433151
 20
6.2321202904
 30
0.0
 10
12.648661835
 20
6.2559759868
 30
0.0
 10
12.6423281967
 20
6.2802460793
 30
0.0
 10
12.6377774905
 20
6.3047977547
 30
0.0
 10
12.6350348555
 20
6.3294944465
 30
0.0
 10
12.6344205754
 20
6.3460116183
 30
0.0
 10
12.6344205754
 20
6.354246201
 30
0.0
  0
SPLINE
  5
329
100
AcDbEntity
  8
0
100
AcDbSpline
 62
7
  6
CONTINUOUS
 70
0
 71
3
 72
57
 73
53
 74
0
 42
0.0000001
 43
0.0000001
 44
0.0000000001
 40
0.0
 40
0.0
 40
0.0
 40
0.0
 40
0.0060509217
 40
0.0122726863
 40
0.018695861
 40
0.0253478836
 40
0.0322530458
 40
0.039432643
 40
0.0469051104
 40
0.054686323
 40
0.0627897504
 40
0.0712268038
 40
0.0800069457
 40
0.0891380276
 40
0.0986263456
 40
0.1084769395
 40
0.1186936122
 40
0.1292791731
 40
0.1402354472
 40
0.1515634542
 40
0.1632634281
 40
0.1753349295
 40
0.1877768908
 40
0.2005876628
 40
0.2137650928
 40
0.2273065118
 40
0.2412088456
 40
0.2554685526
 40
0.2700817615
 40
0.2850441748
 40
0.3003512201
 40
0.3159979378
 40
0.3319791301
 40
0.3482892522
 40
0.3649225425
 40
0.381872934
 40
0.3991341533
 40
0.4166996639
 40
0.4527160317
 40
0.4898659404
 40
0.5280898013
 40
0.5673251848
 40
0.6075070659
 40
0.6485680535
 40
0.690438607
 40
0.7330472408
 40
0.7763207315
 40
0.8201842862
 40
0.8645618074
 40
0.9093758725
 40
0.9545484209
 40
1.0
 40
1.0
 40
1.0
 40
1.0
 10
13.755764127
 20
7.3005267306
 30
0.0
 10
13.7587593645
 20
7.30123326
 30
0.0
 10
13.7647789932
 20
7.3029116453
 30
0.0
 10
13.7737265793
 20
7.3061529465
 30
0.0
 10
13.7827001633
 20
7.310146572
 30
0.0
 10
13.7916949643
 20
7.3148896617
 30
0.0
 10
13.8007074016
 20
7.320379345
 30
0.0
 10
13.8097335839
 20
7.326612644
 30
0.0
 10
13.8187698276
 20
7.3335862591
 30
0.0
 10
13.8278122393
 20
7.3412968455
 30
0.0
 10
13.8368570677
 20
7.3497406235
 30
0.0
 10
13.845900296
 20
7.3589137292
 30
0.0
 10
13.8549380768
 20
7.3688118149
 30
0.0
 10
13.8639662852
 20
7.3794303967
 30
0.0
 10
13.8729809836
 20
7.3907645073
 30
0.0
 10
13.8819779864
 20
7.4028089905
 30
0.0
 10
13.8909532838
 20
7.4155582383
 30
0.0
 10
13.8999026758
 20
7.4290064057
 30
0.0
 10
13.9088221007
 20
7.4431472395
 30
0.0
 10
13.9177073796
 20
7.4579742102
 30
0.0
 10
13.9265544178
 20
7.473480423
 30
0.0
 10
13.9353590819
 20
7.4896586785
 30
0.0
 10
13.9441172626
 20
7.5065014488
 30
0.0
 10
13.9528248871
 20
7.5240008841
 30
0.0
 10
13.9614778493
 20
7.5421488345
 30
0.0
 10
13.9700721461
 20
7.5609368205
 30
0.0
 10
13.9786036923
 20
7.5803560837
 30
0.0
 10
13.9870685583
 20
7.6003975367
 30
0.0
 10
13.9954626988
 20
7.6210518275
 30
0.0
 10
14.0037822576
 20
7.6423092825
 30
0.0
 10
14.012023249
 20
7.6641599726
 30
0.0
 10
14.0201818879
 20
7.6865936599
 30
0.0
 10
14.0282542676
 20
7.7095998564
 30
0.0
 10
14.0362366713
 20
7.733167781
 30
0.0
 10
14.0441252898
 20
7.7572864081
 30
0.0
 10
14.0519164691
 20
7.7819444312
 30
0.0
 10
14.0596065314
 20
7.8071303221
 30
0.0
 10
14.0698051808
 20
7.8416873364
 30
0.0
 10
14.0822613592
 20
7.8861223714
 30
0.0
 10
14.0966273867
 20
7.9409250789
 30
0.0
 10
14.1105065248
 20
7.9975401182
 30
0.0
 10
14.1238726559
 20
8.0558613603
 30
0.0
 10
14.1367006244
 20
8.1157796369
 30
0.0
 10
14.1489662961
 20
8.1771827073
 30
0.0
 10
14.1606465989
 20
8.2399555402
 30
0.0
 10
14.1717195686
 20
8.3039805179
 30
0.0
 10
14.1821643837
 20
8.3691376545
 30
0.0
 10
14.1919614184
 20
8.4353048535
 30
0.0
 10
14.2010922457
 20
8.5023580502
 30
0.0
 10
14.2095397406
 20
8.5701716739
 30
0.0
 10
14.2172879901
 20
8.6386183976
 30
0.0
 10
14.2219660041
 20
8.684472023
 30
0.0
 10
14.2241866398
 20
8.7074813392
 30
0.0
  0
SPLINE
  5
32A
100
AcDbEntity
  8
0
100
AcDbSpline
 62
7
  6
CONTINUOUS
 70
0
 71
3
 72
50
 73
46
 74
0
 42
0.0000001
 43
0.0000001
 44
0.0000000001
 40
0.0
 40
0.0
 40
0.0
 40
0.0
 40
0.0077462999
 40
0.0155166627
 40
0.0233349019
 40
0.031224368
 40
0.0392077255
 40
0.0473067596
 40
0.0555422644
 40
0.0639339104
 40
0.0812535709
 40
0.0994036621
 40
0.1184969778
 40
0.1284289603
 40
0.1386305253
 40
0.1491108424
 40
0.1598780952
 40
0.1709395988
 40
0.1823019186
 40
0.193970835
 40
0.2059514141
 40
0.2182481452
 40
0.230864912
 40
0.2438050051
 40
0.2570712713
 40
0.2706661003
 40
0.2845913824
 40
0.3134381339
 40
0.3436206148
 40
0.3751416511
 40
0.4079994545
 40
0.4421883537
 40
0.4776991172
 40
0.5145193066
 40
0.552633732
 40
0.5920245283
 40
0.6326715012
 40
0.6745523404
 40
0.7176426038
 40
0.7619161345
 40
0.8073450818
 40
0.853899506
 40
0.9015485383
 40
0.9502611364
 40
1.0
 40
1.0
 40
1.0
 40
1.0
 10
14.0094412027
 20
10.5138406492
 30
0.0
 10
14.0113751419
 20
10.5137065255
 30
0.0
 10
14.015242195
 20
10.5133259584
 30
0.0
 10
14.0210143975
 20
10.5124203171
 30
0.0
 10
14.0267608149
 20
10.5111798255
 30
0.0
 10
14.0324798475
 20
10.509604798
 30
0.0
 10
14.0381702689
 20
10.5076956792
 30
0.0
 10
14.0438307961
 20
10.505453088
 30
0.0
 10
14.0494603131
 20
10.5028775093
 30
0.0
 10
14.0570018335
 20
10.4989596361
 30
0.0
 10
14.0663626939
 20
10.4931939033
 30
0.0
 10
14.0773262419
 20
10.4850286576
 30
0.0
 10
14.0862123099
 20
10.4772370292
 30
0.0
 10
14.0932400947
 20
10.4703806428
 30
0.0
 10
14.0985395116
 20
10.4648456004
 30
0.0
 10
14.1037968101
 20
10.458986884
 30
0.0
 10
14.1090111075
 20
10.4528055975
 30
0.0
 10
14.1141813523
 20
10.4463030772
 30
0.0
 10
14.1193064838
 20
10.4394806206
 30
0.0
 10
14.1243854797
 20
10.4323396456
 30
0.0
 10
14.1294173487
 20
10.4248816443
 30
0.0
 10
14.1344010423
 20
10.4171081274
 30
0.0
 10
14.1393355394
 20
10.4090206895
 30
0.0
 10
14.1442198745
 20
10.4006210192
 30
0.0
 10
14.1490530232
 20
10.3919108354
 30
0.0
 10
14.1538339993
 20
10.3828919015
 30
0.0
 10
14.1602127787
 20
10.3703094383
 30
0.0
 10
14.1680378125
 20
10.3538096384
 30
0.0
 10
14.1770967402
 20
10.333034419
 30
0.0
 10
14.185924262
 20
10.31107432
 30
0.0
 10
14.1945131509
 20
10.2879475302
 30
0.0
 10
14.2028562998
 20
10.2636729286
 30
0.0
 10
14.2109467976
 20
10.2382704786
 30
0.0
 10
14.2187779753
 20
10.211761095
 30
0.0
 10
14.22634327
 20
10.1841666277
 30
0.0
 10
14.2336364194
 20
10.1555098647
 30
0.0
 10
14.2406513557
 20
10.1258144878
 30
0.0
 10
14.2473821884
 20
10.0951050579
 30
0.0
 10
14.2538233577
 20
10.0634069961
 30
0.0
 10
14.2599694684
 20
10.0307465265
 30
0.0
 10
14.2658153639
 20
9.9971507565
 30
0.0
 10
14.2713562245
 20
9.962647561
 30
0.0
 10
14.2765874281
 20
9.9272652021
 30
0.0
 10
14.2815045112
 20
9.8910335203
 30
0.0
 10
14.2845395476
 20
9.8665821552
 30
0.0
 10
14.2860058978
 20
9.8542212072
 30
0.0
  0
SPLINE
  5
32B
100
AcDbEntity
  8
0
100
AcDbSpline
 62
7
  6
CONTINUOUS
 70
0
 71
3
 72
64
 73
60
 74
0
 42
0.0000001
 43
0.0000001
 44
0.0000000001
 40
0.0
 40
0.0
 40
0.0
 40
0.0
 40
0.0470067708
 40
0.0937037688
 40
0.1399998207
 40
0.1858047896
 40
0.2310297651
 40
0.2755873238
 40
0.3193917607
 40
0.3623593375
 40
0.4044085335
 40
0.4454603053
 40
0.4854383582
 40
0.505001885
 40
0.524269784
 40
0.5432333971
 40
0.5618843481
 40
0.5802144479
 40
0.5982158149
 40
0.6158807765
 40
0.6332019961
 40
0.650172372
 40
0.666785171
 40
0.6830339254
 40
0.6989125735
 40
0.7144153572
 40
0.7295369695
 40
0.7442724535
 40
0.7586173591
 40
0.7725676462
 40
0.7861198506
 40
0.7992709959
 40
0.8120187712
 40
0.8243614554
 40
0.8362981109
 40
0.8478285262
 40
0.8589534308
 40
0.8696744649
 40
0.8799944224
 40
0.8899172582
 40
0.8994483695
 40
0.9085946531
 40
0.917364834
 40
0.9257695851
 40
0.9338219072
 40
0.9415373117
 40
0.948934235
 40
0.9560342532
 40
0.9628624635
 40
0.9694476304
 40
0.9758223817
 40
0.9789427389
 40
0.9820244452
 40
0.9850725977
 40
0.9880924758
 40
0.9910895217
 40
0.9940693192
 40
0.9970375584
 40
1.0
 40
1.0
 40
1.0
 40
1.0
 10
14.2860058978
 20
8.7031941591
 30
0.0
 10
14.283661566
 20
8.6789031553
 30
0.0
 10
14.2787093845
 20
8.630507661
 30
0.0
 10
14.2704667192
 20
8.5582931491
 30
0.0
 10
14.2614465732
 20
8.4868003062
 30
0.0
 10
14.251667853
 20
8.4161786592
 30
0.0
 10
14.2411510418
 20
8.3465757355
 30
0.0
 10
14.229918181
 20
8.2781369722
 30
0.0
 10
14.2179928174
 20
8.211005342
 30
0.0
 10
14.2053999557
 20
8.1453210865
 30
0.0
 10
14.1921660112
 20
8.0812213515
 30
0.0
 10
14.1783187366
 20
8.0188401215
 30
0.0
 10
14.1662070868
 20
7.9680377587
 30
0.0
 10
14.1562232112
 20
7.928359707
 30
0.0
 10
14.1486542111
 20
7.8993250128
 30
0.0
 10
14.1409542089
 20
7.870815247
 30
0.0
 10
14.1331272811
 20
7.8428452815
 30
0.0
 10
14.1251774598
 20
7.8154297351
 30
0.0
 10
14.1171089748
 20
7.7885829198
 30
0.0
 10
14.1089259774
 20
7.762318862
 30
0.0
 10
14.1006328229
 20
7.7366512683
 30
0.0
 10
14.0922337774
 20
7.7115935469
 30
0.0
 10
14.0837333115
 20
7.6871587681
 30
0.0
 10
14.0751357971
 20
7.6633596933
 30
0.0
 10
14.0664458103
 20
7.6402087276
 30
0.0
 10
14.0576678184
 20
7.6177179584
 30
0.0
 10
14.0488064932
 20
7.5958990976
 30
0.0
 10
14.0398663865
 20
7.574763532
 30
0.0
 10
14.0308522549
 20
7.5543222536
 30
0.0
 10
14.021768723
 20
7.5345859233
 30
0.0
 10
14.01262062
 20
7.5155647869
 30
0.0
 10
14.0034126301
 20
7.4972687555
 30
0.0
 10
13.9941496412
 20
7.4797073035
 30
0.0
 10
13.9848363817
 20
7.4628895694
 30
0.0
 10
13.9754777811
 20
7.4468242324
 30
0.0
 10
13.9660785929
 20
7.4315196379
 30
0.0
 10
13.9566437671
 20
7.416983648
 30
0.0
 10
13.9471780578
 20
7.4032237982
 30
0.0
 10
13.9376864068
 20
7.3902471164
 30
0.0
 10
13.9281735369
 20
7.3780603189
 30
0.0
 10
13.9186443438
 20
7.366669593
 30
0.0
 10
13.9091034778
 20
7.3560808425
 30
0.0
 10
13.8995557407
 20
7.3462994293
 30
0.0
 10
13.8900056641
 20
7.3373304833
 30
0.0
 10
13.8804579085
 20
7.3291785985
 30
0.0
 10
13.87091686
 20
7.3218482244
 30
0.0
 10
13.8613870194
 20
7.3153433074
 30
0.0
 10
13.8518727096
 20
7.3096677832
 30
0.0
 10
13.8423782692
 20
7.3048251031
 30
0.0
 10
13.8329086111
 20
7.3008189349
 30
0.0
 10
13.8249846802
 20
7.2981611631
 30
0.0
 10
13.8186769138
 20
7.2964685335
 30
0.0
 10
13.8139893509
 20
7.2954182251
 30
0.0
 10
13.8093125519
 20
7.2945783876
 30
0.0
 10
13.804647078
 20
7.2939491378
 30
0.0
 10
13.7999936038
 20
7.2935306425
 30
0.0
 10
13.7953527474
 20
7.293322975
 30
0.0
 10
13.7907252948
 20
7.2933261406
 30
0.0
 10
13.7876483836
 20
7.2934688851
 30
0.0
 10
13.7861140984
 20
7.2935752917
 30
0.0
  0
SPLINE
  5
32C
100
AcDbEntity
  8
0
100
AcDbSpline
 62
7
  6
CONTINUOUS
 70
0
 71
3
 72
40
 73
36
 74
0
 42
0.0000001
 43
0.0000001
 44
0.0000000001
 40
0.0
 40
0.0
 40
0.0
 40
0.0
 40
0.0476424334
 40
0.0943869834
 40
0.1402026515
 40
0.1850641416
 40
0.2289466598
 40
0.2718255469
 40
0.3136777074
 40
0.354481294
 40
0.3942157955
 40
0.4328620074
 40
0.4704023014
 40
0.5068206829
 40
0.5421028385
 40
0.5762364811
 40
0.6092112775
 40
0.6410193089
 40
0.67165511
 40
0.7011160602
 40
0.7294027392
 40
0.7565191952
 40
0.7824736513
 40
0.8072788166
 40
0.8309528094
 40
0.8535198036
 40
0.8750110363
 40
0.8954659718
 40
0.914933393
 40
0.9334729741
 40
0.951156463
 40
0.9680691425
 40
0.9843107093
 40
0.9922171606
 40
1.0
 40
1.0
 40
1.0
 40
1.0
 10
14.2241866398
 20
9.8585083874
 30
0.0
 10
14.2228405485
 20
9.8698555838
 30
0.0
 10
14.2200618843
 20
9.8923230411
 30
0.0
 10
14.2155870752
 20
9.9256513703
 30
0.0
 10
14.2108473455
 20
9.9582692749
 30
0.0
 10
14.2058461329
 20
9.9901534896
 30
0.0
 10
14.2005869327
 20
10.0212820893
 30
0.0
 10
14.1950733706
 20
10.0516333928
 30
0.0
 10
14.1893093811
 20
10.0811861618
 30
0.0
 10
14.1832989463
 20
10.109919803
 30
0.0
 10
14.1770463352
 20
10.1378143089
 30
0.0
 10
14.1705558909
 20
10.1648502432
 30
0.0
 10
14.1638321716
 20
10.1910087823
 30
0.0
 10
14.156879911
 20
10.2162717315
 30
0.0
 10
14.149703919
 20
10.2406215224
 30
0.0
 10
14.1423092872
 20
10.2640412535
 30
0.0
 10
14.1347011012
 20
10.2865146688
 30
0.0
 10
14.1268847251
 20
10.3080262127
 30
0.0
 10
14.1188655601
 20
10.3285610076
 30
0.0
 10
14.1106491526
 20
10.348104883
 30
0.0
 10
14.1022412143
 20
10.3666444049
 30
0.0
 10
14.0936474237
 20
10.3841668288
 30
0.0
 10
14.0848737115
 20
10.4006602078
 30
0.0
 10
14.0759258792
 20
10.4161132735
 30
0.0
 10
14.0668099056
 20
10.4305155585
 30
0.0
 10
14.057531685
 20
10.4438573012
 30
0.0
 10
14.0480970587
 20
10.456129433
 30
0.0
 10
14.0385119019
 20
10.4673236224
 30
0.0
 10
14.0287817909
 20
10.4774320117
 30
0.0
 10
14.0189124894
 20
10.4864473656
 30
0.0
 10
14.0089092355
 20
10.4943627475
 30
0.0
 10
13.9987784717
 20
10.5011711711
 30
0.0
 10
13.9901567404
 20
10.5059598902
 30
0.0
 10
13.9832187341
 20
10.509207975
 30
0.0
 10
13.9797375824
 20
10.5106414872
 30
0.0
 10
13.9779946428
 20
10.5113097785
 30
0.0
  0
SPLINE
  5
32D
100
AcDbEntity
  8
0
100
AcDbSpline
 62
7
  6
CONTINUOUS
 70
0
 71
3
 72
24
 73
20
 74
0
 42
0.0000001
 43
0.0000001
 44
0.0000000001
 40
0.0
 40
0.0
 40
0.0
 40
0.0
 40
0.0781375804
 40
0.1532318114
 40
0.2254027467
 40
0.2947970419
 40
0.3615884182
 40
0.3940729271
 40
0.4259834725
 40
0.4881916252
 40
0.5484740551
 40
0.6071134961
 40
0.6644199051
 40
0.7207277502
 40
0.7763913227
 40
0.8317783637
 40
0.8872626982
 40
0.9432160374
 40
1.0
 40
1.0
 40
1.0
 40
1.0
 10
13.8359583926
 20
7.7971803845
 30
0.0
 10
13.8338926332
 20
7.7951850141
 30
0.0
 10
13.8297623783
 20
7.7913527373
 30
0.0
 10
13.8234430624
 20
7.7859903433
 30
0.0
 10
13.8171279115
 20
7.781133071
 30
0.0
 10
13.8108199746
 20
7.7767836121
 30
0.0
 10
13.8055230293
 20
7.7735544213
 30
0.0
 10
13.801294433
 20
7.7712355011
 30
0.0
 10
13.7971453384
 20
7.7691269085
 30
0.0
 10
13.7919632776
 20
7.7668015416
 30
0.0
 10
13.7857089653
 20
7.7645028479
 30
0.0
 10
13.7794747276
 20
7.7627212421
 30
0.0
 10
13.7732636784
 20
7.7614583223
 30
0.0
 10
13.7670790146
 20
7.7607153118
 30
0.0
 10
13.7609241826
 20
7.7604929666
 30
0.0
 10
13.7548028116
 20
7.7607918421
 30
0.0
 10
13.7487184209
 20
7.7616116696
 30
0.0
 10
13.7426750819
 20
7.7629517888
 30
0.0
 10
13.738711894
 20
7.764180116
 30
0.0
 10
13.7367440709
 20
7.7648758539
 30
0.0
  0
SPLINE
  5
32E
100
AcDbEntity
  8
0
100
AcDbSpline
 62
7
  6
CONTINUOUS
 70
0
 71
3
 72
105
 73
101
 74
0
 42
0.0000001
 43
0.0000001
 44
0.0000000001
 40
0.0
 40
0.0
 40
0.0
 40
0.0
 40
0.0040523345
 40
0.0082800171
 40
0.0126869499
 40
0.0172764538
 40
0.0220512604
 40
0.0270133536
 40
0.0321640798
 40
0.0375042852
 40
0.0430343457
 40
0.0487542504
 40
0.0546635631
 40
0.0607615505
 40
0.0670471223
 40
0.0735189452
 40
0.0801753874
 40
0.0870145988
 40
0.0940344912
 40
0.1012327662
 40
0.1086069419
 40
0.1161543281
 40
0.1238720946
 40
0.1317572088
 40
0.1398065249
 40
0.148016711
 40
0.1563843314
 40
0.1649057915
 40
0.1823951114
 40
0.2004537993
 40
0.2190490449
 40
0.2381464597
 40
0.2577102222
 40
0.2777032137
 40
0.298087147
 40
0.3188226893
 40
0.3398695812
 40
0.361186753
 40
0.3827324386
 40
0.4044642883
 40
0.4263394806
 40
0.4483148318
 40
0.4703469067
 40
0.4923921274
 40
0.5144068834
 40
0.53634764
 40
0.5581710486
 40
0.5798340558
 40
0.6012940141
 40
0.6225087927
 40
0.6434368891
 40
0.664037542
 40
0.684270846
 40
0.7040978691
 40
0.7234807728
 40
0.7423829378
 40
0.7607690943
 40
0.7786054622
 40
0.7958599008
 40
0.8042594411
 40
0.8125022859
 40
0.8205849471
 40
0.8285040866
 40
0.836256509
 40
0.8438391621
 40
0.8512491761
 40
0.8584838209
 40
0.8655405875
 40
0.8724171169
 40
0.8791113014
 40
0.8856212149
 40
0.8919452039
 40
0.8980818502
 40
0.9040300277
 40
0.9097889189
 40
0.915358027
 40
0.9207372528
 40
0.9259268699
 40
0.930927652
 40
0.9357408367
 40
0.9403682796
 40
0.9448124434
 40
0.9490765522
 40
0.9531646403
 40
0.9570816897
 40
0.9608337541
 40
0.9644280754
 40
0.9678732719
 40
0.9695432397
 40
0.9711798519
 40
0.9743587309
 40
0.9774238038
 40
0.9803903768
 40
0.9832755203
 40
0.9860979742
 40
0.9888778757
 40
0.9916363875
 40
0.9943952098
 40
0.9971760358
 40
1.0
 40
1.0
 40
1.0
 40
1.0
 10
13.8359583926
 20
7.7971803845
 30
0.0
 10
13.8382864671
 20
7.799429132
 30
0.0
 10
13.8429398973
 20
7.8041320262
 30
0.0
 10
13.8497705188
 20
7.811620827
 30
0.0
 10
13.8565934725
 20
7.8196872469
 30
0.0
 10
13.8634050482
 20
7.8283267086
 30
0.0
 10
13.8702018631
 20
7.8375348634
 30
0.0
 10
13.8769805101
 20
7.8473069626
 30
0.0
 10
13.8837374807
 20
7.8576379456
 30
0.0
 10
13.8904692155
 20
7.8685224352
 30
0.0
 10
13.8971722708
 20
7.8799547332
 30
0.0
 10
13.9038430706
 20
7.8919289081
 30
0.0
 10
13.9104782121
 20
7.90443867
 30
0.0
 10
13.9170741112
 20
7.9174775025
 30
0.0
 10
13.9236273932
 20
7.9310385423
 30
0.0
 10
13.9301345268
 20
7.9451146997
 30
0.0
 10
13.9365921465
 20
7.959698567
 30
0.0
 10
13.9429968064
 20
7.9747824927
 30
0.0
 10
13.9493451432
 20
7.9903585422
 30
0.0
 10
13.9556338153
 20
8.0064185218
 30
0.0
 10
13.9618594708
 20
8.0229539856
 30
0.0
 10
13.9680188739
 20
8.0399562212
 30
0.0
 10
13.9741087051
 20
8.0574162857
 30
0.0
 10
13.9801258229
 20
8.0753249718
 30
0.0
 10
13.9860669729
 20
8.0936728559
 30
0.0
 10
13.9919290842
 20
8.1124502574
 30
0.0
 10
13.9977090184
 20
8.1316473003
 30
0.0
 10
14.005368197
 20
8.1580175121
 30
0.0
 10
14.014703736
 20
8.1919595698
 30
0.0
 10
14.0254364666
 20
8.2338554408
 30
0.0
 10
14.0357710813
 20
8.2771728321
 30
0.0
 10
14.0456856921
 20
8.3218203805
 30
0.0
 10
14.0551592949
 20
8.3677040486
 30
0.0
 10
14.0641718285
 20
8.4147271233
 30
0.0
 10
14.0727042124
 20
8.4627904817
 30
0.0
 10
14.0807383878
 20
8.5117927875
 30
0.0
 10
14.0882573544
 20
8.561630712
 30
0.0
 10
14.0952452073
 20
8.6121991531
 30
0.0
 10
14.1016871697
 20
8.6633914589
 30
0.0
 10
14.107569623
 20
8.7150996559
 30
0.0
 10
14.1128801353
 20
8.7672146776
 30
0.0
 10
14.1176074874
 20
8.8196265958
 30
0.0
 10
14.1217416963
 20
8.8722248535
 30
0.0
 10
14.1252740361
 20
8.9248984993
 30
0.0
 10
14.1281970566
 20
8.9775364215
 30
0.0
 10
14.130504599
 20
9.0300275841
 30
0.0
 10
14.1321918087
 20
9.0822612612
 30
0.0
 10
14.1332551465
 20
9.1341272723
 30
0.0
 10
14.1336923972
 20
9.185516216
 30
0.0
 10
14.1335026736
 20
9.2363197019
 30
0.0
 10
14.1326864193
 20
9.2864305813
 30
0.0
 10
14.1312454073
 20
9.335743174
 30
0.0
 10
14.129182738
 20
9.3841534935
 30
0.0
 10
14.1265028329
 20
9.4315594679
 30
0.0
 10
14.1232114269
 20
9.4778611622
 30
0.0
 10
14.1193155545
 20
9.5229609769
 30
0.0
 10
14.1148235477
 20
9.5667639174
 30
0.0
 10
14.109744975
 20
9.6091775892
 30
0.0
 10
14.1049916669
 20
9.6435908806
 30
0.0
 10
14.1008938764
 20
9.6703543385
 30
0.0
 10
14.0977083621
 20
9.6898451415
 30
0.0
 10
14.0943848956
 20
9.7089235201
 30
0.0
 10
14.0909252262
 20
9.7275794344
 30
0.0
 10
14.0873312011
 20
9.7458030512
 30
0.0
 10
14.0836046879
 20
9.7635847702
 30
0.0
 10
14.0797477118
 20
9.7809152273
 30
0.0
 10
14.075762243
 20
9.7977852952
 30
0.0
 10
14.0716504714
 20
9.814186098
 30
0.0
 10
14.0674144843
 20
9.8301090015
 30
0.0
 10
14.0630566045
 20
9.8455456382
 30
0.0
 10
14.0585790611
 20
9.860487889
 30
0.0
 10
14.0539842731
 20
9.8749279111
 30
0.0
 10
14.0492746313
 20
9.8888581235
 30
0.0
 10
14.044452622
 20
9.9022712222
 30
0.0
 10
14.0395208038
 20
9.9151601888
 30
0.0
 10
14.034481713
 20
9.9275182704
 30
0.0
 10
14.0293380635
 20
9.939339034
 30
0.0
 10
14.0240924388
 20
9.9506162915
 30
0.0
 10
14.0187476719
 20
9.9613442118
 30
0.0
 10
14.0133064051
 20
9.9715171898
 30
0.0
 10
14.0077715308
 20
9.9811299987
 30
0.0
 10
14.0021457638
 20
9.9901776376
 30
0.0
 10
13.9964319873
 20
9.998655467
 30
0.0
 10
13.9906329832
 20
10.0065591058
 30
0.0
 10
13.9847515741
 20
10.013884448
 30
0.0
 10
13.9787905419
 20
10.0206277542
 30
0.0
 10
13.9727527628
 20
10.0267852359
 30
0.0
 10
13.9676071405
 20
10.031473452
 30
0.0
 10
13.9634557936
 20
10.0349171714
 30
0.0
 10
13.9593647157
 20
10.0380960707
 30
0.0
 10
13.9542055347
 20
10.0417115863
 30
0.0
 10
13.9478880473
 20
10.0454945649
 30
0.0
 10
13.9415078399
 20
10.0486767652
 30
0.0
 10
13.9350683111
 20
10.0512553099
 30
0.0
 10
13.9285731721
 20
10.0532278929
 30
0.0
 10
13.9220265197
 20
10.0545924519
 30
0.0
 10
13.9154329019
 20
10.0553475311
 30
0.0
 10
13.9087969062
 20
10.0554924601
 30
0.0
 10
13.9021239655
 20
10.0550272996
 30
0.0
 10
13.8976968812
 20
10.0543180002
 30
0.0
 10
13.8954868221
 20
10.0538668768
 30
0.0
  0
SPLINE
  5
32F
100
AcDbEntity
  8
0
100
AcDbSpline
 62
7
  6
CONTINUOUS
 70
0
 71
3
 72
69
 73
65
 74
0
 42
0.0000001
 43
0.0000001
 44
0.0000000001
 40
0.0
 40
0.0
 40
0.0
 40
0.0
 40
0.0046769696
 40
0.0094808856
 40
0.0144117526
 40
0.0194693848
 40
0.0299632958
 40
0.0409589456
 40
0.0524505293
 40
0.064430607
 40
0.0768903227
 40
0.0898195592
 40
0.1032070154
 40
0.1170403342
 40
0.1313062118
 40
0.1459904359
 40
0.1610779621
 40
0.1765530027
 40
0.1923990537
 40
0.2085989379
 40
0.2251348838
 40
0.2419885522
 40
0.2591410606
 40
0.2765730527
 40
0.2942647297
 40
0.312195866
 40
0.3303458693
 40
0.3486938158
 40
0.3672184658
 40
0.3858983139
 40
0.4047116262
 40
0.4236364608
 40
0.461731753
 40
0.5000063215
 40
0.5382808361
 40
0.5763759683
 40
0.5953006804
 40
0.6141138442
 40
0.6327935223
 40
0.6513179709
 40
0.6696656892
 40
0.6878154468
 40
0.7057463067
 40
0.7234376785
 40
0.7408693518
 40
0.7580215138
 40
0.7748748043
 40
0.7914103615
 40
0.8076098354
 40
0.823455442
 40
0.8389300287
 40
0.8540170871
 40
0.8687008086
 40
0.8829661733
 40
0.8967989741
 40
0.9101858798
 40
0.9231145532
 40
0.9355737095
 40
0.9475532013
 40
0.9590441841
 40
0.9700392449
 40
0.9805325497
 40
0.990520099
 40
1.0
 40
1.0
 40
1.0
 40
1.0
 10
13.6161346076
 20
7.9470432617
 30
0.0
 10
13.6177747602
 20
7.9496703349
 30
0.0
 10
13.6210483027
 20
7.9550279651
 30
0.0
 10
13.6258767229
 20
7.9632601863
 30
0.0
 10
13.6306875188
 20
7.9717933336
 30
0.0
 10
13.6371559884
 20
7.9837152837
 30
0.0
 10
13.6451766559
 20
7.9993612944
 30
0.0
 10
13.6545928452
 20
8.0190696064
 30
0.0
 10
13.6639032632
 20
8.0399106511
 30
0.0
 10
13.6730962882
 20
8.0618584524
 30
0.0
 10
13.6821604407
 20
8.0848858453
 30
0.0
 10
13.6910843436
 20
8.1089642279
 30
0.0
 10
13.699856836
 20
8.1340636513
 30
0.0
 10
13.7084669375
 20
8.1601528608
 30
0.0
 10
13.7169038314
 20
8.1871993619
 30
0.0
 10
13.7251569458
 20
8.2151694336
 30
0.0
 10
13.7332159541
 20
8.2440281807
 30
0.0
 10
13.7410707366
 20
8.2737396001
 30
0.0
 10
13.748711441
 20
8.3042666083
 30
0.0
 10
13.7561285146
 20
8.3355710849
 30
0.0
 10
13.7633126523
 20
8.3676139418
 30
0.0
 10
13.7702548369
 20
8.4003551633
 30
0.0
 10
13.776946395
 20
8.4337538453
 30
0.0
 10
13.783378941
 20
8.467768265
 30
0.0
 10
13.7895443975
 20
8.5023559308
 30
0.0
 10
13.7954350639
 20
8.5374736226
 30
0.0
 10
13.8010435675
 20
8.5730774583
 30
0.0
 10
13.8063628642
 20
8.609122951
 30
0.0
 10
13.8113863104
 20
8.6455650569
 30
0.0
 10
13.8161076222
 20
8.6823582228
 30
0.0
 10
13.8205208926
 20
8.7194565052
 30
0.0
 10
13.8259988835
 20
8.7693733833
 30
0.0
 10
13.8320341786
 20
8.8321907917
 30
0.0
 10
13.8379542369
 20
8.9078796274
 30
0.0
 10
13.8425378597
 20
8.9836610315
 30
0.0
 10
13.8452307756
 20
9.0467099942
 30
0.0
 10
13.8466950119
 20
9.096904919
 30
0.0
 10
13.8474444895
 20
9.1342569734
 30
0.0
 10
13.8478467747
 20
9.171349297
 30
0.0
 10
13.8479013342
 20
9.2081355704
 30
0.0
 10
13.8476081291
 20
9.2445698113
 30
0.0
 10
13.8469675455
 20
9.2806064907
 30
0.0
 10
13.8459803764
 20
9.3162005733
 30
0.0
 10
13.8446478771
 20
9.3513075815
 30
0.0
 10
13.8429717458
 20
9.3858836497
 30
0.0
 10
13.8409540785
 20
9.4198855744
 30
0.0
 10
13.8385974149
 20
9.4532708753
 30
0.0
 10
13.8359047452
 20
9.4859978497
 30
0.0
 10
13.8328794487
 20
9.5180256167
 30
0.0
 10
13.8295253214
 20
9.5493141752
 30
0.0
 10
13.8258466119
 20
9.579824461
 30
0.0
 10
13.8218479476
 20
9.6095183843
 30
0.0
 10
13.8175343405
 20
9.6383588823
 30
0.0
 10
13.8129112476
 20
9.66630998
 30
0.0
 10
13.8079844932
 20
9.6933368235
 30
0.0
 10
13.8027602508
 20
9.7194057231
 30
0.0
 10
13.7972451171
 20
9.7444842195
 30
0.0
 10
13.7914460423
 20
9.7685411174
 30
0.0
 10
13.7853702863
 20
9.7915465128
 30
0.0
 10
13.7790254845
 20
9.8134718799
 30
0.0
 10
13.772419619
 20
9.8342900568
 30
0.0
 10
13.7655608694
 20
9.8539754468
 30
0.0
 10
13.7584578995
 20
9.8725034598
 30
0.0
 10
13.7534343905
 20
9.8843791264
 30
0.0
 10
13.7508764928
 20
9.8901118286
 30
0.0
  0
SPLINE
  5
330
100
AcDbEntity
  8
0
100
AcDbSpline
 62
7
  6
CONTINUOUS
 70
0
 71
3
 72
54
 73
50
 74
0
 42
0.0000001
 43
0.0000001
 44
0.0000000001
 40
0.0
 40
0.0
 40
0.0
 40
0.0
 40
0.0115643766
 40
0.023487382
 40
0.0357622457
 40
0.0483816758
 40
0.0613378213
 40
0.0746224072
 40
0.0882266515
 40
0.1021414079
 40
0.1163570874
 40
0.1308637653
 40
0.1456511457
 40
0.1607086098
 40
0.1760252365
 40
0.1915897917
 40
0.2073907979
 40
0.2234164818
 40
0.256093415
 40
0.2895223311
 40
0.3236015087
 40
0.3582265626
 40
0.3932908998
 40
0.4286861688
 40
0.4643027029
 40
0.5000299606
 40
0.5357569637
 40
0.5713727349
 40
0.6067667349
 40
0.6418293018
 40
0.6764520911
 40
0.7105285192
 40
0.7439542124
 40
0.7766274638
 40
0.8084497016
 40
0.8240120369
 40
0.8393263343
 40
0.8543813666
 40
0.8691662236
 40
0.8836702685
 40
0.8978832407
 40
0.9117951777
 40
0.9253965408
 40
0.9386781395
 40
0.9516312405
 40
0.9642475366
 40
0.9765192053
 40
0.988438951
 40
1.0
 40
1.0
 40
1.0
 40
1.0
 10
13.5715312608
 20
8.1433465954
 30
0.0
 10
13.5738306263
 20
8.1489866335
 30
0.0
 10
13.5783976639
 20
8.1604838507
 30
0.0
 10
13.5850590689
 20
8.1781026834
 30
0.0
 10
13.5916317458
 20
8.1963465761
 30
0.0
 10
13.5981101567
 20
8.2152003917
 30
0.0
 10
13.6044889975
 20
8.2346485594
 30
0.0
 10
13.6107628989
 20
8.2546750017
 30
0.0
 10
13.6169267248
 20
8.275263148
 30
0.0
 10
13.6229752933
 20
8.2963959706
 30
0.0
 10
13.6289036352
 20
8.318055977
 30
0.0
 10
13.6347067943
 20
8.3402252418
 30
0.0
 10
13.6403799691
 20
8.3628854122
 30
0.0
 10
13.6459184548
 20
8.3860177263
 30
0.0
 10
13.6513176327
 20
8.4096030329
 30
0.0
 10
13.6565730562
 20
8.4336217943
 30
0.0
 10
13.6616803322
 20
8.4580541392
 30
0.0
 10
13.6683298021
 20
8.4913702765
 30
0.0
 10
13.6762312571
 20
8.5339020351
 30
0.0
 10
13.6849974271
 20
8.5859366585
 30
0.0
 10
13.6930789685
 20
8.639120012
 30
0.0
 10
13.7004490164
 20
8.6932759046
 30
0.0
 10
13.7070830625
 20
8.7482250612
 30
0.0
 10
13.7129590648
 20
8.8037855153
 30
0.0
 10
13.7180575113
 20
8.859773274
 30
0.0
 10
13.7223614858
 20
8.9160029162
 30
0.0
 10
13.7258567233
 20
8.972288215
 30
0.0
 10
13.7285316573
 20
9.0284427572
 30
0.0
 10
13.7303774591
 20
9.0842805653
 30
0.0
 10
13.731388069
 20
9.1396167165
 30
0.0
 10
13.7315602168
 20
9.1942679651
 30
0.0
 10
13.7308934304
 20
9.2480533365
 30
0.0
 10
13.7293900561
 20
9.300794796
 30
0.0
 10
13.7270551935
 20
9.3523176197
 30
0.0
 10
13.7244040302
 20
9.3944017025
 30
0.0
 10
13.7218632513
 20
9.4273265535
 30
0.0
 10
13.7197695306
 20
9.4514275262
 30
0.0
 10
13.7174753371
 20
9.4750988758
 30
0.0
 10
13.714982602
 20
9.4983210175
 30
0.0
 10
13.7122933519
 20
9.5210747223
 30
0.0
 10
13.7094098883
 20
9.5433411493
 30
0.0
 10
13.7063345452
 20
9.5651018705
 30
0.0
 10
13.7030699473
 20
9.5863388731
 30
0.0
 10
13.6996187587
 20
9.6070345861
 30
0.0
 10
13.6959838913
 20
9.6271718899
 30
0.0
 10
13.6921683537
 20
9.6467341253
 30
0.0
 10
13.6881753139
 20
9.6657051432
 30
0.0
 10
13.6840081385
 20
9.6840691892
 30
0.0
 10
13.6810707887
 20
9.6960829314
 30
0.0
 10
13.6795714306
 20
9.7019844304
 30
0.0
  0
SPLINE
  5
331
100
AcDbEntity
  8
0
100
AcDbSpline
 62
4
  6
CONTINUOUS
 70
0
 71
3
 72
403
 73
399
 74
0
 42
0.0000001
 43
0.0000001
 44
0.0000000001
 40
0.0
 40
0.0
 40
0.0
 40
0.0
 40
0.015625
 40
0.0234375
 40
0.03125
 40
0.0390625
 40
0.04296875
 40
0.046875
 40
0.05078125
 40
0.0546875
 40
0.056640625
 40
0.05859375
 40
0.0595703125
 40
0.060546875
 40
0.0615234375
 40
0.0620117188
 40
0.0622558594
 40
0.0625
 40
0.0627441406
 40
0.0629882812
 40
0.0634765625
 40
0.064453125
 40
0.0654296875
 40
0.06640625
 40
0.068359375
 40
0.0703125
 40
0.07421875
 40
0.078125
 40
0.08203125
 40
0.0859375
 40
0.09375
 40
0.1015625
 40
0.10546875
 40
0.109375
 40
0.11328125
 40
0.1171875
 40
0.119140625
 40
0.12109375
 40
0.1220703125
 40
0.123046875
 40
0.1240234375
 40
0.1245117188
 40
0.1247558594
 40
0.125
 40
0.1252441406
 40
0.1254882812
 40
0.1259765625
 40
0.126953125
 40
0.1279296875
 40
0.12890625
 40
0.130859375
 40
0.1328125
 40
0.13671875
 40
0.140625
 40
0.14453125
 40
0.1484375
 40
0.15625
 40
0.1640625
 40
0.16796875
 40
0.171875
 40
0.17578125
 40
0.1796875
 40
0.181640625
 40
0.18359375
 40
0.1845703125
 40
0.185546875
 40
0.1865234375
 40
0.1870117188
 40
0.1872558594
 40
0.1875
 40
0.1877441406
 40
0.1879882812
 40
0.1884765625
 40
0.189453125
 40
0.1904296875
 40
0.19140625
 40
0.193359375
 40
0.1953125
 40
0.19921875
 40
0.203125
 40
0.20703125
 40
0.2109375
 40
0.21875
 40
0.2265625
 40
0.23046875
 40
0.234375
 40
0.23828125
 40
0.2421875
 40
0.244140625
 40
0.24609375
 40
0.2470703125
 40
0.248046875
 40
0.2490234375
 40
0.2495117188
 40
0.2497558594
 40
0.25
 40
0.2502441406
 40
0.2504882812
 40
0.2509765625
 40
0.251953125
 40
0.2529296875
 40
0.25390625
 40
0.255859375
 40
0.2578125
 40
0.26171875
 40
0.265625
 40
0.26953125
 40
0.2734375
 40
0.28125
 40
0.2890625
 40
0.29296875
 40
0.296875
 40
0.30078125
 40
0.3046875
 40
0.306640625
 40
0.30859375
 40
0.3095703125
 40
0.310546875
 40
0.3115234375
 40
0.3120117188
 40
0.3122558594
 40
0.3125
 40
0.3127441406
 40
0.3129882812
 40
0.3134765625
 40
0.314453125
 40
0.3154296875
 40
0.31640625
 40
0.318359375
 40
0.3203125
 40
0.32421875
 40
0.328125
 40
0.33203125
 40
0.3359375
 40
0.34375
 40
0.3515625
 40
0.35546875
 40
0.359375
 40
0.36328125
 40
0.3671875
 40
0.369140625
 40
0.37109375
 40
0.3720703125
 40
0.373046875
 40
0.3740234375
 40
0.3745117188
 40
0.3747558594
 40
0.375
 40
0.3752441406
 40
0.3754882812
 40
0.3759765625
 40
0.376953125
 40
0.3779296875
 40
0.37890625
 40
0.380859375
 40
0.3828125
 40
0.38671875
 40
0.390625
 40
0.39453125
 40
0.3984375
 40
0.40625
 40
0.4140625
 40
0.41796875
 40
0.421875
 40
0.42578125
 40
0.4296875
 40
0.431640625
 40
0.43359375
 40
0.4345703125
 40
0.435546875
 40
0.4365234375
 40
0.4370117188
 40
0.4372558594
 40
0.4375
 40
0.4377441406
 40
0.4379882812
 40
0.4384765625
 40
0.439453125
 40
0.4404296875
 40
0.44140625
 40
0.443359375
 40
0.4453125
 40
0.44921875
 40
0.453125
 40
0.45703125
 40
0.4609375
 40
0.46875
 40
0.4765625
 40
0.48046875
 40
0.484375
 40
0.48828125
 40
0.4921875
 40
0.494140625
 40
0.49609375
 40
0.4970703125
 40
0.498046875
 40
0.4990234375
 40
0.4995117188
 40
0.4997558594
 40
0.5
 40
0.5002441406
 40
0.5004882812
 40
0.5009765625
 40
0.501953125
 40
0.5029296875
 40
0.50390625
 40
0.505859375
 40
0.5078125
 40
0.51171875
 40
0.515625
 40
0.51953125
 40
0.5234375
 40
0.53125
 40
0.5390625
 40
0.54296875
 40
0.546875
 40
0.55078125
 40
0.5546875
 40
0.556640625
 40
0.55859375
 40
0.5595703125
 40
0.560546875
 40
0.5615234375
 40
0.5620117188
 40
0.5622558594
 40
0.5625
 40
0.5627441406
 40
0.5629882812
 40
0.5634765625
 40
0.564453125
 40
0.5654296875
 40
0.56640625
 40
0.568359375
 40
0.5703125
 40
0.57421875
 40
0.578125
 40
0.58203125
 40
0.5859375
 40
0.59375
 40
0.6015625
 40
0.60546875
 40
0.609375
 40
0.61328125
 40
0.6171875
 40
0.619140625
 40
0.62109375
 40
0.6220703125
 40
0.623046875
 40
0.6240234375
 40
0.6245117188
 40
0.6247558594
 40
0.625
 40
0.6252441406
 40
0.6254882812
 40
0.6259765625
 40
0.626953125
 40
0.6279296875
 40
0.62890625
 40
0.630859375
 40
0.6328125
 40
0.63671875
 40
0.640625
 40
0.64453125
 40
0.6484375
 40
0.65625
 40
0.6640625
 40
0.66796875
 40
0.671875
 40
0.67578125
 40
0.6796875
 40
0.681640625
 40
0.68359375
 40
0.6845703125
 40
0.685546875
 40
0.6865234375
 40
0.6870117188
 40
0.6872558594
 40
0.6875
 40
0.6877441406
 40
0.6879882812
 40
0.6884765625
 40
0.689453125
 40
0.6904296875
 40
0.69140625
 40
0.693359375
 40
0.6953125
 40
0.69921875
 40
0.703125
 40
0.70703125
 40
0.7109375
 40
0.71875
 40
0.7265625
 40
0.73046875
 40
0.734375
 40
0.73828125
 40
0.7421875
 40
0.744140625
 40
0.74609375
 40
0.7470703125
 40
0.748046875
 40
0.7490234375
 40
0.7495117188
 40
0.7497558594
 40
0.75
 40
0.7502441406
 40
0.7504882812
 40
0.7509765625
 40
0.751953125
 40
0.7529296875
 40
0.75390625
 40
0.755859375
 40
0.7578125
 40
0.76171875
 40
0.765625
 40
0.76953125
 40
0.7734375
 40
0.78125
 40
0.7890625
 40
0.79296875
 40
0.796875
 40
0.80078125
 40
0.8046875
 40
0.806640625
 40
0.80859375
 40
0.8095703125
 40
0.810546875
 40
0.8115234375
 40
0.8120117188
 40
0.8122558594
 40
0.8125
 40
0.8127441406
 40
0.8129882812
 40
0.8134765625
 40
0.814453125
 40
0.8154296875
 40
0.81640625
 40
0.818359375
 40
0.8203125
 40
0.82421875
 40
0.828125
 40
0.83203125
 40
0.8359375
 40
0.84375
 40
0.8515625
 40
0.85546875
 40
0.859375
 40
0.86328125
 40
0.8671875
 40
0.869140625
 40
0.87109375
 40
0.8720703125
 40
0.873046875
 40
0.8740234375
 40
0.8745117188
 40
0.8747558594
 40
0.875
 40
0.8752441406
 40
0.8754882812
 40
0.8759765625
 40
0.876953125
 40
0.8779296875
 40
0.87890625
 40
0.880859375
 40
0.8828125
 40
0.88671875
 40
0.890625
 40
0.89453125
 40
0.8984375
 40
0.90625
 40
0.9140625
 40
0.91796875
 40
0.921875
 40
0.92578125
 40
0.9296875
 40
0.931640625
 40
0.93359375
 40
0.9345703125
 40
0.935546875
 40
0.9365234375
 40
0.9370117188
 40
0.9372558594
 40
0.9375
 40
0.9377441406
 40
0.9379882812
 40
0.9384765625
 40
0.939453125
 40
0.9404296875
 40
0.94140625
 40
0.943359375
 40
0.9453125
 40
0.94921875
 40
0.953125
 40
0.95703125
 40
0.9609375
 40
0.96875
 40
0.9765625
 40
0.984375
 40
1.0
 40
1.0
 40
1.0
 40
1.0
 10
10.6117717527
 20
7.6613558735
 30
0.0
 10
10.6055053789
 20
7.6611760247
 30
0.0
 10
10.5961058182
 20
7.6609062515
 30
0.0
 10
10.5835730705
 20
7.6605465538
 30
0.0
 10
10.5741735097
 20
7.6602767805
 30
0.0
 10
10.5663405424
 20
7.6600519698
 30
0.0
 10
10.5600741687
 20
7.6598721203
 30
0.0
 10
10.5553743879
 20
7.6597372357
 30
0.0
 10
10.550674609
 20
7.6596023416
 30
0.0
 10
10.5467581208
 20
7.6594899593
 30
0.0
 10
10.5436249431
 20
7.6593999875
 30
0.0
 10
10.5416666778
 20
7.6593439053
 30
0.0
 10
10.5401001326
 20
7.6592986956
 30
0.0
 10
10.5389250399
 20
7.6592657301
 30
0.0
 10
10.537946381
 20
7.659235263
 30
0.0
 10
10.5372601715
 20
7.6592198153
 30
0.0
 10
10.5368698448
 20
7.659201808
 30
0.0
 10
10.5365720487
 20
7.6592141629
 30
0.0
 10
10.5362935606
 20
7.6591276661
 30
0.0
 10
10.5359155083
 20
7.6590468175
 30
0.0
 10
10.5352570547
 20
7.6588892674
 30
0.0
 10
10.5343147661
 20
7.6586725949
 30
0.0
 10
10.533184722
 20
7.6584089928
 30
0.0
 10
10.5316777512
 20
7.658058779
 30
0.0
 10
10.5297941218
 20
7.6576205819
 30
0.0
 10
10.5267802677
 20
7.6569197067
 30
0.0
 10
10.5230129663
 20
7.6560435303
 30
0.0
 10
10.5184921976
 20
7.6549921539
 30
0.0
 10
10.5139714308
 20
7.6539407681
 30
0.0
 10
10.507943741
 20
7.6525389237
 30
0.0
 10
10.5004091291
 20
7.6507866169
 30
0.0
 10
10.492874517
 20
7.6490343109
 30
0.0
 10
10.4868468276
 20
7.6476324652
 30
0.0
 10
10.4823260597
 20
7.6465810833
 30
0.0
 10
10.4778052953
 20
7.6455296923
 30
0.0
 10
10.4740379804
 20
7.6446535614
 30
0.0
 10
10.4710241538
 20
7.6439525935
 30
0.0
 10
10.4691404546
 20
7.6435146322
 30
0.0
 10
10.467633627
 20
7.6431639343
 30
0.0
 10
10.4665031455
 20
7.6429018114
 30
0.0
 10
10.4655622255
 20
7.6426805107
 30
0.0
 10
10.4649013286
 20
7.6425312227
 30
0.0
 10
10.4645271911
 20
7.6424371363
 30
0.0
 10
10.464236678
 20
7.6423913019
 30
0.0
 10
10.4639840457
 20
7.6422509351
 30
0.0
 10
10.4636339893
 20
7.6420967534
 30
0.0
 10
10.4630275469
 20
7.6418115722
 30
0.0
 10
10.4621579822
 20
7.6414122024
 30
0.0
 10
10.4611158821
 20
7.6409295208
 30
0.0
 10
10.4597259341
 20
7.6402871461
 30
0.0
 10
10.4579886639
 20
7.6394837666
 30
0.0
 10
10.4552089394
 20
7.6381985891
 30
0.0
 10
10.4517343155
 20
7.6365920385
 30
0.0
 10
10.4475647532
 20
7.6346642115
 30
0.0
 10
10.4433951946
 20
7.6327363754
 30
0.0
 10
10.4378357818
 20
7.6301659306
 30
0.0
 10
10.4308865163
 20
7.6269528733
 30
0.0
 10
10.4239372504
 20
7.6237398168
 30
0.0
 10
10.4183778382
 20
7.6211693706
 30
0.0
 10
10.4142082778
 20
7.6192415384
 30
0.0
 10
10.410038722
 20
7.6173136972
 30
0.0
 10
10.4065640778
 20
7.6157071905
 30
0.0
 10
10.4037843948
 20
7.6144219234
 30
0.0
 10
10.4020470191
 20
7.6136187721
 30
0.0
 10
10.4006572876
 20
7.6129759289
 30
0.0
 10
10.3996145263
 20
7.6124946786
 30
0.0
 10
10.3987470302
 20
7.6120908305
 30
0.0
 10
10.3981368949
 20
7.611813644
 30
0.0
 10
10.3977927555
 20
7.6116466527
 30
0.0
 10
10.397521948
 20
7.6115456329
 30
0.0
 10
10.397299698
 20
7.6113520178
 30
0.0
 10
10.3969864272
 20
7.6111261627
 30
0.0
 10
10.3964460948
 20
7.6107158678
 30
0.0
 10
10.3956700657
 20
7.6101375997
 30
0.0
 10
10.3947405966
 20
7.6094403105
 30
0.0
 10
10.3935006878
 20
7.6085117677
 30
0.0
 10
10.3919510129
 20
7.6073506865
 30
0.0
 10
10.3894714151
 20
7.6054931818
 30
0.0
 10
10.3863719583
 20
7.6031712235
 30
0.0
 10
10.3826525928
 20
7.6003849068
 30
0.0
 10
10.378933232
 20
7.5975985811
 30
0.0
 10
10.3739740826
 20
7.5938834834
 30
0.0
 10
10.3677751464
 20
7.5892396101
 30
0.0
 10
10.3615762097
 20
7.5845957375
 30
0.0
 10
10.3566170612
 20
7.5808806387
 30
0.0
 10
10.3528976978
 20
7.5780943163
 30
0.0
 10
10.3491783418
 20
7.5753079872
 30
0.0
 10
10.3460788553
 20
7.5729860674
 30
0.0
 10
10.3435993181
 20
7.5711284843
 30
0.0
 10
10.342049489
 20
7.5699676023
 30
0.0
 10
10.3408098967
 20
7.5690386508
 30
0.0
 10
10.3398794606
 20
7.5683426102
 30
0.0
 10
10.3391064572
 20
7.5677604356
 30
0.0
 10
10.3385607234
 20
7.5673571145
 30
0.0
 10
10.3382561071
 20
7.5671200856
 30
0.0
 10
10.3380072734
 20
7.5669607929
 30
0.0
 10
10.3378363095
 20
7.5667308639
 30
0.0
 10
10.3375811957
 20
7.5664489306
 30
0.0
 10
10.3371474018
 20
7.5659440677
 30
0.0
 10
10.33652108
 20
7.5652288366
 30
0.0
 10
10.3357723258
 20
7.5643679905
 30
0.0
 10
10.3347729977
 20
7.5632210928
 30
0.0
 10
10.3335241763
 20
7.5617871636
 30
0.0
 10
10.3315258727
 20
7.5594930485
 30
0.0
 10
10.3290280582
 20
7.5566253458
 30
0.0
 10
10.3260306529
 20
7.5531841277
 30
0.0
 10
10.3230332551
 20
7.5497429029
 30
0.0
 10
10.319036722
 20
7.5451546055
 30
0.0
 10
10.3140410567
 20
7.5394192329
 30
0.0
 10
10.3090453907
 20
7.5336838608
 30
0.0
 10
10.3050488587
 20
7.5290955626
 30
0.0
 10
10.3020514576
 20
7.5256543404
 30
0.0
 10
10.2990540645
 20
7.5222131124
 30
0.0
 10
10.2965562122
 20
7.5193454406
 30
0.0
 10
10.2945579855
 20
7.5170512624
 30
0.0
 10
10.2933089684
 20
7.5156174937
 30
0.0
 10
10.292310042
 20
7.5144702665
 30
0.0
 10
10.2915600603
 20
7.5136104274
 30
0.0
 10
10.2909375791
 20
7.5128920454
 30
0.0
 10
10.2904969292
 20
7.5123928076
 30
0.0
 10
10.2902528005
 20
7.5121018614
 30
0.0
 10
10.2900480939
 20
7.5118996171
 30
0.0
 10
10.2899259921
 20
7.5116363451
 30
0.0
 10
10.2897343762
 20
7.5113066028
 30
0.0
 10
10.2894124732
 20
7.5107196358
 30
0.0
 10
10.2889455931
 20
7.5098862969
 30
0.0
 10
10.2883883412
 20
7.5088840706
 30
0.0
 10
10.2876442894
 20
7.5075485441
 30
0.0
 10
10.2867145839
 20
7.5058788706
 30
0.0
 10
10.2852268543
 20
7.5032075414
 30
0.0
 10
10.2833672612
 20
7.4998683289
 30
0.0
 10
10.2811357199
 20
7.4958612957
 30
0.0
 10
10.2789041865
 20
7.4918542567
 30
0.0
 10
10.2759288059
 20
7.4865115401
 30
0.0
 10
10.2722095812
 20
7.4798331435
 30
0.0
 10
10.2684903558
 20
7.4731547475
 30
0.0
 10
10.2655149763
 20
7.4678120301
 30
0.0
 10
10.2632834394
 20
7.4638049933
 30
0.0
 10
10.2610519113
 20
7.4597979521
 30
0.0
 10
10.2591922772
 20
7.4564587644
 30
0.0
 10
10.2577046312
 20
7.4537873846
 30
0.0
 10
10.256774713
 20
7.4521178399
 30
0.0
 10
10.2560310978
 20
7.450782049
 30
0.0
 10
10.255472512
 20
7.4497806305
 30
0.0
 10
10.2550098052
 20
7.4489447644
 30
0.0
 10
10.2546804522
 20
7.4483623087
 30
0.0
 10
10.2545007731
 20
7.4480253382
 30
0.0
 10
10.2543420053
 20
7.4477842691
 30
0.0
 10
10.2542750102
 20
7.4474986342
 30
0.0
 10
10.254153672
 20
7.4471333328
 30
0.0
 10
10.2539562448
 20
7.4464868126
 30
0.0
 10
10.2536664084
 20
7.4455669989
 30
0.0
 10
10.2533219423
 20
7.4444616017
 30
0.0
 10
10.2528614885
 20
7.4429883048
 30
0.0
 10
10.2522863204
 20
7.4411464899
 30
0.0
 10
10.2513658282
 20
7.4381996944
 30
0.0
 10
10.2502152896
 20
7.4345161628
 30
0.0
 10
10.2488346105
 20
7.4300959408
 30
0.0
 10
10.2474539402
 20
7.4256757146
 30
0.0
 10
10.2456130433
 20
7.4197820811
 30
0.0
 10
10.2433119233
 20
7.4124150388
 30
0.0
 10
10.2410108026
 20
7.4050479967
 30
0.0
 10
10.239169907
 20
7.3991543627
 30
0.0
 10
10.2377892328
 20
7.3947341381
 30
0.0
 10
10.236408568
 20
7.3903139101
 30
0.0
 10
10.2352579849
 20
7.3866303973
 30
0.0
 10
10.2343375835
 20
7.3836835634
 30
0.0
 10
10.2337621846
 20
7.3818418462
 30
0.0
 10
10.2333022045
 20
7.3803683488
 30
0.0
 10
10.2329562912
 20
7.3792635641
 30
0.0
 10
10.2326709828
 20
7.3783418339
 30
0.0
 10
10.2324654723
 20
7.377698735
 30
0.0
 10
10.2323570857
 20
7.3773279518
 30
0.0
 10
10.2322503075
 20
7.3770591553
 30
0.0
 10
10.2322409582
 20
7.376754844
 30
0.0
 10
10.2321945082
 20
7.3763614836
 30
0.0
 10
10.2321290546
 20
7.375667331
 30
0.0
 10
10.2320272714
 20
7.374678702
 30
0.0
 10
10.2319086748
 20
7.3734910556
 30
0.0
 10
10.2317493084
 20
7.3719079781
 30
0.0
 10
10.2315505241
 20
7.3699289769
 30
0.0
 10
10.2312322325
 20
7.3667626613
 30
0.0
 10
10.2308344492
 20
7.3628047371
 30
0.0
 10
10.2303570745
 20
7.3580552408
 30
0.0
 10
10.229879709
 20
7.3533057411
 30
0.0
 10
10.2292432185
 20
7.346973076
 30
0.0
 10
10.2284476066
 20
7.3390572442
 30
0.0
 10
10.2276519939
 20
7.3311414126
 30
0.0
 10
10.2270155047
 20
7.3248087472
 30
0.0
 10
10.2265381352
 20
7.3200592482
 30
0.0
 10
10.2260607755
 20
7.3153097493
 30
0.0
 10
10.2256629456
 20
7.3113518331
 30
0.0
 10
10.2253447491
 20
7.3081855013
 30
0.0
 10
10.2251457226
 20
7.3062065411
 30
0.0
 10
10.2249868535
 20
7.3046233795
 30
0.0
 10
10.2248667376
 20
7.3034359901
 30
0.0
 10
10.2247697078
 20
7.302446557
 30
0.0
 10
10.2246957685
 20
7.3017538399
 30
0.0
 10
10.2246629148
 20
7.3013581794
 30
0.0
 10
10.2246118021
 20
7.301060933
 30
0.0
 10
10.2246618804
 20
7.3007656021
 30
0.0
 10
10.224693355
 20
7.3003711595
 30
0.0
 10
10.2247648808
 20
7.2996811962
 30
0.0
 10
10.2248584627
 20
7.2986953715
 30
0.0
 10
10.2249744411
 20
7.2975124516
 30
0.0
 10
10.2251277936
 20
7.2959352008
 30
0.0
 10
10.2253199243
 20
7.2939636455
 30
0.0
 10
10.2256270874
 20
7.2908091525
 30
0.0
 10
10.2260111258
 20
7.2868660378
 30
0.0
 10
10.2264719356
 20
7.2821342995
 30
0.0
 10
10.2269327552
 20
7.2774025613
 30
0.0
 10
10.2275471778
 20
7.2710935771
 30
0.0
 10
10.2283152074
 20
7.2632073468
 30
0.0
 10
10.2290832362
 20
7.2553211165
 30
0.0
 10
10.2296976601
 20
7.2490121323
 30
0.0
 10
10.2301584757
 20
7.2442803939
 30
0.0
 10
10.2306193005
 20
7.2395486567
 30
0.0
 10
10.2310032922
 20
7.2356055386
 30
0.0
 10
10.2313105506
 20
7.2324510525
 30
0.0
 10
10.2315024389
 20
7.2304794796
 30
0.0
 10
10.2316562889
 20
7.2289022649
 30
0.0
 10
10.2317707474
 20
7.2277192344
 30
0.0
 10
10.2318690848
 20
7.2267337559
 30
0.0
 10
10.2319321212
 20
7.2260431747
 30
0.0
 10
10.2319771978
 20
7.225649722
 30
0.0
 10
10.2319854951
 20
7.2253513505
 30
0.0
 10
10.2320913052
 20
7.2250655244
 30
0.0
 10
10.2321983717
 20
7.224680047
 30
0.0
 10
10.2324015857
 20
7.2240075004
 30
0.0
 10
10.2326836062
 20
7.2230456537
 30
0.0
 10
10.2330255771
 20
7.2218918938
 30
0.0
 10
10.2334802997
 20
7.2203533879
 30
0.0
 10
10.234049127
 20
7.2184303102
 30
0.0
 10
10.2349590136
 20
7.2153533553
 30
0.0
 10
10.2360964533
 20
7.2115071721
 30
0.0
 10
10.237461346
 20
7.2068917478
 30
0.0
 10
10.2388262481
 20
7.2022763247
 30
0.0
 10
10.2406461142
 20
7.1961224268
 30
0.0
 10
10.2429209481
 20
7.1884300546
 30
0.0
 10
10.2451957812
 20
7.1807376823
 30
0.0
 10
10.2470156486
 20
7.1745837847
 30
0.0
 10
10.2483805468
 20
7.1699683607
 30
0.0
 10
10.2497454538
 20
7.1653529398
 30
0.0
 10
10.250882849
 20
7.1615067462
 30
0.0
 10
10.2517928264
 20
7.1584298124
 30
0.0
 10
10.2523614227
 20
7.1565066809
 30
0.0
 10
10.2528166195
 20
7.1549682854
 30
0.0
 10
10.2531571415
 20
7.1538141885
 30
0.0
 10
10.2534436952
 20
7.1528533961
 30
0.0
 10
10.2536388166
 20
7.1521789674
 30
0.0
 10
10.2537588496
 20
7.1517965056
 30
0.0
 10
10.2538248311
 20
7.1515014167
 30
0.0
 10
10.253982718
 20
7.1512378348
 30
0.0
 10
10.2541611762
 20
7.1508754023
 30
0.0
 10
10.2544884144
 20
7.1502462659
 30
0.0
 10
10.2549480886
 20
7.1493448226
 30
0.0
 10
10.2555030401
 20
7.1482642365
 30
0.0
 10
10.256241808
 20
7.1468230548
 30
0.0
 10
10.2571656677
 20
7.1450217147
 30
0.0
 10
10.2586436197
 20
7.142139494
 30
0.0
 10
10.2604911363
 20
7.1385367443
 30
0.0
 10
10.2627081234
 20
7.1342134335
 30
0.0
 10
10.2649251193
 20
7.1298901256
 30
0.0
 10
10.2678811108
 20
7.1241257141
 30
0.0
 10
10.2715761013
 20
7.1169202001
 30
0.0
 10
10.275271091
 20
7.1097146859
 30
0.0
 10
10.2782270837
 20
7.1039502748
 30
0.0
 10
10.280444076
 20
7.0996269655
 30
0.0
 10
10.2826610768
 20
7.0953036602
 30
0.0
 10
10.2845085509
 20
7.0917008932
 30
0.0
 10
10.2859865897
 20
7.0888187079
 30
0.0
 10
10.2869102284
 20
7.0870172777
 30
0.0
 10
10.2876494498
 20
7.0855762809
 30
0.0
 10
10.2882030158
 20
7.0844951297
 30
0.0
 10
10.288667025
 20
7.0835954545
 30
0.0
 10
10.2889865245
 20
7.0829631618
 30
0.0
 10
10.289177382
 20
7.0826057865
 30
0.0
 10
10.2892971824
 20
7.0823266707
 30
0.0
 10
10.2895062105
 20
7.0820899246
 30
0.0
 10
10.2897537911
 20
7.081759484
 30
0.0
 10
10.2902015581
 20
7.0811880989
 30
0.0
 10
10.290833644
 20
7.0803682344
 30
0.0
 10
10.2915953921
 20
7.079385938
 30
0.0
 10
10.2926099229
 20
7.0780756712
 30
0.0
 10
10.2938784743
 20
7.076438022
 30
0.0
 10
10.2959079398
 20
7.0738176802
 30
0.0
 10
10.2984448461
 20
7.0705422884
 30
0.0
 10
10.3014891018
 20
7.0666118031
 30
0.0
 10
10.3045333659
 20
7.0626813218
 30
0.0
 10
10.3085923818
 20
7.0574406787
 30
0.0
 10
10.3136661528
 20
7.0508898753
 30
0.0
 10
10.3187399232
 20
7.0443390715
 30
0.0
 10
10.3227989401
 20
7.0390984291
 30
0.0
 10
10.3258432012
 20
7.0351679455
 30
0.0
 10
10.3288874685
 20
7.0312374689
 30
0.0
 10
10.3314243385
 20
7.0279620499
 30
0.0
 10
10.333453878
 20
7.0253417636
 30
0.0
 10
10.3347222411
 20
7.0237039733
 30
0.0
 10
10.3357371585
 20
7.0223939962
 30
0.0
 10
10.3364977251
 20
7.0214108146
 30
0.0
 10
10.3371335077
 20
7.0205937195
 30
0.0
 10
10.3375746755
 20
7.0200173906
 30
0.0
 10
10.3378328297
 20
7.0196948712
 30
0.0
 10
10.338009379
 20
7.0194337939
 30
0.0
 10
10.3382511645
 20
7.019246062
 30
0.0
 10
10.33855079
 20
7.0189701692
 30
0.0
 10
10.3390857366
 20
7.0184992766
 30
0.0
 10
10.3398444032
 20
7.0178203411
 30
0.0
 10
10.3407571756
 20
7.0170082859
 30
0.0
 10
10.3419733769
 20
7.015924614
 30
0.0
 10
10.3434939122
 20
7.014570343
 30
0.0
 10
10.3459266101
 20
7.0124033313
 30
0.0
 10
10.3489675369
 20
7.0096946278
 30
0.0
 10
10.3526166257
 20
7.0064441573
 30
0.0
 10
10.3562657207
 20
7.0031936939
 30
0.0
 10
10.3611311786
 20
6.9988597402
 30
0.0
 10
10.3672130018
 20
6.993442299
 30
0.0
 10
10.3732948245
 20
6.9880248571
 30
0.0
 10
10.3781602832
 20
6.9836909044
 30
0.0
 10
10.3818093758
 20
6.9804404379
 30
0.0
 10
10.3854584738
 20
6.977189979
 30
0.0
 10
10.3884993722
 20
6.9744812397
 30
0.0
 10
10.3909321279
 20
6.9723143009
 30
0.0
 10
10.3924525162
 20
6.9709598444
 30
0.0
 10
10.3936690192
 20
6.9698765533
 30
0.0
 10
10.3945808697
 20
6.9690633346
 30
0.0
 10
10.395342421
 20
6.9683880395
 30
0.0
 10
10.3958722179
 20
6.9679106481
 30
0.0
 10
10.3961800945
 20
6.9676451681
 30
0.0
 10
10.3963965352
 20
6.9674254513
 30
0.0
 10
10.3966682751
 20
6.9672845043
 30
0.0
 10
10.3970113059
 20
6.9670690991
 30
0.0
 10
10.3976205969
 20
6.9667049416
 30
0.0
 10
10.3984863142
 20
6.9661780239
 30
0.0
 10
10.399527186
 20
6.9655485872
 30
0.0
 10
10.4009143126
 20
6.9647083379
 30
0.0
 10
10.4026484614
 20
6.9636583687
 30
0.0
 10
10.4054229651
 20
6.9619782266
 30
0.0
 10
10.4088911408
 20
6.9598781147
 30
0.0
 10
10.4130529319
 20
6.9573579522
 30
0.0
 10
10.4172147282
 20
6.9548377973
 30
0.0
 10
10.4227637882
 20
6.9514775881
 30
0.0
 10
10.4297001138
 20
6.9472773276
 30
0.0
 10
10.4366364391
 20
6.9430770663
 30
0.0
 10
10.4421854997
 20
6.9397168582
 30
0.0
 10
10.4463472942
 20
6.9371966999
 30
0.0
 10
10.4505090923
 20
6.9346765501
 30
0.0
 10
10.453977246
 20
6.9325763988
 30
0.0
 10
10.4567517945
 20
6.9308963371
 30
0.0
 10
10.4584858293
 20
6.9298461632
 30
0.0
 10
10.45987319
 20
6.9290063342
 30
0.0
 10
10.4609133466
 20
6.9283756133
 30
0.0
 10
10.4617813015
 20
6.9278527137
 30
0.0
 10
10.4623865979
 20
6.9274813832
 30
0.0
 10
10.4627360292
 20
6.927277471
 30
0.0
 10
10.4629881089
 20
6.9271012214
 30
0.0
 10
10.4632783899
 20
6.9270140952
 30
0.0
 10
10.4636521061
 20
6.9268668397
 30
0.0
 10
10.464312318
 20
6.9266236266
 30
0.0
 10
10.4652522319
 20
6.926268607
 30
0.0
 10
10.4663815179
 20
6.9258458247
 30
0.0
 10
10.4678867474
 20
6.9252809828
 30
0.0
 10
10.4697684503
 20
6.9245753181
 30
0.0
 10
10.4727790822
 20
6.923446038
 30
0.0
 10
10.4765424039
 20
6.9220345122
 30
0.0
 10
10.4810583763
 20
6.9203406493
 30
0.0
 10
10.4855743523
 20
6.9186467949
 30
0.0
 10
10.4915956524
 20
6.9163883195
 30
0.0
 10
10.499122278
 20
6.9135652263
 30
0.0
 10
10.5066489033
 20
6.9107421323
 30
0.0
 10
10.5126702039
 20
6.9084836581
 30
0.0
 10
10.5171861786
 20
6.9067898
 30
0.0
 10
10.521702156
 20
6.9050959511
 30
0.0
 10
10.525465462
 20
6.9036843819
 30
0.0
 10
10.528476126
 20
6.9025551902
 30
0.0
 10
10.5303577472
 20
6.9018493004
 30
0.0
 10
10.5318631443
 20
6.9012849206
 30
0.0
 10
10.5329919182
 20
6.9008607266
 30
0.0
 10
10.5339334346
 20
6.9005101239
 30
0.0
 10
10.5345907857
 20
6.9002590259
 30
0.0
 10
10.5349690856
 20
6.900124404
 30
0.0
 10
10.5352452871
 20
6.8999984712
 30
0.0
 10
10.5355502469
 20
6.8999679729
 30
0.0
 10
10.5359468289
 20
6.8998940198
 30
0.0
 10
10.536645521
 20
6.8997801118
 30
0.0
 10
10.5376412091
 20
6.8996092773
 30
0.0
 10
10.5388370808
 20
6.8994077468
 30
0.0
 10
10.540431211
 20
6.8991378271
 30
0.0
 10
10.5424239988
 20
6.8988008425
 30
0.0
 10
10.5456123895
 20
6.8982614352
 30
0.0
 10
10.5495979018
 20
6.8975872558
 30
0.0
 10
10.5543805063
 20
6.8967782063
 30
0.0
 10
10.5591631135
 20
6.8959691659
 30
0.0
 10
10.5655399222
 20
6.8948904422
 30
0.0
 10
10.5735109334
 20
6.8935420387
 30
0.0
 10
10.5830761467
 20
6.891923954
 30
0.0
 10
10.5958297644
 20
6.8897665079
 30
0.0
 10
10.6053949777
 20
6.8881484233
 30
0.0
 10
10.6117717866
 20
6.8870697003
 30
0.0
  0
SPLINE
  5
332
100
AcDbEntity
  8
0
100
AcDbSpline
 62
4
  6
CONTINUOUS
 70
0
 71
3
 72
403
 73
399
 74
0
 42
0.0000001
 43
0.0000001
 44
0.0000000001
 40
0.0
 40
0.0
 40
0.0
 40
0.0
 40
0.015625
 40
0.0234375
 40
0.03125
 40
0.0390625
 40
0.04296875
 40
0.046875
 40
0.05078125
 40
0.0546875
 40
0.056640625
 40
0.05859375
 40
0.0595703125
 40
0.060546875
 40
0.0615234375
 40
0.0620117188
 40
0.0622558594
 40
0.0625
 40
0.0627441406
 40
0.0629882812
 40
0.0634765625
 40
0.064453125
 40
0.0654296875
 40
0.06640625
 40
0.068359375
 40
0.0703125
 40
0.07421875
 40
0.078125
 40
0.08203125
 40
0.0859375
 40
0.09375
 40
0.1015625
 40
0.10546875
 40
0.109375
 40
0.11328125
 40
0.1171875
 40
0.119140625
 40
0.12109375
 40
0.1220703125
 40
0.123046875
 40
0.1240234375
 40
0.1245117188
 40
0.1247558594
 40
0.125
 40
0.1252441406
 40
0.1254882812
 40
0.1259765625
 40
0.126953125
 40
0.1279296875
 40
0.12890625
 40
0.130859375
 40
0.1328125
 40
0.13671875
 40
0.140625
 40
0.14453125
 40
0.1484375
 40
0.15625
 40
0.1640625
 40
0.16796875
 40
0.171875
 40
0.17578125
 40
0.1796875
 40
0.181640625
 40
0.18359375
 40
0.1845703125
 40
0.185546875
 40
0.1865234375
 40
0.1870117188
 40
0.1872558594
 40
0.1875
 40
0.1877441406
 40
0.1879882812
 40
0.1884765625
 40
0.189453125
 40
0.1904296875
 40
0.19140625
 40
0.193359375
 40
0.1953125
 40
0.19921875
 40
0.203125
 40
0.20703125
 40
0.2109375
 40
0.21875
 40
0.2265625
 40
0.23046875
 40
0.234375
 40
0.23828125
 40
0.2421875
 40
0.244140625
 40
0.24609375
 40
0.2470703125
 40
0.248046875
 40
0.2490234375
 40
0.2495117188
 40
0.2497558594
 40
0.25
 40
0.2502441406
 40
0.2504882812
 40
0.2509765625
 40
0.251953125
 40
0.2529296875
 40
0.25390625
 40
0.255859375
 40
0.2578125
 40
0.26171875
 40
0.265625
 40
0.26953125
 40
0.2734375
 40
0.28125
 40
0.2890625
 40
0.29296875
 40
0.296875
 40
0.30078125
 40
0.3046875
 40
0.306640625
 40
0.30859375
 40
0.3095703125
 40
0.310546875
 40
0.3115234375
 40
0.3120117188
 40
0.3122558594
 40
0.3125
 40
0.3127441406
 40
0.3129882812
 40
0.3134765625
 40
0.314453125
 40
0.3154296875
 40
0.31640625
 40
0.318359375
 40
0.3203125
 40
0.32421875
 40
0.328125
 40
0.33203125
 40
0.3359375
 40
0.34375
 40
0.3515625
 40
0.35546875
 40
0.359375
 40
0.36328125
 40
0.3671875
 40
0.369140625
 40
0.37109375
 40
0.3720703125
 40
0.373046875
 40
0.3740234375
 40
0.3745117188
 40
0.3747558594
 40
0.375
 40
0.3752441406
 40
0.3754882812
 40
0.3759765625
 40
0.376953125
 40
0.3779296875
 40
0.37890625
 40
0.380859375
 40
0.3828125
 40
0.38671875
 40
0.390625
 40
0.39453125
 40
0.3984375
 40
0.40625
 40
0.4140625
 40
0.41796875
 40
0.421875
 40
0.42578125
 40
0.4296875
 40
0.431640625
 40
0.43359375
 40
0.4345703125
 40
0.435546875
 40
0.4365234375
 40
0.4370117188
 40
0.4372558594
 40
0.4375
 40
0.4377441406
 40
0.4379882812
 40
0.4384765625
 40
0.439453125
 40
0.4404296875
 40
0.44140625
 40
0.443359375
 40
0.4453125
 40
0.44921875
 40
0.453125
 40
0.45703125
 40
0.4609375
 40
0.46875
 40
0.4765625
 40
0.48046875
 40
0.484375
 40
0.48828125
 40
0.4921875
 40
0.494140625
 40
0.49609375
 40
0.4970703125
 40
0.498046875
 40
0.4990234375
 40
0.4995117188
 40
0.4997558594
 40
0.5
 40
0.5002441406
 40
0.5004882812
 40
0.5009765625
 40
0.501953125
 40
0.5029296875
 40
0.50390625
 40
0.505859375
 40
0.5078125
 40
0.51171875
 40
0.515625
 40
0.51953125
 40
0.5234375
 40
0.53125
 40
0.5390625
 40
0.54296875
 40
0.546875
 40
0.55078125
 40
0.5546875
 40
0.556640625
 40
0.55859375
 40
0.5595703125
 40
0.560546875
 40
0.5615234375
 40
0.5620117188
 40
0.5622558594
 40
0.5625
 40
0.5627441406
 40
0.5629882812
 40
0.5634765625
 40
0.564453125
 40
0.5654296875
 40
0.56640625
 40
0.568359375
 40
0.5703125
 40
0.57421875
 40
0.578125
 40
0.58203125
 40
0.5859375
 40
0.59375
 40
0.6015625
 40
0.60546875
 40
0.609375
 40
0.61328125
 40
0.6171875
 40
0.619140625
 40
0.62109375
 40
0.6220703125
 40
0.623046875
 40
0.6240234375
 40
0.6245117188
 40
0.6247558594
 40
0.625
 40
0.6252441406
 40
0.6254882812
 40
0.6259765625
 40
0.626953125
 40
0.6279296875
 40
0.62890625
 40
0.630859375
 40
0.6328125
 40
0.63671875
 40
0.640625
 40
0.64453125
 40
0.6484375
 40
0.65625
 40
0.6640625
 40
0.66796875
 40
0.671875
 40
0.67578125
 40
0.6796875
 40
0.681640625
 40
0.68359375
 40
0.6845703125
 40
0.685546875
 40
0.6865234375
 40
0.6870117188
 40
0.6872558594
 40
0.6875
 40
0.6877441406
 40
0.6879882812
 40
0.6884765625
 40
0.689453125
 40
0.6904296875
 40
0.69140625
 40
0.693359375
 40
0.6953125
 40
0.69921875
 40
0.703125
 40
0.70703125
 40
0.7109375
 40
0.71875
 40
0.7265625
 40
0.73046875
 40
0.734375
 40
0.73828125
 40
0.7421875
 40
0.744140625
 40
0.74609375
 40
0.7470703125
 40
0.748046875
 40
0.7490234375
 40
0.7495117188
 40
0.7497558594
 40
0.75
 40
0.7502441406
 40
0.7504882812
 40
0.7509765625
 40
0.751953125
 40
0.7529296875
 40
0.75390625
 40
0.755859375
 40
0.7578125
 40
0.76171875
 40
0.765625
 40
0.76953125
 40
0.7734375
 40
0.78125
 40
0.7890625
 40
0.79296875
 40
0.796875
 40
0.80078125
 40
0.8046875
 40
0.806640625
 40
0.80859375
 40
0.8095703125
 40
0.810546875
 40
0.8115234375
 40
0.8120117188
 40
0.8122558594
 40
0.8125
 40
0.8127441406
 40
0.8129882812
 40
0.8134765625
 40
0.814453125
 40
0.8154296875
 40
0.81640625
 40
0.818359375
 40
0.8203125
 40
0.82421875
 40
0.828125
 40
0.83203125
 40
0.8359375
 40
0.84375
 40
0.8515625
 40
0.85546875
 40
0.859375
 40
0.86328125
 40
0.8671875
 40
0.869140625
 40
0.87109375
 40
0.8720703125
 40
0.873046875
 40
0.8740234375
 40
0.8745117188
 40
0.8747558594
 40
0.875
 40
0.8752441406
 40
0.8754882812
 40
0.8759765625
 40
0.876953125
 40
0.8779296875
 40
0.87890625
 40
0.880859375
 40
0.8828125
 40
0.88671875
 40
0.890625
 40
0.89453125
 40
0.8984375
 40
0.90625
 40
0.9140625
 40
0.91796875
 40
0.921875
 40
0.92578125
 40
0.9296875
 40
0.931640625
 40
0.93359375
 40
0.9345703125
 40
0.935546875
 40
0.9365234375
 40
0.9370117188
 40
0.9372558594
 40
0.9375
 40
0.9377441406
 40
0.9379882812
 40
0.9384765625
 40
0.939453125
 40
0.9404296875
 40
0.94140625
 40
0.943359375
 40
0.9453125
 40
0.94921875
 40
0.953125
 40
0.95703125
 40
0.9609375
 40
0.96875
 40
0.9765625
 40
0.984375
 40
1.0
 40
1.0
 40
1.0
 40
1.0
 10
10.6117717527
 20
6.8870697026
 30
0.0
 10
10.6180381266
 20
6.8872495514
 30
0.0
 10
10.6274376873
 20
6.8875193247
 30
0.0
 10
10.639970435
 20
6.8878790223
 30
0.0
 10
10.6493699957
 20
6.8881487956
 30
0.0
 10
10.6572029631
 20
6.8883736064
 30
0.0
 10
10.6634693368
 20
6.8885534558
 30
0.0
 10
10.6681691176
 20
6.8886883405
 30
0.0
 10
10.6728688965
 20
6.8888232345
 30
0.0
 10
10.6767853847
 20
6.8889356168
 30
0.0
 10
10.6799185623
 20
6.8890255886
 30
0.0
 10
10.6818768277
 20
6.8890816708
 30
0.0
 10
10.6834433728
 20
6.8891268805
 30
0.0
 10
10.6846184656
 20
6.889159846
 30
0.0
 10
10.6855971244
 20
6.8891903132
 30
0.0
 10
10.686283334
 20
6.8892057608
 30
0.0
 10
10.6866736606
 20
6.8892237682
 30
0.0
 10
10.6869714568
 20
6.8892114132
 30
0.0
 10
10.6872499449
 20
6.8892979101
 30
0.0
 10
10.6876279972
 20
6.8893787586
 30
0.0
 10
10.6882864508
 20
6.8895363087
 30
0.0
 10
10.6892287394
 20
6.8897529812
 30
0.0
 10
10.6903587835
 20
6.8900165833
 30
0.0
 10
10.6918657543
 20
6.8903667971
 30
0.0
 10
10.6937493837
 20
6.8908049943
 30
0.0
 10
10.6967632378
 20
6.8915058694
 30
0.0
 10
10.7005305392
 20
6.8923820459
 30
0.0
 10
10.7050513079
 20
6.8934334222
 30
0.0
 10
10.7095720747
 20
6.894484808
 30
0.0
 10
10.7155997644
 20
6.8958866525
 30
0.0
 10
10.7231343764
 20
6.8976389592
 30
0.0
 10
10.7306689885
 20
6.8993912652
 30
0.0
 10
10.7366966778
 20
6.9007931109
 30
0.0
 10
10.7412174458
 20
6.9018444928
 30
0.0
 10
10.7457382102
 20
6.9028958838
 30
0.0
 10
10.7495055251
 20
6.9037720148
 30
0.0
 10
10.7525193517
 20
6.9044729826
 30
0.0
 10
10.7544030509
 20
6.9049109439
 30
0.0
 10
10.7559098785
 20
6.9052616419
 30
0.0
 10
10.75704036
 20
6.9055237647
 30
0.0
 10
10.75798128
 20
6.9057450654
 30
0.0
 10
10.7586421769
 20
6.9058943535
 30
0.0
 10
10.7590163144
 20
6.9059884399
 30
0.0
 10
10.7593068275
 20
6.9060342742
 30
0.0
 10
10.7595594598
 20
6.906174641
 30
0.0
 10
10.7599095162
 20
6.9063288227
 30
0.0
 10
10.7605159585
 20
6.906614004
 30
0.0
 10
10.7613855233
 20
6.9070133737
 30
0.0
 10
10.7624276234
 20
6.9074960553
 30
0.0
 10
10.7638175714
 20
6.90813843
 30
0.0
 10
10.7655548416
 20
6.9089418096
 30
0.0
 10
10.7683345661
 20
6.910226987
 30
0.0
 10
10.77180919
 20
6.9118335377
 30
0.0
 10
10.7759787523
 20
6.9137613647
 30
0.0
 10
10.7801483109
 20
6.9156892007
 30
0.0
 10
10.7857077237
 20
6.9182596456
 30
0.0
 10
10.7926569892
 20
6.9214727029
 30
0.0
 10
10.7996062551
 20
6.9246857594
 30
0.0
 10
10.8051656673
 20
6.9272562055
 30
0.0
 10
10.8093352277
 20
6.9291840378
 30
0.0
 10
10.8135047835
 20
6.9311118789
 30
0.0
 10
10.8169794277
 20
6.9327183856
 30
0.0
 10
10.8197591107
 20
6.9340036527
 30
0.0
 10
10.8214964864
 20
6.934806804
 30
0.0
 10
10.8228862179
 20
6.9354496472
 30
0.0
 10
10.8239289792
 20
6.9359308975
 30
0.0
 10
10.8247964753
 20
6.9363347456
 30
0.0
 10
10.8254066106
 20
6.9366119321
 30
0.0
 10
10.8257507499
 20
6.9367789235
 30
0.0
 10
10.8260215575
 20
6.9368799433
 30
0.0
 10
10.8262438075
 20
6.9370735583
 30
0.0
 10
10.8265570783
 20
6.9372994135
 30
0.0
 10
10.8270974107
 20
6.9377097084
 30
0.0
 10
10.8278734398
 20
6.9382879764
 30
0.0
 10
10.8288029089
 20
6.9389852657
 30
0.0
 10
10.8300428177
 20
6.9399138084
 30
0.0
 10
10.8315924926
 20
6.9410748896
 30
0.0
 10
10.8340720904
 20
6.9429323944
 30
0.0
 10
10.8371715472
 20
6.9452543526
 30
0.0
 10
10.8408909127
 20
6.9480406694
 30
0.0
 10
10.8446102735
 20
6.950826995
 30
0.0
 10
10.8495694229
 20
6.9545420927
 30
0.0
 10
10.8557683591
 20
6.959185966
 30
0.0
 10
10.8619672957
 20
6.9638298386
 30
0.0
 10
10.8669264443
 20
6.9675449375
 30
0.0
 10
10.8706458077
 20
6.9703312598
 30
0.0
 10
10.8743651637
 20
6.9731175889
 30
0.0
 10
10.8774646501
 20
6.9754395088
 30
0.0
 10
10.8799441874
 20
6.9772970918
 30
0.0
 10
10.8814940164
 20
6.9784579739
 30
0.0
 10
10.8827336088
 20
6.9793869253
 30
0.0
 10
10.8836640448
 20
6.9800829659
 30
0.0
 10
10.8844370483
 20
6.9806651406
 30
0.0
 10
10.8849827821
 20
6.9810684616
 30
0.0
 10
10.8852873984
 20
6.9813054906
 30
0.0
 10
10.885536232
 20
6.9814647832
 30
0.0
 10
10.885707196
 20
6.9816947123
 30
0.0
 10
10.8859623098
 20
6.9819766456
 30
0.0
 10
10.8863961036
 20
6.9824815085
 30
0.0
 10
10.8870224255
 20
6.9831967395
 30
0.0
 10
10.8877711797
 20
6.9840575857
 30
0.0
 10
10.8887705078
 20
6.9852044833
 30
0.0
 10
10.8900193292
 20
6.9866384125
 30
0.0
 10
10.8920176328
 20
6.9889325276
 30
0.0
 10
10.8945154473
 20
6.9918002304
 30
0.0
 10
10.8975128526
 20
6.9952414484
 30
0.0
 10
10.9005102504
 20
6.9986826732
 30
0.0
 10
10.9045067835
 20
7.0032709706
 30
0.0
 10
10.9095024488
 20
7.0090063433
 30
0.0
 10
10.9144981148
 20
7.0147417153
 30
0.0
 10
10.9184946468
 20
7.0193300136
 30
0.0
 10
10.9214920479
 20
7.0227712358
 30
0.0
 10
10.924489441
 20
7.0262124638
 30
0.0
 10
10.9269872933
 20
7.0290801356
 30
0.0
 10
10.9289855199
 20
7.0313743138
 30
0.0
 10
10.9302345371
 20
7.0328080824
 30
0.0
 10
10.9312334634
 20
7.0339553097
 30
0.0
 10
10.9319834451
 20
7.0348151487
 30
0.0
 10
10.9326059264
 20
7.0355335308
 30
0.0
 10
10.9330465763
 20
7.0360327685
 30
0.0
 10
10.933290705
 20
7.0363237147
 30
0.0
 10
10.9334954116
 20
7.036525959
 30
0.0
 10
10.9336175134
 20
7.0367892311
 30
0.0
 10
10.9338091293
 20
7.0371189733
 30
0.0
 10
10.9341310323
 20
7.0377059403
 30
0.0
 10
10.9345979124
 20
7.0385392793
 30
0.0
 10
10.9351551643
 20
7.0395415055
 30
0.0
 10
10.9358992161
 20
7.040877032
 30
0.0
 10
10.9368289216
 20
7.0425467055
 30
0.0
 10
10.9383166512
 20
7.0452180348
 30
0.0
 10
10.9401762443
 20
7.0485572473
 30
0.0
 10
10.9424077856
 20
7.0525642804
 30
0.0
 10
10.944639319
 20
7.0565713194
 30
0.0
 10
10.9476146996
 20
7.0619140361
 30
0.0
 10
10.9513339243
 20
7.0685924326
 30
0.0
 10
10.9550531497
 20
7.0752708287
 30
0.0
 10
10.9580285292
 20
7.080613546
 30
0.0
 10
10.960260066
 20
7.0846205829
 30
0.0
 10
10.9624915941
 20
7.088627624
 30
0.0
 10
10.9643512282
 20
7.0919668117
 30
0.0
 10
10.9658388743
 20
7.0946381916
 30
0.0
 10
10.9667687925
 20
7.0963077363
 30
0.0
 10
10.9675124077
 20
7.0976435271
 30
0.0
 10
10.9680709935
 20
7.0986449457
 30
0.0
 10
10.9685337003
 20
7.0994808118
 30
0.0
 10
10.9688630533
 20
7.1000632675
 30
0.0
 10
10.9690427324
 20
7.100400238
 30
0.0
 10
10.9692015002
 20
7.1006413071
 30
0.0
 10
10.9692684953
 20
7.1009269419
 30
0.0
 10
10.9693898335
 20
7.1012922433
 30
0.0
 10
10.9695872607
 20
7.1019387635
 30
0.0
 10
10.9698770971
 20
7.1028585772
 30
0.0
 10
10.9702215632
 20
7.1039639745
 30
0.0
 10
10.970682017
 20
7.1054372713
 30
0.0
 10
10.9712571851
 20
7.1072790862
 30
0.0
 10
10.9721776773
 20
7.1102258818
 30
0.0
 10
10.9733282158
 20
7.1139094133
 30
0.0
 10
10.974708895
 20
7.1183296353
 30
0.0
 10
10.9760895653
 20
7.1227498615
 30
0.0
 10
10.9779304622
 20
7.128643495
 30
0.0
 10
10.9802315821
 20
7.1360105374
 30
0.0
 10
10.9825327029
 20
7.1433775794
 30
0.0
 10
10.9843735985
 20
7.1492712135
 30
0.0
 10
10.9857542726
 20
7.1536914381
 30
0.0
 10
10.9871349375
 20
7.1581116661
 30
0.0
 10
10.9882855205
 20
7.1617951788
 30
0.0
 10
10.989205922
 20
7.1647420127
 30
0.0
 10
10.9897813209
 20
7.16658373
 30
0.0
 10
10.990241301
 20
7.1680572273
 30
0.0
 10
10.9905872143
 20
7.169162012
 30
0.0
 10
10.9908725227
 20
7.1700837422
 30
0.0
 10
10.9910780332
 20
7.1707268411
 30
0.0
 10
10.9911864198
 20
7.1710976244
 30
0.0
 10
10.991293198
 20
7.1713664208
 30
0.0
 10
10.9913025473
 20
7.1716707321
 30
0.0
 10
10.9913489973
 20
7.1720640926
 30
0.0
 10
10.9914144509
 20
7.1727582452
 30
0.0
 10
10.9915162341
 20
7.1737468742
 30
0.0
 10
10.9916348307
 20
7.1749345206
 30
0.0
 10
10.9917941971
 20
7.176517598
 30
0.0
 10
10.9919929814
 20
7.1784965992
 30
0.0
 10
10.992311273
 20
7.1816629149
 30
0.0
 10
10.9927090563
 20
7.1856208391
 30
0.0
 10
10.993186431
 20
7.1903703354
 30
0.0
 10
10.9936637964
 20
7.1951198351
 30
0.0
 10
10.994300287
 20
7.2014525002
 30
0.0
 10
10.9950958989
 20
7.209368332
 30
0.0
 10
10.9958915116
 20
7.2172841636
 30
0.0
 10
10.9965280008
 20
7.2236168289
 30
0.0
 10
10.9970053702
 20
7.2283663279
 30
0.0
 10
10.99748273
 20
7.2331158268
 30
0.0
 10
10.9978805599
 20
7.2370737431
 30
0.0
 10
10.9981987564
 20
7.2402400748
 30
0.0
 10
10.9983977829
 20
7.2422190351
 30
0.0
 10
10.998556652
 20
7.2438021966
 30
0.0
 10
10.9986767679
 20
7.244989586
 30
0.0
 10
10.9987737977
 20
7.2459790191
 30
0.0
 10
10.998847737
 20
7.2466717362
 30
0.0
 10
10.9988805907
 20
7.2470673967
 30
0.0
 10
10.9989317034
 20
7.2473646432
 30
0.0
 10
10.998881625
 20
7.247659974
 30
0.0
 10
10.9988501505
 20
7.2480544167
 30
0.0
 10
10.9987786247
 20
7.24874438
 30
0.0
 10
10.9986850428
 20
7.2497302046
 30
0.0
 10
10.9985690644
 20
7.2509131245
 30
0.0
 10
10.9984157119
 20
7.2524903754
 30
0.0
 10
10.9982235812
 20
7.2544619306
 30
0.0
 10
10.9979164181
 20
7.2576164236
 30
0.0
 10
10.9975323797
 20
7.2615595383
 30
0.0
 10
10.9970715698
 20
7.2662912766
 30
0.0
 10
10.9966107503
 20
7.2710230148
 30
0.0
 10
10.9959963277
 20
7.277331999
 30
0.0
 10
10.9952282981
 20
7.2852182293
 30
0.0
 10
10.9944602693
 20
7.2931044597
 30
0.0
 10
10.9938458454
 20
7.2994134438
 30
0.0
 10
10.9933850298
 20
7.3041451823
 30
0.0
 10
10.992924205
 20
7.3088769195
 30
0.0
 10
10.9925402133
 20
7.3128200376
 30
0.0
 10
10.9922329549
 20
7.3159745237
 30
0.0
 10
10.9920410665
 20
7.3179460966
 30
0.0
 10
10.9918872166
 20
7.3195233112
 30
0.0
 10
10.9917727581
 20
7.3207063417
 30
0.0
 10
10.9916744207
 20
7.3216918203
 30
0.0
 10
10.9916113843
 20
7.3223824014
 30
0.0
 10
10.9915663077
 20
7.3227758541
 30
0.0
 10
10.9915580104
 20
7.3230742257
 30
0.0
 10
10.9914522003
 20
7.3233600517
 30
0.0
 10
10.9913451338
 20
7.3237455291
 30
0.0
 10
10.9911419198
 20
7.3244180757
 30
0.0
 10
10.9908598993
 20
7.3253799225
 30
0.0
 10
10.9905179284
 20
7.3265336824
 30
0.0
 10
10.9900632058
 20
7.3280721882
 30
0.0
 10
10.9894943785
 20
7.329995266
 30
0.0
 10
10.9885844919
 20
7.3330722209
 30
0.0
 10
10.9874470522
 20
7.3369184041
 30
0.0
 10
10.9860821595
 20
7.3415338283
 30
0.0
 10
10.9847172574
 20
7.3461492514
 30
0.0
 10
10.9828973913
 20
7.3523031493
 30
0.0
 10
10.9806225574
 20
7.3599955215
 30
0.0
 10
10.9783477243
 20
7.3676878939
 30
0.0
 10
10.9765278569
 20
7.3738417914
 30
0.0
 10
10.9751629587
 20
7.3784572154
 30
0.0
 10
10.9737980516
 20
7.3830726364
 30
0.0
 10
10.9726606565
 20
7.3869188299
 30
0.0
 10
10.9717506791
 20
7.3899957637
 30
0.0
 10
10.9711820828
 20
7.3919188952
 30
0.0
 10
10.970726886
 20
7.3934572908
 30
0.0
 10
10.970386364
 20
7.3946113876
 30
0.0
 10
10.9700998103
 20
7.3955721801
 30
0.0
 10
10.9699046888
 20
7.3962466087
 30
0.0
 10
10.9697846559
 20
7.3966290706
 30
0.0
 10
10.9697186744
 20
7.3969241595
 30
0.0
 10
10.9695607875
 20
7.3971877413
 30
0.0
 10
10.9693823293
 20
7.3975501738
 30
0.0
 10
10.9690550911
 20
7.3981793102
 30
0.0
 10
10.9685954169
 20
7.3990807535
 30
0.0
 10
10.9680404654
 20
7.4001613396
 30
0.0
 10
10.9673016975
 20
7.4016025213
 30
0.0
 10
10.9663778378
 20
7.4034038614
 30
0.0
 10
10.9648998858
 20
7.4062860822
 30
0.0
 10
10.9630523692
 20
7.4098888318
 30
0.0
 10
10.9608353821
 20
7.4142121427
 30
0.0
 10
10.9586183861
 20
7.4185354505
 30
0.0
 10
10.9556623947
 20
7.424299862
 30
0.0
 10
10.9519674042
 20
7.431505376
 30
0.0
 10
10.9482724145
 20
7.4387108903
 30
0.0
 10
10.9453164218
 20
7.4444753013
 30
0.0
 10
10.9430994295
 20
7.4487986106
 30
0.0
 10
10.9408824287
 20
7.4531219159
 30
0.0
 10
10.9390349546
 20
7.4567246829
 30
0.0
 10
10.9375569158
 20
7.4596068682
 30
0.0
 10
10.9366332771
 20
7.4614082985
 30
0.0
 10
10.9358940557
 20
7.4628492952
 30
0.0
 10
10.9353404897
 20
7.4639304464
 30
0.0
 10
10.9348764805
 20
7.4648301217
 30
0.0
 10
10.934556981
 20
7.4654624143
 30
0.0
 10
10.9343661235
 20
7.4658197897
 30
0.0
 10
10.9342463231
 20
7.4660989054
 30
0.0
 10
10.934037295
 20
7.4663356516
 30
0.0
 10
10.9337897144
 20
7.4666660921
 30
0.0
 10
10.9333419474
 20
7.4672374773
 30
0.0
 10
10.9327098615
 20
7.4680573417
 30
0.0
 10
10.9319481134
 20
7.4690396382
 30
0.0
 10
10.9309335826
 20
7.4703499049
 30
0.0
 10
10.9296650311
 20
7.4719875542
 30
0.0
 10
10.9276355657
 20
7.4746078959
 30
0.0
 10
10.9250986594
 20
7.4778832877
 30
0.0
 10
10.9220544037
 20
7.481813773
 30
0.0
 10
10.9190101396
 20
7.4857442543
 30
0.0
 10
10.9149511236
 20
7.4909848975
 30
0.0
 10
10.9098773527
 20
7.4975357008
 30
0.0
 10
10.9048035823
 20
7.5040865047
 30
0.0
 10
10.9007445654
 20
7.509327147
 30
0.0
 10
10.8977003043
 20
7.5132576306
 30
0.0
 10
10.894656037
 20
7.5171881072
 30
0.0
 10
10.892119167
 20
7.5204635263
 30
0.0
 10
10.8900896275
 20
7.5230838125
 30
0.0
 10
10.8888212644
 20
7.5247216029
 30
0.0
 10
10.887806347
 20
7.52603158
 30
0.0
 10
10.8870457804
 20
7.5270147615
 30
0.0
 10
10.8864099978
 20
7.5278318566
 30
0.0
 10
10.88596883
 20
7.5284081855
 30
0.0
 10
10.8857106758
 20
7.5287307049
 30
0.0
 10
10.8855341264
 20
7.5289917823
 30
0.0
 10
10.885292341
 20
7.5291795141
 30
0.0
 10
10.8849927155
 20
7.529455407
 30
0.0
 10
10.8844577689
 20
7.5299262995
 30
0.0
 10
10.8836991023
 20
7.530605235
 30
0.0
 10
10.8827863299
 20
7.5314172902
 30
0.0
 10
10.8815701286
 20
7.5325009622
 30
0.0
 10
10.8800495933
 20
7.5338552331
 30
0.0
 10
10.8776168954
 20
7.5360222449
 30
0.0
 10
10.8745759686
 20
7.5387309484
 30
0.0
 10
10.8709268798
 20
7.5419814188
 30
0.0
 10
10.8672777847
 20
7.5452318823
 30
0.0
 10
10.8624123268
 20
7.549565836
 30
0.0
 10
10.8563305037
 20
7.5549832772
 30
0.0
 10
10.850248681
 20
7.560400719
 30
0.0
 10
10.8453832223
 20
7.5647346717
 30
0.0
 10
10.8417341296
 20
7.5679851382
 30
0.0
 10
10.8380850317
 20
7.5712355972
 30
0.0
 10
10.8350441333
 20
7.5739443364
 30
0.0
 10
10.8326113776
 20
7.5761112753
 30
0.0
 10
10.8310909893
 20
7.5774657317
 30
0.0
 10
10.8298744863
 20
7.5785490228
 30
0.0
 10
10.8289626358
 20
7.5793622416
 30
0.0
 10
10.8282010845
 20
7.5800375366
 30
0.0
 10
10.8276712876
 20
7.5805149281
 30
0.0
 10
10.827363411
 20
7.580780408
 30
0.0
 10
10.8271469703
 20
7.5810001249
 30
0.0
 10
10.8268752304
 20
7.5811410719
 30
0.0
 10
10.8265321996
 20
7.581356477
 30
0.0
 10
10.8259229086
 20
7.5817206345
 30
0.0
 10
10.8250571913
 20
7.5822475523
 30
0.0
 10
10.8240163195
 20
7.5828769889
 30
0.0
 10
10.8226291929
 20
7.5837172383
 30
0.0
 10
10.8208950441
 20
7.5847672074
 30
0.0
 10
10.8181205404
 20
7.5864473495
 30
0.0
 10
10.8146523647
 20
7.5885474614
 30
0.0
 10
10.8104905736
 20
7.5910676239
 30
0.0
 10
10.8063287773
 20
7.5935877788
 30
0.0
 10
10.8007797173
 20
7.5969479881
 30
0.0
 10
10.7938433916
 20
7.6011482486
 30
0.0
 10
10.7869070664
 20
7.6053485098
 30
0.0
 10
10.7813580058
 20
7.6087087179
 30
0.0
 10
10.7771962113
 20
7.6112288762
 30
0.0
 10
10.7730344132
 20
7.613749026
 30
0.0
 10
10.7695662594
 20
7.6158491774
 30
0.0
 10
10.766791711
 20
7.617529239
 30
0.0
 10
10.7650576762
 20
7.6185794129
 30
0.0
 10
10.7636703155
 20
7.619419242
 30
0.0
 10
10.7626301589
 20
7.6200499628
 30
0.0
 10
10.7617622039
 20
7.6205728625
 30
0.0
 10
10.7611569076
 20
7.620944193
 30
0.0
 10
10.7608074763
 20
7.6211481052
 30
0.0
 10
10.7605553966
 20
7.6213243547
 30
0.0
 10
10.7602651156
 20
7.621411481
 30
0.0
 10
10.7598913994
 20
7.6215587365
 30
0.0
 10
10.7592311875
 20
7.6218019495
 30
0.0
 10
10.7582912736
 20
7.6221569691
 30
0.0
 10
10.7571619876
 20
7.6225797514
 30
0.0
 10
10.7556567581
 20
7.6231445933
 30
0.0
 10
10.7537750552
 20
7.623850258
 30
0.0
 10
10.7507644233
 20
7.6249795381
 30
0.0
 10
10.7470011016
 20
7.626391064
 30
0.0
 10
10.7424851292
 20
7.6280849269
 30
0.0
 10
10.7379691532
 20
7.6297787812
 30
0.0
 10
10.7319478531
 20
7.6320372567
 30
0.0
 10
10.7244212275
 20
7.6348603499
 30
0.0
 10
10.7168946021
 20
7.6376834438
 30
0.0
 10
10.7108733016
 20
7.6399419181
 30
0.0
 10
10.7063573269
 20
7.6416357761
 30
0.0
 10
10.7018413495
 20
7.6433296251
 30
0.0
 10
10.6980780435
 20
7.6447411943
 30
0.0
 10
10.6950673795
 20
7.645870386
 30
0.0
 10
10.6931857582
 20
7.6465762758
 30
0.0
 10
10.6916803612
 20
7.6471406555
 30
0.0
 10
10.6905515873
 20
7.6475648496
 30
0.0
 10
10.6896100709
 20
7.6479154523
 30
0.0
 10
10.6889527198
 20
7.6481665503
 30
0.0
 10
10.6885744199
 20
7.6483011721
 30
0.0
 10
10.6882982184
 20
7.6484271049
 30
0.0
 10
10.6879932585
 20
7.6484576032
 30
0.0
 10
10.6875966766
 20
7.6485315563
 30
0.0
 10
10.6868979845
 20
7.6486454643
 30
0.0
 10
10.6859022963
 20
7.6488162988
 30
0.0
 10
10.6847064247
 20
7.6490178294
 30
0.0
 10
10.6831122945
 20
7.6492877491
 30
0.0
 10
10.6811195066
 20
7.6496247336
 30
0.0
 10
10.677931116
 20
7.6501641409
 30
0.0
 10
10.6739456037
 20
7.6508383204
 30
0.0
 10
10.6691629992
 20
7.6516473699
 30
0.0
 10
10.664380392
 20
7.6524564103
 30
0.0
 10
10.6580035833
 20
7.6535351339
 30
0.0
 10
10.6500325721
 20
7.6548835375
 30
0.0
 10
10.6404673588
 20
7.6565016221
 30
0.0
 10
10.6277137411
 20
7.6586590682
 30
0.0
 10
10.6181485278
 20
7.6602771528
 30
0.0
 10
10.6117717189
 20
7.6613558759
 30
0.0
  0
ENDSEC
  0
SECTION
  2
OBJECTS
  0
DICTIONARY
  5
C
100
AcDbDictionary
280
0
281
1
  3
ACAD_GROUP
350
D
  3
ACAD_MLINESTYLE
350
17
  3
ACAD_LAYOUT
350
1A
  3
ACAD_PLOTSETTINGS
350
19
  3
ACAD_PLOTSTYLENAME
350
E
  3
ACAD_IMAGE_DICT
350
       334
  3
ACAD_IMAGE_VARS
350
       335
  3
ACAD_TABLESTYLE
350
       336
  0
IMAGEDEF_REACTOR
  5
333
100
AcDbRasterImageDefReactor
 90
2
330
27F
  0
DICTIONARY
  5
D
102
{ACAD_REACTORS
330
C
102
}
100
AcDbDictionary
280
0
281
1
  0
ACDBDICTIONARYWDFLT
  5
E
102
{ACAD_REACTORS
330
C
102
}
100
AcDbDictionary
281
1
  3
Normal
350
F
100
AcDbDictionaryWithDefault
340
F
  0
DICTIONARY
  5
334
330
C
100
AcDbDictionary
281
1
  3
FAL_assy_2_img_1
350
       339
  0
RASTERVARIABLES
  5
335
330
C
100
AcDbRasterVariables
 90
0
 70
0
 71
1
 72
5
  0
DICTIONARY
  5
17
102
{ACAD_REACTORS
330
C
102
}
100
AcDbDictionary
280
0
281
1
  3
Standard
350
18
  0
DICTIONARY
  5
336
330
C
100
AcDbDictionary
281
1
  3
Standard
350
       33A
  3
Standard1
350
       33B
  0
DICTIONARY
  5
19
102
{ACAD_REACTORS
330
C
102
}
100
AcDbDictionary
281
1
  0
DICTIONARY
  5
1A
102
{ACAD_REACTORS
330
C
102
}
100
AcDbDictionary
281
1
  3
Model
350
337
  3
Layout1
350
338
  0
ACDBPLACEHOLDER
  5
F
102
{ACAD_REACTORS
330
E
102
}
  0
MLINESTYLE
  5
18
102
{ACAD_REACTORS
330
17
102
}
100
AcDbMlineStyle
  2
STANDARD
 70
0
  3

 62
256
 51
90.0
 52
90.0
 71
2
 49
0.5
 62
256
  6
BYLAYER
 49
-0.5
 62
256
  6
BYLAYER
  0
LAYOUT
  5
337
102
{ACAD_REACTORS
330
1A
102
}
100
AcDbPlotSettings
  1

  2
none_device
  4
ANSI_C_(22.00_x_17.00_Inches)
  6

 40
0.0
 41
0.0
 42
0.0
 43
0.0
 44
558.8
 45
431.8
 46
0.0
 47
0.0
 48
0.0
 49
0.0
140
0.0
141
0.0
142
1.0
143
1.0
 70
1024
 72
0
 73
0
 74
0
  7

 75
0
147
1.0
148
0.0
149
0.0
100
AcDbLayout
  1
Model
 70
0
 71
0
 10
0.0
 20
0.0
 11
22.0
 21
17.0
 12
0.0
 22
0.0
 32
0.0
 14
0.0
 24
0.0
 34
0.0
 15
0.0
 25
0.0
 35
0.0
146
0.0
 13
0.0
 23
0.0
 33
0.0
 16
1.0
 26
0.0
 36
0.0
 17
0.0
 27
1.0
 37
0.0
 76
0
330
204
345
0
346
0
  0
LAYOUT
  5
338
102
{ACAD_REACTORS
330
1A
102
}
100
AcDbPlotSettings
  1

  2
none_device
  4
ANSI_C_(22.00_x_17.00_Inches)
  6

 40
0.0
 41
0.0
 42
0.0
 43
0.0
 44
558.8
 45
431.8
 46
0.0
 47
0.0
 48
0.0
 49
0.0
140
0.0
141
0.0
142
1.0
143
1.0
 70
0
 72
0
 73
0
 74
0
  7

 75
0
147
1.0
148
0.0
149
0.0
100
AcDbLayout
  1
Layout1
 70
0
 71
1
 10
0.0
 20
0.0
 11
22.0
 21
17.0
 12
0.0
 22
0.0
 32
0.0
 14
0.0
 24
0.0
 34
0.0
 15
0.0
 25
0.0
 35
0.0
146
0.0
 13
0.0
 23
0.0
 33
0.0
 16
1.0
 26
0.0
 36
0.0
 17
0.0
 27
1.0
 37
0.0
 76
0
330
205
345
0
346
0
  0
IMAGEDEF
  5
339
102
{ACAD_REACTORS
330
334
330
333
102
}
100
AcDbRasterImageDef
 90
0
  1
FAL_assy_2_img_1.png
 10
369.0
 20
92.0
 11
0.0066666667
 21
0.0066666667
280
1
281
0
  0
TABLESTYLE
  5
33A
102
{ACAD_REACTORS
330
336
330
282
330
283
102
}
330
336
100
AcDbTableStyle
  3
Standard
 70
0
 71
0
 40
0.06
 41
0.06
280
1
281
1
  7
Standard
140
0.18
170
1
 62
0
 63
7
283
0
  7
Standard
140
0.18
170
1
 62
0
 63
7
283
0
  7
Standard
140
0.18
170
1
 62
0
 63
7
283
0
  0
TABLESTYLE
  5
33B
102
{ACAD_REACTORS
330
336
330
281
102
}
330
336
100
AcDbTableStyle
  3
Standard1
 70
1
 71
0
 40
0.06
 41
0.06
280
1
281
1
  7
Standard
140
0.18
170
1
 62
0
 63
7
283
0
  7
Standard
140
0.18
170
1
 62
0
 63
7
283
0
  7
Standard
140
0.18
170
1
 62
0
 63
7
283
0
  0
ENDSEC
  0
EOF
