999
DXF file: FAK_assy_2.dxf
999
Pro/ENGINEER 2014200 by Parametric Technology Corporation
  0
SECTION
  2
HEADER
  9
$ACADVER
  1
AC1021
  9
$DWGCODEPAGE
  3
ANSI_1252
  9
$EXTMAX
 10
22.0
 20
17.0
 30
0.0
  9
$EXTMIN
 10
0.0
 20
0.0
 30
0.0
  9
$LIMMIN
 10
0.0
 20
0.0
  9
$LIMMAX
 10
22.0
 20
17.0
  9
$VIEWCTR
 10
11.0
 20
8.5
  9
$VIEWSIZE
 40
17.0
  9
$CLAYER
  8
0
  9
$LTSCALE
 40
1.21
  9
$CELTYPE
  6
BYLAYER
  9
$DIMSCALE
 40
1.0
  9
$DIMASZ
 40
0.1875
  9
$DIMEXO
 40
0.0625
  9
$DIMDLI
 40
0.836
  9
$DIMEXE
 40
0.125
  9
$DIMCEN
 40
0.198
  9
$DIMLFAC
 40
1.0
  9
$DIMBLK
  1
_FILLED
  9
$DIMTXT
 40
0.1
  9
$DIMTOL
 70
0
  9
$DIMLIM
 70
0
  9
$DIMTFAC
 40
1.0
  9
$DIMGAP
 40
0.09
  9
$DIMDSEP
 70
46
  9
$AUNITS
 70
0
  9
$PDMODE
 70
3
  9
$PDSIZE
 40
0.3125
  9
$HANDSEED
  5
331
  9
$TILEMODE
 70
1
  9
$MEASUREMENT
 70
0
  9
$INSUNITS
 70
1
  0
ENDSEC
  0
SECTION
  2
CLASSES
  0
CLASS
  1
ACDBDICTIONARYWDFLT
  2
AcDbDictionaryWithDefault
  3
AutoCAD 2000
 90
0
 91
1
280
0
281
0
  0
CLASS
  1
ACDBPLACEHOLDER
  2
AcDbPlaceHolder
  3
AutoCAD 2000
 90
0
 91
1
280
0
281
0
  0
CLASS
  1
LAYOUT
  2
AcDbLayout
  3
AutoCAD 2000
 90
0
 91
0
280
0
281
0
  0
CLASS
  1
RASTERVARIABLES
  2
AcDbRasterVariables
  3
ISM
 90
0
 91
1
280
0
281
0
  0
CLASS
  1
IMAGEDEF
  2
AcDbRasterImageDef
  3
ISM
 90
0
 91
1
280
0
281
0
  0
CLASS
  1
IMAGEDEF_REACTOR
  2
AcDbRasterImageDefReactor
  3
ISM
 90
0
 91
1
280
0
281
0
  0
CLASS
  1
IMAGE
  2
AcDbRasterImage
  3
ISM
 90
127
 91
1
280
0
281
1
  0
CLASS
  1
TABLESTYLE
  2
AcDbTableStyle
  3
ObjectDBX Classes
 90
2047
 91
1
280
0
281
0
  0
CLASS
  1
ACAD_TABLE
  2
AcDbTable
  3
ObjectDBX Classes
 90
1025
 91
3
280
0
281
1
  0
ENDSEC
  0
SECTION
  2
TABLES
  0
TABLE
  2
VPORT
  5
8
100
AcDbSymbolTable
 70
2
  0
VPORT
  5
1F4
100
AcDbSymbolTableRecord
100
AcDbViewportTableRecord
  2
*ACTIVE
 70
0
 10
0.0
 20
0.0
 11
1.0
 21
1.0
 12
11.0
 22
8.5
 13
0.0
 23
0.0
 14
1.0
 24
1.0
 15
0.0
 25
0.0
 16
0.0
 26
0.0
 36
1.0
 17
0.0
 27
0.0
 37
0.0
 40
17.0
 41
1.2941176471
 42
50.0
 43
0.0
 44
0.0
 50
0.0
 51
0.0
 71
0
 72
100
 73
1
 74
1
 75
0
 76
0
 77
0
 78
0
  0
ENDTAB
  0
TABLE
  2
LTYPE
  5
5
100
AcDbSymbolTable
 70
6
  0
LTYPE
  5
14
100
AcDbSymbolTableRecord
100
AcDbLinetypeTableRecord
  2
BYBLOCK
 70
0
  3

 72
65
 73
0
 40
0.0
  0
LTYPE
  5
15
100
AcDbSymbolTableRecord
100
AcDbLinetypeTableRecord
  2
BYLAYER
 70
0
  3

 72
65
 73
0
 40
0.0
  0
LTYPE
  5
16
100
AcDbSymbolTableRecord
100
AcDbLinetypeTableRecord
  2
CONTINUOUS
 70
64
  3
Solid line
 72
65
 73
0
 40
0.0
  0
LTYPE
  5
1F5
100
AcDbSymbolTableRecord
100
AcDbLinetypeTableRecord
  2
CENTER
 70
64
  3
____ _ ____ _ ____ _ ____ _ ____ _ ____ _ ____
 72
65
 73
4
 40
0.6
 49
0.375
 74
0
 49
-0.075
 74
0
 49
0.075
 74
0
 49
-0.075
 74
0
  0
LTYPE
  5
1F6
100
AcDbSymbolTableRecord
100
AcDbLinetypeTableRecord
  2
HIDDEN
 70
64
  3
- - - - - - - - - - - - - - - - - - - -
 72
65
 73
2
 40
0.2
 49
0.1
 74
0
 49
-0.1
 74
0
  0
LTYPE
  5
1F7
100
AcDbSymbolTableRecord
100
AcDbLinetypeTableRecord
  2
PHANTOM
 70
64
  3
_____ _ _ _____ _ _ _____ _ _ _____
 72
65
 73
6
 40
0.8
 49
0.45
 74
0
 49
-0.05
 74
0
 49
0.1
 74
0
 49
-0.05
 74
0
 49
0.1
 74
0
 49
-0.05
 74
0
  0
LTYPE
  5
1F8
100
AcDbSymbolTableRecord
100
AcDbLinetypeTableRecord
  2
DOT
 70
64
  3
. . . . . . . . . . . . . . . . . . . .
 72
65
 73
2
 40
0.2
 49
0.1
 74
0
 49
-0.1
 74
0
  0
LTYPE
  5
1F9
100
AcDbSymbolTableRecord
100
AcDbLinetypeTableRecord
  2
DASHED
 70
64
  3
- - - - - - - - - - - - - - - - - - - -
 72
65
 73
2
 40
0.2
 49
0.1
 74
0
 49
-0.1
 74
0
  0
ENDTAB
  0
TABLE
  2
LAYER
  5
2
100
AcDbSymbolTable
 70
36
  0
LAYER
  5
10
100
AcDbSymbolTableRecord
100
AcDbLayerTableRecord
  2
0
 70
0
 62
7
  6
CONTINUOUS
370
-3
390
F
  0
LAYER
  5
1FA
100
AcDbSymbolTableRecord
100
AcDbLayerTableRecord
  2
DEFAULT_1
 70
0
 62
7
  6
CENTER
370
-3
390
F
  0
LAYER
  5
1FB
100
AcDbSymbolTableRecord
100
AcDbLayerTableRecord
  2
DEFAULT_2
 70
0
 62
8
  6
HIDDEN
370
-3
390
F
  0
LAYER
  5
1FC
100
AcDbSymbolTableRecord
100
AcDbLayerTableRecord
  2
DEFAULT_3
 70
0
 62
7
  6
PHANTOM
370
-3
390
F
  0
LAYER
  5
1FD
100
AcDbSymbolTableRecord
100
AcDbLayerTableRecord
  2
DATUM_PLANES
 70
0
 62
7
  6
CONTINUOUS
370
-3
390
F
  0
LAYER
  5
1FE
100
AcDbSymbolTableRecord
100
AcDbLayerTableRecord
  2
PORT_AREAS
 70
0
 62
7
  6
CONTINUOUS
370
-3
390
F
  0
LAYER
  5
1FF
100
AcDbSymbolTableRecord
100
AcDbLayerTableRecord
  2
SUNNBOMCOSMETIC
 70
0
 62
7
  6
CONTINUOUS
370
-3
390
F
  0
LAYER
  5
200
100
AcDbSymbolTableRecord
100
AcDbLayerTableRecord
  2
SUNNBOMSTAMPING
 70
0
 62
7
  6
CONTINUOUS
370
-3
390
F
  0
LAYER
  5
201
100
AcDbSymbolTableRecord
100
AcDbLayerTableRecord
  2
THREADS
 70
0
 62
7
  6
CONTINUOUS
370
-3
390
F
  0
ENDTAB
  0
TABLE
  2
STYLE
  5
3
100
AcDbSymbolTable
 70
1
  0
STYLE
  5
11
100
AcDbSymbolTableRecord
100
AcDbTextStyleTableRecord
  2
STANDARD
 70
0
 40
0.0
 41
0.8
 50
0.0
 71
0
 42
0.2
  3
txt
  4

  0
STYLE
  5
202
100
AcDbSymbolTableRecord
100
AcDbTextStyleTableRecord
  2
TEXTSTYLE_1
 70
0
 40
0.0
 41
0.8
 50
0.0
 71
0
 42
0.2
  3
gdt
  4

  0
ENDTAB
  0
TABLE
  2
VIEW
  5
6
100
AcDbSymbolTable
 70
0
  0
ENDTAB
  0
TABLE
  2
UCS
  5
7
100
AcDbSymbolTable
 70
0
  0
ENDTAB
  0
TABLE
  2
APPID
  5
9
100
AcDbSymbolTable
 70
1
  0
APPID
  5
203
100
AcDbSymbolTableRecord
100
AcDbRegAppTableRecord
  2
ACAD
 70
0
  0
ENDTAB
  0
TABLE
  2
BLOCK_RECORD
  5
1
100
AcDbSymbolTable
 70
0
  0
BLOCK_RECORD
  5
204
100
AcDbSymbolTableRecord
100
AcDbBlockTableRecord
  2
*Model_Space
  0
BLOCK_RECORD
  5
205
100
AcDbSymbolTableRecord
100
AcDbBlockTableRecord
  2
*Paper_Space
  0
BLOCK_RECORD
  5
206
100
AcDbSymbolTableRecord
100
AcDbBlockTableRecord
  2
SUN_FIRST_THIRD_ANGLE_BL0
  0
BLOCK_RECORD
  5
207
100
AcDbSymbolTableRecord
100
AcDbBlockTableRecord
  2
*T1
  0
BLOCK_RECORD
  5
208
100
AcDbSymbolTableRecord
100
AcDbBlockTableRecord
  2
*T2
  0
BLOCK_RECORD
  5
209
100
AcDbSymbolTableRecord
100
AcDbBlockTableRecord
  2
*T3
  0
ENDTAB
  0
TABLE
  2
DIMSTYLE
  5
A
100
AcDbSymbolTable
 70
1
100
AcDbDimStyleTable
 71
0
  0
DIMSTYLE
105
20A
100
AcDbSymbolTableRecord
100
AcDbDimStyleTableRecord
  2
STANDARD
 70
0
  3

  4

 40
1.0
 41
0.1875
 42
0.0625
 43
0.38
 44
0.125
 45
0.0
 46
0.0
 47
0.001
 48
0.001
140
0.1
141
0.09
142
0.0
143
25.4
144
1.0
145
0.0
146
1.0
147
0.09
 71
0.0
 72
0.0
 73
1
 74
1
 75
0
 76
0
 77
0
 78
4
170
0
171
2
172
0
173
0
174
0
175
0
176
0
177
0
178
0
270
2
271
3
272
3
273
2
274
2
275
0
280
0
281
0
282
0
283
1
284
4
285
0
286
0
287
3
288
0
340
11
278
46
  0
ENDTAB
  0
ENDSEC
  0
SECTION
  2
BLOCKS
  0
BLOCK
  5
20
100
AcDbEntity
  8
0
100
AcDbBlockBegin
  2
*Model_Space
 70
0
 10
0.0
 20
0.0
 30
0.0
  3
*Model_Space
  1

  0
ENDBLK
  5
21
100
AcDbEntity
  8
0
100
AcDbBlockEnd
  0
BLOCK
  5
1C
100
AcDbEntity
  8
0
100
AcDbBlockBegin
  2
*Paper_Space
 70
0
 10
0.0
 20
0.0
 30
0.0
  3
*Paper_Space
  1

  0
ENDBLK
  5
1D
100
AcDbEntity
  8
0
100
AcDbBlockEnd
  0
BLOCK
  5
20B
100
AcDbEntity
  8
0
100
AcDbBlockBegin
 62
2
  6
CONTINUOUS
  2
SUN_FIRST_THIRD_ANGLE_BL0
 70
64
 10
20.4816717061
 20
1.2289683772
  3
SUN_FIRST_THIRD_ANGLE_BL0
  1

  0
TEXT
  5
20C
100
AcDbEntity
  8
0
100
AcDbText
 62
2
  6
CONTINUOUS
 10
19.4750896608
 20
1.4136269581
  7
STANDARD
 40
0.08
  1
FIRST ANGLE
 41
0.8
 72
0
100
AcDbText
  0
TEXT
  5
20D
100
AcDbEntity
  8
0
100
AcDbText
 62
2
  6
CONTINUOUS
 10
20.7842537513
 20
1.4047600029
  7
STANDARD
 40
0.08
  1
THIRD ANGLE
 41
0.8
 72
0
100
AcDbText
  0
LINE
  5
20E
100
AcDbEntity
  8
0
100
AcDbLine
 62
7
  6
CONTINUOUS
 10
19.4767170086
 20
1.1727031207
 11
19.6334271527
 21
1.1717972817
  0
LINE
  5
20F
100
AcDbEntity
  8
0
100
AcDbLine
 62
7
  6
CONTINUOUS
 10
19.6596964832
 20
1.1717972817
 11
19.6950230232
 21
1.171593082
  0
LINE
  5
210
100
AcDbEntity
  8
0
100
AcDbLine
 62
7
  6
CONTINUOUS
 10
19.7194818561
 20
1.1708914427
 11
19.8852396156
 21
1.1699333054
  0
LINE
  5
211
100
AcDbEntity
  8
0
100
AcDbLine
 62
7
  6
CONTINUOUS
 10
19.4758111696
 20
1.2723454088
 11
19.88525039
 21
1.3511534004
  0
LINE
  5
212
100
AcDbEntity
  8
0
100
AcDbLine
 62
7
  6
CONTINUOUS
 10
19.88525039
 20
1.3511534004
 11
19.8831348489
 21
0.9851647912
  0
LINE
  5
213
100
AcDbEntity
  8
0
100
AcDbLine
 62
7
  6
CONTINUOUS
 10
19.8831348489
 20
0.9851647912
 11
19.4767170086
 21
1.0658141206
  0
LINE
  5
214
100
AcDbEntity
  8
0
100
AcDbLine
 62
7
  6
CONTINUOUS
 10
19.4767170086
 20
1.0658141206
 11
19.4779056764
 21
1.2714536432
  0
CIRCLE
  5
215
100
AcDbEntity
  8
0
100
AcDbCircle
 62
7
  6
CONTINUOUS
 10
20.2068232291
 20
1.1717972817
 40
0.175742101
  0
CIRCLE
  5
216
100
AcDbEntity
  8
0
100
AcDbCircle
 62
7
  6
CONTINUOUS
 10
20.2068232291
 20
1.1717972817
 40
0.1005522074
  0
LINE
  5
217
100
AcDbEntity
  8
0
100
AcDbLine
 62
7
  6
CONTINUOUS
 10
20.2077290681
 20
1.3756110529
 11
20.2071171714
 21
1.2379342989
  0
LINE
  5
218
100
AcDbEntity
  8
0
100
AcDbLine
 62
7
  6
CONTINUOUS
 10
20.2077290681
 20
1.2016899681
 11
20.2074674401
 21
1.1428236749
  0
LINE
  5
219
100
AcDbEntity
  8
0
100
AcDbLine
 62
7
  6
CONTINUOUS
 10
20.208634907
 20
1.101141841
 11
20.2080230104
 21
0.963465087
  0
LINE
  5
21A
100
AcDbEntity
  8
0
100
AcDbLine
 62
7
  6
CONTINUOUS
 10
20.0066328138
 20
1.1745147986
 11
20.1443095678
 21
1.1739029019
  0
LINE
  5
21B
100
AcDbEntity
  8
0
100
AcDbLine
 62
7
  6
CONTINUOUS
 10
20.1832714155
 20
1.1727031207
 11
20.238153505
 21
1.172335442
  0
LINE
  5
21C
100
AcDbEntity
  8
0
100
AcDbLine
 62
7
  6
CONTINUOUS
 10
20.2756669918
 20
1.1717972817
 11
20.407916871
 21
1.1712095044
  0
CIRCLE
  5
21D
100
AcDbEntity
  8
0
100
AcDbCircle
 62
7
  6
CONTINUOUS
 10
20.7509457401
 20
1.1693297793
 40
0.1722024983
  0
CIRCLE
  5
21E
100
AcDbEntity
  8
0
100
AcDbCircle
 62
7
  6
CONTINUOUS
 10
20.7509457401
 20
1.1693297793
 40
0.0985164967
  0
LINE
  5
21F
100
AcDbEntity
  8
0
100
AcDbLine
 62
7
  6
CONTINUOUS
 10
20.7169767782
 20
1.170462078
 11
20.7825395137
 21
1.1682766535
  0
LINE
  5
220
100
AcDbEntity
  8
0
100
AcDbLine
 62
7
  6
CONTINUOUS
 10
20.8177513651
 20
1.1693297793
 11
20.947965719
 21
1.1693297793
  0
LINE
  5
221
100
AcDbEntity
  8
0
100
AcDbLine
 62
7
  6
CONTINUOUS
 10
20.6875370113
 20
1.170462078
 11
20.5573226574
 21
1.170462078
  0
LINE
  5
222
100
AcDbEntity
  8
0
100
AcDbLine
 62
7
  6
CONTINUOUS
 10
20.7486811426
 20
1.1987695462
 11
20.7486811426
 21
1.1432869085
  0
LINE
  5
223
100
AcDbEntity
  8
0
100
AcDbLine
 62
7
  6
CONTINUOUS
 10
20.7498134414
 20
1.1059210505
 11
20.7498134414
 21
0.9757066966
  0
LINE
  5
224
100
AcDbEntity
  8
0
100
AcDbLine
 62
7
  6
CONTINUOUS
 10
20.7486811426
 20
1.2338708068
 11
20.7486811426
 21
1.3640851607
  0
LINE
  5
225
100
AcDbEntity
  8
0
100
AcDbLine
 62
7
  6
CONTINUOUS
 10
21.0702539817
 20
1.2701043662
 11
21.4790138229
 21
1.3448360823
  0
LINE
  5
226
100
AcDbEntity
  8
0
100
AcDbLine
 62
7
  6
CONTINUOUS
 10
21.4790138229
 20
1.3448360823
 11
21.4790138229
 21
0.9779712941
  0
LINE
  5
227
100
AcDbEntity
  8
0
100
AcDbLine
 62
7
  6
CONTINUOUS
 10
21.4790138229
 20
0.9779712941
 11
21.069121683
 21
1.0617614
  0
LINE
  5
228
100
AcDbEntity
  8
0
100
AcDbLine
 62
7
  6
CONTINUOUS
 10
21.0702539817
 20
1.2701043662
 11
21.069121683
 21
1.0617614
  0
LINE
  5
229
100
AcDbEntity
  8
0
100
AcDbLine
 62
7
  6
CONTINUOUS
 10
21.4790138229
 20
1.1693297793
 11
21.3159628059
 21
1.1693297793
  0
LINE
  5
22A
100
AcDbEntity
  8
0
100
AcDbLine
 62
7
  6
CONTINUOUS
 10
21.2876553377
 20
1.1693297793
 11
21.2502894796
 21
1.1693297793
  0
LINE
  5
22B
100
AcDbEntity
  8
0
100
AcDbLine
 62
7
  6
CONTINUOUS
 10
21.2208497126
 20
1.1659328831
 11
21.0713862804
 21
1.1659328831
  0
LINE
  5
22C
100
AcDbEntity
  8
0
100
AcDbLine
 62
7
  6
CONTINUOUS
 10
20.4796138713
 20
1.5284908897
 11
20.4766766948
 21
0.9294458646
  0
ENDBLK
  5
22D
100
AcDbEntity
  8
0
  6
BYBLOCK
 62
0
100
AcDbBlockEnd
  0
BLOCK
  5
22E
100
AcDbEntity
  8
0
100
AcDbBlockBegin
  2
*T1
 70
1
 10
0.0
 20
0.0
  3
*T1
  1

  0
LINE
  5
22F
100
AcDbEntity
  8
0
100
AcDbLine
 62
2
  6
CONTINUOUS
 10
9.275
 20
0.0
 11
-0.0
 21
0.0
  0
LINE
  5
230
100
AcDbEntity
  8
0
100
AcDbLine
 62
2
  6
CONTINUOUS
 10
9.275
 20
0.0
 11
9.275
 21
1.25
  0
LINE
  5
231
100
AcDbEntity
  8
0
100
AcDbLine
 62
2
  6
CONTINUOUS
 10
9.275
 20
0.625
 11
-0.0
 21
0.625
  0
LINE
  5
232
100
AcDbEntity
  8
0
100
AcDbLine
 62
2
  6
CONTINUOUS
 10
9.275
 20
1.25
 11
-0.0
 21
1.25
  0
LINE
  5
233
100
AcDbEntity
  8
0
100
AcDbLine
 62
2
  6
CONTINUOUS
 10
6.8
 20
0.0
 11
6.8
 21
1.25
  0
LINE
  5
234
100
AcDbEntity
  8
0
100
AcDbLine
 62
2
  6
CONTINUOUS
 10
6.4
 20
0.0
 11
6.4
 21
0.625
  0
LINE
  5
235
100
AcDbEntity
  8
0
100
AcDbLine
 62
2
  6
CONTINUOUS
 10
5.9
 20
0.0
 11
5.9
 21
0.625
  0
LINE
  5
236
100
AcDbEntity
  8
0
100
AcDbLine
 62
2
  6
CONTINUOUS
 10
5.2
 20
0.0
 11
5.2
 21
0.625
  0
LINE
  5
237
100
AcDbEntity
  8
0
100
AcDbLine
 62
2
  6
CONTINUOUS
 10
4.1
 20
0.0
 11
4.1
 21
1.25
  0
LINE
  5
238
100
AcDbEntity
  8
0
100
AcDbLine
 62
2
  6
CONTINUOUS
 10
-0.0
 20
0.0
 11
-0.0
 21
1.25
  0
MTEXT
  5
239
100
AcDbEntity
  8
0
100
AcDbMText
 62
2
  6
CONTINUOUS
  7
STANDARD
 71
2
 72
1
 10
6.6
 20
0.325
 30
0.0
 11
1.0
 21
0.0
 31
0.0
 44
0.9
  1
2
 40
0.125
 41
0.2
  0
MTEXT
  5
23A
100
AcDbEntity
  8
0
100
AcDbMText
 62
2
  6
CONTINUOUS
  7
STANDARD
 71
2
 72
1
 10
6.15
 20
0.325
 30
0.0
 11
1.0
 21
0.0
 31
0.0
 44
0.9
  1
C
 40
0.125
 41
0.2
  0
MTEXT
  5
23B
100
AcDbEntity
  8
0
100
AcDbMText
 62
2
  6
CONTINUOUS
  7
STANDARD
 71
2
 72
1
 10
5.55
 20
0.325
 30
0.0
 11
1.0
 21
0.0
 31
0.0
 44
0.9
  1
2.000
 40
0.125
 41
1.0
  0
MTEXT
  5
23C
100
AcDbEntity
  8
0
100
AcDbMText
 62
2
  6
CONTINUOUS
  7
STANDARD
 71
2
 72
1
 10
4.65
 20
0.325
 30
0.0
 11
1.0
 21
0.0
 31
0.0
 44
0.9
  1
Jul-19-19
 40
0.125
 41
1.8
  0
MTEXT
  5
23D
100
AcDbEntity
  8
0
100
AcDbMText
 62
2
  6
CONTINUOUS
  7
STANDARD
 71
2
 72
1
 10
2.05
 20
0.4625
 30
0.0
 11
1.0
 21
0.0
 31
0.0
 44
0.9
  1
T-10A Line mount\PNinety degree
 40
0.125
 41
3.2
  0
MTEXT
  5
23E
100
AcDbEntity
  8
0
100
AcDbMText
 62
2
  6
CONTINUOUS
  7
STANDARD
 71
1
 72
1
 10
6.45
 20
0.5625
 30
0.0
 11
1.0
 21
0.0
 31
0.0
 44
0.9
  1
SHEET
 40
0.06
 41
0.48
  0
MTEXT
  5
23F
100
AcDbEntity
  8
0
100
AcDbMText
 62
2
  6
CONTINUOUS
  7
STANDARD
 71
1
 72
1
 10
5.95
 20
0.5625
 30
0.0
 11
1.0
 21
0.0
 31
0.0
 44
0.9
  1
DWG SIZE
 40
0.06
 41
0.768
  0
MTEXT
  5
240
100
AcDbEntity
  8
0
100
AcDbMText
 62
2
  6
CONTINUOUS
  7
STANDARD
 71
1
 72
1
 10
5.25
 20
0.5625
 30
0.0
 11
1.0
 21
0.0
 31
0.0
 44
0.9
  1
SCALE
 40
0.06
 41
0.48
  0
MTEXT
  5
241
100
AcDbEntity
  8
0
100
AcDbMText
 62
2
  6
CONTINUOUS
  7
STANDARD
 71
1
 72
1
 10
4.15
 20
0.5625
 30
0.0
 11
1.0
 21
0.0
 31
0.0
 44
0.9
  1
DATE
 40
0.06
 41
0.384
  0
MTEXT
  5
242
100
AcDbEntity
  8
0
100
AcDbMText
 62
2
  6
CONTINUOUS
  7
STANDARD
 71
1
 72
1
 10
0.05
 20
0.5625
 30
0.0
 11
1.0
 21
0.0
 31
0.0
 44
0.9
  1
DESCRIPTION
 40
0.06
 41
1.056
  0
MTEXT
  5
243
100
AcDbEntity
  8
0
100
AcDbMText
 62
2
  6
CONTINUOUS
  7
STANDARD
 71
2
 72
1
 10
5.45
 20
1.0375
 30
0.0
 11
1.0
 21
0.0
 31
0.0
 44
0.9
  1
ALL DIMENSIONS IN INCH\PVIEWS ARE THIRD ANGLE
 40
0.12
 41
4.224
  0
MTEXT
  5
244
100
AcDbEntity
  8
0
100
AcDbMText
 62
2
  6
CONTINUOUS
  7
STANDARD
 71
2
 72
1
 10
2.05
 20
0.95
 30
0.0
 11
1.0
 21
0.0
 31
0.0
 44
0.9
  1
FAK
 40
0.125
 41
0.6
  0
MTEXT
  5
245
100
AcDbEntity
  8
0
100
AcDbMText
 62
2
  6
CONTINUOUS
  7
STANDARD
 71
1
 72
1
 10
0.05
 20
1.1875
 30
0.0
 11
1.0
 21
0.0
 31
0.0
 44
0.9
  1
MODEL
 40
0.06
 41
0.48
  0
ENDBLK
  5
246
100
AcDbEntity
  8
0
  6
BYBLOCK
 62
0
100
AcDbBlockEnd
  0
BLOCK
  5
247
100
AcDbEntity
  8
0
100
AcDbBlockBegin
  2
*T2
 70
1
 10
0.0
 20
0.0
  3
*T2
  1

  0
LINE
  5
248
100
AcDbEntity
  8
0
100
AcDbLine
 62
2
  6
CONTINUOUS
 10
0.0
 20
0.0
 11
9.055
 21
0.0
  0
LINE
  5
249
100
AcDbEntity
  8
0
100
AcDbLine
 62
2
  6
CONTINUOUS
 10
0.0
 20
0.0
 11
0.0
 21
-2.594
  0
LINE
  5
24A
100
AcDbEntity
  8
0
100
AcDbLine
 62
2
  6
CONTINUOUS
 10
0.0
 20
-0.344
 11
9.055
 21
-0.344
  0
LINE
  5
24B
100
AcDbEntity
  8
0
100
AcDbLine
 62
2
  6
CONTINUOUS
 10
0.0
 20
-0.594
 11
9.055
 21
-0.594
  0
LINE
  5
24C
100
AcDbEntity
  8
0
100
AcDbLine
 62
2
  6
CONTINUOUS
 10
0.0
 20
-0.844
 11
9.055
 21
-0.844
  0
LINE
  5
24D
100
AcDbEntity
  8
0
100
AcDbLine
 62
2
  6
CONTINUOUS
 10
0.0
 20
-1.094
 11
9.055
 21
-1.094
  0
LINE
  5
24E
100
AcDbEntity
  8
0
100
AcDbLine
 62
2
  6
CONTINUOUS
 10
0.0
 20
-1.344
 11
9.055
 21
-1.344
  0
LINE
  5
24F
100
AcDbEntity
  8
0
100
AcDbLine
 62
2
  6
CONTINUOUS
 10
0.0
 20
-1.594
 11
9.055
 21
-1.594
  0
LINE
  5
250
100
AcDbEntity
  8
0
100
AcDbLine
 62
2
  6
CONTINUOUS
 10
0.0
 20
-1.844
 11
9.055
 21
-1.844
  0
LINE
  5
251
100
AcDbEntity
  8
0
100
AcDbLine
 62
2
  6
CONTINUOUS
 10
0.0
 20
-2.094
 11
9.055
 21
-2.094
  0
LINE
  5
252
100
AcDbEntity
  8
0
100
AcDbLine
 62
2
  6
CONTINUOUS
 10
0.0
 20
-2.344
 11
9.055
 21
-2.344
  0
LINE
  5
253
100
AcDbEntity
  8
0
100
AcDbLine
 62
2
  6
CONTINUOUS
 10
0.0
 20
-2.594
 11
9.055
 21
-2.594
  0
LINE
  5
254
100
AcDbEntity
  8
0
100
AcDbLine
 62
2
  6
CONTINUOUS
 10
3.055
 20
0.0
 11
3.055
 21
-2.594
  0
LINE
  5
255
100
AcDbEntity
  8
0
100
AcDbLine
 62
2
  6
CONTINUOUS
 10
9.055
 20
0.0
 11
9.055
 21
-2.594
  0
MTEXT
  5
256
100
AcDbEntity
  8
0
100
AcDbMText
 62
2
  6
CONTINUOUS
  7
STANDARD
 71
2
 72
1
 10
1.5275
 20
-0.0995
 30
0.0
 11
1.0
 21
0.0
 31
0.0
 44
0.9
  1
Technical Data
 40
0.145
 41
3.248
  0
MTEXT
  5
257
100
AcDbEntity
  8
0
100
AcDbMText
 62
2
  6
CONTINUOUS
  7
STANDARD
 71
2
 72
1
 10
4.555
 20
-0.0995
 30
0.0
 11
1.0
 21
0.0
 31
0.0
 44
0.9
  1
U.S. Units
 40
0.145
 41
2.32
  0
MTEXT
  5
258
100
AcDbEntity
  8
0
100
AcDbMText
 62
2
  6
CONTINUOUS
  7
STANDARD
 71
2
 72
1
 10
7.555
 20
-0.0995
 30
0.0
 11
1.0
 21
0.0
 31
0.0
 44
0.9
  1
Metric Units
 40
0.145
 41
2.784
  0
MTEXT
  5
259
100
AcDbEntity
  8
0
100
AcDbMText
 62
2
  6
CONTINUOUS
  7
STANDARD
 71
2
 72
1
 10
1.5275
 20
-0.4065
 30
0.0
 11
1.0
 21
0.0
 31
0.0
 44
0.9
  1
Cavity
 40
0.125
 41
1.2
  0
MTEXT
  5
25A
100
AcDbEntity
  8
0
100
AcDbMText
 62
2
  6
CONTINUOUS
  7
STANDARD
 71
2
 72
1
 10
6.055
 20
-0.4065
 30
0.0
 11
1.0
 21
0.0
 31
0.0
 44
0.9
  1
T-10A
 40
0.125
 41
1.0
  0
MTEXT
  5
25B
100
AcDbEntity
  8
0
100
AcDbMText
 62
2
  6
CONTINUOUS
  7
STANDARD
 71
2
 72
1
 10
1.5275
 20
-0.6565
 30
0.0
 11
1.0
 21
0.0
 31
0.0
 44
0.9
  1
Body Features
 40
0.125
 41
2.6
  0
MTEXT
  5
25C
100
AcDbEntity
  8
0
100
AcDbMText
 62
2
  6
CONTINUOUS
  7
STANDARD
 71
2
 72
1
 10
6.055
 20
-0.6565
 30
0.0
 11
1.0
 21
0.0
 31
0.0
 44
0.9
  1
Ninety degree
 40
0.125
 41
2.6
  0
MTEXT
  5
25D
100
AcDbEntity
  8
0
100
AcDbMText
 62
2
  6
CONTINUOUS
  7
STANDARD
 71
2
 72
1
 10
1.5275
 20
-0.9065
 30
0.0
 11
1.0
 21
0.0
 31
0.0
 44
0.9
  1
Body Type
 40
0.125
 41
1.8
  0
MTEXT
  5
25E
100
AcDbEntity
  8
0
100
AcDbMText
 62
2
  6
CONTINUOUS
  7
STANDARD
 71
2
 72
1
 10
6.055
 20
-0.9065
 30
0.0
 11
1.0
 21
0.0
 31
0.0
 44
0.9
  1
Line mount
 40
0.125
 41
2.0
  0
MTEXT
  5
25F
100
AcDbEntity
  8
0
100
AcDbMText
 62
2
  6
CONTINUOUS
  7
STANDARD
 71
2
 72
1
 10
1.5275
 20
-1.1565
 30
0.0
 11
1.0
 21
0.0
 31
0.0
 44
0.9
  1
Interface
 40
0.125
 41
1.8
  0
MTEXT
  5
260
100
AcDbEntity
  8
0
100
AcDbMText
 62
2
  6
CONTINUOUS
  7
STANDARD
 71
2
 72
1
 10
6.055
 20
-1.1565
 30
0.0
 11
1.0
 21
0.0
 31
0.0
 44
0.9
  1
None
 40
0.125
 41
0.8
  0
MTEXT
  5
261
100
AcDbEntity
  8
0
100
AcDbMText
 62
2
  6
CONTINUOUS
  7
STANDARD
 71
2
 72
1
 10
1.5275
 20
-1.4065
 30
0.0
 11
1.0
 21
0.0
 31
0.0
 44
0.9
  1
Open Cavity Quantity
 40
0.125
 41
4.0
  0
MTEXT
  5
262
100
AcDbEntity
  8
0
100
AcDbMText
 62
2
  6
CONTINUOUS
  7
STANDARD
 71
2
 72
1
 10
6.055
 20
-1.4065
 30
0.0
 11
1.0
 21
0.0
 31
0.0
 44
0.9
  1
1
 40
0.125
 41
0.2
  0
MTEXT
  5
263
100
AcDbEntity
  8
0
100
AcDbMText
 62
2
  6
CONTINUOUS
  7
STANDARD
 71
2
 72
1
 10
1.5275
 20
-1.6565
 30
0.0
 11
1.0
 21
0.0
 31
0.0
 44
0.9
  1
Weight
 40
0.125
 41
1.2
  0
MTEXT
  5
264
100
AcDbEntity
  8
0
100
AcDbMText
 62
2
  6
CONTINUOUS
  7
STANDARD
 71
2
 72
1
 10
4.555
 20
-1.6565
 30
0.0
 11
1.0
 21
0.0
 31
0.0
 44
0.9
  1
0.790 lb.
 40
0.125
 41
1.8
  0
MTEXT
  5
265
100
AcDbEntity
  8
0
100
AcDbMText
 62
2
  6
CONTINUOUS
  7
STANDARD
 71
2
 72
1
 10
7.555
 20
-1.6565
 30
0.0
 11
1.0
 21
0.0
 31
0.0
 44
0.9
  1
0,359 kg.
 40
0.125
 41
1.8
  0
MTEXT
  5
266
100
AcDbEntity
  8
0
100
AcDbMText
 62
2
  6
CONTINUOUS
  7
STANDARD
 71
2
 72
1
 10
1.5275
 20
-1.9065
 30
0.0
 11
1.0
 21
0.0
 31
0.0
 44
0.9
  1
Mounting Hole Diameter
 40
0.125
 41
4.4
  0
MTEXT
  5
267
100
AcDbEntity
  8
0
100
AcDbMText
 62
2
  6
CONTINUOUS
  7
STANDARD
 71
2
 72
1
 10
4.555
 20
-1.9065
 30
0.0
 11
1.0
 21
0.0
 31
0.0
 44
0.9
  1
.34 in.
 40
0.125
 41
1.4
  0
MTEXT
  5
268
100
AcDbEntity
  8
0
100
AcDbMText
 62
2
  6
CONTINUOUS
  7
STANDARD
 71
2
 72
1
 10
7.555
 20
-1.9065
 30
0.0
 11
1.0
 21
0.0
 31
0.0
 44
0.9
  1
8.6 mm
 40
0.125
 41
1.2
  0
MTEXT
  5
269
100
AcDbEntity
  8
0
100
AcDbMText
 62
2
  6
CONTINUOUS
  7
STANDARD
 71
2
 72
1
 10
1.5275
 20
-2.1565
 30
0.0
 11
1.0
 21
0.0
 31
0.0
 44
0.9
  1
Mounting Hole Depth
 40
0.125
 41
3.8
  0
MTEXT
  5
26A
100
AcDbEntity
  8
0
100
AcDbMText
 62
2
  6
CONTINUOUS
  7
STANDARD
 71
2
 72
1
 10
6.055
 20
-2.1565
 30
0.0
 11
1.0
 21
0.0
 31
0.0
 44
0.9
  1
Through
 40
0.125
 41
1.4
  0
MTEXT
  5
26B
100
AcDbEntity
  8
0
100
AcDbMText
 62
2
  6
CONTINUOUS
  7
STANDARD
 71
2
 72
1
 10
1.5275
 20
-2.4065
 30
0.0
 11
1.0
 21
0.0
 31
0.0
 44
0.9
  1
Mounting Hole Quantity
 40
0.125
 41
4.4
  0
MTEXT
  5
26C
100
AcDbEntity
  8
0
100
AcDbMText
 62
2
  6
CONTINUOUS
  7
STANDARD
 71
2
 72
1
 10
6.055
 20
-2.4065
 30
0.0
 11
1.0
 21
0.0
 31
0.0
 44
0.9
  1
1
 40
0.125
 41
0.2
  0
ENDBLK
  5
26D
100
AcDbEntity
  8
0
  6
BYBLOCK
 62
0
100
AcDbBlockEnd
  0
BLOCK
  5
26E
100
AcDbEntity
  8
0
100
AcDbBlockBegin
  2
*T3
 70
1
 10
0.0
 20
0.0
  3
*T3
  1

  0
LINE
  5
26F
100
AcDbEntity
  8
0
100
AcDbLine
 62
2
  6
CONTINUOUS
 10
0.0
 20
0.0
 11
4.6
 21
0.0
  0
LINE
  5
270
100
AcDbEntity
  8
0
100
AcDbLine
 62
2
  6
CONTINUOUS
 10
0.0
 20
0.0
 11
0.0
 21
-0.93775
  0
LINE
  5
271
100
AcDbEntity
  8
0
100
AcDbLine
 62
2
  6
CONTINUOUS
 10
0.0
 20
-0.34375
 11
4.6
 21
-0.34375
  0
LINE
  5
272
100
AcDbEntity
  8
0
100
AcDbLine
 62
2
  6
CONTINUOUS
 10
0.0
 20
-0.68775
 11
4.6
 21
-0.68775
  0
LINE
  5
273
100
AcDbEntity
  8
0
100
AcDbLine
 62
2
  6
CONTINUOUS
 10
0.0
 20
-0.93775
 11
4.6
 21
-0.93775
  0
LINE
  5
274
100
AcDbEntity
  8
0
100
AcDbLine
 62
2
  6
CONTINUOUS
 10
1.3
 20
-0.34375
 11
1.3
 21
-0.93775
  0
LINE
  5
275
100
AcDbEntity
  8
0
100
AcDbLine
 62
2
  6
CONTINUOUS
 10
3.3
 20
-0.34375
 11
3.3
 21
-0.93775
  0
LINE
  5
276
100
AcDbEntity
  8
0
100
AcDbLine
 62
2
  6
CONTINUOUS
 10
4.6
 20
0.0
 11
4.6
 21
-0.93775
  0
MTEXT
  5
277
100
AcDbEntity
  8
0
100
AcDbMText
 62
2
  6
CONTINUOUS
  7
STANDARD
 71
2
 72
1
 10
2.3
 20
-0.099375
 30
0.0
 11
1.0
 21
0.0
 31
0.0
 44
0.9
  1
Port Headings
 40
0.145
 41
3.016
  0
MTEXT
  5
278
100
AcDbEntity
  8
0
100
AcDbMText
 62
2
  6
CONTINUOUS
  7
STANDARD
 71
2
 72
1
 10
0.65
 20
-0.44325
 30
0.0
 11
1.0
 21
0.0
 31
0.0
 44
0.9
  1
Product
 40
0.145
 41
1.624
  0
MTEXT
  5
279
100
AcDbEntity
  8
0
100
AcDbMText
 62
2
  6
CONTINUOUS
  7
STANDARD
 71
2
 72
1
 10
2.3
 20
-0.44325
 30
0.0
 11
1.0
 21
0.0
 31
0.0
 44
0.9
  1
Port
 40
0.145
 41
0.928
  0
MTEXT
  5
27A
100
AcDbEntity
  8
0
100
AcDbMText
 62
2
  6
CONTINUOUS
  7
STANDARD
 71
2
 72
1
 10
3.95
 20
-0.44325
 30
0.0
 11
1.0
 21
0.0
 31
0.0
 44
0.9
  1
Size
 40
0.145
 41
0.928
  0
MTEXT
  5
27B
100
AcDbEntity
  8
0
100
AcDbMText
 62
2
  6
CONTINUOUS
  7
STANDARD
 71
2
 72
1
 10
0.65
 20
-0.75025
 30
0.0
 11
1.0
 21
0.0
 31
0.0
 44
0.9
  1
FAK
 40
0.125
 41
0.6
  0
MTEXT
  5
27C
100
AcDbEntity
  8
0
100
AcDbMText
 62
2
  6
CONTINUOUS
  7
STANDARD
 71
2
 72
1
 10
2.3
 20
-0.75025
 30
0.0
 11
1.0
 21
0.0
 31
0.0
 44
0.9
  1
All Ports
 40
0.125
 41
1.8
  0
MTEXT
  5
27D
100
AcDbEntity
  8
0
100
AcDbMText
 62
2
  6
CONTINUOUS
  7
STANDARD
 71
2
 72
1
 10
3.95
 20
-0.75025
 30
0.0
 11
1.0
 21
0.0
 31
0.0
 44
0.9
  1
SAE 10
 40
0.125
 41
1.2
  0
ENDBLK
  5
27E
100
AcDbEntity
  8
0
  6
BYBLOCK
 62
0
100
AcDbBlockEnd
  0
ENDSEC
  0
SECTION
  2
ENTITIES
  0
IMAGE
  5
27F
100
AcDbEntity
  8
0
100
AcDbRasterImage
 62
7
  6
CONTINUOUS
 10
19.2297077316
 20
0.3094318264
 30
0.0
 11
0.0066666667
 21
0.0
 31
0.0
 12
0.0
 22
0.0066666667
 32
0.0
 13
369.0
 23
92.0
340
       32E
 70
9
280
0
281
50
282
50
283
0
360
       328
 71
1
 91
2
 14
-0.5
 24
-0.5
 14
368.5
 24
91.5
  0
INSERT
  5
280
100
AcDbEntity
  8
0
100
AcDbBlockReference
 62
2
  6
CONTINUOUS
  2
SUN_FIRST_THIRD_ANGLE_BL0
 10
20.4816717061
 20
1.2289683772
  0
ACAD_TABLE
  5
281
100
AcDbEntity
  8
0
 62
2
  6
CONTINUOUS
100
AcDbBlockReference
  2
*T1
 10
12.42375
 20
0.30125
 30
0.0
100
AcDbTable
342
       330
343
207
 11
1.0
 21
0.0
 31
0.0
 90
6
 91
4
 92
6
 93
20
 94
0
 95
0
 96
0
 70
1
 41
0.0
141
0.525
141
0.1
141
0.525
141
0.1
142
4.1
142
1.1
142
0.7
142
0.5
142
0.4
142
2.475
171
1
172
0
173
0
174
0
175
1
176
1
 91
33
178
0
145
0.0
301
CELL_VALUE
 90
4
  1
T-10A Line mount\PNinety degree
304
ACVALUE_END
170
2
140
0.125
171
1
172
0
173
0
174
0
175
1
176
1
 91
33
178
0
145
0.0
301
CELL_VALUE
 90
4
  1
Jul-19-19
304
ACVALUE_END
170
5
140
0.125
171
1
172
0
173
0
174
0
175
1
176
1
 91
33
178
0
145
0.0
301
CELL_VALUE
 90
4
  1
2.000
304
ACVALUE_END
170
5
140
0.125
171
1
172
0
173
0
174
0
175
1
176
1
 91
33
178
0
145
0.0
301
CELL_VALUE
 90
4
  1
C
304
ACVALUE_END
170
5
140
0.125
171
1
172
0
173
0
174
0
175
1
176
1
 91
33
178
0
145
0.0
301
CELL_VALUE
 90
4
  1
2
304
ACVALUE_END
170
5
140
0.125
171
1
172
0
173
0
174
0
175
1
176
1
 91
33
178
0
145
0.0
301
CELL_VALUE
 90
4
  1
 
304
ACVALUE_END
170
1
140
0.125
171
1
172
0
173
0
174
0
175
1
176
1
 91
33
178
0
145
0.0
301
CELL_VALUE
 90
4
  1
DESCRIPTION
304
ACVALUE_END
170
1
140
0.06
171
1
172
0
173
0
174
0
175
1
176
1
 91
33
178
0
145
0.0
301
CELL_VALUE
 90
4
  1
DATE
304
ACVALUE_END
170
1
140
0.06
171
1
172
0
173
0
174
0
175
1
176
1
 91
33
178
0
145
0.0
301
CELL_VALUE
 90
4
  1
SCALE
304
ACVALUE_END
170
1
140
0.06
171
1
172
0
173
0
174
0
175
1
176
1
 91
33
178
0
145
0.0
301
CELL_VALUE
 90
4
  1
DWG SIZE
304
ACVALUE_END
170
1
140
0.06
171
1
172
0
173
0
174
0
175
1
176
1
 91
33
178
0
145
0.0
301
CELL_VALUE
 90
4
  1
SHEET
304
ACVALUE_END
170
1
140
0.06
171
1
172
0
173
0
174
0
175
1
176
1
 91
33
178
0
145
0.0
301
CELL_VALUE
 90
4
  1
 
304
ACVALUE_END
170
1
140
0.125
171
1
172
0
173
0
174
0
175
1
176
1
 91
33
178
0
145
0.0
301
CELL_VALUE
 90
4
  1
FAK
304
ACVALUE_END
170
5
140
0.125
171
1
172
0
173
0
174
0
175
4
176
1
 91
33
178
0
145
0.0
301
CELL_VALUE
 90
4
  1
ALL DIMENSIONS IN INCH\PVIEWS ARE THIRD ANGLE
304
ACVALUE_END
170
5
140
0.12
171
1
172
0
173
1
174
0
175
1
176
1
 91
1
178
0
145
0.0
170
1
171
1
172
0
173
1
174
0
175
1
176
1
 91
1
178
0
145
0.0
170
1
171
1
172
0
173
1
174
0
175
1
176
1
 91
1
178
0
145
0.0
170
5
171
1
172
0
173
0
174
0
175
1
176
1
 91
33
178
0
145
0.0
301
CELL_VALUE
 90
4
  1
 
304
ACVALUE_END
170
1
140
0.125
171
1
172
0
173
0
174
0
175
1
176
1
 91
33
178
0
145
0.0
301
CELL_VALUE
 90
4
  1
MODEL
304
ACVALUE_END
170
1
140
0.06
171
1
172
0
173
0
174
0
175
1
176
1
 91
33
178
0
145
0.0
301
CELL_VALUE
 90
4
  1
 
304
ACVALUE_END
170
1
140
0.125
171
1
172
0
173
0
174
0
175
1
176
1
 91
33
178
0
145
0.0
301
CELL_VALUE
 90
4
  1
 
304
ACVALUE_END
170
1
140
0.125
171
1
172
0
173
0
174
0
175
1
176
1
 91
33
178
0
145
0.0
301
CELL_VALUE
 90
4
  1
 
304
ACVALUE_END
170
1
140
0.125
171
1
172
0
173
0
174
0
175
1
176
1
 91
33
178
0
145
0.0
301
CELL_VALUE
 90
4
  1
 
304
ACVALUE_END
170
1
140
0.125
171
1
172
0
173
0
174
0
175
1
176
1
 91
33
178
0
145
0.0
301
CELL_VALUE
 90
4
  1
 
304
ACVALUE_END
170
1
140
0.125
  0
ACAD_TABLE
  5
282
100
AcDbEntity
  8
0
 62
2
  6
CONTINUOUS
100
AcDbBlockReference
  2
*T2
 10
12.4237499994
 20
16.47875
 30
0.0
100
AcDbTable
342
       32F
343
208
 11
1.0
 21
0.0
 31
0.0
 90
22
 91
10
 92
3
 93
16
 94
0
 95
0
 96
0
 41
0.028
141
0.344
141
0.25
141
0.25
141
0.25
141
0.25
141
0.25
141
0.25
141
0.25
141
0.25
141
0.25
142
3.055
142
3.0
142
3.0
171
1
172
0
173
0
174
0
175
1
176
1
 91
33
178
0
145
0.0
301
CELL_VALUE
 90
4
  1
Technical Data
304
ACVALUE_END
170
5
140
0.145
171
1
172
0
173
0
174
0
175
1
176
1
 91
33
178
0
145
0.0
301
CELL_VALUE
 90
4
  1
U.S. Units
304
ACVALUE_END
170
5
140
0.145
171
1
172
0
173
0
174
0
175
1
176
1
 91
33
178
0
145
0.0
301
CELL_VALUE
 90
4
  1
Metric Units
304
ACVALUE_END
170
5
140
0.145
171
1
172
0
173
0
174
0
175
1
176
1
 91
33
178
0
145
0.0
301
CELL_VALUE
 90
4
  1
Cavity
304
ACVALUE_END
170
5
140
0.125
171
1
172
0
173
0
174
0
175
2
176
1
 91
33
178
0
145
0.0
301
CELL_VALUE
 90
4
  1
T-10A
304
ACVALUE_END
170
5
140
0.125
171
1
172
0
173
1
174
0
175
1
176
1
 91
1
178
0
145
0.0
170
1
171
1
172
0
173
0
174
0
175
1
176
1
 91
33
178
0
145
0.0
301
CELL_VALUE
 90
4
  1
Body Features
304
ACVALUE_END
170
5
140
0.125
171
1
172
0
173
0
174
0
175
2
176
1
 91
33
178
0
145
0.0
301
CELL_VALUE
 90
4
  1
Ninety degree
304
ACVALUE_END
170
5
140
0.125
171
1
172
0
173
1
174
0
175
1
176
1
 91
1
178
0
145
0.0
170
1
171
1
172
0
173
0
174
0
175
1
176
1
 91
33
178
0
145
0.0
301
CELL_VALUE
 90
4
  1
Body Type
304
ACVALUE_END
170
5
140
0.125
171
1
172
0
173
0
174
0
175
2
176
1
 91
33
178
0
145
0.0
301
CELL_VALUE
 90
4
  1
Line mount
304
ACVALUE_END
170
5
140
0.125
171
1
172
0
173
1
174
0
175
1
176
1
 91
1
178
0
145
0.0
170
1
171
1
172
0
173
0
174
0
175
1
176
1
 91
33
178
0
145
0.0
301
CELL_VALUE
 90
4
  1
Interface
304
ACVALUE_END
170
5
140
0.125
171
1
172
0
173
0
174
0
175
2
176
1
 91
33
178
0
145
0.0
301
CELL_VALUE
 90
4
  1
None
304
ACVALUE_END
170
5
140
0.125
171
1
172
0
173
1
174
0
175
1
176
1
 91
1
178
0
145
0.0
170
1
171
1
172
0
173
0
174
0
175
1
176
1
 91
33
178
0
145
0.0
301
CELL_VALUE
 90
4
  1
Open Cavity Quantity
304
ACVALUE_END
170
5
140
0.125
171
1
172
0
173
0
174
0
175
2
176
1
 91
33
178
0
145
0.0
301
CELL_VALUE
 90
4
  1
1
304
ACVALUE_END
170
5
140
0.125
171
1
172
0
173
1
174
0
175
1
176
1
 91
1
178
0
145
0.0
170
1
171
1
172
0
173
0
174
0
175
1
176
1
 91
33
178
0
145
0.0
301
CELL_VALUE
 90
4
  1
Weight
304
ACVALUE_END
170
5
140
0.125
171
1
172
0
173
0
174
0
175
1
176
1
 91
33
178
0
145
0.0
301
CELL_VALUE
 90
4
  1
0.790 lb.
304
ACVALUE_END
170
5
140
0.125
171
1
172
0
173
0
174
0
175
1
176
1
 91
33
178
0
145
0.0
301
CELL_VALUE
 90
4
  1
0,359 kg.
304
ACVALUE_END
170
5
140
0.125
171
1
172
0
173
0
174
0
175
1
176
1
 91
33
178
0
145
0.0
301
CELL_VALUE
 90
4
  1
Mounting Hole Diameter
304
ACVALUE_END
170
5
140
0.125
171
1
172
0
173
0
174
0
175
1
176
1
 91
33
178
0
145
0.0
301
CELL_VALUE
 90
4
  1
.34 in.
304
ACVALUE_END
170
5
140
0.125
171
1
172
0
173
0
174
0
175
1
176
1
 91
33
178
0
145
0.0
301
CELL_VALUE
 90
4
  1
8.6 mm
304
ACVALUE_END
170
5
140
0.125
171
1
172
0
173
0
174
0
175
1
176
1
 91
33
178
0
145
0.0
301
CELL_VALUE
 90
4
  1
Mounting Hole Depth
304
ACVALUE_END
170
5
140
0.125
171
1
172
0
173
0
174
0
175
2
176
1
 91
33
178
0
145
0.0
301
CELL_VALUE
 90
4
  1
Through
304
ACVALUE_END
170
5
140
0.125
171
1
172
0
173
1
174
0
175
1
176
1
 91
1
178
0
145
0.0
170
1
171
1
172
0
173
0
174
0
175
1
176
1
 91
33
178
0
145
0.0
301
CELL_VALUE
 90
4
  1
Mounting Hole Quantity
304
ACVALUE_END
170
5
140
0.125
171
1
172
0
173
0
174
0
175
2
176
1
 91
33
178
0
145
0.0
301
CELL_VALUE
 90
4
  1
1
304
ACVALUE_END
170
5
140
0.125
171
1
172
0
173
1
174
0
175
1
176
1
 91
1
178
0
145
0.0
170
1
  0
ACAD_TABLE
  5
283
100
AcDbEntity
  8
0
 62
2
  6
CONTINUOUS
100
AcDbBlockReference
  2
*T3
 10
0.52125
 20
1.459
 30
0.0
100
AcDbTable
342
       32F
343
209
 11
1.0
 21
0.0
 31
0.0
 90
22
 91
3
 92
3
 93
16
 94
0
 95
0
 96
0
 41
0.05
141
0.34375
141
0.344
141
0.25
142
1.3
142
2.0
142
1.3
171
1
172
0
173
0
174
0
175
3
176
1
 91
33
178
0
145
0.0
301
CELL_VALUE
 90
4
  1
Port Headings
304
ACVALUE_END
170
5
140
0.145
171
1
172
0
173
1
174
0
175
1
176
1
 91
1
178
0
145
0.0
170
1
171
1
172
0
173
1
174
0
175
1
176
1
 91
1
178
0
145
0.0
170
1
171
1
172
0
173
0
174
0
175
1
176
1
 91
33
178
0
145
0.0
301
CELL_VALUE
 90
4
  1
Product
304
ACVALUE_END
170
5
140
0.145
171
1
172
0
173
0
174
0
175
1
176
1
 91
33
178
0
145
0.0
301
CELL_VALUE
 90
4
  1
Port
304
ACVALUE_END
170
5
140
0.145
171
1
172
0
173
0
174
0
175
1
176
1
 91
33
178
0
145
0.0
301
CELL_VALUE
 90
4
  1
Size
304
ACVALUE_END
170
5
140
0.145
171
1
172
0
173
0
174
0
175
1
176
1
 91
33
178
0
145
0.0
301
CELL_VALUE
 90
4
  1
FAK
304
ACVALUE_END
170
5
140
0.125
171
1
172
0
173
0
174
0
175
1
176
1
 91
33
178
0
145
0.0
301
CELL_VALUE
 90
4
  1
All Ports
304
ACVALUE_END
170
5
140
0.125
171
1
172
0
173
0
174
0
175
1
176
1
 91
33
178
0
145
0.0
301
CELL_VALUE
 90
4
  1
SAE 10
304
ACVALUE_END
170
5
140
0.125
  0
MTEXT
  5
284
100
AcDbEntity
  8
0
100
AcDbMText
 62
2
  6
CONTINUOUS
  7
STANDARD
 71
1
 72
1
 10
0.52125
 20
5.75995
 30
0.0
 11
1.0
 21
0.0
 31
0.0
 44
0.6
  3
Notes\P \P1. Important: Carefully consider\P   the maximum system pressure. The\P   pressure rating of the manifold is\P   dependent on the manifold material,\P   with the port type/size a secondary\P   consideration. Manifolds\P   constructed of alu
  1
minum are not\P   rated for pressures higher than\P   3000 psi (210 bar), regardless of\P   the port type/size specified.
 40
0.1
 41
3.04
  0
LINE
  5
285
100
AcDbEntity
  8
0
100
AcDbLine
 62
7
  6
CONTINUOUS
 10
0.30125
 20
0.30125
 11
0.30125
 21
16.69875
  0
LINE
  5
286
100
AcDbEntity
  8
0
100
AcDbLine
 62
7
  6
CONTINUOUS
 10
0.30125
 20
0.30125
 11
21.69875
 21
0.30125
  0
LINE
  5
287
100
AcDbEntity
  8
0
100
AcDbLine
 62
7
  6
CONTINUOUS
 10
0.30125
 20
16.69875
 11
21.69875
 21
16.69875
  0
LINE
  5
288
100
AcDbEntity
  8
0
100
AcDbLine
 62
7
  6
CONTINUOUS
 10
21.69875
 20
0.30125
 11
21.69875
 21
16.69875
  0
LINE
  5
289
100
AcDbEntity
  8
0
100
AcDbLine
 62
7
  6
CONTINUOUS
 10
7.7139941022
 20
10.4992950878
 11
8.4904505967
 21
11.2492945133
  0
LINE
  5
28A
100
AcDbEntity
  8
0
100
AcDbLine
 62
7
  6
CONTINUOUS
 10
7.7139941022
 20
6.152628612
 11
7.7139941022
 21
10.4992950878
  0
LINE
  5
28B
100
AcDbEntity
  8
0
100
AcDbLine
 62
7
  6
CONTINUOUS
 10
13.5095494033
 20
5.7507054867
 11
7.7139941022
 21
6.152628612
  0
LINE
  5
28C
100
AcDbEntity
  8
0
100
AcDbLine
 62
4
  6
CONTINUOUS
 10
9.3309541101
 20
6.3302698311
 11
9.3116355837
 21
6.3460984634
  0
LINE
  5
28D
100
AcDbEntity
  8
0
100
AcDbLine
 62
4
  6
CONTINUOUS
 10
9.427546694
 20
6.3670377765
 11
9.4661837262
 21
6.3353805133
  0
LINE
  5
28E
100
AcDbEntity
  8
0
100
AcDbLine
 62
4
  6
CONTINUOUS
 10
9.3695911354
 20
6.4435014477
 11
9.3889096618
 21
6.4276728155
  0
LINE
  5
28F
100
AcDbEntity
  8
0
100
AcDbLine
 62
4
  6
CONTINUOUS
 10
9.3116355837
 20
6.3460984634
 11
9.292317071
 21
6.3764159827
  0
LINE
  5
290
100
AcDbEntity
  8
0
100
AcDbLine
 62
4
  6
CONTINUOUS
 10
9.4661837262
 20
6.3353805133
 11
9.5241392779
 21
6.3168723942
  0
LINE
  5
291
100
AcDbEntity
  8
0
100
AcDbLine
 62
4
  6
CONTINUOUS
 10
9.3889096618
 20
6.4276728155
 11
9.427546694
 21
6.3670377765
  0
LINE
  5
292
100
AcDbEntity
  8
0
100
AcDbLine
 62
4
  6
CONTINUOUS
 10
9.3309541101
 20
6.4461809345
 11
9.3695911354
 21
6.4435014477
  0
LINE
  5
293
100
AcDbEntity
  8
0
100
AcDbLine
 62
4
  6
CONTINUOUS
 10
9.292317071
 20
6.3764159827
 11
9.292317071
 21
6.4053937585
  0
LINE
  5
294
100
AcDbEntity
  8
0
100
AcDbLine
 62
4
  6
CONTINUOUS
 10
9.5241392779
 20
6.3168723942
 11
9.5241392779
 21
6.4327834977
  0
LINE
  5
295
100
AcDbEntity
  8
0
100
AcDbLine
 62
4
  6
CONTINUOUS
 10
10.5620955616
 20
7.0438486124
 11
10.5289781055
 21
7.0461453158
  0
LINE
  5
296
100
AcDbEntity
  8
0
100
AcDbLine
 62
4
  6
CONTINUOUS
 10
11.6781539043
 20
7.4963290414
 11
11.9099761112
 21
7.5464870567
  0
LINE
  5
297
100
AcDbEntity
  8
0
100
AcDbLine
 62
4
  6
CONTINUOUS
 10
10.6945653966
 20
7.1505729016
 11
10.661447937
 21
7.1528696052
  0
LINE
  5
298
100
AcDbEntity
  8
0
100
AcDbLine
 62
4
  6
CONTINUOUS
 10
10.4958606493
 20
7.2305880349
 11
10.6945653966
 21
7.2168078139
  0
LINE
  5
299
100
AcDbEntity
  8
0
100
AcDbLine
 62
4
  6
CONTINUOUS
 10
11.9099761112
 20
7.2042733155
 11
11.6781539043
 21
7.2203502402
  0
LINE
  5
29A
100
AcDbEntity
  8
0
100
AcDbLine
 62
4
  6
CONTINUOUS
 10
10.6945653966
 20
7.3327189173
 11
10.4958606493
 21
7.3464991383
  0
LINE
  5
29B
100
AcDbEntity
  8
0
100
AcDbLine
 62
4
  6
CONTINUOUS
 10
10.7276828562
 20
7.396657126
 11
10.4958606493
 21
7.4127340506
  0
LINE
  5
29C
100
AcDbEntity
  8
0
100
AcDbLine
 62
4
  6
CONTINUOUS
 10
11.7112713605
 20
7.3339646264
 11
11.8768586516
 21
7.3224811088
  0
LINE
  5
29D
100
AcDbEntity
  8
0
100
AcDbLine
 62
4
  6
CONTINUOUS
 10
10.5289781055
 20
7.0461453158
 11
10.4958606493
 21
7.0815594788
  0
LINE
  5
29E
100
AcDbEntity
  8
0
100
AcDbLine
 62
4
  6
CONTINUOUS
 10
10.7276828562
 20
7.1151587418
 11
10.6945653966
 21
7.1505729016
  0
LINE
  5
29F
100
AcDbEntity
  8
0
100
AcDbLine
 62
4
  6
CONTINUOUS
 10
10.7276828562
 20
7.5125682294
 11
10.4958606493
 21
7.5286451541
  0
LINE
  5
2A0
100
AcDbEntity
  8
0
100
AcDbLine
 62
4
  6
CONTINUOUS
 10
10.7276828562
 20
7.2973047714
 11
10.6945653966
 21
7.3327189173
  0
LINE
  5
2A1
100
AcDbEntity
  8
0
100
AcDbLine
 62
4
  6
CONTINUOUS
 10
10.661447937
 20
9.2061519141
 11
10.6504087849
 21
9.190358816
  0
LINE
  5
2A2
100
AcDbEntity
  8
0
100
AcDbLine
 62
4
  6
CONTINUOUS
 10
10.6393696329
 20
9.1248894991
 11
10.6283304808
 21
9.109096401
  0
LINE
  5
2A3
100
AcDbEntity
  8
0
100
AcDbLine
 62
4
  6
CONTINUOUS
 10
10.5620955616
 20
9.1964833588
 11
10.5786542966
 21
9.2118936726
  0
LINE
  5
2A4
100
AcDbEntity
  8
0
100
AcDbLine
 62
4
  6
CONTINUOUS
 10
10.7111241264
 20
9.1033546422
 11
10.7276828562
 21
9.1187649563
  0
LINE
  5
2A5
100
AcDbEntity
  8
0
100
AcDbLine
 62
4
  6
CONTINUOUS
 10
11.9099761112
 20
7.6789568813
 11
11.6781539043
 21
7.6950338059
  0
LINE
  5
2A6
100
AcDbEntity
  8
0
100
AcDbLine
 62
4
  6
CONTINUOUS
 10
10.7276828562
 20
7.7609491574
 11
10.4958606493
 21
7.7770260821
  0
LINE
  5
2A7
100
AcDbEntity
  8
0
100
AcDbLine
 62
4
  6
CONTINUOUS
 10
10.5786542966
 20
7.8706367054
 11
10.7276828562
 21
7.8603015397
  0
LINE
  5
2A8
100
AcDbEntity
  8
0
100
AcDbLine
 62
4
  6
CONTINUOUS
 10
11.3999672561
 20
7.8302371983
 11
11.1681450492
 21
7.8463141229
  0
LINE
  5
2A9
100
AcDbEntity
  8
0
100
AcDbLine
 62
4
  6
CONTINUOUS
 10
11.9099761112
 20
7.8114267059
 11
11.6781539043
 21
7.8275036305
  0
LINE
  5
2AA
100
AcDbEntity
  8
0
100
AcDbLine
 62
4
  6
CONTINUOUS
 10
11.9099761112
 20
7.4140172045
 11
11.6781539043
 21
7.4963290414
  0
LINE
  5
2AB
100
AcDbEntity
  8
0
100
AcDbLine
 62
4
  6
CONTINUOUS
 10
10.7828786199
 20
7.9558260828
 11
10.5620955616
 21
8.0373723245
  0
LINE
  5
2AC
100
AcDbEntity
  8
0
100
AcDbLine
 62
4
  6
CONTINUOUS
 10
10.5786542966
 20
8.0803806358
 11
10.5620955616
 21
8.1146464303
  0
LINE
  5
2AD
100
AcDbEntity
  8
0
100
AcDbLine
 62
4
  6
CONTINUOUS
 10
10.4958606493
 20
7.0815594788
 11
10.4958606493
 21
7.1477943945
  0
LINE
  5
2AE
100
AcDbEntity
  8
0
100
AcDbLine
 62
4
  6
CONTINUOUS
 10
10.4958606493
 20
8.8809413424
 11
10.4958606493
 21
8.8864608976
  0
LINE
  5
2AF
100
AcDbEntity
  8
0
100
AcDbLine
 62
4
  6
CONTINUOUS
 10
10.5620955616
 20
8.4789385171
 11
10.5620955616
 21
8.396144856
  0
LINE
  5
2B0
100
AcDbEntity
  8
0
100
AcDbLine
 62
4
  6
CONTINUOUS
 10
10.5620955616
 20
7.7724326753
 11
10.5620955616
 21
7.8552263364
  0
LINE
  5
2B1
100
AcDbEntity
  8
0
100
AcDbLine
 62
4
  6
CONTINUOUS
 10
10.5620955616
 20
8.1146464303
 11
10.5620955616
 21
8.180881315
  0
LINE
  5
2B2
100
AcDbEntity
  8
0
100
AcDbLine
 62
4
  6
CONTINUOUS
 10
10.5620955616
 20
8.2471163102
 11
10.5620955616
 21
8.3133511949
  0
LINE
  5
2B3
100
AcDbEntity
  8
0
100
AcDbLine
 62
4
  6
CONTINUOUS
 10
10.5620955616
 20
8.9812198179
 11
10.5620955616
 21
9.0474549236
  0
LINE
  5
2B4
100
AcDbEntity
  8
0
100
AcDbLine
 62
4
  6
CONTINUOUS
 10
10.5620955616
 20
9.1302484742
 11
10.5620955616
 21
9.1964833588
  0
LINE
  5
2B5
100
AcDbEntity
  8
0
100
AcDbLine
 62
4
  6
CONTINUOUS
 10
10.6448892089
 20
8.4235205394
 11
10.6448892089
 21
8.489755424
  0
LINE
  5
2B6
100
AcDbEntity
  8
0
100
AcDbLine
 62
4
  6
CONTINUOUS
 10
10.7276828562
 20
9.0359714057
 11
10.7276828562
 21
8.9697363
  0
LINE
  5
2B7
100
AcDbEntity
  8
0
100
AcDbLine
 62
4
  6
CONTINUOUS
 10
10.7276828562
 20
8.7655120907
 11
10.7276828562
 21
8.7323946484
  0
LINE
  5
2B8
100
AcDbEntity
  8
0
100
AcDbLine
 62
4
  6
CONTINUOUS
 10
10.7276828562
 20
8.4840136651
 11
10.7276828562
 21
8.4177787804
  0
LINE
  5
2B9
100
AcDbEntity
  8
0
100
AcDbLine
 62
4
  6
CONTINUOUS
 10
10.7276828562
 20
8.1693977971
 11
10.7276828562
 21
8.1031629124
  0
LINE
  5
2BA
100
AcDbEntity
  8
0
100
AcDbLine
 62
4
  6
CONTINUOUS
 10
10.7276828562
 20
7.0489238243
 11
10.7276828562
 21
7.1151587418
  0
LINE
  5
2BB
100
AcDbEntity
  8
0
100
AcDbLine
 62
4
  6
CONTINUOUS
 10
10.7276828562
 20
7.2476285664
 11
10.7276828562
 21
7.2973047714
  0
LINE
  5
2BC
100
AcDbEntity
  8
0
100
AcDbLine
 62
4
  6
CONTINUOUS
 10
10.7276828562
 20
8.5668073262
 11
10.7276828562
 21
8.6496009873
  0
LINE
  5
2BD
100
AcDbEntity
  8
0
100
AcDbLine
 62
4
  6
CONTINUOUS
 10
10.7276828562
 20
9.1187649563
 11
10.7276828562
 21
9.184999841
  0
LINE
  5
2BE
100
AcDbEntity
  8
0
100
AcDbLine
 62
4
  6
CONTINUOUS
 10
10.6504087849
 20
9.190358816
 11
10.6393696329
 21
9.1248894991
  0
LINE
  5
2BF
100
AcDbEntity
  8
0
100
AcDbLine
 62
4
  6
CONTINUOUS
 10
10.7276828562
 20
8.9697363
 11
10.7111241264
 21
8.9543259859
  0
LINE
  5
2C0
100
AcDbEntity
  8
0
100
AcDbLine
 62
4
  6
CONTINUOUS
 10
10.7276828562
 20
8.7323946484
 11
10.7111241264
 21
8.7169842237
  0
LINE
  5
2C1
100
AcDbEntity
  8
0
100
AcDbLine
 62
4
  6
CONTINUOUS
 10
10.5620955616
 20
7.9380199975
 11
10.7276828562
 21
7.9762126984
  0
LINE
  5
2C2
100
AcDbEntity
  8
0
100
AcDbLine
 62
4
  6
CONTINUOUS
 10
11.1681450492
 20
8.0781363298
 11
11.3999672561
 21
8.1282943174
  0
LINE
  5
2C3
100
AcDbEntity
  8
0
100
AcDbLine
 62
4
  6
CONTINUOUS
 10
10.7111241264
 20
8.0711938219
 11
10.5786542966
 21
8.0803806358
  0
LINE
  5
2C4
100
AcDbEntity
  8
0
100
AcDbLine
 62
4
  6
CONTINUOUS
 10
10.4958606493
 20
8.1854747218
 11
10.7276828562
 21
8.1693977971
  0
LINE
  5
2C5
100
AcDbEntity
  8
0
100
AcDbLine
 62
4
  6
CONTINUOUS
 10
10.7276828562
 20
8.2356327923
 11
10.5620955616
 21
8.2471163102
  0
LINE
  5
2C6
100
AcDbEntity
  8
0
100
AcDbLine
 62
4
  6
CONTINUOUS
 10
11.3999672561
 20
8.1945292297
 11
11.1681450492
 21
8.2106061544
  0
LINE
  5
2C7
100
AcDbEntity
  8
0
100
AcDbLine
 62
4
  6
CONTINUOUS
 10
11.8768586516
 20
8.1614567751
 11
11.7112713605
 21
8.1729402927
  0
LINE
  5
2C8
100
AcDbEntity
  8
0
100
AcDbLine
 62
4
  6
CONTINUOUS
 10
11.3999672561
 20
7.9958244928
 11
11.1681450492
 21
8.0781363298
  0
LINE
  5
2C9
100
AcDbEntity
  8
0
100
AcDbLine
 62
4
  6
CONTINUOUS
 10
10.661447937
 20
8.3892547453
 11
10.6448892089
 21
8.4235205394
  0
LINE
  5
2CA
100
AcDbEntity
  8
0
100
AcDbLine
 62
4
  6
CONTINUOUS
 10
10.7828786199
 20
7.9227086404
 11
10.7828786199
 21
7.9558260828
  0
LINE
  5
2CB
100
AcDbEntity
  8
0
100
AcDbLine
 62
4
  6
CONTINUOUS
 10
10.7276828562
 20
8.4177787804
 11
10.7111241264
 21
8.3858096899
  0
LINE
  5
2CC
100
AcDbEntity
  8
0
100
AcDbLine
 62
4
  6
CONTINUOUS
 10
10.7276828562
 20
8.1031629124
 11
10.7111241264
 21
8.0711938219
  0
LINE
  5
2CD
100
AcDbEntity
  8
0
100
AcDbLine
 62
4
  6
CONTINUOUS
 10
9.292317071
 20
6.4053937585
 11
9.3116355837
 21
6.433031791
  0
LINE
  5
2CE
100
AcDbEntity
  8
0
100
AcDbLine
 62
4
  6
CONTINUOUS
 10
10.7111241264
 20
8.5513969015
 11
10.7276828562
 21
8.5668073262
  0
LINE
  5
2CF
100
AcDbEntity
  8
0
100
AcDbLine
 62
4
  6
CONTINUOUS
 10
10.5620955616
 20
8.3133511949
 11
10.5786542966
 21
8.3232419533
  0
LINE
  5
2D0
100
AcDbEntity
  8
0
100
AcDbLine
 62
4
  6
CONTINUOUS
 10
10.5952130178
 20
8.4932004796
 11
10.5620955616
 21
8.4789385171
  0
LINE
  5
2D1
100
AcDbEntity
  8
0
100
AcDbLine
 62
4
  6
CONTINUOUS
 10
10.5786542966
 20
8.3232419533
 11
10.6117717527
 21
8.3209452499
  0
LINE
  5
2D2
100
AcDbEntity
  8
0
100
AcDbLine
 62
4
  6
CONTINUOUS
 10
10.7111241264
 20
8.3858096899
 11
10.661447937
 21
8.3892547453
  0
LINE
  5
2D3
100
AcDbEntity
  8
0
100
AcDbLine
 62
4
  6
CONTINUOUS
 10
11.8768586516
 20
8.3546418738
 11
11.7112713605
 21
8.3661253914
  0
LINE
  5
2D4
100
AcDbEntity
  8
0
100
AcDbLine
 62
4
  6
CONTINUOUS
 10
10.7276828562
 20
8.4840136651
 11
10.5952130178
 21
8.4932004796
  0
LINE
  5
2D5
100
AcDbEntity
  8
0
100
AcDbLine
 62
4
  6
CONTINUOUS
 10
10.5620955616
 20
8.5617320676
 11
10.7111241264
 21
8.5513969015
  0
LINE
  5
2D6
100
AcDbEntity
  8
0
100
AcDbLine
 62
4
  6
CONTINUOUS
 10
11.7112713605
 20
8.4820364948
 11
11.8768586516
 21
8.4705529772
  0
LINE
  5
2D7
100
AcDbEntity
  8
0
100
AcDbLine
 62
4
  6
CONTINUOUS
 10
11.3226931848
 20
8.1998882048
 11
11.1681450492
 21
8.3265172578
  0
LINE
  5
2D8
100
AcDbEntity
  8
0
100
AcDbLine
 62
4
  6
CONTINUOUS
 10
11.8768586516
 20
7.3224811088
 11
11.9099761112
 21
7.287066949
  0
LINE
  5
2D9
100
AcDbEntity
  8
0
100
AcDbLine
 62
4
  6
CONTINUOUS
 10
10.5786542966
 20
8.9635127998
 11
10.5620955616
 21
8.9812198179
  0
LINE
  5
2DA
100
AcDbEntity
  8
0
100
AcDbLine
 62
4
  6
CONTINUOUS
 10
11.1681450492
 20
7.8463141229
 11
11.1681450492
 21
7.9456664983
  0
LINE
  5
2DB
100
AcDbEntity
  8
0
100
AcDbLine
 62
4
  6
CONTINUOUS
 10
11.2674974177
 20
7.9387763881
 11
11.2674974177
 21
7.8394240128
  0
LINE
  5
2DC
100
AcDbEntity
  8
0
100
AcDbLine
 62
4
  6
CONTINUOUS
 10
10.5620955616
 20
7.8552263364
 11
10.5786542966
 21
7.8706367054
  0
LINE
  5
2DD
100
AcDbEntity
  8
0
100
AcDbLine
 62
4
  6
CONTINUOUS
 10
11.9099761112
 20
8.5344911582
 11
11.6781539043
 21
8.5505680829
  0
LINE
  5
2DE
100
AcDbEntity
  8
0
100
AcDbLine
 62
4
  6
CONTINUOUS
 10
10.7276828562
 20
8.6496009873
 11
10.5620955616
 21
8.6610845052
  0
LINE
  5
2DF
100
AcDbEntity
  8
0
100
AcDbLine
 62
4
  6
CONTINUOUS
 10
10.7111241264
 20
8.7169842237
 11
10.4958606493
 21
8.7319127966
  0
LINE
  5
2E0
100
AcDbEntity
  8
0
100
AcDbLine
 62
4
  6
CONTINUOUS
 10
11.7112713605
 20
8.6641824829
 11
11.8768586516
 21
8.6526989653
  0
LINE
  5
2E1
100
AcDbEntity
  8
0
100
AcDbLine
 62
4
  6
CONTINUOUS
 10
11.9099761112
 20
8.7442351439
 11
11.6781539043
 21
8.7603120686
  0
LINE
  5
2E2
100
AcDbEntity
  8
0
100
AcDbLine
 62
4
  6
CONTINUOUS
 10
12.9299938646
 20
8.6848116743
 11
13.1618160714
 21
8.6687347496
  0
LINE
  5
2E3
100
AcDbEntity
  8
0
100
AcDbLine
 62
4
  6
CONTINUOUS
 10
10.4958606493
 20
8.8864608976
 11
10.5124193843
 21
8.8797929902
  0
LINE
  5
2E4
100
AcDbEntity
  8
0
100
AcDbLine
 62
4
  6
CONTINUOUS
 10
10.5786542966
 20
9.1125414561
 11
10.5620955616
 21
9.1302484742
  0
LINE
  5
2E5
100
AcDbEntity
  8
0
100
AcDbLine
 62
4
  6
CONTINUOUS
 10
10.7276828562
 20
9.184999841
 11
10.7111241264
 21
9.2027068587
  0
LINE
  5
2E6
100
AcDbEntity
  8
0
100
AcDbLine
 62
4
  6
CONTINUOUS
 10
11.7112713605
 20
8.1729402927
 11
11.6781539043
 21
8.2083544384
  0
LINE
  5
2E7
100
AcDbEntity
  8
0
100
AcDbLine
 62
4
  6
CONTINUOUS
 10
11.7664671207
 20
7.1700690827
 11
11.8106237358
 21
7.0786935877
  0
LINE
  5
2E8
100
AcDbEntity
  8
0
100
AcDbLine
 62
4
  6
CONTINUOUS
 10
11.3337323369
 20
8.0224962042
 11
11.3337323369
 21
8.1108094206
  0
LINE
  5
2E9
100
AcDbEntity
  8
0
100
AcDbLine
 62
4
  6
CONTINUOUS
 10
11.7664671207
 20
8.9197747379
 11
11.8106237358
 21
9.0050256826
  0
LINE
  5
2EA
100
AcDbEntity
  8
0
100
AcDbLine
 62
7
  6
CONTINUOUS
 10
13.5095494033
 20
10.0973719626
 11
14.2860058978
 21
10.847371388
  0
LINE
  5
2EB
100
AcDbEntity
  8
0
100
AcDbLine
 62
4
  6
CONTINUOUS
 10
11.6781539043
 20
8.633361744
 11
11.7112713605
 21
8.6641824829
  0
LINE
  5
2EC
100
AcDbEntity
  8
0
100
AcDbLine
 62
4
  6
CONTINUOUS
 10
11.6781539043
 20
8.4512157559
 11
11.7112713605
 21
8.4820364948
  0
LINE
  5
2ED
100
AcDbEntity
  8
0
100
AcDbLine
 62
4
  6
CONTINUOUS
 10
11.2674974177
 20
8.2533922354
 11
11.3999672561
 21
8.3104403332
  0
LINE
  5
2EE
100
AcDbEntity
  8
0
100
AcDbLine
 62
4
  6
CONTINUOUS
 10
10.7276828562
 20
8.8648644177
 11
10.5620955616
 21
8.8763479356
  0
LINE
  5
2EF
100
AcDbEntity
  8
0
100
AcDbLine
 62
4
  6
CONTINUOUS
 10
10.5124193843
 20
8.8797929902
 11
10.4958606493
 21
8.8809413424
  0
LINE
  5
2F0
100
AcDbEntity
  8
0
100
AcDbLine
 62
4
  6
CONTINUOUS
 10
10.7111241264
 20
8.9543259859
 11
10.5786542966
 21
8.9635127998
  0
LINE
  5
2F1
100
AcDbEntity
  8
0
100
AcDbLine
 62
4
  6
CONTINUOUS
 10
10.6283304808
 20
9.109096401
 11
10.5786542966
 21
9.1125414561
  0
LINE
  5
2F2
100
AcDbEntity
  8
0
100
AcDbLine
 62
4
  6
CONTINUOUS
 10
11.7112713605
 20
8.3661253914
 11
11.6781539043
 21
8.4015395371
  0
LINE
  5
2F3
100
AcDbEntity
  8
0
100
AcDbLine
 62
4
  6
CONTINUOUS
 10
11.6781539043
 20
7.2203502402
 11
11.6781539043
 21
7.3031438736
  0
LINE
  5
2F4
100
AcDbEntity
  8
0
100
AcDbLine
 62
4
  6
CONTINUOUS
 10
11.6781539043
 20
7.628798866
 11
11.6781539043
 21
7.7612686906
  0
LINE
  5
2F5
100
AcDbEntity
  8
0
100
AcDbLine
 62
4
  6
CONTINUOUS
 10
11.6781539043
 20
7.8275036305
 11
11.6781539043
 21
7.9268560128
  0
LINE
  5
2F6
100
AcDbEntity
  8
0
100
AcDbLine
 62
4
  6
CONTINUOUS
 10
11.6781539043
 20
8.2083544384
 11
11.6781539043
 21
8.2745893231
  0
LINE
  5
2F7
100
AcDbEntity
  8
0
100
AcDbLine
 62
4
  6
CONTINUOUS
 10
11.6781539043
 20
8.4015395371
 11
11.6781539043
 21
8.4512157559
  0
LINE
  5
2F8
100
AcDbEntity
  8
0
100
AcDbLine
 62
4
  6
CONTINUOUS
 10
11.6781539043
 20
8.5505680829
 11
11.6781539043
 21
8.633361744
  0
LINE
  5
2F9
100
AcDbEntity
  8
0
100
AcDbLine
 62
4
  6
CONTINUOUS
 10
11.6781539043
 20
8.7603120686
 11
11.6781539043
 21
8.8596643956
  0
LINE
  5
2FA
100
AcDbEntity
  8
0
100
AcDbLine
 62
4
  6
CONTINUOUS
 10
11.7775062728
 20
8.8196568431
 11
11.7775062728
 21
8.7534219584
  0
LINE
  5
2FB
100
AcDbEntity
  8
0
100
AcDbLine
 62
4
  6
CONTINUOUS
 10
11.7775062728
 20
7.8868484603
 11
11.7775062728
 21
7.8206135204
  0
LINE
  5
2FC
100
AcDbEntity
  8
0
100
AcDbLine
 62
4
  6
CONTINUOUS
 10
11.843741192
 20
7.4406889158
 11
11.843741192
 21
7.5290021322
  0
LINE
  5
2FD
100
AcDbEntity
  8
0
100
AcDbLine
 62
4
  6
CONTINUOUS
 10
10.661447937
 20
7.1528696052
 11
10.5620955616
 21
7.0438486124
  0
LINE
  5
2FE
100
AcDbEntity
  8
0
100
AcDbLine
 62
4
  6
CONTINUOUS
 10
10.4958606493
 20
7.1477943945
 11
10.5124193843
 21
7.1632047704
  0
LINE
  5
2FF
100
AcDbEntity
  8
0
100
AcDbLine
 62
4
  6
CONTINUOUS
 10
11.9099761112
 20
8.3854626125
 11
11.8768586516
 21
8.3546418738
  0
LINE
  5
300
100
AcDbEntity
  8
0
100
AcDbLine
 62
4
  6
CONTINUOUS
 10
10.6945653966
 20
7.2168078139
 11
10.7276828562
 21
7.2476285664
  0
LINE
  5
301
100
AcDbEntity
  8
0
100
AcDbLine
 62
4
  6
CONTINUOUS
 10
11.9099761112
 20
8.1922775138
 11
11.8768586516
 21
8.1614567751
  0
LINE
  5
302
100
AcDbEntity
  8
0
100
AcDbLine
 62
4
  6
CONTINUOUS
 10
10.7111241264
 20
7.0335134463
 11
10.7276828562
 21
7.0489238243
  0
LINE
  5
303
100
AcDbEntity
  8
0
100
AcDbLine
 62
4
  6
CONTINUOUS
 10
9.3116355837
 20
6.433031791
 11
9.3309541101
 21
6.4461809345
  0
LINE
  5
304
100
AcDbEntity
  8
0
100
AcDbLine
 62
4
  6
CONTINUOUS
 10
10.4958606493
 20
7.4127340506
 11
10.7276828562
 21
7.5125682294
  0
LINE
  5
305
100
AcDbEntity
  8
0
100
AcDbLine
 62
4
  6
CONTINUOUS
 10
10.7111241264
 20
9.2027068587
 11
10.661447937
 21
9.2061519141
  0
LINE
  5
306
100
AcDbEntity
  8
0
100
AcDbLine
 62
4
  6
CONTINUOUS
 10
11.8768586516
 20
8.4705529772
 11
11.9099761112
 21
8.4351388312
  0
LINE
  5
307
100
AcDbEntity
  8
0
100
AcDbLine
 62
4
  6
CONTINUOUS
 10
11.8768586516
 20
8.6526989653
 11
11.9099761112
 21
8.6172848193
  0
LINE
  5
308
100
AcDbEntity
  8
0
100
AcDbLine
 62
4
  6
CONTINUOUS
 10
11.9099761112
 20
8.6172848193
 11
11.9099761112
 21
8.5344911582
  0
LINE
  5
309
100
AcDbEntity
  8
0
100
AcDbLine
 62
4
  6
CONTINUOUS
 10
11.9099761112
 20
8.4351388312
 11
11.9099761112
 21
8.3854626125
  0
LINE
  5
30A
100
AcDbEntity
  8
0
100
AcDbLine
 62
4
  6
CONTINUOUS
 10
11.9099761112
 20
8.2585123985
 11
11.9099761112
 21
8.1922775138
  0
LINE
  5
30B
100
AcDbEntity
  8
0
100
AcDbLine
 62
4
  6
CONTINUOUS
 10
11.9099761112
 20
7.287066949
 11
11.9099761112
 21
7.2042733155
  0
LINE
  5
30C
100
AcDbEntity
  8
0
100
AcDbLine
 62
4
  6
CONTINUOUS
 10
11.9099761112
 20
7.8114267059
 11
11.9099761112
 21
7.9107790882
  0
LINE
  5
30D
100
AcDbEntity
  8
0
100
AcDbLine
 62
4
  6
CONTINUOUS
 10
11.9099761112
 20
8.7442351439
 11
11.9099761112
 21
8.8435874709
  0
LINE
  5
30E
100
AcDbEntity
  8
0
100
AcDbLine
 62
4
  6
CONTINUOUS
 10
11.8106237358
 20
9.0050256826
 11
11.8547803475
 21
8.9136501948
  0
LINE
  5
30F
100
AcDbEntity
  8
0
100
AcDbLine
 62
4
  6
CONTINUOUS
 10
11.8106237358
 20
7.0786935877
 11
11.8547803475
 21
7.1639445396
  0
LINE
  5
310
100
AcDbEntity
  8
0
100
AcDbLine
 62
4
  6
CONTINUOUS
 10
11.6781539043
 20
7.3031438736
 11
11.7112713605
 21
7.3339646264
  0
LINE
  5
311
100
AcDbEntity
  8
0
100
AcDbLine
 62
7
  6
CONTINUOUS
 10
13.5095494033
 20
10.0973719626
 11
7.7139941022
 21
10.4992950878
  0
LINE
  5
312
100
AcDbEntity
  8
0
100
AcDbLine
 62
7
  6
CONTINUOUS
 10
13.5095494033
 20
5.7507054867
 11
13.5095494033
 21
10.0973719626
  0
LINE
  5
313
100
AcDbEntity
  8
0
100
AcDbLine
 62
7
  6
CONTINUOUS
 10
14.2860058978
 20
10.847371388
 11
8.4904505967
 21
11.2492945133
  0
LINE
  5
314
100
AcDbEntity
  8
0
100
AcDbLine
 62
7
  6
CONTINUOUS
 10
14.2860058978
 20
10.847371388
 11
14.2860058978
 21
6.5007049122
  0
LINE
  5
315
100
AcDbEntity
  8
0
100
AcDbLine
 62
7
  6
CONTINUOUS
 10
14.2860058978
 20
6.5007049122
 11
13.5095494033
 21
5.7507054867
  0
SPLINE
  5
316
100
AcDbEntity
  8
0
100
AcDbSpline
 62
7
  6
CONTINUOUS
 70
0
 71
3
 72
23
 73
19
 74
0
 42
0.0000001
 43
0.0000001
 44
0.0000000001
 40
0.0
 40
0.0
 40
0.0
 40
0.0
 40
0.0764222838
 40
0.1504661461
 40
0.2222018012
 40
0.2917109382
 40
0.3590900495
 40
0.4244475032
 40
0.4879038951
 40
0.5495927372
 40
0.6096609962
 40
0.6682702169
 40
0.7255962326
 40
0.7818281432
 40
0.8371677418
 40
0.8918276491
 40
0.9460291917
 40
1.0
 40
1.0
 40
1.0
 40
1.0
 10
13.8977776506
 20
10.1970827285
 30
0.0
 10
13.8997006352
 20
10.1989401891
 30
0.0
 10
13.903545846
 20
10.202536832
 30
0.0
 10
13.9094052904
 20
10.2076476251
 30
0.0
 10
13.9152620833
 20
10.2123860524
 30
0.0
 10
13.921114474
 20
10.2167504388
 30
0.0
 10
13.9269608308
 20
10.2207395566
 30
0.0
 10
13.9327996687
 20
10.2243522122
 30
0.0
 10
13.9386294725
 20
10.2275872796
 30
0.0
 10
13.9444486371
 20
10.2304437631
 30
0.0
 10
13.9502556022
 20
10.2329205838
 30
0.0
 10
13.9560487358
 20
10.2350168191
 30
0.0
 10
13.9618263568
 20
10.2367317053
 30
0.0
 10
13.9675867935
 20
10.2380644064
 30
0.0
 10
13.9733282264
 20
10.239014345
 30
0.0
 10
13.9790489086
 20
10.2395810572
 30
0.0
 10
13.9847466079
 20
10.2397641194
 30
0.0
 10
13.988531987
 20
10.2396301962
 30
0.0
 10
13.9904155934
 20
10.2394995621
 30
0.0
  0
SPLINE
  5
317
100
AcDbEntity
  8
0
100
AcDbSpline
 62
7
  6
CONTINUOUS
 70
0
 71
3
 72
23
 73
19
 74
0
 42
0.0000001
 43
0.0000001
 44
0.0000000001
 40
0.0
 40
0.0
 40
0.0
 40
0.0
 40
0.0637764154
 40
0.1273451281
 40
0.190701988
 40
0.253856063
 40
0.3168132283
 40
0.3795820791
 40
0.4421733864
 40
0.5045993414
 40
0.5668738629
 40
0.629012379
 40
0.6910316532
 40
0.7529496461
 40
0.8147853522
 40
0.8765586034
 40
0.9382898574
 40
1.0
 40
1.0
 40
1.0
 40
1.0
 10
13.2989775833
 20
6.308159016
 30
0.0
 10
13.2989775833
 20
6.3028515829
 30
0.0
 10
13.2987235197
 20
6.292252204
 30
0.0
 10
13.2975769566
 20
6.2764176395
 30
0.0
 10
13.2956678555
 20
6.2607085499
 30
0.0
 10
13.2930008153
 20
6.2451619211
 30
0.0
 10
13.2895818063
 20
6.2298132219
 30
0.0
 10
13.285418738
 20
6.2146979348
 30
0.0
 10
13.2805211866
 20
6.1998508932
 30
0.0
 10
13.2749003386
 20
6.1853063499
 30
0.0
 10
13.2685691743
 20
6.171097838
 30
0.0
 10
13.2615422837
 20
6.1572581164
 30
0.0
 10
13.2538358117
 20
6.1438191295
 30
0.0
 10
13.2454674889
 20
6.1308118867
 30
0.0
 10
13.2364566731
 20
6.1182663945
 30
0.0
 10
13.2268240254
 20
6.1062114964
 30
0.0
 10
13.2165920954
 20
6.0946754156
 30
0.0
 10
13.2093856712
 20
6.0873469559
 30
0.0
 10
13.2056919547
 20
6.0837790987
 30
0.0
  0
SPLINE
  5
318
100
AcDbEntity
  8
0
100
AcDbSpline
 62
7
  6
CONTINUOUS
 70
0
 71
3
 72
43
 73
39
 74
0
 42
0.0000001
 43
0.0000001
 44
0.0000000001
 40
0.0
 40
0.0
 40
0.0
 40
0.0
 40
0.0149723098
 40
0.0299476795
 40
0.0449291474
 40
0.05991972
 40
0.0749223413
 40
0.0899398895
 40
0.1049751458
 40
0.1200307886
 40
0.1502075383
 40
0.1804946787
 40
0.2109083087
 40
0.2414615673
 40
0.2721643694
 40
0.303023226
 40
0.3340411482
 40
0.3652176339
 40
0.3965487319
 40
0.4280271774
 40
0.4596425917
 40
0.4913817403
 40
0.5232288393
 40
0.555165905
 40
0.5871731364
 40
0.6192293252
 40
0.6513122868
 40
0.6833993039
 40
0.7154675788
 40
0.7474946857
 40
0.7794590188
 40
0.8113402295
 40
0.8431196416
 40
0.8747806564
 40
0.906309065
 40
0.9376935582
 40
0.9689254026
 40
1.0
 40
1.0
 40
1.0
 40
1.0
 10
12.727706204
 20
6.5786261183
 30
0.0
 10
12.7305598985
 20
6.5813825764
 30
0.0
 10
12.7363781065
 20
6.5867832347
 30
0.0
 10
12.7454214662
 20
6.5945318081
 30
0.0
 10
12.754769275
 20
6.6019183537
 30
0.0
 10
12.7644085686
 20
6.6089324322
 30
0.0
 10
12.7743260955
 20
6.6155645073
 30
0.0
 10
12.7845081445
 20
6.6218054098
 30
0.0
 10
12.794940949
 20
6.6276466017
 30
0.0
 10
12.8091752232
 20
6.6348959107
 30
0.0
 10
12.8275323869
 20
6.6429207504
 30
0.0
 10
12.850305021
 20
6.6508257331
 30
0.0
 10
12.8737174985
 20
6.656972274
 30
0.0
 10
12.8976399714
 20
6.6613263552
 30
0.0
 10
12.921940959
 20
6.663864452
 30
0.0
 10
12.9464866754
 20
6.6645728864
 30
0.0
 10
12.9711421427
 20
6.6634480885
 30
0.0
 10
12.9957718273
 20
6.6604965444
 30
0.0
 10
13.0202404052
 20
6.6557347622
 30
0.0
 10
13.0444134888
 20
6.6491891651
 30
0.0
 10
13.0681583574
 20
6.6408959413
 30
0.0
 10
13.0913446781
 20
6.630900845
 30
0.0
 10
13.113845209
 20
6.619258932
 30
0.0
 10
13.1355364876
 20
6.6060342583
 30
0.0
 10
13.1562994994
 20
6.5912995281
 30
0.0
 10
13.1760203216
 20
6.5751356972
 30
0.0
 10
13.1945907414
 20
6.5576315314
 30
0.0
 10
13.2119088419
 20
6.5388831239
 30
0.0
 10
13.2278795563
 20
6.5189933729
 30
0.0
 10
13.2424151842
 20
6.4980714236
 30
0.0
 10
13.2554358765
 20
6.4762320803
 30
0.0
 10
13.2668700616
 20
6.4535951735
 30
0.0
 10
13.2766548436
 20
6.4302849267
 30
0.0
 10
13.2847363236
 20
6.4064292302
 30
0.0
 10
13.291069962
 20
6.3821591377
 30
0.0
 10
13.2956206682
 20
6.3576074623
 30
0.0
 10
13.2983633032
 20
6.3329107705
 30
0.0
 10
13.2989775833
 20
6.3163935988
 30
0.0
 10
13.2989775833
 20
6.308159016
 30
0.0
  0
SPLINE
  5
319
100
AcDbEntity
  8
0
100
AcDbSpline
 62
7
  6
CONTINUOUS
 70
0
 71
3
 72
106
 73
102
 74
0
 42
0.0000001
 43
0.0000001
 44
0.0000000001
 40
0.0
 40
0.0
 40
0.0
 40
0.0
 40
0.0013572614
 40
0.0027170801
 40
0.0040819972
 40
0.0054545222
 40
0.0068371197
 40
0.0082321976
 40
0.0110684626
 40
0.0139816382
 40
0.0169879175
 40
0.0201018457
 40
0.0233363321
 40
0.0267026476
 40
0.0302105675
 40
0.0338684402
 40
0.037683369
 40
0.0416612997
 40
0.0458071843
 40
0.0501250681
 40
0.0546182117
 40
0.0592891763
 40
0.0641398973
 40
0.0691717727
 40
0.0743856914
 40
0.079782128
 40
0.0853611333
 40
0.0911224352
 40
0.0970654022
 40
0.1031891457
 40
0.1094924693
 40
0.1159739645
 40
0.1226319594
 40
0.1294645988
 40
0.1364698038
 40
0.1436453299
 40
0.1509887441
 40
0.1584974579
 40
0.1661687265
 40
0.1739996546
 40
0.1819872188
 40
0.1901282493
 40
0.1984194707
 40
0.2154385539
 40
0.2330160976
 40
0.2511218856
 40
0.2697242008
 40
0.2887899589
 40
0.3082848336
 40
0.3281733744
 40
0.3484191186
 40
0.3689846999
 40
0.3898319534
 40
0.4109220189
 40
0.432215442
 40
0.4536722745
 40
0.4752521738
 40
0.4969145015
 40
0.5186184218
 40
0.5403229993
 40
0.5619872972
 40
0.5835704748
 40
0.6050318861
 40
0.6263311775
 40
0.6474283868
 40
0.6682840422
 40
0.6888592629
 40
0.7091158602
 40
0.7290164402
 40
0.7485245095
 40
0.7676045831
 40
0.7862222967
 40
0.8043445243
 40
0.8219395028
 40
0.8389769656
 40
0.8472777114
 40
0.855428486
 40
0.8634259994
 40
0.8712670756
 40
0.8789486853
 40
0.8864679163
 40
0.8938220274
 40
0.9010084015
 40
0.9080246176
 40
0.9148683932
 40
0.9215376665
 40
0.9280305379
 40
0.9343453534
 40
0.9404806572
 40
0.9464352674
 40
0.9522082492
 40
0.9577989756
 40
0.9632071305
 40
0.9684327588
 40
0.9734763047
 40
0.9783386256
 40
0.9830210644
 40
0.9875255238
 40
0.9918546226
 40
0.9960115463
 40
1.0
 40
1.0
 40
1.0
 40
1.0
 10
13.8051397077
 20
7.5679163788
 30
0.0
 10
13.8038910325
 20
7.5680029783
 30
0.0
 10
13.8013948593
 20
7.5682324866
 30
0.0
 10
13.7976642545
 20
7.5687449187
 30
0.0
 10
13.7939462656
 20
7.5694255638
 30
0.0
 10
13.7902415089
 20
7.5702742734
 30
0.0
 10
13.786550388
 20
7.5712909557
 30
0.0
 10
13.7816212854
 20
7.5728787633
 30
0.0
 10
13.7754830175
 20
7.5752955232
 30
0.0
 10
13.7682238696
 20
7.5788496264
 30
0.0
 10
13.7610334488
 20
7.5830712687
 30
0.0
 10
13.7539154033
 20
7.587957223
 30
0.0
 10
13.7468728804
 20
7.5935045501
 30
0.0
 10
13.739908845
 20
7.5997098772
 30
0.0
 10
13.733026403
 20
7.6065699278
 30
0.0
 10
13.7262284561
 20
7.6140810293
 30
0.0
 10
13.7195181116
 20
7.6222394453
 30
0.0
 10
13.712898335
 20
7.6310410559
 30
0.0
 10
13.7063722373
 20
7.6404815478
 30
0.0
 10
13.6999428487
 20
7.6505562513
 30
0.0
 10
13.6936132473
 20
7.6612602175
 30
0.0
 10
13.6873864928
 20
7.6725881736
 30
0.0
 10
13.6812655925
 20
7.6845345197
 30
0.0
 10
13.6752535955
 20
7.69709336
 30
0.0
 10
13.669353412
 20
7.7102584508
 30
0.0
 10
13.6635680443
 20
7.7240232713
 30
0.0
 10
13.6579002917
 20
7.7383809513
 30
0.0
 10
13.652353078
 20
7.7533243529
 30
0.0
 10
13.6469290871
 20
7.7688459994
 30
0.0
 10
13.6416311364
 20
7.7849381494
 30
0.0
 10
13.6364617957
 20
7.8015927397
 30
0.0
 10
13.6314237519
 20
7.8188014426
 30
0.0
 10
13.6265194636
 20
7.836555628
 30
0.0
 10
13.6217514684
 20
7.8548464015
 30
0.0
 10
13.6171221144
 20
7.8736645847
 30
0.0
 10
13.6126337772
 20
7.8930007379
 30
0.0
 10
13.6082886922
 20
7.9128451535
 30
0.0
 10
13.6040890649
 20
7.9331878684
 30
0.0
 10
13.6000370136
 20
7.9540186647
 30
0.0
 10
13.5961345687
 20
7.9753270802
 30
0.0
 10
13.5923837284
 20
7.9971024029
 30
0.0
 10
13.5887863314
 20
8.0193337097
 30
0.0
 10
13.5841566906
 20
8.0498337712
 30
0.0
 10
13.578779197
 20
8.0890203783
 30
0.0
 10
13.573020563
 20
8.1372827939
 30
0.0
 10
13.5679133291
 20
8.1870863425
 30
0.0
 10
13.5634678704
 20
8.2383308563
 30
0.0
 10
13.559693245
 20
8.2909134155
 30
0.0
 10
13.5565971406
 20
8.3447283347
 30
0.0
 10
13.5541858701
 20
8.3996674445
 30
0.0
 10
13.5524643573
 20
8.4556202945
 30
0.0
 10
13.5514361283
 20
8.512474384
 30
0.0
 10
13.5511033056
 20
8.5701153891
 30
0.0
 10
13.5514666043
 20
8.6284273952
 30
0.0
 10
13.5525253308
 20
8.6872931316
 30
0.0
 10
13.5542773855
 20
8.746594209
 30
0.0
 10
13.556719267
 20
8.8062113592
 30
0.0
 10
13.5598460799
 20
8.8660246755
 30
0.0
 10
13.5636515447
 20
8.9259138555
 30
0.0
 10
13.5681280105
 20
8.9857584439
 30
0.0
 10
13.5732664708
 20
9.0454380752
 30
0.0
 10
13.5790565813
 20
9.1048327173
 30
0.0
 10
13.585486681
 20
9.1638229135
 30
0.0
 10
13.5925438153
 20
9.222290024
 30
0.0
 10
13.6002137619
 20
9.2801164655
 30
0.0
 10
13.6084810593
 20
9.3371859491
 30
0.0
 10
13.6173290373
 20
9.3933837153
 30
0.0
 10
13.6267398504
 20
9.4485967673
 30
0.0
 10
13.6366945129
 20
9.5027141
 30
0.0
 10
13.6471729371
 20
9.5556269246
 30
0.0
 10
13.6581539727
 20
9.607228896
 30
0.0
 10
13.6696154494
 20
9.6574163127
 30
0.0
 10
13.6815342186
 20
9.7060883945
 30
0.0
 10
13.6938862093
 20
9.7531472625
 30
0.0
 10
13.7046105086
 20
9.7912629518
 30
0.0
 10
13.7133976261
 20
9.8208706729
 30
0.0
 10
13.7200234809
 20
9.8424225776
 30
0.0
 10
13.7267385897
 20
9.86350237
 30
0.0
 10
13.7335396241
 20
9.8840994684
 30
0.0
 10
13.74042311
 20
9.9042035271
 30
0.0
 10
13.7473856365
 20
9.9238044412
 30
0.0
 10
13.7544236336
 20
9.9428923769
 30
0.0
 10
13.7615336295
 20
9.9614577396
 30
0.0
 10
13.7687119672
 20
9.9794912249
 30
0.0
 10
13.7759551149
 20
9.9969837701
 30
0.0
 10
13.7832593468
 20
10.0139266194
 30
0.0
 10
13.7906210681
 20
10.0303112631
 30
0.0
 10
13.7980365045
 20
10.0461295108
 30
0.0
 10
13.8055019966
 20
10.0613734279
 30
0.0
 10
13.8130137427
 20
10.0760354052
 30
0.0
 10
13.8205680205
 20
10.0901081037
 30
0.0
 10
13.8281610191
 20
10.1035845069
 30
0.0
 10
13.8357889562
 20
10.1164578952
 30
0.0
 10
13.8434480404
 20
10.1287218631
 30
0.0
 10
13.8511344531
 20
10.1403703271
 30
0.0
 10
13.8588444158
 20
10.1513974723
 30
0.0
 10
13.8665740593
 20
10.1617978728
 30
0.0
 10
13.8743197097
 20
10.1715663825
 30
0.0
 10
13.8820776753
 20
10.1806983264
 30
0.0
 10
13.8898439626
 20
10.1891887721
 30
0.0
 10
13.8951321058
 20
10.1945273283
 30
0.0
 10
13.8977776506
 20
10.1970827285
 30
0.0
  0
SPLINE
  5
31A
100
AcDbEntity
  8
0
100
AcDbSpline
 62
7
  6
CONTINUOUS
 70
0
 71
3
 72
97
 73
93
 74
0
 42
0.0000001
 43
0.0000001
 44
0.0000000001
 40
0.0
 40
0.0
 40
0.0
 40
0.0
 40
0.0027966032
 40
0.0056681052
 40
0.0086296025
 40
0.0116946887
 40
0.0148754648
 40
0.0181825206
 40
0.0216250839
 40
0.0252110726
 40
0.0289472349
 40
0.0328392889
 40
0.0368919734
 40
0.0411092399
 40
0.0454942611
 40
0.0500495726
 40
0.0547771365
 40
0.0596783634
 40
0.0647542496
 40
0.0700053275
 40
0.0754317904
 40
0.0810334857
 40
0.0868099355
 40
0.0927604239
 40
0.0988839274
 40
0.1051792315
 40
0.111644879
 40
0.118279209
 40
0.1250804
 40
0.1320464097
 40
0.1391750781
 40
0.146464054
 40
0.1615126387
 40
0.1771709271
 40
0.1934154307
 40
0.2102208586
 40
0.2275602788
 40
0.2454052571
 40
0.2637259952
 40
0.2824914512
 40
0.3016694502
 40
0.3212267889
 40
0.3411293316
 40
0.3613421079
 40
0.3818294107
 40
0.4025548887
 40
0.4234816352
 40
0.4445722774
 40
0.4657890631
 40
0.4870939516
 40
0.5084487023
 40
0.5298149615
 40
0.5511543482
 40
0.5724285418
 40
0.5935993712
 40
0.6146289026
 40
0.6354795263
 40
0.6561140444
 40
0.6764957586
 40
0.6965885635
 40
0.7163570394
 40
0.735766542
 40
0.7547832965
 40
0.773374495
 40
0.7915083991
 40
0.8091544534
 40
0.826283397
 40
0.8428673835
 40
0.8588801158
 40
0.8742969973
 40
0.8817749275
 40
0.8890955506
 40
0.8962563434
 40
0.9032549366
 40
0.9100891307
 40
0.9167568507
 40
0.9232562447
 40
0.9295856022
 40
0.935743438
 40
0.9417284821
 40
0.9475396684
 40
0.9531762278
 40
0.958637615
 40
0.9639236306
 40
0.9690343913
 40
0.9739703576
 40
0.9787324142
 40
0.9833218588
 40
0.9877406176
 40
0.9919911764
 40
0.996076482
 40
1.0
 40
1.0
 40
1.0
 40
1.0
 10
13.7544308541
 20
7.9686490346
 30
0.0
 10
13.7527293331
 20
7.9692506079
 30
0.0
 10
13.7493297539
 20
7.9706130712
 30
0.0
 10
13.7443331731
 20
7.9730835886
 30
0.0
 10
13.7393825761
 20
7.9760027092
 30
0.0
 10
13.7344805833
 20
7.9793682799
 30
0.0
 10
13.7296292289
 20
7.9831784357
 30
0.0
 10
13.7248304654
 20
7.9874309417
 30
0.0
 10
13.7200863491
 20
7.9921236797
 30
0.0
 10
13.7153988299
 20
7.9972542729
 30
0.0
 10
13.7107698774
 20
8.0028202322
 30
0.0
 10
13.7062015664
 20
8.0088189566
 30
0.0
 10
13.7016958079
 20
8.0152475553
 30
0.0
 10
13.6972547181
 20
8.0221030683
 30
0.0
 10
13.6928802451
 20
8.0293822401
 30
0.0
 10
13.6885744149
 20
8.0370816651
 30
0.0
 10
13.6843392612
 20
8.0451977347
 30
0.0
 10
13.6801766856
 20
8.0537265968
 30
0.0
 10
13.6760887388
 20
8.0626642568
 30
0.0
 10
13.6720772712
 20
8.0720064589
 30
0.0
 10
13.6681442294
 20
8.0817487895
 30
0.0
 10
13.6642914878
 20
8.0918866229
 30
0.0
 10
13.6605208358
 20
8.1024151316
 30
0.0
 10
13.6568341509
 20
8.1133293204
 30
0.0
 10
13.6532331163
 20
8.1246239751
 30
0.0
 10
13.6497195161
 20
8.1362937213
 30
0.0
 10
13.6462950113
 20
8.1483329867
 30
0.0
 10
13.6429612258
 20
8.160736023
 30
0.0
 10
13.6397198113
 20
8.1734969124
 30
0.0
 10
13.6365722585
 20
8.1866095478
 30
0.0
 10
13.6335201249
 20
8.2000676799
 30
0.0
 10
13.6295374445
 20
8.2186617785
 30
0.0
 10
13.6248196977
 20
8.2427257744
 30
0.0
 10
13.6196196788
 20
8.2725774182
 30
0.0
 10
13.6148326381
 20
8.3036455817
 30
0.0
 10
13.6104678305
 20
8.3358708008
 30
0.0
 10
13.6065337243
 20
8.3691915276
 30
0.0
 10
13.6030379353
 20
8.4035440322
 30
0.0
 10
13.5999872353
 20
8.4388625972
 30
0.0
 10
13.5973875364
 20
8.4750796361
 30
0.0
 10
13.5952438803
 20
8.5121258309
 30
0.0
 10
13.5935604309
 20
8.549930263
 30
0.0
 10
13.5923404608
 20
8.5884205487
 30
0.0
 10
13.5915863419
 20
8.6275229807
 30
0.0
 10
13.5912995517
 20
8.6671626733
 30
0.0
 10
13.5914806686
 20
8.7072637095
 30
0.0
 10
13.5921293716
 20
8.7477492856
 30
0.0
 10
13.5932444426
 20
8.7885418568
 30
0.0
 10
13.594823758
 20
8.8295632865
 30
0.0
 10
13.5968643
 20
8.8707349982
 30
0.0
 10
13.5993621659
 20
8.9119781277
 30
0.0
 10
13.6023125747
 20
8.953213674
 30
0.0
 10
13.6057098771
 20
8.9943626494
 30
0.0
 10
13.6095475647
 20
9.0353462322
 30
0.0
 10
13.6138182731
 20
9.07608592
 30
0.0
 10
13.6185138077
 20
9.1165036803
 30
0.0
 10
13.6236251578
 20
9.1565220996
 30
0.0
 10
13.6291425134
 20
9.1960645307
 30
0.0
 10
13.635055286
 20
9.2350552403
 30
0.0
 10
13.6413521208
 20
9.273419559
 30
0.0
 10
13.6480209181
 20
9.3110840265
 30
0.0
 10
13.6550488643
 20
9.3479765311
 30
0.0
 10
13.6624224536
 20
9.3840264463
 30
0.0
 10
13.6701275138
 20
9.4191647677
 30
0.0
 10
13.6781492356
 20
9.4533242499
 30
0.0
 10
13.6864721879
 20
9.4864395484
 30
0.0
 10
13.6950803586
 20
9.518447331
 30
0.0
 10
13.7039571837
 20
9.5492864568
 30
0.0
 10
13.7130855877
 20
9.5788978913
 30
0.0
 10
13.7209654136
 20
9.6027397568
 30
0.0
 10
13.7273900199
 20
9.621150272
 30
0.0
 10
13.7322114444
 20
9.6344762463
 30
0.0
 10
13.737082463
 20
9.6474542875
 30
0.0
 10
13.7420007707
 20
9.6600781977
 30
0.0
 10
13.7469639607
 20
9.6723419502
 30
0.0
 10
13.7519697225
 20
9.6842396704
 30
0.0
 10
13.7570155879
 20
9.6957656928
 30
0.0
 10
13.7620991907
 20
9.7069145038
 30
0.0
 10
13.7672180823
 20
9.7176807883
 30
0.0
 10
13.7723697892
 20
9.7280594227
 30
0.0
 10
13.7775519104
 20
9.7380454413
 30
0.0
 10
13.782761892
 20
9.7476341186
 30
0.0
 10
13.7879973227
 20
9.7568208717
 30
0.0
 10
13.7932556733
 20
9.7656013587
 30
0.0
 10
13.7985344545
 20
9.7739714205
 30
0.0
 10
13.8038312069
 20
9.7819270614
 30
0.0
 10
13.8091433325
 20
9.7894645486
 30
0.0
 10
13.8144684391
 20
9.7965803006
 30
0.0
 10
13.8198040374
 20
9.8032710492
 30
0.0
 10
13.8251477724
 20
9.8095336733
 30
0.0
 10
13.8304969015
 20
9.8153649315
 30
0.0
 10
13.8341372641
 20
9.8190360353
 30
0.0
 10
13.8359583926
 20
9.8207951105
 30
0.0
  0
SPLINE
  5
31B
100
AcDbEntity
  8
0
100
AcDbSpline
 62
7
  6
CONTINUOUS
 70
0
 71
3
 72
15
 73
11
 74
0
 42
0.0000001
 43
0.0000001
 44
0.0000000001
 40
0.0
 40
0.0
 40
0.0
 40
0.0
 40
0.1084409212
 40
0.2203195529
 40
0.336391487
 40
0.4573222829
 40
0.583691468
 40
0.7159969023
 40
0.8546558342
 40
1.0
 40
1.0
 40
1.0
 40
1.0
 10
13.8848756864
 20
9.8496028717
 30
0.0
 10
13.8828386732
 20
9.8491870787
 30
0.0
 10
13.8787381776
 20
9.8481444485
 30
0.0
 10
13.8726467889
 20
9.8460032653
 30
0.0
 10
13.8665356773
 20
9.8432664805
 30
0.0
 10
13.8604091174
 20
9.8399371215
 30
0.0
 10
13.8542703122
 20
9.8360178627
 30
0.0
 10
13.8481224803
 20
9.8315116716
 30
0.0
 10
13.8419693663
 20
9.8264218873
 30
0.0
 10
13.8379626099
 20
9.8227310359
 30
0.0
 10
13.8359583926
 20
9.8207951105
 30
0.0
  0
SPLINE
  5
31C
100
AcDbEntity
  8
0
100
AcDbSpline
 62
7
  6
CONTINUOUS
 70
0
 71
3
 72
43
 73
39
 74
0
 42
0.0000001
 43
0.0000001
 44
0.0000000001
 40
0.0
 40
0.0
 40
0.0
 40
0.0
 40
0.0149723098
 40
0.0299476795
 40
0.0449291474
 40
0.05991972
 40
0.0749223413
 40
0.0899398895
 40
0.1049751458
 40
0.1200307886
 40
0.1502075383
 40
0.1804946787
 40
0.2109083087
 40
0.2414615673
 40
0.2721643694
 40
0.303023226
 40
0.3340411482
 40
0.3652176339
 40
0.3965487319
 40
0.4280271774
 40
0.4596425917
 40
0.4913817403
 40
0.5232288393
 40
0.555165905
 40
0.5871731364
 40
0.6192293252
 40
0.6513122868
 40
0.6833993039
 40
0.7154675788
 40
0.7474946857
 40
0.7794590188
 40
0.8113402295
 40
0.8431196416
 40
0.8747806564
 40
0.906309065
 40
0.9376935582
 40
0.9689254026
 40
1.0
 40
1.0
 40
1.0
 40
1.0
 10
13.2056919547
 20
6.0837790987
 30
0.0
 10
13.2028382602
 20
6.0810226406
 30
0.0
 10
13.1970200522
 20
6.0756219823
 30
0.0
 10
13.1879766925
 20
6.0678734089
 30
0.0
 10
13.1786288837
 20
6.0604868633
 30
0.0
 10
13.1689895901
 20
6.0534727848
 30
0.0
 10
13.1590720632
 20
6.0468407097
 30
0.0
 10
13.1488900141
 20
6.0405998072
 30
0.0
 10
13.1384572097
 20
6.0347586153
 30
0.0
 10
13.1242229355
 20
6.0275093063
 30
0.0
 10
13.1058657718
 20
6.0194844666
 30
0.0
 10
13.0830931376
 20
6.0115794839
 30
0.0
 10
13.0596806602
 20
6.005432943
 30
0.0
 10
13.0357581872
 20
6.0010788619
 30
0.0
 10
13.0114571997
 20
5.998540765
 30
0.0
 10
12.9869114833
 20
5.9978323306
 30
0.0
 10
12.962256016
 20
5.9989571286
 30
0.0
 10
12.9376263314
 20
6.0019086726
 30
0.0
 10
12.9131577534
 20
6.0066704548
 30
0.0
 10
12.8889846699
 20
6.013216052
 30
0.0
 10
12.8652398013
 20
6.0215092757
 30
0.0
 10
12.8420534805
 20
6.0315043721
 30
0.0
 10
12.8195529497
 20
6.0431462851
 30
0.0
 10
12.797861671
 20
6.0563709588
 30
0.0
 10
12.7770986593
 20
6.0711056889
 30
0.0
 10
12.757377837
 20
6.0872695198
 30
0.0
 10
12.7388074173
 20
6.1047736856
 30
0.0
 10
12.7214893167
 20
6.1235220932
 30
0.0
 10
12.7055186024
 20
6.1434118441
 30
0.0
 10
12.6909829745
 20
6.1643337934
 30
0.0
 10
12.6779622822
 20
6.1861731367
 30
0.0
 10
12.6665280971
 20
6.2088100435
 30
0.0
 10
12.6567433151
 20
6.2321202904
 30
0.0
 10
12.648661835
 20
6.2559759868
 30
0.0
 10
12.6423281967
 20
6.2802460793
 30
0.0
 10
12.6377774905
 20
6.3047977547
 30
0.0
 10
12.6350348555
 20
6.3294944465
 30
0.0
 10
12.6344205754
 20
6.3460116183
 30
0.0
 10
12.6344205754
 20
6.354246201
 30
0.0
  0
SPLINE
  5
31D
100
AcDbEntity
  8
0
100
AcDbSpline
 62
7
  6
CONTINUOUS
 70
0
 71
3
 72
23
 73
19
 74
0
 42
0.0000001
 43
0.0000001
 44
0.0000000001
 40
0.0
 40
0.0
 40
0.0
 40
0.0
 40
0.0637764154
 40
0.1273451281
 40
0.190701988
 40
0.253856063
 40
0.3168132283
 40
0.3795820791
 40
0.4421733864
 40
0.5045993414
 40
0.5668738629
 40
0.629012379
 40
0.6910316532
 40
0.7529496461
 40
0.8147853522
 40
0.8765586034
 40
0.9382898574
 40
1.0
 40
1.0
 40
1.0
 40
1.0
 10
12.6344205754
 20
6.354246201
 30
0.0
 10
12.6344205754
 20
6.3595536341
 30
0.0
 10
12.6346746389
 20
6.3701530131
 30
0.0
 10
12.635821202
 20
6.3859875775
 30
0.0
 10
12.6377303032
 20
6.4016966672
 30
0.0
 10
12.6403973434
 20
6.417243296
 30
0.0
 10
12.6438163524
 20
6.4325919951
 30
0.0
 10
12.6479794207
 20
6.4477072822
 30
0.0
 10
12.6528769721
 20
6.4625543238
 30
0.0
 10
12.6584978201
 20
6.4770988672
 30
0.0
 10
12.6648289844
 20
6.4913073791
 30
0.0
 10
12.671855875
 20
6.5051471007
 30
0.0
 10
12.679562347
 20
6.5185860876
 30
0.0
 10
12.6879306698
 20
6.5315933304
 30
0.0
 10
12.6969414856
 20
6.5441388225
 30
0.0
 10
12.7065741333
 20
6.5561937207
 30
0.0
 10
12.7168060633
 20
6.5677298015
 30
0.0
 10
12.7240124875
 20
6.5750582611
 30
0.0
 10
12.727706204
 20
6.5786261183
 30
0.0
  0
SPLINE
  5
31E
100
AcDbEntity
  8
0
100
AcDbSpline
 62
7
  6
CONTINUOUS
 70
0
 71
3
 72
106
 73
102
 74
0
 42
0.0000001
 43
0.0000001
 44
0.0000000001
 40
0.0
 40
0.0
 40
0.0
 40
0.0
 40
0.0013572614
 40
0.0027170801
 40
0.0040819972
 40
0.0054545222
 40
0.0068371197
 40
0.0082321976
 40
0.0110684626
 40
0.0139816382
 40
0.0169879175
 40
0.0201018457
 40
0.0233363321
 40
0.0267026476
 40
0.0302105675
 40
0.0338684402
 40
0.037683369
 40
0.0416612997
 40
0.0458071843
 40
0.0501250681
 40
0.0546182117
 40
0.0592891763
 40
0.0641398973
 40
0.0691717727
 40
0.0743856914
 40
0.079782128
 40
0.0853611333
 40
0.0911224352
 40
0.0970654022
 40
0.1031891457
 40
0.1094924693
 40
0.1159739645
 40
0.1226319594
 40
0.1294645988
 40
0.1364698038
 40
0.1436453299
 40
0.1509887441
 40
0.1584974579
 40
0.1661687265
 40
0.1739996546
 40
0.1819872188
 40
0.1901282493
 40
0.1984194707
 40
0.2154385539
 40
0.2330160976
 40
0.2511218856
 40
0.2697242008
 40
0.2887899589
 40
0.3082848336
 40
0.3281733744
 40
0.3484191186
 40
0.3689846999
 40
0.3898319534
 40
0.4109220189
 40
0.432215442
 40
0.4536722745
 40
0.4752521738
 40
0.4969145015
 40
0.5186184218
 40
0.5403229993
 40
0.5619872972
 40
0.5835704748
 40
0.6050318861
 40
0.6263311775
 40
0.6474283868
 40
0.6682840422
 40
0.6888592629
 40
0.7091158602
 40
0.7290164402
 40
0.7485245095
 40
0.7676045831
 40
0.7862222967
 40
0.8043445243
 40
0.8219395028
 40
0.8389769656
 40
0.8472777114
 40
0.855428486
 40
0.8634259994
 40
0.8712670756
 40
0.8789486853
 40
0.8864679163
 40
0.8938220274
 40
0.9010084015
 40
0.9080246176
 40
0.9148683932
 40
0.9215376665
 40
0.9280305379
 40
0.9343453534
 40
0.9404806572
 40
0.9464352674
 40
0.9522082492
 40
0.9577989756
 40
0.9632071305
 40
0.9684327588
 40
0.9734763047
 40
0.9783386256
 40
0.9830210644
 40
0.9875255238
 40
0.9918546226
 40
0.9960115463
 40
1.0
 40
1.0
 40
1.0
 40
1.0
 10
13.9904155934
 20
10.2394995621
 30
0.0
 10
13.9916642686
 20
10.2394129626
 30
0.0
 10
13.9941604418
 20
10.2391834543
 30
0.0
 10
13.9978910466
 20
10.2386710222
 30
0.0
 10
14.0016090356
 20
10.2379903771
 30
0.0
 10
14.0053137922
 20
10.2371416675
 30
0.0
 10
14.0090049131
 20
10.2361249852
 30
0.0
 10
14.0139340157
 20
10.2345371776
 30
0.0
 10
14.0200722836
 20
10.2321204177
 30
0.0
 10
14.0273314315
 20
10.2285663145
 30
0.0
 10
14.0345218523
 20
10.2243446722
 30
0.0
 10
14.0416398979
 20
10.2194587179
 30
0.0
 10
14.0486824208
 20
10.2139113908
 30
0.0
 10
14.0556464561
 20
10.2077060637
 30
0.0
 10
14.0625288981
 20
10.2008460131
 30
0.0
 10
14.0693268451
 20
10.1933349116
 30
0.0
 10
14.0760371895
 20
10.1851764956
 30
0.0
 10
14.0826569661
 20
10.176374885
 30
0.0
 10
14.0891830638
 20
10.1669343931
 30
0.0
 10
14.0956124524
 20
10.1568596896
 30
0.0
 10
14.1019420538
 20
10.1461557234
 30
0.0
 10
14.1081688083
 20
10.1348277673
 30
0.0
 10
14.1142897086
 20
10.1228814212
 30
0.0
 10
14.1203017057
 20
10.1103225809
 30
0.0
 10
14.1262018891
 20
10.0971574901
 30
0.0
 10
14.1319872568
 20
10.0833926696
 30
0.0
 10
14.1376550094
 20
10.0690349896
 30
0.0
 10
14.1432022232
 20
10.054091588
 30
0.0
 10
14.1486262141
 20
10.0385699415
 30
0.0
 10
14.1539241648
 20
10.0224777915
 30
0.0
 10
14.1590935055
 20
10.0058232012
 30
0.0
 10
14.1641315492
 20
9.9886144983
 30
0.0
 10
14.1690358375
 20
9.9708603129
 30
0.0
 10
14.1738038327
 20
9.9525695394
 30
0.0
 10
14.1784331867
 20
9.9337513562
 30
0.0
 10
14.1829215239
 20
9.914415203
 30
0.0
 10
14.1872666089
 20
9.8945707874
 30
0.0
 10
14.1914662363
 20
9.8742280725
 30
0.0
 10
14.1955182875
 20
9.8533972762
 30
0.0
 10
14.1994207325
 20
9.8320888608
 30
0.0
 10
14.2031715727
 20
9.810313538
 30
0.0
 10
14.2067689698
 20
9.7880822312
 30
0.0
 10
14.2113986105
 20
9.7575821697
 30
0.0
 10
14.2167761041
 20
9.7183955626
 30
0.0
 10
14.2225347382
 20
9.670133147
 30
0.0
 10
14.227641972
 20
9.6203295984
 30
0.0
 10
14.2320874307
 20
9.5690850846
 30
0.0
 10
14.2358620561
 20
9.5165025254
 30
0.0
 10
14.2389581606
 20
9.4626876062
 30
0.0
 10
14.241369431
 20
9.4077484964
 30
0.0
 10
14.2430909439
 20
9.3517956464
 30
0.0
 10
14.2441191728
 20
9.2949415569
 30
0.0
 10
14.2444519955
 20
9.2373005518
 30
0.0
 10
14.2440886969
 20
9.1789885457
 30
0.0
 10
14.2430299704
 20
9.1201228093
 30
0.0
 10
14.2412779157
 20
9.0608217319
 30
0.0
 10
14.2388360341
 20
9.0012045817
 30
0.0
 10
14.2357092212
 20
8.9413912654
 30
0.0
 10
14.2319037564
 20
8.8815020854
 30
0.0
 10
14.2274272906
 20
8.821657497
 30
0.0
 10
14.2222888304
 20
8.7619778657
 30
0.0
 10
14.2164987199
 20
8.7025832236
 30
0.0
 10
14.2100686202
 20
8.6435930274
 30
0.0
 10
14.2030114859
 20
8.5851259169
 30
0.0
 10
14.1953415392
 20
8.5272994754
 30
0.0
 10
14.1870742418
 20
8.4702299918
 30
0.0
 10
14.1782262638
 20
8.4140322256
 30
0.0
 10
14.1688154508
 20
8.3588191736
 30
0.0
 10
14.1588607882
 20
8.3047018409
 30
0.0
 10
14.148382364
 20
8.2517890163
 30
0.0
 10
14.1374013284
 20
8.2001870449
 30
0.0
 10
14.1259398518
 20
8.1499996282
 30
0.0
 10
14.1140210825
 20
8.1013275464
 30
0.0
 10
14.1016690918
 20
8.0542686784
 30
0.0
 10
14.0909447926
 20
8.0161529891
 30
0.0
 10
14.082157675
 20
7.986545268
 30
0.0
 10
14.0755318202
 20
7.9649933633
 30
0.0
 10
14.0688167114
 20
7.9439135709
 30
0.0
 10
14.062015677
 20
7.9233164725
 30
0.0
 10
14.0551321911
 20
7.9032124138
 30
0.0
 10
14.0481696646
 20
7.8836114997
 30
0.0
 10
14.0411316675
 20
7.864523564
 30
0.0
 10
14.0340216717
 20
7.8459582013
 30
0.0
 10
14.0268433339
 20
7.827924716
 30
0.0
 10
14.0196001862
 20
7.8104321708
 30
0.0
 10
14.0122959544
 20
7.7934893215
 30
0.0
 10
14.004934233
 20
7.7771046778
 30
0.0
 10
13.9975187966
 20
7.7612864301
 30
0.0
 10
13.9900533046
 20
7.746042513
 30
0.0
 10
13.9825415585
 20
7.7313805357
 30
0.0
 10
13.9749872806
 20
7.7173078372
 30
0.0
 10
13.967394282
 20
7.703831434
 30
0.0
 10
13.9597663449
 20
7.6909580457
 30
0.0
 10
13.9521072607
 20
7.6786940778
 30
0.0
 10
13.944420848
 20
7.6670456138
 30
0.0
 10
13.9367108854
 20
7.6560184686
 30
0.0
 10
13.9289812418
 20
7.6456180681
 30
0.0
 10
13.9212355914
 20
7.6358495584
 30
0.0
 10
13.9134776258
 20
7.6267176145
 30
0.0
 10
13.9057113385
 20
7.6182271688
 30
0.0
 10
13.9004231954
 20
7.6128886126
 30
0.0
 10
13.8977776506
 20
7.6103332124
 30
0.0
  0
SPLINE
  5
31F
100
AcDbEntity
  8
0
100
AcDbSpline
 62
7
  6
CONTINUOUS
 70
0
 71
3
 72
101
 73
97
 74
0
 42
0.0000001
 43
0.0000001
 44
0.0000000001
 40
0.0
 40
0.0
 40
0.0
 40
0.0
 40
0.0039020765
 40
0.0079636664
 40
0.0121881897
 40
0.0165785956
 40
0.0211373523
 40
0.0258663076
 40
0.0307667646
 40
0.0358396074
 40
0.0410853169
 40
0.0465040492
 40
0.052095594
 40
0.0578594853
 40
0.0637949539
 40
0.0699010138
 40
0.0761764323
 40
0.0826197745
 40
0.0892294146
 40
0.0960035295
 40
0.102940151
 40
0.1100371195
 40
0.1172921605
 40
0.1247028223
 40
0.1322665507
 40
0.1399806399
 40
0.1478422789
 40
0.1558485364
 40
0.1722824666
 40
0.1892570691
 40
0.2067452731
 40
0.2247186184
 40
0.2431473755
 40
0.2620006562
 40
0.2812465184
 40
0.3008520639
 40
0.3207835336
 40
0.3410064002
 40
0.3614854578
 40
0.3821849099
 40
0.4030684562
 40
0.4240993783
 40
0.4452406247
 40
0.4664548958
 40
0.4877047278
 40
0.5089525773
 40
0.5301609052
 40
0.5512922612
 40
0.572309368
 40
0.5931752053
 40
0.6138530948
 40
0.6343067852
 40
0.6545005381
 40
0.6743992149
 40
0.693968365
 40
0.7131743162
 40
0.7319842671
 40
0.750366382
 40
0.7682898901
 40
0.7857251904
 40
0.8026439633
 40
0.819019292
 40
0.82699526
 40
0.8348259862
 40
0.8425085534
 40
0.8500401844
 40
0.8574181927
 40
0.8646400557
 40
0.8717033511
 40
0.8786058315
 40
0.8853453774
 40
0.8919200458
 40
0.8983280624
 40
0.9045678294
 40
0.9106379664
 40
0.9165372773
 40
0.922264833
 40
0.927819916
 40
0.9332021205
 40
0.9384113078
 40
0.9434476935
 40
0.9483118446
 40
0.953004735
 40
0.957527801
 40
0.961882963
 40
0.9660727396
 40
0.9701002525
 40
0.9739693806
 40
0.9776847793
 40
0.9812520442
 40
0.9846777729
 40
0.9879697077
 40
0.9911368398
 40
0.9941895034
 40
0.997139479
 40
1.0
 40
1.0
 40
1.0
 40
1.0
 10
13.8359583926
 20
7.6146203925
 30
0.0
 10
13.8385171249
 20
7.6170919384
 30
0.0
 10
13.8436319478
 20
7.6222480757
 30
0.0
 10
13.8511488902
 20
7.6304347301
 30
0.0
 10
13.8586583173
 20
7.639222617
 30
0.0
 10
13.8661565562
 20
7.6486072714
 30
0.0
 10
13.8736402801
 20
7.6585844608
 30
0.0
 10
13.8811061246
 20
7.6691495916
 30
0.0
 10
13.8885506532
 20
7.6802977647
 30
0.0
 10
13.8959703456
 20
7.6920238004
 30
0.0
 10
13.9033618252
 20
7.7043222039
 30
0.0
 10
13.9107215613
 20
7.7171872805
 30
0.0
 10
13.9180462068
 20
7.7306129887
 30
0.0
 10
13.9253322336
 20
7.7445930831
 30
0.0
 10
13.9325763012
 20
7.7591209921
 30
0.0
 10
13.9397749454
 20
7.7741899283
 30
0.0
 10
13.9469248155
 20
7.7897928152
 30
0.0
 10
13.9540225369
 20
7.8059223351
 30
0.0
 10
13.9610647483
 20
7.8225709184
 30
0.0
 10
13.9680481734
 20
7.8397307365
 30
0.0
 10
13.9749694594
 20
7.8573937375
 30
0.0
 10
13.9818254165
 20
7.8755516044
 30
0.0
 10
13.9886127338
 20
7.8941958123
 30
0.0
 10
13.9953282841
 20
7.9133175789
 30
0.0
 10
14.0019688384
 20
7.9329079183
 30
0.0
 10
14.0085313052
 20
7.9529576013
 30
0.0
 10
14.0150125833
 20
7.9734572093
 30
0.0
 10
14.0236166741
 20
8.0016218663
 30
0.0
 10
14.0341350491
 20
8.0378869627
 30
0.0
 10
14.0462783327
 20
8.0826740469
 30
0.0
 10
14.0580269101
 20
8.1290154708
 30
0.0
 10
14.0693585576
 20
8.1768239402
 30
0.0
 10
14.0802518398
 20
8.2260095372
 30
0.0
 10
14.0906861566
 20
8.2764796781
 30
0.0
 10
14.1006417797
 20
8.3281393525
 30
0.0
 10
14.1100998911
 20
8.3808912881
 30
0.0
 10
14.1190426182
 20
8.4346361421
 30
0.0
 10
14.1274530662
 20
8.4892726902
 30
0.0
 10
14.1353153491
 20
8.5446980199
 30
0.0
 10
14.1426146199
 20
8.6008077263
 30
0.0
 10
14.1493370979
 20
8.6574961095
 30
0.0
 10
14.1554700945
 20
8.7146563748
 30
0.0
 10
14.1610020366
 20
8.7721808352
 30
0.0
 10
14.1659224889
 20
8.8299611144
 30
0.0
 10
14.1702221725
 20
8.8878883519
 30
0.0
 10
14.1738929843
 20
8.9458534091
 30
0.0
 10
14.176928012
 20
9.0037470761
 30
0.0
 10
14.179321546
 20
9.0614602778
 30
0.0
 10
14.1810690905
 20
9.1188842812
 30
0.0
 10
14.182167372
 20
9.1759108998
 30
0.0
 10
14.1826143461
 20
9.2324326988
 30
0.0
 10
14.1824092011
 20
9.288343198
 30
0.0
 10
14.1815523605
 20
9.3435370737
 30
0.0
 10
14.1800454825
 20
9.397910358
 30
0.0
 10
14.1778914572
 20
9.4513606366
 30
0.0
 10
14.1750944037
 20
9.503787245
 30
0.0
 10
14.1716596618
 20
9.5550914596
 30
0.0
 10
14.1675937831
 20
9.6051766899
 30
0.0
 10
14.1629045162
 20
9.6539486479
 30
0.0
 10
14.1576008045
 20
9.70131559
 30
0.0
 10
14.1516927283
 20
9.7471882784
 30
0.0
 10
14.1462284257
 20
9.7844171663
 30
0.0
 10
14.1415529536
 20
9.8133826156
 30
0.0
 10
14.1379331875
 20
9.8344897357
 30
0.0
 10
14.1341712516
 20
9.8551603643
 30
0.0
 10
14.1302689661
 20
9.8753847881
 30
0.0
 10
14.1262281071
 20
9.8951534849
 30
0.0
 10
14.1220506583
 20
9.914457155
 30
0.0
 10
14.1177385221
 20
9.9332867164
 30
0.0
 10
14.1132937942
 20
9.9516333154
 30
0.0
 10
14.108718533
 20
9.9694883255
 30
0.0
 10
14.1040149156
 20
9.9868433555
 30
0.0
 10
14.0991851704
 20
10.0036902544
 30
0.0
 10
14.0942315401
 20
10.0200211074
 30
0.0
 10
14.0891564195
 20
10.0358282595
 30
0.0
 10
14.083962119
 20
10.0511042863
 30
0.0
 10
14.0786511744
 20
10.065842046
 30
0.0
 10
14.0732259853
 20
10.0800346228
 30
0.0
 10
14.067689184
 20
10.0936753994
 30
0.0
 10
14.0620432894
 20
10.1067579913
 30
0.0
 10
14.0562909814
 20
10.1192763104
 30
0.0
 10
14.050434917
 20
10.1312245282
 30
0.0
 10
14.0444777865
 20
10.1425970868
 30
0.0
 10
14.0384223791
 20
10.1533887352
 30
0.0
 10
14.0322713757
 20
10.1635944451
 30
0.0
 10
14.0260276602
 20
10.1732095509
 30
0.0
 10
14.0196939041
 20
10.1822295543
 30
0.0
 10
14.0132730169
 20
10.1906503535
 30
0.0
 10
14.0067676775
 20
10.198467979
 30
0.0
 10
14.0001807401
 20
10.205678827
 30
0.0
 10
13.9935149156
 20
10.2122794324
 30
0.0
 10
13.9867729522
 20
10.2182665802
 30
0.0
 10
13.9799576723
 20
10.2236372271
 30
0.0
 10
13.9730716428
 20
10.2283884676
 30
0.0
 10
13.966118413
 20
10.2325173687
 30
0.0
 10
13.9613736353
 20
10.2348862906
 30
0.0
 10
13.9589966715
 20
10.2359592333
 30
0.0
  0
SPLINE
  5
320
100
AcDbEntity
  8
0
100
AcDbSpline
 62
7
  6
CONTINUOUS
 70
0
 71
3
 72
15
 73
11
 74
0
 42
0.0000001
 43
0.0000001
 44
0.0000000001
 40
0.0
 40
0.0
 40
0.0
 40
0.0
 40
0.1432147794
 40
0.2805952906
 40
0.4123866275
 40
0.5388915559
 40
0.6604668112
 40
0.7775222193
 40
0.8905241636
 40
1.0
 40
1.0
 40
1.0
 40
1.0
 10
13.8359583926
 20
7.6146203925
 30
0.0
 10
13.8334434243
 20
7.6121911195
 30
0.0
 10
13.8284151958
 20
7.6075341723
 30
0.0
 10
13.8207148301
 20
7.6010413733
 30
0.0
 10
13.8130199813
 20
7.595193035
 30
0.0
 10
13.8053344341
 20
7.5899924606
 30
0.0
 10
13.7976614652
 20
7.5854424884
 30
0.0
 10
13.7900042566
 20
7.5815456758
 30
0.0
 10
13.7823669026
 20
7.5783048293
 30
0.0
 10
13.7772168356
 20
7.576558186
 30
0.0
 10
13.774653287
 20
7.575801526
 30
0.0
  0
SPLINE
  5
321
100
AcDbEntity
  8
0
100
AcDbSpline
 62
7
  6
CONTINUOUS
 70
0
 71
3
 72
23
 73
19
 74
0
 42
0.0000001
 43
0.0000001
 44
0.0000000001
 40
0.0
 40
0.0
 40
0.0
 40
0.0
 40
0.0781375591
 40
0.1532324207
 40
0.225404499
 40
0.2947995775
 40
0.3615914594
 40
0.4259789479
 40
0.4881876203
 40
0.5484707417
 40
0.6071106996
 40
0.6644176572
 40
0.7207259502
 40
0.7763899655
 40
0.8317774216
 40
0.8872621346
 40
0.943215743
 40
1.0
 40
1.0
 40
1.0
 40
1.0
 10
13.8359583926
 20
7.9951951906
 30
0.0
 10
13.8342609062
 20
7.9935555446
 30
0.0
 10
13.8308669573
 20
7.9904064557
 30
0.0
 10
13.8256741679
 20
7.9860000022
 30
0.0
 10
13.8204848272
 20
7.9820086056
 30
0.0
 10
13.8153012877
 20
7.9784344509
 30
0.0
 10
13.810125668
 20
7.9752791856
 30
0.0
 10
13.8049599433
 20
7.9725445185
 30
0.0
 10
13.7998062843
 20
7.9702318952
 30
0.0
 10
13.7946668578
 20
7.9683428861
 30
0.0
 10
13.7895439924
 20
7.9668788963
 30
0.0
 10
13.7844401819
 20
7.9658410377
 30
0.0
 10
13.7793580457
 20
7.9652304612
 30
0.0
 10
13.7743004278
 20
7.9650477209
 30
0.0
 10
13.7692702983
 20
7.965293219
 30
0.0
 10
13.7642705696
 20
7.9659669032
 30
0.0
 10
13.7593045518
 20
7.967068
 30
0.0
 10
13.7560478761
 20
7.968077336
 30
0.0
 10
13.7544308541
 20
7.9686490346
 30
0.0
  0
SPLINE
  5
322
100
AcDbEntity
  8
0
100
AcDbSpline
 62
7
  6
CONTINUOUS
 70
0
 71
3
 72
23
 73
19
 74
0
 42
0.0000001
 43
0.0000001
 44
0.0000000001
 40
0.0
 40
0.0
 40
0.0
 40
0.0
 40
0.0764222838
 40
0.1504661461
 40
0.2222018012
 40
0.2917109382
 40
0.3590900495
 40
0.4244475032
 40
0.4879038951
 40
0.5495927372
 40
0.6096609962
 40
0.6682702169
 40
0.7255962326
 40
0.7818281432
 40
0.8371677418
 40
0.8918276491
 40
0.9460291917
 40
1.0
 40
1.0
 40
1.0
 40
1.0
 10
13.8977776506
 20
7.6103332124
 30
0.0
 10
13.8958546659
 20
7.6084757518
 30
0.0
 10
13.8920094552
 20
7.6048791089
 30
0.0
 10
13.8861500107
 20
7.5997683158
 30
0.0
 10
13.8802932178
 20
7.5950298885
 30
0.0
 10
13.8744408272
 20
7.5906655021
 30
0.0
 10
13.8685944704
 20
7.5866763843
 30
0.0
 10
13.8627556324
 20
7.5830637287
 30
0.0
 10
13.8569258286
 20
7.5798286613
 30
0.0
 10
13.851106664
 20
7.5769721778
 30
0.0
 10
13.8452996989
 20
7.5744953571
 30
0.0
 10
13.8395065653
 20
7.5723991218
 30
0.0
 10
13.8337289443
 20
7.5706842356
 30
0.0
 10
13.8279685077
 20
7.5693515345
 30
0.0
 10
13.8222270748
 20
7.5684015959
 30
0.0
 10
13.8165063926
 20
7.5678348837
 30
0.0
 10
13.8108086932
 20
7.5676518215
 30
0.0
 10
13.8070233141
 20
7.5677857447
 30
0.0
 10
13.8051397077
 20
7.5679163788
 30
0.0
  0
SPLINE
  5
323
100
AcDbEntity
  8
0
100
AcDbSpline
 62
7
  6
CONTINUOUS
 70
0
 71
3
 72
100
 73
96
 74
0
 42
0.0000001
 43
0.0000001
 44
0.0000000001
 40
0.0
 40
0.0
 40
0.0
 40
0.0
 40
0.0040523119
 40
0.0082800044
 40
0.0126869653
 40
0.0172764822
 40
0.0220512783
 40
0.0270133742
 40
0.0321641017
 40
0.0375043177
 40
0.043034381
 40
0.0487542869
 40
0.0546636083
 40
0.0607615923
 40
0.0670471777
 40
0.0735189941
 40
0.0801754499
 40
0.0870146586
 40
0.0940345591
 40
0.1012328393
 40
0.1086070148
 40
0.1161544138
 40
0.1238721741
 40
0.1317573046
 40
0.1480165877
 40
0.1649054723
 40
0.1823947994
 40
0.2004534976
 40
0.2190487565
 40
0.2381461854
 40
0.2577099618
 40
0.2777029665
 40
0.2980869127
 40
0.3188224682
 40
0.3398693744
 40
0.361186562
 40
0.3827322639
 40
0.4044641304
 40
0.4263393398
 40
0.4483147091
 40
0.4703468031
 40
0.4923920441
 40
0.5144068208
 40
0.5363475983
 40
0.5581710281
 40
0.5798340578
 40
0.6012940405
 40
0.6225088455
 40
0.6434369695
 40
0.6640376497
 40
0.68427098
 40
0.7040980293
 40
0.7234809602
 40
0.7423831541
 40
0.7607693418
 40
0.7786057428
 40
0.7958602148
 40
0.812502421
 40
0.8285040161
 40
0.836256457
 40
0.8438391251
 40
0.8512491583
 40
0.8584838191
 40
0.8655406021
 40
0.8724171518
 40
0.879111349
 40
0.8856212871
 40
0.8919452863
 40
0.8980819581
 40
0.9040301471
 40
0.9097890589
 40
0.9153581851
 40
0.9207374238
 40
0.9259270667
 40
0.9309278556
 40
0.9357410701
 40
0.9403685185
 40
0.9448127083
 40
0.9490768278
 40
0.9531649335
 40
0.9570820015
 40
0.9608340748
 40
0.9644284196
 40
0.9678736202
 40
0.9711798009
 40
0.9743586848
 40
0.977423773
 40
0.9803903539
 40
0.9832755055
 40
0.9860979674
 40
0.9888778726
 40
0.9916363884
 40
0.994395213
 40
0.9971760372
 40
1.0
 40
1.0
 40
1.0
 40
1.0
 10
13.8359583926
 20
7.9951951906
 30
0.0
 10
13.8378714489
 20
7.9970430613
 30
0.0
 10
13.8416953395
 20
8.000907605
 30
0.0
 10
13.8473083269
 20
8.007061443
 30
0.0
 10
13.8529150378
 20
8.0136899433
 30
0.0
 10
13.8585123732
 20
8.0207893371
 30
0.0
 10
13.864097586
 20
8.0283560217
 30
0.0
 10
13.8696678372
 20
8.036386134
 30
0.0
 10
13.8752203196
 20
8.0448754899
 30
0.0
 10
13.8807520365
 20
8.0538197015
 30
0.0
 10
13.8862602009
 20
8.0632140587
 30
0.0
 10
13.8917418587
 20
8.0730536965
 30
0.0
 10
13.8971941946
 20
8.0833334521
 30
0.0
 10
13.9026143249
 20
8.0940479533
 30
0.0
 10
13.9079993797
 20
8.105191588
 30
0.0
 10
13.9133465755
 20
8.116758497
 30
0.0
 10
13.9186530213
 20
8.1287426274
 30
0.0
 10
13.9239160006
 20
8.1411376619
 30
0.0
 10
13.9291326624
 20
8.1539371022
 30
0.0
 10
13.934300307
 20
8.1671342028
 30
0.0
 10
13.9394161827
 20
8.1807220259
 30
0.0
 10
13.9444775759
 20
8.1946934159
 30
0.0
 10
13.9494818698
 20
8.2090410227
 30
0.0
 10
13.9561425547
 20
8.2288654387
 30
0.0
 10
13.964295363
 20
8.254536775
 30
0.0
 10
13.9737124117
 20
8.2864133346
 30
0.0
 10
13.9828403607
 20
8.3196003413
 30
0.0
 10
13.991659859
 20
8.3540278396
 30
0.0
 10
14.0001522139
 20
8.3896233878
 30
0.0
 10
14.0082994339
 20
8.4263119993
 30
0.0
 10
14.0160842617
 20
8.4640163714
 30
0.0
 10
14.0234902125
 20
8.5026570376
 30
0.0
 10
14.0305016073
 20
8.5421525433
 30
0.0
 10
14.0371036061
 20
8.5824196185
 30
0.0
 10
14.0432822382
 20
8.6233733552
 30
0.0
 10
14.0490244323
 20
8.6649273874
 30
0.0
 10
14.0543180473
 20
8.7069940747
 30
0.0
 10
14.0591518932
 20
8.7494846903
 30
0.0
 10
14.0635157546
 20
8.7923096102
 30
0.0
 10
14.0674004122
 20
8.8353785027
 30
0.0
 10
14.0707976617
 20
8.8786005198
 30
0.0
 10
14.0737003317
 20
8.9218844879
 30
0.0
 10
14.0761022978
 20
8.9651391021
 30
0.0
 10
14.0779985009
 20
9.0082731191
 30
0.0
 10
14.079384954
 20
9.0511955517
 30
0.0
 10
14.0802587504
 20
9.0938158616
 30
0.0
 10
14.0806180694
 20
9.1360441506
 30
0.0
 10
14.0804621811
 20
9.1777913504
 30
0.0
 10
14.0797914483
 20
9.2189694113
 30
0.0
 10
14.0786073255
 20
9.2594914898
 30
0.0
 10
14.0769123605
 20
9.2992721354
 30
0.0
 10
14.0747101888
 20
9.3382274729
 30
0.0
 10
14.072005524
 20
9.3762753821
 30
0.0
 10
14.0688041484
 20
9.4133356705
 30
0.0
 10
14.0651129033
 20
9.4493302518
 30
0.0
 10
14.0609396718
 20
9.4841832963
 30
0.0
 10
14.0562933727
 20
9.5178214642
 30
0.0
 10
14.0511839089
 20
9.5501738402
 30
0.0
 10
14.0465012142
 20
9.5762739148
 30
0.0
 10
14.042521458
 20
9.5964537947
 30
0.0
 10
14.0394592259
 20
9.6110657506
 30
0.0
 10
14.0362898148
 20
9.6253068768
 30
0.0
 10
14.0330148046
 20
9.6391696863
 30
0.0
 10
14.0296360061
 20
9.6526468824
 30
0.0
 10
14.0261551485
 20
9.6657313725
 30
0.0
 10
14.0225740998
 20
9.6784162767
 30
0.0
 10
14.0188947583
 20
9.6906949303
 30
0.0
 10
14.0151190247
 20
9.7025608777
 30
0.0
 10
14.0112489609
 20
9.7140079026
 30
0.0
 10
14.0072865167
 20
9.7250299881
 30
0.0
 10
14.0032338659
 20
9.7356213792
 30
0.0
 10
13.9990930606
 20
9.7457765224
 30
0.0
 10
13.9948663116
 20
9.7554901242
 30
0.0
 10
13.9905558183
 20
9.7647571235
 30
0.0
 10
13.9861637786
 20
9.7735726861
 30
0.0
 10
13.9816925348
 20
9.7819322661
 30
0.0
 10
13.9771442723
 20
9.7898314949
 30
0.0
 10
13.9725214067
 20
9.7972663395
 30
0.0
 10
13.9678261565
 20
9.8042329218
 30
0.0
 10
13.9630609027
 20
9.8107276801
 30
0.0
 10
13.9582279353
 20
9.8167472503
 30
0.0
 10
13.9533295204
 20
9.8222884702
 30
0.0
 10
13.9483680095
 20
9.827348469
 30
0.0
 10
13.9433455582
 20
9.8319243995
 30
0.0
 10
13.9382645393
 20
9.8360137701
 30
0.0
 10
13.9331271315
 20
9.8396139839
 30
0.0
 10
13.9279357665
 20
9.8427227331
 30
0.0
 10
13.9226929135
 20
9.8453376765
 30
0.0
 10
13.9174013031
 20
9.8474566019
 30
0.0
 10
13.9120640098
 20
9.8490776218
 30
0.0
 10
13.9066843655
 20
9.8501989186
 30
0.0
 10
13.901266145
 20
9.8508195017
 30
0.0
 10
13.895813092
 20
9.8509385671
 30
0.0
 10
13.8903296793
 20
9.8505564246
 30
0.0
 10
13.8866917761
 20
9.84997357
 30
0.0
 10
13.8848756864
 20
9.8496028717
 30
0.0
  0
SPLINE
  5
324
100
AcDbEntity
  8
0
100
AcDbSpline
 62
7
  6
CONTINUOUS
 70
0
 71
3
 72
73
 73
69
 74
0
 42
0.0000001
 43
0.0000001
 44
0.0000000001
 40
0.0
 40
0.0
 40
0.0
 40
0.0
 40
0.004468656
 40
0.009069814
 40
0.0138038478
 40
0.0186709063
 40
0.0236709904
 40
0.0288039292
 40
0.0394664965
 40
0.05065456
 40
0.062361669
 40
0.0745795928
 40
0.0872985571
 40
0.1005073535
 40
0.1141934901
 40
0.1283433469
 40
0.1429422243
 40
0.1579744351
 40
0.1734234206
 40
0.1892717767
 40
0.2055013136
 40
0.2220931517
 40
0.2390277414
 40
0.2562849051
 40
0.2738439205
 40
0.291683541
 40
0.3097820282
 40
0.3281172265
 40
0.3466665858
 40
0.3654071912
 40
0.3843158288
 40
0.4033690118
 40
0.4225430115
 40
0.4611572388
 40
0.4999659745
 40
0.538775022
 40
0.5773901822
 40
0.5965648797
 40
0.6156189133
 40
0.6345285529
 40
0.6532703101
 40
0.6718209691
 40
0.6901576131
 40
0.7082576892
 40
0.7260990394
 40
0.7436599225
 40
0.7609190884
 40
0.7778558116
 40
0.7944499107
 40
0.8106818317
 40
0.8265326909
 40
0.8419842938
 40
0.8570192309
 40
0.871620938
 40
0.8857737222
 40
0.899462877
 40
0.9126747754
 40
0.9253969181
 40
0.9376180875
 40
0.9493285003
 40
0.960519915
 40
0.9711858672
 40
0.9763205083
 40
0.9813222999
 40
0.9861910673
 40
0.9909268045
 40
0.9955296552
 40
1.0
 40
1.0
 40
1.0
 40
1.0
 10
13.6611503863
 20
8.1005346882
 30
0.0
 10
13.6625592995
 20
8.1025869694
 30
0.0
 10
13.6653720682
 20
8.1067847143
 30
0.0
 10
13.6695182675
 20
8.1132614736
 30
0.0
 10
13.6736516703
 20
8.120008109
 30
0.0
 10
13.6777709198
 20
8.1270223112
 30
0.0
 10
13.6818746596
 20
8.1343017939
 30
0.0
 10
13.6873938207
 20
8.1444876921
 30
0.0
 10
13.6942350481
 20
8.1578752998
 30
0.0
 10
13.702260254
 20
8.1747615853
 30
0.0
 10
13.7101913118
 20
8.1926442961
 30
0.0
 10
13.7180176358
 20
8.2114996449
 30
0.0
 10
13.725728751
 20
8.2313027285
 30
0.0
 10
13.7333143519
 20
8.2520272643
 30
0.0
 10
13.7407643101
 20
8.2736457218
 30
0.0
 10
13.7480686245
 20
8.2961293669
 30
0.0
 10
13.7552175168
 20
8.3194482806
 30
0.0
 10
13.762201437
 20
8.3435714052
 30
0.0
 10
13.7690110101
 20
8.3684666113
 30
0.0
 10
13.7756371151
 20
8.3941007216
 30
0.0
 10
13.7820709048
 20
8.4204395553
 30
0.0
 10
13.7883037476
 20
8.4474479952
 30
0.0
 10
13.7943272934
 20
8.4750900212
 30
0.0
 10
13.8001335055
 20
8.5033287539
 30
0.0
 10
13.8057145996
 20
8.5321265224
 30
0.0
 10
13.811063097
 20
8.5614449051
 30
0.0
 10
13.8161718679
 20
8.5912447747
 30
0.0
 10
13.8210340675
 20
8.6214863654
 30
0.0
 10
13.8256431782
 20
8.65212932
 30
0.0
 10
13.8299930628
 20
8.6831327395
 30
0.0
 10
13.8340778922
 20
8.7144552363
 30
0.0
 10
13.8378922077
 20
8.7460550378
 30
0.0
 10
13.8426213242
 20
8.7885996072
 30
0.0
 10
13.8478175225
 20
8.8421628113
 30
0.0
 10
13.8528880305
 20
8.9067169288
 30
0.0
 10
13.856780705
 20
8.9713532849
 30
0.0
 10
13.8590311542
 20
9.0251219488
 30
0.0
 10
13.860222624
 20
9.0679133459
 30
0.0
 10
13.8608087128
 20
9.0997385465
 30
0.0
 10
13.8610886029
 20
9.1313267094
 30
0.0
 10
13.8610619315
 20
9.1626357059
 30
0.0
 10
13.8607287568
 20
9.1936237376
 30
0.0
 10
13.8600895089
 20
9.2242494468
 30
0.0
 10
13.8591450693
 20
9.2544719597
 30
0.0
 10
13.8578967257
 20
9.2842509428
 30
0.0
 10
13.8563461366
 20
9.3135466551
 30
0.0
 10
13.8544954019
 20
9.3423200062
 30
0.0
 10
13.8523470295
 20
9.3705326066
 30
0.0
 10
13.8499038861
 20
9.3981468156
 30
0.0
 10
13.8471692664
 20
9.4251257999
 30
0.0
 10
13.8441468701
 20
9.4514335815
 30
0.0
 10
13.8408407394
 20
9.4770350797
 30
0.0
 10
13.8372553248
 20
9.5018961691
 30
0.0
 10
13.8333954746
 20
9.5259837277
 30
0.0
 10
13.8292663586
 20
9.5492656698
 30
0.0
 10
13.8248735283
 20
9.5717110058
 30
0.0
 10
13.8202229207
 20
9.5932898888
 30
0.0
 10
13.8153207656
 20
9.6139736462
 30
0.0
 10
13.8101736389
 20
9.6337348163
 30
0.0
 10
13.8047884757
 20
9.6525472799
 30
0.0
 10
13.799172476
 20
9.6703860076
 30
0.0
 10
13.7942459288
 20
9.6845951899
 30
0.0
 10
13.7901865747
 20
9.6954498208
 30
0.0
 10
13.7871276251
 20
9.7032294116
 30
0.0
 10
13.7840166843
 20
9.7107484338
 30
0.0
 10
13.7808547824
 20
9.7180044304
 30
0.0
 10
13.7776429453
 20
9.7249949275
 30
0.0
 10
13.7754369813
 20
9.7295430577
 30
0.0
 10
13.77432506
 20
9.7317713329
 30
0.0
  0
SPLINE
  5
325
100
AcDbEntity
  8
0
100
AcDbSpline
 62
7
  6
CONTINUOUS
 70
0
 71
3
 72
54
 73
50
 74
0
 42
0.0000001
 43
0.0000001
 44
0.0000000001
 40
0.0
 40
0.0
 40
0.0
 40
0.0
 40
0.0112171566
 40
0.0228200438
 40
0.0348020836
 40
0.0471560147
 40
0.0598739066
 40
0.0729472822
 40
0.0863670551
 40
0.1001236916
 40
0.1142071087
 40
0.1286068385
 40
0.1433119336
 40
0.158311095
 40
0.1735926198
 40
0.1891444709
 40
0.2049542811
 40
0.2210093622
 40
0.2538028841
 40
0.2874185354
 40
0.3217457107
 40
0.3566706328
 40
0.3920768987
 40
0.4278460141
 40
0.463857921
 40
0.499991521
 40
0.5361251959
 40
0.5721373271
 40
0.607906815
 40
0.6433135996
 40
0.678239184
 40
0.7125671622
 40
0.746183754
 40
0.7789783509
 40
0.8108440765
 40
0.8263965831
 40
0.8416787809
 40
0.8566786549
 40
0.8713844832
 40
0.8857849768
 40
0.8998691854
 40
0.9136266323
 40
0.9270472511
 40
0.9401214805
 40
0.9528402657
 40
0.9651950909
 40
0.9771780633
 40
0.9887818811
 40
1.0
 40
1.0
 40
1.0
 40
1.0
 10
13.6216013145
 20
8.2614925303
 30
0.0
 10
13.6235995641
 20
8.2660711904
 30
0.0
 10
13.6275695305
 20
8.2754277818
 30
0.0
 10
13.6333549706
 20
8.2898079847
 30
0.0
 10
13.6390675111
 20
8.3047605565
 30
0.0
 10
13.6447019552
 20
8.3202720531
 30
0.0
 10
13.6502532887
 20
8.3363286098
 30
0.0
 10
13.6557164574
 20
8.3529158526
 30
0.0
 10
13.6610866153
 20
8.3700189164
 30
0.0
 10
13.6663588576
 20
8.3876224829
 30
0.0
 10
13.6715285131
 20
8.4057107655
 30
0.0
 10
13.676590865
 20
8.4242675515
 30
0.0
 10
13.6815414137
 20
8.4432761954
 30
0.0
 10
13.6863756654
 20
8.462719649
 30
0.0
 10
13.6910892963
 20
8.4825804703
 30
0.0
 10
13.6956780555
 20
8.5028408356
 30
0.0
 10
13.7001378247
 20
8.5234825827
 30
0.0
 10
13.7059477006
 20
8.5516872725
 30
0.0
 10
13.7128493884
 20
8.5877617978
 30
0.0
 10
13.7204988077
 20
8.631971349
 30
0.0
 10
13.7275451539
 20
8.6772419022
 30
0.0
 10
13.7339630346
 20
8.7234109627
 30
0.0
 10
13.7397293158
 20
8.7703129397
 30
0.0
 10
13.744823231
 20
8.8177795478
 30
0.0
 10
13.7492264473
 20
8.8656404719
 30
0.0
 10
13.7529231322
 20
8.9137239686
 30
0.0
 10
13.7559000093
 20
8.961857491
 30
0.0
 10
13.7581464066
 20
9.0098683107
 30
0.0
 10
13.7596542948
 20
9.0575841425
 30
0.0
 10
13.7604183175
 20
9.1048337659
 30
0.0
 10
13.7604358121
 20
9.1514476488
 30
0.0
 10
13.7597068186
 20
9.1972585458
 30
0.0
 10
13.7582340974
 20
9.2421021664
 30
0.0
 10
13.7560230671
 20
9.2858175539
 30
0.0
 10
13.7535526397
 20
9.3214583419
 30
0.0
 10
13.7512034306
 20
9.349284238
 30
0.0
 10
13.7492768552
 20
9.3696065523
 30
0.0
 10
13.7471732356
 20
9.3895321725
 30
0.0
 10
13.7448943864
 20
9.4090432466
 30
0.0
 10
13.7424424354
 20
9.4281222625
 30
0.0
 10
13.7398195337
 20
9.4467521132
 30
0.0
 10
13.7370280999
 20
9.4649160899
 30
0.0
 10
13.7340706168
 20
9.48259791
 30
0.0
 10
13.730949773
 20
9.499781725
 30
0.0
 10
13.7276683852
 20
9.5164521413
 30
0.0
 10
13.7242293945
 20
9.5325942233
 30
0.0
 10
13.7206359393
 20
9.5481935473
 30
0.0
 10
13.7168912215
 20
9.5632360753
 30
0.0
 10
13.7142510774
 20
9.5730520422
 30
0.0
 10
13.7129040981
 20
9.5778631813
 30
0.0
  0
SPLINE
  5
326
100
AcDbEntity
  8
0
100
AcDbSpline
 62
4
  6
CONTINUOUS
 70
0
 71
3
 72
403
 73
399
 74
0
 42
0.0000001
 43
0.0000001
 44
0.0000000001
 40
0.0
 40
0.0
 40
0.0
 40
0.0
 40
0.015625
 40
0.0234375
 40
0.03125
 40
0.0390625
 40
0.04296875
 40
0.046875
 40
0.05078125
 40
0.0546875
 40
0.056640625
 40
0.05859375
 40
0.0595703125
 40
0.060546875
 40
0.0615234375
 40
0.0620117188
 40
0.0622558594
 40
0.0625
 40
0.0627441406
 40
0.0629882812
 40
0.0634765625
 40
0.064453125
 40
0.0654296875
 40
0.06640625
 40
0.068359375
 40
0.0703125
 40
0.07421875
 40
0.078125
 40
0.08203125
 40
0.0859375
 40
0.09375
 40
0.1015625
 40
0.10546875
 40
0.109375
 40
0.11328125
 40
0.1171875
 40
0.119140625
 40
0.12109375
 40
0.1220703125
 40
0.123046875
 40
0.1240234375
 40
0.1245117188
 40
0.1247558594
 40
0.125
 40
0.1252441406
 40
0.1254882812
 40
0.1259765625
 40
0.126953125
 40
0.1279296875
 40
0.12890625
 40
0.130859375
 40
0.1328125
 40
0.13671875
 40
0.140625
 40
0.14453125
 40
0.1484375
 40
0.15625
 40
0.1640625
 40
0.16796875
 40
0.171875
 40
0.17578125
 40
0.1796875
 40
0.181640625
 40
0.18359375
 40
0.1845703125
 40
0.185546875
 40
0.1865234375
 40
0.1870117188
 40
0.1872558594
 40
0.1875
 40
0.1877441406
 40
0.1879882812
 40
0.1884765625
 40
0.189453125
 40
0.1904296875
 40
0.19140625
 40
0.193359375
 40
0.1953125
 40
0.19921875
 40
0.203125
 40
0.20703125
 40
0.2109375
 40
0.21875
 40
0.2265625
 40
0.23046875
 40
0.234375
 40
0.23828125
 40
0.2421875
 40
0.244140625
 40
0.24609375
 40
0.2470703125
 40
0.248046875
 40
0.2490234375
 40
0.2495117188
 40
0.2497558594
 40
0.25
 40
0.2502441406
 40
0.2504882812
 40
0.2509765625
 40
0.251953125
 40
0.2529296875
 40
0.25390625
 40
0.255859375
 40
0.2578125
 40
0.26171875
 40
0.265625
 40
0.26953125
 40
0.2734375
 40
0.28125
 40
0.2890625
 40
0.29296875
 40
0.296875
 40
0.30078125
 40
0.3046875
 40
0.306640625
 40
0.30859375
 40
0.3095703125
 40
0.310546875
 40
0.3115234375
 40
0.3120117188
 40
0.3122558594
 40
0.3125
 40
0.3127441406
 40
0.3129882812
 40
0.3134765625
 40
0.314453125
 40
0.3154296875
 40
0.31640625
 40
0.318359375
 40
0.3203125
 40
0.32421875
 40
0.328125
 40
0.33203125
 40
0.3359375
 40
0.34375
 40
0.3515625
 40
0.35546875
 40
0.359375
 40
0.36328125
 40
0.3671875
 40
0.369140625
 40
0.37109375
 40
0.3720703125
 40
0.373046875
 40
0.3740234375
 40
0.3745117188
 40
0.3747558594
 40
0.375
 40
0.3752441406
 40
0.3754882812
 40
0.3759765625
 40
0.376953125
 40
0.3779296875
 40
0.37890625
 40
0.380859375
 40
0.3828125
 40
0.38671875
 40
0.390625
 40
0.39453125
 40
0.3984375
 40
0.40625
 40
0.4140625
 40
0.41796875
 40
0.421875
 40
0.42578125
 40
0.4296875
 40
0.431640625
 40
0.43359375
 40
0.4345703125
 40
0.435546875
 40
0.4365234375
 40
0.4370117188
 40
0.4372558594
 40
0.4375
 40
0.4377441406
 40
0.4379882812
 40
0.4384765625
 40
0.439453125
 40
0.4404296875
 40
0.44140625
 40
0.443359375
 40
0.4453125
 40
0.44921875
 40
0.453125
 40
0.45703125
 40
0.4609375
 40
0.46875
 40
0.4765625
 40
0.48046875
 40
0.484375
 40
0.48828125
 40
0.4921875
 40
0.494140625
 40
0.49609375
 40
0.4970703125
 40
0.498046875
 40
0.4990234375
 40
0.4995117188
 40
0.4997558594
 40
0.5
 40
0.5002441406
 40
0.5004882812
 40
0.5009765625
 40
0.501953125
 40
0.5029296875
 40
0.50390625
 40
0.505859375
 40
0.5078125
 40
0.51171875
 40
0.515625
 40
0.51953125
 40
0.5234375
 40
0.53125
 40
0.5390625
 40
0.54296875
 40
0.546875
 40
0.55078125
 40
0.5546875
 40
0.556640625
 40
0.55859375
 40
0.5595703125
 40
0.560546875
 40
0.5615234375
 40
0.5620117188
 40
0.5622558594
 40
0.5625
 40
0.5627441406
 40
0.5629882812
 40
0.5634765625
 40
0.564453125
 40
0.5654296875
 40
0.56640625
 40
0.568359375
 40
0.5703125
 40
0.57421875
 40
0.578125
 40
0.58203125
 40
0.5859375
 40
0.59375
 40
0.6015625
 40
0.60546875
 40
0.609375
 40
0.61328125
 40
0.6171875
 40
0.619140625
 40
0.62109375
 40
0.6220703125
 40
0.623046875
 40
0.6240234375
 40
0.6245117188
 40
0.6247558594
 40
0.625
 40
0.6252441406
 40
0.6254882812
 40
0.6259765625
 40
0.626953125
 40
0.6279296875
 40
0.62890625
 40
0.630859375
 40
0.6328125
 40
0.63671875
 40
0.640625
 40
0.64453125
 40
0.6484375
 40
0.65625
 40
0.6640625
 40
0.66796875
 40
0.671875
 40
0.67578125
 40
0.6796875
 40
0.681640625
 40
0.68359375
 40
0.6845703125
 40
0.685546875
 40
0.6865234375
 40
0.6870117188
 40
0.6872558594
 40
0.6875
 40
0.6877441406
 40
0.6879882812
 40
0.6884765625
 40
0.689453125
 40
0.6904296875
 40
0.69140625
 40
0.693359375
 40
0.6953125
 40
0.69921875
 40
0.703125
 40
0.70703125
 40
0.7109375
 40
0.71875
 40
0.7265625
 40
0.73046875
 40
0.734375
 40
0.73828125
 40
0.7421875
 40
0.744140625
 40
0.74609375
 40
0.7470703125
 40
0.748046875
 40
0.7490234375
 40
0.7495117188
 40
0.7497558594
 40
0.75
 40
0.7502441406
 40
0.7504882812
 40
0.7509765625
 40
0.751953125
 40
0.7529296875
 40
0.75390625
 40
0.755859375
 40
0.7578125
 40
0.76171875
 40
0.765625
 40
0.76953125
 40
0.7734375
 40
0.78125
 40
0.7890625
 40
0.79296875
 40
0.796875
 40
0.80078125
 40
0.8046875
 40
0.806640625
 40
0.80859375
 40
0.8095703125
 40
0.810546875
 40
0.8115234375
 40
0.8120117188
 40
0.8122558594
 40
0.8125
 40
0.8127441406
 40
0.8129882812
 40
0.8134765625
 40
0.814453125
 40
0.8154296875
 40
0.81640625
 40
0.818359375
 40
0.8203125
 40
0.82421875
 40
0.828125
 40
0.83203125
 40
0.8359375
 40
0.84375
 40
0.8515625
 40
0.85546875
 40
0.859375
 40
0.86328125
 40
0.8671875
 40
0.869140625
 40
0.87109375
 40
0.8720703125
 40
0.873046875
 40
0.8740234375
 40
0.8745117188
 40
0.8747558594
 40
0.875
 40
0.8752441406
 40
0.8754882812
 40
0.8759765625
 40
0.876953125
 40
0.8779296875
 40
0.87890625
 40
0.880859375
 40
0.8828125
 40
0.88671875
 40
0.890625
 40
0.89453125
 40
0.8984375
 40
0.90625
 40
0.9140625
 40
0.91796875
 40
0.921875
 40
0.92578125
 40
0.9296875
 40
0.931640625
 40
0.93359375
 40
0.9345703125
 40
0.935546875
 40
0.9365234375
 40
0.9370117188
 40
0.9372558594
 40
0.9375
 40
0.9377441406
 40
0.9379882812
 40
0.9384765625
 40
0.939453125
 40
0.9404296875
 40
0.94140625
 40
0.943359375
 40
0.9453125
 40
0.94921875
 40
0.953125
 40
0.95703125
 40
0.9609375
 40
0.96875
 40
0.9765625
 40
0.984375
 40
1.0
 40
1.0
 40
1.0
 40
1.0
 10
10.6117717527
 20
7.6613558735
 30
0.0
 10
10.6055053789
 20
7.6611760247
 30
0.0
 10
10.5961058182
 20
7.6609062515
 30
0.0
 10
10.5835730705
 20
7.6605465538
 30
0.0
 10
10.5741735097
 20
7.6602767805
 30
0.0
 10
10.5663405424
 20
7.6600519698
 30
0.0
 10
10.5600741687
 20
7.6598721203
 30
0.0
 10
10.5553743879
 20
7.6597372357
 30
0.0
 10
10.550674609
 20
7.6596023416
 30
0.0
 10
10.5467581208
 20
7.6594899593
 30
0.0
 10
10.5436249431
 20
7.6593999875
 30
0.0
 10
10.5416666778
 20
7.6593439053
 30
0.0
 10
10.5401001326
 20
7.6592986956
 30
0.0
 10
10.5389250399
 20
7.6592657301
 30
0.0
 10
10.537946381
 20
7.659235263
 30
0.0
 10
10.5372601715
 20
7.6592198153
 30
0.0
 10
10.5368698448
 20
7.659201808
 30
0.0
 10
10.5365720487
 20
7.6592141629
 30
0.0
 10
10.5362935606
 20
7.6591276661
 30
0.0
 10
10.5359155083
 20
7.6590468175
 30
0.0
 10
10.5352570547
 20
7.6588892674
 30
0.0
 10
10.5343147661
 20
7.6586725949
 30
0.0
 10
10.533184722
 20
7.6584089928
 30
0.0
 10
10.5316777512
 20
7.658058779
 30
0.0
 10
10.5297941218
 20
7.6576205819
 30
0.0
 10
10.5267802677
 20
7.6569197067
 30
0.0
 10
10.5230129663
 20
7.6560435303
 30
0.0
 10
10.5184921976
 20
7.6549921539
 30
0.0
 10
10.5139714308
 20
7.6539407681
 30
0.0
 10
10.507943741
 20
7.6525389237
 30
0.0
 10
10.5004091291
 20
7.6507866169
 30
0.0
 10
10.492874517
 20
7.6490343109
 30
0.0
 10
10.4868468276
 20
7.6476324652
 30
0.0
 10
10.4823260597
 20
7.6465810833
 30
0.0
 10
10.4778052953
 20
7.6455296923
 30
0.0
 10
10.4740379804
 20
7.6446535614
 30
0.0
 10
10.4710241538
 20
7.6439525935
 30
0.0
 10
10.4691404546
 20
7.6435146322
 30
0.0
 10
10.467633627
 20
7.6431639343
 30
0.0
 10
10.4665031455
 20
7.6429018114
 30
0.0
 10
10.4655622255
 20
7.6426805107
 30
0.0
 10
10.4649013286
 20
7.6425312227
 30
0.0
 10
10.4645271911
 20
7.6424371363
 30
0.0
 10
10.464236678
 20
7.6423913019
 30
0.0
 10
10.4639840457
 20
7.6422509351
 30
0.0
 10
10.4636339893
 20
7.6420967534
 30
0.0
 10
10.4630275469
 20
7.6418115722
 30
0.0
 10
10.4621579822
 20
7.6414122024
 30
0.0
 10
10.4611158821
 20
7.6409295208
 30
0.0
 10
10.4597259341
 20
7.6402871461
 30
0.0
 10
10.4579886639
 20
7.6394837666
 30
0.0
 10
10.4552089394
 20
7.6381985891
 30
0.0
 10
10.4517343155
 20
7.6365920385
 30
0.0
 10
10.4475647532
 20
7.6346642115
 30
0.0
 10
10.4433951946
 20
7.6327363754
 30
0.0
 10
10.4378357818
 20
7.6301659306
 30
0.0
 10
10.4308865163
 20
7.6269528733
 30
0.0
 10
10.4239372504
 20
7.6237398168
 30
0.0
 10
10.4183778382
 20
7.6211693706
 30
0.0
 10
10.4142082778
 20
7.6192415384
 30
0.0
 10
10.410038722
 20
7.6173136972
 30
0.0
 10
10.4065640778
 20
7.6157071905
 30
0.0
 10
10.4037843948
 20
7.6144219234
 30
0.0
 10
10.4020470191
 20
7.6136187721
 30
0.0
 10
10.4006572876
 20
7.6129759289
 30
0.0
 10
10.3996145263
 20
7.6124946786
 30
0.0
 10
10.3987470302
 20
7.6120908305
 30
0.0
 10
10.3981368949
 20
7.611813644
 30
0.0
 10
10.3977927555
 20
7.6116466527
 30
0.0
 10
10.397521948
 20
7.6115456329
 30
0.0
 10
10.397299698
 20
7.6113520178
 30
0.0
 10
10.3969864272
 20
7.6111261627
 30
0.0
 10
10.3964460948
 20
7.6107158678
 30
0.0
 10
10.3956700657
 20
7.6101375997
 30
0.0
 10
10.3947405966
 20
7.6094403105
 30
0.0
 10
10.3935006878
 20
7.6085117677
 30
0.0
 10
10.3919510129
 20
7.6073506865
 30
0.0
 10
10.3894714151
 20
7.6054931818
 30
0.0
 10
10.3863719583
 20
7.6031712235
 30
0.0
 10
10.3826525928
 20
7.6003849068
 30
0.0
 10
10.378933232
 20
7.5975985811
 30
0.0
 10
10.3739740826
 20
7.5938834834
 30
0.0
 10
10.3677751464
 20
7.5892396101
 30
0.0
 10
10.3615762097
 20
7.5845957375
 30
0.0
 10
10.3566170612
 20
7.5808806387
 30
0.0
 10
10.3528976978
 20
7.5780943163
 30
0.0
 10
10.3491783418
 20
7.5753079872
 30
0.0
 10
10.3460788553
 20
7.5729860674
 30
0.0
 10
10.3435993181
 20
7.5711284843
 30
0.0
 10
10.342049489
 20
7.5699676023
 30
0.0
 10
10.3408098967
 20
7.5690386508
 30
0.0
 10
10.3398794606
 20
7.5683426102
 30
0.0
 10
10.3391064572
 20
7.5677604356
 30
0.0
 10
10.3385607234
 20
7.5673571145
 30
0.0
 10
10.3382561071
 20
7.5671200856
 30
0.0
 10
10.3380072734
 20
7.5669607929
 30
0.0
 10
10.3378363095
 20
7.5667308639
 30
0.0
 10
10.3375811957
 20
7.5664489306
 30
0.0
 10
10.3371474018
 20
7.5659440677
 30
0.0
 10
10.33652108
 20
7.5652288366
 30
0.0
 10
10.3357723258
 20
7.5643679905
 30
0.0
 10
10.3347729977
 20
7.5632210928
 30
0.0
 10
10.3335241763
 20
7.5617871636
 30
0.0
 10
10.3315258727
 20
7.5594930485
 30
0.0
 10
10.3290280582
 20
7.5566253458
 30
0.0
 10
10.3260306529
 20
7.5531841277
 30
0.0
 10
10.3230332551
 20
7.5497429029
 30
0.0
 10
10.319036722
 20
7.5451546055
 30
0.0
 10
10.3140410567
 20
7.5394192329
 30
0.0
 10
10.3090453907
 20
7.5336838608
 30
0.0
 10
10.3050488587
 20
7.5290955626
 30
0.0
 10
10.3020514576
 20
7.5256543404
 30
0.0
 10
10.2990540645
 20
7.5222131124
 30
0.0
 10
10.2965562122
 20
7.5193454406
 30
0.0
 10
10.2945579855
 20
7.5170512624
 30
0.0
 10
10.2933089684
 20
7.5156174937
 30
0.0
 10
10.292310042
 20
7.5144702665
 30
0.0
 10
10.2915600603
 20
7.5136104274
 30
0.0
 10
10.2909375791
 20
7.5128920454
 30
0.0
 10
10.2904969292
 20
7.5123928076
 30
0.0
 10
10.2902528005
 20
7.5121018614
 30
0.0
 10
10.2900480939
 20
7.5118996171
 30
0.0
 10
10.2899259921
 20
7.5116363451
 30
0.0
 10
10.2897343762
 20
7.5113066028
 30
0.0
 10
10.2894124732
 20
7.5107196358
 30
0.0
 10
10.2889455931
 20
7.5098862969
 30
0.0
 10
10.2883883412
 20
7.5088840706
 30
0.0
 10
10.2876442894
 20
7.5075485441
 30
0.0
 10
10.2867145839
 20
7.5058788706
 30
0.0
 10
10.2852268543
 20
7.5032075414
 30
0.0
 10
10.2833672612
 20
7.4998683289
 30
0.0
 10
10.2811357199
 20
7.4958612957
 30
0.0
 10
10.2789041865
 20
7.4918542567
 30
0.0
 10
10.2759288059
 20
7.4865115401
 30
0.0
 10
10.2722095812
 20
7.4798331435
 30
0.0
 10
10.2684903558
 20
7.4731547475
 30
0.0
 10
10.2655149763
 20
7.4678120301
 30
0.0
 10
10.2632834394
 20
7.4638049933
 30
0.0
 10
10.2610519113
 20
7.4597979521
 30
0.0
 10
10.2591922772
 20
7.4564587644
 30
0.0
 10
10.2577046312
 20
7.4537873846
 30
0.0
 10
10.256774713
 20
7.4521178399
 30
0.0
 10
10.2560310978
 20
7.450782049
 30
0.0
 10
10.255472512
 20
7.4497806305
 30
0.0
 10
10.2550098052
 20
7.4489447644
 30
0.0
 10
10.2546804522
 20
7.4483623087
 30
0.0
 10
10.2545007731
 20
7.4480253382
 30
0.0
 10
10.2543420053
 20
7.4477842691
 30
0.0
 10
10.2542750102
 20
7.4474986342
 30
0.0
 10
10.254153672
 20
7.4471333328
 30
0.0
 10
10.2539562448
 20
7.4464868126
 30
0.0
 10
10.2536664084
 20
7.4455669989
 30
0.0
 10
10.2533219423
 20
7.4444616017
 30
0.0
 10
10.2528614885
 20
7.4429883048
 30
0.0
 10
10.2522863204
 20
7.4411464899
 30
0.0
 10
10.2513658282
 20
7.4381996944
 30
0.0
 10
10.2502152896
 20
7.4345161628
 30
0.0
 10
10.2488346105
 20
7.4300959408
 30
0.0
 10
10.2474539402
 20
7.4256757146
 30
0.0
 10
10.2456130433
 20
7.4197820811
 30
0.0
 10
10.2433119233
 20
7.4124150388
 30
0.0
 10
10.2410108026
 20
7.4050479967
 30
0.0
 10
10.239169907
 20
7.3991543627
 30
0.0
 10
10.2377892328
 20
7.3947341381
 30
0.0
 10
10.236408568
 20
7.3903139101
 30
0.0
 10
10.2352579849
 20
7.3866303973
 30
0.0
 10
10.2343375835
 20
7.3836835634
 30
0.0
 10
10.2337621846
 20
7.3818418462
 30
0.0
 10
10.2333022045
 20
7.3803683488
 30
0.0
 10
10.2329562912
 20
7.3792635641
 30
0.0
 10
10.2326709828
 20
7.3783418339
 30
0.0
 10
10.2324654723
 20
7.377698735
 30
0.0
 10
10.2323570857
 20
7.3773279518
 30
0.0
 10
10.2322503075
 20
7.3770591553
 30
0.0
 10
10.2322409582
 20
7.376754844
 30
0.0
 10
10.2321945082
 20
7.3763614836
 30
0.0
 10
10.2321290546
 20
7.375667331
 30
0.0
 10
10.2320272714
 20
7.374678702
 30
0.0
 10
10.2319086748
 20
7.3734910556
 30
0.0
 10
10.2317493084
 20
7.3719079781
 30
0.0
 10
10.2315505241
 20
7.3699289769
 30
0.0
 10
10.2312322325
 20
7.3667626613
 30
0.0
 10
10.2308344492
 20
7.3628047371
 30
0.0
 10
10.2303570745
 20
7.3580552408
 30
0.0
 10
10.229879709
 20
7.3533057411
 30
0.0
 10
10.2292432185
 20
7.346973076
 30
0.0
 10
10.2284476066
 20
7.3390572442
 30
0.0
 10
10.2276519939
 20
7.3311414126
 30
0.0
 10
10.2270155047
 20
7.3248087472
 30
0.0
 10
10.2265381352
 20
7.3200592482
 30
0.0
 10
10.2260607755
 20
7.3153097493
 30
0.0
 10
10.2256629456
 20
7.3113518331
 30
0.0
 10
10.2253447491
 20
7.3081855013
 30
0.0
 10
10.2251457226
 20
7.3062065411
 30
0.0
 10
10.2249868535
 20
7.3046233795
 30
0.0
 10
10.2248667376
 20
7.3034359901
 30
0.0
 10
10.2247697078
 20
7.302446557
 30
0.0
 10
10.2246957685
 20
7.3017538399
 30
0.0
 10
10.2246629148
 20
7.3013581794
 30
0.0
 10
10.2246118021
 20
7.301060933
 30
0.0
 10
10.2246618804
 20
7.3007656021
 30
0.0
 10
10.224693355
 20
7.3003711595
 30
0.0
 10
10.2247648808
 20
7.2996811962
 30
0.0
 10
10.2248584627
 20
7.2986953715
 30
0.0
 10
10.2249744411
 20
7.2975124516
 30
0.0
 10
10.2251277936
 20
7.2959352008
 30
0.0
 10
10.2253199243
 20
7.2939636455
 30
0.0
 10
10.2256270874
 20
7.2908091525
 30
0.0
 10
10.2260111258
 20
7.2868660378
 30
0.0
 10
10.2264719356
 20
7.2821342995
 30
0.0
 10
10.2269327552
 20
7.2774025613
 30
0.0
 10
10.2275471778
 20
7.2710935771
 30
0.0
 10
10.2283152074
 20
7.2632073468
 30
0.0
 10
10.2290832362
 20
7.2553211165
 30
0.0
 10
10.2296976601
 20
7.2490121323
 30
0.0
 10
10.2301584757
 20
7.2442803939
 30
0.0
 10
10.2306193005
 20
7.2395486567
 30
0.0
 10
10.2310032922
 20
7.2356055386
 30
0.0
 10
10.2313105506
 20
7.2324510525
 30
0.0
 10
10.2315024389
 20
7.2304794796
 30
0.0
 10
10.2316562889
 20
7.2289022649
 30
0.0
 10
10.2317707474
 20
7.2277192344
 30
0.0
 10
10.2318690848
 20
7.2267337559
 30
0.0
 10
10.2319321212
 20
7.2260431747
 30
0.0
 10
10.2319771978
 20
7.225649722
 30
0.0
 10
10.2319854951
 20
7.2253513505
 30
0.0
 10
10.2320913052
 20
7.2250655244
 30
0.0
 10
10.2321983717
 20
7.224680047
 30
0.0
 10
10.2324015857
 20
7.2240075004
 30
0.0
 10
10.2326836062
 20
7.2230456537
 30
0.0
 10
10.2330255771
 20
7.2218918938
 30
0.0
 10
10.2334802997
 20
7.2203533879
 30
0.0
 10
10.234049127
 20
7.2184303102
 30
0.0
 10
10.2349590136
 20
7.2153533553
 30
0.0
 10
10.2360964533
 20
7.2115071721
 30
0.0
 10
10.237461346
 20
7.2068917478
 30
0.0
 10
10.2388262481
 20
7.2022763247
 30
0.0
 10
10.2406461142
 20
7.1961224268
 30
0.0
 10
10.2429209481
 20
7.1884300546
 30
0.0
 10
10.2451957812
 20
7.1807376823
 30
0.0
 10
10.2470156486
 20
7.1745837847
 30
0.0
 10
10.2483805468
 20
7.1699683607
 30
0.0
 10
10.2497454538
 20
7.1653529398
 30
0.0
 10
10.250882849
 20
7.1615067462
 30
0.0
 10
10.2517928264
 20
7.1584298124
 30
0.0
 10
10.2523614227
 20
7.1565066809
 30
0.0
 10
10.2528166195
 20
7.1549682854
 30
0.0
 10
10.2531571415
 20
7.1538141885
 30
0.0
 10
10.2534436952
 20
7.1528533961
 30
0.0
 10
10.2536388166
 20
7.1521789674
 30
0.0
 10
10.2537588496
 20
7.1517965056
 30
0.0
 10
10.2538248311
 20
7.1515014167
 30
0.0
 10
10.253982718
 20
7.1512378348
 30
0.0
 10
10.2541611762
 20
7.1508754023
 30
0.0
 10
10.2544884144
 20
7.1502462659
 30
0.0
 10
10.2549480886
 20
7.1493448226
 30
0.0
 10
10.2555030401
 20
7.1482642365
 30
0.0
 10
10.256241808
 20
7.1468230548
 30
0.0
 10
10.2571656677
 20
7.1450217147
 30
0.0
 10
10.2586436197
 20
7.142139494
 30
0.0
 10
10.2604911363
 20
7.1385367443
 30
0.0
 10
10.2627081234
 20
7.1342134335
 30
0.0
 10
10.2649251193
 20
7.1298901256
 30
0.0
 10
10.2678811108
 20
7.1241257141
 30
0.0
 10
10.2715761013
 20
7.1169202001
 30
0.0
 10
10.275271091
 20
7.1097146859
 30
0.0
 10
10.2782270837
 20
7.1039502748
 30
0.0
 10
10.280444076
 20
7.0996269655
 30
0.0
 10
10.2826610768
 20
7.0953036602
 30
0.0
 10
10.2845085509
 20
7.0917008932
 30
0.0
 10
10.2859865897
 20
7.0888187079
 30
0.0
 10
10.2869102284
 20
7.0870172777
 30
0.0
 10
10.2876494498
 20
7.0855762809
 30
0.0
 10
10.2882030158
 20
7.0844951297
 30
0.0
 10
10.288667025
 20
7.0835954545
 30
0.0
 10
10.2889865245
 20
7.0829631618
 30
0.0
 10
10.289177382
 20
7.0826057865
 30
0.0
 10
10.2892971824
 20
7.0823266707
 30
0.0
 10
10.2895062105
 20
7.0820899246
 30
0.0
 10
10.2897537911
 20
7.081759484
 30
0.0
 10
10.2902015581
 20
7.0811880989
 30
0.0
 10
10.290833644
 20
7.0803682344
 30
0.0
 10
10.2915953921
 20
7.079385938
 30
0.0
 10
10.2926099229
 20
7.0780756712
 30
0.0
 10
10.2938784743
 20
7.076438022
 30
0.0
 10
10.2959079398
 20
7.0738176802
 30
0.0
 10
10.2984448461
 20
7.0705422884
 30
0.0
 10
10.3014891018
 20
7.0666118031
 30
0.0
 10
10.3045333659
 20
7.0626813218
 30
0.0
 10
10.3085923818
 20
7.0574406787
 30
0.0
 10
10.3136661528
 20
7.0508898753
 30
0.0
 10
10.3187399232
 20
7.0443390715
 30
0.0
 10
10.3227989401
 20
7.0390984291
 30
0.0
 10
10.3258432012
 20
7.0351679455
 30
0.0
 10
10.3288874685
 20
7.0312374689
 30
0.0
 10
10.3314243385
 20
7.0279620499
 30
0.0
 10
10.333453878
 20
7.0253417636
 30
0.0
 10
10.3347222411
 20
7.0237039733
 30
0.0
 10
10.3357371585
 20
7.0223939962
 30
0.0
 10
10.3364977251
 20
7.0214108146
 30
0.0
 10
10.3371335077
 20
7.0205937195
 30
0.0
 10
10.3375746755
 20
7.0200173906
 30
0.0
 10
10.3378328297
 20
7.0196948712
 30
0.0
 10
10.338009379
 20
7.0194337939
 30
0.0
 10
10.3382511645
 20
7.019246062
 30
0.0
 10
10.33855079
 20
7.0189701692
 30
0.0
 10
10.3390857366
 20
7.0184992766
 30
0.0
 10
10.3398444032
 20
7.0178203411
 30
0.0
 10
10.3407571756
 20
7.0170082859
 30
0.0
 10
10.3419733769
 20
7.015924614
 30
0.0
 10
10.3434939122
 20
7.014570343
 30
0.0
 10
10.3459266101
 20
7.0124033313
 30
0.0
 10
10.3489675369
 20
7.0096946278
 30
0.0
 10
10.3526166257
 20
7.0064441573
 30
0.0
 10
10.3562657207
 20
7.0031936939
 30
0.0
 10
10.3611311786
 20
6.9988597402
 30
0.0
 10
10.3672130018
 20
6.993442299
 30
0.0
 10
10.3732948245
 20
6.9880248571
 30
0.0
 10
10.3781602832
 20
6.9836909044
 30
0.0
 10
10.3818093758
 20
6.9804404379
 30
0.0
 10
10.3854584738
 20
6.977189979
 30
0.0
 10
10.3884993722
 20
6.9744812397
 30
0.0
 10
10.3909321279
 20
6.9723143009
 30
0.0
 10
10.3924525162
 20
6.9709598444
 30
0.0
 10
10.3936690192
 20
6.9698765533
 30
0.0
 10
10.3945808697
 20
6.9690633346
 30
0.0
 10
10.395342421
 20
6.9683880395
 30
0.0
 10
10.3958722179
 20
6.9679106481
 30
0.0
 10
10.3961800945
 20
6.9676451681
 30
0.0
 10
10.3963965352
 20
6.9674254513
 30
0.0
 10
10.3966682751
 20
6.9672845043
 30
0.0
 10
10.3970113059
 20
6.9670690991
 30
0.0
 10
10.3976205969
 20
6.9667049416
 30
0.0
 10
10.3984863142
 20
6.9661780239
 30
0.0
 10
10.399527186
 20
6.9655485872
 30
0.0
 10
10.4009143126
 20
6.9647083379
 30
0.0
 10
10.4026484614
 20
6.9636583687
 30
0.0
 10
10.4054229651
 20
6.9619782266
 30
0.0
 10
10.4088911408
 20
6.9598781147
 30
0.0
 10
10.4130529319
 20
6.9573579522
 30
0.0
 10
10.4172147282
 20
6.9548377973
 30
0.0
 10
10.4227637882
 20
6.9514775881
 30
0.0
 10
10.4297001138
 20
6.9472773276
 30
0.0
 10
10.4366364391
 20
6.9430770663
 30
0.0
 10
10.4421854997
 20
6.9397168582
 30
0.0
 10
10.4463472942
 20
6.9371966999
 30
0.0
 10
10.4505090923
 20
6.9346765501
 30
0.0
 10
10.453977246
 20
6.9325763988
 30
0.0
 10
10.4567517945
 20
6.9308963371
 30
0.0
 10
10.4584858293
 20
6.9298461632
 30
0.0
 10
10.45987319
 20
6.9290063342
 30
0.0
 10
10.4609133466
 20
6.9283756133
 30
0.0
 10
10.4617813015
 20
6.9278527137
 30
0.0
 10
10.4623865979
 20
6.9274813832
 30
0.0
 10
10.4627360292
 20
6.927277471
 30
0.0
 10
10.4629881089
 20
6.9271012214
 30
0.0
 10
10.4632783899
 20
6.9270140952
 30
0.0
 10
10.4636521061
 20
6.9268668397
 30
0.0
 10
10.464312318
 20
6.9266236266
 30
0.0
 10
10.4652522319
 20
6.926268607
 30
0.0
 10
10.4663815179
 20
6.9258458247
 30
0.0
 10
10.4678867474
 20
6.9252809828
 30
0.0
 10
10.4697684503
 20
6.9245753181
 30
0.0
 10
10.4727790822
 20
6.923446038
 30
0.0
 10
10.4765424039
 20
6.9220345122
 30
0.0
 10
10.4810583763
 20
6.9203406493
 30
0.0
 10
10.4855743523
 20
6.9186467949
 30
0.0
 10
10.4915956524
 20
6.9163883195
 30
0.0
 10
10.499122278
 20
6.9135652263
 30
0.0
 10
10.5066489033
 20
6.9107421323
 30
0.0
 10
10.5126702039
 20
6.9084836581
 30
0.0
 10
10.5171861786
 20
6.9067898
 30
0.0
 10
10.521702156
 20
6.9050959511
 30
0.0
 10
10.525465462
 20
6.9036843819
 30
0.0
 10
10.528476126
 20
6.9025551902
 30
0.0
 10
10.5303577472
 20
6.9018493004
 30
0.0
 10
10.5318631443
 20
6.9012849206
 30
0.0
 10
10.5329919182
 20
6.9008607266
 30
0.0
 10
10.5339334346
 20
6.9005101239
 30
0.0
 10
10.5345907857
 20
6.9002590259
 30
0.0
 10
10.5349690856
 20
6.900124404
 30
0.0
 10
10.5352452871
 20
6.8999984712
 30
0.0
 10
10.5355502469
 20
6.8999679729
 30
0.0
 10
10.5359468289
 20
6.8998940198
 30
0.0
 10
10.536645521
 20
6.8997801118
 30
0.0
 10
10.5376412091
 20
6.8996092773
 30
0.0
 10
10.5388370808
 20
6.8994077468
 30
0.0
 10
10.540431211
 20
6.8991378271
 30
0.0
 10
10.5424239988
 20
6.8988008425
 30
0.0
 10
10.5456123895
 20
6.8982614352
 30
0.0
 10
10.5495979018
 20
6.8975872558
 30
0.0
 10
10.5543805063
 20
6.8967782063
 30
0.0
 10
10.5591631135
 20
6.8959691659
 30
0.0
 10
10.5655399222
 20
6.8948904422
 30
0.0
 10
10.5735109334
 20
6.8935420387
 30
0.0
 10
10.5830761467
 20
6.891923954
 30
0.0
 10
10.5958297644
 20
6.8897665079
 30
0.0
 10
10.6053949777
 20
6.8881484233
 30
0.0
 10
10.6117717866
 20
6.8870697003
 30
0.0
  0
SPLINE
  5
327
100
AcDbEntity
  8
0
100
AcDbSpline
 62
4
  6
CONTINUOUS
 70
0
 71
3
 72
403
 73
399
 74
0
 42
0.0000001
 43
0.0000001
 44
0.0000000001
 40
0.0
 40
0.0
 40
0.0
 40
0.0
 40
0.015625
 40
0.0234375
 40
0.03125
 40
0.0390625
 40
0.04296875
 40
0.046875
 40
0.05078125
 40
0.0546875
 40
0.056640625
 40
0.05859375
 40
0.0595703125
 40
0.060546875
 40
0.0615234375
 40
0.0620117188
 40
0.0622558594
 40
0.0625
 40
0.0627441406
 40
0.0629882812
 40
0.0634765625
 40
0.064453125
 40
0.0654296875
 40
0.06640625
 40
0.068359375
 40
0.0703125
 40
0.07421875
 40
0.078125
 40
0.08203125
 40
0.0859375
 40
0.09375
 40
0.1015625
 40
0.10546875
 40
0.109375
 40
0.11328125
 40
0.1171875
 40
0.119140625
 40
0.12109375
 40
0.1220703125
 40
0.123046875
 40
0.1240234375
 40
0.1245117188
 40
0.1247558594
 40
0.125
 40
0.1252441406
 40
0.1254882812
 40
0.1259765625
 40
0.126953125
 40
0.1279296875
 40
0.12890625
 40
0.130859375
 40
0.1328125
 40
0.13671875
 40
0.140625
 40
0.14453125
 40
0.1484375
 40
0.15625
 40
0.1640625
 40
0.16796875
 40
0.171875
 40
0.17578125
 40
0.1796875
 40
0.181640625
 40
0.18359375
 40
0.1845703125
 40
0.185546875
 40
0.1865234375
 40
0.1870117188
 40
0.1872558594
 40
0.1875
 40
0.1877441406
 40
0.1879882812
 40
0.1884765625
 40
0.189453125
 40
0.1904296875
 40
0.19140625
 40
0.193359375
 40
0.1953125
 40
0.19921875
 40
0.203125
 40
0.20703125
 40
0.2109375
 40
0.21875
 40
0.2265625
 40
0.23046875
 40
0.234375
 40
0.23828125
 40
0.2421875
 40
0.244140625
 40
0.24609375
 40
0.2470703125
 40
0.248046875
 40
0.2490234375
 40
0.2495117188
 40
0.2497558594
 40
0.25
 40
0.2502441406
 40
0.2504882812
 40
0.2509765625
 40
0.251953125
 40
0.2529296875
 40
0.25390625
 40
0.255859375
 40
0.2578125
 40
0.26171875
 40
0.265625
 40
0.26953125
 40
0.2734375
 40
0.28125
 40
0.2890625
 40
0.29296875
 40
0.296875
 40
0.30078125
 40
0.3046875
 40
0.306640625
 40
0.30859375
 40
0.3095703125
 40
0.310546875
 40
0.3115234375
 40
0.3120117188
 40
0.3122558594
 40
0.3125
 40
0.3127441406
 40
0.3129882812
 40
0.3134765625
 40
0.314453125
 40
0.3154296875
 40
0.31640625
 40
0.318359375
 40
0.3203125
 40
0.32421875
 40
0.328125
 40
0.33203125
 40
0.3359375
 40
0.34375
 40
0.3515625
 40
0.35546875
 40
0.359375
 40
0.36328125
 40
0.3671875
 40
0.369140625
 40
0.37109375
 40
0.3720703125
 40
0.373046875
 40
0.3740234375
 40
0.3745117188
 40
0.3747558594
 40
0.375
 40
0.3752441406
 40
0.3754882812
 40
0.3759765625
 40
0.376953125
 40
0.3779296875
 40
0.37890625
 40
0.380859375
 40
0.3828125
 40
0.38671875
 40
0.390625
 40
0.39453125
 40
0.3984375
 40
0.40625
 40
0.4140625
 40
0.41796875
 40
0.421875
 40
0.42578125
 40
0.4296875
 40
0.431640625
 40
0.43359375
 40
0.4345703125
 40
0.435546875
 40
0.4365234375
 40
0.4370117188
 40
0.4372558594
 40
0.4375
 40
0.4377441406
 40
0.4379882812
 40
0.4384765625
 40
0.439453125
 40
0.4404296875
 40
0.44140625
 40
0.443359375
 40
0.4453125
 40
0.44921875
 40
0.453125
 40
0.45703125
 40
0.4609375
 40
0.46875
 40
0.4765625
 40
0.48046875
 40
0.484375
 40
0.48828125
 40
0.4921875
 40
0.494140625
 40
0.49609375
 40
0.4970703125
 40
0.498046875
 40
0.4990234375
 40
0.4995117188
 40
0.4997558594
 40
0.5
 40
0.5002441406
 40
0.5004882812
 40
0.5009765625
 40
0.501953125
 40
0.5029296875
 40
0.50390625
 40
0.505859375
 40
0.5078125
 40
0.51171875
 40
0.515625
 40
0.51953125
 40
0.5234375
 40
0.53125
 40
0.5390625
 40
0.54296875
 40
0.546875
 40
0.55078125
 40
0.5546875
 40
0.556640625
 40
0.55859375
 40
0.5595703125
 40
0.560546875
 40
0.5615234375
 40
0.5620117188
 40
0.5622558594
 40
0.5625
 40
0.5627441406
 40
0.5629882812
 40
0.5634765625
 40
0.564453125
 40
0.5654296875
 40
0.56640625
 40
0.568359375
 40
0.5703125
 40
0.57421875
 40
0.578125
 40
0.58203125
 40
0.5859375
 40
0.59375
 40
0.6015625
 40
0.60546875
 40
0.609375
 40
0.61328125
 40
0.6171875
 40
0.619140625
 40
0.62109375
 40
0.6220703125
 40
0.623046875
 40
0.6240234375
 40
0.6245117188
 40
0.6247558594
 40
0.625
 40
0.6252441406
 40
0.6254882812
 40
0.6259765625
 40
0.626953125
 40
0.6279296875
 40
0.62890625
 40
0.630859375
 40
0.6328125
 40
0.63671875
 40
0.640625
 40
0.64453125
 40
0.6484375
 40
0.65625
 40
0.6640625
 40
0.66796875
 40
0.671875
 40
0.67578125
 40
0.6796875
 40
0.681640625
 40
0.68359375
 40
0.6845703125
 40
0.685546875
 40
0.6865234375
 40
0.6870117188
 40
0.6872558594
 40
0.6875
 40
0.6877441406
 40
0.6879882812
 40
0.6884765625
 40
0.689453125
 40
0.6904296875
 40
0.69140625
 40
0.693359375
 40
0.6953125
 40
0.69921875
 40
0.703125
 40
0.70703125
 40
0.7109375
 40
0.71875
 40
0.7265625
 40
0.73046875
 40
0.734375
 40
0.73828125
 40
0.7421875
 40
0.744140625
 40
0.74609375
 40
0.7470703125
 40
0.748046875
 40
0.7490234375
 40
0.7495117188
 40
0.7497558594
 40
0.75
 40
0.7502441406
 40
0.7504882812
 40
0.7509765625
 40
0.751953125
 40
0.7529296875
 40
0.75390625
 40
0.755859375
 40
0.7578125
 40
0.76171875
 40
0.765625
 40
0.76953125
 40
0.7734375
 40
0.78125
 40
0.7890625
 40
0.79296875
 40
0.796875
 40
0.80078125
 40
0.8046875
 40
0.806640625
 40
0.80859375
 40
0.8095703125
 40
0.810546875
 40
0.8115234375
 40
0.8120117188
 40
0.8122558594
 40
0.8125
 40
0.8127441406
 40
0.8129882812
 40
0.8134765625
 40
0.814453125
 40
0.8154296875
 40
0.81640625
 40
0.818359375
 40
0.8203125
 40
0.82421875
 40
0.828125
 40
0.83203125
 40
0.8359375
 40
0.84375
 40
0.8515625
 40
0.85546875
 40
0.859375
 40
0.86328125
 40
0.8671875
 40
0.869140625
 40
0.87109375
 40
0.8720703125
 40
0.873046875
 40
0.8740234375
 40
0.8745117188
 40
0.8747558594
 40
0.875
 40
0.8752441406
 40
0.8754882812
 40
0.8759765625
 40
0.876953125
 40
0.8779296875
 40
0.87890625
 40
0.880859375
 40
0.8828125
 40
0.88671875
 40
0.890625
 40
0.89453125
 40
0.8984375
 40
0.90625
 40
0.9140625
 40
0.91796875
 40
0.921875
 40
0.92578125
 40
0.9296875
 40
0.931640625
 40
0.93359375
 40
0.9345703125
 40
0.935546875
 40
0.9365234375
 40
0.9370117188
 40
0.9372558594
 40
0.9375
 40
0.9377441406
 40
0.9379882812
 40
0.9384765625
 40
0.939453125
 40
0.9404296875
 40
0.94140625
 40
0.943359375
 40
0.9453125
 40
0.94921875
 40
0.953125
 40
0.95703125
 40
0.9609375
 40
0.96875
 40
0.9765625
 40
0.984375
 40
1.0
 40
1.0
 40
1.0
 40
1.0
 10
10.6117717527
 20
6.8870697026
 30
0.0
 10
10.6180381266
 20
6.8872495514
 30
0.0
 10
10.6274376873
 20
6.8875193247
 30
0.0
 10
10.639970435
 20
6.8878790223
 30
0.0
 10
10.6493699957
 20
6.8881487956
 30
0.0
 10
10.6572029631
 20
6.8883736064
 30
0.0
 10
10.6634693368
 20
6.8885534558
 30
0.0
 10
10.6681691176
 20
6.8886883405
 30
0.0
 10
10.6728688965
 20
6.8888232345
 30
0.0
 10
10.6767853847
 20
6.8889356168
 30
0.0
 10
10.6799185623
 20
6.8890255886
 30
0.0
 10
10.6818768277
 20
6.8890816708
 30
0.0
 10
10.6834433728
 20
6.8891268805
 30
0.0
 10
10.6846184656
 20
6.889159846
 30
0.0
 10
10.6855971244
 20
6.8891903132
 30
0.0
 10
10.686283334
 20
6.8892057608
 30
0.0
 10
10.6866736606
 20
6.8892237682
 30
0.0
 10
10.6869714568
 20
6.8892114132
 30
0.0
 10
10.6872499449
 20
6.8892979101
 30
0.0
 10
10.6876279972
 20
6.8893787586
 30
0.0
 10
10.6882864508
 20
6.8895363087
 30
0.0
 10
10.6892287394
 20
6.8897529812
 30
0.0
 10
10.6903587835
 20
6.8900165833
 30
0.0
 10
10.6918657543
 20
6.8903667971
 30
0.0
 10
10.6937493837
 20
6.8908049943
 30
0.0
 10
10.6967632378
 20
6.8915058694
 30
0.0
 10
10.7005305392
 20
6.8923820459
 30
0.0
 10
10.7050513079
 20
6.8934334222
 30
0.0
 10
10.7095720747
 20
6.894484808
 30
0.0
 10
10.7155997644
 20
6.8958866525
 30
0.0
 10
10.7231343764
 20
6.8976389592
 30
0.0
 10
10.7306689885
 20
6.8993912652
 30
0.0
 10
10.7366966778
 20
6.9007931109
 30
0.0
 10
10.7412174458
 20
6.9018444928
 30
0.0
 10
10.7457382102
 20
6.9028958838
 30
0.0
 10
10.7495055251
 20
6.9037720148
 30
0.0
 10
10.7525193517
 20
6.9044729826
 30
0.0
 10
10.7544030509
 20
6.9049109439
 30
0.0
 10
10.7559098785
 20
6.9052616419
 30
0.0
 10
10.75704036
 20
6.9055237647
 30
0.0
 10
10.75798128
 20
6.9057450654
 30
0.0
 10
10.7586421769
 20
6.9058943535
 30
0.0
 10
10.7590163144
 20
6.9059884399
 30
0.0
 10
10.7593068275
 20
6.9060342742
 30
0.0
 10
10.7595594598
 20
6.906174641
 30
0.0
 10
10.7599095162
 20
6.9063288227
 30
0.0
 10
10.7605159585
 20
6.906614004
 30
0.0
 10
10.7613855233
 20
6.9070133737
 30
0.0
 10
10.7624276234
 20
6.9074960553
 30
0.0
 10
10.7638175714
 20
6.90813843
 30
0.0
 10
10.7655548416
 20
6.9089418096
 30
0.0
 10
10.7683345661
 20
6.910226987
 30
0.0
 10
10.77180919
 20
6.9118335377
 30
0.0
 10
10.7759787523
 20
6.9137613647
 30
0.0
 10
10.7801483109
 20
6.9156892007
 30
0.0
 10
10.7857077237
 20
6.9182596456
 30
0.0
 10
10.7926569892
 20
6.9214727029
 30
0.0
 10
10.7996062551
 20
6.9246857594
 30
0.0
 10
10.8051656673
 20
6.9272562055
 30
0.0
 10
10.8093352277
 20
6.9291840378
 30
0.0
 10
10.8135047835
 20
6.9311118789
 30
0.0
 10
10.8169794277
 20
6.9327183856
 30
0.0
 10
10.8197591107
 20
6.9340036527
 30
0.0
 10
10.8214964864
 20
6.934806804
 30
0.0
 10
10.8228862179
 20
6.9354496472
 30
0.0
 10
10.8239289792
 20
6.9359308975
 30
0.0
 10
10.8247964753
 20
6.9363347456
 30
0.0
 10
10.8254066106
 20
6.9366119321
 30
0.0
 10
10.8257507499
 20
6.9367789235
 30
0.0
 10
10.8260215575
 20
6.9368799433
 30
0.0
 10
10.8262438075
 20
6.9370735583
 30
0.0
 10
10.8265570783
 20
6.9372994135
 30
0.0
 10
10.8270974107
 20
6.9377097084
 30
0.0
 10
10.8278734398
 20
6.9382879764
 30
0.0
 10
10.8288029089
 20
6.9389852657
 30
0.0
 10
10.8300428177
 20
6.9399138084
 30
0.0
 10
10.8315924926
 20
6.9410748896
 30
0.0
 10
10.8340720904
 20
6.9429323944
 30
0.0
 10
10.8371715472
 20
6.9452543526
 30
0.0
 10
10.8408909127
 20
6.9480406694
 30
0.0
 10
10.8446102735
 20
6.950826995
 30
0.0
 10
10.8495694229
 20
6.9545420927
 30
0.0
 10
10.8557683591
 20
6.959185966
 30
0.0
 10
10.8619672957
 20
6.9638298386
 30
0.0
 10
10.8669264443
 20
6.9675449375
 30
0.0
 10
10.8706458077
 20
6.9703312598
 30
0.0
 10
10.8743651637
 20
6.9731175889
 30
0.0
 10
10.8774646501
 20
6.9754395088
 30
0.0
 10
10.8799441874
 20
6.9772970918
 30
0.0
 10
10.8814940164
 20
6.9784579739
 30
0.0
 10
10.8827336088
 20
6.9793869253
 30
0.0
 10
10.8836640448
 20
6.9800829659
 30
0.0
 10
10.8844370483
 20
6.9806651406
 30
0.0
 10
10.8849827821
 20
6.9810684616
 30
0.0
 10
10.8852873984
 20
6.9813054906
 30
0.0
 10
10.885536232
 20
6.9814647832
 30
0.0
 10
10.885707196
 20
6.9816947123
 30
0.0
 10
10.8859623098
 20
6.9819766456
 30
0.0
 10
10.8863961036
 20
6.9824815085
 30
0.0
 10
10.8870224255
 20
6.9831967395
 30
0.0
 10
10.8877711797
 20
6.9840575857
 30
0.0
 10
10.8887705078
 20
6.9852044833
 30
0.0
 10
10.8900193292
 20
6.9866384125
 30
0.0
 10
10.8920176328
 20
6.9889325276
 30
0.0
 10
10.8945154473
 20
6.9918002304
 30
0.0
 10
10.8975128526
 20
6.9952414484
 30
0.0
 10
10.9005102504
 20
6.9986826732
 30
0.0
 10
10.9045067835
 20
7.0032709706
 30
0.0
 10
10.9095024488
 20
7.0090063433
 30
0.0
 10
10.9144981148
 20
7.0147417153
 30
0.0
 10
10.9184946468
 20
7.0193300136
 30
0.0
 10
10.9214920479
 20
7.0227712358
 30
0.0
 10
10.924489441
 20
7.0262124638
 30
0.0
 10
10.9269872933
 20
7.0290801356
 30
0.0
 10
10.9289855199
 20
7.0313743138
 30
0.0
 10
10.9302345371
 20
7.0328080824
 30
0.0
 10
10.9312334634
 20
7.0339553097
 30
0.0
 10
10.9319834451
 20
7.0348151487
 30
0.0
 10
10.9326059264
 20
7.0355335308
 30
0.0
 10
10.9330465763
 20
7.0360327685
 30
0.0
 10
10.933290705
 20
7.0363237147
 30
0.0
 10
10.9334954116
 20
7.036525959
 30
0.0
 10
10.9336175134
 20
7.0367892311
 30
0.0
 10
10.9338091293
 20
7.0371189733
 30
0.0
 10
10.9341310323
 20
7.0377059403
 30
0.0
 10
10.9345979124
 20
7.0385392793
 30
0.0
 10
10.9351551643
 20
7.0395415055
 30
0.0
 10
10.9358992161
 20
7.040877032
 30
0.0
 10
10.9368289216
 20
7.0425467055
 30
0.0
 10
10.9383166512
 20
7.0452180348
 30
0.0
 10
10.9401762443
 20
7.0485572473
 30
0.0
 10
10.9424077856
 20
7.0525642804
 30
0.0
 10
10.944639319
 20
7.0565713194
 30
0.0
 10
10.9476146996
 20
7.0619140361
 30
0.0
 10
10.9513339243
 20
7.0685924326
 30
0.0
 10
10.9550531497
 20
7.0752708287
 30
0.0
 10
10.9580285292
 20
7.080613546
 30
0.0
 10
10.960260066
 20
7.0846205829
 30
0.0
 10
10.9624915941
 20
7.088627624
 30
0.0
 10
10.9643512282
 20
7.0919668117
 30
0.0
 10
10.9658388743
 20
7.0946381916
 30
0.0
 10
10.9667687925
 20
7.0963077363
 30
0.0
 10
10.9675124077
 20
7.0976435271
 30
0.0
 10
10.9680709935
 20
7.0986449457
 30
0.0
 10
10.9685337003
 20
7.0994808118
 30
0.0
 10
10.9688630533
 20
7.1000632675
 30
0.0
 10
10.9690427324
 20
7.100400238
 30
0.0
 10
10.9692015002
 20
7.1006413071
 30
0.0
 10
10.9692684953
 20
7.1009269419
 30
0.0
 10
10.9693898335
 20
7.1012922433
 30
0.0
 10
10.9695872607
 20
7.1019387635
 30
0.0
 10
10.9698770971
 20
7.1028585772
 30
0.0
 10
10.9702215632
 20
7.1039639745
 30
0.0
 10
10.970682017
 20
7.1054372713
 30
0.0
 10
10.9712571851
 20
7.1072790862
 30
0.0
 10
10.9721776773
 20
7.1102258818
 30
0.0
 10
10.9733282158
 20
7.1139094133
 30
0.0
 10
10.974708895
 20
7.1183296353
 30
0.0
 10
10.9760895653
 20
7.1227498615
 30
0.0
 10
10.9779304622
 20
7.128643495
 30
0.0
 10
10.9802315821
 20
7.1360105374
 30
0.0
 10
10.9825327029
 20
7.1433775794
 30
0.0
 10
10.9843735985
 20
7.1492712135
 30
0.0
 10
10.9857542726
 20
7.1536914381
 30
0.0
 10
10.9871349375
 20
7.1581116661
 30
0.0
 10
10.9882855205
 20
7.1617951788
 30
0.0
 10
10.989205922
 20
7.1647420127
 30
0.0
 10
10.9897813209
 20
7.16658373
 30
0.0
 10
10.990241301
 20
7.1680572273
 30
0.0
 10
10.9905872143
 20
7.169162012
 30
0.0
 10
10.9908725227
 20
7.1700837422
 30
0.0
 10
10.9910780332
 20
7.1707268411
 30
0.0
 10
10.9911864198
 20
7.1710976244
 30
0.0
 10
10.991293198
 20
7.1713664208
 30
0.0
 10
10.9913025473
 20
7.1716707321
 30
0.0
 10
10.9913489973
 20
7.1720640926
 30
0.0
 10
10.9914144509
 20
7.1727582452
 30
0.0
 10
10.9915162341
 20
7.1737468742
 30
0.0
 10
10.9916348307
 20
7.1749345206
 30
0.0
 10
10.9917941971
 20
7.176517598
 30
0.0
 10
10.9919929814
 20
7.1784965992
 30
0.0
 10
10.992311273
 20
7.1816629149
 30
0.0
 10
10.9927090563
 20
7.1856208391
 30
0.0
 10
10.993186431
 20
7.1903703354
 30
0.0
 10
10.9936637964
 20
7.1951198351
 30
0.0
 10
10.994300287
 20
7.2014525002
 30
0.0
 10
10.9950958989
 20
7.209368332
 30
0.0
 10
10.9958915116
 20
7.2172841636
 30
0.0
 10
10.9965280008
 20
7.2236168289
 30
0.0
 10
10.9970053702
 20
7.2283663279
 30
0.0
 10
10.99748273
 20
7.2331158268
 30
0.0
 10
10.9978805599
 20
7.2370737431
 30
0.0
 10
10.9981987564
 20
7.2402400748
 30
0.0
 10
10.9983977829
 20
7.2422190351
 30
0.0
 10
10.998556652
 20
7.2438021966
 30
0.0
 10
10.9986767679
 20
7.244989586
 30
0.0
 10
10.9987737977
 20
7.2459790191
 30
0.0
 10
10.998847737
 20
7.2466717362
 30
0.0
 10
10.9988805907
 20
7.2470673967
 30
0.0
 10
10.9989317034
 20
7.2473646432
 30
0.0
 10
10.998881625
 20
7.247659974
 30
0.0
 10
10.9988501505
 20
7.2480544167
 30
0.0
 10
10.9987786247
 20
7.24874438
 30
0.0
 10
10.9986850428
 20
7.2497302046
 30
0.0
 10
10.9985690644
 20
7.2509131245
 30
0.0
 10
10.9984157119
 20
7.2524903754
 30
0.0
 10
10.9982235812
 20
7.2544619306
 30
0.0
 10
10.9979164181
 20
7.2576164236
 30
0.0
 10
10.9975323797
 20
7.2615595383
 30
0.0
 10
10.9970715698
 20
7.2662912766
 30
0.0
 10
10.9966107503
 20
7.2710230148
 30
0.0
 10
10.9959963277
 20
7.277331999
 30
0.0
 10
10.9952282981
 20
7.2852182293
 30
0.0
 10
10.9944602693
 20
7.2931044597
 30
0.0
 10
10.9938458454
 20
7.2994134438
 30
0.0
 10
10.9933850298
 20
7.3041451823
 30
0.0
 10
10.992924205
 20
7.3088769195
 30
0.0
 10
10.9925402133
 20
7.3128200376
 30
0.0
 10
10.9922329549
 20
7.3159745237
 30
0.0
 10
10.9920410665
 20
7.3179460966
 30
0.0
 10
10.9918872166
 20
7.3195233112
 30
0.0
 10
10.9917727581
 20
7.3207063417
 30
0.0
 10
10.9916744207
 20
7.3216918203
 30
0.0
 10
10.9916113843
 20
7.3223824014
 30
0.0
 10
10.9915663077
 20
7.3227758541
 30
0.0
 10
10.9915580104
 20
7.3230742257
 30
0.0
 10
10.9914522003
 20
7.3233600517
 30
0.0
 10
10.9913451338
 20
7.3237455291
 30
0.0
 10
10.9911419198
 20
7.3244180757
 30
0.0
 10
10.9908598993
 20
7.3253799225
 30
0.0
 10
10.9905179284
 20
7.3265336824
 30
0.0
 10
10.9900632058
 20
7.3280721882
 30
0.0
 10
10.9894943785
 20
7.329995266
 30
0.0
 10
10.9885844919
 20
7.3330722209
 30
0.0
 10
10.9874470522
 20
7.3369184041
 30
0.0
 10
10.9860821595
 20
7.3415338283
 30
0.0
 10
10.9847172574
 20
7.3461492514
 30
0.0
 10
10.9828973913
 20
7.3523031493
 30
0.0
 10
10.9806225574
 20
7.3599955215
 30
0.0
 10
10.9783477243
 20
7.3676878939
 30
0.0
 10
10.9765278569
 20
7.3738417914
 30
0.0
 10
10.9751629587
 20
7.3784572154
 30
0.0
 10
10.9737980516
 20
7.3830726364
 30
0.0
 10
10.9726606565
 20
7.3869188299
 30
0.0
 10
10.9717506791
 20
7.3899957637
 30
0.0
 10
10.9711820828
 20
7.3919188952
 30
0.0
 10
10.970726886
 20
7.3934572908
 30
0.0
 10
10.970386364
 20
7.3946113876
 30
0.0
 10
10.9700998103
 20
7.3955721801
 30
0.0
 10
10.9699046888
 20
7.3962466087
 30
0.0
 10
10.9697846559
 20
7.3966290706
 30
0.0
 10
10.9697186744
 20
7.3969241595
 30
0.0
 10
10.9695607875
 20
7.3971877413
 30
0.0
 10
10.9693823293
 20
7.3975501738
 30
0.0
 10
10.9690550911
 20
7.3981793102
 30
0.0
 10
10.9685954169
 20
7.3990807535
 30
0.0
 10
10.9680404654
 20
7.4001613396
 30
0.0
 10
10.9673016975
 20
7.4016025213
 30
0.0
 10
10.9663778378
 20
7.4034038614
 30
0.0
 10
10.9648998858
 20
7.4062860822
 30
0.0
 10
10.9630523692
 20
7.4098888318
 30
0.0
 10
10.9608353821
 20
7.4142121427
 30
0.0
 10
10.9586183861
 20
7.4185354505
 30
0.0
 10
10.9556623947
 20
7.424299862
 30
0.0
 10
10.9519674042
 20
7.431505376
 30
0.0
 10
10.9482724145
 20
7.4387108903
 30
0.0
 10
10.9453164218
 20
7.4444753013
 30
0.0
 10
10.9430994295
 20
7.4487986106
 30
0.0
 10
10.9408824287
 20
7.4531219159
 30
0.0
 10
10.9390349546
 20
7.4567246829
 30
0.0
 10
10.9375569158
 20
7.4596068682
 30
0.0
 10
10.9366332771
 20
7.4614082985
 30
0.0
 10
10.9358940557
 20
7.4628492952
 30
0.0
 10
10.9353404897
 20
7.4639304464
 30
0.0
 10
10.9348764805
 20
7.4648301217
 30
0.0
 10
10.934556981
 20
7.4654624143
 30
0.0
 10
10.9343661235
 20
7.4658197897
 30
0.0
 10
10.9342463231
 20
7.4660989054
 30
0.0
 10
10.934037295
 20
7.4663356516
 30
0.0
 10
10.9337897144
 20
7.4666660921
 30
0.0
 10
10.9333419474
 20
7.4672374773
 30
0.0
 10
10.9327098615
 20
7.4680573417
 30
0.0
 10
10.9319481134
 20
7.4690396382
 30
0.0
 10
10.9309335826
 20
7.4703499049
 30
0.0
 10
10.9296650311
 20
7.4719875542
 30
0.0
 10
10.9276355657
 20
7.4746078959
 30
0.0
 10
10.9250986594
 20
7.4778832877
 30
0.0
 10
10.9220544037
 20
7.481813773
 30
0.0
 10
10.9190101396
 20
7.4857442543
 30
0.0
 10
10.9149511236
 20
7.4909848975
 30
0.0
 10
10.9098773527
 20
7.4975357008
 30
0.0
 10
10.9048035823
 20
7.5040865047
 30
0.0
 10
10.9007445654
 20
7.509327147
 30
0.0
 10
10.8977003043
 20
7.5132576306
 30
0.0
 10
10.894656037
 20
7.5171881072
 30
0.0
 10
10.892119167
 20
7.5204635263
 30
0.0
 10
10.8900896275
 20
7.5230838125
 30
0.0
 10
10.8888212644
 20
7.5247216029
 30
0.0
 10
10.887806347
 20
7.52603158
 30
0.0
 10
10.8870457804
 20
7.5270147615
 30
0.0
 10
10.8864099978
 20
7.5278318566
 30
0.0
 10
10.88596883
 20
7.5284081855
 30
0.0
 10
10.8857106758
 20
7.5287307049
 30
0.0
 10
10.8855341264
 20
7.5289917823
 30
0.0
 10
10.885292341
 20
7.5291795141
 30
0.0
 10
10.8849927155
 20
7.529455407
 30
0.0
 10
10.8844577689
 20
7.5299262995
 30
0.0
 10
10.8836991023
 20
7.530605235
 30
0.0
 10
10.8827863299
 20
7.5314172902
 30
0.0
 10
10.8815701286
 20
7.5325009622
 30
0.0
 10
10.8800495933
 20
7.5338552331
 30
0.0
 10
10.8776168954
 20
7.5360222449
 30
0.0
 10
10.8745759686
 20
7.5387309484
 30
0.0
 10
10.8709268798
 20
7.5419814188
 30
0.0
 10
10.8672777847
 20
7.5452318823
 30
0.0
 10
10.8624123268
 20
7.549565836
 30
0.0
 10
10.8563305037
 20
7.5549832772
 30
0.0
 10
10.850248681
 20
7.560400719
 30
0.0
 10
10.8453832223
 20
7.5647346717
 30
0.0
 10
10.8417341296
 20
7.5679851382
 30
0.0
 10
10.8380850317
 20
7.5712355972
 30
0.0
 10
10.8350441333
 20
7.5739443364
 30
0.0
 10
10.8326113776
 20
7.5761112753
 30
0.0
 10
10.8310909893
 20
7.5774657317
 30
0.0
 10
10.8298744863
 20
7.5785490228
 30
0.0
 10
10.8289626358
 20
7.5793622416
 30
0.0
 10
10.8282010845
 20
7.5800375366
 30
0.0
 10
10.8276712876
 20
7.5805149281
 30
0.0
 10
10.827363411
 20
7.580780408
 30
0.0
 10
10.8271469703
 20
7.5810001249
 30
0.0
 10
10.8268752304
 20
7.5811410719
 30
0.0
 10
10.8265321996
 20
7.581356477
 30
0.0
 10
10.8259229086
 20
7.5817206345
 30
0.0
 10
10.8250571913
 20
7.5822475523
 30
0.0
 10
10.8240163195
 20
7.5828769889
 30
0.0
 10
10.8226291929
 20
7.5837172383
 30
0.0
 10
10.8208950441
 20
7.5847672074
 30
0.0
 10
10.8181205404
 20
7.5864473495
 30
0.0
 10
10.8146523647
 20
7.5885474614
 30
0.0
 10
10.8104905736
 20
7.5910676239
 30
0.0
 10
10.8063287773
 20
7.5935877788
 30
0.0
 10
10.8007797173
 20
7.5969479881
 30
0.0
 10
10.7938433916
 20
7.6011482486
 30
0.0
 10
10.7869070664
 20
7.6053485098
 30
0.0
 10
10.7813580058
 20
7.6087087179
 30
0.0
 10
10.7771962113
 20
7.6112288762
 30
0.0
 10
10.7730344132
 20
7.613749026
 30
0.0
 10
10.7695662594
 20
7.6158491774
 30
0.0
 10
10.766791711
 20
7.617529239
 30
0.0
 10
10.7650576762
 20
7.6185794129
 30
0.0
 10
10.7636703155
 20
7.619419242
 30
0.0
 10
10.7626301589
 20
7.6200499628
 30
0.0
 10
10.7617622039
 20
7.6205728625
 30
0.0
 10
10.7611569076
 20
7.620944193
 30
0.0
 10
10.7608074763
 20
7.6211481052
 30
0.0
 10
10.7605553966
 20
7.6213243547
 30
0.0
 10
10.7602651156
 20
7.621411481
 30
0.0
 10
10.7598913994
 20
7.6215587365
 30
0.0
 10
10.7592311875
 20
7.6218019495
 30
0.0
 10
10.7582912736
 20
7.6221569691
 30
0.0
 10
10.7571619876
 20
7.6225797514
 30
0.0
 10
10.7556567581
 20
7.6231445933
 30
0.0
 10
10.7537750552
 20
7.623850258
 30
0.0
 10
10.7507644233
 20
7.6249795381
 30
0.0
 10
10.7470011016
 20
7.626391064
 30
0.0
 10
10.7424851292
 20
7.6280849269
 30
0.0
 10
10.7379691532
 20
7.6297787812
 30
0.0
 10
10.7319478531
 20
7.6320372567
 30
0.0
 10
10.7244212275
 20
7.6348603499
 30
0.0
 10
10.7168946021
 20
7.6376834438
 30
0.0
 10
10.7108733016
 20
7.6399419181
 30
0.0
 10
10.7063573269
 20
7.6416357761
 30
0.0
 10
10.7018413495
 20
7.6433296251
 30
0.0
 10
10.6980780435
 20
7.6447411943
 30
0.0
 10
10.6950673795
 20
7.645870386
 30
0.0
 10
10.6931857582
 20
7.6465762758
 30
0.0
 10
10.6916803612
 20
7.6471406555
 30
0.0
 10
10.6905515873
 20
7.6475648496
 30
0.0
 10
10.6896100709
 20
7.6479154523
 30
0.0
 10
10.6889527198
 20
7.6481665503
 30
0.0
 10
10.6885744199
 20
7.6483011721
 30
0.0
 10
10.6882982184
 20
7.6484271049
 30
0.0
 10
10.6879932585
 20
7.6484576032
 30
0.0
 10
10.6875966766
 20
7.6485315563
 30
0.0
 10
10.6868979845
 20
7.6486454643
 30
0.0
 10
10.6859022963
 20
7.6488162988
 30
0.0
 10
10.6847064247
 20
7.6490178294
 30
0.0
 10
10.6831122945
 20
7.6492877491
 30
0.0
 10
10.6811195066
 20
7.6496247336
 30
0.0
 10
10.677931116
 20
7.6501641409
 30
0.0
 10
10.6739456037
 20
7.6508383204
 30
0.0
 10
10.6691629992
 20
7.6516473699
 30
0.0
 10
10.664380392
 20
7.6524564103
 30
0.0
 10
10.6580035833
 20
7.6535351339
 30
0.0
 10
10.6500325721
 20
7.6548835375
 30
0.0
 10
10.6404673588
 20
7.6565016221
 30
0.0
 10
10.6277137411
 20
7.6586590682
 30
0.0
 10
10.6181485278
 20
7.6602771528
 30
0.0
 10
10.6117717189
 20
7.6613558759
 30
0.0
  0
ENDSEC
  0
SECTION
  2
OBJECTS
  0
DICTIONARY
  5
C
100
AcDbDictionary
280
0
281
1
  3
ACAD_GROUP
350
D
  3
ACAD_MLINESTYLE
350
17
  3
ACAD_LAYOUT
350
1A
  3
ACAD_PLOTSETTINGS
350
19
  3
ACAD_PLOTSTYLENAME
350
E
  3
ACAD_IMAGE_DICT
350
       329
  3
ACAD_IMAGE_VARS
350
       32A
  3
ACAD_TABLESTYLE
350
       32B
  0
IMAGEDEF_REACTOR
  5
328
100
AcDbRasterImageDefReactor
 90
2
330
27F
  0
DICTIONARY
  5
D
102
{ACAD_REACTORS
330
C
102
}
100
AcDbDictionary
280
0
281
1
  0
ACDBDICTIONARYWDFLT
  5
E
102
{ACAD_REACTORS
330
C
102
}
100
AcDbDictionary
281
1
  3
Normal
350
F
100
AcDbDictionaryWithDefault
340
F
  0
DICTIONARY
  5
329
330
C
100
AcDbDictionary
281
1
  3
FAK_assy_2_img_1
350
       32E
  0
RASTERVARIABLES
  5
32A
330
C
100
AcDbRasterVariables
 90
0
 70
0
 71
1
 72
5
  0
DICTIONARY
  5
17
102
{ACAD_REACTORS
330
C
102
}
100
AcDbDictionary
280
0
281
1
  3
Standard
350
18
  0
DICTIONARY
  5
32B
330
C
100
AcDbDictionary
281
1
  3
Standard
350
       32F
  3
Standard1
350
       330
  0
DICTIONARY
  5
19
102
{ACAD_REACTORS
330
C
102
}
100
AcDbDictionary
281
1
  0
DICTIONARY
  5
1A
102
{ACAD_REACTORS
330
C
102
}
100
AcDbDictionary
281
1
  3
Model
350
32C
  3
Layout1
350
32D
  0
ACDBPLACEHOLDER
  5
F
102
{ACAD_REACTORS
330
E
102
}
  0
MLINESTYLE
  5
18
102
{ACAD_REACTORS
330
17
102
}
100
AcDbMlineStyle
  2
STANDARD
 70
0
  3

 62
256
 51
90.0
 52
90.0
 71
2
 49
0.5
 62
256
  6
BYLAYER
 49
-0.5
 62
256
  6
BYLAYER
  0
LAYOUT
  5
32C
102
{ACAD_REACTORS
330
1A
102
}
100
AcDbPlotSettings
  1

  2
none_device
  4
ANSI_C_(22.00_x_17.00_Inches)
  6

 40
0.0
 41
0.0
 42
0.0
 43
0.0
 44
558.8
 45
431.8
 46
0.0
 47
0.0
 48
0.0
 49
0.0
140
0.0
141
0.0
142
1.0
143
1.0
 70
1024
 72
0
 73
0
 74
0
  7

 75
0
147
1.0
148
0.0
149
0.0
100
AcDbLayout
  1
Model
 70
0
 71
0
 10
0.0
 20
0.0
 11
22.0
 21
17.0
 12
0.0
 22
0.0
 32
0.0
 14
0.0
 24
0.0
 34
0.0
 15
0.0
 25
0.0
 35
0.0
146
0.0
 13
0.0
 23
0.0
 33
0.0
 16
1.0
 26
0.0
 36
0.0
 17
0.0
 27
1.0
 37
0.0
 76
0
330
204
345
0
346
0
  0
LAYOUT
  5
32D
102
{ACAD_REACTORS
330
1A
102
}
100
AcDbPlotSettings
  1

  2
none_device
  4
ANSI_C_(22.00_x_17.00_Inches)
  6

 40
0.0
 41
0.0
 42
0.0
 43
0.0
 44
558.8
 45
431.8
 46
0.0
 47
0.0
 48
0.0
 49
0.0
140
0.0
141
0.0
142
1.0
143
1.0
 70
0
 72
0
 73
0
 74
0
  7

 75
0
147
1.0
148
0.0
149
0.0
100
AcDbLayout
  1
Layout1
 70
0
 71
1
 10
0.0
 20
0.0
 11
22.0
 21
17.0
 12
0.0
 22
0.0
 32
0.0
 14
0.0
 24
0.0
 34
0.0
 15
0.0
 25
0.0
 35
0.0
146
0.0
 13
0.0
 23
0.0
 33
0.0
 16
1.0
 26
0.0
 36
0.0
 17
0.0
 27
1.0
 37
0.0
 76
0
330
205
345
0
346
0
  0
IMAGEDEF
  5
32E
102
{ACAD_REACTORS
330
329
330
328
102
}
100
AcDbRasterImageDef
 90
0
  1
FAK_assy_2_img_1.png
 10
369.0
 20
92.0
 11
0.0066666667
 21
0.0066666667
280
1
281
0
  0
TABLESTYLE
  5
32F
102
{ACAD_REACTORS
330
32B
330
282
330
283
102
}
330
32B
100
AcDbTableStyle
  3
Standard
 70
0
 71
0
 40
0.06
 41
0.06
280
1
281
1
  7
Standard
140
0.18
170
1
 62
0
 63
7
283
0
  7
Standard
140
0.18
170
1
 62
0
 63
7
283
0
  7
Standard
140
0.18
170
1
 62
0
 63
7
283
0
  0
TABLESTYLE
  5
330
102
{ACAD_REACTORS
330
32B
330
281
102
}
330
32B
100
AcDbTableStyle
  3
Standard1
 70
1
 71
0
 40
0.06
 41
0.06
280
1
281
1
  7
Standard
140
0.18
170
1
 62
0
 63
7
283
0
  7
Standard
140
0.18
170
1
 62
0
 63
7
283
0
  7
Standard
140
0.18
170
1
 62
0
 63
7
283
0
  0
ENDSEC
  0
EOF
