999
DXF file: FAJ_assy_2.dxf
999
Pro/ENGINEER 2014200 by Parametric Technology Corporation
  0
SECTION
  2
HEADER
  9
$ACADVER
  1
AC1021
  9
$DWGCODEPAGE
  3
ANSI_1252
  9
$EXTMAX
 10
22.0
 20
17.0
 30
0.0
  9
$EXTMIN
 10
0.0
 20
0.0
 30
0.0
  9
$LIMMIN
 10
0.0
 20
0.0
  9
$LIMMAX
 10
22.0
 20
17.0
  9
$VIEWCTR
 10
11.0
 20
8.5
  9
$VIEWSIZE
 40
17.0
  9
$CLAYER
  8
0
  9
$LTSCALE
 40
1.21
  9
$CELTYPE
  6
BYLAYER
  9
$DIMSCALE
 40
1.0
  9
$DIMASZ
 40
0.1875
  9
$DIMEXO
 40
0.0625
  9
$DIMDLI
 40
0.836
  9
$DIMEXE
 40
0.125
  9
$DIMCEN
 40
0.198
  9
$DIMLFAC
 40
1.0
  9
$DIMBLK
  1
_FILLED
  9
$DIMTXT
 40
0.1
  9
$DIMTOL
 70
0
  9
$DIMLIM
 70
0
  9
$DIMTFAC
 40
1.0
  9
$DIMGAP
 40
0.09
  9
$DIMDSEP
 70
46
  9
$AUNITS
 70
0
  9
$PDMODE
 70
3
  9
$PDSIZE
 40
0.3125
  9
$HANDSEED
  5
317
  9
$TILEMODE
 70
1
  9
$MEASUREMENT
 70
0
  9
$INSUNITS
 70
1
  0
ENDSEC
  0
SECTION
  2
CLASSES
  0
CLASS
  1
ACDBDICTIONARYWDFLT
  2
AcDbDictionaryWithDefault
  3
AutoCAD 2000
 90
0
 91
1
280
0
281
0
  0
CLASS
  1
ACDBPLACEHOLDER
  2
AcDbPlaceHolder
  3
AutoCAD 2000
 90
0
 91
1
280
0
281
0
  0
CLASS
  1
LAYOUT
  2
AcDbLayout
  3
AutoCAD 2000
 90
0
 91
0
280
0
281
0
  0
CLASS
  1
RASTERVARIABLES
  2
AcDbRasterVariables
  3
ISM
 90
0
 91
1
280
0
281
0
  0
CLASS
  1
IMAGEDEF
  2
AcDbRasterImageDef
  3
ISM
 90
0
 91
1
280
0
281
0
  0
CLASS
  1
IMAGEDEF_REACTOR
  2
AcDbRasterImageDefReactor
  3
ISM
 90
0
 91
1
280
0
281
0
  0
CLASS
  1
IMAGE
  2
AcDbRasterImage
  3
ISM
 90
127
 91
1
280
0
281
1
  0
CLASS
  1
TABLESTYLE
  2
AcDbTableStyle
  3
ObjectDBX Classes
 90
2047
 91
1
280
0
281
0
  0
CLASS
  1
ACAD_TABLE
  2
AcDbTable
  3
ObjectDBX Classes
 90
1025
 91
3
280
0
281
1
  0
ENDSEC
  0
SECTION
  2
TABLES
  0
TABLE
  2
VPORT
  5
8
100
AcDbSymbolTable
 70
2
  0
VPORT
  5
1F4
100
AcDbSymbolTableRecord
100
AcDbViewportTableRecord
  2
*ACTIVE
 70
0
 10
0.0
 20
0.0
 11
1.0
 21
1.0
 12
11.0
 22
8.5
 13
0.0
 23
0.0
 14
1.0
 24
1.0
 15
0.0
 25
0.0
 16
0.0
 26
0.0
 36
1.0
 17
0.0
 27
0.0
 37
0.0
 40
17.0
 41
1.2941176471
 42
50.0
 43
0.0
 44
0.0
 50
0.0
 51
0.0
 71
0
 72
100
 73
1
 74
1
 75
0
 76
0
 77
0
 78
0
  0
ENDTAB
  0
TABLE
  2
LTYPE
  5
5
100
AcDbSymbolTable
 70
6
  0
LTYPE
  5
14
100
AcDbSymbolTableRecord
100
AcDbLinetypeTableRecord
  2
BYBLOCK
 70
0
  3

 72
65
 73
0
 40
0.0
  0
LTYPE
  5
15
100
AcDbSymbolTableRecord
100
AcDbLinetypeTableRecord
  2
BYLAYER
 70
0
  3

 72
65
 73
0
 40
0.0
  0
LTYPE
  5
16
100
AcDbSymbolTableRecord
100
AcDbLinetypeTableRecord
  2
CONTINUOUS
 70
64
  3
Solid line
 72
65
 73
0
 40
0.0
  0
LTYPE
  5
1F5
100
AcDbSymbolTableRecord
100
AcDbLinetypeTableRecord
  2
CENTER
 70
64
  3
____ _ ____ _ ____ _ ____ _ ____ _ ____ _ ____
 72
65
 73
4
 40
0.6
 49
0.375
 74
0
 49
-0.075
 74
0
 49
0.075
 74
0
 49
-0.075
 74
0
  0
LTYPE
  5
1F6
100
AcDbSymbolTableRecord
100
AcDbLinetypeTableRecord
  2
HIDDEN
 70
64
  3
- - - - - - - - - - - - - - - - - - - -
 72
65
 73
2
 40
0.2
 49
0.1
 74
0
 49
-0.1
 74
0
  0
LTYPE
  5
1F7
100
AcDbSymbolTableRecord
100
AcDbLinetypeTableRecord
  2
PHANTOM
 70
64
  3
_____ _ _ _____ _ _ _____ _ _ _____
 72
65
 73
6
 40
0.8
 49
0.45
 74
0
 49
-0.05
 74
0
 49
0.1
 74
0
 49
-0.05
 74
0
 49
0.1
 74
0
 49
-0.05
 74
0
  0
LTYPE
  5
1F8
100
AcDbSymbolTableRecord
100
AcDbLinetypeTableRecord
  2
DOT
 70
64
  3
. . . . . . . . . . . . . . . . . . . .
 72
65
 73
2
 40
0.2
 49
0.1
 74
0
 49
-0.1
 74
0
  0
LTYPE
  5
1F9
100
AcDbSymbolTableRecord
100
AcDbLinetypeTableRecord
  2
DASHED
 70
64
  3
- - - - - - - - - - - - - - - - - - - -
 72
65
 73
2
 40
0.2
 49
0.1
 74
0
 49
-0.1
 74
0
  0
ENDTAB
  0
TABLE
  2
LAYER
  5
2
100
AcDbSymbolTable
 70
36
  0
LAYER
  5
10
100
AcDbSymbolTableRecord
100
AcDbLayerTableRecord
  2
0
 70
0
 62
7
  6
CONTINUOUS
370
-3
390
F
  0
LAYER
  5
1FA
100
AcDbSymbolTableRecord
100
AcDbLayerTableRecord
  2
DEFAULT_1
 70
0
 62
7
  6
CENTER
370
-3
390
F
  0
LAYER
  5
1FB
100
AcDbSymbolTableRecord
100
AcDbLayerTableRecord
  2
DEFAULT_2
 70
0
 62
8
  6
HIDDEN
370
-3
390
F
  0
LAYER
  5
1FC
100
AcDbSymbolTableRecord
100
AcDbLayerTableRecord
  2
DEFAULT_3
 70
0
 62
7
  6
PHANTOM
370
-3
390
F
  0
LAYER
  5
1FD
100
AcDbSymbolTableRecord
100
AcDbLayerTableRecord
  2
DATUM_PLANES
 70
0
 62
7
  6
CONTINUOUS
370
-3
390
F
  0
LAYER
  5
1FE
100
AcDbSymbolTableRecord
100
AcDbLayerTableRecord
  2
PORT_AREAS
 70
0
 62
7
  6
CONTINUOUS
370
-3
390
F
  0
LAYER
  5
1FF
100
AcDbSymbolTableRecord
100
AcDbLayerTableRecord
  2
SUNNBOMCOSMETIC
 70
0
 62
7
  6
CONTINUOUS
370
-3
390
F
  0
LAYER
  5
200
100
AcDbSymbolTableRecord
100
AcDbLayerTableRecord
  2
SUNNBOMSTAMPING
 70
0
 62
7
  6
CONTINUOUS
370
-3
390
F
  0
LAYER
  5
201
100
AcDbSymbolTableRecord
100
AcDbLayerTableRecord
  2
THREADS
 70
0
 62
7
  6
CONTINUOUS
370
-3
390
F
  0
ENDTAB
  0
TABLE
  2
STYLE
  5
3
100
AcDbSymbolTable
 70
1
  0
STYLE
  5
11
100
AcDbSymbolTableRecord
100
AcDbTextStyleTableRecord
  2
STANDARD
 70
0
 40
0.0
 41
0.8
 50
0.0
 71
0
 42
0.2
  3
txt
  4

  0
STYLE
  5
202
100
AcDbSymbolTableRecord
100
AcDbTextStyleTableRecord
  2
TEXTSTYLE_1
 70
0
 40
0.0
 41
0.8
 50
0.0
 71
0
 42
0.2
  3
gdt
  4

  0
ENDTAB
  0
TABLE
  2
VIEW
  5
6
100
AcDbSymbolTable
 70
0
  0
ENDTAB
  0
TABLE
  2
UCS
  5
7
100
AcDbSymbolTable
 70
0
  0
ENDTAB
  0
TABLE
  2
APPID
  5
9
100
AcDbSymbolTable
 70
1
  0
APPID
  5
203
100
AcDbSymbolTableRecord
100
AcDbRegAppTableRecord
  2
ACAD
 70
0
  0
ENDTAB
  0
TABLE
  2
BLOCK_RECORD
  5
1
100
AcDbSymbolTable
 70
0
  0
BLOCK_RECORD
  5
204
100
AcDbSymbolTableRecord
100
AcDbBlockTableRecord
  2
*Model_Space
  0
BLOCK_RECORD
  5
205
100
AcDbSymbolTableRecord
100
AcDbBlockTableRecord
  2
*Paper_Space
  0
BLOCK_RECORD
  5
206
100
AcDbSymbolTableRecord
100
AcDbBlockTableRecord
  2
SUN_FIRST_THIRD_ANGLE_BL0
  0
BLOCK_RECORD
  5
207
100
AcDbSymbolTableRecord
100
AcDbBlockTableRecord
  2
*T1
  0
BLOCK_RECORD
  5
208
100
AcDbSymbolTableRecord
100
AcDbBlockTableRecord
  2
*T2
  0
BLOCK_RECORD
  5
209
100
AcDbSymbolTableRecord
100
AcDbBlockTableRecord
  2
*T3
  0
ENDTAB
  0
TABLE
  2
DIMSTYLE
  5
A
100
AcDbSymbolTable
 70
1
100
AcDbDimStyleTable
 71
0
  0
DIMSTYLE
105
20A
100
AcDbSymbolTableRecord
100
AcDbDimStyleTableRecord
  2
STANDARD
 70
0
  3

  4

 40
1.0
 41
0.1875
 42
0.0625
 43
0.38
 44
0.125
 45
0.0
 46
0.0
 47
0.001
 48
0.001
140
0.1
141
0.09
142
0.0
143
25.4
144
1.0
145
0.0
146
1.0
147
0.09
 71
0.0
 72
0.0
 73
1
 74
1
 75
0
 76
0
 77
0
 78
4
170
0
171
2
172
0
173
0
174
0
175
0
176
0
177
0
178
0
270
2
271
3
272
3
273
2
274
2
275
0
280
0
281
0
282
0
283
1
284
4
285
0
286
0
287
3
288
0
340
11
278
46
  0
ENDTAB
  0
ENDSEC
  0
SECTION
  2
BLOCKS
  0
BLOCK
  5
20
100
AcDbEntity
  8
0
100
AcDbBlockBegin
  2
*Model_Space
 70
0
 10
0.0
 20
0.0
 30
0.0
  3
*Model_Space
  1

  0
ENDBLK
  5
21
100
AcDbEntity
  8
0
100
AcDbBlockEnd
  0
BLOCK
  5
1C
100
AcDbEntity
  8
0
100
AcDbBlockBegin
  2
*Paper_Space
 70
0
 10
0.0
 20
0.0
 30
0.0
  3
*Paper_Space
  1

  0
ENDBLK
  5
1D
100
AcDbEntity
  8
0
100
AcDbBlockEnd
  0
BLOCK
  5
20B
100
AcDbEntity
  8
0
100
AcDbBlockBegin
 62
2
  6
CONTINUOUS
  2
SUN_FIRST_THIRD_ANGLE_BL0
 70
64
 10
20.4816717061
 20
1.2289683772
  3
SUN_FIRST_THIRD_ANGLE_BL0
  1

  0
TEXT
  5
20C
100
AcDbEntity
  8
0
100
AcDbText
 62
2
  6
CONTINUOUS
 10
19.4750896608
 20
1.4136269581
  7
STANDARD
 40
0.08
  1
FIRST ANGLE
 41
0.8
 72
0
100
AcDbText
  0
TEXT
  5
20D
100
AcDbEntity
  8
0
100
AcDbText
 62
2
  6
CONTINUOUS
 10
20.7842537513
 20
1.4047600029
  7
STANDARD
 40
0.08
  1
THIRD ANGLE
 41
0.8
 72
0
100
AcDbText
  0
LINE
  5
20E
100
AcDbEntity
  8
0
100
AcDbLine
 62
7
  6
CONTINUOUS
 10
19.4767170086
 20
1.1727031207
 11
19.6334271527
 21
1.1717972817
  0
LINE
  5
20F
100
AcDbEntity
  8
0
100
AcDbLine
 62
7
  6
CONTINUOUS
 10
19.6596964832
 20
1.1717972817
 11
19.6950230232
 21
1.171593082
  0
LINE
  5
210
100
AcDbEntity
  8
0
100
AcDbLine
 62
7
  6
CONTINUOUS
 10
19.7194818561
 20
1.1708914427
 11
19.8852396156
 21
1.1699333054
  0
LINE
  5
211
100
AcDbEntity
  8
0
100
AcDbLine
 62
7
  6
CONTINUOUS
 10
19.4758111696
 20
1.2723454088
 11
19.88525039
 21
1.3511534004
  0
LINE
  5
212
100
AcDbEntity
  8
0
100
AcDbLine
 62
7
  6
CONTINUOUS
 10
19.88525039
 20
1.3511534004
 11
19.8831348489
 21
0.9851647912
  0
LINE
  5
213
100
AcDbEntity
  8
0
100
AcDbLine
 62
7
  6
CONTINUOUS
 10
19.8831348489
 20
0.9851647912
 11
19.4767170086
 21
1.0658141206
  0
LINE
  5
214
100
AcDbEntity
  8
0
100
AcDbLine
 62
7
  6
CONTINUOUS
 10
19.4767170086
 20
1.0658141206
 11
19.4779056764
 21
1.2714536432
  0
CIRCLE
  5
215
100
AcDbEntity
  8
0
100
AcDbCircle
 62
7
  6
CONTINUOUS
 10
20.2068232291
 20
1.1717972817
 40
0.175742101
  0
CIRCLE
  5
216
100
AcDbEntity
  8
0
100
AcDbCircle
 62
7
  6
CONTINUOUS
 10
20.2068232291
 20
1.1717972817
 40
0.1005522074
  0
LINE
  5
217
100
AcDbEntity
  8
0
100
AcDbLine
 62
7
  6
CONTINUOUS
 10
20.2077290681
 20
1.3756110529
 11
20.2071171714
 21
1.2379342989
  0
LINE
  5
218
100
AcDbEntity
  8
0
100
AcDbLine
 62
7
  6
CONTINUOUS
 10
20.2077290681
 20
1.2016899681
 11
20.2074674401
 21
1.1428236749
  0
LINE
  5
219
100
AcDbEntity
  8
0
100
AcDbLine
 62
7
  6
CONTINUOUS
 10
20.208634907
 20
1.101141841
 11
20.2080230104
 21
0.963465087
  0
LINE
  5
21A
100
AcDbEntity
  8
0
100
AcDbLine
 62
7
  6
CONTINUOUS
 10
20.0066328138
 20
1.1745147986
 11
20.1443095678
 21
1.1739029019
  0
LINE
  5
21B
100
AcDbEntity
  8
0
100
AcDbLine
 62
7
  6
CONTINUOUS
 10
20.1832714155
 20
1.1727031207
 11
20.238153505
 21
1.172335442
  0
LINE
  5
21C
100
AcDbEntity
  8
0
100
AcDbLine
 62
7
  6
CONTINUOUS
 10
20.2756669918
 20
1.1717972817
 11
20.407916871
 21
1.1712095044
  0
CIRCLE
  5
21D
100
AcDbEntity
  8
0
100
AcDbCircle
 62
7
  6
CONTINUOUS
 10
20.7509457401
 20
1.1693297793
 40
0.1722024983
  0
CIRCLE
  5
21E
100
AcDbEntity
  8
0
100
AcDbCircle
 62
7
  6
CONTINUOUS
 10
20.7509457401
 20
1.1693297793
 40
0.0985164967
  0
LINE
  5
21F
100
AcDbEntity
  8
0
100
AcDbLine
 62
7
  6
CONTINUOUS
 10
20.7169767782
 20
1.170462078
 11
20.7825395137
 21
1.1682766535
  0
LINE
  5
220
100
AcDbEntity
  8
0
100
AcDbLine
 62
7
  6
CONTINUOUS
 10
20.8177513651
 20
1.1693297793
 11
20.947965719
 21
1.1693297793
  0
LINE
  5
221
100
AcDbEntity
  8
0
100
AcDbLine
 62
7
  6
CONTINUOUS
 10
20.6875370113
 20
1.170462078
 11
20.5573226574
 21
1.170462078
  0
LINE
  5
222
100
AcDbEntity
  8
0
100
AcDbLine
 62
7
  6
CONTINUOUS
 10
20.7486811426
 20
1.1987695462
 11
20.7486811426
 21
1.1432869085
  0
LINE
  5
223
100
AcDbEntity
  8
0
100
AcDbLine
 62
7
  6
CONTINUOUS
 10
20.7498134414
 20
1.1059210505
 11
20.7498134414
 21
0.9757066966
  0
LINE
  5
224
100
AcDbEntity
  8
0
100
AcDbLine
 62
7
  6
CONTINUOUS
 10
20.7486811426
 20
1.2338708068
 11
20.7486811426
 21
1.3640851607
  0
LINE
  5
225
100
AcDbEntity
  8
0
100
AcDbLine
 62
7
  6
CONTINUOUS
 10
21.0702539817
 20
1.2701043662
 11
21.4790138229
 21
1.3448360823
  0
LINE
  5
226
100
AcDbEntity
  8
0
100
AcDbLine
 62
7
  6
CONTINUOUS
 10
21.4790138229
 20
1.3448360823
 11
21.4790138229
 21
0.9779712941
  0
LINE
  5
227
100
AcDbEntity
  8
0
100
AcDbLine
 62
7
  6
CONTINUOUS
 10
21.4790138229
 20
0.9779712941
 11
21.069121683
 21
1.0617614
  0
LINE
  5
228
100
AcDbEntity
  8
0
100
AcDbLine
 62
7
  6
CONTINUOUS
 10
21.0702539817
 20
1.2701043662
 11
21.069121683
 21
1.0617614
  0
LINE
  5
229
100
AcDbEntity
  8
0
100
AcDbLine
 62
7
  6
CONTINUOUS
 10
21.4790138229
 20
1.1693297793
 11
21.3159628059
 21
1.1693297793
  0
LINE
  5
22A
100
AcDbEntity
  8
0
100
AcDbLine
 62
7
  6
CONTINUOUS
 10
21.2876553377
 20
1.1693297793
 11
21.2502894796
 21
1.1693297793
  0
LINE
  5
22B
100
AcDbEntity
  8
0
100
AcDbLine
 62
7
  6
CONTINUOUS
 10
21.2208497126
 20
1.1659328831
 11
21.0713862804
 21
1.1659328831
  0
LINE
  5
22C
100
AcDbEntity
  8
0
100
AcDbLine
 62
7
  6
CONTINUOUS
 10
20.4796138713
 20
1.5284908897
 11
20.4766766948
 21
0.9294458646
  0
ENDBLK
  5
22D
100
AcDbEntity
  8
0
  6
BYBLOCK
 62
0
100
AcDbBlockEnd
  0
BLOCK
  5
22E
100
AcDbEntity
  8
0
100
AcDbBlockBegin
  2
*T1
 70
1
 10
0.0
 20
0.0
  3
*T1
  1

  0
LINE
  5
22F
100
AcDbEntity
  8
0
100
AcDbLine
 62
2
  6
CONTINUOUS
 10
9.275
 20
0.0
 11
-0.0
 21
0.0
  0
LINE
  5
230
100
AcDbEntity
  8
0
100
AcDbLine
 62
2
  6
CONTINUOUS
 10
9.275
 20
0.0
 11
9.275
 21
1.25
  0
LINE
  5
231
100
AcDbEntity
  8
0
100
AcDbLine
 62
2
  6
CONTINUOUS
 10
9.275
 20
0.625
 11
-0.0
 21
0.625
  0
LINE
  5
232
100
AcDbEntity
  8
0
100
AcDbLine
 62
2
  6
CONTINUOUS
 10
9.275
 20
1.25
 11
-0.0
 21
1.25
  0
LINE
  5
233
100
AcDbEntity
  8
0
100
AcDbLine
 62
2
  6
CONTINUOUS
 10
6.8
 20
0.0
 11
6.8
 21
1.25
  0
LINE
  5
234
100
AcDbEntity
  8
0
100
AcDbLine
 62
2
  6
CONTINUOUS
 10
6.4
 20
0.0
 11
6.4
 21
0.625
  0
LINE
  5
235
100
AcDbEntity
  8
0
100
AcDbLine
 62
2
  6
CONTINUOUS
 10
5.9
 20
0.0
 11
5.9
 21
0.625
  0
LINE
  5
236
100
AcDbEntity
  8
0
100
AcDbLine
 62
2
  6
CONTINUOUS
 10
5.2
 20
0.0
 11
5.2
 21
0.625
  0
LINE
  5
237
100
AcDbEntity
  8
0
100
AcDbLine
 62
2
  6
CONTINUOUS
 10
4.1
 20
0.0
 11
4.1
 21
1.25
  0
LINE
  5
238
100
AcDbEntity
  8
0
100
AcDbLine
 62
2
  6
CONTINUOUS
 10
-0.0
 20
0.0
 11
-0.0
 21
1.25
  0
MTEXT
  5
239
100
AcDbEntity
  8
0
100
AcDbMText
 62
2
  6
CONTINUOUS
  7
STANDARD
 71
2
 72
1
 10
6.6
 20
0.325
 30
0.0
 11
1.0
 21
0.0
 31
0.0
 44
0.9
  1
2
 40
0.125
 41
0.2
  0
MTEXT
  5
23A
100
AcDbEntity
  8
0
100
AcDbMText
 62
2
  6
CONTINUOUS
  7
STANDARD
 71
2
 72
1
 10
6.15
 20
0.325
 30
0.0
 11
1.0
 21
0.0
 31
0.0
 44
0.9
  1
C
 40
0.125
 41
0.2
  0
MTEXT
  5
23B
100
AcDbEntity
  8
0
100
AcDbMText
 62
2
  6
CONTINUOUS
  7
STANDARD
 71
2
 72
1
 10
5.55
 20
0.325
 30
0.0
 11
1.0
 21
0.0
 31
0.0
 44
0.9
  1
2.000
 40
0.125
 41
1.0
  0
MTEXT
  5
23C
100
AcDbEntity
  8
0
100
AcDbMText
 62
2
  6
CONTINUOUS
  7
STANDARD
 71
2
 72
1
 10
4.65
 20
0.325
 30
0.0
 11
1.0
 21
0.0
 31
0.0
 44
0.9
  1
May-31-23
 40
0.125
 41
1.8
  0
MTEXT
  5
23D
100
AcDbEntity
  8
0
100
AcDbMText
 62
2
  6
CONTINUOUS
  7
STANDARD
 71
2
 72
1
 10
2.05
 20
0.4625
 30
0.0
 11
1.0
 21
0.0
 31
0.0
 44
0.9
  1
T-10A Line mount\PNinety degree
 40
0.125
 41
3.2
  0
MTEXT
  5
23E
100
AcDbEntity
  8
0
100
AcDbMText
 62
2
  6
CONTINUOUS
  7
STANDARD
 71
1
 72
1
 10
6.45
 20
0.5625
 30
0.0
 11
1.0
 21
0.0
 31
0.0
 44
0.9
  1
SHEET
 40
0.06
 41
0.48
  0
MTEXT
  5
23F
100
AcDbEntity
  8
0
100
AcDbMText
 62
2
  6
CONTINUOUS
  7
STANDARD
 71
1
 72
1
 10
5.95
 20
0.5625
 30
0.0
 11
1.0
 21
0.0
 31
0.0
 44
0.9
  1
DWG SIZE
 40
0.06
 41
0.768
  0
MTEXT
  5
240
100
AcDbEntity
  8
0
100
AcDbMText
 62
2
  6
CONTINUOUS
  7
STANDARD
 71
1
 72
1
 10
5.25
 20
0.5625
 30
0.0
 11
1.0
 21
0.0
 31
0.0
 44
0.9
  1
SCALE
 40
0.06
 41
0.48
  0
MTEXT
  5
241
100
AcDbEntity
  8
0
100
AcDbMText
 62
2
  6
CONTINUOUS
  7
STANDARD
 71
1
 72
1
 10
4.15
 20
0.5625
 30
0.0
 11
1.0
 21
0.0
 31
0.0
 44
0.9
  1
DATE
 40
0.06
 41
0.384
  0
MTEXT
  5
242
100
AcDbEntity
  8
0
100
AcDbMText
 62
2
  6
CONTINUOUS
  7
STANDARD
 71
1
 72
1
 10
0.05
 20
0.5625
 30
0.0
 11
1.0
 21
0.0
 31
0.0
 44
0.9
  1
DESCRIPTION
 40
0.06
 41
1.056
  0
MTEXT
  5
243
100
AcDbEntity
  8
0
100
AcDbMText
 62
2
  6
CONTINUOUS
  7
STANDARD
 71
2
 72
1
 10
5.45
 20
1.0375
 30
0.0
 11
1.0
 21
0.0
 31
0.0
 44
0.9
  1
ALL DIMENSIONS IN INCH\PVIEWS ARE THIRD ANGLE
 40
0.12
 41
4.224
  0
MTEXT
  5
244
100
AcDbEntity
  8
0
100
AcDbMText
 62
2
  6
CONTINUOUS
  7
STANDARD
 71
2
 72
1
 10
2.05
 20
0.95
 30
0.0
 11
1.0
 21
0.0
 31
0.0
 44
0.9
  1
FAJ
 40
0.125
 41
0.6
  0
MTEXT
  5
245
100
AcDbEntity
  8
0
100
AcDbMText
 62
2
  6
CONTINUOUS
  7
STANDARD
 71
1
 72
1
 10
0.05
 20
1.1875
 30
0.0
 11
1.0
 21
0.0
 31
0.0
 44
0.9
  1
MODEL
 40
0.06
 41
0.48
  0
ENDBLK
  5
246
100
AcDbEntity
  8
0
  6
BYBLOCK
 62
0
100
AcDbBlockEnd
  0
BLOCK
  5
247
100
AcDbEntity
  8
0
100
AcDbBlockBegin
  2
*T2
 70
1
 10
0.0
 20
0.0
  3
*T2
  1

  0
LINE
  5
248
100
AcDbEntity
  8
0
100
AcDbLine
 62
2
  6
CONTINUOUS
 10
0.0
 20
0.0
 11
9.055
 21
0.0
  0
LINE
  5
249
100
AcDbEntity
  8
0
100
AcDbLine
 62
2
  6
CONTINUOUS
 10
0.0
 20
0.0
 11
0.0
 21
-2.594
  0
LINE
  5
24A
100
AcDbEntity
  8
0
100
AcDbLine
 62
2
  6
CONTINUOUS
 10
0.0
 20
-0.344
 11
9.055
 21
-0.344
  0
LINE
  5
24B
100
AcDbEntity
  8
0
100
AcDbLine
 62
2
  6
CONTINUOUS
 10
0.0
 20
-0.594
 11
9.055
 21
-0.594
  0
LINE
  5
24C
100
AcDbEntity
  8
0
100
AcDbLine
 62
2
  6
CONTINUOUS
 10
0.0
 20
-0.844
 11
9.055
 21
-0.844
  0
LINE
  5
24D
100
AcDbEntity
  8
0
100
AcDbLine
 62
2
  6
CONTINUOUS
 10
0.0
 20
-1.094
 11
9.055
 21
-1.094
  0
LINE
  5
24E
100
AcDbEntity
  8
0
100
AcDbLine
 62
2
  6
CONTINUOUS
 10
0.0
 20
-1.344
 11
9.055
 21
-1.344
  0
LINE
  5
24F
100
AcDbEntity
  8
0
100
AcDbLine
 62
2
  6
CONTINUOUS
 10
0.0
 20
-1.594
 11
9.055
 21
-1.594
  0
LINE
  5
250
100
AcDbEntity
  8
0
100
AcDbLine
 62
2
  6
CONTINUOUS
 10
0.0
 20
-1.844
 11
9.055
 21
-1.844
  0
LINE
  5
251
100
AcDbEntity
  8
0
100
AcDbLine
 62
2
  6
CONTINUOUS
 10
0.0
 20
-2.094
 11
9.055
 21
-2.094
  0
LINE
  5
252
100
AcDbEntity
  8
0
100
AcDbLine
 62
2
  6
CONTINUOUS
 10
0.0
 20
-2.344
 11
9.055
 21
-2.344
  0
LINE
  5
253
100
AcDbEntity
  8
0
100
AcDbLine
 62
2
  6
CONTINUOUS
 10
0.0
 20
-2.594
 11
9.055
 21
-2.594
  0
LINE
  5
254
100
AcDbEntity
  8
0
100
AcDbLine
 62
2
  6
CONTINUOUS
 10
3.055
 20
0.0
 11
3.055
 21
-2.594
  0
LINE
  5
255
100
AcDbEntity
  8
0
100
AcDbLine
 62
2
  6
CONTINUOUS
 10
9.055
 20
0.0
 11
9.055
 21
-2.594
  0
MTEXT
  5
256
100
AcDbEntity
  8
0
100
AcDbMText
 62
2
  6
CONTINUOUS
  7
STANDARD
 71
2
 72
1
 10
1.5275
 20
-0.0995
 30
0.0
 11
1.0
 21
0.0
 31
0.0
 44
0.9
  1
Technical Data
 40
0.145
 41
3.248
  0
MTEXT
  5
257
100
AcDbEntity
  8
0
100
AcDbMText
 62
2
  6
CONTINUOUS
  7
STANDARD
 71
2
 72
1
 10
4.555
 20
-0.0995
 30
0.0
 11
1.0
 21
0.0
 31
0.0
 44
0.9
  1
U.S. Units
 40
0.145
 41
2.32
  0
MTEXT
  5
258
100
AcDbEntity
  8
0
100
AcDbMText
 62
2
  6
CONTINUOUS
  7
STANDARD
 71
2
 72
1
 10
7.555
 20
-0.0995
 30
0.0
 11
1.0
 21
0.0
 31
0.0
 44
0.9
  1
Metric Units
 40
0.145
 41
2.784
  0
MTEXT
  5
259
100
AcDbEntity
  8
0
100
AcDbMText
 62
2
  6
CONTINUOUS
  7
STANDARD
 71
2
 72
1
 10
1.5275
 20
-0.4065
 30
0.0
 11
1.0
 21
0.0
 31
0.0
 44
0.9
  1
Cavity
 40
0.125
 41
1.2
  0
MTEXT
  5
25A
100
AcDbEntity
  8
0
100
AcDbMText
 62
2
  6
CONTINUOUS
  7
STANDARD
 71
2
 72
1
 10
6.055
 20
-0.4065
 30
0.0
 11
1.0
 21
0.0
 31
0.0
 44
0.9
  1
T-10A
 40
0.125
 41
1.0
  0
MTEXT
  5
25B
100
AcDbEntity
  8
0
100
AcDbMText
 62
2
  6
CONTINUOUS
  7
STANDARD
 71
2
 72
1
 10
1.5275
 20
-0.6565
 30
0.0
 11
1.0
 21
0.0
 31
0.0
 44
0.9
  1
Body Features
 40
0.125
 41
2.6
  0
MTEXT
  5
25C
100
AcDbEntity
  8
0
100
AcDbMText
 62
2
  6
CONTINUOUS
  7
STANDARD
 71
2
 72
1
 10
6.055
 20
-0.6565
 30
0.0
 11
1.0
 21
0.0
 31
0.0
 44
0.9
  1
Ninety degree
 40
0.125
 41
2.6
  0
MTEXT
  5
25D
100
AcDbEntity
  8
0
100
AcDbMText
 62
2
  6
CONTINUOUS
  7
STANDARD
 71
2
 72
1
 10
1.5275
 20
-0.9065
 30
0.0
 11
1.0
 21
0.0
 31
0.0
 44
0.9
  1
Body Type
 40
0.125
 41
1.8
  0
MTEXT
  5
25E
100
AcDbEntity
  8
0
100
AcDbMText
 62
2
  6
CONTINUOUS
  7
STANDARD
 71
2
 72
1
 10
6.055
 20
-0.9065
 30
0.0
 11
1.0
 21
0.0
 31
0.0
 44
0.9
  1
Line mount
 40
0.125
 41
2.0
  0
MTEXT
  5
25F
100
AcDbEntity
  8
0
100
AcDbMText
 62
2
  6
CONTINUOUS
  7
STANDARD
 71
2
 72
1
 10
1.5275
 20
-1.1565
 30
0.0
 11
1.0
 21
0.0
 31
0.0
 44
0.9
  1
Interface
 40
0.125
 41
1.8
  0
MTEXT
  5
260
100
AcDbEntity
  8
0
100
AcDbMText
 62
2
  6
CONTINUOUS
  7
STANDARD
 71
2
 72
1
 10
6.055
 20
-1.1565
 30
0.0
 11
1.0
 21
0.0
 31
0.0
 44
0.9
  1
None
 40
0.125
 41
0.8
  0
MTEXT
  5
261
100
AcDbEntity
  8
0
100
AcDbMText
 62
2
  6
CONTINUOUS
  7
STANDARD
 71
2
 72
1
 10
1.5275
 20
-1.4065
 30
0.0
 11
1.0
 21
0.0
 31
0.0
 44
0.9
  1
Open Cavity Quantity
 40
0.125
 41
4.0
  0
MTEXT
  5
262
100
AcDbEntity
  8
0
100
AcDbMText
 62
2
  6
CONTINUOUS
  7
STANDARD
 71
2
 72
1
 10
6.055
 20
-1.4065
 30
0.0
 11
1.0
 21
0.0
 31
0.0
 44
0.9
  1
1
 40
0.125
 41
0.2
  0
MTEXT
  5
263
100
AcDbEntity
  8
0
100
AcDbMText
 62
2
  6
CONTINUOUS
  7
STANDARD
 71
2
 72
1
 10
1.5275
 20
-1.6565
 30
0.0
 11
1.0
 21
0.0
 31
0.0
 44
0.9
  1
Weight
 40
0.125
 41
1.2
  0
MTEXT
  5
264
100
AcDbEntity
  8
0
100
AcDbMText
 62
2
  6
CONTINUOUS
  7
STANDARD
 71
2
 72
1
 10
4.555
 20
-1.6565
 30
0.0
 11
1.0
 21
0.0
 31
0.0
 44
0.9
  1
0.355 lb.
 40
0.125
 41
1.8
  0
MTEXT
  5
265
100
AcDbEntity
  8
0
100
AcDbMText
 62
2
  6
CONTINUOUS
  7
STANDARD
 71
2
 72
1
 10
7.555
 20
-1.6565
 30
0.0
 11
1.0
 21
0.0
 31
0.0
 44
0.9
  1
0,161 kg.
 40
0.125
 41
1.8
  0
MTEXT
  5
266
100
AcDbEntity
  8
0
100
AcDbMText
 62
2
  6
CONTINUOUS
  7
STANDARD
 71
2
 72
1
 10
1.5275
 20
-1.9065
 30
0.0
 11
1.0
 21
0.0
 31
0.0
 44
0.9
  1
Mounting Hole Diameter
 40
0.125
 41
4.4
  0
MTEXT
  5
267
100
AcDbEntity
  8
0
100
AcDbMText
 62
2
  6
CONTINUOUS
  7
STANDARD
 71
2
 72
1
 10
4.555
 20
-1.9065
 30
0.0
 11
1.0
 21
0.0
 31
0.0
 44
0.9
  1
.34 in.
 40
0.125
 41
1.4
  0
MTEXT
  5
268
100
AcDbEntity
  8
0
100
AcDbMText
 62
2
  6
CONTINUOUS
  7
STANDARD
 71
2
 72
1
 10
7.555
 20
-1.9065
 30
0.0
 11
1.0
 21
0.0
 31
0.0
 44
0.9
  1
8.6 mm
 40
0.125
 41
1.2
  0
MTEXT
  5
269
100
AcDbEntity
  8
0
100
AcDbMText
 62
2
  6
CONTINUOUS
  7
STANDARD
 71
2
 72
1
 10
1.5275
 20
-2.1565
 30
0.0
 11
1.0
 21
0.0
 31
0.0
 44
0.9
  1
Mounting Hole Depth
 40
0.125
 41
3.8
  0
MTEXT
  5
26A
100
AcDbEntity
  8
0
100
AcDbMText
 62
2
  6
CONTINUOUS
  7
STANDARD
 71
2
 72
1
 10
6.055
 20
-2.1565
 30
0.0
 11
1.0
 21
0.0
 31
0.0
 44
0.9
  1
Through
 40
0.125
 41
1.4
  0
MTEXT
  5
26B
100
AcDbEntity
  8
0
100
AcDbMText
 62
2
  6
CONTINUOUS
  7
STANDARD
 71
2
 72
1
 10
1.5275
 20
-2.4065
 30
0.0
 11
1.0
 21
0.0
 31
0.0
 44
0.9
  1
Mounting Hole Quantity
 40
0.125
 41
4.4
  0
MTEXT
  5
26C
100
AcDbEntity
  8
0
100
AcDbMText
 62
2
  6
CONTINUOUS
  7
STANDARD
 71
2
 72
1
 10
6.055
 20
-2.4065
 30
0.0
 11
1.0
 21
0.0
 31
0.0
 44
0.9
  1
1
 40
0.125
 41
0.2
  0
ENDBLK
  5
26D
100
AcDbEntity
  8
0
  6
BYBLOCK
 62
0
100
AcDbBlockEnd
  0
BLOCK
  5
26E
100
AcDbEntity
  8
0
100
AcDbBlockBegin
  2
*T3
 70
1
 10
0.0
 20
0.0
  3
*T3
  1

  0
LINE
  5
26F
100
AcDbEntity
  8
0
100
AcDbLine
 62
2
  6
CONTINUOUS
 10
0.0
 20
0.0
 11
4.6
 21
0.0
  0
LINE
  5
270
100
AcDbEntity
  8
0
100
AcDbLine
 62
2
  6
CONTINUOUS
 10
0.0
 20
0.0
 11
0.0
 21
-0.93775
  0
LINE
  5
271
100
AcDbEntity
  8
0
100
AcDbLine
 62
2
  6
CONTINUOUS
 10
0.0
 20
-0.34375
 11
4.6
 21
-0.34375
  0
LINE
  5
272
100
AcDbEntity
  8
0
100
AcDbLine
 62
2
  6
CONTINUOUS
 10
0.0
 20
-0.68775
 11
4.6
 21
-0.68775
  0
LINE
  5
273
100
AcDbEntity
  8
0
100
AcDbLine
 62
2
  6
CONTINUOUS
 10
0.0
 20
-0.93775
 11
4.6
 21
-0.93775
  0
LINE
  5
274
100
AcDbEntity
  8
0
100
AcDbLine
 62
2
  6
CONTINUOUS
 10
1.3
 20
-0.34375
 11
1.3
 21
-0.93775
  0
LINE
  5
275
100
AcDbEntity
  8
0
100
AcDbLine
 62
2
  6
CONTINUOUS
 10
3.3
 20
-0.34375
 11
3.3
 21
-0.93775
  0
LINE
  5
276
100
AcDbEntity
  8
0
100
AcDbLine
 62
2
  6
CONTINUOUS
 10
4.6
 20
0.0
 11
4.6
 21
-0.93775
  0
MTEXT
  5
277
100
AcDbEntity
  8
0
100
AcDbMText
 62
2
  6
CONTINUOUS
  7
STANDARD
 71
2
 72
1
 10
2.3
 20
-0.099375
 30
0.0
 11
1.0
 21
0.0
 31
0.0
 44
0.9
  1
Port Headings
 40
0.145
 41
3.016
  0
MTEXT
  5
278
100
AcDbEntity
  8
0
100
AcDbMText
 62
2
  6
CONTINUOUS
  7
STANDARD
 71
2
 72
1
 10
0.65
 20
-0.44325
 30
0.0
 11
1.0
 21
0.0
 31
0.0
 44
0.9
  1
Product
 40
0.145
 41
1.624
  0
MTEXT
  5
279
100
AcDbEntity
  8
0
100
AcDbMText
 62
2
  6
CONTINUOUS
  7
STANDARD
 71
2
 72
1
 10
2.3
 20
-0.44325
 30
0.0
 11
1.0
 21
0.0
 31
0.0
 44
0.9
  1
Port
 40
0.145
 41
0.928
  0
MTEXT
  5
27A
100
AcDbEntity
  8
0
100
AcDbMText
 62
2
  6
CONTINUOUS
  7
STANDARD
 71
2
 72
1
 10
3.95
 20
-0.44325
 30
0.0
 11
1.0
 21
0.0
 31
0.0
 44
0.9
  1
Size
 40
0.145
 41
0.928
  0
MTEXT
  5
27B
100
AcDbEntity
  8
0
100
AcDbMText
 62
2
  6
CONTINUOUS
  7
STANDARD
 71
2
 72
1
 10
0.65
 20
-0.75025
 30
0.0
 11
1.0
 21
0.0
 31
0.0
 44
0.9
  1
FAJ
 40
0.125
 41
0.6
  0
MTEXT
  5
27C
100
AcDbEntity
  8
0
100
AcDbMText
 62
2
  6
CONTINUOUS
  7
STANDARD
 71
2
 72
1
 10
2.3
 20
-0.75025
 30
0.0
 11
1.0
 21
0.0
 31
0.0
 44
0.9
  1
All Ports
 40
0.125
 41
1.8
  0
MTEXT
  5
27D
100
AcDbEntity
  8
0
100
AcDbMText
 62
2
  6
CONTINUOUS
  7
STANDARD
 71
2
 72
1
 10
3.95
 20
-0.75025
 30
0.0
 11
1.0
 21
0.0
 31
0.0
 44
0.9
  1
SAE 8
 40
0.125
 41
1.0
  0
ENDBLK
  5
27E
100
AcDbEntity
  8
0
  6
BYBLOCK
 62
0
100
AcDbBlockEnd
  0
ENDSEC
  0
SECTION
  2
ENTITIES
  0
IMAGE
  5
27F
100
AcDbEntity
  8
0
100
AcDbRasterImage
 62
7
  6
CONTINUOUS
 10
19.2297077316
 20
0.3094318264
 30
0.0
 11
0.0066666667
 21
0.0
 31
0.0
 12
0.0
 22
0.0066666667
 32
0.0
 13
369.0
 23
92.0
340
       314
 70
9
280
0
281
50
282
50
283
0
360
       30E
 71
1
 91
2
 14
-0.5
 24
-0.5
 14
368.5
 24
91.5
  0
INSERT
  5
280
100
AcDbEntity
  8
0
100
AcDbBlockReference
 62
2
  6
CONTINUOUS
  2
SUN_FIRST_THIRD_ANGLE_BL0
 10
20.4816717061
 20
1.2289683772
  0
ACAD_TABLE
  5
281
100
AcDbEntity
  8
0
 62
2
  6
CONTINUOUS
100
AcDbBlockReference
  2
*T1
 10
12.42375
 20
0.30125
 30
0.0
100
AcDbTable
342
       316
343
207
 11
1.0
 21
0.0
 31
0.0
 90
6
 91
4
 92
6
 93
20
 94
0
 95
0
 96
0
 70
1
 41
0.0
141
0.525
141
0.1
141
0.525
141
0.1
142
4.1
142
1.1
142
0.7
142
0.5
142
0.4
142
2.475
171
1
172
0
173
0
174
0
175
1
176
1
 91
33
178
0
145
0.0
301
CELL_VALUE
 90
4
  1
T-10A Line mount\PNinety degree
304
ACVALUE_END
170
2
140
0.125
171
1
172
0
173
0
174
0
175
1
176
1
 91
33
178
0
145
0.0
301
CELL_VALUE
 90
4
  1
May-31-23
304
ACVALUE_END
170
5
140
0.125
171
1
172
0
173
0
174
0
175
1
176
1
 91
33
178
0
145
0.0
301
CELL_VALUE
 90
4
  1
2.000
304
ACVALUE_END
170
5
140
0.125
171
1
172
0
173
0
174
0
175
1
176
1
 91
33
178
0
145
0.0
301
CELL_VALUE
 90
4
  1
C
304
ACVALUE_END
170
5
140
0.125
171
1
172
0
173
0
174
0
175
1
176
1
 91
33
178
0
145
0.0
301
CELL_VALUE
 90
4
  1
2
304
ACVALUE_END
170
5
140
0.125
171
1
172
0
173
0
174
0
175
1
176
1
 91
33
178
0
145
0.0
301
CELL_VALUE
 90
4
  1
 
304
ACVALUE_END
170
1
140
0.125
171
1
172
0
173
0
174
0
175
1
176
1
 91
33
178
0
145
0.0
301
CELL_VALUE
 90
4
  1
DESCRIPTION
304
ACVALUE_END
170
1
140
0.06
171
1
172
0
173
0
174
0
175
1
176
1
 91
33
178
0
145
0.0
301
CELL_VALUE
 90
4
  1
DATE
304
ACVALUE_END
170
1
140
0.06
171
1
172
0
173
0
174
0
175
1
176
1
 91
33
178
0
145
0.0
301
CELL_VALUE
 90
4
  1
SCALE
304
ACVALUE_END
170
1
140
0.06
171
1
172
0
173
0
174
0
175
1
176
1
 91
33
178
0
145
0.0
301
CELL_VALUE
 90
4
  1
DWG SIZE
304
ACVALUE_END
170
1
140
0.06
171
1
172
0
173
0
174
0
175
1
176
1
 91
33
178
0
145
0.0
301
CELL_VALUE
 90
4
  1
SHEET
304
ACVALUE_END
170
1
140
0.06
171
1
172
0
173
0
174
0
175
1
176
1
 91
33
178
0
145
0.0
301
CELL_VALUE
 90
4
  1
 
304
ACVALUE_END
170
1
140
0.125
171
1
172
0
173
0
174
0
175
1
176
1
 91
33
178
0
145
0.0
301
CELL_VALUE
 90
4
  1
FAJ
304
ACVALUE_END
170
5
140
0.125
171
1
172
0
173
0
174
0
175
4
176
1
 91
33
178
0
145
0.0
301
CELL_VALUE
 90
4
  1
ALL DIMENSIONS IN INCH\PVIEWS ARE THIRD ANGLE
304
ACVALUE_END
170
5
140
0.12
171
1
172
0
173
1
174
0
175
1
176
1
 91
1
178
0
145
0.0
170
1
171
1
172
0
173
1
174
0
175
1
176
1
 91
1
178
0
145
0.0
170
1
171
1
172
0
173
1
174
0
175
1
176
1
 91
1
178
0
145
0.0
170
5
171
1
172
0
173
0
174
0
175
1
176
1
 91
33
178
0
145
0.0
301
CELL_VALUE
 90
4
  1
 
304
ACVALUE_END
170
1
140
0.125
171
1
172
0
173
0
174
0
175
1
176
1
 91
33
178
0
145
0.0
301
CELL_VALUE
 90
4
  1
MODEL
304
ACVALUE_END
170
1
140
0.06
171
1
172
0
173
0
174
0
175
1
176
1
 91
33
178
0
145
0.0
301
CELL_VALUE
 90
4
  1
 
304
ACVALUE_END
170
1
140
0.125
171
1
172
0
173
0
174
0
175
1
176
1
 91
33
178
0
145
0.0
301
CELL_VALUE
 90
4
  1
 
304
ACVALUE_END
170
1
140
0.125
171
1
172
0
173
0
174
0
175
1
176
1
 91
33
178
0
145
0.0
301
CELL_VALUE
 90
4
  1
 
304
ACVALUE_END
170
1
140
0.125
171
1
172
0
173
0
174
0
175
1
176
1
 91
33
178
0
145
0.0
301
CELL_VALUE
 90
4
  1
 
304
ACVALUE_END
170
1
140
0.125
171
1
172
0
173
0
174
0
175
1
176
1
 91
33
178
0
145
0.0
301
CELL_VALUE
 90
4
  1
 
304
ACVALUE_END
170
1
140
0.125
  0
ACAD_TABLE
  5
282
100
AcDbEntity
  8
0
 62
2
  6
CONTINUOUS
100
AcDbBlockReference
  2
*T2
 10
12.4237499994
 20
16.47875
 30
0.0
100
AcDbTable
342
       315
343
208
 11
1.0
 21
0.0
 31
0.0
 90
22
 91
10
 92
3
 93
16
 94
0
 95
0
 96
0
 41
0.028
141
0.344
141
0.25
141
0.25
141
0.25
141
0.25
141
0.25
141
0.25
141
0.25
141
0.25
141
0.25
142
3.055
142
3.0
142
3.0
171
1
172
0
173
0
174
0
175
1
176
1
 91
33
178
0
145
0.0
301
CELL_VALUE
 90
4
  1
Technical Data
304
ACVALUE_END
170
5
140
0.145
171
1
172
0
173
0
174
0
175
1
176
1
 91
33
178
0
145
0.0
301
CELL_VALUE
 90
4
  1
U.S. Units
304
ACVALUE_END
170
5
140
0.145
171
1
172
0
173
0
174
0
175
1
176
1
 91
33
178
0
145
0.0
301
CELL_VALUE
 90
4
  1
Metric Units
304
ACVALUE_END
170
5
140
0.145
171
1
172
0
173
0
174
0
175
1
176
1
 91
33
178
0
145
0.0
301
CELL_VALUE
 90
4
  1
Cavity
304
ACVALUE_END
170
5
140
0.125
171
1
172
0
173
0
174
0
175
2
176
1
 91
33
178
0
145
0.0
301
CELL_VALUE
 90
4
  1
T-10A
304
ACVALUE_END
170
5
140
0.125
171
1
172
0
173
1
174
0
175
1
176
1
 91
1
178
0
145
0.0
170
1
171
1
172
0
173
0
174
0
175
1
176
1
 91
33
178
0
145
0.0
301
CELL_VALUE
 90
4
  1
Body Features
304
ACVALUE_END
170
5
140
0.125
171
1
172
0
173
0
174
0
175
2
176
1
 91
33
178
0
145
0.0
301
CELL_VALUE
 90
4
  1
Ninety degree
304
ACVALUE_END
170
5
140
0.125
171
1
172
0
173
1
174
0
175
1
176
1
 91
1
178
0
145
0.0
170
1
171
1
172
0
173
0
174
0
175
1
176
1
 91
33
178
0
145
0.0
301
CELL_VALUE
 90
4
  1
Body Type
304
ACVALUE_END
170
5
140
0.125
171
1
172
0
173
0
174
0
175
2
176
1
 91
33
178
0
145
0.0
301
CELL_VALUE
 90
4
  1
Line mount
304
ACVALUE_END
170
5
140
0.125
171
1
172
0
173
1
174
0
175
1
176
1
 91
1
178
0
145
0.0
170
1
171
1
172
0
173
0
174
0
175
1
176
1
 91
33
178
0
145
0.0
301
CELL_VALUE
 90
4
  1
Interface
304
ACVALUE_END
170
5
140
0.125
171
1
172
0
173
0
174
0
175
2
176
1
 91
33
178
0
145
0.0
301
CELL_VALUE
 90
4
  1
None
304
ACVALUE_END
170
5
140
0.125
171
1
172
0
173
1
174
0
175
1
176
1
 91
1
178
0
145
0.0
170
1
171
1
172
0
173
0
174
0
175
1
176
1
 91
33
178
0
145
0.0
301
CELL_VALUE
 90
4
  1
Open Cavity Quantity
304
ACVALUE_END
170
5
140
0.125
171
1
172
0
173
0
174
0
175
2
176
1
 91
33
178
0
145
0.0
301
CELL_VALUE
 90
4
  1
1
304
ACVALUE_END
170
5
140
0.125
171
1
172
0
173
1
174
0
175
1
176
1
 91
1
178
0
145
0.0
170
1
171
1
172
0
173
0
174
0
175
1
176
1
 91
33
178
0
145
0.0
301
CELL_VALUE
 90
4
  1
Weight
304
ACVALUE_END
170
5
140
0.125
171
1
172
0
173
0
174
0
175
1
176
1
 91
33
178
0
145
0.0
301
CELL_VALUE
 90
4
  1
0.355 lb.
304
ACVALUE_END
170
5
140
0.125
171
1
172
0
173
0
174
0
175
1
176
1
 91
33
178
0
145
0.0
301
CELL_VALUE
 90
4
  1
0,161 kg.
304
ACVALUE_END
170
5
140
0.125
171
1
172
0
173
0
174
0
175
1
176
1
 91
33
178
0
145
0.0
301
CELL_VALUE
 90
4
  1
Mounting Hole Diameter
304
ACVALUE_END
170
5
140
0.125
171
1
172
0
173
0
174
0
175
1
176
1
 91
33
178
0
145
0.0
301
CELL_VALUE
 90
4
  1
.34 in.
304
ACVALUE_END
170
5
140
0.125
171
1
172
0
173
0
174
0
175
1
176
1
 91
33
178
0
145
0.0
301
CELL_VALUE
 90
4
  1
8.6 mm
304
ACVALUE_END
170
5
140
0.125
171
1
172
0
173
0
174
0
175
1
176
1
 91
33
178
0
145
0.0
301
CELL_VALUE
 90
4
  1
Mounting Hole Depth
304
ACVALUE_END
170
5
140
0.125
171
1
172
0
173
0
174
0
175
2
176
1
 91
33
178
0
145
0.0
301
CELL_VALUE
 90
4
  1
Through
304
ACVALUE_END
170
5
140
0.125
171
1
172
0
173
1
174
0
175
1
176
1
 91
1
178
0
145
0.0
170
1
171
1
172
0
173
0
174
0
175
1
176
1
 91
33
178
0
145
0.0
301
CELL_VALUE
 90
4
  1
Mounting Hole Quantity
304
ACVALUE_END
170
5
140
0.125
171
1
172
0
173
0
174
0
175
2
176
1
 91
33
178
0
145
0.0
301
CELL_VALUE
 90
4
  1
1
304
ACVALUE_END
170
5
140
0.125
171
1
172
0
173
1
174
0
175
1
176
1
 91
1
178
0
145
0.0
170
1
  0
ACAD_TABLE
  5
283
100
AcDbEntity
  8
0
 62
2
  6
CONTINUOUS
100
AcDbBlockReference
  2
*T3
 10
0.52125
 20
1.459
 30
0.0
100
AcDbTable
342
       315
343
209
 11
1.0
 21
0.0
 31
0.0
 90
22
 91
3
 92
3
 93
16
 94
0
 95
0
 96
0
 41
0.05
141
0.34375
141
0.344
141
0.25
142
1.3
142
2.0
142
1.3
171
1
172
0
173
0
174
0
175
3
176
1
 91
33
178
0
145
0.0
301
CELL_VALUE
 90
4
  1
Port Headings
304
ACVALUE_END
170
5
140
0.145
171
1
172
0
173
1
174
0
175
1
176
1
 91
1
178
0
145
0.0
170
1
171
1
172
0
173
1
174
0
175
1
176
1
 91
1
178
0
145
0.0
170
1
171
1
172
0
173
0
174
0
175
1
176
1
 91
33
178
0
145
0.0
301
CELL_VALUE
 90
4
  1
Product
304
ACVALUE_END
170
5
140
0.145
171
1
172
0
173
0
174
0
175
1
176
1
 91
33
178
0
145
0.0
301
CELL_VALUE
 90
4
  1
Port
304
ACVALUE_END
170
5
140
0.145
171
1
172
0
173
0
174
0
175
1
176
1
 91
33
178
0
145
0.0
301
CELL_VALUE
 90
4
  1
Size
304
ACVALUE_END
170
5
140
0.145
171
1
172
0
173
0
174
0
175
1
176
1
 91
33
178
0
145
0.0
301
CELL_VALUE
 90
4
  1
FAJ
304
ACVALUE_END
170
5
140
0.125
171
1
172
0
173
0
174
0
175
1
176
1
 91
33
178
0
145
0.0
301
CELL_VALUE
 90
4
  1
All Ports
304
ACVALUE_END
170
5
140
0.125
171
1
172
0
173
0
174
0
175
1
176
1
 91
33
178
0
145
0.0
301
CELL_VALUE
 90
4
  1
SAE 8
304
ACVALUE_END
170
5
140
0.125
  0
MTEXT
  5
284
100
AcDbEntity
  8
0
100
AcDbMText
 62
2
  6
CONTINUOUS
  7
STANDARD
 71
1
 72
1
 10
0.52125
 20
5.75995
 30
0.0
 11
1.0
 21
0.0
 31
0.0
 44
0.6
  3
Notes\P \P1. Important: Carefully consider\P   the maximum system pressure. The\P   pressure rating of the manifold is\P   dependent on the manifold material,\P   with the port type/size a secondary\P   consideration. Manifolds\P   constructed of alu
  3
minum are not\P   rated for pressures higher than\P   3000 psi (210 bar), regardless of\P   the port type/size specified.\P2. This drawing is for reference\P   only. It is generated by an\P   automated process and does not fall\P   under Sun's docume
  1
nt control\P   process.
 40
0.1
 41
3.04
  0
LINE
  5
285
100
AcDbEntity
  8
0
100
AcDbLine
 62
7
  6
CONTINUOUS
 10
0.30125
 20
0.30125
 11
0.30125
 21
16.69875
  0
LINE
  5
286
100
AcDbEntity
  8
0
100
AcDbLine
 62
7
  6
CONTINUOUS
 10
0.30125
 20
0.30125
 11
21.69875
 21
0.30125
  0
LINE
  5
287
100
AcDbEntity
  8
0
100
AcDbLine
 62
7
  6
CONTINUOUS
 10
0.30125
 20
16.69875
 11
21.69875
 21
16.69875
  0
LINE
  5
288
100
AcDbEntity
  8
0
100
AcDbLine
 62
7
  6
CONTINUOUS
 10
21.69875
 20
0.30125
 11
21.69875
 21
16.69875
  0
LINE
  5
289
100
AcDbEntity
  8
0
100
AcDbLine
 62
7
  6
CONTINUOUS
 10
8.2616617518
 20
6.7901682723
 11
8.2616617518
 21
9.9197681441
  0
LINE
  5
28A
100
AcDbEntity
  8
0
100
AcDbLine
 62
7
  6
CONTINUOUS
 10
8.2616617518
 20
9.9197681441
 11
8.9087088306
 21
10.5447676654
  0
LINE
  5
28B
100
AcDbEntity
  8
0
100
AcDbLine
 62
4
  6
CONTINUOUS
 10
9.6989594404
 20
6.93197281
 11
9.679640914
 21
6.9478014422
  0
LINE
  5
28C
100
AcDbEntity
  8
0
100
AcDbLine
 62
7
  6
CONTINUOUS
 10
13.0912911694
 20
6.4552323346
 11
8.2616617518
 21
6.7901682723
  0
LINE
  5
28D
100
AcDbEntity
  8
0
100
AcDbLine
 62
4
  6
CONTINUOUS
 10
9.8341890565
 20
6.9370834922
 11
9.8921446082
 21
6.9185753731
  0
LINE
  5
28E
100
AcDbEntity
  8
0
100
AcDbLine
 62
4
  6
CONTINUOUS
 10
9.7955520243
 20
6.9687407553
 11
9.8341890565
 21
6.9370834922
  0
LINE
  5
28F
100
AcDbEntity
  8
0
100
AcDbLine
 62
4
  6
CONTINUOUS
 10
9.7375964657
 20
7.0452044266
 11
9.7569149921
 21
7.0293757943
  0
LINE
  5
290
100
AcDbEntity
  8
0
100
AcDbLine
 62
4
  6
CONTINUOUS
 10
9.679640914
 20
6.9478014422
 11
9.6603224013
 21
6.9781189615
  0
LINE
  5
291
100
AcDbEntity
  8
0
100
AcDbLine
 62
4
  6
CONTINUOUS
 10
9.7569149921
 20
7.0293757943
 11
9.7955520243
 21
6.9687407553
  0
LINE
  5
292
100
AcDbEntity
  8
0
100
AcDbLine
 62
4
  6
CONTINUOUS
 10
9.6603224013
 20
6.9781189615
 11
9.6603224013
 21
7.0070967374
  0
LINE
  5
293
100
AcDbEntity
  8
0
100
AcDbLine
 62
4
  6
CONTINUOUS
 10
9.6989594404
 20
7.0478839134
 11
9.7375964657
 21
7.0452044266
  0
LINE
  5
294
100
AcDbEntity
  8
0
100
AcDbLine
 62
4
  6
CONTINUOUS
 10
10.5605653546
 20
7.1001787002
 11
10.6764764606
 21
7.0921402377
  0
LINE
  5
295
100
AcDbEntity
  8
0
100
AcDbLine
 62
4
  6
CONTINUOUS
 10
10.6764764606
 20
7.2080513437
 11
10.7923875666
 21
7.2000128812
  0
LINE
  5
296
100
AcDbEntity
  8
0
100
AcDbLine
 62
4
  6
CONTINUOUS
 10
10.7923875666
 20
7.2579684343
 11
10.5605653546
 21
7.2740453593
  0
LINE
  5
297
100
AcDbEntity
  8
0
100
AcDbLine
 62
4
  6
CONTINUOUS
 10
11.9746808481
 20
7.2706368648
 11
11.742858636
 21
7.2867137898
  0
LINE
  5
298
100
AcDbEntity
  8
0
100
AcDbLine
 62
4
  6
CONTINUOUS
 10
10.5605653546
 20
7.3899564653
 11
10.7923875666
 21
7.3738795403
  0
LINE
  5
299
100
AcDbEntity
  8
0
100
AcDbLine
 62
4
  6
CONTINUOUS
 10
9.8921446082
 20
6.9185753731
 11
9.8921446082
 21
7.0344864765
  0
LINE
  5
29A
100
AcDbEntity
  8
0
100
AcDbLine
 62
4
  6
CONTINUOUS
 10
11.742858636
 20
7.5626925972
 11
11.9746808481
 21
7.6128506136
  0
LINE
  5
29B
100
AcDbEntity
  8
0
100
AcDbLine
 62
4
  6
CONTINUOUS
 10
10.5605653546
 20
7.4479120183
 11
10.7923875666
 21
7.4318350933
  0
LINE
  5
29C
100
AcDbEntity
  8
0
100
AcDbLine
 62
4
  6
CONTINUOUS
 10
11.7759760929
 20
7.4003281786
 11
11.9415633877
 21
7.3888446607
  0
LINE
  5
29D
100
AcDbEntity
  8
0
100
AcDbLine
 62
4
  6
CONTINUOUS
 10
10.5605653546
 20
7.5638231243
 11
10.7923875666
 21
7.5477461993
  0
LINE
  5
29E
100
AcDbEntity
  8
0
100
AcDbLine
 62
4
  6
CONTINUOUS
 10
10.7923875666
 20
7.7795684114
 11
10.5605653546
 21
7.7956453364
  0
LINE
  5
29F
100
AcDbEntity
  8
0
100
AcDbLine
 62
4
  6
CONTINUOUS
 10
11.9746808481
 20
7.7453204412
 11
11.742858636
 21
7.7613973662
  0
LINE
  5
2A0
100
AcDbEntity
  8
0
100
AcDbLine
 62
4
  6
CONTINUOUS
 10
10.5605653546
 20
7.2160898063
 11
10.5605653546
 21
7.1001787002
  0
LINE
  5
2A1
100
AcDbEntity
  8
0
100
AcDbLine
 62
4
  6
CONTINUOUS
 10
10.5605653546
 20
7.4479120183
 11
10.5605653546
 21
7.5638231243
  0
LINE
  5
2A2
100
AcDbEntity
  8
0
100
AcDbLine
 62
4
  6
CONTINUOUS
 10
10.7923875666
 20
7.8954795174
 11
10.6764764606
 21
7.9035179799
  0
LINE
  5
2A3
100
AcDbEntity
  8
0
100
AcDbLine
 62
4
  6
CONTINUOUS
 10
11.9746808481
 20
7.8777902687
 11
11.742858636
 21
7.8938671938
  0
LINE
  5
2A4
100
AcDbEntity
  8
0
100
AcDbLine
 62
4
  6
CONTINUOUS
 10
11.4646719816
 20
7.913159494
 11
11.2328497695
 21
7.929236419
  0
LINE
  5
2A5
100
AcDbEntity
  8
0
100
AcDbLine
 62
4
  6
CONTINUOUS
 10
10.7923875666
 20
7.990140254
 11
10.6764764606
 21
7.9981787165
  0
LINE
  5
2A6
100
AcDbEntity
  8
0
100
AcDbLine
 62
4
  6
CONTINUOUS
 10
11.9746808481
 20
7.4803807584
 11
11.742858636
 21
7.5626925972
  0
LINE
  5
2A7
100
AcDbEntity
  8
0
100
AcDbLine
 62
4
  6
CONTINUOUS
 10
10.6185209076
 20
9.0309090137
 11
10.6185209076
 21
9.0598867902
  0
LINE
  5
2A8
100
AcDbEntity
  8
0
100
AcDbLine
 62
4
  6
CONTINUOUS
 10
10.6764764606
 20
8.6936453526
 11
10.6764764606
 21
8.6163712819
  0
LINE
  5
2A9
100
AcDbEntity
  8
0
100
AcDbLine
 62
4
  6
CONTINUOUS
 10
10.6764764606
 20
7.9035179799
 11
10.6764764606
 21
7.7876068739
  0
LINE
  5
2AA
100
AcDbEntity
  8
0
100
AcDbLine
 62
4
  6
CONTINUOUS
 10
10.6764764606
 20
7.0921402377
 11
10.6764764606
 21
7.2080513437
  0
LINE
  5
2AB
100
AcDbEntity
  8
0
100
AcDbLine
 62
4
  6
CONTINUOUS
 10
10.6764764606
 20
8.1913638932
 11
10.6764764606
 21
8.3072749992
  0
LINE
  5
2AC
100
AcDbEntity
  8
0
100
AcDbLine
 62
4
  6
CONTINUOUS
 10
10.6764764606
 20
8.3845490699
 11
10.6764764606
 21
8.5004601759
  0
LINE
  5
2AD
100
AcDbEntity
  8
0
100
AcDbLine
 62
4
  6
CONTINUOUS
 10
10.6764764606
 20
9.1186527414
 11
10.6764764606
 21
9.2345638474
  0
LINE
  5
2AE
100
AcDbEntity
  8
0
100
AcDbLine
 62
4
  6
CONTINUOUS
 10
10.6764764606
 20
9.3118379181
 11
10.6764764606
 21
9.4277490241
  0
LINE
  5
2AF
100
AcDbEntity
  8
0
100
AcDbLine
 62
4
  6
CONTINUOUS
 10
10.715113496
 20
8.5750547591
 11
10.715113496
 21
8.6909658651
  0
LINE
  5
2B0
100
AcDbEntity
  8
0
100
AcDbLine
 62
4
  6
CONTINUOUS
 10
10.7344320136
 20
9.3078186868
 11
10.7344320136
 21
9.4237297928
  0
LINE
  5
2B1
100
AcDbEntity
  8
0
100
AcDbLine
 62
4
  6
CONTINUOUS
 10
10.7923875666
 20
9.4197105616
 11
10.7923875666
 21
9.3037994556
  0
LINE
  5
2B2
100
AcDbEntity
  8
0
100
AcDbLine
 62
4
  6
CONTINUOUS
 10
10.7923875666
 20
8.6856068901
 11
10.7923875666
 21
8.5696957841
  0
LINE
  5
2B3
100
AcDbEntity
  8
0
100
AcDbLine
 62
4
  6
CONTINUOUS
 10
10.7923875666
 20
8.2992365367
 11
10.7923875666
 21
8.1833254307
  0
LINE
  5
2B4
100
AcDbEntity
  8
0
100
AcDbLine
 62
4
  6
CONTINUOUS
 10
10.7923875666
 20
8.10605136
 11
10.7923875666
 21
7.990140254
  0
LINE
  5
2B5
100
AcDbEntity
  8
0
100
AcDbLine
 62
4
  6
CONTINUOUS
 10
10.7923875666
 20
7.3738795403
 11
10.7923875666
 21
7.2579684343
  0
LINE
  5
2B6
100
AcDbEntity
  8
0
100
AcDbLine
 62
4
  6
CONTINUOUS
 10
10.7923875666
 20
7.2000128812
 11
10.7923875666
 21
7.0841017752
  0
LINE
  5
2B7
100
AcDbEntity
  8
0
100
AcDbLine
 62
4
  6
CONTINUOUS
 10
10.7923875666
 20
8.7628809608
 11
10.7923875666
 21
8.8787920668
  0
LINE
  5
2B8
100
AcDbEntity
  8
0
100
AcDbLine
 62
4
  6
CONTINUOUS
 10
10.7923875666
 20
9.1106142788
 11
10.7923875666
 21
9.2265253849
  0
LINE
  5
2B9
100
AcDbEntity
  8
0
100
AcDbLine
 62
4
  6
CONTINUOUS
 10
9.6603224013
 20
7.0070967374
 11
9.679640914
 21
7.0347347698
  0
LINE
  5
2BA
100
AcDbEntity
  8
0
100
AcDbLine
 62
4
  6
CONTINUOUS
 10
11.2328497695
 20
8.161058631
 11
11.4646719816
 21
8.2112166198
  0
LINE
  5
2BB
100
AcDbEntity
  8
0
100
AcDbLine
 62
4
  6
CONTINUOUS
 10
10.6764764606
 20
8.1140898225
 11
10.9082986727
 21
8.0980128975
  0
LINE
  5
2BC
100
AcDbEntity
  8
0
100
AcDbLine
 62
4
  6
CONTINUOUS
 10
10.7923875666
 20
8.1833254307
 11
10.6764764606
 21
8.1913638932
  0
LINE
  5
2BD
100
AcDbEntity
  8
0
100
AcDbLine
 62
4
  6
CONTINUOUS
 10
10.5605653546
 20
8.3153134617
 11
10.7923875666
 21
8.2992365367
  0
LINE
  5
2BE
100
AcDbEntity
  8
0
100
AcDbLine
 62
4
  6
CONTINUOUS
 10
11.9415633877
 20
8.2278203458
 11
11.7759760929
 21
8.2393038637
  0
LINE
  5
2BF
100
AcDbEntity
  8
0
100
AcDbLine
 62
4
  6
CONTINUOUS
 10
11.4646719816
 20
8.0787467922
 11
11.2328497695
 21
8.161058631
  0
LINE
  5
2C0
100
AcDbEntity
  8
0
100
AcDbLine
 62
4
  6
CONTINUOUS
 10
10.9082986727
 20
8.0980128975
 11
10.9082986727
 21
8.0207388268
  0
LINE
  5
2C1
100
AcDbEntity
  8
0
100
AcDbLine
 62
4
  6
CONTINUOUS
 10
10.6764764606
 20
8.3845490699
 11
10.7923875666
 21
8.3765106074
  0
LINE
  5
2C2
100
AcDbEntity
  8
0
100
AcDbLine
 62
4
  6
CONTINUOUS
 10
11.4315545212
 20
8.3625419002
 11
11.2328497695
 21
8.3763221215
  0
LINE
  5
2C3
100
AcDbEntity
  8
0
100
AcDbLine
 62
4
  6
CONTINUOUS
 10
11.9415633877
 20
8.4210054488
 11
11.7759760929
 21
8.4324889667
  0
LINE
  5
2C4
100
AcDbEntity
  8
0
100
AcDbLine
 62
4
  6
CONTINUOUS
 10
11.9415633877
 20
7.3888446607
 11
11.9746808481
 21
7.3534305001
  0
LINE
  5
2C5
100
AcDbEntity
  8
0
100
AcDbLine
 62
4
  6
CONTINUOUS
 10
11.2328497695
 20
7.929236419
 11
11.2328497695
 21
8.0285887966
  0
LINE
  5
2C6
100
AcDbEntity
  8
0
100
AcDbLine
 62
4
  6
CONTINUOUS
 10
10.7923875666
 20
8.5696957841
 11
10.715113496
 21
8.5750547591
  0
LINE
  5
2C7
100
AcDbEntity
  8
0
100
AcDbLine
 62
4
  6
CONTINUOUS
 10
12.739694155
 20
8.4674911011
 11
12.9715163618
 21
8.4514141764
  0
LINE
  5
2C8
100
AcDbEntity
  8
0
100
AcDbLine
 62
4
  6
CONTINUOUS
 10
11.7759760929
 20
8.5484000727
 11
11.9415633877
 21
8.5369165548
  0
LINE
  5
2C9
100
AcDbEntity
  8
0
100
AcDbLine
 62
4
  6
CONTINUOUS
 10
11.9746808481
 20
8.6008547373
 11
11.742858636
 21
8.6169316623
  0
LINE
  5
2CA
100
AcDbEntity
  8
0
100
AcDbLine
 62
4
  6
CONTINUOUS
 10
10.6764764606
 20
8.6936453526
 11
10.7923875666
 21
8.6856068901
  0
LINE
  5
2CB
100
AcDbEntity
  8
0
100
AcDbLine
 62
4
  6
CONTINUOUS
 10
10.6764764606
 20
8.7709194233
 11
10.7923875666
 21
8.7628809608
  0
LINE
  5
2CC
100
AcDbEntity
  8
0
100
AcDbLine
 62
4
  6
CONTINUOUS
 10
11.4646719816
 20
8.3271277258
 11
11.4315545212
 21
8.3625419002
  0
LINE
  5
2CD
100
AcDbEntity
  8
0
100
AcDbLine
 62
4
  6
CONTINUOUS
 10
11.8311718544
 20
7.2364326312
 11
11.8753284705
 21
7.1450571342
  0
LINE
  5
2CE
100
AcDbEntity
  8
0
100
AcDbLine
 62
4
  6
CONTINUOUS
 10
11.3322021402
 20
8.0216986863
 11
11.3322021402
 21
7.9223463087
  0
LINE
  5
2CF
100
AcDbEntity
  8
0
100
AcDbLine
 62
4
  6
CONTINUOUS
 10
11.3984370609
 20
8.1054185042
 11
11.3984370609
 21
8.1937317226
  0
LINE
  5
2D0
100
AcDbEntity
  8
0
100
AcDbLine
 62
4
  6
CONTINUOUS
 10
11.4646719816
 20
8.2774515336
 11
11.4646719816
 21
8.3271277258
  0
LINE
  5
2D1
100
AcDbEntity
  8
0
100
AcDbLine
 62
4
  6
CONTINUOUS
 10
11.742858636
 20
8.6997253252
 11
11.7759760929
 21
8.7305460649
  0
LINE
  5
2D2
100
AcDbEntity
  8
0
100
AcDbLine
 62
4
  6
CONTINUOUS
 10
9.679640914
 20
7.0347347698
 11
9.6989594404
 21
7.0478839134
  0
LINE
  5
2D3
100
AcDbEntity
  8
0
100
AcDbLine
 62
4
  6
CONTINUOUS
 10
11.7759760929
 20
8.7305460649
 11
11.9415633877
 21
8.719062547
  0
LINE
  5
2D4
100
AcDbEntity
  8
0
100
AcDbLine
 62
4
  6
CONTINUOUS
 10
10.7923875666
 20
8.8787920668
 11
10.6764764606
 21
8.8868305293
  0
LINE
  5
2D5
100
AcDbEntity
  8
0
100
AcDbLine
 62
4
  6
CONTINUOUS
 10
11.9746808481
 20
8.8105987276
 11
11.742858636
 21
8.8266756526
  0
LINE
  5
2D6
100
AcDbEntity
  8
0
100
AcDbLine
 62
4
  6
CONTINUOUS
 10
10.7923875666
 20
8.9560661375
 11
10.5605653546
 21
8.9721430625
  0
LINE
  5
2D7
100
AcDbEntity
  8
0
100
AcDbLine
 62
4
  6
CONTINUOUS
 10
11.7759760929
 20
8.2393038637
 11
11.742858636
 21
8.2747180102
  0
LINE
  5
2D8
100
AcDbEntity
  8
0
100
AcDbLine
 62
4
  6
CONTINUOUS
 10
11.8311718544
 20
8.9861383255
 11
11.8753284705
 21
9.0713892721
  0
LINE
  5
2D9
100
AcDbEntity
  8
0
100
AcDbLine
 62
7
  6
CONTINUOUS
 10
13.0912911694
 20
9.5848322064
 11
13.7383382482
 21
10.2098317277
  0
LINE
  5
2DA
100
AcDbEntity
  8
0
100
AcDbLine
 62
4
  6
CONTINUOUS
 10
11.742858636
 20
8.5175793331
 11
11.7759760929
 21
8.5484000727
  0
LINE
  5
2DB
100
AcDbEntity
  8
0
100
AcDbLine
 62
4
  6
CONTINUOUS
 10
11.9746808481
 20
8.4518261882
 11
11.9415633877
 21
8.4210054488
  0
LINE
  5
2DC
100
AcDbEntity
  8
0
100
AcDbLine
 62
4
  6
CONTINUOUS
 10
10.7923875666
 20
9.0333402082
 11
10.6764764606
 21
9.0413786707
  0
LINE
  5
2DD
100
AcDbEntity
  8
0
100
AcDbLine
 62
4
  6
CONTINUOUS
 10
10.6764764606
 20
9.1186527414
 11
10.7923875666
 21
9.1106142788
  0
LINE
  5
2DE
100
AcDbEntity
  8
0
100
AcDbLine
 62
4
  6
CONTINUOUS
 10
11.7759760929
 20
8.4324889667
 11
11.742858636
 21
8.4679031132
  0
LINE
  5
2DF
100
AcDbEntity
  8
0
100
AcDbLine
 62
4
  6
CONTINUOUS
 10
11.9415633877
 20
8.5369165548
 11
11.9746808481
 21
8.501502408
  0
LINE
  5
2E0
100
AcDbEntity
  8
0
100
AcDbLine
 62
4
  6
CONTINUOUS
 10
11.742858636
 20
7.2867137898
 11
11.742858636
 21
7.3695074251
  0
LINE
  5
2E1
100
AcDbEntity
  8
0
100
AcDbLine
 62
4
  6
CONTINUOUS
 10
11.742858636
 20
7.6951624248
 11
11.742858636
 21
7.8276322523
  0
LINE
  5
2E2
100
AcDbEntity
  8
0
100
AcDbLine
 62
4
  6
CONTINUOUS
 10
11.742858636
 20
7.8938671938
 11
11.742858636
 21
7.9932195782
  0
LINE
  5
2E3
100
AcDbEntity
  8
0
100
AcDbLine
 62
4
  6
CONTINUOUS
 10
11.742858636
 20
8.2747180102
 11
11.742858636
 21
8.3409528963
  0
LINE
  5
2E4
100
AcDbEntity
  8
0
100
AcDbLine
 62
4
  6
CONTINUOUS
 10
11.742858636
 20
8.4679031132
 11
11.742858636
 21
8.5175793331
  0
LINE
  5
2E5
100
AcDbEntity
  8
0
100
AcDbLine
 62
4
  6
CONTINUOUS
 10
11.742858636
 20
8.6169316623
 11
11.742858636
 21
8.6997253252
  0
LINE
  5
2E6
100
AcDbEntity
  8
0
100
AcDbLine
 62
4
  6
CONTINUOUS
 10
11.742858636
 20
8.8266756526
 11
11.742858636
 21
8.9260279818
  0
LINE
  5
2E7
100
AcDbEntity
  8
0
100
AcDbLine
 62
4
  6
CONTINUOUS
 10
11.8422110067
 20
8.8860204285
 11
11.8422110067
 21
8.8197855423
  0
LINE
  5
2E8
100
AcDbEntity
  8
0
100
AcDbLine
 62
4
  6
CONTINUOUS
 10
11.8422110067
 20
7.9532120249
 11
11.8422110067
 21
7.8869770835
  0
LINE
  5
2E9
100
AcDbEntity
  8
0
100
AcDbLine
 62
4
  6
CONTINUOUS
 10
11.9084459274
 20
7.5070524704
 11
11.9084459274
 21
7.5953656888
  0
LINE
  5
2EA
100
AcDbEntity
  8
0
100
AcDbLine
 62
4
  6
CONTINUOUS
 10
11.9746808481
 20
8.2586410852
 11
11.9415633877
 21
8.2278203458
  0
LINE
  5
2EB
100
AcDbEntity
  8
0
100
AcDbLine
 62
4
  6
CONTINUOUS
 10
10.6764764606
 20
9.3118379181
 11
10.7344320136
 21
9.3078186868
  0
LINE
  5
2EC
100
AcDbEntity
  8
0
100
AcDbLine
 62
4
  6
CONTINUOUS
 10
10.7344320136
 20
9.4237297928
 11
10.7923875666
 21
9.4197105616
  0
LINE
  5
2ED
100
AcDbEntity
  8
0
100
AcDbLine
 62
4
  6
CONTINUOUS
 10
11.9415633877
 20
8.719062547
 11
11.9746808481
 21
8.6836484002
  0
LINE
  5
2EE
100
AcDbEntity
  8
0
100
AcDbLine
 62
4
  6
CONTINUOUS
 10
11.9746808481
 20
8.6836484002
 11
11.9746808481
 21
8.6008547373
  0
LINE
  5
2EF
100
AcDbEntity
  8
0
100
AcDbLine
 62
4
  6
CONTINUOUS
 10
11.9746808481
 20
8.501502408
 11
11.9746808481
 21
8.4518261882
  0
LINE
  5
2F0
100
AcDbEntity
  8
0
100
AcDbLine
 62
4
  6
CONTINUOUS
 10
11.9746808481
 20
8.3248759713
 11
11.9746808481
 21
8.2586410852
  0
LINE
  5
2F1
100
AcDbEntity
  8
0
100
AcDbLine
 62
4
  6
CONTINUOUS
 10
11.9746808481
 20
7.3534305001
 11
11.9746808481
 21
7.2706368648
  0
LINE
  5
2F2
100
AcDbEntity
  8
0
100
AcDbLine
 62
4
  6
CONTINUOUS
 10
11.9746808481
 20
7.8777902687
 11
11.9746808481
 21
7.9771426532
  0
LINE
  5
2F3
100
AcDbEntity
  8
0
100
AcDbLine
 62
4
  6
CONTINUOUS
 10
11.9746808481
 20
8.8105987276
 11
11.9746808481
 21
8.9099510568
  0
LINE
  5
2F4
100
AcDbEntity
  8
0
100
AcDbLine
 62
4
  6
CONTINUOUS
 10
11.8753284705
 20
9.0713892721
 11
11.9194850831
 21
8.9800137823
  0
LINE
  5
2F5
100
AcDbEntity
  8
0
100
AcDbLine
 62
4
  6
CONTINUOUS
 10
11.742858636
 20
7.3695074251
 11
11.7759760929
 21
7.4003281786
  0
LINE
  5
2F6
100
AcDbEntity
  8
0
100
AcDbLine
 62
7
  6
CONTINUOUS
 10
13.0912911694
 20
9.5848322064
 11
8.2616617518
 21
9.9197681441
  0
LINE
  5
2F7
100
AcDbEntity
  8
0
100
AcDbLine
 62
4
  6
CONTINUOUS
 10
11.8753284705
 20
7.1450571342
 11
11.9194850831
 21
7.230308088
  0
LINE
  5
2F8
100
AcDbEntity
  8
0
100
AcDbLine
 62
7
  6
CONTINUOUS
 10
13.7383382482
 20
10.2098317277
 11
8.9087088306
 21
10.5447676654
  0
LINE
  5
2F9
100
AcDbEntity
  8
0
100
AcDbLine
 62
7
  6
CONTINUOUS
 10
13.0912911694
 20
6.4552323346
 11
13.0912911694
 21
9.5848322064
  0
LINE
  5
2FA
100
AcDbEntity
  8
0
100
AcDbLine
 62
7
  6
CONTINUOUS
 10
13.7383382482
 20
10.2098317277
 11
13.7383382482
 21
7.0802318559
  0
LINE
  5
2FB
100
AcDbEntity
  8
0
100
AcDbLine
 62
7
  6
CONTINUOUS
 10
13.7383382482
 20
7.0802318559
 11
13.0912911694
 21
6.4552323346
  0
SPLINE
  5
2FC
100
AcDbEntity
  8
0
100
AcDbSpline
 62
7
  6
CONTINUOUS
 70
0
 71
3
 72
23
 73
19
 74
0
 42
0.0000001
 43
0.0000001
 44
0.0000000001
 40
0.0
 40
0.0
 40
0.0
 40
0.0
 40
0.0764224449
 40
0.1504663304
 40
0.2222018644
 40
0.2917109085
 40
0.3590900072
 40
0.4244474941
 40
0.4879039322
 40
0.5495927797
 40
0.6096609977
 40
0.6682702188
 40
0.7255962294
 40
0.7818281329
 40
0.8371677443
 40
0.8918276443
 40
0.9460291863
 40
1.0
 40
1.0
 40
1.0
 40
1.0
 10
13.4148147088
 20
9.8393764048
 30
0.0
 10
13.4165093527
 20
9.8410133053
 30
0.0
 10
13.4198979687
 20
9.84418287
 30
0.0
 10
13.4250616357
 20
9.8486867854
 30
0.0
 10
13.4302229631
 20
9.8528625428
 30
0.0
 10
13.4353804082
 20
9.8567086761
 30
0.0
 10
13.4405325385
 20
9.8602241068
 30
0.0
 10
13.4456780495
 20
9.8634077756
 30
0.0
 10
13.4508155955
 20
9.8662586994
 30
0.0
 10
13.455943765
 20
9.8687759917
 30
0.0
 10
13.4610611866
 20
9.8709586928
 30
0.0
 10
13.4661664131
 20
9.8728060147
 30
0.0
 10
13.4712579728
 20
9.8743172646
 30
0.0
 10
13.47633439
 20
9.8754917042
 30
0.0
 10
13.4813940566
 20
9.8763288507
 30
0.0
 10
13.4864354394
 20
9.8768282581
 30
0.0
 10
13.4914565667
 20
9.8769895758
 30
0.0
 10
13.4947924523
 20
9.8768715601
 30
0.0
 10
13.4964523904
 20
9.8767564375
 30
0.0
  0
SPLINE
  5
2FD
100
AcDbEntity
  8
0
100
AcDbSpline
 62
7
  6
CONTINUOUS
 70
0
 71
3
 72
23
 73
19
 74
0
 42
0.0000001
 43
0.0000001
 44
0.0000000001
 40
0.0
 40
0.0
 40
0.0
 40
0.0
 40
0.063776909
 40
0.1273449468
 40
0.1907019575
 40
0.2538561145
 40
0.3168131979
 40
0.3795820804
 40
0.4421733815
 40
0.5045993354
 40
0.5668738682
 40
0.6290123838
 40
0.6910316538
 40
0.75294965
 40
0.8147853622
 40
0.8765586114
 40
0.9382898593
 40
1.0
 40
1.0
 40
1.0
 40
1.0
 10
12.8807193494
 20
7.0126858639
 30
0.0
 10
12.8807193494
 20
7.0073784152
 30
0.0
 10
12.8804653054
 20
6.9967791015
 30
0.0
 10
12.8793187291
 20
6.9809446166
 30
0.0
 10
12.8774096469
 20
6.9652356388
 30
0.0
 10
12.8747426469
 20
6.9496890673
 30
0.0
 10
12.8713236746
 20
6.9343404343
 30
0.0
 10
12.8671606376
 20
6.9192252211
 30
0.0
 10
12.862263112
 20
6.9043782484
 30
0.0
 10
12.8566423463
 20
6.8898337536
 30
0.0
 10
12.8503112516
 20
6.8756252906
 30
0.0
 10
12.8432843987
 20
6.8617856325
 30
0.0
 10
12.8355779918
 20
6.8483466952
 30
0.0
 10
12.8272097754
 20
6.8353394719
 30
0.0
 10
12.8181990433
 20
6.822794009
 30
0.0
 10
12.808566455
 20
6.8107391583
 30
0.0
 10
12.7983346191
 20
6.7992030959
 30
0.0
 10
12.7911282826
 20
6.7918746191
 30
0.0
 10
12.7874345911
 20
6.7883067717
 30
0.0
  0
SPLINE
  5
2FE
100
AcDbEntity
  8
0
100
AcDbSpline
 62
7
  6
CONTINUOUS
 70
0
 71
3
 72
48
 73
44
 74
0
 42
0.0000001
 43
0.0000001
 44
0.0000000001
 40
0.0
 40
0.0
 40
0.0
 40
0.0
 40
0.0149718897
 40
0.0299468369
 40
0.0449278839
 40
0.0599180336
 40
0.0749202322
 40
0.0899373568
 40
0.1049721887
 40
0.1200274064
 40
0.1351055645
 40
0.1502090774
 40
0.1653402142
 40
0.180501073
 40
0.1956935825
 40
0.2109194836
 40
0.2261803205
 40
0.2414774416
 40
0.2568119786
 40
0.2721848576
 40
0.3030428416
 40
0.3340598877
 40
0.365235493
 40
0.3965657058
 40
0.4280432614
 40
0.4596577825
 40
0.4913960356
 40
0.5232422374
 40
0.5551784039
 40
0.5871847345
 40
0.6192400218
 40
0.6513220815
 40
0.6834081967
 40
0.7154755701
 40
0.7475017768
 40
0.7794652126
 40
0.8113455287
 40
0.8431240501
 40
0.8747841728
 40
0.9063117021
 40
0.9376953081
 40
0.9689262526
 40
1.0
 40
1.0
 40
1.0
 40
1.0
 10
12.3094470998
 20
7.2831521411
 30
0.0
 10
12.3123007934
 20
7.2859086093
 30
0.0
 10
12.3181189983
 20
7.2913092886
 30
0.0
 10
12.3271623308
 20
7.2990579224
 30
0.0
 10
12.3365101243
 20
7.3064445161
 30
0.0
 10
12.3461494167
 20
7.3134586312
 30
0.0
 10
12.3560669135
 20
7.3200907651
 30
0.0
 10
12.3662490018
 20
7.3263317118
 30
0.0
 10
12.3766816557
 20
7.3321729093
 30
0.0
 10
12.387350496
 20
7.3376063659
 30
0.0
 10
12.3982408841
 20
7.3426245189
 30
0.0
 10
12.4093377803
 20
7.3472205841
 30
0.0
 10
12.4206259563
 20
7.3513881454
 30
0.0
 10
12.4320898553
 20
7.3551215316
 30
0.0
 10
12.4437137044
 20
7.3584156244
 30
0.0
 10
12.4554815237
 20
7.3612658288
 30
0.0
 10
12.4673771128
 20
7.3636683455
 30
0.0
 10
12.4793840724
 20
7.3656197611
 30
0.0
 10
12.4914860878
 20
7.3671174875
 30
0.0
 10
12.5077448347
 20
7.3685084225
 30
0.0
 10
12.5282280435
 20
7.3690998125
 30
0.0
 10
12.5528829705
 20
7.3679749975
 30
0.0
 10
12.5775128522
 20
7.365023512
 30
0.0
 10
12.6019814323
 20
7.3602617665
 30
0.0
 10
12.6261545763
 20
7.353716216
 30
0.0
 10
12.6498994968
 20
7.3454230389
 30
0.0
 10
12.6730858728
 20
7.335427974
 30
0.0
 10
12.6955864557
 20
7.3237860787
 30
0.0
 10
12.7172777877
 20
7.3105614178
 30
0.0
 10
12.7380408544
 20
7.2958266971
 30
0.0
 10
12.7577617323
 20
7.2796628712
 30
0.0
 10
12.7763322035
 20
7.2621587009
 30
0.0
 10
12.7936503435
 20
7.2434102747
 30
0.0
 10
12.8096210959
 20
7.2235205029
 30
0.0
 10
12.8241567682
 20
7.2025985353
 30
0.0
 10
12.8371775089
 20
7.1807591734
 30
0.0
 10
12.848611742
 20
7.1581222443
 30
0.0
 10
12.8583965553
 20
7.1348119663
 30
0.0
 10
12.8664780543
 20
7.110956232
 30
0.0
 10
12.8728117013
 20
7.0866861009
 30
0.0
 10
12.8773624184
 20
7.062134393
 30
0.0
 10
12.8801050669
 20
7.0374376642
 30
0.0
 10
12.8807193494
 20
7.0209204659
 30
0.0
 10
12.8807193494
 20
7.0126858639
 30
0.0
  0
SPLINE
  5
2FF
100
AcDbEntity
  8
0
100
AcDbSpline
 62
7
  6
CONTINUOUS
 70
0
 71
3
 72
107
 73
103
 74
0
 42
0.0000001
 43
0.0000001
 44
0.0000000001
 40
0.0
 40
0.0
 40
0.0
 40
0.0
 40
0.0013572612
 40
0.0027170797
 40
0.0040819966
 40
0.0054545211
 40
0.0068371186
 40
0.0082321971
 40
0.0110684612
 40
0.013981638
 40
0.0169879164
 40
0.0201018459
 40
0.0233363318
 40
0.0267026481
 40
0.0302105686
 40
0.0338684409
 40
0.0376833717
 40
0.0416613006
 40
0.0458071887
 40
0.0501250693
 40
0.0546182177
 40
0.0592891779
 40
0.0641399047
 40
0.0691717748
 40
0.0743856998
 40
0.0797821307
 40
0.085361142
 40
0.0911224386
 40
0.0970654107
 40
0.1031891498
 40
0.1094924768
 40
0.1159739692
 40
0.1226319653
 40
0.129464604
 40
0.1364698079
 40
0.1436453353
 40
0.1509887461
 40
0.1584974632
 40
0.1661687264
 40
0.1739996594
 40
0.1819872169
 40
0.190128253
 40
0.198419467
 40
0.2068574681
 40
0.2154387256
 40
0.2330162676
 40
0.251122054
 40
0.2697243673
 40
0.2887901232
 40
0.3082849955
 40
0.3281735335
 40
0.3484192745
 40
0.368984852
 40
0.3898321014
 40
0.4109221623
 40
0.4322155806
 40
0.4536724082
 40
0.4752523025
 40
0.4969146253
 40
0.5186185408
 40
0.5403231135
 40
0.5619874067
 40
0.5835705797
 40
0.6050319862
 40
0.6263312728
 40
0.647428477
 40
0.6682841272
 40
0.6888593425
 40
0.7091159341
 40
0.7290165084
 40
0.748524572
 40
0.7676046402
 40
0.7862223487
 40
0.8043445717
 40
0.8219395458
 40
0.8389770046
 40
0.8472777515
 40
0.8554285212
 40
0.8634260347
 40
0.8712671072
 40
0.8789487159
 40
0.8864679446
 40
0.8938220534
 40
0.9010084264
 40
0.9080246393
 40
0.914868415
 40
0.9215376844
 40
0.9280305565
 40
0.9343453681
 40
0.9404806728
 40
0.9464352792
 40
0.9522082616
 40
0.9577989849
 40
0.9632071405
 40
0.9684327659
 40
0.9734763106
 40
0.9783386302
 40
0.9830210709
 40
0.9875255286
 40
0.9918546207
 40
0.996011541
 40
1.0
 40
1.0
 40
1.0
 40
1.0
 10
13.3331770272
 20
7.5224112871
 30
0.0
 10
13.3320766264
 20
7.5224876038
 30
0.0
 10
13.3298768624
 20
7.5226898637
 30
0.0
 10
13.3265892511
 20
7.5231414578
 30
0.0
 10
13.3233127558
 20
7.5237412765
 30
0.0
 10
13.320047921
 20
7.5244892025
 30
0.0
 10
13.3167951034
 20
7.5253851616
 30
0.0
 10
13.3124513148
 20
7.5267844436
 30
0.0
 10
13.3070419289
 20
7.528914207
 30
0.0
 10
13.3006447826
 20
7.5320463029
 30
0.0
 10
13.2943081816
 20
7.5357666334
 30
0.0
 10
13.2880353806
 20
7.5400724205
 30
0.0
 10
13.2818291189
 20
7.5449610248
 30
0.0
 10
13.2756920346
 20
7.5504295066
 30
0.0
 10
13.2696268521
 20
7.5564749625
 30
0.0
 10
13.2636361257
 20
7.5630941567
 30
0.0
 10
13.2577226138
 20
7.5702838089
 30
0.0
 10
13.2518888922
 20
7.5780402655
 30
0.0
 10
13.2461377569
 20
7.5863597563
 30
0.0
 10
13.2404718082
 20
7.5952381299
 30
0.0
 10
13.2348938426
 20
7.6046710642
 30
0.0
 10
13.229406461
 20
7.6146538723
 30
0.0
 10
13.2240124181
 20
7.625181659
 30
0.0
 10
13.21871429
 20
7.6362491905
 30
0.0
 10
13.2135147562
 20
7.6478509999
 30
0.0
 10
13.2084163465
 20
7.6599813086
 30
0.0
 10
13.2034216417
 20
7.6726340904
 30
0.0
 10
13.1985331094
 20
7.6858030311
 30
0.0
 10
13.1937532162
 20
7.6994815612
 30
0.0
 10
13.189084354
 20
7.7136628433
 30
0.0
 10
13.1845288653
 20
7.7283397833
 30
0.0
 10
13.1800890553
 20
7.743505034
 30
0.0
 10
13.1757671365
 20
7.7591509957
 30
0.0
 10
13.1715653172
 20
7.7752698268
 30
0.0
 10
13.1674856764
 20
7.7918534408
 30
0.0
 10
13.163530316
 20
7.8088935178
 30
0.0
 10
13.1597011799
 20
7.8263815034
 30
0.0
 10
13.1560002545
 20
7.8443086174
 30
0.0
 10
13.1524293484
 20
7.8626658559
 30
0.0
 10
13.1489903233
 20
7.8814439969
 30
0.0
 10
13.1456848533
 20
7.9006336063
 30
0.0
 10
13.1425146658
 20
7.9202250403
 30
0.0
 10
13.1394813054
 20
7.940208451
 30
0.0
 10
13.1365863428
 20
7.9605738056
 30
0.0
 10
13.1328832773
 20
7.9884459786
 30
0.0
 10
13.1286210054
 20
8.0241682954
 30
0.0
 10
13.1241202166
 20
8.0680578207
 30
0.0
 10
13.1202026432
 20
8.1132173146
 30
0.0
 10
13.1168762386
 20
8.1595559355
 30
0.0
 10
13.1141477856
 20
8.2069805876
 30
0.0
 10
13.1120228451
 20
8.2553959346
 30
0.0
 10
13.1105057567
 20
8.3047046446
 30
0.0
 10
13.1095996277
 20
8.3548075749
 30
0.0
 10
13.1093063281
 20
8.4056039774
 30
0.0
 10
13.1096264881
 20
8.4569917017
 30
0.0
 10
13.1105594967
 20
8.508867403
 30
0.0
 10
13.1121035035
 20
8.5611267503
 30
0.0
 10
13.1142554232
 20
8.613664638
 30
0.0
 10
13.1170109417
 20
8.6663753983
 30
0.0
 10
13.1203645252
 20
8.719153014
 30
0.0
 10
13.1243094316
 20
8.7718913332
 30
0.0
 10
13.1288377238
 20
8.8244842833
 30
0.0
 10
13.1339402859
 20
8.8768260853
 30
0.0
 10
13.1396068418
 20
8.9288114674
 30
0.0
 10
13.1458259749
 20
8.9803358774
 30
0.0
 10
13.1525851521
 20
9.0312956943
 30
0.0
 10
13.1598707476
 20
9.0815884378
 30
0.0
 10
13.1676680706
 20
9.1311129757
 30
0.0
 10
13.1759613946
 20
9.1797697291
 30
0.0
 10
13.1847339884
 20
9.2274608744
 30
0.0
 10
13.1939681492
 20
9.2740905414
 30
0.0
 10
13.2036452383
 20
9.3195650133
 30
0.0
 10
13.2137457177
 20
9.363792903
 30
0.0
 10
13.2242491887
 20
9.4066853974
 30
0.0
 10
13.2351344357
 20
9.4481562409
 30
0.0
 10
13.2445852796
 20
9.4817458678
 30
0.0
 10
13.2523289571
 20
9.5078378112
 30
0.0
 10
13.2581680317
 20
9.526830525
 30
0.0
 10
13.2640857445
 20
9.545407189
 30
0.0
 10
13.2700791933
 20
9.5635584754
 30
0.0
 10
13.2761452937
 20
9.5812752691
 30
0.0
 10
13.2822810532
 20
9.5985486641
 30
0.0
 10
13.2884833223
 20
9.6153699941
 30
0.0
 10
13.2947490351
 20
9.6317308054
 30
0.0
 10
13.3010749843
 20
9.6476228954
 30
0.0
 10
13.307458034
 20
9.6630382824
 30
0.0
 10
13.3138949308
 20
9.6779692437
 30
0.0
 10
13.3203824721
 20
9.6924082884
 30
0.0
 10
13.3269173696
 20
9.706348189
 30
0.0
 10
13.3334963589
 20
9.7197819636
 30
0.0
 10
13.3401161294
 20
9.7327028951
 30
0.0
 10
13.3467733622
 20
9.7451045283
 30
0.0
 10
13.3534647358
 20
9.7569806676
 30
0.0
 10
13.3601868835
 20
9.7683254027
 30
0.0
 10
13.3669364923
 20
9.7791330775
 30
0.0
 10
13.3737101731
 20
9.7893983419
 30
0.0
 10
13.3805046179
 20
9.7991160639
 30
0.0
 10
13.3873164023
 20
9.8082814664
 30
0.0
 10
13.3941422915
 20
9.8168900077
 30
0.0
 10
13.4009790283
 20
9.824937571
 30
0.0
 10
13.4078231029
 20
9.8324198149
 30
0.0
 10
13.4124833067
 20
9.8371244432
 30
0.0
 10
13.4148147088
 20
9.8393764048
 30
0.0
  0
SPLINE
  5
300
100
AcDbEntity
  8
0
100
AcDbSpline
 62
7
  6
CONTINUOUS
 70
0
 71
3
 72
98
 73
94
 74
0
 42
0.0000001
 43
0.0000001
 44
0.0000000001
 40
0.0
 40
0.0
 40
0.0
 40
0.0
 40
0.0027966045
 40
0.0056681121
 40
0.0086296107
 40
0.0116947045
 40
0.014875484
 40
0.0181825443
 40
0.021625117
 40
0.0252111069
 40
0.0289472819
 40
0.0328393376
 40
0.0368920304
 40
0.0411093052
 40
0.0454943274
 40
0.0500496538
 40
0.0547772165
 40
0.0596784556
 40
0.0647543461
 40
0.0700054263
 40
0.0754319028
 40
0.0810335948
 40
0.0868100596
 40
0.0927605472
 40
0.0988840563
 40
0.1051793695
 40
0.1116450131
 40
0.1182793584
 40
0.1250805445
 40
0.1320465633
 40
0.139175235
 40
0.1464642086
 40
0.1539110212
 40
0.1615130276
 40
0.177171325
 40
0.193415837
 40
0.2102212685
 40
0.2275606856
 40
0.2454056599
 40
0.2637263978
 40
0.2824918559
 40
0.3016698555
 40
0.32122719
 40
0.3411297247
 40
0.3613424931
 40
0.3818297904
 40
0.4025552635
 40
0.4234820031
 40
0.4445726354
 40
0.4657894103
 40
0.4870942885
 40
0.5084490293
 40
0.5298152772
 40
0.5511546512
 40
0.5724288324
 40
0.5935996502
 40
0.6146291701
 40
0.6354797806
 40
0.6561142829
 40
0.676495982
 40
0.6965887744
 40
0.7163572392
 40
0.7357667302
 40
0.7547834701
 40
0.7733746514
 40
0.7915085412
 40
0.8091545847
 40
0.8262835188
 40
0.8428674946
 40
0.8588802131
 40
0.8742970796
 40
0.8817750094
 40
0.8890956221
 40
0.8962564144
 40
0.9032549999
 40
0.9100891883
 40
0.9167569064
 40
0.9232562918
 40
0.9295856493
 40
0.9357434777
 40
0.9417285187
 40
0.9475397016
 40
0.9531762551
 40
0.9586376421
 40
0.9639236514
 40
0.9690344089
 40
0.9739703719
 40
0.9787324276
 40
0.9833218732
 40
0.9877406246
 40
0.9919911728
 40
0.9960764748
 40
1.0
 40
1.0
 40
1.0
 40
1.0
 10
13.2831144496
 20
7.8987173192
 30
0.0
 10
13.2816560035
 20
7.8992329572
 30
0.0
 10
13.2787420764
 20
7.9004007907
 30
0.0
 10
13.2744593093
 20
7.9025184197
 30
0.0
 10
13.2702159298
 20
7.9050205213
 30
0.0
 10
13.2660142399
 20
7.9079053362
 30
0.0
 10
13.2618559333
 20
7.9111711935
 30
0.0
 10
13.257742708
 20
7.9148162155
 30
0.0
 10
13.2536763415
 20
7.9188385932
 30
0.0
 10
13.2496584509
 20
7.9232362471
 30
0.0
 10
13.2456908058
 20
7.928007105
 30
0.0
 10
13.2417750967
 20
7.9331488739
 30
0.0
 10
13.2379130302
 20
7.9386591234
 30
0.0
 10
13.2341063922
 20
7.9445352958
 30
0.0
 10
13.2303568305
 20
7.9507745944
 30
0.0
 10
13.2266661494
 20
7.9573741284
 30
0.0
 10
13.2230359973
 20
7.9643307655
 30
0.0
 10
13.2194680987
 20
7.9716412404
 30
0.0
 10
13.2159641428
 20
7.9793021029
 30
0.0
 10
13.2125257382
 20
7.9873097161
 30
0.0
 10
13.2091545849
 20
7.9956603035
 30
0.0
 10
13.205852214
 20
8.0043498827
 30
0.0
 10
13.2026202568
 20
8.0133743366
 30
0.0
 10
13.1994602293
 20
8.0227293636
 30
0.0
 10
13.1963736366
 20
8.0324105079
 30
0.0
 10
13.1933619944
 20
8.0424131589
 30
0.0
 10
13.1904266886
 20
8.0527325373
 30
0.0
 10
13.1875691892
 20
8.0633637243
 30
0.0
 10
13.1847908164
 20
8.0743016363
 30
0.0
 10
13.1820929306
 20
8.0855410495
 30
0.0
 10
13.1794768291
 20
8.0970765917
 30
0.0
 10
13.1769437418
 20
8.1089027435
 30
0.0
 10
13.1744949196
 20
8.1210138616
 30
0.0
 10
13.171312374
 20
8.1376986855
 30
0.0
 10
13.1675621868
 20
8.1592278959
 30
0.0
 10
13.1634590068
 20
8.185857685
 30
0.0
 10
13.1597177587
 20
8.2134793326
 30
0.0
 10
13.1563456711
 20
8.2420399497
 30
0.0
 10
13.1533492849
 20
8.2714849537
 30
0.0
 10
13.1507344079
 20
8.3017580106
 30
0.0
 10
13.148506107
 20
8.3328011913
 30
0.0
 10
13.1466687
 20
8.3645550746
 30
0.0
 10
13.1452257516
 20
8.3969588696
 30
0.0
 10
13.1441800656
 20
8.4299505343
 30
0.0
 10
13.1435336808
 20
8.463466895
 30
0.0
 10
13.143287868
 20
8.4974437666
 30
0.0
 10
13.1434431222
 20
8.531816076
 30
0.0
 10
13.1439991637
 20
8.5665179885
 30
0.0
 10
13.1449549432
 20
8.6014830365
 30
0.0
 10
13.1463086429
 20
8.6366442472
 30
0.0
 10
13.1480576802
 20
8.6719342709
 30
0.0
 10
13.1501987136
 20
8.7072855094
 30
0.0
 10
13.1527276444
 20
8.7426302462
 30
0.0
 10
13.1556396249
 20
8.7779007782
 30
0.0
 10
13.1589290723
 20
8.8130295454
 30
0.0
 10
13.1625896786
 20
8.8479492604
 30
0.0
 10
13.1666144222
 20
8.8825930371
 30
0.0
 10
13.1709955826
 20
8.9168945188
 30
0.0
 10
13.1757247509
 20
8.950788008
 30
0.0
 10
13.1807928446
 20
8.9842085938
 30
0.0
 10
13.1861901299
 20
9.0170922764
 30
0.0
 10
13.1919062394
 20
9.0493760885
 30
0.0
 10
13.1979301914
 20
9.0809982168
 30
0.0
 10
13.2042504117
 20
9.1118981216
 30
0.0
 10
13.2108547527
 20
9.1420166581
 30
0.0
 10
13.2177305131
 20
9.1712961926
 30
0.0
 10
13.2248644689
 20
9.1996807173
 30
0.0
 10
13.2322428971
 20
9.2271159447
 30
0.0
 10
13.2398516018
 20
9.2535494641
 30
0.0
 10
13.2476759447
 20
9.2789306739
 30
0.0
 10
13.2544300893
 20
9.2993665403
 30
0.0
 10
13.259936879
 20
9.3151469735
 30
0.0
 10
13.2640695393
 20
9.3265692275
 30
0.0
 10
13.2682446862
 20
9.3376932571
 30
0.0
 10
13.2724603822
 20
9.3485137428
 30
0.0
 10
13.276714545
 20
9.3590255224
 30
0.0
 10
13.2810051893
 20
9.369223563
 30
0.0
 10
13.285330225
 20
9.3791030015
 30
0.0
 10
13.2896875867
 20
9.3886591219
 30
0.0
 10
13.2940752139
 20
9.3978873574
 30
0.0
 10
13.2984909576
 20
9.4067833243
 30
0.0
 10
13.3029327722
 20
9.4153427638
 30
0.0
 10
13.3073984748
 20
9.4235616224
 30
0.0
 10
13.3118859776
 20
9.4314359803
 30
0.0
 10
13.3163931394
 20
9.438962104
 30
0.0
 10
13.3209178015
 20
9.4461364397
 30
0.0
 10
13.3254578746
 20
9.4529555566
 30
0.0
 10
13.3300111277
 20
9.4594162565
 30
0.0
 10
13.3345755006
 20
9.4655154713
 30
0.0
 10
13.3391488674
 20
9.4712503896
 30
0.0
 10
13.3437292011
 20
9.476618347
 30
0.0
 10
13.3483141673
 20
9.4816165653
 30
0.0
 10
13.3514344806
 20
9.4847632265
 30
0.0
 10
13.3529954508
 20
9.486271008
 30
0.0
  0
SPLINE
  5
301
100
AcDbEntity
  8
0
100
AcDbSpline
 62
7
  6
CONTINUOUS
 70
0
 71
3
 72
15
 73
11
 74
0
 42
0.0000001
 43
0.0000001
 44
0.0000000001
 40
0.0
 40
0.0
 40
0.0
 40
0.0
 40
0.1084409435
 40
0.2203195104
 40
0.3363915019
 40
0.457322426
 40
0.5836916023
 40
0.7159967326
 40
0.8546555032
 40
1.0
 40
1.0
 40
1.0
 40
1.0
 10
13.3949245065
 20
9.5109633669
 30
0.0
 10
13.3931784969
 20
9.5106069724
 30
0.0
 10
13.3896637941
 20
9.5097132784
 30
0.0
 10
13.3844426067
 20
9.5078779883
 30
0.0
 10
13.3792045191
 20
9.5055321643
 30
0.0
 10
13.3739531859
 20
9.502678429
 30
0.0
 10
13.3686913628
 20
9.4993190667
 30
0.0
 10
13.3634218037
 20
9.4954566274
 30
0.0
 10
13.358147713
 20
9.4910939616
 30
0.0
 10
13.3547133535
 20
9.4879303747
 30
0.0
 10
13.3529954508
 20
9.486271008
 30
0.0
  0
SPLINE
  5
302
100
AcDbEntity
  8
0
100
AcDbSpline
 62
7
  6
CONTINUOUS
 70
0
 71
3
 72
23
 73
19
 74
0
 42
0.0000001
 43
0.0000001
 44
0.0000000001
 40
0.0
 40
0.0
 40
0.0
 40
0.0
 40
0.063776909
 40
0.1273449468
 40
0.1907019575
 40
0.2538561145
 40
0.3168131979
 40
0.3795820804
 40
0.4421733815
 40
0.5045993354
 40
0.5668738682
 40
0.6290123838
 40
0.6910316538
 40
0.75294965
 40
0.8147853622
 40
0.8765586114
 40
0.9382898593
 40
1.0
 40
1.0
 40
1.0
 40
1.0
 10
12.2161623415
 20
7.0587730489
 30
0.0
 10
12.2161623415
 20
7.0640804977
 30
0.0
 10
12.2164163855
 20
7.0746798113
 30
0.0
 10
12.2175629618
 20
7.0905142962
 30
0.0
 10
12.219472044
 20
7.106223274
 30
0.0
 10
12.2221390441
 20
7.1217698456
 30
0.0
 10
12.2255580163
 20
7.1371184785
 30
0.0
 10
12.2297210533
 20
7.1522336917
 30
0.0
 10
12.234618579
 20
7.1670806645
 30
0.0
 10
12.2402393446
 20
7.1816251592
 30
0.0
 10
12.2465704393
 20
7.1958336222
 30
0.0
 10
12.2535972922
 20
7.2096732803
 30
0.0
 10
12.2613036991
 20
7.2231122177
 30
0.0
 10
12.2696719156
 20
7.2361194409
 30
0.0
 10
12.2786826476
 20
7.2486649039
 30
0.0
 10
12.2883152359
 20
7.2607197546
 30
0.0
 10
12.2985470719
 20
7.2722558169
 30
0.0
 10
12.3057534083
 20
7.2795842937
 30
0.0
 10
12.3094470998
 20
7.2831521411
 30
0.0
  0
SPLINE
  5
303
100
AcDbEntity
  8
0
100
AcDbSpline
 62
7
  6
CONTINUOUS
 70
0
 71
3
 72
48
 73
44
 74
0
 42
0.0000001
 43
0.0000001
 44
0.0000000001
 40
0.0
 40
0.0
 40
0.0
 40
0.0
 40
0.0149718897
 40
0.0299468369
 40
0.0449278839
 40
0.0599180336
 40
0.0749202322
 40
0.0899373568
 40
0.1049721887
 40
0.1200274064
 40
0.1351055645
 40
0.1502090774
 40
0.1653402142
 40
0.180501073
 40
0.1956935825
 40
0.2109194836
 40
0.2261803205
 40
0.2414774416
 40
0.2568119786
 40
0.2721848576
 40
0.3030428416
 40
0.3340598877
 40
0.365235493
 40
0.3965657058
 40
0.4280432614
 40
0.4596577825
 40
0.4913960356
 40
0.5232422374
 40
0.5551784039
 40
0.5871847345
 40
0.6192400218
 40
0.6513220815
 40
0.6834081967
 40
0.7154755701
 40
0.7475017768
 40
0.7794652126
 40
0.8113455287
 40
0.8431240501
 40
0.8747841728
 40
0.9063117021
 40
0.9376953081
 40
0.9689262526
 40
1.0
 40
1.0
 40
1.0
 40
1.0
 10
12.7874345911
 20
6.7883067717
 30
0.0
 10
12.7845808975
 20
6.7855503035
 30
0.0
 10
12.7787626926
 20
6.7801496243
 30
0.0
 10
12.7697193601
 20
6.7724009905
 30
0.0
 10
12.7603715667
 20
6.7650143967
 30
0.0
 10
12.7507322742
 20
6.7580002816
 30
0.0
 10
12.7408147774
 20
6.7513681477
 30
0.0
 10
12.7306326892
 20
6.745127201
 30
0.0
 10
12.7202000352
 20
6.7392860035
 30
0.0
 10
12.7095311949
 20
6.7338525469
 30
0.0
 10
12.6986408068
 20
6.728834394
 30
0.0
 10
12.6875439106
 20
6.7242383288
 30
0.0
 10
12.6762557346
 20
6.7200707675
 30
0.0
 10
12.6647918356
 20
6.7163373812
 30
0.0
 10
12.6531679865
 20
6.7130432884
 30
0.0
 10
12.6414001672
 20
6.7101930841
 30
0.0
 10
12.6295045781
 20
6.7077905674
 30
0.0
 10
12.6174976185
 20
6.7058391518
 30
0.0
 10
12.6053956031
 20
6.7043414253
 30
0.0
 10
12.5891368562
 20
6.7029504903
 30
0.0
 10
12.5686536475
 20
6.7023591003
 30
0.0
 10
12.5439987204
 20
6.7034839154
 30
0.0
 10
12.5193688388
 20
6.7064354008
 30
0.0
 10
12.4949002587
 20
6.7111971463
 30
0.0
 10
12.4707271146
 20
6.7177426968
 30
0.0
 10
12.4469821941
 20
6.726035874
 30
0.0
 10
12.4237958181
 20
6.7360309388
 30
0.0
 10
12.4012952352
 20
6.7476728342
 30
0.0
 10
12.3796039032
 20
6.7608974951
 30
0.0
 10
12.3588408365
 20
6.7756322157
 30
0.0
 10
12.3391199586
 20
6.7917960417
 30
0.0
 10
12.3205494874
 20
6.8093002119
 30
0.0
 10
12.3032313474
 20
6.8280486381
 30
0.0
 10
12.287260595
 20
6.84793841
 30
0.0
 10
12.2727249227
 20
6.8688603775
 30
0.0
 10
12.259704182
 20
6.8906997394
 30
0.0
 10
12.2482699489
 20
6.9133366686
 30
0.0
 10
12.2384851356
 20
6.9366469466
 30
0.0
 10
12.2304036366
 20
6.9605026809
 30
0.0
 10
12.2240699896
 20
6.984772812
 30
0.0
 10
12.2195192725
 20
7.0093245198
 30
0.0
 10
12.216776624
 20
7.0340212487
 30
0.0
 10
12.2161623415
 20
7.050538447
 30
0.0
 10
12.2161623415
 20
7.0587730489
 30
0.0
  0
SPLINE
  5
304
100
AcDbEntity
  8
0
100
AcDbSpline
 62
7
  6
CONTINUOUS
 70
0
 71
3
 72
100
 73
96
 74
0
 42
0.0000001
 43
0.0000001
 44
0.0000000001
 40
0.0
 40
0.0
 40
0.0
 40
0.0
 40
0.0038893829
 40
0.0079369618
 40
0.0121461202
 40
0.0165197828
 40
0.0210603963
 40
0.0257697902
 40
0.0306492656
 40
0.0356997065
 40
0.0409216052
 40
0.0463151263
 40
0.0518800783
 40
0.0576160156
 40
0.0635221917
 40
0.069597652
 40
0.0758411882
 40
0.0822514058
 40
0.0888267062
 40
0.0955653125
 40
0.1024652887
 40
0.1095245232
 40
0.1167407814
 40
0.1241116581
 40
0.1316346488
 40
0.1393070907
 40
0.1471262312
 40
0.1550891806
 40
0.1714343012
 40
0.1883175276
 40
0.205712244
 40
0.223590461
 40
0.2419229336
 40
0.2606792702
 40
0.2798280351
 40
0.2993368452
 40
0.3191724631
 40
0.3393008874
 40
0.35968744
 40
0.3802968532
 40
0.4010933542
 40
0.4220407496
 40
0.443102508
 40
0.4642418433
 40
0.485421797
 40
0.5066053204
 40
0.5277553567
 40
0.5488349235
 40
0.5698071946
 40
0.5906355832
 40
0.6112838243
 40
0.6317160577
 40
0.6518969122
 40
0.6717915901
 40
0.691365953
 40
0.7105866093
 40
0.7294210039
 40
0.7478375105
 40
0.765805528
 40
0.7832955821
 40
0.8002794331
 40
0.8167301915
 40
0.8326224453
 40
0.8403517343
 40
0.8479326081
 40
0.8553623896
 40
0.8626384924
 40
0.8697584898
 40
0.8767200671
 40
0.8835210723
 40
0.8901594987
 40
0.8966335023
 40
0.9029414251
 40
0.909081776
 40
0.9150532939
 40
0.9208549007
 40
0.926485791
 40
0.9319453793
 40
0.9372333924
 40
0.9423498387
 40
0.9472950827
 40
0.9520698565
 40
0.9566753064
 40
0.9611130575
 40
0.9653852342
 40
0.9694945761
 40
0.9734444483
 40
0.9772389936
 40
0.9808831575
 40
0.984382851
 40
0.9877450116
 40
0.9909777484
 40
0.9940904332
 40
0.9970937955
 40
1.0
 40
1.0
 40
1.0
 40
1.0
 10
13.3529954508
 20
7.5640784998
 30
0.0
 10
13.3552389554
 20
7.566245559
 30
0.0
 10
13.3597236704
 20
7.5707655246
 30
0.0
 10
13.3663152533
 20
7.5779403011
 30
0.0
 10
13.3729003081
 20
7.5856397202
 30
0.0
 10
13.3794756539
 20
7.5938599099
 30
0.0
 10
13.3860383959
 20
7.6025972039
 30
0.0
 10
13.3925856193
 20
7.6118476113
 30
0.0
 10
13.3991143244
 20
7.62160689
 30
0.0
 10
13.4056214724
 20
7.6318705428
 30
0.0
 10
13.4121041157
 20
7.6426338155
 30
0.0
 10
13.4185592017
 20
7.6538917672
 30
0.0
 10
13.4249838149
 20
7.6656391667
 30
0.0
 10
13.4313748926
 20
7.6778706024
 30
0.0
 10
13.4377295411
 20
7.6905803797
 30
0.0
 10
13.4440447363
 20
7.7037626236
 30
0.0
 10
13.4503175903
 20
7.7174111987
 30
0.0
 10
13.4565451437
 20
7.7315197742
 30
0.0
 10
13.4627245082
 20
7.7460817869
 30
0.0
 10
13.468852805
 20
7.7610904643
 30
0.0
 10
13.474927151
 20
7.7765388269
 30
0.0
 10
13.4809447502
 20
7.7924196776
 30
0.0
 10
13.4869027407
 20
7.808725631
 30
0.0
 10
13.4927984008
 20
7.8254490835
 30
0.0
 10
13.4986289149
 20
7.8425822549
 30
0.0
 10
13.5043916159
 20
7.8601171512
 30
0.0
 10
13.5100837782
 20
7.8780456196
 30
0.0
 10
13.5176414158
 20
7.9026780095
 30
0.0
 10
13.5268827238
 20
7.9343957603
 30
0.0
 10
13.5375552938
 20
7.9735684913
 30
0.0
 10
13.5478849193
 20
8.0141030247
 30
0.0
 10
13.5578522567
 20
8.0559237577
 30
0.0
 10
13.5674386376
 20
8.0989528125
 30
0.0
 10
13.5766261133
 20
8.1431099944
 30
0.0
 10
13.5853974851
 20
8.188312999
 30
0.0
 10
13.5937363373
 20
8.2344775542
 30
0.0
 10
13.6016270671
 20
8.2815175833
 30
0.0
 10
13.6090549134
 20
8.3293453663
 30
0.0
 10
13.6160059855
 20
8.377871706
 30
0.0
 10
13.6224672865
 20
8.4270060958
 30
0.0
 10
13.6284267384
 20
8.4766568902
 30
0.0
 10
13.633873204
 20
8.5267314766
 30
0.0
 10
13.6387965076
 20
8.5771364489
 30
0.0
 10
13.6431874535
 20
8.6277777825
 30
0.0
 10
13.6470378437
 20
8.67856101
 30
0.0
 10
13.6503404926
 20
8.7293913985
 30
0.0
 10
13.6530892406
 20
8.7801741261
 30
0.0
 10
13.6552789657
 20
8.8308144602
 30
0.0
 10
13.6569055937
 20
8.8812179346
 30
0.0
 10
13.6579661064
 20
8.9312905267
 30
0.0
 10
13.658458546
 20
8.9809388339
 30
0.0
 10
13.6583820198
 20
9.0300702482
 30
0.0
 10
13.6577367018
 20
9.07859313
 30
0.0
 10
13.6565238329
 20
9.1264169799
 30
0.0
 10
13.6547457189
 20
9.1734526092
 30
0.0
 10
13.6524057271
 20
9.2196123068
 30
0.0
 10
13.6495082805
 20
9.2648100057
 30
0.0
 10
13.6460588498
 20
9.3089614444
 30
0.0
 10
13.6420639448
 20
9.3519843319
 30
0.0
 10
13.6375311015
 20
9.3937984894
 30
0.0
 10
13.6324688763
 20
9.4343260624
 30
0.0
 10
13.6268868019
 20
9.473491465
 30
0.0
 10
13.6217644814
 20
9.5052200212
 30
0.0
 10
13.6174049573
 20
9.5298614426
 30
0.0
 10
13.6140422769
 20
9.5477860823
 30
0.0
 10
13.6105579726
 20
9.5653170749
 30
0.0
 10
13.6069535976
 20
9.5824462676
 30
0.0
 10
13.6032308943
 20
9.5991656777
 30
0.0
 10
13.5993915629
 20
9.6154675194
 30
0.0
 10
13.5954374224
 20
9.6313442029
 30
0.0
 10
13.5913703164
 20
9.6467883395
 30
0.0
 10
13.5871921304
 20
9.6617927418
 30
0.0
 10
13.582904851
 20
9.6763504362
 30
0.0
 10
13.578510427
 20
9.6904546503
 30
0.0
 10
13.5740109757
 20
9.7040988418
 30
0.0
 10
13.5694085177
 20
9.7172766665
 30
0.0
 10
13.564705275
 20
9.7299820269
 30
0.0
 10
13.5599033582
 20
9.7422090236
 30
0.0
 10
13.5550050593
 20
9.7539520125
 30
0.0
 10
13.550012597
 20
9.7652055579
 30
0.0
 10
13.5449282994
 20
9.7759644741
 30
0.0
 10
13.5397545003
 20
9.7862238086
 30
0.0
 10
13.5344935383
 20
9.7959788359
 30
0.0
 10
13.5291478512
 20
9.8052251025
 30
0.0
 10
13.5237197726
 20
9.8139583426
 30
0.0
 10
13.518211811
 20
9.8221746063
 30
0.0
 10
13.512626291
 20
9.8298700843
 30
0.0
 10
13.5069657378
 20
9.8370413101
 30
0.0
 10
13.5012324737
 20
9.8436849226
 30
0.0
 10
13.4954289833
 20
9.8497978781
 30
0.0
 10
13.4895575951
 20
9.855377238
 30
0.0
 10
13.4836207625
 20
9.860420264
 30
0.0
 10
13.4776207527
 20
9.8649244346
 30
0.0
 10
13.4715604663
 20
9.8688869914
 30
0.0
 10
13.467418946
 20
9.87120115
 30
0.0
 10
13.4653430641
 20
9.8722608495
 30
0.0
  0
SPLINE
  5
305
100
AcDbEntity
  8
0
100
AcDbSpline
 62
7
  6
CONTINUOUS
 70
0
 71
3
 72
15
 73
11
 74
0
 42
0.0000001
 43
0.0000001
 44
0.0000000001
 40
0.0
 40
0.0
 40
0.0
 40
0.0
 40
0.1421390837
 40
0.2788503626
 40
0.4103426683
 40
0.5368711805
 40
0.6587359391
 40
0.7762792764
 40
0.8898886928
 40
1.0
 40
1.0
 40
1.0
 40
1.0
 10
13.3529954508
 20
7.5640784998
 30
0.0
 10
13.3509176347
 20
7.5620714835
 30
0.0
 10
13.3467632488
 20
7.5582137543
 30
0.0
 10
13.3404095683
 20
7.5528073754
 30
0.0
 10
13.3340599902
 20
7.5478986241
 30
0.0
 10
13.3277172929
 20
7.5434899495
 30
0.0
 10
13.3213839209
 20
7.5395833724
 30
0.0
 10
13.3150621629
 20
7.5361807816
 30
0.0
 10
13.3087550058
 20
7.5332841079
 30
0.0
 10
13.3045002072
 20
7.5316682414
 30
0.0
 10
13.3023806015
 20
7.5309502448
 30
0.0
  0
SPLINE
  5
306
100
AcDbEntity
  8
0
100
AcDbSpline
 62
7
  6
CONTINUOUS
 70
0
 71
3
 72
23
 73
19
 74
0
 42
0.0000001
 43
0.0000001
 44
0.0000000001
 40
0.0
 40
0.0
 40
0.0
 40
0.0
 40
0.0781377872
 40
0.1532326428
 40
0.2254045199
 40
0.2947995079
 40
0.3615913906
 40
0.4259789214
 40
0.4881875913
 40
0.5484706304
 40
0.6071105645
 40
0.6644174891
 40
0.7207257753
 40
0.7763897945
 40
0.8317772593
 40
0.887261997
 40
0.9432156672
 40
1.0
 40
1.0
 40
1.0
 40
1.0
 10
13.3529954508
 20
7.9214710767
 30
0.0
 10
13.3515404532
 20
7.9200656568
 30
0.0
 10
13.3486313403
 20
7.917366424
 30
0.0
 10
13.3441803619
 20
7.9135894503
 30
0.0
 10
13.3397323414
 20
7.9101682524
 30
0.0
 10
13.3352892977
 20
7.9071046858
 30
0.0
 10
13.3308530338
 20
7.9044001704
 30
0.0
 10
13.3264252513
 20
7.9020561659
 30
0.0
 10
13.3220078143
 20
7.9000739115
 30
0.0
 10
13.3176025713
 20
7.8984547772
 30
0.0
 10
13.3132115321
 20
7.8971999254
 30
0.0
 10
13.3088368194
 20
7.8963103492
 30
0.0
 10
13.3044806873
 20
7.8957870107
 30
0.0
 10
13.3001455702
 20
7.8956303792
 30
0.0
 10
13.2958340167
 20
7.8958408446
 30
0.0
 10
13.2915485178
 20
7.8964182896
 30
0.0
 10
13.2872919185
 20
7.8973621231
 30
0.0
 10
13.284500474
 20
7.8982272862
 30
0.0
 10
13.2831144496
 20
7.8987173192
 30
0.0
  0
SPLINE
  5
307
100
AcDbEntity
  8
0
100
AcDbSpline
 62
7
  6
CONTINUOUS
 70
0
 71
3
 72
23
 73
19
 74
0
 42
0.0000001
 43
0.0000001
 44
0.0000000001
 40
0.0
 40
0.0
 40
0.0
 40
0.0
 40
0.0764224449
 40
0.1504663304
 40
0.2222018644
 40
0.2917109085
 40
0.3590900072
 40
0.4244474941
 40
0.4879039322
 40
0.5495927797
 40
0.6096609977
 40
0.6682702188
 40
0.7255962294
 40
0.7818281329
 40
0.8371677443
 40
0.8918276443
 40
0.9460291863
 40
1.0
 40
1.0
 40
1.0
 40
1.0
 10
13.4148147088
 20
7.5597913197
 30
0.0
 10
13.4131200649
 20
7.5581544193
 30
0.0
 10
13.4097314489
 20
7.5549848546
 30
0.0
 10
13.4045677819
 20
7.5504809392
 30
0.0
 10
13.3994064546
 20
7.5463051818
 30
0.0
 10
13.3942490094
 20
7.5424590484
 30
0.0
 10
13.3890968791
 20
7.5389436178
 30
0.0
 10
13.3839513682
 20
7.535759949
 30
0.0
 10
13.3788138221
 20
7.5329090252
 30
0.0
 10
13.3736856527
 20
7.5303917329
 30
0.0
 10
13.368568231
 20
7.5282090318
 30
0.0
 10
13.3634630045
 20
7.5263617099
 30
0.0
 10
13.3583714448
 20
7.52485046
 30
0.0
 10
13.3532950276
 20
7.5236760204
 30
0.0
 10
13.3482353611
 20
7.5228388738
 30
0.0
 10
13.3431939782
 20
7.5223394664
 30
0.0
 10
13.338172851
 20
7.5221781488
 30
0.0
 10
13.3348369653
 20
7.5222961644
 30
0.0
 10
13.3331770272
 20
7.5224112871
 30
0.0
  0
SPLINE
  5
308
100
AcDbEntity
  8
0
100
AcDbSpline
 62
7
  6
CONTINUOUS
 70
0
 71
3
 72
101
 73
97
 74
0
 42
0.0000001
 43
0.0000001
 44
0.0000000001
 40
0.0
 40
0.0
 40
0.0
 40
0.0
 40
0.0040523204
 40
0.0082800102
 40
0.0126869618
 40
0.0172764741
 40
0.0220512743
 40
0.0270133701
 40
0.0321640975
 40
0.0375043108
 40
0.0430343724
 40
0.0487542797
 40
0.0546635975
 40
0.0607615842
 40
0.067047165
 40
0.0735189838
 40
0.0801754365
 40
0.087014644
 40
0.0940345454
 40
0.1012328208
 40
0.1086070004
 40
0.1161543931
 40
0.1238721575
 40
0.1317572831
 40
0.1480165659
 40
0.1649054499
 40
0.1823947749
 40
0.2004534686
 40
0.2190487217
 40
0.2381461467
 40
0.257709921
 40
0.2777029247
 40
0.2980868697
 40
0.3188224229
 40
0.3398693251
 40
0.3611865075
 40
0.3827322047
 40
0.4044640677
 40
0.4263392743
 40
0.4483146404
 40
0.4703467305
 40
0.4923919669
 40
0.514406739
 40
0.5363475128
 40
0.5581709395
 40
0.5798339656
 40
0.6012939432
 40
0.6225087417
 40
0.6434368587
 40
0.6640375334
 40
0.6842708604
 40
0.7040979076
 40
0.7234808361
 40
0.7423830252
 40
0.7607692049
 40
0.7786055963
 40
0.7958600603
 40
0.812502262
 40
0.8205849436
 40
0.8285040926
 40
0.8362565301
 40
0.8438391998
 40
0.8512492221
 40
0.8584838906
 40
0.8655406607
 40
0.8724172169
 40
0.8791114049
 40
0.8856213423
 40
0.8919453402
 40
0.8980820034
 40
0.9040301982
 40
0.909789098
 40
0.9153582309
 40
0.9207374596
 40
0.9259271041
 40
0.9309278891
 40
0.9357410979
 40
0.9403685491
 40
0.9448127297
 40
0.9490768541
 40
0.9531649513
 40
0.9570820214
 40
0.9608340901
 40
0.9644284321
 40
0.9678736327
 40
0.9711798082
 40
0.9743586939
 40
0.9774237776
 40
0.9803903591
 40
0.9832755083
 40
0.9860979693
 40
0.9888778739
 40
0.9916363888
 40
0.9943952128
 40
0.9971760375
 40
1.0
 40
1.0
 40
1.0
 40
1.0
 10
13.3529954508
 20
7.9214710767
 30
0.0
 10
13.3546352173
 20
7.9230549696
 30
0.0
 10
13.357912842
 20
7.9263674379
 30
0.0
 10
13.3627239741
 20
7.9316421562
 30
0.0
 10
13.3675297184
 20
7.9373237248
 30
0.0
 10
13.3723274347
 20
7.943408915
 30
0.0
 10
13.3771147578
 20
7.9498946485
 30
0.0
 10
13.3818892665
 20
7.9567776021
 30
0.0
 10
13.3866485332
 20
7.9640541962
 30
0.0
 10
13.391390006
 20
7.9717206624
 30
0.0
 10
13.3961112916
 20
7.9797729685
 30
0.0
 10
13.4008098511
 20
7.9882069466
 30
0.0
 10
13.4054832904
 20
7.9970181646
 30
0.0
 10
13.4101291068
 20
8.0062020272
 30
0.0
 10
13.4147448784
 20
8.0157537126
 30
0.0
 10
13.4193281808
 20
8.0256682099
 30
0.0
 10
13.4238765686
 20
8.0359403211
 30
0.0
 10
13.4283876939
 20
8.0465646378
 30
0.0
 10
13.4328591138
 20
8.0575355887
 30
0.0
 10
13.4372885332
 20
8.0688473891
 30
0.0
 10
13.4416735572
 20
8.0804940986
 30
0.0
 10
13.4460119081
 20
8.0924695755
 30
0.0
 10
13.4503012905
 20
8.104767528
 30
0.0
 10
13.4560104609
 20
8.121759885
 30
0.0
 10
13.4629985751
 20
8.1437638931
 30
0.0
 10
13.4710703325
 20
8.1710866644
 30
0.0
 10
13.4788942878
 20
8.1995326744
 30
0.0
 10
13.4864538592
 20
8.2290419596
 30
0.0
 10
13.4937330236
 20
8.2595524292
 30
0.0
 10
13.5007163563
 20
8.2909998123
 30
0.0
 10
13.5073890655
 20
8.3233178507
 30
0.0
 10
13.5137370218
 20
8.3564384289
 30
0.0
 10
13.5197467866
 20
8.3902917267
 30
0.0
 10
13.5254056408
 20
8.4248063681
 30
0.0
 10
13.530701611
 20
8.4599095742
 30
0.0
 10
13.5356234941
 20
8.4955273177
 30
0.0
 10
13.5401608813
 20
8.5315844802
 30
0.0
 10
13.5443041784
 20
8.5680050114
 30
0.0
 10
13.5480446291
 20
8.6047120905
 30
0.0
 10
13.5513743322
 20
8.6416282889
 30
0.0
 10
13.5542862567
 20
8.6786757358
 30
0.0
 10
13.5567742571
 20
8.7157762827
 30
0.0
 10
13.5588330861
 20
8.752851669
 30
0.0
 10
13.5604584055
 20
8.7898236871
 30
0.0
 10
13.561646796
 20
8.8266143477
 30
0.0
 10
13.5623957638
 20
8.8631460451
 30
0.0
 10
13.5627037479
 20
8.8993417227
 30
0.0
 10
13.5625701245
 20
8.935125036
 30
0.0
 10
13.5619952062
 20
8.9704205155
 30
0.0
 10
13.5609802423
 20
9.0051537261
 30
0.0
 10
13.5595274163
 20
9.0392514254
 30
0.0
 10
13.5576398423
 20
9.0726417196
 30
0.0
 10
13.5553215588
 20
9.1052542163
 30
0.0
 10
13.5525775213
 20
9.1370201796
 30
0.0
 10
13.5494135911
 20
9.1678726665
 30
0.0
 10
13.5458365336
 20
9.1977467213
 30
0.0
 10
13.541853975
 20
9.2265793474
 30
0.0
 10
13.53816951
 20
9.2499093252
 30
0.0
 10
13.53501773
 20
9.2680025217
 30
0.0
 10
13.5325809077
 20
9.2811427895
 30
0.0
 10
13.5300494735
 20
9.2939785606
 30
0.0
 10
13.5274247256
 20
9.3065030857
 30
0.0
 10
13.5247080622
 20
9.3187097647
 30
0.0
 10
13.5219009372
 20
9.3305921725
 30
0.0
 10
13.5190047958
 20
9.3421440519
 30
0.0
 10
13.5160212264
 20
9.3533593293
 30
0.0
 10
13.5129517391
 20
9.3642321009
 30
0.0
 10
13.509798022
 20
9.3747566588
 30
0.0
 10
13.506561684
 20
9.3849274693
 30
0.0
 10
13.5032444684
 20
9.3947391992
 30
0.0
 10
13.4998481115
 20
9.4041867038
 30
0.0
 10
13.4963743815
 20
9.4132650309
 30
0.0
 10
13.4928251467
 20
9.4219694437
 30
0.0
 10
13.4892021957
 20
9.4302953797
 30
0.0
 10
13.4855074993
 20
9.4382385223
 30
0.0
 10
13.481742891
 20
9.4457947153
 30
0.0
 10
13.477910385
 20
9.4529600614
 30
0.0
 10
13.4740118931
 20
9.4597308347
 30
0.0
 10
13.4700494103
 20
9.4661035432
 30
0.0
 10
13.4660249367
 20
9.4720749111
 30
0.0
 10
13.461940408
 20
9.4776418295
 30
0.0
 10
13.4577978817
 20
9.4828014689
 30
0.0
 10
13.4535992306
 20
9.4875510764
 30
0.0
 10
13.4493465041
 20
9.491888211
 30
0.0
 10
13.4450415555
 20
9.4958104444
 30
0.0
 10
13.4406863793
 20
9.4993155964
 30
0.0
 10
13.4362829042
 20
9.5024015139
 30
0.0
 10
13.4318331457
 20
9.5050661277
 30
0.0
 10
13.4273392833
 20
9.5073075255
 30
0.0
 10
13.422803609
 20
9.5091237281
 30
0.0
 10
13.4182287879
 20
9.5105131736
 30
0.0
 10
13.4136176637
 20
9.5114742858
 30
0.0
 10
13.4089734731
 20
9.512006195
 30
0.0
 10
13.4042994269
 20
9.5121082662
 30
0.0
 10
13.3995993594
 20
9.5117806908
 30
0.0
 10
13.3964811549
 20
9.5112811092
 30
0.0
 10
13.3949245065
 20
9.5109633669
 30
0.0
  0
SPLINE
  5
309
100
AcDbEntity
  8
0
100
AcDbSpline
 62
7
  6
CONTINUOUS
 70
0
 71
3
 72
107
 73
103
 74
0
 42
0.0000001
 43
0.0000001
 44
0.0000000001
 40
0.0
 40
0.0
 40
0.0
 40
0.0
 40
0.0013572612
 40
0.0027170797
 40
0.0040819966
 40
0.0054545211
 40
0.0068371186
 40
0.0082321971
 40
0.0110684612
 40
0.013981638
 40
0.0169879164
 40
0.0201018459
 40
0.0233363318
 40
0.0267026481
 40
0.0302105686
 40
0.0338684409
 40
0.0376833717
 40
0.0416613006
 40
0.0458071887
 40
0.0501250693
 40
0.0546182177
 40
0.0592891779
 40
0.0641399047
 40
0.0691717748
 40
0.0743856998
 40
0.0797821307
 40
0.085361142
 40
0.0911224386
 40
0.0970654107
 40
0.1031891498
 40
0.1094924768
 40
0.1159739692
 40
0.1226319653
 40
0.129464604
 40
0.1364698079
 40
0.1436453353
 40
0.1509887461
 40
0.1584974632
 40
0.1661687264
 40
0.1739996594
 40
0.1819872169
 40
0.190128253
 40
0.198419467
 40
0.2068574681
 40
0.2154387256
 40
0.2330162676
 40
0.251122054
 40
0.2697243673
 40
0.2887901232
 40
0.3082849955
 40
0.3281735335
 40
0.3484192745
 40
0.368984852
 40
0.3898321014
 40
0.4109221623
 40
0.4322155806
 40
0.4536724082
 40
0.4752523025
 40
0.4969146253
 40
0.5186185408
 40
0.5403231135
 40
0.5619874067
 40
0.5835705797
 40
0.6050319862
 40
0.6263312728
 40
0.647428477
 40
0.6682841272
 40
0.6888593425
 40
0.7091159341
 40
0.7290165084
 40
0.748524572
 40
0.7676046402
 40
0.7862223487
 40
0.8043445717
 40
0.8219395458
 40
0.8389770046
 40
0.8472777515
 40
0.8554285212
 40
0.8634260347
 40
0.8712671072
 40
0.8789487159
 40
0.8864679446
 40
0.8938220534
 40
0.9010084264
 40
0.9080246393
 40
0.914868415
 40
0.9215376844
 40
0.9280305565
 40
0.9343453681
 40
0.9404806728
 40
0.9464352792
 40
0.9522082616
 40
0.9577989849
 40
0.9632071405
 40
0.9684327659
 40
0.9734763106
 40
0.9783386302
 40
0.9830210709
 40
0.9875255286
 40
0.9918546207
 40
0.996011541
 40
1.0
 40
1.0
 40
1.0
 40
1.0
 10
13.4964523904
 20
9.8767564375
 30
0.0
 10
13.4975527912
 20
9.8766801207
 30
0.0
 10
13.4997525552
 20
9.8764778609
 30
0.0
 10
13.5030401665
 20
9.8760262668
 30
0.0
 10
13.5063166618
 20
9.8754264481
 30
0.0
 10
13.5095814966
 20
9.8746785221
 30
0.0
 10
13.5128343142
 20
9.873782563
 30
0.0
 10
13.5171781028
 20
9.8723832809
 30
0.0
 10
13.5225874887
 20
9.8702535175
 30
0.0
 10
13.528984635
 20
9.8671214217
 30
0.0
 10
13.5353212361
 20
9.8634010912
 30
0.0
 10
13.541594037
 20
9.8590953041
 30
0.0
 10
13.5478002987
 20
9.8542066998
 30
0.0
 10
13.553937383
 20
9.8487382179
 30
0.0
 10
13.5600025655
 20
9.8426927621
 30
0.0
 10
13.5659932919
 20
9.8360735679
 30
0.0
 10
13.5719068038
 20
9.8288839157
 30
0.0
 10
13.5777405255
 20
9.821127459
 30
0.0
 10
13.5834916607
 20
9.8128079682
 30
0.0
 10
13.5891576095
 20
9.8039295947
 30
0.0
 10
13.594735575
 20
9.7944966603
 30
0.0
 10
13.6002229567
 20
9.7845138522
 30
0.0
 10
13.6056169995
 20
9.7739860655
 30
0.0
 10
13.6109151276
 20
9.7629185341
 30
0.0
 10
13.6161146615
 20
9.7513167247
 30
0.0
 10
13.6212130711
 20
9.7391864159
 30
0.0
 10
13.6262077759
 20
9.7265336341
 30
0.0
 10
13.6310963082
 20
9.7133646935
 30
0.0
 10
13.6358762014
 20
9.6996861633
 30
0.0
 10
13.6405450636
 20
9.6855048813
 30
0.0
 10
13.6451005523
 20
9.6708279413
 30
0.0
 10
13.6495403623
 20
9.6556626906
 30
0.0
 10
13.6538622811
 20
9.6400167288
 30
0.0
 10
13.6580641004
 20
9.6238978977
 30
0.0
 10
13.6621437412
 20
9.6073142838
 30
0.0
 10
13.6660991017
 20
9.5902742067
 30
0.0
 10
13.6699282377
 20
9.5727862211
 30
0.0
 10
13.6736291631
 20
9.5548591072
 30
0.0
 10
13.6772000692
 20
9.5365018686
 30
0.0
 10
13.6806390943
 20
9.5177237277
 30
0.0
 10
13.6839445643
 20
9.4985341182
 30
0.0
 10
13.6871147518
 20
9.4789426842
 30
0.0
 10
13.6901481123
 20
9.4589592735
 30
0.0
 10
13.6930430748
 20
9.4385939189
 30
0.0
 10
13.6967461403
 20
9.4107217459
 30
0.0
 10
13.7010084122
 20
9.3749994292
 30
0.0
 10
13.7055092011
 20
9.3311099038
 30
0.0
 10
13.7094267744
 20
9.28595041
 30
0.0
 10
13.712753179
 20
9.239611789
 30
0.0
 10
13.715481632
 20
9.192187137
 30
0.0
 10
13.7176065725
 20
9.14377179
 30
0.0
 10
13.7191236609
 20
9.09446308
 30
0.0
 10
13.72002979
 20
9.0443601497
 30
0.0
 10
13.7203230895
 20
8.9935637472
 30
0.0
 10
13.7200029295
 20
8.9421760228
 30
0.0
 10
13.7190699209
 20
8.8903003216
 30
0.0
 10
13.7175259141
 20
8.8380409743
 30
0.0
 10
13.7153739944
 20
8.7855030865
 30
0.0
 10
13.7126184759
 20
8.7327923263
 30
0.0
 10
13.7092648924
 20
8.6800147106
 30
0.0
 10
13.705319986
 20
8.6272763914
 30
0.0
 10
13.7007916938
 20
8.5746834412
 30
0.0
 10
13.6956891317
 20
8.5223416392
 30
0.0
 10
13.6900225759
 20
8.4703562572
 30
0.0
 10
13.6838034427
 20
8.4188318472
 30
0.0
 10
13.6770442655
 20
8.3678720303
 30
0.0
 10
13.66975867
 20
8.3175792868
 30
0.0
 10
13.661961347
 20
8.2680547488
 30
0.0
 10
13.653668023
 20
8.2193979954
 30
0.0
 10
13.6448954292
 20
8.1717068502
 30
0.0
 10
13.6356612684
 20
8.1250771832
 30
0.0
 10
13.6259841793
 20
8.0796027113
 30
0.0
 10
13.6158836999
 20
8.0353748215
 30
0.0
 10
13.6053802289
 20
7.9924823272
 30
0.0
 10
13.5944949819
 20
7.9510114837
 30
0.0
 10
13.585044138
 20
7.9174218568
 30
0.0
 10
13.5773004605
 20
7.8913299134
 30
0.0
 10
13.5714613859
 20
7.8723371995
 30
0.0
 10
13.5655436731
 20
7.8537605356
 30
0.0
 10
13.5595502243
 20
7.8356092491
 30
0.0
 10
13.5534841239
 20
7.8178924554
 30
0.0
 10
13.5473483644
 20
7.8006190605
 30
0.0
 10
13.5411460953
 20
7.7837977305
 30
0.0
 10
13.5348803825
 20
7.7674369192
 30
0.0
 10
13.5285544333
 20
7.7515448292
 30
0.0
 10
13.5221713836
 20
7.7361294422
 30
0.0
 10
13.5157344868
 20
7.7211984808
 30
0.0
 10
13.5092469455
 20
7.7067594362
 30
0.0
 10
13.502712048
 20
7.6928195356
 30
0.0
 10
13.4961330587
 20
7.679385761
 30
0.0
 10
13.4895132882
 20
7.6664648294
 30
0.0
 10
13.4828560554
 20
7.6540631963
 30
0.0
 10
13.4761646818
 20
7.642187057
 30
0.0
 10
13.4694425341
 20
7.6308423218
 30
0.0
 10
13.4626929253
 20
7.620034647
 30
0.0
 10
13.4559192445
 20
7.6097693827
 30
0.0
 10
13.4491247997
 20
7.6000516607
 30
0.0
 10
13.4423130153
 20
7.5908862581
 30
0.0
 10
13.4354871261
 20
7.5822777168
 30
0.0
 10
13.4286503893
 20
7.5742301536
 30
0.0
 10
13.4218063148
 20
7.5667479097
 30
0.0
 10
13.4171461109
 20
7.5620432814
 30
0.0
 10
13.4148147088
 20
7.5597913197
 30
0.0
  0
SPLINE
  5
30A
100
AcDbEntity
  8
0
100
AcDbSpline
 62
7
  6
CONTINUOUS
 70
0
 71
3
 72
61
 73
57
 74
0
 42
0.0000001
 43
0.0000001
 44
0.0000000001
 40
0.0
 40
0.0
 40
0.0
 40
0.0
 40
0.0103068114
 40
0.0210668586
 40
0.0322750661
 40
0.0439250788
 40
0.056009478
 40
0.0685198016
 40
0.0814466755
 40
0.0947799139
 40
0.1085085091
 40
0.1226207763
 40
0.1371043528
 40
0.151946239
 40
0.1671328956
 40
0.182650206
 40
0.1984835694
 40
0.2146179236
 40
0.231037739
 40
0.2477271102
 40
0.2646697322
 40
0.2818489485
 40
0.2992477969
 40
0.3168489917
 40
0.3525876602
 40
0.3889221694
 40
0.4257062273
 40
0.4627912022
 40
0.5000269037
 40
0.5372623674
 40
0.5743466309
 40
0.6111295077
 40
0.6474623698
 40
0.6831989345
 40
0.7007989138
 40
0.7181964315
 40
0.7353742126
 40
0.7523152958
 40
0.7690030171
 40
0.7854210897
 40
0.8015535971
 40
0.8173850167
 40
0.8329002969
 40
0.8480848222
 40
0.862924499
 40
0.8774057815
 40
0.8915156673
 40
0.905241817
 40
0.918572528
 40
0.9314968125
 40
0.94400449
 40
0.9560861741
 40
0.9677334349
 40
0.978938841
 40
0.9896960473
 40
1.0
 40
1.0
 40
1.0
 40
1.0
 10
13.1881732594
 20
8.061368727
 30
0.0
 10
13.1902859397
 20
8.0654044044
 30
0.0
 10
13.1944861684
 20
8.0737154488
 30
0.0
 10
13.2005920336
 20
8.0866084425
 30
0.0
 10
13.206633327
 20
8.1001842426
 30
0.0
 10
13.2126035031
 20
8.1144281385
 30
0.0
 10
13.2184960786
 20
8.1293248851
 30
0.0
 10
13.2243046889
 20
8.1448584429
 30
0.0
 10
13.2300230532
 20
8.1610120887
 30
0.0
 10
13.2356449364
 20
8.1777684226
 30
0.0
 10
13.241164285
 20
8.1951093674
 30
0.0
 10
13.2465750905
 20
8.2130162178
 30
0.0
 10
13.2518714826
 20
8.231469646
 30
0.0
 10
13.2570477465
 20
8.2504497229
 30
0.0
 10
13.2620982327
 20
8.2699359541
 30
0.0
 10
13.2670174935
 20
8.2899072847
 30
0.0
 10
13.2718001934
 20
8.3103421355
 30
0.0
 10
13.2764411266
 20
8.3312184261
 30
0.0
 10
13.2809352973
 20
8.3525135895
 30
0.0
 10
13.285277807
 20
8.3742046093
 30
0.0
 10
13.2894639601
 20
8.3962680379
 30
0.0
 10
13.2934892321
 20
8.4186800159
 30
0.0
 10
13.2973492472
 20
8.4414163347
 30
0.0
 10
13.3022949577
 20
8.4722869365
 30
0.0
 10
13.3080273501
 20
8.5115052784
 30
0.0
 10
13.3141508103
 20
8.5592271964
 30
0.0
 10
13.3195264939
 20
8.6076378485
 30
0.0
 10
13.3241310891
 20
8.6565279091
 30
0.0
 10
13.3279446427
 20
8.705686111
 30
0.0
 10
13.3309506614
 20
8.7548999796
 30
0.0
 10
13.3331361668
 20
8.803956798
 30
0.0
 10
13.3344917669
 20
8.8526445704
 30
0.0
 10
13.3350116621
 20
8.9007527634
 30
0.0
 10
13.3347454965
 20
8.9403847436
 30
0.0
 10
13.3341066441
 20
8.9716404228
 30
0.0
 10
13.3334207036
 20
8.9946901135
 30
0.0
 10
13.3325263314
 20
9.0174412241
 30
0.0
 10
13.3314245158
 20
9.0398691751
 30
0.0
 10
13.3301164281
 20
9.0619497144
 30
0.0
 10
13.3286035155
 20
9.0836589719
 30
0.0
 10
13.3268874258
 20
9.1049734792
 30
0.0
 10
13.3249700034
 20
9.1258701982
 30
0.0
 10
13.3228533708
 20
9.1463265433
 30
0.0
 10
13.3205398038
 20
9.1663204094
 30
0.0
 10
13.3180318273
 20
9.1858301947
 30
0.0
 10
13.3153321913
 20
9.204834824
 30
0.0
 10
13.3124437962
 20
9.223313773
 30
0.0
 10
13.3093698219
 20
9.2412470934
 30
0.0
 10
13.3061136001
 20
9.2586154325
 30
0.0
 10
13.3026786584
 20
9.2754000558
 30
0.0
 10
13.2990687727
 20
9.2915828733
 30
0.0
 10
13.2952878255
 20
9.3071464556
 30
0.0
 10
13.2913399528
 20
9.3220740485
 30
0.0
 10
13.2872294385
 20
9.3363496586
 30
0.0
 10
13.282960739
 20
9.3499578151
 30
0.0
 10
13.2799472879
 20
9.3587661977
 30
0.0
 10
13.27841157
 20
9.3630534079
 30
0.0
  0
SPLINE
  5
30B
100
AcDbEntity
  8
0
100
AcDbSpline
 62
7
  6
CONTINUOUS
 70
0
 71
3
 72
45
 73
41
 74
0
 42
0.0000001
 43
0.0000001
 44
0.0000000001
 40
0.0
 40
0.0
 40
0.0
 40
0.0
 40
0.0122750545
 40
0.02485071
 40
0.037720311
 40
0.0508769427
 40
0.0643132999
 40
0.0780218492
 40
0.1062234351
 40
0.1354161664
 40
0.1655302728
 40
0.1964925443
 40
0.2282266982
 40
0.2606537235
 40
0.2936922087
 40
0.3272586582
 40
0.3612678003
 40
0.3956328901
 40
0.4302660073
 40
0.4650783519
 40
0.4999805386
 40
0.5348828889
 40
0.569695724
 40
0.6043296568
 40
0.6386958847
 40
0.6727064838
 40
0.7062747041
 40
0.7393152681
 40
0.7717446733
 40
0.8034814999
 40
0.8344467274
 40
0.8645640628
 40
0.8937602842
 40
0.9219656079
 40
0.9356761143
 40
0.949114485
 40
0.9622731843
 40
0.9751449049
 40
0.9877227295
 40
1.0
 40
1.0
 40
1.0
 40
1.0
 10
13.1611751197
 20
8.2031185017
 30
0.0
 10
13.1625875185
 20
8.207109637
 30
0.0
 10
13.1653914601
 20
8.2152093681
 30
0.0
 10
13.1694883907
 20
8.2275575565
 30
0.0
 10
13.1735252064
 20
8.240244986
 30
0.0
 10
13.1774990588
 20
8.253262948
 30
0.0
 10
13.1814073002
 20
8.2666025458
 30
0.0
 10
13.1865758916
 20
8.2849788797
 30
0.0
 10
13.192844008
 20
8.3086896263
 30
0.0
 10
13.1999932415
 20
8.3380141546
 30
0.0
 10
13.206819411
 20
8.3683921729
 30
0.0
 10
13.2133037188
 20
8.3997404755
 30
0.0
 10
13.2194283077
 20
8.4319733047
 30
0.0
 10
13.2251763204
 20
8.4650024162
 30
0.0
 10
13.2305319421
 20
8.4987373754
 30
0.0
 10
13.2354804434
 20
8.5330857957
 30
0.0
 10
13.2400082202
 20
8.5679535986
 30
0.0
 10
13.2441028302
 20
8.6032452732
 30
0.0
 10
13.2477530267
 20
8.6388641406
 30
0.0
 10
13.2509487887
 20
8.6747126199
 30
0.0
 10
13.2536813487
 20
8.710692498
 30
0.0
 10
13.255943216
 20
8.7467051996
 30
0.0
 10
13.2577281978
 20
8.7826520589
 30
0.0
 10
13.2590314159
 20
8.8184345914
 30
0.0
 10
13.2598493207
 20
8.8539547652
 30
0.0
 10
13.2601797012
 20
8.889115271
 30
0.0
 10
13.2600216916
 20
8.9238197908
 30
0.0
 10
13.2593757746
 20
8.9579732637
 30
0.0
 10
13.2582437809
 20
8.9914821485
 30
0.0
 10
13.2566288859
 20
9.0242546861
 30
0.0
 10
13.2545355996
 20
9.0562011421
 30
0.0
 10
13.2519697657
 20
9.0872341061
 30
0.0
 10
13.2489385118
 20
9.1172685646
 30
0.0
 10
13.2460047473
 20
9.1416209191
 30
0.0
 10
13.2434233442
 20
9.1605376274
 30
0.0
 10
13.2413946722
 20
9.1742912309
 30
0.0
 10
13.2392566091
 20
9.1877354021
 30
0.0
 10
13.2370105489
 20
9.2008609627
 30
0.0
 10
13.23465811
 20
9.2136588923
 30
0.0
 10
13.232999588
 20
9.222069776
 30
0.0
 10
13.2321518904
 20
9.2262185002
 30
0.0
  0
SPLINE
  5
30C
100
AcDbEntity
  8
0
100
AcDbSpline
 62
4
  6
CONTINUOUS
 70
0
 71
3
 72
403
 73
399
 74
0
 42
0.0000001
 43
0.0000001
 44
0.0000000001
 40
0.0
 40
0.0
 40
0.0
 40
0.0
 40
0.015625
 40
0.0234375
 40
0.03125
 40
0.0390625
 40
0.04296875
 40
0.046875
 40
0.05078125
 40
0.0546875
 40
0.056640625
 40
0.05859375
 40
0.0595703125
 40
0.060546875
 40
0.0615234375
 40
0.0620117188
 40
0.0622558594
 40
0.0625
 40
0.0627441406
 40
0.0629882812
 40
0.0634765625
 40
0.064453125
 40
0.0654296875
 40
0.06640625
 40
0.068359375
 40
0.0703125
 40
0.07421875
 40
0.078125
 40
0.08203125
 40
0.0859375
 40
0.09375
 40
0.1015625
 40
0.10546875
 40
0.109375
 40
0.11328125
 40
0.1171875
 40
0.119140625
 40
0.12109375
 40
0.1220703125
 40
0.123046875
 40
0.1240234375
 40
0.1245117188
 40
0.1247558594
 40
0.125
 40
0.1252441406
 40
0.1254882812
 40
0.1259765625
 40
0.126953125
 40
0.1279296875
 40
0.12890625
 40
0.130859375
 40
0.1328125
 40
0.13671875
 40
0.140625
 40
0.14453125
 40
0.1484375
 40
0.15625
 40
0.1640625
 40
0.16796875
 40
0.171875
 40
0.17578125
 40
0.1796875
 40
0.181640625
 40
0.18359375
 40
0.1845703125
 40
0.185546875
 40
0.1865234375
 40
0.1870117188
 40
0.1872558594
 40
0.1875
 40
0.1877441406
 40
0.1879882812
 40
0.1884765625
 40
0.189453125
 40
0.1904296875
 40
0.19140625
 40
0.193359375
 40
0.1953125
 40
0.19921875
 40
0.203125
 40
0.20703125
 40
0.2109375
 40
0.21875
 40
0.2265625
 40
0.23046875
 40
0.234375
 40
0.23828125
 40
0.2421875
 40
0.244140625
 40
0.24609375
 40
0.2470703125
 40
0.248046875
 40
0.2490234375
 40
0.2495117188
 40
0.2497558594
 40
0.25
 40
0.2502441406
 40
0.2504882812
 40
0.2509765625
 40
0.251953125
 40
0.2529296875
 40
0.25390625
 40
0.255859375
 40
0.2578125
 40
0.26171875
 40
0.265625
 40
0.26953125
 40
0.2734375
 40
0.28125
 40
0.2890625
 40
0.29296875
 40
0.296875
 40
0.30078125
 40
0.3046875
 40
0.306640625
 40
0.30859375
 40
0.3095703125
 40
0.310546875
 40
0.3115234375
 40
0.3120117188
 40
0.3122558594
 40
0.3125
 40
0.3127441406
 40
0.3129882812
 40
0.3134765625
 40
0.314453125
 40
0.3154296875
 40
0.31640625
 40
0.318359375
 40
0.3203125
 40
0.32421875
 40
0.328125
 40
0.33203125
 40
0.3359375
 40
0.34375
 40
0.3515625
 40
0.35546875
 40
0.359375
 40
0.36328125
 40
0.3671875
 40
0.369140625
 40
0.37109375
 40
0.3720703125
 40
0.373046875
 40
0.3740234375
 40
0.3745117188
 40
0.3747558594
 40
0.375
 40
0.3752441406
 40
0.3754882812
 40
0.3759765625
 40
0.376953125
 40
0.3779296875
 40
0.37890625
 40
0.380859375
 40
0.3828125
 40
0.38671875
 40
0.390625
 40
0.39453125
 40
0.3984375
 40
0.40625
 40
0.4140625
 40
0.41796875
 40
0.421875
 40
0.42578125
 40
0.4296875
 40
0.431640625
 40
0.43359375
 40
0.4345703125
 40
0.435546875
 40
0.4365234375
 40
0.4370117188
 40
0.4372558594
 40
0.4375
 40
0.4377441406
 40
0.4379882812
 40
0.4384765625
 40
0.439453125
 40
0.4404296875
 40
0.44140625
 40
0.443359375
 40
0.4453125
 40
0.44921875
 40
0.453125
 40
0.45703125
 40
0.4609375
 40
0.46875
 40
0.4765625
 40
0.48046875
 40
0.484375
 40
0.48828125
 40
0.4921875
 40
0.494140625
 40
0.49609375
 40
0.4970703125
 40
0.498046875
 40
0.4990234375
 40
0.4995117188
 40
0.4997558594
 40
0.5
 40
0.5002441406
 40
0.5004882812
 40
0.5009765625
 40
0.501953125
 40
0.5029296875
 40
0.50390625
 40
0.505859375
 40
0.5078125
 40
0.51171875
 40
0.515625
 40
0.51953125
 40
0.5234375
 40
0.53125
 40
0.5390625
 40
0.54296875
 40
0.546875
 40
0.55078125
 40
0.5546875
 40
0.556640625
 40
0.55859375
 40
0.5595703125
 40
0.560546875
 40
0.5615234375
 40
0.5620117188
 40
0.5622558594
 40
0.5625
 40
0.5627441406
 40
0.5629882812
 40
0.5634765625
 40
0.564453125
 40
0.5654296875
 40
0.56640625
 40
0.568359375
 40
0.5703125
 40
0.57421875
 40
0.578125
 40
0.58203125
 40
0.5859375
 40
0.59375
 40
0.6015625
 40
0.60546875
 40
0.609375
 40
0.61328125
 40
0.6171875
 40
0.619140625
 40
0.62109375
 40
0.6220703125
 40
0.623046875
 40
0.6240234375
 40
0.6245117188
 40
0.6247558594
 40
0.625
 40
0.6252441406
 40
0.6254882812
 40
0.6259765625
 40
0.626953125
 40
0.6279296875
 40
0.62890625
 40
0.630859375
 40
0.6328125
 40
0.63671875
 40
0.640625
 40
0.64453125
 40
0.6484375
 40
0.65625
 40
0.6640625
 40
0.66796875
 40
0.671875
 40
0.67578125
 40
0.6796875
 40
0.681640625
 40
0.68359375
 40
0.6845703125
 40
0.685546875
 40
0.6865234375
 40
0.6870117188
 40
0.6872558594
 40
0.6875
 40
0.6877441406
 40
0.6879882812
 40
0.6884765625
 40
0.689453125
 40
0.6904296875
 40
0.69140625
 40
0.693359375
 40
0.6953125
 40
0.69921875
 40
0.703125
 40
0.70703125
 40
0.7109375
 40
0.71875
 40
0.7265625
 40
0.73046875
 40
0.734375
 40
0.73828125
 40
0.7421875
 40
0.744140625
 40
0.74609375
 40
0.7470703125
 40
0.748046875
 40
0.7490234375
 40
0.7495117188
 40
0.7497558594
 40
0.75
 40
0.7502441406
 40
0.7504882812
 40
0.7509765625
 40
0.751953125
 40
0.7529296875
 40
0.75390625
 40
0.755859375
 40
0.7578125
 40
0.76171875
 40
0.765625
 40
0.76953125
 40
0.7734375
 40
0.78125
 40
0.7890625
 40
0.79296875
 40
0.796875
 40
0.80078125
 40
0.8046875
 40
0.806640625
 40
0.80859375
 40
0.8095703125
 40
0.810546875
 40
0.8115234375
 40
0.8120117188
 40
0.8122558594
 40
0.8125
 40
0.8127441406
 40
0.8129882812
 40
0.8134765625
 40
0.814453125
 40
0.8154296875
 40
0.81640625
 40
0.818359375
 40
0.8203125
 40
0.82421875
 40
0.828125
 40
0.83203125
 40
0.8359375
 40
0.84375
 40
0.8515625
 40
0.85546875
 40
0.859375
 40
0.86328125
 40
0.8671875
 40
0.869140625
 40
0.87109375
 40
0.8720703125
 40
0.873046875
 40
0.8740234375
 40
0.8745117188
 40
0.8747558594
 40
0.875
 40
0.8752441406
 40
0.8754882812
 40
0.8759765625
 40
0.876953125
 40
0.8779296875
 40
0.87890625
 40
0.880859375
 40
0.8828125
 40
0.88671875
 40
0.890625
 40
0.89453125
 40
0.8984375
 40
0.90625
 40
0.9140625
 40
0.91796875
 40
0.921875
 40
0.92578125
 40
0.9296875
 40
0.931640625
 40
0.93359375
 40
0.9345703125
 40
0.935546875
 40
0.9365234375
 40
0.9370117188
 40
0.9372558594
 40
0.9375
 40
0.9377441406
 40
0.9379882812
 40
0.9384765625
 40
0.939453125
 40
0.9404296875
 40
0.94140625
 40
0.943359375
 40
0.9453125
 40
0.94921875
 40
0.953125
 40
0.95703125
 40
0.9609375
 40
0.96875
 40
0.9765625
 40
0.984375
 40
1.0
 40
1.0
 40
1.0
 40
1.0
 10
10.6764764606
 20
6.9762291317
 30
0.0
 10
10.6821049402
 20
6.9763906726
 30
0.0
 10
10.6905476597
 20
6.9766329839
 30
0.0
 10
10.7018046189
 20
6.9769560656
 30
0.0
 10
10.7102473383
 20
6.977198377
 30
0.0
 10
10.7172829379
 20
6.9774003028
 30
0.0
 10
10.7229114174
 20
6.9775618442
 30
0.0
 10
10.7271327775
 20
6.9776829981
 30
0.0
 10
10.7313541359
 20
6.9778041604
 30
0.0
 10
10.7348719397
 20
6.9779051026
 30
0.0
 10
10.7376861712
 20
6.9779859156
 30
0.0
 10
10.7394450922
 20
6.9780362888
 30
0.0
 10
10.7408521687
 20
6.9780768963
 30
0.0
 10
10.7419076413
 20
6.9781065061
 30
0.0
 10
10.7427866762
 20
6.9781338718
 30
0.0
 10
10.7434030321
 20
6.9781477469
 30
0.0
 10
10.7437536249
 20
6.9781639212
 30
0.0
 10
10.7440211065
 20
6.9781528239
 30
0.0
 10
10.7442712455
 20
6.9782305157
 30
0.0
 10
10.7446108134
 20
6.9783031341
 30
0.0
 10
10.7452022389
 20
6.9784446462
 30
0.0
 10
10.7460486059
 20
6.9786392623
 30
0.0
 10
10.7470636156
 20
6.9788760306
 30
0.0
 10
10.7484171822
 20
6.9791905939
 30
0.0
 10
10.7501090649
 20
6.9795841842
 30
0.0
 10
10.7528161195
 20
6.9802137128
 30
0.0
 10
10.7561999233
 20
6.9810006976
 30
0.0
 10
10.7602604941
 20
6.9819450476
 30
0.0
 10
10.7643210632
 20
6.9828894062
 30
0.0
 10
10.7697351558
 20
6.9841485479
 30
0.0
 10
10.7765027715
 20
6.9857224762
 30
0.0
 10
10.7832703873
 20
6.9872964037
 30
0.0
 10
10.7886844797
 20
6.9885555466
 30
0.0
 10
10.7927450498
 20
6.9894999017
 30
0.0
 10
10.7968056167
 20
6.9904442648
 30
0.0
 10
10.8001894325
 20
6.9912312088
 30
0.0
 10
10.8028964625
 20
6.9918608207
 30
0.0
 10
10.8045884079
 20
6.9922541991
 30
0.0
 10
10.8059418459
 20
6.9925691973
 30
0.0
 10
10.8069572485
 20
6.992804637
 30
0.0
 10
10.8078023862
 20
6.99300341
 30
0.0
 10
10.8083960062
 20
6.9931375011
 30
0.0
 10
10.8087320579
 20
6.9932220099
 30
0.0
 10
10.8089929978
 20
6.9932631784
 30
0.0
 10
10.8092199131
 20
6.9933892564
 30
0.0
 10
10.809534335
 20
6.993527743
 30
0.0
 10
10.8100790437
 20
6.9937838938
 30
0.0
 10
10.8108600899
 20
6.9941426091
 30
0.0
 10
10.811796108
 20
6.9945761555
 30
0.0
 10
10.8130445643
 20
6.9951531388
 30
0.0
 10
10.8146049867
 20
6.9958747372
 30
0.0
 10
10.8171017452
 20
6.9970290882
 30
0.0
 10
10.820222665
 20
6.9984720978
 30
0.0
 10
10.8239677809
 20
7.000203679
 30
0.0
 10
10.8277128935
 20
7.0019352683
 30
0.0
 10
10.8327063782
 20
7.0042440512
 30
0.0
 10
10.8389482336
 20
7.0071300308
 30
0.0
 10
10.8451900893
 20
7.0100160098
 30
0.0
 10
10.8501835734
 20
7.0123247938
 30
0.0
 10
10.8539286876
 20
7.0140563797
 30
0.0
 10
10.8576737976
 20
7.0157879736
 30
0.0
 10
10.8607947357
 20
7.0172309437
 30
0.0
 10
10.863291457
 20
7.0183853753
 30
0.0
 10
10.8648519741
 20
7.0191067687
 30
0.0
 10
10.866100236
 20
7.0196841728
 30
0.0
 10
10.8670368479
 20
7.0201164335
 30
0.0
 10
10.8678160361
 20
7.0204791713
 30
0.0
 10
10.8683640618
 20
7.0207281412
 30
0.0
 10
10.868673169
 20
7.0208781335
 30
0.0
 10
10.8689164093
 20
7.0209688698
 30
0.0
 10
10.8691160351
 20
7.0211427756
 30
0.0
 10
10.869397416
 20
7.0213456395
 30
0.0
 10
10.8698827445
 20
7.0217141678
 30
0.0
 10
10.8705797767
 20
7.0222335703
 30
0.0
 10
10.8714146291
 20
7.022859878
 30
0.0
 10
10.8725283198
 20
7.0236938985
 30
0.0
 10
10.8739202433
 20
7.0247367858
 30
0.0
 10
10.876147427
 20
7.0264052033
 30
0.0
 10
10.8789313703
 20
7.0284907946
 30
0.0
 10
10.8822721178
 20
7.0309934743
 30
0.0
 10
10.8856128612
 20
7.0334961621
 30
0.0
 10
10.8900671871
 20
7.0368330763
 30
0.0
 10
10.895635094
 20
7.0410042201
 30
0.0
 10
10.9012030013
 20
7.0451753632
 30
0.0
 10
10.9056573264
 20
7.0485122784
 30
0.0
 10
10.9089980721
 20
7.0510149632
 30
0.0
 10
10.912338811
 20
7.0535176541
 30
0.0
 10
10.915122781
 20
7.0556032109
 30
0.0
 10
10.9173499103
 20
7.0572716987
 30
0.0
 10
10.9187419723
 20
7.0583144071
 30
0.0
 10
10.9198553786
 20
7.0591487947
 30
0.0
 10
10.9206910997
 20
7.0597739809
 30
0.0
 10
10.9213854142
 20
7.0602968922
 30
0.0
 10
10.9218755942
 20
7.0606591566
 30
0.0
 10
10.9221492018
 20
7.0608720569
 30
0.0
 10
10.922372705
 20
7.0610151342
 30
0.0
 10
10.9225262655
 20
7.0612216573
 30
0.0
 10
10.9227554095
 20
7.0614748908
 30
0.0
 10
10.9231450448
 20
7.0619283605
 30
0.0
 10
10.9237076093
 20
7.0625707836
 30
0.0
 10
10.924380143
 20
7.0633439987
 30
0.0
 10
10.9252777431
 20
7.0643741463
 30
0.0
 10
10.9263994391
 20
7.0656621067
 30
0.0
 10
10.9281943226
 20
7.0677226891
 30
0.0
 10
10.9304378686
 20
7.0702984701
 30
0.0
 10
10.9331301489
 20
7.0733893846
 30
0.0
 10
10.9358224224
 20
7.0764803052
 30
0.0
 10
10.9394121229
 20
7.0806015305
 30
0.0
 10
10.9438992475
 20
7.0857530629
 30
0.0
 10
10.9483863728
 20
7.0909045948
 30
0.0
 10
10.9519760722
 20
7.0950258209
 30
0.0
 10
10.9546683487
 20
7.098116739
 30
0.0
 10
10.9573606181
 20
7.1012076625
 30
0.0
 10
10.959604198
 20
7.1037834157
 30
0.0
 10
10.9613990124
 20
7.1058440548
 30
0.0
 10
10.9625208841
 20
7.107131871
 30
0.0
 10
10.9634181233
 20
7.1081623146
 30
0.0
 10
10.9640917596
 20
7.1089346252
 30
0.0
 10
10.9646508746
 20
7.1095798786
 30
0.0
 10
10.9650466679
 20
7.1100282957
 30
0.0
 10
10.9652659451
 20
7.1102896246
 30
0.0
 10
10.9654498134
 20
7.1104712812
 30
0.0
 10
10.9655594856
 20
7.1107077531
 30
0.0
 10
10.9657315957
 20
7.1110039287
 30
0.0
 10
10.9660207302
 20
7.1115311446
 30
0.0
 10
10.9664400835
 20
7.1122796527
 30
0.0
 10
10.9669406092
 20
7.113179856
 30
0.0
 10
10.9676089192
 20
7.1143794307
 30
0.0
 10
10.9684439841
 20
7.1158791374
 30
0.0
 10
10.9697802682
 20
7.118278535
 30
0.0
 10
10.9714505615
 20
7.1212778278
 30
0.0
 10
10.9734549399
 20
7.1248769594
 30
0.0
 10
10.9754593112
 20
7.1284760963
 30
0.0
 10
10.9781318088
 20
7.1332749437
 30
0.0
 10
10.9814724299
 20
7.1392735036
 30
0.0
 10
10.9848130516
 20
7.1452720631
 30
0.0
 10
10.9874855482
 20
7.1500709111
 30
0.0
 10
10.9894899227
 20
7.1536700461
 30
0.0
 10
10.9914942893
 20
7.1572691849
 30
0.0
 10
10.9931646193
 20
7.1602684554
 30
0.0
 10
10.9945008284
 20
7.1626678984
 30
0.0
 10
10.9953360843
 20
7.1641674895
 30
0.0
 10
10.9960040022
 20
7.1653673017
 30
0.0
 10
10.9965057259
 20
7.1662667794
 30
0.0
 10
10.9969213308
 20
7.1670175574
 30
0.0
 10
10.9972171569
 20
7.1675407212
 30
0.0
 10
10.9973785453
 20
7.1678433893
 30
0.0
 10
10.9975211511
 20
7.1680599184
 30
0.0
 10
10.9975813264
 20
7.1683164767
 30
0.0
 10
10.9976903128
 20
7.1686445917
 30
0.0
 10
10.9978676426
 20
7.1692252985
 30
0.0
 10
10.9981279747
 20
7.1700514785
 30
0.0
 10
10.9984373754
 20
7.1710443503
 30
0.0
 10
10.9988509567
 20
7.1723676709
 30
0.0
 10
10.9993675748
 20
7.1740219957
 30
0.0
 10
11.0001943641
 20
7.1766688181
 30
0.0
 10
11.001227782
 20
7.1799773794
 30
0.0
 10
11.002467913
 20
7.1839476388
 30
0.0
 10
11.0037080361
 20
7.1879179019
 30
0.0
 10
11.0053615363
 20
7.1932115848
 30
0.0
 10
11.0074284106
 20
7.1998286889
 30
0.0
 10
11.0094952855
 20
7.2064457927
 30
0.0
 10
11.0111487846
 20
7.2117394761
 30
0.0
 10
11.0123889112
 20
7.2157097378
 30
0.0
 10
11.0136290293
 20
7.2196800025
 30
0.0
 10
11.0146624872
 20
7.222988547
 30
0.0
 10
11.0154891951
 20
7.2256354039
 30
0.0
 10
11.0160060204
 20
7.2272896409
 30
0.0
 10
11.0164191763
 20
7.2286131416
 30
0.0
 10
11.0167298768
 20
7.2296054632
 30
0.0
 10
11.0169861418
 20
7.2304333646
 30
0.0
 10
11.0171707321
 20
7.2310109983
 30
0.0
 10
11.0172680854
 20
7.2313440372
 30
0.0
 10
11.0173639939
 20
7.2315854711
 30
0.0
 10
11.0173723915
 20
7.2318588047
 30
0.0
 10
11.017414113
 20
7.2322121224
 30
0.0
 10
11.0174729037
 20
7.2328356128
 30
0.0
 10
11.0175643258
 20
7.2337236029
 30
0.0
 10
11.0176708497
 20
7.2347903512
 30
0.0
 10
11.0178139931
 20
7.2362122771
 30
0.0
 10
11.0179925419
 20
7.2379898231
 30
0.0
 10
11.0182784326
 20
7.2408338193
 30
0.0
 10
11.0186357229
 20
7.2443888411
 30
0.0
 10
11.0190645026
 20
7.2486548558
 30
0.0
 10
11.019493274
 20
7.2529208736
 30
0.0
 10
11.0200649721
 20
7.2586088963
 30
0.0
 10
11.0207795936
 20
7.265718925
 30
0.0
 10
11.0214942158
 20
7.2728289536
 30
0.0
 10
11.0220659127
 20
7.2785169765
 30
0.0
 10
11.0224946877
 20
7.2827829936
 30
0.0
 10
11.0229234539
 20
7.2870490107
 30
0.0
 10
11.0232807862
 20
7.2906040254
 30
0.0
 10
11.0235665914
 20
7.293448036
 30
0.0
 10
11.0237453577
 20
7.2952255452
 30
0.0
 10
11.0238880545
 20
7.2966475467
 30
0.0
 10
11.023995943
 20
7.2977140641
 30
0.0
 10
11.0240830956
 20
7.2986027765
 30
0.0
 10
11.0241495081
 20
7.2992249775
 30
0.0
 10
11.0241790174
 20
7.2995803612
 30
0.0
 10
11.024224927
 20
7.299847349
 30
0.0
 10
11.0241799465
 20
7.3001126163
 30
0.0
 10
11.0241516759
 20
7.3004669061
 30
0.0
 10
11.0240874312
 20
7.3010866336
 30
0.0
 10
11.0240033756
 20
7.3019721048
 30
0.0
 10
11.0238992034
 20
7.3030346078
 30
0.0
 10
11.0237614617
 20
7.3044513002
 30
0.0
 10
11.0235888892
 20
7.3062221582
 30
0.0
 10
11.0233129941
 20
7.3090555353
 30
0.0
 10
11.0229680495
 20
7.3125972551
 30
0.0
 10
11.0225541484
 20
7.3168473196
 30
0.0
 10
11.0221402386
 20
7.3210973839
 30
0.0
 10
11.021588362
 20
7.3267641363
 30
0.0
 10
11.020898515
 20
7.3338475769
 30
0.0
 10
11.0202086688
 20
7.3409310174
 30
0.0
 10
11.019656791
 20
7.3465977698
 30
0.0
 10
11.0192428848
 20
7.3508478344
 30
0.0
 10
11.0188289703
 20
7.3550978978
 30
0.0
 10
11.0184840676
 20
7.3586396208
 30
0.0
 10
11.018208087
 20
7.3614729916
 30
0.0
 10
11.0180357322
 20
7.3632438655
 30
0.0
 10
11.0178975435
 20
7.3646605254
 30
0.0
 10
11.0177947365
 20
7.3657231276
 30
0.0
 10
11.0177064095
 20
7.366608288
 30
0.0
 10
11.01764979
 20
7.3672285705
 30
0.0
 10
11.017609302
 20
7.3675819712
 30
0.0
 10
11.0176018494
 20
7.3678499696
 30
0.0
 10
11.0175068104
 20
7.3681066995
 30
0.0
 10
11.0174106428
 20
7.3684529367
 30
0.0
 10
11.0172281153
 20
7.3690570205
 30
0.0
 10
11.0169748035
 20
7.3699209548
 30
0.0
 10
11.0166676439
 20
7.370957266
 30
0.0
 10
11.0162592105
 20
7.3723391576
 30
0.0
 10
11.0157482878
 20
7.374066473
 30
0.0
 10
11.0149310243
 20
7.376830205
 30
0.0
 10
11.0139093719
 20
7.3802848606
 30
0.0
 10
11.0126834203
 20
7.3844304514
 30
0.0
 10
11.0114574603
 20
7.3885760411
 30
0.0
 10
11.00982285
 20
7.3941034944
 30
0.0
 10
11.007779586
 20
7.4010128109
 30
0.0
 10
11.0057363227
 20
7.4079221275
 30
0.0
 10
11.0041017112
 20
7.4134495805
 30
0.0
 10
11.0028757547
 20
7.417595171
 30
0.0
 10
11.0016497902
 20
7.4217407588
 30
0.0
 10
11.0006281778
 20
7.4251954237
 30
0.0
 10
10.9998108328
 20
7.4279591368
 30
0.0
 10
10.9993001176
 20
7.4296865004
 30
0.0
 10
10.9988912582
 20
7.4310682929
 30
0.0
 10
10.9985854001
 20
7.4321049069
 30
0.0
 10
10.9983280165
 20
7.4329678941
 30
0.0
 10
10.9981527577
 20
7.4335736684
 30
0.0
 10
10.9980449437
 20
7.433917197
 30
0.0
 10
10.9979856789
 20
7.4341822469
 30
0.0
 10
10.9978438643
 20
7.4344189971
 30
0.0
 10
10.9976835725
 20
7.4347445352
 30
0.0
 10
10.997389646
 20
7.4353096278
 30
0.0
 10
10.9969767649
 20
7.4361193075
 30
0.0
 10
10.9964783055
 20
7.4370898938
 30
0.0
 10
10.9958147414
 20
7.4383843684
 30
0.0
 10
10.9949849274
 20
7.4400023386
 30
0.0
 10
10.9936574256
 20
7.4425911597
 30
0.0
 10
10.9919979794
 20
7.4458271625
 30
0.0
 10
10.9900066736
 20
7.4497103759
 30
0.0
 10
10.9880153599
 20
7.4535935866
 30
0.0
 10
10.9853602776
 20
7.4587712018
 30
0.0
 10
10.9820414238
 20
7.4652432205
 30
0.0
 10
10.9787225707
 20
7.4717152395
 30
0.0
 10
10.9760674874
 20
7.4768928543
 30
0.0
 10
10.9740761769
 20
7.4807760663
 30
0.0
 10
10.9720848588
 20
7.4846592748
 30
0.0
 10
10.9704254509
 20
7.4878952931
 30
0.0
 10
10.9690978711
 20
7.4904840824
 30
0.0
 10
10.9682682555
 20
7.4921021335
 30
0.0
 10
10.9676042841
 20
7.493396442
 30
0.0
 10
10.9671070692
 20
7.4943675359
 30
0.0
 10
10.9666902944
 20
7.4951756275
 30
0.0
 10
10.9664033188
 20
7.495743555
 30
0.0
 10
10.9662318899
 20
7.4960645509
 30
0.0
 10
10.9661242848
 20
7.4963152536
 30
0.0
 10
10.965936535
 20
7.4965278999
 30
0.0
 10
10.9657141572
 20
7.4968247028
 30
0.0
 10
10.9653119712
 20
7.497337923
 30
0.0
 10
10.9647442294
 20
7.4980743282
 30
0.0
 10
10.9640600245
 20
7.4989566304
 30
0.0
 10
10.9631487693
 20
7.5001335168
 30
0.0
 10
10.9620093518
 20
7.5016044592
 30
0.0
 10
10.9601864786
 20
7.5039580596
 30
0.0
 10
10.9579078202
 20
7.5069000284
 30
0.0
 10
10.9551734588
 20
7.5104304045
 30
0.0
 10
10.9524390897
 20
7.513960777
 30
0.0
 10
10.9487932669
 20
7.5186679416
 30
0.0
 10
10.9442359875
 20
7.5245518968
 30
0.0
 10
10.9396787086
 20
7.5304358525
 30
0.0
 10
10.936032885
 20
7.5351430164
 30
0.0
 10
10.9332985187
 20
7.538673391
 30
0.0
 10
10.9305641468
 20
7.5422037593
 30
0.0
 10
10.928285521
 20
7.5451457525
 30
0.0
 10
10.9264625813
 20
7.5474993031
 30
0.0
 10
10.925323333
 20
7.5489703723
 30
0.0
 10
10.9244117304
 20
7.5501469984
 30
0.0
 10
10.9237285868
 20
7.5510300957
 30
0.0
 10
10.9231575246
 20
7.5517640134
 30
0.0
 10
10.922761266
 20
7.5522816741
 30
0.0
 10
10.922529391
 20
7.5525713622
 30
0.0
 10
10.9223708138
 20
7.5528058628
 30
0.0
 10
10.9221536412
 20
7.5529744843
 30
0.0
 10
10.9218845165
 20
7.5532222922
 30
0.0
 10
10.9214040255
 20
7.5536452496
 30
0.0
 10
10.9207225884
 20
7.554255072
 30
0.0
 10
10.9199027329
 20
7.5549844629
 30
0.0
 10
10.9188103366
 20
7.5559578209
 30
0.0
 10
10.9174445863
 20
7.5571742319
 30
0.0
 10
10.9152595282
 20
7.5591206497
 30
0.0
 10
10.9125281568
 20
7.561553617
 30
0.0
 10
10.909250532
 20
7.5644732013
 30
0.0
 10
10.9059729017
 20
7.5673927793
 30
0.0
 10
10.9016027298
 20
7.5712855522
 30
0.0
 10
10.8961400143
 20
7.5761515175
 30
0.0
 10
10.8906772992
 20
7.5810174833
 30
0.0
 10
10.8863071266
 20
7.5849102553
 30
0.0
 10
10.8830294984
 20
7.587829836
 30
0.0
 10
10.8797518654
 20
7.59074941
 30
0.0
 10
10.8770205194
 20
7.5931824094
 30
0.0
 10
10.8748354095
 20
7.5951287617
 30
0.0
 10
10.8734697913
 20
7.5963453394
 30
0.0
 10
10.8723771238
 20
7.5973183554
 30
0.0
 10
10.8715580965
 20
7.5980487914
 30
0.0
 10
10.8708740683
 20
7.5986553438
 30
0.0
 10
10.8703982028
 20
7.5990841385
 30
0.0
 10
10.870121667
 20
7.5993225936
 30
0.0
 10
10.8699272591
 20
7.5995199441
 30
0.0
 10
10.8696831814
 20
7.5996465432
 30
0.0
 10
10.8693750699
 20
7.5998400209
 30
0.0
 10
10.8688278025
 20
7.6001671084
 30
0.0
 10
10.8680502121
 20
7.6006403879
 30
0.0
 10
10.8671152973
 20
7.6012057501
 30
0.0
 10
10.8658693752
 20
7.6019604652
 30
0.0
 10
10.8643117564
 20
7.6029035512
 30
0.0
 10
10.8618196872
 20
7.6044126609
 30
0.0
 10
10.8587045593
 20
7.606298989
 30
0.0
 10
10.8549664235
 20
7.6085626081
 30
0.0
 10
10.8512282829
 20
7.6108262203
 30
0.0
 10
10.8462440972
 20
7.6138443724
 30
0.0
 10
10.8400138645
 20
7.6176170616
 30
0.0
 10
10.8337836321
 20
7.6213897514
 30
0.0
 10
10.8287994458
 20
7.6244079024
 30
0.0
 10
10.825061307
 20
7.6266715177
 30
0.0
 10
10.8213231648
 20
7.6289351254
 30
0.0
 10
10.8182080566
 20
7.6308214889
 30
0.0
 10
10.8157159472
 20
7.6323305264
 30
0.0
 10
10.8141584309
 20
7.6332737964
 30
0.0
 10
10.8129122985
 20
7.6340281338
 30
0.0
 10
10.811978026
 20
7.6345946496
 30
0.0
 10
10.8111984258
 20
7.63506432
 30
0.0
 10
10.8106547464
 20
7.6353978503
 30
0.0
 10
10.8103408859
 20
7.635581005
 30
0.0
 10
10.810114467
 20
7.635739313
 30
0.0
 10
10.8098537356
 20
7.6358175701
 30
0.0
 10
10.8095180623
 20
7.6359498355
 30
0.0
 10
10.8089250577
 20
7.6361682904
 30
0.0
 10
10.8080808236
 20
7.6364871703
 30
0.0
 10
10.8070664948
 20
7.6368669149
 30
0.0
 10
10.8057144923
 20
7.6373742579
 30
0.0
 10
10.8040243399
 20
7.6380080885
 30
0.0
 10
10.8013201795
 20
7.639022412
 30
0.0
 10
10.7979399503
 20
7.6402902496
 30
0.0
 10
10.7938836876
 20
7.6418116833
 30
0.0
 10
10.7898274216
 20
7.6433331094
 30
0.0
 10
10.7844190681
 20
7.6453616802
 30
0.0
 10
10.7776586258
 20
7.6478973928
 30
0.0
 10
10.7708981838
 20
7.650433106
 30
0.0
 10
10.7654898298
 20
7.6524616757
 30
0.0
 10
10.7614335651
 20
7.6539831051
 30
0.0
 10
10.7573772978
 20
7.6555045263
 30
0.0
 10
10.7539970828
 20
7.6567724029
 30
0.0
 10
10.7512928935
 20
7.657786647
 30
0.0
 10
10.7496028145
 20
7.6584206797
 30
0.0
 10
10.7482506614
 20
7.6589276077
 30
0.0
 10
10.7472367927
 20
7.6593086203
 30
0.0
 10
10.7463911192
 20
7.6596235329
 30
0.0
 10
10.7458006841
 20
7.65984907
 30
0.0
 10
10.7454608937
 20
7.6599699878
 30
0.0
 10
10.7452128086
 20
7.6600831012
 30
0.0
 10
10.7449388925
 20
7.6601104949
 30
0.0
 10
10.7445826812
 20
7.6601769198
 30
0.0
 10
10.7439551134
 20
7.6602792324
 30
0.0
 10
10.7430607827
 20
7.6604326765
 30
0.0
 10
10.7419866465
 20
7.660613692
 30
0.0
 10
10.740554793
 20
7.6608561348
 30
0.0
 10
10.7387648637
 20
7.6611588156
 30
0.0
 10
10.7359010397
 20
7.6616433131
 30
0.0
 10
10.7323212382
 20
7.6622488636
 30
0.0
 10
10.7280254855
 20
7.6629755548
 30
0.0
 10
10.7237297304
 20
7.6637022378
 30
0.0
 10
10.7180020578
 20
7.6646711513
 30
0.0
 10
10.7108424668
 20
7.6658822922
 30
0.0
 10
10.7022509577
 20
7.6673356617
 30
0.0
 10
10.6907956121
 20
7.6692734876
 30
0.0
 10
10.682204103
 20
7.670726857
 30
0.0
 10
10.6764764302
 20
7.6716957699
 30
0.0
  0
SPLINE
  5
30D
100
AcDbEntity
  8
0
100
AcDbSpline
 62
4
  6
CONTINUOUS
 70
0
 71
3
 72
403
 73
399
 74
0
 42
0.0000001
 43
0.0000001
 44
0.0000000001
 40
0.0
 40
0.0
 40
0.0
 40
0.0
 40
0.015625
 40
0.0234375
 40
0.03125
 40
0.0390625
 40
0.04296875
 40
0.046875
 40
0.05078125
 40
0.0546875
 40
0.056640625
 40
0.05859375
 40
0.0595703125
 40
0.060546875
 40
0.0615234375
 40
0.0620117188
 40
0.0622558594
 40
0.0625
 40
0.0627441406
 40
0.0629882812
 40
0.0634765625
 40
0.064453125
 40
0.0654296875
 40
0.06640625
 40
0.068359375
 40
0.0703125
 40
0.07421875
 40
0.078125
 40
0.08203125
 40
0.0859375
 40
0.09375
 40
0.1015625
 40
0.10546875
 40
0.109375
 40
0.11328125
 40
0.1171875
 40
0.119140625
 40
0.12109375
 40
0.1220703125
 40
0.123046875
 40
0.1240234375
 40
0.1245117188
 40
0.1247558594
 40
0.125
 40
0.1252441406
 40
0.1254882812
 40
0.1259765625
 40
0.126953125
 40
0.1279296875
 40
0.12890625
 40
0.130859375
 40
0.1328125
 40
0.13671875
 40
0.140625
 40
0.14453125
 40
0.1484375
 40
0.15625
 40
0.1640625
 40
0.16796875
 40
0.171875
 40
0.17578125
 40
0.1796875
 40
0.181640625
 40
0.18359375
 40
0.1845703125
 40
0.185546875
 40
0.1865234375
 40
0.1870117188
 40
0.1872558594
 40
0.1875
 40
0.1877441406
 40
0.1879882812
 40
0.1884765625
 40
0.189453125
 40
0.1904296875
 40
0.19140625
 40
0.193359375
 40
0.1953125
 40
0.19921875
 40
0.203125
 40
0.20703125
 40
0.2109375
 40
0.21875
 40
0.2265625
 40
0.23046875
 40
0.234375
 40
0.23828125
 40
0.2421875
 40
0.244140625
 40
0.24609375
 40
0.2470703125
 40
0.248046875
 40
0.2490234375
 40
0.2495117188
 40
0.2497558594
 40
0.25
 40
0.2502441406
 40
0.2504882812
 40
0.2509765625
 40
0.251953125
 40
0.2529296875
 40
0.25390625
 40
0.255859375
 40
0.2578125
 40
0.26171875
 40
0.265625
 40
0.26953125
 40
0.2734375
 40
0.28125
 40
0.2890625
 40
0.29296875
 40
0.296875
 40
0.30078125
 40
0.3046875
 40
0.306640625
 40
0.30859375
 40
0.3095703125
 40
0.310546875
 40
0.3115234375
 40
0.3120117188
 40
0.3122558594
 40
0.3125
 40
0.3127441406
 40
0.3129882812
 40
0.3134765625
 40
0.314453125
 40
0.3154296875
 40
0.31640625
 40
0.318359375
 40
0.3203125
 40
0.32421875
 40
0.328125
 40
0.33203125
 40
0.3359375
 40
0.34375
 40
0.3515625
 40
0.35546875
 40
0.359375
 40
0.36328125
 40
0.3671875
 40
0.369140625
 40
0.37109375
 40
0.3720703125
 40
0.373046875
 40
0.3740234375
 40
0.3745117188
 40
0.3747558594
 40
0.375
 40
0.3752441406
 40
0.3754882812
 40
0.3759765625
 40
0.376953125
 40
0.3779296875
 40
0.37890625
 40
0.380859375
 40
0.3828125
 40
0.38671875
 40
0.390625
 40
0.39453125
 40
0.3984375
 40
0.40625
 40
0.4140625
 40
0.41796875
 40
0.421875
 40
0.42578125
 40
0.4296875
 40
0.431640625
 40
0.43359375
 40
0.4345703125
 40
0.435546875
 40
0.4365234375
 40
0.4370117188
 40
0.4372558594
 40
0.4375
 40
0.4377441406
 40
0.4379882812
 40
0.4384765625
 40
0.439453125
 40
0.4404296875
 40
0.44140625
 40
0.443359375
 40
0.4453125
 40
0.44921875
 40
0.453125
 40
0.45703125
 40
0.4609375
 40
0.46875
 40
0.4765625
 40
0.48046875
 40
0.484375
 40
0.48828125
 40
0.4921875
 40
0.494140625
 40
0.49609375
 40
0.4970703125
 40
0.498046875
 40
0.4990234375
 40
0.4995117188
 40
0.4997558594
 40
0.5
 40
0.5002441406
 40
0.5004882812
 40
0.5009765625
 40
0.501953125
 40
0.5029296875
 40
0.50390625
 40
0.505859375
 40
0.5078125
 40
0.51171875
 40
0.515625
 40
0.51953125
 40
0.5234375
 40
0.53125
 40
0.5390625
 40
0.54296875
 40
0.546875
 40
0.55078125
 40
0.5546875
 40
0.556640625
 40
0.55859375
 40
0.5595703125
 40
0.560546875
 40
0.5615234375
 40
0.5620117188
 40
0.5622558594
 40
0.5625
 40
0.5627441406
 40
0.5629882812
 40
0.5634765625
 40
0.564453125
 40
0.5654296875
 40
0.56640625
 40
0.568359375
 40
0.5703125
 40
0.57421875
 40
0.578125
 40
0.58203125
 40
0.5859375
 40
0.59375
 40
0.6015625
 40
0.60546875
 40
0.609375
 40
0.61328125
 40
0.6171875
 40
0.619140625
 40
0.62109375
 40
0.6220703125
 40
0.623046875
 40
0.6240234375
 40
0.6245117188
 40
0.6247558594
 40
0.625
 40
0.6252441406
 40
0.6254882812
 40
0.6259765625
 40
0.626953125
 40
0.6279296875
 40
0.62890625
 40
0.630859375
 40
0.6328125
 40
0.63671875
 40
0.640625
 40
0.64453125
 40
0.6484375
 40
0.65625
 40
0.6640625
 40
0.66796875
 40
0.671875
 40
0.67578125
 40
0.6796875
 40
0.681640625
 40
0.68359375
 40
0.6845703125
 40
0.685546875
 40
0.6865234375
 40
0.6870117188
 40
0.6872558594
 40
0.6875
 40
0.6877441406
 40
0.6879882812
 40
0.6884765625
 40
0.689453125
 40
0.6904296875
 40
0.69140625
 40
0.693359375
 40
0.6953125
 40
0.69921875
 40
0.703125
 40
0.70703125
 40
0.7109375
 40
0.71875
 40
0.7265625
 40
0.73046875
 40
0.734375
 40
0.73828125
 40
0.7421875
 40
0.744140625
 40
0.74609375
 40
0.7470703125
 40
0.748046875
 40
0.7490234375
 40
0.7495117188
 40
0.7497558594
 40
0.75
 40
0.7502441406
 40
0.7504882812
 40
0.7509765625
 40
0.751953125
 40
0.7529296875
 40
0.75390625
 40
0.755859375
 40
0.7578125
 40
0.76171875
 40
0.765625
 40
0.76953125
 40
0.7734375
 40
0.78125
 40
0.7890625
 40
0.79296875
 40
0.796875
 40
0.80078125
 40
0.8046875
 40
0.806640625
 40
0.80859375
 40
0.8095703125
 40
0.810546875
 40
0.8115234375
 40
0.8120117188
 40
0.8122558594
 40
0.8125
 40
0.8127441406
 40
0.8129882812
 40
0.8134765625
 40
0.814453125
 40
0.8154296875
 40
0.81640625
 40
0.818359375
 40
0.8203125
 40
0.82421875
 40
0.828125
 40
0.83203125
 40
0.8359375
 40
0.84375
 40
0.8515625
 40
0.85546875
 40
0.859375
 40
0.86328125
 40
0.8671875
 40
0.869140625
 40
0.87109375
 40
0.8720703125
 40
0.873046875
 40
0.8740234375
 40
0.8745117188
 40
0.8747558594
 40
0.875
 40
0.8752441406
 40
0.8754882812
 40
0.8759765625
 40
0.876953125
 40
0.8779296875
 40
0.87890625
 40
0.880859375
 40
0.8828125
 40
0.88671875
 40
0.890625
 40
0.89453125
 40
0.8984375
 40
0.90625
 40
0.9140625
 40
0.91796875
 40
0.921875
 40
0.92578125
 40
0.9296875
 40
0.931640625
 40
0.93359375
 40
0.9345703125
 40
0.935546875
 40
0.9365234375
 40
0.9370117188
 40
0.9372558594
 40
0.9375
 40
0.9377441406
 40
0.9379882812
 40
0.9384765625
 40
0.939453125
 40
0.9404296875
 40
0.94140625
 40
0.943359375
 40
0.9453125
 40
0.94921875
 40
0.953125
 40
0.95703125
 40
0.9609375
 40
0.96875
 40
0.9765625
 40
0.984375
 40
1.0
 40
1.0
 40
1.0
 40
1.0
 10
10.6764764606
 20
7.6716957678
 30
0.0
 10
10.670847981
 20
7.671534227
 30
0.0
 10
10.6624052616
 20
7.6712919157
 30
0.0
 10
10.6511483023
 20
7.670968834
 30
0.0
 10
10.6427055829
 20
7.6707265226
 30
0.0
 10
10.6356699833
 20
7.6705245968
 30
0.0
 10
10.6300415038
 20
7.6703630553
 30
0.0
 10
10.6258201438
 20
7.6702419015
 30
0.0
 10
10.6215987854
 20
7.6701207391
 30
0.0
 10
10.6180809815
 20
7.6700197969
 30
0.0
 10
10.61526675
 20
7.669938984
 30
0.0
 10
10.613507829
 20
7.6698886107
 30
0.0
 10
10.6121007525
 20
7.6698480032
 30
0.0
 10
10.6110452799
 20
7.6698183935
 30
0.0
 10
10.610166245
 20
7.6697910278
 30
0.0
 10
10.6095498891
 20
7.6697771526
 30
0.0
 10
10.6091992963
 20
7.6697609784
 30
0.0
 10
10.6089318148
 20
7.6697720756
 30
0.0
 10
10.6086816758
 20
7.6696943838
 30
0.0
 10
10.6083421078
 20
7.6696217654
 30
0.0
 10
10.6077506824
 20
7.6694802533
 30
0.0
 10
10.6069043153
 20
7.6692856373
 30
0.0
 10
10.6058893056
 20
7.6690488689
 30
0.0
 10
10.6045357391
 20
7.6687343056
 30
0.0
 10
10.6028438563
 20
7.6683407154
 30
0.0
 10
10.6001368017
 20
7.6677111868
 30
0.0
 10
10.5967529979
 20
7.6669242019
 30
0.0
 10
10.5926924272
 20
7.6659798519
 30
0.0
 10
10.5886318581
 20
7.6650354934
 30
0.0
 10
10.5832177654
 20
7.6637763516
 30
0.0
 10
10.5764501498
 20
7.6622024234
 30
0.0
 10
10.5696825339
 20
7.6606284958
 30
0.0
 10
10.5642684415
 20
7.6593693529
 30
0.0
 10
10.5602078714
 20
7.6584249979
 30
0.0
 10
10.5561473046
 20
7.6574806347
 30
0.0
 10
10.5527634887
 20
7.6566936907
 30
0.0
 10
10.5500564587
 20
7.6560640789
 30
0.0
 10
10.5483645133
 20
7.6556707004
 30
0.0
 10
10.5470110753
 20
7.6553557023
 30
0.0
 10
10.5459956727
 20
7.6551202626
 30
0.0
 10
10.545150535
 20
7.6549214895
 30
0.0
 10
10.544556915
 20
7.6547873984
 30
0.0
 10
10.5442208633
 20
7.6547028897
 30
0.0
 10
10.5439599235
 20
7.6546617211
 30
0.0
 10
10.5437330082
 20
7.6545356431
 30
0.0
 10
10.5434185863
 20
7.6543971566
 30
0.0
 10
10.5428738776
 20
7.6541410057
 30
0.0
 10
10.5420928313
 20
7.6537822904
 30
0.0
 10
10.5411568133
 20
7.653348744
 30
0.0
 10
10.539908357
 20
7.6527717608
 30
0.0
 10
10.5383479346
 20
7.6520501624
 30
0.0
 10
10.5358511761
 20
7.6508958113
 30
0.0
 10
10.5327302563
 20
7.6494528017
 30
0.0
 10
10.5289851404
 20
7.6477212205
 30
0.0
 10
10.5252400277
 20
7.6459896312
 30
0.0
 10
10.5202465431
 20
7.6436808484
 30
0.0
 10
10.5140046877
 20
7.6407948687
 30
0.0
 10
10.507762832
 20
7.6379088897
 30
0.0
 10
10.5027693478
 20
7.6356001057
 30
0.0
 10
10.4990242336
 20
7.6338685198
 30
0.0
 10
10.4952791236
 20
7.632136926
 30
0.0
 10
10.4921581856
 20
7.6306939558
 30
0.0
 10
10.4896614643
 20
7.6295395243
 30
0.0
 10
10.4881009472
 20
7.6288181309
 30
0.0
 10
10.4868526853
 20
7.6282407268
 30
0.0
 10
10.4859160733
 20
7.6278084661
 30
0.0
 10
10.4851368852
 20
7.6274457282
 30
0.0
 10
10.4845888594
 20
7.6271967583
 30
0.0
 10
10.4842797522
 20
7.6270467661
 30
0.0
 10
10.4840365119
 20
7.6269560297
 30
0.0
 10
10.4838368862
 20
7.626782124
 30
0.0
 10
10.4835555052
 20
7.6265792601
 30
0.0
 10
10.4830701767
 20
7.6262107317
 30
0.0
 10
10.4823731445
 20
7.6256913292
 30
0.0
 10
10.4815382921
 20
7.6250650215
 30
0.0
 10
10.4804246015
 20
7.6242310011
 30
0.0
 10
10.4790326779
 20
7.6231881138
 30
0.0
 10
10.4768054942
 20
7.6215196963
 30
0.0
 10
10.4740215509
 20
7.619434105
 30
0.0
 10
10.4706808034
 20
7.6169314252
 30
0.0
 10
10.4673400601
 20
7.6144287375
 30
0.0
 10
10.4628857341
 20
7.6110918233
 30
0.0
 10
10.4573178273
 20
7.6069206795
 30
0.0
 10
10.45174992
 20
7.6027495363
 30
0.0
 10
10.4472955948
 20
7.5994126211
 30
0.0
 10
10.4439548492
 20
7.5969099363
 30
0.0
 10
10.4406141102
 20
7.5944072455
 30
0.0
 10
10.4378301403
 20
7.5923216887
 30
0.0
 10
10.435603011
 20
7.5906532009
 30
0.0
 10
10.4342109489
 20
7.5896104924
 30
0.0
 10
10.4330975426
 20
7.5887761049
 30
0.0
 10
10.4322618215
 20
7.5881509187
 30
0.0
 10
10.4315675071
 20
7.5876280073
 30
0.0
 10
10.431077327
 20
7.5872657429
 30
0.0
 10
10.4308037195
 20
7.5870528426
 30
0.0
 10
10.4305802162
 20
7.5869097654
 30
0.0
 10
10.4304266558
 20
7.5867032423
 30
0.0
 10
10.4301975117
 20
7.5864500088
 30
0.0
 10
10.4298078765
 20
7.5859965391
 30
0.0
 10
10.4292453119
 20
7.585354116
 30
0.0
 10
10.4285727782
 20
7.5845809009
 30
0.0
 10
10.4276751781
 20
7.5835507533
 30
0.0
 10
10.4265534822
 20
7.5822627929
 30
0.0
 10
10.4247585987
 20
7.5802022104
 30
0.0
 10
10.4225150526
 20
7.5776264294
 30
0.0
 10
10.4198227724
 20
7.5745355149
 30
0.0
 10
10.4171304988
 20
7.5714445944
 30
0.0
 10
10.4135407984
 20
7.5673233691
 30
0.0
 10
10.4090536737
 20
7.5621718367
 30
0.0
 10
10.4045665485
 20
7.5570203048
 30
0.0
 10
10.400976849
 20
7.5528990787
 30
0.0
 10
10.3982845726
 20
7.5498081605
 30
0.0
 10
10.3955923032
 20
7.5467172371
 30
0.0
 10
10.3933487233
 20
7.5441414839
 30
0.0
 10
10.3915539089
 20
7.5420808447
 30
0.0
 10
10.3904320371
 20
7.5407930286
 30
0.0
 10
10.3895347979
 20
7.5397625849
 30
0.0
 10
10.3888611616
 20
7.5389902744
 30
0.0
 10
10.3883020467
 20
7.538345021
 30
0.0
 10
10.3879062533
 20
7.5378966038
 30
0.0
 10
10.3876869761
 20
7.5376352749
 30
0.0
 10
10.3875031079
 20
7.5374536184
 30
0.0
 10
10.3873934356
 20
7.5372171465
 30
0.0
 10
10.3872213255
 20
7.5369209708
 30
0.0
 10
10.3869321911
 20
7.5363937549
 30
0.0
 10
10.3865128377
 20
7.5356452468
 30
0.0
 10
10.386012312
 20
7.5347450436
 30
0.0
 10
10.385344002
 20
7.5335454689
 30
0.0
 10
10.3845089372
 20
7.5320457621
 30
0.0
 10
10.383172653
 20
7.5296463645
 30
0.0
 10
10.3815023598
 20
7.5266470718
 30
0.0
 10
10.3794979813
 20
7.5230479401
 30
0.0
 10
10.37749361
 20
7.5194488032
 30
0.0
 10
10.3748211124
 20
7.5146499558
 30
0.0
 10
10.3714804913
 20
7.5086513959
 30
0.0
 10
10.3681398696
 20
7.5026528365
 30
0.0
 10
10.3654673731
 20
7.4978539884
 30
0.0
 10
10.3634629986
 20
7.4942548534
 30
0.0
 10
10.361458632
 20
7.4906557146
 30
0.0
 10
10.3597883019
 20
7.4876564442
 30
0.0
 10
10.3584520928
 20
7.4852570011
 30
0.0
 10
10.357616837
 20
7.48375741
 30
0.0
 10
10.3569489191
 20
7.4825575979
 30
0.0
 10
10.3564471953
 20
7.4816581201
 30
0.0
 10
10.3560315904
 20
7.4809073422
 30
0.0
 10
10.3557357643
 20
7.4803841784
 30
0.0
 10
10.3555743759
 20
7.4800815102
 30
0.0
 10
10.3554317701
 20
7.4798649811
 30
0.0
 10
10.3553715948
 20
7.4796084229
 30
0.0
 10
10.3552626084
 20
7.4792803078
 30
0.0
 10
10.3550852786
 20
7.478699601
 30
0.0
 10
10.3548249465
 20
7.477873421
 30
0.0
 10
10.3545155459
 20
7.4768805493
 30
0.0
 10
10.3541019646
 20
7.4755572287
 30
0.0
 10
10.3535853465
 20
7.4739029039
 30
0.0
 10
10.3527585571
 20
7.4712560815
 30
0.0
 10
10.3517251392
 20
7.4679475201
 30
0.0
 10
10.3504850082
 20
7.4639772608
 30
0.0
 10
10.3492448851
 20
7.4600069976
 30
0.0
 10
10.3475913849
 20
7.4547133147
 30
0.0
 10
10.3455245106
 20
7.4480962106
 30
0.0
 10
10.3434576357
 20
7.4414791069
 30
0.0
 10
10.3418041366
 20
7.4361854235
 30
0.0
 10
10.3405640101
 20
7.4322151618
 30
0.0
 10
10.3393238919
 20
7.428244897
 30
0.0
 10
10.3382904341
 20
7.4249363525
 30
0.0
 10
10.3374637262
 20
7.4222894957
 30
0.0
 10
10.3369469008
 20
7.4206352586
 30
0.0
 10
10.336533745
 20
7.4193117579
 30
0.0
 10
10.3362230444
 20
7.4183194364
 30
0.0
 10
10.3359667794
 20
7.4174915349
 30
0.0
 10
10.3357821891
 20
7.4169139012
 30
0.0
 10
10.3356848359
 20
7.4165808624
 30
0.0
 10
10.3355889273
 20
7.4163394284
 30
0.0
 10
10.3355805297
 20
7.4160660949
 30
0.0
 10
10.3355388082
 20
7.4157127771
 30
0.0
 10
10.3354800176
 20
7.4150892867
 30
0.0
 10
10.3353885955
 20
7.4142012966
 30
0.0
 10
10.3352820716
 20
7.4131345483
 30
0.0
 10
10.3351389281
 20
7.4117126225
 30
0.0
 10
10.3349603794
 20
7.4099350764
 30
0.0
 10
10.3346744887
 20
7.4070910802
 30
0.0
 10
10.3343171983
 20
7.4035360584
 30
0.0
 10
10.3338884186
 20
7.3992700437
 30
0.0
 10
10.3334596472
 20
7.3950040259
 30
0.0
 10
10.3328879492
 20
7.3893160032
 30
0.0
 10
10.3321733277
 20
7.3822059745
 30
0.0
 10
10.3314587054
 20
7.375095946
 30
0.0
 10
10.3308870085
 20
7.3694079231
 30
0.0
 10
10.3304582336
 20
7.3651419059
 30
0.0
 10
10.3300294673
 20
7.3608758889
 30
0.0
 10
10.329672135
 20
7.3573208742
 30
0.0
 10
10.3293863298
 20
7.3544768635
 30
0.0
 10
10.3292075635
 20
7.3526993543
 30
0.0
 10
10.3290648667
 20
7.3512773529
 30
0.0
 10
10.3289569782
 20
7.3502108354
 30
0.0
 10
10.3288698257
 20
7.349322123
 30
0.0
 10
10.3288034131
 20
7.348699922
 30
0.0
 10
10.3287739038
 20
7.3483445384
 30
0.0
 10
10.3287279942
 20
7.3480775505
 30
0.0
 10
10.3287729747
 20
7.3478122833
 30
0.0
 10
10.3288012453
 20
7.3474579935
 30
0.0
 10
10.32886549
 20
7.3468382659
 30
0.0
 10
10.3289495456
 20
7.3459527947
 30
0.0
 10
10.3290537178
 20
7.3448902918
 30
0.0
 10
10.3291914596
 20
7.3434735994
 30
0.0
 10
10.3293640321
 20
7.3417027413
 30
0.0
 10
10.3296399271
 20
7.3388693643
 30
0.0
 10
10.3299848718
 20
7.3353276444
 30
0.0
 10
10.3303987729
 20
7.3310775799
 30
0.0
 10
10.3308126826
 20
7.3268275157
 30
0.0
 10
10.3313645593
 20
7.3211607632
 30
0.0
 10
10.3320544062
 20
7.3140773227
 30
0.0
 10
10.3327442524
 20
7.3069938821
 30
0.0
 10
10.3332961302
 20
7.3013271297
 30
0.0
 10
10.3337100364
 20
7.2970770652
 30
0.0
 10
10.334123951
 20
7.2928270017
 30
0.0
 10
10.3344688537
 20
7.2892852788
 30
0.0
 10
10.3347448343
 20
7.286451908
 30
0.0
 10
10.3349171891
 20
7.2846810341
 30
0.0
 10
10.3350553777
 20
7.2832643742
 30
0.0
 10
10.3351581847
 20
7.2822017719
 30
0.0
 10
10.3352465117
 20
7.2813166115
 30
0.0
 10
10.3353031313
 20
7.280696329
 30
0.0
 10
10.3353436192
 20
7.2803429284
 30
0.0
 10
10.3353510718
 20
7.28007493
 30
0.0
 10
10.3354461108
 20
7.2798182
 30
0.0
 10
10.3355422784
 20
7.2794719628
 30
0.0
 10
10.335724806
 20
7.278867879
 30
0.0
 10
10.3359781178
 20
7.2780039448
 30
0.0
 10
10.3362852773
 20
7.2769676335
 30
0.0
 10
10.3366937107
 20
7.275585742
 30
0.0
 10
10.3372046335
 20
7.2738584266
 30
0.0
 10
10.338021897
 20
7.2710946946
 30
0.0
 10
10.3390435494
 20
7.2676400389
 30
0.0
 10
10.3402695009
 20
7.2634944482
 30
0.0
 10
10.3414954609
 20
7.2593488585
 30
0.0
 10
10.3431300712
 20
7.2538214052
 30
0.0
 10
10.3451733353
 20
7.2469120887
 30
0.0
 10
10.3472165986
 20
7.240002772
 30
0.0
 10
10.34885121
 20
7.234475319
 30
0.0
 10
10.3500771666
 20
7.2303297285
 30
0.0
 10
10.351303131
 20
7.2261841407
 30
0.0
 10
10.3523247434
 20
7.2227294758
 30
0.0
 10
10.3531420884
 20
7.2199657627
 30
0.0
 10
10.3536528037
 20
7.2182383991
 30
0.0
 10
10.3540616631
 20
7.2168566066
 30
0.0
 10
10.3543675212
 20
7.2158199927
 30
0.0
 10
10.3546249048
 20
7.2149570054
 30
0.0
 10
10.3548001635
 20
7.2143512311
 30
0.0
 10
10.3549079775
 20
7.2140077025
 30
0.0
 10
10.3549672423
 20
7.2137426526
 30
0.0
 10
10.3551090569
 20
7.2135059025
 30
0.0
 10
10.3552693488
 20
7.2131803643
 30
0.0
 10
10.3555632753
 20
7.2126152717
 30
0.0
 10
10.3559761563
 20
7.2118055921
 30
0.0
 10
10.3564746158
 20
7.2108350057
 30
0.0
 10
10.3571381798
 20
7.2095405311
 30
0.0
 10
10.3579679938
 20
7.2079225609
 30
0.0
 10
10.3592954957
 20
7.2053337398
 30
0.0
 10
10.3609549418
 20
7.2020977371
 30
0.0
 10
10.3629462476
 20
7.1982145237
 30
0.0
 10
10.3649375614
 20
7.1943313129
 30
0.0
 10
10.3675926436
 20
7.1891536977
 30
0.0
 10
10.3709114974
 20
7.182681679
 30
0.0
 10
10.3742303505
 20
7.17620966
 30
0.0
 10
10.3768854338
 20
7.1710320453
 30
0.0
 10
10.3788767443
 20
7.1671488332
 30
0.0
 10
10.3808680624
 20
7.1632656248
 30
0.0
 10
10.3825274703
 20
7.1600296064
 30
0.0
 10
10.3838550501
 20
7.1574408171
 30
0.0
 10
10.3846846657
 20
7.155822766
 30
0.0
 10
10.3853486371
 20
7.1545284575
 30
0.0
 10
10.3858458521
 20
7.1535573636
 30
0.0
 10
10.3862626268
 20
7.1527492721
 30
0.0
 10
10.3865496024
 20
7.1521813445
 30
0.0
 10
10.3867210313
 20
7.1518603487
 30
0.0
 10
10.3868286364
 20
7.1516096459
 30
0.0
 10
10.3870163863
 20
7.1513969996
 30
0.0
 10
10.387238764
 20
7.1511001968
 30
0.0
 10
10.38764095
 20
7.1505869766
 30
0.0
 10
10.3882086918
 20
7.1498505713
 30
0.0
 10
10.3888928968
 20
7.1489682691
 30
0.0
 10
10.3898041519
 20
7.1477913828
 30
0.0
 10
10.3909435695
 20
7.1463204403
 30
0.0
 10
10.3927664427
 20
7.1439668399
 30
0.0
 10
10.3950451011
 20
7.1410248712
 30
0.0
 10
10.3977794625
 20
7.137494495
 30
0.0
 10
10.4005138316
 20
7.1339641225
 30
0.0
 10
10.4041596543
 20
7.1292569579
 30
0.0
 10
10.4087169337
 20
7.1233730027
 30
0.0
 10
10.4132742126
 20
7.117489047
 30
0.0
 10
10.4169200363
 20
7.1127818831
 30
0.0
 10
10.4196544026
 20
7.1092515085
 30
0.0
 10
10.4223887745
 20
7.1057211403
 30
0.0
 10
10.4246674002
 20
7.1027791471
 30
0.0
 10
10.42649034
 20
7.1004255965
 30
0.0
 10
10.4276295883
 20
7.0989545273
 30
0.0
 10
10.4285411908
 20
7.0977779011
 30
0.0
 10
10.4292243345
 20
7.0968948039
 30
0.0
 10
10.4297953967
 20
7.0961608861
 30
0.0
 10
10.4301916552
 20
7.0956432254
 30
0.0
 10
10.4304235302
 20
7.0953535373
 30
0.0
 10
10.4305821075
 20
7.0951190367
 30
0.0
 10
10.43079928
 20
7.0949504153
 30
0.0
 10
10.4310684047
 20
7.0947026073
 30
0.0
 10
10.4315488957
 20
7.0942796499
 30
0.0
 10
10.4322303328
 20
7.0936698276
 30
0.0
 10
10.4330501883
 20
7.0929404367
 30
0.0
 10
10.4341425847
 20
7.0919670786
 30
0.0
 10
10.435508335
 20
7.0907506676
 30
0.0
 10
10.437693393
 20
7.0888042498
 30
0.0
 10
10.4404247644
 20
7.0863712825
 30
0.0
 10
10.4437023892
 20
7.0834516982
 30
0.0
 10
10.4469800196
 20
7.0805321202
 30
0.0
 10
10.4513501914
 20
7.0766393473
 30
0.0
 10
10.456812907
 20
7.0717733821
 30
0.0
 10
10.4622756221
 20
7.0669074162
 30
0.0
 10
10.4666457947
 20
7.0630146443
 30
0.0
 10
10.4699234229
 20
7.0600950635
 30
0.0
 10
10.4732010558
 20
7.0571754895
 30
0.0
 10
10.4759324018
 20
7.0547424901
 30
0.0
 10
10.4781175117
 20
7.0527961378
 30
0.0
 10
10.47948313
 20
7.0515795601
 30
0.0
 10
10.4805757974
 20
7.0506065442
 30
0.0
 10
10.4813948248
 20
7.0498761082
 30
0.0
 10
10.4820788529
 20
7.0492695557
 30
0.0
 10
10.4825547184
 20
7.048840761
 30
0.0
 10
10.4828312543
 20
7.0486023059
 30
0.0
 10
10.4830256621
 20
7.0484049555
 30
0.0
 10
10.4832697398
 20
7.0482783563
 30
0.0
 10
10.4835778513
 20
7.0480848787
 30
0.0
 10
10.4841251188
 20
7.0477577911
 30
0.0
 10
10.4849027091
 20
7.0472845117
 30
0.0
 10
10.4858376239
 20
7.0467191494
 30
0.0
 10
10.4870835461
 20
7.0459644344
 30
0.0
 10
10.4886411648
 20
7.0450213483
 30
0.0
 10
10.491133234
 20
7.0435122386
 30
0.0
 10
10.494248362
 20
7.0416259105
 30
0.0
 10
10.4979864978
 20
7.0393622915
 30
0.0
 10
10.5017246383
 20
7.0370986792
 30
0.0
 10
10.506708824
 20
7.0340805271
 30
0.0
 10
10.5129390568
 20
7.030307838
 30
0.0
 10
10.5191692892
 20
7.0265351482
 30
0.0
 10
10.5241534754
 20
7.0235169971
 30
0.0
 10
10.5278916143
 20
7.0212533818
 30
0.0
 10
10.5316297564
 20
7.0189897742
 30
0.0
 10
10.5347448646
 20
7.0171034106
 30
0.0
 10
10.5372369741
 20
7.0155943732
 30
0.0
 10
10.5387944904
 20
7.0146511032
 30
0.0
 10
10.5400406228
 20
7.0138967657
 30
0.0
 10
10.5409748952
 20
7.01333025
 30
0.0
 10
10.5417544955
 20
7.0128605796
 30
0.0
 10
10.5422981749
 20
7.0125270492
 30
0.0
 10
10.5426120353
 20
7.0123438945
 30
0.0
 10
10.5428384542
 20
7.0121855865
 30
0.0
 10
10.5430991856
 20
7.0121073294
 30
0.0
 10
10.5434348589
 20
7.011975064
 30
0.0
 10
10.5440278635
 20
7.0117566092
 30
0.0
 10
10.5448720976
 20
7.0114377293
 30
0.0
 10
10.5458864264
 20
7.0110579847
 30
0.0
 10
10.5472384289
 20
7.0105506417
 30
0.0
 10
10.5489285813
 20
7.0099168111
 30
0.0
 10
10.5516327418
 20
7.0089024876
 30
0.0
 10
10.5550129709
 20
7.00763465
 30
0.0
 10
10.5590692336
 20
7.0061132162
 30
0.0
 10
10.5631254996
 20
7.0045917901
 30
0.0
 10
10.5685338531
 20
7.0025632193
 30
0.0
 10
10.5752942954
 20
7.0000275068
 30
0.0
 10
10.5820547375
 20
6.9974917936
 30
0.0
 10
10.5874630914
 20
6.9954632239
 30
0.0
 10
10.5915193562
 20
6.9939417944
 30
0.0
 10
10.5955756234
 20
6.9924203732
 30
0.0
 10
10.5989558385
 20
6.9911524966
 30
0.0
 10
10.6016600277
 20
6.9901382526
 30
0.0
 10
10.6033501067
 20
6.9895042198
 30
0.0
 10
10.6047022598
 20
6.9889972919
 30
0.0
 10
10.6057161286
 20
6.9886162792
 30
0.0
 10
10.6065618021
 20
6.9883013666
 30
0.0
 10
10.6071522372
 20
6.9880758295
 30
0.0
 10
10.6074920275
 20
6.9879549117
 30
0.0
 10
10.6077401127
 20
6.9878417984
 30
0.0
 10
10.6080140287
 20
6.9878144047
 30
0.0
 10
10.6083702401
 20
6.9877479798
 30
0.0
 10
10.6089978079
 20
6.9876456672
 30
0.0
 10
10.6098921385
 20
6.987492223
 30
0.0
 10
10.6109662748
 20
6.9873112075
 30
0.0
 10
10.6123981283
 20
6.9870687647
 30
0.0
 10
10.6141880575
 20
6.986766084
 30
0.0
 10
10.6170518815
 20
6.9862815864
 30
0.0
 10
10.6206316831
 20
6.9856760359
 30
0.0
 10
10.6249274357
 20
6.9849493448
 30
0.0
 10
10.6292231908
 20
6.9842226618
 30
0.0
 10
10.6349508634
 20
6.9832537483
 30
0.0
 10
10.6421104544
 20
6.9820426074
 30
0.0
 10
10.6507019636
 20
6.9805892378
 30
0.0
 10
10.6621573091
 20
6.978651412
 30
0.0
 10
10.6707488183
 20
6.9771980425
 30
0.0
 10
10.676476491
 20
6.9762291296
 30
0.0
  0
ENDSEC
  0
SECTION
  2
OBJECTS
  0
DICTIONARY
  5
C
100
AcDbDictionary
280
0
281
1
  3
ACAD_GROUP
350
D
  3
ACAD_MLINESTYLE
350
17
  3
ACAD_LAYOUT
350
1A
  3
ACAD_PLOTSETTINGS
350
19
  3
ACAD_PLOTSTYLENAME
350
E
  3
ACAD_IMAGE_DICT
350
       30F
  3
ACAD_IMAGE_VARS
350
       310
  3
ACAD_TABLESTYLE
350
       311
  0
IMAGEDEF_REACTOR
  5
30E
100
AcDbRasterImageDefReactor
 90
2
330
27F
  0
DICTIONARY
  5
D
102
{ACAD_REACTORS
330
C
102
}
100
AcDbDictionary
280
0
281
1
  0
ACDBDICTIONARYWDFLT
  5
E
102
{ACAD_REACTORS
330
C
102
}
100
AcDbDictionary
281
1
  3
Normal
350
F
100
AcDbDictionaryWithDefault
340
F
  0
DICTIONARY
  5
30F
330
C
100
AcDbDictionary
281
1
  3
FAJ_assy_2_img_1
350
       314
  0
RASTERVARIABLES
  5
310
330
C
100
AcDbRasterVariables
 90
0
 70
0
 71
1
 72
5
  0
DICTIONARY
  5
17
102
{ACAD_REACTORS
330
C
102
}
100
AcDbDictionary
280
0
281
1
  3
Standard
350
18
  0
DICTIONARY
  5
311
330
C
100
AcDbDictionary
281
1
  3
Standard
350
       315
  3
Standard1
350
       316
  0
DICTIONARY
  5
19
102
{ACAD_REACTORS
330
C
102
}
100
AcDbDictionary
281
1
  0
DICTIONARY
  5
1A
102
{ACAD_REACTORS
330
C
102
}
100
AcDbDictionary
281
1
  3
Model
350
312
  3
Layout1
350
313
  0
ACDBPLACEHOLDER
  5
F
102
{ACAD_REACTORS
330
E
102
}
  0
MLINESTYLE
  5
18
102
{ACAD_REACTORS
330
17
102
}
100
AcDbMlineStyle
  2
STANDARD
 70
0
  3

 62
256
 51
90.0
 52
90.0
 71
2
 49
0.5
 62
256
  6
BYLAYER
 49
-0.5
 62
256
  6
BYLAYER
  0
LAYOUT
  5
312
102
{ACAD_REACTORS
330
1A
102
}
100
AcDbPlotSettings
  1

  2
none_device
  4
ANSI_C_(22.00_x_17.00_Inches)
  6

 40
0.0
 41
0.0
 42
0.0
 43
0.0
 44
558.8
 45
431.8
 46
0.0
 47
0.0
 48
0.0
 49
0.0
140
0.0
141
0.0
142
1.0
143
1.0
 70
1024
 72
0
 73
0
 74
0
  7

 75
0
147
1.0
148
0.0
149
0.0
100
AcDbLayout
  1
Model
 70
0
 71
0
 10
0.0
 20
0.0
 11
22.0
 21
17.0
 12
0.0
 22
0.0
 32
0.0
 14
0.0
 24
0.0
 34
0.0
 15
0.0
 25
0.0
 35
0.0
146
0.0
 13
0.0
 23
0.0
 33
0.0
 16
1.0
 26
0.0
 36
0.0
 17
0.0
 27
1.0
 37
0.0
 76
0
330
204
345
0
346
0
  0
LAYOUT
  5
313
102
{ACAD_REACTORS
330
1A
102
}
100
AcDbPlotSettings
  1

  2
none_device
  4
ANSI_C_(22.00_x_17.00_Inches)
  6

 40
0.0
 41
0.0
 42
0.0
 43
0.0
 44
558.8
 45
431.8
 46
0.0
 47
0.0
 48
0.0
 49
0.0
140
0.0
141
0.0
142
1.0
143
1.0
 70
0
 72
0
 73
0
 74
0
  7

 75
0
147
1.0
148
0.0
149
0.0
100
AcDbLayout
  1
Layout1
 70
0
 71
1
 10
0.0
 20
0.0
 11
22.0
 21
17.0
 12
0.0
 22
0.0
 32
0.0
 14
0.0
 24
0.0
 34
0.0
 15
0.0
 25
0.0
 35
0.0
146
0.0
 13
0.0
 23
0.0
 33
0.0
 16
1.0
 26
0.0
 36
0.0
 17
0.0
 27
1.0
 37
0.0
 76
0
330
205
345
0
346
0
  0
IMAGEDEF
  5
314
102
{ACAD_REACTORS
330
30F
330
30E
102
}
100
AcDbRasterImageDef
 90
0
  1
FAJ_assy_2_img_1.png
 10
369.0
 20
92.0
 11
0.0066666667
 21
0.0066666667
280
1
281
0
  0
TABLESTYLE
  5
315
102
{ACAD_REACTORS
330
311
330
282
330
283
102
}
330
311
100
AcDbTableStyle
  3
Standard
 70
0
 71
0
 40
0.06
 41
0.06
280
1
281
1
  7
Standard
140
0.18
170
1
 62
0
 63
7
283
0
  7
Standard
140
0.18
170
1
 62
0
 63
7
283
0
  7
Standard
140
0.18
170
1
 62
0
 63
7
283
0
  0
TABLESTYLE
  5
316
102
{ACAD_REACTORS
330
311
330
281
102
}
330
311
100
AcDbTableStyle
  3
Standard1
 70
1
 71
0
 40
0.06
 41
0.06
280
1
281
1
  7
Standard
140
0.18
170
1
 62
0
 63
7
283
0
  7
Standard
140
0.18
170
1
 62
0
 63
7
283
0
  7
Standard
140
0.18
170
1
 62
0
 63
7
283
0
  0
ENDSEC
  0
EOF
