999
DXF file: FAI_assy_2.dxf
999
Pro/ENGINEER 2014200 by Parametric Technology Corporation
  0
SECTION
  2
HEADER
  9
$ACADVER
  1
AC1021
  9
$DWGCODEPAGE
  3
ANSI_1252
  9
$EXTMAX
 10
22.0
 20
17.0
 30
0.0
  9
$EXTMIN
 10
0.0
 20
0.0
 30
0.0
  9
$LIMMIN
 10
0.0
 20
0.0
  9
$LIMMAX
 10
22.0
 20
17.0
  9
$VIEWCTR
 10
11.0
 20
8.5
  9
$VIEWSIZE
 40
17.0
  9
$CLAYER
  8
0
  9
$LTSCALE
 40
1.21
  9
$CELTYPE
  6
BYLAYER
  9
$DIMSCALE
 40
1.0
  9
$DIMASZ
 40
0.1875
  9
$DIMEXO
 40
0.0625
  9
$DIMDLI
 40
0.836
  9
$DIMEXE
 40
0.125
  9
$DIMCEN
 40
0.198
  9
$DIMLFAC
 40
1.0
  9
$DIMBLK
  1
_FILLED
  9
$DIMTXT
 40
0.1
  9
$DIMTOL
 70
0
  9
$DIMLIM
 70
0
  9
$DIMTFAC
 40
1.0
  9
$DIMGAP
 40
0.09
  9
$DIMDSEP
 70
46
  9
$AUNITS
 70
0
  9
$PDMODE
 70
3
  9
$PDSIZE
 40
0.3125
  9
$HANDSEED
  5
315
  9
$TILEMODE
 70
1
  9
$MEASUREMENT
 70
0
  9
$INSUNITS
 70
1
  0
ENDSEC
  0
SECTION
  2
CLASSES
  0
CLASS
  1
ACDBDICTIONARYWDFLT
  2
AcDbDictionaryWithDefault
  3
AutoCAD 2000
 90
0
 91
1
280
0
281
0
  0
CLASS
  1
ACDBPLACEHOLDER
  2
AcDbPlaceHolder
  3
AutoCAD 2000
 90
0
 91
1
280
0
281
0
  0
CLASS
  1
LAYOUT
  2
AcDbLayout
  3
AutoCAD 2000
 90
0
 91
0
280
0
281
0
  0
CLASS
  1
RASTERVARIABLES
  2
AcDbRasterVariables
  3
ISM
 90
0
 91
1
280
0
281
0
  0
CLASS
  1
IMAGEDEF
  2
AcDbRasterImageDef
  3
ISM
 90
0
 91
1
280
0
281
0
  0
CLASS
  1
IMAGEDEF_REACTOR
  2
AcDbRasterImageDefReactor
  3
ISM
 90
0
 91
1
280
0
281
0
  0
CLASS
  1
IMAGE
  2
AcDbRasterImage
  3
ISM
 90
127
 91
1
280
0
281
1
  0
CLASS
  1
TABLESTYLE
  2
AcDbTableStyle
  3
ObjectDBX Classes
 90
2047
 91
1
280
0
281
0
  0
CLASS
  1
ACAD_TABLE
  2
AcDbTable
  3
ObjectDBX Classes
 90
1025
 91
3
280
0
281
1
  0
ENDSEC
  0
SECTION
  2
TABLES
  0
TABLE
  2
VPORT
  5
8
100
AcDbSymbolTable
 70
2
  0
VPORT
  5
1F4
100
AcDbSymbolTableRecord
100
AcDbViewportTableRecord
  2
*ACTIVE
 70
0
 10
0.0
 20
0.0
 11
1.0
 21
1.0
 12
11.0
 22
8.5
 13
0.0
 23
0.0
 14
1.0
 24
1.0
 15
0.0
 25
0.0
 16
0.0
 26
0.0
 36
1.0
 17
0.0
 27
0.0
 37
0.0
 40
17.0
 41
1.2941176471
 42
50.0
 43
0.0
 44
0.0
 50
0.0
 51
0.0
 71
0
 72
100
 73
1
 74
1
 75
0
 76
0
 77
0
 78
0
  0
ENDTAB
  0
TABLE
  2
LTYPE
  5
5
100
AcDbSymbolTable
 70
6
  0
LTYPE
  5
14
100
AcDbSymbolTableRecord
100
AcDbLinetypeTableRecord
  2
BYBLOCK
 70
0
  3

 72
65
 73
0
 40
0.0
  0
LTYPE
  5
15
100
AcDbSymbolTableRecord
100
AcDbLinetypeTableRecord
  2
BYLAYER
 70
0
  3

 72
65
 73
0
 40
0.0
  0
LTYPE
  5
16
100
AcDbSymbolTableRecord
100
AcDbLinetypeTableRecord
  2
CONTINUOUS
 70
64
  3
Solid line
 72
65
 73
0
 40
0.0
  0
LTYPE
  5
1F5
100
AcDbSymbolTableRecord
100
AcDbLinetypeTableRecord
  2
CENTER
 70
64
  3
____ _ ____ _ ____ _ ____ _ ____ _ ____ _ ____
 72
65
 73
4
 40
0.6
 49
0.375
 74
0
 49
-0.075
 74
0
 49
0.075
 74
0
 49
-0.075
 74
0
  0
LTYPE
  5
1F6
100
AcDbSymbolTableRecord
100
AcDbLinetypeTableRecord
  2
HIDDEN
 70
64
  3
- - - - - - - - - - - - - - - - - - - -
 72
65
 73
2
 40
0.2
 49
0.1
 74
0
 49
-0.1
 74
0
  0
LTYPE
  5
1F7
100
AcDbSymbolTableRecord
100
AcDbLinetypeTableRecord
  2
PHANTOM
 70
64
  3
_____ _ _ _____ _ _ _____ _ _ _____
 72
65
 73
6
 40
0.8
 49
0.45
 74
0
 49
-0.05
 74
0
 49
0.1
 74
0
 49
-0.05
 74
0
 49
0.1
 74
0
 49
-0.05
 74
0
  0
LTYPE
  5
1F8
100
AcDbSymbolTableRecord
100
AcDbLinetypeTableRecord
  2
DOT
 70
64
  3
. . . . . . . . . . . . . . . . . . . .
 72
65
 73
2
 40
0.2
 49
0.1
 74
0
 49
-0.1
 74
0
  0
LTYPE
  5
1F9
100
AcDbSymbolTableRecord
100
AcDbLinetypeTableRecord
  2
DASHED
 70
64
  3
- - - - - - - - - - - - - - - - - - - -
 72
65
 73
2
 40
0.2
 49
0.1
 74
0
 49
-0.1
 74
0
  0
ENDTAB
  0
TABLE
  2
LAYER
  5
2
100
AcDbSymbolTable
 70
36
  0
LAYER
  5
10
100
AcDbSymbolTableRecord
100
AcDbLayerTableRecord
  2
0
 70
0
 62
7
  6
CONTINUOUS
370
-3
390
F
  0
LAYER
  5
1FA
100
AcDbSymbolTableRecord
100
AcDbLayerTableRecord
  2
DEFAULT_1
 70
0
 62
7
  6
CENTER
370
-3
390
F
  0
LAYER
  5
1FB
100
AcDbSymbolTableRecord
100
AcDbLayerTableRecord
  2
DEFAULT_2
 70
0
 62
8
  6
HIDDEN
370
-3
390
F
  0
LAYER
  5
1FC
100
AcDbSymbolTableRecord
100
AcDbLayerTableRecord
  2
DEFAULT_3
 70
0
 62
7
  6
PHANTOM
370
-3
390
F
  0
LAYER
  5
1FD
100
AcDbSymbolTableRecord
100
AcDbLayerTableRecord
  2
DATUM_PLANES
 70
0
 62
7
  6
CONTINUOUS
370
-3
390
F
  0
LAYER
  5
1FE
100
AcDbSymbolTableRecord
100
AcDbLayerTableRecord
  2
PORT_AREAS
 70
0
 62
7
  6
CONTINUOUS
370
-3
390
F
  0
LAYER
  5
1FF
100
AcDbSymbolTableRecord
100
AcDbLayerTableRecord
  2
SUNNBOMCOSMETIC
 70
0
 62
7
  6
CONTINUOUS
370
-3
390
F
  0
LAYER
  5
200
100
AcDbSymbolTableRecord
100
AcDbLayerTableRecord
  2
SUNNBOMSTAMPING
 70
0
 62
7
  6
CONTINUOUS
370
-3
390
F
  0
LAYER
  5
201
100
AcDbSymbolTableRecord
100
AcDbLayerTableRecord
  2
THREADS
 70
0
 62
7
  6
CONTINUOUS
370
-3
390
F
  0
ENDTAB
  0
TABLE
  2
STYLE
  5
3
100
AcDbSymbolTable
 70
1
  0
STYLE
  5
11
100
AcDbSymbolTableRecord
100
AcDbTextStyleTableRecord
  2
STANDARD
 70
0
 40
0.0
 41
0.8
 50
0.0
 71
0
 42
0.2
  3
txt
  4

  0
STYLE
  5
202
100
AcDbSymbolTableRecord
100
AcDbTextStyleTableRecord
  2
TEXTSTYLE_1
 70
0
 40
0.0
 41
0.8
 50
0.0
 71
0
 42
0.2
  3
gdt
  4

  0
ENDTAB
  0
TABLE
  2
VIEW
  5
6
100
AcDbSymbolTable
 70
0
  0
ENDTAB
  0
TABLE
  2
UCS
  5
7
100
AcDbSymbolTable
 70
0
  0
ENDTAB
  0
TABLE
  2
APPID
  5
9
100
AcDbSymbolTable
 70
1
  0
APPID
  5
203
100
AcDbSymbolTableRecord
100
AcDbRegAppTableRecord
  2
ACAD
 70
0
  0
ENDTAB
  0
TABLE
  2
BLOCK_RECORD
  5
1
100
AcDbSymbolTable
 70
0
  0
BLOCK_RECORD
  5
204
100
AcDbSymbolTableRecord
100
AcDbBlockTableRecord
  2
*Model_Space
  0
BLOCK_RECORD
  5
205
100
AcDbSymbolTableRecord
100
AcDbBlockTableRecord
  2
*Paper_Space
  0
BLOCK_RECORD
  5
206
100
AcDbSymbolTableRecord
100
AcDbBlockTableRecord
  2
SUN_FIRST_THIRD_ANGLE_BL0
  0
BLOCK_RECORD
  5
207
100
AcDbSymbolTableRecord
100
AcDbBlockTableRecord
  2
*T1
  0
BLOCK_RECORD
  5
208
100
AcDbSymbolTableRecord
100
AcDbBlockTableRecord
  2
*T2
  0
BLOCK_RECORD
  5
209
100
AcDbSymbolTableRecord
100
AcDbBlockTableRecord
  2
*T3
  0
ENDTAB
  0
TABLE
  2
DIMSTYLE
  5
A
100
AcDbSymbolTable
 70
1
100
AcDbDimStyleTable
 71
0
  0
DIMSTYLE
105
20A
100
AcDbSymbolTableRecord
100
AcDbDimStyleTableRecord
  2
STANDARD
 70
0
  3

  4

 40
1.0
 41
0.1875
 42
0.0625
 43
0.38
 44
0.125
 45
0.0
 46
0.0
 47
0.001
 48
0.001
140
0.1
141
0.09
142
0.0
143
25.4
144
1.0
145
0.0
146
1.0
147
0.09
 71
0.0
 72
0.0
 73
1
 74
1
 75
0
 76
0
 77
0
 78
4
170
0
171
2
172
0
173
0
174
0
175
0
176
0
177
0
178
0
270
2
271
3
272
3
273
2
274
2
275
0
280
0
281
0
282
0
283
1
284
4
285
0
286
0
287
3
288
0
340
11
278
46
  0
ENDTAB
  0
ENDSEC
  0
SECTION
  2
BLOCKS
  0
BLOCK
  5
20
100
AcDbEntity
  8
0
100
AcDbBlockBegin
  2
*Model_Space
 70
0
 10
0.0
 20
0.0
 30
0.0
  3
*Model_Space
  1

  0
ENDBLK
  5
21
100
AcDbEntity
  8
0
100
AcDbBlockEnd
  0
BLOCK
  5
1C
100
AcDbEntity
  8
0
100
AcDbBlockBegin
  2
*Paper_Space
 70
0
 10
0.0
 20
0.0
 30
0.0
  3
*Paper_Space
  1

  0
ENDBLK
  5
1D
100
AcDbEntity
  8
0
100
AcDbBlockEnd
  0
BLOCK
  5
20B
100
AcDbEntity
  8
0
100
AcDbBlockBegin
 62
2
  6
CONTINUOUS
  2
SUN_FIRST_THIRD_ANGLE_BL0
 70
64
 10
20.4816717061
 20
1.2289683772
  3
SUN_FIRST_THIRD_ANGLE_BL0
  1

  0
TEXT
  5
20C
100
AcDbEntity
  8
0
100
AcDbText
 62
2
  6
CONTINUOUS
 10
19.4750896608
 20
1.4136269581
  7
STANDARD
 40
0.08
  1
FIRST ANGLE
 41
0.8
 72
0
100
AcDbText
  0
TEXT
  5
20D
100
AcDbEntity
  8
0
100
AcDbText
 62
2
  6
CONTINUOUS
 10
20.7842537513
 20
1.4047600029
  7
STANDARD
 40
0.08
  1
THIRD ANGLE
 41
0.8
 72
0
100
AcDbText
  0
LINE
  5
20E
100
AcDbEntity
  8
0
100
AcDbLine
 62
7
  6
CONTINUOUS
 10
19.4767170086
 20
1.1727031207
 11
19.6334271527
 21
1.1717972817
  0
LINE
  5
20F
100
AcDbEntity
  8
0
100
AcDbLine
 62
7
  6
CONTINUOUS
 10
19.6596964832
 20
1.1717972817
 11
19.6950230232
 21
1.171593082
  0
LINE
  5
210
100
AcDbEntity
  8
0
100
AcDbLine
 62
7
  6
CONTINUOUS
 10
19.7194818561
 20
1.1708914427
 11
19.8852396156
 21
1.1699333054
  0
LINE
  5
211
100
AcDbEntity
  8
0
100
AcDbLine
 62
7
  6
CONTINUOUS
 10
19.4758111696
 20
1.2723454088
 11
19.88525039
 21
1.3511534004
  0
LINE
  5
212
100
AcDbEntity
  8
0
100
AcDbLine
 62
7
  6
CONTINUOUS
 10
19.88525039
 20
1.3511534004
 11
19.8831348489
 21
0.9851647912
  0
LINE
  5
213
100
AcDbEntity
  8
0
100
AcDbLine
 62
7
  6
CONTINUOUS
 10
19.8831348489
 20
0.9851647912
 11
19.4767170086
 21
1.0658141206
  0
LINE
  5
214
100
AcDbEntity
  8
0
100
AcDbLine
 62
7
  6
CONTINUOUS
 10
19.4767170086
 20
1.0658141206
 11
19.4779056764
 21
1.2714536432
  0
CIRCLE
  5
215
100
AcDbEntity
  8
0
100
AcDbCircle
 62
7
  6
CONTINUOUS
 10
20.2068232291
 20
1.1717972817
 40
0.175742101
  0
CIRCLE
  5
216
100
AcDbEntity
  8
0
100
AcDbCircle
 62
7
  6
CONTINUOUS
 10
20.2068232291
 20
1.1717972817
 40
0.1005522074
  0
LINE
  5
217
100
AcDbEntity
  8
0
100
AcDbLine
 62
7
  6
CONTINUOUS
 10
20.2077290681
 20
1.3756110529
 11
20.2071171714
 21
1.2379342989
  0
LINE
  5
218
100
AcDbEntity
  8
0
100
AcDbLine
 62
7
  6
CONTINUOUS
 10
20.2077290681
 20
1.2016899681
 11
20.2074674401
 21
1.1428236749
  0
LINE
  5
219
100
AcDbEntity
  8
0
100
AcDbLine
 62
7
  6
CONTINUOUS
 10
20.208634907
 20
1.101141841
 11
20.2080230104
 21
0.963465087
  0
LINE
  5
21A
100
AcDbEntity
  8
0
100
AcDbLine
 62
7
  6
CONTINUOUS
 10
20.0066328138
 20
1.1745147986
 11
20.1443095678
 21
1.1739029019
  0
LINE
  5
21B
100
AcDbEntity
  8
0
100
AcDbLine
 62
7
  6
CONTINUOUS
 10
20.1832714155
 20
1.1727031207
 11
20.238153505
 21
1.172335442
  0
LINE
  5
21C
100
AcDbEntity
  8
0
100
AcDbLine
 62
7
  6
CONTINUOUS
 10
20.2756669918
 20
1.1717972817
 11
20.407916871
 21
1.1712095044
  0
CIRCLE
  5
21D
100
AcDbEntity
  8
0
100
AcDbCircle
 62
7
  6
CONTINUOUS
 10
20.7509457401
 20
1.1693297793
 40
0.1722024983
  0
CIRCLE
  5
21E
100
AcDbEntity
  8
0
100
AcDbCircle
 62
7
  6
CONTINUOUS
 10
20.7509457401
 20
1.1693297793
 40
0.0985164967
  0
LINE
  5
21F
100
AcDbEntity
  8
0
100
AcDbLine
 62
7
  6
CONTINUOUS
 10
20.7169767782
 20
1.170462078
 11
20.7825395137
 21
1.1682766535
  0
LINE
  5
220
100
AcDbEntity
  8
0
100
AcDbLine
 62
7
  6
CONTINUOUS
 10
20.8177513651
 20
1.1693297793
 11
20.947965719
 21
1.1693297793
  0
LINE
  5
221
100
AcDbEntity
  8
0
100
AcDbLine
 62
7
  6
CONTINUOUS
 10
20.6875370113
 20
1.170462078
 11
20.5573226574
 21
1.170462078
  0
LINE
  5
222
100
AcDbEntity
  8
0
100
AcDbLine
 62
7
  6
CONTINUOUS
 10
20.7486811426
 20
1.1987695462
 11
20.7486811426
 21
1.1432869085
  0
LINE
  5
223
100
AcDbEntity
  8
0
100
AcDbLine
 62
7
  6
CONTINUOUS
 10
20.7498134414
 20
1.1059210505
 11
20.7498134414
 21
0.9757066966
  0
LINE
  5
224
100
AcDbEntity
  8
0
100
AcDbLine
 62
7
  6
CONTINUOUS
 10
20.7486811426
 20
1.2338708068
 11
20.7486811426
 21
1.3640851607
  0
LINE
  5
225
100
AcDbEntity
  8
0
100
AcDbLine
 62
7
  6
CONTINUOUS
 10
21.0702539817
 20
1.2701043662
 11
21.4790138229
 21
1.3448360823
  0
LINE
  5
226
100
AcDbEntity
  8
0
100
AcDbLine
 62
7
  6
CONTINUOUS
 10
21.4790138229
 20
1.3448360823
 11
21.4790138229
 21
0.9779712941
  0
LINE
  5
227
100
AcDbEntity
  8
0
100
AcDbLine
 62
7
  6
CONTINUOUS
 10
21.4790138229
 20
0.9779712941
 11
21.069121683
 21
1.0617614
  0
LINE
  5
228
100
AcDbEntity
  8
0
100
AcDbLine
 62
7
  6
CONTINUOUS
 10
21.0702539817
 20
1.2701043662
 11
21.069121683
 21
1.0617614
  0
LINE
  5
229
100
AcDbEntity
  8
0
100
AcDbLine
 62
7
  6
CONTINUOUS
 10
21.4790138229
 20
1.1693297793
 11
21.3159628059
 21
1.1693297793
  0
LINE
  5
22A
100
AcDbEntity
  8
0
100
AcDbLine
 62
7
  6
CONTINUOUS
 10
21.2876553377
 20
1.1693297793
 11
21.2502894796
 21
1.1693297793
  0
LINE
  5
22B
100
AcDbEntity
  8
0
100
AcDbLine
 62
7
  6
CONTINUOUS
 10
21.2208497126
 20
1.1659328831
 11
21.0713862804
 21
1.1659328831
  0
LINE
  5
22C
100
AcDbEntity
  8
0
100
AcDbLine
 62
7
  6
CONTINUOUS
 10
20.4796138713
 20
1.5284908897
 11
20.4766766948
 21
0.9294458646
  0
ENDBLK
  5
22D
100
AcDbEntity
  8
0
  6
BYBLOCK
 62
0
100
AcDbBlockEnd
  0
BLOCK
  5
22E
100
AcDbEntity
  8
0
100
AcDbBlockBegin
  2
*T1
 70
1
 10
0.0
 20
0.0
  3
*T1
  1

  0
LINE
  5
22F
100
AcDbEntity
  8
0
100
AcDbLine
 62
2
  6
CONTINUOUS
 10
9.275
 20
0.0
 11
-0.0
 21
0.0
  0
LINE
  5
230
100
AcDbEntity
  8
0
100
AcDbLine
 62
2
  6
CONTINUOUS
 10
9.275
 20
0.0
 11
9.275
 21
1.25
  0
LINE
  5
231
100
AcDbEntity
  8
0
100
AcDbLine
 62
2
  6
CONTINUOUS
 10
9.275
 20
0.625
 11
-0.0
 21
0.625
  0
LINE
  5
232
100
AcDbEntity
  8
0
100
AcDbLine
 62
2
  6
CONTINUOUS
 10
9.275
 20
1.25
 11
-0.0
 21
1.25
  0
LINE
  5
233
100
AcDbEntity
  8
0
100
AcDbLine
 62
2
  6
CONTINUOUS
 10
6.8
 20
0.0
 11
6.8
 21
1.25
  0
LINE
  5
234
100
AcDbEntity
  8
0
100
AcDbLine
 62
2
  6
CONTINUOUS
 10
6.4
 20
0.0
 11
6.4
 21
0.625
  0
LINE
  5
235
100
AcDbEntity
  8
0
100
AcDbLine
 62
2
  6
CONTINUOUS
 10
5.9
 20
0.0
 11
5.9
 21
0.625
  0
LINE
  5
236
100
AcDbEntity
  8
0
100
AcDbLine
 62
2
  6
CONTINUOUS
 10
5.2
 20
0.0
 11
5.2
 21
0.625
  0
LINE
  5
237
100
AcDbEntity
  8
0
100
AcDbLine
 62
2
  6
CONTINUOUS
 10
4.1
 20
0.0
 11
4.1
 21
1.25
  0
LINE
  5
238
100
AcDbEntity
  8
0
100
AcDbLine
 62
2
  6
CONTINUOUS
 10
-0.0
 20
0.0
 11
-0.0
 21
1.25
  0
MTEXT
  5
239
100
AcDbEntity
  8
0
100
AcDbMText
 62
2
  6
CONTINUOUS
  7
STANDARD
 71
2
 72
1
 10
6.6
 20
0.325
 30
0.0
 11
1.0
 21
0.0
 31
0.0
 44
0.9
  1
2
 40
0.125
 41
0.2
  0
MTEXT
  5
23A
100
AcDbEntity
  8
0
100
AcDbMText
 62
2
  6
CONTINUOUS
  7
STANDARD
 71
2
 72
1
 10
6.15
 20
0.325
 30
0.0
 11
1.0
 21
0.0
 31
0.0
 44
0.9
  1
C
 40
0.125
 41
0.2
  0
MTEXT
  5
23B
100
AcDbEntity
  8
0
100
AcDbMText
 62
2
  6
CONTINUOUS
  7
STANDARD
 71
2
 72
1
 10
5.55
 20
0.325
 30
0.0
 11
1.0
 21
0.0
 31
0.0
 44
0.9
  1
2.000
 40
0.125
 41
1.0
  0
MTEXT
  5
23C
100
AcDbEntity
  8
0
100
AcDbMText
 62
2
  6
CONTINUOUS
  7
STANDARD
 71
2
 72
1
 10
4.65
 20
0.325
 30
0.0
 11
1.0
 21
0.0
 31
0.0
 44
0.9
  1
Jun-09-23
 40
0.125
 41
1.8
  0
MTEXT
  5
23D
100
AcDbEntity
  8
0
100
AcDbMText
 62
2
  6
CONTINUOUS
  7
STANDARD
 71
2
 72
1
 10
2.05
 20
0.4625
 30
0.0
 11
1.0
 21
0.0
 31
0.0
 44
0.9
  1
T-10A Line mount\PNinety degree
 40
0.125
 41
3.2
  0
MTEXT
  5
23E
100
AcDbEntity
  8
0
100
AcDbMText
 62
2
  6
CONTINUOUS
  7
STANDARD
 71
1
 72
1
 10
6.45
 20
0.5625
 30
0.0
 11
1.0
 21
0.0
 31
0.0
 44
0.9
  1
SHEET
 40
0.06
 41
0.48
  0
MTEXT
  5
23F
100
AcDbEntity
  8
0
100
AcDbMText
 62
2
  6
CONTINUOUS
  7
STANDARD
 71
1
 72
1
 10
5.95
 20
0.5625
 30
0.0
 11
1.0
 21
0.0
 31
0.0
 44
0.9
  1
DWG SIZE
 40
0.06
 41
0.768
  0
MTEXT
  5
240
100
AcDbEntity
  8
0
100
AcDbMText
 62
2
  6
CONTINUOUS
  7
STANDARD
 71
1
 72
1
 10
5.25
 20
0.5625
 30
0.0
 11
1.0
 21
0.0
 31
0.0
 44
0.9
  1
SCALE
 40
0.06
 41
0.48
  0
MTEXT
  5
241
100
AcDbEntity
  8
0
100
AcDbMText
 62
2
  6
CONTINUOUS
  7
STANDARD
 71
1
 72
1
 10
4.15
 20
0.5625
 30
0.0
 11
1.0
 21
0.0
 31
0.0
 44
0.9
  1
DATE
 40
0.06
 41
0.384
  0
MTEXT
  5
242
100
AcDbEntity
  8
0
100
AcDbMText
 62
2
  6
CONTINUOUS
  7
STANDARD
 71
1
 72
1
 10
0.05
 20
0.5625
 30
0.0
 11
1.0
 21
0.0
 31
0.0
 44
0.9
  1
DESCRIPTION
 40
0.06
 41
1.056
  0
MTEXT
  5
243
100
AcDbEntity
  8
0
100
AcDbMText
 62
2
  6
CONTINUOUS
  7
STANDARD
 71
2
 72
1
 10
5.45
 20
1.0375
 30
0.0
 11
1.0
 21
0.0
 31
0.0
 44
0.9
  1
ALL DIMENSIONS IN INCH\PVIEWS ARE THIRD ANGLE
 40
0.12
 41
4.224
  0
MTEXT
  5
244
100
AcDbEntity
  8
0
100
AcDbMText
 62
2
  6
CONTINUOUS
  7
STANDARD
 71
2
 72
1
 10
2.05
 20
0.95
 30
0.0
 11
1.0
 21
0.0
 31
0.0
 44
0.9
  1
FAI
 40
0.125
 41
0.6
  0
MTEXT
  5
245
100
AcDbEntity
  8
0
100
AcDbMText
 62
2
  6
CONTINUOUS
  7
STANDARD
 71
1
 72
1
 10
0.05
 20
1.1875
 30
0.0
 11
1.0
 21
0.0
 31
0.0
 44
0.9
  1
MODEL
 40
0.06
 41
0.48
  0
ENDBLK
  5
246
100
AcDbEntity
  8
0
  6
BYBLOCK
 62
0
100
AcDbBlockEnd
  0
BLOCK
  5
247
100
AcDbEntity
  8
0
100
AcDbBlockBegin
  2
*T2
 70
1
 10
0.0
 20
0.0
  3
*T2
  1

  0
LINE
  5
248
100
AcDbEntity
  8
0
100
AcDbLine
 62
2
  6
CONTINUOUS
 10
0.0
 20
0.0
 11
9.055
 21
0.0
  0
LINE
  5
249
100
AcDbEntity
  8
0
100
AcDbLine
 62
2
  6
CONTINUOUS
 10
0.0
 20
0.0
 11
0.0
 21
-2.594
  0
LINE
  5
24A
100
AcDbEntity
  8
0
100
AcDbLine
 62
2
  6
CONTINUOUS
 10
0.0
 20
-0.344
 11
9.055
 21
-0.344
  0
LINE
  5
24B
100
AcDbEntity
  8
0
100
AcDbLine
 62
2
  6
CONTINUOUS
 10
0.0
 20
-0.594
 11
9.055
 21
-0.594
  0
LINE
  5
24C
100
AcDbEntity
  8
0
100
AcDbLine
 62
2
  6
CONTINUOUS
 10
0.0
 20
-0.844
 11
9.055
 21
-0.844
  0
LINE
  5
24D
100
AcDbEntity
  8
0
100
AcDbLine
 62
2
  6
CONTINUOUS
 10
0.0
 20
-1.094
 11
9.055
 21
-1.094
  0
LINE
  5
24E
100
AcDbEntity
  8
0
100
AcDbLine
 62
2
  6
CONTINUOUS
 10
0.0
 20
-1.344
 11
9.055
 21
-1.344
  0
LINE
  5
24F
100
AcDbEntity
  8
0
100
AcDbLine
 62
2
  6
CONTINUOUS
 10
0.0
 20
-1.594
 11
9.055
 21
-1.594
  0
LINE
  5
250
100
AcDbEntity
  8
0
100
AcDbLine
 62
2
  6
CONTINUOUS
 10
0.0
 20
-1.844
 11
9.055
 21
-1.844
  0
LINE
  5
251
100
AcDbEntity
  8
0
100
AcDbLine
 62
2
  6
CONTINUOUS
 10
0.0
 20
-2.094
 11
9.055
 21
-2.094
  0
LINE
  5
252
100
AcDbEntity
  8
0
100
AcDbLine
 62
2
  6
CONTINUOUS
 10
0.0
 20
-2.344
 11
9.055
 21
-2.344
  0
LINE
  5
253
100
AcDbEntity
  8
0
100
AcDbLine
 62
2
  6
CONTINUOUS
 10
0.0
 20
-2.594
 11
9.055
 21
-2.594
  0
LINE
  5
254
100
AcDbEntity
  8
0
100
AcDbLine
 62
2
  6
CONTINUOUS
 10
3.055
 20
0.0
 11
3.055
 21
-2.594
  0
LINE
  5
255
100
AcDbEntity
  8
0
100
AcDbLine
 62
2
  6
CONTINUOUS
 10
9.055
 20
0.0
 11
9.055
 21
-2.594
  0
MTEXT
  5
256
100
AcDbEntity
  8
0
100
AcDbMText
 62
2
  6
CONTINUOUS
  7
STANDARD
 71
2
 72
1
 10
1.5275
 20
-0.0995
 30
0.0
 11
1.0
 21
0.0
 31
0.0
 44
0.9
  1
Technical Data
 40
0.145
 41
3.248
  0
MTEXT
  5
257
100
AcDbEntity
  8
0
100
AcDbMText
 62
2
  6
CONTINUOUS
  7
STANDARD
 71
2
 72
1
 10
4.555
 20
-0.0995
 30
0.0
 11
1.0
 21
0.0
 31
0.0
 44
0.9
  1
U.S. Units
 40
0.145
 41
2.32
  0
MTEXT
  5
258
100
AcDbEntity
  8
0
100
AcDbMText
 62
2
  6
CONTINUOUS
  7
STANDARD
 71
2
 72
1
 10
7.555
 20
-0.0995
 30
0.0
 11
1.0
 21
0.0
 31
0.0
 44
0.9
  1
Metric Units
 40
0.145
 41
2.784
  0
MTEXT
  5
259
100
AcDbEntity
  8
0
100
AcDbMText
 62
2
  6
CONTINUOUS
  7
STANDARD
 71
2
 72
1
 10
1.5275
 20
-0.4065
 30
0.0
 11
1.0
 21
0.0
 31
0.0
 44
0.9
  1
Cavity
 40
0.125
 41
1.2
  0
MTEXT
  5
25A
100
AcDbEntity
  8
0
100
AcDbMText
 62
2
  6
CONTINUOUS
  7
STANDARD
 71
2
 72
1
 10
6.055
 20
-0.4065
 30
0.0
 11
1.0
 21
0.0
 31
0.0
 44
0.9
  1
T-10A
 40
0.125
 41
1.0
  0
MTEXT
  5
25B
100
AcDbEntity
  8
0
100
AcDbMText
 62
2
  6
CONTINUOUS
  7
STANDARD
 71
2
 72
1
 10
1.5275
 20
-0.6565
 30
0.0
 11
1.0
 21
0.0
 31
0.0
 44
0.9
  1
Body Features
 40
0.125
 41
2.6
  0
MTEXT
  5
25C
100
AcDbEntity
  8
0
100
AcDbMText
 62
2
  6
CONTINUOUS
  7
STANDARD
 71
2
 72
1
 10
6.055
 20
-0.6565
 30
0.0
 11
1.0
 21
0.0
 31
0.0
 44
0.9
  1
Ninety degree
 40
0.125
 41
2.6
  0
MTEXT
  5
25D
100
AcDbEntity
  8
0
100
AcDbMText
 62
2
  6
CONTINUOUS
  7
STANDARD
 71
2
 72
1
 10
1.5275
 20
-0.9065
 30
0.0
 11
1.0
 21
0.0
 31
0.0
 44
0.9
  1
Body Type
 40
0.125
 41
1.8
  0
MTEXT
  5
25E
100
AcDbEntity
  8
0
100
AcDbMText
 62
2
  6
CONTINUOUS
  7
STANDARD
 71
2
 72
1
 10
6.055
 20
-0.9065
 30
0.0
 11
1.0
 21
0.0
 31
0.0
 44
0.9
  1
Line mount
 40
0.125
 41
2.0
  0
MTEXT
  5
25F
100
AcDbEntity
  8
0
100
AcDbMText
 62
2
  6
CONTINUOUS
  7
STANDARD
 71
2
 72
1
 10
1.5275
 20
-1.1565
 30
0.0
 11
1.0
 21
0.0
 31
0.0
 44
0.9
  1
Interface
 40
0.125
 41
1.8
  0
MTEXT
  5
260
100
AcDbEntity
  8
0
100
AcDbMText
 62
2
  6
CONTINUOUS
  7
STANDARD
 71
2
 72
1
 10
6.055
 20
-1.1565
 30
0.0
 11
1.0
 21
0.0
 31
0.0
 44
0.9
  1
None
 40
0.125
 41
0.8
  0
MTEXT
  5
261
100
AcDbEntity
  8
0
100
AcDbMText
 62
2
  6
CONTINUOUS
  7
STANDARD
 71
2
 72
1
 10
1.5275
 20
-1.4065
 30
0.0
 11
1.0
 21
0.0
 31
0.0
 44
0.9
  1
Open Cavity Quantity
 40
0.125
 41
4.0
  0
MTEXT
  5
262
100
AcDbEntity
  8
0
100
AcDbMText
 62
2
  6
CONTINUOUS
  7
STANDARD
 71
2
 72
1
 10
6.055
 20
-1.4065
 30
0.0
 11
1.0
 21
0.0
 31
0.0
 44
0.9
  1
1
 40
0.125
 41
0.2
  0
MTEXT
  5
263
100
AcDbEntity
  8
0
100
AcDbMText
 62
2
  6
CONTINUOUS
  7
STANDARD
 71
2
 72
1
 10
1.5275
 20
-1.6565
 30
0.0
 11
1.0
 21
0.0
 31
0.0
 44
0.9
  1
Weight
 40
0.125
 41
1.2
  0
MTEXT
  5
264
100
AcDbEntity
  8
0
100
AcDbMText
 62
2
  6
CONTINUOUS
  7
STANDARD
 71
2
 72
1
 10
4.555
 20
-1.6565
 30
0.0
 11
1.0
 21
0.0
 31
0.0
 44
0.9
  1
0.380 lb.
 40
0.125
 41
1.8
  0
MTEXT
  5
265
100
AcDbEntity
  8
0
100
AcDbMText
 62
2
  6
CONTINUOUS
  7
STANDARD
 71
2
 72
1
 10
7.555
 20
-1.6565
 30
0.0
 11
1.0
 21
0.0
 31
0.0
 44
0.9
  1
0,172 kg.
 40
0.125
 41
1.8
  0
MTEXT
  5
266
100
AcDbEntity
  8
0
100
AcDbMText
 62
2
  6
CONTINUOUS
  7
STANDARD
 71
2
 72
1
 10
1.5275
 20
-1.9065
 30
0.0
 11
1.0
 21
0.0
 31
0.0
 44
0.9
  1
Mounting Hole Diameter
 40
0.125
 41
4.4
  0
MTEXT
  5
267
100
AcDbEntity
  8
0
100
AcDbMText
 62
2
  6
CONTINUOUS
  7
STANDARD
 71
2
 72
1
 10
4.555
 20
-1.9065
 30
0.0
 11
1.0
 21
0.0
 31
0.0
 44
0.9
  1
.34 in.
 40
0.125
 41
1.4
  0
MTEXT
  5
268
100
AcDbEntity
  8
0
100
AcDbMText
 62
2
  6
CONTINUOUS
  7
STANDARD
 71
2
 72
1
 10
7.555
 20
-1.9065
 30
0.0
 11
1.0
 21
0.0
 31
0.0
 44
0.9
  1
8.6 mm
 40
0.125
 41
1.2
  0
MTEXT
  5
269
100
AcDbEntity
  8
0
100
AcDbMText
 62
2
  6
CONTINUOUS
  7
STANDARD
 71
2
 72
1
 10
1.5275
 20
-2.1565
 30
0.0
 11
1.0
 21
0.0
 31
0.0
 44
0.9
  1
Mounting Hole Depth
 40
0.125
 41
3.8
  0
MTEXT
  5
26A
100
AcDbEntity
  8
0
100
AcDbMText
 62
2
  6
CONTINUOUS
  7
STANDARD
 71
2
 72
1
 10
6.055
 20
-2.1565
 30
0.0
 11
1.0
 21
0.0
 31
0.0
 44
0.9
  1
Through
 40
0.125
 41
1.4
  0
MTEXT
  5
26B
100
AcDbEntity
  8
0
100
AcDbMText
 62
2
  6
CONTINUOUS
  7
STANDARD
 71
2
 72
1
 10
1.5275
 20
-2.4065
 30
0.0
 11
1.0
 21
0.0
 31
0.0
 44
0.9
  1
Mounting Hole Quantity
 40
0.125
 41
4.4
  0
MTEXT
  5
26C
100
AcDbEntity
  8
0
100
AcDbMText
 62
2
  6
CONTINUOUS
  7
STANDARD
 71
2
 72
1
 10
6.055
 20
-2.4065
 30
0.0
 11
1.0
 21
0.0
 31
0.0
 44
0.9
  1
1
 40
0.125
 41
0.2
  0
ENDBLK
  5
26D
100
AcDbEntity
  8
0
  6
BYBLOCK
 62
0
100
AcDbBlockEnd
  0
BLOCK
  5
26E
100
AcDbEntity
  8
0
100
AcDbBlockBegin
  2
*T3
 70
1
 10
0.0
 20
0.0
  3
*T3
  1

  0
LINE
  5
26F
100
AcDbEntity
  8
0
100
AcDbLine
 62
2
  6
CONTINUOUS
 10
0.0
 20
0.0
 11
4.6
 21
0.0
  0
LINE
  5
270
100
AcDbEntity
  8
0
100
AcDbLine
 62
2
  6
CONTINUOUS
 10
0.0
 20
0.0
 11
0.0
 21
-0.93775
  0
LINE
  5
271
100
AcDbEntity
  8
0
100
AcDbLine
 62
2
  6
CONTINUOUS
 10
0.0
 20
-0.34375
 11
4.6
 21
-0.34375
  0
LINE
  5
272
100
AcDbEntity
  8
0
100
AcDbLine
 62
2
  6
CONTINUOUS
 10
0.0
 20
-0.68775
 11
4.6
 21
-0.68775
  0
LINE
  5
273
100
AcDbEntity
  8
0
100
AcDbLine
 62
2
  6
CONTINUOUS
 10
0.0
 20
-0.93775
 11
4.6
 21
-0.93775
  0
LINE
  5
274
100
AcDbEntity
  8
0
100
AcDbLine
 62
2
  6
CONTINUOUS
 10
1.3
 20
-0.34375
 11
1.3
 21
-0.93775
  0
LINE
  5
275
100
AcDbEntity
  8
0
100
AcDbLine
 62
2
  6
CONTINUOUS
 10
3.3
 20
-0.34375
 11
3.3
 21
-0.93775
  0
LINE
  5
276
100
AcDbEntity
  8
0
100
AcDbLine
 62
2
  6
CONTINUOUS
 10
4.6
 20
0.0
 11
4.6
 21
-0.93775
  0
MTEXT
  5
277
100
AcDbEntity
  8
0
100
AcDbMText
 62
2
  6
CONTINUOUS
  7
STANDARD
 71
2
 72
1
 10
2.3
 20
-0.099375
 30
0.0
 11
1.0
 21
0.0
 31
0.0
 44
0.9
  1
Port Headings
 40
0.145
 41
3.016
  0
MTEXT
  5
278
100
AcDbEntity
  8
0
100
AcDbMText
 62
2
  6
CONTINUOUS
  7
STANDARD
 71
2
 72
1
 10
0.65
 20
-0.44325
 30
0.0
 11
1.0
 21
0.0
 31
0.0
 44
0.9
  1
Product
 40
0.145
 41
1.624
  0
MTEXT
  5
279
100
AcDbEntity
  8
0
100
AcDbMText
 62
2
  6
CONTINUOUS
  7
STANDARD
 71
2
 72
1
 10
2.3
 20
-0.44325
 30
0.0
 11
1.0
 21
0.0
 31
0.0
 44
0.9
  1
Port
 40
0.145
 41
0.928
  0
MTEXT
  5
27A
100
AcDbEntity
  8
0
100
AcDbMText
 62
2
  6
CONTINUOUS
  7
STANDARD
 71
2
 72
1
 10
3.95
 20
-0.44325
 30
0.0
 11
1.0
 21
0.0
 31
0.0
 44
0.9
  1
Size
 40
0.145
 41
0.928
  0
MTEXT
  5
27B
100
AcDbEntity
  8
0
100
AcDbMText
 62
2
  6
CONTINUOUS
  7
STANDARD
 71
2
 72
1
 10
0.65
 20
-0.75025
 30
0.0
 11
1.0
 21
0.0
 31
0.0
 44
0.9
  1
FAI
 40
0.125
 41
0.6
  0
MTEXT
  5
27C
100
AcDbEntity
  8
0
100
AcDbMText
 62
2
  6
CONTINUOUS
  7
STANDARD
 71
2
 72
1
 10
2.3
 20
-0.75025
 30
0.0
 11
1.0
 21
0.0
 31
0.0
 44
0.9
  1
All Ports
 40
0.125
 41
1.8
  0
MTEXT
  5
27D
100
AcDbEntity
  8
0
100
AcDbMText
 62
2
  6
CONTINUOUS
  7
STANDARD
 71
2
 72
1
 10
3.95
 20
-0.75025
 30
0.0
 11
1.0
 21
0.0
 31
0.0
 44
0.9
  1
SAE 6
 40
0.125
 41
1.0
  0
ENDBLK
  5
27E
100
AcDbEntity
  8
0
  6
BYBLOCK
 62
0
100
AcDbBlockEnd
  0
ENDSEC
  0
SECTION
  2
ENTITIES
  0
IMAGE
  5
27F
100
AcDbEntity
  8
0
100
AcDbRasterImage
 62
7
  6
CONTINUOUS
 10
19.2297077316
 20
0.3094318264
 30
0.0
 11
0.0066666667
 21
0.0
 31
0.0
 12
0.0
 22
0.0066666667
 32
0.0
 13
369.0
 23
92.0
340
       312
 70
9
280
0
281
50
282
50
283
0
360
       30C
 71
1
 91
2
 14
-0.5
 24
-0.5
 14
368.5
 24
91.5
  0
INSERT
  5
280
100
AcDbEntity
  8
0
100
AcDbBlockReference
 62
2
  6
CONTINUOUS
  2
SUN_FIRST_THIRD_ANGLE_BL0
 10
20.4816717061
 20
1.2289683772
  0
ACAD_TABLE
  5
281
100
AcDbEntity
  8
0
 62
2
  6
CONTINUOUS
100
AcDbBlockReference
  2
*T1
 10
12.42375
 20
0.30125
 30
0.0
100
AcDbTable
342
       314
343
207
 11
1.0
 21
0.0
 31
0.0
 90
6
 91
4
 92
6
 93
20
 94
0
 95
0
 96
0
 70
1
 41
0.0
141
0.525
141
0.1
141
0.525
141
0.1
142
4.1
142
1.1
142
0.7
142
0.5
142
0.4
142
2.475
171
1
172
0
173
0
174
0
175
1
176
1
 91
33
178
0
145
0.0
301
CELL_VALUE
 90
4
  1
T-10A Line mount\PNinety degree
304
ACVALUE_END
170
2
140
0.125
171
1
172
0
173
0
174
0
175
1
176
1
 91
33
178
0
145
0.0
301
CELL_VALUE
 90
4
  1
Jun-09-23
304
ACVALUE_END
170
5
140
0.125
171
1
172
0
173
0
174
0
175
1
176
1
 91
33
178
0
145
0.0
301
CELL_VALUE
 90
4
  1
2.000
304
ACVALUE_END
170
5
140
0.125
171
1
172
0
173
0
174
0
175
1
176
1
 91
33
178
0
145
0.0
301
CELL_VALUE
 90
4
  1
C
304
ACVALUE_END
170
5
140
0.125
171
1
172
0
173
0
174
0
175
1
176
1
 91
33
178
0
145
0.0
301
CELL_VALUE
 90
4
  1
2
304
ACVALUE_END
170
5
140
0.125
171
1
172
0
173
0
174
0
175
1
176
1
 91
33
178
0
145
0.0
301
CELL_VALUE
 90
4
  1
 
304
ACVALUE_END
170
1
140
0.125
171
1
172
0
173
0
174
0
175
1
176
1
 91
33
178
0
145
0.0
301
CELL_VALUE
 90
4
  1
DESCRIPTION
304
ACVALUE_END
170
1
140
0.06
171
1
172
0
173
0
174
0
175
1
176
1
 91
33
178
0
145
0.0
301
CELL_VALUE
 90
4
  1
DATE
304
ACVALUE_END
170
1
140
0.06
171
1
172
0
173
0
174
0
175
1
176
1
 91
33
178
0
145
0.0
301
CELL_VALUE
 90
4
  1
SCALE
304
ACVALUE_END
170
1
140
0.06
171
1
172
0
173
0
174
0
175
1
176
1
 91
33
178
0
145
0.0
301
CELL_VALUE
 90
4
  1
DWG SIZE
304
ACVALUE_END
170
1
140
0.06
171
1
172
0
173
0
174
0
175
1
176
1
 91
33
178
0
145
0.0
301
CELL_VALUE
 90
4
  1
SHEET
304
ACVALUE_END
170
1
140
0.06
171
1
172
0
173
0
174
0
175
1
176
1
 91
33
178
0
145
0.0
301
CELL_VALUE
 90
4
  1
 
304
ACVALUE_END
170
1
140
0.125
171
1
172
0
173
0
174
0
175
1
176
1
 91
33
178
0
145
0.0
301
CELL_VALUE
 90
4
  1
FAI
304
ACVALUE_END
170
5
140
0.125
171
1
172
0
173
0
174
0
175
4
176
1
 91
33
178
0
145
0.0
301
CELL_VALUE
 90
4
  1
ALL DIMENSIONS IN INCH\PVIEWS ARE THIRD ANGLE
304
ACVALUE_END
170
5
140
0.12
171
1
172
0
173
1
174
0
175
1
176
1
 91
1
178
0
145
0.0
170
1
171
1
172
0
173
1
174
0
175
1
176
1
 91
1
178
0
145
0.0
170
1
171
1
172
0
173
1
174
0
175
1
176
1
 91
1
178
0
145
0.0
170
5
171
1
172
0
173
0
174
0
175
1
176
1
 91
33
178
0
145
0.0
301
CELL_VALUE
 90
4
  1
 
304
ACVALUE_END
170
1
140
0.125
171
1
172
0
173
0
174
0
175
1
176
1
 91
33
178
0
145
0.0
301
CELL_VALUE
 90
4
  1
MODEL
304
ACVALUE_END
170
1
140
0.06
171
1
172
0
173
0
174
0
175
1
176
1
 91
33
178
0
145
0.0
301
CELL_VALUE
 90
4
  1
 
304
ACVALUE_END
170
1
140
0.125
171
1
172
0
173
0
174
0
175
1
176
1
 91
33
178
0
145
0.0
301
CELL_VALUE
 90
4
  1
 
304
ACVALUE_END
170
1
140
0.125
171
1
172
0
173
0
174
0
175
1
176
1
 91
33
178
0
145
0.0
301
CELL_VALUE
 90
4
  1
 
304
ACVALUE_END
170
1
140
0.125
171
1
172
0
173
0
174
0
175
1
176
1
 91
33
178
0
145
0.0
301
CELL_VALUE
 90
4
  1
 
304
ACVALUE_END
170
1
140
0.125
171
1
172
0
173
0
174
0
175
1
176
1
 91
33
178
0
145
0.0
301
CELL_VALUE
 90
4
  1
 
304
ACVALUE_END
170
1
140
0.125
  0
ACAD_TABLE
  5
282
100
AcDbEntity
  8
0
 62
2
  6
CONTINUOUS
100
AcDbBlockReference
  2
*T2
 10
12.4237499994
 20
16.47875
 30
0.0
100
AcDbTable
342
       313
343
208
 11
1.0
 21
0.0
 31
0.0
 90
22
 91
10
 92
3
 93
16
 94
0
 95
0
 96
0
 41
0.028
141
0.344
141
0.25
141
0.25
141
0.25
141
0.25
141
0.25
141
0.25
141
0.25
141
0.25
141
0.25
142
3.055
142
3.0
142
3.0
171
1
172
0
173
0
174
0
175
1
176
1
 91
33
178
0
145
0.0
301
CELL_VALUE
 90
4
  1
Technical Data
304
ACVALUE_END
170
5
140
0.145
171
1
172
0
173
0
174
0
175
1
176
1
 91
33
178
0
145
0.0
301
CELL_VALUE
 90
4
  1
U.S. Units
304
ACVALUE_END
170
5
140
0.145
171
1
172
0
173
0
174
0
175
1
176
1
 91
33
178
0
145
0.0
301
CELL_VALUE
 90
4
  1
Metric Units
304
ACVALUE_END
170
5
140
0.145
171
1
172
0
173
0
174
0
175
1
176
1
 91
33
178
0
145
0.0
301
CELL_VALUE
 90
4
  1
Cavity
304
ACVALUE_END
170
5
140
0.125
171
1
172
0
173
0
174
0
175
2
176
1
 91
33
178
0
145
0.0
301
CELL_VALUE
 90
4
  1
T-10A
304
ACVALUE_END
170
5
140
0.125
171
1
172
0
173
1
174
0
175
1
176
1
 91
1
178
0
145
0.0
170
1
171
1
172
0
173
0
174
0
175
1
176
1
 91
33
178
0
145
0.0
301
CELL_VALUE
 90
4
  1
Body Features
304
ACVALUE_END
170
5
140
0.125
171
1
172
0
173
0
174
0
175
2
176
1
 91
33
178
0
145
0.0
301
CELL_VALUE
 90
4
  1
Ninety degree
304
ACVALUE_END
170
5
140
0.125
171
1
172
0
173
1
174
0
175
1
176
1
 91
1
178
0
145
0.0
170
1
171
1
172
0
173
0
174
0
175
1
176
1
 91
33
178
0
145
0.0
301
CELL_VALUE
 90
4
  1
Body Type
304
ACVALUE_END
170
5
140
0.125
171
1
172
0
173
0
174
0
175
2
176
1
 91
33
178
0
145
0.0
301
CELL_VALUE
 90
4
  1
Line mount
304
ACVALUE_END
170
5
140
0.125
171
1
172
0
173
1
174
0
175
1
176
1
 91
1
178
0
145
0.0
170
1
171
1
172
0
173
0
174
0
175
1
176
1
 91
33
178
0
145
0.0
301
CELL_VALUE
 90
4
  1
Interface
304
ACVALUE_END
170
5
140
0.125
171
1
172
0
173
0
174
0
175
2
176
1
 91
33
178
0
145
0.0
301
CELL_VALUE
 90
4
  1
None
304
ACVALUE_END
170
5
140
0.125
171
1
172
0
173
1
174
0
175
1
176
1
 91
1
178
0
145
0.0
170
1
171
1
172
0
173
0
174
0
175
1
176
1
 91
33
178
0
145
0.0
301
CELL_VALUE
 90
4
  1
Open Cavity Quantity
304
ACVALUE_END
170
5
140
0.125
171
1
172
0
173
0
174
0
175
2
176
1
 91
33
178
0
145
0.0
301
CELL_VALUE
 90
4
  1
1
304
ACVALUE_END
170
5
140
0.125
171
1
172
0
173
1
174
0
175
1
176
1
 91
1
178
0
145
0.0
170
1
171
1
172
0
173
0
174
0
175
1
176
1
 91
33
178
0
145
0.0
301
CELL_VALUE
 90
4
  1
Weight
304
ACVALUE_END
170
5
140
0.125
171
1
172
0
173
0
174
0
175
1
176
1
 91
33
178
0
145
0.0
301
CELL_VALUE
 90
4
  1
0.380 lb.
304
ACVALUE_END
170
5
140
0.125
171
1
172
0
173
0
174
0
175
1
176
1
 91
33
178
0
145
0.0
301
CELL_VALUE
 90
4
  1
0,172 kg.
304
ACVALUE_END
170
5
140
0.125
171
1
172
0
173
0
174
0
175
1
176
1
 91
33
178
0
145
0.0
301
CELL_VALUE
 90
4
  1
Mounting Hole Diameter
304
ACVALUE_END
170
5
140
0.125
171
1
172
0
173
0
174
0
175
1
176
1
 91
33
178
0
145
0.0
301
CELL_VALUE
 90
4
  1
.34 in.
304
ACVALUE_END
170
5
140
0.125
171
1
172
0
173
0
174
0
175
1
176
1
 91
33
178
0
145
0.0
301
CELL_VALUE
 90
4
  1
8.6 mm
304
ACVALUE_END
170
5
140
0.125
171
1
172
0
173
0
174
0
175
1
176
1
 91
33
178
0
145
0.0
301
CELL_VALUE
 90
4
  1
Mounting Hole Depth
304
ACVALUE_END
170
5
140
0.125
171
1
172
0
173
0
174
0
175
2
176
1
 91
33
178
0
145
0.0
301
CELL_VALUE
 90
4
  1
Through
304
ACVALUE_END
170
5
140
0.125
171
1
172
0
173
1
174
0
175
1
176
1
 91
1
178
0
145
0.0
170
1
171
1
172
0
173
0
174
0
175
1
176
1
 91
33
178
0
145
0.0
301
CELL_VALUE
 90
4
  1
Mounting Hole Quantity
304
ACVALUE_END
170
5
140
0.125
171
1
172
0
173
0
174
0
175
2
176
1
 91
33
178
0
145
0.0
301
CELL_VALUE
 90
4
  1
1
304
ACVALUE_END
170
5
140
0.125
171
1
172
0
173
1
174
0
175
1
176
1
 91
1
178
0
145
0.0
170
1
  0
ACAD_TABLE
  5
283
100
AcDbEntity
  8
0
 62
2
  6
CONTINUOUS
100
AcDbBlockReference
  2
*T3
 10
0.52125
 20
1.459
 30
0.0
100
AcDbTable
342
       313
343
209
 11
1.0
 21
0.0
 31
0.0
 90
22
 91
3
 92
3
 93
16
 94
0
 95
0
 96
0
 41
0.05
141
0.34375
141
0.344
141
0.25
142
1.3
142
2.0
142
1.3
171
1
172
0
173
0
174
0
175
3
176
1
 91
33
178
0
145
0.0
301
CELL_VALUE
 90
4
  1
Port Headings
304
ACVALUE_END
170
5
140
0.145
171
1
172
0
173
1
174
0
175
1
176
1
 91
1
178
0
145
0.0
170
1
171
1
172
0
173
1
174
0
175
1
176
1
 91
1
178
0
145
0.0
170
1
171
1
172
0
173
0
174
0
175
1
176
1
 91
33
178
0
145
0.0
301
CELL_VALUE
 90
4
  1
Product
304
ACVALUE_END
170
5
140
0.145
171
1
172
0
173
0
174
0
175
1
176
1
 91
33
178
0
145
0.0
301
CELL_VALUE
 90
4
  1
Port
304
ACVALUE_END
170
5
140
0.145
171
1
172
0
173
0
174
0
175
1
176
1
 91
33
178
0
145
0.0
301
CELL_VALUE
 90
4
  1
Size
304
ACVALUE_END
170
5
140
0.145
171
1
172
0
173
0
174
0
175
1
176
1
 91
33
178
0
145
0.0
301
CELL_VALUE
 90
4
  1
FAI
304
ACVALUE_END
170
5
140
0.125
171
1
172
0
173
0
174
0
175
1
176
1
 91
33
178
0
145
0.0
301
CELL_VALUE
 90
4
  1
All Ports
304
ACVALUE_END
170
5
140
0.125
171
1
172
0
173
0
174
0
175
1
176
1
 91
33
178
0
145
0.0
301
CELL_VALUE
 90
4
  1
SAE 6
304
ACVALUE_END
170
5
140
0.125
  0
MTEXT
  5
284
100
AcDbEntity
  8
0
100
AcDbMText
 62
2
  6
CONTINUOUS
  7
STANDARD
 71
1
 72
1
 10
0.52125
 20
5.75995
 30
0.0
 11
1.0
 21
0.0
 31
0.0
 44
0.6
  3
Notes\P \P1. Important: Carefully consider\P   the maximum system pressure. The\P   pressure rating of the manifold is\P   dependent on the manifold material,\P   with the port type/size a secondary\P   consideration. Manifolds\P   constructed of alu
  3
minum are not\P   rated for pressures higher than\P   3000 psi (210 bar), regardless of\P   the port type/size specified.\P2. This drawing is for reference\P   only. It is generated by an\P   automated process and does not fall\P   under Sun's docume
  1
nt control\P   process.
 40
0.1
 41
3.04
  0
LINE
  5
285
100
AcDbEntity
  8
0
100
AcDbLine
 62
7
  6
CONTINUOUS
 10
0.30125
 20
0.30125
 11
0.30125
 21
16.69875
  0
LINE
  5
286
100
AcDbEntity
  8
0
100
AcDbLine
 62
7
  6
CONTINUOUS
 10
0.30125
 20
0.30125
 11
21.69875
 21
0.30125
  0
LINE
  5
287
100
AcDbEntity
  8
0
100
AcDbLine
 62
7
  6
CONTINUOUS
 10
0.30125
 20
16.69875
 11
21.69875
 21
16.69875
  0
LINE
  5
288
100
AcDbEntity
  8
0
100
AcDbLine
 62
7
  6
CONTINUOUS
 10
21.69875
 20
0.30125
 11
21.69875
 21
16.69875
  0
LINE
  5
289
100
AcDbEntity
  8
0
100
AcDbLine
 62
7
  6
CONTINUOUS
 10
8.2616617518
 20
6.7901682723
 11
8.2616617518
 21
9.9197681441
  0
LINE
  5
28A
100
AcDbEntity
  8
0
100
AcDbLine
 62
7
  6
CONTINUOUS
 10
8.2616617518
 20
9.9197681441
 11
8.9087088306
 21
10.5447676654
  0
LINE
  5
28B
100
AcDbEntity
  8
0
100
AcDbLine
 62
4
  6
CONTINUOUS
 10
9.6989594404
 20
6.93197281
 11
9.679640914
 21
6.9478014422
  0
LINE
  5
28C
100
AcDbEntity
  8
0
100
AcDbLine
 62
7
  6
CONTINUOUS
 10
13.0912911694
 20
6.4552323346
 11
8.2616617518
 21
6.7901682723
  0
LINE
  5
28D
100
AcDbEntity
  8
0
100
AcDbLine
 62
4
  6
CONTINUOUS
 10
9.8341890565
 20
6.9370834922
 11
9.8921446082
 21
6.9185753731
  0
LINE
  5
28E
100
AcDbEntity
  8
0
100
AcDbLine
 62
4
  6
CONTINUOUS
 10
9.7955520243
 20
6.9687407553
 11
9.8341890565
 21
6.9370834922
  0
LINE
  5
28F
100
AcDbEntity
  8
0
100
AcDbLine
 62
4
  6
CONTINUOUS
 10
9.7375964657
 20
7.0452044266
 11
9.7569149921
 21
7.0293757943
  0
LINE
  5
290
100
AcDbEntity
  8
0
100
AcDbLine
 62
4
  6
CONTINUOUS
 10
9.679640914
 20
6.9478014422
 11
9.6603224013
 21
6.9781189615
  0
LINE
  5
291
100
AcDbEntity
  8
0
100
AcDbLine
 62
4
  6
CONTINUOUS
 10
9.7569149921
 20
7.0293757943
 11
9.7955520243
 21
6.9687407553
  0
LINE
  5
292
100
AcDbEntity
  8
0
100
AcDbLine
 62
4
  6
CONTINUOUS
 10
9.6603224013
 20
6.9781189615
 11
9.6603224013
 21
7.0070967374
  0
LINE
  5
293
100
AcDbEntity
  8
0
100
AcDbLine
 62
4
  6
CONTINUOUS
 10
9.6989594404
 20
7.0478839134
 11
9.7375964657
 21
7.0452044266
  0
LINE
  5
294
100
AcDbEntity
  8
0
100
AcDbLine
 62
4
  6
CONTINUOUS
 10
10.5605653546
 20
7.1001787002
 11
10.6764764606
 21
7.0921402377
  0
LINE
  5
295
100
AcDbEntity
  8
0
100
AcDbLine
 62
4
  6
CONTINUOUS
 10
10.6764764606
 20
7.2080513437
 11
10.7923875666
 21
7.2000128812
  0
LINE
  5
296
100
AcDbEntity
  8
0
100
AcDbLine
 62
4
  6
CONTINUOUS
 10
10.7923875666
 20
7.2579684343
 11
10.5605653546
 21
7.2740453593
  0
LINE
  5
297
100
AcDbEntity
  8
0
100
AcDbLine
 62
4
  6
CONTINUOUS
 10
11.9746808481
 20
7.2706368648
 11
11.742858636
 21
7.2867137898
  0
LINE
  5
298
100
AcDbEntity
  8
0
100
AcDbLine
 62
4
  6
CONTINUOUS
 10
10.5605653546
 20
7.3899564653
 11
10.7923875666
 21
7.3738795403
  0
LINE
  5
299
100
AcDbEntity
  8
0
100
AcDbLine
 62
4
  6
CONTINUOUS
 10
9.8921446082
 20
6.9185753731
 11
9.8921446082
 21
7.0344864765
  0
LINE
  5
29A
100
AcDbEntity
  8
0
100
AcDbLine
 62
4
  6
CONTINUOUS
 10
11.742858636
 20
7.5626925972
 11
11.9746808481
 21
7.6128506136
  0
LINE
  5
29B
100
AcDbEntity
  8
0
100
AcDbLine
 62
4
  6
CONTINUOUS
 10
10.5605653546
 20
7.4479120183
 11
10.7923875666
 21
7.4318350933
  0
LINE
  5
29C
100
AcDbEntity
  8
0
100
AcDbLine
 62
4
  6
CONTINUOUS
 10
11.7759760929
 20
7.4003281786
 11
11.9415633877
 21
7.3888446607
  0
LINE
  5
29D
100
AcDbEntity
  8
0
100
AcDbLine
 62
4
  6
CONTINUOUS
 10
10.5605653546
 20
7.5638231243
 11
10.7923875666
 21
7.5477461993
  0
LINE
  5
29E
100
AcDbEntity
  8
0
100
AcDbLine
 62
4
  6
CONTINUOUS
 10
10.7923875666
 20
7.7795684114
 11
10.5605653546
 21
7.7956453364
  0
LINE
  5
29F
100
AcDbEntity
  8
0
100
AcDbLine
 62
4
  6
CONTINUOUS
 10
11.9746808481
 20
7.7453204412
 11
11.742858636
 21
7.7613973662
  0
LINE
  5
2A0
100
AcDbEntity
  8
0
100
AcDbLine
 62
4
  6
CONTINUOUS
 10
10.5605653546
 20
7.2160898063
 11
10.5605653546
 21
7.1001787002
  0
LINE
  5
2A1
100
AcDbEntity
  8
0
100
AcDbLine
 62
4
  6
CONTINUOUS
 10
10.5605653546
 20
7.4479120183
 11
10.5605653546
 21
7.5638231243
  0
LINE
  5
2A2
100
AcDbEntity
  8
0
100
AcDbLine
 62
4
  6
CONTINUOUS
 10
10.7923875666
 20
7.8954795174
 11
10.6764764606
 21
7.9035179799
  0
LINE
  5
2A3
100
AcDbEntity
  8
0
100
AcDbLine
 62
4
  6
CONTINUOUS
 10
11.9746808481
 20
7.8777902687
 11
11.742858636
 21
7.8938671938
  0
LINE
  5
2A4
100
AcDbEntity
  8
0
100
AcDbLine
 62
4
  6
CONTINUOUS
 10
11.4646719816
 20
7.932478022
 11
11.2328497695
 21
7.948554947
  0
LINE
  5
2A5
100
AcDbEntity
  8
0
100
AcDbLine
 62
4
  6
CONTINUOUS
 10
10.7923875666
 20
7.990140254
 11
10.6764764606
 21
7.9981787165
  0
LINE
  5
2A6
100
AcDbEntity
  8
0
100
AcDbLine
 62
4
  6
CONTINUOUS
 10
11.9746808481
 20
7.4803807584
 11
11.742858636
 21
7.5626925972
  0
LINE
  5
2A7
100
AcDbEntity
  8
0
100
AcDbLine
 62
4
  6
CONTINUOUS
 10
10.6185209076
 20
9.0309090137
 11
10.6185209076
 21
9.0598867902
  0
LINE
  5
2A8
100
AcDbEntity
  8
0
100
AcDbLine
 62
4
  6
CONTINUOUS
 10
10.6764764606
 20
8.6936453526
 11
10.6764764606
 21
8.6163712819
  0
LINE
  5
2A9
100
AcDbEntity
  8
0
100
AcDbLine
 62
4
  6
CONTINUOUS
 10
10.6764764606
 20
7.9035179799
 11
10.6764764606
 21
7.7876068739
  0
LINE
  5
2AA
100
AcDbEntity
  8
0
100
AcDbLine
 62
4
  6
CONTINUOUS
 10
10.6764764606
 20
7.0921402377
 11
10.6764764606
 21
7.2080513437
  0
LINE
  5
2AB
100
AcDbEntity
  8
0
100
AcDbLine
 62
4
  6
CONTINUOUS
 10
10.6764764606
 20
8.1913638932
 11
10.6764764606
 21
8.3072749992
  0
LINE
  5
2AC
100
AcDbEntity
  8
0
100
AcDbLine
 62
4
  6
CONTINUOUS
 10
10.6764764606
 20
8.3845490699
 11
10.6764764606
 21
8.5004601759
  0
LINE
  5
2AD
100
AcDbEntity
  8
0
100
AcDbLine
 62
4
  6
CONTINUOUS
 10
10.6764764606
 20
9.1186527414
 11
10.6764764606
 21
9.2345638474
  0
LINE
  5
2AE
100
AcDbEntity
  8
0
100
AcDbLine
 62
4
  6
CONTINUOUS
 10
10.6764764606
 20
9.3118379181
 11
10.6764764606
 21
9.4277490241
  0
LINE
  5
2AF
100
AcDbEntity
  8
0
100
AcDbLine
 62
4
  6
CONTINUOUS
 10
10.715113496
 20
8.5750547591
 11
10.715113496
 21
8.6909658651
  0
LINE
  5
2B0
100
AcDbEntity
  8
0
100
AcDbLine
 62
4
  6
CONTINUOUS
 10
10.7344320136
 20
9.3078186868
 11
10.7344320136
 21
9.4237297928
  0
LINE
  5
2B1
100
AcDbEntity
  8
0
100
AcDbLine
 62
4
  6
CONTINUOUS
 10
10.7923875666
 20
9.4197105616
 11
10.7923875666
 21
9.3037994556
  0
LINE
  5
2B2
100
AcDbEntity
  8
0
100
AcDbLine
 62
4
  6
CONTINUOUS
 10
10.7923875666
 20
8.6856068901
 11
10.7923875666
 21
8.5696957841
  0
LINE
  5
2B3
100
AcDbEntity
  8
0
100
AcDbLine
 62
4
  6
CONTINUOUS
 10
10.7923875666
 20
8.2992365367
 11
10.7923875666
 21
8.1833254307
  0
LINE
  5
2B4
100
AcDbEntity
  8
0
100
AcDbLine
 62
4
  6
CONTINUOUS
 10
10.7923875666
 20
8.10605136
 11
10.7923875666
 21
7.990140254
  0
LINE
  5
2B5
100
AcDbEntity
  8
0
100
AcDbLine
 62
4
  6
CONTINUOUS
 10
10.7923875666
 20
7.3738795403
 11
10.7923875666
 21
7.2579684343
  0
LINE
  5
2B6
100
AcDbEntity
  8
0
100
AcDbLine
 62
4
  6
CONTINUOUS
 10
10.7923875666
 20
7.2000128812
 11
10.7923875666
 21
7.0841017752
  0
LINE
  5
2B7
100
AcDbEntity
  8
0
100
AcDbLine
 62
4
  6
CONTINUOUS
 10
10.7923875666
 20
8.7628809608
 11
10.7923875666
 21
8.8787920668
  0
LINE
  5
2B8
100
AcDbEntity
  8
0
100
AcDbLine
 62
4
  6
CONTINUOUS
 10
10.7923875666
 20
9.1106142788
 11
10.7923875666
 21
9.2265253849
  0
LINE
  5
2B9
100
AcDbEntity
  8
0
100
AcDbLine
 62
4
  6
CONTINUOUS
 10
9.6603224013
 20
7.0070967374
 11
9.679640914
 21
7.0347347698
  0
LINE
  5
2BA
100
AcDbEntity
  8
0
100
AcDbLine
 62
4
  6
CONTINUOUS
 10
11.2328497695
 20
8.1803771591
 11
11.4646719816
 21
8.2305351478
  0
LINE
  5
2BB
100
AcDbEntity
  8
0
100
AcDbLine
 62
4
  6
CONTINUOUS
 10
10.6764764606
 20
8.1140898225
 11
10.9082986727
 21
8.0980128975
  0
LINE
  5
2BC
100
AcDbEntity
  8
0
100
AcDbLine
 62
4
  6
CONTINUOUS
 10
10.7923875666
 20
8.1833254307
 11
10.6764764606
 21
8.1913638932
  0
LINE
  5
2BD
100
AcDbEntity
  8
0
100
AcDbLine
 62
4
  6
CONTINUOUS
 10
10.5605653546
 20
8.3153134617
 11
10.7923875666
 21
8.2992365367
  0
LINE
  5
2BE
100
AcDbEntity
  8
0
100
AcDbLine
 62
4
  6
CONTINUOUS
 10
11.9415633877
 20
8.2278203458
 11
11.7759760929
 21
8.2393038637
  0
LINE
  5
2BF
100
AcDbEntity
  8
0
100
AcDbLine
 62
4
  6
CONTINUOUS
 10
11.4646719816
 20
8.0980653203
 11
11.2328497695
 21
8.1803771591
  0
LINE
  5
2C0
100
AcDbEntity
  8
0
100
AcDbLine
 62
4
  6
CONTINUOUS
 10
10.9082986727
 20
8.0980128975
 11
10.9082986727
 21
8.0207388268
  0
LINE
  5
2C1
100
AcDbEntity
  8
0
100
AcDbLine
 62
4
  6
CONTINUOUS
 10
10.6764764606
 20
8.3845490699
 11
10.7923875666
 21
8.3765106074
  0
LINE
  5
2C2
100
AcDbEntity
  8
0
100
AcDbLine
 62
4
  6
CONTINUOUS
 10
11.4646719816
 20
8.3409266708
 11
11.2328497695
 21
8.3570035958
  0
LINE
  5
2C3
100
AcDbEntity
  8
0
100
AcDbLine
 62
4
  6
CONTINUOUS
 10
11.9415633877
 20
8.4210054488
 11
11.7759760929
 21
8.4324889667
  0
LINE
  5
2C4
100
AcDbEntity
  8
0
100
AcDbLine
 62
4
  6
CONTINUOUS
 10
11.9415633877
 20
7.3888446607
 11
11.9746808481
 21
7.3534305001
  0
LINE
  5
2C5
100
AcDbEntity
  8
0
100
AcDbLine
 62
4
  6
CONTINUOUS
 10
11.2328497695
 20
7.948554947
 11
11.2328497695
 21
8.0479073246
  0
LINE
  5
2C6
100
AcDbEntity
  8
0
100
AcDbLine
 62
4
  6
CONTINUOUS
 10
10.7923875666
 20
8.5696957841
 11
10.715113496
 21
8.5750547591
  0
LINE
  5
2C7
100
AcDbEntity
  8
0
100
AcDbLine
 62
4
  6
CONTINUOUS
 10
12.739694155
 20
8.4674911011
 11
12.9715163618
 21
8.4514141764
  0
LINE
  5
2C8
100
AcDbEntity
  8
0
100
AcDbLine
 62
4
  6
CONTINUOUS
 10
11.7759760929
 20
8.5484000727
 11
11.9415633877
 21
8.5369165548
  0
LINE
  5
2C9
100
AcDbEntity
  8
0
100
AcDbLine
 62
4
  6
CONTINUOUS
 10
11.9746808481
 20
8.6008547373
 11
11.742858636
 21
8.6169316623
  0
LINE
  5
2CA
100
AcDbEntity
  8
0
100
AcDbLine
 62
4
  6
CONTINUOUS
 10
10.6764764606
 20
8.6936453526
 11
10.7923875666
 21
8.6856068901
  0
LINE
  5
2CB
100
AcDbEntity
  8
0
100
AcDbLine
 62
4
  6
CONTINUOUS
 10
10.6764764606
 20
8.7709194233
 11
10.7923875666
 21
8.7628809608
  0
LINE
  5
2CC
100
AcDbEntity
  8
0
100
AcDbLine
 62
4
  6
CONTINUOUS
 10
11.8311718544
 20
7.2364326312
 11
11.8753284705
 21
7.1450571342
  0
LINE
  5
2CD
100
AcDbEntity
  8
0
100
AcDbLine
 62
4
  6
CONTINUOUS
 10
11.3322021402
 20
8.0410172143
 11
11.3322021402
 21
7.9416648367
  0
LINE
  5
2CE
100
AcDbEntity
  8
0
100
AcDbLine
 62
4
  6
CONTINUOUS
 10
11.3984370609
 20
8.1247370322
 11
11.3984370609
 21
8.2130502506
  0
LINE
  5
2CF
100
AcDbEntity
  8
0
100
AcDbLine
 62
4
  6
CONTINUOUS
 10
11.742858636
 20
8.6997253252
 11
11.7759760929
 21
8.7305460649
  0
LINE
  5
2D0
100
AcDbEntity
  8
0
100
AcDbLine
 62
4
  6
CONTINUOUS
 10
9.679640914
 20
7.0347347698
 11
9.6989594404
 21
7.0478839134
  0
LINE
  5
2D1
100
AcDbEntity
  8
0
100
AcDbLine
 62
4
  6
CONTINUOUS
 10
11.7759760929
 20
8.7305460649
 11
11.9415633877
 21
8.719062547
  0
LINE
  5
2D2
100
AcDbEntity
  8
0
100
AcDbLine
 62
4
  6
CONTINUOUS
 10
10.7923875666
 20
8.8787920668
 11
10.6764764606
 21
8.8868305293
  0
LINE
  5
2D3
100
AcDbEntity
  8
0
100
AcDbLine
 62
4
  6
CONTINUOUS
 10
11.9746808481
 20
8.8105987276
 11
11.742858636
 21
8.8266756526
  0
LINE
  5
2D4
100
AcDbEntity
  8
0
100
AcDbLine
 62
4
  6
CONTINUOUS
 10
10.7923875666
 20
8.9560661375
 11
10.5605653546
 21
8.9721430625
  0
LINE
  5
2D5
100
AcDbEntity
  8
0
100
AcDbLine
 62
4
  6
CONTINUOUS
 10
11.7759760929
 20
8.2393038637
 11
11.742858636
 21
8.2747180102
  0
LINE
  5
2D6
100
AcDbEntity
  8
0
100
AcDbLine
 62
4
  6
CONTINUOUS
 10
11.8311718544
 20
8.9861383255
 11
11.8753284705
 21
9.0713892721
  0
LINE
  5
2D7
100
AcDbEntity
  8
0
100
AcDbLine
 62
7
  6
CONTINUOUS
 10
13.0912911694
 20
9.5848322064
 11
13.7383382482
 21
10.2098317277
  0
LINE
  5
2D8
100
AcDbEntity
  8
0
100
AcDbLine
 62
4
  6
CONTINUOUS
 10
11.742858636
 20
8.5175793331
 11
11.7759760929
 21
8.5484000727
  0
LINE
  5
2D9
100
AcDbEntity
  8
0
100
AcDbLine
 62
4
  6
CONTINUOUS
 10
11.9746808481
 20
8.4518261882
 11
11.9415633877
 21
8.4210054488
  0
LINE
  5
2DA
100
AcDbEntity
  8
0
100
AcDbLine
 62
4
  6
CONTINUOUS
 10
10.7923875666
 20
9.0333402082
 11
10.6764764606
 21
9.0413786707
  0
LINE
  5
2DB
100
AcDbEntity
  8
0
100
AcDbLine
 62
4
  6
CONTINUOUS
 10
10.6764764606
 20
9.1186527414
 11
10.7923875666
 21
9.1106142788
  0
LINE
  5
2DC
100
AcDbEntity
  8
0
100
AcDbLine
 62
4
  6
CONTINUOUS
 10
11.7759760929
 20
8.4324889667
 11
11.742858636
 21
8.4679031132
  0
LINE
  5
2DD
100
AcDbEntity
  8
0
100
AcDbLine
 62
4
  6
CONTINUOUS
 10
11.9415633877
 20
8.5369165548
 11
11.9746808481
 21
8.501502408
  0
LINE
  5
2DE
100
AcDbEntity
  8
0
100
AcDbLine
 62
4
  6
CONTINUOUS
 10
11.742858636
 20
7.2867137898
 11
11.742858636
 21
7.3695074251
  0
LINE
  5
2DF
100
AcDbEntity
  8
0
100
AcDbLine
 62
4
  6
CONTINUOUS
 10
11.742858636
 20
7.6951624248
 11
11.742858636
 21
7.8276322523
  0
LINE
  5
2E0
100
AcDbEntity
  8
0
100
AcDbLine
 62
4
  6
CONTINUOUS
 10
11.742858636
 20
7.8938671938
 11
11.742858636
 21
7.9932195782
  0
LINE
  5
2E1
100
AcDbEntity
  8
0
100
AcDbLine
 62
4
  6
CONTINUOUS
 10
11.742858636
 20
8.2747180102
 11
11.742858636
 21
8.3409528963
  0
LINE
  5
2E2
100
AcDbEntity
  8
0
100
AcDbLine
 62
4
  6
CONTINUOUS
 10
11.742858636
 20
8.4679031132
 11
11.742858636
 21
8.5175793331
  0
LINE
  5
2E3
100
AcDbEntity
  8
0
100
AcDbLine
 62
4
  6
CONTINUOUS
 10
11.742858636
 20
8.6169316623
 11
11.742858636
 21
8.6997253252
  0
LINE
  5
2E4
100
AcDbEntity
  8
0
100
AcDbLine
 62
4
  6
CONTINUOUS
 10
11.742858636
 20
8.8266756526
 11
11.742858636
 21
8.9260279818
  0
LINE
  5
2E5
100
AcDbEntity
  8
0
100
AcDbLine
 62
4
  6
CONTINUOUS
 10
11.8422110067
 20
8.8860204285
 11
11.8422110067
 21
8.8197855423
  0
LINE
  5
2E6
100
AcDbEntity
  8
0
100
AcDbLine
 62
4
  6
CONTINUOUS
 10
11.8422110067
 20
7.9532120249
 11
11.8422110067
 21
7.8869770835
  0
LINE
  5
2E7
100
AcDbEntity
  8
0
100
AcDbLine
 62
4
  6
CONTINUOUS
 10
11.9084459274
 20
7.5070524704
 11
11.9084459274
 21
7.5953656888
  0
LINE
  5
2E8
100
AcDbEntity
  8
0
100
AcDbLine
 62
4
  6
CONTINUOUS
 10
11.9746808481
 20
8.2586410852
 11
11.9415633877
 21
8.2278203458
  0
LINE
  5
2E9
100
AcDbEntity
  8
0
100
AcDbLine
 62
4
  6
CONTINUOUS
 10
10.6764764606
 20
9.3118379181
 11
10.7344320136
 21
9.3078186868
  0
LINE
  5
2EA
100
AcDbEntity
  8
0
100
AcDbLine
 62
4
  6
CONTINUOUS
 10
10.7344320136
 20
9.4237297928
 11
10.7923875666
 21
9.4197105616
  0
LINE
  5
2EB
100
AcDbEntity
  8
0
100
AcDbLine
 62
4
  6
CONTINUOUS
 10
11.9415633877
 20
8.719062547
 11
11.9746808481
 21
8.6836484002
  0
LINE
  5
2EC
100
AcDbEntity
  8
0
100
AcDbLine
 62
4
  6
CONTINUOUS
 10
11.9746808481
 20
8.6836484002
 11
11.9746808481
 21
8.6008547373
  0
LINE
  5
2ED
100
AcDbEntity
  8
0
100
AcDbLine
 62
4
  6
CONTINUOUS
 10
11.9746808481
 20
8.501502408
 11
11.9746808481
 21
8.4518261882
  0
LINE
  5
2EE
100
AcDbEntity
  8
0
100
AcDbLine
 62
4
  6
CONTINUOUS
 10
11.9746808481
 20
8.3248759713
 11
11.9746808481
 21
8.2586410852
  0
LINE
  5
2EF
100
AcDbEntity
  8
0
100
AcDbLine
 62
4
  6
CONTINUOUS
 10
11.9746808481
 20
7.3534305001
 11
11.9746808481
 21
7.2706368648
  0
LINE
  5
2F0
100
AcDbEntity
  8
0
100
AcDbLine
 62
4
  6
CONTINUOUS
 10
11.9746808481
 20
7.8777902687
 11
11.9746808481
 21
7.9771426532
  0
LINE
  5
2F1
100
AcDbEntity
  8
0
100
AcDbLine
 62
4
  6
CONTINUOUS
 10
11.9746808481
 20
8.8105987276
 11
11.9746808481
 21
8.9099510568
  0
LINE
  5
2F2
100
AcDbEntity
  8
0
100
AcDbLine
 62
4
  6
CONTINUOUS
 10
11.8753284705
 20
9.0713892721
 11
11.9194850831
 21
8.9800137823
  0
LINE
  5
2F3
100
AcDbEntity
  8
0
100
AcDbLine
 62
4
  6
CONTINUOUS
 10
11.742858636
 20
7.3695074251
 11
11.7759760929
 21
7.4003281786
  0
LINE
  5
2F4
100
AcDbEntity
  8
0
100
AcDbLine
 62
7
  6
CONTINUOUS
 10
13.0912911694
 20
9.5848322064
 11
8.2616617518
 21
9.9197681441
  0
LINE
  5
2F5
100
AcDbEntity
  8
0
100
AcDbLine
 62
4
  6
CONTINUOUS
 10
11.8753284705
 20
7.1450571342
 11
11.9194850831
 21
7.230308088
  0
LINE
  5
2F6
100
AcDbEntity
  8
0
100
AcDbLine
 62
7
  6
CONTINUOUS
 10
13.7383382482
 20
10.2098317277
 11
8.9087088306
 21
10.5447676654
  0
LINE
  5
2F7
100
AcDbEntity
  8
0
100
AcDbLine
 62
7
  6
CONTINUOUS
 10
13.0912911694
 20
6.4552323346
 11
13.0912911694
 21
9.5848322064
  0
LINE
  5
2F8
100
AcDbEntity
  8
0
100
AcDbLine
 62
7
  6
CONTINUOUS
 10
13.7383382482
 20
10.2098317277
 11
13.7383382482
 21
7.0802318559
  0
LINE
  5
2F9
100
AcDbEntity
  8
0
100
AcDbLine
 62
7
  6
CONTINUOUS
 10
13.7383382482
 20
7.0802318559
 11
13.0912911694
 21
6.4552323346
  0
SPLINE
  5
2FA
100
AcDbEntity
  8
0
100
AcDbSpline
 62
7
  6
CONTINUOUS
 70
0
 71
3
 72
23
 73
19
 74
0
 42
0.0000001
 43
0.0000001
 44
0.0000000001
 40
0.0
 40
0.0
 40
0.0
 40
0.0
 40
0.0764219057
 40
0.1504656864
 40
0.2222015765
 40
0.2917109238
 40
0.3590900758
 40
0.4244474746
 40
0.487903775
 40
0.5495925967
 40
0.6096609602
 40
0.6682702092
 40
0.7255962386
 40
0.7818281892
 40
0.8371677688
 40
0.8918276742
 40
0.9460292214
 40
1.0
 40
1.0
 40
1.0
 40
1.0
 10
13.4148147088
 20
9.6500549317
 30
0.0
 10
13.4162278527
 20
9.6514199239
 30
0.0
 10
13.4190535888
 20
9.6540629935
 30
0.0
 10
13.4233595367
 20
9.6578187763
 30
0.0
 10
13.427663542
 20
9.6613009338
 30
0.0
 10
13.4319643168
 20
9.6645082185
 30
0.0
 10
13.4362606541
 20
9.6674397199
 30
0.0
 10
13.4405514537
 20
9.6700945745
 30
0.0
 10
13.4448356186
 20
9.6724719402
 30
0.0
 10
13.4491119689
 20
9.6745710951
 30
0.0
 10
13.4533793471
 20
9.6763912708
 30
0.0
 10
13.4576365709
 20
9.6779317449
 30
0.0
 10
13.4618823924
 20
9.6791919756
 30
0.0
 10
13.4661155791
 20
9.6801713761
 30
0.0
 10
13.4703348079
 20
9.6808694622
 30
0.0
 10
13.4745387842
 20
9.6812859375
 30
0.0
 10
13.4787258718
 20
9.6814205074
 30
0.0
 10
13.4815076471
 20
9.6813220907
 30
0.0
 10
13.4828918594
 20
9.6812260949
 30
0.0
  0
SPLINE
  5
2FB
100
AcDbEntity
  8
0
100
AcDbSpline
 62
7
  6
CONTINUOUS
 70
0
 71
3
 72
23
 73
19
 74
0
 42
0.0000001
 43
0.0000001
 44
0.0000000001
 40
0.0
 40
0.0
 40
0.0
 40
0.0
 40
0.063776909
 40
0.1273449468
 40
0.1907019575
 40
0.2538561145
 40
0.3168131979
 40
0.3795820804
 40
0.4421733815
 40
0.5045993354
 40
0.5668738682
 40
0.6290123838
 40
0.6910316538
 40
0.75294965
 40
0.8147853622
 40
0.8765586114
 40
0.9382898593
 40
1.0
 40
1.0
 40
1.0
 40
1.0
 10
12.8807193494
 20
7.0126858639
 30
0.0
 10
12.8807193494
 20
7.0073784152
 30
0.0
 10
12.8804653054
 20
6.9967791015
 30
0.0
 10
12.8793187291
 20
6.9809446166
 30
0.0
 10
12.8774096469
 20
6.9652356388
 30
0.0
 10
12.8747426469
 20
6.9496890673
 30
0.0
 10
12.8713236746
 20
6.9343404343
 30
0.0
 10
12.8671606376
 20
6.9192252211
 30
0.0
 10
12.862263112
 20
6.9043782484
 30
0.0
 10
12.8566423463
 20
6.8898337536
 30
0.0
 10
12.8503112516
 20
6.8756252906
 30
0.0
 10
12.8432843987
 20
6.8617856325
 30
0.0
 10
12.8355779918
 20
6.8483466952
 30
0.0
 10
12.8272097754
 20
6.8353394719
 30
0.0
 10
12.8181990433
 20
6.822794009
 30
0.0
 10
12.808566455
 20
6.8107391583
 30
0.0
 10
12.7983346191
 20
6.7992030959
 30
0.0
 10
12.7911282826
 20
6.7918746191
 30
0.0
 10
12.7874345911
 20
6.7883067717
 30
0.0
  0
SPLINE
  5
2FC
100
AcDbEntity
  8
0
100
AcDbSpline
 62
7
  6
CONTINUOUS
 70
0
 71
3
 72
48
 73
44
 74
0
 42
0.0000001
 43
0.0000001
 44
0.0000000001
 40
0.0
 40
0.0
 40
0.0
 40
0.0
 40
0.0149718897
 40
0.0299468369
 40
0.0449278839
 40
0.0599180336
 40
0.0749202322
 40
0.0899373568
 40
0.1049721887
 40
0.1200274064
 40
0.1351055645
 40
0.1502090774
 40
0.1653402142
 40
0.180501073
 40
0.1956935825
 40
0.2109194836
 40
0.2261803205
 40
0.2414774416
 40
0.2568119786
 40
0.2721848576
 40
0.3030428416
 40
0.3340598877
 40
0.365235493
 40
0.3965657058
 40
0.4280432614
 40
0.4596577825
 40
0.4913960356
 40
0.5232422374
 40
0.5551784039
 40
0.5871847345
 40
0.6192400218
 40
0.6513220815
 40
0.6834081967
 40
0.7154755701
 40
0.7475017768
 40
0.7794652126
 40
0.8113455287
 40
0.8431240501
 40
0.8747841728
 40
0.9063117021
 40
0.9376953081
 40
0.9689262526
 40
1.0
 40
1.0
 40
1.0
 40
1.0
 10
12.3094470998
 20
7.2831521411
 30
0.0
 10
12.3123007934
 20
7.2859086093
 30
0.0
 10
12.3181189983
 20
7.2913092886
 30
0.0
 10
12.3271623308
 20
7.2990579224
 30
0.0
 10
12.3365101243
 20
7.3064445161
 30
0.0
 10
12.3461494167
 20
7.3134586312
 30
0.0
 10
12.3560669135
 20
7.3200907651
 30
0.0
 10
12.3662490018
 20
7.3263317118
 30
0.0
 10
12.3766816557
 20
7.3321729093
 30
0.0
 10
12.387350496
 20
7.3376063659
 30
0.0
 10
12.3982408841
 20
7.3426245189
 30
0.0
 10
12.4093377803
 20
7.3472205841
 30
0.0
 10
12.4206259563
 20
7.3513881454
 30
0.0
 10
12.4320898553
 20
7.3551215316
 30
0.0
 10
12.4437137044
 20
7.3584156244
 30
0.0
 10
12.4554815237
 20
7.3612658288
 30
0.0
 10
12.4673771128
 20
7.3636683455
 30
0.0
 10
12.4793840724
 20
7.3656197611
 30
0.0
 10
12.4914860878
 20
7.3671174875
 30
0.0
 10
12.5077448347
 20
7.3685084225
 30
0.0
 10
12.5282280435
 20
7.3690998125
 30
0.0
 10
12.5528829705
 20
7.3679749975
 30
0.0
 10
12.5775128522
 20
7.365023512
 30
0.0
 10
12.6019814323
 20
7.3602617665
 30
0.0
 10
12.6261545763
 20
7.353716216
 30
0.0
 10
12.6498994968
 20
7.3454230389
 30
0.0
 10
12.6730858728
 20
7.335427974
 30
0.0
 10
12.6955864557
 20
7.3237860787
 30
0.0
 10
12.7172777877
 20
7.3105614178
 30
0.0
 10
12.7380408544
 20
7.2958266971
 30
0.0
 10
12.7577617323
 20
7.2796628712
 30
0.0
 10
12.7763322035
 20
7.2621587009
 30
0.0
 10
12.7936503435
 20
7.2434102747
 30
0.0
 10
12.8096210959
 20
7.2235205029
 30
0.0
 10
12.8241567682
 20
7.2025985353
 30
0.0
 10
12.8371775089
 20
7.1807591734
 30
0.0
 10
12.848611742
 20
7.1581222443
 30
0.0
 10
12.8583965553
 20
7.1348119663
 30
0.0
 10
12.8664780543
 20
7.110956232
 30
0.0
 10
12.8728117013
 20
7.0866861009
 30
0.0
 10
12.8773624184
 20
7.062134393
 30
0.0
 10
12.8801050669
 20
7.0374376642
 30
0.0
 10
12.8807193494
 20
7.0209204659
 30
0.0
 10
12.8807193494
 20
7.0126858639
 30
0.0
  0
SPLINE
  5
2FD
100
AcDbEntity
  8
0
100
AcDbSpline
 62
7
  6
CONTINUOUS
 70
0
 71
3
 72
103
 73
99
 74
0
 42
0.0000001
 43
0.0000001
 44
0.0000000001
 40
0.0
 40
0.0
 40
0.0
 40
0.0
 40
0.0027164048
 40
0.0054531862
 40
0.0082302278
 40
0.0110664952
 40
0.0139796738
 40
0.0169859521
 40
0.0200998844
 40
0.0233343666
 40
0.026700688
 40
0.0302086012
 40
0.033866481
 40
0.0376814028
 40
0.0416593405
 40
0.04580522
 40
0.050123109
 40
0.0546162515
 40
0.059287218
 40
0.0641379428
 40
0.0691698167
 40
0.0743837442
 40
0.0797801764
 40
0.0853591945
 40
0.0911204909
 40
0.097063473
 40
0.1031872122
 40
0.1094905507
 40
0.115972045
 40
0.1226300528
 40
0.129462696
 40
0.1364679111
 40
0.1436434462
 40
0.1509868675
 40
0.1584955951
 40
0.1661668689
 40
0.1739978144
 40
0.1819853836
 40
0.1901264332
 40
0.1984176611
 40
0.2154367725
 40
0.2330143466
 40
0.251120167
 40
0.2697225161
 40
0.2887883097
 40
0.3082832214
 40
0.3281718007
 40
0.3484175849
 40
0.3689832078
 40
0.3898305045
 40
0.4109206147
 40
0.4322140837
 40
0.4536709631
 40
0.4752509101
 40
0.4969132863
 40
0.5186172556
 40
0.5403218829
 40
0.561986231
 40
0.5835694595
 40
0.6050309218
 40
0.6263302644
 40
0.6474275243
 40
0.6682832297
 40
0.6888584996
 40
0.7091151451
 40
0.7290157726
 40
0.748523889
 40
0.7676040092
 40
0.7862217692
 40
0.8043440428
 40
0.8219390666
 40
0.8389765737
 40
0.8472773366
 40
0.8554281366
 40
0.8634256636
 40
0.8712667662
 40
0.8789483877
 40
0.8864676444
 40
0.8938217669
 40
0.9010081646
 40
0.9080243933
 40
0.9148681894
 40
0.9215374772
 40
0.9280303652
 40
0.9343451972
 40
0.940480514
 40
0.946435142
 40
0.9522081344
 40
0.9577988776
 40
0.9632070413
 40
0.9684326863
 40
0.9734762434
 40
0.9783385761
 40
0.9830210188
 40
0.9875254912
 40
0.9918546128
 40
0.9960115506
 40
1.0
 40
1.0
 40
1.0
 40
1.0
 10
13.3467375582
 20
7.7179416297
 30
0.0
 10
13.3449010441
 20
7.7180689929
 30
0.0
 10
13.3412236398
 20
7.7184908727
 30
0.0
 10
13.3357543648
 20
7.7196199174
 30
0.0
 10
13.3303264103
 20
7.7212448624
 30
0.0
 10
13.3249436709
 20
7.7233642395
 30
0.0
 10
13.3196089074
 20
7.7259760963
 30
0.0
 10
13.3143248659
 20
7.7290784234
 30
0.0
 10
13.3090939822
 20
7.7326690042
 30
0.0
 10
13.3039185648
 20
7.7367455476
 30
0.0
 10
13.2988008852
 20
7.7413057079
 30
0.0
 10
13.2937430945
 20
7.7463469426
 30
0.0
 10
13.2887474753
 20
7.7518666838
 30
0.0
 10
13.2838161546
 20
7.757862065
 30
0.0
 10
13.2789514636
 20
7.7643301639
 30
0.0
 10
13.2741555513
 20
7.7712677248
 30
0.0
 10
13.2694307582
 20
7.7786713808
 30
0.0
 10
13.264779263
 20
7.7865374511
 30
0.0
 10
13.2602033626
 20
7.7948620853
 30
0.0
 10
13.2557052557
 20
7.8036411606
 30
0.0
 10
13.2512871574
 20
7.8128703382
 30
0.0
 10
13.2469512665
 20
7.8225450461
 30
0.0
 10
13.2426996986
 20
7.8326604691
 30
0.0
 10
13.2385346267
 20
7.8432115855
 30
0.0
 10
13.2344580653
 20
7.8541931217
 30
0.0
 10
13.2304721314
 20
7.8655996105
 30
0.0
 10
13.2265787488
 20
7.8774253384
 30
0.0
 10
13.2227799461
 20
7.8896644004
 30
0.0
 10
13.2190775718
 20
7.9023106607
 30
0.0
 10
13.2154735388
 20
7.9153577889
 30
0.0
 10
13.2119696296
 20
7.9287992406
 30
0.0
 10
13.2085676258
 20
7.9426282759
 30
0.0
 10
13.2052692445
 20
7.9568379551
 30
0.0
 10
13.2020761303
 20
7.9714211454
 30
0.0
 10
13.1989899271
 20
7.9863705249
 30
0.0
 10
13.1960121465
 20
8.0016785851
 30
0.0
 10
13.1931443437
 20
8.0173376365
 30
0.0
 10
13.1903879113
 20
8.0333398092
 30
0.0
 10
13.1877442825
 20
8.049677073
 30
0.0
 10
13.1843420383
 20
8.0720908504
 30
0.0
 10
13.1803902453
 20
8.1008881693
 30
0.0
 10
13.1761583449
 20
8.1363550923
 30
0.0
 10
13.1724051482
 20
8.1729545608
 30
0.0
 10
13.1691382735
 20
8.2106129629
 30
0.0
 10
13.166364379
 20
8.249254665
 30
0.0
 10
13.1640891138
 20
8.2888020016
 30
0.0
 10
13.1623171172
 20
8.3291754814
 30
0.0
 10
13.1610520076
 20
8.3702939373
 30
0.0
 10
13.1602963767
 20
8.4120746953
 30
0.0
 10
13.1600517843
 20
8.4544337416
 30
0.0
 10
13.1603187563
 20
8.497285893
 30
0.0
 10
13.1610967829
 20
8.5405449698
 30
0.0
 10
13.1623843208
 20
8.5841239701
 30
0.0
 10
13.1641787967
 20
8.6279352462
 30
0.0
 10
13.166476613
 20
8.6718906815
 30
0.0
 10
13.1692731549
 20
8.7159018685
 30
0.0
 10
13.1725628002
 20
8.7598802875
 30
0.0
 10
13.17633893
 20
8.8037374848
 30
0.0
 10
13.180593943
 20
8.8473852514
 30
0.0
 10
13.1853192698
 20
8.8907358011
 30
0.0
 10
13.1905053907
 20
8.9337019479
 30
0.0
 10
13.1961418543
 20
8.9761972818
 30
0.0
 10
13.2022172985
 20
9.0181363442
 30
0.0
 10
13.2087194722
 20
9.0594348012
 30
0.0
 10
13.2156352608
 20
9.100009614
 30
0.0
 10
13.222950712
 20
9.139779208
 30
0.0
 10
13.2306510635
 20
9.1786636375
 30
0.0
 10
13.2387207722
 20
9.2165847523
 30
0.0
 10
13.247143546
 20
9.2534663448
 30
0.0
 10
13.2559023727
 20
9.2892343542
 30
0.0
 10
13.2649795672
 20
9.3238168497
 30
0.0
 10
13.2728605986
 20
9.3518272065
 30
0.0
 10
13.2793180633
 20
9.3735852463
 30
0.0
 10
13.2841872349
 20
9.3894232534
 30
0.0
 10
13.2891220343
 20
9.4049143116
 30
0.0
 10
13.2941199356
 20
9.4200506541
 30
0.0
 10
13.2991784747
 20
9.4348246668
 30
0.0
 10
13.3042950526
 20
9.4492289364
 30
0.0
 10
13.3094671365
 20
9.4632562233
 30
0.0
 10
13.3146920906
 20
9.4768994895
 30
0.0
 10
13.3199673014
 20
9.4901518855
 30
0.0
 10
13.3252901136
 20
9.5030067617
 30
0.0
 10
13.3306578322
 20
9.5154576758
 30
0.0
 10
13.3360677911
 20
9.5274983784
 30
0.0
 10
13.3415172218
 20
9.5391228506
 30
0.0
 10
13.3470034483
 20
9.5503252566
 30
0.0
 10
13.3525236478
 20
9.5611000141
 30
0.0
 10
13.3580751265
 20
9.5714417155
 30
0.0
 10
13.3636550329
 20
9.5813452222
 30
0.0
 10
13.3692606424
 20
9.5908055769
 30
0.0
 10
13.3748891167
 20
9.599818094
 30
0.0
 10
13.3805376978
 20
9.6083782797
 30
0.0
 10
13.3862035616
 20
9.6164818788
 30
0.0
 10
13.3918839009
 20
9.6241248915
 30
0.0
 10
13.397576003
 20
9.6313035526
 30
0.0
 10
13.4032771664
 20
9.638014417
 30
0.0
 10
13.4089844358
 20
9.6442538524
 30
0.0
 10
13.412870565
 20
9.6481770329
 30
0.0
 10
13.4148147088
 20
9.6500549317
 30
0.0
  0
SPLINE
  5
2FE
100
AcDbEntity
  8
0
100
AcDbSpline
 62
7
  6
CONTINUOUS
 70
0
 71
3
 72
94
 73
90
 74
0
 42
0.0000001
 43
0.0000001
 44
0.0000000001
 40
0.0
 40
0.0
 40
0.0
 40
0.0
 40
0.0027657057
 40
0.0055962981
 40
0.0085079966
 40
0.0115155829
 40
0.0178666323
 40
0.0212351308
 40
0.0247434562
 40
0.0283991963
 40
0.0322087476
 40
0.0361775044
 40
0.0403099589
 40
0.0446097519
 40
0.0490798618
 40
0.0537225857
 40
0.0585396704
 40
0.0635323843
 40
0.0687014934
 40
0.0740474172
 40
0.0795701747
 40
0.0852694565
 40
0.091144691
 40
0.0971949748
 40
0.1034192055
 40
0.1098160254
 40
0.1163838494
 40
0.1231209385
 40
0.1300253109
 40
0.1443270069
 40
0.159270318
 40
0.1748339937
 40
0.1909947048
 40
0.2077272334
 40
0.2250046434
 40
0.2427984491
 40
0.2610787502
 40
0.2798143536
 40
0.2989728763
 40
0.3185208638
 40
0.3384238996
 40
0.3586467028
 40
0.3791532199
 40
0.3999067152
 40
0.4208698734
 40
0.4420048912
 40
0.4632735655
 40
0.4846373803
 40
0.5060576001
 40
0.527495362
 40
0.5489117625
 40
0.5702679449
 40
0.5915251922
 40
0.6126450177
 40
0.633589253
 40
0.6543201353
 40
0.6748004004
 40
0.6949933821
 40
0.7148630994
 40
0.734374348
 40
0.7534927959
 40
0.7721850927
 40
0.7904189763
 40
0.8081633719
 40
0.8253885057
 40
0.8420660328
 40
0.8581691908
 40
0.8736729439
 40
0.8885541504
 40
0.8957547599
 40
0.902792044
 40
0.9096637145
 40
0.9163677003
 40
0.9229020774
 40
0.9292651017
 40
0.9354552728
 40
0.9414712511
 40
0.9473119785
 40
0.9529766342
 40
0.9584646558
 40
0.9637758421
 40
0.9689102699
 40
0.9738684083
 40
0.9786511234
 40
0.9832597308
 40
0.9876961929
 40
0.9919630011
 40
0.9960631041
 40
1.0
 40
1.0
 40
1.0
 40
1.0
 10
13.3018447914
 20
8.0888677673
 30
0.0
 10
13.3007228834
 20
8.0891972638
 30
0.0
 10
13.2984801256
 20
8.0899610038
 30
0.0
 10
13.2951768957
 20
8.0913936792
 30
0.0
 10
13.2919029067
 20
8.0931235281
 30
0.0
 10
13.2875000782
 20
8.0958739883
 30
0.0
 10
13.2832402088
 20
8.0991890589
 30
0.0
 10
13.2791334915
 20
8.1029876058
 30
0.0
 10
13.2760290139
 20
8.106183096
 30
0.0
 10
13.2729627542
 20
8.1096670383
 30
0.0
 10
13.269935629
 20
8.1134379975
 30
0.0
 10
13.2669490842
 20
8.1174940993
 30
0.0
 10
13.2640044618
 20
8.121833458
 30
0.0
 10
13.2611030425
 20
8.1264539742
 30
0.0
 10
13.2582462303
 20
8.1313534968
 30
0.0
 10
13.255435313
 20
8.1365296769
 30
0.0
 10
13.25267161
 20
8.1419800562
 30
0.0
 10
13.2499564732
 20
8.1477020536
 30
0.0
 10
13.2472911305
 20
8.1536929151
 30
0.0
 10
13.2446769123
 20
8.1599497942
 30
0.0
 10
13.2421150479
 20
8.1664696839
 30
0.0
 10
13.2396067537
 20
8.1732494536
 30
0.0
 10
13.2371532879
 20
8.1802858574
 30
0.0
 10
13.2347557768
 20
8.1875754981
 30
0.0
 10
13.2324154217
 20
8.1951148749
 30
0.0
 10
13.2301333455
 20
8.2029003535
 30
0.0
 10
13.227910631
 20
8.210928175
 30
0.0
 10
13.2257483891
 20
8.2191944834
 30
0.0
 10
13.2229141263
 20
8.2306636596
 30
0.0
 10
13.2195387439
 20
8.2455713746
 30
0.0
 10
13.2157914005
 20
8.264142963
 30
0.0
 10
13.2123085244
 20
8.2835648878
 30
0.0
 10
13.2090969201
 20
8.3037996208
 30
0.0
 10
13.2061628812
 20
8.3248081626
 30
0.0
 10
13.2035121422
 20
8.3465499438
 30
0.0
 10
13.2011498922
 20
8.3689829689
 30
0.0
 10
13.1990807573
 20
8.3920638913
 30
0.0
 10
13.1973087966
 20
8.4157480974
 30
0.0
 10
13.1958374768
 20
8.4399897908
 30
0.0
 10
13.1946696775
 20
8.4647420861
 30
0.0
 10
13.1938076907
 20
8.4899571065
 30
0.0
 10
13.1932532155
 20
8.5155860771
 30
0.0
 10
13.1930073543
 20
8.5415794153
 30
0.0
 10
13.1930705959
 20
8.5678868275
 30
0.0
 10
13.1934428329
 20
8.59445741
 30
0.0
 10
13.1941233588
 20
8.62123975
 30
0.0
 10
13.1951108732
 20
8.6481820229
 30
0.0
 10
13.1964034734
 20
8.6752320924
 30
0.0
 10
13.1979986569
 20
8.7023376125
 30
0.0
 10
13.1998933386
 20
8.7294461307
 30
0.0
 10
13.2020838536
 20
8.7565051883
 30
0.0
 10
13.204565967
 20
8.7834624215
 30
0.0
 10
13.2073348657
 20
8.8102656654
 30
0.0
 10
13.2103851802
 20
8.8368630558
 30
0.0
 10
13.2137109973
 20
8.8632031273
 30
0.0
 10
13.2173058714
 20
8.8892349122
 30
0.0
 10
13.2211628344
 20
8.9149080423
 30
0.0
 10
13.2252743969
 20
8.9401728506
 30
0.0
 10
13.2296325789
 20
8.9649804648
 30
0.0
 10
13.2342289215
 20
8.9892828985
 30
0.0
 10
13.2390545071
 20
9.0130331463
 30
0.0
 10
13.2440999642
 20
9.0361852826
 30
0.0
 10
13.2493554868
 20
9.0586945532
 30
0.0
 10
13.2548108635
 20
9.0805174565
 30
0.0
 10
13.2604554939
 20
9.1016118302
 30
0.0
 10
13.2662784138
 20
9.1219369282
 30
0.0
 10
13.2722682959
 20
9.1414535589
 30
0.0
 10
13.2784134972
 20
9.1601240012
 30
0.0
 10
13.2837103457
 20
9.1751073608
 30
0.0
 10
13.2880224558
 20
9.1866388091
 30
0.0
 10
13.291252418
 20
9.1949588535
 30
0.0
 10
13.2945122084
 20
9.2030412995
 30
0.0
 10
13.2978002273
 20
9.2108822616
 30
0.0
 10
13.3011148866
 20
9.2184779541
 30
0.0
 10
13.3044546097
 20
9.225824706
 30
0.0
 10
13.307817733
 20
9.2329189916
 30
0.0
 10
13.3112026823
 20
9.2397573779
 30
0.0
 10
13.3146077923
 20
9.2463365834
 30
0.0
 10
13.3180314142
 20
9.2526534481
 30
0.0
 10
13.321471941
 20
9.2587049226
 30
0.0
 10
13.3249276661
 20
9.2644881322
 30
0.0
 10
13.328396985
 20
9.2700002838
 30
0.0
 10
13.3318782093
 20
9.2752387412
 30
0.0
 10
13.3353696456
 20
9.2802010091
 30
0.0
 10
13.3388697111
 20
9.2848847112
 30
0.0
 10
13.3423767444
 20
9.2892876915
 30
0.0
 10
13.3458891963
 20
9.2934078506
 30
0.0
 10
13.3494052085
 20
9.2972430352
 30
0.0
 10
13.3517982862
 20
9.2996568661
 30
0.0
 10
13.3529954508
 20
9.3008132384
 30
0.0
  0
SPLINE
  5
2FF
100
AcDbEntity
  8
0
100
AcDbSpline
 62
7
  6
CONTINUOUS
 70
0
 71
3
 72
15
 73
11
 74
0
 42
0.0000001
 43
0.0000001
 44
0.0000000001
 40
0.0
 40
0.0
 40
0.0
 40
0.0
 40
0.1080210572
 40
0.2193195885
 40
0.3348170768
 40
0.4553252994
 40
0.5815482119
 40
0.714086333
 40
0.8534392315
 40
1.0
 40
1.0
 40
1.0
 40
1.0
 10
13.3872282621
 20
9.3200477635
 30
0.0
 10
13.3858075211
 20
9.3198371496
 30
0.0
 10
13.382943454
 20
9.3192581656
 30
0.0
 10
13.3786815173
 20
9.3179502326
 30
0.0
 10
13.374403981
 20
9.3161943288
 30
0.0
 10
13.3701143689
 20
9.3139929876
 30
0.0
 10
13.3658152448
 20
9.311348425
 30
0.0
 10
13.3615091318
 20
9.3082630792
 30
0.0
 10
13.3571989667
 20
9.3047396286
 30
0.0
 10
13.3543970607
 20
9.3021670897
 30
0.0
 10
13.3529954508
 20
9.3008132384
 30
0.0
  0
SPLINE
  5
300
100
AcDbEntity
  8
0
100
AcDbSpline
 62
7
  6
CONTINUOUS
 70
0
 71
3
 72
98
 73
94
 74
0
 42
0.0000001
 43
0.0000001
 44
0.0000000001
 40
0.0
 40
0.0
 40
0.0
 40
0.0
 40
0.0040392533
 40
0.0082525052
 40
0.0126435861
 40
0.0172157123
 40
0.0219715647
 40
0.0269131929
 40
0.0320419239
 40
0.0373586131
 40
0.0428636388
 40
0.048556982
 40
0.0544382804
 40
0.060506772
 40
0.0667614465
 40
0.0732009668
 40
0.0798237534
 40
0.086628005
 40
0.0936116511
 40
0.100772472
 40
0.1081080025
 40
0.1156156232
 40
0.1311355426
 40
0.1473082613
 40
0.1641071947
 40
0.1815036736
 40
0.1994671419
 40
0.2179653288
 40
0.2369644024
 40
0.2564291049
 40
0.2763228935
 40
0.2966080696
 40
0.3172458986
 40
0.3381967254
 40
0.359420084
 40
0.3808748107
 40
0.4025191583
 40
0.4243109046
 40
0.4462074583
 40
0.4681659658
 40
0.4901434183
 40
0.5120967618
 40
0.5339830025
 40
0.5557593132
 40
0.5773831384
 40
0.5988123051
 40
0.6200051327
 40
0.6409205395
 40
0.6615181511
 40
0.6817584119
 40
0.7016027004
 40
0.7210134537
 40
0.7399542826
 40
0.7583900966
 40
0.776287237
 40
0.7936136215
 40
0.8103389123
 40
0.8264346877
 40
0.8418746363
 40
0.8493412275
 40
0.8566350848
 40
0.8637536106
 40
0.8706944332
 40
0.8774553214
 40
0.884034309
 40
0.8904296239
 40
0.8966397379
 40
0.9026634207
 40
0.9084996745
 40
0.9141478772
 40
0.9196077083
 40
0.924879243
 40
0.9299630012
 40
0.9348599258
 40
0.9395715513
 40
0.9440999546
 40
0.9484479117
 40
0.9526189657
 40
0.9566174851
 40
0.9604488712
 40
0.9641195793
 40
0.9676373449
 40
0.9710112874
 40
0.9742520401
 40
0.9773719326
 40
0.9803850033
 40
0.9833070965
 40
0.9861557592
 40
0.9889500779
 40
0.9917103944
 40
0.9944578668
 40
0.9972139803
 40
1.0
 40
1.0
 40
1.0
 40
1.0
 10
13.3529954508
 20
8.1069288464
 30
0.0
 10
13.3542402923
 20
8.108131271
 30
0.0
 10
13.3567285544
 20
8.1106454274
 30
0.0
 10
13.3603814145
 20
8.1146479139
 30
0.0
 10
13.3640302555
 20
8.1189578301
 30
0.0
 10
13.3676730324
 20
8.1235727475
 30
0.0
 10
13.3713080007
 20
8.1284903165
 30
0.0
 10
13.3749333041
 20
8.1337080812
 30
0.0
 10
13.378547169
 20
8.1392233398
 30
0.0
 10
13.3821476643
 20
8.1450332711
 30
0.0
 10
13.385732951
 20
8.1511348555
 30
0.0
 10
13.3893011899
 20
8.1575249367
 30
0.0
 10
13.3928504885
 20
8.1642002266
 30
0.0
 10
13.3963790624
 20
8.1711572438
 30
0.0
 10
13.3998850155
 20
8.1783923973
 30
0.0
 10
13.4033665549
 20
8.1859019152
 30
0.0
 10
13.4068218618
 20
8.1936818956
 30
0.0
 10
13.4102491023
 20
8.201728298
 30
0.0
 10
13.4136465376
 20
8.2100369216
 30
0.0
 10
13.4170123328
 20
8.21860345
 30
0.0
 10
13.4203447868
 20
8.2274234161
 30
0.0
 10
13.4247904108
 20
8.2396505546
 30
0.0
 10
13.4302434292
 20
8.2555389922
 30
0.0
 10
13.4365565502
 20
8.2753358819
 30
0.0
 10
13.4426961362
 20
8.2960273339
 30
0.0
 10
13.4486493012
 20
8.3175701681
 30
0.0
 10
13.4544035479
 20
8.3399195305
 30
0.0
 10
13.4599467987
 20
8.3630288234
 30
0.0
 10
13.4652674182
 20
8.3868498517
 30
0.0
 10
13.4703542487
 20
8.4113329101
 30
0.0
 10
13.4751966255
 20
8.4364268973
 30
0.0
 10
13.4797843972
 20
8.4620794281
 30
0.0
 10
13.4841079478
 20
8.4882369454
 30
0.0
 10
13.4881582146
 20
8.5148448309
 30
0.0
 10
13.4919267121
 20
8.5418475175
 30
0.0
 10
13.4954055526
 20
8.5691886071
 30
0.0
 10
13.4985874538
 20
8.5968109928
 30
0.0
 10
13.5014657561
 20
8.624656979
 30
0.0
 10
13.5040344354
 20
8.6526684013
 30
0.0
 10
13.5062881157
 20
8.6807867472
 30
0.0
 10
13.5082220899
 20
8.7089532788
 30
0.0
 10
13.5098323207
 20
8.7371091581
 30
0.0
 10
13.511115448
 20
8.7651955701
 30
0.0
 10
13.5120687972
 20
8.7931538448
 30
0.0
 10
13.5126903826
 20
8.8209255801
 30
0.0
 10
13.5129789203
 20
8.8484527653
 30
0.0
 10
13.5129338289
 20
8.8756779047
 30
0.0
 10
13.5125552253
 20
8.9025441367
 30
0.0
 10
13.5118439257
 20
8.9289953519
 30
0.0
 10
13.5108014439
 20
8.9549763103
 30
0.0
 10
13.5094299905
 20
8.9804327615
 30
0.0
 10
13.5077324765
 20
9.0053115608
 30
0.0
 10
13.5057124976
 20
9.0295607821
 30
0.0
 10
13.5033743281
 20
9.0531298228
 30
0.0
 10
13.500722913
 20
9.0759695159
 30
0.0
 10
13.4977638541
 20
9.0980322262
 30
0.0
 10
13.4945034178
 20
9.1192720078
 30
0.0
 10
13.4909484854
 20
9.1396445362
 30
0.0
 10
13.4877118925
 20
9.1560415152
 30
0.0
 10
13.4849738359
 20
9.1686890773
 30
0.0
 10
13.4828743533
 20
9.1778259376
 30
0.0
 10
13.4807070934
 20
9.1867152538
 30
0.0
 10
13.4784732274
 20
9.1953524078
 30
0.0
 10
13.4761738727
 20
9.2037328923
 30
0.0
 10
13.4738102737
 20
9.2118523494
 30
0.0
 10
13.4713836533
 20
9.2197065538
 30
0.0
 10
13.4688952583
 20
9.2272914172
 30
0.0
 10
13.4663464378
 20
9.2346030088
 30
0.0
 10
13.4637384555
 20
9.2416375212
 30
0.0
 10
13.4610727256
 20
9.2483913209
 30
0.0
 10
13.4583506018
 20
9.254860907
 30
0.0
 10
13.4555734837
 20
9.2610429323
 30
0.0
 10
13.4527428485
 20
9.2669342248
 30
0.0
 10
13.449860076
 20
9.2725317276
 30
0.0
 10
13.4469267065
 20
9.277832594
 30
0.0
 10
13.4439441719
 20
9.2828340914
 30
0.0
 10
13.4409139709
 20
9.2875336636
 30
0.0
 10
13.4378376335
 20
9.2919289329
 30
0.0
 10
13.4347165812
 20
9.2960176089
 30
0.0
 10
13.4315523832
 20
9.2997976453
 30
0.0
 10
13.4283464486
 20
9.3032670366
 30
0.0
 10
13.4251002719
 20
9.3064239635
 30
0.0
 10
13.4218153265
 20
9.3092667199
 30
0.0
 10
13.4184930171
 20
9.311793598
 30
0.0
 10
13.415134908
 20
9.314003117
 30
0.0
 10
13.4117424847
 20
9.3158936705
 30
0.0
 10
13.408317459
 20
9.3174638628
 30
0.0
 10
13.4048616609
 20
9.3187123404
 30
0.0
 10
13.4013771112
 20
9.3196378299
 30
0.0
 10
13.3978661272
 20
9.3202395015
 30
0.0
 10
13.3943310307
 20
9.3205165879
 30
0.0
 10
13.390774722
 20
9.3204690244
 30
0.0
 10
13.3884091107
 20
9.3202228151
 30
0.0
 10
13.3872282621
 20
9.3200477635
 30
0.0
  0
SPLINE
  5
301
100
AcDbEntity
  8
0
100
AcDbSpline
 62
7
  6
CONTINUOUS
 70
0
 71
3
 72
45
 73
41
 74
0
 42
0.0000001
 43
0.0000001
 44
0.0000000001
 40
0.0
 40
0.0
 40
0.0
 40
0.0
 40
0.0121712248
 40
0.0246516055
 40
0.0374344866
 40
0.0505128242
 40
0.0638792408
 40
0.0775260497
 40
0.1056281503
 40
0.1347521877
 40
0.1648266932
 40
0.1957765221
 40
0.2275232486
 40
0.259985536
 40
0.2930794875
 40
0.3267189846
 40
0.3608160161
 40
0.3952810002
 40
0.4300231027
 40
0.4649505521
 40
0.4999709533
 40
0.5349915989
 40
0.5699197809
 40
0.6046631022
 40
0.6391297877
 40
0.6732289981
 40
0.7068711445
 40
0.7399682064
 40
0.7724340543
 40
0.8041847782
 40
0.8351390262
 40
0.8652183556
 40
0.8943476021
 40
0.922455277
 40
0.9361049938
 40
0.9494744187
 40
0.9625558354
 40
0.9753418712
 40
0.9878254894
 40
1.0
 40
1.0
 40
1.0
 40
1.0
 10
13.2126766842
 20
8.281935811
 30
0.0
 10
13.2138750605
 20
8.2852520183
 30
0.0
 10
13.2162542613
 20
8.2919861005
 30
0.0
 10
13.2197297738
 20
8.3022594723
 30
0.0
 10
13.2231549071
 20
8.3128263633
 30
0.0
 10
13.2265272414
 20
8.3236792917
 30
0.0
 10
13.2298444076
 20
8.3348106233
 30
0.0
 10
13.2342334228
 20
8.350163166
 30
0.0
 10
13.2395566734
 20
8.3699951973
 30
0.0
 10
13.2456275126
 20
8.3945489655
 30
0.0
 10
13.251424752
 20
8.4200155268
 30
0.0
 10
13.2569319429
 20
8.4463230213
 30
0.0
 10
13.2621334558
 20
8.4733973104
 30
0.0
 10
13.2670145379
 20
8.5011620328
 30
0.0
 10
13.2715613505
 20
8.5295388702
 30
0.0
 10
13.275761008
 20
8.5584477592
 30
0.0
 10
13.2796016135
 20
8.5878071246
 30
0.0
 10
13.2830722921
 20
8.6175341104
 30
0.0
 10
13.2861632211
 20
8.6475448164
 30
0.0
 10
13.2888656576
 20
8.677754537
 30
0.0
 10
13.2911719627
 20
8.7080780013
 30
0.0
 10
13.2930756227
 20
8.7384296161
 30
0.0
 10
13.2945712682
 20
8.7687237081
 30
0.0
 10
13.2956546886
 20
8.7988747673
 30
0.0
 10
13.2963228446
 20
8.8287976896
 30
0.0
 10
13.2965738773
 20
8.8584080186
 30
0.0
 10
13.2964071141
 20
8.8876221854
 30
0.0
 10
13.2958230709
 20
8.9163577467
 30
0.0
 10
13.2948234516
 20
8.944533619
 30
0.0
 10
13.2934111455
 20
8.9720703139
 30
0.0
 10
13.2915902166
 20
8.998890154
 30
0.0
 10
13.2893659054
 20
9.0249175407
 30
0.0
 10
13.2867445748
 20
9.0500790182
 30
0.0
 10
13.2842115574
 20
9.0704602144
 30
0.0
 10
13.281985121
 20
9.0862751857
 30
0.0
 10
13.2802372368
 20
9.0977606363
 30
0.0
 10
13.2783962619
 20
9.1089780499
 30
0.0
 10
13.2764634908
 20
9.1199195342
 30
0.0
 10
13.2744403115
 20
9.1305773447
 30
0.0
 10
13.2730140576
 20
9.1375774342
 30
0.0
 10
13.2722852332
 20
9.1410283567
 30
0.0
  0
SPLINE
  5
302
100
AcDbEntity
  8
0
100
AcDbSpline
 62
7
  6
CONTINUOUS
 70
0
 71
3
 72
23
 73
19
 74
0
 42
0.0000001
 43
0.0000001
 44
0.0000000001
 40
0.0
 40
0.0
 40
0.0
 40
0.0
 40
0.0604580291
 40
0.1217291138
 40
0.1837006369
 40
0.2462583062
 40
0.3092864386
 40
0.3726682295
 40
0.4362860227
 40
0.5000216123
 40
0.5637565205
 40
0.6273722648
 40
0.6907506391
 40
0.7537740087
 40
0.8163255806
 40
0.8782896723
 40
0.9395520013
 40
1.0
 40
1.0
 40
1.0
 40
1.0
 10
13.1931697031
 20
8.537115048
 30
0.0
 10
13.1943250111
 20
8.5441867047
 30
0.0
 10
13.1965611525
 20
8.5584399761
 30
0.0
 10
13.1996730634
 20
8.5799888981
 30
0.0
 10
13.2025609713
 20
8.6018200402
 30
0.0
 10
13.2052191299
 20
8.6238900843
 30
0.0
 10
13.2076422611
 20
8.6461552967
 30
0.0
 10
13.2098255448
 20
8.6685715399
 30
0.0
 10
13.2117646518
 20
8.6910943772
 30
0.0
 10
13.2134557392
 20
8.7136791591
 30
0.0
 10
13.2148954532
 20
8.7362811143
 30
0.0
 10
13.2160809342
 20
8.7588554368
 30
0.0
 10
13.2170098353
 20
8.7813573751
 30
0.0
 10
13.2176803278
 20
8.8037423232
 30
0.0
 10
13.2180910911
 20
8.8259659043
 30
0.0
 10
13.2182413173
 20
8.8479840764
 30
0.0
 10
13.2181307171
 20
8.8697531487
 30
0.0
 10
13.2178814432
 20
8.8841763834
 30
0.0
 10
13.217712328
 20
8.891338606
 30
0.0
  0
SPLINE
  5
303
100
AcDbEntity
  8
0
100
AcDbSpline
 62
7
  6
CONTINUOUS
 70
0
 71
3
 72
48
 73
44
 74
0
 42
0.0000001
 43
0.0000001
 44
0.0000000001
 40
0.0
 40
0.0
 40
0.0
 40
0.0
 40
0.0149718897
 40
0.0299468369
 40
0.0449278839
 40
0.0599180336
 40
0.0749202322
 40
0.0899373568
 40
0.1049721887
 40
0.1200274064
 40
0.1351055645
 40
0.1502090774
 40
0.1653402142
 40
0.180501073
 40
0.1956935825
 40
0.2109194836
 40
0.2261803205
 40
0.2414774416
 40
0.2568119786
 40
0.2721848576
 40
0.3030428416
 40
0.3340598877
 40
0.365235493
 40
0.3965657058
 40
0.4280432614
 40
0.4596577825
 40
0.4913960356
 40
0.5232422374
 40
0.5551784039
 40
0.5871847345
 40
0.6192400218
 40
0.6513220815
 40
0.6834081967
 40
0.7154755701
 40
0.7475017768
 40
0.7794652126
 40
0.8113455287
 40
0.8431240501
 40
0.8747841728
 40
0.9063117021
 40
0.9376953081
 40
0.9689262526
 40
1.0
 40
1.0
 40
1.0
 40
1.0
 10
12.7874345911
 20
6.7883067717
 30
0.0
 10
12.7845808975
 20
6.7855503035
 30
0.0
 10
12.7787626926
 20
6.7801496243
 30
0.0
 10
12.7697193601
 20
6.7724009905
 30
0.0
 10
12.7603715667
 20
6.7650143967
 30
0.0
 10
12.7507322742
 20
6.7580002816
 30
0.0
 10
12.7408147774
 20
6.7513681477
 30
0.0
 10
12.7306326892
 20
6.745127201
 30
0.0
 10
12.7202000352
 20
6.7392860035
 30
0.0
 10
12.7095311949
 20
6.7338525469
 30
0.0
 10
12.6986408068
 20
6.728834394
 30
0.0
 10
12.6875439106
 20
6.7242383288
 30
0.0
 10
12.6762557346
 20
6.7200707675
 30
0.0
 10
12.6647918356
 20
6.7163373812
 30
0.0
 10
12.6531679865
 20
6.7130432884
 30
0.0
 10
12.6414001672
 20
6.7101930841
 30
0.0
 10
12.6295045781
 20
6.7077905674
 30
0.0
 10
12.6174976185
 20
6.7058391518
 30
0.0
 10
12.6053956031
 20
6.7043414253
 30
0.0
 10
12.5891368562
 20
6.7029504903
 30
0.0
 10
12.5686536475
 20
6.7023591003
 30
0.0
 10
12.5439987204
 20
6.7034839154
 30
0.0
 10
12.5193688388
 20
6.7064354008
 30
0.0
 10
12.4949002587
 20
6.7111971463
 30
0.0
 10
12.4707271146
 20
6.7177426968
 30
0.0
 10
12.4469821941
 20
6.726035874
 30
0.0
 10
12.4237958181
 20
6.7360309388
 30
0.0
 10
12.4012952352
 20
6.7476728342
 30
0.0
 10
12.3796039032
 20
6.7608974951
 30
0.0
 10
12.3588408365
 20
6.7756322157
 30
0.0
 10
12.3391199586
 20
6.7917960417
 30
0.0
 10
12.3205494874
 20
6.8093002119
 30
0.0
 10
12.3032313474
 20
6.8280486381
 30
0.0
 10
12.287260595
 20
6.84793841
 30
0.0
 10
12.2727249227
 20
6.8688603775
 30
0.0
 10
12.259704182
 20
6.8906997394
 30
0.0
 10
12.2482699489
 20
6.9133366686
 30
0.0
 10
12.2384851356
 20
6.9366469466
 30
0.0
 10
12.2304036366
 20
6.9605026809
 30
0.0
 10
12.2240699896
 20
6.984772812
 30
0.0
 10
12.2195192725
 20
7.0093245198
 30
0.0
 10
12.216776624
 20
7.0340212487
 30
0.0
 10
12.2161623415
 20
7.050538447
 30
0.0
 10
12.2161623415
 20
7.0587730489
 30
0.0
  0
SPLINE
  5
304
100
AcDbEntity
  8
0
100
AcDbSpline
 62
7
  6
CONTINUOUS
 70
0
 71
3
 72
23
 73
19
 74
0
 42
0.0000001
 43
0.0000001
 44
0.0000000001
 40
0.0
 40
0.0
 40
0.0
 40
0.0
 40
0.063776909
 40
0.1273449468
 40
0.1907019575
 40
0.2538561145
 40
0.3168131979
 40
0.3795820804
 40
0.4421733815
 40
0.5045993354
 40
0.5668738682
 40
0.6290123838
 40
0.6910316538
 40
0.75294965
 40
0.8147853622
 40
0.8765586114
 40
0.9382898593
 40
1.0
 40
1.0
 40
1.0
 40
1.0
 10
12.2161623415
 20
7.0587730489
 30
0.0
 10
12.2161623415
 20
7.0640804977
 30
0.0
 10
12.2164163855
 20
7.0746798113
 30
0.0
 10
12.2175629618
 20
7.0905142962
 30
0.0
 10
12.219472044
 20
7.106223274
 30
0.0
 10
12.2221390441
 20
7.1217698456
 30
0.0
 10
12.2255580163
 20
7.1371184785
 30
0.0
 10
12.2297210533
 20
7.1522336917
 30
0.0
 10
12.234618579
 20
7.1670806645
 30
0.0
 10
12.2402393446
 20
7.1816251592
 30
0.0
 10
12.2465704393
 20
7.1958336222
 30
0.0
 10
12.2535972922
 20
7.2096732803
 30
0.0
 10
12.2613036991
 20
7.2231122177
 30
0.0
 10
12.2696719156
 20
7.2361194409
 30
0.0
 10
12.2786826476
 20
7.2486649039
 30
0.0
 10
12.2883152359
 20
7.2607197546
 30
0.0
 10
12.2985470719
 20
7.2722558169
 30
0.0
 10
12.3057534083
 20
7.2795842937
 30
0.0
 10
12.3094470998
 20
7.2831521411
 30
0.0
  0
SPLINE
  5
305
100
AcDbEntity
  8
0
100
AcDbSpline
 62
7
  6
CONTINUOUS
 70
0
 71
3
 72
103
 73
99
 74
0
 42
0.0000001
 43
0.0000001
 44
0.0000000001
 40
0.0
 40
0.0
 40
0.0
 40
0.0
 40
0.0027164048
 40
0.0054531862
 40
0.0082302278
 40
0.0110664952
 40
0.0139796738
 40
0.0169859521
 40
0.0200998844
 40
0.0233343666
 40
0.026700688
 40
0.0302086012
 40
0.033866481
 40
0.0376814028
 40
0.0416593405
 40
0.04580522
 40
0.050123109
 40
0.0546162515
 40
0.059287218
 40
0.0641379428
 40
0.0691698167
 40
0.0743837442
 40
0.0797801764
 40
0.0853591945
 40
0.0911204909
 40
0.097063473
 40
0.1031872122
 40
0.1094905507
 40
0.115972045
 40
0.1226300528
 40
0.129462696
 40
0.1364679111
 40
0.1436434462
 40
0.1509868675
 40
0.1584955951
 40
0.1661668689
 40
0.1739978144
 40
0.1819853836
 40
0.1901264332
 40
0.1984176611
 40
0.2154367725
 40
0.2330143466
 40
0.251120167
 40
0.2697225161
 40
0.2887883097
 40
0.3082832214
 40
0.3281718007
 40
0.3484175849
 40
0.3689832078
 40
0.3898305045
 40
0.4109206147
 40
0.4322140837
 40
0.4536709631
 40
0.4752509101
 40
0.4969132863
 40
0.5186172556
 40
0.5403218829
 40
0.561986231
 40
0.5835694595
 40
0.6050309218
 40
0.6263302644
 40
0.6474275243
 40
0.6682832297
 40
0.6888584996
 40
0.7091151451
 40
0.7290157726
 40
0.748523889
 40
0.7676040092
 40
0.7862217692
 40
0.8043440428
 40
0.8219390666
 40
0.8389765737
 40
0.8472773366
 40
0.8554281366
 40
0.8634256636
 40
0.8712667662
 40
0.8789483877
 40
0.8864676444
 40
0.8938217669
 40
0.9010081646
 40
0.9080243933
 40
0.9148681894
 40
0.9215374772
 40
0.9280303652
 40
0.9343451972
 40
0.940480514
 40
0.946435142
 40
0.9522081344
 40
0.9577988776
 40
0.9632070413
 40
0.9684326863
 40
0.9734762434
 40
0.9783385761
 40
0.9830210188
 40
0.9875254912
 40
0.9918546128
 40
0.9960115506
 40
1.0
 40
1.0
 40
1.0
 40
1.0
 10
13.4828918594
 20
9.6812260949
 30
0.0
 10
13.4847283735
 20
9.6810987317
 30
0.0
 10
13.4884057778
 20
9.6806768518
 30
0.0
 10
13.4938750529
 20
9.6795478071
 30
0.0
 10
13.4993030073
 20
9.6779228622
 30
0.0
 10
13.5046857467
 20
9.6758034851
 30
0.0
 10
13.5100205102
 20
9.6731916283
 30
0.0
 10
13.5153045517
 20
9.6700893012
 30
0.0
 10
13.5205354354
 20
9.6664987203
 30
0.0
 10
13.5257108528
 20
9.662422177
 30
0.0
 10
13.5308285324
 20
9.6578620166
 30
0.0
 10
13.5358863231
 20
9.652820782
 30
0.0
 10
13.5408819424
 20
9.6473010408
 30
0.0
 10
13.545813263
 20
9.6413056596
 30
0.0
 10
13.550677954
 20
9.6348375606
 30
0.0
 10
13.5554738663
 20
9.6278999998
 30
0.0
 10
13.5601986594
 20
9.6204963438
 30
0.0
 10
13.5648501546
 20
9.6126302735
 30
0.0
 10
13.569426055
 20
9.6043056392
 30
0.0
 10
13.5739241619
 20
9.5955265639
 30
0.0
 10
13.5783422602
 20
9.5862973863
 30
0.0
 10
13.5826781511
 20
9.5766226785
 30
0.0
 10
13.586929719
 20
9.5665072555
 30
0.0
 10
13.5910947909
 20
9.5559561391
 30
0.0
 10
13.5951713523
 20
9.5449746028
 30
0.0
 10
13.5991572862
 20
9.5335681141
 30
0.0
 10
13.6030506688
 20
9.5217423862
 30
0.0
 10
13.6068494715
 20
9.5095033241
 30
0.0
 10
13.6105518458
 20
9.4968570638
 30
0.0
 10
13.6141558789
 20
9.4838099357
 30
0.0
 10
13.617659788
 20
9.470368484
 30
0.0
 10
13.6210617918
 20
9.4565394486
 30
0.0
 10
13.6243601731
 20
9.4423297695
 30
0.0
 10
13.6275532873
 20
9.4277465791
 30
0.0
 10
13.6306394905
 20
9.4127971997
 30
0.0
 10
13.6336172711
 20
9.3974891395
 30
0.0
 10
13.636485074
 20
9.381830088
 30
0.0
 10
13.6392415063
 20
9.3658279153
 30
0.0
 10
13.6418851351
 20
9.3494906515
 30
0.0
 10
13.6452873793
 20
9.3270768741
 30
0.0
 10
13.6492391723
 20
9.2982795553
 30
0.0
 10
13.6534710727
 20
9.2628126323
 30
0.0
 10
13.6572242694
 20
9.2262131637
 30
0.0
 10
13.6604911441
 20
9.1885547617
 30
0.0
 10
13.6632650386
 20
9.1499130595
 30
0.0
 10
13.6655403039
 20
9.110365723
 30
0.0
 10
13.6673123005
 20
9.0699922432
 30
0.0
 10
13.66857741
 20
9.0288737873
 30
0.0
 10
13.6693330409
 20
8.9870930293
 30
0.0
 10
13.6695776333
 20
8.944733983
 30
0.0
 10
13.6693106613
 20
8.9018818316
 30
0.0
 10
13.6685326347
 20
8.8586227548
 30
0.0
 10
13.6672450968
 20
8.8150437544
 30
0.0
 10
13.6654506209
 20
8.7712324784
 30
0.0
 10
13.6631528046
 20
8.7272770431
 30
0.0
 10
13.6603562627
 20
8.683265856
 30
0.0
 10
13.6570666175
 20
8.639287437
 30
0.0
 10
13.6532904876
 20
8.5954302397
 30
0.0
 10
13.6490354746
 20
8.5517824732
 30
0.0
 10
13.6443101478
 20
8.5084319234
 30
0.0
 10
13.6391240269
 20
8.4654657767
 30
0.0
 10
13.6334875633
 20
8.4229704428
 30
0.0
 10
13.6274121191
 20
8.3810313803
 30
0.0
 10
13.6209099454
 20
8.3397329233
 30
0.0
 10
13.6139941568
 20
8.2991581105
 30
0.0
 10
13.6066787056
 20
8.2593885165
 30
0.0
 10
13.5989783541
 20
8.220504087
 30
0.0
 10
13.5909086455
 20
8.1825829722
 30
0.0
 10
13.5824858717
 20
8.1457013797
 30
0.0
 10
13.5737270449
 20
8.1099333704
 30
0.0
 10
13.5646498504
 20
8.0753508749
 30
0.0
 10
13.556768819
 20
8.0473405181
 30
0.0
 10
13.5503113544
 20
8.0255824783
 30
0.0
 10
13.5454421827
 20
8.0097444712
 30
0.0
 10
13.5405073833
 20
7.994253413
 30
0.0
 10
13.535509482
 20
7.9791170705
 30
0.0
 10
13.5304509429
 20
7.9643430577
 30
0.0
 10
13.525334365
 20
7.9499387881
 30
0.0
 10
13.5201622811
 20
7.9359115013
 30
0.0
 10
13.514937327
 20
7.9222682351
 30
0.0
 10
13.5096621162
 20
7.9090158391
 30
0.0
 10
13.504339304
 20
7.8961609629
 30
0.0
 10
13.4989715854
 20
7.8837100488
 30
0.0
 10
13.4935616265
 20
7.8716693462
 30
0.0
 10
13.4881121958
 20
7.8600448739
 30
0.0
 10
13.4826259693
 20
7.8488424679
 30
0.0
 10
13.4771057698
 20
7.8380677104
 30
0.0
 10
13.4715542911
 20
7.8277260091
 30
0.0
 10
13.4659743847
 20
7.8178225023
 30
0.0
 10
13.4603687752
 20
7.8083621476
 30
0.0
 10
13.4547403009
 20
7.7993496305
 30
0.0
 10
13.4490917198
 20
7.7907894448
 30
0.0
 10
13.443425856
 20
7.7826858457
 30
0.0
 10
13.4377455167
 20
7.775042833
 30
0.0
 10
13.4320534146
 20
7.767864172
 30
0.0
 10
13.4263522512
 20
7.7611533075
 30
0.0
 10
13.4206449818
 20
7.7549138722
 30
0.0
 10
13.4167588526
 20
7.7509906917
 30
0.0
 10
13.4148147088
 20
7.7491127929
 30
0.0
  0
SPLINE
  5
306
100
AcDbEntity
  8
0
100
AcDbSpline
 62
7
  6
CONTINUOUS
 70
0
 71
3
 72
23
 73
19
 74
0
 42
0.0000001
 43
0.0000001
 44
0.0000000001
 40
0.0
 40
0.0
 40
0.0
 40
0.0
 40
0.0764219057
 40
0.1504656864
 40
0.2222015765
 40
0.2917109238
 40
0.3590900758
 40
0.4244474746
 40
0.487903775
 40
0.5495925967
 40
0.6096609602
 40
0.6682702092
 40
0.7255962386
 40
0.7818281892
 40
0.8371677688
 40
0.8918276742
 40
0.9460292214
 40
1.0
 40
1.0
 40
1.0
 40
1.0
 10
13.4148147088
 20
7.7491127929
 30
0.0
 10
13.413401565
 20
7.7477478007
 30
0.0
 10
13.4105758288
 20
7.7451047311
 30
0.0
 10
13.4062698809
 20
7.7413489483
 30
0.0
 10
13.4019658756
 20
7.7378667908
 30
0.0
 10
13.3976651008
 20
7.734659506
 30
0.0
 10
13.3933687635
 20
7.7317280046
 30
0.0
 10
13.3890779639
 20
7.72907315
 30
0.0
 10
13.384793799
 20
7.7266957843
 30
0.0
 10
13.3805174487
 20
7.7245966295
 30
0.0
 10
13.3762500705
 20
7.7227764537
 30
0.0
 10
13.3719928467
 20
7.7212359797
 30
0.0
 10
13.3677470252
 20
7.719975749
 30
0.0
 10
13.3635138385
 20
7.7189963485
 30
0.0
 10
13.3592946097
 20
7.7182982624
 30
0.0
 10
13.3550906334
 20
7.7178817871
 30
0.0
 10
13.3509035458
 20
7.7177472171
 30
0.0
 10
13.3481217705
 20
7.7178456338
 30
0.0
 10
13.3467375582
 20
7.7179416297
 30
0.0
  0
SPLINE
  5
307
100
AcDbEntity
  8
0
100
AcDbSpline
 62
7
  6
CONTINUOUS
 70
0
 71
3
 72
98
 73
94
 74
0
 42
0.0000001
 43
0.0000001
 44
0.0000000001
 40
0.0
 40
0.0
 40
0.0
 40
0.0
 40
0.0038708387
 40
0.0078979886
 40
0.0120847631
 40
0.0164340123
 40
0.0209481431
 40
0.025628999
 40
0.0304778625
 40
0.0354956281
 40
0.0406827844
 40
0.0460395181
 40
0.0515656706
 40
0.0572608086
 40
0.0631242459
 40
0.0691550357
 40
0.0753520473
 40
0.0817139043
 40
0.0882390804
 40
0.0949258439
 40
0.1017723124
 40
0.1087764522
 40
0.115936064
 40
0.1232488434
 40
0.1383237199
 40
0.1539802447
 40
0.1701955626
 40
0.1869451976
 40
0.2042031931
 40
0.2219422407
 40
0.2401337976
 40
0.2587481924
 40
0.2777547247
 40
0.297121759
 40
0.3168168151
 40
0.3368066543
 40
0.3570573654
 40
0.3775344491
 40
0.3982029008
 40
0.4190272912
 40
0.4399718466
 40
0.4610005291
 40
0.4820771158
 40
0.5031652792
 40
0.5242286668
 40
0.5452309808
 40
0.5661360566
 40
0.5869079429
 40
0.6075109807
 40
0.6279098845
 40
0.6480698241
 40
0.6679565057
 40
0.6875362538
 40
0.7067760954
 40
0.7256438456
 40
0.7441081959
 40
0.7621388068
 40
0.7797064059
 40
0.7967828883
 40
0.8133414248
 40
0.8293565813
 40
0.8371529501
 40
0.8448046435
 40
0.852308929
 40
0.8596632121
 40
0.8668649865
 40
0.8739119122
 40
0.8808017493
 40
0.8875324268
 40
0.8941020149
 40
0.9005087395
 40
0.9067510224
 40
0.912827435
 40
0.9187367898
 40
0.9244780754
 40
0.9300505425
 40
0.935453682
 40
0.9406872575
 40
0.945751359
 40
0.9506463763
 40
0.9553731136
 40
0.9599327475
 40
0.9643269465
 40
0.9685578798
 40
0.9726282939
 40
0.9765416059
 40
0.9803019347
 40
0.9839142616
 40
0.9873844559
 40
0.9907194448
 40
0.9939272789
 40
0.9970172519
 40
1.0
 40
1.0
 40
1.0
 40
1.0
 10
13.3529954508
 20
7.753399973
 30
0.0
 10
13.3548523154
 20
7.7551935666
 30
0.0
 10
13.3585641871
 20
7.7589334357
 30
0.0
 10
13.364020696
 20
7.7648677478
 30
0.0
 10
13.3694719033
 20
7.7712332318
 30
0.0
 10
13.3749151684
 20
7.7780267253
 30
0.0
 10
13.3803481566
 20
7.7852452156
 30
0.0
 10
13.3857684568
 20
7.7928854882
 30
0.0
 10
13.391173687
 20
7.8009440675
 30
0.0
 10
13.3965613072
 20
7.8094173208
 30
0.0
 10
13.401928947
 20
7.818301356
 30
0.0
 10
13.4072741052
 20
7.8275921612
 30
0.0
 10
13.4125943835
 20
7.8372854889
 30
0.0
 10
13.4178873388
 20
7.8473769217
 30
0.0
 10
13.4231505241
 20
7.8578618561
 30
0.0
 10
13.428381574
 20
7.8687354853
 30
0.0
 10
13.4335780247
 20
7.8799928533
 30
0.0
 10
13.4387375563
 20
7.8916287885
 30
0.0
 10
13.443857741
 20
7.9036379754
 30
0.0
 10
13.4489362617
 20
7.9160149007
 30
0.0
 10
13.453970773
 20
7.9287538936
 30
0.0
 10
13.458958939
 20
7.941849111
 30
0.0
 10
13.4638985215
 20
7.9552945493
 30
0.0
 10
13.4704833916
 20
7.9738687313
 30
0.0
 10
13.4785663258
 20
7.9979225572
 30
0.0
 10
13.4879408363
 20
8.027799296
 30
0.0
 10
13.4970685309
 20
8.0589180837
 30
0.0
 10
13.5059325518
 20
8.0912217612
 30
0.0
 10
13.5145165369
 20
8.1246511136
 30
0.0
 10
13.522804643
 20
8.1591447845
 30
0.0
 10
13.5307815756
 20
8.1946394532
 30
0.0
 10
13.5384326174
 20
8.2310699399
 30
0.0
 10
13.5457436554
 20
8.2683693331
 30
0.0
 10
13.5527012063
 20
8.3064691126
 30
0.0
 10
13.5592924403
 20
8.3452992773
 30
0.0
 10
13.5655052079
 20
8.3847884741
 30
0.0
 10
13.5713280613
 20
8.4248641312
 30
0.0
 10
13.5767502725
 20
8.4654525943
 30
0.0
 10
13.5817618537
 20
8.5064792634
 30
0.0
 10
13.5863535752
 20
8.5478687302
 30
0.0
 10
13.5905169823
 20
8.589544917
 30
0.0
 10
13.59424441
 20
8.6314312165
 30
0.0
 10
13.5975289999
 20
8.6734506328
 30
0.0
 10
13.6003647132
 20
8.7155259246
 30
0.0
 10
13.6027463388
 20
8.7575797479
 30
0.0
 10
13.6046695032
 20
8.7995347988
 30
0.0
 10
13.6061306787
 20
8.8413139555
 30
0.0
 10
13.6071271901
 20
8.88284042
 30
0.0
 10
13.6076572193
 20
8.9240378601
 30
0.0
 10
13.6077198104
 20
8.9648305505
 30
0.0
 10
13.6073148741
 20
9.0051435142
 30
0.0
 10
13.6064431844
 20
9.0449026607
 30
0.0
 10
13.6051063774
 20
9.0840349221
 30
0.0
 10
13.6033069492
 20
9.1224683884
 30
0.0
 10
13.6010482518
 20
9.1601324404
 30
0.0
 10
13.5983344868
 20
9.1969578807
 30
0.0
 10
13.5951706997
 20
9.2328770685
 30
0.0
 10
13.5915627727
 20
9.2678240349
 30
0.0
 10
13.5875174178
 20
9.3017346526
 30
0.0
 10
13.5830421364
 20
9.3345465939
 30
0.0
 10
13.5789255432
 20
9.3611565381
 30
0.0
 10
13.575415938
 20
9.3818456202
 30
0.0
 10
13.5727050913
 20
9.3969120009
 30
0.0
 10
13.5698933246
 20
9.411659824
 30
0.0
 10
13.5669819662
 20
9.4260823301
 30
0.0
 10
13.5639723041
 20
9.4401728933
 30
0.0
 10
13.5608657823
 20
9.4539250485
 30
0.0
 10
13.5576637859
 20
9.4673324835
 30
0.0
 10
13.5543678164
 20
9.4803890481
 30
0.0
 10
13.5509793919
 20
9.4930887557
 30
0.0
 10
13.5475000452
 20
9.5054257809
 30
0.0
 10
13.5439314286
 20
9.5173944766
 30
0.0
 10
13.5402751175
 20
9.5289893529
 30
0.0
 10
13.536532861
 20
9.5402051131
 30
0.0
 10
13.5327063203
 20
9.5510366197
 30
0.0
 10
13.5287972848
 20
9.561478929
 30
0.0
 10
13.5248075402
 20
9.5715272755
 30
0.0
 10
13.5207388811
 20
9.5811770703
 30
0.0
 10
13.5165932192
 20
9.5904239366
 30
0.0
 10
13.5123723602
 20
9.5992636484
 30
0.0
 10
13.5080782955
 20
9.6076922217
 30
0.0
 10
13.503712886
 20
9.6157058156
 30
0.0
 10
13.4992781283
 20
9.6233008244
 30
0.0
 10
13.4947759773
 20
9.6304738195
 30
0.0
 10
13.4902083806
 20
9.6372215517
 30
0.0
 10
13.4855773806
 20
9.6435410158
 30
0.0
 10
13.4808848687
 20
9.6494293044
 30
0.0
 10
13.4761329141
 20
9.6548838028
 30
0.0
 10
13.47132339
 20
9.6599019498
 30
0.0
 10
13.4664583353
 20
9.6644814152
 30
0.0
 10
13.4615395845
 20
9.6686200257
 30
0.0
 10
13.4565694327
 20
9.6723154415
 30
0.0
 10
13.4531666821
 20
9.6745187753
 30
0.0
 10
13.4514598103
 20
9.6755405699
 30
0.0
  0
SPLINE
  5
308
100
AcDbEntity
  8
0
100
AcDbSpline
 62
7
  6
CONTINUOUS
 70
0
 71
3
 72
14
 73
10
 74
0
 42
0.0000001
 43
0.0000001
 44
0.0000000001
 40
0.0
 40
0.0
 40
0.0
 40
0.0
 40
0.1399779385
 40
0.2753117788
 40
0.4061501738
 40
0.5326678749
 40
0.6550722114
 40
0.7735971893
 40
1.0
 40
1.0
 40
1.0
 40
1.0
 10
13.3529954508
 20
7.753399973
 30
0.0
 10
13.3514890685
 20
7.7519449194
 30
0.0
 10
13.3484769713
 20
7.7491335012
 30
0.0
 10
13.3438821836
 20
7.7451543499
 30
0.0
 10
13.339289695
 20
7.7414868969
 30
0.0
 10
13.3347011777
 20
7.7381326832
 30
0.0
 10
13.3301176231
 20
7.7350925644
 30
0.0
 10
13.3241082123
 20
7.731514822
 30
0.0
 10
13.3194724392
 20
7.729215822
 30
0.0
 10
13.3163529726
 20
7.7278952746
 30
0.0
  0
SPLINE
  5
309
100
AcDbEntity
  8
0
100
AcDbSpline
 62
7
  6
CONTINUOUS
 70
0
 71
3
 72
23
 73
19
 74
0
 42
0.0000001
 43
0.0000001
 44
0.0000000001
 40
0.0
 40
0.0
 40
0.0
 40
0.0
 40
0.0778962788
 40
0.1528857249
 40
0.2250766905
 40
0.2945985447
 40
0.3616066545
 40
0.4262783953
 40
0.4888143248
 40
0.5494391445
 40
0.6084021617
 40
0.6659780025
 40
0.7224639154
 40
0.7781762139
 40
0.8334459864
 40
0.8886128412
 40
0.9440185433
 40
1.0
 40
1.0
 40
1.0
 40
1.0
 10
13.3529954508
 20
8.1069288464
 30
0.0
 10
13.3519312647
 20
8.1059009214
 30
0.0
 10
13.3498034711
 20
8.1039233635
 30
0.0
 10
13.3465506302
 20
8.1011472119
 30
0.0
 10
13.3432997973
 20
8.0986199882
 30
0.0
 10
13.3400523297
 20
8.0963430168
 30
0.0
 10
13.3368094976
 20
8.0943172436
 30
0.0
 10
13.3335724451
 20
8.0925436251
 30
0.0
 10
13.3303423762
 20
8.0910230427
 30
0.0
 10
13.3271205736
 20
8.0897562846
 30
0.0
 10
13.323908318
 20
8.0887442374
 30
0.0
 10
13.3207070164
 20
8.0879875738
 30
0.0
 10
13.3175181381
 20
8.0874868561
 30
0.0
 10
13.3143432239
 20
8.0872426433
 30
0.0
 10
13.3111839416
 20
8.0872551184
 30
0.0
 10
13.3080419015
 20
8.0875243879
 30
0.0
 10
13.3049190399
 20
8.0880502863
 30
0.0
 10
13.3028650176
 20
8.0885681341
 30
0.0
 10
13.3018447914
 20
8.0888677673
 30
0.0
  0
SPLINE
  5
30A
100
AcDbEntity
  8
0
100
AcDbSpline
 62
4
  6
CONTINUOUS
 70
0
 71
3
 72
403
 73
399
 74
0
 42
0.0000001
 43
0.0000001
 44
0.0000000001
 40
0.0
 40
0.0
 40
0.0
 40
0.0
 40
0.015625
 40
0.0234375
 40
0.03125
 40
0.0390625
 40
0.04296875
 40
0.046875
 40
0.05078125
 40
0.0546875
 40
0.056640625
 40
0.05859375
 40
0.0595703125
 40
0.060546875
 40
0.0615234375
 40
0.0620117188
 40
0.0622558594
 40
0.0625
 40
0.0627441406
 40
0.0629882812
 40
0.0634765625
 40
0.064453125
 40
0.0654296875
 40
0.06640625
 40
0.068359375
 40
0.0703125
 40
0.07421875
 40
0.078125
 40
0.08203125
 40
0.0859375
 40
0.09375
 40
0.1015625
 40
0.10546875
 40
0.109375
 40
0.11328125
 40
0.1171875
 40
0.119140625
 40
0.12109375
 40
0.1220703125
 40
0.123046875
 40
0.1240234375
 40
0.1245117188
 40
0.1247558594
 40
0.125
 40
0.1252441406
 40
0.1254882812
 40
0.1259765625
 40
0.126953125
 40
0.1279296875
 40
0.12890625
 40
0.130859375
 40
0.1328125
 40
0.13671875
 40
0.140625
 40
0.14453125
 40
0.1484375
 40
0.15625
 40
0.1640625
 40
0.16796875
 40
0.171875
 40
0.17578125
 40
0.1796875
 40
0.181640625
 40
0.18359375
 40
0.1845703125
 40
0.185546875
 40
0.1865234375
 40
0.1870117188
 40
0.1872558594
 40
0.1875
 40
0.1877441406
 40
0.1879882812
 40
0.1884765625
 40
0.189453125
 40
0.1904296875
 40
0.19140625
 40
0.193359375
 40
0.1953125
 40
0.19921875
 40
0.203125
 40
0.20703125
 40
0.2109375
 40
0.21875
 40
0.2265625
 40
0.23046875
 40
0.234375
 40
0.23828125
 40
0.2421875
 40
0.244140625
 40
0.24609375
 40
0.2470703125
 40
0.248046875
 40
0.2490234375
 40
0.2495117188
 40
0.2497558594
 40
0.25
 40
0.2502441406
 40
0.2504882812
 40
0.2509765625
 40
0.251953125
 40
0.2529296875
 40
0.25390625
 40
0.255859375
 40
0.2578125
 40
0.26171875
 40
0.265625
 40
0.26953125
 40
0.2734375
 40
0.28125
 40
0.2890625
 40
0.29296875
 40
0.296875
 40
0.30078125
 40
0.3046875
 40
0.306640625
 40
0.30859375
 40
0.3095703125
 40
0.310546875
 40
0.3115234375
 40
0.3120117188
 40
0.3122558594
 40
0.3125
 40
0.3127441406
 40
0.3129882812
 40
0.3134765625
 40
0.314453125
 40
0.3154296875
 40
0.31640625
 40
0.318359375
 40
0.3203125
 40
0.32421875
 40
0.328125
 40
0.33203125
 40
0.3359375
 40
0.34375
 40
0.3515625
 40
0.35546875
 40
0.359375
 40
0.36328125
 40
0.3671875
 40
0.369140625
 40
0.37109375
 40
0.3720703125
 40
0.373046875
 40
0.3740234375
 40
0.3745117188
 40
0.3747558594
 40
0.375
 40
0.3752441406
 40
0.3754882812
 40
0.3759765625
 40
0.376953125
 40
0.3779296875
 40
0.37890625
 40
0.380859375
 40
0.3828125
 40
0.38671875
 40
0.390625
 40
0.39453125
 40
0.3984375
 40
0.40625
 40
0.4140625
 40
0.41796875
 40
0.421875
 40
0.42578125
 40
0.4296875
 40
0.431640625
 40
0.43359375
 40
0.4345703125
 40
0.435546875
 40
0.4365234375
 40
0.4370117188
 40
0.4372558594
 40
0.4375
 40
0.4377441406
 40
0.4379882812
 40
0.4384765625
 40
0.439453125
 40
0.4404296875
 40
0.44140625
 40
0.443359375
 40
0.4453125
 40
0.44921875
 40
0.453125
 40
0.45703125
 40
0.4609375
 40
0.46875
 40
0.4765625
 40
0.48046875
 40
0.484375
 40
0.48828125
 40
0.4921875
 40
0.494140625
 40
0.49609375
 40
0.4970703125
 40
0.498046875
 40
0.4990234375
 40
0.4995117188
 40
0.4997558594
 40
0.5
 40
0.5002441406
 40
0.5004882812
 40
0.5009765625
 40
0.501953125
 40
0.5029296875
 40
0.50390625
 40
0.505859375
 40
0.5078125
 40
0.51171875
 40
0.515625
 40
0.51953125
 40
0.5234375
 40
0.53125
 40
0.5390625
 40
0.54296875
 40
0.546875
 40
0.55078125
 40
0.5546875
 40
0.556640625
 40
0.55859375
 40
0.5595703125
 40
0.560546875
 40
0.5615234375
 40
0.5620117188
 40
0.5622558594
 40
0.5625
 40
0.5627441406
 40
0.5629882812
 40
0.5634765625
 40
0.564453125
 40
0.5654296875
 40
0.56640625
 40
0.568359375
 40
0.5703125
 40
0.57421875
 40
0.578125
 40
0.58203125
 40
0.5859375
 40
0.59375
 40
0.6015625
 40
0.60546875
 40
0.609375
 40
0.61328125
 40
0.6171875
 40
0.619140625
 40
0.62109375
 40
0.6220703125
 40
0.623046875
 40
0.6240234375
 40
0.6245117188
 40
0.6247558594
 40
0.625
 40
0.6252441406
 40
0.6254882812
 40
0.6259765625
 40
0.626953125
 40
0.6279296875
 40
0.62890625
 40
0.630859375
 40
0.6328125
 40
0.63671875
 40
0.640625
 40
0.64453125
 40
0.6484375
 40
0.65625
 40
0.6640625
 40
0.66796875
 40
0.671875
 40
0.67578125
 40
0.6796875
 40
0.681640625
 40
0.68359375
 40
0.6845703125
 40
0.685546875
 40
0.6865234375
 40
0.6870117188
 40
0.6872558594
 40
0.6875
 40
0.6877441406
 40
0.6879882812
 40
0.6884765625
 40
0.689453125
 40
0.6904296875
 40
0.69140625
 40
0.693359375
 40
0.6953125
 40
0.69921875
 40
0.703125
 40
0.70703125
 40
0.7109375
 40
0.71875
 40
0.7265625
 40
0.73046875
 40
0.734375
 40
0.73828125
 40
0.7421875
 40
0.744140625
 40
0.74609375
 40
0.7470703125
 40
0.748046875
 40
0.7490234375
 40
0.7495117188
 40
0.7497558594
 40
0.75
 40
0.7502441406
 40
0.7504882812
 40
0.7509765625
 40
0.751953125
 40
0.7529296875
 40
0.75390625
 40
0.755859375
 40
0.7578125
 40
0.76171875
 40
0.765625
 40
0.76953125
 40
0.7734375
 40
0.78125
 40
0.7890625
 40
0.79296875
 40
0.796875
 40
0.80078125
 40
0.8046875
 40
0.806640625
 40
0.80859375
 40
0.8095703125
 40
0.810546875
 40
0.8115234375
 40
0.8120117188
 40
0.8122558594
 40
0.8125
 40
0.8127441406
 40
0.8129882812
 40
0.8134765625
 40
0.814453125
 40
0.8154296875
 40
0.81640625
 40
0.818359375
 40
0.8203125
 40
0.82421875
 40
0.828125
 40
0.83203125
 40
0.8359375
 40
0.84375
 40
0.8515625
 40
0.85546875
 40
0.859375
 40
0.86328125
 40
0.8671875
 40
0.869140625
 40
0.87109375
 40
0.8720703125
 40
0.873046875
 40
0.8740234375
 40
0.8745117188
 40
0.8747558594
 40
0.875
 40
0.8752441406
 40
0.8754882812
 40
0.8759765625
 40
0.876953125
 40
0.8779296875
 40
0.87890625
 40
0.880859375
 40
0.8828125
 40
0.88671875
 40
0.890625
 40
0.89453125
 40
0.8984375
 40
0.90625
 40
0.9140625
 40
0.91796875
 40
0.921875
 40
0.92578125
 40
0.9296875
 40
0.931640625
 40
0.93359375
 40
0.9345703125
 40
0.935546875
 40
0.9365234375
 40
0.9370117188
 40
0.9372558594
 40
0.9375
 40
0.9377441406
 40
0.9379882812
 40
0.9384765625
 40
0.939453125
 40
0.9404296875
 40
0.94140625
 40
0.943359375
 40
0.9453125
 40
0.94921875
 40
0.953125
 40
0.95703125
 40
0.9609375
 40
0.96875
 40
0.9765625
 40
0.984375
 40
1.0
 40
1.0
 40
1.0
 40
1.0
 10
10.6764764606
 20
6.9762291317
 30
0.0
 10
10.6821049402
 20
6.9763906726
 30
0.0
 10
10.6905476597
 20
6.9766329839
 30
0.0
 10
10.7018046189
 20
6.9769560656
 30
0.0
 10
10.7102473383
 20
6.977198377
 30
0.0
 10
10.7172829379
 20
6.9774003028
 30
0.0
 10
10.7229114174
 20
6.9775618442
 30
0.0
 10
10.7271327775
 20
6.9776829981
 30
0.0
 10
10.7313541359
 20
6.9778041604
 30
0.0
 10
10.7348719397
 20
6.9779051026
 30
0.0
 10
10.7376861712
 20
6.9779859156
 30
0.0
 10
10.7394450922
 20
6.9780362888
 30
0.0
 10
10.7408521687
 20
6.9780768963
 30
0.0
 10
10.7419076413
 20
6.9781065061
 30
0.0
 10
10.7427866762
 20
6.9781338718
 30
0.0
 10
10.7434030321
 20
6.9781477469
 30
0.0
 10
10.7437536249
 20
6.9781639212
 30
0.0
 10
10.7440211065
 20
6.9781528239
 30
0.0
 10
10.7442712455
 20
6.9782305157
 30
0.0
 10
10.7446108134
 20
6.9783031341
 30
0.0
 10
10.7452022389
 20
6.9784446462
 30
0.0
 10
10.7460486059
 20
6.9786392623
 30
0.0
 10
10.7470636156
 20
6.9788760306
 30
0.0
 10
10.7484171822
 20
6.9791905939
 30
0.0
 10
10.7501090649
 20
6.9795841842
 30
0.0
 10
10.7528161195
 20
6.9802137128
 30
0.0
 10
10.7561999233
 20
6.9810006976
 30
0.0
 10
10.7602604941
 20
6.9819450476
 30
0.0
 10
10.7643210632
 20
6.9828894062
 30
0.0
 10
10.7697351558
 20
6.9841485479
 30
0.0
 10
10.7765027715
 20
6.9857224762
 30
0.0
 10
10.7832703873
 20
6.9872964037
 30
0.0
 10
10.7886844797
 20
6.9885555466
 30
0.0
 10
10.7927450498
 20
6.9894999017
 30
0.0
 10
10.7968056167
 20
6.9904442648
 30
0.0
 10
10.8001894325
 20
6.9912312088
 30
0.0
 10
10.8028964625
 20
6.9918608207
 30
0.0
 10
10.8045884079
 20
6.9922541991
 30
0.0
 10
10.8059418459
 20
6.9925691973
 30
0.0
 10
10.8069572485
 20
6.992804637
 30
0.0
 10
10.8078023862
 20
6.99300341
 30
0.0
 10
10.8083960062
 20
6.9931375011
 30
0.0
 10
10.8087320579
 20
6.9932220099
 30
0.0
 10
10.8089929978
 20
6.9932631784
 30
0.0
 10
10.8092199131
 20
6.9933892564
 30
0.0
 10
10.809534335
 20
6.993527743
 30
0.0
 10
10.8100790437
 20
6.9937838938
 30
0.0
 10
10.8108600899
 20
6.9941426091
 30
0.0
 10
10.811796108
 20
6.9945761555
 30
0.0
 10
10.8130445643
 20
6.9951531388
 30
0.0
 10
10.8146049867
 20
6.9958747372
 30
0.0
 10
10.8171017452
 20
6.9970290882
 30
0.0
 10
10.820222665
 20
6.9984720978
 30
0.0
 10
10.8239677809
 20
7.000203679
 30
0.0
 10
10.8277128935
 20
7.0019352683
 30
0.0
 10
10.8327063782
 20
7.0042440512
 30
0.0
 10
10.8389482336
 20
7.0071300308
 30
0.0
 10
10.8451900893
 20
7.0100160098
 30
0.0
 10
10.8501835734
 20
7.0123247938
 30
0.0
 10
10.8539286876
 20
7.0140563797
 30
0.0
 10
10.8576737976
 20
7.0157879736
 30
0.0
 10
10.8607947357
 20
7.0172309437
 30
0.0
 10
10.863291457
 20
7.0183853753
 30
0.0
 10
10.8648519741
 20
7.0191067687
 30
0.0
 10
10.866100236
 20
7.0196841728
 30
0.0
 10
10.8670368479
 20
7.0201164335
 30
0.0
 10
10.8678160361
 20
7.0204791713
 30
0.0
 10
10.8683640618
 20
7.0207281412
 30
0.0
 10
10.868673169
 20
7.0208781335
 30
0.0
 10
10.8689164093
 20
7.0209688698
 30
0.0
 10
10.8691160351
 20
7.0211427756
 30
0.0
 10
10.869397416
 20
7.0213456395
 30
0.0
 10
10.8698827445
 20
7.0217141678
 30
0.0
 10
10.8705797767
 20
7.0222335703
 30
0.0
 10
10.8714146291
 20
7.022859878
 30
0.0
 10
10.8725283198
 20
7.0236938985
 30
0.0
 10
10.8739202433
 20
7.0247367858
 30
0.0
 10
10.876147427
 20
7.0264052033
 30
0.0
 10
10.8789313703
 20
7.0284907946
 30
0.0
 10
10.8822721178
 20
7.0309934743
 30
0.0
 10
10.8856128612
 20
7.0334961621
 30
0.0
 10
10.8900671871
 20
7.0368330763
 30
0.0
 10
10.895635094
 20
7.0410042201
 30
0.0
 10
10.9012030013
 20
7.0451753632
 30
0.0
 10
10.9056573264
 20
7.0485122784
 30
0.0
 10
10.9089980721
 20
7.0510149632
 30
0.0
 10
10.912338811
 20
7.0535176541
 30
0.0
 10
10.915122781
 20
7.0556032109
 30
0.0
 10
10.9173499103
 20
7.0572716987
 30
0.0
 10
10.9187419723
 20
7.0583144071
 30
0.0
 10
10.9198553786
 20
7.0591487947
 30
0.0
 10
10.9206910997
 20
7.0597739809
 30
0.0
 10
10.9213854142
 20
7.0602968922
 30
0.0
 10
10.9218755942
 20
7.0606591566
 30
0.0
 10
10.9221492018
 20
7.0608720569
 30
0.0
 10
10.922372705
 20
7.0610151342
 30
0.0
 10
10.9225262655
 20
7.0612216573
 30
0.0
 10
10.9227554095
 20
7.0614748908
 30
0.0
 10
10.9231450448
 20
7.0619283605
 30
0.0
 10
10.9237076093
 20
7.0625707836
 30
0.0
 10
10.924380143
 20
7.0633439987
 30
0.0
 10
10.9252777431
 20
7.0643741463
 30
0.0
 10
10.9263994391
 20
7.0656621067
 30
0.0
 10
10.9281943226
 20
7.0677226891
 30
0.0
 10
10.9304378686
 20
7.0702984701
 30
0.0
 10
10.9331301489
 20
7.0733893846
 30
0.0
 10
10.9358224224
 20
7.0764803052
 30
0.0
 10
10.9394121229
 20
7.0806015305
 30
0.0
 10
10.9438992475
 20
7.0857530629
 30
0.0
 10
10.9483863728
 20
7.0909045948
 30
0.0
 10
10.9519760722
 20
7.0950258209
 30
0.0
 10
10.9546683487
 20
7.098116739
 30
0.0
 10
10.9573606181
 20
7.1012076625
 30
0.0
 10
10.959604198
 20
7.1037834157
 30
0.0
 10
10.9613990124
 20
7.1058440548
 30
0.0
 10
10.9625208841
 20
7.107131871
 30
0.0
 10
10.9634181233
 20
7.1081623146
 30
0.0
 10
10.9640917596
 20
7.1089346252
 30
0.0
 10
10.9646508746
 20
7.1095798786
 30
0.0
 10
10.9650466679
 20
7.1100282957
 30
0.0
 10
10.9652659451
 20
7.1102896246
 30
0.0
 10
10.9654498134
 20
7.1104712812
 30
0.0
 10
10.9655594856
 20
7.1107077531
 30
0.0
 10
10.9657315957
 20
7.1110039287
 30
0.0
 10
10.9660207302
 20
7.1115311446
 30
0.0
 10
10.9664400835
 20
7.1122796527
 30
0.0
 10
10.9669406092
 20
7.113179856
 30
0.0
 10
10.9676089192
 20
7.1143794307
 30
0.0
 10
10.9684439841
 20
7.1158791374
 30
0.0
 10
10.9697802682
 20
7.118278535
 30
0.0
 10
10.9714505615
 20
7.1212778278
 30
0.0
 10
10.9734549399
 20
7.1248769594
 30
0.0
 10
10.9754593112
 20
7.1284760963
 30
0.0
 10
10.9781318088
 20
7.1332749437
 30
0.0
 10
10.9814724299
 20
7.1392735036
 30
0.0
 10
10.9848130516
 20
7.1452720631
 30
0.0
 10
10.9874855482
 20
7.1500709111
 30
0.0
 10
10.9894899227
 20
7.1536700461
 30
0.0
 10
10.9914942893
 20
7.1572691849
 30
0.0
 10
10.9931646193
 20
7.1602684554
 30
0.0
 10
10.9945008284
 20
7.1626678984
 30
0.0
 10
10.9953360843
 20
7.1641674895
 30
0.0
 10
10.9960040022
 20
7.1653673017
 30
0.0
 10
10.9965057259
 20
7.1662667794
 30
0.0
 10
10.9969213308
 20
7.1670175574
 30
0.0
 10
10.9972171569
 20
7.1675407212
 30
0.0
 10
10.9973785453
 20
7.1678433893
 30
0.0
 10
10.9975211511
 20
7.1680599184
 30
0.0
 10
10.9975813264
 20
7.1683164767
 30
0.0
 10
10.9976903128
 20
7.1686445917
 30
0.0
 10
10.9978676426
 20
7.1692252985
 30
0.0
 10
10.9981279747
 20
7.1700514785
 30
0.0
 10
10.9984373754
 20
7.1710443503
 30
0.0
 10
10.9988509567
 20
7.1723676709
 30
0.0
 10
10.9993675748
 20
7.1740219957
 30
0.0
 10
11.0001943641
 20
7.1766688181
 30
0.0
 10
11.001227782
 20
7.1799773794
 30
0.0
 10
11.002467913
 20
7.1839476388
 30
0.0
 10
11.0037080361
 20
7.1879179019
 30
0.0
 10
11.0053615363
 20
7.1932115848
 30
0.0
 10
11.0074284106
 20
7.1998286889
 30
0.0
 10
11.0094952855
 20
7.2064457927
 30
0.0
 10
11.0111487846
 20
7.2117394761
 30
0.0
 10
11.0123889112
 20
7.2157097378
 30
0.0
 10
11.0136290293
 20
7.2196800025
 30
0.0
 10
11.0146624872
 20
7.222988547
 30
0.0
 10
11.0154891951
 20
7.2256354039
 30
0.0
 10
11.0160060204
 20
7.2272896409
 30
0.0
 10
11.0164191763
 20
7.2286131416
 30
0.0
 10
11.0167298768
 20
7.2296054632
 30
0.0
 10
11.0169861418
 20
7.2304333646
 30
0.0
 10
11.0171707321
 20
7.2310109983
 30
0.0
 10
11.0172680854
 20
7.2313440372
 30
0.0
 10
11.0173639939
 20
7.2315854711
 30
0.0
 10
11.0173723915
 20
7.2318588047
 30
0.0
 10
11.017414113
 20
7.2322121224
 30
0.0
 10
11.0174729037
 20
7.2328356128
 30
0.0
 10
11.0175643258
 20
7.2337236029
 30
0.0
 10
11.0176708497
 20
7.2347903512
 30
0.0
 10
11.0178139931
 20
7.2362122771
 30
0.0
 10
11.0179925419
 20
7.2379898231
 30
0.0
 10
11.0182784326
 20
7.2408338193
 30
0.0
 10
11.0186357229
 20
7.2443888411
 30
0.0
 10
11.0190645026
 20
7.2486548558
 30
0.0
 10
11.019493274
 20
7.2529208736
 30
0.0
 10
11.0200649721
 20
7.2586088963
 30
0.0
 10
11.0207795936
 20
7.265718925
 30
0.0
 10
11.0214942158
 20
7.2728289536
 30
0.0
 10
11.0220659127
 20
7.2785169765
 30
0.0
 10
11.0224946877
 20
7.2827829936
 30
0.0
 10
11.0229234539
 20
7.2870490107
 30
0.0
 10
11.0232807862
 20
7.2906040254
 30
0.0
 10
11.0235665914
 20
7.293448036
 30
0.0
 10
11.0237453577
 20
7.2952255452
 30
0.0
 10
11.0238880545
 20
7.2966475467
 30
0.0
 10
11.023995943
 20
7.2977140641
 30
0.0
 10
11.0240830956
 20
7.2986027765
 30
0.0
 10
11.0241495081
 20
7.2992249775
 30
0.0
 10
11.0241790174
 20
7.2995803612
 30
0.0
 10
11.024224927
 20
7.299847349
 30
0.0
 10
11.0241799465
 20
7.3001126163
 30
0.0
 10
11.0241516759
 20
7.3004669061
 30
0.0
 10
11.0240874312
 20
7.3010866336
 30
0.0
 10
11.0240033756
 20
7.3019721048
 30
0.0
 10
11.0238992034
 20
7.3030346078
 30
0.0
 10
11.0237614617
 20
7.3044513002
 30
0.0
 10
11.0235888892
 20
7.3062221582
 30
0.0
 10
11.0233129941
 20
7.3090555353
 30
0.0
 10
11.0229680495
 20
7.3125972551
 30
0.0
 10
11.0225541484
 20
7.3168473196
 30
0.0
 10
11.0221402386
 20
7.3210973839
 30
0.0
 10
11.021588362
 20
7.3267641363
 30
0.0
 10
11.020898515
 20
7.3338475769
 30
0.0
 10
11.0202086688
 20
7.3409310174
 30
0.0
 10
11.019656791
 20
7.3465977698
 30
0.0
 10
11.0192428848
 20
7.3508478344
 30
0.0
 10
11.0188289703
 20
7.3550978978
 30
0.0
 10
11.0184840676
 20
7.3586396208
 30
0.0
 10
11.018208087
 20
7.3614729916
 30
0.0
 10
11.0180357322
 20
7.3632438655
 30
0.0
 10
11.0178975435
 20
7.3646605254
 30
0.0
 10
11.0177947365
 20
7.3657231276
 30
0.0
 10
11.0177064095
 20
7.366608288
 30
0.0
 10
11.01764979
 20
7.3672285705
 30
0.0
 10
11.017609302
 20
7.3675819712
 30
0.0
 10
11.0176018494
 20
7.3678499696
 30
0.0
 10
11.0175068104
 20
7.3681066995
 30
0.0
 10
11.0174106428
 20
7.3684529367
 30
0.0
 10
11.0172281153
 20
7.3690570205
 30
0.0
 10
11.0169748035
 20
7.3699209548
 30
0.0
 10
11.0166676439
 20
7.370957266
 30
0.0
 10
11.0162592105
 20
7.3723391576
 30
0.0
 10
11.0157482878
 20
7.374066473
 30
0.0
 10
11.0149310243
 20
7.376830205
 30
0.0
 10
11.0139093719
 20
7.3802848606
 30
0.0
 10
11.0126834203
 20
7.3844304514
 30
0.0
 10
11.0114574603
 20
7.3885760411
 30
0.0
 10
11.00982285
 20
7.3941034944
 30
0.0
 10
11.007779586
 20
7.4010128109
 30
0.0
 10
11.0057363227
 20
7.4079221275
 30
0.0
 10
11.0041017112
 20
7.4134495805
 30
0.0
 10
11.0028757547
 20
7.417595171
 30
0.0
 10
11.0016497902
 20
7.4217407588
 30
0.0
 10
11.0006281778
 20
7.4251954237
 30
0.0
 10
10.9998108328
 20
7.4279591368
 30
0.0
 10
10.9993001176
 20
7.4296865004
 30
0.0
 10
10.9988912582
 20
7.4310682929
 30
0.0
 10
10.9985854001
 20
7.4321049069
 30
0.0
 10
10.9983280165
 20
7.4329678941
 30
0.0
 10
10.9981527577
 20
7.4335736684
 30
0.0
 10
10.9980449437
 20
7.433917197
 30
0.0
 10
10.9979856789
 20
7.4341822469
 30
0.0
 10
10.9978438643
 20
7.4344189971
 30
0.0
 10
10.9976835725
 20
7.4347445352
 30
0.0
 10
10.997389646
 20
7.4353096278
 30
0.0
 10
10.9969767649
 20
7.4361193075
 30
0.0
 10
10.9964783055
 20
7.4370898938
 30
0.0
 10
10.9958147414
 20
7.4383843684
 30
0.0
 10
10.9949849274
 20
7.4400023386
 30
0.0
 10
10.9936574256
 20
7.4425911597
 30
0.0
 10
10.9919979794
 20
7.4458271625
 30
0.0
 10
10.9900066736
 20
7.4497103759
 30
0.0
 10
10.9880153599
 20
7.4535935866
 30
0.0
 10
10.9853602776
 20
7.4587712018
 30
0.0
 10
10.9820414238
 20
7.4652432205
 30
0.0
 10
10.9787225707
 20
7.4717152395
 30
0.0
 10
10.9760674874
 20
7.4768928543
 30
0.0
 10
10.9740761769
 20
7.4807760663
 30
0.0
 10
10.9720848588
 20
7.4846592748
 30
0.0
 10
10.9704254509
 20
7.4878952931
 30
0.0
 10
10.9690978711
 20
7.4904840824
 30
0.0
 10
10.9682682555
 20
7.4921021335
 30
0.0
 10
10.9676042841
 20
7.493396442
 30
0.0
 10
10.9671070692
 20
7.4943675359
 30
0.0
 10
10.9666902944
 20
7.4951756275
 30
0.0
 10
10.9664033188
 20
7.495743555
 30
0.0
 10
10.9662318899
 20
7.4960645509
 30
0.0
 10
10.9661242848
 20
7.4963152536
 30
0.0
 10
10.965936535
 20
7.4965278999
 30
0.0
 10
10.9657141572
 20
7.4968247028
 30
0.0
 10
10.9653119712
 20
7.497337923
 30
0.0
 10
10.9647442294
 20
7.4980743282
 30
0.0
 10
10.9640600245
 20
7.4989566304
 30
0.0
 10
10.9631487693
 20
7.5001335168
 30
0.0
 10
10.9620093518
 20
7.5016044592
 30
0.0
 10
10.9601864786
 20
7.5039580596
 30
0.0
 10
10.9579078202
 20
7.5069000284
 30
0.0
 10
10.9551734588
 20
7.5104304045
 30
0.0
 10
10.9524390897
 20
7.513960777
 30
0.0
 10
10.9487932669
 20
7.5186679416
 30
0.0
 10
10.9442359875
 20
7.5245518968
 30
0.0
 10
10.9396787086
 20
7.5304358525
 30
0.0
 10
10.936032885
 20
7.5351430164
 30
0.0
 10
10.9332985187
 20
7.538673391
 30
0.0
 10
10.9305641468
 20
7.5422037593
 30
0.0
 10
10.928285521
 20
7.5451457525
 30
0.0
 10
10.9264625813
 20
7.5474993031
 30
0.0
 10
10.925323333
 20
7.5489703723
 30
0.0
 10
10.9244117304
 20
7.5501469984
 30
0.0
 10
10.9237285868
 20
7.5510300957
 30
0.0
 10
10.9231575246
 20
7.5517640134
 30
0.0
 10
10.922761266
 20
7.5522816741
 30
0.0
 10
10.922529391
 20
7.5525713622
 30
0.0
 10
10.9223708138
 20
7.5528058628
 30
0.0
 10
10.9221536412
 20
7.5529744843
 30
0.0
 10
10.9218845165
 20
7.5532222922
 30
0.0
 10
10.9214040255
 20
7.5536452496
 30
0.0
 10
10.9207225884
 20
7.554255072
 30
0.0
 10
10.9199027329
 20
7.5549844629
 30
0.0
 10
10.9188103366
 20
7.5559578209
 30
0.0
 10
10.9174445863
 20
7.5571742319
 30
0.0
 10
10.9152595282
 20
7.5591206497
 30
0.0
 10
10.9125281568
 20
7.561553617
 30
0.0
 10
10.909250532
 20
7.5644732013
 30
0.0
 10
10.9059729017
 20
7.5673927793
 30
0.0
 10
10.9016027298
 20
7.5712855522
 30
0.0
 10
10.8961400143
 20
7.5761515175
 30
0.0
 10
10.8906772992
 20
7.5810174833
 30
0.0
 10
10.8863071266
 20
7.5849102553
 30
0.0
 10
10.8830294984
 20
7.587829836
 30
0.0
 10
10.8797518654
 20
7.59074941
 30
0.0
 10
10.8770205194
 20
7.5931824094
 30
0.0
 10
10.8748354095
 20
7.5951287617
 30
0.0
 10
10.8734697913
 20
7.5963453394
 30
0.0
 10
10.8723771238
 20
7.5973183554
 30
0.0
 10
10.8715580965
 20
7.5980487914
 30
0.0
 10
10.8708740683
 20
7.5986553438
 30
0.0
 10
10.8703982028
 20
7.5990841385
 30
0.0
 10
10.870121667
 20
7.5993225936
 30
0.0
 10
10.8699272591
 20
7.5995199441
 30
0.0
 10
10.8696831814
 20
7.5996465432
 30
0.0
 10
10.8693750699
 20
7.5998400209
 30
0.0
 10
10.8688278025
 20
7.6001671084
 30
0.0
 10
10.8680502121
 20
7.6006403879
 30
0.0
 10
10.8671152973
 20
7.6012057501
 30
0.0
 10
10.8658693752
 20
7.6019604652
 30
0.0
 10
10.8643117564
 20
7.6029035512
 30
0.0
 10
10.8618196872
 20
7.6044126609
 30
0.0
 10
10.8587045593
 20
7.606298989
 30
0.0
 10
10.8549664235
 20
7.6085626081
 30
0.0
 10
10.8512282829
 20
7.6108262203
 30
0.0
 10
10.8462440972
 20
7.6138443724
 30
0.0
 10
10.8400138645
 20
7.6176170616
 30
0.0
 10
10.8337836321
 20
7.6213897514
 30
0.0
 10
10.8287994458
 20
7.6244079024
 30
0.0
 10
10.825061307
 20
7.6266715177
 30
0.0
 10
10.8213231648
 20
7.6289351254
 30
0.0
 10
10.8182080566
 20
7.6308214889
 30
0.0
 10
10.8157159472
 20
7.6323305264
 30
0.0
 10
10.8141584309
 20
7.6332737964
 30
0.0
 10
10.8129122985
 20
7.6340281338
 30
0.0
 10
10.811978026
 20
7.6345946496
 30
0.0
 10
10.8111984258
 20
7.63506432
 30
0.0
 10
10.8106547464
 20
7.6353978503
 30
0.0
 10
10.8103408859
 20
7.635581005
 30
0.0
 10
10.810114467
 20
7.635739313
 30
0.0
 10
10.8098537356
 20
7.6358175701
 30
0.0
 10
10.8095180623
 20
7.6359498355
 30
0.0
 10
10.8089250577
 20
7.6361682904
 30
0.0
 10
10.8080808236
 20
7.6364871703
 30
0.0
 10
10.8070664948
 20
7.6368669149
 30
0.0
 10
10.8057144923
 20
7.6373742579
 30
0.0
 10
10.8040243399
 20
7.6380080885
 30
0.0
 10
10.8013201795
 20
7.639022412
 30
0.0
 10
10.7979399503
 20
7.6402902496
 30
0.0
 10
10.7938836876
 20
7.6418116833
 30
0.0
 10
10.7898274216
 20
7.6433331094
 30
0.0
 10
10.7844190681
 20
7.6453616802
 30
0.0
 10
10.7776586258
 20
7.6478973928
 30
0.0
 10
10.7708981838
 20
7.650433106
 30
0.0
 10
10.7654898298
 20
7.6524616757
 30
0.0
 10
10.7614335651
 20
7.6539831051
 30
0.0
 10
10.7573772978
 20
7.6555045263
 30
0.0
 10
10.7539970828
 20
7.6567724029
 30
0.0
 10
10.7512928935
 20
7.657786647
 30
0.0
 10
10.7496028145
 20
7.6584206797
 30
0.0
 10
10.7482506614
 20
7.6589276077
 30
0.0
 10
10.7472367927
 20
7.6593086203
 30
0.0
 10
10.7463911192
 20
7.6596235329
 30
0.0
 10
10.7458006841
 20
7.65984907
 30
0.0
 10
10.7454608937
 20
7.6599699878
 30
0.0
 10
10.7452128086
 20
7.6600831012
 30
0.0
 10
10.7449388925
 20
7.6601104949
 30
0.0
 10
10.7445826812
 20
7.6601769198
 30
0.0
 10
10.7439551134
 20
7.6602792324
 30
0.0
 10
10.7430607827
 20
7.6604326765
 30
0.0
 10
10.7419866465
 20
7.660613692
 30
0.0
 10
10.740554793
 20
7.6608561348
 30
0.0
 10
10.7387648637
 20
7.6611588156
 30
0.0
 10
10.7359010397
 20
7.6616433131
 30
0.0
 10
10.7323212382
 20
7.6622488636
 30
0.0
 10
10.7280254855
 20
7.6629755548
 30
0.0
 10
10.7237297304
 20
7.6637022378
 30
0.0
 10
10.7180020578
 20
7.6646711513
 30
0.0
 10
10.7108424668
 20
7.6658822922
 30
0.0
 10
10.7022509577
 20
7.6673356617
 30
0.0
 10
10.6907956121
 20
7.6692734876
 30
0.0
 10
10.682204103
 20
7.670726857
 30
0.0
 10
10.6764764302
 20
7.6716957699
 30
0.0
  0
SPLINE
  5
30B
100
AcDbEntity
  8
0
100
AcDbSpline
 62
4
  6
CONTINUOUS
 70
0
 71
3
 72
403
 73
399
 74
0
 42
0.0000001
 43
0.0000001
 44
0.0000000001
 40
0.0
 40
0.0
 40
0.0
 40
0.0
 40
0.015625
 40
0.0234375
 40
0.03125
 40
0.0390625
 40
0.04296875
 40
0.046875
 40
0.05078125
 40
0.0546875
 40
0.056640625
 40
0.05859375
 40
0.0595703125
 40
0.060546875
 40
0.0615234375
 40
0.0620117188
 40
0.0622558594
 40
0.0625
 40
0.0627441406
 40
0.0629882812
 40
0.0634765625
 40
0.064453125
 40
0.0654296875
 40
0.06640625
 40
0.068359375
 40
0.0703125
 40
0.07421875
 40
0.078125
 40
0.08203125
 40
0.0859375
 40
0.09375
 40
0.1015625
 40
0.10546875
 40
0.109375
 40
0.11328125
 40
0.1171875
 40
0.119140625
 40
0.12109375
 40
0.1220703125
 40
0.123046875
 40
0.1240234375
 40
0.1245117188
 40
0.1247558594
 40
0.125
 40
0.1252441406
 40
0.1254882812
 40
0.1259765625
 40
0.126953125
 40
0.1279296875
 40
0.12890625
 40
0.130859375
 40
0.1328125
 40
0.13671875
 40
0.140625
 40
0.14453125
 40
0.1484375
 40
0.15625
 40
0.1640625
 40
0.16796875
 40
0.171875
 40
0.17578125
 40
0.1796875
 40
0.181640625
 40
0.18359375
 40
0.1845703125
 40
0.185546875
 40
0.1865234375
 40
0.1870117188
 40
0.1872558594
 40
0.1875
 40
0.1877441406
 40
0.1879882812
 40
0.1884765625
 40
0.189453125
 40
0.1904296875
 40
0.19140625
 40
0.193359375
 40
0.1953125
 40
0.19921875
 40
0.203125
 40
0.20703125
 40
0.2109375
 40
0.21875
 40
0.2265625
 40
0.23046875
 40
0.234375
 40
0.23828125
 40
0.2421875
 40
0.244140625
 40
0.24609375
 40
0.2470703125
 40
0.248046875
 40
0.2490234375
 40
0.2495117188
 40
0.2497558594
 40
0.25
 40
0.2502441406
 40
0.2504882812
 40
0.2509765625
 40
0.251953125
 40
0.2529296875
 40
0.25390625
 40
0.255859375
 40
0.2578125
 40
0.26171875
 40
0.265625
 40
0.26953125
 40
0.2734375
 40
0.28125
 40
0.2890625
 40
0.29296875
 40
0.296875
 40
0.30078125
 40
0.3046875
 40
0.306640625
 40
0.30859375
 40
0.3095703125
 40
0.310546875
 40
0.3115234375
 40
0.3120117188
 40
0.3122558594
 40
0.3125
 40
0.3127441406
 40
0.3129882812
 40
0.3134765625
 40
0.314453125
 40
0.3154296875
 40
0.31640625
 40
0.318359375
 40
0.3203125
 40
0.32421875
 40
0.328125
 40
0.33203125
 40
0.3359375
 40
0.34375
 40
0.3515625
 40
0.35546875
 40
0.359375
 40
0.36328125
 40
0.3671875
 40
0.369140625
 40
0.37109375
 40
0.3720703125
 40
0.373046875
 40
0.3740234375
 40
0.3745117188
 40
0.3747558594
 40
0.375
 40
0.3752441406
 40
0.3754882812
 40
0.3759765625
 40
0.376953125
 40
0.3779296875
 40
0.37890625
 40
0.380859375
 40
0.3828125
 40
0.38671875
 40
0.390625
 40
0.39453125
 40
0.3984375
 40
0.40625
 40
0.4140625
 40
0.41796875
 40
0.421875
 40
0.42578125
 40
0.4296875
 40
0.431640625
 40
0.43359375
 40
0.4345703125
 40
0.435546875
 40
0.4365234375
 40
0.4370117188
 40
0.4372558594
 40
0.4375
 40
0.4377441406
 40
0.4379882812
 40
0.4384765625
 40
0.439453125
 40
0.4404296875
 40
0.44140625
 40
0.443359375
 40
0.4453125
 40
0.44921875
 40
0.453125
 40
0.45703125
 40
0.4609375
 40
0.46875
 40
0.4765625
 40
0.48046875
 40
0.484375
 40
0.48828125
 40
0.4921875
 40
0.494140625
 40
0.49609375
 40
0.4970703125
 40
0.498046875
 40
0.4990234375
 40
0.4995117188
 40
0.4997558594
 40
0.5
 40
0.5002441406
 40
0.5004882812
 40
0.5009765625
 40
0.501953125
 40
0.5029296875
 40
0.50390625
 40
0.505859375
 40
0.5078125
 40
0.51171875
 40
0.515625
 40
0.51953125
 40
0.5234375
 40
0.53125
 40
0.5390625
 40
0.54296875
 40
0.546875
 40
0.55078125
 40
0.5546875
 40
0.556640625
 40
0.55859375
 40
0.5595703125
 40
0.560546875
 40
0.5615234375
 40
0.5620117188
 40
0.5622558594
 40
0.5625
 40
0.5627441406
 40
0.5629882812
 40
0.5634765625
 40
0.564453125
 40
0.5654296875
 40
0.56640625
 40
0.568359375
 40
0.5703125
 40
0.57421875
 40
0.578125
 40
0.58203125
 40
0.5859375
 40
0.59375
 40
0.6015625
 40
0.60546875
 40
0.609375
 40
0.61328125
 40
0.6171875
 40
0.619140625
 40
0.62109375
 40
0.6220703125
 40
0.623046875
 40
0.6240234375
 40
0.6245117188
 40
0.6247558594
 40
0.625
 40
0.6252441406
 40
0.6254882812
 40
0.6259765625
 40
0.626953125
 40
0.6279296875
 40
0.62890625
 40
0.630859375
 40
0.6328125
 40
0.63671875
 40
0.640625
 40
0.64453125
 40
0.6484375
 40
0.65625
 40
0.6640625
 40
0.66796875
 40
0.671875
 40
0.67578125
 40
0.6796875
 40
0.681640625
 40
0.68359375
 40
0.6845703125
 40
0.685546875
 40
0.6865234375
 40
0.6870117188
 40
0.6872558594
 40
0.6875
 40
0.6877441406
 40
0.6879882812
 40
0.6884765625
 40
0.689453125
 40
0.6904296875
 40
0.69140625
 40
0.693359375
 40
0.6953125
 40
0.69921875
 40
0.703125
 40
0.70703125
 40
0.7109375
 40
0.71875
 40
0.7265625
 40
0.73046875
 40
0.734375
 40
0.73828125
 40
0.7421875
 40
0.744140625
 40
0.74609375
 40
0.7470703125
 40
0.748046875
 40
0.7490234375
 40
0.7495117188
 40
0.7497558594
 40
0.75
 40
0.7502441406
 40
0.7504882812
 40
0.7509765625
 40
0.751953125
 40
0.7529296875
 40
0.75390625
 40
0.755859375
 40
0.7578125
 40
0.76171875
 40
0.765625
 40
0.76953125
 40
0.7734375
 40
0.78125
 40
0.7890625
 40
0.79296875
 40
0.796875
 40
0.80078125
 40
0.8046875
 40
0.806640625
 40
0.80859375
 40
0.8095703125
 40
0.810546875
 40
0.8115234375
 40
0.8120117188
 40
0.8122558594
 40
0.8125
 40
0.8127441406
 40
0.8129882812
 40
0.8134765625
 40
0.814453125
 40
0.8154296875
 40
0.81640625
 40
0.818359375
 40
0.8203125
 40
0.82421875
 40
0.828125
 40
0.83203125
 40
0.8359375
 40
0.84375
 40
0.8515625
 40
0.85546875
 40
0.859375
 40
0.86328125
 40
0.8671875
 40
0.869140625
 40
0.87109375
 40
0.8720703125
 40
0.873046875
 40
0.8740234375
 40
0.8745117188
 40
0.8747558594
 40
0.875
 40
0.8752441406
 40
0.8754882812
 40
0.8759765625
 40
0.876953125
 40
0.8779296875
 40
0.87890625
 40
0.880859375
 40
0.8828125
 40
0.88671875
 40
0.890625
 40
0.89453125
 40
0.8984375
 40
0.90625
 40
0.9140625
 40
0.91796875
 40
0.921875
 40
0.92578125
 40
0.9296875
 40
0.931640625
 40
0.93359375
 40
0.9345703125
 40
0.935546875
 40
0.9365234375
 40
0.9370117188
 40
0.9372558594
 40
0.9375
 40
0.9377441406
 40
0.9379882812
 40
0.9384765625
 40
0.939453125
 40
0.9404296875
 40
0.94140625
 40
0.943359375
 40
0.9453125
 40
0.94921875
 40
0.953125
 40
0.95703125
 40
0.9609375
 40
0.96875
 40
0.9765625
 40
0.984375
 40
1.0
 40
1.0
 40
1.0
 40
1.0
 10
10.6764764606
 20
7.6716957678
 30
0.0
 10
10.670847981
 20
7.671534227
 30
0.0
 10
10.6624052616
 20
7.6712919157
 30
0.0
 10
10.6511483023
 20
7.670968834
 30
0.0
 10
10.6427055829
 20
7.6707265226
 30
0.0
 10
10.6356699833
 20
7.6705245968
 30
0.0
 10
10.6300415038
 20
7.6703630553
 30
0.0
 10
10.6258201438
 20
7.6702419015
 30
0.0
 10
10.6215987854
 20
7.6701207391
 30
0.0
 10
10.6180809815
 20
7.6700197969
 30
0.0
 10
10.61526675
 20
7.669938984
 30
0.0
 10
10.613507829
 20
7.6698886107
 30
0.0
 10
10.6121007525
 20
7.6698480032
 30
0.0
 10
10.6110452799
 20
7.6698183935
 30
0.0
 10
10.610166245
 20
7.6697910278
 30
0.0
 10
10.6095498891
 20
7.6697771526
 30
0.0
 10
10.6091992963
 20
7.6697609784
 30
0.0
 10
10.6089318148
 20
7.6697720756
 30
0.0
 10
10.6086816758
 20
7.6696943838
 30
0.0
 10
10.6083421078
 20
7.6696217654
 30
0.0
 10
10.6077506824
 20
7.6694802533
 30
0.0
 10
10.6069043153
 20
7.6692856373
 30
0.0
 10
10.6058893056
 20
7.6690488689
 30
0.0
 10
10.6045357391
 20
7.6687343056
 30
0.0
 10
10.6028438563
 20
7.6683407154
 30
0.0
 10
10.6001368017
 20
7.6677111868
 30
0.0
 10
10.5967529979
 20
7.6669242019
 30
0.0
 10
10.5926924272
 20
7.6659798519
 30
0.0
 10
10.5886318581
 20
7.6650354934
 30
0.0
 10
10.5832177654
 20
7.6637763516
 30
0.0
 10
10.5764501498
 20
7.6622024234
 30
0.0
 10
10.5696825339
 20
7.6606284958
 30
0.0
 10
10.5642684415
 20
7.6593693529
 30
0.0
 10
10.5602078714
 20
7.6584249979
 30
0.0
 10
10.5561473046
 20
7.6574806347
 30
0.0
 10
10.5527634887
 20
7.6566936907
 30
0.0
 10
10.5500564587
 20
7.6560640789
 30
0.0
 10
10.5483645133
 20
7.6556707004
 30
0.0
 10
10.5470110753
 20
7.6553557023
 30
0.0
 10
10.5459956727
 20
7.6551202626
 30
0.0
 10
10.545150535
 20
7.6549214895
 30
0.0
 10
10.544556915
 20
7.6547873984
 30
0.0
 10
10.5442208633
 20
7.6547028897
 30
0.0
 10
10.5439599235
 20
7.6546617211
 30
0.0
 10
10.5437330082
 20
7.6545356431
 30
0.0
 10
10.5434185863
 20
7.6543971566
 30
0.0
 10
10.5428738776
 20
7.6541410057
 30
0.0
 10
10.5420928313
 20
7.6537822904
 30
0.0
 10
10.5411568133
 20
7.653348744
 30
0.0
 10
10.539908357
 20
7.6527717608
 30
0.0
 10
10.5383479346
 20
7.6520501624
 30
0.0
 10
10.5358511761
 20
7.6508958113
 30
0.0
 10
10.5327302563
 20
7.6494528017
 30
0.0
 10
10.5289851404
 20
7.6477212205
 30
0.0
 10
10.5252400277
 20
7.6459896312
 30
0.0
 10
10.5202465431
 20
7.6436808484
 30
0.0
 10
10.5140046877
 20
7.6407948687
 30
0.0
 10
10.507762832
 20
7.6379088897
 30
0.0
 10
10.5027693478
 20
7.6356001057
 30
0.0
 10
10.4990242336
 20
7.6338685198
 30
0.0
 10
10.4952791236
 20
7.632136926
 30
0.0
 10
10.4921581856
 20
7.6306939558
 30
0.0
 10
10.4896614643
 20
7.6295395243
 30
0.0
 10
10.4881009472
 20
7.6288181309
 30
0.0
 10
10.4868526853
 20
7.6282407268
 30
0.0
 10
10.4859160733
 20
7.6278084661
 30
0.0
 10
10.4851368852
 20
7.6274457282
 30
0.0
 10
10.4845888594
 20
7.6271967583
 30
0.0
 10
10.4842797522
 20
7.6270467661
 30
0.0
 10
10.4840365119
 20
7.6269560297
 30
0.0
 10
10.4838368862
 20
7.626782124
 30
0.0
 10
10.4835555052
 20
7.6265792601
 30
0.0
 10
10.4830701767
 20
7.6262107317
 30
0.0
 10
10.4823731445
 20
7.6256913292
 30
0.0
 10
10.4815382921
 20
7.6250650215
 30
0.0
 10
10.4804246015
 20
7.6242310011
 30
0.0
 10
10.4790326779
 20
7.6231881138
 30
0.0
 10
10.4768054942
 20
7.6215196963
 30
0.0
 10
10.4740215509
 20
7.619434105
 30
0.0
 10
10.4706808034
 20
7.6169314252
 30
0.0
 10
10.4673400601
 20
7.6144287375
 30
0.0
 10
10.4628857341
 20
7.6110918233
 30
0.0
 10
10.4573178273
 20
7.6069206795
 30
0.0
 10
10.45174992
 20
7.6027495363
 30
0.0
 10
10.4472955948
 20
7.5994126211
 30
0.0
 10
10.4439548492
 20
7.5969099363
 30
0.0
 10
10.4406141102
 20
7.5944072455
 30
0.0
 10
10.4378301403
 20
7.5923216887
 30
0.0
 10
10.435603011
 20
7.5906532009
 30
0.0
 10
10.4342109489
 20
7.5896104924
 30
0.0
 10
10.4330975426
 20
7.5887761049
 30
0.0
 10
10.4322618215
 20
7.5881509187
 30
0.0
 10
10.4315675071
 20
7.5876280073
 30
0.0
 10
10.431077327
 20
7.5872657429
 30
0.0
 10
10.4308037195
 20
7.5870528426
 30
0.0
 10
10.4305802162
 20
7.5869097654
 30
0.0
 10
10.4304266558
 20
7.5867032423
 30
0.0
 10
10.4301975117
 20
7.5864500088
 30
0.0
 10
10.4298078765
 20
7.5859965391
 30
0.0
 10
10.4292453119
 20
7.585354116
 30
0.0
 10
10.4285727782
 20
7.5845809009
 30
0.0
 10
10.4276751781
 20
7.5835507533
 30
0.0
 10
10.4265534822
 20
7.5822627929
 30
0.0
 10
10.4247585987
 20
7.5802022104
 30
0.0
 10
10.4225150526
 20
7.5776264294
 30
0.0
 10
10.4198227724
 20
7.5745355149
 30
0.0
 10
10.4171304988
 20
7.5714445944
 30
0.0
 10
10.4135407984
 20
7.5673233691
 30
0.0
 10
10.4090536737
 20
7.5621718367
 30
0.0
 10
10.4045665485
 20
7.5570203048
 30
0.0
 10
10.400976849
 20
7.5528990787
 30
0.0
 10
10.3982845726
 20
7.5498081605
 30
0.0
 10
10.3955923032
 20
7.5467172371
 30
0.0
 10
10.3933487233
 20
7.5441414839
 30
0.0
 10
10.3915539089
 20
7.5420808447
 30
0.0
 10
10.3904320371
 20
7.5407930286
 30
0.0
 10
10.3895347979
 20
7.5397625849
 30
0.0
 10
10.3888611616
 20
7.5389902744
 30
0.0
 10
10.3883020467
 20
7.538345021
 30
0.0
 10
10.3879062533
 20
7.5378966038
 30
0.0
 10
10.3876869761
 20
7.5376352749
 30
0.0
 10
10.3875031079
 20
7.5374536184
 30
0.0
 10
10.3873934356
 20
7.5372171465
 30
0.0
 10
10.3872213255
 20
7.5369209708
 30
0.0
 10
10.3869321911
 20
7.5363937549
 30
0.0
 10
10.3865128377
 20
7.5356452468
 30
0.0
 10
10.386012312
 20
7.5347450436
 30
0.0
 10
10.385344002
 20
7.5335454689
 30
0.0
 10
10.3845089372
 20
7.5320457621
 30
0.0
 10
10.383172653
 20
7.5296463645
 30
0.0
 10
10.3815023598
 20
7.5266470718
 30
0.0
 10
10.3794979813
 20
7.5230479401
 30
0.0
 10
10.37749361
 20
7.5194488032
 30
0.0
 10
10.3748211124
 20
7.5146499558
 30
0.0
 10
10.3714804913
 20
7.5086513959
 30
0.0
 10
10.3681398696
 20
7.5026528365
 30
0.0
 10
10.3654673731
 20
7.4978539884
 30
0.0
 10
10.3634629986
 20
7.4942548534
 30
0.0
 10
10.361458632
 20
7.4906557146
 30
0.0
 10
10.3597883019
 20
7.4876564442
 30
0.0
 10
10.3584520928
 20
7.4852570011
 30
0.0
 10
10.357616837
 20
7.48375741
 30
0.0
 10
10.3569489191
 20
7.4825575979
 30
0.0
 10
10.3564471953
 20
7.4816581201
 30
0.0
 10
10.3560315904
 20
7.4809073422
 30
0.0
 10
10.3557357643
 20
7.4803841784
 30
0.0
 10
10.3555743759
 20
7.4800815102
 30
0.0
 10
10.3554317701
 20
7.4798649811
 30
0.0
 10
10.3553715948
 20
7.4796084229
 30
0.0
 10
10.3552626084
 20
7.4792803078
 30
0.0
 10
10.3550852786
 20
7.478699601
 30
0.0
 10
10.3548249465
 20
7.477873421
 30
0.0
 10
10.3545155459
 20
7.4768805493
 30
0.0
 10
10.3541019646
 20
7.4755572287
 30
0.0
 10
10.3535853465
 20
7.4739029039
 30
0.0
 10
10.3527585571
 20
7.4712560815
 30
0.0
 10
10.3517251392
 20
7.4679475201
 30
0.0
 10
10.3504850082
 20
7.4639772608
 30
0.0
 10
10.3492448851
 20
7.4600069976
 30
0.0
 10
10.3475913849
 20
7.4547133147
 30
0.0
 10
10.3455245106
 20
7.4480962106
 30
0.0
 10
10.3434576357
 20
7.4414791069
 30
0.0
 10
10.3418041366
 20
7.4361854235
 30
0.0
 10
10.3405640101
 20
7.4322151618
 30
0.0
 10
10.3393238919
 20
7.428244897
 30
0.0
 10
10.3382904341
 20
7.4249363525
 30
0.0
 10
10.3374637262
 20
7.4222894957
 30
0.0
 10
10.3369469008
 20
7.4206352586
 30
0.0
 10
10.336533745
 20
7.4193117579
 30
0.0
 10
10.3362230444
 20
7.4183194364
 30
0.0
 10
10.3359667794
 20
7.4174915349
 30
0.0
 10
10.3357821891
 20
7.4169139012
 30
0.0
 10
10.3356848359
 20
7.4165808624
 30
0.0
 10
10.3355889273
 20
7.4163394284
 30
0.0
 10
10.3355805297
 20
7.4160660949
 30
0.0
 10
10.3355388082
 20
7.4157127771
 30
0.0
 10
10.3354800176
 20
7.4150892867
 30
0.0
 10
10.3353885955
 20
7.4142012966
 30
0.0
 10
10.3352820716
 20
7.4131345483
 30
0.0
 10
10.3351389281
 20
7.4117126225
 30
0.0
 10
10.3349603794
 20
7.4099350764
 30
0.0
 10
10.3346744887
 20
7.4070910802
 30
0.0
 10
10.3343171983
 20
7.4035360584
 30
0.0
 10
10.3338884186
 20
7.3992700437
 30
0.0
 10
10.3334596472
 20
7.3950040259
 30
0.0
 10
10.3328879492
 20
7.3893160032
 30
0.0
 10
10.3321733277
 20
7.3822059745
 30
0.0
 10
10.3314587054
 20
7.375095946
 30
0.0
 10
10.3308870085
 20
7.3694079231
 30
0.0
 10
10.3304582336
 20
7.3651419059
 30
0.0
 10
10.3300294673
 20
7.3608758889
 30
0.0
 10
10.329672135
 20
7.3573208742
 30
0.0
 10
10.3293863298
 20
7.3544768635
 30
0.0
 10
10.3292075635
 20
7.3526993543
 30
0.0
 10
10.3290648667
 20
7.3512773529
 30
0.0
 10
10.3289569782
 20
7.3502108354
 30
0.0
 10
10.3288698257
 20
7.349322123
 30
0.0
 10
10.3288034131
 20
7.348699922
 30
0.0
 10
10.3287739038
 20
7.3483445384
 30
0.0
 10
10.3287279942
 20
7.3480775505
 30
0.0
 10
10.3287729747
 20
7.3478122833
 30
0.0
 10
10.3288012453
 20
7.3474579935
 30
0.0
 10
10.32886549
 20
7.3468382659
 30
0.0
 10
10.3289495456
 20
7.3459527947
 30
0.0
 10
10.3290537178
 20
7.3448902918
 30
0.0
 10
10.3291914596
 20
7.3434735994
 30
0.0
 10
10.3293640321
 20
7.3417027413
 30
0.0
 10
10.3296399271
 20
7.3388693643
 30
0.0
 10
10.3299848718
 20
7.3353276444
 30
0.0
 10
10.3303987729
 20
7.3310775799
 30
0.0
 10
10.3308126826
 20
7.3268275157
 30
0.0
 10
10.3313645593
 20
7.3211607632
 30
0.0
 10
10.3320544062
 20
7.3140773227
 30
0.0
 10
10.3327442524
 20
7.3069938821
 30
0.0
 10
10.3332961302
 20
7.3013271297
 30
0.0
 10
10.3337100364
 20
7.2970770652
 30
0.0
 10
10.334123951
 20
7.2928270017
 30
0.0
 10
10.3344688537
 20
7.2892852788
 30
0.0
 10
10.3347448343
 20
7.286451908
 30
0.0
 10
10.3349171891
 20
7.2846810341
 30
0.0
 10
10.3350553777
 20
7.2832643742
 30
0.0
 10
10.3351581847
 20
7.2822017719
 30
0.0
 10
10.3352465117
 20
7.2813166115
 30
0.0
 10
10.3353031313
 20
7.280696329
 30
0.0
 10
10.3353436192
 20
7.2803429284
 30
0.0
 10
10.3353510718
 20
7.28007493
 30
0.0
 10
10.3354461108
 20
7.2798182
 30
0.0
 10
10.3355422784
 20
7.2794719628
 30
0.0
 10
10.335724806
 20
7.278867879
 30
0.0
 10
10.3359781178
 20
7.2780039448
 30
0.0
 10
10.3362852773
 20
7.2769676335
 30
0.0
 10
10.3366937107
 20
7.275585742
 30
0.0
 10
10.3372046335
 20
7.2738584266
 30
0.0
 10
10.338021897
 20
7.2710946946
 30
0.0
 10
10.3390435494
 20
7.2676400389
 30
0.0
 10
10.3402695009
 20
7.2634944482
 30
0.0
 10
10.3414954609
 20
7.2593488585
 30
0.0
 10
10.3431300712
 20
7.2538214052
 30
0.0
 10
10.3451733353
 20
7.2469120887
 30
0.0
 10
10.3472165986
 20
7.240002772
 30
0.0
 10
10.34885121
 20
7.234475319
 30
0.0
 10
10.3500771666
 20
7.2303297285
 30
0.0
 10
10.351303131
 20
7.2261841407
 30
0.0
 10
10.3523247434
 20
7.2227294758
 30
0.0
 10
10.3531420884
 20
7.2199657627
 30
0.0
 10
10.3536528037
 20
7.2182383991
 30
0.0
 10
10.3540616631
 20
7.2168566066
 30
0.0
 10
10.3543675212
 20
7.2158199927
 30
0.0
 10
10.3546249048
 20
7.2149570054
 30
0.0
 10
10.3548001635
 20
7.2143512311
 30
0.0
 10
10.3549079775
 20
7.2140077025
 30
0.0
 10
10.3549672423
 20
7.2137426526
 30
0.0
 10
10.3551090569
 20
7.2135059025
 30
0.0
 10
10.3552693488
 20
7.2131803643
 30
0.0
 10
10.3555632753
 20
7.2126152717
 30
0.0
 10
10.3559761563
 20
7.2118055921
 30
0.0
 10
10.3564746158
 20
7.2108350057
 30
0.0
 10
10.3571381798
 20
7.2095405311
 30
0.0
 10
10.3579679938
 20
7.2079225609
 30
0.0
 10
10.3592954957
 20
7.2053337398
 30
0.0
 10
10.3609549418
 20
7.2020977371
 30
0.0
 10
10.3629462476
 20
7.1982145237
 30
0.0
 10
10.3649375614
 20
7.1943313129
 30
0.0
 10
10.3675926436
 20
7.1891536977
 30
0.0
 10
10.3709114974
 20
7.182681679
 30
0.0
 10
10.3742303505
 20
7.17620966
 30
0.0
 10
10.3768854338
 20
7.1710320453
 30
0.0
 10
10.3788767443
 20
7.1671488332
 30
0.0
 10
10.3808680624
 20
7.1632656248
 30
0.0
 10
10.3825274703
 20
7.1600296064
 30
0.0
 10
10.3838550501
 20
7.1574408171
 30
0.0
 10
10.3846846657
 20
7.155822766
 30
0.0
 10
10.3853486371
 20
7.1545284575
 30
0.0
 10
10.3858458521
 20
7.1535573636
 30
0.0
 10
10.3862626268
 20
7.1527492721
 30
0.0
 10
10.3865496024
 20
7.1521813445
 30
0.0
 10
10.3867210313
 20
7.1518603487
 30
0.0
 10
10.3868286364
 20
7.1516096459
 30
0.0
 10
10.3870163863
 20
7.1513969996
 30
0.0
 10
10.387238764
 20
7.1511001968
 30
0.0
 10
10.38764095
 20
7.1505869766
 30
0.0
 10
10.3882086918
 20
7.1498505713
 30
0.0
 10
10.3888928968
 20
7.1489682691
 30
0.0
 10
10.3898041519
 20
7.1477913828
 30
0.0
 10
10.3909435695
 20
7.1463204403
 30
0.0
 10
10.3927664427
 20
7.1439668399
 30
0.0
 10
10.3950451011
 20
7.1410248712
 30
0.0
 10
10.3977794625
 20
7.137494495
 30
0.0
 10
10.4005138316
 20
7.1339641225
 30
0.0
 10
10.4041596543
 20
7.1292569579
 30
0.0
 10
10.4087169337
 20
7.1233730027
 30
0.0
 10
10.4132742126
 20
7.117489047
 30
0.0
 10
10.4169200363
 20
7.1127818831
 30
0.0
 10
10.4196544026
 20
7.1092515085
 30
0.0
 10
10.4223887745
 20
7.1057211403
 30
0.0
 10
10.4246674002
 20
7.1027791471
 30
0.0
 10
10.42649034
 20
7.1004255965
 30
0.0
 10
10.4276295883
 20
7.0989545273
 30
0.0
 10
10.4285411908
 20
7.0977779011
 30
0.0
 10
10.4292243345
 20
7.0968948039
 30
0.0
 10
10.4297953967
 20
7.0961608861
 30
0.0
 10
10.4301916552
 20
7.0956432254
 30
0.0
 10
10.4304235302
 20
7.0953535373
 30
0.0
 10
10.4305821075
 20
7.0951190367
 30
0.0
 10
10.43079928
 20
7.0949504153
 30
0.0
 10
10.4310684047
 20
7.0947026073
 30
0.0
 10
10.4315488957
 20
7.0942796499
 30
0.0
 10
10.4322303328
 20
7.0936698276
 30
0.0
 10
10.4330501883
 20
7.0929404367
 30
0.0
 10
10.4341425847
 20
7.0919670786
 30
0.0
 10
10.435508335
 20
7.0907506676
 30
0.0
 10
10.437693393
 20
7.0888042498
 30
0.0
 10
10.4404247644
 20
7.0863712825
 30
0.0
 10
10.4437023892
 20
7.0834516982
 30
0.0
 10
10.4469800196
 20
7.0805321202
 30
0.0
 10
10.4513501914
 20
7.0766393473
 30
0.0
 10
10.456812907
 20
7.0717733821
 30
0.0
 10
10.4622756221
 20
7.0669074162
 30
0.0
 10
10.4666457947
 20
7.0630146443
 30
0.0
 10
10.4699234229
 20
7.0600950635
 30
0.0
 10
10.4732010558
 20
7.0571754895
 30
0.0
 10
10.4759324018
 20
7.0547424901
 30
0.0
 10
10.4781175117
 20
7.0527961378
 30
0.0
 10
10.47948313
 20
7.0515795601
 30
0.0
 10
10.4805757974
 20
7.0506065442
 30
0.0
 10
10.4813948248
 20
7.0498761082
 30
0.0
 10
10.4820788529
 20
7.0492695557
 30
0.0
 10
10.4825547184
 20
7.048840761
 30
0.0
 10
10.4828312543
 20
7.0486023059
 30
0.0
 10
10.4830256621
 20
7.0484049555
 30
0.0
 10
10.4832697398
 20
7.0482783563
 30
0.0
 10
10.4835778513
 20
7.0480848787
 30
0.0
 10
10.4841251188
 20
7.0477577911
 30
0.0
 10
10.4849027091
 20
7.0472845117
 30
0.0
 10
10.4858376239
 20
7.0467191494
 30
0.0
 10
10.4870835461
 20
7.0459644344
 30
0.0
 10
10.4886411648
 20
7.0450213483
 30
0.0
 10
10.491133234
 20
7.0435122386
 30
0.0
 10
10.494248362
 20
7.0416259105
 30
0.0
 10
10.4979864978
 20
7.0393622915
 30
0.0
 10
10.5017246383
 20
7.0370986792
 30
0.0
 10
10.506708824
 20
7.0340805271
 30
0.0
 10
10.5129390568
 20
7.030307838
 30
0.0
 10
10.5191692892
 20
7.0265351482
 30
0.0
 10
10.5241534754
 20
7.0235169971
 30
0.0
 10
10.5278916143
 20
7.0212533818
 30
0.0
 10
10.5316297564
 20
7.0189897742
 30
0.0
 10
10.5347448646
 20
7.0171034106
 30
0.0
 10
10.5372369741
 20
7.0155943732
 30
0.0
 10
10.5387944904
 20
7.0146511032
 30
0.0
 10
10.5400406228
 20
7.0138967657
 30
0.0
 10
10.5409748952
 20
7.01333025
 30
0.0
 10
10.5417544955
 20
7.0128605796
 30
0.0
 10
10.5422981749
 20
7.0125270492
 30
0.0
 10
10.5426120353
 20
7.0123438945
 30
0.0
 10
10.5428384542
 20
7.0121855865
 30
0.0
 10
10.5430991856
 20
7.0121073294
 30
0.0
 10
10.5434348589
 20
7.011975064
 30
0.0
 10
10.5440278635
 20
7.0117566092
 30
0.0
 10
10.5448720976
 20
7.0114377293
 30
0.0
 10
10.5458864264
 20
7.0110579847
 30
0.0
 10
10.5472384289
 20
7.0105506417
 30
0.0
 10
10.5489285813
 20
7.0099168111
 30
0.0
 10
10.5516327418
 20
7.0089024876
 30
0.0
 10
10.5550129709
 20
7.00763465
 30
0.0
 10
10.5590692336
 20
7.0061132162
 30
0.0
 10
10.5631254996
 20
7.0045917901
 30
0.0
 10
10.5685338531
 20
7.0025632193
 30
0.0
 10
10.5752942954
 20
7.0000275068
 30
0.0
 10
10.5820547375
 20
6.9974917936
 30
0.0
 10
10.5874630914
 20
6.9954632239
 30
0.0
 10
10.5915193562
 20
6.9939417944
 30
0.0
 10
10.5955756234
 20
6.9924203732
 30
0.0
 10
10.5989558385
 20
6.9911524966
 30
0.0
 10
10.6016600277
 20
6.9901382526
 30
0.0
 10
10.6033501067
 20
6.9895042198
 30
0.0
 10
10.6047022598
 20
6.9889972919
 30
0.0
 10
10.6057161286
 20
6.9886162792
 30
0.0
 10
10.6065618021
 20
6.9883013666
 30
0.0
 10
10.6071522372
 20
6.9880758295
 30
0.0
 10
10.6074920275
 20
6.9879549117
 30
0.0
 10
10.6077401127
 20
6.9878417984
 30
0.0
 10
10.6080140287
 20
6.9878144047
 30
0.0
 10
10.6083702401
 20
6.9877479798
 30
0.0
 10
10.6089978079
 20
6.9876456672
 30
0.0
 10
10.6098921385
 20
6.987492223
 30
0.0
 10
10.6109662748
 20
6.9873112075
 30
0.0
 10
10.6123981283
 20
6.9870687647
 30
0.0
 10
10.6141880575
 20
6.986766084
 30
0.0
 10
10.6170518815
 20
6.9862815864
 30
0.0
 10
10.6206316831
 20
6.9856760359
 30
0.0
 10
10.6249274357
 20
6.9849493448
 30
0.0
 10
10.6292231908
 20
6.9842226618
 30
0.0
 10
10.6349508634
 20
6.9832537483
 30
0.0
 10
10.6421104544
 20
6.9820426074
 30
0.0
 10
10.6507019636
 20
6.9805892378
 30
0.0
 10
10.6621573091
 20
6.978651412
 30
0.0
 10
10.6707488183
 20
6.9771980425
 30
0.0
 10
10.676476491
 20
6.9762291296
 30
0.0
  0
ENDSEC
  0
SECTION
  2
OBJECTS
  0
DICTIONARY
  5
C
100
AcDbDictionary
280
0
281
1
  3
ACAD_GROUP
350
D
  3
ACAD_MLINESTYLE
350
17
  3
ACAD_LAYOUT
350
1A
  3
ACAD_PLOTSETTINGS
350
19
  3
ACAD_PLOTSTYLENAME
350
E
  3
ACAD_IMAGE_DICT
350
       30D
  3
ACAD_IMAGE_VARS
350
       30E
  3
ACAD_TABLESTYLE
350
       30F
  0
IMAGEDEF_REACTOR
  5
30C
100
AcDbRasterImageDefReactor
 90
2
330
27F
  0
DICTIONARY
  5
D
102
{ACAD_REACTORS
330
C
102
}
100
AcDbDictionary
280
0
281
1
  0
ACDBDICTIONARYWDFLT
  5
E
102
{ACAD_REACTORS
330
C
102
}
100
AcDbDictionary
281
1
  3
Normal
350
F
100
AcDbDictionaryWithDefault
340
F
  0
DICTIONARY
  5
30D
330
C
100
AcDbDictionary
281
1
  3
FAI_assy_2_img_1
350
       312
  0
RASTERVARIABLES
  5
30E
330
C
100
AcDbRasterVariables
 90
0
 70
0
 71
1
 72
5
  0
DICTIONARY
  5
17
102
{ACAD_REACTORS
330
C
102
}
100
AcDbDictionary
280
0
281
1
  3
Standard
350
18
  0
DICTIONARY
  5
30F
330
C
100
AcDbDictionary
281
1
  3
Standard
350
       313
  3
Standard1
350
       314
  0
DICTIONARY
  5
19
102
{ACAD_REACTORS
330
C
102
}
100
AcDbDictionary
281
1
  0
DICTIONARY
  5
1A
102
{ACAD_REACTORS
330
C
102
}
100
AcDbDictionary
281
1
  3
Model
350
310
  3
Layout1
350
311
  0
ACDBPLACEHOLDER
  5
F
102
{ACAD_REACTORS
330
E
102
}
  0
MLINESTYLE
  5
18
102
{ACAD_REACTORS
330
17
102
}
100
AcDbMlineStyle
  2
STANDARD
 70
0
  3

 62
256
 51
90.0
 52
90.0
 71
2
 49
0.5
 62
256
  6
BYLAYER
 49
-0.5
 62
256
  6
BYLAYER
  0
LAYOUT
  5
310
102
{ACAD_REACTORS
330
1A
102
}
100
AcDbPlotSettings
  1

  2
none_device
  4
ANSI_C_(22.00_x_17.00_Inches)
  6

 40
0.0
 41
0.0
 42
0.0
 43
0.0
 44
558.8
 45
431.8
 46
0.0
 47
0.0
 48
0.0
 49
0.0
140
0.0
141
0.0
142
1.0
143
1.0
 70
1024
 72
0
 73
0
 74
0
  7

 75
0
147
1.0
148
0.0
149
0.0
100
AcDbLayout
  1
Model
 70
0
 71
0
 10
0.0
 20
0.0
 11
22.0
 21
17.0
 12
0.0
 22
0.0
 32
0.0
 14
0.0
 24
0.0
 34
0.0
 15
0.0
 25
0.0
 35
0.0
146
0.0
 13
0.0
 23
0.0
 33
0.0
 16
1.0
 26
0.0
 36
0.0
 17
0.0
 27
1.0
 37
0.0
 76
0
330
204
345
0
346
0
  0
LAYOUT
  5
311
102
{ACAD_REACTORS
330
1A
102
}
100
AcDbPlotSettings
  1

  2
none_device
  4
ANSI_C_(22.00_x_17.00_Inches)
  6

 40
0.0
 41
0.0
 42
0.0
 43
0.0
 44
558.8
 45
431.8
 46
0.0
 47
0.0
 48
0.0
 49
0.0
140
0.0
141
0.0
142
1.0
143
1.0
 70
0
 72
0
 73
0
 74
0
  7

 75
0
147
1.0
148
0.0
149
0.0
100
AcDbLayout
  1
Layout1
 70
0
 71
1
 10
0.0
 20
0.0
 11
22.0
 21
17.0
 12
0.0
 22
0.0
 32
0.0
 14
0.0
 24
0.0
 34
0.0
 15
0.0
 25
0.0
 35
0.0
146
0.0
 13
0.0
 23
0.0
 33
0.0
 16
1.0
 26
0.0
 36
0.0
 17
0.0
 27
1.0
 37
0.0
 76
0
330
205
345
0
346
0
  0
IMAGEDEF
  5
312
102
{ACAD_REACTORS
330
30D
330
30C
102
}
100
AcDbRasterImageDef
 90
0
  1
FAI_assy_2_img_1.png
 10
369.0
 20
92.0
 11
0.0066666667
 21
0.0066666667
280
1
281
0
  0
TABLESTYLE
  5
313
102
{ACAD_REACTORS
330
30F
330
282
330
283
102
}
330
30F
100
AcDbTableStyle
  3
Standard
 70
0
 71
0
 40
0.06
 41
0.06
280
1
281
1
  7
Standard
140
0.18
170
1
 62
0
 63
7
283
0
  7
Standard
140
0.18
170
1
 62
0
 63
7
283
0
  7
Standard
140
0.18
170
1
 62
0
 63
7
283
0
  0
TABLESTYLE
  5
314
102
{ACAD_REACTORS
330
30F
330
281
102
}
330
30F
100
AcDbTableStyle
  3
Standard1
 70
1
 71
0
 40
0.06
 41
0.06
280
1
281
1
  7
Standard
140
0.18
170
1
 62
0
 63
7
283
0
  7
Standard
140
0.18
170
1
 62
0
 63
7
283
0
  7
Standard
140
0.18
170
1
 62
0
 63
7
283
0
  0
ENDSEC
  0
EOF
