999
DXF file: FAC_assy_2.dxf
999
Pro/ENGINEER 2014200 by Parametric Technology Corporation
  0
SECTION
  2
HEADER
  9
$ACADVER
  1
AC1021
  9
$DWGCODEPAGE
  3
ANSI_1252
  9
$EXTMAX
 10
22.0
 20
17.0
 30
0.0
  9
$EXTMIN
 10
0.0
 20
0.0
 30
0.0
  9
$LIMMIN
 10
0.0
 20
0.0
  9
$LIMMAX
 10
22.0
 20
17.0
  9
$VIEWCTR
 10
11.0
 20
8.5
  9
$VIEWSIZE
 40
17.0
  9
$CLAYER
  8
0
  9
$LTSCALE
 40
1.21
  9
$CELTYPE
  6
BYLAYER
  9
$DIMSCALE
 40
1.0
  9
$DIMASZ
 40
0.1875
  9
$DIMEXO
 40
0.0625
  9
$DIMDLI
 40
0.836
  9
$DIMEXE
 40
0.125
  9
$DIMCEN
 40
0.198
  9
$DIMLFAC
 40
1.0
  9
$DIMBLK
  1
_FILLED
  9
$DIMTXT
 40
0.1
  9
$DIMTOL
 70
0
  9
$DIMLIM
 70
0
  9
$DIMTFAC
 40
1.0
  9
$DIMGAP
 40
0.09
  9
$DIMDSEP
 70
46
  9
$AUNITS
 70
0
  9
$PDMODE
 70
3
  9
$PDSIZE
 40
0.3125
  9
$HANDSEED
  5
313
  9
$TILEMODE
 70
1
  9
$MEASUREMENT
 70
0
  9
$INSUNITS
 70
1
  0
ENDSEC
  0
SECTION
  2
CLASSES
  0
CLASS
  1
ACDBDICTIONARYWDFLT
  2
AcDbDictionaryWithDefault
  3
AutoCAD 2000
 90
0
 91
1
280
0
281
0
  0
CLASS
  1
ACDBPLACEHOLDER
  2
AcDbPlaceHolder
  3
AutoCAD 2000
 90
0
 91
1
280
0
281
0
  0
CLASS
  1
LAYOUT
  2
AcDbLayout
  3
AutoCAD 2000
 90
0
 91
0
280
0
281
0
  0
CLASS
  1
RASTERVARIABLES
  2
AcDbRasterVariables
  3
ISM
 90
0
 91
1
280
0
281
0
  0
CLASS
  1
IMAGEDEF
  2
AcDbRasterImageDef
  3
ISM
 90
0
 91
1
280
0
281
0
  0
CLASS
  1
IMAGEDEF_REACTOR
  2
AcDbRasterImageDefReactor
  3
ISM
 90
0
 91
1
280
0
281
0
  0
CLASS
  1
IMAGE
  2
AcDbRasterImage
  3
ISM
 90
127
 91
1
280
0
281
1
  0
CLASS
  1
TABLESTYLE
  2
AcDbTableStyle
  3
ObjectDBX Classes
 90
2047
 91
1
280
0
281
0
  0
CLASS
  1
ACAD_TABLE
  2
AcDbTable
  3
ObjectDBX Classes
 90
1025
 91
3
280
0
281
1
  0
ENDSEC
  0
SECTION
  2
TABLES
  0
TABLE
  2
VPORT
  5
8
100
AcDbSymbolTable
 70
2
  0
VPORT
  5
1F4
100
AcDbSymbolTableRecord
100
AcDbViewportTableRecord
  2
*ACTIVE
 70
0
 10
0.0
 20
0.0
 11
1.0
 21
1.0
 12
11.0
 22
8.5
 13
0.0
 23
0.0
 14
1.0
 24
1.0
 15
0.0
 25
0.0
 16
0.0
 26
0.0
 36
1.0
 17
0.0
 27
0.0
 37
0.0
 40
17.0
 41
1.2941176471
 42
50.0
 43
0.0
 44
0.0
 50
0.0
 51
0.0
 71
0
 72
100
 73
1
 74
1
 75
0
 76
0
 77
0
 78
0
  0
ENDTAB
  0
TABLE
  2
LTYPE
  5
5
100
AcDbSymbolTable
 70
6
  0
LTYPE
  5
14
100
AcDbSymbolTableRecord
100
AcDbLinetypeTableRecord
  2
BYBLOCK
 70
0
  3

 72
65
 73
0
 40
0.0
  0
LTYPE
  5
15
100
AcDbSymbolTableRecord
100
AcDbLinetypeTableRecord
  2
BYLAYER
 70
0
  3

 72
65
 73
0
 40
0.0
  0
LTYPE
  5
16
100
AcDbSymbolTableRecord
100
AcDbLinetypeTableRecord
  2
CONTINUOUS
 70
64
  3
Solid line
 72
65
 73
0
 40
0.0
  0
LTYPE
  5
1F5
100
AcDbSymbolTableRecord
100
AcDbLinetypeTableRecord
  2
CENTER
 70
64
  3
____ _ ____ _ ____ _ ____ _ ____ _ ____ _ ____
 72
65
 73
4
 40
0.6
 49
0.375
 74
0
 49
-0.075
 74
0
 49
0.075
 74
0
 49
-0.075
 74
0
  0
LTYPE
  5
1F6
100
AcDbSymbolTableRecord
100
AcDbLinetypeTableRecord
  2
HIDDEN
 70
64
  3
- - - - - - - - - - - - - - - - - - - -
 72
65
 73
2
 40
0.2
 49
0.1
 74
0
 49
-0.1
 74
0
  0
LTYPE
  5
1F7
100
AcDbSymbolTableRecord
100
AcDbLinetypeTableRecord
  2
PHANTOM
 70
64
  3
_____ _ _ _____ _ _ _____ _ _ _____
 72
65
 73
6
 40
0.8
 49
0.45
 74
0
 49
-0.05
 74
0
 49
0.1
 74
0
 49
-0.05
 74
0
 49
0.1
 74
0
 49
-0.05
 74
0
  0
LTYPE
  5
1F8
100
AcDbSymbolTableRecord
100
AcDbLinetypeTableRecord
  2
DOT
 70
64
  3
. . . . . . . . . . . . . . . . . . . .
 72
65
 73
2
 40
0.2
 49
0.1
 74
0
 49
-0.1
 74
0
  0
LTYPE
  5
1F9
100
AcDbSymbolTableRecord
100
AcDbLinetypeTableRecord
  2
DASHED
 70
64
  3
- - - - - - - - - - - - - - - - - - - -
 72
65
 73
2
 40
0.2
 49
0.1
 74
0
 49
-0.1
 74
0
  0
ENDTAB
  0
TABLE
  2
LAYER
  5
2
100
AcDbSymbolTable
 70
36
  0
LAYER
  5
10
100
AcDbSymbolTableRecord
100
AcDbLayerTableRecord
  2
0
 70
0
 62
7
  6
CONTINUOUS
370
-3
390
F
  0
LAYER
  5
1FA
100
AcDbSymbolTableRecord
100
AcDbLayerTableRecord
  2
DEFAULT_1
 70
0
 62
7
  6
CENTER
370
-3
390
F
  0
LAYER
  5
1FB
100
AcDbSymbolTableRecord
100
AcDbLayerTableRecord
  2
DEFAULT_2
 70
0
 62
8
  6
HIDDEN
370
-3
390
F
  0
LAYER
  5
1FC
100
AcDbSymbolTableRecord
100
AcDbLayerTableRecord
  2
DEFAULT_3
 70
0
 62
7
  6
PHANTOM
370
-3
390
F
  0
LAYER
  5
1FD
100
AcDbSymbolTableRecord
100
AcDbLayerTableRecord
  2
DATUM_PLANES
 70
0
 62
7
  6
CONTINUOUS
370
-3
390
F
  0
LAYER
  5
1FE
100
AcDbSymbolTableRecord
100
AcDbLayerTableRecord
  2
PORT_AREAS
 70
0
 62
7
  6
CONTINUOUS
370
-3
390
F
  0
LAYER
  5
1FF
100
AcDbSymbolTableRecord
100
AcDbLayerTableRecord
  2
SUNNBOMCOSMETIC
 70
0
 62
7
  6
CONTINUOUS
370
-3
390
F
  0
LAYER
  5
200
100
AcDbSymbolTableRecord
100
AcDbLayerTableRecord
  2
SUNNBOMSTAMPING
 70
0
 62
7
  6
CONTINUOUS
370
-3
390
F
  0
LAYER
  5
201
100
AcDbSymbolTableRecord
100
AcDbLayerTableRecord
  2
THREADS
 70
0
 62
7
  6
CONTINUOUS
370
-3
390
F
  0
ENDTAB
  0
TABLE
  2
STYLE
  5
3
100
AcDbSymbolTable
 70
1
  0
STYLE
  5
11
100
AcDbSymbolTableRecord
100
AcDbTextStyleTableRecord
  2
STANDARD
 70
0
 40
0.0
 41
0.8
 50
0.0
 71
0
 42
0.2
  3
txt
  4

  0
STYLE
  5
202
100
AcDbSymbolTableRecord
100
AcDbTextStyleTableRecord
  2
TEXTSTYLE_1
 70
0
 40
0.0
 41
0.8
 50
0.0
 71
0
 42
0.2
  3
gdt
  4

  0
ENDTAB
  0
TABLE
  2
VIEW
  5
6
100
AcDbSymbolTable
 70
0
  0
ENDTAB
  0
TABLE
  2
UCS
  5
7
100
AcDbSymbolTable
 70
0
  0
ENDTAB
  0
TABLE
  2
APPID
  5
9
100
AcDbSymbolTable
 70
1
  0
APPID
  5
203
100
AcDbSymbolTableRecord
100
AcDbRegAppTableRecord
  2
ACAD
 70
0
  0
ENDTAB
  0
TABLE
  2
BLOCK_RECORD
  5
1
100
AcDbSymbolTable
 70
0
  0
BLOCK_RECORD
  5
204
100
AcDbSymbolTableRecord
100
AcDbBlockTableRecord
  2
*Model_Space
  0
BLOCK_RECORD
  5
205
100
AcDbSymbolTableRecord
100
AcDbBlockTableRecord
  2
*Paper_Space
  0
BLOCK_RECORD
  5
206
100
AcDbSymbolTableRecord
100
AcDbBlockTableRecord
  2
SUN_FIRST_THIRD_ANGLE_BL0
  0
BLOCK_RECORD
  5
207
100
AcDbSymbolTableRecord
100
AcDbBlockTableRecord
  2
*T1
  0
BLOCK_RECORD
  5
208
100
AcDbSymbolTableRecord
100
AcDbBlockTableRecord
  2
*T2
  0
BLOCK_RECORD
  5
209
100
AcDbSymbolTableRecord
100
AcDbBlockTableRecord
  2
*T3
  0
ENDTAB
  0
TABLE
  2
DIMSTYLE
  5
A
100
AcDbSymbolTable
 70
1
100
AcDbDimStyleTable
 71
0
  0
DIMSTYLE
105
20A
100
AcDbSymbolTableRecord
100
AcDbDimStyleTableRecord
  2
STANDARD
 70
0
  3

  4

 40
1.0
 41
0.1875
 42
0.0625
 43
0.38
 44
0.125
 45
0.0
 46
0.0
 47
0.001
 48
0.001
140
0.1
141
0.09
142
0.0
143
25.4
144
1.0
145
0.0
146
1.0
147
0.09
 71
0.0
 72
0.0
 73
1
 74
1
 75
0
 76
0
 77
0
 78
4
170
0
171
2
172
0
173
0
174
0
175
0
176
0
177
0
178
0
270
2
271
3
272
3
273
2
274
2
275
0
280
0
281
0
282
0
283
1
284
4
285
0
286
0
287
3
288
0
340
11
278
46
  0
ENDTAB
  0
ENDSEC
  0
SECTION
  2
BLOCKS
  0
BLOCK
  5
20
100
AcDbEntity
  8
0
100
AcDbBlockBegin
  2
*Model_Space
 70
0
 10
0.0
 20
0.0
 30
0.0
  3
*Model_Space
  1

  0
ENDBLK
  5
21
100
AcDbEntity
  8
0
100
AcDbBlockEnd
  0
BLOCK
  5
1C
100
AcDbEntity
  8
0
100
AcDbBlockBegin
  2
*Paper_Space
 70
0
 10
0.0
 20
0.0
 30
0.0
  3
*Paper_Space
  1

  0
ENDBLK
  5
1D
100
AcDbEntity
  8
0
100
AcDbBlockEnd
  0
BLOCK
  5
20B
100
AcDbEntity
  8
0
100
AcDbBlockBegin
 62
2
  6
CONTINUOUS
  2
SUN_FIRST_THIRD_ANGLE_BL0
 70
64
 10
20.4816717061
 20
1.2289683772
  3
SUN_FIRST_THIRD_ANGLE_BL0
  1

  0
TEXT
  5
20C
100
AcDbEntity
  8
0
100
AcDbText
 62
2
  6
CONTINUOUS
 10
19.4750896608
 20
1.4136269581
  7
STANDARD
 40
0.08
  1
FIRST ANGLE
 41
0.8
 72
0
100
AcDbText
  0
TEXT
  5
20D
100
AcDbEntity
  8
0
100
AcDbText
 62
2
  6
CONTINUOUS
 10
20.7842537513
 20
1.4047600029
  7
STANDARD
 40
0.08
  1
THIRD ANGLE
 41
0.8
 72
0
100
AcDbText
  0
LINE
  5
20E
100
AcDbEntity
  8
0
100
AcDbLine
 62
7
  6
CONTINUOUS
 10
19.4767170086
 20
1.1727031207
 11
19.6334271527
 21
1.1717972817
  0
LINE
  5
20F
100
AcDbEntity
  8
0
100
AcDbLine
 62
7
  6
CONTINUOUS
 10
19.6596964832
 20
1.1717972817
 11
19.6950230232
 21
1.171593082
  0
LINE
  5
210
100
AcDbEntity
  8
0
100
AcDbLine
 62
7
  6
CONTINUOUS
 10
19.7194818561
 20
1.1708914427
 11
19.8852396156
 21
1.1699333054
  0
LINE
  5
211
100
AcDbEntity
  8
0
100
AcDbLine
 62
7
  6
CONTINUOUS
 10
19.4758111696
 20
1.2723454088
 11
19.88525039
 21
1.3511534004
  0
LINE
  5
212
100
AcDbEntity
  8
0
100
AcDbLine
 62
7
  6
CONTINUOUS
 10
19.88525039
 20
1.3511534004
 11
19.8831348489
 21
0.9851647912
  0
LINE
  5
213
100
AcDbEntity
  8
0
100
AcDbLine
 62
7
  6
CONTINUOUS
 10
19.8831348489
 20
0.9851647912
 11
19.4767170086
 21
1.0658141206
  0
LINE
  5
214
100
AcDbEntity
  8
0
100
AcDbLine
 62
7
  6
CONTINUOUS
 10
19.4767170086
 20
1.0658141206
 11
19.4779056764
 21
1.2714536432
  0
CIRCLE
  5
215
100
AcDbEntity
  8
0
100
AcDbCircle
 62
7
  6
CONTINUOUS
 10
20.2068232291
 20
1.1717972817
 40
0.175742101
  0
CIRCLE
  5
216
100
AcDbEntity
  8
0
100
AcDbCircle
 62
7
  6
CONTINUOUS
 10
20.2068232291
 20
1.1717972817
 40
0.1005522074
  0
LINE
  5
217
100
AcDbEntity
  8
0
100
AcDbLine
 62
7
  6
CONTINUOUS
 10
20.2077290681
 20
1.3756110529
 11
20.2071171714
 21
1.2379342989
  0
LINE
  5
218
100
AcDbEntity
  8
0
100
AcDbLine
 62
7
  6
CONTINUOUS
 10
20.2077290681
 20
1.2016899681
 11
20.2074674401
 21
1.1428236749
  0
LINE
  5
219
100
AcDbEntity
  8
0
100
AcDbLine
 62
7
  6
CONTINUOUS
 10
20.208634907
 20
1.101141841
 11
20.2080230104
 21
0.963465087
  0
LINE
  5
21A
100
AcDbEntity
  8
0
100
AcDbLine
 62
7
  6
CONTINUOUS
 10
20.0066328138
 20
1.1745147986
 11
20.1443095678
 21
1.1739029019
  0
LINE
  5
21B
100
AcDbEntity
  8
0
100
AcDbLine
 62
7
  6
CONTINUOUS
 10
20.1832714155
 20
1.1727031207
 11
20.238153505
 21
1.172335442
  0
LINE
  5
21C
100
AcDbEntity
  8
0
100
AcDbLine
 62
7
  6
CONTINUOUS
 10
20.2756669918
 20
1.1717972817
 11
20.407916871
 21
1.1712095044
  0
CIRCLE
  5
21D
100
AcDbEntity
  8
0
100
AcDbCircle
 62
7
  6
CONTINUOUS
 10
20.7509457401
 20
1.1693297793
 40
0.1722024983
  0
CIRCLE
  5
21E
100
AcDbEntity
  8
0
100
AcDbCircle
 62
7
  6
CONTINUOUS
 10
20.7509457401
 20
1.1693297793
 40
0.0985164967
  0
LINE
  5
21F
100
AcDbEntity
  8
0
100
AcDbLine
 62
7
  6
CONTINUOUS
 10
20.7169767782
 20
1.170462078
 11
20.7825395137
 21
1.1682766535
  0
LINE
  5
220
100
AcDbEntity
  8
0
100
AcDbLine
 62
7
  6
CONTINUOUS
 10
20.8177513651
 20
1.1693297793
 11
20.947965719
 21
1.1693297793
  0
LINE
  5
221
100
AcDbEntity
  8
0
100
AcDbLine
 62
7
  6
CONTINUOUS
 10
20.6875370113
 20
1.170462078
 11
20.5573226574
 21
1.170462078
  0
LINE
  5
222
100
AcDbEntity
  8
0
100
AcDbLine
 62
7
  6
CONTINUOUS
 10
20.7486811426
 20
1.1987695462
 11
20.7486811426
 21
1.1432869085
  0
LINE
  5
223
100
AcDbEntity
  8
0
100
AcDbLine
 62
7
  6
CONTINUOUS
 10
20.7498134414
 20
1.1059210505
 11
20.7498134414
 21
0.9757066966
  0
LINE
  5
224
100
AcDbEntity
  8
0
100
AcDbLine
 62
7
  6
CONTINUOUS
 10
20.7486811426
 20
1.2338708068
 11
20.7486811426
 21
1.3640851607
  0
LINE
  5
225
100
AcDbEntity
  8
0
100
AcDbLine
 62
7
  6
CONTINUOUS
 10
21.0702539817
 20
1.2701043662
 11
21.4790138229
 21
1.3448360823
  0
LINE
  5
226
100
AcDbEntity
  8
0
100
AcDbLine
 62
7
  6
CONTINUOUS
 10
21.4790138229
 20
1.3448360823
 11
21.4790138229
 21
0.9779712941
  0
LINE
  5
227
100
AcDbEntity
  8
0
100
AcDbLine
 62
7
  6
CONTINUOUS
 10
21.4790138229
 20
0.9779712941
 11
21.069121683
 21
1.0617614
  0
LINE
  5
228
100
AcDbEntity
  8
0
100
AcDbLine
 62
7
  6
CONTINUOUS
 10
21.0702539817
 20
1.2701043662
 11
21.069121683
 21
1.0617614
  0
LINE
  5
229
100
AcDbEntity
  8
0
100
AcDbLine
 62
7
  6
CONTINUOUS
 10
21.4790138229
 20
1.1693297793
 11
21.3159628059
 21
1.1693297793
  0
LINE
  5
22A
100
AcDbEntity
  8
0
100
AcDbLine
 62
7
  6
CONTINUOUS
 10
21.2876553377
 20
1.1693297793
 11
21.2502894796
 21
1.1693297793
  0
LINE
  5
22B
100
AcDbEntity
  8
0
100
AcDbLine
 62
7
  6
CONTINUOUS
 10
21.2208497126
 20
1.1659328831
 11
21.0713862804
 21
1.1659328831
  0
LINE
  5
22C
100
AcDbEntity
  8
0
100
AcDbLine
 62
7
  6
CONTINUOUS
 10
20.4796138713
 20
1.5284908897
 11
20.4766766948
 21
0.9294458646
  0
ENDBLK
  5
22D
100
AcDbEntity
  8
0
  6
BYBLOCK
 62
0
100
AcDbBlockEnd
  0
BLOCK
  5
22E
100
AcDbEntity
  8
0
100
AcDbBlockBegin
  2
*T1
 70
1
 10
0.0
 20
0.0
  3
*T1
  1

  0
LINE
  5
22F
100
AcDbEntity
  8
0
100
AcDbLine
 62
2
  6
CONTINUOUS
 10
9.275
 20
0.0
 11
-0.0
 21
0.0
  0
LINE
  5
230
100
AcDbEntity
  8
0
100
AcDbLine
 62
2
  6
CONTINUOUS
 10
9.275
 20
0.0
 11
9.275
 21
1.25
  0
LINE
  5
231
100
AcDbEntity
  8
0
100
AcDbLine
 62
2
  6
CONTINUOUS
 10
9.275
 20
0.625
 11
-0.0
 21
0.625
  0
LINE
  5
232
100
AcDbEntity
  8
0
100
AcDbLine
 62
2
  6
CONTINUOUS
 10
9.275
 20
1.25
 11
-0.0
 21
1.25
  0
LINE
  5
233
100
AcDbEntity
  8
0
100
AcDbLine
 62
2
  6
CONTINUOUS
 10
6.8
 20
0.0
 11
6.8
 21
1.25
  0
LINE
  5
234
100
AcDbEntity
  8
0
100
AcDbLine
 62
2
  6
CONTINUOUS
 10
6.4
 20
0.0
 11
6.4
 21
0.625
  0
LINE
  5
235
100
AcDbEntity
  8
0
100
AcDbLine
 62
2
  6
CONTINUOUS
 10
5.9
 20
0.0
 11
5.9
 21
0.625
  0
LINE
  5
236
100
AcDbEntity
  8
0
100
AcDbLine
 62
2
  6
CONTINUOUS
 10
5.2
 20
0.0
 11
5.2
 21
0.625
  0
LINE
  5
237
100
AcDbEntity
  8
0
100
AcDbLine
 62
2
  6
CONTINUOUS
 10
4.1
 20
0.0
 11
4.1
 21
1.25
  0
LINE
  5
238
100
AcDbEntity
  8
0
100
AcDbLine
 62
2
  6
CONTINUOUS
 10
-0.0
 20
0.0
 11
-0.0
 21
1.25
  0
MTEXT
  5
239
100
AcDbEntity
  8
0
100
AcDbMText
 62
2
  6
CONTINUOUS
  7
STANDARD
 71
2
 72
1
 10
6.6
 20
0.325
 30
0.0
 11
1.0
 21
0.0
 31
0.0
 44
0.9
  1
2
 40
0.125
 41
0.2
  0
MTEXT
  5
23A
100
AcDbEntity
  8
0
100
AcDbMText
 62
2
  6
CONTINUOUS
  7
STANDARD
 71
2
 72
1
 10
6.15
 20
0.325
 30
0.0
 11
1.0
 21
0.0
 31
0.0
 44
0.9
  1
C
 40
0.125
 41
0.2
  0
MTEXT
  5
23B
100
AcDbEntity
  8
0
100
AcDbMText
 62
2
  6
CONTINUOUS
  7
STANDARD
 71
2
 72
1
 10
5.55
 20
0.325
 30
0.0
 11
1.0
 21
0.0
 31
0.0
 44
0.9
  1
2.000
 40
0.125
 41
1.0
  0
MTEXT
  5
23C
100
AcDbEntity
  8
0
100
AcDbMText
 62
2
  6
CONTINUOUS
  7
STANDARD
 71
2
 72
1
 10
4.65
 20
0.325
 30
0.0
 11
1.0
 21
0.0
 31
0.0
 44
0.9
  1
Nov-14-23
 40
0.125
 41
1.8
  0
MTEXT
  5
23D
100
AcDbEntity
  8
0
100
AcDbMText
 62
2
  6
CONTINUOUS
  7
STANDARD
 71
2
 72
1
 10
2.05
 20
0.4625
 30
0.0
 11
1.0
 21
0.0
 31
0.0
 44
0.9
  1
T-10A Line mount\PNinety degree
 40
0.125
 41
3.2
  0
MTEXT
  5
23E
100
AcDbEntity
  8
0
100
AcDbMText
 62
2
  6
CONTINUOUS
  7
STANDARD
 71
1
 72
1
 10
6.45
 20
0.5625
 30
0.0
 11
1.0
 21
0.0
 31
0.0
 44
0.9
  1
SHEET
 40
0.06
 41
0.48
  0
MTEXT
  5
23F
100
AcDbEntity
  8
0
100
AcDbMText
 62
2
  6
CONTINUOUS
  7
STANDARD
 71
1
 72
1
 10
5.95
 20
0.5625
 30
0.0
 11
1.0
 21
0.0
 31
0.0
 44
0.9
  1
DWG SIZE
 40
0.06
 41
0.768
  0
MTEXT
  5
240
100
AcDbEntity
  8
0
100
AcDbMText
 62
2
  6
CONTINUOUS
  7
STANDARD
 71
1
 72
1
 10
5.25
 20
0.5625
 30
0.0
 11
1.0
 21
0.0
 31
0.0
 44
0.9
  1
SCALE
 40
0.06
 41
0.48
  0
MTEXT
  5
241
100
AcDbEntity
  8
0
100
AcDbMText
 62
2
  6
CONTINUOUS
  7
STANDARD
 71
1
 72
1
 10
4.15
 20
0.5625
 30
0.0
 11
1.0
 21
0.0
 31
0.0
 44
0.9
  1
DATE
 40
0.06
 41
0.384
  0
MTEXT
  5
242
100
AcDbEntity
  8
0
100
AcDbMText
 62
2
  6
CONTINUOUS
  7
STANDARD
 71
1
 72
1
 10
0.05
 20
0.5625
 30
0.0
 11
1.0
 21
0.0
 31
0.0
 44
0.9
  1
DESCRIPTION
 40
0.06
 41
1.056
  0
MTEXT
  5
243
100
AcDbEntity
  8
0
100
AcDbMText
 62
2
  6
CONTINUOUS
  7
STANDARD
 71
2
 72
1
 10
5.45
 20
1.0375
 30
0.0
 11
1.0
 21
0.0
 31
0.0
 44
0.9
  1
ALL DIMENSIONS IN INCH\PVIEWS ARE THIRD ANGLE
 40
0.12
 41
4.224
  0
MTEXT
  5
244
100
AcDbEntity
  8
0
100
AcDbMText
 62
2
  6
CONTINUOUS
  7
STANDARD
 71
2
 72
1
 10
2.05
 20
0.95
 30
0.0
 11
1.0
 21
0.0
 31
0.0
 44
0.9
  1
FAC
 40
0.125
 41
0.6
  0
MTEXT
  5
245
100
AcDbEntity
  8
0
100
AcDbMText
 62
2
  6
CONTINUOUS
  7
STANDARD
 71
1
 72
1
 10
0.05
 20
1.1875
 30
0.0
 11
1.0
 21
0.0
 31
0.0
 44
0.9
  1
MODEL
 40
0.06
 41
0.48
  0
ENDBLK
  5
246
100
AcDbEntity
  8
0
  6
BYBLOCK
 62
0
100
AcDbBlockEnd
  0
BLOCK
  5
247
100
AcDbEntity
  8
0
100
AcDbBlockBegin
  2
*T2
 70
1
 10
0.0
 20
0.0
  3
*T2
  1

  0
LINE
  5
248
100
AcDbEntity
  8
0
100
AcDbLine
 62
2
  6
CONTINUOUS
 10
0.0
 20
0.0
 11
9.055
 21
0.0
  0
LINE
  5
249
100
AcDbEntity
  8
0
100
AcDbLine
 62
2
  6
CONTINUOUS
 10
0.0
 20
0.0
 11
0.0
 21
-2.594
  0
LINE
  5
24A
100
AcDbEntity
  8
0
100
AcDbLine
 62
2
  6
CONTINUOUS
 10
0.0
 20
-0.344
 11
9.055
 21
-0.344
  0
LINE
  5
24B
100
AcDbEntity
  8
0
100
AcDbLine
 62
2
  6
CONTINUOUS
 10
0.0
 20
-0.594
 11
9.055
 21
-0.594
  0
LINE
  5
24C
100
AcDbEntity
  8
0
100
AcDbLine
 62
2
  6
CONTINUOUS
 10
0.0
 20
-0.844
 11
9.055
 21
-0.844
  0
LINE
  5
24D
100
AcDbEntity
  8
0
100
AcDbLine
 62
2
  6
CONTINUOUS
 10
0.0
 20
-1.094
 11
9.055
 21
-1.094
  0
LINE
  5
24E
100
AcDbEntity
  8
0
100
AcDbLine
 62
2
  6
CONTINUOUS
 10
0.0
 20
-1.344
 11
9.055
 21
-1.344
  0
LINE
  5
24F
100
AcDbEntity
  8
0
100
AcDbLine
 62
2
  6
CONTINUOUS
 10
0.0
 20
-1.594
 11
9.055
 21
-1.594
  0
LINE
  5
250
100
AcDbEntity
  8
0
100
AcDbLine
 62
2
  6
CONTINUOUS
 10
0.0
 20
-1.844
 11
9.055
 21
-1.844
  0
LINE
  5
251
100
AcDbEntity
  8
0
100
AcDbLine
 62
2
  6
CONTINUOUS
 10
0.0
 20
-2.094
 11
9.055
 21
-2.094
  0
LINE
  5
252
100
AcDbEntity
  8
0
100
AcDbLine
 62
2
  6
CONTINUOUS
 10
0.0
 20
-2.344
 11
9.055
 21
-2.344
  0
LINE
  5
253
100
AcDbEntity
  8
0
100
AcDbLine
 62
2
  6
CONTINUOUS
 10
0.0
 20
-2.594
 11
9.055
 21
-2.594
  0
LINE
  5
254
100
AcDbEntity
  8
0
100
AcDbLine
 62
2
  6
CONTINUOUS
 10
3.055
 20
0.0
 11
3.055
 21
-2.594
  0
LINE
  5
255
100
AcDbEntity
  8
0
100
AcDbLine
 62
2
  6
CONTINUOUS
 10
9.055
 20
0.0
 11
9.055
 21
-2.594
  0
MTEXT
  5
256
100
AcDbEntity
  8
0
100
AcDbMText
 62
2
  6
CONTINUOUS
  7
STANDARD
 71
2
 72
1
 10
1.5275
 20
-0.0995
 30
0.0
 11
1.0
 21
0.0
 31
0.0
 44
0.9
  1
Technical Data
 40
0.145
 41
3.248
  0
MTEXT
  5
257
100
AcDbEntity
  8
0
100
AcDbMText
 62
2
  6
CONTINUOUS
  7
STANDARD
 71
2
 72
1
 10
4.555
 20
-0.0995
 30
0.0
 11
1.0
 21
0.0
 31
0.0
 44
0.9
  1
U.S. Units
 40
0.145
 41
2.32
  0
MTEXT
  5
258
100
AcDbEntity
  8
0
100
AcDbMText
 62
2
  6
CONTINUOUS
  7
STANDARD
 71
2
 72
1
 10
7.555
 20
-0.0995
 30
0.0
 11
1.0
 21
0.0
 31
0.0
 44
0.9
  1
Metric Units
 40
0.145
 41
2.784
  0
MTEXT
  5
259
100
AcDbEntity
  8
0
100
AcDbMText
 62
2
  6
CONTINUOUS
  7
STANDARD
 71
2
 72
1
 10
1.5275
 20
-0.4065
 30
0.0
 11
1.0
 21
0.0
 31
0.0
 44
0.9
  1
Cavity
 40
0.125
 41
1.2
  0
MTEXT
  5
25A
100
AcDbEntity
  8
0
100
AcDbMText
 62
2
  6
CONTINUOUS
  7
STANDARD
 71
2
 72
1
 10
6.055
 20
-0.4065
 30
0.0
 11
1.0
 21
0.0
 31
0.0
 44
0.9
  1
T-10A
 40
0.125
 41
1.0
  0
MTEXT
  5
25B
100
AcDbEntity
  8
0
100
AcDbMText
 62
2
  6
CONTINUOUS
  7
STANDARD
 71
2
 72
1
 10
1.5275
 20
-0.6565
 30
0.0
 11
1.0
 21
0.0
 31
0.0
 44
0.9
  1
Body Features
 40
0.125
 41
2.6
  0
MTEXT
  5
25C
100
AcDbEntity
  8
0
100
AcDbMText
 62
2
  6
CONTINUOUS
  7
STANDARD
 71
2
 72
1
 10
6.055
 20
-0.6565
 30
0.0
 11
1.0
 21
0.0
 31
0.0
 44
0.9
  1
Ninety degree
 40
0.125
 41
2.6
  0
MTEXT
  5
25D
100
AcDbEntity
  8
0
100
AcDbMText
 62
2
  6
CONTINUOUS
  7
STANDARD
 71
2
 72
1
 10
1.5275
 20
-0.9065
 30
0.0
 11
1.0
 21
0.0
 31
0.0
 44
0.9
  1
Body Type
 40
0.125
 41
1.8
  0
MTEXT
  5
25E
100
AcDbEntity
  8
0
100
AcDbMText
 62
2
  6
CONTINUOUS
  7
STANDARD
 71
2
 72
1
 10
6.055
 20
-0.9065
 30
0.0
 11
1.0
 21
0.0
 31
0.0
 44
0.9
  1
Line mount
 40
0.125
 41
2.0
  0
MTEXT
  5
25F
100
AcDbEntity
  8
0
100
AcDbMText
 62
2
  6
CONTINUOUS
  7
STANDARD
 71
2
 72
1
 10
1.5275
 20
-1.1565
 30
0.0
 11
1.0
 21
0.0
 31
0.0
 44
0.9
  1
Interface
 40
0.125
 41
1.8
  0
MTEXT
  5
260
100
AcDbEntity
  8
0
100
AcDbMText
 62
2
  6
CONTINUOUS
  7
STANDARD
 71
2
 72
1
 10
6.055
 20
-1.1565
 30
0.0
 11
1.0
 21
0.0
 31
0.0
 44
0.9
  1
None
 40
0.125
 41
0.8
  0
MTEXT
  5
261
100
AcDbEntity
  8
0
100
AcDbMText
 62
2
  6
CONTINUOUS
  7
STANDARD
 71
2
 72
1
 10
1.5275
 20
-1.4065
 30
0.0
 11
1.0
 21
0.0
 31
0.0
 44
0.9
  1
Open Cavity Quantity
 40
0.125
 41
4.0
  0
MTEXT
  5
262
100
AcDbEntity
  8
0
100
AcDbMText
 62
2
  6
CONTINUOUS
  7
STANDARD
 71
2
 72
1
 10
6.055
 20
-1.4065
 30
0.0
 11
1.0
 21
0.0
 31
0.0
 44
0.9
  1
1
 40
0.125
 41
0.2
  0
MTEXT
  5
263
100
AcDbEntity
  8
0
100
AcDbMText
 62
2
  6
CONTINUOUS
  7
STANDARD
 71
2
 72
1
 10
1.5275
 20
-1.6565
 30
0.0
 11
1.0
 21
0.0
 31
0.0
 44
0.9
  1
Weight
 40
0.125
 41
1.2
  0
MTEXT
  5
264
100
AcDbEntity
  8
0
100
AcDbMText
 62
2
  6
CONTINUOUS
  7
STANDARD
 71
2
 72
1
 10
4.555
 20
-1.6565
 30
0.0
 11
1.0
 21
0.0
 31
0.0
 44
0.9
  1
0.818 lb.
 40
0.125
 41
1.8
  0
MTEXT
  5
265
100
AcDbEntity
  8
0
100
AcDbMText
 62
2
  6
CONTINUOUS
  7
STANDARD
 71
2
 72
1
 10
7.555
 20
-1.6565
 30
0.0
 11
1.0
 21
0.0
 31
0.0
 44
0.9
  1
0,371 kg.
 40
0.125
 41
1.8
  0
MTEXT
  5
266
100
AcDbEntity
  8
0
100
AcDbMText
 62
2
  6
CONTINUOUS
  7
STANDARD
 71
2
 72
1
 10
1.5275
 20
-1.9065
 30
0.0
 11
1.0
 21
0.0
 31
0.0
 44
0.9
  1
Mounting Hole Diameter
 40
0.125
 41
4.4
  0
MTEXT
  5
267
100
AcDbEntity
  8
0
100
AcDbMText
 62
2
  6
CONTINUOUS
  7
STANDARD
 71
2
 72
1
 10
4.555
 20
-1.9065
 30
0.0
 11
1.0
 21
0.0
 31
0.0
 44
0.9
  1
.34 in.
 40
0.125
 41
1.4
  0
MTEXT
  5
268
100
AcDbEntity
  8
0
100
AcDbMText
 62
2
  6
CONTINUOUS
  7
STANDARD
 71
2
 72
1
 10
7.555
 20
-1.9065
 30
0.0
 11
1.0
 21
0.0
 31
0.0
 44
0.9
  1
8.6 mm
 40
0.125
 41
1.2
  0
MTEXT
  5
269
100
AcDbEntity
  8
0
100
AcDbMText
 62
2
  6
CONTINUOUS
  7
STANDARD
 71
2
 72
1
 10
1.5275
 20
-2.1565
 30
0.0
 11
1.0
 21
0.0
 31
0.0
 44
0.9
  1
Mounting Hole Depth
 40
0.125
 41
3.8
  0
MTEXT
  5
26A
100
AcDbEntity
  8
0
100
AcDbMText
 62
2
  6
CONTINUOUS
  7
STANDARD
 71
2
 72
1
 10
6.055
 20
-2.1565
 30
0.0
 11
1.0
 21
0.0
 31
0.0
 44
0.9
  1
Through
 40
0.125
 41
1.4
  0
MTEXT
  5
26B
100
AcDbEntity
  8
0
100
AcDbMText
 62
2
  6
CONTINUOUS
  7
STANDARD
 71
2
 72
1
 10
1.5275
 20
-2.4065
 30
0.0
 11
1.0
 21
0.0
 31
0.0
 44
0.9
  1
Mounting Hole Quantity
 40
0.125
 41
4.4
  0
MTEXT
  5
26C
100
AcDbEntity
  8
0
100
AcDbMText
 62
2
  6
CONTINUOUS
  7
STANDARD
 71
2
 72
1
 10
6.055
 20
-2.4065
 30
0.0
 11
1.0
 21
0.0
 31
0.0
 44
0.9
  1
1
 40
0.125
 41
0.2
  0
ENDBLK
  5
26D
100
AcDbEntity
  8
0
  6
BYBLOCK
 62
0
100
AcDbBlockEnd
  0
BLOCK
  5
26E
100
AcDbEntity
  8
0
100
AcDbBlockBegin
  2
*T3
 70
1
 10
0.0
 20
0.0
  3
*T3
  1

  0
LINE
  5
26F
100
AcDbEntity
  8
0
100
AcDbLine
 62
2
  6
CONTINUOUS
 10
0.0
 20
0.0
 11
4.6
 21
0.0
  0
LINE
  5
270
100
AcDbEntity
  8
0
100
AcDbLine
 62
2
  6
CONTINUOUS
 10
0.0
 20
0.0
 11
0.0
 21
-0.93775
  0
LINE
  5
271
100
AcDbEntity
  8
0
100
AcDbLine
 62
2
  6
CONTINUOUS
 10
0.0
 20
-0.34375
 11
4.6
 21
-0.34375
  0
LINE
  5
272
100
AcDbEntity
  8
0
100
AcDbLine
 62
2
  6
CONTINUOUS
 10
0.0
 20
-0.68775
 11
4.6
 21
-0.68775
  0
LINE
  5
273
100
AcDbEntity
  8
0
100
AcDbLine
 62
2
  6
CONTINUOUS
 10
0.0
 20
-0.93775
 11
4.6
 21
-0.93775
  0
LINE
  5
274
100
AcDbEntity
  8
0
100
AcDbLine
 62
2
  6
CONTINUOUS
 10
1.3
 20
-0.34375
 11
1.3
 21
-0.93775
  0
LINE
  5
275
100
AcDbEntity
  8
0
100
AcDbLine
 62
2
  6
CONTINUOUS
 10
3.3
 20
-0.34375
 11
3.3
 21
-0.93775
  0
LINE
  5
276
100
AcDbEntity
  8
0
100
AcDbLine
 62
2
  6
CONTINUOUS
 10
4.6
 20
0.0
 11
4.6
 21
-0.93775
  0
MTEXT
  5
277
100
AcDbEntity
  8
0
100
AcDbMText
 62
2
  6
CONTINUOUS
  7
STANDARD
 71
2
 72
1
 10
2.3
 20
-0.099375
 30
0.0
 11
1.0
 21
0.0
 31
0.0
 44
0.9
  1
Port Headings
 40
0.145
 41
3.016
  0
MTEXT
  5
278
100
AcDbEntity
  8
0
100
AcDbMText
 62
2
  6
CONTINUOUS
  7
STANDARD
 71
2
 72
1
 10
0.65
 20
-0.44325
 30
0.0
 11
1.0
 21
0.0
 31
0.0
 44
0.9
  1
Product
 40
0.145
 41
1.624
  0
MTEXT
  5
279
100
AcDbEntity
  8
0
100
AcDbMText
 62
2
  6
CONTINUOUS
  7
STANDARD
 71
2
 72
1
 10
2.3
 20
-0.44325
 30
0.0
 11
1.0
 21
0.0
 31
0.0
 44
0.9
  1
Port
 40
0.145
 41
0.928
  0
MTEXT
  5
27A
100
AcDbEntity
  8
0
100
AcDbMText
 62
2
  6
CONTINUOUS
  7
STANDARD
 71
2
 72
1
 10
3.95
 20
-0.44325
 30
0.0
 11
1.0
 21
0.0
 31
0.0
 44
0.9
  1
Size
 40
0.145
 41
0.928
  0
MTEXT
  5
27B
100
AcDbEntity
  8
0
100
AcDbMText
 62
2
  6
CONTINUOUS
  7
STANDARD
 71
2
 72
1
 10
0.65
 20
-0.75025
 30
0.0
 11
1.0
 21
0.0
 31
0.0
 44
0.9
  1
FAC
 40
0.125
 41
0.6
  0
MTEXT
  5
27C
100
AcDbEntity
  8
0
100
AcDbMText
 62
2
  6
CONTINUOUS
  7
STANDARD
 71
2
 72
1
 10
2.3
 20
-0.75025
 30
0.0
 11
1.0
 21
0.0
 31
0.0
 44
0.9
  1
All Ports
 40
0.125
 41
1.8
  0
MTEXT
  5
27D
100
AcDbEntity
  8
0
100
AcDbMText
 62
2
  6
CONTINUOUS
  7
STANDARD
 71
2
 72
1
 10
3.95
 20
-0.75025
 30
0.0
 11
1.0
 21
0.0
 31
0.0
 44
0.9
  1
1/2" NPTF
 40
0.125
 41
1.8
  0
ENDBLK
  5
27E
100
AcDbEntity
  8
0
  6
BYBLOCK
 62
0
100
AcDbBlockEnd
  0
ENDSEC
  0
SECTION
  2
ENTITIES
  0
IMAGE
  5
27F
100
AcDbEntity
  8
0
100
AcDbRasterImage
 62
7
  6
CONTINUOUS
 10
19.2297077316
 20
0.3094318264
 30
0.0
 11
0.0066666667
 21
0.0
 31
0.0
 12
0.0
 22
0.0066666667
 32
0.0
 13
369.0
 23
92.0
340
       310
 70
9
280
0
281
50
282
50
283
0
360
       30A
 71
1
 91
2
 14
-0.5
 24
-0.5
 14
368.5
 24
91.5
  0
INSERT
  5
280
100
AcDbEntity
  8
0
100
AcDbBlockReference
 62
2
  6
CONTINUOUS
  2
SUN_FIRST_THIRD_ANGLE_BL0
 10
20.4816717061
 20
1.2289683772
  0
ACAD_TABLE
  5
281
100
AcDbEntity
  8
0
 62
2
  6
CONTINUOUS
100
AcDbBlockReference
  2
*T1
 10
12.42375
 20
0.30125
 30
0.0
100
AcDbTable
342
       312
343
207
 11
1.0
 21
0.0
 31
0.0
 90
6
 91
4
 92
6
 93
20
 94
0
 95
0
 96
0
 70
1
 41
0.0
141
0.525
141
0.1
141
0.525
141
0.1
142
4.1
142
1.1
142
0.7
142
0.5
142
0.4
142
2.475
171
1
172
0
173
0
174
0
175
1
176
1
 91
33
178
0
145
0.0
301
CELL_VALUE
 90
4
  1
T-10A Line mount\PNinety degree
304
ACVALUE_END
170
2
140
0.125
171
1
172
0
173
0
174
0
175
1
176
1
 91
33
178
0
145
0.0
301
CELL_VALUE
 90
4
  1
Nov-14-23
304
ACVALUE_END
170
5
140
0.125
171
1
172
0
173
0
174
0
175
1
176
1
 91
33
178
0
145
0.0
301
CELL_VALUE
 90
4
  1
2.000
304
ACVALUE_END
170
5
140
0.125
171
1
172
0
173
0
174
0
175
1
176
1
 91
33
178
0
145
0.0
301
CELL_VALUE
 90
4
  1
C
304
ACVALUE_END
170
5
140
0.125
171
1
172
0
173
0
174
0
175
1
176
1
 91
33
178
0
145
0.0
301
CELL_VALUE
 90
4
  1
2
304
ACVALUE_END
170
5
140
0.125
171
1
172
0
173
0
174
0
175
1
176
1
 91
33
178
0
145
0.0
301
CELL_VALUE
 90
4
  1
 
304
ACVALUE_END
170
1
140
0.125
171
1
172
0
173
0
174
0
175
1
176
1
 91
33
178
0
145
0.0
301
CELL_VALUE
 90
4
  1
DESCRIPTION
304
ACVALUE_END
170
1
140
0.06
171
1
172
0
173
0
174
0
175
1
176
1
 91
33
178
0
145
0.0
301
CELL_VALUE
 90
4
  1
DATE
304
ACVALUE_END
170
1
140
0.06
171
1
172
0
173
0
174
0
175
1
176
1
 91
33
178
0
145
0.0
301
CELL_VALUE
 90
4
  1
SCALE
304
ACVALUE_END
170
1
140
0.06
171
1
172
0
173
0
174
0
175
1
176
1
 91
33
178
0
145
0.0
301
CELL_VALUE
 90
4
  1
DWG SIZE
304
ACVALUE_END
170
1
140
0.06
171
1
172
0
173
0
174
0
175
1
176
1
 91
33
178
0
145
0.0
301
CELL_VALUE
 90
4
  1
SHEET
304
ACVALUE_END
170
1
140
0.06
171
1
172
0
173
0
174
0
175
1
176
1
 91
33
178
0
145
0.0
301
CELL_VALUE
 90
4
  1
 
304
ACVALUE_END
170
1
140
0.125
171
1
172
0
173
0
174
0
175
1
176
1
 91
33
178
0
145
0.0
301
CELL_VALUE
 90
4
  1
FAC
304
ACVALUE_END
170
5
140
0.125
171
1
172
0
173
0
174
0
175
4
176
1
 91
33
178
0
145
0.0
301
CELL_VALUE
 90
4
  1
ALL DIMENSIONS IN INCH\PVIEWS ARE THIRD ANGLE
304
ACVALUE_END
170
5
140
0.12
171
1
172
0
173
1
174
0
175
1
176
1
 91
1
178
0
145
0.0
170
1
171
1
172
0
173
1
174
0
175
1
176
1
 91
1
178
0
145
0.0
170
1
171
1
172
0
173
1
174
0
175
1
176
1
 91
1
178
0
145
0.0
170
5
171
1
172
0
173
0
174
0
175
1
176
1
 91
33
178
0
145
0.0
301
CELL_VALUE
 90
4
  1
 
304
ACVALUE_END
170
1
140
0.125
171
1
172
0
173
0
174
0
175
1
176
1
 91
33
178
0
145
0.0
301
CELL_VALUE
 90
4
  1
MODEL
304
ACVALUE_END
170
1
140
0.06
171
1
172
0
173
0
174
0
175
1
176
1
 91
33
178
0
145
0.0
301
CELL_VALUE
 90
4
  1
 
304
ACVALUE_END
170
1
140
0.125
171
1
172
0
173
0
174
0
175
1
176
1
 91
33
178
0
145
0.0
301
CELL_VALUE
 90
4
  1
 
304
ACVALUE_END
170
1
140
0.125
171
1
172
0
173
0
174
0
175
1
176
1
 91
33
178
0
145
0.0
301
CELL_VALUE
 90
4
  1
 
304
ACVALUE_END
170
1
140
0.125
171
1
172
0
173
0
174
0
175
1
176
1
 91
33
178
0
145
0.0
301
CELL_VALUE
 90
4
  1
 
304
ACVALUE_END
170
1
140
0.125
171
1
172
0
173
0
174
0
175
1
176
1
 91
33
178
0
145
0.0
301
CELL_VALUE
 90
4
  1
 
304
ACVALUE_END
170
1
140
0.125
  0
ACAD_TABLE
  5
282
100
AcDbEntity
  8
0
 62
2
  6
CONTINUOUS
100
AcDbBlockReference
  2
*T2
 10
12.4237499994
 20
16.47875
 30
0.0
100
AcDbTable
342
       311
343
208
 11
1.0
 21
0.0
 31
0.0
 90
22
 91
10
 92
3
 93
16
 94
0
 95
0
 96
0
 41
0.028
141
0.344
141
0.25
141
0.25
141
0.25
141
0.25
141
0.25
141
0.25
141
0.25
141
0.25
141
0.25
142
3.055
142
3.0
142
3.0
171
1
172
0
173
0
174
0
175
1
176
1
 91
33
178
0
145
0.0
301
CELL_VALUE
 90
4
  1
Technical Data
304
ACVALUE_END
170
5
140
0.145
171
1
172
0
173
0
174
0
175
1
176
1
 91
33
178
0
145
0.0
301
CELL_VALUE
 90
4
  1
U.S. Units
304
ACVALUE_END
170
5
140
0.145
171
1
172
0
173
0
174
0
175
1
176
1
 91
33
178
0
145
0.0
301
CELL_VALUE
 90
4
  1
Metric Units
304
ACVALUE_END
170
5
140
0.145
171
1
172
0
173
0
174
0
175
1
176
1
 91
33
178
0
145
0.0
301
CELL_VALUE
 90
4
  1
Cavity
304
ACVALUE_END
170
5
140
0.125
171
1
172
0
173
0
174
0
175
2
176
1
 91
33
178
0
145
0.0
301
CELL_VALUE
 90
4
  1
T-10A
304
ACVALUE_END
170
5
140
0.125
171
1
172
0
173
1
174
0
175
1
176
1
 91
1
178
0
145
0.0
170
1
171
1
172
0
173
0
174
0
175
1
176
1
 91
33
178
0
145
0.0
301
CELL_VALUE
 90
4
  1
Body Features
304
ACVALUE_END
170
5
140
0.125
171
1
172
0
173
0
174
0
175
2
176
1
 91
33
178
0
145
0.0
301
CELL_VALUE
 90
4
  1
Ninety degree
304
ACVALUE_END
170
5
140
0.125
171
1
172
0
173
1
174
0
175
1
176
1
 91
1
178
0
145
0.0
170
1
171
1
172
0
173
0
174
0
175
1
176
1
 91
33
178
0
145
0.0
301
CELL_VALUE
 90
4
  1
Body Type
304
ACVALUE_END
170
5
140
0.125
171
1
172
0
173
0
174
0
175
2
176
1
 91
33
178
0
145
0.0
301
CELL_VALUE
 90
4
  1
Line mount
304
ACVALUE_END
170
5
140
0.125
171
1
172
0
173
1
174
0
175
1
176
1
 91
1
178
0
145
0.0
170
1
171
1
172
0
173
0
174
0
175
1
176
1
 91
33
178
0
145
0.0
301
CELL_VALUE
 90
4
  1
Interface
304
ACVALUE_END
170
5
140
0.125
171
1
172
0
173
0
174
0
175
2
176
1
 91
33
178
0
145
0.0
301
CELL_VALUE
 90
4
  1
None
304
ACVALUE_END
170
5
140
0.125
171
1
172
0
173
1
174
0
175
1
176
1
 91
1
178
0
145
0.0
170
1
171
1
172
0
173
0
174
0
175
1
176
1
 91
33
178
0
145
0.0
301
CELL_VALUE
 90
4
  1
Open Cavity Quantity
304
ACVALUE_END
170
5
140
0.125
171
1
172
0
173
0
174
0
175
2
176
1
 91
33
178
0
145
0.0
301
CELL_VALUE
 90
4
  1
1
304
ACVALUE_END
170
5
140
0.125
171
1
172
0
173
1
174
0
175
1
176
1
 91
1
178
0
145
0.0
170
1
171
1
172
0
173
0
174
0
175
1
176
1
 91
33
178
0
145
0.0
301
CELL_VALUE
 90
4
  1
Weight
304
ACVALUE_END
170
5
140
0.125
171
1
172
0
173
0
174
0
175
1
176
1
 91
33
178
0
145
0.0
301
CELL_VALUE
 90
4
  1
0.818 lb.
304
ACVALUE_END
170
5
140
0.125
171
1
172
0
173
0
174
0
175
1
176
1
 91
33
178
0
145
0.0
301
CELL_VALUE
 90
4
  1
0,371 kg.
304
ACVALUE_END
170
5
140
0.125
171
1
172
0
173
0
174
0
175
1
176
1
 91
33
178
0
145
0.0
301
CELL_VALUE
 90
4
  1
Mounting Hole Diameter
304
ACVALUE_END
170
5
140
0.125
171
1
172
0
173
0
174
0
175
1
176
1
 91
33
178
0
145
0.0
301
CELL_VALUE
 90
4
  1
.34 in.
304
ACVALUE_END
170
5
140
0.125
171
1
172
0
173
0
174
0
175
1
176
1
 91
33
178
0
145
0.0
301
CELL_VALUE
 90
4
  1
8.6 mm
304
ACVALUE_END
170
5
140
0.125
171
1
172
0
173
0
174
0
175
1
176
1
 91
33
178
0
145
0.0
301
CELL_VALUE
 90
4
  1
Mounting Hole Depth
304
ACVALUE_END
170
5
140
0.125
171
1
172
0
173
0
174
0
175
2
176
1
 91
33
178
0
145
0.0
301
CELL_VALUE
 90
4
  1
Through
304
ACVALUE_END
170
5
140
0.125
171
1
172
0
173
1
174
0
175
1
176
1
 91
1
178
0
145
0.0
170
1
171
1
172
0
173
0
174
0
175
1
176
1
 91
33
178
0
145
0.0
301
CELL_VALUE
 90
4
  1
Mounting Hole Quantity
304
ACVALUE_END
170
5
140
0.125
171
1
172
0
173
0
174
0
175
2
176
1
 91
33
178
0
145
0.0
301
CELL_VALUE
 90
4
  1
1
304
ACVALUE_END
170
5
140
0.125
171
1
172
0
173
1
174
0
175
1
176
1
 91
1
178
0
145
0.0
170
1
  0
ACAD_TABLE
  5
283
100
AcDbEntity
  8
0
 62
2
  6
CONTINUOUS
100
AcDbBlockReference
  2
*T3
 10
0.52125
 20
1.459
 30
0.0
100
AcDbTable
342
       311
343
209
 11
1.0
 21
0.0
 31
0.0
 90
22
 91
3
 92
3
 93
16
 94
0
 95
0
 96
0
 41
0.05
141
0.34375
141
0.344
141
0.25
142
1.3
142
2.0
142
1.3
171
1
172
0
173
0
174
0
175
3
176
1
 91
33
178
0
145
0.0
301
CELL_VALUE
 90
4
  1
Port Headings
304
ACVALUE_END
170
5
140
0.145
171
1
172
0
173
1
174
0
175
1
176
1
 91
1
178
0
145
0.0
170
1
171
1
172
0
173
1
174
0
175
1
176
1
 91
1
178
0
145
0.0
170
1
171
1
172
0
173
0
174
0
175
1
176
1
 91
33
178
0
145
0.0
301
CELL_VALUE
 90
4
  1
Product
304
ACVALUE_END
170
5
140
0.145
171
1
172
0
173
0
174
0
175
1
176
1
 91
33
178
0
145
0.0
301
CELL_VALUE
 90
4
  1
Port
304
ACVALUE_END
170
5
140
0.145
171
1
172
0
173
0
174
0
175
1
176
1
 91
33
178
0
145
0.0
301
CELL_VALUE
 90
4
  1
Size
304
ACVALUE_END
170
5
140
0.145
171
1
172
0
173
0
174
0
175
1
176
1
 91
33
178
0
145
0.0
301
CELL_VALUE
 90
4
  1
FAC
304
ACVALUE_END
170
5
140
0.125
171
1
172
0
173
0
174
0
175
1
176
1
 91
33
178
0
145
0.0
301
CELL_VALUE
 90
4
  1
All Ports
304
ACVALUE_END
170
5
140
0.125
171
1
172
0
173
0
174
0
175
1
176
1
 91
33
178
0
145
0.0
301
CELL_VALUE
 90
4
  1
1/2" NPTF
304
ACVALUE_END
170
5
140
0.125
  0
MTEXT
  5
284
100
AcDbEntity
  8
0
100
AcDbMText
 62
2
  6
CONTINUOUS
  7
STANDARD
 71
1
 72
1
 10
0.52125
 20
5.75995
 30
0.0
 11
1.0
 21
0.0
 31
0.0
 44
0.6
  3
Notes\P \P1. Important: Carefully consider\P   the maximum system pressure. The\P   pressure rating of the manifold is\P   dependent on the manifold material,\P   with the port type/size a secondary\P   consideration. Manifolds\P   constructed of alu
  3
minum are not\P   rated for pressures higher than\P   3000 psi (210 bar), regardless of\P   the port type/size specified.\P2. This drawing is for reference\P   only. It is generated by an\P   automated process and does not fall\P   under Sun's docume
  1
nt control\P   process.
 40
0.1
 41
3.04
  0
LINE
  5
285
100
AcDbEntity
  8
0
100
AcDbLine
 62
7
  6
CONTINUOUS
 10
0.30125
 20
0.30125
 11
0.30125
 21
16.69875
  0
LINE
  5
286
100
AcDbEntity
  8
0
100
AcDbLine
 62
7
  6
CONTINUOUS
 10
0.30125
 20
0.30125
 11
21.69875
 21
0.30125
  0
LINE
  5
287
100
AcDbEntity
  8
0
100
AcDbLine
 62
7
  6
CONTINUOUS
 10
0.30125
 20
16.69875
 11
21.69875
 21
16.69875
  0
LINE
  5
288
100
AcDbEntity
  8
0
100
AcDbLine
 62
7
  6
CONTINUOUS
 10
21.69875
 20
0.30125
 11
21.69875
 21
16.69875
  0
LINE
  5
289
100
AcDbEntity
  8
0
100
AcDbLine
 62
7
  6
CONTINUOUS
 10
7.7139941022
 20
10.4992950878
 11
8.4904505967
 21
11.2492945133
  0
LINE
  5
28A
100
AcDbEntity
  8
0
100
AcDbLine
 62
7
  6
CONTINUOUS
 10
7.7139941022
 20
6.152628612
 11
7.7139941022
 21
10.4992950878
  0
LINE
  5
28B
100
AcDbEntity
  8
0
100
AcDbLine
 62
7
  6
CONTINUOUS
 10
13.5095494033
 20
5.7507054867
 11
7.7139941022
 21
6.152628612
  0
LINE
  5
28C
100
AcDbEntity
  8
0
100
AcDbLine
 62
4
  6
CONTINUOUS
 10
9.3309541101
 20
6.3882253864
 11
9.3116355837
 21
6.4040540187
  0
LINE
  5
28D
100
AcDbEntity
  8
0
100
AcDbLine
 62
4
  6
CONTINUOUS
 10
9.427546694
 20
6.4249933318
 11
9.4661837262
 21
6.3933360686
  0
LINE
  5
28E
100
AcDbEntity
  8
0
100
AcDbLine
 62
4
  6
CONTINUOUS
 10
9.3695911354
 20
6.5014570031
 11
9.3889096618
 21
6.4856283708
  0
LINE
  5
28F
100
AcDbEntity
  8
0
100
AcDbLine
 62
4
  6
CONTINUOUS
 10
9.3116355837
 20
6.4040540187
 11
9.292317071
 21
6.434371538
  0
LINE
  5
290
100
AcDbEntity
  8
0
100
AcDbLine
 62
4
  6
CONTINUOUS
 10
9.4661837262
 20
6.3933360686
 11
9.5241392779
 21
6.3748279495
  0
LINE
  5
291
100
AcDbEntity
  8
0
100
AcDbLine
 62
4
  6
CONTINUOUS
 10
9.3889096618
 20
6.4856283708
 11
9.427546694
 21
6.4249933318
  0
LINE
  5
292
100
AcDbEntity
  8
0
100
AcDbLine
 62
4
  6
CONTINUOUS
 10
9.3309541101
 20
6.5041364899
 11
9.3695911354
 21
6.5014570031
  0
LINE
  5
293
100
AcDbEntity
  8
0
100
AcDbLine
 62
4
  6
CONTINUOUS
 10
9.292317071
 20
6.434371538
 11
9.292317071
 21
6.4633493138
  0
LINE
  5
294
100
AcDbEntity
  8
0
100
AcDbLine
 62
4
  6
CONTINUOUS
 10
9.5241392779
 20
6.3748279495
 11
9.5241392779
 21
6.490739053
  0
LINE
  5
295
100
AcDbEntity
  8
0
100
AcDbLine
 62
4
  6
CONTINUOUS
 10
10.4958606467
 20
7.0338150943
 11
10.6117717527
 21
7.0257766318
  0
LINE
  5
296
100
AcDbEntity
  8
0
100
AcDbLine
 62
4
  6
CONTINUOUS
 10
11.6781539282
 20
7.4963289913
 11
11.9099761402
 21
7.5464870077
  0
LINE
  5
297
100
AcDbEntity
  8
0
100
AcDbLine
 62
4
  6
CONTINUOUS
 10
10.6117717527
 20
7.1416877378
 11
10.7276828588
 21
7.1336492753
  0
LINE
  5
298
100
AcDbEntity
  8
0
100
AcDbLine
 62
4
  6
CONTINUOUS
 10
10.7276828588
 20
7.1916048283
 11
10.4958606467
 21
7.2076817534
  0
LINE
  5
299
100
AcDbEntity
  8
0
100
AcDbLine
 62
4
  6
CONTINUOUS
 10
11.9099761402
 20
7.2042732589
 11
11.6781539282
 21
7.2203501839
  0
LINE
  5
29A
100
AcDbEntity
  8
0
100
AcDbLine
 62
4
  6
CONTINUOUS
 10
10.4958606467
 20
7.3235928594
 11
10.7276828588
 21
7.3075159344
  0
LINE
  5
29B
100
AcDbEntity
  8
0
100
AcDbLine
 62
4
  6
CONTINUOUS
 10
10.4958606467
 20
7.3815484124
 11
10.7276828588
 21
7.3654714874
  0
LINE
  5
29C
100
AcDbEntity
  8
0
100
AcDbLine
 62
4
  6
CONTINUOUS
 10
11.711271385
 20
7.3339645727
 11
11.8768586799
 21
7.3224810548
  0
LINE
  5
29D
100
AcDbEntity
  8
0
100
AcDbLine
 62
4
  6
CONTINUOUS
 10
10.4958606467
 20
7.4974595184
 11
10.7276828588
 21
7.4813825934
  0
LINE
  5
29E
100
AcDbEntity
  8
0
100
AcDbLine
 62
4
  6
CONTINUOUS
 10
10.7276828588
 20
7.7132048054
 11
10.4958606467
 21
7.7292817305
  0
LINE
  5
29F
100
AcDbEntity
  8
0
100
AcDbLine
 62
4
  6
CONTINUOUS
 10
11.9099761402
 20
7.6789568353
 11
11.6781539282
 21
7.6950337603
  0
LINE
  5
2A0
100
AcDbEntity
  8
0
100
AcDbLine
 62
4
  6
CONTINUOUS
 10
10.7276828588
 20
7.8291159115
 11
10.6117717527
 21
7.837154374
  0
LINE
  5
2A1
100
AcDbEntity
  8
0
100
AcDbLine
 62
4
  6
CONTINUOUS
 10
11.3999672737
 20
7.8385165354
 11
11.1681450617
 21
7.8545934604
  0
LINE
  5
2A2
100
AcDbEntity
  8
0
100
AcDbLine
 62
4
  6
CONTINUOUS
 10
11.9099761402
 20
7.8114266628
 11
11.6781539282
 21
7.8275035878
  0
LINE
  5
2A3
100
AcDbEntity
  8
0
100
AcDbLine
 62
4
  6
CONTINUOUS
 10
10.7276828588
 20
7.9237766481
 11
10.6117717527
 21
7.9318151106
  0
LINE
  5
2A4
100
AcDbEntity
  8
0
100
AcDbLine
 62
4
  6
CONTINUOUS
 10
11.9099761402
 20
7.4140171525
 11
11.6781539282
 21
7.4963289913
  0
LINE
  5
2A5
100
AcDbEntity
  8
0
100
AcDbLine
 62
4
  6
CONTINUOUS
 10
10.4958606467
 20
7.1497262003
 11
10.4958606467
 21
7.0338150943
  0
LINE
  5
2A6
100
AcDbEntity
  8
0
100
AcDbLine
 62
4
  6
CONTINUOUS
 10
10.4958606467
 20
7.3815484124
 11
10.4958606467
 21
7.4974595184
  0
LINE
  5
2A7
100
AcDbEntity
  8
0
100
AcDbLine
 62
4
  6
CONTINUOUS
 10
10.5538161997
 20
8.9645454078
 11
10.5538161997
 21
8.9935231843
  0
LINE
  5
2A8
100
AcDbEntity
  8
0
100
AcDbLine
 62
4
  6
CONTINUOUS
 10
10.6117717527
 20
8.6272817467
 11
10.6117717527
 21
8.550007676
  0
LINE
  5
2A9
100
AcDbEntity
  8
0
100
AcDbLine
 62
4
  6
CONTINUOUS
 10
10.6117717527
 20
7.837154374
 11
10.6117717527
 21
7.7212432679
  0
LINE
  5
2AA
100
AcDbEntity
  8
0
100
AcDbLine
 62
4
  6
CONTINUOUS
 10
10.6117717527
 20
7.0257766318
 11
10.6117717527
 21
7.1416877378
  0
LINE
  5
2AB
100
AcDbEntity
  8
0
100
AcDbLine
 62
4
  6
CONTINUOUS
 10
10.6117717527
 20
8.1250002873
 11
10.6117717527
 21
8.2409113933
  0
LINE
  5
2AC
100
AcDbEntity
  8
0
100
AcDbLine
 62
4
  6
CONTINUOUS
 10
10.6117717527
 20
8.318185464
 11
10.6117717527
 21
8.43409657
  0
LINE
  5
2AD
100
AcDbEntity
  8
0
100
AcDbLine
 62
4
  6
CONTINUOUS
 10
10.6117717527
 20
9.0522891354
 11
10.6117717527
 21
9.1682002415
  0
LINE
  5
2AE
100
AcDbEntity
  8
0
100
AcDbLine
 62
4
  6
CONTINUOUS
 10
10.6117717527
 20
9.2454743121
 11
10.6117717527
 21
9.3613854182
  0
LINE
  5
2AF
100
AcDbEntity
  8
0
100
AcDbLine
 62
4
  6
CONTINUOUS
 10
10.6504087881
 20
8.5086911532
 11
10.6504087881
 21
8.6246022592
  0
LINE
  5
2B0
100
AcDbEntity
  8
0
100
AcDbLine
 62
4
  6
CONTINUOUS
 10
10.6697273058
 20
9.2414550809
 11
10.6697273058
 21
9.3573661869
  0
LINE
  5
2B1
100
AcDbEntity
  8
0
100
AcDbLine
 62
4
  6
CONTINUOUS
 10
10.7276828588
 20
9.3533469557
 11
10.7276828588
 21
9.2374358496
  0
LINE
  5
2B2
100
AcDbEntity
  8
0
100
AcDbLine
 62
4
  6
CONTINUOUS
 10
10.7276828588
 20
8.6192432842
 11
10.7276828588
 21
8.5033321782
  0
LINE
  5
2B3
100
AcDbEntity
  8
0
100
AcDbLine
 62
4
  6
CONTINUOUS
 10
10.7276828588
 20
8.2328729308
 11
10.7276828588
 21
8.1169618248
  0
LINE
  5
2B4
100
AcDbEntity
  8
0
100
AcDbLine
 62
4
  6
CONTINUOUS
 10
10.7276828588
 20
8.0396877541
 11
10.7276828588
 21
7.9237766481
  0
LINE
  5
2B5
100
AcDbEntity
  8
0
100
AcDbLine
 62
4
  6
CONTINUOUS
 10
10.7276828588
 20
7.3075159344
 11
10.7276828588
 21
7.1916048283
  0
LINE
  5
2B6
100
AcDbEntity
  8
0
100
AcDbLine
 62
4
  6
CONTINUOUS
 10
10.7276828588
 20
7.1336492753
 11
10.7276828588
 21
7.0177381693
  0
LINE
  5
2B7
100
AcDbEntity
  8
0
100
AcDbLine
 62
4
  6
CONTINUOUS
 10
10.7276828588
 20
8.6965173549
 11
10.7276828588
 21
8.8124284609
  0
LINE
  5
2B8
100
AcDbEntity
  8
0
100
AcDbLine
 62
4
  6
CONTINUOUS
 10
10.7276828588
 20
9.0442506729
 11
10.7276828588
 21
9.160161779
  0
LINE
  5
2B9
100
AcDbEntity
  8
0
100
AcDbLine
 62
4
  6
CONTINUOUS
 10
11.1681450617
 20
8.0864156724
 11
11.3999672737
 21
8.1365736612
  0
LINE
  5
2BA
100
AcDbEntity
  8
0
100
AcDbLine
 62
4
  6
CONTINUOUS
 10
10.6117717527
 20
8.0477262166
 11
10.8435939648
 21
8.0316492916
  0
LINE
  5
2BB
100
AcDbEntity
  8
0
100
AcDbLine
 62
4
  6
CONTINUOUS
 10
10.7276828588
 20
8.1169618248
 11
10.6117717527
 21
8.1250002873
  0
LINE
  5
2BC
100
AcDbEntity
  8
0
100
AcDbLine
 62
4
  6
CONTINUOUS
 10
10.4958606467
 20
8.2489498558
 11
10.7276828588
 21
8.2328729308
  0
LINE
  5
2BD
100
AcDbEntity
  8
0
100
AcDbLine
 62
4
  6
CONTINUOUS
 10
11.8768586799
 20
8.1614567398
 11
11.711271385
 21
8.1729402577
  0
LINE
  5
2BE
100
AcDbEntity
  8
0
100
AcDbLine
 62
4
  6
CONTINUOUS
 10
11.3668498134
 20
8.2051052786
 11
11.2012625185
 21
8.2165887965
  0
LINE
  5
2BF
100
AcDbEntity
  8
0
100
AcDbLine
 62
4
  6
CONTINUOUS
 10
11.3999672737
 20
8.0041038336
 11
11.1681450617
 21
8.0864156724
  0
LINE
  5
2C0
100
AcDbEntity
  8
0
100
AcDbLine
 62
4
  6
CONTINUOUS
 10
10.8435939648
 20
8.0316492916
 11
10.8435939648
 21
7.9543752209
  0
LINE
  5
2C1
100
AcDbEntity
  8
0
100
AcDbLine
 62
4
  6
CONTINUOUS
 10
9.292317071
 20
6.4633493138
 11
9.3116355837
 21
6.4909873463
  0
LINE
  5
2C2
100
AcDbEntity
  8
0
100
AcDbLine
 62
4
  6
CONTINUOUS
 10
10.6117717527
 20
8.318185464
 11
10.7276828588
 21
8.3101470015
  0
LINE
  5
2C3
100
AcDbEntity
  8
0
100
AcDbLine
 62
4
  6
CONTINUOUS
 10
11.8768586799
 20
8.3546418429
 11
11.711271385
 21
8.3661253608
  0
LINE
  5
2C4
100
AcDbEntity
  8
0
100
AcDbLine
 62
4
  6
CONTINUOUS
 10
10.7276828588
 20
8.5033321782
 11
10.6504087881
 21
8.5086911532
  0
LINE
  5
2C5
100
AcDbEntity
  8
0
100
AcDbLine
 62
4
  6
CONTINUOUS
 10
11.711271385
 20
8.4820364668
 11
11.8768586799
 21
8.4705529489
  0
LINE
  5
2C6
100
AcDbEntity
  8
0
100
AcDbLine
 62
4
  6
CONTINUOUS
 10
11.8768586799
 20
7.3224810548
 11
11.9099761402
 21
7.2870668942
  0
LINE
  5
2C7
100
AcDbEntity
  8
0
100
AcDbLine
 62
4
  6
CONTINUOUS
 10
11.2012625185
 20
8.2165887965
 11
11.1681450617
 21
8.2520029707
  0
LINE
  5
2C8
100
AcDbEntity
  8
0
100
AcDbLine
 62
4
  6
CONTINUOUS
 10
11.1681450617
 20
7.8545934604
 11
11.1681450617
 21
7.9539458379
  0
LINE
  5
2C9
100
AcDbEntity
  8
0
100
AcDbLine
 62
4
  6
CONTINUOUS
 10
11.1681450617
 20
8.2520029707
 11
11.1681450617
 21
8.3182378845
  0
LINE
  5
2CA
100
AcDbEntity
  8
0
100
AcDbLine
 62
4
  6
CONTINUOUS
 10
11.2674974323
 20
7.9470557276
 11
11.2674974323
 21
7.8477033501
  0
LINE
  5
2CB
100
AcDbEntity
  8
0
100
AcDbLine
 62
4
  6
CONTINUOUS
 10
11.9099761402
 20
8.5344911314
 11
11.6781539282
 21
8.5505680564
  0
LINE
  5
2CC
100
AcDbEntity
  8
0
100
AcDbLine
 62
4
  6
CONTINUOUS
 10
10.6117717527
 20
8.6272817467
 11
10.7276828588
 21
8.6192432842
  0
LINE
  5
2CD
100
AcDbEntity
  8
0
100
AcDbLine
 62
4
  6
CONTINUOUS
 10
10.6117717527
 20
8.7045558174
 11
10.7276828588
 21
8.6965173549
  0
LINE
  5
2CE
100
AcDbEntity
  8
0
100
AcDbLine
 62
4
  6
CONTINUOUS
 10
11.711271385
 20
8.6641824589
 11
11.8768586799
 21
8.652698941
  0
LINE
  5
2CF
100
AcDbEntity
  8
0
100
AcDbLine
 62
4
  6
CONTINUOUS
 10
10.7276828588
 20
8.8124284609
 11
10.6117717527
 21
8.8204669234
  0
LINE
  5
2D0
100
AcDbEntity
  8
0
100
AcDbLine
 62
4
  6
CONTINUOUS
 10
11.9099761402
 20
8.7442351217
 11
11.6781539282
 21
8.7603120467
  0
LINE
  5
2D1
100
AcDbEntity
  8
0
100
AcDbLine
 62
4
  6
CONTINUOUS
 10
12.9299938646
 20
8.6848116743
 11
13.1618160714
 21
8.6687347496
  0
LINE
  5
2D2
100
AcDbEntity
  8
0
100
AcDbLine
 62
4
  6
CONTINUOUS
 10
11.711271385
 20
8.1729402577
 11
11.6781539282
 21
8.2083544043
  0
LINE
  5
2D3
100
AcDbEntity
  8
0
100
AcDbLine
 62
4
  6
CONTINUOUS
 10
11.7664671465
 20
7.1700690253
 11
11.8106237626
 21
7.0786935283
  0
LINE
  5
2D4
100
AcDbEntity
  8
0
100
AcDbLine
 62
4
  6
CONTINUOUS
 10
11.333732353
 20
8.0307755456
 11
11.333732353
 21
8.1190887639
  0
LINE
  5
2D5
100
AcDbEntity
  8
0
100
AcDbLine
 62
4
  6
CONTINUOUS
 10
11.3999672737
 20
8.3021609595
 11
11.3999672737
 21
8.2359260457
  0
LINE
  5
2D6
100
AcDbEntity
  8
0
100
AcDbLine
 62
4
  6
CONTINUOUS
 10
11.7664671465
 20
8.9197747196
 11
11.8106237626
 21
9.0050256662
  0
LINE
  5
2D7
100
AcDbEntity
  8
0
100
AcDbLine
 62
7
  6
CONTINUOUS
 10
13.5095494033
 20
10.0973719626
 11
14.2860058978
 21
10.847371388
  0
LINE
  5
2D8
100
AcDbEntity
  8
0
100
AcDbLine
 62
4
  6
CONTINUOUS
 10
11.6781539282
 20
8.6333617193
 11
11.711271385
 21
8.6641824589
  0
LINE
  5
2D9
100
AcDbEntity
  8
0
100
AcDbLine
 62
4
  6
CONTINUOUS
 10
11.3999672737
 20
8.2359260457
 11
11.3668498134
 21
8.2051052786
  0
LINE
  5
2DA
100
AcDbEntity
  8
0
100
AcDbLine
 62
4
  6
CONTINUOUS
 10
11.6781539282
 20
8.4512157271
 11
11.711271385
 21
8.4820364668
  0
LINE
  5
2DB
100
AcDbEntity
  8
0
100
AcDbLine
 62
4
  6
CONTINUOUS
 10
10.7276828588
 20
8.8897025316
 11
10.4958606467
 21
8.9057794566
  0
LINE
  5
2DC
100
AcDbEntity
  8
0
100
AcDbLine
 62
4
  6
CONTINUOUS
 10
10.7276828588
 20
8.9669766023
 11
10.6117717527
 21
8.9750150648
  0
LINE
  5
2DD
100
AcDbEntity
  8
0
100
AcDbLine
 62
4
  6
CONTINUOUS
 10
10.6117717527
 20
9.0522891354
 11
10.7276828588
 21
9.0442506729
  0
LINE
  5
2DE
100
AcDbEntity
  8
0
100
AcDbLine
 62
4
  6
CONTINUOUS
 10
11.711271385
 20
8.3661253608
 11
11.6781539282
 21
8.4015395073
  0
LINE
  5
2DF
100
AcDbEntity
  8
0
100
AcDbLine
 62
4
  6
CONTINUOUS
 10
11.6781539282
 20
7.2203501839
 11
11.6781539282
 21
7.3031438192
  0
LINE
  5
2E0
100
AcDbEntity
  8
0
100
AcDbLine
 62
4
  6
CONTINUOUS
 10
11.6781539282
 20
7.6287988189
 11
11.6781539282
 21
7.7612686464
  0
LINE
  5
2E1
100
AcDbEntity
  8
0
100
AcDbLine
 62
4
  6
CONTINUOUS
 10
11.6781539282
 20
7.8275035878
 11
11.6781539282
 21
7.9268559723
  0
LINE
  5
2E2
100
AcDbEntity
  8
0
100
AcDbLine
 62
4
  6
CONTINUOUS
 10
11.6781539282
 20
8.2083544043
 11
11.6781539282
 21
8.2745892904
  0
LINE
  5
2E3
100
AcDbEntity
  8
0
100
AcDbLine
 62
4
  6
CONTINUOUS
 10
11.6781539282
 20
8.4015395073
 11
11.6781539282
 21
8.4512157271
  0
LINE
  5
2E4
100
AcDbEntity
  8
0
100
AcDbLine
 62
4
  6
CONTINUOUS
 10
11.6781539282
 20
8.5505680564
 11
11.6781539282
 21
8.6333617193
  0
LINE
  5
2E5
100
AcDbEntity
  8
0
100
AcDbLine
 62
4
  6
CONTINUOUS
 10
11.6781539282
 20
8.7603120467
 11
11.6781539282
 21
8.8596643759
  0
LINE
  5
2E6
100
AcDbEntity
  8
0
100
AcDbLine
 62
4
  6
CONTINUOUS
 10
11.7775062988
 20
8.8196568226
 11
11.7775062988
 21
8.7534219364
  0
LINE
  5
2E7
100
AcDbEntity
  8
0
100
AcDbLine
 62
4
  6
CONTINUOUS
 10
11.7775062988
 20
7.886848419
 11
11.7775062988
 21
7.8206134775
  0
LINE
  5
2E8
100
AcDbEntity
  8
0
100
AcDbLine
 62
4
  6
CONTINUOUS
 10
11.8437412195
 20
7.4406888645
 11
11.8437412195
 21
7.5290020828
  0
LINE
  5
2E9
100
AcDbEntity
  8
0
100
AcDbLine
 62
4
  6
CONTINUOUS
 10
11.9099761402
 20
8.3854625823
 11
11.8768586799
 21
8.3546418429
  0
LINE
  5
2EA
100
AcDbEntity
  8
0
100
AcDbLine
 62
4
  6
CONTINUOUS
 10
11.9099761402
 20
8.1922774792
 11
11.8768586799
 21
8.1614567398
  0
LINE
  5
2EB
100
AcDbEntity
  8
0
100
AcDbLine
 62
4
  6
CONTINUOUS
 10
9.3116355837
 20
6.4909873463
 11
9.3309541101
 21
6.5041364899
  0
LINE
  5
2EC
100
AcDbEntity
  8
0
100
AcDbLine
 62
4
  6
CONTINUOUS
 10
10.6117717527
 20
9.2454743121
 11
10.6697273058
 21
9.2414550809
  0
LINE
  5
2ED
100
AcDbEntity
  8
0
100
AcDbLine
 62
4
  6
CONTINUOUS
 10
10.6697273058
 20
9.3573661869
 11
10.7276828588
 21
9.3533469557
  0
LINE
  5
2EE
100
AcDbEntity
  8
0
100
AcDbLine
 62
4
  6
CONTINUOUS
 10
11.8768586799
 20
8.4705529489
 11
11.9099761402
 21
8.4351388021
  0
LINE
  5
2EF
100
AcDbEntity
  8
0
100
AcDbLine
 62
4
  6
CONTINUOUS
 10
11.8768586799
 20
8.652698941
 11
11.9099761402
 21
8.6172847943
  0
LINE
  5
2F0
100
AcDbEntity
  8
0
100
AcDbLine
 62
4
  6
CONTINUOUS
 10
11.9099761402
 20
8.6172847943
 11
11.9099761402
 21
8.5344911314
  0
LINE
  5
2F1
100
AcDbEntity
  8
0
100
AcDbLine
 62
4
  6
CONTINUOUS
 10
11.9099761402
 20
8.4351388021
 11
11.9099761402
 21
8.3854625823
  0
LINE
  5
2F2
100
AcDbEntity
  8
0
100
AcDbLine
 62
4
  6
CONTINUOUS
 10
11.9099761402
 20
8.2585123654
 11
11.9099761402
 21
8.1922774792
  0
LINE
  5
2F3
100
AcDbEntity
  8
0
100
AcDbLine
 62
4
  6
CONTINUOUS
 10
11.9099761402
 20
7.2870668942
 11
11.9099761402
 21
7.2042732589
  0
LINE
  5
2F4
100
AcDbEntity
  8
0
100
AcDbLine
 62
4
  6
CONTINUOUS
 10
11.9099761402
 20
7.8114266628
 11
11.9099761402
 21
7.9107790473
  0
LINE
  5
2F5
100
AcDbEntity
  8
0
100
AcDbLine
 62
4
  6
CONTINUOUS
 10
11.9099761402
 20
8.7442351217
 11
11.9099761402
 21
8.8435874509
  0
LINE
  5
2F6
100
AcDbEntity
  8
0
100
AcDbLine
 62
7
  6
CONTINUOUS
 10
13.8977776506
 20
9.7344042303
 11
13.8998802969
 21
9.7363979832
  0
LINE
  5
2F7
100
AcDbEntity
  8
0
100
AcDbLine
 62
4
  6
CONTINUOUS
 10
11.8106237626
 20
9.0050256662
 11
11.8547803753
 21
8.9136501764
  0
LINE
  5
2F8
100
AcDbEntity
  8
0
100
AcDbLine
 62
4
  6
CONTINUOUS
 10
11.8106237626
 20
7.0786935283
 11
11.8547803753
 21
7.1639444821
  0
LINE
  5
2F9
100
AcDbEntity
  8
0
100
AcDbLine
 62
4
  6
CONTINUOUS
 10
11.6781539282
 20
7.3031438192
 11
11.711271385
 21
7.3339645727
  0
LINE
  5
2FA
100
AcDbEntity
  8
0
100
AcDbLine
 62
7
  6
CONTINUOUS
 10
13.5095494033
 20
10.0973719626
 11
7.7139941022
 21
10.4992950878
  0
LINE
  5
2FB
100
AcDbEntity
  8
0
100
AcDbLine
 62
7
  6
CONTINUOUS
 10
13.5095494033
 20
5.7507054867
 11
13.5095494033
 21
10.0973719626
  0
LINE
  5
2FC
100
AcDbEntity
  8
0
100
AcDbLine
 62
7
  6
CONTINUOUS
 10
14.2860058978
 20
10.847371388
 11
8.4904505967
 21
11.2492945133
  0
LINE
  5
2FD
100
AcDbEntity
  8
0
100
AcDbLine
 62
7
  6
CONTINUOUS
 10
14.2860058978
 20
10.847371388
 11
14.2860058978
 21
6.5007049122
  0
LINE
  5
2FE
100
AcDbEntity
  8
0
100
AcDbLine
 62
7
  6
CONTINUOUS
 10
14.2860058978
 20
6.5007049122
 11
13.5095494033
 21
5.7507054867
  0
SPLINE
  5
2FF
100
AcDbEntity
  8
0
100
AcDbSpline
 62
7
  6
CONTINUOUS
 70
0
 71
3
 72
23
 73
19
 74
0
 42
0.0000001
 43
0.0000001
 44
0.0000000001
 40
0.0
 40
0.0
 40
0.0
 40
0.0
 40
0.0637764154
 40
0.1273451281
 40
0.190701988
 40
0.253856063
 40
0.3168132283
 40
0.3795820791
 40
0.4421733864
 40
0.5045993414
 40
0.5668738629
 40
0.629012379
 40
0.6910316532
 40
0.7529496461
 40
0.8147853522
 40
0.8765586034
 40
0.9382898574
 40
1.0
 40
1.0
 40
1.0
 40
1.0
 10
13.2989775833
 20
6.308159016
 30
0.0
 10
13.2989775833
 20
6.3028515829
 30
0.0
 10
13.2987235197
 20
6.292252204
 30
0.0
 10
13.2975769566
 20
6.2764176395
 30
0.0
 10
13.2956678555
 20
6.2607085499
 30
0.0
 10
13.2930008153
 20
6.2451619211
 30
0.0
 10
13.2895818063
 20
6.2298132219
 30
0.0
 10
13.285418738
 20
6.2146979348
 30
0.0
 10
13.2805211866
 20
6.1998508932
 30
0.0
 10
13.2749003386
 20
6.1853063499
 30
0.0
 10
13.2685691743
 20
6.171097838
 30
0.0
 10
13.2615422837
 20
6.1572581164
 30
0.0
 10
13.2538358117
 20
6.1438191295
 30
0.0
 10
13.2454674889
 20
6.1308118867
 30
0.0
 10
13.2364566731
 20
6.1182663945
 30
0.0
 10
13.2268240254
 20
6.1062114964
 30
0.0
 10
13.2165920954
 20
6.0946754156
 30
0.0
 10
13.2093856712
 20
6.0873469559
 30
0.0
 10
13.2056919547
 20
6.0837790987
 30
0.0
  0
SPLINE
  5
300
100
AcDbEntity
  8
0
100
AcDbSpline
 62
7
  6
CONTINUOUS
 70
0
 71
3
 72
43
 73
39
 74
0
 42
0.0000001
 43
0.0000001
 44
0.0000000001
 40
0.0
 40
0.0
 40
0.0
 40
0.0
 40
0.0149723098
 40
0.0299476795
 40
0.0449291474
 40
0.05991972
 40
0.0749223413
 40
0.0899398895
 40
0.1049751458
 40
0.1200307886
 40
0.1502075383
 40
0.1804946787
 40
0.2109083087
 40
0.2414615673
 40
0.2721643694
 40
0.303023226
 40
0.3340411482
 40
0.3652176339
 40
0.3965487319
 40
0.4280271774
 40
0.4596425917
 40
0.4913817403
 40
0.5232288393
 40
0.555165905
 40
0.5871731364
 40
0.6192293252
 40
0.6513122868
 40
0.6833993039
 40
0.7154675788
 40
0.7474946857
 40
0.7794590188
 40
0.8113402295
 40
0.8431196416
 40
0.8747806564
 40
0.906309065
 40
0.9376935582
 40
0.9689254026
 40
1.0
 40
1.0
 40
1.0
 40
1.0
 10
12.727706204
 20
6.5786261183
 30
0.0
 10
12.7305598985
 20
6.5813825764
 30
0.0
 10
12.7363781065
 20
6.5867832347
 30
0.0
 10
12.7454214662
 20
6.5945318081
 30
0.0
 10
12.754769275
 20
6.6019183537
 30
0.0
 10
12.7644085686
 20
6.6089324322
 30
0.0
 10
12.7743260955
 20
6.6155645073
 30
0.0
 10
12.7845081445
 20
6.6218054098
 30
0.0
 10
12.794940949
 20
6.6276466017
 30
0.0
 10
12.8091752232
 20
6.6348959107
 30
0.0
 10
12.8275323869
 20
6.6429207504
 30
0.0
 10
12.850305021
 20
6.6508257331
 30
0.0
 10
12.8737174985
 20
6.656972274
 30
0.0
 10
12.8976399714
 20
6.6613263552
 30
0.0
 10
12.921940959
 20
6.663864452
 30
0.0
 10
12.9464866754
 20
6.6645728864
 30
0.0
 10
12.9711421427
 20
6.6634480885
 30
0.0
 10
12.9957718273
 20
6.6604965444
 30
0.0
 10
13.0202404052
 20
6.6557347622
 30
0.0
 10
13.0444134888
 20
6.6491891651
 30
0.0
 10
13.0681583574
 20
6.6408959413
 30
0.0
 10
13.0913446781
 20
6.630900845
 30
0.0
 10
13.113845209
 20
6.619258932
 30
0.0
 10
13.1355364876
 20
6.6060342583
 30
0.0
 10
13.1562994994
 20
6.5912995281
 30
0.0
 10
13.1760203216
 20
6.5751356972
 30
0.0
 10
13.1945907414
 20
6.5576315314
 30
0.0
 10
13.2119088419
 20
6.5388831239
 30
0.0
 10
13.2278795563
 20
6.5189933729
 30
0.0
 10
13.2424151842
 20
6.4980714236
 30
0.0
 10
13.2554358765
 20
6.4762320803
 30
0.0
 10
13.2668700616
 20
6.4535951735
 30
0.0
 10
13.2766548436
 20
6.4302849267
 30
0.0
 10
13.2847363236
 20
6.4064292302
 30
0.0
 10
13.291069962
 20
6.3821591377
 30
0.0
 10
13.2956206682
 20
6.3576074623
 30
0.0
 10
13.2983633032
 20
6.3329107705
 30
0.0
 10
13.2989775833
 20
6.3163935988
 30
0.0
 10
13.2989775833
 20
6.308159016
 30
0.0
  0
SPLINE
  5
301
100
AcDbEntity
  8
0
100
AcDbSpline
 62
7
  6
CONTINUOUS
 70
0
 71
3
 72
89
 73
85
 74
0
 42
0.0000001
 43
0.0000001
 44
0.0000000001
 40
0.0
 40
0.0
 40
0.0
 40
0.0
 40
0.0036898867
 40
0.0075219883
 40
0.0114998014
 40
0.015626225
 40
0.0199035929
 40
0.0243338042
 40
0.0289182925
 40
0.0336581154
 40
0.0385540083
 40
0.0436063471
 40
0.0488152652
 40
0.0541806195
 40
0.0597020146
 40
0.0653788788
 40
0.0712103936
 40
0.0771955816
 40
0.0833333003
 40
0.0896222116
 40
0.1026474068
 40
0.1162580889
 40
0.1304388906
 40
0.145172662
 40
0.1604406325
 40
0.1762225503
 40
0.1924968288
 40
0.2092406591
 40
0.226430105
 40
0.2440401812
 40
0.2620449542
 40
0.2804176244
 40
0.2991305982
 40
0.3181555499
 40
0.3374634989
 40
0.3570248844
 40
0.3768096286
 40
0.396787196
 40
0.4169266608
 40
0.4371967765
 40
0.4575660377
 40
0.4780027399
 40
0.498475044
 40
0.518951043
 40
0.5393988222
 40
0.5597865207
 40
0.5800823977
 40
0.6002548965
 40
0.6202727045
 40
0.6401048151
 40
0.6597205976
 40
0.6790898634
 40
0.6981829252
 40
0.716970661
 40
0.7354245879
 40
0.7535169383
 40
0.7712207215
 40
0.7885097947
 40
0.8053589456
 40
0.8217439905
 40
0.8376418502
 40
0.8530306436
 40
0.867889798
 40
0.8822001911
 40
0.895944284
 40
0.9091062774
 40
0.9154647044
 40
0.9216725991
 40
0.9277285534
 40
0.9336313475
 40
0.9393799251
 40
0.9449733789
 40
0.9504110411
 40
0.9556924137
 40
0.9608172407
 40
0.9657855391
 40
0.9705975527
 40
0.9752538532
 40
0.9797553155
 40
0.9841031959
 40
0.988299257
 40
0.9923456669
 40
0.9962449359
 40
1.0
 40
1.0
 40
1.0
 40
1.0
 10
13.7849171087
 20
8.0787004214
 30
0.0
 10
13.7835881667
 20
8.0803344261
 30
0.0
 10
13.7809479668
 20
8.0837219575
 30
0.0
 10
13.777110223
 20
8.0890489663
 30
0.0
 10
13.7733228082
 20
8.0947141505
 30
0.0
 10
13.7695873364
 20
8.1007150903
 30
0.0
 10
13.7659052067
 20
8.1070493373
 30
0.0
 10
13.7622779806
 20
8.1137143278
 30
0.0
 10
13.7587070825
 20
8.1207073143
 30
0.0
 10
13.7551939608
 20
8.1280254287
 30
0.0
 10
13.751740107
 20
8.1356656842
 30
0.0
 10
13.748346872
 20
8.1436249143
 30
0.0
 10
13.745015703
 20
8.1518998569
 30
0.0
 10
13.7417479706
 20
8.1604870955
 30
0.0
 10
13.7385449895
 20
8.1693830768
 30
0.0
 10
13.7354081499
 20
8.1785841391
 30
0.0
 10
13.7323386993
 20
8.1880864647
 30
0.0
 10
13.7293379352
 20
8.1978861222
 30
0.0
 10
13.72640711
 20
8.2079790688
 30
0.0
 10
13.7225490718
 20
8.2219857912
 30
0.0
 10
13.7179209089
 20
8.2402028239
 30
0.0
 10
13.7127276826
 20
8.2629169304
 30
0.0
 10
13.7078408802
 20
8.2866953154
 30
0.0
 10
13.7032686895
 20
8.3114985242
 30
0.0
 10
13.6990187945
 20
8.3372855327
 30
0.0
 10
13.695098316
 20
8.3640135892
 30
0.0
 10
13.6915138351
 20
8.3916383697
 30
0.0
 10
13.6882713726
 20
8.4201140438
 30
0.0
 10
13.6853763821
 20
8.4493933491
 30
0.0
 10
13.6828337141
 20
8.4794276674
 30
0.0
 10
13.6806476353
 20
8.5101671141
 30
0.0
 10
13.6788218194
 20
8.5415606309
 30
0.0
 10
13.6773593454
 20
8.5735560655
 30
0.0
 10
13.6762626694
 20
8.6061002548
 30
0.0
 10
13.6755336342
 20
8.6391391169
 30
0.0
 10
13.6751734749
 20
8.6726177478
 30
0.0
 10
13.6751828173
 20
8.7064805111
 30
0.0
 10
13.6755616637
 20
8.7406711265
 30
0.0
 10
13.6763093892
 20
8.7751327653
 30
0.0
 10
13.6774247614
 20
8.8098081485
 30
0.0
 10
13.6789059397
 20
8.8446396418
 30
0.0
 10
13.6807504746
 20
8.8795693489
 30
0.0
 10
13.6829552944
 20
8.9145392102
 30
0.0
 10
13.6855167337
 20
8.9494910995
 30
0.0
 10
13.6884305363
 20
8.9843669204
 30
0.0
 10
13.6916918652
 20
9.0191087018
 30
0.0
 10
13.6952952866
 20
9.0536586984
 30
0.0
 10
13.6992347994
 20
9.0879594857
 30
0.0
 10
13.703503846
 20
9.1219540527
 30
0.0
 10
13.708095327
 20
9.1555858969
 30
0.0
 10
13.7130015932
 20
9.188799124
 30
0.0
 10
13.7182144651
 20
9.2215385415
 30
0.0
 10
13.7237252575
 20
9.2537497451
 30
0.0
 10
13.7295247938
 20
9.2853792078
 30
0.0
 10
13.7356034114
 20
9.3163743772
 30
0.0
 10
13.7419509678
 20
9.3466837676
 30
0.0
 10
13.7485568785
 20
9.3762570384
 30
0.0
 10
13.7554101302
 20
9.4050450739
 30
0.0
 10
13.7624993002
 20
9.4330000749
 30
0.0
 10
13.7698125517
 20
9.4600756497
 30
0.0
 10
13.7773376798
 20
9.4862268838
 30
0.0
 10
13.7850621274
 20
9.511410414
 30
0.0
 10
13.7929730146
 20
9.5355844926
 30
0.0
 10
13.8010571348
 20
9.5587091421
 30
0.0
 10
13.8093009961
 20
9.5807459969
 30
0.0
 10
13.8163714248
 20
9.5983702349
 30
0.0
 10
13.8221050057
 20
9.6118909251
 30
0.0
 10
13.826387041
 20
9.6216203009
 30
0.0
 10
13.8306986871
 20
9.6310513662
 30
0.0
 10
13.8350381547
 20
9.6401802292
 30
0.0
 10
13.839403617
 20
9.6490031173
 30
0.0
 10
13.843793317
 20
9.6575163605
 30
0.0
 10
13.8482053762
 20
9.6657164612
 30
0.0
 10
13.8526379992
 20
9.6736000217
 30
0.0
 10
13.8570893666
 20
9.6811637853
 30
0.0
 10
13.8615575984
 20
9.6884046614
 30
0.0
 10
13.8660409196
 20
9.6953196344
 30
0.0
 10
13.8705374298
 20
9.7019058739
 30
0.0
 10
13.8750452765
 20
9.7081606713
 30
0.0
 10
13.8795626927
 20
9.7140814598
 30
0.0
 10
13.8840878395
 20
9.7196658988
 30
0.0
 10
13.8886189925
 20
9.7249116828
 30
0.0
 10
13.8931540653
 20
9.72981645
 30
0.0
 10
13.8962360013
 20
9.7329151114
 30
0.0
 10
13.8977776506
 20
9.7344042303
 30
0.0
  0
SPLINE
  5
302
100
AcDbEntity
  8
0
100
AcDbSpline
 62
7
  6
CONTINUOUS
 70
0
 71
3
 72
23
 73
19
 74
0
 42
0.0000001
 43
0.0000001
 44
0.0000000001
 40
0.0
 40
0.0
 40
0.0
 40
0.0
 40
0.0637764154
 40
0.1273451281
 40
0.190701988
 40
0.253856063
 40
0.3168132283
 40
0.3795820791
 40
0.4421733864
 40
0.5045993414
 40
0.5668738629
 40
0.629012379
 40
0.6910316532
 40
0.7529496461
 40
0.8147853522
 40
0.8765586034
 40
0.9382898574
 40
1.0
 40
1.0
 40
1.0
 40
1.0
 10
12.6344205754
 20
6.354246201
 30
0.0
 10
12.6344205754
 20
6.3595536341
 30
0.0
 10
12.6346746389
 20
6.3701530131
 30
0.0
 10
12.635821202
 20
6.3859875775
 30
0.0
 10
12.6377303032
 20
6.4016966672
 30
0.0
 10
12.6403973434
 20
6.417243296
 30
0.0
 10
12.6438163524
 20
6.4325919951
 30
0.0
 10
12.6479794207
 20
6.4477072822
 30
0.0
 10
12.6528769721
 20
6.4625543238
 30
0.0
 10
12.6584978201
 20
6.4770988672
 30
0.0
 10
12.6648289844
 20
6.4913073791
 30
0.0
 10
12.671855875
 20
6.5051471007
 30
0.0
 10
12.679562347
 20
6.5185860876
 30
0.0
 10
12.6879306698
 20
6.5315933304
 30
0.0
 10
12.6969414856
 20
6.5441388225
 30
0.0
 10
12.7065741333
 20
6.5561937207
 30
0.0
 10
12.7168060633
 20
6.5677298015
 30
0.0
 10
12.7240124875
 20
6.5750582611
 30
0.0
 10
12.727706204
 20
6.5786261183
 30
0.0
  0
SPLINE
  5
303
100
AcDbEntity
  8
0
100
AcDbSpline
 62
7
  6
CONTINUOUS
 70
0
 71
3
 72
43
 73
39
 74
0
 42
0.0000001
 43
0.0000001
 44
0.0000000001
 40
0.0
 40
0.0
 40
0.0
 40
0.0
 40
0.0149723098
 40
0.0299476795
 40
0.0449291474
 40
0.05991972
 40
0.0749223413
 40
0.0899398895
 40
0.1049751458
 40
0.1200307886
 40
0.1502075383
 40
0.1804946787
 40
0.2109083087
 40
0.2414615673
 40
0.2721643694
 40
0.303023226
 40
0.3340411482
 40
0.3652176339
 40
0.3965487319
 40
0.4280271774
 40
0.4596425917
 40
0.4913817403
 40
0.5232288393
 40
0.555165905
 40
0.5871731364
 40
0.6192293252
 40
0.6513122868
 40
0.6833993039
 40
0.7154675788
 40
0.7474946857
 40
0.7794590188
 40
0.8113402295
 40
0.8431196416
 40
0.8747806564
 40
0.906309065
 40
0.9376935582
 40
0.9689254026
 40
1.0
 40
1.0
 40
1.0
 40
1.0
 10
13.2056919547
 20
6.0837790987
 30
0.0
 10
13.2028382602
 20
6.0810226406
 30
0.0
 10
13.1970200522
 20
6.0756219823
 30
0.0
 10
13.1879766925
 20
6.0678734089
 30
0.0
 10
13.1786288837
 20
6.0604868633
 30
0.0
 10
13.1689895901
 20
6.0534727848
 30
0.0
 10
13.1590720632
 20
6.0468407097
 30
0.0
 10
13.1488900141
 20
6.0405998072
 30
0.0
 10
13.1384572097
 20
6.0347586153
 30
0.0
 10
13.1242229355
 20
6.0275093063
 30
0.0
 10
13.1058657718
 20
6.0194844666
 30
0.0
 10
13.0830931376
 20
6.0115794839
 30
0.0
 10
13.0596806602
 20
6.005432943
 30
0.0
 10
13.0357581872
 20
6.0010788619
 30
0.0
 10
13.0114571997
 20
5.998540765
 30
0.0
 10
12.9869114833
 20
5.9978323306
 30
0.0
 10
12.962256016
 20
5.9989571286
 30
0.0
 10
12.9376263314
 20
6.0019086726
 30
0.0
 10
12.9131577534
 20
6.0066704548
 30
0.0
 10
12.8889846699
 20
6.013216052
 30
0.0
 10
12.8652398013
 20
6.0215092757
 30
0.0
 10
12.8420534805
 20
6.0315043721
 30
0.0
 10
12.8195529497
 20
6.0431462851
 30
0.0
 10
12.797861671
 20
6.0563709588
 30
0.0
 10
12.7770986593
 20
6.0711056889
 30
0.0
 10
12.757377837
 20
6.0872695198
 30
0.0
 10
12.7388074173
 20
6.1047736856
 30
0.0
 10
12.7214893167
 20
6.1235220932
 30
0.0
 10
12.7055186024
 20
6.1434118441
 30
0.0
 10
12.6909829745
 20
6.1643337934
 30
0.0
 10
12.6779622822
 20
6.1861731367
 30
0.0
 10
12.6665280971
 20
6.2088100435
 30
0.0
 10
12.6567433151
 20
6.2321202904
 30
0.0
 10
12.648661835
 20
6.2559759868
 30
0.0
 10
12.6423281967
 20
6.2802460793
 30
0.0
 10
12.6377774905
 20
6.3047977547
 30
0.0
 10
12.6350348555
 20
6.3294944465
 30
0.0
 10
12.6344205754
 20
6.3460116183
 30
0.0
 10
12.6344205754
 20
6.354246201
 30
0.0
  0
SPLINE
  5
304
100
AcDbEntity
  8
0
100
AcDbSpline
 62
7
  6
CONTINUOUS
 70
0
 71
3
 72
37
 73
33
 74
0
 42
0.0000001
 43
0.0000001
 44
0.0000000001
 40
0.0
 40
0.0
 40
0.0
 40
0.0
 40
0.0383799316
 40
0.0755864993
 40
0.1116536672
 40
0.1466202329
 40
0.1805321205
 40
0.2134415524
 40
0.2764721239
 40
0.3067469416
 40
0.3362890322
 40
0.3651823401
 40
0.3935175256
 40
0.4213911761
 40
0.4489052635
 40
0.4761662652
 40
0.5032838421
 40
0.5303695732
 40
0.5575354826
 40
0.5848924978
 40
0.6125491028
 40
0.6406099147
 40
0.6691746447
 40
0.6983374284
 40
0.7281860205
 40
0.7902383007
 40
0.8226041137
 40
0.8559400336
 40
0.8903011139
 40
0.9257366231
 40
0.9622900452
 40
1.0
 40
1.0
 40
1.0
 40
1.0
 10
13.8977776506
 20
8.0730117106
 30
0.0
 10
13.8965638104
 20
8.071839231
 30
0.0
 10
13.8941365722
 20
8.0695676504
 30
0.0
 10
13.8904388682
 20
8.0663364237
 30
0.0
 10
13.8867427431
 20
8.0633359999
 30
0.0
 10
13.8830493472
 20
8.0605674841
 30
0.0
 10
13.8793594658
 20
8.0580315485
 30
0.0
 10
13.8745161455
 20
8.055005353
 30
0.0
 10
13.8696097195
 20
8.052388585
 30
0.0
 10
13.8646562191
 20
8.0502285511
 30
0.0
 10
13.8609989511
 20
8.0488659429
 30
0.0
 10
13.8573512146
 20
8.0477398012
 30
0.0
 10
13.853713955
 20
8.0468504644
 30
0.0
 10
13.8500882578
 20
8.0461983639
 30
0.0
 10
13.8464752193
 20
8.0457838625
 30
0.0
 10
13.842875995
 20
8.0456071128
 30
0.0
 10
13.8392917466
 20
8.0456682452
 30
0.0
 10
13.8357236629
 20
8.0459673433
 30
0.0
 10
13.8321729224
 20
8.0465042297
 30
0.0
 10
13.828640674
 20
8.0472786713
 30
0.0
 10
13.8251280627
 20
8.0482904137
 30
0.0
 10
13.8216361557
 20
8.0495389951
 30
0.0
 10
13.8181659989
 20
8.0510238668
 30
0.0
 10
13.8147184958
 20
8.0527445982
 30
0.0
 10
13.8100942096
 20
8.0553862298
 30
0.0
 10
13.8055754669
 20
8.0584784368
 30
0.0
 10
13.8011746584
 20
8.0619718802
 30
0.0
 10
13.7978543364
 20
8.0648613153
 30
0.0
 10
13.7945622201
 20
8.0679820137
 30
0.0
 10
13.7912989441
 20
8.0713332808
 30
0.0
 10
13.7880654102
 20
8.0749140376
 30
0.0
 10
13.785963365
 20
8.0774139938
 30
0.0
 10
13.7849171087
 20
8.0787004214
 30
0.0
  0
SPLINE
  5
305
100
AcDbEntity
  8
0
100
AcDbSpline
 62
7
  6
CONTINUOUS
 70
0
 71
3
 72
105
 73
101
 74
0
 42
0.0000001
 43
0.0000001
 44
0.0000000001
 40
0.0
 40
0.0
 40
0.0
 40
0.0
 40
0.0039487962
 40
0.0077208638
 40
0.0113255553
 40
0.0147744494
 40
0.0180811238
 40
0.0212612681
 40
0.0243327811
 40
0.0273158475
 40
0.0302326961
 40
0.0331072615
 40
0.035964634
 40
0.0388304009
 40
0.0417299062
 40
0.0446875523
 40
0.0477261973
 40
0.0508667625
 40
0.0541279536
 40
0.0575262431
 40
0.0610758534
 40
0.0647889647
 40
0.0686758218
 40
0.072744997
 40
0.077003534
 40
0.081457164
 40
0.0861104624
 40
0.0909669773
 40
0.0960293993
 40
0.1012996024
 40
0.1067788241
 40
0.1124676412
 40
0.1183661474
 40
0.1244738986
 40
0.1307900651
 40
0.1373133835
 40
0.1440422611
 40
0.1509747613
 40
0.1581086488
 40
0.1654414202
 40
0.1729702909
 40
0.180692269
 40
0.1886040954
 40
0.1967023473
 40
0.2049833535
 40
0.2134433037
 40
0.2308835407
 40
0.2489892805
 40
0.2677240585
 40
0.2870492312
 40
0.3069241878
 40
0.3273065425
 40
0.348152314
 40
0.3694160961
 40
0.3910512204
 40
0.413009914
 40
0.4352434532
 40
0.4577023149
 40
0.4803363252
 40
0.5030948077
 40
0.5259267305
 40
0.5487808521
 40
0.5716058679
 40
0.5943505558
 40
0.6169639229
 40
0.6393953517
 40
0.6615947473
 40
0.6835126854
 40
0.7051005617
 40
0.7263107433
 40
0.747096723
 40
0.7674132771
 40
0.7872166297
 40
0.8064646228
 40
0.8251168984
 40
0.8431350926
 40
0.8518951315
 40
0.8604832956
 40
0.8688954309
 40
0.8771275904
 40
0.8851759776
 40
0.8930370052
 40
0.900707281
 40
0.9081836217
 40
0.9154630917
 40
0.9225429706
 40
0.9294208419
 40
0.9360945249
 40
0.9425622017
 40
0.9488223342
 40
0.9548738026
 40
0.9607158444
 40
0.9663481876
 40
0.9717710347
 40
0.9769851375
 40
0.9819918577
 40
0.986793307
 40
0.9913925153
 40
0.9957932479
 40
1.0
 40
1.0
 40
1.0
 40
1.0
 10
13.8998802974
 20
9.7363981539
 30
0.0
 10
13.9016545808
 20
9.7380494087
 30
0.0
 10
13.9052015945
 20
9.7411959233
 30
0.0
 10
13.9106441429
 20
9.7455263872
 30
0.0
 10
13.9160810472
 20
9.7493538609
 30
0.0
 10
13.9215091903
 20
9.7526757125
 30
0.0
 10
13.9269259453
 20
9.7554895064
 30
0.0
 10
13.9323283676
 20
9.7577930614
 30
0.0
 10
13.9377134716
 20
9.7595839544
 30
0.0
 10
13.9430778492
 20
9.7608602488
 30
0.0
 10
13.9484178301
 20
9.761620044
 30
0.0
 10
13.9537292954
 20
9.7618621248
 30
0.0
 10
13.9590078517
 20
9.7615858008
 30
0.0
 10
13.9642489792
 20
9.7607912435
 30
0.0
 10
13.9694483193
 20
9.7594794781
 30
0.0
 10
13.974601813
 20
9.7576520916
 30
0.0
 10
13.9797059264
 20
9.7553113614
 30
0.0
 10
13.9847574376
 20
9.7524596027
 30
0.0
 10
13.9897536323
 20
9.7490995657
 30
0.0
 10
13.9946918233
 20
9.745233796
 30
0.0
 10
13.9995696549
 20
9.7408651885
 30
0.0
 10
14.0043845961
 20
9.7359965122
 30
0.0
 10
14.0091343045
 20
9.7306308774
 30
0.0
 10
14.0138162512
 20
9.7247714527
 30
0.0
 10
14.0184279906
 20
9.718421727
 30
0.0
 10
14.0229669954
 20
9.711585401
 30
0.0
 10
14.0274307256
 20
9.704266458
 30
0.0
 10
14.031816695
 20
9.6964691854
 30
0.0
 10
14.0361223207
 20
9.6881981194
 30
0.0
 10
14.040345187
 20
9.6794581398
 30
0.0
 10
14.0444827257
 20
9.6702543574
 30
0.0
 10
14.048532601
 20
9.6605922287
 30
0.0
 10
14.0524923145
 20
9.6504774405
 30
0.0
 10
14.0563596049
 20
9.6399160054
 30
0.0
 10
14.0601320887
 20
9.6289141748
 30
0.0
 10
14.0638075731
 20
9.617478498
 30
0.0
 10
14.0673838188
 20
9.6056157724
 30
0.0
 10
14.0708587024
 20
9.5933330667
 30
0.0
 10
14.0742301432
 20
9.5806377019
 30
0.0
 10
14.0774960957
 20
9.5675372501
 30
0.0
 10
14.0806546403
 20
9.5540395317
 30
0.0
 10
14.0837038248
 20
9.5401526054
 30
0.0
 10
14.0866418853
 20
9.5258847671
 30
0.0
 10
14.0894669799
 20
9.5112445462
 30
0.0
 10
14.0921775031
 20
9.4962406789
 30
0.0
 10
14.0956718639
 20
9.47555282
 30
0.0
 10
14.099729922
 20
9.448846198
 30
0.0
 10
14.1040701331
 20
9.4158103728
 30
0.0
 10
14.1079182608
 20
9.3815492144
 30
0.0
 10
14.111264984
 20
9.3461447001
 30
0.0
 10
14.1141021682
 20
9.309681414
 30
0.0
 10
14.1164229219
 20
9.2722465519
 30
0.0
 10
14.1182216017
 20
9.2339296453
 30
0.0
 10
14.1194938271
 20
9.194822359
 30
0.0
 10
14.1202364886
 20
9.1550182624
 30
0.0
 10
14.1204477546
 20
9.114612604
 30
0.0
 10
14.1201270748
 20
9.0737020806
 30
0.0
 10
14.1192751808
 20
9.032384604
 30
0.0
 10
14.1178940837
 20
8.9907590651
 30
0.0
 10
14.1159870688
 20
8.9489250955
 30
0.0
 10
14.1135586874
 20
8.9069828284
 30
0.0
 10
14.1106147454
 20
8.8650326572
 30
0.0
 10
14.1071622896
 20
8.8231749946
 30
0.0
 10
14.1032095907
 20
8.7815100309
 30
0.0
 10
14.0987661239
 20
8.740137493
 30
0.0
 10
14.0938425463
 20
8.699156404
 30
0.0
 10
14.088450671
 20
8.6586648452
 30
0.0
 10
14.0826034393
 20
8.6187597197
 30
0.0
 10
14.0763148901
 20
8.5795365187
 30
0.0
 10
14.0696001269
 20
8.5410890909
 30
0.0
 10
14.0624752817
 20
8.5035094161
 30
0.0
 10
14.0549574781
 20
8.4668873779
 30
0.0
 10
14.0470647885
 20
8.4313105595
 30
0.0
 10
14.0388161978
 20
8.3968639744
 30
0.0
 10
14.0302315373
 20
8.3636300518
 30
0.0
 10
14.0227464481
 20
8.336765964
 30
0.0
 10
14.01659773
 20
8.3159466149
 30
0.0
 10
14.0119584208
 20
8.300830429
 30
0.0
 10
14.0072508622
 20
8.286075102
 30
0.0
 10
14.0024779023
 20
8.2716894407
 30
0.0
 10
13.9976423754
 20
8.2576820503
 30
0.0
 10
13.9927471951
 20
8.2440613
 30
0.0
 10
13.9877952978
 20
8.230835326
 30
0.0
 10
13.9827896305
 20
8.2180120315
 30
0.0
 10
13.9777332313
 20
8.2055990634
 30
0.0
 10
13.972629073
 20
8.1936038399
 30
0.0
 10
13.9674802816
 20
8.1820334975
 30
0.0
 10
13.962289857
 20
8.1708949498
 30
0.0
 10
13.9570609872
 20
8.1601948045
 30
0.0
 10
13.9517967089
 20
8.1499394496
 30
0.0
 10
13.9465002412
 20
8.1401349526
 30
0.0
 10
13.9411746695
 20
8.1307871479
 30
0.0
 10
13.9358231981
 20
8.1219015476
 30
0.0
 10
13.9304489567
 20
8.1134834142
 30
0.0
 10
13.9250551325
 20
8.105537725
 30
0.0
 10
13.9196449141
 20
8.0980691348
 30
0.0
 10
13.9142213633
 20
8.0910820168
 30
0.0
 10
13.9087875368
 20
8.0845803461
 30
0.0
 10
13.903346758
 20
8.0785682958
 30
0.0
 10
13.8996348501
 20
8.0748056278
 30
0.0
 10
13.8977776506
 20
8.0730117106
 30
0.0
  0
SPLINE
  5
306
100
AcDbEntity
  8
0
100
AcDbSpline
 62
7
  6
CONTINUOUS
 70
0
 71
3
 72
11
 73
7
 74
0
 42
0.0000001
 43
0.0000001
 44
0.0000000001
 40
0.0
 40
0.0
 40
0.0
 40
0.0
 40
0.2719835061
 40
0.5285690573
 40
0.7707938462
 40
1.0
 40
1.0
 40
1.0
 40
1.0
 10
13.7461272869
 20
8.2351790628
 30
0.0
 10
13.7442917379
 20
8.2334060585
 30
0.0
 10
13.7406228941
 20
8.2300631473
 30
0.0
 10
13.7349561826
 20
8.2255594744
 30
0.0
 10
13.7292963747
 20
8.2217224959
 30
0.0
 10
13.7254313628
 20
8.2195565345
 30
0.0
 10
13.7235064708
 20
8.2185973532
 30
0.0
  0
SPLINE
  5
307
100
AcDbEntity
  8
0
100
AcDbSpline
 62
7
  6
CONTINUOUS
 70
0
 71
3
 72
90
 73
86
 74
0
 42
0.0000001
 43
0.0000001
 44
0.0000000001
 40
0.0
 40
0.0
 40
0.0
 40
0.0
 40
0.0038529582
 40
0.0078604689
 40
0.0120257667
 40
0.0163515772
 40
0.0208402301
 40
0.0254936047
 40
0.0303130207
 40
0.0352993346
 40
0.0404530778
 40
0.045774403
 40
0.0512631968
 40
0.0569190751
 40
0.0627413465
 40
0.0687291405
 40
0.0748813412
 40
0.0811966222
 40
0.0876735192
 40
0.0943103393
 40
0.10805604
 40
0.1224176056
 40
0.1373764629
 40
0.1529120929
 40
0.1690022039
 40
0.1856229223
 40
0.2027489333
 40
0.2203535867
 40
0.2384090016
 40
0.2568861953
 40
0.2757551789
 40
0.2949850322
 40
0.3145439908
 40
0.3343995487
 40
0.3545185377
 40
0.3748671956
 40
0.3954112496
 40
0.4161160053
 40
0.4369464198
 40
0.4578671727
 40
0.4788427487
 40
0.4998375178
 40
0.5208158068
 40
0.541741976
 40
0.5625805019
 40
0.5832960499
 40
0.6038535469
 40
0.6242182668
 40
0.644355911
 40
0.6642326777
 40
0.6838153379
 40
0.703071333
 40
0.7219688533
 40
0.7404769106
 40
0.7585654239
 40
0.7762053351
 40
0.7933686945
 40
0.8100287495
 40
0.8261600578
 40
0.8417386403
 40
0.8567421012
 40
0.8711497711
 40
0.8849428972
 40
0.8981048973
 40
0.9044448707
 40
0.910621953
 40
0.916634819
 40
0.9224823382
 40
0.9281635531
 40
0.9336777966
 40
0.9390246124
 40
0.9442038167
 40
0.94921557
 40
0.9540603096
 40
0.9587388786
 40
0.9632525339
 40
0.9676029454
 40
0.9717923523
 40
0.9758235334
 40
0.9796999041
 40
0.983425649
 40
0.9870057168
 40
0.9904459968
 40
0.9937534012
 40
1.0
 40
1.0
 40
1.0
 40
1.0
 10
13.7461272869
 20
8.2351790628
 30
0.0
 10
13.7474441347
 20
8.2364510402
 30
0.0
 10
13.7500765577
 20
8.2391025124
 30
0.0
 10
13.7539468665
 20
8.2433083087
 30
0.0
 10
13.7578135396
 20
8.2478177894
 30
0.0
 10
13.7616746156
 20
8.2526287472
 30
0.0
 10
13.7655284973
 20
8.2577390036
 30
0.0
 10
13.7693734807
 20
8.2631463612
 30
0.0
 10
13.773207914
 20
8.2688484162
 30
0.0
 10
13.7770301034
 20
8.2748426035
 30
0.0
 10
13.7808382608
 20
8.2811262596
 30
0.0
 10
13.7846307329
 20
8.2876965303
 30
0.0
 10
13.7884058001
 20
8.2945504776
 30
0.0
 10
13.7921617349
 20
8.3016850339
 30
0.0
 10
13.795896898
 20
8.3090969654
 30
0.0
 10
13.7996095507
 20
8.316782951
 30
0.0
 10
13.8032980278
 20
8.3247395184
 30
0.0
 10
13.8069606846
 20
8.3329630666
 30
0.0
 10
13.8105958262
 20
8.3414499089
 30
0.0
 10
13.8154607453
 20
8.3532497825
 30
0.0
 10
13.8214525725
 20
8.3686358447
 30
0.0
 10
13.8284258652
 20
8.3878770752
 30
0.0
 10
13.8352510096
 20
8.4080711806
 30
0.0
 10
13.8419155801
 20
8.4291816368
 30
0.0
 10
13.8484074641
 20
8.4511703645
 30
0.0
 10
13.8547148484
 20
8.4739976269
 30
0.0
 10
13.860826248
 20
8.4976221678
 30
0.0
 10
13.8667305384
 20
8.5220012587
 30
0.0
 10
13.8724169936
 20
8.5470907804
 30
0.0
 10
13.877875273
 20
8.5728453203
 30
0.0
 10
13.883095444
 20
8.5992182586
 30
0.0
 10
13.8880680141
 20
8.6261618419
 30
0.0
 10
13.8927839587
 20
8.6536272697
 30
0.0
 10
13.8972347097
 20
8.6815647959
 30
0.0
 10
13.9014121726
 20
8.7099238193
 30
0.0
 10
13.9053087589
 20
8.738652967
 30
0.0
 10
13.9089174047
 20
8.7677001889
 30
0.0
 10
13.9122315593
 20
8.7970128601
 30
0.0
 10
13.9152451975
 20
8.826537875
 30
0.0
 10
13.9179528522
 20
8.8562217391
 30
0.0
 10
13.9203496226
 20
8.8860106677
 30
0.0
 10
13.9224311634
 20
8.9158506869
 30
0.0
 10
13.9241936916
 20
8.9456877303
 30
0.0
 10
13.9256340183
 20
8.9754677359
 30
0.0
 10
13.926749548
 20
9.005136746
 30
0.0
 10
13.9275382661
 20
9.0346410043
 30
0.0
 10
13.9279987413
 20
9.0639270532
 30
0.0
 10
13.9281301561
 20
9.0929418329
 30
0.0
 10
13.9279322967
 20
9.1216327792
 30
0.0
 10
13.9274055393
 20
9.1499479142
 30
0.0
 10
13.9265508475
 20
9.1778359424
 30
0.0
 10
13.9253698017
 20
9.205246349
 30
0.0
 10
13.9238645795
 20
9.2321294931
 30
0.0
 10
13.9220379409
 20
9.2584366888
 30
0.0
 10
13.91989322
 20
9.284120299
 30
0.0
 10
13.9174343548
 20
9.3091338313
 30
0.0
 10
13.9146658571
 20
9.3334320226
 30
0.0
 10
13.911592796
 20
9.3569709112
 30
0.0
 10
13.9082207845
 20
9.379707925
 30
0.0
 10
13.9045560101
 20
9.4016019802
 30
0.0
 10
13.9006051905
 20
9.4226135375
 30
0.0
 10
13.8963755591
 20
9.4427047315
 30
0.0
 10
13.8918748296
 20
9.4618392296
 30
0.0
 10
13.8878566944
 20
9.4771438857
 30
0.0
 10
13.8845043956
 20
9.4888769486
 30
0.0
 10
13.8819589211
 20
9.4973064141
 30
0.0
 10
13.8793519932
 20
9.5054717845
 30
0.0
 10
13.8766847988
 20
9.5133693938
 30
0.0
 10
13.8739584911
 20
9.5209956649
 30
0.0
 10
13.8711743574
 20
9.5283471786
 30
0.0
 10
13.8683336359
 20
9.5354206247
 30
0.0
 10
13.8654375736
 20
9.5422128135
 30
0.0
 10
13.8624875342
 20
9.5487207191
 30
0.0
 10
13.8594847802
 20
9.554941407
 30
0.0
 10
13.8564306661
 20
9.5608721003
 30
0.0
 10
13.8533265833
 20
9.5665101699
 30
0.0
 10
13.8501738249
 20
9.5718530697
 30
0.0
 10
13.8469738317
 20
9.5768984531
 30
0.0
 10
13.8437279698
 20
9.5816440779
 30
0.0
 10
13.8404375893
 20
9.5860877952
 30
0.0
 10
13.837104117
 20
9.5902277053
 30
0.0
 10
13.8337289917
 20
9.594061808
 30
0.0
 10
13.8303131749
 20
9.5975887274
 30
0.0
 10
13.8257939308
 20
9.6017982038
 30
0.0
 10
13.8222186093
 20
9.6046191458
 30
0.0
 10
13.8197708934
 20
9.6062982135
 30
0.0
  0
SPLINE
  5
308
100
AcDbEntity
  8
0
100
AcDbSpline
 62
4
  6
CONTINUOUS
 70
0
 71
3
 72
403
 73
399
 74
0
 42
0.0000001
 43
0.0000001
 44
0.0000000001
 40
0.0
 40
0.0
 40
0.0
 40
0.0
 40
0.015625
 40
0.0234375
 40
0.03125
 40
0.0390625
 40
0.04296875
 40
0.046875
 40
0.05078125
 40
0.0546875
 40
0.056640625
 40
0.05859375
 40
0.0595703125
 40
0.060546875
 40
0.0615234375
 40
0.0620117188
 40
0.0622558594
 40
0.0625
 40
0.0627441406
 40
0.0629882812
 40
0.0634765625
 40
0.064453125
 40
0.0654296875
 40
0.06640625
 40
0.068359375
 40
0.0703125
 40
0.07421875
 40
0.078125
 40
0.08203125
 40
0.0859375
 40
0.09375
 40
0.1015625
 40
0.10546875
 40
0.109375
 40
0.11328125
 40
0.1171875
 40
0.119140625
 40
0.12109375
 40
0.1220703125
 40
0.123046875
 40
0.1240234375
 40
0.1245117188
 40
0.1247558594
 40
0.125
 40
0.1252441406
 40
0.1254882812
 40
0.1259765625
 40
0.126953125
 40
0.1279296875
 40
0.12890625
 40
0.130859375
 40
0.1328125
 40
0.13671875
 40
0.140625
 40
0.14453125
 40
0.1484375
 40
0.15625
 40
0.1640625
 40
0.16796875
 40
0.171875
 40
0.17578125
 40
0.1796875
 40
0.181640625
 40
0.18359375
 40
0.1845703125
 40
0.185546875
 40
0.1865234375
 40
0.1870117188
 40
0.1872558594
 40
0.1875
 40
0.1877441406
 40
0.1879882812
 40
0.1884765625
 40
0.189453125
 40
0.1904296875
 40
0.19140625
 40
0.193359375
 40
0.1953125
 40
0.19921875
 40
0.203125
 40
0.20703125
 40
0.2109375
 40
0.21875
 40
0.2265625
 40
0.23046875
 40
0.234375
 40
0.23828125
 40
0.2421875
 40
0.244140625
 40
0.24609375
 40
0.2470703125
 40
0.248046875
 40
0.2490234375
 40
0.2495117188
 40
0.2497558594
 40
0.25
 40
0.2502441406
 40
0.2504882812
 40
0.2509765625
 40
0.251953125
 40
0.2529296875
 40
0.25390625
 40
0.255859375
 40
0.2578125
 40
0.26171875
 40
0.265625
 40
0.26953125
 40
0.2734375
 40
0.28125
 40
0.2890625
 40
0.29296875
 40
0.296875
 40
0.30078125
 40
0.3046875
 40
0.306640625
 40
0.30859375
 40
0.3095703125
 40
0.310546875
 40
0.3115234375
 40
0.3120117188
 40
0.3122558594
 40
0.3125
 40
0.3127441406
 40
0.3129882812
 40
0.3134765625
 40
0.314453125
 40
0.3154296875
 40
0.31640625
 40
0.318359375
 40
0.3203125
 40
0.32421875
 40
0.328125
 40
0.33203125
 40
0.3359375
 40
0.34375
 40
0.3515625
 40
0.35546875
 40
0.359375
 40
0.36328125
 40
0.3671875
 40
0.369140625
 40
0.37109375
 40
0.3720703125
 40
0.373046875
 40
0.3740234375
 40
0.3745117188
 40
0.3747558594
 40
0.375
 40
0.3752441406
 40
0.3754882812
 40
0.3759765625
 40
0.376953125
 40
0.3779296875
 40
0.37890625
 40
0.380859375
 40
0.3828125
 40
0.38671875
 40
0.390625
 40
0.39453125
 40
0.3984375
 40
0.40625
 40
0.4140625
 40
0.41796875
 40
0.421875
 40
0.42578125
 40
0.4296875
 40
0.431640625
 40
0.43359375
 40
0.4345703125
 40
0.435546875
 40
0.4365234375
 40
0.4370117188
 40
0.4372558594
 40
0.4375
 40
0.4377441406
 40
0.4379882812
 40
0.4384765625
 40
0.439453125
 40
0.4404296875
 40
0.44140625
 40
0.443359375
 40
0.4453125
 40
0.44921875
 40
0.453125
 40
0.45703125
 40
0.4609375
 40
0.46875
 40
0.4765625
 40
0.48046875
 40
0.484375
 40
0.48828125
 40
0.4921875
 40
0.494140625
 40
0.49609375
 40
0.4970703125
 40
0.498046875
 40
0.4990234375
 40
0.4995117188
 40
0.4997558594
 40
0.5
 40
0.5002441406
 40
0.5004882812
 40
0.5009765625
 40
0.501953125
 40
0.5029296875
 40
0.50390625
 40
0.505859375
 40
0.5078125
 40
0.51171875
 40
0.515625
 40
0.51953125
 40
0.5234375
 40
0.53125
 40
0.5390625
 40
0.54296875
 40
0.546875
 40
0.55078125
 40
0.5546875
 40
0.556640625
 40
0.55859375
 40
0.5595703125
 40
0.560546875
 40
0.5615234375
 40
0.5620117188
 40
0.5622558594
 40
0.5625
 40
0.5627441406
 40
0.5629882812
 40
0.5634765625
 40
0.564453125
 40
0.5654296875
 40
0.56640625
 40
0.568359375
 40
0.5703125
 40
0.57421875
 40
0.578125
 40
0.58203125
 40
0.5859375
 40
0.59375
 40
0.6015625
 40
0.60546875
 40
0.609375
 40
0.61328125
 40
0.6171875
 40
0.619140625
 40
0.62109375
 40
0.6220703125
 40
0.623046875
 40
0.6240234375
 40
0.6245117188
 40
0.6247558594
 40
0.625
 40
0.6252441406
 40
0.6254882812
 40
0.6259765625
 40
0.626953125
 40
0.6279296875
 40
0.62890625
 40
0.630859375
 40
0.6328125
 40
0.63671875
 40
0.640625
 40
0.64453125
 40
0.6484375
 40
0.65625
 40
0.6640625
 40
0.66796875
 40
0.671875
 40
0.67578125
 40
0.6796875
 40
0.681640625
 40
0.68359375
 40
0.6845703125
 40
0.685546875
 40
0.6865234375
 40
0.6870117188
 40
0.6872558594
 40
0.6875
 40
0.6877441406
 40
0.6879882812
 40
0.6884765625
 40
0.689453125
 40
0.6904296875
 40
0.69140625
 40
0.693359375
 40
0.6953125
 40
0.69921875
 40
0.703125
 40
0.70703125
 40
0.7109375
 40
0.71875
 40
0.7265625
 40
0.73046875
 40
0.734375
 40
0.73828125
 40
0.7421875
 40
0.744140625
 40
0.74609375
 40
0.7470703125
 40
0.748046875
 40
0.7490234375
 40
0.7495117188
 40
0.7497558594
 40
0.75
 40
0.7502441406
 40
0.7504882812
 40
0.7509765625
 40
0.751953125
 40
0.7529296875
 40
0.75390625
 40
0.755859375
 40
0.7578125
 40
0.76171875
 40
0.765625
 40
0.76953125
 40
0.7734375
 40
0.78125
 40
0.7890625
 40
0.79296875
 40
0.796875
 40
0.80078125
 40
0.8046875
 40
0.806640625
 40
0.80859375
 40
0.8095703125
 40
0.810546875
 40
0.8115234375
 40
0.8120117188
 40
0.8122558594
 40
0.8125
 40
0.8127441406
 40
0.8129882812
 40
0.8134765625
 40
0.814453125
 40
0.8154296875
 40
0.81640625
 40
0.818359375
 40
0.8203125
 40
0.82421875
 40
0.828125
 40
0.83203125
 40
0.8359375
 40
0.84375
 40
0.8515625
 40
0.85546875
 40
0.859375
 40
0.86328125
 40
0.8671875
 40
0.869140625
 40
0.87109375
 40
0.8720703125
 40
0.873046875
 40
0.8740234375
 40
0.8745117188
 40
0.8747558594
 40
0.875
 40
0.8752441406
 40
0.8754882812
 40
0.8759765625
 40
0.876953125
 40
0.8779296875
 40
0.87890625
 40
0.880859375
 40
0.8828125
 40
0.88671875
 40
0.890625
 40
0.89453125
 40
0.8984375
 40
0.90625
 40
0.9140625
 40
0.91796875
 40
0.921875
 40
0.92578125
 40
0.9296875
 40
0.931640625
 40
0.93359375
 40
0.9345703125
 40
0.935546875
 40
0.9365234375
 40
0.9370117188
 40
0.9372558594
 40
0.9375
 40
0.9377441406
 40
0.9379882812
 40
0.9384765625
 40
0.939453125
 40
0.9404296875
 40
0.94140625
 40
0.943359375
 40
0.9453125
 40
0.94921875
 40
0.953125
 40
0.95703125
 40
0.9609375
 40
0.96875
 40
0.9765625
 40
0.984375
 40
1.0
 40
1.0
 40
1.0
 40
1.0
 10
10.6117717527
 20
7.6053321619
 30
0.0
 10
10.6061432731
 20
7.6051706211
 30
0.0
 10
10.5977005537
 20
7.6049283098
 30
0.0
 10
10.5864435945
 20
7.6046052281
 30
0.0
 10
10.578000875
 20
7.6043629167
 30
0.0
 10
10.5709652755
 20
7.6041609909
 30
0.0
 10
10.565336796
 20
7.6039994494
 30
0.0
 10
10.5611154359
 20
7.6038782956
 30
0.0
 10
10.5568940775
 20
7.6037571332
 30
0.0
 10
10.5533762736
 20
7.603656191
 30
0.0
 10
10.5505620422
 20
7.603575378
 30
0.0
 10
10.5488031211
 20
7.6035250048
 30
0.0
 10
10.5473960446
 20
7.6034843973
 30
0.0
 10
10.546340572
 20
7.6034547876
 30
0.0
 10
10.5454615372
 20
7.6034274219
 30
0.0
 10
10.5448451813
 20
7.6034135467
 30
0.0
 10
10.5444945885
 20
7.6033973724
 30
0.0
 10
10.5442271069
 20
7.6034084697
 30
0.0
 10
10.5439769679
 20
7.6033307779
 30
0.0
 10
10.5436373999
 20
7.6032581595
 30
0.0
 10
10.5430459745
 20
7.6031166474
 30
0.0
 10
10.5421996075
 20
7.6029220314
 30
0.0
 10
10.5411845978
 20
7.602685263
 30
0.0
 10
10.5398310312
 20
7.6023706997
 30
0.0
 10
10.5381391484
 20
7.6019771095
 30
0.0
 10
10.5354320938
 20
7.6013475808
 30
0.0
 10
10.53204829
 20
7.600560596
 30
0.0
 10
10.5279877193
 20
7.599616246
 30
0.0
 10
10.5239271502
 20
7.5986718875
 30
0.0
 10
10.5185130575
 20
7.5974127457
 30
0.0
 10
10.5117454419
 20
7.5958388174
 30
0.0
 10
10.504977826
 20
7.5942648899
 30
0.0
 10
10.4995637337
 20
7.593005747
 30
0.0
 10
10.4955031636
 20
7.592061392
 30
0.0
 10
10.4914425967
 20
7.5911170288
 30
0.0
 10
10.4880587808
 20
7.5903300848
 30
0.0
 10
10.4853517508
 20
7.5897004729
 30
0.0
 10
10.4836598054
 20
7.5893070945
 30
0.0
 10
10.4823063675
 20
7.5889920964
 30
0.0
 10
10.4812909648
 20
7.5887566567
 30
0.0
 10
10.4804458272
 20
7.5885578836
 30
0.0
 10
10.4798522071
 20
7.5884237925
 30
0.0
 10
10.4795161555
 20
7.5883392838
 30
0.0
 10
10.4792552156
 20
7.5882981152
 30
0.0
 10
10.4790283003
 20
7.5881720372
 30
0.0
 10
10.4787138784
 20
7.5880335506
 30
0.0
 10
10.4781691697
 20
7.5877773998
 30
0.0
 10
10.4773881235
 20
7.5874186845
 30
0.0
 10
10.4764521054
 20
7.5869851381
 30
0.0
 10
10.4752036491
 20
7.5864081548
 30
0.0
 10
10.4736432267
 20
7.5856865564
 30
0.0
 10
10.4711464682
 20
7.5845322054
 30
0.0
 10
10.4680255484
 20
7.5830891958
 30
0.0
 10
10.4642804325
 20
7.5813576146
 30
0.0
 10
10.4605353199
 20
7.5796260253
 30
0.0
 10
10.4555418352
 20
7.5773172425
 30
0.0
 10
10.4492999798
 20
7.5744312628
 30
0.0
 10
10.4430581241
 20
7.5715452838
 30
0.0
 10
10.4380646399
 20
7.5692364998
 30
0.0
 10
10.4343195257
 20
7.5675049139
 30
0.0
 10
10.4305744157
 20
7.56577332
 30
0.0
 10
10.4274534777
 20
7.5643303499
 30
0.0
 10
10.4249567564
 20
7.5631759183
 30
0.0
 10
10.4233962393
 20
7.562454525
 30
0.0
 10
10.4221479774
 20
7.5618771209
 30
0.0
 10
10.4212113654
 20
7.5614448601
 30
0.0
 10
10.4204321773
 20
7.5610821223
 30
0.0
 10
10.4198841516
 20
7.5608331524
 30
0.0
 10
10.4195750444
 20
7.5606831602
 30
0.0
 10
10.419331804
 20
7.5605924238
 30
0.0
 10
10.4191321783
 20
7.5604185181
 30
0.0
 10
10.4188507973
 20
7.5602156541
 30
0.0
 10
10.4183654688
 20
7.5598471258
 30
0.0
 10
10.4176684367
 20
7.5593277233
 30
0.0
 10
10.4168335842
 20
7.5587014156
 30
0.0
 10
10.4157198936
 20
7.5578673952
 30
0.0
 10
10.41432797
 20
7.5568245079
 30
0.0
 10
10.4121007863
 20
7.5551560903
 30
0.0
 10
10.4093168431
 20
7.5530704991
 30
0.0
 10
10.4059760955
 20
7.5505678193
 30
0.0
 10
10.4026353522
 20
7.5480651315
 30
0.0
 10
10.3981810262
 20
7.5447282173
 30
0.0
 10
10.3926131194
 20
7.5405570736
 30
0.0
 10
10.3870452121
 20
7.5363859304
 30
0.0
 10
10.3825908869
 20
7.5330490152
 30
0.0
 10
10.3792501413
 20
7.5305463304
 30
0.0
 10
10.3759094023
 20
7.5280436396
 30
0.0
 10
10.3731254324
 20
7.5259580828
 30
0.0
 10
10.3708983031
 20
7.524289595
 30
0.0
 10
10.369506241
 20
7.5232468865
 30
0.0
 10
10.3683928347
 20
7.522412499
 30
0.0
 10
10.3675571137
 20
7.5217873128
 30
0.0
 10
10.3668627992
 20
7.5212644014
 30
0.0
 10
10.3663726191
 20
7.520902137
 30
0.0
 10
10.3660990116
 20
7.5206892367
 30
0.0
 10
10.3658755084
 20
7.5205461595
 30
0.0
 10
10.3657219479
 20
7.5203396364
 30
0.0
 10
10.3654928038
 20
7.5200864029
 30
0.0
 10
10.3651031686
 20
7.5196329332
 30
0.0
 10
10.3645406041
 20
7.5189905101
 30
0.0
 10
10.3638680703
 20
7.5182172949
 30
0.0
 10
10.3629704702
 20
7.5171871474
 30
0.0
 10
10.3618487743
 20
7.5158991869
 30
0.0
 10
10.3600538908
 20
7.5138386045
 30
0.0
 10
10.3578103448
 20
7.5112628235
 30
0.0
 10
10.3551180645
 20
7.508171909
 30
0.0
 10
10.3524257909
 20
7.5050809884
 30
0.0
 10
10.3488360905
 20
7.5009597632
 30
0.0
 10
10.3443489659
 20
7.4958082308
 30
0.0
 10
10.3398618406
 20
7.4906566988
 30
0.0
 10
10.3362721411
 20
7.4865354728
 30
0.0
 10
10.3335798647
 20
7.4834445546
 30
0.0
 10
10.3308875953
 20
7.4803536312
 30
0.0
 10
10.3286440154
 20
7.477777878
 30
0.0
 10
10.326849201
 20
7.4757172388
 30
0.0
 10
10.3257273292
 20
7.4744294227
 30
0.0
 10
10.32483009
 20
7.473398979
 30
0.0
 10
10.3241564537
 20
7.4726266685
 30
0.0
 10
10.3235973388
 20
7.4719814151
 30
0.0
 10
10.3232015455
 20
7.4715329979
 30
0.0
 10
10.3229822682
 20
7.471271669
 30
0.0
 10
10.3227984
 20
7.4710900125
 30
0.0
 10
10.3226887277
 20
7.4708535405
 30
0.0
 10
10.3225166177
 20
7.4705573649
 30
0.0
 10
10.3222274832
 20
7.470030149
 30
0.0
 10
10.3218081298
 20
7.4692816409
 30
0.0
 10
10.3213076042
 20
7.4683814377
 30
0.0
 10
10.3206392941
 20
7.467181863
 30
0.0
 10
10.3198042293
 20
7.4656821562
 30
0.0
 10
10.3184679452
 20
7.4632827586
 30
0.0
 10
10.3167976519
 20
7.4602834659
 30
0.0
 10
10.3147932735
 20
7.4566843342
 30
0.0
 10
10.3127889021
 20
7.4530851973
 30
0.0
 10
10.3101164045
 20
7.4482863499
 30
0.0
 10
10.3067757835
 20
7.44228779
 30
0.0
 10
10.3034351617
 20
7.4362892305
 30
0.0
 10
10.3007626652
 20
7.4314903825
 30
0.0
 10
10.2987582907
 20
7.4278912475
 30
0.0
 10
10.2967539241
 20
7.4242921087
 30
0.0
 10
10.295083594
 20
7.4212928383
 30
0.0
 10
10.293747385
 20
7.4188933952
 30
0.0
 10
10.2929121291
 20
7.4173938041
 30
0.0
 10
10.2922442112
 20
7.416193992
 30
0.0
 10
10.2917424874
 20
7.4152945142
 30
0.0
 10
10.2913268825
 20
7.4145437362
 30
0.0
 10
10.2910310564
 20
7.4140205725
 30
0.0
 10
10.2908696681
 20
7.4137179043
 30
0.0
 10
10.2907270623
 20
7.4135013752
 30
0.0
 10
10.290666887
 20
7.4132448169
 30
0.0
 10
10.2905579006
 20
7.4129167019
 30
0.0
 10
10.2903805707
 20
7.4123359951
 30
0.0
 10
10.2901202387
 20
7.4115098151
 30
0.0
 10
10.289810838
 20
7.4105169433
 30
0.0
 10
10.2893972567
 20
7.4091936228
 30
0.0
 10
10.2888806386
 20
7.407539298
 30
0.0
 10
10.2880538492
 20
7.4048924756
 30
0.0
 10
10.2870204313
 20
7.4015839142
 30
0.0
 10
10.2857803003
 20
7.3976136549
 30
0.0
 10
10.2845401772
 20
7.3936433917
 30
0.0
 10
10.282886677
 20
7.3883497088
 30
0.0
 10
10.2808198028
 20
7.3817326047
 30
0.0
 10
10.2787529278
 20
7.3751155009
 30
0.0
 10
10.2770994287
 20
7.3698218176
 30
0.0
 10
10.2758593022
 20
7.3658515559
 30
0.0
 10
10.2746191841
 20
7.3618812911
 30
0.0
 10
10.2735857262
 20
7.3585727466
 30
0.0
 10
10.2727590183
 20
7.3559258898
 30
0.0
 10
10.2722421929
 20
7.3542716527
 30
0.0
 10
10.2718290371
 20
7.352948152
 30
0.0
 10
10.2715183365
 20
7.3519558304
 30
0.0
 10
10.2712620716
 20
7.351127929
 30
0.0
 10
10.2710774813
 20
7.3505502953
 30
0.0
 10
10.270980128
 20
7.3502172564
 30
0.0
 10
10.2708842194
 20
7.3499758225
 30
0.0
 10
10.2708758219
 20
7.349702489
 30
0.0
 10
10.2708341003
 20
7.3493491712
 30
0.0
 10
10.2707753097
 20
7.3487256808
 30
0.0
 10
10.2706838876
 20
7.3478376907
 30
0.0
 10
10.2705773637
 20
7.3467709424
 30
0.0
 10
10.2704342202
 20
7.3453490165
 30
0.0
 10
10.2702556715
 20
7.3435714705
 30
0.0
 10
10.2699697808
 20
7.3407274743
 30
0.0
 10
10.2696124904
 20
7.3371724525
 30
0.0
 10
10.2691837107
 20
7.3329064378
 30
0.0
 10
10.2687549394
 20
7.32864042
 30
0.0
 10
10.2681832413
 20
7.3229523973
 30
0.0
 10
10.2674686198
 20
7.3158423686
 30
0.0
 10
10.2667539975
 20
7.30873234
 30
0.0
 10
10.2661823007
 20
7.3030443172
 30
0.0
 10
10.2657535257
 20
7.2987783
 30
0.0
 10
10.2653247594
 20
7.294512283
 30
0.0
 10
10.2649674272
 20
7.2909572682
 30
0.0
 10
10.264681622
 20
7.2881132576
 30
0.0
 10
10.2645028556
 20
7.2863357484
 30
0.0
 10
10.2643601588
 20
7.284913747
 30
0.0
 10
10.2642522703
 20
7.2838472295
 30
0.0
 10
10.2641651178
 20
7.2829585171
 30
0.0
 10
10.2640987053
 20
7.2823363161
 30
0.0
 10
10.2640691959
 20
7.2819809325
 30
0.0
 10
10.2640232863
 20
7.2817139446
 30
0.0
 10
10.2640682669
 20
7.2814486774
 30
0.0
 10
10.2640965374
 20
7.2810943876
 30
0.0
 10
10.2641607821
 20
7.28047466
 30
0.0
 10
10.2642448377
 20
7.2795891888
 30
0.0
 10
10.2643490099
 20
7.2785266859
 30
0.0
 10
10.2644867517
 20
7.2771099934
 30
0.0
 10
10.2646593242
 20
7.2753391354
 30
0.0
 10
10.2649352193
 20
7.2725057584
 30
0.0
 10
10.2652801639
 20
7.2689640385
 30
0.0
 10
10.265694065
 20
7.264713974
 30
0.0
 10
10.2661079748
 20
7.2604639097
 30
0.0
 10
10.2666598514
 20
7.2547971573
 30
0.0
 10
10.2673496983
 20
7.2477137168
 30
0.0
 10
10.2680395445
 20
7.2406302762
 30
0.0
 10
10.2685914224
 20
7.2349635238
 30
0.0
 10
10.2690053285
 20
7.2307134593
 30
0.0
 10
10.2694192431
 20
7.2264633958
 30
0.0
 10
10.2697641458
 20
7.2229216729
 30
0.0
 10
10.2700401264
 20
7.220088302
 30
0.0
 10
10.2702124812
 20
7.2183174282
 30
0.0
 10
10.2703506698
 20
7.2169007683
 30
0.0
 10
10.2704534768
 20
7.215838166
 30
0.0
 10
10.2705418038
 20
7.2149530056
 30
0.0
 10
10.2705984234
 20
7.2143327231
 30
0.0
 10
10.2706389113
 20
7.2139793225
 30
0.0
 10
10.270646364
 20
7.2137113241
 30
0.0
 10
10.270741403
 20
7.2134545941
 30
0.0
 10
10.2708375705
 20
7.2131083569
 30
0.0
 10
10.2710200981
 20
7.2125042731
 30
0.0
 10
10.2712734099
 20
7.2116403389
 30
0.0
 10
10.2715805694
 20
7.2106040276
 30
0.0
 10
10.2719890029
 20
7.2092221361
 30
0.0
 10
10.2724999256
 20
7.2074948207
 30
0.0
 10
10.2733171891
 20
7.2047310887
 30
0.0
 10
10.2743388415
 20
7.201276433
 30
0.0
 10
10.2755647931
 20
7.1971308423
 30
0.0
 10
10.276790753
 20
7.1929852526
 30
0.0
 10
10.2784253634
 20
7.1874577992
 30
0.0
 10
10.2804686274
 20
7.1805484828
 30
0.0
 10
10.2825118907
 20
7.1736391661
 30
0.0
 10
10.2841465022
 20
7.1681117131
 30
0.0
 10
10.2853724587
 20
7.1639661226
 30
0.0
 10
10.2865984231
 20
7.1598205348
 30
0.0
 10
10.2876200355
 20
7.1563658699
 30
0.0
 10
10.2884373806
 20
7.1536021568
 30
0.0
 10
10.2889480958
 20
7.1518747932
 30
0.0
 10
10.2893569552
 20
7.1504930007
 30
0.0
 10
10.2896628133
 20
7.1494563868
 30
0.0
 10
10.2899201969
 20
7.1485933995
 30
0.0
 10
10.2900954556
 20
7.1479876252
 30
0.0
 10
10.2902032697
 20
7.1476440966
 30
0.0
 10
10.2902625345
 20
7.1473790467
 30
0.0
 10
10.2904043491
 20
7.1471422965
 30
0.0
 10
10.2905646409
 20
7.1468167584
 30
0.0
 10
10.2908585674
 20
7.1462516658
 30
0.0
 10
10.2912714484
 20
7.1454419862
 30
0.0
 10
10.2917699079
 20
7.1444713998
 30
0.0
 10
10.2924334719
 20
7.1431769252
 30
0.0
 10
10.293263286
 20
7.141558955
 30
0.0
 10
10.2945907878
 20
7.1389701339
 30
0.0
 10
10.2962502339
 20
7.1357341312
 30
0.0
 10
10.2982415398
 20
7.1318509177
 30
0.0
 10
10.3002328535
 20
7.127967707
 30
0.0
 10
10.3028879357
 20
7.1227900918
 30
0.0
 10
10.3062067895
 20
7.1163180731
 30
0.0
 10
10.3095256427
 20
7.1098460541
 30
0.0
 10
10.312180726
 20
7.1046684393
 30
0.0
 10
10.3141720364
 20
7.1007852273
 30
0.0
 10
10.3161633546
 20
7.0969020189
 30
0.0
 10
10.3178227625
 20
7.0936660005
 30
0.0
 10
10.3191503423
 20
7.0910772112
 30
0.0
 10
10.3199799579
 20
7.0894591601
 30
0.0
 10
10.3206439292
 20
7.0881648516
 30
0.0
 10
10.3211411442
 20
7.0871937577
 30
0.0
 10
10.3215579189
 20
7.0863856661
 30
0.0
 10
10.3218448946
 20
7.0858177386
 30
0.0
 10
10.3220163234
 20
7.0854967428
 30
0.0
 10
10.3221239286
 20
7.08524604
 30
0.0
 10
10.3223116784
 20
7.0850333937
 30
0.0
 10
10.3225340562
 20
7.0847365908
 30
0.0
 10
10.3229362421
 20
7.0842233706
 30
0.0
 10
10.323503984
 20
7.0834869654
 30
0.0
 10
10.3241881889
 20
7.0826046632
 30
0.0
 10
10.325099444
 20
7.0814277769
 30
0.0
 10
10.3262388616
 20
7.0799568344
 30
0.0
 10
10.3280617348
 20
7.077603234
 30
0.0
 10
10.3303403932
 20
7.0746612652
 30
0.0
 10
10.3330747546
 20
7.0711308891
 30
0.0
 10
10.3358091237
 20
7.0676005166
 30
0.0
 10
10.3394549464
 20
7.062893352
 30
0.0
 10
10.3440122259
 20
7.0570093968
 30
0.0
 10
10.3485695047
 20
7.0511254411
 30
0.0
 10
10.3522153284
 20
7.0464182772
 30
0.0
 10
10.3549496947
 20
7.0428879026
 30
0.0
 10
10.3576840666
 20
7.0393575343
 30
0.0
 10
10.3599626924
 20
7.0364155411
 30
0.0
 10
10.3617856321
 20
7.0340619906
 30
0.0
 10
10.3629248804
 20
7.0325909213
 30
0.0
 10
10.3638364829
 20
7.0314142952
 30
0.0
 10
10.3645196266
 20
7.030531198
 30
0.0
 10
10.3650906888
 20
7.0297972802
 30
0.0
 10
10.3654869473
 20
7.0292796195
 30
0.0
 10
10.3657188224
 20
7.0289899314
 30
0.0
 10
10.3658773996
 20
7.0287554308
 30
0.0
 10
10.3660945722
 20
7.0285868094
 30
0.0
 10
10.3663636968
 20
7.0283390014
 30
0.0
 10
10.3668441878
 20
7.027916044
 30
0.0
 10
10.3675256249
 20
7.0273062217
 30
0.0
 10
10.3683454804
 20
7.0265768308
 30
0.0
 10
10.3694378768
 20
7.0256034727
 30
0.0
 10
10.3708036271
 20
7.0243870617
 30
0.0
 10
10.3729886851
 20
7.0224406439
 30
0.0
 10
10.3757200566
 20
7.0200076766
 30
0.0
 10
10.3789976813
 20
7.0170880923
 30
0.0
 10
10.3822753117
 20
7.0141685143
 30
0.0
 10
10.3866454836
 20
7.0102757414
 30
0.0
 10
10.3921081991
 20
7.0054097762
 30
0.0
 10
10.3975709142
 20
7.0005438103
 30
0.0
 10
10.4019410868
 20
6.9966510384
 30
0.0
 10
10.405218715
 20
6.9937314576
 30
0.0
 10
10.4084963479
 20
6.9908118836
 30
0.0
 10
10.4112276939
 20
6.9883788842
 30
0.0
 10
10.4134128038
 20
6.9864325319
 30
0.0
 10
10.4147784221
 20
6.9852159542
 30
0.0
 10
10.4158710895
 20
6.9842429383
 30
0.0
 10
10.4166901169
 20
6.9835125022
 30
0.0
 10
10.417374145
 20
6.9829059498
 30
0.0
 10
10.4178500105
 20
6.9824771551
 30
0.0
 10
10.4181265464
 20
6.9822387
 30
0.0
 10
10.4183209542
 20
6.9820413495
 30
0.0
 10
10.4185650319
 20
6.9819147504
 30
0.0
 10
10.4188731435
 20
6.9817212728
 30
0.0
 10
10.4194204109
 20
6.9813941852
 30
0.0
 10
10.4201980012
 20
6.9809209057
 30
0.0
 10
10.4211329161
 20
6.9803555435
 30
0.0
 10
10.4223788382
 20
6.9796008285
 30
0.0
 10
10.4239364569
 20
6.9786577424
 30
0.0
 10
10.4264285261
 20
6.9771486327
 30
0.0
 10
10.4295436541
 20
6.9752623046
 30
0.0
 10
10.4332817899
 20
6.9729986855
 30
0.0
 10
10.4370199304
 20
6.9707350733
 30
0.0
 10
10.4420041161
 20
6.9677169212
 30
0.0
 10
10.4482343489
 20
6.963944232
 30
0.0
 10
10.4544645813
 20
6.9601715422
 30
0.0
 10
10.4594487676
 20
6.9571533912
 30
0.0
 10
10.4631869064
 20
6.9548897759
 30
0.0
 10
10.4669250485
 20
6.9526261682
 30
0.0
 10
10.4700401567
 20
6.9507398047
 30
0.0
 10
10.4725322662
 20
6.9492307673
 30
0.0
 10
10.4740897825
 20
6.9482874973
 30
0.0
 10
10.4753359149
 20
6.9475331598
 30
0.0
 10
10.4762701873
 20
6.946966644
 30
0.0
 10
10.4770497876
 20
6.9464969737
 30
0.0
 10
10.477593467
 20
6.9461634433
 30
0.0
 10
10.4779073274
 20
6.9459802886
 30
0.0
 10
10.4781337463
 20
6.9458219806
 30
0.0
 10
10.4783944777
 20
6.9457437235
 30
0.0
 10
10.478730151
 20
6.9456114581
 30
0.0
 10
10.4793231557
 20
6.9453930033
 30
0.0
 10
10.4801673897
 20
6.9450741233
 30
0.0
 10
10.4811817185
 20
6.9446943787
 30
0.0
 10
10.4825337211
 20
6.9441870357
 30
0.0
 10
10.4842238735
 20
6.9435532052
 30
0.0
 10
10.4869280339
 20
6.9425388817
 30
0.0
 10
10.490308263
 20
6.9412710441
 30
0.0
 10
10.4943645257
 20
6.9397496103
 30
0.0
 10
10.4984207917
 20
6.9382281842
 30
0.0
 10
10.5038291452
 20
6.9361996134
 30
0.0
 10
10.5105895876
 20
6.9336639009
 30
0.0
 10
10.5173500296
 20
6.9311281877
 30
0.0
 10
10.5227583835
 20
6.929099618
 30
0.0
 10
10.5268146483
 20
6.9275781885
 30
0.0
 10
10.5308709156
 20
6.9260567673
 30
0.0
 10
10.5342511306
 20
6.9247888907
 30
0.0
 10
10.5369553198
 20
6.9237746467
 30
0.0
 10
10.5386453989
 20
6.9231406139
 30
0.0
 10
10.539997552
 20
6.9226336859
 30
0.0
 10
10.5410114207
 20
6.9222526733
 30
0.0
 10
10.5418570942
 20
6.9219377607
 30
0.0
 10
10.5424475293
 20
6.9217122236
 30
0.0
 10
10.5427873196
 20
6.9215913058
 30
0.0
 10
10.5430354048
 20
6.9214781924
 30
0.0
 10
10.5433093209
 20
6.9214507988
 30
0.0
 10
10.5436655322
 20
6.9213843739
 30
0.0
 10
10.5442931
 20
6.9212820613
 30
0.0
 10
10.5451874306
 20
6.9211286171
 30
0.0
 10
10.5462615669
 20
6.9209476016
 30
0.0
 10
10.5476934204
 20
6.9207051588
 30
0.0
 10
10.5494833496
 20
6.920402478
 30
0.0
 10
10.5523471736
 20
6.9199179805
 30
0.0
 10
10.5559269752
 20
6.91931243
 30
0.0
 10
10.5602227278
 20
6.9185857388
 30
0.0
 10
10.5645184829
 20
6.9178590559
 30
0.0
 10
10.5702461555
 20
6.9168901423
 30
0.0
 10
10.5774057466
 20
6.9156790014
 30
0.0
 10
10.5859972557
 20
6.9142256319
 30
0.0
 10
10.5974526012
 20
6.9122878061
 30
0.0
 10
10.6060441104
 20
6.9108344366
 30
0.0
 10
10.6117717831
 20
6.9098655237
 30
0.0
  0
SPLINE
  5
309
100
AcDbEntity
  8
0
100
AcDbSpline
 62
4
  6
CONTINUOUS
 70
0
 71
3
 72
403
 73
399
 74
0
 42
0.0000001
 43
0.0000001
 44
0.0000000001
 40
0.0
 40
0.0
 40
0.0
 40
0.0
 40
0.015625
 40
0.0234375
 40
0.03125
 40
0.0390625
 40
0.04296875
 40
0.046875
 40
0.05078125
 40
0.0546875
 40
0.056640625
 40
0.05859375
 40
0.0595703125
 40
0.060546875
 40
0.0615234375
 40
0.0620117188
 40
0.0622558594
 40
0.0625
 40
0.0627441406
 40
0.0629882812
 40
0.0634765625
 40
0.064453125
 40
0.0654296875
 40
0.06640625
 40
0.068359375
 40
0.0703125
 40
0.07421875
 40
0.078125
 40
0.08203125
 40
0.0859375
 40
0.09375
 40
0.1015625
 40
0.10546875
 40
0.109375
 40
0.11328125
 40
0.1171875
 40
0.119140625
 40
0.12109375
 40
0.1220703125
 40
0.123046875
 40
0.1240234375
 40
0.1245117188
 40
0.1247558594
 40
0.125
 40
0.1252441406
 40
0.1254882812
 40
0.1259765625
 40
0.126953125
 40
0.1279296875
 40
0.12890625
 40
0.130859375
 40
0.1328125
 40
0.13671875
 40
0.140625
 40
0.14453125
 40
0.1484375
 40
0.15625
 40
0.1640625
 40
0.16796875
 40
0.171875
 40
0.17578125
 40
0.1796875
 40
0.181640625
 40
0.18359375
 40
0.1845703125
 40
0.185546875
 40
0.1865234375
 40
0.1870117188
 40
0.1872558594
 40
0.1875
 40
0.1877441406
 40
0.1879882812
 40
0.1884765625
 40
0.189453125
 40
0.1904296875
 40
0.19140625
 40
0.193359375
 40
0.1953125
 40
0.19921875
 40
0.203125
 40
0.20703125
 40
0.2109375
 40
0.21875
 40
0.2265625
 40
0.23046875
 40
0.234375
 40
0.23828125
 40
0.2421875
 40
0.244140625
 40
0.24609375
 40
0.2470703125
 40
0.248046875
 40
0.2490234375
 40
0.2495117188
 40
0.2497558594
 40
0.25
 40
0.2502441406
 40
0.2504882812
 40
0.2509765625
 40
0.251953125
 40
0.2529296875
 40
0.25390625
 40
0.255859375
 40
0.2578125
 40
0.26171875
 40
0.265625
 40
0.26953125
 40
0.2734375
 40
0.28125
 40
0.2890625
 40
0.29296875
 40
0.296875
 40
0.30078125
 40
0.3046875
 40
0.306640625
 40
0.30859375
 40
0.3095703125
 40
0.310546875
 40
0.3115234375
 40
0.3120117188
 40
0.3122558594
 40
0.3125
 40
0.3127441406
 40
0.3129882812
 40
0.3134765625
 40
0.314453125
 40
0.3154296875
 40
0.31640625
 40
0.318359375
 40
0.3203125
 40
0.32421875
 40
0.328125
 40
0.33203125
 40
0.3359375
 40
0.34375
 40
0.3515625
 40
0.35546875
 40
0.359375
 40
0.36328125
 40
0.3671875
 40
0.369140625
 40
0.37109375
 40
0.3720703125
 40
0.373046875
 40
0.3740234375
 40
0.3745117188
 40
0.3747558594
 40
0.375
 40
0.3752441406
 40
0.3754882812
 40
0.3759765625
 40
0.376953125
 40
0.3779296875
 40
0.37890625
 40
0.380859375
 40
0.3828125
 40
0.38671875
 40
0.390625
 40
0.39453125
 40
0.3984375
 40
0.40625
 40
0.4140625
 40
0.41796875
 40
0.421875
 40
0.42578125
 40
0.4296875
 40
0.431640625
 40
0.43359375
 40
0.4345703125
 40
0.435546875
 40
0.4365234375
 40
0.4370117188
 40
0.4372558594
 40
0.4375
 40
0.4377441406
 40
0.4379882812
 40
0.4384765625
 40
0.439453125
 40
0.4404296875
 40
0.44140625
 40
0.443359375
 40
0.4453125
 40
0.44921875
 40
0.453125
 40
0.45703125
 40
0.4609375
 40
0.46875
 40
0.4765625
 40
0.48046875
 40
0.484375
 40
0.48828125
 40
0.4921875
 40
0.494140625
 40
0.49609375
 40
0.4970703125
 40
0.498046875
 40
0.4990234375
 40
0.4995117188
 40
0.4997558594
 40
0.5
 40
0.5002441406
 40
0.5004882812
 40
0.5009765625
 40
0.501953125
 40
0.5029296875
 40
0.50390625
 40
0.505859375
 40
0.5078125
 40
0.51171875
 40
0.515625
 40
0.51953125
 40
0.5234375
 40
0.53125
 40
0.5390625
 40
0.54296875
 40
0.546875
 40
0.55078125
 40
0.5546875
 40
0.556640625
 40
0.55859375
 40
0.5595703125
 40
0.560546875
 40
0.5615234375
 40
0.5620117188
 40
0.5622558594
 40
0.5625
 40
0.5627441406
 40
0.5629882812
 40
0.5634765625
 40
0.564453125
 40
0.5654296875
 40
0.56640625
 40
0.568359375
 40
0.5703125
 40
0.57421875
 40
0.578125
 40
0.58203125
 40
0.5859375
 40
0.59375
 40
0.6015625
 40
0.60546875
 40
0.609375
 40
0.61328125
 40
0.6171875
 40
0.619140625
 40
0.62109375
 40
0.6220703125
 40
0.623046875
 40
0.6240234375
 40
0.6245117188
 40
0.6247558594
 40
0.625
 40
0.6252441406
 40
0.6254882812
 40
0.6259765625
 40
0.626953125
 40
0.6279296875
 40
0.62890625
 40
0.630859375
 40
0.6328125
 40
0.63671875
 40
0.640625
 40
0.64453125
 40
0.6484375
 40
0.65625
 40
0.6640625
 40
0.66796875
 40
0.671875
 40
0.67578125
 40
0.6796875
 40
0.681640625
 40
0.68359375
 40
0.6845703125
 40
0.685546875
 40
0.6865234375
 40
0.6870117188
 40
0.6872558594
 40
0.6875
 40
0.6877441406
 40
0.6879882812
 40
0.6884765625
 40
0.689453125
 40
0.6904296875
 40
0.69140625
 40
0.693359375
 40
0.6953125
 40
0.69921875
 40
0.703125
 40
0.70703125
 40
0.7109375
 40
0.71875
 40
0.7265625
 40
0.73046875
 40
0.734375
 40
0.73828125
 40
0.7421875
 40
0.744140625
 40
0.74609375
 40
0.7470703125
 40
0.748046875
 40
0.7490234375
 40
0.7495117188
 40
0.7497558594
 40
0.75
 40
0.7502441406
 40
0.7504882812
 40
0.7509765625
 40
0.751953125
 40
0.7529296875
 40
0.75390625
 40
0.755859375
 40
0.7578125
 40
0.76171875
 40
0.765625
 40
0.76953125
 40
0.7734375
 40
0.78125
 40
0.7890625
 40
0.79296875
 40
0.796875
 40
0.80078125
 40
0.8046875
 40
0.806640625
 40
0.80859375
 40
0.8095703125
 40
0.810546875
 40
0.8115234375
 40
0.8120117188
 40
0.8122558594
 40
0.8125
 40
0.8127441406
 40
0.8129882812
 40
0.8134765625
 40
0.814453125
 40
0.8154296875
 40
0.81640625
 40
0.818359375
 40
0.8203125
 40
0.82421875
 40
0.828125
 40
0.83203125
 40
0.8359375
 40
0.84375
 40
0.8515625
 40
0.85546875
 40
0.859375
 40
0.86328125
 40
0.8671875
 40
0.869140625
 40
0.87109375
 40
0.8720703125
 40
0.873046875
 40
0.8740234375
 40
0.8745117188
 40
0.8747558594
 40
0.875
 40
0.8752441406
 40
0.8754882812
 40
0.8759765625
 40
0.876953125
 40
0.8779296875
 40
0.87890625
 40
0.880859375
 40
0.8828125
 40
0.88671875
 40
0.890625
 40
0.89453125
 40
0.8984375
 40
0.90625
 40
0.9140625
 40
0.91796875
 40
0.921875
 40
0.92578125
 40
0.9296875
 40
0.931640625
 40
0.93359375
 40
0.9345703125
 40
0.935546875
 40
0.9365234375
 40
0.9370117188
 40
0.9372558594
 40
0.9375
 40
0.9377441406
 40
0.9379882812
 40
0.9384765625
 40
0.939453125
 40
0.9404296875
 40
0.94140625
 40
0.943359375
 40
0.9453125
 40
0.94921875
 40
0.953125
 40
0.95703125
 40
0.9609375
 40
0.96875
 40
0.9765625
 40
0.984375
 40
1.0
 40
1.0
 40
1.0
 40
1.0
 10
10.6117717527
 20
6.9098655258
 30
0.0
 10
10.6174002324
 20
6.9100270667
 30
0.0
 10
10.6258429518
 20
6.910269378
 30
0.0
 10
10.637099911
 20
6.9105924597
 30
0.0
 10
10.6455426304
 20
6.910834771
 30
0.0
 10
10.65257823
 20
6.9110366968
 30
0.0
 10
10.6582067095
 20
6.9111982383
 30
0.0
 10
10.6624280696
 20
6.9113193922
 30
0.0
 10
10.666649428
 20
6.9114405545
 30
0.0
 10
10.6701672318
 20
6.9115414967
 30
0.0
 10
10.6729814633
 20
6.9116223097
 30
0.0
 10
10.6747403844
 20
6.9116726829
 30
0.0
 10
10.6761474609
 20
6.9117132904
 30
0.0
 10
10.6772029334
 20
6.9117429002
 30
0.0
 10
10.6780819683
 20
6.9117702659
 30
0.0
 10
10.6786983242
 20
6.911784141
 30
0.0
 10
10.679048917
 20
6.9118003153
 30
0.0
 10
10.6793163986
 20
6.911789218
 30
0.0
 10
10.6795665376
 20
6.9118669098
 30
0.0
 10
10.6799061056
 20
6.9119395282
 30
0.0
 10
10.680497531
 20
6.9120810403
 30
0.0
 10
10.681343898
 20
6.9122756564
 30
0.0
 10
10.6823589077
 20
6.9125124247
 30
0.0
 10
10.6837124743
 20
6.912826988
 30
0.0
 10
10.6854043571
 20
6.9132205783
 30
0.0
 10
10.6881114117
 20
6.9138501069
 30
0.0
 10
10.6914952154
 20
6.9146370917
 30
0.0
 10
10.6955557862
 20
6.9155814417
 30
0.0
 10
10.6996163553
 20
6.9165258003
 30
0.0
 10
10.705030448
 20
6.917784942
 30
0.0
 10
10.7117980636
 20
6.9193588703
 30
0.0
 10
10.7185656795
 20
6.9209327978
 30
0.0
 10
10.7239797718
 20
6.9221919407
 30
0.0
 10
10.7280403419
 20
6.9231362958
 30
0.0
 10
10.7321009088
 20
6.9240806589
 30
0.0
 10
10.7354847247
 20
6.9248676029
 30
0.0
 10
10.7381917546
 20
6.9254972148
 30
0.0
 10
10.7398837001
 20
6.9258905932
 30
0.0
 10
10.741237138
 20
6.9262055913
 30
0.0
 10
10.7422525406
 20
6.926441031
 30
0.0
 10
10.7430976783
 20
6.9266398041
 30
0.0
 10
10.7436912983
 20
6.9267738952
 30
0.0
 10
10.74402735
 20
6.926858404
 30
0.0
 10
10.7442882899
 20
6.9268995725
 30
0.0
 10
10.7445152052
 20
6.9270256505
 30
0.0
 10
10.7448296271
 20
6.9271641371
 30
0.0
 10
10.7453743358
 20
6.9274202879
 30
0.0
 10
10.746155382
 20
6.9277790032
 30
0.0
 10
10.7470914001
 20
6.9282125496
 30
0.0
 10
10.7483398564
 20
6.9287895329
 30
0.0
 10
10.7499002788
 20
6.9295111313
 30
0.0
 10
10.7523970373
 20
6.9306654823
 30
0.0
 10
10.7555179571
 20
6.9321084919
 30
0.0
 10
10.759263073
 20
6.9338400731
 30
0.0
 10
10.7630081856
 20
6.9355716624
 30
0.0
 10
10.7680016703
 20
6.9378804453
 30
0.0
 10
10.7742435257
 20
6.9407664249
 30
0.0
 10
10.7804853814
 20
6.9436524039
 30
0.0
 10
10.7854788655
 20
6.9459611879
 30
0.0
 10
10.7892239797
 20
6.9476927738
 30
0.0
 10
10.7929690898
 20
6.9494243677
 30
0.0
 10
10.7960900278
 20
6.9508673378
 30
0.0
 10
10.7985867491
 20
6.9520217694
 30
0.0
 10
10.8001472662
 20
6.9527431628
 30
0.0
 10
10.8013955281
 20
6.9533205668
 30
0.0
 10
10.8023321401
 20
6.9537528276
 30
0.0
 10
10.8031113282
 20
6.9541155654
 30
0.0
 10
10.8036593539
 20
6.9543645353
 30
0.0
 10
10.8039684611
 20
6.9545145276
 30
0.0
 10
10.8042117014
 20
6.9546052639
 30
0.0
 10
10.8044113272
 20
6.9547791697
 30
0.0
 10
10.8046927081
 20
6.9549820336
 30
0.0
 10
10.8051780366
 20
6.9553505619
 30
0.0
 10
10.8058750688
 20
6.9558699644
 30
0.0
 10
10.8067099213
 20
6.9564962721
 30
0.0
 10
10.8078236119
 20
6.9573302925
 30
0.0
 10
10.8092155354
 20
6.9583731799
 30
0.0
 10
10.8114427192
 20
6.9600415974
 30
0.0
 10
10.8142266624
 20
6.9621271886
 30
0.0
 10
10.81756741
 20
6.9646298684
 30
0.0
 10
10.8209081533
 20
6.9671325562
 30
0.0
 10
10.8253624792
 20
6.9704694704
 30
0.0
 10
10.8309303861
 20
6.9746406141
 30
0.0
 10
10.8364982934
 20
6.9788117573
 30
0.0
 10
10.8409526186
 20
6.9821486725
 30
0.0
 10
10.8442933642
 20
6.9846513573
 30
0.0
 10
10.8476341031
 20
6.9871540481
 30
0.0
 10
10.8504180731
 20
6.989239605
 30
0.0
 10
10.8526452024
 20
6.9909080927
 30
0.0
 10
10.8540372645
 20
6.9919508012
 30
0.0
 10
10.8551506708
 20
6.9927851888
 30
0.0
 10
10.8559863918
 20
6.993410375
 30
0.0
 10
10.8566807063
 20
6.9939332863
 30
0.0
 10
10.8571708864
 20
6.9942955507
 30
0.0
 10
10.8574444939
 20
6.994508451
 30
0.0
 10
10.8576679971
 20
6.9946515283
 30
0.0
 10
10.8578215576
 20
6.9948580513
 30
0.0
 10
10.8580507017
 20
6.9951112848
 30
0.0
 10
10.8584403369
 20
6.9955647545
 30
0.0
 10
10.8590029014
 20
6.9962071776
 30
0.0
 10
10.8596754352
 20
6.9969803928
 30
0.0
 10
10.8605730353
 20
6.9980105403
 30
0.0
 10
10.8616947312
 20
6.9992985008
 30
0.0
 10
10.8634896147
 20
7.0013590832
 30
0.0
 10
10.8657331607
 20
7.0039348642
 30
0.0
 10
10.868425441
 20
7.0070257787
 30
0.0
 10
10.8711177145
 20
7.0101166993
 30
0.0
 10
10.874707415
 20
7.0142379246
 30
0.0
 10
10.8791945396
 20
7.019389457
 30
0.0
 10
10.8836816649
 20
7.0245409889
 30
0.0
 10
10.8872713643
 20
7.028662215
 30
0.0
 10
10.8899636408
 20
7.0317531331
 30
0.0
 10
10.8926559102
 20
7.0348440566
 30
0.0
 10
10.8948994901
 20
7.0374198098
 30
0.0
 10
10.8966943045
 20
7.0394804489
 30
0.0
 10
10.8978161762
 20
7.0407682651
 30
0.0
 10
10.8987134155
 20
7.0417987087
 30
0.0
 10
10.8993870518
 20
7.0425710193
 30
0.0
 10
10.8999461667
 20
7.0432162726
 30
0.0
 10
10.90034196
 20
7.0436646898
 30
0.0
 10
10.9005612373
 20
7.0439260187
 30
0.0
 10
10.9007451055
 20
7.0441076753
 30
0.0
 10
10.9008547778
 20
7.0443441472
 30
0.0
 10
10.9010268878
 20
7.0446403228
 30
0.0
 10
10.9013160223
 20
7.0451675387
 30
0.0
 10
10.9017353757
 20
7.0459160468
 30
0.0
 10
10.9022359013
 20
7.04681625
 30
0.0
 10
10.9029042114
 20
7.0480158247
 30
0.0
 10
10.9037392762
 20
7.0495155315
 30
0.0
 10
10.9050755603
 20
7.0519149291
 30
0.0
 10
10.9067458536
 20
7.0549142218
 30
0.0
 10
10.908750232
 20
7.0585133535
 30
0.0
 10
10.9107546034
 20
7.0621124904
 30
0.0
 10
10.913427101
 20
7.0669113378
 30
0.0
 10
10.916767722
 20
7.0729098977
 30
0.0
 10
10.9201083438
 20
7.0789084572
 30
0.0
 10
10.9227808403
 20
7.0837073052
 30
0.0
 10
10.9247852148
 20
7.0873064402
 30
0.0
 10
10.9267895814
 20
7.090905579
 30
0.0
 10
10.9284599115
 20
7.0939048494
 30
0.0
 10
10.9297961205
 20
7.0963042925
 30
0.0
 10
10.9306313764
 20
7.0978038836
 30
0.0
 10
10.9312992943
 20
7.0990036958
 30
0.0
 10
10.931801018
 20
7.0999031735
 30
0.0
 10
10.9322166229
 20
7.1006539515
 30
0.0
 10
10.932512449
 20
7.1011771153
 30
0.0
 10
10.9326738374
 20
7.1014797834
 30
0.0
 10
10.9328164432
 20
7.1016963125
 30
0.0
 10
10.9328766185
 20
7.1019528708
 30
0.0
 10
10.9329856049
 20
7.1022809858
 30
0.0
 10
10.9331629347
 20
7.1028616926
 30
0.0
 10
10.9334232668
 20
7.1036878726
 30
0.0
 10
10.9337326675
 20
7.1046807444
 30
0.0
 10
10.9341462488
 20
7.1060040649
 30
0.0
 10
10.9346628669
 20
7.1076583897
 30
0.0
 10
10.9354896562
 20
7.1103052121
 30
0.0
 10
10.9365230742
 20
7.1136137735
 30
0.0
 10
10.9377632051
 20
7.1175840328
 30
0.0
 10
10.9390033282
 20
7.121554296
 30
0.0
 10
10.9406568285
 20
7.1268479789
 30
0.0
 10
10.9427237027
 20
7.133465083
 30
0.0
 10
10.9447905777
 20
7.1400821868
 30
0.0
 10
10.9464440768
 20
7.1453758701
 30
0.0
 10
10.9476842033
 20
7.1493461319
 30
0.0
 10
10.9489243214
 20
7.1533163966
 30
0.0
 10
10.9499577793
 20
7.1566249411
 30
0.0
 10
10.9507844872
 20
7.159271798
 30
0.0
 10
10.9513013126
 20
7.160926035
 30
0.0
 10
10.9517144684
 20
7.1622495357
 30
0.0
 10
10.952025169
 20
7.1632418573
 30
0.0
 10
10.9522814339
 20
7.1640697587
 30
0.0
 10
10.9524660242
 20
7.1646473924
 30
0.0
 10
10.9525633775
 20
7.1649804313
 30
0.0
 10
10.9526592861
 20
7.1652218652
 30
0.0
 10
10.9526676836
 20
7.1654951987
 30
0.0
 10
10.9527094052
 20
7.1658485165
 30
0.0
 10
10.9527681958
 20
7.1664720069
 30
0.0
 10
10.9528596179
 20
7.167359997
 30
0.0
 10
10.9529661418
 20
7.1684267453
 30
0.0
 10
10.9531092853
 20
7.1698486712
 30
0.0
 10
10.953287834
 20
7.1716262172
 30
0.0
 10
10.9535737247
 20
7.1744702134
 30
0.0
 10
10.953931015
 20
7.1780252352
 30
0.0
 10
10.9543597948
 20
7.1822912499
 30
0.0
 10
10.9547885661
 20
7.1865572677
 30
0.0
 10
10.9553602642
 20
7.1922452904
 30
0.0
 10
10.9560748857
 20
7.1993553191
 30
0.0
 10
10.9567895079
 20
7.2064653477
 30
0.0
 10
10.9573612048
 20
7.2121533705
 30
0.0
 10
10.9577899798
 20
7.2164193877
 30
0.0
 10
10.958218746
 20
7.2206854048
 30
0.0
 10
10.9585760783
 20
7.2242404195
 30
0.0
 10
10.9588618835
 20
7.2270844301
 30
0.0
 10
10.9590406498
 20
7.2288619393
 30
0.0
 10
10.9591833467
 20
7.2302839407
 30
0.0
 10
10.9592912352
 20
7.2313504582
 30
0.0
 10
10.9593783877
 20
7.2322391706
 30
0.0
 10
10.9594448002
 20
7.2328613716
 30
0.0
 10
10.9594743096
 20
7.2332167552
 30
0.0
 10
10.9595202192
 20
7.2334837431
 30
0.0
 10
10.9594752386
 20
7.2337490103
 30
0.0
 10
10.9594469681
 20
7.2341033002
 30
0.0
 10
10.9593827234
 20
7.2347230277
 30
0.0
 10
10.9592986678
 20
7.2356084989
 30
0.0
 10
10.9591944955
 20
7.2366710019
 30
0.0
 10
10.9590567538
 20
7.2380876943
 30
0.0
 10
10.9588841813
 20
7.2398585523
 30
0.0
 10
10.9586082862
 20
7.2426919294
 30
0.0
 10
10.9582633416
 20
7.2462336492
 30
0.0
 10
10.9578494405
 20
7.2504837137
 30
0.0
 10
10.9574355307
 20
7.254733778
 30
0.0
 10
10.9568836541
 20
7.2604005304
 30
0.0
 10
10.9561938071
 20
7.267483971
 30
0.0
 10
10.955503961
 20
7.2745674115
 30
0.0
 10
10.9549520831
 20
7.2802341639
 30
0.0
 10
10.9545381769
 20
7.2844842285
 30
0.0
 10
10.9541242624
 20
7.2887342919
 30
0.0
 10
10.9537793597
 20
7.2922760149
 30
0.0
 10
10.9535033791
 20
7.2951093857
 30
0.0
 10
10.9533310243
 20
7.2968802595
 30
0.0
 10
10.9531928357
 20
7.2982969194
 30
0.0
 10
10.9530900287
 20
7.2993595217
 30
0.0
 10
10.9530017017
 20
7.3002446821
 30
0.0
 10
10.9529450821
 20
7.3008649646
 30
0.0
 10
10.9529045941
 20
7.3012183652
 30
0.0
 10
10.9528971415
 20
7.3014863637
 30
0.0
 10
10.9528021025
 20
7.3017430936
 30
0.0
 10
10.9527059349
 20
7.3020893308
 30
0.0
 10
10.9525234074
 20
7.3026934146
 30
0.0
 10
10.9522700956
 20
7.3035573488
 30
0.0
 10
10.9519629361
 20
7.3045936601
 30
0.0
 10
10.9515545026
 20
7.3059755517
 30
0.0
 10
10.9510435799
 20
7.307702867
 30
0.0
 10
10.9502263164
 20
7.3104665991
 30
0.0
 10
10.949204664
 20
7.3139212547
 30
0.0
 10
10.9479787124
 20
7.3180668455
 30
0.0
 10
10.9467527525
 20
7.3222124352
 30
0.0
 10
10.9451181421
 20
7.3277398885
 30
0.0
 10
10.9430748781
 20
7.3346492049
 30
0.0
 10
10.9410316148
 20
7.3415585216
 30
0.0
 10
10.9393970033
 20
7.3470859746
 30
0.0
 10
10.9381710468
 20
7.3512315651
 30
0.0
 10
10.9369450824
 20
7.3553771529
 30
0.0
 10
10.9359234699
 20
7.3588318178
 30
0.0
 10
10.9351061249
 20
7.3615955309
 30
0.0
 10
10.9345954097
 20
7.3633228945
 30
0.0
 10
10.9341865503
 20
7.364704687
 30
0.0
 10
10.9338806922
 20
7.3657413009
 30
0.0
 10
10.9336233086
 20
7.3666042882
 30
0.0
 10
10.9334480498
 20
7.3672100625
 30
0.0
 10
10.9333402358
 20
7.3675535911
 30
0.0
 10
10.933280971
 20
7.367818641
 30
0.0
 10
10.9331391564
 20
7.3680553912
 30
0.0
 10
10.9329788646
 20
7.3683809293
 30
0.0
 10
10.9326849381
 20
7.3689460219
 30
0.0
 10
10.932272057
 20
7.3697557015
 30
0.0
 10
10.9317735976
 20
7.3707262879
 30
0.0
 10
10.9311100336
 20
7.3720207625
 30
0.0
 10
10.9302802195
 20
7.3736387327
 30
0.0
 10
10.9289527177
 20
7.3762275538
 30
0.0
 10
10.9272932716
 20
7.3794635565
 30
0.0
 10
10.9253019657
 20
7.38334677
 30
0.0
 10
10.923310652
 20
7.3872299807
 30
0.0
 10
10.9206555698
 20
7.3924075959
 30
0.0
 10
10.917336716
 20
7.3988796146
 30
0.0
 10
10.9140178628
 20
7.4053516336
 30
0.0
 10
10.9113627795
 20
7.4105292484
 30
0.0
 10
10.9093714691
 20
7.4144124604
 30
0.0
 10
10.9073801509
 20
7.4182956688
 30
0.0
 10
10.905720743
 20
7.4215316872
 30
0.0
 10
10.9043931632
 20
7.4241204765
 30
0.0
 10
10.9035635476
 20
7.4257385276
 30
0.0
 10
10.9028995763
 20
7.4270328361
 30
0.0
 10
10.9024023613
 20
7.42800393
 30
0.0
 10
10.9019855865
 20
7.4288120216
 30
0.0
 10
10.9016986109
 20
7.4293799491
 30
0.0
 10
10.901527182
 20
7.429700945
 30
0.0
 10
10.9014195769
 20
7.4299516477
 30
0.0
 10
10.9012318271
 20
7.430164294
 30
0.0
 10
10.9010094493
 20
7.4304610969
 30
0.0
 10
10.9006072633
 20
7.4309743171
 30
0.0
 10
10.9000395215
 20
7.4317107223
 30
0.0
 10
10.8993553166
 20
7.4325930245
 30
0.0
 10
10.8984440614
 20
7.4337699109
 30
0.0
 10
10.8973046439
 20
7.4352408533
 30
0.0
 10
10.8954817707
 20
7.4375944537
 30
0.0
 10
10.8932031123
 20
7.4405364225
 30
0.0
 10
10.8904687509
 20
7.4440667986
 30
0.0
 10
10.8877343818
 20
7.4475971711
 30
0.0
 10
10.884088559
 20
7.4523043357
 30
0.0
 10
10.8795312796
 20
7.4581882909
 30
0.0
 10
10.8749740008
 20
7.4640722466
 30
0.0
 10
10.8713281771
 20
7.4687794105
 30
0.0
 10
10.8685938108
 20
7.4723097851
 30
0.0
 10
10.8658594389
 20
7.4758401534
 30
0.0
 10
10.8635808131
 20
7.4787821466
 30
0.0
 10
10.8617578734
 20
7.4811356972
 30
0.0
 10
10.8606186251
 20
7.4826067664
 30
0.0
 10
10.8597070226
 20
7.4837833925
 30
0.0
 10
10.8590238789
 20
7.4846664898
 30
0.0
 10
10.8584528167
 20
7.4854004075
 30
0.0
 10
10.8580565581
 20
7.4859180682
 30
0.0
 10
10.8578246831
 20
7.4862077563
 30
0.0
 10
10.8576661059
 20
7.4864422569
 30
0.0
 10
10.8574489333
 20
7.4866108783
 30
0.0
 10
10.8571798086
 20
7.4868586863
 30
0.0
 10
10.8566993176
 20
7.4872816437
 30
0.0
 10
10.8560178806
 20
7.487891466
 30
0.0
 10
10.8551980251
 20
7.488620857
 30
0.0
 10
10.8541056287
 20
7.489594215
 30
0.0
 10
10.8527398784
 20
7.490810626
 30
0.0
 10
10.8505548204
 20
7.4927570438
 30
0.0
 10
10.8478234489
 20
7.4951900111
 30
0.0
 10
10.8445458242
 20
7.4981095954
 30
0.0
 10
10.8412681938
 20
7.5010291734
 30
0.0
 10
10.8368980219
 20
7.5049219463
 30
0.0
 10
10.8314353064
 20
7.5097879116
 30
0.0
 10
10.8259725913
 20
7.5146538774
 30
0.0
 10
10.8216024187
 20
7.5185466494
 30
0.0
 10
10.8183247905
 20
7.5214662301
 30
0.0
 10
10.8150471576
 20
7.5243858041
 30
0.0
 10
10.8123158116
 20
7.5268188035
 30
0.0
 10
10.8101307016
 20
7.5287651558
 30
0.0
 10
10.8087650834
 20
7.5299817335
 30
0.0
 10
10.807672416
 20
7.5309547494
 30
0.0
 10
10.8068533886
 20
7.5316851855
 30
0.0
 10
10.8061693605
 20
7.5322917379
 30
0.0
 10
10.805693495
 20
7.5327205326
 30
0.0
 10
10.8054169591
 20
7.5329589877
 30
0.0
 10
10.8052225513
 20
7.5331563382
 30
0.0
 10
10.8049784736
 20
7.5332829373
 30
0.0
 10
10.804670362
 20
7.5334764149
 30
0.0
 10
10.8041230946
 20
7.5338035025
 30
0.0
 10
10.8033455042
 20
7.534276782
 30
0.0
 10
10.8024105894
 20
7.5348421442
 30
0.0
 10
10.8011646673
 20
7.5355968592
 30
0.0
 10
10.7996070486
 20
7.5365399453
 30
0.0
 10
10.7971149793
 20
7.538049055
 30
0.0
 10
10.7939998514
 20
7.5399353831
 30
0.0
 10
10.7902617156
 20
7.5421990022
 30
0.0
 10
10.7865235751
 20
7.5444626144
 30
0.0
 10
10.7815393894
 20
7.5474807665
 30
0.0
 10
10.7753091566
 20
7.5512534557
 30
0.0
 10
10.7690789242
 20
7.5550261455
 30
0.0
 10
10.7640947379
 20
7.5580442965
 30
0.0
 10
10.7603565991
 20
7.5603079118
 30
0.0
 10
10.756618457
 20
7.5625715195
 30
0.0
 10
10.7535033488
 20
7.564457883
 30
0.0
 10
10.7510112393
 20
7.5659669204
 30
0.0
 10
10.749453723
 20
7.5669101905
 30
0.0
 10
10.7482075906
 20
7.5676645279
 30
0.0
 10
10.7472733182
 20
7.5682310437
 30
0.0
 10
10.7464937179
 20
7.568700714
 30
0.0
 10
10.7459500385
 20
7.5690342444
 30
0.0
 10
10.7456361781
 20
7.5692173991
 30
0.0
 10
10.7454097592
 20
7.5693757071
 30
0.0
 10
10.7451490278
 20
7.5694539642
 30
0.0
 10
10.7448133545
 20
7.5695862296
 30
0.0
 10
10.7442203498
 20
7.5698046845
 30
0.0
 10
10.7433761157
 20
7.5701235644
 30
0.0
 10
10.7423617869
 20
7.570503309
 30
0.0
 10
10.7410097844
 20
7.571010652
 30
0.0
 10
10.739319632
 20
7.5716444825
 30
0.0
 10
10.7366154716
 20
7.572658806
 30
0.0
 10
10.7332352425
 20
7.5739266437
 30
0.0
 10
10.7291789797
 20
7.5754480774
 30
0.0
 10
10.7251227137
 20
7.5769695035
 30
0.0
 10
10.7197143602
 20
7.5789980743
 30
0.0
 10
10.7129539179
 20
7.5815337868
 30
0.0
 10
10.7061934759
 20
7.5840695
 30
0.0
 10
10.700785122
 20
7.5860980697
 30
0.0
 10
10.6967288572
 20
7.5876194992
 30
0.0
 10
10.6926725899
 20
7.5891409204
 30
0.0
 10
10.6892923749
 20
7.590408797
 30
0.0
 10
10.6865881857
 20
7.591423041
 30
0.0
 10
10.6848981066
 20
7.5920570738
 30
0.0
 10
10.6835459535
 20
7.5925640018
 30
0.0
 10
10.6825320848
 20
7.5929450144
 30
0.0
 10
10.6816864113
 20
7.593259927
 30
0.0
 10
10.6810959762
 20
7.5934854641
 30
0.0
 10
10.6807561859
 20
7.5936063819
 30
0.0
 10
10.6805081007
 20
7.5937194953
 30
0.0
 10
10.6802341846
 20
7.593746889
 30
0.0
 10
10.6798779733
 20
7.5938133138
 30
0.0
 10
10.6792504055
 20
7.5939156265
 30
0.0
 10
10.6783560748
 20
7.5940690706
 30
0.0
 10
10.6772819386
 20
7.5942500861
 30
0.0
 10
10.6758500851
 20
7.5944925289
 30
0.0
 10
10.6740601558
 20
7.5947952097
 30
0.0
 10
10.6711963318
 20
7.5952797072
 30
0.0
 10
10.6676165303
 20
7.5958852577
 30
0.0
 10
10.6633207777
 20
7.5966119489
 30
0.0
 10
10.6590250226
 20
7.5973386319
 30
0.0
 10
10.65329735
 20
7.5983075454
 30
0.0
 10
10.6461377589
 20
7.5995186863
 30
0.0
 10
10.6375462498
 20
7.6009720558
 30
0.0
 10
10.6260909043
 20
7.6029098817
 30
0.0
 10
10.6174993951
 20
7.6043632511
 30
0.0
 10
10.6117717223
 20
7.605332164
 30
0.0
  0
ENDSEC
  0
SECTION
  2
OBJECTS
  0
DICTIONARY
  5
C
100
AcDbDictionary
280
0
281
1
  3
ACAD_GROUP
350
D
  3
ACAD_MLINESTYLE
350
17
  3
ACAD_LAYOUT
350
1A
  3
ACAD_PLOTSETTINGS
350
19
  3
ACAD_PLOTSTYLENAME
350
E
  3
ACAD_IMAGE_DICT
350
       30B
  3
ACAD_IMAGE_VARS
350
       30C
  3
ACAD_TABLESTYLE
350
       30D
  0
IMAGEDEF_REACTOR
  5
30A
100
AcDbRasterImageDefReactor
 90
2
330
27F
  0
DICTIONARY
  5
D
102
{ACAD_REACTORS
330
C
102
}
100
AcDbDictionary
280
0
281
1
  0
ACDBDICTIONARYWDFLT
  5
E
102
{ACAD_REACTORS
330
C
102
}
100
AcDbDictionary
281
1
  3
Normal
350
F
100
AcDbDictionaryWithDefault
340
F
  0
DICTIONARY
  5
30B
330
C
100
AcDbDictionary
281
1
  3
FAC_assy_2_img_1
350
       310
  0
RASTERVARIABLES
  5
30C
330
C
100
AcDbRasterVariables
 90
0
 70
0
 71
1
 72
5
  0
DICTIONARY
  5
17
102
{ACAD_REACTORS
330
C
102
}
100
AcDbDictionary
280
0
281
1
  3
Standard
350
18
  0
DICTIONARY
  5
30D
330
C
100
AcDbDictionary
281
1
  3
Standard
350
       311
  3
Standard1
350
       312
  0
DICTIONARY
  5
19
102
{ACAD_REACTORS
330
C
102
}
100
AcDbDictionary
281
1
  0
DICTIONARY
  5
1A
102
{ACAD_REACTORS
330
C
102
}
100
AcDbDictionary
281
1
  3
Model
350
30E
  3
Layout1
350
30F
  0
ACDBPLACEHOLDER
  5
F
102
{ACAD_REACTORS
330
E
102
}
  0
MLINESTYLE
  5
18
102
{ACAD_REACTORS
330
17
102
}
100
AcDbMlineStyle
  2
STANDARD
 70
0
  3

 62
256
 51
90.0
 52
90.0
 71
2
 49
0.5
 62
256
  6
BYLAYER
 49
-0.5
 62
256
  6
BYLAYER
  0
LAYOUT
  5
30E
102
{ACAD_REACTORS
330
1A
102
}
100
AcDbPlotSettings
  1

  2
none_device
  4
ANSI_C_(22.00_x_17.00_Inches)
  6

 40
0.0
 41
0.0
 42
0.0
 43
0.0
 44
558.8
 45
431.8
 46
0.0
 47
0.0
 48
0.0
 49
0.0
140
0.0
141
0.0
142
1.0
143
1.0
 70
1024
 72
0
 73
0
 74
0
  7

 75
0
147
1.0
148
0.0
149
0.0
100
AcDbLayout
  1
Model
 70
0
 71
0
 10
0.0
 20
0.0
 11
22.0
 21
17.0
 12
0.0
 22
0.0
 32
0.0
 14
0.0
 24
0.0
 34
0.0
 15
0.0
 25
0.0
 35
0.0
146
0.0
 13
0.0
 23
0.0
 33
0.0
 16
1.0
 26
0.0
 36
0.0
 17
0.0
 27
1.0
 37
0.0
 76
0
330
204
345
0
346
0
  0
LAYOUT
  5
30F
102
{ACAD_REACTORS
330
1A
102
}
100
AcDbPlotSettings
  1

  2
none_device
  4
ANSI_C_(22.00_x_17.00_Inches)
  6

 40
0.0
 41
0.0
 42
0.0
 43
0.0
 44
558.8
 45
431.8
 46
0.0
 47
0.0
 48
0.0
 49
0.0
140
0.0
141
0.0
142
1.0
143
1.0
 70
0
 72
0
 73
0
 74
0
  7

 75
0
147
1.0
148
0.0
149
0.0
100
AcDbLayout
  1
Layout1
 70
0
 71
1
 10
0.0
 20
0.0
 11
22.0
 21
17.0
 12
0.0
 22
0.0
 32
0.0
 14
0.0
 24
0.0
 34
0.0
 15
0.0
 25
0.0
 35
0.0
146
0.0
 13
0.0
 23
0.0
 33
0.0
 16
1.0
 26
0.0
 36
0.0
 17
0.0
 27
1.0
 37
0.0
 76
0
330
205
345
0
346
0
  0
IMAGEDEF
  5
310
102
{ACAD_REACTORS
330
30B
330
30A
102
}
100
AcDbRasterImageDef
 90
0
  1
FAC_assy_2_img_1.png
 10
369.0
 20
92.0
 11
0.0066666667
 21
0.0066666667
280
1
281
0
  0
TABLESTYLE
  5
311
102
{ACAD_REACTORS
330
30D
330
282
330
283
102
}
330
30D
100
AcDbTableStyle
  3
Standard
 70
0
 71
0
 40
0.06
 41
0.06
280
1
281
1
  7
Standard
140
0.18
170
1
 62
0
 63
7
283
0
  7
Standard
140
0.18
170
1
 62
0
 63
7
283
0
  7
Standard
140
0.18
170
1
 62
0
 63
7
283
0
  0
TABLESTYLE
  5
312
102
{ACAD_REACTORS
330
30D
330
281
102
}
330
30D
100
AcDbTableStyle
  3
Standard1
 70
1
 71
0
 40
0.06
 41
0.06
280
1
281
1
  7
Standard
140
0.18
170
1
 62
0
 63
7
283
0
  7
Standard
140
0.18
170
1
 62
0
 63
7
283
0
  7
Standard
140
0.18
170
1
 62
0
 63
7
283
0
  0
ENDSEC
  0
EOF
