999
DXF file: FAA_assy_2.dxf
999
Pro/ENGINEER 2014200 by Parametric Technology Corporation
  0
SECTION
  2
HEADER
  9
$ACADVER
  1
AC1021
  9
$DWGCODEPAGE
  3
ANSI_1252
  9
$EXTMAX
 10
22.0
 20
17.0
 30
0.0
  9
$EXTMIN
 10
0.0
 20
0.0
 30
0.0
  9
$LIMMIN
 10
0.0
 20
0.0
  9
$LIMMAX
 10
22.0
 20
17.0
  9
$VIEWCTR
 10
11.0
 20
8.5
  9
$VIEWSIZE
 40
17.0
  9
$CLAYER
  8
0
  9
$LTSCALE
 40
1.21
  9
$CELTYPE
  6
BYLAYER
  9
$DIMSCALE
 40
1.0
  9
$DIMASZ
 40
0.1875
  9
$DIMEXO
 40
0.0625
  9
$DIMDLI
 40
0.836
  9
$DIMEXE
 40
0.125
  9
$DIMCEN
 40
0.198
  9
$DIMLFAC
 40
1.0
  9
$DIMBLK
  1
_FILLED
  9
$DIMTXT
 40
0.1
  9
$DIMTOL
 70
0
  9
$DIMLIM
 70
0
  9
$DIMTFAC
 40
1.0
  9
$DIMGAP
 40
0.09
  9
$DIMDSEP
 70
46
  9
$AUNITS
 70
0
  9
$PDMODE
 70
3
  9
$PDSIZE
 40
0.3125
  9
$HANDSEED
  5
310
  9
$TILEMODE
 70
1
  9
$MEASUREMENT
 70
0
  9
$INSUNITS
 70
1
  0
ENDSEC
  0
SECTION
  2
CLASSES
  0
CLASS
  1
ACDBDICTIONARYWDFLT
  2
AcDbDictionaryWithDefault
  3
AutoCAD 2000
 90
0
 91
1
280
0
281
0
  0
CLASS
  1
ACDBPLACEHOLDER
  2
AcDbPlaceHolder
  3
AutoCAD 2000
 90
0
 91
1
280
0
281
0
  0
CLASS
  1
LAYOUT
  2
AcDbLayout
  3
AutoCAD 2000
 90
0
 91
0
280
0
281
0
  0
CLASS
  1
RASTERVARIABLES
  2
AcDbRasterVariables
  3
ISM
 90
0
 91
1
280
0
281
0
  0
CLASS
  1
IMAGEDEF
  2
AcDbRasterImageDef
  3
ISM
 90
0
 91
1
280
0
281
0
  0
CLASS
  1
IMAGEDEF_REACTOR
  2
AcDbRasterImageDefReactor
  3
ISM
 90
0
 91
1
280
0
281
0
  0
CLASS
  1
IMAGE
  2
AcDbRasterImage
  3
ISM
 90
127
 91
1
280
0
281
1
  0
CLASS
  1
TABLESTYLE
  2
AcDbTableStyle
  3
ObjectDBX Classes
 90
2047
 91
1
280
0
281
0
  0
CLASS
  1
ACAD_TABLE
  2
AcDbTable
  3
ObjectDBX Classes
 90
1025
 91
3
280
0
281
1
  0
ENDSEC
  0
SECTION
  2
TABLES
  0
TABLE
  2
VPORT
  5
8
100
AcDbSymbolTable
 70
2
  0
VPORT
  5
1F4
100
AcDbSymbolTableRecord
100
AcDbViewportTableRecord
  2
*ACTIVE
 70
0
 10
0.0
 20
0.0
 11
1.0
 21
1.0
 12
11.0
 22
8.5
 13
0.0
 23
0.0
 14
1.0
 24
1.0
 15
0.0
 25
0.0
 16
0.0
 26
0.0
 36
1.0
 17
0.0
 27
0.0
 37
0.0
 40
17.0
 41
1.2941176471
 42
50.0
 43
0.0
 44
0.0
 50
0.0
 51
0.0
 71
0
 72
100
 73
1
 74
1
 75
0
 76
0
 77
0
 78
0
  0
ENDTAB
  0
TABLE
  2
LTYPE
  5
5
100
AcDbSymbolTable
 70
6
  0
LTYPE
  5
14
100
AcDbSymbolTableRecord
100
AcDbLinetypeTableRecord
  2
BYBLOCK
 70
0
  3

 72
65
 73
0
 40
0.0
  0
LTYPE
  5
15
100
AcDbSymbolTableRecord
100
AcDbLinetypeTableRecord
  2
BYLAYER
 70
0
  3

 72
65
 73
0
 40
0.0
  0
LTYPE
  5
16
100
AcDbSymbolTableRecord
100
AcDbLinetypeTableRecord
  2
CONTINUOUS
 70
64
  3
Solid line
 72
65
 73
0
 40
0.0
  0
LTYPE
  5
1F5
100
AcDbSymbolTableRecord
100
AcDbLinetypeTableRecord
  2
CENTER
 70
64
  3
____ _ ____ _ ____ _ ____ _ ____ _ ____ _ ____
 72
65
 73
4
 40
0.6
 49
0.375
 74
0
 49
-0.075
 74
0
 49
0.075
 74
0
 49
-0.075
 74
0
  0
LTYPE
  5
1F6
100
AcDbSymbolTableRecord
100
AcDbLinetypeTableRecord
  2
HIDDEN
 70
64
  3
- - - - - - - - - - - - - - - - - - - -
 72
65
 73
2
 40
0.2
 49
0.1
 74
0
 49
-0.1
 74
0
  0
LTYPE
  5
1F7
100
AcDbSymbolTableRecord
100
AcDbLinetypeTableRecord
  2
PHANTOM
 70
64
  3
_____ _ _ _____ _ _ _____ _ _ _____
 72
65
 73
6
 40
0.8
 49
0.45
 74
0
 49
-0.05
 74
0
 49
0.1
 74
0
 49
-0.05
 74
0
 49
0.1
 74
0
 49
-0.05
 74
0
  0
LTYPE
  5
1F8
100
AcDbSymbolTableRecord
100
AcDbLinetypeTableRecord
  2
DOT
 70
64
  3
. . . . . . . . . . . . . . . . . . . .
 72
65
 73
2
 40
0.2
 49
0.1
 74
0
 49
-0.1
 74
0
  0
LTYPE
  5
1F9
100
AcDbSymbolTableRecord
100
AcDbLinetypeTableRecord
  2
DASHED
 70
64
  3
- - - - - - - - - - - - - - - - - - - -
 72
65
 73
2
 40
0.2
 49
0.1
 74
0
 49
-0.1
 74
0
  0
ENDTAB
  0
TABLE
  2
LAYER
  5
2
100
AcDbSymbolTable
 70
36
  0
LAYER
  5
10
100
AcDbSymbolTableRecord
100
AcDbLayerTableRecord
  2
0
 70
0
 62
7
  6
CONTINUOUS
370
-3
390
F
  0
LAYER
  5
1FA
100
AcDbSymbolTableRecord
100
AcDbLayerTableRecord
  2
DEFAULT_1
 70
0
 62
7
  6
CENTER
370
-3
390
F
  0
LAYER
  5
1FB
100
AcDbSymbolTableRecord
100
AcDbLayerTableRecord
  2
DEFAULT_2
 70
0
 62
8
  6
HIDDEN
370
-3
390
F
  0
LAYER
  5
1FC
100
AcDbSymbolTableRecord
100
AcDbLayerTableRecord
  2
DEFAULT_3
 70
0
 62
7
  6
PHANTOM
370
-3
390
F
  0
LAYER
  5
1FD
100
AcDbSymbolTableRecord
100
AcDbLayerTableRecord
  2
DATUM_PLANES
 70
0
 62
7
  6
CONTINUOUS
370
-3
390
F
  0
LAYER
  5
1FE
100
AcDbSymbolTableRecord
100
AcDbLayerTableRecord
  2
PORT_AREAS
 70
0
 62
7
  6
CONTINUOUS
370
-3
390
F
  0
LAYER
  5
1FF
100
AcDbSymbolTableRecord
100
AcDbLayerTableRecord
  2
SUNNBOMCOSMETIC
 70
0
 62
7
  6
CONTINUOUS
370
-3
390
F
  0
LAYER
  5
200
100
AcDbSymbolTableRecord
100
AcDbLayerTableRecord
  2
SUNNBOMSTAMPING
 70
0
 62
7
  6
CONTINUOUS
370
-3
390
F
  0
LAYER
  5
201
100
AcDbSymbolTableRecord
100
AcDbLayerTableRecord
  2
THREADS
 70
0
 62
7
  6
CONTINUOUS
370
-3
390
F
  0
ENDTAB
  0
TABLE
  2
STYLE
  5
3
100
AcDbSymbolTable
 70
1
  0
STYLE
  5
11
100
AcDbSymbolTableRecord
100
AcDbTextStyleTableRecord
  2
STANDARD
 70
0
 40
0.0
 41
0.8
 50
0.0
 71
0
 42
0.2
  3
txt
  4

  0
STYLE
  5
202
100
AcDbSymbolTableRecord
100
AcDbTextStyleTableRecord
  2
TEXTSTYLE_1
 70
0
 40
0.0
 41
0.8
 50
0.0
 71
0
 42
0.2
  3
gdt
  4

  0
ENDTAB
  0
TABLE
  2
VIEW
  5
6
100
AcDbSymbolTable
 70
0
  0
ENDTAB
  0
TABLE
  2
UCS
  5
7
100
AcDbSymbolTable
 70
0
  0
ENDTAB
  0
TABLE
  2
APPID
  5
9
100
AcDbSymbolTable
 70
1
  0
APPID
  5
203
100
AcDbSymbolTableRecord
100
AcDbRegAppTableRecord
  2
ACAD
 70
0
  0
ENDTAB
  0
TABLE
  2
BLOCK_RECORD
  5
1
100
AcDbSymbolTable
 70
0
  0
BLOCK_RECORD
  5
204
100
AcDbSymbolTableRecord
100
AcDbBlockTableRecord
  2
*Model_Space
  0
BLOCK_RECORD
  5
205
100
AcDbSymbolTableRecord
100
AcDbBlockTableRecord
  2
*Paper_Space
  0
BLOCK_RECORD
  5
206
100
AcDbSymbolTableRecord
100
AcDbBlockTableRecord
  2
SUN_FIRST_THIRD_ANGLE_BL0
  0
BLOCK_RECORD
  5
207
100
AcDbSymbolTableRecord
100
AcDbBlockTableRecord
  2
*T1
  0
BLOCK_RECORD
  5
208
100
AcDbSymbolTableRecord
100
AcDbBlockTableRecord
  2
*T2
  0
BLOCK_RECORD
  5
209
100
AcDbSymbolTableRecord
100
AcDbBlockTableRecord
  2
*T3
  0
ENDTAB
  0
TABLE
  2
DIMSTYLE
  5
A
100
AcDbSymbolTable
 70
1
100
AcDbDimStyleTable
 71
0
  0
DIMSTYLE
105
20A
100
AcDbSymbolTableRecord
100
AcDbDimStyleTableRecord
  2
STANDARD
 70
0
  3

  4

 40
1.0
 41
0.1875
 42
0.0625
 43
0.38
 44
0.125
 45
0.0
 46
0.0
 47
0.001
 48
0.001
140
0.1
141
0.09
142
0.0
143
25.4
144
1.0
145
0.0
146
1.0
147
0.09
 71
0.0
 72
0.0
 73
1
 74
1
 75
0
 76
0
 77
0
 78
4
170
0
171
2
172
0
173
0
174
0
175
0
176
0
177
0
178
0
270
2
271
3
272
3
273
2
274
2
275
0
280
0
281
0
282
0
283
1
284
4
285
0
286
0
287
3
288
0
340
11
278
46
  0
ENDTAB
  0
ENDSEC
  0
SECTION
  2
BLOCKS
  0
BLOCK
  5
20
100
AcDbEntity
  8
0
100
AcDbBlockBegin
  2
*Model_Space
 70
0
 10
0.0
 20
0.0
 30
0.0
  3
*Model_Space
  1

  0
ENDBLK
  5
21
100
AcDbEntity
  8
0
100
AcDbBlockEnd
  0
BLOCK
  5
1C
100
AcDbEntity
  8
0
100
AcDbBlockBegin
  2
*Paper_Space
 70
0
 10
0.0
 20
0.0
 30
0.0
  3
*Paper_Space
  1

  0
ENDBLK
  5
1D
100
AcDbEntity
  8
0
100
AcDbBlockEnd
  0
BLOCK
  5
20B
100
AcDbEntity
  8
0
100
AcDbBlockBegin
 62
2
  6
CONTINUOUS
  2
SUN_FIRST_THIRD_ANGLE_BL0
 70
64
 10
20.4816717061
 20
1.2289683772
  3
SUN_FIRST_THIRD_ANGLE_BL0
  1

  0
TEXT
  5
20C
100
AcDbEntity
  8
0
100
AcDbText
 62
2
  6
CONTINUOUS
 10
19.4750896608
 20
1.4136269581
  7
STANDARD
 40
0.08
  1
FIRST ANGLE
 41
0.8
 72
0
100
AcDbText
  0
TEXT
  5
20D
100
AcDbEntity
  8
0
100
AcDbText
 62
2
  6
CONTINUOUS
 10
20.7842537513
 20
1.4047600029
  7
STANDARD
 40
0.08
  1
THIRD ANGLE
 41
0.8
 72
0
100
AcDbText
  0
LINE
  5
20E
100
AcDbEntity
  8
0
100
AcDbLine
 62
7
  6
CONTINUOUS
 10
19.4767170086
 20
1.1727031207
 11
19.6334271527
 21
1.1717972817
  0
LINE
  5
20F
100
AcDbEntity
  8
0
100
AcDbLine
 62
7
  6
CONTINUOUS
 10
19.6596964832
 20
1.1717972817
 11
19.6950230232
 21
1.171593082
  0
LINE
  5
210
100
AcDbEntity
  8
0
100
AcDbLine
 62
7
  6
CONTINUOUS
 10
19.7194818561
 20
1.1708914427
 11
19.8852396156
 21
1.1699333054
  0
LINE
  5
211
100
AcDbEntity
  8
0
100
AcDbLine
 62
7
  6
CONTINUOUS
 10
19.4758111696
 20
1.2723454088
 11
19.88525039
 21
1.3511534004
  0
LINE
  5
212
100
AcDbEntity
  8
0
100
AcDbLine
 62
7
  6
CONTINUOUS
 10
19.88525039
 20
1.3511534004
 11
19.8831348489
 21
0.9851647912
  0
LINE
  5
213
100
AcDbEntity
  8
0
100
AcDbLine
 62
7
  6
CONTINUOUS
 10
19.8831348489
 20
0.9851647912
 11
19.4767170086
 21
1.0658141206
  0
LINE
  5
214
100
AcDbEntity
  8
0
100
AcDbLine
 62
7
  6
CONTINUOUS
 10
19.4767170086
 20
1.0658141206
 11
19.4779056764
 21
1.2714536432
  0
CIRCLE
  5
215
100
AcDbEntity
  8
0
100
AcDbCircle
 62
7
  6
CONTINUOUS
 10
20.2068232291
 20
1.1717972817
 40
0.175742101
  0
CIRCLE
  5
216
100
AcDbEntity
  8
0
100
AcDbCircle
 62
7
  6
CONTINUOUS
 10
20.2068232291
 20
1.1717972817
 40
0.1005522074
  0
LINE
  5
217
100
AcDbEntity
  8
0
100
AcDbLine
 62
7
  6
CONTINUOUS
 10
20.2077290681
 20
1.3756110529
 11
20.2071171714
 21
1.2379342989
  0
LINE
  5
218
100
AcDbEntity
  8
0
100
AcDbLine
 62
7
  6
CONTINUOUS
 10
20.2077290681
 20
1.2016899681
 11
20.2074674401
 21
1.1428236749
  0
LINE
  5
219
100
AcDbEntity
  8
0
100
AcDbLine
 62
7
  6
CONTINUOUS
 10
20.208634907
 20
1.101141841
 11
20.2080230104
 21
0.963465087
  0
LINE
  5
21A
100
AcDbEntity
  8
0
100
AcDbLine
 62
7
  6
CONTINUOUS
 10
20.0066328138
 20
1.1745147986
 11
20.1443095678
 21
1.1739029019
  0
LINE
  5
21B
100
AcDbEntity
  8
0
100
AcDbLine
 62
7
  6
CONTINUOUS
 10
20.1832714155
 20
1.1727031207
 11
20.238153505
 21
1.172335442
  0
LINE
  5
21C
100
AcDbEntity
  8
0
100
AcDbLine
 62
7
  6
CONTINUOUS
 10
20.2756669918
 20
1.1717972817
 11
20.407916871
 21
1.1712095044
  0
CIRCLE
  5
21D
100
AcDbEntity
  8
0
100
AcDbCircle
 62
7
  6
CONTINUOUS
 10
20.7509457401
 20
1.1693297793
 40
0.1722024983
  0
CIRCLE
  5
21E
100
AcDbEntity
  8
0
100
AcDbCircle
 62
7
  6
CONTINUOUS
 10
20.7509457401
 20
1.1693297793
 40
0.0985164967
  0
LINE
  5
21F
100
AcDbEntity
  8
0
100
AcDbLine
 62
7
  6
CONTINUOUS
 10
20.7169767782
 20
1.170462078
 11
20.7825395137
 21
1.1682766535
  0
LINE
  5
220
100
AcDbEntity
  8
0
100
AcDbLine
 62
7
  6
CONTINUOUS
 10
20.8177513651
 20
1.1693297793
 11
20.947965719
 21
1.1693297793
  0
LINE
  5
221
100
AcDbEntity
  8
0
100
AcDbLine
 62
7
  6
CONTINUOUS
 10
20.6875370113
 20
1.170462078
 11
20.5573226574
 21
1.170462078
  0
LINE
  5
222
100
AcDbEntity
  8
0
100
AcDbLine
 62
7
  6
CONTINUOUS
 10
20.7486811426
 20
1.1987695462
 11
20.7486811426
 21
1.1432869085
  0
LINE
  5
223
100
AcDbEntity
  8
0
100
AcDbLine
 62
7
  6
CONTINUOUS
 10
20.7498134414
 20
1.1059210505
 11
20.7498134414
 21
0.9757066966
  0
LINE
  5
224
100
AcDbEntity
  8
0
100
AcDbLine
 62
7
  6
CONTINUOUS
 10
20.7486811426
 20
1.2338708068
 11
20.7486811426
 21
1.3640851607
  0
LINE
  5
225
100
AcDbEntity
  8
0
100
AcDbLine
 62
7
  6
CONTINUOUS
 10
21.0702539817
 20
1.2701043662
 11
21.4790138229
 21
1.3448360823
  0
LINE
  5
226
100
AcDbEntity
  8
0
100
AcDbLine
 62
7
  6
CONTINUOUS
 10
21.4790138229
 20
1.3448360823
 11
21.4790138229
 21
0.9779712941
  0
LINE
  5
227
100
AcDbEntity
  8
0
100
AcDbLine
 62
7
  6
CONTINUOUS
 10
21.4790138229
 20
0.9779712941
 11
21.069121683
 21
1.0617614
  0
LINE
  5
228
100
AcDbEntity
  8
0
100
AcDbLine
 62
7
  6
CONTINUOUS
 10
21.0702539817
 20
1.2701043662
 11
21.069121683
 21
1.0617614
  0
LINE
  5
229
100
AcDbEntity
  8
0
100
AcDbLine
 62
7
  6
CONTINUOUS
 10
21.4790138229
 20
1.1693297793
 11
21.3159628059
 21
1.1693297793
  0
LINE
  5
22A
100
AcDbEntity
  8
0
100
AcDbLine
 62
7
  6
CONTINUOUS
 10
21.2876553377
 20
1.1693297793
 11
21.2502894796
 21
1.1693297793
  0
LINE
  5
22B
100
AcDbEntity
  8
0
100
AcDbLine
 62
7
  6
CONTINUOUS
 10
21.2208497126
 20
1.1659328831
 11
21.0713862804
 21
1.1659328831
  0
LINE
  5
22C
100
AcDbEntity
  8
0
100
AcDbLine
 62
7
  6
CONTINUOUS
 10
20.4796138713
 20
1.5284908897
 11
20.4766766948
 21
0.9294458646
  0
ENDBLK
  5
22D
100
AcDbEntity
  8
0
  6
BYBLOCK
 62
0
100
AcDbBlockEnd
  0
BLOCK
  5
22E
100
AcDbEntity
  8
0
100
AcDbBlockBegin
  2
*T1
 70
1
 10
0.0
 20
0.0
  3
*T1
  1

  0
LINE
  5
22F
100
AcDbEntity
  8
0
100
AcDbLine
 62
2
  6
CONTINUOUS
 10
9.275
 20
0.0
 11
-0.0
 21
0.0
  0
LINE
  5
230
100
AcDbEntity
  8
0
100
AcDbLine
 62
2
  6
CONTINUOUS
 10
9.275
 20
0.0
 11
9.275
 21
1.25
  0
LINE
  5
231
100
AcDbEntity
  8
0
100
AcDbLine
 62
2
  6
CONTINUOUS
 10
9.275
 20
0.625
 11
-0.0
 21
0.625
  0
LINE
  5
232
100
AcDbEntity
  8
0
100
AcDbLine
 62
2
  6
CONTINUOUS
 10
9.275
 20
1.25
 11
-0.0
 21
1.25
  0
LINE
  5
233
100
AcDbEntity
  8
0
100
AcDbLine
 62
2
  6
CONTINUOUS
 10
6.8
 20
0.0
 11
6.8
 21
1.25
  0
LINE
  5
234
100
AcDbEntity
  8
0
100
AcDbLine
 62
2
  6
CONTINUOUS
 10
6.4
 20
0.0
 11
6.4
 21
0.625
  0
LINE
  5
235
100
AcDbEntity
  8
0
100
AcDbLine
 62
2
  6
CONTINUOUS
 10
5.9
 20
0.0
 11
5.9
 21
0.625
  0
LINE
  5
236
100
AcDbEntity
  8
0
100
AcDbLine
 62
2
  6
CONTINUOUS
 10
5.2
 20
0.0
 11
5.2
 21
0.625
  0
LINE
  5
237
100
AcDbEntity
  8
0
100
AcDbLine
 62
2
  6
CONTINUOUS
 10
4.1
 20
0.0
 11
4.1
 21
1.25
  0
LINE
  5
238
100
AcDbEntity
  8
0
100
AcDbLine
 62
2
  6
CONTINUOUS
 10
-0.0
 20
0.0
 11
-0.0
 21
1.25
  0
MTEXT
  5
239
100
AcDbEntity
  8
0
100
AcDbMText
 62
2
  6
CONTINUOUS
  7
STANDARD
 71
2
 72
1
 10
6.6
 20
0.325
 30
0.0
 11
1.0
 21
0.0
 31
0.0
 44
0.9
  1
2
 40
0.125
 41
0.2
  0
MTEXT
  5
23A
100
AcDbEntity
  8
0
100
AcDbMText
 62
2
  6
CONTINUOUS
  7
STANDARD
 71
2
 72
1
 10
6.15
 20
0.325
 30
0.0
 11
1.0
 21
0.0
 31
0.0
 44
0.9
  1
C
 40
0.125
 41
0.2
  0
MTEXT
  5
23B
100
AcDbEntity
  8
0
100
AcDbMText
 62
2
  6
CONTINUOUS
  7
STANDARD
 71
2
 72
1
 10
5.55
 20
0.325
 30
0.0
 11
1.0
 21
0.0
 31
0.0
 44
0.9
  1
2.000
 40
0.125
 41
1.0
  0
MTEXT
  5
23C
100
AcDbEntity
  8
0
100
AcDbMText
 62
2
  6
CONTINUOUS
  7
STANDARD
 71
2
 72
1
 10
4.65
 20
0.325
 30
0.0
 11
1.0
 21
0.0
 31
0.0
 44
0.9
  1
May-30-24
 40
0.125
 41
1.8
  0
MTEXT
  5
23D
100
AcDbEntity
  8
0
100
AcDbMText
 62
2
  6
CONTINUOUS
  7
STANDARD
 71
2
 72
1
 10
2.05
 20
0.4625
 30
0.0
 11
1.0
 21
0.0
 31
0.0
 44
0.9
  1
T-10A Line mount\PNinety degree
 40
0.125
 41
3.2
  0
MTEXT
  5
23E
100
AcDbEntity
  8
0
100
AcDbMText
 62
2
  6
CONTINUOUS
  7
STANDARD
 71
1
 72
1
 10
6.45
 20
0.5625
 30
0.0
 11
1.0
 21
0.0
 31
0.0
 44
0.9
  1
SHEET
 40
0.06
 41
0.48
  0
MTEXT
  5
23F
100
AcDbEntity
  8
0
100
AcDbMText
 62
2
  6
CONTINUOUS
  7
STANDARD
 71
1
 72
1
 10
5.95
 20
0.5625
 30
0.0
 11
1.0
 21
0.0
 31
0.0
 44
0.9
  1
DWG SIZE
 40
0.06
 41
0.768
  0
MTEXT
  5
240
100
AcDbEntity
  8
0
100
AcDbMText
 62
2
  6
CONTINUOUS
  7
STANDARD
 71
1
 72
1
 10
5.25
 20
0.5625
 30
0.0
 11
1.0
 21
0.0
 31
0.0
 44
0.9
  1
SCALE
 40
0.06
 41
0.48
  0
MTEXT
  5
241
100
AcDbEntity
  8
0
100
AcDbMText
 62
2
  6
CONTINUOUS
  7
STANDARD
 71
1
 72
1
 10
4.15
 20
0.5625
 30
0.0
 11
1.0
 21
0.0
 31
0.0
 44
0.9
  1
DATE
 40
0.06
 41
0.384
  0
MTEXT
  5
242
100
AcDbEntity
  8
0
100
AcDbMText
 62
2
  6
CONTINUOUS
  7
STANDARD
 71
1
 72
1
 10
0.05
 20
0.5625
 30
0.0
 11
1.0
 21
0.0
 31
0.0
 44
0.9
  1
DESCRIPTION
 40
0.06
 41
1.056
  0
MTEXT
  5
243
100
AcDbEntity
  8
0
100
AcDbMText
 62
2
  6
CONTINUOUS
  7
STANDARD
 71
2
 72
1
 10
5.45
 20
1.0375
 30
0.0
 11
1.0
 21
0.0
 31
0.0
 44
0.9
  1
ALL DIMENSIONS IN INCH\PVIEWS ARE THIRD ANGLE
 40
0.12
 41
4.224
  0
MTEXT
  5
244
100
AcDbEntity
  8
0
100
AcDbMText
 62
2
  6
CONTINUOUS
  7
STANDARD
 71
2
 72
1
 10
2.05
 20
0.95
 30
0.0
 11
1.0
 21
0.0
 31
0.0
 44
0.9
  1
FAA
 40
0.125
 41
0.6
  0
MTEXT
  5
245
100
AcDbEntity
  8
0
100
AcDbMText
 62
2
  6
CONTINUOUS
  7
STANDARD
 71
1
 72
1
 10
0.05
 20
1.1875
 30
0.0
 11
1.0
 21
0.0
 31
0.0
 44
0.9
  1
MODEL
 40
0.06
 41
0.48
  0
ENDBLK
  5
246
100
AcDbEntity
  8
0
  6
BYBLOCK
 62
0
100
AcDbBlockEnd
  0
BLOCK
  5
247
100
AcDbEntity
  8
0
100
AcDbBlockBegin
  2
*T2
 70
1
 10
0.0
 20
0.0
  3
*T2
  1

  0
LINE
  5
248
100
AcDbEntity
  8
0
100
AcDbLine
 62
2
  6
CONTINUOUS
 10
0.0
 20
0.0
 11
9.055
 21
0.0
  0
LINE
  5
249
100
AcDbEntity
  8
0
100
AcDbLine
 62
2
  6
CONTINUOUS
 10
0.0
 20
0.0
 11
0.0
 21
-2.594
  0
LINE
  5
24A
100
AcDbEntity
  8
0
100
AcDbLine
 62
2
  6
CONTINUOUS
 10
0.0
 20
-0.344
 11
9.055
 21
-0.344
  0
LINE
  5
24B
100
AcDbEntity
  8
0
100
AcDbLine
 62
2
  6
CONTINUOUS
 10
0.0
 20
-0.594
 11
9.055
 21
-0.594
  0
LINE
  5
24C
100
AcDbEntity
  8
0
100
AcDbLine
 62
2
  6
CONTINUOUS
 10
0.0
 20
-0.844
 11
9.055
 21
-0.844
  0
LINE
  5
24D
100
AcDbEntity
  8
0
100
AcDbLine
 62
2
  6
CONTINUOUS
 10
0.0
 20
-1.094
 11
9.055
 21
-1.094
  0
LINE
  5
24E
100
AcDbEntity
  8
0
100
AcDbLine
 62
2
  6
CONTINUOUS
 10
0.0
 20
-1.344
 11
9.055
 21
-1.344
  0
LINE
  5
24F
100
AcDbEntity
  8
0
100
AcDbLine
 62
2
  6
CONTINUOUS
 10
0.0
 20
-1.594
 11
9.055
 21
-1.594
  0
LINE
  5
250
100
AcDbEntity
  8
0
100
AcDbLine
 62
2
  6
CONTINUOUS
 10
0.0
 20
-1.844
 11
9.055
 21
-1.844
  0
LINE
  5
251
100
AcDbEntity
  8
0
100
AcDbLine
 62
2
  6
CONTINUOUS
 10
0.0
 20
-2.094
 11
9.055
 21
-2.094
  0
LINE
  5
252
100
AcDbEntity
  8
0
100
AcDbLine
 62
2
  6
CONTINUOUS
 10
0.0
 20
-2.344
 11
9.055
 21
-2.344
  0
LINE
  5
253
100
AcDbEntity
  8
0
100
AcDbLine
 62
2
  6
CONTINUOUS
 10
0.0
 20
-2.594
 11
9.055
 21
-2.594
  0
LINE
  5
254
100
AcDbEntity
  8
0
100
AcDbLine
 62
2
  6
CONTINUOUS
 10
3.055
 20
0.0
 11
3.055
 21
-2.594
  0
LINE
  5
255
100
AcDbEntity
  8
0
100
AcDbLine
 62
2
  6
CONTINUOUS
 10
9.055
 20
0.0
 11
9.055
 21
-2.594
  0
MTEXT
  5
256
100
AcDbEntity
  8
0
100
AcDbMText
 62
2
  6
CONTINUOUS
  7
STANDARD
 71
2
 72
1
 10
1.5275
 20
-0.0995
 30
0.0
 11
1.0
 21
0.0
 31
0.0
 44
0.9
  1
Technical Data
 40
0.145
 41
3.248
  0
MTEXT
  5
257
100
AcDbEntity
  8
0
100
AcDbMText
 62
2
  6
CONTINUOUS
  7
STANDARD
 71
2
 72
1
 10
4.555
 20
-0.0995
 30
0.0
 11
1.0
 21
0.0
 31
0.0
 44
0.9
  1
U.S. Units
 40
0.145
 41
2.32
  0
MTEXT
  5
258
100
AcDbEntity
  8
0
100
AcDbMText
 62
2
  6
CONTINUOUS
  7
STANDARD
 71
2
 72
1
 10
7.555
 20
-0.0995
 30
0.0
 11
1.0
 21
0.0
 31
0.0
 44
0.9
  1
Metric Units
 40
0.145
 41
2.784
  0
MTEXT
  5
259
100
AcDbEntity
  8
0
100
AcDbMText
 62
2
  6
CONTINUOUS
  7
STANDARD
 71
2
 72
1
 10
1.5275
 20
-0.4065
 30
0.0
 11
1.0
 21
0.0
 31
0.0
 44
0.9
  1
Cavity
 40
0.125
 41
1.2
  0
MTEXT
  5
25A
100
AcDbEntity
  8
0
100
AcDbMText
 62
2
  6
CONTINUOUS
  7
STANDARD
 71
2
 72
1
 10
6.055
 20
-0.4065
 30
0.0
 11
1.0
 21
0.0
 31
0.0
 44
0.9
  1
T-10A
 40
0.125
 41
1.0
  0
MTEXT
  5
25B
100
AcDbEntity
  8
0
100
AcDbMText
 62
2
  6
CONTINUOUS
  7
STANDARD
 71
2
 72
1
 10
1.5275
 20
-0.6565
 30
0.0
 11
1.0
 21
0.0
 31
0.0
 44
0.9
  1
Body Features
 40
0.125
 41
2.6
  0
MTEXT
  5
25C
100
AcDbEntity
  8
0
100
AcDbMText
 62
2
  6
CONTINUOUS
  7
STANDARD
 71
2
 72
1
 10
6.055
 20
-0.6565
 30
0.0
 11
1.0
 21
0.0
 31
0.0
 44
0.9
  1
Ninety degree
 40
0.125
 41
2.6
  0
MTEXT
  5
25D
100
AcDbEntity
  8
0
100
AcDbMText
 62
2
  6
CONTINUOUS
  7
STANDARD
 71
2
 72
1
 10
1.5275
 20
-0.9065
 30
0.0
 11
1.0
 21
0.0
 31
0.0
 44
0.9
  1
Body Type
 40
0.125
 41
1.8
  0
MTEXT
  5
25E
100
AcDbEntity
  8
0
100
AcDbMText
 62
2
  6
CONTINUOUS
  7
STANDARD
 71
2
 72
1
 10
6.055
 20
-0.9065
 30
0.0
 11
1.0
 21
0.0
 31
0.0
 44
0.9
  1
Line mount
 40
0.125
 41
2.0
  0
MTEXT
  5
25F
100
AcDbEntity
  8
0
100
AcDbMText
 62
2
  6
CONTINUOUS
  7
STANDARD
 71
2
 72
1
 10
1.5275
 20
-1.1565
 30
0.0
 11
1.0
 21
0.0
 31
0.0
 44
0.9
  1
Interface
 40
0.125
 41
1.8
  0
MTEXT
  5
260
100
AcDbEntity
  8
0
100
AcDbMText
 62
2
  6
CONTINUOUS
  7
STANDARD
 71
2
 72
1
 10
6.055
 20
-1.1565
 30
0.0
 11
1.0
 21
0.0
 31
0.0
 44
0.9
  1
None
 40
0.125
 41
0.8
  0
MTEXT
  5
261
100
AcDbEntity
  8
0
100
AcDbMText
 62
2
  6
CONTINUOUS
  7
STANDARD
 71
2
 72
1
 10
1.5275
 20
-1.4065
 30
0.0
 11
1.0
 21
0.0
 31
0.0
 44
0.9
  1
Open Cavity Quantity
 40
0.125
 41
4.0
  0
MTEXT
  5
262
100
AcDbEntity
  8
0
100
AcDbMText
 62
2
  6
CONTINUOUS
  7
STANDARD
 71
2
 72
1
 10
6.055
 20
-1.4065
 30
0.0
 11
1.0
 21
0.0
 31
0.0
 44
0.9
  1
1
 40
0.125
 41
0.2
  0
MTEXT
  5
263
100
AcDbEntity
  8
0
100
AcDbMText
 62
2
  6
CONTINUOUS
  7
STANDARD
 71
2
 72
1
 10
1.5275
 20
-1.6565
 30
0.0
 11
1.0
 21
0.0
 31
0.0
 44
0.9
  1
Weight
 40
0.125
 41
1.2
  0
MTEXT
  5
264
100
AcDbEntity
  8
0
100
AcDbMText
 62
2
  6
CONTINUOUS
  7
STANDARD
 71
2
 72
1
 10
4.555
 20
-1.6565
 30
0.0
 11
1.0
 21
0.0
 31
0.0
 44
0.9
  1
0.391 lb.
 40
0.125
 41
1.8
  0
MTEXT
  5
265
100
AcDbEntity
  8
0
100
AcDbMText
 62
2
  6
CONTINUOUS
  7
STANDARD
 71
2
 72
1
 10
7.555
 20
-1.6565
 30
0.0
 11
1.0
 21
0.0
 31
0.0
 44
0.9
  1
0,177 kg.
 40
0.125
 41
1.8
  0
MTEXT
  5
266
100
AcDbEntity
  8
0
100
AcDbMText
 62
2
  6
CONTINUOUS
  7
STANDARD
 71
2
 72
1
 10
1.5275
 20
-1.9065
 30
0.0
 11
1.0
 21
0.0
 31
0.0
 44
0.9
  1
Mounting Hole Diameter
 40
0.125
 41
4.4
  0
MTEXT
  5
267
100
AcDbEntity
  8
0
100
AcDbMText
 62
2
  6
CONTINUOUS
  7
STANDARD
 71
2
 72
1
 10
4.555
 20
-1.9065
 30
0.0
 11
1.0
 21
0.0
 31
0.0
 44
0.9
  1
.34 in.
 40
0.125
 41
1.4
  0
MTEXT
  5
268
100
AcDbEntity
  8
0
100
AcDbMText
 62
2
  6
CONTINUOUS
  7
STANDARD
 71
2
 72
1
 10
7.555
 20
-1.9065
 30
0.0
 11
1.0
 21
0.0
 31
0.0
 44
0.9
  1
8.6 mm
 40
0.125
 41
1.2
  0
MTEXT
  5
269
100
AcDbEntity
  8
0
100
AcDbMText
 62
2
  6
CONTINUOUS
  7
STANDARD
 71
2
 72
1
 10
1.5275
 20
-2.1565
 30
0.0
 11
1.0
 21
0.0
 31
0.0
 44
0.9
  1
Mounting Hole Depth
 40
0.125
 41
3.8
  0
MTEXT
  5
26A
100
AcDbEntity
  8
0
100
AcDbMText
 62
2
  6
CONTINUOUS
  7
STANDARD
 71
2
 72
1
 10
6.055
 20
-2.1565
 30
0.0
 11
1.0
 21
0.0
 31
0.0
 44
0.9
  1
Through
 40
0.125
 41
1.4
  0
MTEXT
  5
26B
100
AcDbEntity
  8
0
100
AcDbMText
 62
2
  6
CONTINUOUS
  7
STANDARD
 71
2
 72
1
 10
1.5275
 20
-2.4065
 30
0.0
 11
1.0
 21
0.0
 31
0.0
 44
0.9
  1
Mounting Hole Quantity
 40
0.125
 41
4.4
  0
MTEXT
  5
26C
100
AcDbEntity
  8
0
100
AcDbMText
 62
2
  6
CONTINUOUS
  7
STANDARD
 71
2
 72
1
 10
6.055
 20
-2.4065
 30
0.0
 11
1.0
 21
0.0
 31
0.0
 44
0.9
  1
1
 40
0.125
 41
0.2
  0
ENDBLK
  5
26D
100
AcDbEntity
  8
0
  6
BYBLOCK
 62
0
100
AcDbBlockEnd
  0
BLOCK
  5
26E
100
AcDbEntity
  8
0
100
AcDbBlockBegin
  2
*T3
 70
1
 10
0.0
 20
0.0
  3
*T3
  1

  0
LINE
  5
26F
100
AcDbEntity
  8
0
100
AcDbLine
 62
2
  6
CONTINUOUS
 10
0.0
 20
0.0
 11
4.6
 21
0.0
  0
LINE
  5
270
100
AcDbEntity
  8
0
100
AcDbLine
 62
2
  6
CONTINUOUS
 10
0.0
 20
0.0
 11
0.0
 21
-0.93775
  0
LINE
  5
271
100
AcDbEntity
  8
0
100
AcDbLine
 62
2
  6
CONTINUOUS
 10
0.0
 20
-0.34375
 11
4.6
 21
-0.34375
  0
LINE
  5
272
100
AcDbEntity
  8
0
100
AcDbLine
 62
2
  6
CONTINUOUS
 10
0.0
 20
-0.68775
 11
4.6
 21
-0.68775
  0
LINE
  5
273
100
AcDbEntity
  8
0
100
AcDbLine
 62
2
  6
CONTINUOUS
 10
0.0
 20
-0.93775
 11
4.6
 21
-0.93775
  0
LINE
  5
274
100
AcDbEntity
  8
0
100
AcDbLine
 62
2
  6
CONTINUOUS
 10
1.3
 20
-0.34375
 11
1.3
 21
-0.93775
  0
LINE
  5
275
100
AcDbEntity
  8
0
100
AcDbLine
 62
2
  6
CONTINUOUS
 10
3.3
 20
-0.34375
 11
3.3
 21
-0.93775
  0
LINE
  5
276
100
AcDbEntity
  8
0
100
AcDbLine
 62
2
  6
CONTINUOUS
 10
4.6
 20
0.0
 11
4.6
 21
-0.93775
  0
MTEXT
  5
277
100
AcDbEntity
  8
0
100
AcDbMText
 62
2
  6
CONTINUOUS
  7
STANDARD
 71
2
 72
1
 10
2.3
 20
-0.099375
 30
0.0
 11
1.0
 21
0.0
 31
0.0
 44
0.9
  1
Port Headings
 40
0.145
 41
3.016
  0
MTEXT
  5
278
100
AcDbEntity
  8
0
100
AcDbMText
 62
2
  6
CONTINUOUS
  7
STANDARD
 71
2
 72
1
 10
0.65
 20
-0.44325
 30
0.0
 11
1.0
 21
0.0
 31
0.0
 44
0.9
  1
Product
 40
0.145
 41
1.624
  0
MTEXT
  5
279
100
AcDbEntity
  8
0
100
AcDbMText
 62
2
  6
CONTINUOUS
  7
STANDARD
 71
2
 72
1
 10
2.3
 20
-0.44325
 30
0.0
 11
1.0
 21
0.0
 31
0.0
 44
0.9
  1
Port
 40
0.145
 41
0.928
  0
MTEXT
  5
27A
100
AcDbEntity
  8
0
100
AcDbMText
 62
2
  6
CONTINUOUS
  7
STANDARD
 71
2
 72
1
 10
3.95
 20
-0.44325
 30
0.0
 11
1.0
 21
0.0
 31
0.0
 44
0.9
  1
Size
 40
0.145
 41
0.928
  0
MTEXT
  5
27B
100
AcDbEntity
  8
0
100
AcDbMText
 62
2
  6
CONTINUOUS
  7
STANDARD
 71
2
 72
1
 10
0.65
 20
-0.75025
 30
0.0
 11
1.0
 21
0.0
 31
0.0
 44
0.9
  1
FAA
 40
0.125
 41
0.6
  0
MTEXT
  5
27C
100
AcDbEntity
  8
0
100
AcDbMText
 62
2
  6
CONTINUOUS
  7
STANDARD
 71
2
 72
1
 10
2.3
 20
-0.75025
 30
0.0
 11
1.0
 21
0.0
 31
0.0
 44
0.9
  1
All Ports
 40
0.125
 41
1.8
  0
MTEXT
  5
27D
100
AcDbEntity
  8
0
100
AcDbMText
 62
2
  6
CONTINUOUS
  7
STANDARD
 71
2
 72
1
 10
3.95
 20
-0.75025
 30
0.0
 11
1.0
 21
0.0
 31
0.0
 44
0.9
  1
1/4" NPTF
 40
0.125
 41
1.8
  0
ENDBLK
  5
27E
100
AcDbEntity
  8
0
  6
BYBLOCK
 62
0
100
AcDbBlockEnd
  0
ENDSEC
  0
SECTION
  2
ENTITIES
  0
IMAGE
  5
27F
100
AcDbEntity
  8
0
100
AcDbRasterImage
 62
7
  6
CONTINUOUS
 10
19.2297077316
 20
0.3094318264
 30
0.0
 11
0.0066666667
 21
0.0
 31
0.0
 12
0.0
 22
0.0066666667
 32
0.0
 13
369.0
 23
92.0
340
       30D
 70
9
280
0
281
50
282
50
283
0
360
       307
 71
1
 91
2
 14
-0.5
 24
-0.5
 14
368.5
 24
91.5
  0
INSERT
  5
280
100
AcDbEntity
  8
0
100
AcDbBlockReference
 62
2
  6
CONTINUOUS
  2
SUN_FIRST_THIRD_ANGLE_BL0
 10
20.4816717061
 20
1.2289683772
  0
ACAD_TABLE
  5
281
100
AcDbEntity
  8
0
 62
2
  6
CONTINUOUS
100
AcDbBlockReference
  2
*T1
 10
12.42375
 20
0.30125
 30
0.0
100
AcDbTable
342
       30F
343
207
 11
1.0
 21
0.0
 31
0.0
 90
6
 91
4
 92
6
 93
20
 94
0
 95
0
 96
0
 70
1
 41
0.0
141
0.525
141
0.1
141
0.525
141
0.1
142
4.1
142
1.1
142
0.7
142
0.5
142
0.4
142
2.475
171
1
172
0
173
0
174
0
175
1
176
1
 91
33
178
0
145
0.0
301
CELL_VALUE
 90
4
  1
T-10A Line mount\PNinety degree
304
ACVALUE_END
170
2
140
0.125
171
1
172
0
173
0
174
0
175
1
176
1
 91
33
178
0
145
0.0
301
CELL_VALUE
 90
4
  1
May-30-24
304
ACVALUE_END
170
5
140
0.125
171
1
172
0
173
0
174
0
175
1
176
1
 91
33
178
0
145
0.0
301
CELL_VALUE
 90
4
  1
2.000
304
ACVALUE_END
170
5
140
0.125
171
1
172
0
173
0
174
0
175
1
176
1
 91
33
178
0
145
0.0
301
CELL_VALUE
 90
4
  1
C
304
ACVALUE_END
170
5
140
0.125
171
1
172
0
173
0
174
0
175
1
176
1
 91
33
178
0
145
0.0
301
CELL_VALUE
 90
4
  1
2
304
ACVALUE_END
170
5
140
0.125
171
1
172
0
173
0
174
0
175
1
176
1
 91
33
178
0
145
0.0
301
CELL_VALUE
 90
4
  1
 
304
ACVALUE_END
170
1
140
0.125
171
1
172
0
173
0
174
0
175
1
176
1
 91
33
178
0
145
0.0
301
CELL_VALUE
 90
4
  1
DESCRIPTION
304
ACVALUE_END
170
1
140
0.06
171
1
172
0
173
0
174
0
175
1
176
1
 91
33
178
0
145
0.0
301
CELL_VALUE
 90
4
  1
DATE
304
ACVALUE_END
170
1
140
0.06
171
1
172
0
173
0
174
0
175
1
176
1
 91
33
178
0
145
0.0
301
CELL_VALUE
 90
4
  1
SCALE
304
ACVALUE_END
170
1
140
0.06
171
1
172
0
173
0
174
0
175
1
176
1
 91
33
178
0
145
0.0
301
CELL_VALUE
 90
4
  1
DWG SIZE
304
ACVALUE_END
170
1
140
0.06
171
1
172
0
173
0
174
0
175
1
176
1
 91
33
178
0
145
0.0
301
CELL_VALUE
 90
4
  1
SHEET
304
ACVALUE_END
170
1
140
0.06
171
1
172
0
173
0
174
0
175
1
176
1
 91
33
178
0
145
0.0
301
CELL_VALUE
 90
4
  1
 
304
ACVALUE_END
170
1
140
0.125
171
1
172
0
173
0
174
0
175
1
176
1
 91
33
178
0
145
0.0
301
CELL_VALUE
 90
4
  1
FAA
304
ACVALUE_END
170
5
140
0.125
171
1
172
0
173
0
174
0
175
4
176
1
 91
33
178
0
145
0.0
301
CELL_VALUE
 90
4
  1
ALL DIMENSIONS IN INCH\PVIEWS ARE THIRD ANGLE
304
ACVALUE_END
170
5
140
0.12
171
1
172
0
173
1
174
0
175
1
176
1
 91
1
178
0
145
0.0
170
1
171
1
172
0
173
1
174
0
175
1
176
1
 91
1
178
0
145
0.0
170
1
171
1
172
0
173
1
174
0
175
1
176
1
 91
1
178
0
145
0.0
170
5
171
1
172
0
173
0
174
0
175
1
176
1
 91
33
178
0
145
0.0
301
CELL_VALUE
 90
4
  1
 
304
ACVALUE_END
170
1
140
0.125
171
1
172
0
173
0
174
0
175
1
176
1
 91
33
178
0
145
0.0
301
CELL_VALUE
 90
4
  1
MODEL
304
ACVALUE_END
170
1
140
0.06
171
1
172
0
173
0
174
0
175
1
176
1
 91
33
178
0
145
0.0
301
CELL_VALUE
 90
4
  1
 
304
ACVALUE_END
170
1
140
0.125
171
1
172
0
173
0
174
0
175
1
176
1
 91
33
178
0
145
0.0
301
CELL_VALUE
 90
4
  1
 
304
ACVALUE_END
170
1
140
0.125
171
1
172
0
173
0
174
0
175
1
176
1
 91
33
178
0
145
0.0
301
CELL_VALUE
 90
4
  1
 
304
ACVALUE_END
170
1
140
0.125
171
1
172
0
173
0
174
0
175
1
176
1
 91
33
178
0
145
0.0
301
CELL_VALUE
 90
4
  1
 
304
ACVALUE_END
170
1
140
0.125
171
1
172
0
173
0
174
0
175
1
176
1
 91
33
178
0
145
0.0
301
CELL_VALUE
 90
4
  1
 
304
ACVALUE_END
170
1
140
0.125
  0
ACAD_TABLE
  5
282
100
AcDbEntity
  8
0
 62
2
  6
CONTINUOUS
100
AcDbBlockReference
  2
*T2
 10
12.4237499994
 20
16.47875
 30
0.0
100
AcDbTable
342
       30E
343
208
 11
1.0
 21
0.0
 31
0.0
 90
22
 91
10
 92
3
 93
16
 94
0
 95
0
 96
0
 41
0.028
141
0.344
141
0.25
141
0.25
141
0.25
141
0.25
141
0.25
141
0.25
141
0.25
141
0.25
141
0.25
142
3.055
142
3.0
142
3.0
171
1
172
0
173
0
174
0
175
1
176
1
 91
33
178
0
145
0.0
301
CELL_VALUE
 90
4
  1
Technical Data
304
ACVALUE_END
170
5
140
0.145
171
1
172
0
173
0
174
0
175
1
176
1
 91
33
178
0
145
0.0
301
CELL_VALUE
 90
4
  1
U.S. Units
304
ACVALUE_END
170
5
140
0.145
171
1
172
0
173
0
174
0
175
1
176
1
 91
33
178
0
145
0.0
301
CELL_VALUE
 90
4
  1
Metric Units
304
ACVALUE_END
170
5
140
0.145
171
1
172
0
173
0
174
0
175
1
176
1
 91
33
178
0
145
0.0
301
CELL_VALUE
 90
4
  1
Cavity
304
ACVALUE_END
170
5
140
0.125
171
1
172
0
173
0
174
0
175
2
176
1
 91
33
178
0
145
0.0
301
CELL_VALUE
 90
4
  1
T-10A
304
ACVALUE_END
170
5
140
0.125
171
1
172
0
173
1
174
0
175
1
176
1
 91
1
178
0
145
0.0
170
1
171
1
172
0
173
0
174
0
175
1
176
1
 91
33
178
0
145
0.0
301
CELL_VALUE
 90
4
  1
Body Features
304
ACVALUE_END
170
5
140
0.125
171
1
172
0
173
0
174
0
175
2
176
1
 91
33
178
0
145
0.0
301
CELL_VALUE
 90
4
  1
Ninety degree
304
ACVALUE_END
170
5
140
0.125
171
1
172
0
173
1
174
0
175
1
176
1
 91
1
178
0
145
0.0
170
1
171
1
172
0
173
0
174
0
175
1
176
1
 91
33
178
0
145
0.0
301
CELL_VALUE
 90
4
  1
Body Type
304
ACVALUE_END
170
5
140
0.125
171
1
172
0
173
0
174
0
175
2
176
1
 91
33
178
0
145
0.0
301
CELL_VALUE
 90
4
  1
Line mount
304
ACVALUE_END
170
5
140
0.125
171
1
172
0
173
1
174
0
175
1
176
1
 91
1
178
0
145
0.0
170
1
171
1
172
0
173
0
174
0
175
1
176
1
 91
33
178
0
145
0.0
301
CELL_VALUE
 90
4
  1
Interface
304
ACVALUE_END
170
5
140
0.125
171
1
172
0
173
0
174
0
175
2
176
1
 91
33
178
0
145
0.0
301
CELL_VALUE
 90
4
  1
None
304
ACVALUE_END
170
5
140
0.125
171
1
172
0
173
1
174
0
175
1
176
1
 91
1
178
0
145
0.0
170
1
171
1
172
0
173
0
174
0
175
1
176
1
 91
33
178
0
145
0.0
301
CELL_VALUE
 90
4
  1
Open Cavity Quantity
304
ACVALUE_END
170
5
140
0.125
171
1
172
0
173
0
174
0
175
2
176
1
 91
33
178
0
145
0.0
301
CELL_VALUE
 90
4
  1
1
304
ACVALUE_END
170
5
140
0.125
171
1
172
0
173
1
174
0
175
1
176
1
 91
1
178
0
145
0.0
170
1
171
1
172
0
173
0
174
0
175
1
176
1
 91
33
178
0
145
0.0
301
CELL_VALUE
 90
4
  1
Weight
304
ACVALUE_END
170
5
140
0.125
171
1
172
0
173
0
174
0
175
1
176
1
 91
33
178
0
145
0.0
301
CELL_VALUE
 90
4
  1
0.391 lb.
304
ACVALUE_END
170
5
140
0.125
171
1
172
0
173
0
174
0
175
1
176
1
 91
33
178
0
145
0.0
301
CELL_VALUE
 90
4
  1
0,177 kg.
304
ACVALUE_END
170
5
140
0.125
171
1
172
0
173
0
174
0
175
1
176
1
 91
33
178
0
145
0.0
301
CELL_VALUE
 90
4
  1
Mounting Hole Diameter
304
ACVALUE_END
170
5
140
0.125
171
1
172
0
173
0
174
0
175
1
176
1
 91
33
178
0
145
0.0
301
CELL_VALUE
 90
4
  1
.34 in.
304
ACVALUE_END
170
5
140
0.125
171
1
172
0
173
0
174
0
175
1
176
1
 91
33
178
0
145
0.0
301
CELL_VALUE
 90
4
  1
8.6 mm
304
ACVALUE_END
170
5
140
0.125
171
1
172
0
173
0
174
0
175
1
176
1
 91
33
178
0
145
0.0
301
CELL_VALUE
 90
4
  1
Mounting Hole Depth
304
ACVALUE_END
170
5
140
0.125
171
1
172
0
173
0
174
0
175
2
176
1
 91
33
178
0
145
0.0
301
CELL_VALUE
 90
4
  1
Through
304
ACVALUE_END
170
5
140
0.125
171
1
172
0
173
1
174
0
175
1
176
1
 91
1
178
0
145
0.0
170
1
171
1
172
0
173
0
174
0
175
1
176
1
 91
33
178
0
145
0.0
301
CELL_VALUE
 90
4
  1
Mounting Hole Quantity
304
ACVALUE_END
170
5
140
0.125
171
1
172
0
173
0
174
0
175
2
176
1
 91
33
178
0
145
0.0
301
CELL_VALUE
 90
4
  1
1
304
ACVALUE_END
170
5
140
0.125
171
1
172
0
173
1
174
0
175
1
176
1
 91
1
178
0
145
0.0
170
1
  0
ACAD_TABLE
  5
283
100
AcDbEntity
  8
0
 62
2
  6
CONTINUOUS
100
AcDbBlockReference
  2
*T3
 10
0.52125
 20
1.459
 30
0.0
100
AcDbTable
342
       30E
343
209
 11
1.0
 21
0.0
 31
0.0
 90
22
 91
3
 92
3
 93
16
 94
0
 95
0
 96
0
 41
0.05
141
0.34375
141
0.344
141
0.25
142
1.3
142
2.0
142
1.3
171
1
172
0
173
0
174
0
175
3
176
1
 91
33
178
0
145
0.0
301
CELL_VALUE
 90
4
  1
Port Headings
304
ACVALUE_END
170
5
140
0.145
171
1
172
0
173
1
174
0
175
1
176
1
 91
1
178
0
145
0.0
170
1
171
1
172
0
173
1
174
0
175
1
176
1
 91
1
178
0
145
0.0
170
1
171
1
172
0
173
0
174
0
175
1
176
1
 91
33
178
0
145
0.0
301
CELL_VALUE
 90
4
  1
Product
304
ACVALUE_END
170
5
140
0.145
171
1
172
0
173
0
174
0
175
1
176
1
 91
33
178
0
145
0.0
301
CELL_VALUE
 90
4
  1
Port
304
ACVALUE_END
170
5
140
0.145
171
1
172
0
173
0
174
0
175
1
176
1
 91
33
178
0
145
0.0
301
CELL_VALUE
 90
4
  1
Size
304
ACVALUE_END
170
5
140
0.145
171
1
172
0
173
0
174
0
175
1
176
1
 91
33
178
0
145
0.0
301
CELL_VALUE
 90
4
  1
FAA
304
ACVALUE_END
170
5
140
0.125
171
1
172
0
173
0
174
0
175
1
176
1
 91
33
178
0
145
0.0
301
CELL_VALUE
 90
4
  1
All Ports
304
ACVALUE_END
170
5
140
0.125
171
1
172
0
173
0
174
0
175
1
176
1
 91
33
178
0
145
0.0
301
CELL_VALUE
 90
4
  1
1/4" NPTF
304
ACVALUE_END
170
5
140
0.125
  0
MTEXT
  5
284
100
AcDbEntity
  8
0
100
AcDbMText
 62
2
  6
CONTINUOUS
  7
STANDARD
 71
1
 72
1
 10
0.52125
 20
5.75995
 30
0.0
 11
1.0
 21
0.0
 31
0.0
 44
0.6
  3
Notes\P \P1. Important: Carefully consider\P   the maximum system pressure. The\P   pressure rating of the manifold is\P   dependent on the manifold material,\P   with the port type/size a secondary\P   consideration. Manifolds\P   constructed of alu
  3
minum are not\P   rated for pressures higher than\P   3000 psi (210 bar), regardless of\P   the port type/size specified.\P2. This drawing is for reference\P   only. It is generated by an\P   automated process and does not fall\P   under Sun's docume
  1
nt control\P   process.
 40
0.1
 41
3.04
  0
LINE
  5
285
100
AcDbEntity
  8
0
100
AcDbLine
 62
7
  6
CONTINUOUS
 10
0.30125
 20
0.30125
 11
0.30125
 21
16.69875
  0
LINE
  5
286
100
AcDbEntity
  8
0
100
AcDbLine
 62
7
  6
CONTINUOUS
 10
0.30125
 20
0.30125
 11
21.69875
 21
0.30125
  0
LINE
  5
287
100
AcDbEntity
  8
0
100
AcDbLine
 62
7
  6
CONTINUOUS
 10
0.30125
 20
16.69875
 11
21.69875
 21
16.69875
  0
LINE
  5
288
100
AcDbEntity
  8
0
100
AcDbLine
 62
7
  6
CONTINUOUS
 10
21.69875
 20
0.30125
 11
21.69875
 21
16.69875
  0
LINE
  5
289
100
AcDbEntity
  8
0
100
AcDbLine
 62
7
  6
CONTINUOUS
 10
8.2616617518
 20
6.7901682723
 11
8.2616617518
 21
9.9197681441
  0
LINE
  5
28A
100
AcDbEntity
  8
0
100
AcDbLine
 62
7
  6
CONTINUOUS
 10
8.2616617518
 20
9.9197681441
 11
8.9087088306
 21
10.5447676654
  0
LINE
  5
28B
100
AcDbEntity
  8
0
100
AcDbLine
 62
4
  6
CONTINUOUS
 10
9.6989594404
 20
6.93197281
 11
9.679640914
 21
6.9478014422
  0
LINE
  5
28C
100
AcDbEntity
  8
0
100
AcDbLine
 62
7
  6
CONTINUOUS
 10
13.0912911694
 20
6.4552323346
 11
8.2616617518
 21
6.7901682723
  0
LINE
  5
28D
100
AcDbEntity
  8
0
100
AcDbLine
 62
4
  6
CONTINUOUS
 10
9.8341890565
 20
6.9370834922
 11
9.8921446082
 21
6.9185753731
  0
LINE
  5
28E
100
AcDbEntity
  8
0
100
AcDbLine
 62
4
  6
CONTINUOUS
 10
9.7955520243
 20
6.9687407553
 11
9.8341890565
 21
6.9370834922
  0
LINE
  5
28F
100
AcDbEntity
  8
0
100
AcDbLine
 62
4
  6
CONTINUOUS
 10
9.7375964657
 20
7.0452044266
 11
9.7569149921
 21
7.0293757943
  0
LINE
  5
290
100
AcDbEntity
  8
0
100
AcDbLine
 62
4
  6
CONTINUOUS
 10
9.679640914
 20
6.9478014422
 11
9.6603224013
 21
6.9781189615
  0
LINE
  5
291
100
AcDbEntity
  8
0
100
AcDbLine
 62
4
  6
CONTINUOUS
 10
9.7569149921
 20
7.0293757943
 11
9.7955520243
 21
6.9687407553
  0
LINE
  5
292
100
AcDbEntity
  8
0
100
AcDbLine
 62
4
  6
CONTINUOUS
 10
9.6603224013
 20
6.9781189615
 11
9.6603224013
 21
7.0070967374
  0
LINE
  5
293
100
AcDbEntity
  8
0
100
AcDbLine
 62
4
  6
CONTINUOUS
 10
9.6989594404
 20
7.0478839134
 11
9.7375964657
 21
7.0452044266
  0
LINE
  5
294
100
AcDbEntity
  8
0
100
AcDbLine
 62
4
  6
CONTINUOUS
 10
10.5605653572
 20
7.1001787225
 11
10.6764764606
 21
7.0921402602
  0
LINE
  5
295
100
AcDbEntity
  8
0
100
AcDbLine
 62
4
  6
CONTINUOUS
 10
10.6764764606
 20
7.2080513636
 11
10.7923875641
 21
7.2000129013
  0
LINE
  5
296
100
AcDbEntity
  8
0
100
AcDbLine
 62
4
  6
CONTINUOUS
 10
10.7923875641
 20
7.257968453
 11
10.5605653572
 21
7.2740453777
  0
LINE
  5
297
100
AcDbEntity
  8
0
100
AcDbLine
 62
4
  6
CONTINUOUS
 10
11.9746808191
 20
7.2706368639
 11
11.7428586122
 21
7.2867137885
  0
LINE
  5
298
100
AcDbEntity
  8
0
100
AcDbLine
 62
4
  6
CONTINUOUS
 10
10.5605653572
 20
7.3899564811
 11
10.7923875641
 21
7.3738795564
  0
LINE
  5
299
100
AcDbEntity
  8
0
100
AcDbLine
 62
4
  6
CONTINUOUS
 10
9.8921446082
 20
6.9185753731
 11
9.8921446082
 21
7.0344864765
  0
LINE
  5
29A
100
AcDbEntity
  8
0
100
AcDbLine
 62
4
  6
CONTINUOUS
 10
11.7428586122
 20
7.5626925898
 11
11.9746808191
 21
7.612850605
  0
LINE
  5
29B
100
AcDbEntity
  8
0
100
AcDbLine
 62
4
  6
CONTINUOUS
 10
10.5605653572
 20
7.4479120328
 11
10.7923875641
 21
7.4318351081
  0
LINE
  5
29C
100
AcDbEntity
  8
0
100
AcDbLine
 62
4
  6
CONTINUOUS
 10
11.7759760683
 20
7.4003281747
 11
11.9415633595
 21
7.3888446571
  0
LINE
  5
29D
100
AcDbEntity
  8
0
100
AcDbLine
 62
4
  6
CONTINUOUS
 10
10.5605653572
 20
7.5638231362
 11
10.7923875641
 21
7.5477462116
  0
LINE
  5
29E
100
AcDbEntity
  8
0
100
AcDbLine
 62
4
  6
CONTINUOUS
 10
10.7923875641
 20
7.7795684184
 11
10.5605653572
 21
7.7956453431
  0
LINE
  5
29F
100
AcDbEntity
  8
0
100
AcDbLine
 62
4
  6
CONTINUOUS
 10
11.9746808191
 20
7.7453204296
 11
11.7428586122
 21
7.7613973543
  0
LINE
  5
2A0
100
AcDbEntity
  8
0
100
AcDbLine
 62
4
  6
CONTINUOUS
 10
10.5605653572
 20
7.2160898259
 11
10.5605653572
 21
7.1001787225
  0
LINE
  5
2A1
100
AcDbEntity
  8
0
100
AcDbLine
 62
4
  6
CONTINUOUS
 10
10.5605653572
 20
7.4479120328
 11
10.5605653572
 21
7.5638231362
  0
LINE
  5
2A2
100
AcDbEntity
  8
0
100
AcDbLine
 62
4
  6
CONTINUOUS
 10
10.7923875641
 20
7.8954795219
 11
10.6764764606
 21
7.9035179842
  0
LINE
  5
2A3
100
AcDbEntity
  8
0
100
AcDbLine
 62
4
  6
CONTINUOUS
 10
11.464671964
 20
7.8883214227
 11
11.2328497571
 21
7.9043983473
  0
LINE
  5
2A4
100
AcDbEntity
  8
0
100
AcDbLine
 62
4
  6
CONTINUOUS
 10
11.9746808191
 20
7.8777902542
 11
11.7428586122
 21
7.8938671789
  0
LINE
  5
2A5
100
AcDbEntity
  8
0
100
AcDbLine
 62
4
  6
CONTINUOUS
 10
10.7923875641
 20
7.9901402585
 11
10.6764764606
 21
7.9981787208
  0
LINE
  5
2A6
100
AcDbEntity
  8
0
100
AcDbLine
 62
4
  6
CONTINUOUS
 10
11.9746808191
 20
7.4803807528
 11
11.7428586122
 21
7.5626925898
  0
LINE
  5
2A7
100
AcDbEntity
  8
0
100
AcDbLine
 62
4
  6
CONTINUOUS
 10
10.6185209089
 20
9.0309089949
 11
10.6185209089
 21
9.0598867708
  0
LINE
  5
2A8
100
AcDbEntity
  8
0
100
AcDbLine
 62
4
  6
CONTINUOUS
 10
10.6764764606
 20
8.6936453414
 11
10.6764764606
 21
8.6163712724
  0
LINE
  5
2A9
100
AcDbEntity
  8
0
100
AcDbLine
 62
4
  6
CONTINUOUS
 10
10.6764764606
 20
7.9035179842
 11
10.6764764606
 21
7.7876068808
  0
LINE
  5
2AA
100
AcDbEntity
  8
0
100
AcDbLine
 62
4
  6
CONTINUOUS
 10
10.6764764606
 20
7.0921402602
 11
10.6764764606
 21
7.2080513636
  0
LINE
  5
2AB
100
AcDbEntity
  8
0
100
AcDbLine
 62
4
  6
CONTINUOUS
 10
10.6764764606
 20
8.1913638932
 11
10.6764764606
 21
8.3072749966
  0
LINE
  5
2AC
100
AcDbEntity
  8
0
100
AcDbLine
 62
4
  6
CONTINUOUS
 10
10.6764764606
 20
8.3845490656
 11
10.6764764606
 21
8.500460169
  0
LINE
  5
2AD
100
AcDbEntity
  8
0
100
AcDbLine
 62
4
  6
CONTINUOUS
 10
10.6764764606
 20
9.1186527206
 11
10.6764764606
 21
9.2345638241
  0
LINE
  5
2AE
100
AcDbEntity
  8
0
100
AcDbLine
 62
4
  6
CONTINUOUS
 10
10.6764764606
 20
9.311837893
 11
10.6764764606
 21
9.4277489964
  0
LINE
  5
2AF
100
AcDbEntity
  8
0
100
AcDbLine
 62
4
  6
CONTINUOUS
 10
10.7151134951
 20
8.5750547505
 11
10.7151134951
 21
8.6909658539
  0
LINE
  5
2B0
100
AcDbEntity
  8
0
100
AcDbLine
 62
4
  6
CONTINUOUS
 10
10.7344320123
 20
9.3078186619
 11
10.7344320123
 21
9.4237297653
  0
LINE
  5
2B1
100
AcDbEntity
  8
0
100
AcDbLine
 62
4
  6
CONTINUOUS
 10
10.7923875641
 20
9.4197105341
 11
10.7923875641
 21
9.3037994307
  0
LINE
  5
2B2
100
AcDbEntity
  8
0
100
AcDbLine
 62
4
  6
CONTINUOUS
 10
10.7923875641
 20
8.6856068791
 11
10.7923875641
 21
8.5696957756
  0
LINE
  5
2B3
100
AcDbEntity
  8
0
100
AcDbLine
 62
4
  6
CONTINUOUS
 10
10.7923875641
 20
8.2992365343
 11
10.7923875641
 21
8.1833254308
  0
LINE
  5
2B4
100
AcDbEntity
  8
0
100
AcDbLine
 62
4
  6
CONTINUOUS
 10
10.7923875641
 20
8.1060513619
 11
10.7923875641
 21
7.9901402585
  0
LINE
  5
2B5
100
AcDbEntity
  8
0
100
AcDbLine
 62
4
  6
CONTINUOUS
 10
10.7923875641
 20
7.3738795564
 11
10.7923875641
 21
7.257968453
  0
LINE
  5
2B6
100
AcDbEntity
  8
0
100
AcDbLine
 62
4
  6
CONTINUOUS
 10
10.7923875641
 20
7.2000129013
 11
10.7923875641
 21
7.0841017979
  0
LINE
  5
2B7
100
AcDbEntity
  8
0
100
AcDbLine
 62
4
  6
CONTINUOUS
 10
10.7923875641
 20
8.762880948
 11
10.7923875641
 21
8.8787920514
  0
LINE
  5
2B8
100
AcDbEntity
  8
0
100
AcDbLine
 62
4
  6
CONTINUOUS
 10
10.7923875641
 20
9.1106142583
 11
10.7923875641
 21
9.2265253617
  0
LINE
  5
2B9
100
AcDbEntity
  8
0
100
AcDbLine
 62
4
  6
CONTINUOUS
 10
9.6603224013
 20
7.0070967374
 11
9.679640914
 21
7.0347347698
  0
LINE
  5
2BA
100
AcDbEntity
  8
0
100
AcDbLine
 62
4
  6
CONTINUOUS
 10
11.2328497571
 20
8.1362205542
 11
11.464671964
 21
8.1863785419
  0
LINE
  5
2BB
100
AcDbEntity
  8
0
100
AcDbLine
 62
4
  6
CONTINUOUS
 10
11.2328497571
 20
8.3349252911
 11
11.464671964
 21
8.3850832787
  0
LINE
  5
2BC
100
AcDbEntity
  8
0
100
AcDbLine
 62
4
  6
CONTINUOUS
 10
10.6764764606
 20
8.1140898242
 11
10.9082986675
 21
8.0980128996
  0
LINE
  5
2BD
100
AcDbEntity
  8
0
100
AcDbLine
 62
4
  6
CONTINUOUS
 10
10.7923875641
 20
8.1833254308
 11
10.6764764606
 21
8.1913638932
  0
LINE
  5
2BE
100
AcDbEntity
  8
0
100
AcDbLine
 62
4
  6
CONTINUOUS
 10
10.5605653572
 20
8.3153134589
 11
10.7923875641
 21
8.2992365343
  0
LINE
  5
2BF
100
AcDbEntity
  8
0
100
AcDbLine
 62
4
  6
CONTINUOUS
 10
11.9415633595
 20
8.2278203234
 11
11.7759760683
 21
8.2393038411
  0
LINE
  5
2C0
100
AcDbEntity
  8
0
100
AcDbLine
 62
4
  6
CONTINUOUS
 10
11.464671964
 20
8.0539087173
 11
11.2328497571
 21
8.1362205542
  0
LINE
  5
2C1
100
AcDbEntity
  8
0
100
AcDbLine
 62
4
  6
CONTINUOUS
 10
10.9082986675
 20
8.0980128996
 11
10.9082986675
 21
8.0207388306
  0
LINE
  5
2C2
100
AcDbEntity
  8
0
100
AcDbLine
 62
4
  6
CONTINUOUS
 10
10.6764764606
 20
8.3845490656
 11
10.7923875641
 21
8.3765106032
  0
LINE
  5
2C3
100
AcDbEntity
  8
0
100
AcDbLine
 62
4
  6
CONTINUOUS
 10
11.9415633595
 20
8.4210054221
 11
11.7759760683
 21
8.4324889398
  0
LINE
  5
2C4
100
AcDbEntity
  8
0
100
AcDbLine
 62
4
  6
CONTINUOUS
 10
11.464671964
 20
8.2526134542
 11
11.2328497571
 21
8.3349252911
  0
LINE
  5
2C5
100
AcDbEntity
  8
0
100
AcDbLine
 62
4
  6
CONTINUOUS
 10
11.9415633595
 20
7.3888446571
 11
11.9746808191
 21
7.3534304973
  0
LINE
  5
2C6
100
AcDbEntity
  8
0
100
AcDbLine
 62
4
  6
CONTINUOUS
 10
11.2328497571
 20
7.9043983473
 11
11.2328497571
 21
8.0037507227
  0
LINE
  5
2C7
100
AcDbEntity
  8
0
100
AcDbLine
 62
4
  6
CONTINUOUS
 10
10.7923875641
 20
8.5696957756
 11
10.7151134951
 21
8.5750547505
  0
LINE
  5
2C8
100
AcDbEntity
  8
0
100
AcDbLine
 62
4
  6
CONTINUOUS
 10
12.739694155
 20
8.4674911011
 11
12.9715163618
 21
8.4514141764
  0
LINE
  5
2C9
100
AcDbEntity
  8
0
100
AcDbLine
 62
4
  6
CONTINUOUS
 10
11.7759760683
 20
8.5484000432
 11
11.9415633595
 21
8.5369165255
  0
LINE
  5
2CA
100
AcDbEntity
  8
0
100
AcDbLine
 62
4
  6
CONTINUOUS
 10
11.9746808191
 20
8.6008547066
 11
11.7428586122
 21
8.6169316312
  0
LINE
  5
2CB
100
AcDbEntity
  8
0
100
AcDbLine
 62
4
  6
CONTINUOUS
 10
10.6764764606
 20
8.6936453414
 11
10.7923875641
 21
8.6856068791
  0
LINE
  5
2CC
100
AcDbEntity
  8
0
100
AcDbLine
 62
4
  6
CONTINUOUS
 10
10.6764764606
 20
8.7709194103
 11
10.7923875641
 21
8.762880948
  0
LINE
  5
2CD
100
AcDbEntity
  8
0
100
AcDbLine
 62
4
  6
CONTINUOUS
 10
11.8311718286
 20
7.236432631
 11
11.8753284437
 21
7.1450571361
  0
LINE
  5
2CE
100
AcDbEntity
  8
0
100
AcDbLine
 62
4
  6
CONTINUOUS
 10
11.3322021255
 20
7.9968606125
 11
11.3322021255
 21
7.8975082372
  0
LINE
  5
2CF
100
AcDbEntity
  8
0
100
AcDbLine
 62
4
  6
CONTINUOUS
 10
11.3984370447
 20
8.0805804286
 11
11.3984370447
 21
8.168893645
  0
LINE
  5
2D0
100
AcDbEntity
  8
0
100
AcDbLine
 62
4
  6
CONTINUOUS
 10
11.3984370447
 20
8.2792851655
 11
11.3984370447
 21
8.3675984095
  0
LINE
  5
2D1
100
AcDbEntity
  8
0
100
AcDbLine
 62
4
  6
CONTINUOUS
 10
11.7428586122
 20
8.6997252923
 11
11.7759760683
 21
8.7305460313
  0
LINE
  5
2D2
100
AcDbEntity
  8
0
100
AcDbLine
 62
4
  6
CONTINUOUS
 10
9.679640914
 20
7.0347347698
 11
9.6989594404
 21
7.0478839134
  0
LINE
  5
2D3
100
AcDbEntity
  8
0
100
AcDbLine
 62
4
  6
CONTINUOUS
 10
11.7759760683
 20
8.7305460313
 11
11.9415633595
 21
8.7190625136
  0
LINE
  5
2D4
100
AcDbEntity
  8
0
100
AcDbLine
 62
4
  6
CONTINUOUS
 10
10.7923875641
 20
8.8787920514
 11
10.6764764606
 21
8.8868305138
  0
LINE
  5
2D5
100
AcDbEntity
  8
0
100
AcDbLine
 62
4
  6
CONTINUOUS
 10
11.9746808191
 20
8.8105986923
 11
11.7428586122
 21
8.8266756169
  0
LINE
  5
2D6
100
AcDbEntity
  8
0
100
AcDbLine
 62
4
  6
CONTINUOUS
 10
10.7923875641
 20
8.9560661204
 11
10.5605653572
 21
8.972143045
  0
LINE
  5
2D7
100
AcDbEntity
  8
0
100
AcDbLine
 62
4
  6
CONTINUOUS
 10
11.7759760683
 20
8.2393038411
 11
11.7428586122
 21
8.2747179868
  0
LINE
  5
2D8
100
AcDbEntity
  8
0
100
AcDbLine
 62
4
  6
CONTINUOUS
 10
11.8311718286
 20
8.9861382862
 11
11.8753284437
 21
9.0713892309
  0
LINE
  5
2D9
100
AcDbEntity
  8
0
100
AcDbLine
 62
7
  6
CONTINUOUS
 10
13.0912911694
 20
9.5848322064
 11
13.7383382482
 21
10.2098317277
  0
LINE
  5
2DA
100
AcDbEntity
  8
0
100
AcDbLine
 62
4
  6
CONTINUOUS
 10
11.7428586122
 20
8.5175793042
 11
11.7759760683
 21
8.5484000432
  0
LINE
  5
2DB
100
AcDbEntity
  8
0
100
AcDbLine
 62
4
  6
CONTINUOUS
 10
11.9746808191
 20
8.4518261608
 11
11.9415633595
 21
8.4210054221
  0
LINE
  5
2DC
100
AcDbEntity
  8
0
100
AcDbLine
 62
4
  6
CONTINUOUS
 10
10.7923875641
 20
9.0333401893
 11
10.6764764606
 21
9.0413786517
  0
LINE
  5
2DD
100
AcDbEntity
  8
0
100
AcDbLine
 62
4
  6
CONTINUOUS
 10
10.6764764606
 20
9.1186527206
 11
10.7923875641
 21
9.1106142583
  0
LINE
  5
2DE
100
AcDbEntity
  8
0
100
AcDbLine
 62
4
  6
CONTINUOUS
 10
11.7759760683
 20
8.4324889398
 11
11.7428586122
 21
8.4679030855
  0
LINE
  5
2DF
100
AcDbEntity
  8
0
100
AcDbLine
 62
4
  6
CONTINUOUS
 10
11.9415633595
 20
8.5369165255
 11
11.9746808191
 21
8.5015023796
  0
LINE
  5
2E0
100
AcDbEntity
  8
0
100
AcDbLine
 62
4
  6
CONTINUOUS
 10
11.7428586122
 20
7.2867137885
 11
11.7428586122
 21
7.369507422
  0
LINE
  5
2E1
100
AcDbEntity
  8
0
100
AcDbLine
 62
4
  6
CONTINUOUS
 10
11.7428586122
 20
7.6951624143
 11
11.7428586122
 21
7.8276322389
  0
LINE
  5
2E2
100
AcDbEntity
  8
0
100
AcDbLine
 62
4
  6
CONTINUOUS
 10
11.7428586122
 20
7.8938671789
 11
11.7428586122
 21
7.9932195611
  0
LINE
  5
2E3
100
AcDbEntity
  8
0
100
AcDbLine
 62
4
  6
CONTINUOUS
 10
11.7428586122
 20
8.2747179868
 11
11.7428586122
 21
8.3409528714
  0
LINE
  5
2E4
100
AcDbEntity
  8
0
100
AcDbLine
 62
4
  6
CONTINUOUS
 10
11.7428586122
 20
8.4679030855
 11
11.7428586122
 21
8.5175793042
  0
LINE
  5
2E5
100
AcDbEntity
  8
0
100
AcDbLine
 62
4
  6
CONTINUOUS
 10
11.7428586122
 20
8.6169316312
 11
11.7428586122
 21
8.6997252923
  0
LINE
  5
2E6
100
AcDbEntity
  8
0
100
AcDbLine
 62
4
  6
CONTINUOUS
 10
11.7428586122
 20
8.8266756169
 11
11.7428586122
 21
8.9260279439
  0
LINE
  5
2E7
100
AcDbEntity
  8
0
100
AcDbLine
 62
4
  6
CONTINUOUS
 10
11.8422109806
 20
8.8860203914
 11
11.8422109806
 21
8.8197855068
  0
LINE
  5
2E8
100
AcDbEntity
  8
0
100
AcDbLine
 62
4
  6
CONTINUOUS
 10
11.8422109806
 20
7.9532120087
 11
11.8422109806
 21
7.8869770687
  0
LINE
  5
2E9
100
AcDbEntity
  8
0
100
AcDbLine
 62
4
  6
CONTINUOUS
 10
11.9084458998
 20
7.5070524641
 11
11.9084458998
 21
7.5953656805
  0
LINE
  5
2EA
100
AcDbEntity
  8
0
100
AcDbLine
 62
4
  6
CONTINUOUS
 10
11.9746808191
 20
8.2586410621
 11
11.9415633595
 21
8.2278203234
  0
LINE
  5
2EB
100
AcDbEntity
  8
0
100
AcDbLine
 62
4
  6
CONTINUOUS
 10
10.6764764606
 20
9.311837893
 11
10.7344320123
 21
9.3078186619
  0
LINE
  5
2EC
100
AcDbEntity
  8
0
100
AcDbLine
 62
4
  6
CONTINUOUS
 10
10.7344320123
 20
9.4237297653
 11
10.7923875641
 21
9.4197105341
  0
LINE
  5
2ED
100
AcDbEntity
  8
0
100
AcDbLine
 62
4
  6
CONTINUOUS
 10
11.9415633595
 20
8.7190625136
 11
11.9746808191
 21
8.6836483677
  0
LINE
  5
2EE
100
AcDbEntity
  8
0
100
AcDbLine
 62
4
  6
CONTINUOUS
 10
11.9746808191
 20
8.6836483677
 11
11.9746808191
 21
8.6008547066
  0
LINE
  5
2EF
100
AcDbEntity
  8
0
100
AcDbLine
 62
4
  6
CONTINUOUS
 10
11.9746808191
 20
8.5015023796
 11
11.9746808191
 21
8.4518261608
  0
LINE
  5
2F0
100
AcDbEntity
  8
0
100
AcDbLine
 62
4
  6
CONTINUOUS
 10
11.9746808191
 20
8.3248759468
 11
11.9746808191
 21
8.2586410621
  0
LINE
  5
2F1
100
AcDbEntity
  8
0
100
AcDbLine
 62
4
  6
CONTINUOUS
 10
11.9746808191
 20
7.3534304973
 11
11.9746808191
 21
7.2706368639
  0
LINE
  5
2F2
100
AcDbEntity
  8
0
100
AcDbLine
 62
4
  6
CONTINUOUS
 10
11.9746808191
 20
7.8777902542
 11
11.9746808191
 21
7.9771426365
  0
LINE
  5
2F3
100
AcDbEntity
  8
0
100
AcDbLine
 62
4
  6
CONTINUOUS
 10
11.9746808191
 20
8.8105986923
 11
11.9746808191
 21
8.9099510192
  0
LINE
  5
2F4
100
AcDbEntity
  8
0
100
AcDbLine
 62
7
  6
CONTINUOUS
 10
13.4148147088
 20
9.2405023571
 11
13.4161839975
 21
9.2418007059
  0
LINE
  5
2F5
100
AcDbEntity
  8
0
100
AcDbLine
 62
4
  6
CONTINUOUS
 10
11.8753284437
 20
9.0713892309
 11
11.9194850554
 21
8.9800137431
  0
LINE
  5
2F6
100
AcDbEntity
  8
0
100
AcDbLine
 62
4
  6
CONTINUOUS
 10
11.7428586122
 20
7.369507422
 11
11.7759760683
 21
7.4003281747
  0
LINE
  5
2F7
100
AcDbEntity
  8
0
100
AcDbLine
 62
7
  6
CONTINUOUS
 10
13.0912911694
 20
9.5848322064
 11
8.2616617518
 21
9.9197681441
  0
LINE
  5
2F8
100
AcDbEntity
  8
0
100
AcDbLine
 62
4
  6
CONTINUOUS
 10
11.8753284437
 20
7.1450571361
 11
11.9194850554
 21
7.230308088
  0
LINE
  5
2F9
100
AcDbEntity
  8
0
100
AcDbLine
 62
7
  6
CONTINUOUS
 10
13.7383382482
 20
10.2098317277
 11
8.9087088306
 21
10.5447676654
  0
LINE
  5
2FA
100
AcDbEntity
  8
0
100
AcDbLine
 62
7
  6
CONTINUOUS
 10
13.0912911694
 20
6.4552323346
 11
13.0912911694
 21
9.5848322064
  0
LINE
  5
2FB
100
AcDbEntity
  8
0
100
AcDbLine
 62
7
  6
CONTINUOUS
 10
13.7383382482
 20
10.2098317277
 11
13.7383382482
 21
7.0802318559
  0
LINE
  5
2FC
100
AcDbEntity
  8
0
100
AcDbLine
 62
7
  6
CONTINUOUS
 10
13.7383382482
 20
7.0802318559
 11
13.0912911694
 21
6.4552323346
  0
SPLINE
  5
2FD
100
AcDbEntity
  8
0
100
AcDbSpline
 62
7
  6
CONTINUOUS
 70
0
 71
3
 72
23
 73
19
 74
0
 42
0.0000001
 43
0.0000001
 44
0.0000000001
 40
0.0
 40
0.0
 40
0.0
 40
0.0
 40
0.063776909
 40
0.1273449468
 40
0.1907019575
 40
0.2538561145
 40
0.3168131979
 40
0.3795820804
 40
0.4421733815
 40
0.5045993354
 40
0.5668738682
 40
0.6290123838
 40
0.6910316538
 40
0.75294965
 40
0.8147853622
 40
0.8765586114
 40
0.9382898593
 40
1.0
 40
1.0
 40
1.0
 40
1.0
 10
12.8807193494
 20
7.0126858639
 30
0.0
 10
12.8807193494
 20
7.0073784152
 30
0.0
 10
12.8804653054
 20
6.9967791015
 30
0.0
 10
12.8793187291
 20
6.9809446166
 30
0.0
 10
12.8774096469
 20
6.9652356388
 30
0.0
 10
12.8747426469
 20
6.9496890673
 30
0.0
 10
12.8713236746
 20
6.9343404343
 30
0.0
 10
12.8671606376
 20
6.9192252211
 30
0.0
 10
12.862263112
 20
6.9043782484
 30
0.0
 10
12.8566423463
 20
6.8898337536
 30
0.0
 10
12.8503112516
 20
6.8756252906
 30
0.0
 10
12.8432843987
 20
6.8617856325
 30
0.0
 10
12.8355779918
 20
6.8483466952
 30
0.0
 10
12.8272097754
 20
6.8353394719
 30
0.0
 10
12.8181990433
 20
6.822794009
 30
0.0
 10
12.808566455
 20
6.8107391583
 30
0.0
 10
12.7983346191
 20
6.7992030959
 30
0.0
 10
12.7911282826
 20
6.7918746191
 30
0.0
 10
12.7874345911
 20
6.7883067717
 30
0.0
  0
SPLINE
  5
2FE
100
AcDbEntity
  8
0
100
AcDbSpline
 62
7
  6
CONTINUOUS
 70
0
 71
3
 72
48
 73
44
 74
0
 42
0.0000001
 43
0.0000001
 44
0.0000000001
 40
0.0
 40
0.0
 40
0.0
 40
0.0
 40
0.0149718897
 40
0.0299468369
 40
0.0449278839
 40
0.0599180336
 40
0.0749202322
 40
0.0899373568
 40
0.1049721887
 40
0.1200274064
 40
0.1351055645
 40
0.1502090774
 40
0.1653402142
 40
0.180501073
 40
0.1956935825
 40
0.2109194836
 40
0.2261803205
 40
0.2414774416
 40
0.2568119786
 40
0.2721848576
 40
0.3030428416
 40
0.3340598877
 40
0.365235493
 40
0.3965657058
 40
0.4280432614
 40
0.4596577825
 40
0.4913960356
 40
0.5232422374
 40
0.5551784039
 40
0.5871847345
 40
0.6192400218
 40
0.6513220815
 40
0.6834081967
 40
0.7154755701
 40
0.7475017768
 40
0.7794652126
 40
0.8113455287
 40
0.8431240501
 40
0.8747841728
 40
0.9063117021
 40
0.9376953081
 40
0.9689262526
 40
1.0
 40
1.0
 40
1.0
 40
1.0
 10
12.3094470998
 20
7.2831521411
 30
0.0
 10
12.3123007934
 20
7.2859086093
 30
0.0
 10
12.3181189983
 20
7.2913092886
 30
0.0
 10
12.3271623308
 20
7.2990579224
 30
0.0
 10
12.3365101243
 20
7.3064445161
 30
0.0
 10
12.3461494167
 20
7.3134586312
 30
0.0
 10
12.3560669135
 20
7.3200907651
 30
0.0
 10
12.3662490018
 20
7.3263317118
 30
0.0
 10
12.3766816557
 20
7.3321729093
 30
0.0
 10
12.387350496
 20
7.3376063659
 30
0.0
 10
12.3982408841
 20
7.3426245189
 30
0.0
 10
12.4093377803
 20
7.3472205841
 30
0.0
 10
12.4206259563
 20
7.3513881454
 30
0.0
 10
12.4320898553
 20
7.3551215316
 30
0.0
 10
12.4437137044
 20
7.3584156244
 30
0.0
 10
12.4554815237
 20
7.3612658288
 30
0.0
 10
12.4673771128
 20
7.3636683455
 30
0.0
 10
12.4793840724
 20
7.3656197611
 30
0.0
 10
12.4914860878
 20
7.3671174875
 30
0.0
 10
12.5077448347
 20
7.3685084225
 30
0.0
 10
12.5282280435
 20
7.3690998125
 30
0.0
 10
12.5528829705
 20
7.3679749975
 30
0.0
 10
12.5775128522
 20
7.365023512
 30
0.0
 10
12.6019814323
 20
7.3602617665
 30
0.0
 10
12.6261545763
 20
7.353716216
 30
0.0
 10
12.6498994968
 20
7.3454230389
 30
0.0
 10
12.6730858728
 20
7.335427974
 30
0.0
 10
12.6955864557
 20
7.3237860787
 30
0.0
 10
12.7172777877
 20
7.3105614178
 30
0.0
 10
12.7380408544
 20
7.2958266971
 30
0.0
 10
12.7577617323
 20
7.2796628712
 30
0.0
 10
12.7763322035
 20
7.2621587009
 30
0.0
 10
12.7936503435
 20
7.2434102747
 30
0.0
 10
12.8096210959
 20
7.2235205029
 30
0.0
 10
12.8241567682
 20
7.2025985353
 30
0.0
 10
12.8371775089
 20
7.1807591734
 30
0.0
 10
12.848611742
 20
7.1581222443
 30
0.0
 10
12.8583965553
 20
7.1348119663
 30
0.0
 10
12.8664780543
 20
7.110956232
 30
0.0
 10
12.8728117013
 20
7.0866861009
 30
0.0
 10
12.8773624184
 20
7.062134393
 30
0.0
 10
12.8801050669
 20
7.0374376642
 30
0.0
 10
12.8807193494
 20
7.0209204659
 30
0.0
 10
12.8807193494
 20
7.0126858639
 30
0.0
  0
SPLINE
  5
2FF
100
AcDbEntity
  8
0
100
AcDbSpline
 62
7
  6
CONTINUOUS
 70
0
 71
3
 72
84
 73
80
 74
0
 42
0.0000001
 43
0.0000001
 44
0.0000000001
 40
0.0
 40
0.0
 40
0.0
 40
0.0
 40
0.003689878
 40
0.0075219866
 40
0.0114998113
 40
0.0156262249
 40
0.0199036098
 40
0.0243338231
 40
0.0289183077
 40
0.0336581508
 40
0.0385540391
 40
0.0436063848
 40
0.0488153175
 40
0.0541806676
 40
0.0597020785
 40
0.0653789497
 40
0.0771953252
 40
0.0896216692
 40
0.1026468849
 40
0.1162575915
 40
0.1304384154
 40
0.1451722106
 40
0.1604402091
 40
0.176222153
 40
0.192496458
 40
0.2092403231
 40
0.2264298022
 40
0.2440399069
 40
0.2620447121
 40
0.2804174241
 40
0.2991304349
 40
0.3181554189
 40
0.3374634063
 40
0.3570248361
 40
0.3768096201
 40
0.396787225
 40
0.4169267324
 40
0.4371968925
 40
0.4575661957
 40
0.4984747551
 40
0.5393980874
 40
0.5597858309
 40
0.5800817518
 40
0.600254294
 40
0.6202721464
 40
0.6401043005
 40
0.6597201257
 40
0.6790894357
 40
0.6981825409
 40
0.7169703148
 40
0.7354242831
 40
0.7535166787
 40
0.7712205013
 40
0.7885096057
 40
0.8053587969
 40
0.8217438869
 40
0.837641779
 40
0.8530305976
 40
0.86788979
 40
0.8822002252
 40
0.8959443428
 40
0.9091063572
 40
0.9216724247
 40
0.9277283899
 40
0.9336312079
 40
0.9393797869
 40
0.9449732583
 40
0.9504109356
 40
0.9556923096
 40
0.960817157
 40
0.9657854681
 40
0.9705974908
 40
0.9752538008
 40
0.9797552559
 40
0.9841031477
 40
0.98829924
 40
0.9923456824
 40
0.9962449591
 40
1.0
 40
1.0
 40
1.0
 40
1.0
 10
13.3413242051
 20
8.1623695599
 30
0.0
 10
13.3404588505
 20
8.1634335579
 30
0.0
 10
13.3387396337
 20
8.1656393716
 30
0.0
 10
13.336240645
 20
8.1691081221
 30
0.0
 10
13.3337744338
 20
8.1727970806
 30
0.0
 10
13.3313420042
 20
8.1767046491
 30
0.0
 10
13.3289443612
 20
8.180829282
 30
0.0
 10
13.3265824381
 20
8.1851692666
 30
0.0
 10
13.3242571864
 20
8.1897228284
 30
0.0
 10
13.3219695952
 20
8.1944881169
 30
0.0
 10
13.3197205534
 20
8.1994631552
 30
0.0
 10
13.3175110068
 20
8.2046459059
 30
0.0
 10
13.3153418827
 20
8.2100342397
 30
0.0
 10
13.31321404
 20
8.2156259195
 30
0.0
 10
13.3111283794
 20
8.2214186564
 30
0.0
 10
13.308367999
 20
8.2295155918
 30
0.0
 10
13.3050375915
 20
8.2401278564
 30
0.0
 10
13.3012742166
 20
8.2534604846
 30
0.0
 10
13.297698731
 20
8.2675337701
 30
0.0
 10
13.2943171009
 20
8.2823243962
 30
0.0
 10
13.2911349905
 20
8.297807977
 30
0.0
 10
13.2881577462
 20
8.3139589031
 30
0.0
 10
13.2853903715
 20
8.3307504389
 30
0.0
 10
13.2828374977
 20
8.348154751
 30
0.0
 10
13.2805034106
 20
8.3661429774
 30
0.0
 10
13.2783920408
 20
8.3846852767
 30
0.0
 10
13.2765069291
 20
8.4037508703
 30
0.0
 10
13.2748512317
 20
8.423308098
 30
0.0
 10
13.2734277321
 20
8.4433244815
 30
0.0
 10
13.2722388331
 20
8.4637667742
 30
0.0
 10
13.2712865226
 20
8.4846010124
 30
0.0
 10
13.2705723994
 20
8.5057925771
 30
0.0
 10
13.2700976745
 20
8.5273062566
 30
0.0
 10
13.2698631572
 20
8.5491062997
 30
0.0
 10
13.2698692391
 20
8.5711564742
 30
0.0
 10
13.2701159196
 20
8.5934201345
 30
0.0
 10
13.2706028114
 20
8.6158602706
 30
0.0
 10
13.2713290961
 20
8.6384396122
 30
0.0
 10
13.2726169057
 20
8.6687228207
 30
0.0
 10
13.2748150688
 20
8.7066485725
 30
0.0
 10
13.2777843912
 20
8.7445286216
 30
0.0
 10
13.280619287
 20
8.7747283518
 30
0.0
 10
13.2829657135
 20
8.7972260463
 30
0.0
 10
13.2855309748
 20
8.8195614448
 30
0.0
 10
13.2883108176
 20
8.8416974499
 30
0.0
 10
13.291300619
 20
8.8635972618
 30
0.0
 10
13.2944953976
 20
8.8852244866
 30
0.0
 10
13.2978898239
 20
8.9065431849
 30
0.0
 10
13.3014782449
 20
8.927517929
 30
0.0
 10
13.3052546919
 20
8.9481138635
 30
0.0
 10
13.3092128608
 20
8.9682967722
 30
0.0
 10
13.3133461493
 20
8.9880331291
 30
0.0
 10
13.3176476725
 20
9.0072901484
 30
0.0
 10
13.3221102626
 20
9.026035849
 30
0.0
 10
13.3267264645
 20
9.0442391139
 30
0.0
 10
13.3314885758
 20
9.0618697318
 30
0.0
 10
13.3363886624
 20
9.0788984467
 30
0.0
 10
13.3414185434
 20
9.0952970235
 30
0.0
 10
13.3465698163
 20
9.1110382987
 30
0.0
 10
13.3518338875
 20
9.1260962011
 30
0.0
 10
13.3572019906
 20
9.1404458549
 30
0.0
 10
13.3626651618
 20
9.1540634721
 30
0.0
 10
13.3673452031
 20
9.164912301
 30
0.0
 10
13.3711353717
 20
9.1732027894
 30
0.0
 10
13.3739610666
 20
9.1791471767
 30
0.0
 10
13.3768037082
 20
9.1848923079
 30
0.0
 10
13.3796621113
 20
9.1904358197
 30
0.0
 10
13.3825350738
 20
9.1957754249
 30
0.0
 10
13.3854214468
 20
9.2009089013
 30
0.0
 10
13.3883200014
 20
9.2058341509
 30
0.0
 10
13.3912295553
 20
9.2105491415
 30
0.0
 10
13.3941489327
 20
9.2150519127
 30
0.0
 10
13.3970768795
 20
9.2193406292
 30
0.0
 10
13.4000122236
 20
9.2234135137
 30
0.0
 10
13.4029537976
 20
9.2272689152
 30
0.0
 10
13.4059004155
 20
9.2309053101
 30
0.0
 10
13.4088509526
 20
9.2343211769
 30
0.0
 10
13.4118040196
 20
9.2375149794
 30
0.0
 10
13.4138108523
 20
9.2395327061
 30
0.0
 10
13.4148147088
 20
9.2405023571
 30
0.0
  0
SPLINE
  5
300
100
AcDbEntity
  8
0
100
AcDbSpline
 62
7
  6
CONTINUOUS
 70
0
 71
3
 72
23
 73
19
 74
0
 42
0.0000001
 43
0.0000001
 44
0.0000000001
 40
0.0
 40
0.0
 40
0.0
 40
0.0
 40
0.063776909
 40
0.1273449468
 40
0.1907019575
 40
0.2538561145
 40
0.3168131979
 40
0.3795820804
 40
0.4421733815
 40
0.5045993354
 40
0.5668738682
 40
0.6290123838
 40
0.6910316538
 40
0.75294965
 40
0.8147853622
 40
0.8765586114
 40
0.9382898593
 40
1.0
 40
1.0
 40
1.0
 40
1.0
 10
12.2161623415
 20
7.0587730489
 30
0.0
 10
12.2161623415
 20
7.0640804977
 30
0.0
 10
12.2164163855
 20
7.0746798113
 30
0.0
 10
12.2175629618
 20
7.0905142962
 30
0.0
 10
12.219472044
 20
7.106223274
 30
0.0
 10
12.2221390441
 20
7.1217698456
 30
0.0
 10
12.2255580163
 20
7.1371184785
 30
0.0
 10
12.2297210533
 20
7.1522336917
 30
0.0
 10
12.234618579
 20
7.1670806645
 30
0.0
 10
12.2402393446
 20
7.1816251592
 30
0.0
 10
12.2465704393
 20
7.1958336222
 30
0.0
 10
12.2535972922
 20
7.2096732803
 30
0.0
 10
12.2613036991
 20
7.2231122177
 30
0.0
 10
12.2696719156
 20
7.2361194409
 30
0.0
 10
12.2786826476
 20
7.2486649039
 30
0.0
 10
12.2883152359
 20
7.2607197546
 30
0.0
 10
12.2985470719
 20
7.2722558169
 30
0.0
 10
12.3057534083
 20
7.2795842937
 30
0.0
 10
12.3094470998
 20
7.2831521411
 30
0.0
  0
SPLINE
  5
301
100
AcDbEntity
  8
0
100
AcDbSpline
 62
7
  6
CONTINUOUS
 70
0
 71
3
 72
48
 73
44
 74
0
 42
0.0000001
 43
0.0000001
 44
0.0000000001
 40
0.0
 40
0.0
 40
0.0
 40
0.0
 40
0.0149718897
 40
0.0299468369
 40
0.0449278839
 40
0.0599180336
 40
0.0749202322
 40
0.0899373568
 40
0.1049721887
 40
0.1200274064
 40
0.1351055645
 40
0.1502090774
 40
0.1653402142
 40
0.180501073
 40
0.1956935825
 40
0.2109194836
 40
0.2261803205
 40
0.2414774416
 40
0.2568119786
 40
0.2721848576
 40
0.3030428416
 40
0.3340598877
 40
0.365235493
 40
0.3965657058
 40
0.4280432614
 40
0.4596577825
 40
0.4913960356
 40
0.5232422374
 40
0.5551784039
 40
0.5871847345
 40
0.6192400218
 40
0.6513220815
 40
0.6834081967
 40
0.7154755701
 40
0.7475017768
 40
0.7794652126
 40
0.8113455287
 40
0.8431240501
 40
0.8747841728
 40
0.9063117021
 40
0.9376953081
 40
0.9689262526
 40
1.0
 40
1.0
 40
1.0
 40
1.0
 10
12.7874345911
 20
6.7883067717
 30
0.0
 10
12.7845808975
 20
6.7855503035
 30
0.0
 10
12.7787626926
 20
6.7801496243
 30
0.0
 10
12.7697193601
 20
6.7724009905
 30
0.0
 10
12.7603715667
 20
6.7650143967
 30
0.0
 10
12.7507322742
 20
6.7580002816
 30
0.0
 10
12.7408147774
 20
6.7513681477
 30
0.0
 10
12.7306326892
 20
6.745127201
 30
0.0
 10
12.7202000352
 20
6.7392860035
 30
0.0
 10
12.7095311949
 20
6.7338525469
 30
0.0
 10
12.6986408068
 20
6.728834394
 30
0.0
 10
12.6875439106
 20
6.7242383288
 30
0.0
 10
12.6762557346
 20
6.7200707675
 30
0.0
 10
12.6647918356
 20
6.7163373812
 30
0.0
 10
12.6531679865
 20
6.7130432884
 30
0.0
 10
12.6414001672
 20
6.7101930841
 30
0.0
 10
12.6295045781
 20
6.7077905674
 30
0.0
 10
12.6174976185
 20
6.7058391518
 30
0.0
 10
12.6053956031
 20
6.7043414253
 30
0.0
 10
12.5891368562
 20
6.7029504903
 30
0.0
 10
12.5686536475
 20
6.7023591003
 30
0.0
 10
12.5439987204
 20
6.7034839154
 30
0.0
 10
12.5193688388
 20
6.7064354008
 30
0.0
 10
12.4949002587
 20
6.7111971463
 30
0.0
 10
12.4707271146
 20
6.7177426968
 30
0.0
 10
12.4469821941
 20
6.726035874
 30
0.0
 10
12.4237958181
 20
6.7360309388
 30
0.0
 10
12.4012952352
 20
6.7476728342
 30
0.0
 10
12.3796039032
 20
6.7608974951
 30
0.0
 10
12.3588408365
 20
6.7756322157
 30
0.0
 10
12.3391199586
 20
6.7917960417
 30
0.0
 10
12.3205494874
 20
6.8093002119
 30
0.0
 10
12.3032313474
 20
6.8280486381
 30
0.0
 10
12.287260595
 20
6.84793841
 30
0.0
 10
12.2727249227
 20
6.8688603775
 30
0.0
 10
12.259704182
 20
6.8906997394
 30
0.0
 10
12.2482699489
 20
6.9133366686
 30
0.0
 10
12.2384851356
 20
6.9366469466
 30
0.0
 10
12.2304036366
 20
6.9605026809
 30
0.0
 10
12.2240699896
 20
6.984772812
 30
0.0
 10
12.2195192725
 20
7.0093245198
 30
0.0
 10
12.216776624
 20
7.0340212487
 30
0.0
 10
12.2161623415
 20
7.050538447
 30
0.0
 10
12.2161623415
 20
7.0587730489
 30
0.0
  0
SPLINE
  5
302
100
AcDbEntity
  8
0
100
AcDbSpline
 62
7
  6
CONTINUOUS
 70
0
 71
3
 72
31
 73
27
 74
0
 42
0.0000001
 43
0.0000001
 44
0.0000000001
 40
0.0
 40
0.0
 40
0.0
 40
0.0
 40
0.0755818686
 40
0.1466093061
 40
0.2134209224
 40
0.2764570489
 40
0.3362571961
 40
0.3651531852
 40
0.3934909416
 40
0.4213671445
 40
0.448883747
 40
0.4761472115
 40
0.5032672574
 40
0.5303554546
 40
0.5575238437
 40
0.5848833633
 40
0.6125424394
 40
0.6406057941
 40
0.6691731698
 40
0.6983385489
 40
0.7281897856
 40
0.7902477636
 40
0.8559386051
 40
0.8903028488
 40
0.9257413984
 40
1.0
 40
1.0
 40
1.0
 40
1.0
 10
13.4148147088
 20
8.1586653675
 30
0.0
 10
13.4132582973
 20
8.1571619894
 30
0.0
 10
13.4101475804
 20
8.1543382005
 30
0.0
 10
13.4053334523
 20
8.1505658524
 30
0.0
 10
13.4005248829
 20
8.1473975616
 30
0.0
 10
13.3957267671
 20
8.1448382816
 30
0.0
 10
13.3916937954
 20
8.1431981341
 30
0.0
 10
13.3884905804
 20
8.1422092585
 30
0.0
 10
13.3861220936
 20
8.1416301498
 30
0.0
 10
13.3837611884
 20
8.1412055244
 30
0.0
 10
13.3814085142
 20
8.1409355961
 30
0.0
 10
13.3790648356
 20
8.1408205216
 30
0.0
 10
13.3767309107
 20
8.1408603337
 30
0.0
 10
13.374407507
 20
8.1410550604
 30
0.0
 10
13.3720954
 20
8.1414046736
 30
0.0
 10
13.3697953392
 20
8.1419089757
 30
0.0
 10
13.3675080521
 20
8.1425677511
 30
0.0
 10
13.3652342548
 20
8.1433807779
 30
0.0
 10
13.362974627
 20
8.1443476939
 30
0.0
 10
13.3607297519
 20
8.1454681373
 30
0.0
 10
13.3577185029
 20
8.1471882982
 30
0.0
 10
13.3539877974
 20
8.1497413147
 30
0.0
 10
13.3504207323
 20
8.1527208207
 30
0.0
 10
13.3476047419
 20
8.155390148
 30
0.0
 10
13.3447267124
 20
8.158345772
 30
0.0
 10
13.342665668
 20
8.1607201622
 30
0.0
 10
13.3413242051
 20
8.1623695599
 30
0.0
  0
SPLINE
  5
303
100
AcDbEntity
  8
0
100
AcDbSpline
 62
7
  6
CONTINUOUS
 70
0
 71
3
 72
102
 73
98
 74
0
 42
0.0000001
 43
0.0000001
 44
0.0000000001
 40
0.0
 40
0.0
 40
0.0
 40
0.0
 40
0.0039487735
 40
0.0077208628
 40
0.0113255708
 40
0.0147744597
 40
0.0180811194
 40
0.0212612574
 40
0.0243327758
 40
0.0273158399
 40
0.0302326898
 40
0.0331072537
 40
0.0359646284
 40
0.0388303986
 40
0.041729907
 40
0.0446875567
 40
0.0477262097
 40
0.050866775
 40
0.0541279809
 40
0.0575262667
 40
0.0610758958
 40
0.0647890046
 40
0.0686758781
 40
0.0727450578
 40
0.0770036033
 40
0.0814572474
 40
0.0861105455
 40
0.0909670825
 40
0.0960295
 40
0.1012997271
 40
0.1067789468
 40
0.1124677827
 40
0.1183662937
 40
0.1244740555
 40
0.1307902346
 40
0.1373135572
 40
0.1440424522
 40
0.1509749554
 40
0.1581088595
 40
0.1654416364
 40
0.17297052
 40
0.1806925071
 40
0.1886043428
 40
0.1967026059
 40
0.2134433093
 40
0.2308835645
 40
0.2489893226
 40
0.2677241204
 40
0.2870493147
 40
0.3069242922
 40
0.3273066657
 40
0.348152454
 40
0.3694162515
 40
0.391051391
 40
0.4130101002
 40
0.4352436563
 40
0.4577025352
 40
0.4803365621
 40
0.5030950601
 40
0.5259269973
 40
0.5487811327
 40
0.5716061623
 40
0.5943508641
 40
0.6169642447
 40
0.639395686
 40
0.6615950934
 40
0.6835130429
 40
0.705100931
 40
0.7263111247
 40
0.7470971167
 40
0.7674136824
 40
0.7872170437
 40
0.8064650431
 40
0.8251173242
 40
0.8431355253
 40
0.8604834931
 40
0.8771275226
 40
0.8851759155
 40
0.89303695
 40
0.9007072225
 40
0.9081835778
 40
0.9154630384
 40
0.9225429338
 40
0.929420796
 40
0.9360944922
 40
0.9425621665
 40
0.9488223049
 40
0.9548737767
 40
0.9607158171
 40
0.9663481728
 40
0.9717710193
 40
0.976985125
 40
0.9819918304
 40
0.9867932927
 40
0.991392533
 40
0.9957932766
 40
1.0
 40
1.0
 40
1.0
 40
1.0
 10
13.4161839978
 20
9.2418008399
 30
0.0
 10
13.4173393401
 20
9.2428760656
 30
0.0
 10
13.4196490285
 20
9.2449249479
 30
0.0
 10
13.4231930143
 20
9.2477447869
 30
0.0
 10
13.4267333383
 20
9.2502370914
 30
0.0
 10
13.430267943
 20
9.2524001473
 30
0.0
 10
13.4337951259
 20
9.2542323684
 30
0.0
 10
13.4373129833
 20
9.2557323274
 30
0.0
 10
13.4408195532
 20
9.2568985067
 30
0.0
 10
13.4443126447
 20
9.2577295367
 30
0.0
 10
13.4477898337
 20
9.2582243155
 30
0.0
 10
13.4512484625
 20
9.2583818928
 30
0.0
 10
13.4546856611
 20
9.2582019886
 30
0.0
 10
13.4580984837
 20
9.2576845628
 30
0.0
 10
13.4614840995
 20
9.2568303893
 30
0.0
 10
13.4648398652
 20
9.2556404577
 30
0.0
 10
13.4681634583
 20
9.2541162271
 30
0.0
 10
13.4714528358
 20
9.2522592929
 30
0.0
 10
13.4747061369
 20
9.2500713088
 30
0.0
 10
13.4779217397
 20
9.2475540975
 30
0.0
 10
13.48109796
 20
9.2447093731
 30
0.0
 10
13.4842333035
 20
9.2415390937
 30
0.0
 10
13.4873261081
 20
9.2380451613
 30
0.0
 10
13.4903748293
 20
9.2342297233
 30
0.0
 10
13.4933778195
 20
9.2300950078
 30
0.0
 10
13.4963334355
 20
9.2256434326
 30
0.0
 10
13.4992400718
 20
9.2208776112
 30
0.0
 10
13.5020960181
 20
9.2158002968
 30
0.0
 10
13.5048997134
 20
9.2104144908
 30
0.0
 10
13.5076494505
 20
9.2047233224
 30
0.0
 10
13.510343688
 20
9.1987301626
 30
0.0
 10
13.5129807921
 20
9.1924385312
 30
0.0
 10
13.5155592203
 20
9.1858521541
 30
0.0
 10
13.5180774498
 20
9.1789749335
 30
0.0
 10
13.5205339441
 20
9.1718109446
 30
0.0
 10
13.5229272905
 20
9.1643644531
 30
0.0
 10
13.5252559926
 20
9.1566398804
 30
0.0
 10
13.5275187188
 20
9.1486418355
 30
0.0
 10
13.5297140605
 20
9.1403750801
 30
0.0
 10
13.531840734
 20
9.1318445493
 30
0.0
 10
13.5338974527
 20
9.1230553322
 30
0.0
 10
13.5358829661
 20
9.1140126803
 30
0.0
 10
13.5377961278
 20
9.1047219855
 30
0.0
 10
13.5402763382
 20
9.0918687981
 30
0.0
 10
13.5431788268
 20
9.0752198989
 30
0.0
 10
13.5463185604
 20
9.0545573823
 30
0.0
 10
13.5491447287
 20
9.0330456103
 30
0.0
 10
13.5516504848
 20
9.0107360349
 30
0.0
 10
13.553829739
 20
8.9876819232
 30
0.0
 10
13.5556772019
 20
8.963938387
 30
0.0
 10
13.5571883852
 20
8.9395621973
 30
0.0
 10
13.558359615
 20
8.9146116564
 30
0.0
 10
13.5591880385
 20
8.8891464515
 30
0.0
 10
13.5596716304
 20
8.8632275106
 30
0.0
 10
13.5598091975
 20
8.836916855
 30
0.0
 10
13.55960038
 20
8.8102774495
 30
0.0
 10
13.5590456538
 20
8.7833730511
 30
0.0
 10
13.55814633
 20
8.7562680549
 30
0.0
 10
13.5569045486
 20
8.7290273377
 30
0.0
 10
13.5553232738
 20
8.7017161023
 30
0.0
 10
13.5534062864
 20
8.6743997208
 30
0.0
 10
13.5511581748
 20
8.6471435775
 30
0.0
 10
13.5485843243
 20
8.6200129126
 30
0.0
 10
13.5456909032
 20
8.5930726649
 30
0.0
 10
13.5424848508
 20
8.566387315
 30
0.0
 10
13.5389738607
 20
8.5400207295
 30
0.0
 10
13.53516636
 20
8.5140360075
 30
0.0
 10
13.5310714907
 20
8.4884953287
 30
0.0
 10
13.5266990874
 20
8.4634598037
 30
0.0
 10
13.5220596543
 20
8.4389893265
 30
0.0
 10
13.5171643411
 20
8.4151424286
 30
0.0
 10
13.5120249153
 20
8.3919761369
 30
0.0
 10
13.5066537375
 20
8.3695458283
 30
0.0
 10
13.5010637301
 20
8.3479051062
 30
0.0
 10
13.4952683477
 20
8.3271056188
 30
0.0
 10
13.4892815333
 20
8.3071971016
 30
0.0
 10
13.4840886834
 20
8.2912149795
 30
0.0
 10
13.4798428902
 20
8.2789157742
 30
0.0
 10
13.4766553278
 20
8.2700464463
 30
0.0
 10
13.4734308258
 20
8.261434192
 30
0.0
 10
13.4701713423
 20
8.2530841392
 30
0.0
 10
13.4668787798
 20
8.2450012854
 30
0.0
 10
13.463555168
 20
8.2371904405
 30
0.0
 10
13.4602024443
 20
8.2296562734
 30
0.0
 10
13.4568226523
 20
8.2224032642
 30
0.0
 10
13.4534177954
 20
8.2154357339
 30
0.0
 10
13.4499898991
 20
8.2087578304
 30
0.0
 10
13.4465410414
 20
8.2023735081
 30
0.0
 10
13.4430732191
 20
8.1962865711
 30
0.0
 10
13.4395885522
 20
8.1905005939
 30
0.0
 10
13.4360890308
 20
8.1850190288
 30
0.0
 10
13.432576793
 20
8.1798450914
 30
0.0
 10
13.4290538559
 20
8.1749818327
 30
0.0
 10
13.4255222423
 20
8.1704320723
 30
0.0
 10
13.4219839187
 20
8.1661984187
 30
0.0
 10
13.4184410851
 20
8.1622835953
 30
0.0
 10
13.4160240387
 20
8.1598334905
 30
0.0
 10
13.4148147088
 20
8.1586653675
 30
0.0
  0
SPLINE
  5
304
100
AcDbEntity
  8
0
100
AcDbSpline
 62
7
  6
CONTINUOUS
 70
0
 71
3
 72
66
 73
62
 74
0
 42
0.0000001
 43
0.0000001
 44
0.0000000001
 40
0.0
 40
0.0
 40
0.0
 40
0.0
 40
0.0041271855
 40
0.0083939847
 40
0.0128018096
 40
0.0173517345
 40
0.0220444347
 40
0.0268803494
 40
0.0369820307
 40
0.0476563875
 40
0.0588995819
 40
0.0707051828
 40
0.0830644875
 40
0.0959669208
 40
0.10940011
 40
0.1233501365
 40
0.1378017235
 40
0.1527382394
 40
0.1681419384
 40
0.183993991
 40
0.2002745378
 40
0.2169628659
 40
0.2340373699
 40
0.2514756771
 40
0.269254728
 40
0.2873507541
 40
0.3057394243
 40
0.32439585
 40
0.3432946276
 40
0.381715054
 40
0.4207901711
 40
0.4603042237
 40
0.5000383464
 40
0.5397721182
 40
0.5792851225
 40
0.6183585009
 40
0.6567765046
 40
0.675673826
 40
0.6943286228
 40
0.7127155188
 40
0.7308096031
 40
0.7485865578
 40
0.7660226351
 40
0.7830947452
 40
0.7997805525
 40
0.8160584448
 40
0.8319076981
 40
0.8473084993
 40
0.8622419819
 40
0.8766904258
 40
0.8906372287
 40
0.9040670735
 40
0.9169660978
 40
0.9293219202
 40
0.9411239569
 40
0.9523635692
 40
0.9630342932
 40
0.9731323168
 40
0.9826567627
 40
0.99161032
 40
1.0
 40
1.0
 40
1.0
 40
1.0
 10
13.2890554267
 20
8.3094610569
 30
0.0
 10
13.2897660859
 20
8.310330994
 30
0.0
 10
13.2911855594
 20
8.3121215816
 30
0.0
 10
13.2932759215
 20
8.3149096653
 30
0.0
 10
13.2953619148
 20
8.3178433908
 30
0.0
 10
13.2974427542
 20
8.3209216838
 30
0.0
 10
13.2995177347
 20
8.324143412
 30
0.0
 10
13.3023162586
 20
8.3286950895
 30
0.0
 10
13.3057887016
 20
8.3347416284
 30
0.0
 10
13.3098616172
 20
8.342447832
 30
0.0
 10
13.3138929713
 20
8.350695228
 30
0.0
 10
13.3178767963
 20
8.3594717032
 30
0.0
 10
13.3218072584
 20
8.3687644553
 30
0.0
 10
13.3256784974
 20
8.3785598691
 30
0.0
 10
13.3294847959
 20
8.3888435541
 30
0.0
 10
13.3332205171
 20
8.3996003773
 30
0.0
 10
13.3368800792
 20
8.4108145006
 30
0.0
 10
13.3404580859
 20
8.422469379
 30
0.0
 10
13.3439492052
 20
8.4345478161
 30
0.0
 10
13.347348242
 20
8.4470319788
 30
0.0
 10
13.3506501797
 20
8.4599034199
 30
0.0
 10
13.3538500825
 20
8.4731431222
 30
0.0
 10
13.3569432168
 20
8.4867315122
 30
0.0
 10
13.3599250005
 20
8.5006484975
 30
0.0
 10
13.362790979
 20
8.5148735007
 30
0.0
 10
13.3655369321
 20
8.5293854802
 30
0.0
 10
13.3681587667
 20
8.5441629661
 30
0.0
 10
13.3706526013
 20
8.5591841155
 30
0.0
 10
13.3738193642
 20
8.5796190851
 30
0.0
 10
13.3774261833
 20
8.6056080217
 30
0.0
 10
13.3811670635
 20
8.6372365123
 30
0.0
 10
13.3843216311
 20
8.6692881642
 30
0.0
 10
13.3868711745
 20
8.7015733836
 30
0.0
 10
13.388800585
 20
8.7339013043
 30
0.0
 10
13.3900984986
 20
8.7660808024
 30
0.0
 10
13.3907572847
 20
8.7979215202
 30
0.0
 10
13.3907706964
 20
8.8241580134
 30
0.0
 10
13.3904536538
 20
8.8448329707
 30
0.0
 10
13.3900561286
 20
8.8600532151
 30
0.0
 10
13.3894982202
 20
8.8750496541
 30
0.0
 10
13.388780722
 20
8.8898001214
 30
0.0
 10
13.3879047416
 20
8.9042827904
 30
0.0
 10
13.3868715725
 20
8.9184762403
 30
0.0
 10
13.3856827485
 20
8.9323594796
 30
0.0
 10
13.3843400739
 20
8.9459119776
 30
0.0
 10
13.3828455213
 20
8.9591136983
 30
0.0
 10
13.3812013387
 20
8.9719451294
 30
0.0
 10
13.3794099918
 20
8.9843873114
 30
0.0
 10
13.3774741212
 20
8.9964218669
 30
0.0
 10
13.3753966542
 20
9.0080310331
 30
0.0
 10
13.3731806741
 20
9.0191976852
 30
0.0
 10
13.3708294752
 20
9.0299053653
 30
0.0
 10
13.3683466009
 20
9.0401383171
 30
0.0
 10
13.3657357089
 20
9.0498814986
 30
0.0
 10
13.3630007026
 20
9.0591206276
 30
0.0
 10
13.3601456533
 20
9.0678421991
 30
0.0
 10
13.3571747243
 20
9.0760335104
 30
0.0
 10
13.3540923313
 20
9.0836826837
 30
0.0
 10
13.3509028617
 20
9.0907788046
 30
0.0
 10
13.3476110009
 20
9.0973114414
 30
0.0
 10
13.3452760165
 20
9.1014170202
 30
0.0
 10
13.3440886119
 20
9.1033674586
 30
0.0
  0
SPLINE
  5
305
100
AcDbEntity
  8
0
100
AcDbSpline
 62
4
  6
CONTINUOUS
 70
0
 71
3
 72
403
 73
399
 74
0
 42
0.0000001
 43
0.0000001
 44
0.0000000001
 40
0.0
 40
0.0
 40
0.0
 40
0.0
 40
0.015625
 40
0.0234375
 40
0.03125
 40
0.0390625
 40
0.04296875
 40
0.046875
 40
0.05078125
 40
0.0546875
 40
0.056640625
 40
0.05859375
 40
0.0595703125
 40
0.060546875
 40
0.0615234375
 40
0.0620117188
 40
0.0622558594
 40
0.0625
 40
0.0627441406
 40
0.0629882812
 40
0.0634765625
 40
0.064453125
 40
0.0654296875
 40
0.06640625
 40
0.068359375
 40
0.0703125
 40
0.07421875
 40
0.078125
 40
0.08203125
 40
0.0859375
 40
0.09375
 40
0.1015625
 40
0.10546875
 40
0.109375
 40
0.11328125
 40
0.1171875
 40
0.119140625
 40
0.12109375
 40
0.1220703125
 40
0.123046875
 40
0.1240234375
 40
0.1245117188
 40
0.1247558594
 40
0.125
 40
0.1252441406
 40
0.1254882812
 40
0.1259765625
 40
0.126953125
 40
0.1279296875
 40
0.12890625
 40
0.130859375
 40
0.1328125
 40
0.13671875
 40
0.140625
 40
0.14453125
 40
0.1484375
 40
0.15625
 40
0.1640625
 40
0.16796875
 40
0.171875
 40
0.17578125
 40
0.1796875
 40
0.181640625
 40
0.18359375
 40
0.1845703125
 40
0.185546875
 40
0.1865234375
 40
0.1870117188
 40
0.1872558594
 40
0.1875
 40
0.1877441406
 40
0.1879882812
 40
0.1884765625
 40
0.189453125
 40
0.1904296875
 40
0.19140625
 40
0.193359375
 40
0.1953125
 40
0.19921875
 40
0.203125
 40
0.20703125
 40
0.2109375
 40
0.21875
 40
0.2265625
 40
0.23046875
 40
0.234375
 40
0.23828125
 40
0.2421875
 40
0.244140625
 40
0.24609375
 40
0.2470703125
 40
0.248046875
 40
0.2490234375
 40
0.2495117188
 40
0.2497558594
 40
0.25
 40
0.2502441406
 40
0.2504882812
 40
0.2509765625
 40
0.251953125
 40
0.2529296875
 40
0.25390625
 40
0.255859375
 40
0.2578125
 40
0.26171875
 40
0.265625
 40
0.26953125
 40
0.2734375
 40
0.28125
 40
0.2890625
 40
0.29296875
 40
0.296875
 40
0.30078125
 40
0.3046875
 40
0.306640625
 40
0.30859375
 40
0.3095703125
 40
0.310546875
 40
0.3115234375
 40
0.3120117188
 40
0.3122558594
 40
0.3125
 40
0.3127441406
 40
0.3129882812
 40
0.3134765625
 40
0.314453125
 40
0.3154296875
 40
0.31640625
 40
0.318359375
 40
0.3203125
 40
0.32421875
 40
0.328125
 40
0.33203125
 40
0.3359375
 40
0.34375
 40
0.3515625
 40
0.35546875
 40
0.359375
 40
0.36328125
 40
0.3671875
 40
0.369140625
 40
0.37109375
 40
0.3720703125
 40
0.373046875
 40
0.3740234375
 40
0.3745117188
 40
0.3747558594
 40
0.375
 40
0.3752441406
 40
0.3754882812
 40
0.3759765625
 40
0.376953125
 40
0.3779296875
 40
0.37890625
 40
0.380859375
 40
0.3828125
 40
0.38671875
 40
0.390625
 40
0.39453125
 40
0.3984375
 40
0.40625
 40
0.4140625
 40
0.41796875
 40
0.421875
 40
0.42578125
 40
0.4296875
 40
0.431640625
 40
0.43359375
 40
0.4345703125
 40
0.435546875
 40
0.4365234375
 40
0.4370117188
 40
0.4372558594
 40
0.4375
 40
0.4377441406
 40
0.4379882812
 40
0.4384765625
 40
0.439453125
 40
0.4404296875
 40
0.44140625
 40
0.443359375
 40
0.4453125
 40
0.44921875
 40
0.453125
 40
0.45703125
 40
0.4609375
 40
0.46875
 40
0.4765625
 40
0.48046875
 40
0.484375
 40
0.48828125
 40
0.4921875
 40
0.494140625
 40
0.49609375
 40
0.4970703125
 40
0.498046875
 40
0.4990234375
 40
0.4995117188
 40
0.4997558594
 40
0.5
 40
0.5002441406
 40
0.5004882812
 40
0.5009765625
 40
0.501953125
 40
0.5029296875
 40
0.50390625
 40
0.505859375
 40
0.5078125
 40
0.51171875
 40
0.515625
 40
0.51953125
 40
0.5234375
 40
0.53125
 40
0.5390625
 40
0.54296875
 40
0.546875
 40
0.55078125
 40
0.5546875
 40
0.556640625
 40
0.55859375
 40
0.5595703125
 40
0.560546875
 40
0.5615234375
 40
0.5620117188
 40
0.5622558594
 40
0.5625
 40
0.5627441406
 40
0.5629882812
 40
0.5634765625
 40
0.564453125
 40
0.5654296875
 40
0.56640625
 40
0.568359375
 40
0.5703125
 40
0.57421875
 40
0.578125
 40
0.58203125
 40
0.5859375
 40
0.59375
 40
0.6015625
 40
0.60546875
 40
0.609375
 40
0.61328125
 40
0.6171875
 40
0.619140625
 40
0.62109375
 40
0.6220703125
 40
0.623046875
 40
0.6240234375
 40
0.6245117188
 40
0.6247558594
 40
0.625
 40
0.6252441406
 40
0.6254882812
 40
0.6259765625
 40
0.626953125
 40
0.6279296875
 40
0.62890625
 40
0.630859375
 40
0.6328125
 40
0.63671875
 40
0.640625
 40
0.64453125
 40
0.6484375
 40
0.65625
 40
0.6640625
 40
0.66796875
 40
0.671875
 40
0.67578125
 40
0.6796875
 40
0.681640625
 40
0.68359375
 40
0.6845703125
 40
0.685546875
 40
0.6865234375
 40
0.6870117188
 40
0.6872558594
 40
0.6875
 40
0.6877441406
 40
0.6879882812
 40
0.6884765625
 40
0.689453125
 40
0.6904296875
 40
0.69140625
 40
0.693359375
 40
0.6953125
 40
0.69921875
 40
0.703125
 40
0.70703125
 40
0.7109375
 40
0.71875
 40
0.7265625
 40
0.73046875
 40
0.734375
 40
0.73828125
 40
0.7421875
 40
0.744140625
 40
0.74609375
 40
0.7470703125
 40
0.748046875
 40
0.7490234375
 40
0.7495117188
 40
0.7497558594
 40
0.75
 40
0.7502441406
 40
0.7504882812
 40
0.7509765625
 40
0.751953125
 40
0.7529296875
 40
0.75390625
 40
0.755859375
 40
0.7578125
 40
0.76171875
 40
0.765625
 40
0.76953125
 40
0.7734375
 40
0.78125
 40
0.7890625
 40
0.79296875
 40
0.796875
 40
0.80078125
 40
0.8046875
 40
0.806640625
 40
0.80859375
 40
0.8095703125
 40
0.810546875
 40
0.8115234375
 40
0.8120117188
 40
0.8122558594
 40
0.8125
 40
0.8127441406
 40
0.8129882812
 40
0.8134765625
 40
0.814453125
 40
0.8154296875
 40
0.81640625
 40
0.818359375
 40
0.8203125
 40
0.82421875
 40
0.828125
 40
0.83203125
 40
0.8359375
 40
0.84375
 40
0.8515625
 40
0.85546875
 40
0.859375
 40
0.86328125
 40
0.8671875
 40
0.869140625
 40
0.87109375
 40
0.8720703125
 40
0.873046875
 40
0.8740234375
 40
0.8745117188
 40
0.8747558594
 40
0.875
 40
0.8752441406
 40
0.8754882812
 40
0.8759765625
 40
0.876953125
 40
0.8779296875
 40
0.87890625
 40
0.880859375
 40
0.8828125
 40
0.88671875
 40
0.890625
 40
0.89453125
 40
0.8984375
 40
0.90625
 40
0.9140625
 40
0.91796875
 40
0.921875
 40
0.92578125
 40
0.9296875
 40
0.931640625
 40
0.93359375
 40
0.9345703125
 40
0.935546875
 40
0.9365234375
 40
0.9370117188
 40
0.9372558594
 40
0.9375
 40
0.9377441406
 40
0.9379882812
 40
0.9384765625
 40
0.939453125
 40
0.9404296875
 40
0.94140625
 40
0.943359375
 40
0.9453125
 40
0.94921875
 40
0.953125
 40
0.95703125
 40
0.9609375
 40
0.96875
 40
0.9765625
 40
0.984375
 40
1.0
 40
1.0
 40
1.0
 40
1.0
 10
10.6764764606
 20
7.6716957773
 30
0.0
 10
10.6708479811
 20
7.6715342365
 30
0.0
 10
10.6624052619
 20
7.6712919252
 30
0.0
 10
10.6511483029
 20
7.6709688435
 30
0.0
 10
10.6427055837
 20
7.6707265321
 30
0.0
 10
10.6356699842
 20
7.6705246063
 30
0.0
 10
10.6300415049
 20
7.6703630649
 30
0.0
 10
10.6258201449
 20
7.670241911
 30
0.0
 10
10.6215987866
 20
7.6701207487
 30
0.0
 10
10.6180809828
 20
7.6700198065
 30
0.0
 10
10.6152667514
 20
7.6699389935
 30
0.0
 10
10.6135078304
 20
7.6698886203
 30
0.0
 10
10.6121007539
 20
7.6698480128
 30
0.0
 10
10.6110452814
 20
7.669818403
 30
0.0
 10
10.6101662465
 20
7.6697910373
 30
0.0
 10
10.6095498906
 20
7.6697771622
 30
0.0
 10
10.6091992978
 20
7.6697609879
 30
0.0
 10
10.6089318163
 20
7.6697720852
 30
0.0
 10
10.6086816773
 20
7.6696943934
 30
0.0
 10
10.6083421093
 20
7.6696217749
 30
0.0
 10
10.6077506839
 20
7.6694802629
 30
0.0
 10
10.6069043169
 20
7.6692856468
 30
0.0
 10
10.6058893072
 20
7.6690488785
 30
0.0
 10
10.6045357407
 20
7.6687343152
 30
0.0
 10
10.602843858
 20
7.6683407249
 30
0.0
 10
10.6001368034
 20
7.6677111963
 30
0.0
 10
10.5967529997
 20
7.6669242115
 30
0.0
 10
10.592692429
 20
7.6659798615
 30
0.0
 10
10.5886318601
 20
7.665035503
 30
0.0
 10
10.5832177675
 20
7.6637763613
 30
0.0
 10
10.576450152
 20
7.6622024331
 30
0.0
 10
10.5696825363
 20
7.6606285056
 30
0.0
 10
10.5642684441
 20
7.6593693627
 30
0.0
 10
10.560207874
 20
7.6584250077
 30
0.0
 10
10.5561473073
 20
7.6574806445
 30
0.0
 10
10.5527634915
 20
7.6566937006
 30
0.0
 10
10.5500564615
 20
7.6560640887
 30
0.0
 10
10.5483645162
 20
7.6556707103
 30
0.0
 10
10.5470110782
 20
7.6553557121
 30
0.0
 10
10.5459956756
 20
7.6551202725
 30
0.0
 10
10.545150538
 20
7.6549214994
 30
0.0
 10
10.544556918
 20
7.6547874083
 30
0.0
 10
10.5442208663
 20
7.6547028995
 30
0.0
 10
10.5439599264
 20
7.654661731
 30
0.0
 10
10.5437330111
 20
7.654535653
 30
0.0
 10
10.5434185893
 20
7.6543971664
 30
0.0
 10
10.5428738806
 20
7.6541410156
 30
0.0
 10
10.5420928343
 20
7.6537823003
 30
0.0
 10
10.5411568163
 20
7.6533487539
 30
0.0
 10
10.53990836
 20
7.6527717707
 30
0.0
 10
10.5383479377
 20
7.6520501723
 30
0.0
 10
10.5358511792
 20
7.6508958213
 30
0.0
 10
10.5327302595
 20
7.6494528117
 30
0.0
 10
10.5289851437
 20
7.6477212306
 30
0.0
 10
10.5252400311
 20
7.6459896413
 30
0.0
 10
10.5202465466
 20
7.6436808585
 30
0.0
 10
10.5140046913
 20
7.6407948789
 30
0.0
 10
10.5077628357
 20
7.6379089
 30
0.0
 10
10.5027693517
 20
7.635600116
 30
0.0
 10
10.4990242376
 20
7.6338685302
 30
0.0
 10
10.4952791276
 20
7.6321369363
 30
0.0
 10
10.4921581897
 20
7.6306939663
 30
0.0
 10
10.4896614684
 20
7.6295395347
 30
0.0
 10
10.4881009514
 20
7.6288181413
 30
0.0
 10
10.4868526895
 20
7.6282407373
 30
0.0
 10
10.4859160776
 20
7.6278084765
 30
0.0
 10
10.4851368894
 20
7.6274457387
 30
0.0
 10
10.4845888637
 20
7.6271967688
 30
0.0
 10
10.4842797565
 20
7.6270467766
 30
0.0
 10
10.4840365162
 20
7.6269560402
 30
0.0
 10
10.4838368905
 20
7.6267821345
 30
0.0
 10
10.4835555095
 20
7.6265792706
 30
0.0
 10
10.483070181
 20
7.6262107422
 30
0.0
 10
10.4823731489
 20
7.6256913398
 30
0.0
 10
10.4815382964
 20
7.6250650321
 30
0.0
 10
10.4804246059
 20
7.6242310116
 30
0.0
 10
10.4790326823
 20
7.6231881244
 30
0.0
 10
10.4768054987
 20
7.6215197069
 30
0.0
 10
10.4740215555
 20
7.6194341157
 30
0.0
 10
10.470680808
 20
7.6169314359
 30
0.0
 10
10.4673400647
 20
7.6144287482
 30
0.0
 10
10.4628857389
 20
7.6110918341
 30
0.0
 10
10.4573178322
 20
7.6069206904
 30
0.0
 10
10.451749925
 20
7.6027495474
 30
0.0
 10
10.4472955999
 20
7.5994126323
 30
0.0
 10
10.4439548544
 20
7.5969099475
 30
0.0
 10
10.4406141155
 20
7.5944072567
 30
0.0
 10
10.4378301456
 20
7.5923216999
 30
0.0
 10
10.4356030163
 20
7.5906532122
 30
0.0
 10
10.4342109543
 20
7.5896105037
 30
0.0
 10
10.433097548
 20
7.5887761162
 30
0.0
 10
10.432261827
 20
7.58815093
 30
0.0
 10
10.4315675125
 20
7.5876280187
 30
0.0
 10
10.4310773325
 20
7.5872657543
 30
0.0
 10
10.430803725
 20
7.587052854
 30
0.0
 10
10.4305802217
 20
7.5869097768
 30
0.0
 10
10.4304266613
 20
7.5867032537
 30
0.0
 10
10.4301975172
 20
7.5864500202
 30
0.0
 10
10.429807882
 20
7.5859965505
 30
0.0
 10
10.4292453175
 20
7.5853541274
 30
0.0
 10
10.4285727837
 20
7.5845809123
 30
0.0
 10
10.4276751837
 20
7.5835507647
 30
0.0
 10
10.4265534878
 20
7.5822628044
 30
0.0
 10
10.4247586043
 20
7.580202222
 30
0.0
 10
10.4225150583
 20
7.577626441
 30
0.0
 10
10.4198227781
 20
7.5745355266
 30
0.0
 10
10.4171305046
 20
7.5714446061
 30
0.0
 10
10.4135408043
 20
7.5673233809
 30
0.0
 10
10.4090536797
 20
7.5621718486
 30
0.0
 10
10.4045665546
 20
7.5570203168
 30
0.0
 10
10.4009768552
 20
7.5528990908
 30
0.0
 10
10.3982845788
 20
7.5498081727
 30
0.0
 10
10.3955923095
 20
7.5467172494
 30
0.0
 10
10.3933487296
 20
7.5441414962
 30
0.0
 10
10.3915539152
 20
7.5420808571
 30
0.0
 10
10.3904320435
 20
7.540793041
 30
0.0
 10
10.3895348043
 20
7.5397625973
 30
0.0
 10
10.388861168
 20
7.5389902868
 30
0.0
 10
10.3883020531
 20
7.5383450335
 30
0.0
 10
10.3879062598
 20
7.5378966163
 30
0.0
 10
10.3876869825
 20
7.5376352874
 30
0.0
 10
10.3875031143
 20
7.5374536309
 30
0.0
 10
10.3873934421
 20
7.537217159
 30
0.0
 10
10.387221332
 20
7.5369209833
 30
0.0
 10
10.3869321975
 20
7.5363937674
 30
0.0
 10
10.3865128442
 20
7.5356452594
 30
0.0
 10
10.3860123185
 20
7.5347450561
 30
0.0
 10
10.3853440085
 20
7.5335454815
 30
0.0
 10
10.3845089437
 20
7.5320457747
 30
0.0
 10
10.3831726596
 20
7.5296463772
 30
0.0
 10
10.3815023664
 20
7.5266470845
 30
0.0
 10
10.379497988
 20
7.5230479529
 30
0.0
 10
10.3774936167
 20
7.5194488161
 30
0.0
 10
10.3748211191
 20
7.5146499688
 30
0.0
 10
10.3714804982
 20
7.5086514091
 30
0.0
 10
10.3681398765
 20
7.5026528497
 30
0.0
 10
10.36546738
 20
7.4978540018
 30
0.0
 10
10.3634630056
 20
7.4942548669
 30
0.0
 10
10.361458639
 20
7.4906557282
 30
0.0
 10
10.359788309
 20
7.4876564578
 30
0.0
 10
10.3584521
 20
7.4852570148
 30
0.0
 10
10.3576168441
 20
7.4837574237
 30
0.0
 10
10.3569489262
 20
7.4825576116
 30
0.0
 10
10.3564472025
 20
7.4816581339
 30
0.0
 10
10.3560315976
 20
7.4809073559
 30
0.0
 10
10.3557357715
 20
7.4803841921
 30
0.0
 10
10.3555743831
 20
7.480081524
 30
0.0
 10
10.3554317773
 20
7.4798649949
 30
0.0
 10
10.355371602
 20
7.4796084367
 30
0.0
 10
10.3552626156
 20
7.4792803216
 30
0.0
 10
10.3550852858
 20
7.4786996148
 30
0.0
 10
10.3548249537
 20
7.4778734349
 30
0.0
 10
10.3545155531
 20
7.4768805631
 30
0.0
 10
10.3541019718
 20
7.4755572426
 30
0.0
 10
10.3535853537
 20
7.4739029178
 30
0.0
 10
10.3527585644
 20
7.4712560955
 30
0.0
 10
10.3517251465
 20
7.4679475342
 30
0.0
 10
10.3504850155
 20
7.4639772749
 30
0.0
 10
10.3492448924
 20
7.4600070118
 30
0.0
 10
10.3475913922
 20
7.4547133291
 30
0.0
 10
10.345524518
 20
7.4480962251
 30
0.0
 10
10.3434576431
 20
7.4414791215
 30
0.0
 10
10.3418041441
 20
7.4361854383
 30
0.0
 10
10.3405640176
 20
7.4322151766
 30
0.0
 10
10.3393238995
 20
7.4282449119
 30
0.0
 10
10.3382904416
 20
7.4249363676
 30
0.0
 10
10.3374637338
 20
7.4222895107
 30
0.0
 10
10.3369469084
 20
7.4206352737
 30
0.0
 10
10.3365337526
 20
7.4193117731
 30
0.0
 10
10.336223052
 20
7.4183194515
 30
0.0
 10
10.335966787
 20
7.4174915501
 30
0.0
 10
10.3357821967
 20
7.4169139164
 30
0.0
 10
10.3356848435
 20
7.4165808776
 30
0.0
 10
10.3355889349
 20
7.4163394436
 30
0.0
 10
10.3355805374
 20
7.4160661101
 30
0.0
 10
10.3355388158
 20
7.4157127923
 30
0.0
 10
10.3354800252
 20
7.415089302
 30
0.0
 10
10.3353886031
 20
7.4142013119
 30
0.0
 10
10.3352820792
 20
7.4131345636
 30
0.0
 10
10.3351389357
 20
7.4117126378
 30
0.0
 10
10.334960387
 20
7.4099350917
 30
0.0
 10
10.3346744963
 20
7.4070910957
 30
0.0
 10
10.334317206
 20
7.4035360739
 30
0.0
 10
10.3338884262
 20
7.3992700593
 30
0.0
 10
10.3334596549
 20
7.3950040416
 30
0.0
 10
10.3328879568
 20
7.389316019
 30
0.0
 10
10.3321733354
 20
7.3822059905
 30
0.0
 10
10.3314587131
 20
7.3750959621
 30
0.0
 10
10.3308870163
 20
7.3694079393
 30
0.0
 10
10.3304582413
 20
7.3651419222
 30
0.0
 10
10.3300294751
 20
7.3608759053
 30
0.0
 10
10.3296721428
 20
7.3573208907
 30
0.0
 10
10.3293863376
 20
7.3544768801
 30
0.0
 10
10.3292075713
 20
7.3526993709
 30
0.0
 10
10.3290648745
 20
7.3512773695
 30
0.0
 10
10.328956986
 20
7.3502108521
 30
0.0
 10
10.3288698335
 20
7.3493221397
 30
0.0
 10
10.3288034209
 20
7.3486999387
 30
0.0
 10
10.3287739116
 20
7.3483445551
 30
0.0
 10
10.328728002
 20
7.3480775672
 30
0.0
 10
10.3287729825
 20
7.3478123
 30
0.0
 10
10.3288012531
 20
7.3474580102
 30
0.0
 10
10.3288654978
 20
7.3468382827
 30
0.0
 10
10.3289495534
 20
7.3459528115
 30
0.0
 10
10.3290537256
 20
7.3448903086
 30
0.0
 10
10.3291914673
 20
7.3434736162
 30
0.0
 10
10.3293640398
 20
7.3417027582
 30
0.0
 10
10.3296399349
 20
7.3388693812
 30
0.0
 10
10.3299848795
 20
7.3353276614
 30
0.0
 10
10.3303987806
 20
7.3310775971
 30
0.0
 10
10.3308126904
 20
7.3268275329
 30
0.0
 10
10.331364567
 20
7.3211607805
 30
0.0
 10
10.3320544139
 20
7.3140773402
 30
0.0
 10
10.3327442601
 20
7.3069938997
 30
0.0
 10
10.3332961379
 20
7.3013271475
 30
0.0
 10
10.3337100441
 20
7.297077083
 30
0.0
 10
10.3341239586
 20
7.2928270197
 30
0.0
 10
10.3344688613
 20
7.2892852968
 30
0.0
 10
10.3347448419
 20
7.2864519261
 30
0.0
 10
10.3349171967
 20
7.2846810522
 30
0.0
 10
10.3350553853
 20
7.2832643924
 30
0.0
 10
10.3351581923
 20
7.2822017901
 30
0.0
 10
10.3352465193
 20
7.2813166297
 30
0.0
 10
10.3353031389
 20
7.2806963473
 30
0.0
 10
10.3353436268
 20
7.2803429466
 30
0.0
 10
10.3353510795
 20
7.2800749482
 30
0.0
 10
10.3354461185
 20
7.2798182183
 30
0.0
 10
10.335542286
 20
7.2794719811
 30
0.0
 10
10.3357248136
 20
7.2788678973
 30
0.0
 10
10.3359781254
 20
7.2780039631
 30
0.0
 10
10.3362852849
 20
7.2769676518
 30
0.0
 10
10.3366937183
 20
7.2755857603
 30
0.0
 10
10.3372046411
 20
7.273858445
 30
0.0
 10
10.3380219045
 20
7.271094713
 30
0.0
 10
10.3390435569
 20
7.2676400575
 30
0.0
 10
10.3402695085
 20
7.2634944668
 30
0.0
 10
10.3414954684
 20
7.2593488772
 30
0.0
 10
10.3431300787
 20
7.253821424
 30
0.0
 10
10.3451733427
 20
7.2469121077
 30
0.0
 10
10.3472166059
 20
7.2400027912
 30
0.0
 10
10.3488512174
 20
7.2344753383
 30
0.0
 10
10.3500771739
 20
7.2303297479
 30
0.0
 10
10.3513031383
 20
7.2261841602
 30
0.0
 10
10.3523247507
 20
7.2227294953
 30
0.0
 10
10.3531420957
 20
7.2199657823
 30
0.0
 10
10.3536528109
 20
7.2182384187
 30
0.0
 10
10.3540616703
 20
7.2168566263
 30
0.0
 10
10.3543675284
 20
7.2158200124
 30
0.0
 10
10.354624912
 20
7.2149570251
 30
0.0
 10
10.3548001707
 20
7.2143512509
 30
0.0
 10
10.3549079847
 20
7.2140077223
 30
0.0
 10
10.3549672495
 20
7.2137426724
 30
0.0
 10
10.3551090641
 20
7.2135059222
 30
0.0
 10
10.3552693559
 20
7.213180384
 30
0.0
 10
10.3555632824
 20
7.2126152915
 30
0.0
 10
10.3559761635
 20
7.2118056119
 30
0.0
 10
10.3564746229
 20
7.2108350255
 30
0.0
 10
10.3571381869
 20
7.2095405509
 30
0.0
 10
10.357968001
 20
7.2079225808
 30
0.0
 10
10.3592955028
 20
7.2053337598
 30
0.0
 10
10.3609549489
 20
7.2020977571
 30
0.0
 10
10.3629462546
 20
7.1982145437
 30
0.0
 10
10.3649375683
 20
7.1943313331
 30
0.0
 10
10.3675926505
 20
7.189153718
 30
0.0
 10
10.3709115042
 20
7.1826816994
 30
0.0
 10
10.3742303573
 20
7.1762096806
 30
0.0
 10
10.3768854405
 20
7.1710320659
 30
0.0
 10
10.378876751
 20
7.167148854
 30
0.0
 10
10.380868069
 20
7.1632656456
 30
0.0
 10
10.3825274769
 20
7.1600296274
 30
0.0
 10
10.3838550567
 20
7.1574408381
 30
0.0
 10
10.3846846723
 20
7.1558227871
 30
0.0
 10
10.3853486436
 20
7.1545284786
 30
0.0
 10
10.3858458586
 20
7.1535573847
 30
0.0
 10
10.3862626333
 20
7.1527492932
 30
0.0
 10
10.3865496089
 20
7.1521813656
 30
0.0
 10
10.3867210378
 20
7.1518603698
 30
0.0
 10
10.3868286429
 20
7.151609667
 30
0.0
 10
10.3870163928
 20
7.1513970208
 30
0.0
 10
10.3872387705
 20
7.1511002179
 30
0.0
 10
10.3876409565
 20
7.1505869977
 30
0.0
 10
10.3882086983
 20
7.1498505925
 30
0.0
 10
10.3888929032
 20
7.1489682903
 30
0.0
 10
10.3898041583
 20
7.147791404
 30
0.0
 10
10.3909435758
 20
7.1463204616
 30
0.0
 10
10.392766449
 20
7.1439668612
 30
0.0
 10
10.3950451074
 20
7.1410248925
 30
0.0
 10
10.3977794687
 20
7.1374945165
 30
0.0
 10
10.4005138377
 20
7.1339641441
 30
0.0
 10
10.4041596604
 20
7.1292569796
 30
0.0
 10
10.4087169397
 20
7.1233730244
 30
0.0
 10
10.4132742185
 20
7.1174890689
 30
0.0
 10
10.4169200421
 20
7.1127819051
 30
0.0
 10
10.4196544083
 20
7.1092515306
 30
0.0
 10
10.4223887801
 20
7.1057211624
 30
0.0
 10
10.4246674059
 20
7.1027791693
 30
0.0
 10
10.4264903456
 20
7.1004256187
 30
0.0
 10
10.4276295938
 20
7.0989545496
 30
0.0
 10
10.4285411963
 20
7.0977779234
 30
0.0
 10
10.42922434
 20
7.0968948262
 30
0.0
 10
10.4297954022
 20
7.0961609085
 30
0.0
 10
10.4301916607
 20
7.0956432478
 30
0.0
 10
10.4304235357
 20
7.0953535597
 30
0.0
 10
10.430582113
 20
7.0951190591
 30
0.0
 10
10.4307992855
 20
7.0949504377
 30
0.0
 10
10.4310684102
 20
7.0947026297
 30
0.0
 10
10.4315489012
 20
7.0942796723
 30
0.0
 10
10.4322303383
 20
7.09366985
 30
0.0
 10
10.4330501937
 20
7.0929404591
 30
0.0
 10
10.4341425901
 20
7.0919671011
 30
0.0
 10
10.4355083403
 20
7.0907506901
 30
0.0
 10
10.4376933983
 20
7.0888042723
 30
0.0
 10
10.4404247697
 20
7.0863713051
 30
0.0
 10
10.4437023944
 20
7.0834517209
 30
0.0
 10
10.4469800247
 20
7.0805321429
 30
0.0
 10
10.4513501965
 20
7.0766393701
 30
0.0
 10
10.4568129119
 20
7.071773405
 30
0.0
 10
10.4622756269
 20
7.0669074393
 30
0.0
 10
10.4666457994
 20
7.0630146674
 30
0.0
 10
10.4699234275
 20
7.0600950867
 30
0.0
 10
10.4732010603
 20
7.0571755128
 30
0.0
 10
10.4759324063
 20
7.0547425134
 30
0.0
 10
10.4781175162
 20
7.0527961612
 30
0.0
 10
10.4794831344
 20
7.0515795835
 30
0.0
 10
10.4805758018
 20
7.0506065676
 30
0.0
 10
10.4813948291
 20
7.0498761316
 30
0.0
 10
10.4820788572
 20
7.0492695791
 30
0.0
 10
10.4825547227
 20
7.0488407844
 30
0.0
 10
10.4828312586
 20
7.0486023293
 30
0.0
 10
10.4830256664
 20
7.0484049789
 30
0.0
 10
10.4832697441
 20
7.0482783798
 30
0.0
 10
10.4835778557
 20
7.0480849021
 30
0.0
 10
10.4841251231
 20
7.0477578145
 30
0.0
 10
10.4849027134
 20
7.0472845351
 30
0.0
 10
10.4858376282
 20
7.0467191729
 30
0.0
 10
10.4870835503
 20
7.0459644579
 30
0.0
 10
10.488641169
 20
7.0450213718
 30
0.0
 10
10.4911332382
 20
7.0435122621
 30
0.0
 10
10.494248366
 20
7.0416259341
 30
0.0
 10
10.4979865017
 20
7.0393623151
 30
0.0
 10
10.5017246422
 20
7.0370987029
 30
0.0
 10
10.5067088278
 20
7.0340805509
 30
0.0
 10
10.5129390604
 20
7.0303078618
 30
0.0
 10
10.5191692927
 20
7.0265351721
 30
0.0
 10
10.5241534788
 20
7.0235170211
 30
0.0
 10
10.5278916176
 20
7.0212534058
 30
0.0
 10
10.5316297596
 20
7.0189897983
 30
0.0
 10
10.5347448678
 20
7.0171034347
 30
0.0
 10
10.5372369772
 20
7.0155943973
 30
0.0
 10
10.5387944934
 20
7.0146511274
 30
0.0
 10
10.5400406258
 20
7.0138967899
 30
0.0
 10
10.5409748982
 20
7.0133302742
 30
0.0
 10
10.5417544985
 20
7.0128606038
 30
0.0
 10
10.5422981779
 20
7.0125270734
 30
0.0
 10
10.5426120383
 20
7.0123439188
 30
0.0
 10
10.5428384572
 20
7.0121856107
 30
0.0
 10
10.5430991886
 20
7.0121073537
 30
0.0
 10
10.5434348619
 20
7.0119750882
 30
0.0
 10
10.5440278665
 20
7.0117566334
 30
0.0
 10
10.5448721006
 20
7.0114377535
 30
0.0
 10
10.5458864293
 20
7.0110580089
 30
0.0
 10
10.5472384318
 20
7.0105506659
 30
0.0
 10
10.5489285842
 20
7.0099168354
 30
0.0
 10
10.5516327445
 20
7.0089025119
 30
0.0
 10
10.5550129736
 20
7.0076346743
 30
0.0
 10
10.5590692362
 20
7.0061132406
 30
0.0
 10
10.5631255021
 20
7.0045918145
 30
0.0
 10
10.5685338555
 20
7.0025632438
 30
0.0
 10
10.5752942977
 20
7.0000275313
 30
0.0
 10
10.5820547396
 20
6.9974918182
 30
0.0
 10
10.5874630934
 20
6.9954632485
 30
0.0
 10
10.5915193581
 20
6.9939418191
 30
0.0
 10
10.5955756252
 20
6.9924203979
 30
0.0
 10
10.5989558402
 20
6.9911525213
 30
0.0
 10
10.6016600294
 20
6.9901382773
 30
0.0
 10
10.6033501084
 20
6.9895042446
 30
0.0
 10
10.6047022615
 20
6.9889973166
 30
0.0
 10
10.6057161302
 20
6.988616304
 30
0.0
 10
10.6065618036
 20
6.9883013914
 30
0.0
 10
10.6071522387
 20
6.9880758543
 30
0.0
 10
10.607492029
 20
6.9879549365
 30
0.0
 10
10.6077401142
 20
6.9878418231
 30
0.0
 10
10.6080140303
 20
6.9878144295
 30
0.0
 10
10.6083702416
 20
6.9877480046
 30
0.0
 10
10.6089978094
 20
6.987645692
 30
0.0
 10
10.60989214
 20
6.9874922478
 30
0.0
 10
10.6109662762
 20
6.9873112323
 30
0.0
 10
10.6123981297
 20
6.9870687895
 30
0.0
 10
10.6141880589
 20
6.9867661088
 30
0.0
 10
10.6170518829
 20
6.9862816112
 30
0.0
 10
10.6206316843
 20
6.9856760608
 30
0.0
 10
10.6249274369
 20
6.9849493696
 30
0.0
 10
10.6292231919
 20
6.9842226866
 30
0.0
 10
10.6349508643
 20
6.9832537731
 30
0.0
 10
10.6421104552
 20
6.9820426323
 30
0.0
 10
10.6507019641
 20
6.9805892628
 30
0.0
 10
10.6621573094
 20
6.978651437
 30
0.0
 10
10.6707488184
 20
6.9771980676
 30
0.0
 10
10.676476491
 20
6.9762291546
 30
0.0
  0
SPLINE
  5
306
100
AcDbEntity
  8
0
100
AcDbSpline
 62
4
  6
CONTINUOUS
 70
0
 71
3
 72
403
 73
399
 74
0
 42
0.0000001
 43
0.0000001
 44
0.0000000001
 40
0.0
 40
0.0
 40
0.0
 40
0.0
 40
0.015625
 40
0.0234375
 40
0.03125
 40
0.0390625
 40
0.04296875
 40
0.046875
 40
0.05078125
 40
0.0546875
 40
0.056640625
 40
0.05859375
 40
0.0595703125
 40
0.060546875
 40
0.0615234375
 40
0.0620117188
 40
0.0622558594
 40
0.0625
 40
0.0627441406
 40
0.0629882812
 40
0.0634765625
 40
0.064453125
 40
0.0654296875
 40
0.06640625
 40
0.068359375
 40
0.0703125
 40
0.07421875
 40
0.078125
 40
0.08203125
 40
0.0859375
 40
0.09375
 40
0.1015625
 40
0.10546875
 40
0.109375
 40
0.11328125
 40
0.1171875
 40
0.119140625
 40
0.12109375
 40
0.1220703125
 40
0.123046875
 40
0.1240234375
 40
0.1245117188
 40
0.1247558594
 40
0.125
 40
0.1252441406
 40
0.1254882812
 40
0.1259765625
 40
0.126953125
 40
0.1279296875
 40
0.12890625
 40
0.130859375
 40
0.1328125
 40
0.13671875
 40
0.140625
 40
0.14453125
 40
0.1484375
 40
0.15625
 40
0.1640625
 40
0.16796875
 40
0.171875
 40
0.17578125
 40
0.1796875
 40
0.181640625
 40
0.18359375
 40
0.1845703125
 40
0.185546875
 40
0.1865234375
 40
0.1870117188
 40
0.1872558594
 40
0.1875
 40
0.1877441406
 40
0.1879882812
 40
0.1884765625
 40
0.189453125
 40
0.1904296875
 40
0.19140625
 40
0.193359375
 40
0.1953125
 40
0.19921875
 40
0.203125
 40
0.20703125
 40
0.2109375
 40
0.21875
 40
0.2265625
 40
0.23046875
 40
0.234375
 40
0.23828125
 40
0.2421875
 40
0.244140625
 40
0.24609375
 40
0.2470703125
 40
0.248046875
 40
0.2490234375
 40
0.2495117188
 40
0.2497558594
 40
0.25
 40
0.2502441406
 40
0.2504882812
 40
0.2509765625
 40
0.251953125
 40
0.2529296875
 40
0.25390625
 40
0.255859375
 40
0.2578125
 40
0.26171875
 40
0.265625
 40
0.26953125
 40
0.2734375
 40
0.28125
 40
0.2890625
 40
0.29296875
 40
0.296875
 40
0.30078125
 40
0.3046875
 40
0.306640625
 40
0.30859375
 40
0.3095703125
 40
0.310546875
 40
0.3115234375
 40
0.3120117188
 40
0.3122558594
 40
0.3125
 40
0.3127441406
 40
0.3129882812
 40
0.3134765625
 40
0.314453125
 40
0.3154296875
 40
0.31640625
 40
0.318359375
 40
0.3203125
 40
0.32421875
 40
0.328125
 40
0.33203125
 40
0.3359375
 40
0.34375
 40
0.3515625
 40
0.35546875
 40
0.359375
 40
0.36328125
 40
0.3671875
 40
0.369140625
 40
0.37109375
 40
0.3720703125
 40
0.373046875
 40
0.3740234375
 40
0.3745117188
 40
0.3747558594
 40
0.375
 40
0.3752441406
 40
0.3754882812
 40
0.3759765625
 40
0.376953125
 40
0.3779296875
 40
0.37890625
 40
0.380859375
 40
0.3828125
 40
0.38671875
 40
0.390625
 40
0.39453125
 40
0.3984375
 40
0.40625
 40
0.4140625
 40
0.41796875
 40
0.421875
 40
0.42578125
 40
0.4296875
 40
0.431640625
 40
0.43359375
 40
0.4345703125
 40
0.435546875
 40
0.4365234375
 40
0.4370117188
 40
0.4372558594
 40
0.4375
 40
0.4377441406
 40
0.4379882812
 40
0.4384765625
 40
0.439453125
 40
0.4404296875
 40
0.44140625
 40
0.443359375
 40
0.4453125
 40
0.44921875
 40
0.453125
 40
0.45703125
 40
0.4609375
 40
0.46875
 40
0.4765625
 40
0.48046875
 40
0.484375
 40
0.48828125
 40
0.4921875
 40
0.494140625
 40
0.49609375
 40
0.4970703125
 40
0.498046875
 40
0.4990234375
 40
0.4995117188
 40
0.4997558594
 40
0.5
 40
0.5002441406
 40
0.5004882812
 40
0.5009765625
 40
0.501953125
 40
0.5029296875
 40
0.50390625
 40
0.505859375
 40
0.5078125
 40
0.51171875
 40
0.515625
 40
0.51953125
 40
0.5234375
 40
0.53125
 40
0.5390625
 40
0.54296875
 40
0.546875
 40
0.55078125
 40
0.5546875
 40
0.556640625
 40
0.55859375
 40
0.5595703125
 40
0.560546875
 40
0.5615234375
 40
0.5620117188
 40
0.5622558594
 40
0.5625
 40
0.5627441406
 40
0.5629882812
 40
0.5634765625
 40
0.564453125
 40
0.5654296875
 40
0.56640625
 40
0.568359375
 40
0.5703125
 40
0.57421875
 40
0.578125
 40
0.58203125
 40
0.5859375
 40
0.59375
 40
0.6015625
 40
0.60546875
 40
0.609375
 40
0.61328125
 40
0.6171875
 40
0.619140625
 40
0.62109375
 40
0.6220703125
 40
0.623046875
 40
0.6240234375
 40
0.6245117188
 40
0.6247558594
 40
0.625
 40
0.6252441406
 40
0.6254882812
 40
0.6259765625
 40
0.626953125
 40
0.6279296875
 40
0.62890625
 40
0.630859375
 40
0.6328125
 40
0.63671875
 40
0.640625
 40
0.64453125
 40
0.6484375
 40
0.65625
 40
0.6640625
 40
0.66796875
 40
0.671875
 40
0.67578125
 40
0.6796875
 40
0.681640625
 40
0.68359375
 40
0.6845703125
 40
0.685546875
 40
0.6865234375
 40
0.6870117188
 40
0.6872558594
 40
0.6875
 40
0.6877441406
 40
0.6879882812
 40
0.6884765625
 40
0.689453125
 40
0.6904296875
 40
0.69140625
 40
0.693359375
 40
0.6953125
 40
0.69921875
 40
0.703125
 40
0.70703125
 40
0.7109375
 40
0.71875
 40
0.7265625
 40
0.73046875
 40
0.734375
 40
0.73828125
 40
0.7421875
 40
0.744140625
 40
0.74609375
 40
0.7470703125
 40
0.748046875
 40
0.7490234375
 40
0.7495117188
 40
0.7497558594
 40
0.75
 40
0.7502441406
 40
0.7504882812
 40
0.7509765625
 40
0.751953125
 40
0.7529296875
 40
0.75390625
 40
0.755859375
 40
0.7578125
 40
0.76171875
 40
0.765625
 40
0.76953125
 40
0.7734375
 40
0.78125
 40
0.7890625
 40
0.79296875
 40
0.796875
 40
0.80078125
 40
0.8046875
 40
0.806640625
 40
0.80859375
 40
0.8095703125
 40
0.810546875
 40
0.8115234375
 40
0.8120117188
 40
0.8122558594
 40
0.8125
 40
0.8127441406
 40
0.8129882812
 40
0.8134765625
 40
0.814453125
 40
0.8154296875
 40
0.81640625
 40
0.818359375
 40
0.8203125
 40
0.82421875
 40
0.828125
 40
0.83203125
 40
0.8359375
 40
0.84375
 40
0.8515625
 40
0.85546875
 40
0.859375
 40
0.86328125
 40
0.8671875
 40
0.869140625
 40
0.87109375
 40
0.8720703125
 40
0.873046875
 40
0.8740234375
 40
0.8745117188
 40
0.8747558594
 40
0.875
 40
0.8752441406
 40
0.8754882812
 40
0.8759765625
 40
0.876953125
 40
0.8779296875
 40
0.87890625
 40
0.880859375
 40
0.8828125
 40
0.88671875
 40
0.890625
 40
0.89453125
 40
0.8984375
 40
0.90625
 40
0.9140625
 40
0.91796875
 40
0.921875
 40
0.92578125
 40
0.9296875
 40
0.931640625
 40
0.93359375
 40
0.9345703125
 40
0.935546875
 40
0.9365234375
 40
0.9370117188
 40
0.9372558594
 40
0.9375
 40
0.9377441406
 40
0.9379882812
 40
0.9384765625
 40
0.939453125
 40
0.9404296875
 40
0.94140625
 40
0.943359375
 40
0.9453125
 40
0.94921875
 40
0.953125
 40
0.95703125
 40
0.9609375
 40
0.96875
 40
0.9765625
 40
0.984375
 40
1.0
 40
1.0
 40
1.0
 40
1.0
 10
10.6764764606
 20
6.9762291567
 30
0.0
 10
10.6821049401
 20
6.9763906976
 30
0.0
 10
10.6905476594
 20
6.9766330089
 30
0.0
 10
10.7018046183
 20
6.9769560906
 30
0.0
 10
10.7102473376
 20
6.977198402
 30
0.0
 10
10.717282937
 20
6.9774003278
 30
0.0
 10
10.7229114164
 20
6.9775618692
 30
0.0
 10
10.7271327763
 20
6.9776830231
 30
0.0
 10
10.7313541346
 20
6.9778041854
 30
0.0
 10
10.7348719384
 20
6.9779051276
 30
0.0
 10
10.7376861698
 20
6.9779859406
 30
0.0
 10
10.7394450908
 20
6.9780363138
 30
0.0
 10
10.7408521673
 20
6.9780769213
 30
0.0
 10
10.7419076399
 20
6.9781065311
 30
0.0
 10
10.7427866747
 20
6.9781338968
 30
0.0
 10
10.7434030306
 20
6.9781477719
 30
0.0
 10
10.7437536234
 20
6.9781639462
 30
0.0
 10
10.744021105
 20
6.9781528489
 30
0.0
 10
10.744271244
 20
6.9782305407
 30
0.0
 10
10.7446108119
 20
6.9783031591
 30
0.0
 10
10.7452022373
 20
6.9784446712
 30
0.0
 10
10.7460486043
 20
6.9786392873
 30
0.0
 10
10.747063614
 20
6.9788760556
 30
0.0
 10
10.7484171805
 20
6.9791906189
 30
0.0
 10
10.7501090633
 20
6.9795842091
 30
0.0
 10
10.7528161178
 20
6.9802137377
 30
0.0
 10
10.7561999215
 20
6.9810007225
 30
0.0
 10
10.7602604922
 20
6.9819450726
 30
0.0
 10
10.7643210612
 20
6.9828894311
 30
0.0
 10
10.7697351538
 20
6.9841485728
 30
0.0
 10
10.7765027692
 20
6.985722501
 30
0.0
 10
10.7832703849
 20
6.9872964285
 30
0.0
 10
10.7886844772
 20
6.9885555714
 30
0.0
 10
10.7927450472
 20
6.9894999264
 30
0.0
 10
10.796805614
 20
6.9904442896
 30
0.0
 10
10.8001894298
 20
6.9912312335
 30
0.0
 10
10.8028964597
 20
6.9918608454
 30
0.0
 10
10.8045884051
 20
6.9922542238
 30
0.0
 10
10.805941843
 20
6.9925692219
 30
0.0
 10
10.8069572456
 20
6.9928046616
 30
0.0
 10
10.8078023833
 20
6.9930034347
 30
0.0
 10
10.8083960033
 20
6.9931375258
 30
0.0
 10
10.8087320549
 20
6.9932220345
 30
0.0
 10
10.8089929948
 20
6.9932632031
 30
0.0
 10
10.8092199101
 20
6.9933892811
 30
0.0
 10
10.809534332
 20
6.9935277676
 30
0.0
 10
10.8100790407
 20
6.9937839185
 30
0.0
 10
10.8108600869
 20
6.9941426338
 30
0.0
 10
10.8117961049
 20
6.9945761801
 30
0.0
 10
10.8130445612
 20
6.9951531634
 30
0.0
 10
10.8146049836
 20
6.9958747618
 30
0.0
 10
10.817101742
 20
6.9970291128
 30
0.0
 10
10.8202226617
 20
6.9984721224
 30
0.0
 10
10.8239677776
 20
7.0002037035
 30
0.0
 10
10.8277128901
 20
7.0019352928
 30
0.0
 10
10.8327063747
 20
7.0042440756
 30
0.0
 10
10.8389482299
 20
7.0071300552
 30
0.0
 10
10.8451900855
 20
7.0100160341
 30
0.0
 10
10.8501835695
 20
7.012324818
 30
0.0
 10
10.8539286837
 20
7.0140564039
 30
0.0
 10
10.8576737936
 20
7.0157879977
 30
0.0
 10
10.8607947316
 20
7.0172309678
 30
0.0
 10
10.8632914528
 20
7.0183853994
 30
0.0
 10
10.8648519699
 20
7.0191067928
 30
0.0
 10
10.8661002317
 20
7.0196841968
 30
0.0
 10
10.8670368437
 20
7.0201164575
 30
0.0
 10
10.8678160318
 20
7.0204791954
 30
0.0
 10
10.8683640575
 20
7.0207281653
 30
0.0
 10
10.8686731647
 20
7.0208781575
 30
0.0
 10
10.868916405
 20
7.0209688939
 30
0.0
 10
10.8691160308
 20
7.0211427996
 30
0.0
 10
10.8693974117
 20
7.0213456635
 30
0.0
 10
10.8698827402
 20
7.0217141919
 30
0.0
 10
10.8705797724
 20
7.0222335943
 30
0.0
 10
10.8714146248
 20
7.022859902
 30
0.0
 10
10.8725283154
 20
7.0236939224
 30
0.0
 10
10.8739202389
 20
7.0247368097
 30
0.0
 10
10.8761474226
 20
7.0264052272
 30
0.0
 10
10.8789313658
 20
7.0284908184
 30
0.0
 10
10.8822721132
 20
7.0309934982
 30
0.0
 10
10.8856128565
 20
7.0334961858
 30
0.0
 10
10.8900671823
 20
7.0368331
 30
0.0
 10
10.8956350891
 20
7.0410042437
 30
0.0
 10
10.9012029962
 20
7.0451753867
 30
0.0
 10
10.9056573213
 20
7.0485123018
 30
0.0
 10
10.9089980669
 20
7.0510149866
 30
0.0
 10
10.9123388057
 20
7.0535176774
 30
0.0
 10
10.9151227756
 20
7.0556032341
 30
0.0
 10
10.9173499049
 20
7.0572717219
 30
0.0
 10
10.9187419669
 20
7.0583144303
 30
0.0
 10
10.9198553732
 20
7.0591488179
 30
0.0
 10
10.9206910942
 20
7.0597740041
 30
0.0
 10
10.9213854087
 20
7.0602969154
 30
0.0
 10
10.9218755888
 20
7.0606591798
 30
0.0
 10
10.9221491963
 20
7.0608720801
 30
0.0
 10
10.9223726995
 20
7.0610151573
 30
0.0
 10
10.92252626
 20
7.0612216804
 30
0.0
 10
10.922755404
 20
7.0614749139
 30
0.0
 10
10.9231450393
 20
7.0619283836
 30
0.0
 10
10.9237076038
 20
7.0625708067
 30
0.0
 10
10.9243801375
 20
7.0633440218
 30
0.0
 10
10.9252777376
 20
7.0643741693
 30
0.0
 10
10.9263994335
 20
7.0656621297
 30
0.0
 10
10.9281943169
 20
7.0677227121
 30
0.0
 10
10.9304378629
 20
7.0702984931
 30
0.0
 10
10.9331301431
 20
7.0733894075
 30
0.0
 10
10.9358224166
 20
7.076480328
 30
0.0
 10
10.939412117
 20
7.0806015532
 30
0.0
 10
10.9438992415
 20
7.0857530855
 30
0.0
 10
10.9483863667
 20
7.0909046173
 30
0.0
 10
10.9519760661
 20
7.0950258433
 30
0.0
 10
10.9546683425
 20
7.0981167614
 30
0.0
 10
10.9573606118
 20
7.1012076847
 30
0.0
 10
10.9596041916
 20
7.1037834379
 30
0.0
 10
10.961399006
 20
7.1058440769
 30
0.0
 10
10.9625208777
 20
7.1071318931
 30
0.0
 10
10.9634181169
 20
7.1081623367
 30
0.0
 10
10.9640917532
 20
7.1089346472
 30
0.0
 10
10.9646508681
 20
7.1095799006
 30
0.0
 10
10.9650466614
 20
7.1100283178
 30
0.0
 10
10.9652659387
 20
7.1102896467
 30
0.0
 10
10.9654498069
 20
7.1104713032
 30
0.0
 10
10.9655594792
 20
7.1107077751
 30
0.0
 10
10.9657315892
 20
7.1110039508
 30
0.0
 10
10.9660207237
 20
7.1115311666
 30
0.0
 10
10.966440077
 20
7.1122796747
 30
0.0
 10
10.9669406027
 20
7.1131798779
 30
0.0
 10
10.9676089127
 20
7.1143794526
 30
0.0
 10
10.9684439776
 20
7.1158791594
 30
0.0
 10
10.9697802616
 20
7.1182785569
 30
0.0
 10
10.9714505549
 20
7.1212778496
 30
0.0
 10
10.9734549333
 20
7.1248769811
 30
0.0
 10
10.9754593045
 20
7.128476118
 30
0.0
 10
10.9781318021
 20
7.1332749652
 30
0.0
 10
10.9814724231
 20
7.139273525
 30
0.0
 10
10.9848130447
 20
7.1452720844
 30
0.0
 10
10.9874855412
 20
7.1500709323
 30
0.0
 10
10.9894899157
 20
7.1536700672
 30
0.0
 10
10.9914942822
 20
7.1572692059
 30
0.0
 10
10.9931646123
 20
7.1602684763
 30
0.0
 10
10.9945008213
 20
7.1626679193
 30
0.0
 10
10.9953360772
 20
7.1641675104
 30
0.0
 10
10.996003995
 20
7.1653673225
 30
0.0
 10
10.9965057188
 20
7.1662668002
 30
0.0
 10
10.9969213237
 20
7.1670175782
 30
0.0
 10
10.9972171497
 20
7.1675407419
 30
0.0
 10
10.9973785381
 20
7.1678434101
 30
0.0
 10
10.9975211439
 20
7.1680599392
 30
0.0
 10
10.9975813192
 20
7.1683164974
 30
0.0
 10
10.9976903056
 20
7.1686446125
 30
0.0
 10
10.9978676354
 20
7.1692253192
 30
0.0
 10
10.9981279675
 20
7.1700514992
 30
0.0
 10
10.9984373682
 20
7.171044371
 30
0.0
 10
10.9988509495
 20
7.1723676915
 30
0.0
 10
10.9993675676
 20
7.1740220163
 30
0.0
 10
11.0001943569
 20
7.1766688386
 30
0.0
 10
11.0012277748
 20
7.1799773999
 30
0.0
 10
11.0024679057
 20
7.1839476592
 30
0.0
 10
11.0037080288
 20
7.1879179222
 30
0.0
 10
11.005361529
 20
7.193211605
 30
0.0
 10
11.0074284032
 20
7.1998287089
 30
0.0
 10
11.0094952781
 20
7.2064458126
 30
0.0
 10
11.0111487772
 20
7.2117394958
 30
0.0
 10
11.0123889036
 20
7.2157097575
 30
0.0
 10
11.0136290218
 20
7.2196800221
 30
0.0
 10
11.0146624796
 20
7.2229885665
 30
0.0
 10
11.0154891875
 20
7.2256354233
 30
0.0
 10
11.0160060129
 20
7.2272896604
 30
0.0
 10
11.0164191687
 20
7.228613161
 30
0.0
 10
11.0167298692
 20
7.2296054826
 30
0.0
 10
11.0169861342
 20
7.230433384
 30
0.0
 10
11.0171707245
 20
7.2310110177
 30
0.0
 10
11.0172680778
 20
7.2313440565
 30
0.0
 10
11.0173639863
 20
7.2315854904
 30
0.0
 10
11.0173723839
 20
7.231858824
 30
0.0
 10
11.0174141054
 20
7.2322121418
 30
0.0
 10
11.0174728961
 20
7.2328356321
 30
0.0
 10
11.0175643181
 20
7.2337236222
 30
0.0
 10
11.017670842
 20
7.2347903705
 30
0.0
 10
11.0178139855
 20
7.2362122963
 30
0.0
 10
11.0179925342
 20
7.2379898423
 30
0.0
 10
11.0182784249
 20
7.2408338384
 30
0.0
 10
11.0186357153
 20
7.2443888601
 30
0.0
 10
11.019064495
 20
7.2486548748
 30
0.0
 10
11.0194932663
 20
7.2529208925
 30
0.0
 10
11.0200649644
 20
7.258608915
 30
0.0
 10
11.0207795859
 20
7.2657189436
 30
0.0
 10
11.0214942081
 20
7.272828972
 30
0.0
 10
11.022065905
 20
7.2785169947
 30
0.0
 10
11.0224946799
 20
7.2827830118
 30
0.0
 10
11.0229234462
 20
7.2870490288
 30
0.0
 10
11.0232807785
 20
7.2906040434
 30
0.0
 10
11.0235665836
 20
7.2934480539
 30
0.0
 10
11.02374535
 20
7.2952255632
 30
0.0
 10
11.0238880468
 20
7.2966475645
 30
0.0
 10
11.0239959353
 20
7.297714082
 30
0.0
 10
11.0240830878
 20
7.2986027943
 30
0.0
 10
11.0241495003
 20
7.2992249953
 30
0.0
 10
11.0241790097
 20
7.299580379
 30
0.0
 10
11.0242249193
 20
7.2998473668
 30
0.0
 10
11.0241799387
 20
7.3001126341
 30
0.0
 10
11.0241516682
 20
7.3004669239
 30
0.0
 10
11.0240874235
 20
7.3010866514
 30
0.0
 10
11.0240033679
 20
7.3019721226
 30
0.0
 10
11.0238991956
 20
7.3030346255
 30
0.0
 10
11.0237614539
 20
7.3044513179
 30
0.0
 10
11.0235888814
 20
7.3062221759
 30
0.0
 10
11.0233129863
 20
7.3090555529
 30
0.0
 10
11.0229680417
 20
7.3125972727
 30
0.0
 10
11.0225541406
 20
7.316847337
 30
0.0
 10
11.0221402309
 20
7.3210974012
 30
0.0
 10
11.0215883543
 20
7.3267641535
 30
0.0
 10
11.0208985073
 20
7.3338475939
 30
0.0
 10
11.0202086611
 20
7.3409310343
 30
0.0
 10
11.0196567833
 20
7.3465977866
 30
0.0
 10
11.0192428772
 20
7.350847851
 30
0.0
 10
11.0188289626
 20
7.3550979144
 30
0.0
 10
11.0184840599
 20
7.3586396373
 30
0.0
 10
11.0182080793
 20
7.361473008
 30
0.0
 10
11.0180357245
 20
7.3632438819
 30
0.0
 10
11.0178975359
 20
7.3646605417
 30
0.0
 10
11.0177947289
 20
7.365723144
 30
0.0
 10
11.0177064019
 20
7.3666083043
 30
0.0
 10
11.0176497823
 20
7.3672285868
 30
0.0
 10
11.0176092944
 20
7.3675819875
 30
0.0
 10
11.0176018418
 20
7.3678499859
 30
0.0
 10
11.0175068028
 20
7.3681067158
 30
0.0
 10
11.0174106352
 20
7.368452953
 30
0.0
 10
11.0172281076
 20
7.3690570368
 30
0.0
 10
11.0169747959
 20
7.369920971
 30
0.0
 10
11.0166676363
 20
7.3709572823
 30
0.0
 10
11.0162592029
 20
7.3723391738
 30
0.0
 10
11.0157482802
 20
7.3740664891
 30
0.0
 10
11.0149310167
 20
7.3768302211
 30
0.0
 10
11.0139093643
 20
7.3802848766
 30
0.0
 10
11.0126834128
 20
7.3844304673
 30
0.0
 10
11.0114574528
 20
7.3885760569
 30
0.0
 10
11.0098228426
 20
7.3941035101
 30
0.0
 10
11.0077795786
 20
7.4010128264
 30
0.0
 10
11.0057363153
 20
7.4079221429
 30
0.0
 10
11.0041017039
 20
7.4134495958
 30
0.0
 10
11.0028757474
 20
7.4175951862
 30
0.0
 10
11.001649783
 20
7.4217407739
 30
0.0
 10
11.0006281706
 20
7.4251954388
 30
0.0
 10
10.9998108256
 20
7.4279591517
 30
0.0
 10
10.9993001104
 20
7.4296865154
 30
0.0
 10
10.998891251
 20
7.4310683078
 30
0.0
 10
10.9985853929
 20
7.4321049217
 30
0.0
 10
10.9983280093
 20
7.432967909
 30
0.0
 10
10.9981527505
 20
7.4335736832
 30
0.0
 10
10.9980449365
 20
7.4339172118
 30
0.0
 10
10.9979856717
 20
7.4341822617
 30
0.0
 10
10.9978438571
 20
7.4344190119
 30
0.0
 10
10.9976835653
 20
7.43474455
 30
0.0
 10
10.9973896388
 20
7.4353096426
 30
0.0
 10
10.9969767578
 20
7.4361193222
 30
0.0
 10
10.9964782983
 20
7.4370899086
 30
0.0
 10
10.9958147343
 20
7.4383843831
 30
0.0
 10
10.9949849203
 20
7.4400023533
 30
0.0
 10
10.9936574185
 20
7.4425911743
 30
0.0
 10
10.9919979724
 20
7.445827177
 30
0.0
 10
10.9900066666
 20
7.4497103903
 30
0.0
 10
10.9880153529
 20
7.453593601
 30
0.0
 10
10.9853602707
 20
7.4587712161
 30
0.0
 10
10.982041417
 20
7.4652432346
 30
0.0
 10
10.9787225639
 20
7.4717152535
 30
0.0
 10
10.9760674807
 20
7.4768928681
 30
0.0
 10
10.9740761703
 20
7.4807760801
 30
0.0
 10
10.9720848522
 20
7.4846592884
 30
0.0
 10
10.9704254443
 20
7.4878953067
 30
0.0
 10
10.9690978646
 20
7.4904840959
 30
0.0
 10
10.968268249
 20
7.492102147
 30
0.0
 10
10.9676042776
 20
7.4933964555
 30
0.0
 10
10.9671070627
 20
7.4943675494
 30
0.0
 10
10.9666902879
 20
7.4951756409
 30
0.0
 10
10.9664033123
 20
7.4957435685
 30
0.0
 10
10.9662318834
 20
7.4960645643
 30
0.0
 10
10.9661242783
 20
7.4963152671
 30
0.0
 10
10.9659365285
 20
7.4965279133
 30
0.0
 10
10.9657141507
 20
7.4968247162
 30
0.0
 10
10.9653119648
 20
7.4973379364
 30
0.0
 10
10.9647442229
 20
7.4980743416
 30
0.0
 10
10.9640600181
 20
7.4989566438
 30
0.0
 10
10.9631487629
 20
7.5001335301
 30
0.0
 10
10.9620093454
 20
7.5016044725
 30
0.0
 10
10.9601864722
 20
7.5039580729
 30
0.0
 10
10.9579078139
 20
7.5069000416
 30
0.0
 10
10.9551734525
 20
7.5104304176
 30
0.0
 10
10.9524390835
 20
7.51396079
 30
0.0
 10
10.9487932608
 20
7.5186679545
 30
0.0
 10
10.9442359815
 20
7.5245519096
 30
0.0
 10
10.9396787028
 20
7.5304358652
 30
0.0
 10
10.9360328792
 20
7.535143029
 30
0.0
 10
10.9332985129
 20
7.5386734035
 30
0.0
 10
10.9305641411
 20
7.5422037717
 30
0.0
 10
10.9282855154
 20
7.5451457648
 30
0.0
 10
10.9264625757
 20
7.5474993154
 30
0.0
 10
10.9253233274
 20
7.5489703845
 30
0.0
 10
10.9244117249
 20
7.5501470106
 30
0.0
 10
10.9237285812
 20
7.5510301079
 30
0.0
 10
10.923157519
 20
7.5517640256
 30
0.0
 10
10.9227612605
 20
7.5522816863
 30
0.0
 10
10.9225293855
 20
7.5525713744
 30
0.0
 10
10.9223708083
 20
7.552805875
 30
0.0
 10
10.9221536357
 20
7.5529744964
 30
0.0
 10
10.921884511
 20
7.5532223044
 30
0.0
 10
10.9214040201
 20
7.5536452618
 30
0.0
 10
10.920722583
 20
7.5542550841
 30
0.0
 10
10.9199027275
 20
7.554984475
 30
0.0
 10
10.9188103312
 20
7.555957833
 30
0.0
 10
10.9174445809
 20
7.557174244
 30
0.0
 10
10.9152595229
 20
7.5591206618
 30
0.0
 10
10.9125281515
 20
7.561553629
 30
0.0
 10
10.9092505268
 20
7.5644732132
 30
0.0
 10
10.9059728965
 20
7.5673927912
 30
0.0
 10
10.9016027248
 20
7.571285564
 30
0.0
 10
10.8961400093
 20
7.5761515291
 30
0.0
 10
10.8906772944
 20
7.5810174948
 30
0.0
 10
10.8863071219
 20
7.5849102667
 30
0.0
 10
10.8830294938
 20
7.5878298474
 30
0.0
 10
10.8797518609
 20
7.5907494213
 30
0.0
 10
10.877020515
 20
7.5931824207
 30
0.0
 10
10.8748354051
 20
7.5951287729
 30
0.0
 10
10.8734697869
 20
7.5963453506
 30
0.0
 10
10.8723771195
 20
7.5973183665
 30
0.0
 10
10.8715580921
 20
7.5980488025
 30
0.0
 10
10.870874064
 20
7.598655355
 30
0.0
 10
10.8703981985
 20
7.5990841497
 30
0.0
 10
10.8701216626
 20
7.5993226047
 30
0.0
 10
10.8699272548
 20
7.5995199552
 30
0.0
 10
10.8696831771
 20
7.5996465543
 30
0.0
 10
10.8693750656
 20
7.599840032
 30
0.0
 10
10.8688277982
 20
7.6001671195
 30
0.0
 10
10.8680502078
 20
7.600640399
 30
0.0
 10
10.867115293
 20
7.6012057612
 30
0.0
 10
10.8658693709
 20
7.6019604762
 30
0.0
 10
10.8643117522
 20
7.6029035623
 30
0.0
 10
10.8618196831
 20
7.6044126719
 30
0.0
 10
10.8587045552
 20
7.606299
 30
0.0
 10
10.8549664195
 20
7.608562619
 30
0.0
 10
10.851228279
 20
7.6108262312
 30
0.0
 10
10.8462440934
 20
7.6138443832
 30
0.0
 10
10.8400138608
 20
7.6176170723
 30
0.0
 10
10.8337836286
 20
7.621389762
 30
0.0
 10
10.8287994424
 20
7.624407913
 30
0.0
 10
10.8250613036
 20
7.6266715282
 30
0.0
 10
10.8213231616
 20
7.6289351358
 30
0.0
 10
10.8182080535
 20
7.6308214993
 30
0.0
 10
10.815715944
 20
7.6323305367
 30
0.0
 10
10.8141584278
 20
7.6332738067
 30
0.0
 10
10.8129122954
 20
7.6340281442
 30
0.0
 10
10.811978023
 20
7.6345946599
 30
0.0
 10
10.8111984228
 20
7.6350643303
 30
0.0
 10
10.8106547434
 20
7.6353978607
 30
0.0
 10
10.8103408829
 20
7.6355810153
 30
0.0
 10
10.8101144641
 20
7.6357393233
 30
0.0
 10
10.8098537326
 20
7.6358175804
 30
0.0
 10
10.8095180594
 20
7.6359498458
 30
0.0
 10
10.8089250547
 20
7.6361683007
 30
0.0
 10
10.8080808207
 20
7.6364871806
 30
0.0
 10
10.8070664919
 20
7.6368669252
 30
0.0
 10
10.8057144894
 20
7.6373742682
 30
0.0
 10
10.8040243371
 20
7.6380080987
 30
0.0
 10
10.8013201767
 20
7.6390224222
 30
0.0
 10
10.7979399476
 20
7.6402902598
 30
0.0
 10
10.793883685
 20
7.6418116935
 30
0.0
 10
10.7898274191
 20
7.6433331196
 30
0.0
 10
10.7844190657
 20
7.6453616903
 30
0.0
 10
10.7776586235
 20
7.6478974028
 30
0.0
 10
10.7708981816
 20
7.6504331159
 30
0.0
 10
10.7654898278
 20
7.6524616856
 30
0.0
 10
10.7614335632
 20
7.653983115
 30
0.0
 10
10.757377296
 20
7.6555045362
 30
0.0
 10
10.7539970811
 20
7.6567724127
 30
0.0
 10
10.7512928919
 20
7.6577866568
 30
0.0
 10
10.7496028129
 20
7.6584206895
 30
0.0
 10
10.7482506598
 20
7.6589276175
 30
0.0
 10
10.7472367911
 20
7.6593086301
 30
0.0
 10
10.7463911176
 20
7.6596235427
 30
0.0
 10
10.7458006825
 20
7.6598490798
 30
0.0
 10
10.7454608922
 20
7.6599699976
 30
0.0
 10
10.745212807
 20
7.6600831109
 30
0.0
 10
10.744938891
 20
7.6601105046
 30
0.0
 10
10.7445826797
 20
7.6601769295
 30
0.0
 10
10.7439551119
 20
7.6602792421
 30
0.0
 10
10.7430607812
 20
7.6604326863
 30
0.0
 10
10.741986645
 20
7.6606137017
 30
0.0
 10
10.7405547915
 20
7.6608561446
 30
0.0
 10
10.7387648623
 20
7.6611588253
 30
0.0
 10
10.7359010384
 20
7.6616433229
 30
0.0
 10
10.7323212369
 20
7.6622488733
 30
0.0
 10
10.7280254844
 20
7.6629755645
 30
0.0
 10
10.7237297294
 20
7.6637022474
 30
0.0
 10
10.7180020569
 20
7.6646711609
 30
0.0
 10
10.710842466
 20
7.6658823018
 30
0.0
 10
10.7022509571
 20
7.6673356713
 30
0.0
 10
10.6907956118
 20
7.6692734971
 30
0.0
 10
10.6822041029
 20
7.6707268665
 30
0.0
 10
10.6764764302
 20
7.6716957794
 30
0.0
  0
ENDSEC
  0
SECTION
  2
OBJECTS
  0
DICTIONARY
  5
C
100
AcDbDictionary
280
0
281
1
  3
ACAD_GROUP
350
D
  3
ACAD_MLINESTYLE
350
17
  3
ACAD_LAYOUT
350
1A
  3
ACAD_PLOTSETTINGS
350
19
  3
ACAD_PLOTSTYLENAME
350
E
  3
ACAD_IMAGE_DICT
350
       308
  3
ACAD_IMAGE_VARS
350
       309
  3
ACAD_TABLESTYLE
350
       30A
  0
IMAGEDEF_REACTOR
  5
307
100
AcDbRasterImageDefReactor
 90
2
330
27F
  0
DICTIONARY
  5
D
102
{ACAD_REACTORS
330
C
102
}
100
AcDbDictionary
280
0
281
1
  0
ACDBDICTIONARYWDFLT
  5
E
102
{ACAD_REACTORS
330
C
102
}
100
AcDbDictionary
281
1
  3
Normal
350
F
100
AcDbDictionaryWithDefault
340
F
  0
DICTIONARY
  5
308
330
C
100
AcDbDictionary
281
1
  3
FAA_assy_2_img_1
350
       30D
  0
RASTERVARIABLES
  5
309
330
C
100
AcDbRasterVariables
 90
0
 70
0
 71
1
 72
5
  0
DICTIONARY
  5
17
102
{ACAD_REACTORS
330
C
102
}
100
AcDbDictionary
280
0
281
1
  3
Standard
350
18
  0
DICTIONARY
  5
30A
330
C
100
AcDbDictionary
281
1
  3
Standard
350
       30E
  3
Standard1
350
       30F
  0
DICTIONARY
  5
19
102
{ACAD_REACTORS
330
C
102
}
100
AcDbDictionary
281
1
  0
DICTIONARY
  5
1A
102
{ACAD_REACTORS
330
C
102
}
100
AcDbDictionary
281
1
  3
Model
350
30B
  3
Layout1
350
30C
  0
ACDBPLACEHOLDER
  5
F
102
{ACAD_REACTORS
330
E
102
}
  0
MLINESTYLE
  5
18
102
{ACAD_REACTORS
330
17
102
}
100
AcDbMlineStyle
  2
STANDARD
 70
0
  3

 62
256
 51
90.0
 52
90.0
 71
2
 49
0.5
 62
256
  6
BYLAYER
 49
-0.5
 62
256
  6
BYLAYER
  0
LAYOUT
  5
30B
102
{ACAD_REACTORS
330
1A
102
}
100
AcDbPlotSettings
  1

  2
none_device
  4
ANSI_C_(22.00_x_17.00_Inches)
  6

 40
0.0
 41
0.0
 42
0.0
 43
0.0
 44
558.8
 45
431.8
 46
0.0
 47
0.0
 48
0.0
 49
0.0
140
0.0
141
0.0
142
1.0
143
1.0
 70
1024
 72
0
 73
0
 74
0
  7

 75
0
147
1.0
148
0.0
149
0.0
100
AcDbLayout
  1
Model
 70
0
 71
0
 10
0.0
 20
0.0
 11
22.0
 21
17.0
 12
0.0
 22
0.0
 32
0.0
 14
0.0
 24
0.0
 34
0.0
 15
0.0
 25
0.0
 35
0.0
146
0.0
 13
0.0
 23
0.0
 33
0.0
 16
1.0
 26
0.0
 36
0.0
 17
0.0
 27
1.0
 37
0.0
 76
0
330
204
345
0
346
0
  0
LAYOUT
  5
30C
102
{ACAD_REACTORS
330
1A
102
}
100
AcDbPlotSettings
  1

  2
none_device
  4
ANSI_C_(22.00_x_17.00_Inches)
  6

 40
0.0
 41
0.0
 42
0.0
 43
0.0
 44
558.8
 45
431.8
 46
0.0
 47
0.0
 48
0.0
 49
0.0
140
0.0
141
0.0
142
1.0
143
1.0
 70
0
 72
0
 73
0
 74
0
  7

 75
0
147
1.0
148
0.0
149
0.0
100
AcDbLayout
  1
Layout1
 70
0
 71
1
 10
0.0
 20
0.0
 11
22.0
 21
17.0
 12
0.0
 22
0.0
 32
0.0
 14
0.0
 24
0.0
 34
0.0
 15
0.0
 25
0.0
 35
0.0
146
0.0
 13
0.0
 23
0.0
 33
0.0
 16
1.0
 26
0.0
 36
0.0
 17
0.0
 27
1.0
 37
0.0
 76
0
330
205
345
0
346
0
  0
IMAGEDEF
  5
30D
102
{ACAD_REACTORS
330
308
330
307
102
}
100
AcDbRasterImageDef
 90
0
  1
FAA_assy_2_img_1.png
 10
369.0
 20
92.0
 11
0.0066666667
 21
0.0066666667
280
1
281
0
  0
TABLESTYLE
  5
30E
102
{ACAD_REACTORS
330
30A
330
282
330
283
102
}
330
30A
100
AcDbTableStyle
  3
Standard
 70
0
 71
0
 40
0.06
 41
0.06
280
1
281
1
  7
Standard
140
0.18
170
1
 62
0
 63
7
283
0
  7
Standard
140
0.18
170
1
 62
0
 63
7
283
0
  7
Standard
140
0.18
170
1
 62
0
 63
7
283
0
  0
TABLESTYLE
  5
30F
102
{ACAD_REACTORS
330
30A
330
281
102
}
330
30A
100
AcDbTableStyle
  3
Standard1
 70
1
 71
0
 40
0.06
 41
0.06
280
1
281
1
  7
Standard
140
0.18
170
1
 62
0
 63
7
283
0
  7
Standard
140
0.18
170
1
 62
0
 63
7
283
0
  7
Standard
140
0.18
170
1
 62
0
 63
7
283
0
  0
ENDSEC
  0
EOF
