999
DXF file: EQV_assy_2.dxf
999
Pro/ENGINEER 2014200 by Parametric Technology Corporation
  0
SECTION
  2
HEADER
  9
$ACADVER
  1
AC1021
  9
$DWGCODEPAGE
  3
ANSI_1252
  9
$EXTMAX
 10
22.0
 20
17.0
 30
0.0
  9
$EXTMIN
 10
0.0
 20
0.0
 30
0.0
  9
$LIMMIN
 10
0.0
 20
0.0
  9
$LIMMAX
 10
22.0
 20
17.0
  9
$VIEWCTR
 10
11.0
 20
8.5
  9
$VIEWSIZE
 40
17.0
  9
$CLAYER
  8
0
  9
$LTSCALE
 40
1.21
  9
$CELTYPE
  6
BYLAYER
  9
$DIMSCALE
 40
1.0
  9
$DIMASZ
 40
0.1875
  9
$DIMEXO
 40
0.0625
  9
$DIMDLI
 40
0.836
  9
$DIMEXE
 40
0.125
  9
$DIMCEN
 40
0.198
  9
$DIMLFAC
 40
1.0
  9
$DIMBLK
  1
_FILLED
  9
$DIMTXT
 40
0.1
  9
$DIMTOL
 70
0
  9
$DIMLIM
 70
0
  9
$DIMTFAC
 40
1.0
  9
$DIMGAP
 40
0.09
  9
$DIMDSEP
 70
46
  9
$AUNITS
 70
0
  9
$PDMODE
 70
3
  9
$PDSIZE
 40
0.3125
  9
$HANDSEED
  5
449
  9
$TILEMODE
 70
1
  9
$MEASUREMENT
 70
0
  9
$INSUNITS
 70
1
  0
ENDSEC
  0
SECTION
  2
CLASSES
  0
CLASS
  1
ACDBDICTIONARYWDFLT
  2
AcDbDictionaryWithDefault
  3
AutoCAD 2000
 90
0
 91
1
280
0
281
0
  0
CLASS
  1
ACDBPLACEHOLDER
  2
AcDbPlaceHolder
  3
AutoCAD 2000
 90
0
 91
1
280
0
281
0
  0
CLASS
  1
LAYOUT
  2
AcDbLayout
  3
AutoCAD 2000
 90
0
 91
0
280
0
281
0
  0
CLASS
  1
RASTERVARIABLES
  2
AcDbRasterVariables
  3
ISM
 90
0
 91
1
280
0
281
0
  0
CLASS
  1
IMAGEDEF
  2
AcDbRasterImageDef
  3
ISM
 90
0
 91
1
280
0
281
0
  0
CLASS
  1
IMAGEDEF_REACTOR
  2
AcDbRasterImageDefReactor
  3
ISM
 90
0
 91
1
280
0
281
0
  0
CLASS
  1
IMAGE
  2
AcDbRasterImage
  3
ISM
 90
127
 91
1
280
0
281
1
  0
CLASS
  1
TABLESTYLE
  2
AcDbTableStyle
  3
ObjectDBX Classes
 90
2047
 91
1
280
0
281
0
  0
CLASS
  1
ACAD_TABLE
  2
AcDbTable
  3
ObjectDBX Classes
 90
1025
 91
3
280
0
281
1
  0
ENDSEC
  0
SECTION
  2
TABLES
  0
TABLE
  2
VPORT
  5
8
100
AcDbSymbolTable
 70
2
  0
VPORT
  5
1F4
100
AcDbSymbolTableRecord
100
AcDbViewportTableRecord
  2
*ACTIVE
 70
0
 10
0.0
 20
0.0
 11
1.0
 21
1.0
 12
11.0
 22
8.5
 13
0.0
 23
0.0
 14
1.0
 24
1.0
 15
0.0
 25
0.0
 16
0.0
 26
0.0
 36
1.0
 17
0.0
 27
0.0
 37
0.0
 40
17.0
 41
1.2941176471
 42
50.0
 43
0.0
 44
0.0
 50
0.0
 51
0.0
 71
0
 72
100
 73
1
 74
1
 75
0
 76
0
 77
0
 78
0
  0
ENDTAB
  0
TABLE
  2
LTYPE
  5
5
100
AcDbSymbolTable
 70
6
  0
LTYPE
  5
14
100
AcDbSymbolTableRecord
100
AcDbLinetypeTableRecord
  2
BYBLOCK
 70
0
  3

 72
65
 73
0
 40
0.0
  0
LTYPE
  5
15
100
AcDbSymbolTableRecord
100
AcDbLinetypeTableRecord
  2
BYLAYER
 70
0
  3

 72
65
 73
0
 40
0.0
  0
LTYPE
  5
16
100
AcDbSymbolTableRecord
100
AcDbLinetypeTableRecord
  2
CONTINUOUS
 70
64
  3
Solid line
 72
65
 73
0
 40
0.0
  0
LTYPE
  5
1F5
100
AcDbSymbolTableRecord
100
AcDbLinetypeTableRecord
  2
CENTER
 70
64
  3
____ _ ____ _ ____ _ ____ _ ____ _ ____ _ ____
 72
65
 73
4
 40
0.6
 49
0.375
 74
0
 49
-0.075
 74
0
 49
0.075
 74
0
 49
-0.075
 74
0
  0
LTYPE
  5
1F6
100
AcDbSymbolTableRecord
100
AcDbLinetypeTableRecord
  2
HIDDEN
 70
64
  3
- - - - - - - - - - - - - - - - - - - -
 72
65
 73
2
 40
0.2
 49
0.1
 74
0
 49
-0.1
 74
0
  0
LTYPE
  5
1F7
100
AcDbSymbolTableRecord
100
AcDbLinetypeTableRecord
  2
PHANTOM
 70
64
  3
_____ _ _ _____ _ _ _____ _ _ _____
 72
65
 73
6
 40
0.8
 49
0.45
 74
0
 49
-0.05
 74
0
 49
0.1
 74
0
 49
-0.05
 74
0
 49
0.1
 74
0
 49
-0.05
 74
0
  0
LTYPE
  5
1F8
100
AcDbSymbolTableRecord
100
AcDbLinetypeTableRecord
  2
DOT
 70
64
  3
. . . . . . . . . . . . . . . . . . . .
 72
65
 73
2
 40
0.2
 49
0.1
 74
0
 49
-0.1
 74
0
  0
LTYPE
  5
1F9
100
AcDbSymbolTableRecord
100
AcDbLinetypeTableRecord
  2
DASHED
 70
64
  3
- - - - - - - - - - - - - - - - - - - -
 72
65
 73
2
 40
0.2
 49
0.1
 74
0
 49
-0.1
 74
0
  0
ENDTAB
  0
TABLE
  2
LAYER
  5
2
100
AcDbSymbolTable
 70
36
  0
LAYER
  5
10
100
AcDbSymbolTableRecord
100
AcDbLayerTableRecord
  2
0
 70
0
 62
7
  6
CONTINUOUS
370
-3
390
F
  0
LAYER
  5
1FA
100
AcDbSymbolTableRecord
100
AcDbLayerTableRecord
  2
DEFAULT_1
 70
0
 62
7
  6
CENTER
370
-3
390
F
  0
LAYER
  5
1FB
100
AcDbSymbolTableRecord
100
AcDbLayerTableRecord
  2
DEFAULT_2
 70
0
 62
8
  6
HIDDEN
370
-3
390
F
  0
LAYER
  5
1FC
100
AcDbSymbolTableRecord
100
AcDbLayerTableRecord
  2
DEFAULT_3
 70
0
 62
7
  6
PHANTOM
370
-3
390
F
  0
LAYER
  5
1FD
100
AcDbSymbolTableRecord
100
AcDbLayerTableRecord
  2
01___PRT_ALL_DTM_PLN
 70
0
 62
7
  6
CONTINUOUS
370
-3
390
F
  0
LAYER
  5
1FE
100
AcDbSymbolTableRecord
100
AcDbLayerTableRecord
  2
01___PRT_DEF_DTM_PLN
 70
0
 62
7
  6
CONTINUOUS
370
-3
390
F
  0
LAYER
  5
1FF
100
AcDbSymbolTableRecord
100
AcDbLayerTableRecord
  2
02___PRT_ALL_AXES
 70
0
 62
7
  6
CONTINUOUS
370
-3
390
F
  0
LAYER
  5
200
100
AcDbSymbolTableRecord
100
AcDbLayerTableRecord
  2
03___PRT_ALL_CURVES
 70
0
 62
7
  6
CONTINUOUS
370
-3
390
F
  0
LAYER
  5
201
100
AcDbSymbolTableRecord
100
AcDbLayerTableRecord
  2
04___PRT_ALL_DTM_PNT
 70
0
 62
7
  6
CONTINUOUS
370
-3
390
F
  0
LAYER
  5
202
100
AcDbSymbolTableRecord
100
AcDbLayerTableRecord
  2
05___PRT_ALL_DTM_CSYS
 70
0
 62
7
  6
CONTINUOUS
370
-3
390
F
  0
LAYER
  5
203
100
AcDbSymbolTableRecord
100
AcDbLayerTableRecord
  2
05___PRT_DEF_DTM_CSYS
 70
0
 62
7
  6
CONTINUOUS
370
-3
390
F
  0
LAYER
  5
204
100
AcDbSymbolTableRecord
100
AcDbLayerTableRecord
  2
06___PRT_ALL_SURFS
 70
0
 62
7
  6
CONTINUOUS
370
-3
390
F
  0
LAYER
  5
205
100
AcDbSymbolTableRecord
100
AcDbLayerTableRecord
  2
DATUM_PLANES
 70
0
 62
7
  6
CONTINUOUS
370
-3
390
F
  0
LAYER
  5
206
100
AcDbSymbolTableRecord
100
AcDbLayerTableRecord
  2
DIMENSIONS
 70
0
 62
7
  6
CONTINUOUS
370
-3
390
F
  0
LAYER
  5
207
100
AcDbSymbolTableRecord
100
AcDbLayerTableRecord
  2
PARAMETERDIMENSIONS
 70
0
 62
7
  6
CONTINUOUS
370
-3
390
F
  0
LAYER
  5
208
100
AcDbSymbolTableRecord
100
AcDbLayerTableRecord
  2
PORT_AREAS
 70
0
 62
7
  6
CONTINUOUS
370
-3
390
F
  0
LAYER
  5
209
100
AcDbSymbolTableRecord
100
AcDbLayerTableRecord
  2
SUNNBOMCOSMETIC
 70
0
 62
7
  6
CONTINUOUS
370
-3
390
F
  0
LAYER
  5
20A
100
AcDbSymbolTableRecord
100
AcDbLayerTableRecord
  2
SUNNBOMSTAMPING
 70
0
 62
7
  6
CONTINUOUS
370
-3
390
F
  0
LAYER
  5
20B
100
AcDbSymbolTableRecord
100
AcDbLayerTableRecord
  2
THREAD
 70
0
 62
7
  6
CONTINUOUS
370
-3
390
F
  0
LAYER
  5
20C
100
AcDbSymbolTableRecord
100
AcDbLayerTableRecord
  2
THREADS
 70
0
 62
7
  6
CONTINUOUS
370
-3
390
F
  0
ENDTAB
  0
TABLE
  2
STYLE
  5
3
100
AcDbSymbolTable
 70
1
  0
STYLE
  5
11
100
AcDbSymbolTableRecord
100
AcDbTextStyleTableRecord
  2
STANDARD
 70
0
 40
0.0
 41
0.8
 50
0.0
 71
0
 42
0.2
  3
txt
  4

  0
STYLE
  5
20D
100
AcDbSymbolTableRecord
100
AcDbTextStyleTableRecord
  2
TEXTSTYLE_1
 70
0
 40
0.0
 41
0.8
 50
0.0
 71
0
 42
0.2
  3
gdt
  4

  0
ENDTAB
  0
TABLE
  2
VIEW
  5
6
100
AcDbSymbolTable
 70
0
  0
ENDTAB
  0
TABLE
  2
UCS
  5
7
100
AcDbSymbolTable
 70
0
  0
ENDTAB
  0
TABLE
  2
APPID
  5
9
100
AcDbSymbolTable
 70
1
  0
APPID
  5
20E
100
AcDbSymbolTableRecord
100
AcDbRegAppTableRecord
  2
ACAD
 70
0
  0
ENDTAB
  0
TABLE
  2
BLOCK_RECORD
  5
1
100
AcDbSymbolTable
 70
0
  0
BLOCK_RECORD
  5
20F
100
AcDbSymbolTableRecord
100
AcDbBlockTableRecord
  2
*Model_Space
  0
BLOCK_RECORD
  5
210
100
AcDbSymbolTableRecord
100
AcDbBlockTableRecord
  2
*Paper_Space
  0
BLOCK_RECORD
  5
211
100
AcDbSymbolTableRecord
100
AcDbBlockTableRecord
  2
SUN_FIRST_THIRD_ANGLE_BL0
  0
BLOCK_RECORD
  5
212
100
AcDbSymbolTableRecord
100
AcDbBlockTableRecord
  2
*T1
  0
BLOCK_RECORD
  5
213
100
AcDbSymbolTableRecord
100
AcDbBlockTableRecord
  2
*T2
  0
BLOCK_RECORD
  5
214
100
AcDbSymbolTableRecord
100
AcDbBlockTableRecord
  2
*T3
  0
ENDTAB
  0
TABLE
  2
DIMSTYLE
  5
A
100
AcDbSymbolTable
 70
1
100
AcDbDimStyleTable
 71
0
  0
DIMSTYLE
105
215
100
AcDbSymbolTableRecord
100
AcDbDimStyleTableRecord
  2
STANDARD
 70
0
  3

  4

 40
1.0
 41
0.1875
 42
0.0625
 43
0.38
 44
0.125
 45
0.0
 46
0.0
 47
0.001
 48
0.001
140
0.1
141
0.09
142
0.0
143
25.4
144
1.0
145
0.0
146
1.0
147
0.09
 71
0.0
 72
0.0
 73
1
 74
1
 75
0
 76
0
 77
0
 78
4
170
0
171
2
172
0
173
0
174
0
175
0
176
0
177
0
178
0
270
2
271
3
272
3
273
2
274
2
275
0
280
0
281
0
282
0
283
1
284
4
285
0
286
0
287
3
288
0
340
11
278
46
  0
ENDTAB
  0
ENDSEC
  0
SECTION
  2
BLOCKS
  0
BLOCK
  5
20
100
AcDbEntity
  8
0
100
AcDbBlockBegin
  2
*Model_Space
 70
0
 10
0.0
 20
0.0
 30
0.0
  3
*Model_Space
  1

  0
ENDBLK
  5
21
100
AcDbEntity
  8
0
100
AcDbBlockEnd
  0
BLOCK
  5
1C
100
AcDbEntity
  8
0
100
AcDbBlockBegin
  2
*Paper_Space
 70
0
 10
0.0
 20
0.0
 30
0.0
  3
*Paper_Space
  1

  0
ENDBLK
  5
1D
100
AcDbEntity
  8
0
100
AcDbBlockEnd
  0
BLOCK
  5
216
100
AcDbEntity
  8
0
100
AcDbBlockBegin
 62
2
  6
CONTINUOUS
  2
SUN_FIRST_THIRD_ANGLE_BL0
 70
64
 10
20.4816717061
 20
1.2289683772
  3
SUN_FIRST_THIRD_ANGLE_BL0
  1

  0
TEXT
  5
217
100
AcDbEntity
  8
0
100
AcDbText
 62
2
  6
CONTINUOUS
 10
19.4750896608
 20
1.4136269581
  7
STANDARD
 40
0.08
  1
FIRST ANGLE
 41
0.8
 72
0
100
AcDbText
  0
TEXT
  5
218
100
AcDbEntity
  8
0
100
AcDbText
 62
2
  6
CONTINUOUS
 10
20.7842537513
 20
1.4047600029
  7
STANDARD
 40
0.08
  1
THIRD ANGLE
 41
0.8
 72
0
100
AcDbText
  0
LINE
  5
219
100
AcDbEntity
  8
0
100
AcDbLine
 62
7
  6
CONTINUOUS
 10
19.4767170086
 20
1.1727031207
 11
19.6334271527
 21
1.1717972817
  0
LINE
  5
21A
100
AcDbEntity
  8
0
100
AcDbLine
 62
7
  6
CONTINUOUS
 10
19.6596964832
 20
1.1717972817
 11
19.6950230232
 21
1.171593082
  0
LINE
  5
21B
100
AcDbEntity
  8
0
100
AcDbLine
 62
7
  6
CONTINUOUS
 10
19.7194818561
 20
1.1708914427
 11
19.8852396156
 21
1.1699333054
  0
LINE
  5
21C
100
AcDbEntity
  8
0
100
AcDbLine
 62
7
  6
CONTINUOUS
 10
19.4758111696
 20
1.2723454088
 11
19.88525039
 21
1.3511534004
  0
LINE
  5
21D
100
AcDbEntity
  8
0
100
AcDbLine
 62
7
  6
CONTINUOUS
 10
19.88525039
 20
1.3511534004
 11
19.8831348489
 21
0.9851647912
  0
LINE
  5
21E
100
AcDbEntity
  8
0
100
AcDbLine
 62
7
  6
CONTINUOUS
 10
19.8831348489
 20
0.9851647912
 11
19.4767170086
 21
1.0658141206
  0
LINE
  5
21F
100
AcDbEntity
  8
0
100
AcDbLine
 62
7
  6
CONTINUOUS
 10
19.4767170086
 20
1.0658141206
 11
19.4779056764
 21
1.2714536432
  0
CIRCLE
  5
220
100
AcDbEntity
  8
0
100
AcDbCircle
 62
7
  6
CONTINUOUS
 10
20.2068232291
 20
1.1717972817
 40
0.175742101
  0
CIRCLE
  5
221
100
AcDbEntity
  8
0
100
AcDbCircle
 62
7
  6
CONTINUOUS
 10
20.2068232291
 20
1.1717972817
 40
0.1005522074
  0
LINE
  5
222
100
AcDbEntity
  8
0
100
AcDbLine
 62
7
  6
CONTINUOUS
 10
20.2077290681
 20
1.3756110529
 11
20.2071171714
 21
1.2379342989
  0
LINE
  5
223
100
AcDbEntity
  8
0
100
AcDbLine
 62
7
  6
CONTINUOUS
 10
20.2077290681
 20
1.2016899681
 11
20.2074674401
 21
1.1428236749
  0
LINE
  5
224
100
AcDbEntity
  8
0
100
AcDbLine
 62
7
  6
CONTINUOUS
 10
20.208634907
 20
1.101141841
 11
20.2080230104
 21
0.963465087
  0
LINE
  5
225
100
AcDbEntity
  8
0
100
AcDbLine
 62
7
  6
CONTINUOUS
 10
20.0066328138
 20
1.1745147986
 11
20.1443095678
 21
1.1739029019
  0
LINE
  5
226
100
AcDbEntity
  8
0
100
AcDbLine
 62
7
  6
CONTINUOUS
 10
20.1832714155
 20
1.1727031207
 11
20.238153505
 21
1.172335442
  0
LINE
  5
227
100
AcDbEntity
  8
0
100
AcDbLine
 62
7
  6
CONTINUOUS
 10
20.2756669918
 20
1.1717972817
 11
20.407916871
 21
1.1712095044
  0
CIRCLE
  5
228
100
AcDbEntity
  8
0
100
AcDbCircle
 62
7
  6
CONTINUOUS
 10
20.7509457401
 20
1.1693297793
 40
0.1722024983
  0
CIRCLE
  5
229
100
AcDbEntity
  8
0
100
AcDbCircle
 62
7
  6
CONTINUOUS
 10
20.7509457401
 20
1.1693297793
 40
0.0985164967
  0
LINE
  5
22A
100
AcDbEntity
  8
0
100
AcDbLine
 62
7
  6
CONTINUOUS
 10
20.7169767782
 20
1.170462078
 11
20.7825395137
 21
1.1682766535
  0
LINE
  5
22B
100
AcDbEntity
  8
0
100
AcDbLine
 62
7
  6
CONTINUOUS
 10
20.8177513651
 20
1.1693297793
 11
20.947965719
 21
1.1693297793
  0
LINE
  5
22C
100
AcDbEntity
  8
0
100
AcDbLine
 62
7
  6
CONTINUOUS
 10
20.6875370113
 20
1.170462078
 11
20.5573226574
 21
1.170462078
  0
LINE
  5
22D
100
AcDbEntity
  8
0
100
AcDbLine
 62
7
  6
CONTINUOUS
 10
20.7486811426
 20
1.1987695462
 11
20.7486811426
 21
1.1432869085
  0
LINE
  5
22E
100
AcDbEntity
  8
0
100
AcDbLine
 62
7
  6
CONTINUOUS
 10
20.7498134414
 20
1.1059210505
 11
20.7498134414
 21
0.9757066966
  0
LINE
  5
22F
100
AcDbEntity
  8
0
100
AcDbLine
 62
7
  6
CONTINUOUS
 10
20.7486811426
 20
1.2338708068
 11
20.7486811426
 21
1.3640851607
  0
LINE
  5
230
100
AcDbEntity
  8
0
100
AcDbLine
 62
7
  6
CONTINUOUS
 10
21.0702539817
 20
1.2701043662
 11
21.4790138229
 21
1.3448360823
  0
LINE
  5
231
100
AcDbEntity
  8
0
100
AcDbLine
 62
7
  6
CONTINUOUS
 10
21.4790138229
 20
1.3448360823
 11
21.4790138229
 21
0.9779712941
  0
LINE
  5
232
100
AcDbEntity
  8
0
100
AcDbLine
 62
7
  6
CONTINUOUS
 10
21.4790138229
 20
0.9779712941
 11
21.069121683
 21
1.0617614
  0
LINE
  5
233
100
AcDbEntity
  8
0
100
AcDbLine
 62
7
  6
CONTINUOUS
 10
21.0702539817
 20
1.2701043662
 11
21.069121683
 21
1.0617614
  0
LINE
  5
234
100
AcDbEntity
  8
0
100
AcDbLine
 62
7
  6
CONTINUOUS
 10
21.4790138229
 20
1.1693297793
 11
21.3159628059
 21
1.1693297793
  0
LINE
  5
235
100
AcDbEntity
  8
0
100
AcDbLine
 62
7
  6
CONTINUOUS
 10
21.2876553377
 20
1.1693297793
 11
21.2502894796
 21
1.1693297793
  0
LINE
  5
236
100
AcDbEntity
  8
0
100
AcDbLine
 62
7
  6
CONTINUOUS
 10
21.2208497126
 20
1.1659328831
 11
21.0713862804
 21
1.1659328831
  0
LINE
  5
237
100
AcDbEntity
  8
0
100
AcDbLine
 62
7
  6
CONTINUOUS
 10
20.4796138713
 20
1.5284908897
 11
20.4766766948
 21
0.9294458646
  0
ENDBLK
  5
238
100
AcDbEntity
  8
0
  6
BYBLOCK
 62
0
100
AcDbBlockEnd
  0
BLOCK
  5
239
100
AcDbEntity
  8
0
100
AcDbBlockBegin
  2
*T1
 70
1
 10
0.0
 20
0.0
  3
*T1
  1

  0
LINE
  5
23A
100
AcDbEntity
  8
0
100
AcDbLine
 62
2
  6
CONTINUOUS
 10
9.275
 20
0.0
 11
-0.0
 21
0.0
  0
LINE
  5
23B
100
AcDbEntity
  8
0
100
AcDbLine
 62
2
  6
CONTINUOUS
 10
9.275
 20
0.0
 11
9.275
 21
1.25
  0
LINE
  5
23C
100
AcDbEntity
  8
0
100
AcDbLine
 62
2
  6
CONTINUOUS
 10
9.275
 20
0.625
 11
-0.0
 21
0.625
  0
LINE
  5
23D
100
AcDbEntity
  8
0
100
AcDbLine
 62
2
  6
CONTINUOUS
 10
9.275
 20
1.25
 11
-0.0
 21
1.25
  0
LINE
  5
23E
100
AcDbEntity
  8
0
100
AcDbLine
 62
2
  6
CONTINUOUS
 10
6.8
 20
0.0
 11
6.8
 21
1.25
  0
LINE
  5
23F
100
AcDbEntity
  8
0
100
AcDbLine
 62
2
  6
CONTINUOUS
 10
6.4
 20
0.0
 11
6.4
 21
0.625
  0
LINE
  5
240
100
AcDbEntity
  8
0
100
AcDbLine
 62
2
  6
CONTINUOUS
 10
5.9
 20
0.0
 11
5.9
 21
0.625
  0
LINE
  5
241
100
AcDbEntity
  8
0
100
AcDbLine
 62
2
  6
CONTINUOUS
 10
5.2
 20
0.0
 11
5.2
 21
0.625
  0
LINE
  5
242
100
AcDbEntity
  8
0
100
AcDbLine
 62
2
  6
CONTINUOUS
 10
4.1
 20
0.0
 11
4.1
 21
1.25
  0
LINE
  5
243
100
AcDbEntity
  8
0
100
AcDbLine
 62
2
  6
CONTINUOUS
 10
-0.0
 20
0.0
 11
-0.0
 21
1.25
  0
MTEXT
  5
244
100
AcDbEntity
  8
0
100
AcDbMText
 62
2
  6
CONTINUOUS
  7
STANDARD
 71
2
 72
1
 10
6.6
 20
0.325
 30
0.0
 11
1.0
 21
0.0
 31
0.0
 44
0.9
  1
2
 40
0.125
 41
0.2
  0
MTEXT
  5
245
100
AcDbEntity
  8
0
100
AcDbMText
 62
2
  6
CONTINUOUS
  7
STANDARD
 71
2
 72
1
 10
6.15
 20
0.325
 30
0.0
 11
1.0
 21
0.0
 31
0.0
 44
0.9
  1
C
 40
0.125
 41
0.2
  0
MTEXT
  5
246
100
AcDbEntity
  8
0
100
AcDbMText
 62
2
  6
CONTINUOUS
  7
STANDARD
 71
2
 72
1
 10
5.55
 20
0.325
 30
0.0
 11
1.0
 21
0.0
 31
0.0
 44
0.9
  1
2.000
 40
0.125
 41
1.0
  0
MTEXT
  5
247
100
AcDbEntity
  8
0
100
AcDbMText
 62
2
  6
CONTINUOUS
  7
STANDARD
 71
2
 72
1
 10
4.65
 20
0.325
 30
0.0
 11
1.0
 21
0.0
 31
0.0
 44
0.9
  1
Feb-03-20
 40
0.125
 41
1.8
  0
MTEXT
  5
248
100
AcDbEntity
  8
0
100
AcDbMText
 62
2
  6
CONTINUOUS
  7
STANDARD
 71
2
 72
1
 10
2.05
 20
0.4625
 30
0.0
 11
1.0
 21
0.0
 31
0.0
 44
0.9
  1
T-11A Line mount\P(See Technical Data for Body Features)
 40
0.125
 41
7.6
  0
MTEXT
  5
249
100
AcDbEntity
  8
0
100
AcDbMText
 62
2
  6
CONTINUOUS
  7
STANDARD
 71
1
 72
1
 10
6.45
 20
0.5625
 30
0.0
 11
1.0
 21
0.0
 31
0.0
 44
0.9
  1
SHEET
 40
0.06
 41
0.48
  0
MTEXT
  5
24A
100
AcDbEntity
  8
0
100
AcDbMText
 62
2
  6
CONTINUOUS
  7
STANDARD
 71
1
 72
1
 10
5.95
 20
0.5625
 30
0.0
 11
1.0
 21
0.0
 31
0.0
 44
0.9
  1
DWG SIZE
 40
0.06
 41
0.768
  0
MTEXT
  5
24B
100
AcDbEntity
  8
0
100
AcDbMText
 62
2
  6
CONTINUOUS
  7
STANDARD
 71
1
 72
1
 10
5.25
 20
0.5625
 30
0.0
 11
1.0
 21
0.0
 31
0.0
 44
0.9
  1
SCALE
 40
0.06
 41
0.48
  0
MTEXT
  5
24C
100
AcDbEntity
  8
0
100
AcDbMText
 62
2
  6
CONTINUOUS
  7
STANDARD
 71
1
 72
1
 10
4.15
 20
0.5625
 30
0.0
 11
1.0
 21
0.0
 31
0.0
 44
0.9
  1
DATE
 40
0.06
 41
0.384
  0
MTEXT
  5
24D
100
AcDbEntity
  8
0
100
AcDbMText
 62
2
  6
CONTINUOUS
  7
STANDARD
 71
1
 72
1
 10
0.05
 20
0.5625
 30
0.0
 11
1.0
 21
0.0
 31
0.0
 44
0.9
  1
DESCRIPTION
 40
0.06
 41
1.056
  0
MTEXT
  5
24E
100
AcDbEntity
  8
0
100
AcDbMText
 62
2
  6
CONTINUOUS
  7
STANDARD
 71
2
 72
1
 10
5.45
 20
1.0375
 30
0.0
 11
1.0
 21
0.0
 31
0.0
 44
0.9
  1
ALL DIMENSIONS IN INCH\PVIEWS ARE THIRD ANGLE
 40
0.12
 41
4.224
  0
MTEXT
  5
24F
100
AcDbEntity
  8
0
100
AcDbMText
 62
2
  6
CONTINUOUS
  7
STANDARD
 71
2
 72
1
 10
2.05
 20
0.95
 30
0.0
 11
1.0
 21
0.0
 31
0.0
 44
0.9
  1
EQV
 40
0.125
 41
0.6
  0
MTEXT
  5
250
100
AcDbEntity
  8
0
100
AcDbMText
 62
2
  6
CONTINUOUS
  7
STANDARD
 71
1
 72
1
 10
0.05
 20
1.1875
 30
0.0
 11
1.0
 21
0.0
 31
0.0
 44
0.9
  1
MODEL
 40
0.06
 41
0.48
  0
ENDBLK
  5
251
100
AcDbEntity
  8
0
  6
BYBLOCK
 62
0
100
AcDbBlockEnd
  0
BLOCK
  5
252
100
AcDbEntity
  8
0
100
AcDbBlockBegin
  2
*T2
 70
1
 10
0.0
 20
0.0
  3
*T2
  1

  0
LINE
  5
253
100
AcDbEntity
  8
0
100
AcDbLine
 62
2
  6
CONTINUOUS
 10
0.0
 20
0.0
 11
9.055
 21
0.0
  0
LINE
  5
254
100
AcDbEntity
  8
0
100
AcDbLine
 62
2
  6
CONTINUOUS
 10
0.0
 20
0.0
 11
0.0
 21
-2.594
  0
LINE
  5
255
100
AcDbEntity
  8
0
100
AcDbLine
 62
2
  6
CONTINUOUS
 10
0.0
 20
-0.344
 11
9.055
 21
-0.344
  0
LINE
  5
256
100
AcDbEntity
  8
0
100
AcDbLine
 62
2
  6
CONTINUOUS
 10
0.0
 20
-0.594
 11
9.055
 21
-0.594
  0
LINE
  5
257
100
AcDbEntity
  8
0
100
AcDbLine
 62
2
  6
CONTINUOUS
 10
0.0
 20
-0.844
 11
9.055
 21
-0.844
  0
LINE
  5
258
100
AcDbEntity
  8
0
100
AcDbLine
 62
2
  6
CONTINUOUS
 10
0.0
 20
-1.094
 11
9.055
 21
-1.094
  0
LINE
  5
259
100
AcDbEntity
  8
0
100
AcDbLine
 62
2
  6
CONTINUOUS
 10
0.0
 20
-1.344
 11
9.055
 21
-1.344
  0
LINE
  5
25A
100
AcDbEntity
  8
0
100
AcDbLine
 62
2
  6
CONTINUOUS
 10
0.0
 20
-1.594
 11
9.055
 21
-1.594
  0
LINE
  5
25B
100
AcDbEntity
  8
0
100
AcDbLine
 62
2
  6
CONTINUOUS
 10
0.0
 20
-1.844
 11
9.055
 21
-1.844
  0
LINE
  5
25C
100
AcDbEntity
  8
0
100
AcDbLine
 62
2
  6
CONTINUOUS
 10
0.0
 20
-2.094
 11
9.055
 21
-2.094
  0
LINE
  5
25D
100
AcDbEntity
  8
0
100
AcDbLine
 62
2
  6
CONTINUOUS
 10
0.0
 20
-2.344
 11
9.055
 21
-2.344
  0
LINE
  5
25E
100
AcDbEntity
  8
0
100
AcDbLine
 62
2
  6
CONTINUOUS
 10
0.0
 20
-2.594
 11
9.055
 21
-2.594
  0
LINE
  5
25F
100
AcDbEntity
  8
0
100
AcDbLine
 62
2
  6
CONTINUOUS
 10
3.055
 20
0.0
 11
3.055
 21
-2.594
  0
LINE
  5
260
100
AcDbEntity
  8
0
100
AcDbLine
 62
2
  6
CONTINUOUS
 10
9.055
 20
0.0
 11
9.055
 21
-2.594
  0
MTEXT
  5
261
100
AcDbEntity
  8
0
100
AcDbMText
 62
2
  6
CONTINUOUS
  7
STANDARD
 71
2
 72
1
 10
1.5275
 20
-0.0995
 30
0.0
 11
1.0
 21
0.0
 31
0.0
 44
0.9
  1
Technical Data
 40
0.145
 41
3.248
  0
MTEXT
  5
262
100
AcDbEntity
  8
0
100
AcDbMText
 62
2
  6
CONTINUOUS
  7
STANDARD
 71
2
 72
1
 10
4.555
 20
-0.0995
 30
0.0
 11
1.0
 21
0.0
 31
0.0
 44
0.9
  1
U.S. Units
 40
0.145
 41
2.32
  0
MTEXT
  5
263
100
AcDbEntity
  8
0
100
AcDbMText
 62
2
  6
CONTINUOUS
  7
STANDARD
 71
2
 72
1
 10
7.555
 20
-0.0995
 30
0.0
 11
1.0
 21
0.0
 31
0.0
 44
0.9
  1
Metric Units
 40
0.145
 41
2.784
  0
MTEXT
  5
264
100
AcDbEntity
  8
0
100
AcDbMText
 62
2
  6
CONTINUOUS
  7
STANDARD
 71
2
 72
1
 10
1.5275
 20
-0.4065
 30
0.0
 11
1.0
 21
0.0
 31
0.0
 44
0.9
  1
Cavity
 40
0.125
 41
1.2
  0
MTEXT
  5
265
100
AcDbEntity
  8
0
100
AcDbMText
 62
2
  6
CONTINUOUS
  7
STANDARD
 71
2
 72
1
 10
6.055
 20
-0.4065
 30
0.0
 11
1.0
 21
0.0
 31
0.0
 44
0.9
  1
T-11A
 40
0.125
 41
1.0
  0
MTEXT
  5
266
100
AcDbEntity
  8
0
100
AcDbMText
 62
2
  6
CONTINUOUS
  7
STANDARD
 71
2
 72
1
 10
1.5275
 20
-0.6565
 30
0.0
 11
1.0
 21
0.0
 31
0.0
 44
0.9
  1
Body Features
 40
0.125
 41
2.6
  0
MTEXT
  5
267
100
AcDbEntity
  8
0
100
AcDbMText
 62
2
  6
CONTINUOUS
  7
STANDARD
 71
2
 72
1
 10
6.055
 20
-0.6565
 30
0.0
 11
1.0
 21
0.0
 31
0.0
 44
0.9
  1
Cushion lock with make up checks and shuttle
 40
0.125
 41
8.8
  0
MTEXT
  5
268
100
AcDbEntity
  8
0
100
AcDbMText
 62
2
  6
CONTINUOUS
  7
STANDARD
 71
2
 72
1
 10
1.5275
 20
-0.9065
 30
0.0
 11
1.0
 21
0.0
 31
0.0
 44
0.9
  1
Body Type
 40
0.125
 41
1.8
  0
MTEXT
  5
269
100
AcDbEntity
  8
0
100
AcDbMText
 62
2
  6
CONTINUOUS
  7
STANDARD
 71
2
 72
1
 10
6.055
 20
-0.9065
 30
0.0
 11
1.0
 21
0.0
 31
0.0
 44
0.9
  1
Line mount
 40
0.125
 41
2.0
  0
MTEXT
  5
26A
100
AcDbEntity
  8
0
100
AcDbMText
 62
2
  6
CONTINUOUS
  7
STANDARD
 71
2
 72
1
 10
1.5275
 20
-1.1565
 30
0.0
 11
1.0
 21
0.0
 31
0.0
 44
0.9
  1
Interface
 40
0.125
 41
1.8
  0
MTEXT
  5
26B
100
AcDbEntity
  8
0
100
AcDbMText
 62
2
  6
CONTINUOUS
  7
STANDARD
 71
2
 72
1
 10
6.055
 20
-1.1565
 30
0.0
 11
1.0
 21
0.0
 31
0.0
 44
0.9
  1
None
 40
0.125
 41
0.8
  0
MTEXT
  5
26C
100
AcDbEntity
  8
0
100
AcDbMText
 62
2
  6
CONTINUOUS
  7
STANDARD
 71
2
 72
1
 10
1.5275
 20
-1.4065
 30
0.0
 11
1.0
 21
0.0
 31
0.0
 44
0.9
  1
Open Cavity Quantity
 40
0.125
 41
4.0
  0
MTEXT
  5
26D
100
AcDbEntity
  8
0
100
AcDbMText
 62
2
  6
CONTINUOUS
  7
STANDARD
 71
2
 72
1
 10
6.055
 20
-1.4065
 30
0.0
 11
1.0
 21
0.0
 31
0.0
 44
0.9
  1
2
 40
0.125
 41
0.2
  0
MTEXT
  5
26E
100
AcDbEntity
  8
0
100
AcDbMText
 62
2
  6
CONTINUOUS
  7
STANDARD
 71
2
 72
1
 10
1.5275
 20
-1.6565
 30
0.0
 11
1.0
 21
0.0
 31
0.0
 44
0.9
  1
Weight
 40
0.125
 41
1.2
  0
MTEXT
  5
26F
100
AcDbEntity
  8
0
100
AcDbMText
 62
2
  6
CONTINUOUS
  7
STANDARD
 71
2
 72
1
 10
4.555
 20
-1.6565
 30
0.0
 11
1.0
 21
0.0
 31
0.0
 44
0.9
  1
3.194 lb.
 40
0.125
 41
1.8
  0
MTEXT
  5
270
100
AcDbEntity
  8
0
100
AcDbMText
 62
2
  6
CONTINUOUS
  7
STANDARD
 71
2
 72
1
 10
7.555
 20
-1.6565
 30
0.0
 11
1.0
 21
0.0
 31
0.0
 44
0.9
  1
1,449 kg.
 40
0.125
 41
1.8
  0
MTEXT
  5
271
100
AcDbEntity
  8
0
100
AcDbMText
 62
2
  6
CONTINUOUS
  7
STANDARD
 71
2
 72
1
 10
1.5275
 20
-1.9065
 30
0.0
 11
1.0
 21
0.0
 31
0.0
 44
0.9
  1
Mounting Hole Diameter
 40
0.125
 41
4.4
  0
MTEXT
  5
272
100
AcDbEntity
  8
0
100
AcDbMText
 62
2
  6
CONTINUOUS
  7
STANDARD
 71
2
 72
1
 10
4.555
 20
-1.9065
 30
0.0
 11
1.0
 21
0.0
 31
0.0
 44
0.9
  1
.34 in.
 40
0.125
 41
1.4
  0
MTEXT
  5
273
100
AcDbEntity
  8
0
100
AcDbMText
 62
2
  6
CONTINUOUS
  7
STANDARD
 71
2
 72
1
 10
7.555
 20
-1.9065
 30
0.0
 11
1.0
 21
0.0
 31
0.0
 44
0.9
  1
8.6 mm
 40
0.125
 41
1.2
  0
MTEXT
  5
274
100
AcDbEntity
  8
0
100
AcDbMText
 62
2
  6
CONTINUOUS
  7
STANDARD
 71
2
 72
1
 10
1.5275
 20
-2.1565
 30
0.0
 11
1.0
 21
0.0
 31
0.0
 44
0.9
  1
Mounting Hole Depth
 40
0.125
 41
3.8
  0
MTEXT
  5
275
100
AcDbEntity
  8
0
100
AcDbMText
 62
2
  6
CONTINUOUS
  7
STANDARD
 71
2
 72
1
 10
6.055
 20
-2.1565
 30
0.0
 11
1.0
 21
0.0
 31
0.0
 44
0.9
  1
Through
 40
0.125
 41
1.4
  0
MTEXT
  5
276
100
AcDbEntity
  8
0
100
AcDbMText
 62
2
  6
CONTINUOUS
  7
STANDARD
 71
2
 72
1
 10
1.5275
 20
-2.4065
 30
0.0
 11
1.0
 21
0.0
 31
0.0
 44
0.9
  1
Mounting Hole Quantity
 40
0.125
 41
4.4
  0
MTEXT
  5
277
100
AcDbEntity
  8
0
100
AcDbMText
 62
2
  6
CONTINUOUS
  7
STANDARD
 71
2
 72
1
 10
6.055
 20
-2.4065
 30
0.0
 11
1.0
 21
0.0
 31
0.0
 44
0.9
  1
2
 40
0.125
 41
0.2
  0
ENDBLK
  5
278
100
AcDbEntity
  8
0
  6
BYBLOCK
 62
0
100
AcDbBlockEnd
  0
BLOCK
  5
279
100
AcDbEntity
  8
0
100
AcDbBlockBegin
  2
*T3
 70
1
 10
0.0
 20
0.0
  3
*T3
  1

  0
LINE
  5
27A
100
AcDbEntity
  8
0
100
AcDbLine
 62
2
  6
CONTINUOUS
 10
0.0
 20
0.0
 11
4.6
 21
0.0
  0
LINE
  5
27B
100
AcDbEntity
  8
0
100
AcDbLine
 62
2
  6
CONTINUOUS
 10
0.0
 20
0.0
 11
0.0
 21
-1.43775
  0
LINE
  5
27C
100
AcDbEntity
  8
0
100
AcDbLine
 62
2
  6
CONTINUOUS
 10
0.0
 20
-0.34375
 11
4.6
 21
-0.34375
  0
LINE
  5
27D
100
AcDbEntity
  8
0
100
AcDbLine
 62
2
  6
CONTINUOUS
 10
0.0
 20
-0.68775
 11
4.6
 21
-0.68775
  0
LINE
  5
27E
100
AcDbEntity
  8
0
100
AcDbLine
 62
2
  6
CONTINUOUS
 10
0.0
 20
-0.93775
 11
4.6
 21
-0.93775
  0
LINE
  5
27F
100
AcDbEntity
  8
0
100
AcDbLine
 62
2
  6
CONTINUOUS
 10
0.0
 20
-1.18775
 11
4.6
 21
-1.18775
  0
LINE
  5
280
100
AcDbEntity
  8
0
100
AcDbLine
 62
2
  6
CONTINUOUS
 10
0.0
 20
-1.43775
 11
4.6
 21
-1.43775
  0
LINE
  5
281
100
AcDbEntity
  8
0
100
AcDbLine
 62
2
  6
CONTINUOUS
 10
1.3
 20
-0.34375
 11
1.3
 21
-1.43775
  0
LINE
  5
282
100
AcDbEntity
  8
0
100
AcDbLine
 62
2
  6
CONTINUOUS
 10
3.3
 20
-0.34375
 11
3.3
 21
-1.43775
  0
LINE
  5
283
100
AcDbEntity
  8
0
100
AcDbLine
 62
2
  6
CONTINUOUS
 10
4.6
 20
0.0
 11
4.6
 21
-1.43775
  0
MTEXT
  5
284
100
AcDbEntity
  8
0
100
AcDbMText
 62
2
  6
CONTINUOUS
  7
STANDARD
 71
2
 72
1
 10
2.3
 20
-0.099375
 30
0.0
 11
1.0
 21
0.0
 31
0.0
 44
0.9
  1
Port Headings
 40
0.145
 41
3.016
  0
MTEXT
  5
285
100
AcDbEntity
  8
0
100
AcDbMText
 62
2
  6
CONTINUOUS
  7
STANDARD
 71
2
 72
1
 10
0.65
 20
-0.44325
 30
0.0
 11
1.0
 21
0.0
 31
0.0
 44
0.9
  1
Product
 40
0.145
 41
1.624
  0
MTEXT
  5
286
100
AcDbEntity
  8
0
100
AcDbMText
 62
2
  6
CONTINUOUS
  7
STANDARD
 71
2
 72
1
 10
2.3
 20
-0.44325
 30
0.0
 11
1.0
 21
0.0
 31
0.0
 44
0.9
  1
Port
 40
0.145
 41
0.928
  0
MTEXT
  5
287
100
AcDbEntity
  8
0
100
AcDbMText
 62
2
  6
CONTINUOUS
  7
STANDARD
 71
2
 72
1
 10
3.95
 20
-0.44325
 30
0.0
 11
1.0
 21
0.0
 31
0.0
 44
0.9
  1
Size
 40
0.145
 41
0.928
  0
MTEXT
  5
288
100
AcDbEntity
  8
0
100
AcDbMText
 62
2
  6
CONTINUOUS
  7
STANDARD
 71
2
 72
1
 10
0.65
 20
-0.75025
 30
0.0
 11
1.0
 21
0.0
 31
0.0
 44
0.9
  1
EQV
 40
0.125
 41
0.6
  0
MTEXT
  5
289
100
AcDbEntity
  8
0
100
AcDbMText
 62
2
  6
CONTINUOUS
  7
STANDARD
 71
2
 72
1
 10
2.3
 20
-0.75025
 30
0.0
 11
1.0
 21
0.0
 31
0.0
 44
0.9
  1
Ports C1, C2, V1, V2
 40
0.125
 41
4.0
  0
MTEXT
  5
28A
100
AcDbEntity
  8
0
100
AcDbMText
 62
2
  6
CONTINUOUS
  7
STANDARD
 71
2
 72
1
 10
3.95
 20
-0.75025
 30
0.0
 11
1.0
 21
0.0
 31
0.0
 44
0.9
  1
1/2" BSPP
 40
0.125
 41
1.8
  0
MTEXT
  5
28B
100
AcDbEntity
  8
0
100
AcDbMText
 62
2
  6
CONTINUOUS
  7
STANDARD
 71
2
 72
1
 10
0.65
 20
-1.00025
 30
0.0
 11
1.0
 21
0.0
 31
0.0
 44
0.9
  1
EQV
 40
0.125
 41
0.6
  0
MTEXT
  5
28C
100
AcDbEntity
  8
0
100
AcDbMText
 62
2
  6
CONTINUOUS
  7
STANDARD
 71
2
 72
1
 10
2.3
 20
-1.00025
 30
0.0
 11
1.0
 21
0.0
 31
0.0
 44
0.9
  1
Port T
 40
0.125
 41
1.2
  0
MTEXT
  5
28D
100
AcDbEntity
  8
0
100
AcDbMText
 62
2
  6
CONTINUOUS
  7
STANDARD
 71
2
 72
1
 10
3.95
 20
-1.00025
 30
0.0
 11
1.0
 21
0.0
 31
0.0
 44
0.9
  1
1/2" BSPP
 40
0.125
 41
1.8
  0
MTEXT
  5
28E
100
AcDbEntity
  8
0
100
AcDbMText
 62
2
  6
CONTINUOUS
  7
STANDARD
 71
2
 72
1
 10
0.65
 20
-1.25025
 30
0.0
 11
1.0
 21
0.0
 31
0.0
 44
0.9
  1
EQV
 40
0.125
 41
0.6
  0
MTEXT
  5
28F
100
AcDbEntity
  8
0
100
AcDbMText
 62
2
  6
CONTINUOUS
  7
STANDARD
 71
2
 72
1
 10
2.3
 20
-1.25025
 30
0.0
 11
1.0
 21
0.0
 31
0.0
 44
0.9
  1
Port S
 40
0.125
 41
1.2
  0
MTEXT
  5
290
100
AcDbEntity
  8
0
100
AcDbMText
 62
2
  6
CONTINUOUS
  7
STANDARD
 71
2
 72
1
 10
3.95
 20
-1.25025
 30
0.0
 11
1.0
 21
0.0
 31
0.0
 44
0.9
  1
1/4" BSPP
 40
0.125
 41
1.8
  0
ENDBLK
  5
291
100
AcDbEntity
  8
0
  6
BYBLOCK
 62
0
100
AcDbBlockEnd
  0
ENDSEC
  0
SECTION
  2
ENTITIES
  0
IMAGE
  5
292
100
AcDbEntity
  8
0
100
AcDbRasterImage
 62
7
  6
CONTINUOUS
 10
19.2297077316
 20
0.3094318264
 30
0.0
 11
0.0066666667
 21
0.0
 31
0.0
 12
0.0
 22
0.0066666667
 32
0.0
 13
369.0
 23
92.0
340
       446
 70
9
280
0
281
50
282
50
283
0
360
       440
 71
1
 91
2
 14
-0.5
 24
-0.5
 14
368.5
 24
91.5
  0
INSERT
  5
293
100
AcDbEntity
  8
0
100
AcDbBlockReference
 62
2
  6
CONTINUOUS
  2
SUN_FIRST_THIRD_ANGLE_BL0
 10
20.4816717061
 20
1.2289683772
  0
ACAD_TABLE
  5
294
100
AcDbEntity
  8
0
 62
2
  6
CONTINUOUS
100
AcDbBlockReference
  2
*T1
 10
12.42375
 20
0.30125
 30
0.0
100
AcDbTable
342
       448
343
212
 11
1.0
 21
0.0
 31
0.0
 90
6
 91
4
 92
6
 93
20
 94
0
 95
0
 96
0
 70
1
 41
0.0
141
0.525
141
0.1
141
0.525
141
0.1
142
4.1
142
1.1
142
0.7
142
0.5
142
0.4
142
2.475
171
1
172
0
173
0
174
0
175
1
176
1
 91
33
178
0
145
0.0
301
CELL_VALUE
 90
4
  1
T-11A Line mount\P(See Technical Data for Body Features)
304
ACVALUE_END
170
2
140
0.125
171
1
172
0
173
0
174
0
175
1
176
1
 91
33
178
0
145
0.0
301
CELL_VALUE
 90
4
  1
Feb-03-20
304
ACVALUE_END
170
5
140
0.125
171
1
172
0
173
0
174
0
175
1
176
1
 91
33
178
0
145
0.0
301
CELL_VALUE
 90
4
  1
2.000
304
ACVALUE_END
170
5
140
0.125
171
1
172
0
173
0
174
0
175
1
176
1
 91
33
178
0
145
0.0
301
CELL_VALUE
 90
4
  1
C
304
ACVALUE_END
170
5
140
0.125
171
1
172
0
173
0
174
0
175
1
176
1
 91
33
178
0
145
0.0
301
CELL_VALUE
 90
4
  1
2
304
ACVALUE_END
170
5
140
0.125
171
1
172
0
173
0
174
0
175
1
176
1
 91
33
178
0
145
0.0
301
CELL_VALUE
 90
4
  1
 
304
ACVALUE_END
170
1
140
0.125
171
1
172
0
173
0
174
0
175
1
176
1
 91
33
178
0
145
0.0
301
CELL_VALUE
 90
4
  1
DESCRIPTION
304
ACVALUE_END
170
1
140
0.06
171
1
172
0
173
0
174
0
175
1
176
1
 91
33
178
0
145
0.0
301
CELL_VALUE
 90
4
  1
DATE
304
ACVALUE_END
170
1
140
0.06
171
1
172
0
173
0
174
0
175
1
176
1
 91
33
178
0
145
0.0
301
CELL_VALUE
 90
4
  1
SCALE
304
ACVALUE_END
170
1
140
0.06
171
1
172
0
173
0
174
0
175
1
176
1
 91
33
178
0
145
0.0
301
CELL_VALUE
 90
4
  1
DWG SIZE
304
ACVALUE_END
170
1
140
0.06
171
1
172
0
173
0
174
0
175
1
176
1
 91
33
178
0
145
0.0
301
CELL_VALUE
 90
4
  1
SHEET
304
ACVALUE_END
170
1
140
0.06
171
1
172
0
173
0
174
0
175
1
176
1
 91
33
178
0
145
0.0
301
CELL_VALUE
 90
4
  1
 
304
ACVALUE_END
170
1
140
0.125
171
1
172
0
173
0
174
0
175
1
176
1
 91
33
178
0
145
0.0
301
CELL_VALUE
 90
4
  1
EQV
304
ACVALUE_END
170
5
140
0.125
171
1
172
0
173
0
174
0
175
4
176
1
 91
33
178
0
145
0.0
301
CELL_VALUE
 90
4
  1
ALL DIMENSIONS IN INCH\PVIEWS ARE THIRD ANGLE
304
ACVALUE_END
170
5
140
0.12
171
1
172
0
173
1
174
0
175
1
176
1
 91
1
178
0
145
0.0
170
1
171
1
172
0
173
1
174
0
175
1
176
1
 91
1
178
0
145
0.0
170
1
171
1
172
0
173
1
174
0
175
1
176
1
 91
1
178
0
145
0.0
170
5
171
1
172
0
173
0
174
0
175
1
176
1
 91
33
178
0
145
0.0
301
CELL_VALUE
 90
4
  1
 
304
ACVALUE_END
170
1
140
0.125
171
1
172
0
173
0
174
0
175
1
176
1
 91
33
178
0
145
0.0
301
CELL_VALUE
 90
4
  1
MODEL
304
ACVALUE_END
170
1
140
0.06
171
1
172
0
173
0
174
0
175
1
176
1
 91
33
178
0
145
0.0
301
CELL_VALUE
 90
4
  1
 
304
ACVALUE_END
170
1
140
0.125
171
1
172
0
173
0
174
0
175
1
176
1
 91
33
178
0
145
0.0
301
CELL_VALUE
 90
4
  1
 
304
ACVALUE_END
170
1
140
0.125
171
1
172
0
173
0
174
0
175
1
176
1
 91
33
178
0
145
0.0
301
CELL_VALUE
 90
4
  1
 
304
ACVALUE_END
170
1
140
0.125
171
1
172
0
173
0
174
0
175
1
176
1
 91
33
178
0
145
0.0
301
CELL_VALUE
 90
4
  1
 
304
ACVALUE_END
170
1
140
0.125
171
1
172
0
173
0
174
0
175
1
176
1
 91
33
178
0
145
0.0
301
CELL_VALUE
 90
4
  1
 
304
ACVALUE_END
170
1
140
0.125
  0
ACAD_TABLE
  5
295
100
AcDbEntity
  8
0
 62
2
  6
CONTINUOUS
100
AcDbBlockReference
  2
*T2
 10
12.4237499994
 20
16.47875
 30
0.0
100
AcDbTable
342
       447
343
213
 11
1.0
 21
0.0
 31
0.0
 90
22
 91
10
 92
3
 93
16
 94
0
 95
0
 96
0
 41
0.028
141
0.344
141
0.25
141
0.25
141
0.25
141
0.25
141
0.25
141
0.25
141
0.25
141
0.25
141
0.25
142
3.055
142
3.0
142
3.0
171
1
172
0
173
0
174
0
175
1
176
1
 91
33
178
0
145
0.0
301
CELL_VALUE
 90
4
  1
Technical Data
304
ACVALUE_END
170
5
140
0.145
171
1
172
0
173
0
174
0
175
1
176
1
 91
33
178
0
145
0.0
301
CELL_VALUE
 90
4
  1
U.S. Units
304
ACVALUE_END
170
5
140
0.145
171
1
172
0
173
0
174
0
175
1
176
1
 91
33
178
0
145
0.0
301
CELL_VALUE
 90
4
  1
Metric Units
304
ACVALUE_END
170
5
140
0.145
171
1
172
0
173
0
174
0
175
1
176
1
 91
33
178
0
145
0.0
301
CELL_VALUE
 90
4
  1
Cavity
304
ACVALUE_END
170
5
140
0.125
171
1
172
0
173
0
174
0
175
2
176
1
 91
33
178
0
145
0.0
301
CELL_VALUE
 90
4
  1
T-11A
304
ACVALUE_END
170
5
140
0.125
171
1
172
0
173
1
174
0
175
1
176
1
 91
1
178
0
145
0.0
170
1
171
1
172
0
173
0
174
0
175
1
176
1
 91
33
178
0
145
0.0
301
CELL_VALUE
 90
4
  1
Body Features
304
ACVALUE_END
170
5
140
0.125
171
1
172
0
173
0
174
0
175
2
176
1
 91
33
178
0
145
0.0
301
CELL_VALUE
 90
4
  1
Cushion lock with make up checks and shuttle
304
ACVALUE_END
170
5
140
0.125
171
1
172
0
173
1
174
0
175
1
176
1
 91
1
178
0
145
0.0
170
1
171
1
172
0
173
0
174
0
175
1
176
1
 91
33
178
0
145
0.0
301
CELL_VALUE
 90
4
  1
Body Type
304
ACVALUE_END
170
5
140
0.125
171
1
172
0
173
0
174
0
175
2
176
1
 91
33
178
0
145
0.0
301
CELL_VALUE
 90
4
  1
Line mount
304
ACVALUE_END
170
5
140
0.125
171
1
172
0
173
1
174
0
175
1
176
1
 91
1
178
0
145
0.0
170
1
171
1
172
0
173
0
174
0
175
1
176
1
 91
33
178
0
145
0.0
301
CELL_VALUE
 90
4
  1
Interface
304
ACVALUE_END
170
5
140
0.125
171
1
172
0
173
0
174
0
175
2
176
1
 91
33
178
0
145
0.0
301
CELL_VALUE
 90
4
  1
None
304
ACVALUE_END
170
5
140
0.125
171
1
172
0
173
1
174
0
175
1
176
1
 91
1
178
0
145
0.0
170
1
171
1
172
0
173
0
174
0
175
1
176
1
 91
33
178
0
145
0.0
301
CELL_VALUE
 90
4
  1
Open Cavity Quantity
304
ACVALUE_END
170
5
140
0.125
171
1
172
0
173
0
174
0
175
2
176
1
 91
33
178
0
145
0.0
301
CELL_VALUE
 90
4
  1
2
304
ACVALUE_END
170
5
140
0.125
171
1
172
0
173
1
174
0
175
1
176
1
 91
1
178
0
145
0.0
170
1
171
1
172
0
173
0
174
0
175
1
176
1
 91
33
178
0
145
0.0
301
CELL_VALUE
 90
4
  1
Weight
304
ACVALUE_END
170
5
140
0.125
171
1
172
0
173
0
174
0
175
1
176
1
 91
33
178
0
145
0.0
301
CELL_VALUE
 90
4
  1
3.194 lb.
304
ACVALUE_END
170
5
140
0.125
171
1
172
0
173
0
174
0
175
1
176
1
 91
33
178
0
145
0.0
301
CELL_VALUE
 90
4
  1
1,449 kg.
304
ACVALUE_END
170
5
140
0.125
171
1
172
0
173
0
174
0
175
1
176
1
 91
33
178
0
145
0.0
301
CELL_VALUE
 90
4
  1
Mounting Hole Diameter
304
ACVALUE_END
170
5
140
0.125
171
1
172
0
173
0
174
0
175
1
176
1
 91
33
178
0
145
0.0
301
CELL_VALUE
 90
4
  1
.34 in.
304
ACVALUE_END
170
5
140
0.125
171
1
172
0
173
0
174
0
175
1
176
1
 91
33
178
0
145
0.0
301
CELL_VALUE
 90
4
  1
8.6 mm
304
ACVALUE_END
170
5
140
0.125
171
1
172
0
173
0
174
0
175
1
176
1
 91
33
178
0
145
0.0
301
CELL_VALUE
 90
4
  1
Mounting Hole Depth
304
ACVALUE_END
170
5
140
0.125
171
1
172
0
173
0
174
0
175
2
176
1
 91
33
178
0
145
0.0
301
CELL_VALUE
 90
4
  1
Through
304
ACVALUE_END
170
5
140
0.125
171
1
172
0
173
1
174
0
175
1
176
1
 91
1
178
0
145
0.0
170
1
171
1
172
0
173
0
174
0
175
1
176
1
 91
33
178
0
145
0.0
301
CELL_VALUE
 90
4
  1
Mounting Hole Quantity
304
ACVALUE_END
170
5
140
0.125
171
1
172
0
173
0
174
0
175
2
176
1
 91
33
178
0
145
0.0
301
CELL_VALUE
 90
4
  1
2
304
ACVALUE_END
170
5
140
0.125
171
1
172
0
173
1
174
0
175
1
176
1
 91
1
178
0
145
0.0
170
1
  0
ACAD_TABLE
  5
296
100
AcDbEntity
  8
0
 62
2
  6
CONTINUOUS
100
AcDbBlockReference
  2
*T3
 10
0.52125
 20
1.959
 30
0.0
100
AcDbTable
342
       447
343
214
 11
1.0
 21
0.0
 31
0.0
 90
22
 91
5
 92
3
 93
16
 94
0
 95
0
 96
0
 41
0.05
141
0.34375
141
0.344
141
0.25
141
0.25
141
0.25
142
1.3
142
2.0
142
1.3
171
1
172
0
173
0
174
0
175
3
176
1
 91
33
178
0
145
0.0
301
CELL_VALUE
 90
4
  1
Port Headings
304
ACVALUE_END
170
5
140
0.145
171
1
172
0
173
1
174
0
175
1
176
1
 91
1
178
0
145
0.0
170
1
171
1
172
0
173
1
174
0
175
1
176
1
 91
1
178
0
145
0.0
170
1
171
1
172
0
173
0
174
0
175
1
176
1
 91
33
178
0
145
0.0
301
CELL_VALUE
 90
4
  1
Product
304
ACVALUE_END
170
5
140
0.145
171
1
172
0
173
0
174
0
175
1
176
1
 91
33
178
0
145
0.0
301
CELL_VALUE
 90
4
  1
Port
304
ACVALUE_END
170
5
140
0.145
171
1
172
0
173
0
174
0
175
1
176
1
 91
33
178
0
145
0.0
301
CELL_VALUE
 90
4
  1
Size
304
ACVALUE_END
170
5
140
0.145
171
1
172
0
173
0
174
0
175
1
176
1
 91
33
178
0
145
0.0
301
CELL_VALUE
 90
4
  1
EQV
304
ACVALUE_END
170
5
140
0.125
171
1
172
0
173
0
174
0
175
1
176
1
 91
33
178
0
145
0.0
301
CELL_VALUE
 90
4
  1
Ports C1, C2, V1, V2
304
ACVALUE_END
170
5
140
0.125
171
1
172
0
173
0
174
0
175
1
176
1
 91
33
178
0
145
0.0
301
CELL_VALUE
 90
4
  1
1/2" BSPP
304
ACVALUE_END
170
5
140
0.125
171
1
172
0
173
0
174
0
175
1
176
1
 91
33
178
0
145
0.0
301
CELL_VALUE
 90
4
  1
EQV
304
ACVALUE_END
170
5
140
0.125
171
1
172
0
173
0
174
0
175
1
176
1
 91
33
178
0
145
0.0
301
CELL_VALUE
 90
4
  1
Port T
304
ACVALUE_END
170
5
140
0.125
171
1
172
0
173
0
174
0
175
1
176
1
 91
33
178
0
145
0.0
301
CELL_VALUE
 90
4
  1
1/2" BSPP
304
ACVALUE_END
170
5
140
0.125
171
1
172
0
173
0
174
0
175
1
176
1
 91
33
178
0
145
0.0
301
CELL_VALUE
 90
4
  1
EQV
304
ACVALUE_END
170
5
140
0.125
171
1
172
0
173
0
174
0
175
1
176
1
 91
33
178
0
145
0.0
301
CELL_VALUE
 90
4
  1
Port S
304
ACVALUE_END
170
5
140
0.125
171
1
172
0
173
0
174
0
175
1
176
1
 91
33
178
0
145
0.0
301
CELL_VALUE
 90
4
  1
1/4" BSPP
304
ACVALUE_END
170
5
140
0.125
  0
MTEXT
  5
297
100
AcDbEntity
  8
0
100
AcDbMText
 62
2
  6
CONTINUOUS
  7
STANDARD
 71
1
 72
1
 10
0.52125
 20
5.75995
 30
0.0
 11
1.0
 21
0.0
 31
0.0
 44
0.6
  3
Notes\P \P1. Important: Carefully consider\P   the maximum system pressure. The\P   pressure rating of the manifold is\P   dependent on the manifold material,\P   with the port type/size a secondary\P   consideration. Manifolds\P   constructed of alu
  1
minum are not\P   rated for pressures higher than\P   3000 psi (210 bar), regardless of\P   the port type/size specified.\P2. Items without balloons are\P   shipped loose.
 40
0.1
 41
3.04
  0
LINE
  5
298
100
AcDbEntity
  8
0
100
AcDbLine
 62
7
  6
CONTINUOUS
 10
0.30125
 20
0.30125
 11
0.30125
 21
16.69875
  0
LINE
  5
299
100
AcDbEntity
  8
0
100
AcDbLine
 62
7
  6
CONTINUOUS
 10
0.30125
 20
0.30125
 11
21.69875
 21
0.30125
  0
LINE
  5
29A
100
AcDbEntity
  8
0
100
AcDbLine
 62
7
  6
CONTINUOUS
 10
0.30125
 20
16.69875
 11
21.69875
 21
16.69875
  0
LINE
  5
29B
100
AcDbEntity
  8
0
100
AcDbLine
 62
7
  6
CONTINUOUS
 10
21.69875
 20
0.30125
 11
21.69875
 21
16.69875
  0
LINE
  5
29C
100
AcDbEntity
  8
0
100
AcDbLine
 62
7
  6
CONTINUOUS
 10
8.3957159022
 20
12.3822322324
 11
6.8428029132
 21
10.8822333815
  0
LINE
  5
29D
100
AcDbEntity
  8
0
100
AcDbLine
 62
7
  6
CONTINUOUS
 10
6.8428029132
 20
10.8822333815
 11
6.8428029132
 21
5.0866780803
  0
LINE
  5
29E
100
AcDbEntity
  8
0
100
AcDbLine
 62
7
  6
CONTINUOUS
 10
6.8428029132
 20
5.0866780803
 11
13.6042840978
 21
4.6177677676
  0
LINE
  5
29F
100
AcDbEntity
  8
0
100
AcDbLine
 62
4
  6
CONTINUOUS
 10
8.3882842887
 20
6.2139518413
 11
8.3496472547
 21
6.2456091046
  0
LINE
  5
2A0
100
AcDbEntity
  8
0
100
AcDbLine
 62
4
  6
CONTINUOUS
 10
8.3496472547
 20
6.2456091046
 11
8.3303287369
 21
6.2759266242
  0
LINE
  5
2A1
100
AcDbEntity
  8
0
100
AcDbLine
 62
4
  6
CONTINUOUS
 10
13.1599581869
 20
5.7178618612
 11
13.1020026352
 21
5.7073922045
  0
LINE
  5
2A2
100
AcDbEntity
  8
0
100
AcDbLine
 62
4
  6
CONTINUOUS
 10
8.3303287369
 20
6.116548857
 11
8.5255607457
 21
6.0419994684
  0
LINE
  5
2A3
100
AcDbEntity
  8
0
100
AcDbLine
 62
4
  6
CONTINUOUS
 10
8.3303287369
 20
6.5657043828
 11
8.5392588337
 21
6.446749983
  0
LINE
  5
2A4
100
AcDbEntity
  8
0
100
AcDbLine
 62
4
  6
CONTINUOUS
 10
8.3689657726
 20
6.6789359987
 11
8.3496472547
 21
6.6947646304
  0
LINE
  5
2A5
100
AcDbEntity
  8
0
100
AcDbLine
 62
4
  6
CONTINUOUS
 10
8.3496472547
 20
6.6947646304
 11
8.3303287369
 21
6.72508215
  0
LINE
  5
2A6
100
AcDbEntity
  8
0
100
AcDbLine
 62
4
  6
CONTINUOUS
 10
8.5428324312
 20
6.7683005205
 11
8.5621509438
 21
6.7379830012
  0
LINE
  5
2A7
100
AcDbEntity
  8
0
100
AcDbLine
 62
4
  6
CONTINUOUS
 10
8.3303287369
 20
6.2759266242
 11
8.3303287369
 21
6.3338821759
  0
LINE
  5
2A8
100
AcDbEntity
  8
0
100
AcDbLine
 62
4
  6
CONTINUOUS
 10
8.3303287369
 20
6.72508215
 11
8.3303287369
 21
6.7540599258
  0
LINE
  5
2A9
100
AcDbEntity
  8
0
100
AcDbLine
 62
4
  6
CONTINUOUS
 10
8.3303287369
 20
9.113816835
 11
8.3303287369
 21
9.1717723867
  0
LINE
  5
2AA
100
AcDbEntity
  8
0
100
AcDbLine
 62
4
  6
CONTINUOUS
 10
8.3303287369
 20
9.5629723608
 11
8.3303287369
 21
9.5919501366
  0
LINE
  5
2AB
100
AcDbEntity
  8
0
100
AcDbLine
 62
4
  6
CONTINUOUS
 10
8.3303287369
 20
9.5919501366
 11
8.3496472547
 21
9.6195881687
  0
LINE
  5
2AC
100
AcDbEntity
  8
0
100
AcDbLine
 62
4
  6
CONTINUOUS
 10
13.1599581869
 20
6.181506275
 11
13.1020026352
 21
6.1710366182
  0
LINE
  5
2AD
100
AcDbEntity
  8
0
100
AcDbLine
 62
4
  6
CONTINUOUS
 10
8.4462398404
 20
6.1954437222
 11
8.3882842887
 21
6.2139518413
  0
LINE
  5
2AE
100
AcDbEntity
  8
0
100
AcDbLine
 62
4
  6
CONTINUOUS
 10
8.5041953921
 20
6.7999577841
 11
8.5428324312
 21
6.7683005205
  0
LINE
  5
2AF
100
AcDbEntity
  8
0
100
AcDbLine
 62
4
  6
CONTINUOUS
 10
8.4076028082
 20
8.9201023169
 11
8.4076028082
 21
8.8331689893
  0
LINE
  5
2B0
100
AcDbEntity
  8
0
100
AcDbLine
 62
4
  6
CONTINUOUS
 10
8.4076028082
 20
6.0822121061
 11
8.4076028082
 21
5.9952787785
  0
LINE
  5
2B1
100
AcDbEntity
  8
0
100
AcDbLine
 62
4
  6
CONTINUOUS
 10
8.5621509438
 20
9.575873212
 11
8.5621509438
 21
9.5468954361
  0
LINE
  5
2B2
100
AcDbEntity
  8
0
100
AcDbLine
 62
4
  6
CONTINUOUS
 10
8.5621509438
 20
6.7379830012
 11
8.5621509438
 21
6.7090052253
  0
LINE
  5
2B3
100
AcDbEntity
  8
0
100
AcDbLine
 62
4
  6
CONTINUOUS
 10
8.5621509438
 20
9.5468954361
 11
8.5428324312
 21
9.5192574037
  0
LINE
  5
2B4
100
AcDbEntity
  8
0
100
AcDbLine
 62
7
  6
CONTINUOUS
 10
8.8234232888
 20
9.6832971829
 11
8.5980250425
 21
9.4655791827
  0
LINE
  5
2B5
100
AcDbEntity
  8
0
100
AcDbLine
 62
4
  6
CONTINUOUS
 10
8.3496472547
 20
9.6195881687
 11
8.3882842887
 21
9.6458864572
  0
LINE
  5
2B6
100
AcDbEntity
  8
0
100
AcDbLine
 62
4
  6
CONTINUOUS
 10
8.5428324312
 20
9.5192574037
 11
8.5235139047
 21
9.5061082601
  0
LINE
  5
2B7
100
AcDbEntity
  8
0
100
AcDbLine
 62
4
  6
CONTINUOUS
 10
13.0440470835
 20
6.5517669355
 11
13.1020026352
 21
6.5622365923
  0
LINE
  5
2B8
100
AcDbEntity
  8
0
100
AcDbLine
 62
4
  6
CONTINUOUS
 10
8.3303287369
 20
6.3338821759
 11
8.5323441373
 21
6.3198723603
  0
LINE
  5
2B9
100
AcDbEntity
  8
0
100
AcDbLine
 62
4
  6
CONTINUOUS
 10
8.4462398404
 20
6.8184659032
 11
8.5041953921
 21
6.7999577841
  0
LINE
  5
2BA
100
AcDbEntity
  8
0
100
AcDbLine
 62
7
  6
CONTINUOUS
 10
9.5542205214
 20
10.0545422016
 11
9.328822275
 21
9.8368242014
  0
LINE
  5
2BB
100
AcDbEntity
  8
0
100
AcDbLine
 62
7
  6
CONTINUOUS
 10
9.6686394122
 20
10.0466072246
 11
9.4432411658
 21
9.8288892243
  0
LINE
  5
2BC
100
AcDbEntity
  8
02___PRT_ALL_AXES
100
AcDbLine
 62
7
  6
CONTINUOUS
 10
10.8810471445
 20
10.9708779361
 11
10.8818302293
 21
10.9716188526
  0
LINE
  5
2BD
100
AcDbEntity
  8
02___PRT_ALL_AXES
100
AcDbLine
 62
7
  6
CONTINUOUS
 10
10.8220920371
 20
10.9160275169
 11
10.8818248899
 21
10.9716152071
  0
LINE
  5
2BE
100
AcDbEntity
  8
0
100
AcDbLine
 62
4
  6
CONTINUOUS
 10
8.5268923782
 20
9.0592522903
 11
8.5041953921
 21
9.0438035898
  0
LINE
  5
2BF
100
AcDbEntity
  8
0
100
AcDbLine
 62
4
  6
CONTINUOUS
 10
14.1555682096
 20
6.4349487387
 11
14.1400390801
 21
6.4344376385
  0
LINE
  5
2C0
100
AcDbEntity
  8
0
100
AcDbLine
 62
4
  6
CONTINUOUS
 10
13.2179137386
 20
6.4237981386
 11
12.9860915318
 21
6.4398750632
  0
LINE
  5
2C1
100
AcDbEntity
  8
0
100
AcDbLine
 62
4
  6
CONTINUOUS
 10
13.1020026352
 20
5.7073922045
 11
13.0440470835
 21
5.7259003236
  0
LINE
  5
2C2
100
AcDbEntity
  8
0
100
AcDbLine
 62
4
  6
CONTINUOUS
 10
8.3496472547
 20
9.0834993154
 11
8.3303287369
 21
9.113816835
  0
LINE
  5
2C3
100
AcDbEntity
  8
0
100
AcDbLine
 62
4
  6
CONTINUOUS
 10
8.5464152841
 20
9.3807411108
 11
8.3303287369
 21
9.2876834901
  0
LINE
  5
2C4
100
AcDbEntity
  8
0
100
AcDbLine
 62
4
  6
CONTINUOUS
 10
8.5255607461
 20
6.0191305947
 11
8.3303287369
 21
5.9716599777
  0
LINE
  5
2C5
100
AcDbEntity
  8
0
100
AcDbLine
 62
4
  6
CONTINUOUS
 10
8.5041953921
 20
6.205913379
 11
8.4462398404
 21
6.1954437222
  0
LINE
  5
2C6
100
AcDbEntity
  8
0
100
AcDbLine
 62
4
  6
CONTINUOUS
 10
13.1020026352
 20
6.1710366182
 11
13.0440470835
 21
6.1895447373
  0
LINE
  5
2C7
100
AcDbEntity
  8
0
100
AcDbLine
 62
4
  6
CONTINUOUS
 10
8.3496472547
 20
9.5326548412
 11
8.3303287369
 21
9.5629723608
  0
LINE
  5
2C8
100
AcDbEntity
  8
0
100
AcDbLine
 62
4
  6
CONTINUOUS
 10
8.5428324312
 20
9.6061907312
 11
8.5621509438
 21
9.575873212
  0
LINE
  5
2C9
100
AcDbEntity
  8
0
100
AcDbLine
 62
4
  6
CONTINUOUS
 10
8.3303287369
 20
6.7540599258
 11
8.3496472547
 21
6.7816979579
  0
LINE
  5
2CA
100
AcDbEntity
  8
0
100
AcDbLine
 62
7
  6
CONTINUOUS
 10
10.3994366448
 20
9.5740002855
 11
10.1740383984
 21
9.3562822852
  0
LINE
  5
2CB
100
AcDbEntity
  8
0
100
AcDbLine
 62
4
  6
CONTINUOUS
 10
8.3882842887
 20
6.8079962464
 11
8.4462398404
 21
6.8184659032
  0
LINE
  5
2CC
100
AcDbEntity
  8
0
100
AcDbLine
 62
4
  6
CONTINUOUS
 10
13.1020026352
 20
6.5622365923
 11
13.1599581869
 21
6.5437284732
  0
LINE
  5
2CD
100
AcDbEntity
  8
0
100
AcDbLine
 62
4
  6
CONTINUOUS
 10
13.2179137386
 20
5.9601537249
 11
12.9860915318
 21
6.0921417529
  0
LINE
  5
2CE
100
AcDbEntity
  8
0
100
AcDbLine
 62
4
  6
CONTINUOUS
 10
8.3882842887
 20
9.0518420521
 11
8.3496472547
 21
9.0834993154
  0
LINE
  5
2CF
100
AcDbEntity
  8
0
100
AcDbLine
 62
4
  6
CONTINUOUS
 10
8.5621509438
 20
6.7090052253
 11
8.5428324312
 21
6.6813671929
  0
LINE
  5
2D0
100
AcDbEntity
  8
0
100
AcDbLine
 62
7
  6
CONTINUOUS
 10
10.4566460902
 20
9.4709431308
 11
10.2312478438
 21
9.2532251305
  0
LINE
  5
2D1
100
AcDbEntity
  8
0
100
AcDbLine
 62
7
  6
CONTINUOUS
 10
10.9967565268
 20
9.532576011
 11
10.7713582804
 21
9.3148580107
  0
LINE
  5
2D2
100
AcDbEntity
  8
0
100
AcDbLine
 62
4
  6
CONTINUOUS
 10
8.3689657726
 20
9.5168262095
 11
8.3496472547
 21
9.5326548412
  0
LINE
  5
2D3
100
AcDbEntity
  8
0
100
AcDbLine
 62
4
  6
CONTINUOUS
 10
13.0440470835
 20
5.7259003236
 11
13.0054100444
 21
5.7575575872
  0
LINE
  5
2D4
100
AcDbEntity
  8
0
100
AcDbLine
 62
7
  6
CONTINUOUS
 10
11.7275537593
 20
9.9038210297
 11
11.5021555129
 21
9.6861030294
  0
LINE
  5
2D5
100
AcDbEntity
  8
0
100
AcDbLine
 62
7
  6
CONTINUOUS
 10
10.4566460902
 20
8.627091173
 11
10.2312478438
 21
8.4093731727
  0
LINE
  5
2D6
100
AcDbEntity
  8
0
100
AcDbLine
 62
7
  6
CONTINUOUS
 10
10.3994366448
 20
8.5319689953
 11
10.1740383984
 21
8.3142509951
  0
LINE
  5
2D7
100
AcDbEntity
  8
0
100
AcDbLine
 62
7
  6
CONTINUOUS
 10
11.8419726501
 20
9.8958860526
 11
11.6165744038
 21
9.6781680524
  0
LINE
  5
2D8
100
AcDbEntity
  8
0
100
AcDbLine
 62
4
  6
CONTINUOUS
 10
8.3303287369
 20
8.9544390678
 11
8.5257857061
 21
8.879803778
  0
LINE
  5
2D9
100
AcDbEntity
  8
0
100
AcDbLine
 62
4
  6
CONTINUOUS
 10
8.3303287369
 20
9.4035945936
 11
8.5357835011
 21
9.2866188752
  0
LINE
  5
2DA
100
AcDbEntity
  8
0
100
AcDbLine
 62
4
  6
CONTINUOUS
 10
8.5041953921
 20
9.6378479949
 11
8.5428324312
 21
9.6061907312
  0
LINE
  5
2DB
100
AcDbEntity
  8
0
100
AcDbLine
 62
4
  6
CONTINUOUS
 10
13.179276703
 20
5.8469221089
 11
13.1985952208
 21
5.8310934773
  0
LINE
  5
2DC
100
AcDbEntity
  8
0
100
AcDbLine
 62
4
  6
CONTINUOUS
 10
13.0440470835
 20
6.1895447373
 11
13.0054100444
 21
6.2212020009
  0
LINE
  5
2DD
100
AcDbEntity
  8
0
100
AcDbLine
 62
7
  6
CONTINUOUS
 10
8.8234232888
 20
6.7855195324
 11
8.5980250425
 21
6.5678015321
  0
LINE
  5
2DE
100
AcDbEntity
  8
0
100
AcDbLine
 62
7
  6
CONTINUOUS
 10
9.5542205214
 20
7.1567645511
 11
9.328822275
 21
6.9390465508
  0
LINE
  5
2DF
100
AcDbEntity
  8
0
100
AcDbLine
 62
7
  6
CONTINUOUS
 10
9.6686394122
 20
7.148829574
 11
9.4432411658
 21
6.9311115738
  0
LINE
  5
2E0
100
AcDbEntity
  8
0
100
AcDbLine
 62
4
  6
CONTINUOUS
 10
8.3496472547
 20
6.7816979579
 11
8.3882842887
 21
6.8079962464
  0
LINE
  5
2E1
100
AcDbEntity
  8
0
100
AcDbLine
 62
4
  6
CONTINUOUS
 10
13.1599581869
 20
8.6156392815
 11
13.1020026352
 21
8.6051696247
  0
LINE
  5
2E2
100
AcDbEntity
  8
0
100
AcDbLine
 62
4
  6
CONTINUOUS
 10
8.4462398404
 20
9.033333933
 11
8.3882842887
 21
9.0518420521
  0
LINE
  5
2E3
100
AcDbEntity
  8
0
100
AcDbLine
 62
4
  6
CONTINUOUS
 10
13.179276703
 20
6.3105665227
 11
13.1985952208
 21
6.294737891
  0
LINE
  5
2E4
100
AcDbEntity
  8
0
100
AcDbLine
 62
4
  6
CONTINUOUS
 10
13.1599581869
 20
6.5437284732
 11
13.1985952208
 21
6.5120712099
  0
LINE
  5
2E5
100
AcDbEntity
  8
0
100
AcDbLine
 62
7
  6
CONTINUOUS
 10
11.1262305776
 20
11.0042488109
 11
11.1262305776
 21
10.9035000036
  0
LINE
  5
2E6
100
AcDbEntity
  8
0
100
AcDbLine
 62
7
  6
CONTINUOUS
 10
11.3359173435
 20
10.9897069843
 11
11.3359173435
 21
10.9208942499
  0
LINE
  5
2E7
100
AcDbEntity
  8
0
100
AcDbLine
 62
7
  6
CONTINUOUS
 10
12.5727698827
 20
9.4232791135
 11
12.3473716363
 21
9.2055611132
  0
LINE
  5
2E8
100
AcDbEntity
  8
0
100
AcDbLine
 62
4
  6
CONTINUOUS
 10
8.5428324312
 20
6.6813671929
 11
8.5235139047
 21
6.6682180493
  0
LINE
  5
2E9
100
AcDbEntity
  8
0
100
AcDbLine
 62
4
  6
CONTINUOUS
 10
13.0054100444
 20
9.4232460677
 11
13.0440470835
 21
9.4495443558
  0
LINE
  5
2EA
100
AcDbEntity
  8
0
100
AcDbLine
 62
4
  6
CONTINUOUS
 10
13.1599581869
 20
9.0792836952
 11
13.1020026352
 21
9.0688140385
  0
LINE
  5
2EB
100
AcDbEntity
  8
0
100
AcDbLine
 62
4
  6
CONTINUOUS
 10
8.4462398404
 20
9.656356114
 11
8.5041953921
 21
9.6378479949
  0
LINE
  5
2EC
100
AcDbEntity
  8
0
100
AcDbLine
 62
4
  6
CONTINUOUS
 10
13.0054100444
 20
5.7575575872
 11
12.9860915318
 21
5.7878751064
  0
LINE
  5
2ED
100
AcDbEntity
  8
0
100
AcDbLine
 62
4
  6
CONTINUOUS
 10
13.1985952208
 20
5.8310934773
 11
13.2179137386
 21
5.8007759576
  0
LINE
  5
2EE
100
AcDbEntity
  8
0
100
AcDbLine
 62
7
  6
CONTINUOUS
 10
15.1571970868
 20
11.9133219197
 11
13.6042840978
 21
10.4133230687
  0
LINE
  5
2EF
100
AcDbEntity
  8
0
100
AcDbLine
 62
7
  6
CONTINUOUS
 10
12.6299793281
 20
9.3202219589
 11
12.4045810817
 21
9.1025039586
  0
LINE
  5
2F0
100
AcDbEntity
  8
0
100
AcDbLine
 62
4
  6
CONTINUOUS
 10
8.5285152503
 20
6.2224666864
 11
8.5041953921
 21
6.205913379
  0
LINE
  5
2F1
100
AcDbEntity
  8
0
100
AcDbLine
 62
4
  6
CONTINUOUS
 10
13.0054100444
 20
9.2059127487
 11
13.0247285709
 21
9.2190618923
  0
LINE
  5
2F2
100
AcDbEntity
  8
0
100
AcDbLine
 62
4
  6
CONTINUOUS
 10
13.1985952208
 20
9.1055819837
 11
13.1599581869
 21
9.0792836952
  0
LINE
  5
2F3
100
AcDbEntity
  8
0
100
AcDbLine
 62
4
  6
CONTINUOUS
 10
12.9860915318
 20
8.8740080698
 11
13.2179137386
 21
8.9738422486
  0
LINE
  5
2F4
100
AcDbEntity
  8
0
100
AcDbLine
 62
4
  6
CONTINUOUS
 10
13.0440470835
 20
9.4495443558
 11
13.1020026352
 21
9.4600140125
  0
LINE
  5
2F5
100
AcDbEntity
  8
0
100
AcDbLine
 62
4
  6
CONTINUOUS
 10
14.1555682096
 20
9.3327266196
 11
14.1400390801
 21
9.3322155193
  0
LINE
  5
2F6
100
AcDbEntity
  8
0
100
AcDbLine
 62
4
  6
CONTINUOUS
 10
8.3303287369
 20
9.1717723867
 11
8.529898657
 21
9.1579321657
  0
LINE
  5
2F7
100
AcDbEntity
  8
0
100
AcDbLine
 62
4
  6
CONTINUOUS
 10
13.1020026352
 20
8.6051696247
 11
13.0440470835
 21
8.6236777438
  0
LINE
  5
2F8
100
AcDbEntity
  8
0
100
AcDbLine
 62
4
  6
CONTINUOUS
 10
13.0054100444
 20
6.2212020009
 11
12.9860915318
 21
6.2515195202
  0
LINE
  5
2F9
100
AcDbEntity
  8
0
100
AcDbLine
 62
4
  6
CONTINUOUS
 10
13.1985952208
 20
6.294737891
 11
13.2179137386
 21
6.2644203714
  0
LINE
  5
2FA
100
AcDbEntity
  8
0
100
AcDbLine
 62
4
  6
CONTINUOUS
 10
13.1985952208
 20
6.5120712099
 11
13.2179137386
 21
6.4817536903
  0
LINE
  5
2FB
100
AcDbEntity
  8
0
100
AcDbLine
 62
4
  6
CONTINUOUS
 10
12.9860915318
 20
9.3956080352
 11
13.0054100444
 21
9.4232460677
  0
LINE
  5
2FC
100
AcDbEntity
  8
0
100
AcDbLine
 62
7
  6
CONTINUOUS
 10
10.3994366448
 20
6.6762226349
 11
10.1740383984
 21
6.4585046346
  0
LINE
  5
2FD
100
AcDbEntity
  8
0
100
AcDbLine
 62
7
  6
CONTINUOUS
 10
10.4566460902
 20
6.5731654803
 11
10.2312478438
 21
6.35544748
  0
LINE
  5
2FE
100
AcDbEntity
  8
0
100
AcDbLine
 62
7
  6
CONTINUOUS
 10
12.6299793281
 20
8.476370001
 11
12.4045810817
 21
8.2586520007
  0
LINE
  5
2FF
100
AcDbEntity
  8
0
100
AcDbLine
 62
7
  6
CONTINUOUS
 10
12.5727698827
 20
8.3812478234
 11
12.3473716363
 21
8.1635298231
  0
LINE
  5
300
100
AcDbEntity
  8
0
100
AcDbLine
 62
4
  6
CONTINUOUS
 10
13.0054100444
 20
8.742268335
 11
13.0247285709
 21
8.7554174786
  0
LINE
  5
301
100
AcDbEntity
  8
0
100
AcDbLine
 62
4
  6
CONTINUOUS
 10
13.1985952208
 20
8.64193757
 11
13.1599581869
 21
8.6156392815
  0
LINE
  5
302
100
AcDbEntity
  8
0
100
AcDbLine
 62
4
  6
CONTINUOUS
 10
8.5621509438
 20
6.5496274581
 11
8.3303287369
 21
6.4497932793
  0
LINE
  5
303
100
AcDbEntity
  8
0
100
AcDbLine
 62
4
  6
CONTINUOUS
 10
8.5261028387
 20
8.8571526152
 11
8.3303287369
 21
8.8095501885
  0
LINE
  5
304
100
AcDbEntity
  8
0
100
AcDbLine
 62
4
  6
CONTINUOUS
 10
8.5041953921
 20
9.0438035898
 11
8.4462398404
 21
9.033333933
  0
LINE
  5
305
100
AcDbEntity
  8
0
100
AcDbLine
 62
4
  6
CONTINUOUS
 10
14.1710973392
 20
9.6230154784
 11
14.1866264687
 21
9.6235265786
  0
LINE
  5
306
100
AcDbEntity
  8
0
100
AcDbLine
 62
4
  6
CONTINUOUS
 10
13.2179137386
 20
9.3215755589
 11
12.9860915318
 21
9.3376524835
  0
LINE
  5
307
100
AcDbEntity
  8
0
100
AcDbLine
 62
4
  6
CONTINUOUS
 10
13.1020026352
 20
9.0688140385
 11
13.0440470835
 21
9.0873221576
  0
LINE
  5
308
100
AcDbEntity
  8
0
100
AcDbLine
 62
4
  6
CONTINUOUS
 10
12.9860915318
 20
9.1782747163
 11
13.0054100444
 21
9.2059127487
  0
LINE
  5
309
100
AcDbEntity
  8
0
100
AcDbLine
 62
4
  6
CONTINUOUS
 10
13.2179137386
 20
9.1332200158
 11
13.1985952208
 21
9.1055819837
  0
LINE
  5
30A
100
AcDbEntity
  8
0
100
AcDbLine
 62
4
  6
CONTINUOUS
 10
12.9860915318
 20
8.7146303026
 11
13.0054100444
 21
8.742268335
  0
LINE
  5
30B
100
AcDbEntity
  8
0
100
AcDbLine
 62
4
  6
CONTINUOUS
 10
14.1348627048
 20
9.6894377227
 11
14.1452154554
 21
9.6994377124
  0
LINE
  5
30C
100
AcDbEntity
  8
0
100
AcDbLine
 62
7
  6
CONTINUOUS
 10
10.9967565268
 20
6.6347983604
 11
10.7713582804
 21
6.4170803601
  0
LINE
  5
30D
100
AcDbEntity
  8
0
100
AcDbLine
 62
4
  6
CONTINUOUS
 10
13.1020026352
 20
9.4600140125
 11
13.1599581869
 21
9.4415058935
  0
LINE
  5
30E
100
AcDbEntity
  8
0
100
AcDbLine
 62
4
  6
CONTINUOUS
 10
13.2179137386
 20
8.8579311451
 11
12.9860915318
 21
8.9899191732
  0
LINE
  5
30F
100
AcDbEntity
  8
0
100
AcDbLine
 62
4
  6
CONTINUOUS
 10
13.0440470835
 20
8.6236777438
 11
13.0054100444
 21
8.6553350074
  0
LINE
  5
310
100
AcDbEntity
  8
0
100
AcDbLine
 62
4
  6
CONTINUOUS
 10
13.2179137386
 20
8.6695756021
 11
13.1985952208
 21
8.64193757
  0
LINE
  5
311
100
AcDbEntity
  8
0
100
AcDbLine
 62
7
  6
CONTINUOUS
 10
11.7275537593
 20
7.0060433791
 11
11.5021555129
 21
6.7883253788
  0
LINE
  5
312
100
AcDbEntity
  8
0
100
AcDbLine
 62
7
  6
CONTINUOUS
 10
10.4566460902
 20
5.7293135224
 11
10.2312478438
 21
5.5115955221
  0
LINE
  5
313
100
AcDbEntity
  8
0
100
AcDbLine
 62
7
  6
CONTINUOUS
 10
10.3994366448
 20
5.6341913448
 11
10.1740383984
 21
5.4164733445
  0
LINE
  5
314
100
AcDbEntity
  8
0
100
AcDbLine
 62
7
  6
CONTINUOUS
 10
11.8419726501
 20
6.9981084021
 11
11.6165744038
 21
6.7803904018
  0
LINE
  5
315
100
AcDbEntity
  8
0
100
AcDbLine
 62
4
  6
CONTINUOUS
 10
8.3882842887
 20
9.6458864572
 11
8.4462398404
 21
9.656356114
  0
LINE
  5
316
100
AcDbEntity
  8
0
100
AcDbLine
 62
4
  6
CONTINUOUS
 10
13.179276703
 20
8.7446995292
 11
13.1985952208
 21
8.7288708975
  0
LINE
  5
317
100
AcDbEntity
  8
0
100
AcDbLine
 62
4
  6
CONTINUOUS
 10
13.0440470835
 20
9.0873221576
 11
13.0054100444
 21
9.1189794212
  0
LINE
  5
318
100
AcDbEntity
  8
0
100
AcDbLine
 62
4
  6
CONTINUOUS
 10
13.179276703
 20
9.2083439429
 11
13.1985952208
 21
9.1925153113
  0
LINE
  5
319
100
AcDbEntity
  8
0
100
AcDbLine
 62
7
  6
CONTINUOUS
 10
10.9727292543
 20
10.9645197602
 11
11.0289146969
 21
10.9102488829
  0
LINE
  5
31A
100
AcDbEntity
  8
0
100
AcDbLine
 62
4
  6
CONTINUOUS
 10
13.0054100444
 20
8.6553350074
 11
12.9860915318
 21
8.6856525267
  0
LINE
  5
31B
100
AcDbEntity
  8
0
100
AcDbLine
 62
4
  6
CONTINUOUS
 10
14.1400390801
 20
6.4344376385
 11
14.1296863258
 21
6.453415421
  0
LINE
  5
31C
100
AcDbEntity
  8
0
100
AcDbLine
 62
4
  6
CONTINUOUS
 10
13.6508715122
 20
7.5132149676
 11
13.6560478912
 21
7.5037260781
  0
LINE
  5
31D
100
AcDbEntity
  8
0
100
AcDbLine
 62
4
  6
CONTINUOUS
 10
14.1762737154
 20
6.5998376019
 11
14.181450092
 21
6.5903487102
  0
LINE
  5
31E
100
AcDbEntity
  8
0
100
AcDbLine
 62
4
  6
CONTINUOUS
 10
12.9860915318
 20
5.7878751064
 11
12.9860915318
 21
5.8168528823
  0
LINE
  5
31F
100
AcDbEntity
  8
0
100
AcDbLine
 62
4
  6
CONTINUOUS
 10
12.9860915318
 20
6.2515195202
 11
12.9860915318
 21
6.280497296
  0
LINE
  5
320
100
AcDbEntity
  8
0
100
AcDbLine
 62
4
  6
CONTINUOUS
 10
12.9860915318
 20
6.4398750632
 11
12.9860915318
 21
6.497830615
  0
LINE
  5
321
100
AcDbEntity
  8
0
100
AcDbLine
 62
4
  6
CONTINUOUS
 10
12.9860915318
 20
8.6856525267
 11
12.9860915318
 21
8.7146303026
  0
LINE
  5
322
100
AcDbEntity
  8
0
100
AcDbLine
 62
4
  6
CONTINUOUS
 10
12.9860915318
 20
9.1492969404
 11
12.9860915318
 21
9.1782747163
  0
LINE
  5
323
100
AcDbEntity
  8
0
100
AcDbLine
 62
4
  6
CONTINUOUS
 10
12.9860915318
 20
9.3376524835
 11
12.9860915318
 21
9.3956080352
  0
LINE
  5
324
100
AcDbEntity
  8
0
100
AcDbLine
 62
4
  6
CONTINUOUS
 10
13.2179137386
 20
9.3795311106
 11
13.2179137386
 21
9.3215755589
  0
LINE
  5
325
100
AcDbEntity
  8
0
100
AcDbLine
 62
4
  6
CONTINUOUS
 10
13.2179137386
 20
9.1621977916
 11
13.2179137386
 21
9.1332200158
  0
LINE
  5
326
100
AcDbEntity
  8
0
100
AcDbLine
 62
4
  6
CONTINUOUS
 10
13.2179137386
 20
8.6985533779
 11
13.2179137386
 21
8.6695756021
  0
LINE
  5
327
100
AcDbEntity
  8
0
100
AcDbLine
 62
4
  6
CONTINUOUS
 10
13.2179137386
 20
6.4817536903
 11
13.2179137386
 21
6.4237981386
  0
LINE
  5
328
100
AcDbEntity
  8
0
100
AcDbLine
 62
4
  6
CONTINUOUS
 10
13.2179137386
 20
6.2644203714
 11
13.2179137386
 21
6.2354425955
  0
LINE
  5
329
100
AcDbEntity
  8
0
100
AcDbLine
 62
4
  6
CONTINUOUS
 10
13.2179137386
 20
5.8007759576
 11
13.2179137386
 21
5.7717981818
  0
LINE
  5
32A
100
AcDbEntity
  8
0
100
AcDbLine
 62
7
  6
CONTINUOUS
 10
11.2386014628
 20
10.8957070563
 11
11.3921027861
 21
10.935436107
  0
LINE
  5
32B
100
AcDbEntity
  8
0
100
AcDbLine
 62
7
  6
CONTINUOUS
 10
13.6042840978
 20
10.4133230687
 11
6.8428029132
 21
10.8822333815
  0
LINE
  5
32C
100
AcDbEntity
  8
0
100
AcDbLine
 62
4
  6
CONTINUOUS
 10
13.1599581869
 20
9.4415058935
 11
13.1985952208
 21
9.4098486302
  0
LINE
  5
32D
100
AcDbEntity
  8
02___PRT_ALL_AXES
100
AcDbLine
 62
7
  6
CONTINUOUS
 10
11.5427400033
 20
10.9160275169
 11
11.4830071505
 21
10.9716152071
  0
LINE
  5
32E
100
AcDbEntity
  8
0
100
AcDbLine
 62
7
  6
CONTINUOUS
 10
11.3921027861
 20
10.935436107
 11
11.3359173435
 21
10.9897069843
  0
LINE
  5
32F
100
AcDbEntity
  8
0
100
AcDbLine
 62
4
  6
CONTINUOUS
 10
13.1985952208
 20
8.7288708975
 11
13.2179137386
 21
8.6985533779
  0
LINE
  5
330
100
AcDbEntity
  8
0
100
AcDbLine
 62
4
  6
CONTINUOUS
 10
13.0054100444
 20
9.1189794212
 11
12.9860915318
 21
9.1492969404
  0
LINE
  5
331
100
AcDbEntity
  8
0
100
AcDbLine
 62
4
  6
CONTINUOUS
 10
13.1985952208
 20
9.1925153113
 11
13.2179137386
 21
9.1621977916
  0
LINE
  5
332
100
AcDbEntity
  8
0
100
AcDbLine
 62
4
  6
CONTINUOUS
 10
13.6974589018
 20
7.6596371485
 11
13.7026352784
 21
7.6501482568
  0
LINE
  5
333
100
AcDbEntity
  8
0
100
AcDbLine
 62
7
  6
CONTINUOUS
 10
13.6042840978
 20
4.6177677676
 11
13.6042840978
 21
10.4133230687
  0
LINE
  5
334
100
AcDbEntity
  8
0
100
AcDbLine
 62
4
  6
CONTINUOUS
 10
13.6456951369
 20
7.5661705245
 11
13.6456951369
 21
7.5371927486
  0
LINE
  5
335
100
AcDbEntity
  8
0
100
AcDbLine
 62
4
  6
CONTINUOUS
 10
14.1710973392
 20
9.3622154957
 11
14.1555682096
 21
9.3327266196
  0
LINE
  5
336
100
AcDbEntity
  8
0
100
AcDbLine
 62
4
  6
CONTINUOUS
 10
13.6871061484
 20
7.6496371561
 11
13.6974589018
 21
7.6596371485
  0
LINE
  5
337
100
AcDbEntity
  8
0
100
AcDbLine
 62
7
  6
CONTINUOUS
 10
12.5727698827
 20
6.5255014629
 11
12.3473716363
 21
6.3077834627
  0
LINE
  5
338
100
AcDbEntity
  8
0
100
AcDbLine
 62
4
  6
CONTINUOUS
 10
13.6560478912
 20
7.5037260781
 11
13.6612242665
 21
7.508726073
  0
LINE
  5
339
100
AcDbEntity
  8
0
100
AcDbLine
 62
7
  6
CONTINUOUS
 10
12.6299793281
 20
6.4224443083
 11
12.4045810817
 21
6.204726308
  0
LINE
  5
33A
100
AcDbEntity
  8
0
100
AcDbLine
 62
7
  6
CONTINUOUS
 10
11.1262305776
 20
11.0042488109
 11
10.9727292543
 21
10.9645197602
  0
LINE
  5
33B
100
AcDbEntity
  8
0
100
AcDbLine
 62
7
  6
CONTINUOUS
 10
11.0289146969
 20
10.9102488829
 11
11.2386014628
 21
10.8957070563
  0
LINE
  5
33C
100
AcDbEntity
  8
0
100
AcDbLine
 62
7
  6
CONTINUOUS
 10
11.3359173435
 20
10.9897069843
 11
11.1262305776
 21
11.0042488109
  0
LINE
  5
33D
100
AcDbEntity
  8
0
100
AcDbLine
 62
4
  6
CONTINUOUS
 10
13.1985952208
 20
9.4098486302
 11
13.2179137386
 21
9.3795311106
  0
LINE
  5
33E
100
AcDbEntity
  8
0
100
AcDbLine
 62
4
  6
CONTINUOUS
 10
13.6456951369
 20
7.5371927486
 11
13.6508715122
 21
7.5132149676
  0
LINE
  5
33F
100
AcDbEntity
  8
0
100
AcDbLine
 62
4
  6
CONTINUOUS
 10
13.7026352784
 20
7.6501482568
 11
13.7078116551
 21
7.6261704772
  0
LINE
  5
340
100
AcDbEntity
  8
0
100
AcDbLine
 62
4
  6
CONTINUOUS
 10
14.1296863258
 20
6.453415421
 11
14.1245099505
 21
6.477393202
  0
LINE
  5
341
100
AcDbEntity
  8
0
100
AcDbLine
 62
4
  6
CONTINUOUS
 10
13.7078116551
 20
7.6261704772
 11
13.7078116551
 21
7.5971927013
  0
LINE
  5
342
100
AcDbEntity
  8
0
100
AcDbLine
 62
4
  6
CONTINUOUS
 10
13.6508715122
 20
7.6001482952
 11
13.6456951369
 21
7.5661705245
  0
LINE
  5
343
100
AcDbEntity
  8
0
100
AcDbLine
 62
4
  6
CONTINUOUS
 10
13.6664006417
 20
7.5282149558
 11
13.6819297731
 21
7.6301482733
  0
LINE
  5
344
100
AcDbEntity
  8
0
100
AcDbLine
 62
4
  6
CONTINUOUS
 10
13.7078116551
 20
7.5971927013
 11
13.7026352784
 21
7.5632149292
  0
LINE
  5
345
100
AcDbEntity
  8
0
100
AcDbLine
 62
4
  6
CONTINUOUS
 10
14.1245099505
 20
9.6359710656
 11
14.1296863258
 21
9.6699488363
  0
LINE
  5
346
100
AcDbEntity
  8
0
100
AcDbLine
 62
4
  6
CONTINUOUS
 10
14.1245099505
 20
9.4041488587
 11
14.1296863258
 21
9.4381266294
  0
LINE
  5
347
100
AcDbEntity
  8
0
100
AcDbLine
 62
4
  6
CONTINUOUS
 10
14.1866264687
 20
9.4351710356
 11
14.181450092
 21
9.4011932635
  0
LINE
  5
348
100
AcDbEntity
  8
0
100
AcDbLine
 62
4
  6
CONTINUOUS
 10
14.1296863258
 20
9.6699488363
 11
14.1348627048
 21
9.6894377227
  0
LINE
  5
349
100
AcDbEntity
  8
0
100
AcDbLine
 62
4
  6
CONTINUOUS
 10
14.1296863258
 20
9.4381266294
 11
14.1348627048
 21
9.4576155158
  0
LINE
  5
34A
100
AcDbEntity
  8
0
100
AcDbLine
 62
4
  6
CONTINUOUS
 10
13.6560478912
 20
7.6196371816
 11
13.6508715122
 21
7.6001482952
  0
LINE
  5
34B
100
AcDbEntity
  8
0
100
AcDbLine
 62
4
  6
CONTINUOUS
 10
13.6819297731
 20
7.6301482733
 11
13.6871061484
 21
7.6496371561
  0
LINE
  5
34C
100
AcDbEntity
  8
0
100
AcDbLine
 62
4
  6
CONTINUOUS
 10
13.6612242665
 20
7.508726073
 11
13.6664006417
 21
7.5282149558
  0
LINE
  5
34D
100
AcDbEntity
  8
0
100
AcDbLine
 62
4
  6
CONTINUOUS
 10
14.181450092
 20
9.4011932635
 11
14.1710973392
 21
9.3622154957
  0
LINE
  5
34E
100
AcDbEntity
  8
0
100
AcDbLine
 62
4
  6
CONTINUOUS
 10
13.7026352784
 20
7.5632149292
 11
13.6922825256
 21
7.5242371614
  0
LINE
  5
34F
100
AcDbEntity
  8
0
100
AcDbLine
 62
4
  6
CONTINUOUS
 10
12.9860915318
 20
6.497830615
 11
13.0054100444
 21
6.5254686474
  0
LINE
  5
350
100
AcDbEntity
  8
0
100
AcDbLine
 62
4
  6
CONTINUOUS
 10
12.9860915318
 20
6.280497296
 11
13.0054100444
 21
6.3081353285
  0
LINE
  5
351
100
AcDbEntity
  8
0
100
AcDbLine
 62
4
  6
CONTINUOUS
 10
13.0054100444
 20
6.5254686474
 11
13.0440470835
 21
6.5517669355
  0
LINE
  5
352
100
AcDbEntity
  8
0
100
AcDbLine
 62
4
  6
CONTINUOUS
 10
13.0054100444
 20
6.3081353285
 11
13.0247285709
 21
6.321284472
  0
LINE
  5
353
100
AcDbEntity
  8
0
100
AcDbLine
 62
4
  6
CONTINUOUS
 10
14.181450092
 20
6.5903487102
 11
14.1866264687
 21
6.5663709305
  0
LINE
  5
354
100
AcDbEntity
  8
0
100
AcDbLine
 62
4
  6
CONTINUOUS
 10
14.1245099505
 20
6.477393202
 11
14.1245099505
 21
6.5063709779
  0
LINE
  5
355
100
AcDbEntity
  8
0
100
AcDbLine
 62
4
  6
CONTINUOUS
 10
14.1245099505
 20
9.3751710829
 11
14.1245099505
 21
9.4041488587
  0
LINE
  5
356
100
AcDbEntity
  8
0
100
AcDbLine
 62
4
  6
CONTINUOUS
 10
14.1245099505
 20
9.6069932897
 11
14.1245099505
 21
9.6359710656
  0
LINE
  5
357
100
AcDbEntity
  8
0
100
AcDbLine
 62
4
  6
CONTINUOUS
 10
14.1866264687
 20
9.4641488114
 11
14.1866264687
 21
9.4351710356
  0
LINE
  5
358
100
AcDbEntity
  8
0
100
AcDbLine
 62
4
  6
CONTINUOUS
 10
14.1866264687
 20
6.5663709305
 11
14.1866264687
 21
6.5373931547
  0
LINE
  5
359
100
AcDbEntity
  8
0
100
AcDbLine
 62
4
  6
CONTINUOUS
 10
14.1866264687
 20
9.6235265786
 11
14.1866264687
 21
9.7394376821
  0
LINE
  5
35A
100
AcDbEntity
  8
0
100
AcDbLine
 62
4
  6
CONTINUOUS
 10
14.1245099505
 20
6.5063709779
 11
14.1296863258
 21
6.5403487486
  0
LINE
  5
35B
100
AcDbEntity
  8
0
100
AcDbLine
 62
4
  6
CONTINUOUS
 10
14.1866264687
 20
6.5373931547
 11
14.181450092
 21
6.5034153826
  0
LINE
  5
35C
100
AcDbEntity
  8
0
100
AcDbLine
 62
4
  6
CONTINUOUS
 10
13.2179137386
 20
6.2354425955
 11
13.1985952208
 21
6.2078045634
  0
LINE
  5
35D
100
AcDbEntity
  8
0
100
AcDbLine
 62
4
  6
CONTINUOUS
 10
12.9860915318
 20
5.8168528823
 11
13.0054100444
 21
5.8444909147
  0
LINE
  5
35E
100
AcDbEntity
  8
0
100
AcDbLine
 62
4
  6
CONTINUOUS
 10
13.2179137386
 20
5.7717981818
 11
13.1985952208
 21
5.7441601497
  0
LINE
  5
35F
100
AcDbEntity
  8
0
100
AcDbLine
 62
7
  6
CONTINUOUS
 10
12.6299793281
 20
5.5785923504
 11
12.4045810817
 21
5.3608743501
  0
LINE
  5
360
100
AcDbEntity
  8
0
100
AcDbLine
 62
7
  6
CONTINUOUS
 10
12.5727698827
 20
5.4834701728
 11
12.3473716363
 21
5.2657521725
  0
LINE
  5
361
100
AcDbEntity
  8
0
100
AcDbLine
 62
4
  6
CONTINUOUS
 10
14.1245099505
 20
6.7237042968
 11
14.1866264687
 21
6.7837042495
  0
LINE
  5
362
100
AcDbEntity
  8
0
100
AcDbLine
 62
4
  6
CONTINUOUS
 10
13.1985952208
 20
6.2078045634
 11
13.1599581869
 21
6.181506275
  0
LINE
  5
363
100
AcDbEntity
  8
0
100
AcDbLine
 62
4
  6
CONTINUOUS
 10
13.0054100444
 20
5.8444909147
 11
13.0247285709
 21
5.8576400583
  0
LINE
  5
364
100
AcDbEntity
  8
0
100
AcDbLine
 62
4
  6
CONTINUOUS
 10
12.9860915318
 20
5.9762306495
 11
13.2179137386
 21
6.0760648283
  0
LINE
  5
365
100
AcDbEntity
  8
0
100
AcDbLine
 62
4
  6
CONTINUOUS
 10
14.1400390801
 20
9.3322155193
 11
14.1296863258
 21
9.3511933019
  0
LINE
  5
366
100
AcDbEntity
  8
0
100
AcDbLine
 62
4
  6
CONTINUOUS
 10
14.1762737154
 20
9.4976154828
 11
14.181450092
 21
9.4881265911
  0
LINE
  5
367
100
AcDbEntity
  8
0
100
AcDbLine
 62
4
  6
CONTINUOUS
 10
14.1348627048
 20
9.5735266192
 11
14.1296863258
 21
9.5830155087
  0
LINE
  5
368
100
AcDbEntity
  8
0
100
AcDbLine
 62
4
  6
CONTINUOUS
 10
14.1607445867
 20
9.6419932627
 11
14.1710973392
 21
9.6230154784
  0
LINE
  5
369
100
AcDbEntity
  8
0
100
AcDbLine
 62
4
  6
CONTINUOUS
 10
14.1452154554
 20
9.6994377124
 11
14.1503918343
 21
9.6899488229
  0
LINE
  5
36A
100
AcDbEntity
  8
0
100
AcDbLine
 62
4
  6
CONTINUOUS
 10
14.1296863258
 20
9.3511933019
 11
14.1245099505
 21
9.3751710829
  0
LINE
  5
36B
100
AcDbEntity
  8
0
100
AcDbLine
 62
4
  6
CONTINUOUS
 10
14.1296863258
 20
9.5830155087
 11
14.1245099505
 21
9.6069932897
  0
LINE
  5
36C
100
AcDbEntity
  8
0
100
AcDbLine
 62
4
  6
CONTINUOUS
 10
14.181450092
 20
9.4881265911
 11
14.1866264687
 21
9.4641488114
  0
LINE
  5
36D
100
AcDbEntity
  8
0
100
AcDbLine
 62
4
  6
CONTINUOUS
 10
14.1503918343
 20
9.6899488229
 11
14.1607445867
 21
9.6419932627
  0
LINE
  5
36E
100
AcDbEntity
  8
0
100
AcDbLine
 62
4
  6
CONTINUOUS
 10
14.1296863258
 20
6.5403487486
 11
14.1348627048
 21
6.5598376349
  0
LINE
  5
36F
100
AcDbEntity
  8
0
100
AcDbLine
 62
4
  6
CONTINUOUS
 10
14.181450092
 20
6.5034153826
 11
14.1710973392
 21
6.4644376148
  0
LINE
  5
370
100
AcDbEntity
  8
0
100
AcDbLine
 62
4
  6
CONTINUOUS
 10
14.1710973392
 20
6.4644376148
 11
14.1555682096
 21
6.4349487387
  0
LINE
  5
371
100
AcDbEntity
  8
0
100
AcDbLine
 62
4
  6
CONTINUOUS
 10
13.1985952208
 20
5.7441601497
 11
13.1599581869
 21
5.7178618612
  0
LINE
  5
372
100
AcDbEntity
  8
0
100
AcDbLine
 62
7
  6
CONTINUOUS
 10
15.1571970868
 20
11.9133219197
 11
8.3957159022
 21
12.3822322324
  0
LINE
  5
373
100
AcDbEntity
  8
0
100
AcDbLine
 62
7
  6
CONTINUOUS
 10
15.1571970868
 20
6.1177666185
 11
15.1571970868
 21
11.9133219197
  0
LINE
  5
374
100
AcDbEntity
  8
0
100
AcDbLine
 62
7
  6
CONTINUOUS
 10
15.1571970868
 20
6.1177666185
 11
13.6042840978
 21
4.6177677676
  0
ARC
  5
375
100
AcDbEntity
  8
0
100
AcDbCircle
 62
7
  6
CONTINUOUS
 10
9.5266150211
 20
6.1242911352
 40
1.0326887078
100
AcDbArc
 50
25.7640228377
 51
32.3073428428
  0
ARC
  5
376
100
AcDbEntity
  8
0
100
AcDbCircle
 62
7
  6
CONTINUOUS
 10
9.4708466661
 20
6.0777017417
 40
1.0326887078
100
AcDbArc
 50
205.7640228377
 51
212.3073428428
  0
ARC
  5
377
100
AcDbEntity
  8
0
100
AcDbCircle
 62
7
  6
CONTINUOUS
 10
9.3012167747
 20
5.9065731349
 40
1.0326887078
100
AcDbArc
 50
25.7640228377
 51
32.3073428428
  0
ARC
  5
378
100
AcDbEntity
  8
0
100
AcDbCircle
 62
7
  6
CONTINUOUS
 10
11.4745500126
 20
5.7558519629
 40
1.0326887078
100
AcDbArc
 50
25.7640228377
 51
32.3073428428
  0
ARC
  5
379
100
AcDbEntity
  8
0
100
AcDbCircle
 62
7
  6
CONTINUOUS
 10
9.4524309619
 20
6.003612593
 40
0.9584534212
100
AcDbArc
 50
262.590107291
 51
266.0275106487
  0
ARC
  5
37A
100
AcDbEntity
  8
0
100
AcDbCircle
 62
7
  6
CONTINUOUS
 10
9.3196324789
 20
5.9806622836
 40
0.9584534212
100
AcDbArc
 50
82.590107291
 51
86.0275106487
  0
ARC
  5
37B
100
AcDbEntity
  8
0
100
AcDbCircle
 62
7
  6
CONTINUOUS
 10
11.4929657168
 20
5.8299411116
 40
0.9584534212
100
AcDbArc
 50
82.590107291
 51
86.0275106487
  0
ARC
  5
37C
100
AcDbEntity
  8
0
100
AcDbCircle
 62
7
  6
CONTINUOUS
 10
9.5452276662
 20
6.2003564515
 40
0.9564683598
100
AcDbArc
 50
82.5865392113
 51
86.0310787285
  0
ARC
  5
37D
100
AcDbEntity
  8
0
100
AcDbCircle
 62
7
  6
CONTINUOUS
 10
9.5459155136
 20
6.2102740503
 40
0.9465269363
100
AcDbArc
 50
86.0310634489
 51
89.4972694561
  0
ARC
  5
37E
100
AcDbEntity
  8
0
100
AcDbCircle
 62
7
  6
CONTINUOUS
 10
9.4515461736
 20
5.9917188265
 40
0.9465269363
100
AcDbArc
 50
266.0310634489
 51
269.4972694561
  0
ARC
  5
37F
100
AcDbEntity
  8
0
100
AcDbCircle
 62
7
  6
CONTINUOUS
 10
9.3205172672
 20
5.9925560501
 40
0.9465269363
100
AcDbArc
 50
86.0310634489
 51
89.4972694561
  0
ARC
  5
380
100
AcDbEntity
  8
0
100
AcDbCircle
 62
7
  6
CONTINUOUS
 10
11.4938505051
 20
5.8418348781
 40
0.9465269363
100
AcDbArc
 50
86.0310634489
 51
89.4972694561
  0
ARC
  5
381
100
AcDbEntity
  8
0
100
AcDbCircle
 62
7
  6
CONTINUOUS
 10
9.6903563132
 20
6.1254192408
 40
0.8626121738
100
AcDbArc
 50
325.2870362755
 51
332.6649360488
  0
ARC
  5
382
100
AcDbEntity
  8
0
100
AcDbCircle
 62
7
  6
CONTINUOUS
 10
9.307105374
 20
6.076573636
 40
0.8626121738
100
AcDbArc
 50
145.2870362755
 51
152.6649360488
  0
ARC
  5
383
100
AcDbEntity
  8
0
100
AcDbCircle
 62
7
  6
CONTINUOUS
 10
9.4649580669
 20
5.9077012406
 40
0.8626121738
100
AcDbArc
 50
325.2870362755
 51
332.6649360488
  0
ARC
  5
384
100
AcDbEntity
  8
0
100
AcDbCircle
 62
7
  6
CONTINUOUS
 10
11.4804386119
 20
5.925852464
 40
0.8626121738
100
AcDbArc
 50
145.2870362755
 51
152.6649360488
  0
ARC
  5
385
100
AcDbEntity
  8
0
100
AcDbCircle
 62
7
  6
CONTINUOUS
 10
9.8217132991
 20
6.2761041727
 40
0.756825618
100
AcDbArc
 50
329.2842157959
 51
331.973240189
  0
ARC
  5
386
100
AcDbEntity
  8
0
100
AcDbCircle
 62
7
  6
CONTINUOUS
 10
9.8218481316
 20
6.2762758945
 40
0.7568243095
100
AcDbArc
 50
329.2722737638
 51
331.7503052801
  0
ARC
  5
387
100
AcDbEntity
  8
0
100
AcDbCircle
 62
7
  6
CONTINUOUS
 10
9.6846067187
 20
6.4183288604
 40
0.7561352939
100
AcDbArc
 50
116.6853061558
 51
118.1827005096
  0
ARC
  5
388
100
AcDbEntity
  8
0
100
AcDbCircle
 62
7
  6
CONTINUOUS
 10
9.6828619433
 20
6.4215005268
 40
0.7525156114
100
AcDbArc
 50
118.1796552429
 51
121.8992985452
  0
ARC
  5
389
100
AcDbEntity
  8
0
100
AcDbCircle
 62
7
  6
CONTINUOUS
 10
9.6814733705
 20
6.424252359
 40
0.7494678609
100
AcDbArc
 50
116.458241985
 51
132.4326525149
  0
ARC
  5
38A
100
AcDbEntity
  8
0
100
AcDbCircle
 62
7
  6
CONTINUOUS
 10
9.6810883025
 20
6.4243616318
 40
0.7491493543
100
AcDbArc
 50
121.8997655024
 51
124.6287569167
  0
ARC
  5
38B
100
AcDbEntity
  8
0
100
AcDbCircle
 62
7
  6
CONTINUOUS
 10
9.6797113115
 20
6.4263214607
 40
0.7467542225
100
AcDbArc
 50
124.6272705245
 51
128.0643911905
  0
ARC
  5
38C
100
AcDbEntity
  8
0
100
AcDbCircle
 62
7
  6
CONTINUOUS
 10
9.6786355205
 20
6.427702811
 40
0.7450033846
100
AcDbArc
 50
128.0647508725
 51
132.4742048099
  0
ARC
  5
38D
100
AcDbEntity
  8
0
100
AcDbCircle
 62
7
  6
CONTINUOUS
 10
9.5266150211
 20
9.0220687857
 40
1.0326887078
100
AcDbArc
 50
25.7640228377
 51
32.3073428428
  0
ARC
  5
38E
100
AcDbEntity
  8
0
100
AcDbCircle
 62
7
  6
CONTINUOUS
 10
9.4708466661
 20
8.9754793922
 40
1.0326887078
100
AcDbArc
 50
205.7640228377
 51
212.3073428428
  0
ARC
  5
38F
100
AcDbEntity
  8
0
100
AcDbCircle
 62
7
  6
CONTINUOUS
 10
9.3012167747
 20
8.8043507855
 40
1.0326887078
100
AcDbArc
 50
25.7640228377
 51
32.3073428428
  0
ARC
  5
390
100
AcDbEntity
  8
0
100
AcDbCircle
 62
7
  6
CONTINUOUS
 10
11.4745500126
 20
8.6536296135
 40
1.0326887078
100
AcDbArc
 50
25.7640228377
 51
32.3073428428
  0
ARC
  5
391
100
AcDbEntity
  8
0
100
AcDbCircle
 62
7
  6
CONTINUOUS
 10
9.4524309619
 20
8.9013902436
 40
0.9584534213
100
AcDbArc
 50
262.590107291
 51
266.0275106487
  0
ARC
  5
392
100
AcDbEntity
  8
0
100
AcDbCircle
 62
7
  6
CONTINUOUS
 10
9.3196324789
 20
8.8784399341
 40
0.9584534212
100
AcDbArc
 50
82.590107291
 51
86.0275106487
  0
ARC
  5
393
100
AcDbEntity
  8
0
100
AcDbCircle
 62
7
  6
CONTINUOUS
 10
11.4929657168
 20
8.7277187622
 40
0.9584534213
100
AcDbArc
 50
82.590107291
 51
86.0275106487
  0
ARC
  5
394
100
AcDbEntity
  8
0
100
AcDbCircle
 62
7
  6
CONTINUOUS
 10
9.5452276662
 20
9.0981341021
 40
0.9564683598
100
AcDbArc
 50
82.5865392113
 51
86.0310787285
  0
ARC
  5
395
100
AcDbEntity
  8
0
100
AcDbCircle
 62
7
  6
CONTINUOUS
 10
9.5459155136
 20
9.1080517009
 40
0.9465269363
100
AcDbArc
 50
86.0310634489
 51
89.4972694561
  0
ARC
  5
396
100
AcDbEntity
  8
0
100
AcDbCircle
 62
7
  6
CONTINUOUS
 10
9.4515461736
 20
8.8894964771
 40
0.9465269363
100
AcDbArc
 50
266.0310634489
 51
269.4972694561
  0
ARC
  5
397
100
AcDbEntity
  8
0
100
AcDbCircle
 62
7
  6
CONTINUOUS
 10
9.3205172672
 20
8.8903337006
 40
0.9465269363
100
AcDbArc
 50
86.0310634489
 51
89.4972694561
  0
ARC
  5
398
100
AcDbEntity
  8
0
100
AcDbCircle
 62
7
  6
CONTINUOUS
 10
11.4938505051
 20
8.7396125287
 40
0.9465269363
100
AcDbArc
 50
86.0310634489
 51
89.4972694561
  0
ARC
  5
399
100
AcDbEntity
  8
0
100
AcDbCircle
 62
7
  6
CONTINUOUS
 10
9.6903563132
 20
9.0231968914
 40
0.8626121738
100
AcDbArc
 50
325.2870362755
 51
332.6649360488
  0
ARC
  5
39A
100
AcDbEntity
  8
0
100
AcDbCircle
 62
7
  6
CONTINUOUS
 10
9.307105374
 20
8.9743512866
 40
0.8626121738
100
AcDbArc
 50
145.2870362755
 51
152.6649360488
  0
ARC
  5
39B
100
AcDbEntity
  8
0
100
AcDbCircle
 62
7
  6
CONTINUOUS
 10
9.4649580669
 20
8.8054788911
 40
0.8626121738
100
AcDbArc
 50
325.2870362755
 51
332.6649360488
  0
ARC
  5
39C
100
AcDbEntity
  8
0
100
AcDbCircle
 62
7
  6
CONTINUOUS
 10
11.4804386119
 20
8.8236301146
 40
0.8626121738
100
AcDbArc
 50
145.2870362755
 51
152.6649360488
  0
ARC
  5
39D
100
AcDbEntity
  8
0
100
AcDbCircle
 62
7
  6
CONTINUOUS
 10
9.8217132991
 20
9.1738818233
 40
0.756825618
100
AcDbArc
 50
329.2842157959
 51
331.9732401889
  0
ARC
  5
39E
100
AcDbEntity
  8
0
100
AcDbCircle
 62
7
  6
CONTINUOUS
 10
9.8218481316
 20
9.1740535451
 40
0.7568243095
100
AcDbArc
 50
329.2722737638
 51
331.7503052801
  0
ARC
  5
39F
100
AcDbEntity
  8
0
100
AcDbCircle
 62
7
  6
CONTINUOUS
 10
9.6846067187
 20
9.316106511
 40
0.7561352939
100
AcDbArc
 50
116.6853061557
 51
118.1827005096
  0
ARC
  5
3A0
100
AcDbEntity
  8
0
100
AcDbCircle
 62
7
  6
CONTINUOUS
 10
9.6828619433
 20
9.3192781774
 40
0.7525156114
100
AcDbArc
 50
118.1796552429
 51
121.8992985452
  0
ARC
  5
3A1
100
AcDbEntity
  8
0
100
AcDbCircle
 62
7
  6
CONTINUOUS
 10
9.6814733705
 20
9.3220300096
 40
0.7494678609
100
AcDbArc
 50
116.458241985
 51
132.4326525149
  0
ARC
  5
3A2
100
AcDbEntity
  8
0
100
AcDbCircle
 62
7
  6
CONTINUOUS
 10
9.6810883025
 20
9.3221392824
 40
0.7491493544
100
AcDbArc
 50
121.8997655024
 51
124.6287569167
  0
ARC
  5
3A3
100
AcDbEntity
  8
0
100
AcDbCircle
 62
7
  6
CONTINUOUS
 10
9.6797113115
 20
9.3240991113
 40
0.7467542225
100
AcDbArc
 50
124.6272705244
 51
128.0643911905
  0
ARC
  5
3A4
100
AcDbEntity
  8
0
100
AcDbCircle
 62
7
  6
CONTINUOUS
 10
9.6786355205
 20
9.3254804615
 40
0.7450033846
100
AcDbArc
 50
128.0647508725
 51
132.4742048099
  0
ARC
  5
3A5
100
AcDbEntity
  8
0
100
AcDbCircle
 62
7
  6
CONTINUOUS
 10
11.699948259
 20
5.9735699632
 40
1.0326887078
100
AcDbArc
 50
25.7640228377
 51
32.3073428428
  0
ARC
  5
3A6
100
AcDbEntity
  8
0
100
AcDbCircle
 62
7
  6
CONTINUOUS
 10
11.6441799041
 20
5.9269805697
 40
1.0326887078
100
AcDbArc
 50
205.7640228377
 51
212.3073428428
  0
ARC
  5
3A7
100
AcDbEntity
  8
0
100
AcDbCircle
 62
7
  6
CONTINUOUS
 10
11.6257641999
 20
5.852891421
 40
0.9584534212
100
AcDbArc
 50
262.590107291
 51
266.0275106487
  0
ARC
  5
3A8
100
AcDbEntity
  8
0
100
AcDbCircle
 62
7
  6
CONTINUOUS
 10
11.7185609041
 20
6.0496352795
 40
0.9564683598
100
AcDbArc
 50
82.5865392113
 51
86.0310787284
  0
ARC
  5
3A9
100
AcDbEntity
  8
0
100
AcDbCircle
 62
7
  6
CONTINUOUS
 10
11.7192487515
 20
6.0595528784
 40
0.9465269363
100
AcDbArc
 50
86.0310634489
 51
89.4972694561
  0
ARC
  5
3AA
100
AcDbEntity
  8
0
100
AcDbCircle
 62
7
  6
CONTINUOUS
 10
11.6248794116
 20
5.8409976545
 40
0.9465269363
100
AcDbArc
 50
266.0310634489
 51
269.4972694561
  0
ARC
  5
3AB
100
AcDbEntity
  8
0
100
AcDbCircle
 62
7
  6
CONTINUOUS
 10
11.8636895512
 20
5.9746980689
 40
0.8626121738
100
AcDbArc
 50
325.2870362755
 51
332.6649360488
  0
ARC
  5
3AC
100
AcDbEntity
  8
0
100
AcDbCircle
 62
7
  6
CONTINUOUS
 10
11.6382913048
 20
5.7569800686
 40
0.8626121738
100
AcDbArc
 50
325.2870362755
 51
332.6649360488
  0
ARC
  5
3AD
100
AcDbEntity
  8
0
100
AcDbCircle
 62
7
  6
CONTINUOUS
 10
11.8348250187
 20
6.1619210295
 40
0.8288161989
100
AcDbArc
 50
86.0323821428
 51
88.2163836344
  0
ARC
  5
3AE
100
AcDbEntity
  8
0
100
AcDbCircle
 62
7
  6
CONTINUOUS
 10
11.8452997297
 20
6.1740079942
 40
0.8267257901
100
AcDbArc
 50
86.0308063163
 51
90.2302411027
  0
ARC
  5
3AF
100
AcDbEntity
  8
0
100
AcDbCircle
 62
7
  6
CONTINUOUS
 10
11.845364417
 20
6.1832736663
 40
0.8174604591
100
AcDbArc
 50
90.2373847057
 51
91.5303555387
  0
ARC
  5
3B0
100
AcDbEntity
  8
0
100
AcDbCircle
 62
7
  6
CONTINUOUS
 10
11.9952496208
 20
6.1252678485
 40
0.7565922608
100
AcDbArc
 50
329.2522496612
 51
331.7710823905
  0
ARC
  5
3B1
100
AcDbEntity
  8
0
100
AcDbCircle
 62
7
  6
CONTINUOUS
 10
11.9959978355
 20
6.125082719
 40
0.755881446
100
AcDbArc
 50
329.2278705086
 51
330.5722035245
  0
ARC
  5
3B2
100
AcDbEntity
  8
0
100
AcDbCircle
 62
7
  6
CONTINUOUS
 10
11.8545427931
 20
6.2736980742
 40
0.7491688717
100
AcDbArc
 50
115.4568154934
 51
132.5392488346
  0
ARC
  5
3B3
100
AcDbEntity
  8
0
100
AcDbCircle
 62
7
  6
CONTINUOUS
 10
11.8543876038
 20
6.2740868811
 40
0.7487740819
100
AcDbArc
 50
117.9862680632
 51
132.4728303233
  0
ARC
  5
3B4
100
AcDbEntity
  8
0
100
AcDbCircle
 62
7
  6
CONTINUOUS
 10
13.8101685239
 20
7.428388174
 40
0.0294812026
100
AcDbArc
 50
259.7098668276
 51
266.0300991032
  0
ARC
  5
3B5
100
AcDbEntity
  8
0
100
AcDbCircle
 62
7
  6
CONTINUOUS
 10
11.699948259
 20
8.8713476138
 40
1.0326887078
100
AcDbArc
 50
25.7640228377
 51
32.3073428428
  0
ARC
  5
3B6
100
AcDbEntity
  8
0
100
AcDbCircle
 62
7
  6
CONTINUOUS
 10
11.6441799041
 20
8.8247582203
 40
1.0326887078
100
AcDbArc
 50
205.7640228377
 51
212.3073428428
  0
ARC
  5
3B7
100
AcDbEntity
  8
0
100
AcDbCircle
 62
7
  6
CONTINUOUS
 10
11.6257641998
 20
8.7506690716
 40
0.9584534212
100
AcDbArc
 50
262.590107291
 51
266.0275106487
  0
ARC
  5
3B8
100
AcDbEntity
  8
0
100
AcDbCircle
 62
7
  6
CONTINUOUS
 10
11.7185609041
 20
8.9474129301
 40
0.9564683598
100
AcDbArc
 50
82.5865392113
 51
86.0310787284
  0
ARC
  5
3B9
100
AcDbEntity
  8
0
100
AcDbCircle
 62
7
  6
CONTINUOUS
 10
11.7192487515
 20
8.9573305289
 40
0.9465269363
100
AcDbArc
 50
86.0310634489
 51
89.4972694561
  0
ARC
  5
3BA
100
AcDbEntity
  8
0
100
AcDbCircle
 62
7
  6
CONTINUOUS
 10
11.6248794116
 20
8.7387753051
 40
0.9465269363
100
AcDbArc
 50
266.0310634489
 51
269.4972694561
  0
ARC
  5
3BB
100
AcDbEntity
  8
0
100
AcDbCircle
 62
7
  6
CONTINUOUS
 10
11.8636895512
 20
8.8724757194
 40
0.8626121738
100
AcDbArc
 50
325.2870362755
 51
332.6649360488
  0
ARC
  5
3BC
100
AcDbEntity
  8
0
100
AcDbCircle
 62
7
  6
CONTINUOUS
 10
11.6382913048
 20
8.6547577192
 40
0.8626121738
100
AcDbArc
 50
325.2870362755
 51
332.6649360488
  0
ARC
  5
3BD
100
AcDbEntity
  8
0
100
AcDbCircle
 62
7
  6
CONTINUOUS
 10
11.8348250187
 20
9.0596986801
 40
0.8288161989
100
AcDbArc
 50
86.0323821428
 51
88.2163836344
  0
ARC
  5
3BE
100
AcDbEntity
  8
0
100
AcDbCircle
 62
7
  6
CONTINUOUS
 10
11.8452997297
 20
9.0717856448
 40
0.8267257901
100
AcDbArc
 50
86.0308063163
 51
90.2302411027
  0
ARC
  5
3BF
100
AcDbEntity
  8
0
100
AcDbCircle
 62
7
  6
CONTINUOUS
 10
11.845364417
 20
9.0810513169
 40
0.8174604591
100
AcDbArc
 50
90.2373847057
 51
91.5303555387
  0
ARC
  5
3C0
100
AcDbEntity
  8
0
100
AcDbCircle
 62
7
  6
CONTINUOUS
 10
11.9952496208
 20
9.023045499
 40
0.7565922608
100
AcDbArc
 50
329.2522496612
 51
331.7710823905
  0
ARC
  5
3C1
100
AcDbEntity
  8
0
100
AcDbCircle
 62
7
  6
CONTINUOUS
 10
11.9959978356
 20
9.0228603695
 40
0.755881446
100
AcDbArc
 50
329.2278705086
 51
330.5722035245
  0
ARC
  5
3C2
100
AcDbEntity
  8
0
100
AcDbCircle
 62
7
  6
CONTINUOUS
 10
11.8545427931
 20
9.1714757247
 40
0.7491688717
100
AcDbArc
 50
115.4568154905
 51
132.5392488317
  0
ARC
  5
3C3
100
AcDbEntity
  8
0
100
AcDbCircle
 62
7
  6
CONTINUOUS
 10
11.8543876038
 20
9.1718645317
 40
0.7487740819
100
AcDbArc
 50
117.9862680632
 51
132.4728303233
  0
ARC
  5
3C4
100
AcDbEntity
  8
0
100
AcDbCircle
 62
7
  6
CONTINUOUS
 10
13.8711224216
 20
8.3073144599
 40
0.0294814568
100
AcDbArc
 50
86.0359488744
 51
92.26756015
  0
SPLINE
  5
3C5
100
AcDbEntity
  8
02___PRT_ALL_AXES
100
AcDbSpline
 62
7
  6
CONTINUOUS
 70
0
 71
3
 72
57
 73
53
 74
0
 42
0.0000001
 43
0.0000001
 44
0.0000000001
 40
0.0
 40
0.0
 40
0.0
 40
0.0
 40
0.0077394249
 40
0.0160545693
 40
0.0249629626
 40
0.0344759456
 40
0.0445997023
 40
0.0553364647
 40
0.0666851582
 40
0.0786398676
 40
0.0911915998
 40
0.1043297555
 40
0.1180410133
 40
0.1323097401
 40
0.1471194022
 40
0.1624517131
 40
0.1782861621
 40
0.1946016054
 40
0.2113759331
 40
0.2285850851
 40
0.2642079334
 40
0.3012636105
 40
0.3395320061
 40
0.3787823015
 40
0.4187762915
 40
0.4592691932
 40
0.5000125389
 40
0.5407557682
 40
0.5812483211
 40
0.6212417333
 40
0.6604912261
 40
0.6987586002
 40
0.7358130466
 40
0.7714344677
 40
0.7886428357
 40
0.8054163301
 40
0.8217308922
 40
0.8375644221
 40
0.8528957868
 40
0.8677044859
 40
0.8819722187
 40
0.8956824156
 40
0.9088194089
 40
0.9213699263
 40
0.9333235124
 40
0.9446713282
 40
0.9554074151
 40
0.9655301996
 40
0.9750413359
 40
0.9839468618
 40
0.9922598291
 40
1.0
 40
1.0
 40
1.0
 40
1.0
 10
10.8818289436
 20
10.9716189452
 30
0.0
 10
10.8830024619
 20
10.9727107311
 30
0.0
 10
10.8855291738
 20
10.9748774132
 30
0.0
 10
10.8896740603
 20
10.9779725414
 30
0.0
 10
10.894299599
 20
10.981021558
 30
0.0
 10
10.8993980331
 20
10.9840184873
 30
0.0
 10
10.9049609091
 20
10.9869591719
 30
0.0
 10
10.9109795391
 20
10.9898391327
 30
0.0
 10
10.9174446552
 20
10.9926535437
 30
0.0
 10
10.9243457414
 20
10.9953981453
 30
0.0
 10
10.9316714948
 20
10.9980685262
 30
0.0
 10
10.9394100933
 20
11.0006598747
 30
0.0
 10
10.9475488301
 20
11.0031679726
 30
0.0
 10
10.9560742702
 20
11.0055889438
 30
0.0
 10
10.9649725459
 20
11.0079185548
 30
0.0
 10
10.9742290874
 20
11.0101528579
 30
0.0
 10
10.9838285806
 20
11.0122884596
 30
0.0
 10
10.9937552725
 20
11.0143216842
 30
0.0
 10
11.0039929086
 20
11.0162489468
 30
0.0
 10
11.0181988205
 20
11.0187016994
 30
0.0
 10
11.0366105904
 20
11.021468998
 30
0.0
 10
11.0594170455
 20
11.0242858083
 30
0.0
 10
11.0830332327
 20
11.0266163375
 30
0.0
 10
11.107303636
 20
11.0284455211
 30
0.0
 10
11.1320685764
 20
11.0297606765
 30
0.0
 10
11.1571650414
 20
11.0305531801
 30
0.0
 10
11.182427767
 20
11.0308179184
 30
0.0
 10
11.2076904152
 20
11.0305526885
 30
0.0
 10
11.2327866486
 20
11.0297596959
 30
0.0
 10
11.2575512049
 20
11.0284440591
 30
0.0
 10
11.2818210739
 20
11.0266144029
 30
0.0
 10
11.3054365802
 20
11.0242834143
 30
0.0
 10
11.3282422132
 20
11.0214661622
 30
0.0
 10
11.3466532077
 20
11.0186984989
 30
0.0
 10
11.3608584312
 20
11.0162454644
 30
0.0
 10
11.3710955034
 20
11.0143180034
 30
0.0
 10
11.3810215997
 20
11.0122845891
 30
0.0
 10
11.3906204695
 20
11.0101488036
 30
0.0
 10
11.3998763645
 20
11.0079143178
 30
0.0
 10
11.4087739699
 20
11.0055845201
 30
0.0
 10
11.4172987097
 20
11.0031633704
 30
0.0
 10
11.425436702
 20
11.000655119
 30
0.0
 10
11.433174512
 20
10.9980636585
 30
0.0
 10
11.4404994607
 20
10.9953931858
 30
0.0
 10
11.4473997766
 20
10.9926484475
 30
0.0
 10
11.4538641855
 20
10.9898337971
 30
0.0
 10
11.4598820924
 20
10.9869535354
 30
0.0
 10
11.4654440766
 20
10.9840127146
 30
0.0
 10
11.4705412787
 20
10.9810160183
 30
0.0
 10
11.4751654526
 20
10.9779675241
 30
0.0
 10
11.4793093211
 20
10.9748725097
 30
0.0
 10
11.4818354577
 20
10.972705608
 30
0.0
 10
11.483008922
 20
10.9716135372
 30
0.0
  0
SPLINE
  5
3C6
100
AcDbEntity
  8
02___PRT_ALL_AXES
100
AcDbSpline
 62
7
  6
CONTINUOUS
 70
0
 71
3
 72
76
 73
72
 74
0
 42
0.0000001
 43
0.0000001
 44
0.0000000001
 40
0.0
 40
0.0
 40
0.0
 40
0.0
 40
0.0078469442
 40
0.0115236024
 40
0.0150489717
 40
0.0216949607
 40
0.0248528934
 40
0.0279250683
 40
0.0309332431
 40
0.033900678
 40
0.0368516944
 40
0.0398110551
 40
0.0428031977
 40
0.0458516535
 40
0.0489785758
 40
0.0522044011
 40
0.0555475926
 40
0.0590243169
 40
0.0664292471
 40
0.0703833206
 40
0.0745163139
 40
0.0788353706
 40
0.0833461987
 40
0.0880534528
 40
0.0929608954
 40
0.1033862516
 40
0.1146371248
 40
0.1267168622
 40
0.1396220127
 40
0.1533411132
 40
0.1678583221
 40
0.1831533191
 40
0.1992007845
 40
0.2159732764
 40
0.2334394197
 40
0.251565051
 40
0.2703144595
 40
0.2896485545
 40
0.30952696
 40
0.3299076028
 40
0.3719962453
 40
0.3936136553
 40
0.4155492206
 40
0.4377545268
 40
0.460179856
 40
0.5054886995
 40
0.5510704579
 40
0.5965157242
 40
0.6414164779
 40
0.6853711542
 40
0.727989498
 40
0.7486803415
 40
0.768898443
 40
0.788599933
 40
0.8077435844
 40
0.8262892533
 40
0.8441989135
 40
0.8614375703
 40
0.8779715823
 40
0.8937711472
 40
0.9088095833
 40
0.9230628308
 40
0.9365122406
 40
0.94914284
 40
0.9609458389
 40
0.9719210454
 40
0.9820751949
 40
0.9868497256
 40
0.9914259471
 40
0.9958077453
 40
1.0
 40
1.0
 40
1.0
 40
1.0
 10
10.8810471445
 20
10.9708779361
 30
0.0
 10
10.8797835834
 20
10.9696574297
 30
0.0
 10
10.878009036
 20
10.9677757092
 30
0.0
 10
10.8759239981
 20
10.9651267506
 30
0.0
 10
10.8741643446
 20
10.9625725796
 30
0.0
 10
10.8727234556
 20
10.9599440822
 30
0.0
 10
10.8716566634
 20
10.957262956
 30
0.0
 10
10.8710578554
 20
10.9552804335
 30
0.0
 10
10.8706476812
 20
10.9532939268
 30
0.0
 10
10.8704265893
 20
10.9513047406
 30
0.0
 10
10.8703950695
 20
10.9493144328
 30
0.0
 10
10.8705532211
 20
10.947324648
 30
0.0
 10
10.8709005579
 20
10.9453369994
 30
0.0
 10
10.871436546
 20
10.9433530037
 30
0.0
 10
10.8721605685
 20
10.9413740511
 30
0.0
 10
10.8730719967
 20
10.9394014469
 30
0.0
 10
10.8741702072
 20
10.9374363678
 30
0.0
 10
10.8759186489
 20
10.9347720224
 30
0.0
 10
10.8780152335
 20
10.9321834934
 30
0.0
 10
10.880408771
 20
10.9296722978
 30
0.0
 10
10.8824250598
 20
10.9277602723
 30
0.0
 10
10.8846215297
 20
10.9258621202
 30
0.0
 10
10.8869969468
 20
10.9239786457
 30
0.0
 10
10.8895498159
 20
10.922110936
 30
0.0
 10
10.8932636035
 20
10.9195922008
 30
0.0
 10
10.8983539643
 20
10.9165006195
 30
0.0
 10
10.9050248005
 20
10.9129425477
 30
0.0
 10
10.912360837
 20
10.9094728071
 30
0.0
 10
10.9203450122
 20
10.9061003013
 30
0.0
 10
10.9289584614
 20
10.9028322851
 30
0.0
 10
10.9381809382
 20
10.8996769512
 30
0.0
 10
10.9479905781
 20
10.8966421212
 30
0.0
 10
10.9583638913
 20
10.8937345715
 30
0.0
 10
10.9692761833
 20
10.8909619406
 30
0.0
 10
10.9807012607
 20
10.8883306808
 30
0.0
 10
10.9926117122
 20
10.8858469989
 30
0.0
 10
11.004978996
 20
10.8835174343
 30
0.0
 10
11.017773335
 20
10.8813471236
 30
0.0
 10
11.0309640261
 20
10.8793415236
 30
0.0
 10
11.0492337891
 20
10.8768673315
 30
0.0
 10
11.0679461759
 20
10.8747787126
 30
0.0
 10
11.0870425621
 20
10.8730578513
 30
0.0
 10
11.1017224844
 20
10.8719404151
 30
0.0
 10
11.116596675
 20
10.871010733
 30
0.0
 10
11.1367083524
 20
10.8700206635
 30
0.0
 10
11.1620693186
 20
10.8692691455
 30
0.0
 10
11.1925949386
 20
10.8691403582
 30
0.0
 10
11.2230228128
 20
10.8697831522
 30
0.0
 10
11.2530603557
 20
10.8711912491
 30
0.0
 10
11.2824187325
 20
10.8733508098
 30
0.0
 10
11.3063132256
 20
10.8757819207
 30
0.0
 10
11.3248698088
 20
10.8780985739
 30
0.0
 10
11.3383071476
 20
10.8799914282
 30
0.0
 10
11.3513691705
 20
10.8820525595
 30
0.0
 10
11.3640245251
 20
10.8842765236
 30
0.0
 10
11.3762427806
 20
10.8866580921
 30
0.0
 10
11.3879945528
 20
10.8891917298
 30
0.0
 10
11.3992516862
 20
10.8918707505
 30
0.0
 10
11.4099871355
 20
10.8946891608
 30
0.0
 10
11.4201752356
 20
10.8976399482
 30
0.0
 10
11.4297917338
 20
10.9007156993
 30
0.0
 10
11.4388135493
 20
10.903909628
 30
0.0
 10
11.4472193833
 20
10.907213313
 30
0.0
 10
11.4549893731
 20
10.9106189426
 30
0.0
 10
11.4621054641
 20
10.9141189823
 30
0.0
 10
11.4685514819
 20
10.9177048357
 30
0.0
 10
11.4734486577
 20
10.9208196059
 30
0.0
 10
11.4770048204
 20
10.9233552689
 30
0.0
 10
11.4794396666
 20
10.92523375
 30
0.0
 10
11.4816955555
 20
10.927126745
 30
0.0
 10
11.4831098343
 20
10.9284258716
 30
0.0
 10
11.4837848959
 20
10.9290779311
 30
0.0
  0
SPLINE
  5
3C7
100
AcDbEntity
  8
02___PRT_ALL_AXES
100
AcDbSpline
 62
7
  6
CONTINUOUS
 70
0
 71
3
 72
23
 73
19
 74
0
 42
0.0000001
 43
0.0000001
 44
0.0000000001
 40
0.0
 40
0.0
 40
0.0
 40
0.0
 40
0.0749595663
 40
0.1455624035
 40
0.2121533669
 40
0.2751573354
 40
0.3350914922
 40
0.3925761233
 40
0.448322978
 40
0.5031167381
 40
0.557788769
 40
0.6131796647
 40
0.6700951443
 40
0.7292746165
 40
0.7913685774
 40
0.8569119891
 40
0.9263389317
 40
1.0
 40
1.0
 40
1.0
 40
1.0
 10
11.483008922
 20
10.9716135372
 30
0.0
 10
11.4839097656
 20
10.9707751776
 30
0.0
 10
11.4856090691
 20
10.9690919649
 30
0.0
 10
11.4879019159
 20
10.9664658895
 30
0.0
 10
11.4898572187
 20
10.9638190887
 30
0.0
 10
11.491472111
 20
10.9611538607
 30
0.0
 10
11.4927433196
 20
10.9584722874
 30
0.0
 10
11.4936683072
 20
10.9557773578
 30
0.0
 10
11.4942448354
 20
10.9530726114
 30
0.0
 10
11.4944708372
 20
10.9503622637
 30
0.0
 10
11.4943448241
 20
10.9476512205
 30
0.0
 10
11.4938676241
 20
10.9449444858
 30
0.0
 10
11.4930411059
 20
10.9422463582
 30
0.0
 10
11.4918674472
 20
10.9395603982
 30
0.0
 10
11.4903490128
 20
10.936889901
 30
0.0
 10
11.4884894669
 20
10.9342373067
 30
0.0
 10
11.486292293
 20
10.9316053512
 30
0.0
 10
11.4846546751
 20
10.9299180733
 30
0.0
 10
11.4837848959
 20
10.9290779311
 30
0.0
  0
SPLINE
  5
3C8
100
AcDbEntity
  8
0
100
AcDbSpline
 62
7
  6
CONTINUOUS
 70
0
 71
3
 72
20
 73
16
 74
0
 42
0.0000001
 43
0.0000001
 44
0.0000000001
 40
0.0
 40
0.0
 40
0.0
 40
0.0
 40
0.1328004115
 40
0.2663282989
 40
0.3994288484
 40
0.4652765799
 40
0.530307737
 40
0.5942626159
 40
0.6569131493
 40
0.7180845183
 40
0.777666975
 40
0.8356165293
 40
0.89194577
 40
0.9467129545
 40
1.0
 40
1.0
 40
1.0
 40
1.0
 10
10.4566460902
 20
5.7293135224
 30
0.0
 10
10.4606408063
 20
5.7665516547
 30
0.0
 10
10.4679799973
 20
5.8413067993
 30
0.0
 10
10.4765034047
 20
5.9536393788
 30
0.0
 10
10.4810885773
 20
6.0473056864
 30
0.0
 10
10.4829738581
 20
6.1217309961
 30
0.0
 10
10.4834534225
 20
6.1766777833
 30
0.0
 10
10.482989524
 20
6.2307230585
 30
0.0
 10
10.4815949257
 20
6.2836635001
 30
0.0
 10
10.4793072422
 20
6.3353385306
 30
0.0
 10
10.4761839404
 20
6.3856414068
 30
0.0
 10
10.4722955643
 20
6.4345209556
 30
0.0
 10
10.4677187195
 20
6.4819765197
 30
0.0
 10
10.4625301143
 20
6.5280457539
 30
0.0
 10
10.4586612541
 20
6.5582734285
 30
0.0
 10
10.4566460902
 20
6.5731654803
 30
0.0
  0
SPLINE
  5
3C9
100
AcDbEntity
  8
0
100
AcDbSpline
 62
7
  6
CONTINUOUS
 70
0
 71
3
 72
22
 73
18
 74
0
 42
0.0000001
 43
0.0000001
 44
0.0000000001
 40
0.0
 40
0.0
 40
0.0
 40
0.0
 40
0.0578967657
 40
0.1168069543
 40
0.1767552214
 40
0.2377418336
 40
0.2997235166
 40
0.3626077374
 40
0.4262490722
 40
0.4904549483
 40
0.5550006938
 40
0.619651431
 40
0.684185502
 40
0.7484135876
 40
0.8121898087
 40
0.87541344
 40
1.0
 40
1.0
 40
1.0
 40
1.0
 10
10.3994366448
 20
6.6762226349
 30
0.0
 10
10.3869296897
 20
6.6875449531
 30
0.0
 10
10.3615167112
 20
6.7101898195
 30
0.0
 10
10.3224863515
 20
6.7438002916
 30
0.0
 10
10.2821549045
 20
6.7772671582
 30
0.0
 10
10.2404761771
 20
6.8104966927
 30
0.0
 10
10.1974367681
 20
6.8433739797
 30
0.0
 10
10.1530680378
 20
6.8757646732
 30
0.0
 10
10.1074518865
 20
6.9075225942
 30
0.0
 10
10.0607205738
 20
6.938500825
 30
0.0
 10
10.0130483127
 20
6.9685654497
 30
0.0
 10
9.9646357274
 20
6.9976086509
 30
0.0
 10
9.9156905206
 20
7.0255580151
 30
0.0
 10
9.8664090961
 20
7.0523800387
 30
0.0
 10
9.8169626481
 20
7.0780780922
 30
0.0
 10
9.751321406
 20
7.1107281404
 30
0.0
 10
9.7017341045
 20
7.1339068852
 30
0.0
 10
9.6686394122
 20
7.148829574
 30
0.0
  0
SPLINE
  5
3CA
100
AcDbEntity
  8
0
100
AcDbSpline
 62
7
  6
CONTINUOUS
 70
0
 71
3
 72
15
 73
11
 74
0
 42
0.0000001
 43
0.0000001
 44
0.0000000001
 40
0.0
 40
0.0
 40
0.0
 40
0.0
 40
0.1024584527
 40
0.2125880165
 40
0.3308751456
 40
0.4568384937
 40
0.5888694915
 40
0.7247080792
 40
0.8622415245
 40
1.0
 40
1.0
 40
1.0
 40
1.0
 10
9.5542205214
 20
7.1567645511
 30
0.0
 10
9.5285336897
 20
7.1456017582
 30
0.0
 10
9.4753991195
 20
7.1220648611
 30
0.0
 10
9.3932527553
 20
7.0842081401
 30
0.0
 10
9.3059127524
 20
7.042296369
 30
0.0
 10
9.2138769373
 20
6.9963608769
 30
0.0
 10
9.1182575321
 20
6.9468885311
 30
0.0
 10
9.0204898885
 20
6.894707214
 30
0.0
 10
8.9219157043
 20
6.8407275901
 30
0.0
 10
8.8562287737
 20
6.8040086243
 30
0.0
 10
8.8234232888
 20
6.7855195324
 30
0.0
  0
SPLINE
  5
3CB
100
AcDbEntity
  8
0
100
AcDbSpline
 62
7
  6
CONTINUOUS
 70
0
 71
3
 72
19
 73
15
 74
0
 42
0.0000001
 43
0.0000001
 44
0.0000000001
 40
0.0
 40
0.0
 40
0.0
 40
0.0
 40
0.1307115674
 40
0.2609268752
 40
0.3901025973
 40
0.4540950503
 40
0.5175739859
 40
0.580457627
 40
0.6426741367
 40
0.7041661724
 40
0.764894827
 40
0.8248387715
 40
0.8839940512
 40
1.0
 40
1.0
 40
1.0
 40
1.0
 10
8.540815597
 20
6.4726793545
 30
0.0
 10
8.5384370566
 20
6.4359575313
 30
0.0
 10
8.534122523
 20
6.3626241016
 30
0.0
 10
8.5292198783
 20
6.2529053851
 30
0.0
 10
8.5266485814
 20
6.1618955001
 30
0.0
 10
8.5256054636
 20
6.0896491443
 30
0.0
 10
8.5253423824
 20
6.0360589362
 30
0.0
 10
8.5256005554
 20
5.9829686958
 30
0.0
 10
8.5263759396
 20
5.9304429058
 30
0.0
 10
8.5276557567
 20
5.8785338753
 30
0.0
 10
8.5294193296
 20
5.8272792484
 30
0.0
 10
8.5316407189
 20
5.7767009056
 30
0.0
 10
8.5351495414
 20
5.7106049786
 30
0.0
 10
8.5384042753
 20
5.6613970084
 30
0.0
 10
8.540815597
 20
5.6288273966
 30
0.0
  0
SPLINE
  5
3CC
100
AcDbEntity
  8
0
100
AcDbSpline
 62
7
  6
CONTINUOUS
 70
0
 71
3
 72
21
 73
17
 74
0
 42
0.0000001
 43
0.0000001
 44
0.0000000001
 40
0.0
 40
0.0
 40
0.0
 40
0.0
 40
0.1211301163
 40
0.1823712755
 40
0.2440509723
 40
0.306143678
 40
0.3686104373
 40
0.4313997375
 40
0.4944481226
 40
0.5576847246
 40
0.6210354942
 40
0.6844273845
 40
0.7477936645
 40
0.8110760547
 40
0.8742266982
 40
1.0
 40
1.0
 40
1.0
 40
1.0
 10
8.5980250425
 20
5.5257702419
 30
0.0
 10
8.6256864104
 20
5.504014107
 30
0.0
 10
8.6676388162
 20
5.4716437096
 30
0.0
 10
8.7244555832
 20
5.4292239328
 30
0.0
 10
8.7678876232
 20
5.3975523299
 30
0.0
 10
8.8119816102
 20
5.3661905123
 30
0.0
 10
8.8567231059
 20
5.3351897657
 30
0.0
 10
8.9020833776
 20
5.3046021192
 30
0.0
 10
8.9480193585
 20
5.2744762113
 30
0.0
 10
8.9944756352
 20
5.2448544951
 30
0.0
 10
9.0413884249
 20
5.215771459
 30
0.0
 10
9.0886890115
 20
5.1872506198
 30
0.0
 10
9.1363076642
 20
5.1593035566
 30
0.0
 10
9.1841781289
 20
5.1319310893
 30
0.0
 10
9.2481714243
 20
5.0962372784
 30
0.0
 10
9.2965028381
 20
5.0702132842
 30
0.0
 10
9.328822275
 20
5.0531633028
 30
0.0
  0
SPLINE
  5
3CD
100
AcDbEntity
  8
0
100
AcDbSpline
 62
7
  6
CONTINUOUS
 70
0
 71
3
 72
15
 73
11
 74
0
 42
0.0000001
 43
0.0000001
 44
0.0000000001
 40
0.0
 40
0.0
 40
0.0
 40
0.0
 40
0.1128124416
 40
0.2295614621
 40
0.3503736449
 40
0.4750619961
 40
0.6031117921
 40
0.7337880193
 40
0.866309584
 40
1.0
 40
1.0
 40
1.0
 40
1.0
 10
9.4432411658
 20
5.0452283258
 30
0.0
 10
9.4711598037
 20
5.0583025504
 30
0.0
 10
9.5278774609
 20
5.085108226
 30
0.0
 10
9.6141255375
 20
5.1266884379
 30
0.0
 10
9.7029384312
 20
5.1704143197
 30
0.0
 10
9.794136811
 20
5.2162782004
 30
0.0
 10
9.8873527481
 20
5.2641217741
 30
0.0
 10
9.9820992585
 20
5.3136639578
 30
0.0
 10
10.0778727481
 20
5.3645628578
 30
0.0
 10
10.1419169139
 20
5.3990687823
 30
0.0
 10
10.1740383984
 20
5.4164733445
 30
0.0
  0
SPLINE
  5
3CE
100
AcDbEntity
  8
0
100
AcDbSpline
 62
7
  6
CONTINUOUS
 70
0
 71
3
 72
64
 73
60
 74
0
 42
0.0000001
 43
0.0000001
 44
0.0000000001
 40
0.0
 40
0.0
 40
0.0
 40
0.0
 40
0.0311830674
 40
0.0467008478
 40
0.0621656035
 40
0.077580314
 40
0.0929469982
 40
0.1082676194
 40
0.1235450534
 40
0.1387827119
 40
0.1539843784
 40
0.169154114
 40
0.1842963866
 40
0.1994159176
 40
0.2145177079
 40
0.2296068972
 40
0.2446888078
 40
0.2597688009
 40
0.2748522991
 40
0.289944644
 40
0.3050511237
 40
0.320176829
 40
0.3353266945
 40
0.3505053557
 40
0.3657171944
 40
0.3809661934
 40
0.3962560015
 40
0.4115897884
 40
0.4269703324
 40
0.4423998859
 40
0.4578802676
 40
0.4734127351
 40
0.4889980873
 40
0.5046365524
 40
0.5203278953
 40
0.5360713376
 40
0.551865648
 40
0.5677090891
 40
0.5835994915
 40
0.5995342345
 40
0.6155103003
 40
0.6315243016
 40
0.6475725053
 40
0.6636508895
 40
0.6797551433
 40
0.6958807523
 40
0.7120229781
 40
0.7281769781
 40
0.7443377676
 40
0.7605003478
 40
0.7766596612
 40
0.7928107186
 40
0.8089485556
 40
0.841156923
 40
0.8732567742
 40
0.9052155383
 40
0.9370054028
 40
0.968605258
 40
1.0
 40
1.0
 40
1.0
 40
1.0
 10
9.368399084
 20
6.8058018782
 30
0.0
 10
9.3413178585
 20
6.8076799676
 30
0.0
 10
9.3005844003
 20
6.8085171434
 30
0.0
 10
9.2465297893
 20
6.8056025031
 30
0.0
 10
9.2063376942
 20
6.801419615
 30
0.0
 10
9.1665378426
 20
6.7952448382
 30
0.0
 10
9.127222436
 20
6.7870953174
 30
0.0
 10
9.0884877299
 20
6.7769879322
 30
0.0
 10
9.0504267621
 20
6.7649491192
 30
0.0
 10
9.013131802
 20
6.7510060314
 30
0.0
 10
8.9766920886
 20
6.7351938946
 30
0.0
 10
8.9411961524
 20
6.7175492287
 30
0.0
 10
8.9067290597
 20
6.6981157793
 30
0.0
 10
8.873374481
 20
6.6769393522
 30
0.0
 10
8.8412124277
 20
6.6540717672
 30
0.0
 10
8.8103208444
 20
6.6295675931
 30
0.0
 10
8.7807740465
 20
6.6034862453
 30
0.0
 10
8.7526433614
 20
6.575890501
 30
0.0
 10
8.7259967554
 20
6.5468468547
 30
0.0
 10
8.7008981758
 20
6.5164256039
 30
0.0
 10
8.6774086675
 20
6.4846997598
 30
0.0
 10
8.655584102
 20
6.4517463772
 30
0.0
 10
8.6354780552
 20
6.417644355
 30
0.0
 10
8.6171377436
 20
6.3824766315
 30
0.0
 10
8.6006087661
 20
6.3463273261
 30
0.0
 10
8.585929239
 20
6.3092843467
 30
0.0
 10
8.5731363495
 20
6.2714363265
 30
0.0
 10
8.5622587728
 20
6.2328751997
 30
0.0
 10
8.5533248891
 20
6.1936933387
 30
0.0
 10
8.5463537266
 20
6.1539857083
 30
0.0
 10
8.541364509
 20
6.1138475919
 30
0.0
 10
8.5383665362
 20
6.0733760068
 30
0.0
 10
8.5373696156
 20
6.0326682906
 30
0.0
 10
8.5383733352
 20
5.99182256
 30
0.0
 10
8.5413778853
 20
5.950937287
 30
0.0
 10
8.546373279
 20
5.9101107306
 30
0.0
 10
8.5533499729
 20
5.8694415207
 30
0.0
 10
8.5622886175
 20
5.8290271481
 30
0.0
 10
8.5731699471
 20
5.7889654255
 30
0.0
 10
8.5859655119
 20
5.7493522137
 30
0.0
 10
8.6006464369
 20
5.710283508
 30
0.0
 10
8.6171755177
 20
5.6718526893
 30
0.0
 10
8.6355145047
 20
5.6341529178
 30
0.0
 10
8.6556178291
 20
5.5972742795
 30
0.0
 10
8.6774382257
 20
5.5613061353
 30
0.0
 10
8.7009221926
 20
5.5263345146
 30
0.0
 10
8.7260138981
 20
5.4924440412
 30
0.0
 10
8.7526524178
 20
5.4597159467
 30
0.0
 10
8.7807739056
 20
5.4282292187
 30
0.0
 10
8.810310626
 20
5.39805954
 30
0.0
 10
8.8411911563
 20
5.3692795969
 30
0.0
 10
8.8733423883
 20
5.3419583105
 30
0.0
 10
8.9177634848
 20
5.3075905174
 30
0.0
 10
8.9760625791
 20
5.2685924775
 30
0.0
 10
9.0498277708
 20
5.2285716511
 30
0.0
 10
9.1266657139
 20
5.1957287431
 30
0.0
 10
9.2058383333
 20
5.1703831852
 30
0.0
 10
9.2865759571
 20
5.1527813082
 30
0.0
 10
9.3411340277
 20
5.1463001966
 30
0.0
 10
9.368399084
 20
5.1444093586
 30
0.0
  0
SPLINE
  5
3CF
100
AcDbEntity
  8
0
100
AcDbSpline
 62
7
  6
CONTINUOUS
 70
0
 71
3
 72
64
 73
60
 74
0
 42
0.0000001
 43
0.0000001
 44
0.0000000001
 40
0.0
 40
0.0
 40
0.0
 40
0.0
 40
0.0311830674
 40
0.0467008478
 40
0.0621656035
 40
0.077580314
 40
0.0929469982
 40
0.1082676194
 40
0.1235450534
 40
0.1387827119
 40
0.1539843784
 40
0.169154114
 40
0.1842963866
 40
0.1994159176
 40
0.2145177079
 40
0.2296068972
 40
0.2446888078
 40
0.2597688009
 40
0.2748522991
 40
0.289944644
 40
0.3050511237
 40
0.320176829
 40
0.3353266945
 40
0.3505053557
 40
0.3657171944
 40
0.3809661934
 40
0.3962560015
 40
0.4115897884
 40
0.4269703324
 40
0.4423998859
 40
0.4578802676
 40
0.4734127351
 40
0.4889980873
 40
0.5046365524
 40
0.5203278953
 40
0.5360713376
 40
0.551865648
 40
0.5677090891
 40
0.5835994915
 40
0.5995342345
 40
0.6155103003
 40
0.6315243016
 40
0.6475725053
 40
0.6636508895
 40
0.6797551433
 40
0.6958807523
 40
0.7120229781
 40
0.7281769781
 40
0.7443377676
 40
0.7605003478
 40
0.7766596612
 40
0.7928107186
 40
0.8089485556
 40
0.841156923
 40
0.8732567742
 40
0.9052155383
 40
0.9370054028
 40
0.968605258
 40
1.0
 40
1.0
 40
1.0
 40
1.0
 10
9.368399084
 20
5.1444093586
 30
0.0
 10
9.3954803095
 20
5.1425312692
 30
0.0
 10
9.4362137678
 20
5.1416940934
 30
0.0
 10
9.4902683787
 20
5.1446087337
 30
0.0
 10
9.5304604738
 20
5.1487916218
 30
0.0
 10
9.5702603254
 20
5.1549663986
 30
0.0
 10
9.6095757321
 20
5.1631159193
 30
0.0
 10
9.6483104381
 20
5.1732233046
 30
0.0
 10
9.686371406
 20
5.1852621175
 30
0.0
 10
9.723666366
 20
5.1992052054
 30
0.0
 10
9.7601060794
 20
5.2150173421
 30
0.0
 10
9.7956020156
 20
5.2326620081
 30
0.0
 10
9.8300691083
 20
5.2520954575
 30
0.0
 10
9.863423687
 20
5.2732718846
 30
0.0
 10
9.8955857403
 20
5.2961394696
 30
0.0
 10
9.9264773236
 20
5.3206436437
 30
0.0
 10
9.9560241215
 20
5.3467249915
 30
0.0
 10
9.9841548066
 20
5.3743207358
 30
0.0
 10
10.0108014127
 20
5.4033643821
 30
0.0
 10
10.0358999922
 20
5.4337856329
 30
0.0
 10
10.0593895005
 20
5.465511477
 30
0.0
 10
10.0812140661
 20
5.4984648596
 30
0.0
 10
10.1013201128
 20
5.5325668818
 30
0.0
 10
10.1196604245
 20
5.5677346053
 30
0.0
 10
10.1361894019
 20
5.6038839106
 30
0.0
 10
10.150868929
 20
5.6409268901
 30
0.0
 10
10.1636618186
 20
5.6787749103
 30
0.0
 10
10.1745393952
 20
5.7173360371
 30
0.0
 10
10.183473279
 20
5.7565178981
 30
0.0
 10
10.1904444414
 20
5.7962255285
 30
0.0
 10
10.1954336591
 20
5.8363636449
 30
0.0
 10
10.1984316319
 20
5.8768352299
 30
0.0
 10
10.1994285525
 20
5.9175429462
 30
0.0
 10
10.1984248328
 20
5.9583886767
 30
0.0
 10
10.1954202828
 20
5.9992739498
 30
0.0
 10
10.190424889
 20
6.0401005062
 30
0.0
 10
10.1834481951
 20
6.080769716
 30
0.0
 10
10.1745095505
 20
6.1211840886
 30
0.0
 10
10.163628221
 20
6.1612458113
 30
0.0
 10
10.1508326562
 20
6.2008590231
 30
0.0
 10
10.1361517312
 20
6.2399277287
 30
0.0
 10
10.1196226503
 20
6.2783585475
 30
0.0
 10
10.1012836633
 20
6.316058319
 30
0.0
 10
10.0811803389
 20
6.3529369572
 30
0.0
 10
10.0593599423
 20
6.3889051015
 30
0.0
 10
10.0358759755
 20
6.4238767222
 30
0.0
 10
10.01078427
 20
6.4577671956
 30
0.0
 10
9.9841457502
 20
6.4904952901
 30
0.0
 10
9.9560242625
 20
6.5219820181
 30
0.0
 10
9.9264875421
 20
6.5521516968
 30
0.0
 10
9.8956070118
 20
6.5809316398
 30
0.0
 10
9.8634557797
 20
6.6082529263
 30
0.0
 10
9.8190346832
 20
6.6426207194
 30
0.0
 10
9.760735589
 20
6.6816187593
 30
0.0
 10
9.6869703973
 20
6.7216395857
 30
0.0
 10
9.6101324541
 20
6.7544824937
 30
0.0
 10
9.5309598347
 20
6.7798280516
 30
0.0
 10
9.4502222109
 20
6.7974299285
 30
0.0
 10
9.3956641403
 20
6.8039110401
 30
0.0
 10
9.368399084
 20
6.8058018782
 30
0.0
  0
SPLINE
  5
3D0
100
AcDbEntity
  8
0
100
AcDbSpline
 62
7
  6
CONTINUOUS
 70
0
 71
3
 72
19
 73
15
 74
0
 42
0.0000001
 43
0.0000001
 44
0.0000000001
 40
0.0
 40
0.0
 40
0.0
 40
0.0
 40
0.1160059488
 40
0.1751612285
 40
0.235105173
 40
0.2958338276
 40
0.3573258634
 40
0.419542373
 40
0.4824260141
 40
0.5459049497
 40
0.6098974028
 40
0.7390731248
 40
0.8692884326
 40
1.0
 40
1.0
 40
1.0
 40
1.0
 10
10.2312478438
 20
5.5115955221
 30
0.0
 10
10.228836522
 20
5.5441651339
 30
0.0
 10
10.2255817881
 20
5.5933731041
 30
0.0
 10
10.2220729656
 20
5.6594690311
 30
0.0
 10
10.2198515764
 20
5.7100473739
 30
0.0
 10
10.2180880035
 20
5.7613020009
 30
0.0
 10
10.2168081863
 20
5.8132110314
 30
0.0
 10
10.2160328022
 20
5.8657368214
 30
0.0
 10
10.2157746291
 20
5.9188270618
 30
0.0
 10
10.2160377104
 20
5.9724172699
 30
0.0
 10
10.2170808281
 20
6.0446636256
 30
0.0
 10
10.219652125
 20
6.1356735106
 30
0.0
 10
10.2245547698
 20
6.2453922271
 30
0.0
 10
10.2288693034
 20
6.3187256568
 30
0.0
 10
10.2312478438
 20
6.35544748
 30
0.0
  0
SPLINE
  5
3D1
100
AcDbEntity
  8
0
100
AcDbSpline
 62
7
  6
CONTINUOUS
 70
0
 71
3
 72
21
 73
17
 74
0
 42
0.0000001
 43
0.0000001
 44
0.0000000001
 40
0.0
 40
0.0
 40
0.0
 40
0.0
 40
0.1257733018
 40
0.1889239453
 40
0.2522063355
 40
0.3155726155
 40
0.3789645059
 40
0.4423152755
 40
0.5055518774
 40
0.5686002626
 40
0.6313895627
 40
0.693856322
 40
0.7559490278
 40
0.8176287245
 40
0.8788698837
 40
1.0
 40
1.0
 40
1.0
 40
1.0
 10
10.1740383984
 20
6.4585046346
 30
0.0
 10
10.1417189615
 20
6.475554616
 30
0.0
 10
10.0933875477
 20
6.5015786102
 30
0.0
 10
10.0293942522
 20
6.5372724211
 30
0.0
 10
9.9815237876
 20
6.5646448884
 30
0.0
 10
9.9339051348
 20
6.5925919517
 30
0.0
 10
9.8866045482
 20
6.6211127908
 30
0.0
 10
9.8396917586
 20
6.6501958269
 30
0.0
 10
9.7932354818
 20
6.6798175431
 30
0.0
 10
9.747299501
 20
6.709943451
 30
0.0
 10
9.7019392293
 20
6.7405310976
 30
0.0
 10
9.6571977335
 20
6.7715318441
 30
0.0
 10
9.6131037465
 20
6.8028936617
 30
0.0
 10
9.5696717065
 20
6.8345652647
 30
0.0
 10
9.5128549396
 20
6.8769850414
 30
0.0
 10
9.4709025337
 20
6.9093554389
 30
0.0
 10
9.4432411658
 20
6.9311115738
 30
0.0
  0
SPLINE
  5
3D2
100
AcDbEntity
  8
0
100
AcDbSpline
 62
7
  6
CONTINUOUS
 70
0
 71
3
 72
15
 73
11
 74
0
 42
0.0000001
 43
0.0000001
 44
0.0000000001
 40
0.0
 40
0.0
 40
0.0
 40
0.0
 40
0.133690416
 40
0.2662119808
 40
0.3968882079
 40
0.524938004
 40
0.6496263551
 40
0.770438538
 40
0.8871875584
 40
1.0
 40
1.0
 40
1.0
 40
1.0
 10
9.328822275
 20
6.9390465508
 30
0.0
 10
9.2967007906
 20
6.9216419887
 30
0.0
 10
9.2326566247
 20
6.8871360641
 30
0.0
 10
9.1368831351
 20
6.8362371641
 30
0.0
 10
9.0421366247
 20
6.7866949804
 30
0.0
 10
8.9489206876
 20
6.7388514067
 30
0.0
 10
8.8577223078
 20
6.692987526
 30
0.0
 10
8.7689094141
 20
6.6492616442
 30
0.0
 10
8.6826613375
 20
6.6076814323
 30
0.0
 10
8.6259436804
 20
6.5808757567
 30
0.0
 10
8.5980250425
 20
6.5678015321
 30
0.0
  0
SPLINE
  5
3D3
100
AcDbEntity
  8
0
100
AcDbSpline
 62
7
  6
CONTINUOUS
 70
0
 71
3
 72
22
 73
18
 74
0
 42
0.0000001
 43
0.0000001
 44
0.0000000001
 40
0.0
 40
0.0
 40
0.0
 40
0.0
 40
0.0662627889
 40
0.1328022627
 40
0.1995323899
 40
0.2663327743
 40
0.3994321266
 40
0.4652792355
 40
0.5303098426
 40
0.5942641163
 40
0.6569139169
 40
0.7180845853
 40
0.777666605
 40
0.8356161461
 40
0.8919456067
 40
0.9467124961
 40
1.0
 40
1.0
 40
1.0
 40
1.0
 10
12.6299793281
 20
5.5785923504
 30
0.0
 10
12.6319725609
 20
5.5971729616
 30
0.0
 10
12.6357997264
 20
5.634430035
 30
0.0
 10
12.6409899992
 20
5.6904625964
 30
0.0
 10
12.6455707136
 20
5.7467008974
 30
0.0
 10
12.6507570518
 20
5.8217171383
 30
0.0
 10
12.6544218058
 20
5.8965853646
 30
0.0
 10
12.6563072094
 20
5.9710101821
 30
0.0
 10
12.6567867969
 20
6.0259567236
 30
0.0
 10
12.6563228714
 20
6.0800016853
 30
0.0
 10
12.6549282085
 20
6.1329417733
 30
0.0
 10
12.6526404783
 20
6.1846164891
 30
0.0
 10
12.6495172149
 20
6.2349192531
 30
0.0
 10
12.6456288949
 20
6.2837989469
 30
0.0
 10
12.6410520334
 20
6.3312546848
 30
0.0
 10
12.6358633692
 20
6.3773242158
 30
0.0
 10
12.6319945178
 20
6.4075520662
 30
0.0
 10
12.6299793281
 20
6.4224443083
 30
0.0
  0
SPLINE
  5
3D4
100
AcDbEntity
  8
0
100
AcDbSpline
 62
7
  6
CONTINUOUS
 70
0
 71
3
 72
22
 73
18
 74
0
 42
0.0000001
 43
0.0000001
 44
0.0000000001
 40
0.0
 40
0.0
 40
0.0
 40
0.0
 40
0.0578974882
 40
0.1168076123
 40
0.1767563582
 40
0.2377431684
 40
0.2997246356
 40
0.362608436
 40
0.4262493434
 40
0.4904549021
 40
0.5550003489
 40
0.6196506978
 40
0.6841843697
 40
0.7484122155
 40
0.8121886095
 40
0.8754127419
 40
1.0
 40
1.0
 40
1.0
 40
1.0
 10
12.5727698827
 20
6.5255014629
 30
0.0
 10
12.5602627714
 20
6.5368239225
 30
0.0
 10
12.5348496239
 20
6.5594688879
 30
0.0
 10
12.4958190336
 20
6.5930795999
 30
0.0
 10
12.455487449
 20
6.626546582
 30
0.0
 10
12.4138085622
 20
6.6597761333
 30
0.0
 10
12.3707692293
 20
6.6926533092
 30
0.0
 10
12.3264007959
 20
6.7250438835
 30
0.0
 10
12.2807849787
 20
6.7568016914
 30
0.0
 10
12.2340539426
 20
6.7877797911
 30
0.0
 10
12.1863819045
 20
6.8178442229
 30
0.0
 10
12.1379695402
 20
6.8468871787
 30
0.0
 10
12.0890245559
 20
6.8748363286
 30
0.0
 10
12.0397432704
 20
6.9016583231
 30
0.0
 10
11.9902967484
 20
6.9273565106
 30
0.0
 10
11.9246551404
 20
6.9600067234
 30
0.0
 10
11.8750675282
 20
6.9831856295
 30
0.0
 10
11.8419726501
 20
6.9981084021
 30
0.0
  0
SPLINE
  5
3D5
100
AcDbEntity
  8
0
100
AcDbSpline
 62
7
  6
CONTINUOUS
 70
0
 71
3
 72
15
 73
11
 74
0
 42
0.0000001
 43
0.0000001
 44
0.0000000001
 40
0.0
 40
0.0
 40
0.0
 40
0.0
 40
0.1024590394
 40
0.2125892926
 40
0.3308757892
 40
0.4568382862
 40
0.5888686932
 40
0.7247066359
 40
0.8622407571
 40
1.0
 40
1.0
 40
1.0
 40
1.0
 10
11.7275537593
 20
7.0060433791
 30
0.0
 10
11.7018667805
 20
6.9948805223
 30
0.0
 10
11.6487318897
 20
6.9713434874
 30
0.0
 10
11.5665853812
 20
6.9334866587
 30
0.0
 10
11.4792455691
 20
6.8915749926
 30
0.0
 10
11.3872102296
 20
6.8456398165
 30
0.0
 10
11.2915913641
 20
6.796167668
 30
0.0
 10
11.1938238571
 20
6.7439864207
 30
0.0
 10
11.0952494676
 20
6.690006717
 30
0.0
 10
11.0295621944
 20
6.6532875553
 30
0.0
 10
10.9967565268
 20
6.6347983604
 30
0.0
  0
SPLINE
  5
3D6
100
AcDbEntity
  8
0
100
AcDbSpline
 62
7
  6
CONTINUOUS
 70
0
 71
3
 72
20
 73
16
 74
0
 42
0.0000001
 43
0.0000001
 44
0.0000000001
 40
0.0
 40
0.0
 40
0.0
 40
0.0
 40
0.1307118504
 40
0.2609271596
 40
0.3256853614
 40
0.3901038075
 40
0.4540959115
 40
0.5175746912
 40
0.5804579524
 40
0.6426740239
 40
0.7041660739
 40
0.7648946165
 40
0.8248383834
 40
0.8839938085
 40
1.0
 40
1.0
 40
1.0
 40
1.0
 10
10.714148835
 20
6.3219581825
 30
0.0
 10
10.7117702865
 20
6.2852362348
 30
0.0
 10
10.7074556876
 20
6.2119027923
 30
0.0
 10
10.7033627931
 20
6.1203011152
 30
0.0
 10
10.701002519
 20
6.0473126752
 30
0.0
 10
10.6997187615
 20
5.9929448904
 30
0.0
 10
10.6989387023
 20
5.9389277343
 30
0.0
 10
10.698675466
 20
5.8853377364
 30
0.0
 10
10.6989338087
 20
5.8322476983
 30
0.0
 10
10.6997092563
 20
5.7797220739
 30
0.0
 10
10.7009889106
 20
5.7278131261
 30
0.0
 10
10.7027525148
 20
5.6765585144
 30
0.0
 10
10.704973971
 20
5.6259801534
 30
0.0
 10
10.7084827288
 20
5.5598840824
 30
0.0
 10
10.7117375052
 20
5.5106759445
 30
0.0
 10
10.714148835
 20
5.4781062246
 30
0.0
  0
SPLINE
  5
3D7
100
AcDbEntity
  8
0
100
AcDbSpline
 62
7
  6
CONTINUOUS
 70
0
 71
3
 72
21
 73
17
 74
0
 42
0.0000001
 43
0.0000001
 44
0.0000000001
 40
0.0
 40
0.0
 40
0.0
 40
0.0
 40
0.1211305215
 40
0.1823718855
 40
0.2440515074
 40
0.3061441797
 40
0.3686109568
 40
0.4313999269
 40
0.4944480864
 40
0.5576845339
 40
0.6210350022
 40
0.684426846
 40
0.7477930962
 40
0.8110754374
 40
0.8742262746
 40
1.0
 40
1.0
 40
1.0
 40
1.0
 10
10.7713582804
 20
5.37504907
 30
0.0
 10
10.7990197409
 20
5.3532928622
 30
0.0
 10
10.8409722624
 20
5.3209223233
 30
0.0
 10
10.8977892107
 20
5.2785025295
 30
0.0
 10
10.9412212222
 20
5.2468308407
 30
0.0
 10
10.9853151636
 20
5.2154690023
 30
0.0
 10
11.0300566986
 20
5.1844684883
 30
0.0
 10
11.0754167926
 20
5.1538808606
 30
0.0
 10
11.1213524703
 20
5.1237548644
 30
0.0
 10
11.1678087107
 20
5.094133457
 30
0.0
 10
11.2147214175
 20
5.0650505673
 30
0.0
 10
11.2620218017
 20
5.0365296046
 30
0.0
 10
11.3096404462
 20
5.008582597
 30
0.0
 10
11.3575109809
 20
4.9812101856
 30
0.0
 10
11.4215043756
 20
4.9455162137
 30
0.0
 10
11.4698359671
 20
4.9194921697
 30
0.0
 10
11.5021555129
 20
4.9024421308
 30
0.0
  0
SPLINE
  5
3D8
100
AcDbEntity
  8
0
100
AcDbSpline
 62
7
  6
CONTINUOUS
 70
0
 71
3
 72
15
 73
11
 74
0
 42
0.0000001
 43
0.0000001
 44
0.0000000001
 40
0.0
 40
0.0
 40
0.0
 40
0.0
 40
0.1128128137
 40
0.2295619377
 40
0.3503742146
 40
0.4750618339
 40
0.6031113457
 40
0.7337873942
 40
0.8663091291
 40
1.0
 40
1.0
 40
1.0
 40
1.0
 10
11.6165744038
 20
4.8945071538
 30
0.0
 10
11.6444931338
 20
4.9075814216
 30
0.0
 10
11.7012109062
 20
4.9343871571
 30
0.0
 10
11.7874591386
 20
4.9759674051
 30
0.0
 10
11.8762718581
 20
5.0196933095
 30
0.0
 10
11.9674700803
 20
5.0655569432
 30
0.0
 10
12.0606856592
 20
5.1134005002
 30
0.0
 10
12.1554321429
 20
5.1629425618
 30
0.0
 10
12.2512057236
 20
5.2138415508
 30
0.0
 10
12.3152500426
 20
5.2483475512
 30
0.0
 10
12.3473716363
 20
5.2657521725
 30
0.0
  0
SPLINE
  5
3D9
100
AcDbEntity
  8
0
100
AcDbSpline
 62
7
  6
CONTINUOUS
 70
0
 71
3
 72
15
 73
11
 74
0
 42
0.0000001
 43
0.0000001
 44
0.0000000001
 40
0.0
 40
0.0
 40
0.0
 40
0.0
 40
0.1259387151
 40
0.2515500552
 40
0.3768604883
 40
0.5018988711
 40
0.6266970376
 40
0.7512889617
 40
0.8757107437
 40
1.0
 40
1.0
 40
1.0
 40
1.0
 10
11.6334098522
 20
6.9651107403
 30
0.0
 10
11.6211752625
 20
6.9619225474
 30
0.0
 10
11.5968883266
 20
6.9549596728
 30
0.0
 10
11.561060035
 20
6.9427610656
 30
0.0
 10
11.5259574022
 20
6.9288498508
 30
0.0
 10
11.4916594392
 20
6.9132550235
 30
0.0
 10
11.4582405574
 20
6.896012534
 30
0.0
 10
11.4257749237
 20
6.8771583565
 30
0.0
 10
11.3943339288
 20
6.8567363176
 30
0.0
 10
11.3740920369
 20
6.8420970643
 30
0.0
 10
11.3641679619
 20
6.8345338171
 30
0.0
  0
SPLINE
  5
3DA
100
AcDbEntity
  8
0
100
AcDbSpline
 62
7
  6
CONTINUOUS
 70
0
 71
3
 72
35
 73
31
 74
0
 42
0.0000001
 43
0.0000001
 44
0.0000000001
 40
0.0
 40
0.0
 40
0.0
 40
0.0
 40
0.0612906693
 40
0.1229878739
 40
0.1539915337
 40
0.1850872977
 40
0.2162696171
 40
0.2475327476
 40
0.2788701874
 40
0.3102745649
 40
0.3417379897
 40
0.3732520333
 40
0.4048078488
 40
0.4363961973
 40
0.468007577
 40
0.4996322754
 40
0.5312604555
 40
0.562882252
 40
0.5944878596
 40
0.6260676278
 40
0.6576121068
 40
0.6891121837
 40
0.720559106
 40
0.7519446068
 40
0.7832608858
 40
0.8145009644
 40
0.845658577
 40
0.8767276093
 40
0.9385638178
 40
1.0
 40
1.0
 40
1.0
 40
1.0
 10
12.7180396502
 20
6.1056101418
 30
0.0
 10
12.7180396502
 20
6.1327176674
 30
0.0
 10
12.7153581289
 20
6.1871463477
 30
0.0
 10
12.7054257249
 20
6.2546353005
 30
0.0
 10
12.6935964586
 20
6.3081126322
 30
0.0
 10
12.6827791362
 20
6.3479423997
 30
0.0
 10
12.6700573242
 20
6.3873249814
 30
0.0
 10
12.6554622157
 20
6.4261667309
 30
0.0
 10
12.6390288958
 20
6.4643739473
 30
0.0
 10
12.6207967635
 20
6.5018546636
 30
0.0
 10
12.6008101992
 20
6.5385188469
 30
0.0
 10
12.5791166678
 20
6.5742778667
 30
0.0
 10
12.555769341
 20
6.6090462348
 30
0.0
 10
12.5308233397
 20
6.6427395222
 30
0.0
 10
12.5043399489
 20
6.6752775536
 30
0.0
 10
12.4763816367
 20
6.7065809565
 30
0.0
 10
12.4470170092
 20
6.7365755434
 30
0.0
 10
12.4163155061
 20
6.7651878906
 30
0.0
 10
12.3843521648
 20
6.7923503364
 30
0.0
 10
12.3512029192
 20
6.8179963297
 30
0.0
 10
12.3169483725
 20
6.842065169
 30
0.0
 10
12.2816703317
 20
6.8644980116
 30
0.0
 10
12.2454541333
 20
6.8852414822
 30
0.0
 10
12.2083867345
 20
6.9042451745
 30
0.0
 10
12.1705573695
 20
6.9214635073
 30
0.0
 10
12.1320573016
 20
6.9368550722
 30
0.0
 10
12.0929780248
 20
6.9503823364
 30
0.0
 10
12.040318935
 20
6.9658638409
 30
0.0
 10
11.9735183122
 20
6.9804283849
 30
0.0
 10
11.9192797964
 20
6.9868709562
 30
0.0
 10
11.8921730198
 20
6.9887508175
 30
0.0
  0
SPLINE
  5
3DB
100
AcDbEntity
  8
0
100
AcDbSpline
 62
7
  6
CONTINUOUS
 70
0
 71
3
 72
16
 73
12
 74
0
 42
0.0000001
 43
0.0000001
 44
0.0000000001
 40
0.0
 40
0.0
 40
0.0
 40
0.0
 40
0.1236450025
 40
0.1855976618
 40
0.2476386809
 40
0.3719893701
 40
0.496733349
 40
0.6218884842
 40
0.7474788994
 40
0.8735266243
 40
1.0
 40
1.0
 40
1.0
 40
1.0
 10
12.6485618384
 20
5.7788694387
 30
0.0
 10
12.6542756535
 20
5.7915081363
 30
0.0
 10
12.6623382635
 20
5.8107182062
 30
0.0
 10
12.672042212
 20
5.8367503982
 30
0.0
 10
12.6810669847
 20
5.8631101566
 30
0.0
 10
12.6910355234
 20
5.896577882
 30
0.0
 10
12.7008572789
 20
5.9374154687
 30
0.0
 10
12.7085230451
 20
5.9788538257
 30
0.0
 10
12.7140122375
 20
6.0207837259
 30
0.0
 10
12.7173087001
 20
6.0630896917
 30
0.0
 10
12.7180396502
 20
6.0914225911
 30
0.0
 10
12.7180396502
 20
6.1056101418
 30
0.0
  0
SPLINE
  5
3DC
100
AcDbEntity
  8
0
100
AcDbSpline
 62
7
  6
CONTINUOUS
 70
0
 71
3
 72
35
 73
31
 74
0
 42
0.0000001
 43
0.0000001
 44
0.0000000001
 40
0.0
 40
0.0
 40
0.0
 40
0.0
 40
0.0612906693
 40
0.1229878739
 40
0.1539915337
 40
0.1850872977
 40
0.2162696171
 40
0.2475327476
 40
0.2788701874
 40
0.3102745649
 40
0.3417379897
 40
0.3732520333
 40
0.4048078488
 40
0.4363961973
 40
0.468007577
 40
0.4996322754
 40
0.5312604555
 40
0.562882252
 40
0.5944878596
 40
0.6260676278
 40
0.6576121068
 40
0.6891121837
 40
0.720559106
 40
0.7519446068
 40
0.7832608858
 40
0.8145009644
 40
0.845658577
 40
0.8767276093
 40
0.9385638178
 40
1.0
 40
1.0
 40
1.0
 40
1.0
 10
12.7283924035
 20
6.1156101341
 30
0.0
 10
12.7283924035
 20
6.1427176597
 30
0.0
 10
12.7257108821
 20
6.1971463401
 30
0.0
 10
12.7157784781
 20
6.2646352929
 30
0.0
 10
12.7039492119
 20
6.3181126245
 30
0.0
 10
12.6931318894
 20
6.3579423921
 30
0.0
 10
12.6804100774
 20
6.3973249737
 30
0.0
 10
12.665814969
 20
6.4361667232
 30
0.0
 10
12.649381649
 20
6.4743739396
 30
0.0
 10
12.6311495167
 20
6.5118546559
 30
0.0
 10
12.6111629525
 20
6.5485188392
 30
0.0
 10
12.589469421
 20
6.584277859
 30
0.0
 10
12.5661220943
 20
6.6190462271
 30
0.0
 10
12.5411760929
 20
6.6527395145
 30
0.0
 10
12.5146927021
 20
6.6852775459
 30
0.0
 10
12.48673439
 20
6.7165809488
 30
0.0
 10
12.4573697624
 20
6.7465755357
 30
0.0
 10
12.4266682593
 20
6.775187883
 30
0.0
 10
12.394704918
 20
6.8023503287
 30
0.0
 10
12.3615556724
 20
6.8279963221
 30
0.0
 10
12.3273011258
 20
6.8520651614
 30
0.0
 10
12.2920230849
 20
6.874498004
 30
0.0
 10
12.2558068866
 20
6.8952414746
 30
0.0
 10
12.2187394877
 20
6.9142451668
 30
0.0
 10
12.1809101228
 20
6.9314634997
 30
0.0
 10
12.1424100549
 20
6.9468550646
 30
0.0
 10
12.103330778
 20
6.9603823287
 30
0.0
 10
12.0506716882
 20
6.9758638333
 30
0.0
 10
11.9838710655
 20
6.9904283773
 30
0.0
 10
11.9296325496
 20
6.9968709485
 30
0.0
 10
11.9025257731
 20
6.9987508099
 30
0.0
  0
SPLINE
  5
3DD
100
AcDbEntity
  8
0
100
AcDbSpline
 62
7
  6
CONTINUOUS
 70
0
 71
3
 72
20
 73
16
 74
0
 42
0.0000001
 43
0.0000001
 44
0.0000000001
 40
0.0
 40
0.0
 40
0.0
 40
0.0
 40
0.1160061915
 40
0.1751616166
 40
0.2351053835
 40
0.2958339261
 40
0.3573259761
 40
0.4195420477
 40
0.4824253089
 40
0.5459040886
 40
0.6098961925
 40
0.6743146387
 40
0.7390728404
 40
0.8692881496
 40
1.0
 40
1.0
 40
1.0
 40
1.0
 10
12.4045810817
 20
5.3608743501
 30
0.0
 10
12.4021697519
 20
5.39344407
 30
0.0
 10
12.3989149756
 20
5.4426522079
 30
0.0
 10
12.3954062178
 20
5.5087482789
 30
0.0
 10
12.3931847615
 20
5.5593266399
 30
0.0
 10
12.3914211574
 20
5.6105812517
 30
0.0
 10
12.3901415031
 20
5.6624901995
 30
0.0
 10
12.3893660554
 20
5.7150158238
 30
0.0
 10
12.3891077127
 20
5.768105862
 30
0.0
 10
12.3893709491
 20
5.8216958599
 30
0.0
 10
12.3901510083
 20
5.875713016
 30
0.0
 10
12.3914347658
 20
5.9300808008
 30
0.0
 10
12.3937950398
 20
6.0030692408
 30
0.0
 10
12.3978879344
 20
6.0946709179
 30
0.0
 10
12.4022025332
 20
6.1680043603
 30
0.0
 10
12.4045810817
 20
6.204726308
 30
0.0
  0
SPLINE
  5
3DE
100
AcDbEntity
  8
0
100
AcDbSpline
 62
7
  6
CONTINUOUS
 70
0
 71
3
 72
21
 73
17
 74
0
 42
0.0000001
 43
0.0000001
 44
0.0000000001
 40
0.0
 40
0.0
 40
0.0
 40
0.0
 40
0.1257737254
 40
0.1889245626
 40
0.2522069038
 40
0.3155731541
 40
0.3789649978
 40
0.4423154662
 40
0.5055519136
 40
0.5686000731
 40
0.6313890432
 40
0.6938558204
 40
0.7559484927
 40
0.8176281145
 40
0.8788694786
 40
1.0
 40
1.0
 40
1.0
 40
1.0
 10
12.3473716363
 20
6.3077834627
 30
0.0
 10
12.3150520905
 20
6.3248335015
 30
0.0
 10
12.266720499
 20
6.3508575455
 30
0.0
 10
12.2027271042
 20
6.3865515174
 30
0.0
 10
12.1548565696
 20
6.4139239289
 30
0.0
 10
12.1072379251
 20
6.4418709364
 30
0.0
 10
12.0599375409
 20
6.4703918992
 30
0.0
 10
12.0130248341
 20
6.4994747889
 30
0.0
 10
11.9665685937
 20
6.5290961962
 30
0.0
 10
11.9206329159
 20
6.5592221924
 30
0.0
 10
11.8752728219
 20
6.5898098201
 30
0.0
 10
11.830531287
 20
6.6208103341
 30
0.0
 10
11.7864373456
 20
6.6521721726
 30
0.0
 10
11.743005334
 20
6.6838438614
 30
0.0
 10
11.6861883858
 20
6.7262636551
 30
0.0
 10
11.6442358643
 20
6.7586341941
 30
0.0
 10
11.6165744038
 20
6.7803904018
 30
0.0
  0
SPLINE
  5
3DF
100
AcDbEntity
  8
0
100
AcDbSpline
 62
7
  6
CONTINUOUS
 70
0
 71
3
 72
15
 73
11
 74
0
 42
0.0000001
 43
0.0000001
 44
0.0000000001
 40
0.0
 40
0.0
 40
0.0
 40
0.0
 40
0.1336908709
 40
0.2662126058
 40
0.3968886543
 40
0.5249381662
 40
0.6496257854
 40
0.7704380623
 40
0.8871871863
 40
1.0
 40
1.0
 40
1.0
 40
1.0
 10
11.5021555129
 20
6.7883253788
 30
0.0
 10
11.4700339192
 20
6.7709207575
 30
0.0
 10
11.4059896002
 20
6.7364147571
 30
0.0
 10
11.3102160195
 20
6.6855157681
 30
0.0
 10
11.2154695358
 20
6.6359737065
 30
0.0
 10
11.1222539569
 20
6.5881301495
 30
0.0
 10
11.0310557347
 20
6.5422665158
 30
0.0
 10
10.9422430152
 20
6.4985406114
 30
0.0
 10
10.8559947828
 20
6.4569603634
 30
0.0
 10
10.7992770104
 20
6.4301546279
 30
0.0
 10
10.7713582804
 20
6.4170803601
 30
0.0
  0
SPLINE
  5
3E0
100
AcDbEntity
  8
0
100
AcDbSpline
 62
7
  6
CONTINUOUS
 70
0
 71
3
 72
67
 73
63
 74
0
 42
0.0000001
 43
0.0000001
 44
0.0000000001
 40
0.0
 40
0.0
 40
0.0
 40
0.0
 40
0.0156208593
 40
0.0311919602
 40
0.0467088386
 40
0.062173276
 40
0.0775878162
 40
0.0929540716
 40
0.1082742252
 40
0.1235512559
 40
0.1387885557
 40
0.153989822
 40
0.1691591733
 40
0.1843010435
 40
0.1994201892
 40
0.2145215786
 40
0.2296103873
 40
0.2446919059
 40
0.2597715155
 40
0.274854618
 40
0.2899465735
 40
0.3050526605
 40
0.3201779774
 40
0.3353274489
 40
0.3505057208
 40
0.3657171655
 40
0.380965775
 40
0.3962551812
 40
0.4115885727
 40
0.4269687104
 40
0.4423978773
 40
0.4578778561
 40
0.4734099318
 40
0.488994865
 40
0.5203145517
 40
0.5518423775
 40
0.5676854147
 40
0.5835753953
 40
0.5995097291
 40
0.6154853795
 40
0.6314989709
 40
0.64754676
 40
0.6636247272
 40
0.6797285675
 40
0.6958537564
 40
0.7119955667
 40
0.728149142
 40
0.744309521
 40
0.7604716816
 40
0.7766305859
 40
0.7927812171
 40
0.8089186391
 40
0.8250380274
 40
0.8411347282
 40
0.8572042684
 40
0.873242422
 40
0.8892452006
 40
0.9052090392
 40
0.9211307392
 40
0.9370071758
 40
0.9686057956
 40
1.0
 40
1.0
 40
1.0
 40
1.0
 10
11.5417323219
 20
6.6550807063
 30
0.0
 10
11.5281658897
 20
6.6560215415
 30
0.0
 10
11.5010256324
 20
6.6572391671
 30
0.0
 10
11.4603470844
 20
6.6570639755
 30
0.0
 10
11.419861937
 20
6.6548813758
 30
0.0
 10
11.3796715189
 20
6.6506982605
 30
0.0
 10
11.3398709477
 20
6.6445239606
 30
0.0
 10
11.3005556209
 20
6.6363740112
 30
0.0
 10
11.2618208973
 20
6.6262669588
 30
0.0
 10
11.2237601072
 20
6.614227743
 30
0.0
 10
11.1864649349
 20
6.6002851552
 30
0.0
 10
11.1500254091
 20
6.5844725071
 30
0.0
 10
11.1145292329
 20
6.5668283375
 30
0.0
 10
11.08006242
 20
6.5473943858
 30
0.0
 10
11.0467075319
 20
6.5262184683
 30
0.0
 10
11.0145458084
 20
6.5033504079
 30
0.0
 10
10.9836538836
 20
6.4788466685
 30
0.0
 10
10.9541074079
 20
6.4527649305
 30
0.0
 10
10.9259764163
 20
6.4251695034
 30
0.0
 10
10.8993300681
 20
6.3961256098
 30
0.0
 10
10.874231303
 20
6.3657045252
 30
0.0
 10
10.8507418994
 20
6.3339785922
 30
0.0
 10
10.8289173348
 20
6.3010252168
 30
0.0
 10
10.8088111716
 20
6.2669232496
 30
0.0
 10
10.7904711043
 20
6.2317554046
 30
0.0
 10
10.7739417494
 20
6.1956062556
 30
0.0
 10
10.7592627346
 20
6.1585630805
 30
0.0
 10
10.7464692011
 20
6.1207152714
 30
0.0
 10
10.7355923966
 20
6.0821539398
 30
0.0
 10
10.7266576268
 20
6.0429722831
 30
0.0
 10
10.7196874479
 20
6.0032644321
 30
0.0
 10
10.7146971582
 20
5.9631266116
 30
0.0
 10
10.7117003325
 20
5.9226542579
 30
0.0
 10
10.7103673497
 20
5.8682967115
 30
0.0
 10
10.7137332806
 20
5.7999829278
 30
0.0
 10
10.7237237274
 20
5.7320964616
 30
0.0
 10
10.7356221421
 20
5.6783066367
 30
0.0
 10
10.7465028345
 20
5.6382439912
 30
0.0
 10
10.7592989899
 20
5.5986311766
 30
0.0
 10
10.7739794309
 20
5.5595622339
 30
0.0
 10
10.7905088716
 20
5.5211315742
 30
0.0
 10
10.8088476249
 20
5.4834316868
 30
0.0
 10
10.8289510609
 20
5.4465530997
 30
0.0
 10
10.8507714567
 20
5.4105849607
 30
0.0
 10
10.8742553218
 20
5.375613262
 30
0.0
 10
10.899347209
 20
5.3417229344
 30
0.0
 10
10.9259854717
 20
5.3089946255
 30
0.0
 10
10.9541072768
 20
5.277508166
 30
0.0
 10
10.9836436266
 20
5.2473381742
 30
0.0
 10
11.014524675
 20
5.2185585008
 30
0.0
 10
11.0466749389
 20
5.1912372057
 30
0.0
 10
11.0800180393
 20
5.1654412363
 30
0.0
 10
11.1144729025
 20
5.1412316467
 30
0.0
 10
11.1499572464
 20
5.118667618
 30
0.0
 10
11.1863852375
 20
5.0978028394
 30
0.0
 10
11.2236694067
 20
5.078688014
 30
0.0
 10
11.2617199946
 20
5.0613689889
 30
0.0
 10
11.3004452069
 20
5.0458874159
 30
0.0
 10
11.3397530174
 20
5.0322810459
 30
0.0
 10
11.3927200559
 20
5.0167090051
 30
0.0
 10
11.4599113266
 20
5.0020592883
 30
0.0
 10
11.5144670264
 20
4.9955790413
 30
0.0
 10
11.5417323219
 20
4.9936881866
 30
0.0
  0
SPLINE
  5
3E1
100
AcDbEntity
  8
0
100
AcDbSpline
 62
7
  6
CONTINUOUS
 70
0
 71
3
 72
15
 73
11
 74
0
 42
0.0000001
 43
0.0000001
 44
0.0000000001
 40
0.0
 40
0.0
 40
0.0
 40
0.0
 40
0.1235752096
 40
0.2474950402
 40
0.3717979941
 40
0.4965172206
 40
0.6216760548
 40
0.7472994836
 40
0.8734166375
 40
1.0
 40
1.0
 40
1.0
 40
1.0
 10
12.6470480053
 20
5.7638408946
 30
0.0
 10
12.6537206785
 20
5.7772782188
 30
0.0
 10
12.6662916747
 20
5.8045924274
 30
0.0
 10
12.6827300616
 20
5.8466579845
 30
0.0
 10
12.6967273841
 20
5.8897450759
 30
0.0
 10
12.7082375835
 20
5.9337169888
 30
0.0
 10
12.7172269568
 20
5.978435879
 30
0.0
 10
12.7236664676
 20
6.0237640588
 30
0.0
 10
12.7275349647
 20
6.0695554068
 30
0.0
 10
12.7283924035
 20
6.1002420491
 30
0.0
 10
12.7283924035
 20
6.1156101341
 30
0.0
  0
SPLINE
  5
3E2
100
AcDbEntity
  8
0
100
AcDbSpline
 62
7
  6
CONTINUOUS
 70
0
 71
3
 72
15
 73
11
 74
0
 42
0.0000001
 43
0.0000001
 44
0.0000000001
 40
0.0
 40
0.0
 40
0.0
 40
0.0
 40
0.1261304062
 40
0.251857918
 40
0.3772174985
 40
0.502247911
 40
0.6269926351
 40
0.751498858
 40
0.8758169754
 40
1.0
 40
1.0
 40
1.0
 40
1.0
 10
11.6728453359
 20
6.9820985163
 30
0.0
 10
11.6582761189
 20
6.9788906441
 30
0.0
 10
11.6293597837
 20
6.9716545693
 30
0.0
 10
11.5867493391
 20
6.958349889
 30
0.0
 10
11.5450986359
 20
6.9426515401
 30
0.0
 10
11.5045367256
 20
6.9246071467
 30
0.0
 10
11.4651865207
 20
6.9042725927
 30
0.0
 10
11.4271684545
 20
6.8817082143
 30
0.0
 10
11.3905993941
 20
6.8569851727
 30
0.0
 10
11.3672476272
 20
6.8391034271
 30
0.0
 10
11.3558550719
 20
6.8298328774
 30
0.0
  0
SPLINE
  5
3E3
100
AcDbEntity
  8
0
100
AcDbSpline
 62
7
  6
CONTINUOUS
 70
0
 71
3
 72
67
 73
63
 74
0
 42
0.0000001
 43
0.0000001
 44
0.0000000001
 40
0.0
 40
0.0
 40
0.0
 40
0.0
 40
0.0156208593
 40
0.0311919602
 40
0.0467088386
 40
0.062173276
 40
0.0775878162
 40
0.0929540716
 40
0.1082742252
 40
0.1235512559
 40
0.1387885557
 40
0.153989822
 40
0.1691591733
 40
0.1843010435
 40
0.1994201892
 40
0.2145215786
 40
0.2296103873
 40
0.2446919059
 40
0.2597715155
 40
0.274854618
 40
0.2899465735
 40
0.3050526605
 40
0.3201779774
 40
0.3353274489
 40
0.3505057208
 40
0.3657171655
 40
0.380965775
 40
0.3962551812
 40
0.4115885727
 40
0.4269687104
 40
0.4423978773
 40
0.4578778561
 40
0.4734099318
 40
0.488994865
 40
0.5203145517
 40
0.5518423775
 40
0.5676854147
 40
0.5835753953
 40
0.5995097291
 40
0.6154853795
 40
0.6314989709
 40
0.64754676
 40
0.6636247272
 40
0.6797285675
 40
0.6958537564
 40
0.7119955667
 40
0.728149142
 40
0.744309521
 40
0.7604716816
 40
0.7766305859
 40
0.7927812171
 40
0.8089186391
 40
0.8250380274
 40
0.8411347282
 40
0.8572042684
 40
0.873242422
 40
0.8892452006
 40
0.9052090392
 40
0.9211307392
 40
0.9370071758
 40
0.9686057956
 40
1.0
 40
1.0
 40
1.0
 40
1.0
 10
11.5417323219
 20
4.9936881866
 30
0.0
 10
11.5552987541
 20
4.9927473513
 30
0.0
 10
11.5824390115
 20
4.9915297258
 30
0.0
 10
11.6231175595
 20
4.9917049173
 30
0.0
 10
11.6636027069
 20
4.9938875171
 30
0.0
 10
11.703793125
 20
4.9980706323
 30
0.0
 10
11.7435936962
 20
5.0042449322
 30
0.0
 10
11.782909023
 20
5.0123948817
 30
0.0
 10
11.8216437466
 20
5.0225019341
 30
0.0
 10
11.8597045367
 20
5.0345411499
 30
0.0
 10
11.896999709
 20
5.0484837377
 30
0.0
 10
11.9334392348
 20
5.0642963857
 30
0.0
 10
11.968935411
 20
5.0819405553
 30
0.0
 10
12.0034022239
 20
5.1013745071
 30
0.0
 10
12.036757112
 20
5.1225504245
 30
0.0
 10
12.0689188355
 20
5.145418485
 30
0.0
 10
12.0998107603
 20
5.1699222244
 30
0.0
 10
12.129357236
 20
5.1960039623
 30
0.0
 10
12.1574882276
 20
5.2235993895
 30
0.0
 10
12.1841345758
 20
5.252643283
 30
0.0
 10
12.2092333409
 20
5.2830643676
 30
0.0
 10
12.2327227445
 20
5.3147903007
 30
0.0
 10
12.254547309
 20
5.347743676
 30
0.0
 10
12.2746534722
 20
5.3818456433
 30
0.0
 10
12.2929935395
 20
5.4170134883
 30
0.0
 10
12.3095228945
 20
5.4531626372
 30
0.0
 10
12.3242019093
 20
5.4902058124
 30
0.0
 10
12.3369954428
 20
5.5280536215
 30
0.0
 10
12.3478722473
 20
5.5666149531
 30
0.0
 10
12.3568070171
 20
5.6057966097
 30
0.0
 10
12.363777196
 20
5.6455044607
 30
0.0
 10
12.3687674857
 20
5.6856422812
 30
0.0
 10
12.3717643114
 20
5.726114635
 30
0.0
 10
12.3730972942
 20
5.7804721814
 30
0.0
 10
12.3697313633
 20
5.848785965
 30
0.0
 10
12.3597409165
 20
5.9166724312
 30
0.0
 10
12.3478425018
 20
5.9704622561
 30
0.0
 10
12.3369618094
 20
6.0105249016
 30
0.0
 10
12.324165654
 20
6.0501377162
 30
0.0
 10
12.309485213
 20
6.0892066589
 30
0.0
 10
12.2929557723
 20
6.1276373187
 30
0.0
 10
12.274617019
 20
6.1653372061
 30
0.0
 10
12.254513583
 20
6.2022157931
 30
0.0
 10
12.2326931872
 20
6.2381839321
 30
0.0
 10
12.209209322
 20
6.2731556309
 30
0.0
 10
12.1841174349
 20
6.3070459585
 30
0.0
 10
12.1574791722
 20
6.3397742673
 30
0.0
 10
12.1293573671
 20
6.3712607268
 30
0.0
 10
12.0998210173
 20
6.4014307187
 30
0.0
 10
12.0689399689
 20
6.430210392
 30
0.0
 10
12.036789705
 20
6.4575316871
 30
0.0
 10
12.0034466046
 20
6.4833276566
 30
0.0
 10
11.9689917414
 20
6.5075372461
 30
0.0
 10
11.9335073975
 20
6.5301012748
 30
0.0
 10
11.8970794064
 20
6.5509660534
 30
0.0
 10
11.8597952372
 20
6.5700808788
 30
0.0
 10
11.8217446493
 20
6.5873999039
 30
0.0
 10
11.783019437
 20
6.602881477
 30
0.0
 10
11.7437116265
 20
6.616487847
 30
0.0
 10
11.690744588
 20
6.6320598877
 30
0.0
 10
11.6235533173
 20
6.6467096045
 30
0.0
 10
11.5689976175
 20
6.6531898516
 30
0.0
 10
11.5417323219
 20
6.6550807063
 30
0.0
  0
SPLINE
  5
3E4
100
AcDbEntity
  8
0
100
AcDbSpline
 62
7
  6
CONTINUOUS
 70
0
 71
3
 72
20
 73
16
 74
0
 42
0.0000001
 43
0.0000001
 44
0.0000000001
 40
0.0
 40
0.0
 40
0.0
 40
0.0
 40
0.1328004115
 40
0.2663282989
 40
0.3994288484
 40
0.4652765799
 40
0.530307737
 40
0.5942626159
 40
0.6569131493
 40
0.7180845183
 40
0.777666975
 40
0.8356165293
 40
0.89194577
 40
0.9467129545
 40
1.0
 40
1.0
 40
1.0
 40
1.0
 10
10.4566460902
 20
8.627091173
 30
0.0
 10
10.4606408063
 20
8.6643293052
 30
0.0
 10
10.4679799973
 20
8.7390844499
 30
0.0
 10
10.4765034047
 20
8.8514170294
 30
0.0
 10
10.4810885773
 20
8.945083337
 30
0.0
 10
10.4829738581
 20
9.0195086466
 30
0.0
 10
10.4834534225
 20
9.0744554339
 30
0.0
 10
10.482989524
 20
9.128500709
 30
0.0
 10
10.4815949257
 20
9.1814411506
 30
0.0
 10
10.4793072422
 20
9.2331161811
 30
0.0
 10
10.4761839404
 20
9.2834190574
 30
0.0
 10
10.4722955643
 20
9.3322986062
 30
0.0
 10
10.4677187195
 20
9.3797541703
 30
0.0
 10
10.4625301143
 20
9.4258234045
 30
0.0
 10
10.4586612541
 20
9.4560510791
 30
0.0
 10
10.4566460902
 20
9.4709431308
 30
0.0
  0
SPLINE
  5
3E5
100
AcDbEntity
  8
0
100
AcDbSpline
 62
7
  6
CONTINUOUS
 70
0
 71
3
 72
22
 73
18
 74
0
 42
0.0000001
 43
0.0000001
 44
0.0000000001
 40
0.0
 40
0.0
 40
0.0
 40
0.0
 40
0.0578967657
 40
0.1168069543
 40
0.1767552214
 40
0.2377418336
 40
0.2997235166
 40
0.3626077374
 40
0.4262490722
 40
0.4904549483
 40
0.5550006938
 40
0.619651431
 40
0.684185502
 40
0.7484135876
 40
0.8121898087
 40
0.87541344
 40
1.0
 40
1.0
 40
1.0
 40
1.0
 10
10.3994366448
 20
9.5740002855
 30
0.0
 10
10.3869296897
 20
9.5853226037
 30
0.0
 10
10.3615167112
 20
9.6079674701
 30
0.0
 10
10.3224863515
 20
9.6415779421
 30
0.0
 10
10.2821549045
 20
9.6750448088
 30
0.0
 10
10.2404761771
 20
9.7082743433
 30
0.0
 10
10.1974367681
 20
9.7411516303
 30
0.0
 10
10.1530680378
 20
9.7735423237
 30
0.0
 10
10.1074518865
 20
9.8053002447
 30
0.0
 10
10.0607205738
 20
9.8362784756
 30
0.0
 10
10.0130483127
 20
9.8663431002
 30
0.0
 10
9.9646357274
 20
9.8953863015
 30
0.0
 10
9.9156905206
 20
9.9233356656
 30
0.0
 10
9.8664090961
 20
9.9501576893
 30
0.0
 10
9.8169626481
 20
9.9758557428
 30
0.0
 10
9.751321406
 20
10.008505791
 30
0.0
 10
9.7017341045
 20
10.0316845358
 30
0.0
 10
9.6686394122
 20
10.0466072246
 30
0.0
  0
SPLINE
  5
3E6
100
AcDbEntity
  8
0
100
AcDbSpline
 62
7
  6
CONTINUOUS
 70
0
 71
3
 72
15
 73
11
 74
0
 42
0.0000001
 43
0.0000001
 44
0.0000000001
 40
0.0
 40
0.0
 40
0.0
 40
0.0
 40
0.1024584527
 40
0.2125880165
 40
0.3308751456
 40
0.4568384937
 40
0.5888694915
 40
0.7247080792
 40
0.8622415245
 40
1.0
 40
1.0
 40
1.0
 40
1.0
 10
9.5542205214
 20
10.0545422016
 30
0.0
 10
9.5285336897
 20
10.0433794087
 30
0.0
 10
9.4753991195
 20
10.0198425117
 30
0.0
 10
9.3932527553
 20
9.9819857907
 30
0.0
 10
9.3059127524
 20
9.9400740195
 30
0.0
 10
9.2138769373
 20
9.8941385275
 30
0.0
 10
9.1182575321
 20
9.8446661816
 30
0.0
 10
9.0204898885
 20
9.7924848646
 30
0.0
 10
8.9219157043
 20
9.7385052407
 30
0.0
 10
8.8562287737
 20
9.7017862748
 30
0.0
 10
8.8234232888
 20
9.6832971829
 30
0.0
  0
SPLINE
  5
3E7
100
AcDbEntity
  8
0
100
AcDbSpline
 62
7
  6
CONTINUOUS
 70
0
 71
3
 72
19
 73
15
 74
0
 42
0.0000001
 43
0.0000001
 44
0.0000000001
 40
0.0
 40
0.0
 40
0.0
 40
0.0
 40
0.1307115674
 40
0.2609268752
 40
0.3901025973
 40
0.4540950503
 40
0.5175739859
 40
0.580457627
 40
0.6426741367
 40
0.7041661724
 40
0.764894827
 40
0.8248387715
 40
0.8839940512
 40
1.0
 40
1.0
 40
1.0
 40
1.0
 10
8.540815597
 20
9.370457005
 30
0.0
 10
8.5384370566
 20
9.3337351818
 30
0.0
 10
8.534122523
 20
9.2604017521
 30
0.0
 10
8.5292198783
 20
9.1506830356
 30
0.0
 10
8.5266485814
 20
9.0596731506
 30
0.0
 10
8.5256054636
 20
8.9874267949
 30
0.0
 10
8.5253423824
 20
8.9338365868
 30
0.0
 10
8.5256005554
 20
8.8807463464
 30
0.0
 10
8.5263759396
 20
8.8282205564
 30
0.0
 10
8.5276557567
 20
8.7763115259
 30
0.0
 10
8.5294193296
 20
8.7250568989
 30
0.0
 10
8.5316407189
 20
8.6744785562
 30
0.0
 10
8.5351495414
 20
8.6083826291
 30
0.0
 10
8.5384042753
 20
8.5591746589
 30
0.0
 10
8.540815597
 20
8.5266050472
 30
0.0
  0
SPLINE
  5
3E8
100
AcDbEntity
  8
0
100
AcDbSpline
 62
7
  6
CONTINUOUS
 70
0
 71
3
 72
21
 73
17
 74
0
 42
0.0000001
 43
0.0000001
 44
0.0000000001
 40
0.0
 40
0.0
 40
0.0
 40
0.0
 40
0.1211301163
 40
0.1823712755
 40
0.2440509723
 40
0.306143678
 40
0.3686104373
 40
0.4313997375
 40
0.4944481226
 40
0.5576847246
 40
0.6210354942
 40
0.6844273845
 40
0.7477936645
 40
0.8110760547
 40
0.8742266982
 40
1.0
 40
1.0
 40
1.0
 40
1.0
 10
8.5980250425
 20
8.4235478925
 30
0.0
 10
8.6256864104
 20
8.4017917576
 30
0.0
 10
8.6676388162
 20
8.3694213601
 30
0.0
 10
8.7244555832
 20
8.3270015834
 30
0.0
 10
8.7678876232
 20
8.2953299805
 30
0.0
 10
8.8119816102
 20
8.2639681629
 30
0.0
 10
8.8567231059
 20
8.2329674163
 30
0.0
 10
8.9020833776
 20
8.2023797697
 30
0.0
 10
8.9480193585
 20
8.1722538618
 30
0.0
 10
8.9944756352
 20
8.1426321456
 30
0.0
 10
9.0413884249
 20
8.1135491096
 30
0.0
 10
9.0886890115
 20
8.0850282704
 30
0.0
 10
9.1363076642
 20
8.0570812071
 30
0.0
 10
9.1841781289
 20
8.0297087398
 30
0.0
 10
9.2481714243
 20
7.994014929
 30
0.0
 10
9.2965028381
 20
7.9679909348
 30
0.0
 10
9.328822275
 20
7.9509409534
 30
0.0
  0
SPLINE
  5
3E9
100
AcDbEntity
  8
0
100
AcDbSpline
 62
7
  6
CONTINUOUS
 70
0
 71
3
 72
15
 73
11
 74
0
 42
0.0000001
 43
0.0000001
 44
0.0000000001
 40
0.0
 40
0.0
 40
0.0
 40
0.0
 40
0.1128124416
 40
0.2295614621
 40
0.3503736449
 40
0.4750619961
 40
0.6031117921
 40
0.7337880193
 40
0.866309584
 40
1.0
 40
1.0
 40
1.0
 40
1.0
 10
9.4432411658
 20
7.9430059763
 30
0.0
 10
9.4711598037
 20
7.956080201
 30
0.0
 10
9.5278774609
 20
7.9828858766
 30
0.0
 10
9.6141255375
 20
8.0244660885
 30
0.0
 10
9.7029384312
 20
8.0681919703
 30
0.0
 10
9.794136811
 20
8.1140558509
 30
0.0
 10
9.8873527481
 20
8.1618994247
 30
0.0
 10
9.9820992585
 20
8.2114416083
 30
0.0
 10
10.0778727481
 20
8.2623405083
 30
0.0
 10
10.1419169139
 20
8.2968464329
 30
0.0
 10
10.1740383984
 20
8.3142509951
 30
0.0
  0
SPLINE
  5
3EA
100
AcDbEntity
  8
0
100
AcDbSpline
 62
7
  6
CONTINUOUS
 70
0
 71
3
 72
64
 73
60
 74
0
 42
0.0000001
 43
0.0000001
 44
0.0000000001
 40
0.0
 40
0.0
 40
0.0
 40
0.0
 40
0.0311830674
 40
0.0467008478
 40
0.0621656035
 40
0.077580314
 40
0.0929469982
 40
0.1082676194
 40
0.1235450534
 40
0.1387827119
 40
0.1539843784
 40
0.169154114
 40
0.1842963866
 40
0.1994159176
 40
0.2145177079
 40
0.2296068972
 40
0.2446888078
 40
0.2597688009
 40
0.2748522991
 40
0.289944644
 40
0.3050511237
 40
0.320176829
 40
0.3353266945
 40
0.3505053557
 40
0.3657171944
 40
0.3809661934
 40
0.3962560015
 40
0.4115897884
 40
0.4269703324
 40
0.4423998859
 40
0.4578802676
 40
0.4734127351
 40
0.4889980873
 40
0.5046365524
 40
0.5203278953
 40
0.5360713376
 40
0.551865648
 40
0.5677090891
 40
0.5835994915
 40
0.5995342345
 40
0.6155103003
 40
0.6315243016
 40
0.6475725053
 40
0.6636508895
 40
0.6797551433
 40
0.6958807523
 40
0.7120229781
 40
0.7281769781
 40
0.7443377676
 40
0.7605003478
 40
0.7766596612
 40
0.7928107186
 40
0.8089485556
 40
0.841156923
 40
0.8732567742
 40
0.9052155383
 40
0.9370054028
 40
0.968605258
 40
1.0
 40
1.0
 40
1.0
 40
1.0
 10
9.368399084
 20
9.7035795288
 30
0.0
 10
9.3413178585
 20
9.7054576182
 30
0.0
 10
9.3005844003
 20
9.706294794
 30
0.0
 10
9.2465297893
 20
9.7033801537
 30
0.0
 10
9.2063376942
 20
9.6991972656
 30
0.0
 10
9.1665378426
 20
9.6930224888
 30
0.0
 10
9.127222436
 20
9.684872968
 30
0.0
 10
9.0884877299
 20
9.6747655828
 30
0.0
 10
9.0504267621
 20
9.6627267698
 30
0.0
 10
9.013131802
 20
9.6487836819
 30
0.0
 10
8.9766920886
 20
9.6329715452
 30
0.0
 10
8.9411961524
 20
9.6153268792
 30
0.0
 10
8.9067290597
 20
9.5958934298
 30
0.0
 10
8.873374481
 20
9.5747170028
 30
0.0
 10
8.8412124277
 20
9.5518494178
 30
0.0
 10
8.8103208444
 20
9.5273452436
 30
0.0
 10
8.7807740465
 20
9.5012638959
 30
0.0
 10
8.7526433614
 20
9.4736681516
 30
0.0
 10
8.7259967554
 20
9.4446245053
 30
0.0
 10
8.7008981758
 20
9.4142032545
 30
0.0
 10
8.6774086675
 20
9.3824774104
 30
0.0
 10
8.655584102
 20
9.3495240278
 30
0.0
 10
8.6354780552
 20
9.3154220056
 30
0.0
 10
8.6171377436
 20
9.2802542821
 30
0.0
 10
8.6006087661
 20
9.2441049767
 30
0.0
 10
8.585929239
 20
9.2070619973
 30
0.0
 10
8.5731363495
 20
9.1692139771
 30
0.0
 10
8.5622587728
 20
9.1306528503
 30
0.0
 10
8.5533248891
 20
9.0914709892
 30
0.0
 10
8.5463537266
 20
9.0517633588
 30
0.0
 10
8.541364509
 20
9.0116252424
 30
0.0
 10
8.5383665362
 20
8.9711536574
 30
0.0
 10
8.5373696156
 20
8.9304459411
 30
0.0
 10
8.5383733352
 20
8.8896002106
 30
0.0
 10
8.5413778853
 20
8.8487149376
 30
0.0
 10
8.546373279
 20
8.8078883811
 30
0.0
 10
8.5533499729
 20
8.7672191713
 30
0.0
 10
8.5622886175
 20
8.7268047987
 30
0.0
 10
8.5731699471
 20
8.686743076
 30
0.0
 10
8.5859655119
 20
8.6471298643
 30
0.0
 10
8.6006464369
 20
8.6080611586
 30
0.0
 10
8.6171755177
 20
8.5696303399
 30
0.0
 10
8.6355145047
 20
8.5319305683
 30
0.0
 10
8.6556178291
 20
8.4950519301
 30
0.0
 10
8.6774382257
 20
8.4590837859
 30
0.0
 10
8.7009221926
 20
8.4241121652
 30
0.0
 10
8.7260138981
 20
8.3902216918
 30
0.0
 10
8.7526524178
 20
8.3574935972
 30
0.0
 10
8.7807739056
 20
8.3260068693
 30
0.0
 10
8.810310626
 20
8.2958371905
 30
0.0
 10
8.8411911563
 20
8.2670572475
 30
0.0
 10
8.8733423883
 20
8.2397359611
 30
0.0
 10
8.9177634848
 20
8.2053681679
 30
0.0
 10
8.9760625791
 20
8.166370128
 30
0.0
 10
9.0498277708
 20
8.1263493017
 30
0.0
 10
9.1266657139
 20
8.0935063936
 30
0.0
 10
9.2058383333
 20
8.0681608358
 30
0.0
 10
9.2865759571
 20
8.0505589588
 30
0.0
 10
9.3411340277
 20
8.0440778472
 30
0.0
 10
9.368399084
 20
8.0421870091
 30
0.0
  0
SPLINE
  5
3EB
100
AcDbEntity
  8
0
100
AcDbSpline
 62
7
  6
CONTINUOUS
 70
0
 71
3
 72
64
 73
60
 74
0
 42
0.0000001
 43
0.0000001
 44
0.0000000001
 40
0.0
 40
0.0
 40
0.0
 40
0.0
 40
0.0311830674
 40
0.0467008478
 40
0.0621656035
 40
0.077580314
 40
0.0929469982
 40
0.1082676194
 40
0.1235450534
 40
0.1387827119
 40
0.1539843784
 40
0.169154114
 40
0.1842963866
 40
0.1994159176
 40
0.2145177079
 40
0.2296068972
 40
0.2446888078
 40
0.2597688009
 40
0.2748522991
 40
0.289944644
 40
0.3050511237
 40
0.320176829
 40
0.3353266945
 40
0.3505053557
 40
0.3657171944
 40
0.3809661934
 40
0.3962560015
 40
0.4115897884
 40
0.4269703324
 40
0.4423998859
 40
0.4578802676
 40
0.4734127351
 40
0.4889980873
 40
0.5046365524
 40
0.5203278953
 40
0.5360713376
 40
0.551865648
 40
0.5677090891
 40
0.5835994915
 40
0.5995342345
 40
0.6155103003
 40
0.6315243016
 40
0.6475725053
 40
0.6636508895
 40
0.6797551433
 40
0.6958807523
 40
0.7120229781
 40
0.7281769781
 40
0.7443377676
 40
0.7605003478
 40
0.7766596612
 40
0.7928107186
 40
0.8089485556
 40
0.841156923
 40
0.8732567742
 40
0.9052155383
 40
0.9370054028
 40
0.968605258
 40
1.0
 40
1.0
 40
1.0
 40
1.0
 10
9.368399084
 20
8.0421870091
 30
0.0
 10
9.3954803095
 20
8.0403089198
 30
0.0
 10
9.4362137678
 20
8.0394717439
 30
0.0
 10
9.4902683787
 20
8.0423863843
 30
0.0
 10
9.5304604738
 20
8.0465692724
 30
0.0
 10
9.5702603254
 20
8.0527440491
 30
0.0
 10
9.6095757321
 20
8.0608935699
 30
0.0
 10
9.6483104381
 20
8.0710009551
 30
0.0
 10
9.686371406
 20
8.0830397681
 30
0.0
 10
9.723666366
 20
8.096982856
 30
0.0
 10
9.7601060794
 20
8.1127949927
 30
0.0
 10
9.7956020156
 20
8.1304396587
 30
0.0
 10
9.8300691083
 20
8.1498731081
 30
0.0
 10
9.863423687
 20
8.1710495351
 30
0.0
 10
9.8955857403
 20
8.1939171201
 30
0.0
 10
9.9264773236
 20
8.2184212943
 30
0.0
 10
9.9560241215
 20
8.244502642
 30
0.0
 10
9.9841548066
 20
8.2720983863
 30
0.0
 10
10.0108014127
 20
8.3011420326
 30
0.0
 10
10.0358999922
 20
8.3315632834
 30
0.0
 10
10.0593895005
 20
8.3632891275
 30
0.0
 10
10.0812140661
 20
8.3962425101
 30
0.0
 10
10.1013201128
 20
8.4303445323
 30
0.0
 10
10.1196604245
 20
8.4655122558
 30
0.0
 10
10.1361894019
 20
8.5016615612
 30
0.0
 10
10.150868929
 20
8.5387045407
 30
0.0
 10
10.1636618186
 20
8.5765525609
 30
0.0
 10
10.1745393952
 20
8.6151136877
 30
0.0
 10
10.183473279
 20
8.6542955487
 30
0.0
 10
10.1904444414
 20
8.6940031791
 30
0.0
 10
10.1954336591
 20
8.7341412955
 30
0.0
 10
10.1984316319
 20
8.7746128805
 30
0.0
 10
10.1994285525
 20
8.8153205968
 30
0.0
 10
10.1984248328
 20
8.8561663273
 30
0.0
 10
10.1954202828
 20
8.8970516004
 30
0.0
 10
10.190424889
 20
8.9378781568
 30
0.0
 10
10.1834481951
 20
8.9785473666
 30
0.0
 10
10.1745095505
 20
9.0189617392
 30
0.0
 10
10.163628221
 20
9.0590234619
 30
0.0
 10
10.1508326562
 20
9.0986366736
 30
0.0
 10
10.1361517312
 20
9.1377053793
 30
0.0
 10
10.1196226503
 20
9.1761361981
 30
0.0
 10
10.1012836633
 20
9.2138359696
 30
0.0
 10
10.0811803389
 20
9.2507146078
 30
0.0
 10
10.0593599423
 20
9.2866827521
 30
0.0
 10
10.0358759755
 20
9.3216543727
 30
0.0
 10
10.01078427
 20
9.3555448462
 30
0.0
 10
9.9841457502
 20
9.3882729407
 30
0.0
 10
9.9560242625
 20
9.4197596686
 30
0.0
 10
9.9264875421
 20
9.4499293474
 30
0.0
 10
9.8956070118
 20
9.4787092904
 30
0.0
 10
9.8634557797
 20
9.5060305769
 30
0.0
 10
9.8190346832
 20
9.54039837
 30
0.0
 10
9.760735589
 20
9.5793964099
 30
0.0
 10
9.6869703973
 20
9.6194172362
 30
0.0
 10
9.6101324541
 20
9.6522601443
 30
0.0
 10
9.5309598347
 20
9.6776057021
 30
0.0
 10
9.4502222109
 20
9.6952075791
 30
0.0
 10
9.3956641403
 20
9.7016886907
 30
0.0
 10
9.368399084
 20
9.7035795288
 30
0.0
  0
SPLINE
  5
3EC
100
AcDbEntity
  8
0
100
AcDbSpline
 62
7
  6
CONTINUOUS
 70
0
 71
3
 72
19
 73
15
 74
0
 42
0.0000001
 43
0.0000001
 44
0.0000000001
 40
0.0
 40
0.0
 40
0.0
 40
0.0
 40
0.1160059488
 40
0.1751612285
 40
0.235105173
 40
0.2958338276
 40
0.3573258634
 40
0.419542373
 40
0.4824260141
 40
0.5459049497
 40
0.6098974028
 40
0.7390731248
 40
0.8692884326
 40
1.0
 40
1.0
 40
1.0
 40
1.0
 10
10.2312478438
 20
8.4093731727
 30
0.0
 10
10.228836522
 20
8.4419427845
 30
0.0
 10
10.2255817881
 20
8.4911507546
 30
0.0
 10
10.2220729656
 20
8.5572466817
 30
0.0
 10
10.2198515764
 20
8.6078250245
 30
0.0
 10
10.2180880035
 20
8.6590796514
 30
0.0
 10
10.2168081863
 20
8.7109886819
 30
0.0
 10
10.2160328022
 20
8.7635144719
 30
0.0
 10
10.2157746291
 20
8.8166047124
 30
0.0
 10
10.2160377104
 20
8.8701949205
 30
0.0
 10
10.2170808281
 20
8.9424412762
 30
0.0
 10
10.219652125
 20
9.0334511612
 30
0.0
 10
10.2245547698
 20
9.1431698776
 30
0.0
 10
10.2288693034
 20
9.2165033073
 30
0.0
 10
10.2312478438
 20
9.2532251305
 30
0.0
  0
SPLINE
  5
3ED
100
AcDbEntity
  8
0
100
AcDbSpline
 62
7
  6
CONTINUOUS
 70
0
 71
3
 72
21
 73
17
 74
0
 42
0.0000001
 43
0.0000001
 44
0.0000000001
 40
0.0
 40
0.0
 40
0.0
 40
0.0
 40
0.1257733018
 40
0.1889239453
 40
0.2522063355
 40
0.3155726155
 40
0.3789645059
 40
0.4423152755
 40
0.5055518774
 40
0.5686002626
 40
0.6313895627
 40
0.693856322
 40
0.7559490278
 40
0.8176287245
 40
0.8788698837
 40
1.0
 40
1.0
 40
1.0
 40
1.0
 10
10.1740383984
 20
9.3562822852
 30
0.0
 10
10.1417189615
 20
9.3733322666
 30
0.0
 10
10.0933875477
 20
9.3993562608
 30
0.0
 10
10.0293942522
 20
9.4350500717
 30
0.0
 10
9.9815237876
 20
9.462422539
 30
0.0
 10
9.9339051348
 20
9.4903696022
 30
0.0
 10
9.8866045482
 20
9.5188904414
 30
0.0
 10
9.8396917586
 20
9.5479734775
 30
0.0
 10
9.7932354818
 20
9.5775951937
 30
0.0
 10
9.747299501
 20
9.6077211016
 30
0.0
 10
9.7019392293
 20
9.6383087481
 30
0.0
 10
9.6571977335
 20
9.6693094947
 30
0.0
 10
9.6131037465
 20
9.7006713123
 30
0.0
 10
9.5696717065
 20
9.7323429152
 30
0.0
 10
9.5128549396
 20
9.774762692
 30
0.0
 10
9.4709025337
 20
9.8071330894
 30
0.0
 10
9.4432411658
 20
9.8288892243
 30
0.0
  0
SPLINE
  5
3EE
100
AcDbEntity
  8
0
100
AcDbSpline
 62
7
  6
CONTINUOUS
 70
0
 71
3
 72
15
 73
11
 74
0
 42
0.0000001
 43
0.0000001
 44
0.0000000001
 40
0.0
 40
0.0
 40
0.0
 40
0.0
 40
0.133690416
 40
0.2662119808
 40
0.3968882079
 40
0.524938004
 40
0.6496263551
 40
0.770438538
 40
0.8871875584
 40
1.0
 40
1.0
 40
1.0
 40
1.0
 10
9.328822275
 20
9.8368242014
 30
0.0
 10
9.2967007906
 20
9.8194196392
 30
0.0
 10
9.2326566247
 20
9.7849137146
 30
0.0
 10
9.1368831351
 20
9.7340148146
 30
0.0
 10
9.0421366247
 20
9.684472631
 30
0.0
 10
8.9489206876
 20
9.6366290572
 30
0.0
 10
8.8577223078
 20
9.5907651766
 30
0.0
 10
8.7689094141
 20
9.5470392948
 30
0.0
 10
8.6826613375
 20
9.5054590829
 30
0.0
 10
8.6259436804
 20
9.4786534073
 30
0.0
 10
8.5980250425
 20
9.4655791827
 30
0.0
  0
SPLINE
  5
3EF
100
AcDbEntity
  8
0
100
AcDbSpline
 62
7
  6
CONTINUOUS
 70
0
 71
3
 72
22
 73
18
 74
0
 42
0.0000001
 43
0.0000001
 44
0.0000000001
 40
0.0
 40
0.0
 40
0.0
 40
0.0
 40
0.0662627889
 40
0.1328022627
 40
0.1995323899
 40
0.2663327743
 40
0.3994321266
 40
0.4652792355
 40
0.5303098426
 40
0.5942641163
 40
0.6569139169
 40
0.7180845853
 40
0.777666605
 40
0.8356161461
 40
0.8919456067
 40
0.9467124961
 40
1.0
 40
1.0
 40
1.0
 40
1.0
 10
12.6299793281
 20
8.476370001
 30
0.0
 10
12.6319725609
 20
8.4949506121
 30
0.0
 10
12.6357997264
 20
8.5322076855
 30
0.0
 10
12.6409899992
 20
8.5882402469
 30
0.0
 10
12.6455707136
 20
8.644478548
 30
0.0
 10
12.6507570518
 20
8.7194947889
 30
0.0
 10
12.6544218058
 20
8.7943630152
 30
0.0
 10
12.6563072094
 20
8.8687878326
 30
0.0
 10
12.6567867969
 20
8.9237343742
 30
0.0
 10
12.6563228714
 20
8.9777793359
 30
0.0
 10
12.6549282085
 20
9.0307194238
 30
0.0
 10
12.6526404783
 20
9.0823941397
 30
0.0
 10
12.6495172149
 20
9.1326969037
 30
0.0
 10
12.6456288949
 20
9.1815765974
 30
0.0
 10
12.6410520334
 20
9.2290323354
 30
0.0
 10
12.6358633692
 20
9.2751018663
 30
0.0
 10
12.6319945178
 20
9.3053297168
 30
0.0
 10
12.6299793281
 20
9.3202219589
 30
0.0
  0
SPLINE
  5
3F0
100
AcDbEntity
  8
0
100
AcDbSpline
 62
7
  6
CONTINUOUS
 70
0
 71
3
 72
22
 73
18
 74
0
 42
0.0000001
 43
0.0000001
 44
0.0000000001
 40
0.0
 40
0.0
 40
0.0
 40
0.0
 40
0.0578974882
 40
0.1168076123
 40
0.1767563582
 40
0.2377431684
 40
0.2997246356
 40
0.362608436
 40
0.4262493434
 40
0.4904549021
 40
0.5550003489
 40
0.6196506978
 40
0.6841843697
 40
0.7484122155
 40
0.8121886095
 40
0.8754127419
 40
1.0
 40
1.0
 40
1.0
 40
1.0
 10
12.5727698827
 20
9.4232791135
 30
0.0
 10
12.5602627714
 20
9.4346015731
 30
0.0
 10
12.5348496239
 20
9.4572465385
 30
0.0
 10
12.4958190336
 20
9.4908572505
 30
0.0
 10
12.455487449
 20
9.5243242325
 30
0.0
 10
12.4138085622
 20
9.5575537839
 30
0.0
 10
12.3707692293
 20
9.5904309598
 30
0.0
 10
12.3264007959
 20
9.622821534
 30
0.0
 10
12.2807849787
 20
9.654579342
 30
0.0
 10
12.2340539426
 20
9.6855574417
 30
0.0
 10
12.1863819045
 20
9.7156218735
 30
0.0
 10
12.1379695402
 20
9.7446648292
 30
0.0
 10
12.0890245559
 20
9.7726139792
 30
0.0
 10
12.0397432704
 20
9.7994359737
 30
0.0
 10
11.9902967484
 20
9.8251341612
 30
0.0
 10
11.9246551404
 20
9.857784374
 30
0.0
 10
11.8750675282
 20
9.8809632801
 30
0.0
 10
11.8419726501
 20
9.8958860526
 30
0.0
  0
SPLINE
  5
3F1
100
AcDbEntity
  8
0
100
AcDbSpline
 62
7
  6
CONTINUOUS
 70
0
 71
3
 72
15
 73
11
 74
0
 42
0.0000001
 43
0.0000001
 44
0.0000000001
 40
0.0
 40
0.0
 40
0.0
 40
0.0
 40
0.1024590394
 40
0.2125892926
 40
0.3308757892
 40
0.4568382862
 40
0.5888686932
 40
0.7247066359
 40
0.8622407571
 40
1.0
 40
1.0
 40
1.0
 40
1.0
 10
11.7275537593
 20
9.9038210297
 30
0.0
 10
11.7018667805
 20
9.8926581729
 30
0.0
 10
11.6487318897
 20
9.869121138
 30
0.0
 10
11.5665853812
 20
9.8312643092
 30
0.0
 10
11.4792455691
 20
9.7893526432
 30
0.0
 10
11.3872102296
 20
9.743417467
 30
0.0
 10
11.2915913641
 20
9.6939453186
 30
0.0
 10
11.1938238571
 20
9.6417640713
 30
0.0
 10
11.0952494676
 20
9.5877843676
 30
0.0
 10
11.0295621944
 20
9.5510652059
 30
0.0
 10
10.9967565268
 20
9.532576011
 30
0.0
  0
SPLINE
  5
3F2
100
AcDbEntity
  8
0
100
AcDbSpline
 62
7
  6
CONTINUOUS
 70
0
 71
3
 72
20
 73
16
 74
0
 42
0.0000001
 43
0.0000001
 44
0.0000000001
 40
0.0
 40
0.0
 40
0.0
 40
0.0
 40
0.1307118504
 40
0.2609271596
 40
0.3256853614
 40
0.3901038075
 40
0.4540959115
 40
0.5175746912
 40
0.5804579524
 40
0.6426740239
 40
0.7041660739
 40
0.7648946165
 40
0.8248383834
 40
0.8839938085
 40
1.0
 40
1.0
 40
1.0
 40
1.0
 10
10.714148835
 20
9.2197358331
 30
0.0
 10
10.7117702865
 20
9.1830138853
 30
0.0
 10
10.7074556876
 20
9.1096804429
 30
0.0
 10
10.7033627931
 20
9.0180787658
 30
0.0
 10
10.701002519
 20
8.9450903258
 30
0.0
 10
10.6997187615
 20
8.890722541
 30
0.0
 10
10.6989387023
 20
8.8367053849
 30
0.0
 10
10.698675466
 20
8.783115387
 30
0.0
 10
10.6989338087
 20
8.7300253488
 30
0.0
 10
10.6997092563
 20
8.6774997245
 30
0.0
 10
10.7009889106
 20
8.6255907767
 30
0.0
 10
10.7027525148
 20
8.574336165
 30
0.0
 10
10.704973971
 20
8.5237578039
 30
0.0
 10
10.7084827288
 20
8.4576617329
 30
0.0
 10
10.7117375052
 20
8.4084535951
 30
0.0
 10
10.714148835
 20
8.3758838752
 30
0.0
  0
SPLINE
  5
3F3
100
AcDbEntity
  8
0
100
AcDbSpline
 62
7
  6
CONTINUOUS
 70
0
 71
3
 72
21
 73
17
 74
0
 42
0.0000001
 43
0.0000001
 44
0.0000000001
 40
0.0
 40
0.0
 40
0.0
 40
0.0
 40
0.1211305215
 40
0.1823718855
 40
0.2440515074
 40
0.3061441797
 40
0.3686109568
 40
0.4313999269
 40
0.4944480864
 40
0.5576845339
 40
0.6210350022
 40
0.684426846
 40
0.7477930962
 40
0.8110754374
 40
0.8742262746
 40
1.0
 40
1.0
 40
1.0
 40
1.0
 10
10.7713582804
 20
8.2728267205
 30
0.0
 10
10.7990197409
 20
8.2510705128
 30
0.0
 10
10.8409722624
 20
8.2186999739
 30
0.0
 10
10.8977892107
 20
8.1762801801
 30
0.0
 10
10.9412212222
 20
8.1446084913
 30
0.0
 10
10.9853151636
 20
8.1132466529
 30
0.0
 10
11.0300566986
 20
8.0822461389
 30
0.0
 10
11.0754167926
 20
8.0516585112
 30
0.0
 10
11.1213524703
 20
8.0215325149
 30
0.0
 10
11.1678087107
 20
7.9919111076
 30
0.0
 10
11.2147214175
 20
7.9628282179
 30
0.0
 10
11.2620218017
 20
7.9343072552
 30
0.0
 10
11.3096404462
 20
7.9063602476
 30
0.0
 10
11.3575109809
 20
7.8789878362
 30
0.0
 10
11.4215043756
 20
7.8432938642
 30
0.0
 10
11.4698359671
 20
7.8172698203
 30
0.0
 10
11.5021555129
 20
7.8002197814
 30
0.0
  0
SPLINE
  5
3F4
100
AcDbEntity
  8
0
100
AcDbSpline
 62
7
  6
CONTINUOUS
 70
0
 71
3
 72
15
 73
11
 74
0
 42
0.0000001
 43
0.0000001
 44
0.0000000001
 40
0.0
 40
0.0
 40
0.0
 40
0.0
 40
0.1128128137
 40
0.2295619377
 40
0.3503742146
 40
0.4750618339
 40
0.6031113457
 40
0.7337873942
 40
0.8663091291
 40
1.0
 40
1.0
 40
1.0
 40
1.0
 10
11.6165744038
 20
7.7922848044
 30
0.0
 10
11.6444931338
 20
7.8053590721
 30
0.0
 10
11.7012109062
 20
7.8321648077
 30
0.0
 10
11.7874591386
 20
7.8737450557
 30
0.0
 10
11.8762718581
 20
7.9174709601
 30
0.0
 10
11.9674700803
 20
7.9633345938
 30
0.0
 10
12.0606856592
 20
8.0111781508
 30
0.0
 10
12.1554321429
 20
8.0607202124
 30
0.0
 10
12.2512057236
 20
8.1116192014
 30
0.0
 10
12.3152500426
 20
8.1461252017
 30
0.0
 10
12.3473716363
 20
8.1635298231
 30
0.0
  0
SPLINE
  5
3F5
100
AcDbEntity
  8
0
100
AcDbSpline
 62
7
  6
CONTINUOUS
 70
0
 71
3
 72
15
 73
11
 74
0
 42
0.0000001
 43
0.0000001
 44
0.0000000001
 40
0.0
 40
0.0
 40
0.0
 40
0.0
 40
0.1259387151
 40
0.2515500552
 40
0.3768604883
 40
0.5018988711
 40
0.6266970376
 40
0.7512889617
 40
0.8757107437
 40
1.0
 40
1.0
 40
1.0
 40
1.0
 10
11.6334098522
 20
9.8628883909
 30
0.0
 10
11.6211752625
 20
9.8597001979
 30
0.0
 10
11.5968883266
 20
9.8527373234
 30
0.0
 10
11.561060035
 20
9.8405387162
 30
0.0
 10
11.5259574022
 20
9.8266275014
 30
0.0
 10
11.4916594392
 20
9.811032674
 30
0.0
 10
11.4582405574
 20
9.7937901846
 30
0.0
 10
11.4257749237
 20
9.7749360071
 30
0.0
 10
11.3943339288
 20
9.7545139682
 30
0.0
 10
11.3740920369
 20
9.7398747148
 30
0.0
 10
11.3641679619
 20
9.7323114677
 30
0.0
  0
SPLINE
  5
3F6
100
AcDbEntity
  8
0
100
AcDbSpline
 62
7
  6
CONTINUOUS
 70
0
 71
3
 72
35
 73
31
 74
0
 42
0.0000001
 43
0.0000001
 44
0.0000000001
 40
0.0
 40
0.0
 40
0.0
 40
0.0
 40
0.0612906693
 40
0.1229878739
 40
0.1539915337
 40
0.1850872977
 40
0.2162696171
 40
0.2475327476
 40
0.2788701874
 40
0.3102745649
 40
0.3417379897
 40
0.3732520333
 40
0.4048078488
 40
0.4363961973
 40
0.468007577
 40
0.4996322754
 40
0.5312604555
 40
0.562882252
 40
0.5944878596
 40
0.6260676278
 40
0.6576121068
 40
0.6891121837
 40
0.720559106
 40
0.7519446068
 40
0.7832608858
 40
0.8145009644
 40
0.845658577
 40
0.8767276093
 40
0.9385638178
 40
1.0
 40
1.0
 40
1.0
 40
1.0
 10
12.7180396502
 20
9.0033877923
 30
0.0
 10
12.7180396502
 20
9.0304953179
 30
0.0
 10
12.7153581289
 20
9.0849239983
 30
0.0
 10
12.7054257249
 20
9.1524129511
 30
0.0
 10
12.6935964586
 20
9.2058902827
 30
0.0
 10
12.6827791362
 20
9.2457200503
 30
0.0
 10
12.6700573242
 20
9.2851026319
 30
0.0
 10
12.6554622157
 20
9.3239443814
 30
0.0
 10
12.6390288958
 20
9.3621515979
 30
0.0
 10
12.6207967635
 20
9.3996323142
 30
0.0
 10
12.6008101992
 20
9.4362964974
 30
0.0
 10
12.5791166678
 20
9.4720555173
 30
0.0
 10
12.555769341
 20
9.5068238854
 30
0.0
 10
12.5308233397
 20
9.5405171727
 30
0.0
 10
12.5043399489
 20
9.5730552042
 30
0.0
 10
12.4763816367
 20
9.604358607
 30
0.0
 10
12.4470170092
 20
9.6343531939
 30
0.0
 10
12.4163155061
 20
9.6629655412
 30
0.0
 10
12.3843521648
 20
9.690127987
 30
0.0
 10
12.3512029192
 20
9.7157739803
 30
0.0
 10
12.3169483725
 20
9.7398428196
 30
0.0
 10
12.2816703317
 20
9.7622756622
 30
0.0
 10
12.2454541333
 20
9.7830191328
 30
0.0
 10
12.2083867345
 20
9.8020228251
 30
0.0
 10
12.1705573695
 20
9.8192411579
 30
0.0
 10
12.1320573016
 20
9.8346327228
 30
0.0
 10
12.0929780248
 20
9.848159987
 30
0.0
 10
12.040318935
 20
9.8636414915
 30
0.0
 10
11.9735183122
 20
9.8782060355
 30
0.0
 10
11.9192797964
 20
9.8846486068
 30
0.0
 10
11.8921730198
 20
9.8865284681
 30
0.0
  0
SPLINE
  5
3F7
100
AcDbEntity
  8
0
100
AcDbSpline
 62
7
  6
CONTINUOUS
 70
0
 71
3
 72
16
 73
12
 74
0
 42
0.0000001
 43
0.0000001
 44
0.0000000001
 40
0.0
 40
0.0
 40
0.0
 40
0.0
 40
0.1236450025
 40
0.1855976618
 40
0.2476386809
 40
0.3719893701
 40
0.496733349
 40
0.6218884842
 40
0.7474788994
 40
0.8735266243
 40
1.0
 40
1.0
 40
1.0
 40
1.0
 10
12.6485618384
 20
8.6766470893
 30
0.0
 10
12.6542756535
 20
8.6892857869
 30
0.0
 10
12.6623382635
 20
8.7084958568
 30
0.0
 10
12.672042212
 20
8.7345280488
 30
0.0
 10
12.6810669847
 20
8.7608878072
 30
0.0
 10
12.6910355234
 20
8.7943555326
 30
0.0
 10
12.7008572789
 20
8.8351931193
 30
0.0
 10
12.7085230451
 20
8.8766314762
 30
0.0
 10
12.7140122375
 20
8.9185613765
 30
0.0
 10
12.7173087001
 20
8.9608673423
 30
0.0
 10
12.7180396502
 20
8.9892002417
 30
0.0
 10
12.7180396502
 20
9.0033877923
 30
0.0
  0
SPLINE
  5
3F8
100
AcDbEntity
  8
0
100
AcDbSpline
 62
7
  6
CONTINUOUS
 70
0
 71
3
 72
35
 73
31
 74
0
 42
0.0000001
 43
0.0000001
 44
0.0000000001
 40
0.0
 40
0.0
 40
0.0
 40
0.0
 40
0.0612906693
 40
0.1229878739
 40
0.1539915337
 40
0.1850872977
 40
0.2162696171
 40
0.2475327476
 40
0.2788701874
 40
0.3102745649
 40
0.3417379897
 40
0.3732520333
 40
0.4048078488
 40
0.4363961973
 40
0.468007577
 40
0.4996322754
 40
0.5312604555
 40
0.562882252
 40
0.5944878596
 40
0.6260676278
 40
0.6576121068
 40
0.6891121837
 40
0.720559106
 40
0.7519446068
 40
0.7832608858
 40
0.8145009644
 40
0.845658577
 40
0.8767276093
 40
0.9385638178
 40
1.0
 40
1.0
 40
1.0
 40
1.0
 10
12.7283924035
 20
9.0133877847
 30
0.0
 10
12.7283924035
 20
9.0404953103
 30
0.0
 10
12.7257108821
 20
9.0949239906
 30
0.0
 10
12.7157784781
 20
9.1624129434
 30
0.0
 10
12.7039492119
 20
9.2158902751
 30
0.0
 10
12.6931318894
 20
9.2557200426
 30
0.0
 10
12.6804100774
 20
9.2951026243
 30
0.0
 10
12.665814969
 20
9.3339443738
 30
0.0
 10
12.649381649
 20
9.3721515902
 30
0.0
 10
12.6311495167
 20
9.4096323065
 30
0.0
 10
12.6111629525
 20
9.4462964898
 30
0.0
 10
12.589469421
 20
9.4820555096
 30
0.0
 10
12.5661220943
 20
9.5168238777
 30
0.0
 10
12.5411760929
 20
9.5505171651
 30
0.0
 10
12.5146927021
 20
9.5830551965
 30
0.0
 10
12.48673439
 20
9.6143585994
 30
0.0
 10
12.4573697624
 20
9.6443531863
 30
0.0
 10
12.4266682593
 20
9.6729655335
 30
0.0
 10
12.394704918
 20
9.7001279793
 30
0.0
 10
12.3615556724
 20
9.7257739726
 30
0.0
 10
12.3273011258
 20
9.749842812
 30
0.0
 10
12.2920230849
 20
9.7722756545
 30
0.0
 10
12.2558068866
 20
9.7930191251
 30
0.0
 10
12.2187394877
 20
9.8120228174
 30
0.0
 10
12.1809101228
 20
9.8292411502
 30
0.0
 10
12.1424100549
 20
9.8446327151
 30
0.0
 10
12.103330778
 20
9.8581599793
 30
0.0
 10
12.0506716882
 20
9.8736414838
 30
0.0
 10
11.9838710655
 20
9.8882060278
 30
0.0
 10
11.9296325496
 20
9.8946485991
 30
0.0
 10
11.9025257731
 20
9.8965284604
 30
0.0
  0
SPLINE
  5
3F9
100
AcDbEntity
  8
0
100
AcDbSpline
 62
7
  6
CONTINUOUS
 70
0
 71
3
 72
20
 73
16
 74
0
 42
0.0000001
 43
0.0000001
 44
0.0000000001
 40
0.0
 40
0.0
 40
0.0
 40
0.0
 40
0.1160061915
 40
0.1751616166
 40
0.2351053835
 40
0.2958339261
 40
0.3573259761
 40
0.4195420477
 40
0.4824253089
 40
0.5459040886
 40
0.6098961925
 40
0.6743146387
 40
0.7390728404
 40
0.8692881496
 40
1.0
 40
1.0
 40
1.0
 40
1.0
 10
12.4045810817
 20
8.2586520007
 30
0.0
 10
12.4021697519
 20
8.2912217206
 30
0.0
 10
12.3989149756
 20
8.3404298585
 30
0.0
 10
12.3954062178
 20
8.4065259295
 30
0.0
 10
12.3931847615
 20
8.4571042905
 30
0.0
 10
12.3914211574
 20
8.5083589022
 30
0.0
 10
12.3901415031
 20
8.56026785
 30
0.0
 10
12.3893660554
 20
8.6127934744
 30
0.0
 10
12.3891077127
 20
8.6658835125
 30
0.0
 10
12.3893709491
 20
8.7194735104
 30
0.0
 10
12.3901510083
 20
8.7734906665
 30
0.0
 10
12.3914347658
 20
8.8278584514
 30
0.0
 10
12.3937950398
 20
8.9008468913
 30
0.0
 10
12.3978879344
 20
8.9924485684
 30
0.0
 10
12.4022025332
 20
9.0657820108
 30
0.0
 10
12.4045810817
 20
9.1025039586
 30
0.0
  0
SPLINE
  5
3FA
100
AcDbEntity
  8
0
100
AcDbSpline
 62
7
  6
CONTINUOUS
 70
0
 71
3
 72
21
 73
17
 74
0
 42
0.0000001
 43
0.0000001
 44
0.0000000001
 40
0.0
 40
0.0
 40
0.0
 40
0.0
 40
0.1257737254
 40
0.1889245626
 40
0.2522069038
 40
0.3155731541
 40
0.3789649978
 40
0.4423154662
 40
0.5055519136
 40
0.5686000731
 40
0.6313890432
 40
0.6938558204
 40
0.7559484927
 40
0.8176281145
 40
0.8788694786
 40
1.0
 40
1.0
 40
1.0
 40
1.0
 10
12.3473716363
 20
9.2055611132
 30
0.0
 10
12.3150520905
 20
9.2226111521
 30
0.0
 10
12.266720499
 20
9.2486351961
 30
0.0
 10
12.2027271042
 20
9.284329168
 30
0.0
 10
12.1548565696
 20
9.3117015794
 30
0.0
 10
12.1072379251
 20
9.339648587
 30
0.0
 10
12.0599375409
 20
9.3681695497
 30
0.0
 10
12.0130248341
 20
9.3972524394
 30
0.0
 10
11.9665685937
 20
9.4268738468
 30
0.0
 10
11.9206329159
 20
9.456999843
 30
0.0
 10
11.8752728219
 20
9.4875874707
 30
0.0
 10
11.830531287
 20
9.5185879847
 30
0.0
 10
11.7864373456
 20
9.5499498231
 30
0.0
 10
11.743005334
 20
9.5816215119
 30
0.0
 10
11.6861883858
 20
9.6240413057
 30
0.0
 10
11.6442358643
 20
9.6564118446
 30
0.0
 10
11.6165744038
 20
9.6781680524
 30
0.0
  0
SPLINE
  5
3FB
100
AcDbEntity
  8
0
100
AcDbSpline
 62
7
  6
CONTINUOUS
 70
0
 71
3
 72
15
 73
11
 74
0
 42
0.0000001
 43
0.0000001
 44
0.0000000001
 40
0.0
 40
0.0
 40
0.0
 40
0.0
 40
0.1336908709
 40
0.2662126058
 40
0.3968886543
 40
0.5249381662
 40
0.6496257854
 40
0.7704380623
 40
0.8871871863
 40
1.0
 40
1.0
 40
1.0
 40
1.0
 10
11.5021555129
 20
9.6861030294
 30
0.0
 10
11.4700339192
 20
9.668698408
 30
0.0
 10
11.4059896002
 20
9.6341924077
 30
0.0
 10
11.3102160195
 20
9.5832934187
 30
0.0
 10
11.2154695358
 20
9.5337513571
 30
0.0
 10
11.1222539569
 20
9.4859078001
 30
0.0
 10
11.0310557347
 20
9.4400441664
 30
0.0
 10
10.9422430152
 20
9.396318262
 30
0.0
 10
10.8559947828
 20
9.354738014
 30
0.0
 10
10.7992770104
 20
9.3279322784
 30
0.0
 10
10.7713582804
 20
9.3148580107
 30
0.0
  0
SPLINE
  5
3FC
100
AcDbEntity
  8
0
100
AcDbSpline
 62
7
  6
CONTINUOUS
 70
0
 71
3
 72
67
 73
63
 74
0
 42
0.0000001
 43
0.0000001
 44
0.0000000001
 40
0.0
 40
0.0
 40
0.0
 40
0.0
 40
0.0156208593
 40
0.0311919602
 40
0.0467088386
 40
0.062173276
 40
0.0775878162
 40
0.0929540716
 40
0.1082742252
 40
0.1235512559
 40
0.1387885557
 40
0.153989822
 40
0.1691591733
 40
0.1843010435
 40
0.1994201892
 40
0.2145215786
 40
0.2296103873
 40
0.2446919059
 40
0.2597715155
 40
0.274854618
 40
0.2899465735
 40
0.3050526605
 40
0.3201779774
 40
0.3353274489
 40
0.3505057208
 40
0.3657171655
 40
0.380965775
 40
0.3962551812
 40
0.4115885727
 40
0.4269687104
 40
0.4423978773
 40
0.4578778561
 40
0.4734099318
 40
0.488994865
 40
0.5203145517
 40
0.5518423775
 40
0.5676854147
 40
0.5835753953
 40
0.5995097291
 40
0.6154853795
 40
0.6314989709
 40
0.64754676
 40
0.6636247272
 40
0.6797285675
 40
0.6958537564
 40
0.7119955667
 40
0.728149142
 40
0.744309521
 40
0.7604716816
 40
0.7766305859
 40
0.7927812171
 40
0.8089186391
 40
0.8250380274
 40
0.8411347282
 40
0.8572042684
 40
0.873242422
 40
0.8892452006
 40
0.9052090392
 40
0.9211307392
 40
0.9370071758
 40
0.9686057956
 40
1.0
 40
1.0
 40
1.0
 40
1.0
 10
11.5417323219
 20
9.5528583568
 30
0.0
 10
11.5281658897
 20
9.5537991921
 30
0.0
 10
11.5010256324
 20
9.5550168176
 30
0.0
 10
11.4603470844
 20
9.5548416261
 30
0.0
 10
11.419861937
 20
9.5526590263
 30
0.0
 10
11.3796715189
 20
9.5484759111
 30
0.0
 10
11.3398709477
 20
9.5423016112
 30
0.0
 10
11.3005556209
 20
9.5341516617
 30
0.0
 10
11.2618208973
 20
9.5240446093
 30
0.0
 10
11.2237601072
 20
9.5120053936
 30
0.0
 10
11.1864649349
 20
9.4980628057
 30
0.0
 10
11.1500254091
 20
9.4822501577
 30
0.0
 10
11.1145292329
 20
9.4646059881
 30
0.0
 10
11.08006242
 20
9.4451720363
 30
0.0
 10
11.0467075319
 20
9.4239961189
 30
0.0
 10
11.0145458084
 20
9.4011280585
 30
0.0
 10
10.9836538836
 20
9.376624319
 30
0.0
 10
10.9541074079
 20
9.3505425811
 30
0.0
 10
10.9259764163
 20
9.3229471539
 30
0.0
 10
10.8993300681
 20
9.2939032604
 30
0.0
 10
10.874231303
 20
9.2634821758
 30
0.0
 10
10.8507418994
 20
9.2317562427
 30
0.0
 10
10.8289173348
 20
9.1988028674
 30
0.0
 10
10.8088111716
 20
9.1647009002
 30
0.0
 10
10.7904711043
 20
9.1295330552
 30
0.0
 10
10.7739417494
 20
9.0933839062
 30
0.0
 10
10.7592627346
 20
9.056340731
 30
0.0
 10
10.7464692011
 20
9.0184929219
 30
0.0
 10
10.7355923966
 20
8.9799315904
 30
0.0
 10
10.7266576268
 20
8.9407499337
 30
0.0
 10
10.7196874479
 20
8.9010420827
 30
0.0
 10
10.7146971582
 20
8.8609042622
 30
0.0
 10
10.7117003325
 20
8.8204319084
 30
0.0
 10
10.7103673497
 20
8.7660743621
 30
0.0
 10
10.7137332806
 20
8.6977605784
 30
0.0
 10
10.7237237274
 20
8.6298741122
 30
0.0
 10
10.7356221421
 20
8.5760842873
 30
0.0
 10
10.7465028345
 20
8.5360216418
 30
0.0
 10
10.7592989899
 20
8.4964088272
 30
0.0
 10
10.7739794309
 20
8.4573398845
 30
0.0
 10
10.7905088716
 20
8.4189092248
 30
0.0
 10
10.8088476249
 20
8.3812093373
 30
0.0
 10
10.8289510609
 20
8.3443307503
 30
0.0
 10
10.8507714567
 20
8.3083626113
 30
0.0
 10
10.8742553218
 20
8.2733909125
 30
0.0
 10
10.899347209
 20
8.2395005849
 30
0.0
 10
10.9259854717
 20
8.2067722761
 30
0.0
 10
10.9541072768
 20
8.1752858166
 30
0.0
 10
10.9836436266
 20
8.1451158247
 30
0.0
 10
11.014524675
 20
8.1163361514
 30
0.0
 10
11.0466749389
 20
8.0890148563
 30
0.0
 10
11.0800180393
 20
8.0632188868
 30
0.0
 10
11.1144729025
 20
8.0390092973
 30
0.0
 10
11.1499572464
 20
8.0164452686
 30
0.0
 10
11.1863852375
 20
7.99558049
 30
0.0
 10
11.2236694067
 20
7.9764656646
 30
0.0
 10
11.2617199946
 20
7.9591466395
 30
0.0
 10
11.3004452069
 20
7.9436650664
 30
0.0
 10
11.3397530174
 20
7.9300586964
 30
0.0
 10
11.3927200559
 20
7.9144866557
 30
0.0
 10
11.4599113266
 20
7.8998369389
 30
0.0
 10
11.5144670264
 20
7.8933566918
 30
0.0
 10
11.5417323219
 20
7.8914658372
 30
0.0
  0
SPLINE
  5
3FD
100
AcDbEntity
  8
0
100
AcDbSpline
 62
7
  6
CONTINUOUS
 70
0
 71
3
 72
15
 73
11
 74
0
 42
0.0000001
 43
0.0000001
 44
0.0000000001
 40
0.0
 40
0.0
 40
0.0
 40
0.0
 40
0.1235752096
 40
0.2474950402
 40
0.3717979941
 40
0.4965172206
 40
0.6216760548
 40
0.7472994836
 40
0.8734166375
 40
1.0
 40
1.0
 40
1.0
 40
1.0
 10
12.6470480053
 20
8.6616185452
 30
0.0
 10
12.6537206785
 20
8.6750558694
 30
0.0
 10
12.6662916747
 20
8.7023700779
 30
0.0
 10
12.6827300616
 20
8.7444356351
 30
0.0
 10
12.6967273841
 20
8.7875227265
 30
0.0
 10
12.7082375835
 20
8.8314946393
 30
0.0
 10
12.7172269568
 20
8.8762135295
 30
0.0
 10
12.7236664676
 20
8.9215417094
 30
0.0
 10
12.7275349647
 20
8.9673330573
 30
0.0
 10
12.7283924035
 20
8.9980196996
 30
0.0
 10
12.7283924035
 20
9.0133877847
 30
0.0
  0
SPLINE
  5
3FE
100
AcDbEntity
  8
0
100
AcDbSpline
 62
7
  6
CONTINUOUS
 70
0
 71
3
 72
15
 73
11
 74
0
 42
0.0000001
 43
0.0000001
 44
0.0000000001
 40
0.0
 40
0.0
 40
0.0
 40
0.0
 40
0.1261304062
 40
0.251857918
 40
0.3772174985
 40
0.502247911
 40
0.6269926351
 40
0.751498858
 40
0.8758169754
 40
1.0
 40
1.0
 40
1.0
 40
1.0
 10
11.6728453359
 20
9.8798761669
 30
0.0
 10
11.6582761189
 20
9.8766682947
 30
0.0
 10
11.6293597837
 20
9.8694322199
 30
0.0
 10
11.5867493391
 20
9.8561275395
 30
0.0
 10
11.5450986359
 20
9.8404291907
 30
0.0
 10
11.5045367256
 20
9.8223847973
 30
0.0
 10
11.4651865207
 20
9.8020502433
 30
0.0
 10
11.4271684545
 20
9.7794858648
 30
0.0
 10
11.3905993941
 20
9.7547628232
 30
0.0
 10
11.3672476272
 20
9.7368810777
 30
0.0
 10
11.3558550719
 20
9.727610528
 30
0.0
  0
SPLINE
  5
3FF
100
AcDbEntity
  8
0
100
AcDbSpline
 62
7
  6
CONTINUOUS
 70
0
 71
3
 72
67
 73
63
 74
0
 42
0.0000001
 43
0.0000001
 44
0.0000000001
 40
0.0
 40
0.0
 40
0.0
 40
0.0
 40
0.0156208593
 40
0.0311919602
 40
0.0467088386
 40
0.062173276
 40
0.0775878162
 40
0.0929540716
 40
0.1082742252
 40
0.1235512559
 40
0.1387885557
 40
0.153989822
 40
0.1691591733
 40
0.1843010435
 40
0.1994201892
 40
0.2145215786
 40
0.2296103873
 40
0.2446919059
 40
0.2597715155
 40
0.274854618
 40
0.2899465735
 40
0.3050526605
 40
0.3201779774
 40
0.3353274489
 40
0.3505057208
 40
0.3657171655
 40
0.380965775
 40
0.3962551812
 40
0.4115885727
 40
0.4269687104
 40
0.4423978773
 40
0.4578778561
 40
0.4734099318
 40
0.488994865
 40
0.5203145517
 40
0.5518423775
 40
0.5676854147
 40
0.5835753953
 40
0.5995097291
 40
0.6154853795
 40
0.6314989709
 40
0.64754676
 40
0.6636247272
 40
0.6797285675
 40
0.6958537564
 40
0.7119955667
 40
0.728149142
 40
0.744309521
 40
0.7604716816
 40
0.7766305859
 40
0.7927812171
 40
0.8089186391
 40
0.8250380274
 40
0.8411347282
 40
0.8572042684
 40
0.873242422
 40
0.8892452006
 40
0.9052090392
 40
0.9211307392
 40
0.9370071758
 40
0.9686057956
 40
1.0
 40
1.0
 40
1.0
 40
1.0
 10
11.5417323219
 20
7.8914658372
 30
0.0
 10
11.5552987541
 20
7.8905250019
 30
0.0
 10
11.5824390115
 20
7.8893073763
 30
0.0
 10
11.6231175595
 20
7.8894825679
 30
0.0
 10
11.6636027069
 20
7.8916651677
 30
0.0
 10
11.703793125
 20
7.8958482829
 30
0.0
 10
11.7435936962
 20
7.9020225828
 30
0.0
 10
11.782909023
 20
7.9101725323
 30
0.0
 10
11.8216437466
 20
7.9202795847
 30
0.0
 10
11.8597045367
 20
7.9323188004
 30
0.0
 10
11.896999709
 20
7.9462613882
 30
0.0
 10
11.9334392348
 20
7.9620740363
 30
0.0
 10
11.968935411
 20
7.9797182059
 30
0.0
 10
12.0034022239
 20
7.9991521577
 30
0.0
 10
12.036757112
 20
8.0203280751
 30
0.0
 10
12.0689188355
 20
8.0431961355
 30
0.0
 10
12.0998107603
 20
8.0676998749
 30
0.0
 10
12.129357236
 20
8.0937816129
 30
0.0
 10
12.1574882276
 20
8.12137704
 30
0.0
 10
12.1841345758
 20
8.1504209336
 30
0.0
 10
12.2092333409
 20
8.1808420182
 30
0.0
 10
12.2327227445
 20
8.2125679513
 30
0.0
 10
12.254547309
 20
8.2455213266
 30
0.0
 10
12.2746534722
 20
8.2796232938
 30
0.0
 10
12.2929935395
 20
8.3147911388
 30
0.0
 10
12.3095228945
 20
8.3509402878
 30
0.0
 10
12.3242019093
 20
8.3879834629
 30
0.0
 10
12.3369954428
 20
8.4258312721
 30
0.0
 10
12.3478722473
 20
8.4643926036
 30
0.0
 10
12.3568070171
 20
8.5035742603
 30
0.0
 10
12.363777196
 20
8.5432821113
 30
0.0
 10
12.3687674857
 20
8.5834199318
 30
0.0
 10
12.3717643114
 20
8.6238922856
 30
0.0
 10
12.3730972942
 20
8.6782498319
 30
0.0
 10
12.3697313633
 20
8.7465636156
 30
0.0
 10
12.3597409165
 20
8.8144500818
 30
0.0
 10
12.3478425018
 20
8.8682399067
 30
0.0
 10
12.3369618094
 20
8.9083025522
 30
0.0
 10
12.324165654
 20
8.9479153668
 30
0.0
 10
12.309485213
 20
8.9869843095
 30
0.0
 10
12.2929557723
 20
9.0254149692
 30
0.0
 10
12.274617019
 20
9.0631148566
 30
0.0
 10
12.254513583
 20
9.0999934437
 30
0.0
 10
12.2326931872
 20
9.1359615827
 30
0.0
 10
12.209209322
 20
9.1709332814
 30
0.0
 10
12.1841174349
 20
9.2048236091
 30
0.0
 10
12.1574791722
 20
9.2375519179
 30
0.0
 10
12.1293573671
 20
9.2690383774
 30
0.0
 10
12.0998210173
 20
9.2992083693
 30
0.0
 10
12.0689399689
 20
9.3279880426
 30
0.0
 10
12.036789705
 20
9.3553093377
 30
0.0
 10
12.0034466046
 20
9.3811053071
 30
0.0
 10
11.9689917414
 20
9.4053148967
 30
0.0
 10
11.9335073975
 20
9.4278789254
 30
0.0
 10
11.8970794064
 20
9.448743704
 30
0.0
 10
11.8597952372
 20
9.4678585294
 30
0.0
 10
11.8217446493
 20
9.4851775545
 30
0.0
 10
11.783019437
 20
9.5006591276
 30
0.0
 10
11.7437116265
 20
9.5142654975
 30
0.0
 10
11.690744588
 20
9.5298375383
 30
0.0
 10
11.6235533173
 20
9.5444872551
 30
0.0
 10
11.5689976175
 20
9.5509675021
 30
0.0
 10
11.5417323219
 20
9.5528583568
 30
0.0
  0
SPLINE
  5
400
100
AcDbEntity
  8
0
100
AcDbSpline
 62
7
  6
CONTINUOUS
 70
0
 71
3
 72
19
 73
15
 74
0
 42
0.0000001
 43
0.0000001
 44
0.0000000001
 40
0.0
 40
0.0
 40
0.0
 40
0.0
 40
0.1267318338
 40
0.2529199597
 40
0.3785785478
 40
0.5037278304
 40
0.5661285532
 40
0.6284136505
 40
0.690588007
 40
0.7526569502
 40
0.8146262552
 40
0.8765020901
 40
0.9382910273
 40
1.0
 40
1.0
 40
1.0
 40
1.0
 10
12.7455759874
 20
6.1262082026
 30
0.0
 10
12.7455759874
 20
6.1090150981
 30
0.0
 10
12.7445113296
 20
6.0746928695
 30
0.0
 10
12.739701851
 20
6.0235258826
 30
0.0
 10
12.7317021469
 20
5.9729757555
 30
0.0
 10
12.7223920416
 20
5.9314842989
 30
0.0
 10
12.7133835732
 20
5.8988044239
 30
0.0
 10
12.7058607181
 20
5.8745910991
 30
0.0
 10
12.6975729182
 20
5.8506767018
 30
0.0
 10
12.6885278749
 20
5.827084091
 30
0.0
 10
12.6787345928
 20
5.803836082
 30
0.0
 10
12.6682022425
 20
5.7809551321
 30
0.0
 10
12.6569413805
 20
5.7584635795
 30
0.0
 10
12.6489502859
 20
5.7437336276
 30
0.0
 10
12.6448374023
 20
5.7364418105
 30
0.0
  0
SPLINE
  5
401
100
AcDbEntity
  8
0
100
AcDbSpline
 62
7
  6
CONTINUOUS
 70
0
 71
3
 72
19
 73
15
 74
0
 42
0.0000001
 43
0.0000001
 44
0.0000000001
 40
0.0
 40
0.0
 40
0.0
 40
0.0
 40
0.1267315004
 40
0.252919423
 40
0.3785779259
 40
0.5037272279
 40
0.5661279892
 40
0.628413143
 40
0.6905875706
 40
0.7526565956
 40
0.8146259895
 40
0.876501916
 40
0.9382909433
 40
1.0
 40
1.0
 40
1.0
 40
1.0
 10
10.5722427494
 20
6.2769293745
 30
0.0
 10
10.5722427494
 20
6.2597403419
 30
0.0
 10
10.5711785956
 20
6.2254262291
 30
0.0
 10
10.5663713969
 20
6.1742712176
 30
0.0
 10
10.5583754762
 20
6.1237326808
 30
0.0
 10
10.5490697603
 20
6.0822504656
 30
0.0
 10
10.5400655204
 20
6.0495776466
 30
0.0
 10
10.5325461855
 20
6.0253694251
 30
0.0
 10
10.5242622506
 20
6.0014599342
 30
0.0
 10
10.5152214101
 20
5.9778720169
 30
0.0
 10
10.5054326607
 20
5.9546284733
 30
0.0
 10
10.494905163
 20
5.9317517461
 30
0.0
 10
10.4836494655
 20
5.9092641581
 30
0.0
 10
10.4756620157
 20
5.8945366691
 30
0.0
 10
10.4715510026
 20
5.887246035
 30
0.0
  0
SPLINE
  5
402
100
AcDbEntity
  8
0
100
AcDbSpline
 62
7
  6
CONTINUOUS
 70
0
 71
3
 72
19
 73
15
 74
0
 42
0.0000001
 43
0.0000001
 44
0.0000000001
 40
0.0
 40
0.0
 40
0.0
 40
0.0
 40
0.1267318338
 40
0.2529199597
 40
0.3785785478
 40
0.5037278304
 40
0.5661285532
 40
0.6284136505
 40
0.690588007
 40
0.7526569502
 40
0.8146262552
 40
0.8765020901
 40
0.9382910273
 40
1.0
 40
1.0
 40
1.0
 40
1.0
 10
12.7455759874
 20
9.0239858531
 30
0.0
 10
12.7455759874
 20
9.0067927487
 30
0.0
 10
12.7445113296
 20
8.9724705201
 30
0.0
 10
12.739701851
 20
8.9213035331
 30
0.0
 10
12.7317021469
 20
8.870753406
 30
0.0
 10
12.7223920416
 20
8.8292619495
 30
0.0
 10
12.7133835732
 20
8.7965820744
 30
0.0
 10
12.7058607181
 20
8.7723687496
 30
0.0
 10
12.6975729182
 20
8.7484543524
 30
0.0
 10
12.6885278749
 20
8.7248617416
 30
0.0
 10
12.6787345928
 20
8.7016137326
 30
0.0
 10
12.6682022425
 20
8.6787327826
 30
0.0
 10
12.6569413805
 20
8.6562412301
 30
0.0
 10
12.6489502859
 20
8.6415112782
 30
0.0
 10
12.6448374023
 20
8.6342194611
 30
0.0
  0
SPLINE
  5
403
100
AcDbEntity
  8
0
100
AcDbSpline
 62
7
  6
CONTINUOUS
 70
0
 71
3
 72
19
 73
15
 74
0
 42
0.0000001
 43
0.0000001
 44
0.0000000001
 40
0.0
 40
0.0
 40
0.0
 40
0.0
 40
0.1267315004
 40
0.252919423
 40
0.3785779259
 40
0.5037272279
 40
0.5661279892
 40
0.628413143
 40
0.6905875706
 40
0.7526565956
 40
0.8146259895
 40
0.876501916
 40
0.9382909433
 40
1.0
 40
1.0
 40
1.0
 40
1.0
 10
10.5722427494
 20
9.1747070251
 30
0.0
 10
10.5722427494
 20
9.1575179925
 30
0.0
 10
10.5711785956
 20
9.1232038797
 30
0.0
 10
10.5663713969
 20
9.0720488682
 30
0.0
 10
10.5583754762
 20
9.0215103314
 30
0.0
 10
10.5490697603
 20
8.9800281162
 30
0.0
 10
10.5400655204
 20
8.9473552972
 30
0.0
 10
10.5325461855
 20
8.9231470757
 30
0.0
 10
10.5242622506
 20
8.8992375847
 30
0.0
 10
10.5152214101
 20
8.8756496675
 30
0.0
 10
10.5054326607
 20
8.8524061239
 30
0.0
 10
10.494905163
 20
8.8295293967
 30
0.0
 10
10.4836494655
 20
8.8070418086
 30
0.0
 10
10.4756620157
 20
8.7923143196
 30
0.0
 10
10.4715510026
 20
8.7850236856
 30
0.0
  0
SPLINE
  5
404
100
AcDbEntity
  8
0
100
AcDbSpline
 62
7
  6
CONTINUOUS
 70
0
 71
3
 72
60
 73
56
 74
0
 42
0.0000001
 43
0.0000001
 44
0.0000000001
 40
0.0
 40
0.0
 40
0.0
 40
0.0
 40
0.0417737215
 40
0.0840362954
 40
0.1266575307
 40
0.1695051874
 40
0.2124464681
 40
0.2553480875
 40
0.2980769527
 40
0.3405006415
 40
0.3824879411
 40
0.4239093736
 40
0.4646377307
 40
0.5045486136
 40
0.543520985
 40
0.5814377367
 40
0.599965091
 40
0.6181867239
 40
0.6360893624
 40
0.6536601077
 40
0.6708864507
 40
0.6877562714
 40
0.7042579206
 40
0.7203801597
 40
0.7361123056
 40
0.7514441249
 40
0.7663660213
 40
0.7808689196
 40
0.7949444585
 40
0.8085849095
 40
0.8217833396
 40
0.8345336065
 40
0.8468304684
 40
0.8586696849
 40
0.8700480724
 40
0.8809637257
 40
0.8914160437
 40
0.9014060712
 40
0.9109365509
 40
0.9200123738
 40
0.9286407389
 40
0.9368317014
 40
0.9445985263
 40
0.9519583321
 40
0.9589326812
 40
0.9655482848
 40
0.9718377328
 40
0.9778400566
 40
0.9836011837
 40
0.9864084827
 40
0.9891757961
 40
0.9919106627
 40
0.9946209124
 40
0.9973146132
 40
1.0
 40
1.0
 40
1.0
 40
1.0
 10
14.2668603065
 20
9.6044337532
 30
0.0
 10
14.2668603065
 20
9.6266342775
 30
0.0
 10
14.2672066572
 20
9.6712958233
 30
0.0
 10
14.2687378202
 20
9.738592524
 30
0.0
 10
14.2712791656
 20
9.8064299023
 30
0.0
 10
14.2748223731
 20
9.8745834387
 30
0.0
 10
14.279355727
 20
9.9428276162
 30
0.0
 10
14.2848642455
 20
10.0109366761
 30
0.0
 10
14.2913296797
 20
10.0786852804
 30
0.0
 10
14.2987305971
 20
10.1458493019
 30
0.0
 10
14.307042443
 20
10.2122065564
 30
0.0
 10
14.3162376234
 20
10.2775375528
 30
0.0
 10
14.3262855964
 20
10.3416262037
 30
0.0
 10
14.3371529611
 20
10.4042606291
 30
0.0
 10
14.3488036045
 20
10.465233577
 30
0.0
 10
14.3592111956
 20
10.5148661061
 30
0.0
 10
14.3679115316
 20
10.5535819855
 30
0.0
 10
14.3745576878
 20
10.5818563145
 30
0.0
 10
14.3813693581
 20
10.6095679867
 30
0.0
 10
14.3883409149
 20
10.6366941046
 30
0.0
 10
14.3954665575
 20
10.6632122297
 30
0.0
 10
14.4027404131
 20
10.6891004346
 30
0.0
 10
14.4101563949
 20
10.7143373203
 30
0.0
 10
14.4177084256
 20
10.738902021
 30
0.0
 10
14.4253901552
 20
10.7627742463
 30
0.0
 10
14.4331953101
 20
10.7859342647
 30
0.0
 10
14.4411173187
 20
10.8083629638
 30
0.0
 10
14.4491497086
 20
10.8300418172
 30
0.0
 10
14.4572857368
 20
10.8509529548
 30
0.0
 10
14.4655187307
 20
10.8710791258
 30
0.0
 10
14.4738418252
 20
10.8904037621
 30
0.0
 10
14.4822481553
 20
10.9089109588
 30
0.0
 10
14.4907307798
 20
10.9265855052
 30
0.0
 10
14.4992826636
 20
10.9434129117
 30
0.0
 10
14.5078968317
 20
10.9593793785
 30
0.0
 10
14.5165661238
 20
10.9744718964
 30
0.0
 10
14.5252835729
 20
10.9886781279
 30
0.0
 10
14.5340419706
 20
11.0019865985
 30
0.0
 10
14.5428344064
 20
11.0143864809
 30
0.0
 10
14.5516537471
 20
11.0258678599
 30
0.0
 10
14.5604932111
 20
11.036421446
 30
0.0
 10
14.5693459111
 20
11.0460388415
 30
0.0
 10
14.5782053118
 20
11.0547122457
 30
0.0
 10
14.587064955
 20
11.0624345919
 30
0.0
 10
14.5959186814
 20
11.0691993331
 30
0.0
 10
14.6047604594
 20
11.0750002738
 30
0.0
 10
14.613584545
 20
11.0798316178
 30
0.0
 10
14.6223841547
 20
11.0836872776
 30
0.0
 10
14.6297561835
 20
11.0861034908
 30
0.0
 10
14.6356126774
 20
11.0875259153
 30
0.0
 10
14.6399557034
 20
11.0883379201
 30
0.0
 10
14.6442855656
 20
11.0889038093
 30
0.0
 10
14.6486014385
 20
11.0892234032
 30
0.0
 10
14.6529021015
 20
11.0892965202
 30
0.0
 10
14.6557603295
 20
11.0891808745
 30
0.0
 10
14.6571840508
 20
11.0890821362
 30
0.0
  0
SPLINE
  5
405
100
AcDbEntity
  8
0
100
AcDbSpline
 62
7
  6
CONTINUOUS
 70
0
 71
3
 72
60
 73
56
 74
0
 42
0.0000001
 43
0.0000001
 44
0.0000000001
 40
0.0
 40
0.0
 40
0.0
 40
0.0
 40
0.0417737215
 40
0.0840362954
 40
0.1266575307
 40
0.1695051874
 40
0.2124464681
 40
0.2553480875
 40
0.2980769527
 40
0.3405006415
 40
0.3824879411
 40
0.4239093736
 40
0.4646377307
 40
0.5045486136
 40
0.543520985
 40
0.5814377367
 40
0.599965091
 40
0.6181867239
 40
0.6360893624
 40
0.6536601077
 40
0.6708864507
 40
0.6877562714
 40
0.7042579206
 40
0.7203801597
 40
0.7361123056
 40
0.7514441249
 40
0.7663660213
 40
0.7808689196
 40
0.7949444585
 40
0.8085849095
 40
0.8217833396
 40
0.8345336065
 40
0.8468304684
 40
0.8586696849
 40
0.8700480724
 40
0.8809637257
 40
0.8914160437
 40
0.9014060712
 40
0.9109365509
 40
0.9200123738
 40
0.9286407389
 40
0.9368317014
 40
0.9445985263
 40
0.9519583321
 40
0.9589326812
 40
0.9655482848
 40
0.9718377328
 40
0.9778400566
 40
0.9836011837
 40
0.9864084827
 40
0.9891757961
 40
0.9919106627
 40
0.9946209124
 40
0.9973146132
 40
1.0
 40
1.0
 40
1.0
 40
1.0
 10
14.2668603065
 20
6.7066561026
 30
0.0
 10
14.2668603065
 20
6.7288566269
 30
0.0
 10
14.2672066572
 20
6.7735181727
 30
0.0
 10
14.2687378202
 20
6.8408148735
 30
0.0
 10
14.2712791656
 20
6.9086522517
 30
0.0
 10
14.2748223731
 20
6.9768057881
 30
0.0
 10
14.279355727
 20
7.0450499657
 30
0.0
 10
14.2848642455
 20
7.1131590255
 30
0.0
 10
14.2913296797
 20
7.1809076298
 30
0.0
 10
14.2987305971
 20
7.2480716513
 30
0.0
 10
14.307042443
 20
7.3144289058
 30
0.0
 10
14.3162376234
 20
7.3797599022
 30
0.0
 10
14.3262855964
 20
7.4438485531
 30
0.0
 10
14.3371529611
 20
7.5064829785
 30
0.0
 10
14.3488036045
 20
7.5674559264
 30
0.0
 10
14.3592111956
 20
7.6170884555
 30
0.0
 10
14.3679115316
 20
7.6558043349
 30
0.0
 10
14.3745576878
 20
7.6840786639
 30
0.0
 10
14.3813693581
 20
7.7117903361
 30
0.0
 10
14.3883409149
 20
7.738916454
 30
0.0
 10
14.3954665575
 20
7.7654345792
 30
0.0
 10
14.4027404131
 20
7.7913227841
 30
0.0
 10
14.4101563949
 20
7.8165596698
 30
0.0
 10
14.4177084256
 20
7.8411243704
 30
0.0
 10
14.4253901552
 20
7.8649965958
 30
0.0
 10
14.4331953101
 20
7.8881566141
 30
0.0
 10
14.4411173187
 20
7.9105853132
 30
0.0
 10
14.4491497086
 20
7.9322641666
 30
0.0
 10
14.4572857368
 20
7.9531753042
 30
0.0
 10
14.4655187307
 20
7.9733014753
 30
0.0
 10
14.4738418252
 20
7.9926261116
 30
0.0
 10
14.4822481553
 20
8.0111333082
 30
0.0
 10
14.4907307798
 20
8.0288078546
 30
0.0
 10
14.4992826636
 20
8.0456352611
 30
0.0
 10
14.5078968317
 20
8.0616017279
 30
0.0
 10
14.5165661238
 20
8.0766942458
 30
0.0
 10
14.5252835729
 20
8.0909004774
 30
0.0
 10
14.5340419706
 20
8.104208948
 30
0.0
 10
14.5428344064
 20
8.1166088303
 30
0.0
 10
14.5516537471
 20
8.1280902094
 30
0.0
 10
14.5604932111
 20
8.1386437954
 30
0.0
 10
14.5693459111
 20
8.1482611909
 30
0.0
 10
14.5782053118
 20
8.1569345952
 30
0.0
 10
14.587064955
 20
8.1646569413
 30
0.0
 10
14.5959186814
 20
8.1714216825
 30
0.0
 10
14.6047604594
 20
8.1772226233
 30
0.0
 10
14.613584545
 20
8.1820539673
 30
0.0
 10
14.6223841547
 20
8.185909627
 30
0.0
 10
14.6297561835
 20
8.1883258402
 30
0.0
 10
14.6356126774
 20
8.1897482647
 30
0.0
 10
14.6399557034
 20
8.1905602695
 30
0.0
 10
14.6442855656
 20
8.1911261587
 30
0.0
 10
14.6486014385
 20
8.1914457526
 30
0.0
 10
14.6529021015
 20
8.1915188696
 30
0.0
 10
14.6557603295
 20
8.1914032239
 30
0.0
 10
14.6571840508
 20
8.1913044856
 30
0.0
  0
SPLINE
  5
406
100
AcDbEntity
  8
0
100
AcDbSpline
 62
7
  6
CONTINUOUS
 70
0
 71
3
 72
59
 73
55
 74
0
 42
0.0000001
 43
0.0000001
 44
0.0000000001
 40
0.0
 40
0.0
 40
0.0
 40
0.0
 40
0.0417736067
 40
0.0840362449
 40
0.1266573936
 40
0.169505022
 40
0.2124462578
 40
0.2553478387
 40
0.2980766664
 40
0.3405003207
 40
0.3824875887
 40
0.4239089935
 40
0.4646373274
 40
0.5045481926
 40
0.5435205532
 40
0.5814373017
 40
0.61818585
 40
0.6360884854
 40
0.6536592458
 40
0.6708855851
 40
0.6877554289
 40
0.7042570743
 40
0.7203793439
 40
0.7361114876
 40
0.7514433427
 40
0.7663652415
 40
0.7808681782
 40
0.7949437266
 40
0.8085842159
 40
0.8217826643
 40
0.8345329677
 40
0.8468298573
 40
0.858669108
 40
0.8700475322
 40
0.8809632182
 40
0.8914155794
 40
0.9014056404
 40
0.9109361662
 40
0.9200120257
 40
0.9286404358
 40
0.9368314387
 40
0.9445983041
 40
0.951958153
 40
0.9589325359
 40
0.9655481815
 40
0.9718376552
 40
0.9778400137
 40
0.9836011573
 40
0.9864084708
 40
0.9891757905
 40
0.9919106587
 40
0.9946209116
 40
0.997314615
 40
1.0
 40
1.0
 40
1.0
 40
1.0
 10
13.7326582195
 20
7.639545305
 30
0.0
 10
13.7326582195
 20
7.6559624349
 30
0.0
 10
13.7329143457
 20
7.6889894014
 30
0.0
 10
13.7340466219
 20
7.7387549164
 30
0.0
 10
13.7359259331
 20
7.7889202933
 30
0.0
 10
13.7385461045
 20
7.8393194252
 30
0.0
 10
13.7418984873
 20
7.8897856047
 30
0.0
 10
13.7459719956
 20
7.9401518621
 30
0.0
 10
13.7507531375
 20
7.9902515688
 30
0.0
 10
13.7562260628
 20
8.0399189823
 30
0.0
 10
13.7623726136
 20
8.0889898006
 30
0.0
 10
13.7691723847
 20
8.1373017084
 30
0.0
 10
13.7766027886
 20
8.1846949244
 30
0.0
 10
13.784639132
 20
8.2310127174
 30
0.0
 10
13.7932546857
 20
8.2761020016
 30
0.0
 10
13.802420808
 20
8.3198136053
 30
0.0
 10
13.8105616883
 20
8.3552731149
 30
0.0
 10
13.8173368395
 20
8.3828364879
 30
0.0
 10
13.822492254
 20
8.4028961352
 30
0.0
 10
13.8277616365
 20
8.422506163
 30
0.0
 10
13.8331405774
 20
8.4416503772
 30
0.0
 10
13.8386246751
 20
8.4603129412
 30
0.0
 10
13.844209318
 20
8.4784784367
 30
0.0
 10
13.8498899396
 20
8.4961318457
 30
0.0
 10
13.8556617645
 20
8.5132585927
 30
0.0
 10
13.861520071
 20
8.5298445262
 30
0.0
 10
13.8674599381
 20
8.5458759658
 30
0.0
 10
13.8734765061
 20
8.5613396758
 30
0.0
 10
13.8795647265
 20
8.5762229201
 30
0.0
 10
13.8857196207
 20
8.5905134269
 30
0.0
 10
13.8919360332
 20
8.6041994522
 30
0.0
 10
13.8982088885
 20
8.6172697338
 30
0.0
 10
13.9045329493
 20
8.6297135658
 30
0.0
 10
13.9109030702
 20
8.6415207402
 30
0.0
 10
13.9173139644
 20
8.6526816332
 30
0.0
 10
13.9237604539
 20
8.6631871321
 30
0.0
 10
13.9302372475
 20
8.6730287342
 30
0.0
 10
13.9367391881
 20
8.6821984551
 30
0.0
 10
13.9432610481
 20
8.6906889381
 30
0.0
 10
13.9497977718
 20
8.6984933362
 30
0.0
 10
13.956344294
 20
8.7056054231
 30
0.0
 10
13.962895772
 20
8.7120194343
 30
0.0
 10
13.9694474185
 20
8.717730158
 30
0.0
 10
13.9759947127
 20
8.7227327138
 30
0.0
 10
13.9825331392
 20
8.7270225903
 30
0.0
 10
13.9890585226
 20
8.7305953941
 30
0.0
 10
13.9955657628
 20
8.7334467744
 30
0.0
 10
14.0010173606
 20
8.7352335705
 30
0.0
 10
14.0053481947
 20
8.7362855604
 30
0.0
 10
14.0085598425
 20
8.7368860756
 30
0.0
 10
14.0117617554
 20
8.7373045671
 30
0.0
 10
14.0149533201
 20
8.7375409503
 30
0.0
 10
14.0181336385
 20
8.7375951163
 30
0.0
 10
14.0202472857
 20
8.7375096192
 30
0.0
 10
14.0213001203
 20
8.7374366111
 30
0.0
  0
SPLINE
  5
407
100
AcDbEntity
  8
0
100
AcDbSpline
 62
7
  6
CONTINUOUS
 70
0
 71
3
 72
39
 73
35
 74
0
 42
0.0000001
 43
0.0000001
 44
0.0000000001
 40
0.0
 40
0.0
 40
0.0
 40
0.0
 40
0.0958313223
 40
0.1890999066
 40
0.2792396479
 40
0.3229663115
 40
0.3657099292
 40
0.4074081191
 40
0.4480006754
 40
0.4874302648
 40
0.5256424385
 40
0.5625857699
 40
0.5982125807
 40
0.6324786396
 40
0.665344311
 40
0.6967743203
 40
0.7267388303
 40
0.7552139511
 40
0.7821824427
 40
0.807635341
 40
0.8315726205
 40
0.8540058864
 40
0.8749600023
 40
0.8944766962
 40
0.9126183481
 40
0.9294727137
 40
0.94515911
 40
0.9598336921
 40
0.9668557838
 40
0.973702854
 40
0.9804062715
 40
0.9869997015
 40
0.9935186515
 40
1.0
 40
1.0
 40
1.0
 40
1.0
 10
8.8370125132
 20
12.0584920513
 30
0.0
 10
8.8280526962
 20
12.0591134167
 30
0.0
 10
8.8103855637
 20
12.0605365837
 30
0.0
 10
8.7843541595
 20
12.0632532604
 30
0.0
 10
8.7632413494
 20
12.0659931482
 30
0.0
 10
8.7468737313
 20
12.0684594883
 30
0.0
 10
8.7350219636
 20
12.0704174938
 30
0.0
 10
8.7234896117
 20
12.0724990439
 30
0.0
 10
8.7122959252
 20
12.0747007153
 30
0.0
 10
8.7014596001
 20
12.0770187746
 30
0.0
 10
8.6909987182
 20
12.0794493143
 30
0.0
 10
8.6809307298
 20
12.0819882915
 30
0.0
 10
8.6712724085
 20
12.0846313649
 30
0.0
 10
8.6620398416
 20
12.0873741766
 30
0.0
 10
8.6532483673
 20
12.0902120379
 30
0.0
 10
8.6449125803
 20
12.0931402458
 30
0.0
 10
8.6370462742
 20
12.0961538753
 30
0.0
 10
8.6296624169
 20
12.0992478761
 30
0.0
 10
8.6227731499
 20
12.1024171797
 30
0.0
 10
8.6163896843
 20
12.1056564753
 30
0.0
 10
8.6105223942
 20
12.1089606222
 30
0.0
 10
8.6051806444
 20
12.1123242748
 30
0.0
 10
8.6003729402
 20
12.1157423399
 30
0.0
 10
8.596106846
 20
12.1192098326
 30
0.0
 10
8.5923891142
 20
12.1227219791
 30
0.0
 10
8.5892259375
 20
12.1262747585
 30
0.0
 10
8.5866233421
 20
12.1298635446
 30
0.0
 10
8.5849019216
 20
12.1329264078
 30
0.0
 10
8.5838287818
 20
12.1353788234
 30
0.0
 10
8.5831790609
 20
12.1371958761
 30
0.0
 10
8.5826732511
 20
12.1390165132
 30
0.0
 10
8.5823116277
 20
12.1408399757
 30
0.0
 10
8.5820945114
 20
12.1426652159
 30
0.0
 10
8.5820462149
 20
12.1438841515
 30
0.0
 10
8.5820462096
 20
12.1444915852
 30
0.0
  0
SPLINE
  5
408
100
AcDbEntity
  8
0
100
AcDbSpline
 62
7
  6
CONTINUOUS
 70
0
 71
3
 72
39
 73
35
 74
0
 42
0.0000001
 43
0.0000001
 44
0.0000000001
 40
0.0
 40
0.0
 40
0.0
 40
0.0
 40
0.0958313223
 40
0.1890999066
 40
0.2792396479
 40
0.3229663115
 40
0.3657099292
 40
0.4074081191
 40
0.4480006754
 40
0.4874302648
 40
0.5256424385
 40
0.5625857699
 40
0.5982125807
 40
0.6324786396
 40
0.665344311
 40
0.6967743203
 40
0.7267388303
 40
0.7552139511
 40
0.7821824427
 40
0.807635341
 40
0.8315726205
 40
0.8540058864
 40
0.8749600023
 40
0.8944766962
 40
0.9126183481
 40
0.9294727137
 40
0.94515911
 40
0.9598336921
 40
0.9668557838
 40
0.973702854
 40
0.9804062715
 40
0.9869997015
 40
0.9935186515
 40
1.0
 40
1.0
 40
1.0
 40
1.0
 10
14.1496048725
 20
11.6900625198
 30
0.0
 10
14.1406450556
 20
11.6906838852
 30
0.0
 10
14.1229779231
 20
11.6921070522
 30
0.0
 10
14.0969465188
 20
11.6948237289
 30
0.0
 10
14.0758337087
 20
11.6975636168
 30
0.0
 10
14.0594660907
 20
11.7000299569
 30
0.0
 10
14.047614323
 20
11.7019879623
 30
0.0
 10
14.036081971
 20
11.7040695124
 30
0.0
 10
14.0248882846
 20
11.7062711839
 30
0.0
 10
14.0140519594
 20
11.7085892432
 30
0.0
 10
14.0035910775
 20
11.7110197829
 30
0.0
 10
13.9935230892
 20
11.71355876
 30
0.0
 10
13.9838647679
 20
11.7162018334
 30
0.0
 10
13.9746322009
 20
11.7189446452
 30
0.0
 10
13.9658407266
 20
11.7217825064
 30
0.0
 10
13.9575049397
 20
11.7247107143
 30
0.0
 10
13.9496386336
 20
11.7277243438
 30
0.0
 10
13.9422547762
 20
11.7308183446
 30
0.0
 10
13.9353655093
 20
11.7339876482
 30
0.0
 10
13.9289820436
 20
11.7372269438
 30
0.0
 10
13.9231147535
 20
11.7405310908
 30
0.0
 10
13.9177730038
 20
11.7438947433
 30
0.0
 10
13.9129652996
 20
11.7473128084
 30
0.0
 10
13.9086992054
 20
11.7507803011
 30
0.0
 10
13.9049814736
 20
11.7542924476
 30
0.0
 10
13.9018182969
 20
11.757845227
 30
0.0
 10
13.8992157015
 20
11.7614340132
 30
0.0
 10
13.897494281
 20
11.7644968763
 30
0.0
 10
13.8964211411
 20
11.7669492919
 30
0.0
 10
13.8957714203
 20
11.7687663446
 30
0.0
 10
13.8952656104
 20
11.7705869817
 30
0.0
 10
13.8949039871
 20
11.7724104442
 30
0.0
 10
13.8946868708
 20
11.7742356844
 30
0.0
 10
13.8946385743
 20
11.77545462
 30
0.0
 10
13.894638569
 20
11.7760620537
 30
0.0
  0
SPLINE
  5
409
100
AcDbEntity
  8
0
100
AcDbSpline
 62
7
  6
CONTINUOUS
 70
0
 71
3
 72
32
 73
28
 74
0
 42
0.0000001
 43
0.0000001
 44
0.0000000001
 40
0.0
 40
0.0
 40
0.0
 40
0.0
 40
0.0845014063
 40
0.1673014662
 40
0.2480798822
 40
0.3265304968
 40
0.4023578861
 40
0.4752823003
 40
0.5450407274
 40
0.5786567348
 40
0.6113916372
 40
0.6432187565
 40
0.6741126523
 40
0.7040499778
 40
0.7330089936
 40
0.7609702381
 40
0.787916384
 40
0.8138326241
 40
0.8387069867
 40
0.8625304198
 40
0.8852976267
 40
0.9070069313
 40
0.9276616359
 40
0.9472698719
 40
0.9658464314
 40
0.9834129233
 40
1.0
 40
1.0
 40
1.0
 40
1.0
 10
11.0763002993
 20
10.8474780121
 30
0.0
 10
11.06781307
 20
10.8480666034
 30
0.0
 10
11.0510193902
 20
10.849380906
 30
0.0
 10
11.0261577775
 20
10.8517908752
 30
0.0
 10
11.0019524407
 20
10.8546117079
 30
0.0
 10
10.9785052061
 20
10.857831357
 30
0.0
 10
10.95591427
 20
10.8614361701
 30
0.0
 10
10.9342745306
 20
10.8654108105
 30
0.0
 10
10.9169016376
 20
10.8690606231
 30
0.0
 10
10.9035533354
 20
10.8721622885
 30
0.0
 10
10.8939589698
 20
10.8745415195
 30
0.0
 10
10.8846677546
 20
10.8769998101
 30
0.0
 10
10.8756894255
 20
10.8795346785
 30
0.0
 10
10.8670333889
 20
10.8821433695
 30
0.0
 10
10.8587087133
 20
10.8848231935
 30
0.0
 10
10.8507241047
 20
10.8875712887
 30
0.0
 10
10.8430879064
 20
10.890384777
 30
0.0
 10
10.8358080896
 20
10.8932607135
 30
0.0
 10
10.8288922242
 20
10.8961960424
 30
0.0
 10
10.8223475126
 20
10.8991877617
 30
0.0
 10
10.8161807041
 20
10.9022326639
 30
0.0
 10
10.8103982018
 20
10.9053277153
 30
0.0
 10
10.8050058886
 20
10.9084696117
 30
0.0
 10
10.800009356
 20
10.9116553051
 30
0.0
 10
10.7954135493
 20
10.9148815338
 30
0.0
 10
10.7912234167
 20
10.9181451117
 30
0.0
 10
10.78863043
 20
10.9204071465
 30
0.0
 10
10.7874079183
 20
10.9215448326
 30
0.0
  0
SPLINE
  5
40A
100
AcDbEntity
  8
0
100
AcDbSpline
 62
7
  6
CONTINUOUS
 70
0
 71
3
 72
23
 73
19
 74
0
 42
0.0000001
 43
0.0000001
 44
0.0000000001
 40
0.0
 40
0.0
 40
0.0
 40
0.0
 40
0.0620139163
 40
0.1240459014
 40
0.1861068922
 40
0.2482076635
 40
0.3103587921
 40
0.372570576
 40
0.4348529956
 40
0.4972156669
 40
0.5596677681
 40
0.6222180262
 40
0.6848746489
 40
0.747645288
 40
0.8105370247
 40
0.8735562978
 40
0.9367089134
 40
1.0
 40
1.0
 40
1.0
 40
1.0
 10
11.3286090301
 20
6.8153053765
 30
0.0
 10
11.3354335976
 20
6.8215928552
 30
0.0
 10
11.3493197343
 20
6.8339172767
 30
0.0
 10
11.3708239084
 20
6.8516208331
 30
0.0
 10
11.3929805684
 20
6.8685227181
 30
0.0
 10
11.4157626103
 20
6.8846024288
 30
0.0
 10
11.4391428006
 20
6.8998407017
 30
0.0
 10
11.4630930575
 20
6.9142191492
 30
0.0
 10
11.4875845298
 20
6.927720659
 30
0.0
 10
11.5125878836
 20
6.9403288532
 30
0.0
 10
11.5380730169
 20
6.9520287152
 30
0.0
 10
11.5640093248
 20
6.9628061932
 30
0.0
 10
11.5903656851
 20
6.9726482519
 30
0.0
 10
11.6171103843
 20
6.9815432576
 30
0.0
 10
11.6442113209
 20
6.9894803685
 30
0.0
 10
11.6716360357
 20
6.9964501808
 30
0.0
 10
11.6993511238
 20
7.0024442964
 30
0.0
 10
11.717979584
 20
7.0057814735
 30
0.0
 10
11.7273298688
 20
7.0072856477
 30
0.0
  0
SPLINE
  5
40B
100
AcDbEntity
  8
0
100
AcDbSpline
 62
7
  6
CONTINUOUS
 70
0
 71
3
 72
43
 73
39
 74
0
 42
0.0000001
 43
0.0000001
 44
0.0000000001
 40
0.0
 40
0.0
 40
0.0
 40
0.0
 40
0.0151441571
 40
0.0303165622
 40
0.0455177125
 40
0.0607480204
 40
0.0912942078
 40
0.1219595929
 40
0.1373384977
 40
0.1527470289
 40
0.1681849341
 40
0.1836518767
 40
0.2146681459
 40
0.2457943124
 40
0.2770245715
 40
0.3083518709
 40
0.3397680061
 40
0.371263727
 40
0.402828854
 40
0.4344524024
 40
0.466122714
 40
0.4978275937
 40
0.5295544516
 40
0.5612904468
 40
0.5930226344
 40
0.624738113
 40
0.6564241714
 40
0.6880684347
 40
0.7196590064
 40
0.7511846081
 40
0.7826347131
 40
0.8139996733
 40
0.845270841
 40
0.8764406733
 40
0.9075028514
 40
0.9384523148
 40
0.9692854713
 40
1.0
 40
1.0
 40
1.0
 40
1.0
 10
11.7273298688
 20
7.0072856477
 30
0.0
 10
11.7349223148
 20
7.0085070396
 30
0.0
 10
11.750157544
 20
7.0107330267
 30
0.0
 10
11.7731176656
 20
7.0134167822
 30
0.0
 10
11.7961890765
 20
7.0154466736
 30
0.0
 10
11.8271020916
 20
7.0172805718
 30
0.0
 10
11.8659353082
 20
7.0179266572
 30
0.0
 10
11.9048182379
 20
7.0163816535
 30
0.0
 10
11.935922947
 20
7.0138380795
 30
0.0
 10
11.9592584212
 20
7.0112740358
 30
0.0
 10
11.9825580928
 20
7.0080577851
 30
0.0
 10
12.0135782591
 20
7.002898704
 30
0.0
 10
12.0521744218
 20
6.9948281807
 30
0.0
 10
12.0980070221
 20
6.9825967766
 30
0.0
 10
12.1432591956
 20
6.9678477743
 30
0.0
 10
12.1877874617
 20
6.9506279033
 30
0.0
 10
12.2314518371
 20
6.9309914974
 30
0.0
 10
12.2741147453
 20
6.9090005268
 30
0.0
 10
12.315641858
 20
6.884724348
 30
0.0
 10
12.3559024043
 20
6.8582395
 30
0.0
 10
12.3947696089
 20
6.8296294598
 30
0.0
 10
12.4321210806
 20
6.7989843816
 30
0.0
 10
12.4678391975
 20
6.7664008133
 30
0.0
 10
12.5018114742
 20
6.7319813946
 30
0.0
 10
12.5339309141
 20
6.6958345349
 30
0.0
 10
12.5640963444
 20
6.6580740741
 30
0.0
 10
12.5922127331
 20
6.6188189262
 30
0.0
 10
12.6181914866
 20
6.5781927068
 30
0.0
 10
12.6419507277
 20
6.5363233469
 30
0.0
 10
12.6634155528
 20
6.4933426924
 30
0.0
 10
12.6825182662
 20
6.4493860928
 30
0.0
 10
12.6991985957
 20
6.4045919739
 30
0.0
 10
12.7134038766
 20
6.3591014224
 30
0.0
 10
12.7250892327
 20
6.3130576796
 30
0.0
 10
12.7342176877
 20
6.2666059367
 30
0.0
 10
12.7407603444
 20
6.2198919931
 30
0.0
 10
12.7446963807
 20
6.1730650214
 30
0.0
 10
12.7455759874
 20
6.1418047518
 30
0.0
 10
12.7455759874
 20
6.1262082026
 30
0.0
  0
SPLINE
  5
40C
100
AcDbEntity
  8
0
100
AcDbSpline
 62
7
  6
CONTINUOUS
 70
0
 71
3
 72
23
 73
19
 74
0
 42
0.0000001
 43
0.0000001
 44
0.0000000001
 40
0.0
 40
0.0
 40
0.0
 40
0.0
 40
0.0620139835
 40
0.1240460022
 40
0.1861069985
 40
0.2482077526
 40
0.3103588472
 40
0.3725705853
 40
0.434852953
 40
0.4972155716
 40
0.5596676242
 40
0.6222178428
 40
0.6848744396
 40
0.7476450707
 40
0.810536821
 40
0.873556133
 40
0.9367088156
 40
1.0
 40
1.0
 40
1.0
 40
1.0
 10
9.1552009021
 20
6.9659575428
 30
0.0
 10
9.1620261704
 20
6.9722473816
 30
0.0
 10
9.1759138472
 20
6.984576438
 30
0.0
 10
9.1974207344
 20
7.0022866679
 30
0.0
 10
9.2195804902
 20
7.0191949261
 30
0.0
 10
9.2423659938
 20
7.0352806935
 30
0.0
 10
9.2657499962
 20
7.0505246889
 30
0.0
 10
9.2897043969
 20
7.064908511
 30
0.0
 10
9.3142003273
 20
7.0784150323
 30
0.0
 10
9.3392084345
 20
7.0910278613
 30
0.0
 10
9.364698597
 20
7.1027319699
 30
0.0
 10
9.3906401901
 20
7.1135132935
 30
0.0
 10
9.4170020706
 20
7.1233587872
 30
0.0
 10
9.443752504
 20
7.1322568075
 30
0.0
 10
9.4708593674
 20
7.1401965039
 30
0.0
 10
9.4982901793
 20
7.1471684656
 30
0.0
 10
9.5260115125
 20
7.1531642876
 30
0.0
 10
9.5446442109
 20
7.156502302
 30
0.0
 10
9.5539966309
 20
7.1580068197
 30
0.0
  0
SPLINE
  5
40D
100
AcDbEntity
  8
0
100
AcDbSpline
 62
7
  6
CONTINUOUS
 70
0
 71
3
 72
43
 73
39
 74
0
 42
0.0000001
 43
0.0000001
 44
0.0000000001
 40
0.0
 40
0.0
 40
0.0
 40
0.0
 40
0.0151441571
 40
0.0303165622
 40
0.0455177125
 40
0.0607480204
 40
0.0912942078
 40
0.1219595929
 40
0.1373384977
 40
0.1527470289
 40
0.1681849341
 40
0.1836518767
 40
0.2146681459
 40
0.2457943124
 40
0.2770245715
 40
0.3083518709
 40
0.3397680061
 40
0.371263727
 40
0.402828854
 40
0.4344524024
 40
0.466122714
 40
0.4978275937
 40
0.5295544516
 40
0.5612904468
 40
0.5930226344
 40
0.624738113
 40
0.6564241714
 40
0.6880684347
 40
0.7196590064
 40
0.7511846081
 40
0.7826347131
 40
0.8139996733
 40
0.845270841
 40
0.8764406733
 40
0.9075028514
 40
0.9384523148
 40
0.9692854713
 40
1.0
 40
1.0
 40
1.0
 40
1.0
 10
9.5539966309
 20
7.1580068197
 30
0.0
 10
9.5615890768
 20
7.1592282115
 30
0.0
 10
9.5768243061
 20
7.1614541986
 30
0.0
 10
9.5997844277
 20
7.1641379541
 30
0.0
 10
9.6228558386
 20
7.1661678456
 30
0.0
 10
9.6537688536
 20
7.1680017438
 30
0.0
 10
9.6926020703
 20
7.1686478292
 30
0.0
 10
9.731485
 20
7.1671028255
 30
0.0
 10
9.7625897091
 20
7.1645592515
 30
0.0
 10
9.7859251833
 20
7.1619952078
 30
0.0
 10
9.8092248549
 20
7.1587789571
 30
0.0
 10
9.8402450211
 20
7.1536198759
 30
0.0
 10
9.8788411839
 20
7.1455493527
 30
0.0
 10
9.9246737842
 20
7.1333179486
 30
0.0
 10
9.9699259576
 20
7.1185689463
 30
0.0
 10
10.0144542238
 20
7.1013490753
 30
0.0
 10
10.0581185992
 20
7.0817126693
 30
0.0
 10
10.1007815074
 20
7.0597216987
 30
0.0
 10
10.1423086201
 20
7.03544552
 30
0.0
 10
10.1825691664
 20
7.008960672
 30
0.0
 10
10.221436371
 20
6.9803506318
 30
0.0
 10
10.2587878427
 20
6.9497055535
 30
0.0
 10
10.2945059596
 20
6.9171219852
 30
0.0
 10
10.3284782363
 20
6.8827025665
 30
0.0
 10
10.3605976762
 20
6.8465557069
 30
0.0
 10
10.3907631065
 20
6.8087952461
 30
0.0
 10
10.4188794952
 20
6.7695400981
 30
0.0
 10
10.4448582487
 20
6.7289138787
 30
0.0
 10
10.4686174898
 20
6.6870445189
 30
0.0
 10
10.4900823149
 20
6.6440638644
 30
0.0
 10
10.5091850283
 20
6.6001072648
 30
0.0
 10
10.5258653578
 20
6.5553131459
 30
0.0
 10
10.5400706387
 20
6.5098225943
 30
0.0
 10
10.5517559948
 20
6.4637788516
 30
0.0
 10
10.5608844498
 20
6.4173271086
 30
0.0
 10
10.5674271065
 20
6.3706131651
 30
0.0
 10
10.5713631428
 20
6.3237861934
 30
0.0
 10
10.5722427494
 20
6.2925259238
 30
0.0
 10
10.5722427494
 20
6.2769293745
 30
0.0
  0
SPLINE
  5
40E
100
AcDbEntity
  8
0
100
AcDbSpline
 62
7
  6
CONTINUOUS
 70
0
 71
3
 72
23
 73
19
 74
0
 42
0.0000001
 43
0.0000001
 44
0.0000000001
 40
0.0
 40
0.0
 40
0.0
 40
0.0
 40
0.0620139163
 40
0.1240459014
 40
0.1861068922
 40
0.2482076635
 40
0.3103587921
 40
0.372570576
 40
0.4348529956
 40
0.4972156669
 40
0.5596677681
 40
0.6222180262
 40
0.6848746489
 40
0.747645288
 40
0.8105370247
 40
0.8735562978
 40
0.9367089134
 40
1.0
 40
1.0
 40
1.0
 40
1.0
 10
11.3286090301
 20
9.7130830271
 30
0.0
 10
11.3354335976
 20
9.7193705057
 30
0.0
 10
11.3493197343
 20
9.7316949273
 30
0.0
 10
11.3708239084
 20
9.7493984837
 30
0.0
 10
11.3929805684
 20
9.7663003686
 30
0.0
 10
11.4157626103
 20
9.7823800794
 30
0.0
 10
11.4391428006
 20
9.7976183523
 30
0.0
 10
11.4630930575
 20
9.8119967998
 30
0.0
 10
11.4875845298
 20
9.8254983096
 30
0.0
 10
11.5125878836
 20
9.8381065038
 30
0.0
 10
11.5380730169
 20
9.8498063658
 30
0.0
 10
11.5640093248
 20
9.8605838438
 30
0.0
 10
11.5903656851
 20
9.8704259024
 30
0.0
 10
11.6171103843
 20
9.8793209082
 30
0.0
 10
11.6442113209
 20
9.8872580191
 30
0.0
 10
11.6716360357
 20
9.8942278314
 30
0.0
 10
11.6993511238
 20
9.9002219469
 30
0.0
 10
11.717979584
 20
9.9035591241
 30
0.0
 10
11.7273298688
 20
9.9050632983
 30
0.0
  0
SPLINE
  5
40F
100
AcDbEntity
  8
0
100
AcDbSpline
 62
7
  6
CONTINUOUS
 70
0
 71
3
 72
43
 73
39
 74
0
 42
0.0000001
 43
0.0000001
 44
0.0000000001
 40
0.0
 40
0.0
 40
0.0
 40
0.0
 40
0.0151441571
 40
0.0303165622
 40
0.0455177125
 40
0.0607480204
 40
0.0912942078
 40
0.1219595929
 40
0.1373384977
 40
0.1527470289
 40
0.1681849341
 40
0.1836518767
 40
0.2146681459
 40
0.2457943124
 40
0.2770245715
 40
0.3083518709
 40
0.3397680061
 40
0.371263727
 40
0.402828854
 40
0.4344524024
 40
0.466122714
 40
0.4978275937
 40
0.5295544516
 40
0.5612904468
 40
0.5930226344
 40
0.624738113
 40
0.6564241714
 40
0.6880684347
 40
0.7196590064
 40
0.7511846081
 40
0.7826347131
 40
0.8139996733
 40
0.845270841
 40
0.8764406733
 40
0.9075028514
 40
0.9384523148
 40
0.9692854713
 40
1.0
 40
1.0
 40
1.0
 40
1.0
 10
11.7273298688
 20
9.9050632983
 30
0.0
 10
11.7349223148
 20
9.9062846901
 30
0.0
 10
11.750157544
 20
9.9085106772
 30
0.0
 10
11.7731176656
 20
9.9111944327
 30
0.0
 10
11.7961890765
 20
9.9132243242
 30
0.0
 10
11.8271020916
 20
9.9150582224
 30
0.0
 10
11.8659353082
 20
9.9157043078
 30
0.0
 10
11.9048182379
 20
9.9141593041
 30
0.0
 10
11.935922947
 20
9.9116157301
 30
0.0
 10
11.9592584212
 20
9.9090516864
 30
0.0
 10
11.9825580928
 20
9.9058354357
 30
0.0
 10
12.0135782591
 20
9.9006763545
 30
0.0
 10
12.0521744218
 20
9.8926058313
 30
0.0
 10
12.0980070221
 20
9.8803744272
 30
0.0
 10
12.1432591956
 20
9.8656254249
 30
0.0
 10
12.1877874617
 20
9.8484055539
 30
0.0
 10
12.2314518371
 20
9.8287691479
 30
0.0
 10
12.2741147453
 20
9.8067781773
 30
0.0
 10
12.315641858
 20
9.7825019986
 30
0.0
 10
12.3559024043
 20
9.7560171506
 30
0.0
 10
12.3947696089
 20
9.7274071104
 30
0.0
 10
12.4321210806
 20
9.6967620321
 30
0.0
 10
12.4678391975
 20
9.6641784638
 30
0.0
 10
12.5018114742
 20
9.6297590451
 30
0.0
 10
12.5339309141
 20
9.5936121855
 30
0.0
 10
12.5640963444
 20
9.5558517247
 30
0.0
 10
12.5922127331
 20
9.5165965767
 30
0.0
 10
12.6181914866
 20
9.4759703573
 30
0.0
 10
12.6419507277
 20
9.4341009975
 30
0.0
 10
12.6634155528
 20
9.391120343
 30
0.0
 10
12.6825182662
 20
9.3471637434
 30
0.0
 10
12.6991985957
 20
9.3023696245
 30
0.0
 10
12.7134038766
 20
9.2568790729
 30
0.0
 10
12.7250892327
 20
9.2108353302
 30
0.0
 10
12.7342176877
 20
9.1643835872
 30
0.0
 10
12.7407603444
 20
9.1176696437
 30
0.0
 10
12.7446963807
 20
9.070842672
 30
0.0
 10
12.7455759874
 20
9.0395824024
 30
0.0
 10
12.7455759874
 20
9.0239858531
 30
0.0
  0
SPLINE
  5
410
100
AcDbEntity
  8
0
100
AcDbSpline
 62
7
  6
CONTINUOUS
 70
0
 71
3
 72
23
 73
19
 74
0
 42
0.0000001
 43
0.0000001
 44
0.0000000001
 40
0.0
 40
0.0
 40
0.0
 40
0.0
 40
0.0620139835
 40
0.1240460022
 40
0.1861069985
 40
0.2482077526
 40
0.3103588472
 40
0.3725705853
 40
0.434852953
 40
0.4972155716
 40
0.5596676242
 40
0.6222178428
 40
0.6848744396
 40
0.7476450707
 40
0.810536821
 40
0.873556133
 40
0.9367088156
 40
1.0
 40
1.0
 40
1.0
 40
1.0
 10
9.1552009021
 20
9.8637351933
 30
0.0
 10
9.1620261704
 20
9.8700250322
 30
0.0
 10
9.1759138472
 20
9.8823540885
 30
0.0
 10
9.1974207344
 20
9.9000643185
 30
0.0
 10
9.2195804902
 20
9.9169725766
 30
0.0
 10
9.2423659938
 20
9.9330583441
 30
0.0
 10
9.2657499962
 20
9.9483023394
 30
0.0
 10
9.2897043969
 20
9.9626861616
 30
0.0
 10
9.3142003273
 20
9.9761926828
 30
0.0
 10
9.3392084345
 20
9.9888055119
 30
0.0
 10
9.364698597
 20
10.0005096204
 30
0.0
 10
9.3906401901
 20
10.0112909441
 30
0.0
 10
9.4170020706
 20
10.0211364378
 30
0.0
 10
9.443752504
 20
10.0300344581
 30
0.0
 10
9.4708593674
 20
10.0379741545
 30
0.0
 10
9.4982901793
 20
10.0449461162
 30
0.0
 10
9.5260115125
 20
10.0509419381
 30
0.0
 10
9.5446442109
 20
10.0542799525
 30
0.0
 10
9.5539966309
 20
10.0557844703
 30
0.0
  0
SPLINE
  5
411
100
AcDbEntity
  8
0
100
AcDbSpline
 62
7
  6
CONTINUOUS
 70
0
 71
3
 72
43
 73
39
 74
0
 42
0.0000001
 43
0.0000001
 44
0.0000000001
 40
0.0
 40
0.0
 40
0.0
 40
0.0
 40
0.0151441571
 40
0.0303165622
 40
0.0455177125
 40
0.0607480204
 40
0.0912942078
 40
0.1219595929
 40
0.1373384977
 40
0.1527470289
 40
0.1681849341
 40
0.1836518767
 40
0.2146681459
 40
0.2457943124
 40
0.2770245715
 40
0.3083518709
 40
0.3397680061
 40
0.371263727
 40
0.402828854
 40
0.4344524024
 40
0.466122714
 40
0.4978275937
 40
0.5295544516
 40
0.5612904468
 40
0.5930226344
 40
0.624738113
 40
0.6564241714
 40
0.6880684347
 40
0.7196590064
 40
0.7511846081
 40
0.7826347131
 40
0.8139996733
 40
0.845270841
 40
0.8764406733
 40
0.9075028514
 40
0.9384523148
 40
0.9692854713
 40
1.0
 40
1.0
 40
1.0
 40
1.0
 10
9.5539966309
 20
10.0557844703
 30
0.0
 10
9.5615890768
 20
10.0570058621
 30
0.0
 10
9.5768243061
 20
10.0592318492
 30
0.0
 10
9.5997844277
 20
10.0619156047
 30
0.0
 10
9.6228558386
 20
10.0639454962
 30
0.0
 10
9.6537688536
 20
10.0657793944
 30
0.0
 10
9.6926020703
 20
10.0664254798
 30
0.0
 10
9.731485
 20
10.0648804761
 30
0.0
 10
9.7625897091
 20
10.0623369021
 30
0.0
 10
9.7859251833
 20
10.0597728584
 30
0.0
 10
9.8092248549
 20
10.0565566077
 30
0.0
 10
9.8402450211
 20
10.0513975265
 30
0.0
 10
9.8788411839
 20
10.0433270032
 30
0.0
 10
9.9246737842
 20
10.0310955992
 30
0.0
 10
9.9699259576
 20
10.0163465968
 30
0.0
 10
10.0144542238
 20
9.9991267259
 30
0.0
 10
10.0581185992
 20
9.9794903199
 30
0.0
 10
10.1007815074
 20
9.9574993493
 30
0.0
 10
10.1423086201
 20
9.9332231705
 30
0.0
 10
10.1825691664
 20
9.9067383226
 30
0.0
 10
10.221436371
 20
9.8781282824
 30
0.0
 10
10.2587878427
 20
9.8474832041
 30
0.0
 10
10.2945059596
 20
9.8148996358
 30
0.0
 10
10.3284782363
 20
9.7804802171
 30
0.0
 10
10.3605976762
 20
9.7443333574
 30
0.0
 10
10.3907631065
 20
9.7065728967
 30
0.0
 10
10.4188794952
 20
9.6673177487
 30
0.0
 10
10.4448582487
 20
9.6266915293
 30
0.0
 10
10.4686174898
 20
9.5848221694
 30
0.0
 10
10.4900823149
 20
9.541841515
 30
0.0
 10
10.5091850283
 20
9.4978849154
 30
0.0
 10
10.5258653578
 20
9.4530907965
 30
0.0
 10
10.5400706387
 20
9.4076002449
 30
0.0
 10
10.5517559948
 20
9.3615565021
 30
0.0
 10
10.5608844498
 20
9.3151047592
 30
0.0
 10
10.5674271065
 20
9.2683908156
 30
0.0
 10
10.5713631428
 20
9.221563844
 30
0.0
 10
10.5722427494
 20
9.1903035744
 30
0.0
 10
10.5722427494
 20
9.1747070251
 30
0.0
  0
SPLINE
  5
412
100
AcDbEntity
  8
0
100
AcDbSpline
 62
7
  6
CONTINUOUS
 70
0
 71
3
 72
51
 73
47
 74
0
 42
0.0000001
 43
0.0000001
 44
0.0000000001
 40
0.0
 40
0.0
 40
0.0
 40
0.0
 40
0.0055575483
 40
0.0111779716
 40
0.01692191
 40
0.0228457685
 40
0.029000541
 40
0.0354309187
 40
0.0421753321
 40
0.0492661787
 40
0.0567301751
 40
0.0645892818
 40
0.072860934
 40
0.0815589354
 40
0.0906938799
 40
0.1002734384
 40
0.1103031157
 40
0.1207861166
 40
0.1317239771
 40
0.1431166596
 40
0.1549625852
 40
0.1672591636
 40
0.1800024627
 40
0.1931876894
 40
0.2068091423
 40
0.2208601567
 40
0.2502201891
 40
0.2812020358
 40
0.3137291498
 40
0.3477165256
 40
0.3830717054
 40
0.4196956132
 40
0.4574832856
 40
0.4963245986
 40
0.5361048951
 40
0.5767055669
 40
0.6180046028
 40
0.6598771293
 40
0.7021959705
 40
0.7448321944
 40
0.7876555817
 40
0.8305351627
 40
0.8733399838
 40
0.9159382941
 40
0.9582023666
 40
1.0
 40
1.0
 40
1.0
 40
1.0
 10
14.5826385322
 20
11.7760628542
 30
0.0
 10
14.5826385395
 20
11.775211864
 30
0.0
 10
14.5825432988
 20
11.773498774
 30
0.0
 10
14.5821157421
 20
11.7709382698
 30
0.0
 10
14.5814041215
 20
11.7683834985
 30
0.0
 10
14.5804099791
 20
11.765837366
 30
0.0
 10
14.57913477
 20
11.7633020106
 30
0.0
 10
14.5775803514
 20
11.7607793112
 30
0.0
 10
14.575748433
 20
11.7582710221
 30
0.0
 10
14.5736407866
 20
11.7557788686
 30
0.0
 10
14.571259378
 20
11.7533044431
 30
0.0
 10
14.5686061049
 20
11.7508495717
 30
0.0
 10
14.5656832023
 20
11.7484159223
 30
0.0
 10
14.5624929766
 20
11.7460053254
 30
0.0
 10
14.5590379557
 20
11.7436196388
 30
0.0
 10
14.5553209351
 20
11.7412606229
 30
0.0
 10
14.5513448317
 20
11.7389302358
 30
0.0
 10
14.5471128749
 20
11.7366302456
 30
0.0
 10
14.542628451
 20
11.7343625333
 30
0.0
 10
14.5378951735
 20
11.7321289558
 30
0.0
 10
14.5329168937
 20
11.729931255
 30
0.0
 10
14.5276976226
 20
11.7277713129
 30
0.0
 10
14.5222416235
 20
11.725650817
 30
0.0
 10
14.5165533294
 20
11.7235715422
 30
0.0
 10
14.5106373669
 20
11.7215351867
 30
0.0
 10
14.5023302764
 20
11.7188399446
 30
0.0
 10
14.4914071993
 20
11.715600193
 30
0.0
 10
14.4776577457
 20
11.7119637275
 30
0.0
 10
14.4631259537
 20
11.7085358275
 30
0.0
 10
14.4478593154
 20
11.7053278213
 30
0.0
 10
14.4319076028
 20
11.7023503458
 30
0.0
 10
14.4153229465
 20
11.6996132628
 30
0.0
 10
14.3981595818
 20
11.6971256222
 30
0.0
 10
14.3804736732
 20
11.6948956505
 30
0.0
 10
14.3623231127
 20
11.6929307213
 30
0.0
 10
14.3437673299
 20
11.6912373332
 30
0.0
 10
14.3248670987
 20
11.6898210871
 30
0.0
 10
14.3056843356
 20
11.688686653
 30
0.0
 10
14.2862818879
 20
11.6878377735
 30
0.0
 10
14.2667233269
 20
11.6872772523
 30
0.0
 10
14.2470727422
 20
11.6870069441
 30
0.0
 10
14.2273944949
 20
11.6870277414
 30
0.0
 10
14.2077531769
 20
11.6873395896
 30
0.0
 10
14.1882128732
 20
11.6879414097
 30
0.0
 10
14.1688379863
 20
11.6888312887
 30
0.0
 10
14.1559897292
 20
11.6896197285
 30
0.0
 10
14.1496048725
 20
11.6900625198
 30
0.0
  0
SPLINE
  5
413
100
AcDbEntity
  8
0
100
AcDbSpline
 62
7
  6
CONTINUOUS
 70
0
 71
3
 72
51
 73
47
 74
0
 42
0.0000001
 43
0.0000001
 44
0.0000000001
 40
0.0
 40
0.0
 40
0.0
 40
0.0
 40
0.0055575483
 40
0.0111779716
 40
0.01692191
 40
0.0228457685
 40
0.029000541
 40
0.0354309187
 40
0.0421753321
 40
0.0492661787
 40
0.0567301751
 40
0.0645892818
 40
0.072860934
 40
0.0815589354
 40
0.0906938799
 40
0.1002734384
 40
0.1103031157
 40
0.1207861166
 40
0.1317239771
 40
0.1431166596
 40
0.1549625852
 40
0.1672591636
 40
0.1800024627
 40
0.1931876894
 40
0.2068091423
 40
0.2208601567
 40
0.2502201891
 40
0.2812020358
 40
0.3137291498
 40
0.3477165256
 40
0.3830717054
 40
0.4196956132
 40
0.4574832856
 40
0.4963245986
 40
0.5361048951
 40
0.5767055669
 40
0.6180046028
 40
0.6598771293
 40
0.7021959705
 40
0.7448321944
 40
0.7876555817
 40
0.8305351627
 40
0.8733399838
 40
0.9159382941
 40
0.9582023666
 40
1.0
 40
1.0
 40
1.0
 40
1.0
 10
9.2700461728
 20
12.1444923857
 30
0.0
 10
9.2700461802
 20
12.1436413955
 30
0.0
 10
9.2699509394
 20
12.1419283054
 30
0.0
 10
9.2695233827
 20
12.1393678013
 30
0.0
 10
9.2688117622
 20
12.13681303
 30
0.0
 10
9.2678176197
 20
12.1342668975
 30
0.0
 10
9.2665424106
 20
12.1317315421
 30
0.0
 10
9.2649879921
 20
12.1292088427
 30
0.0
 10
9.2631560736
 20
12.1267005535
 30
0.0
 10
9.2610484273
 20
12.1242084001
 30
0.0
 10
9.2586670186
 20
12.1217339746
 30
0.0
 10
9.2560137455
 20
12.1192791032
 30
0.0
 10
9.2530908429
 20
12.1168454538
 30
0.0
 10
9.2499006172
 20
12.1144348569
 30
0.0
 10
9.2464455963
 20
12.1120491702
 30
0.0
 10
9.2427285757
 20
12.1096901544
 30
0.0
 10
9.2387524723
 20
12.1073597673
 30
0.0
 10
9.2345205155
 20
12.1050597771
 30
0.0
 10
9.2300360917
 20
12.1027920648
 30
0.0
 10
9.2253028142
 20
12.1005584873
 30
0.0
 10
9.2203245343
 20
12.0983607865
 30
0.0
 10
9.2151052632
 20
12.0962008444
 30
0.0
 10
9.2096492642
 20
12.0940803485
 30
0.0
 10
9.2039609701
 20
12.0920010737
 30
0.0
 10
9.1980450075
 20
12.0899647182
 30
0.0
 10
9.189737917
 20
12.0872694761
 30
0.0
 10
9.1788148399
 20
12.0840297245
 30
0.0
 10
9.1650653864
 20
12.080393259
 30
0.0
 10
9.1505335944
 20
12.076965359
 30
0.0
 10
9.135266956
 20
12.0737573528
 30
0.0
 10
9.1193152434
 20
12.0707798773
 30
0.0
 10
9.1027305871
 20
12.0680427943
 30
0.0
 10
9.0855672224
 20
12.0655551536
 30
0.0
 10
9.0678813138
 20
12.063325182
 30
0.0
 10
9.0497307533
 20
12.0613602527
 30
0.0
 10
9.0311749705
 20
12.0596668646
 30
0.0
 10
9.0122747393
 20
12.0582506185
 30
0.0
 10
8.9930919763
 20
12.0571161845
 30
0.0
 10
8.9736895285
 20
12.056267305
 30
0.0
 10
8.9541309675
 20
12.0557067838
 30
0.0
 10
8.9344803828
 20
12.0554364756
 30
0.0
 10
8.9148021356
 20
12.0554572729
 30
0.0
 10
8.8951608175
 20
12.0557691211
 30
0.0
 10
8.8756205138
 20
12.0563709412
 30
0.0
 10
8.856245627
 20
12.0572608202
 30
0.0
 10
8.8433973698
 20
12.05804926
 30
0.0
 10
8.8370125132
 20
12.0584920513
 30
0.0
  0
SPLINE
  5
414
100
AcDbEntity
  8
0
100
AcDbSpline
 62
7
  6
CONTINUOUS
 70
0
 71
3
 72
54
 73
50
 74
0
 42
0.0000001
 43
0.0000001
 44
0.0000000001
 40
0.0
 40
0.0
 40
0.0
 40
0.0
 40
0.0063158427
 40
0.0126705974
 40
0.0191023953
 40
0.0256479035
 40
0.0323417516
 40
0.0392160545
 40
0.0536138127
 40
0.061194488
 40
0.0690562166
 40
0.0772172825
 40
0.0856936302
 40
0.0944989909
 40
0.1036450473
 40
0.113141787
 40
0.1229974971
 40
0.1332190617
 40
0.1438121259
 40
0.1547810799
 40
0.1661293869
 40
0.1778595312
 40
0.189973133
 40
0.2024711534
 40
0.2153537503
 40
0.2286205275
 40
0.2422705277
 40
0.256302183
 40
0.2707135528
 40
0.2855021644
 40
0.300665138
 40
0.316199276
 40
0.3321009043
 40
0.3649900029
 40
0.3992976831
 40
0.4349839512
 40
0.472004695
 40
0.5103120262
 40
0.5498546333
 40
0.5905781015
 40
0.6324251619
 40
0.6753358913
 40
0.7192479428
 40
0.7640967229
 40
0.8098156864
 40
0.8563364658
 40
0.9035883331
 40
0.9515014468
 40
1.0
 40
1.0
 40
1.0
 40
1.0
 10
14.4925253811
 20
8.7147849143
 30
0.0
 10
14.4905140601
 20
8.714924404
 30
0.0
 10
14.4864885289
 20
8.7153688569
 30
0.0
 10
14.4804953588
 20
8.7165274231
 30
0.0
 10
14.474542237
 20
8.7181776962
 30
0.0
 10
14.4686326578
 20
8.7203184432
 30
0.0
 10
14.4627689599
 20
8.7229484511
 30
0.0
 10
14.4548955402
 20
8.7271689921
 30
0.0
 10
14.4472359926
 20
8.7323356671
 30
0.0
 10
14.4398234375
 20
8.7383229445
 30
0.0
 10
14.4342245202
 20
8.7433709954
 30
0.0
 10
14.4286853303
 20
8.7488960257
 30
0.0
 10
14.4232073447
 20
8.7548961608
 30
0.0
 10
14.4177927969
 20
8.7613687931
 30
0.0
 10
14.4124435989
 20
8.7683112429
 30
0.0
 10
14.4071619222
 20
8.775720746
 30
0.0
 10
14.4019497394
 20
8.7835942469
 30
0.0
 10
14.3968091008
 20
8.7919285605
 30
0.0
 10
14.3917421155
 20
8.8007203407
 30
0.0
 10
14.3867507091
 20
8.8099659712
 30
0.0
 10
14.3818369702
 20
8.8196617295
 30
0.0
 10
14.3770028708
 20
8.8298036566
 30
0.0
 10
14.3722503269
 20
8.8403876014
 30
0.0
 10
14.3675813698
 20
8.8514092711
 30
0.0
 10
14.3629978281
 20
8.8628641301
 30
0.0
 10
14.3585016131
 20
8.8747474981
 30
0.0
 10
14.354094607
 20
8.8870545111
 30
0.0
 10
14.3497785475
 20
8.8997801018
 30
0.0
 10
14.3455552918
 20
8.9129190619
 30
0.0
 10
14.3414265405
 20
8.926465983
 30
0.0
 10
14.3373939857
 20
8.9404152896
 30
0.0
 10
14.3334593339
 20
8.9547612698
 30
0.0
 10
14.3282876893
 20
8.9746337156
 30
0.0
 10
14.3220935491
 20
9.0004300783
 30
0.0
 10
14.3151569349
 20
9.0325342415
 30
0.0
 10
14.3086473386
 20
9.0660720823
 30
0.0
 10
14.3025755971
 20
9.1009883342
 30
0.0
 10
14.2969518266
 20
9.1372256203
 30
0.0
 10
14.2917853867
 20
9.1747242751
 30
0.0
 10
14.2870848889
 20
9.2134225491
 30
0.0
 10
14.2828581793
 20
9.2532566892
 30
0.0
 10
14.2791123025
 20
9.294161045
 30
0.0
 10
14.2758534918
 20
9.3360681671
 30
0.0
 10
14.2730871757
 20
9.378908956
 30
0.0
 10
14.2708179766
 20
9.422612791
 30
0.0
 10
14.2690497129
 20
9.467107431
 30
0.0
 10
14.26778526
 20
9.5123199017
 30
0.0
 10
14.2670268477
 20
9.5581750296
 30
0.0
 10
14.2668603065
 20
9.5889519776
 30
0.0
 10
14.2668603065
 20
9.6044337532
 30
0.0
  0
SPLINE
  5
415
100
AcDbEntity
  8
0
100
AcDbSpline
 62
7
  6
CONTINUOUS
 70
0
 71
3
 72
35
 73
31
 74
0
 42
0.0000001
 43
0.0000001
 44
0.0000000001
 40
0.0
 40
0.0
 40
0.0
 40
0.0
 40
0.0162143111
 40
0.0334273662
 40
0.0516716855
 40
0.0709707842
 40
0.0913402599
 40
0.1127893229
 40
0.1353215779
 40
0.1589358742
 40
0.1836270239
 40
0.209386099
 40
0.2362011871
 40
0.264057313
 40
0.2929371952
 40
0.3228210131
 40
0.3536870391
 40
0.3855114635
 40
0.4182687869
 40
0.45193183
 40
0.4864718499
 40
0.5218587619
 40
0.5580610152
 40
0.5950459771
 40
0.6327796835
 40
0.6712272462
 40
0.7501177592
 40
0.8314200507
 40
0.91482146
 40
1.0
 40
1.0
 40
1.0
 40
1.0
 10
14.4041120687
 20
9.109992326
 30
0.0
 10
14.4020465158
 20
9.1125320287
 30
0.0
 10
14.3979620197
 20
9.1179109137
 30
0.0
 10
14.39213713
 20
9.1265713196
 30
0.0
 10
14.386440217
 20
9.1360506846
 30
0.0
 10
14.3808772737
 20
9.1463390354
 30
0.0
 10
14.3754535736
 20
9.1574260396
 30
0.0
 10
14.370174694
 20
9.1693003655
 30
0.0
 10
14.3650460202
 20
9.1819498211
 30
0.0
 10
14.3600728517
 20
9.1953613386
 30
0.0
 10
14.3552604442
 20
9.2095210205
 30
0.0
 10
14.350613761
 20
9.2244141179
 30
0.0
 10
14.3461378107
 20
9.2400251043
 30
0.0
 10
14.3418372001
 20
9.2563376432
 30
0.0
 10
14.3377165985
 20
9.273334658
 30
0.0
 10
14.3337802634
 20
9.290998317
 30
0.0
 10
14.3300324515
 20
9.3093100795
 30
0.0
 10
14.3264770786
 20
9.3282507057
 30
0.0
 10
14.3231179425
 20
9.3478002833
 30
0.0
 10
14.319958609
 20
9.3679382499
 30
0.0
 10
14.3170023973
 20
9.3886434171
 30
0.0
 10
14.3142525
 20
9.4098939885
 30
0.0
 10
14.311711757
 20
9.4316675965
 30
0.0
 10
14.3093829561
 20
9.4539413015
 30
0.0
 10
14.3072684538
 20
9.4766916771
 30
0.0
 10
14.3047161948
 20
9.5078965424
 30
0.0
 10
14.3020915108
 20
9.5479186163
 30
0.0
 10
14.2998529312
 20
9.597051607
 30
0.0
 10
14.2985088728
 20
9.6474869512
 30
0.0
 10
14.2982158278
 20
9.6815235682
 30
0.0
 10
14.2982158278
 20
9.6987208643
 30
0.0
  0
SPLINE
  5
416
100
AcDbEntity
  8
0
100
AcDbSpline
 62
7
  6
CONTINUOUS
 70
0
 71
3
 72
11
 73
7
 74
0
 42
0.0000001
 43
0.0000001
 44
0.0000000001
 40
0.0
 40
0.0
 40
0.0
 40
0.0
 40
0.2475501303
 40
0.4960876409
 40
0.7465877102
 40
1.0
 40
1.0
 40
1.0
 40
1.0
 10
14.3838733394
 20
9.1633767724
 30
0.0
 10
14.3828544329
 20
9.1634474345
 30
0.0
 10
14.3808165722
 20
9.1636559203
 30
0.0
 10
14.377777141
 20
9.1641687114
 30
0.0
 10
14.3747535149
 20
9.1648816273
 30
0.0
 10
14.3727625725
 20
9.1654859676
 30
0.0
 10
14.3717718351
 20
9.1658200238
 30
0.0
  0
SPLINE
  5
417
100
AcDbEntity
  8
0
100
AcDbSpline
 62
7
  6
CONTINUOUS
 70
0
 71
3
 72
41
 73
37
 74
0
 42
0.0000001
 43
0.0000001
 44
0.0000000001
 40
0.0
 40
0.0
 40
0.0
 40
0.0
 40
0.0072740305
 40
0.01487064
 40
0.0227982405
 40
0.0310635686
 40
0.0396718928
 40
0.048626936
 40
0.0579313433
 40
0.0675867216
 40
0.0775935611
 40
0.0879516548
 40
0.0986600033
 40
0.1097167858
 40
0.1328649403
 40
0.1573715609
 40
0.1832032107
 40
0.2103196452
 40
0.2386745777
 40
0.2682165571
 40
0.2988894916
 40
0.3306329714
 40
0.3633828412
 40
0.3970715937
 40
0.4316285687
 40
0.4669803254
 40
0.5030510113
 40
0.5397625545
 40
0.5770349139
 40
0.6147864343
 40
0.6529340578
 40
0.6913935297
 40
0.7689053376
 40
0.8466361024
 40
0.9238952768
 40
1.0
 40
1.0
 40
1.0
 40
1.0
 10
11.5774231828
 20
10.9215439742
 30
0.0
 10
11.5765100687
 20
10.9206942316
 30
0.0
 10
11.5746013655
 20
10.9190017387
 30
0.0
 10
11.5715664004
 20
10.9165358925
 30
0.0
 10
11.568300299
 20
10.9140900832
 30
0.0
 10
11.5648050409
 20
10.9116657784
 30
0.0
 10
11.5610826026
 20
10.9092643968
 30
0.0
 10
11.557135211
 20
10.9068872527
 30
0.0
 10
11.5529651539
 20
10.9045357533
 30
0.0
 10
11.5485748595
 20
10.9022113117
 30
0.0
 10
11.5439669399
 20
10.8999152211
 30
0.0
 10
11.5391440883
 20
10.8976488844
 30
0.0
 10
11.5341091365
 20
10.8954136326
 30
0.0
 10
11.52700813
 20
10.8924307856
 30
0.0
 10
11.5176157022
 20
10.8887991087
 30
0.0
 10
11.5057151376
 20
10.8846495136
 30
0.0
 10
11.4930466334
 20
10.8806542437
 30
0.0
 10
11.479640178
 20
10.8768228619
 30
0.0
 10
11.4655273873
 20
10.8731645126
 30
0.0
 10
11.4507416599
 20
10.8696879711
 30
0.0
 10
11.4353180133
 20
10.866401603
 30
0.0
 10
11.4192930383
 20
10.8633132603
 30
0.0
 10
11.4027047755
 20
10.8604303399
 30
0.0
 10
11.3855926144
 20
10.8577597776
 30
0.0
 10
11.3679972157
 20
10.8553079637
 30
0.0
 10
11.3499604063
 20
10.8530807517
 30
0.0
 10
11.3315250627
 20
10.8510834914
 30
0.0
 10
11.31273502
 20
10.8493209767
 30
0.0
 10
11.2936349666
 20
10.8477973981
 30
0.0
 10
11.2742703408
 20
10.8465164133
 30
0.0
 10
11.2546871646
 20
10.8454810864
 30
0.0
 10
11.2282795715
 20
10.844428899
 30
0.0
 10
11.1950671637
 20
10.8437451361
 30
0.0
 10
11.1551945837
 20
10.8439284405
 30
0.0
 10
11.115580622
 20
10.8451118333
 30
0.0
 10
11.0893192837
 20
10.8465751425
 30
0.0
 10
11.0763002993
 20
10.8474780121
 30
0.0
  0
SPLINE
  5
418
100
AcDbEntity
  8
0
100
AcDbSpline
 62
7
  6
CONTINUOUS
 70
0
 71
3
 72
49
 73
45
 74
0
 42
0.0000001
 43
0.0000001
 44
0.0000000001
 40
0.0
 40
0.0
 40
0.0
 40
0.0
 40
0.0070628478
 40
0.0144558389
 40
0.0221882
 40
0.0302671636
 40
0.0386983802
 40
0.0474858928
 40
0.0566325596
 40
0.0661400283
 40
0.076008935
 40
0.0862390754
 40
0.0968293237
 40
0.1077779531
 40
0.119082462
 40
0.1307398108
 40
0.1427464058
 40
0.1550980826
 40
0.1677903131
 40
0.1808180062
 40
0.1941757683
 40
0.2078577635
 40
0.236168908
 40
0.2656986092
 40
0.2963886497
 40
0.3281764789
 40
0.3609956379
 40
0.3947761306
 40
0.4294447854
 40
0.4649255803
 40
0.5011399449
 40
0.5380070482
 40
0.5754440756
 40
0.6133664978
 40
0.6516883476
 40
0.6903224871
 40
0.729180864
 40
0.768174777
 40
0.8072151285
 40
0.8462126505
 40
0.8850783864
 40
0.9237231156
 40
0.9620599679
 40
1.0
 40
1.0
 40
1.0
 40
1.0
 10
14.5150638543
 20
10.709862708
 30
0.0
 10
14.5132547056
 20
10.708178952
 30
0.0
 10
14.5096382773
 20
10.7046389321
 30
0.0
 10
14.5043380808
 20
10.698962277
 30
0.0
 10
14.4990436427
 20
10.692803291
 30
0.0
 10
14.4937581111
 20
10.6861658752
 30
0.0
 10
14.4884846294
 20
10.6790538567
 30
0.0
 10
14.4832261924
 20
10.6714715678
 30
0.0
 10
14.4779860128
 20
10.6634234854
 30
0.0
 10
14.4727671844
 20
10.6549144599
 30
0.0
 10
14.4675728222
 20
10.6459496093
 30
0.0
 10
14.462406136
 20
10.6365343043
 30
0.0
 10
14.4572701463
 20
10.6266742648
 30
0.0
 10
14.4521680774
 20
10.6163754115
 30
0.0
 10
14.4471029477
 20
10.6056440056
 30
0.0
 10
14.4420778736
 20
10.5944865368
 30
0.0
 10
14.4370959348
 20
10.5829097686
 30
0.0
 10
14.4321601023
 20
10.570920742
 30
0.0
 10
14.4272734778
 20
10.5585267166
 30
0.0
 10
14.4224389537
 20
10.5457352482
 30
0.0
 10
14.4176595257
 20
10.5325540874
 30
0.0
 10
14.4112917806
 20
10.5142617849
 30
0.0
 10
14.4035035867
 20
10.4904743046
 30
0.0
 10
14.3945259206
 20
10.4608223631
 30
0.0
 10
14.3858353047
 20
10.4298197504
 30
0.0
 10
14.3774530326
 20
10.3975419352
 30
0.0
 10
14.369399653
 20
10.3640673429
 30
0.0
 10
14.3616948884
 20
10.3294774246
 30
0.0
 10
14.3543576048
 20
10.2938563671
 30
0.0
 10
14.347405763
 20
10.2572908969
 30
0.0
 10
14.3408563759
 20
10.219870058
 30
0.0
 10
14.3347254683
 20
10.1816849949
 30
0.0
 10
14.3290280382
 20
10.14282873
 30
0.0
 10
14.3237780092
 20
10.1033959359
 30
0.0
 10
14.3189882087
 20
10.0634826982
 30
0.0
 10
14.3146703369
 20
10.0231862776
 30
0.0
 10
14.3108349381
 20
9.9826048711
 30
0.0
 10
14.3074913758
 20
9.9418373735
 30
0.0
 10
14.3046478141
 20
9.9009831482
 30
0.0
 10
14.3023111651
 20
9.8601417182
 30
0.0
 10
14.3004871485
 20
9.819412755
 30
0.0
 10
14.2991801249
 20
9.7788951892
 30
0.0
 10
14.2983933605
 20
9.7386882168
 30
0.0
 10
14.2982158278
 20
9.7119969261
 30
0.0
 10
14.2982158278
 20
9.6987208643
 30
0.0
  0
SPLINE
  5
419
100
AcDbEntity
  8
0
100
AcDbSpline
 62
7
  6
CONTINUOUS
 70
0
 71
3
 72
11
 73
7
 74
0
 42
0.0000001
 43
0.0000001
 44
0.0000000001
 40
0.0
 40
0.0
 40
0.0
 40
0.0
 40
0.2475567361
 40
0.4960982093
 40
0.7465969315
 40
1.0
 40
1.0
 40
1.0
 40
1.0
 10
14.4876494352
 20
10.6597825884
 30
0.0
 10
14.4866319343
 20
10.6598531531
 30
0.0
 10
14.4845876461
 20
10.6599279553
 30
0.0
 10
14.4815108152
 20
10.6598401555
 30
0.0
 10
14.4784220439
 20
10.6595525246
 30
0.0
 10
14.4763695782
 20
10.6592298789
 30
0.0
 10
14.4753436292
 20
10.6590364072
 30
0.0
  0
SPLINE
  5
41A
100
AcDbEntity
  8
0
100
AcDbSpline
 62
7
  6
CONTINUOUS
 70
0
 71
3
 72
54
 73
50
 74
0
 42
0.0000001
 43
0.0000001
 44
0.0000000001
 40
0.0
 40
0.0
 40
0.0
 40
0.0
 40
0.0063158427
 40
0.0126705974
 40
0.0191023953
 40
0.0256479035
 40
0.0323417516
 40
0.0392160545
 40
0.0536138127
 40
0.061194488
 40
0.0690562166
 40
0.0772172825
 40
0.0856936302
 40
0.0944989909
 40
0.1036450473
 40
0.113141787
 40
0.1229974971
 40
0.1332190617
 40
0.1438121259
 40
0.1547810799
 40
0.1661293869
 40
0.1778595312
 40
0.189973133
 40
0.2024711534
 40
0.2153537503
 40
0.2286205275
 40
0.2422705277
 40
0.256302183
 40
0.2707135528
 40
0.2855021644
 40
0.300665138
 40
0.316199276
 40
0.3321009043
 40
0.3649900029
 40
0.3992976831
 40
0.4349839512
 40
0.472004695
 40
0.5103120262
 40
0.5498546333
 40
0.5905781015
 40
0.6324251619
 40
0.6753358913
 40
0.7192479428
 40
0.7640967229
 40
0.8098156864
 40
0.8563364658
 40
0.9035883331
 40
0.9515014468
 40
1.0
 40
1.0
 40
1.0
 40
1.0
 10
14.4925253811
 20
5.8170072638
 30
0.0
 10
14.4905140601
 20
5.8171467534
 30
0.0
 10
14.4864885289
 20
5.8175912063
 30
0.0
 10
14.4804953588
 20
5.8187497725
 30
0.0
 10
14.474542237
 20
5.8204000457
 30
0.0
 10
14.4686326578
 20
5.8225407927
 30
0.0
 10
14.4627689599
 20
5.8251708005
 30
0.0
 10
14.4548955402
 20
5.8293913416
 30
0.0
 10
14.4472359926
 20
5.8345580166
 30
0.0
 10
14.4398234375
 20
5.840545294
 30
0.0
 10
14.4342245202
 20
5.8455933448
 30
0.0
 10
14.4286853303
 20
5.8511183751
 30
0.0
 10
14.4232073447
 20
5.8571185103
 30
0.0
 10
14.4177927969
 20
5.8635911426
 30
0.0
 10
14.4124435989
 20
5.8705335924
 30
0.0
 10
14.4071619222
 20
5.8779430954
 30
0.0
 10
14.4019497394
 20
5.8858165964
 30
0.0
 10
14.3968091008
 20
5.8941509099
 30
0.0
 10
14.3917421155
 20
5.9029426902
 30
0.0
 10
14.3867507091
 20
5.9121883207
 30
0.0
 10
14.3818369702
 20
5.9218840789
 30
0.0
 10
14.3770028708
 20
5.9320260061
 30
0.0
 10
14.3722503269
 20
5.9426099508
 30
0.0
 10
14.3675813698
 20
5.9536316206
 30
0.0
 10
14.3629978281
 20
5.9650864796
 30
0.0
 10
14.3585016131
 20
5.9769698476
 30
0.0
 10
14.354094607
 20
5.9892768605
 30
0.0
 10
14.3497785475
 20
6.0020024512
 30
0.0
 10
14.3455552918
 20
6.0151414113
 30
0.0
 10
14.3414265405
 20
6.0286883324
 30
0.0
 10
14.3373939857
 20
6.042637639
 30
0.0
 10
14.3334593339
 20
6.0569836192
 30
0.0
 10
14.3282876893
 20
6.076856065
 30
0.0
 10
14.3220935491
 20
6.1026524278
 30
0.0
 10
14.3151569349
 20
6.1347565909
 30
0.0
 10
14.3086473386
 20
6.1682944318
 30
0.0
 10
14.3025755971
 20
6.2032106836
 30
0.0
 10
14.2969518266
 20
6.2394479697
 30
0.0
 10
14.2917853867
 20
6.2769466245
 30
0.0
 10
14.2870848889
 20
6.3156448985
 30
0.0
 10
14.2828581793
 20
6.3554790387
 30
0.0
 10
14.2791123025
 20
6.3963833944
 30
0.0
 10
14.2758534918
 20
6.4382905166
 30
0.0
 10
14.2730871757
 20
6.4811313054
 30
0.0
 10
14.2708179766
 20
6.5248351404
 30
0.0
 10
14.2690497129
 20
6.5693297804
 30
0.0
 10
14.26778526
 20
6.6145422511
 30
0.0
 10
14.2670268477
 20
6.660397379
 30
0.0
 10
14.2668603065
 20
6.691174327
 30
0.0
 10
14.2668603065
 20
6.7066561026
 30
0.0
  0
SPLINE
  5
41B
100
AcDbEntity
  8
0
100
AcDbSpline
 62
7
  6
CONTINUOUS
 70
0
 71
3
 72
35
 73
31
 74
0
 42
0.0000001
 43
0.0000001
 44
0.0000000001
 40
0.0
 40
0.0
 40
0.0
 40
0.0
 40
0.0162143111
 40
0.0334273662
 40
0.0516716855
 40
0.0709707842
 40
0.0913402599
 40
0.1127893229
 40
0.1353215779
 40
0.1589358742
 40
0.1836270239
 40
0.209386099
 40
0.2362011871
 40
0.264057313
 40
0.2929371952
 40
0.3228210131
 40
0.3536870391
 40
0.3855114635
 40
0.4182687869
 40
0.45193183
 40
0.4864718499
 40
0.5218587619
 40
0.5580610152
 40
0.5950459771
 40
0.6327796835
 40
0.6712272462
 40
0.7501177592
 40
0.8314200507
 40
0.91482146
 40
1.0
 40
1.0
 40
1.0
 40
1.0
 10
14.4041120687
 20
6.2122146755
 30
0.0
 10
14.4020465158
 20
6.2147543781
 30
0.0
 10
14.3979620197
 20
6.2201332631
 30
0.0
 10
14.39213713
 20
6.228793669
 30
0.0
 10
14.386440217
 20
6.2382730341
 30
0.0
 10
14.3808772737
 20
6.2485613848
 30
0.0
 10
14.3754535736
 20
6.259648389
 30
0.0
 10
14.370174694
 20
6.271522715
 30
0.0
 10
14.3650460202
 20
6.2841721705
 30
0.0
 10
14.3600728517
 20
6.297583688
 30
0.0
 10
14.3552604442
 20
6.31174337
 30
0.0
 10
14.350613761
 20
6.3266364673
 30
0.0
 10
14.3461378107
 20
6.3422474537
 30
0.0
 10
14.3418372001
 20
6.3585599926
 30
0.0
 10
14.3377165985
 20
6.3755570074
 30
0.0
 10
14.3337802634
 20
6.3932206664
 30
0.0
 10
14.3300324515
 20
6.4115324289
 30
0.0
 10
14.3264770786
 20
6.4304730551
 30
0.0
 10
14.3231179425
 20
6.4500226327
 30
0.0
 10
14.319958609
 20
6.4701605993
 30
0.0
 10
14.3170023973
 20
6.4908657665
 30
0.0
 10
14.3142525
 20
6.5121163379
 30
0.0
 10
14.311711757
 20
6.5338899459
 30
0.0
 10
14.3093829561
 20
6.556163651
 30
0.0
 10
14.3072684538
 20
6.5789140265
 30
0.0
 10
14.3047161948
 20
6.6101188919
 30
0.0
 10
14.3020915108
 20
6.6501409657
 30
0.0
 10
14.2998529312
 20
6.6992739564
 30
0.0
 10
14.2985088728
 20
6.7497093006
 30
0.0
 10
14.2982158278
 20
6.7837459176
 30
0.0
 10
14.2982158278
 20
6.8009432137
 30
0.0
  0
SPLINE
  5
41C
100
AcDbEntity
  8
0
100
AcDbSpline
 62
7
  6
CONTINUOUS
 70
0
 71
3
 72
11
 73
7
 74
0
 42
0.0000001
 43
0.0000001
 44
0.0000000001
 40
0.0
 40
0.0
 40
0.0
 40
0.0
 40
0.2475501303
 40
0.4960876409
 40
0.7465877102
 40
1.0
 40
1.0
 40
1.0
 40
1.0
 10
14.3838733394
 20
6.2655991218
 30
0.0
 10
14.3828544329
 20
6.265669784
 30
0.0
 10
14.3808165722
 20
6.2658782697
 30
0.0
 10
14.377777141
 20
6.2663910608
 30
0.0
 10
14.3747535149
 20
6.2671039767
 30
0.0
 10
14.3727625725
 20
6.267708317
 30
0.0
 10
14.3717718351
 20
6.2680423732
 30
0.0
  0
SPLINE
  5
41D
100
AcDbEntity
  8
0
100
AcDbSpline
 62
7
  6
CONTINUOUS
 70
0
 71
3
 72
46
 73
42
 74
0
 42
0.0000001
 43
0.0000001
 44
0.0000000001
 40
0.0
 40
0.0
 40
0.0
 40
0.0
 40
0.0070628525
 40
0.0144558395
 40
0.0221882222
 40
0.0302671909
 40
0.0386984018
 40
0.0474859532
 40
0.0566325975
 40
0.0661400947
 40
0.076009028
 40
0.0862391426
 40
0.0968294507
 40
0.1077780673
 40
0.1190825921
 40
0.1307399847
 40
0.1550975227
 40
0.1808168159
 40
0.2078560686
 40
0.2361672711
 40
0.2656970168
 40
0.296387113
 40
0.3281750243
 40
0.3609942482
 40
0.3947747905
 40
0.4294435121
 40
0.4649243965
 40
0.5011388421
 40
0.5380060168
 40
0.5754431241
 40
0.6133656326
 40
0.6516875649
 40
0.6903217866
 40
0.7291802535
 40
0.768174263
 40
0.8072146681
 40
0.8462123338
 40
0.8850781503
 40
0.92372273
 40
0.9620603607
 40
1.0
 40
1.0
 40
1.0
 40
1.0
 10
13.8998948773
 20
8.3770013929
 30
0.0
 10
13.8987396382
 20
8.3759262254
 30
0.0
 10
13.8964303536
 20
8.3736657382
 30
0.0
 10
13.8930458783
 20
8.3700409028
 30
0.0
 10
13.8896651038
 20
8.3661080518
 30
0.0
 10
13.8862900018
 20
8.3618697117
 30
0.0
 10
13.8829225794
 20
8.3573283173
 30
0.0
 10
13.879564812
 20
8.3524866042
 30
0.0
 10
13.8762186379
 20
8.3473474916
 30
0.0
 10
13.8728861477
 20
8.3419140126
 30
0.0
 10
13.8695692759
 20
8.3361894702
 30
0.0
 10
13.8662700284
 20
8.3301773069
 30
0.0
 10
13.8629904604
 20
8.3238811242
 30
0.0
 10
13.859732486
 20
8.3173047638
 30
0.0
 10
13.8564981105
 20
8.3104521771
 30
0.0
 10
13.8521560911
 20
8.3008111048
 30
0.0
 10
13.8468129411
 20
8.2880910375
 30
0.0
 10
13.8406162513
 20
8.2720103563
 30
0.0
 10
13.8345595167
 20
8.2549362377
 30
0.0
 10
13.8286575538
 20
8.2369101474
 30
0.0
 10
13.8229248219
 20
8.2179757122
 30
0.0
 10
13.8173753832
 20
8.1981788797
 30
0.0
 10
13.8120228547
 20
8.17756773
 30
0.0
 10
13.8068803312
 20
8.1561923855
 30
0.0
 10
13.8019604086
 20
8.1341048495
 30
0.0
 10
13.7972751474
 20
8.1113588698
 30
0.0
 10
13.7928360248
 20
8.0880098226
 30
0.0
 10
13.7886538853
 20
8.0641145774
 30
0.0
 10
13.7847389593
 20
8.0397313377
 30
0.0
 10
13.7811008363
 20
8.0149194979
 30
0.0
 10
13.7777484103
 20
7.9897395102
 30
0.0
 10
13.7746898586
 20
7.964252734
 30
0.0
 10
13.7719326539
 20
7.9385212748
 30
0.0
 10
13.769483546
 20
7.9126078325
 30
0.0
 10
13.7673485086
 20
7.8865755671
 30
0.0
 10
13.7655327307
 20
7.8604879108
 30
0.0
 10
13.7640406453
 20
7.8344084282
 30
0.0
 10
13.7628759182
 20
7.8084008064
 30
0.0
 10
13.7620413029
 20
7.7825280316
 30
0.0
 10
13.761538929
 20
7.7568536924
 30
0.0
 10
13.7614255525
 20
7.7398098005
 30
0.0
 10
13.7614255525
 20
7.7313324181
 30
0.0
  0
SPLINE
  5
41E
100
AcDbEntity
  8
0
100
AcDbSpline
 62
7
  6
CONTINUOUS
 70
0
 71
3
 72
34
 73
30
 74
0
 42
0.0000001
 43
0.0000001
 44
0.0000000001
 40
0.0
 40
0.0
 40
0.0
 40
0.0
 40
0.0162143018
 40
0.0334273793
 40
0.05167169
 40
0.0709708204
 40
0.0913402825
 40
0.1127893927
 40
0.1353216273
 40
0.1589359865
 40
0.1836271123
 40
0.2093862597
 40
0.2362013281
 40
0.2640575244
 40
0.2929374026
 40
0.3228212777
 40
0.3536873255
 40
0.3855117884
 40
0.4182691618
 40
0.4519322263
 40
0.4864723219
 40
0.5218592384
 40
0.5580615815
 40
0.5950465564
 40
0.6712267358
 40
0.750117451
 40
0.8314196152
 40
0.9148217113
 40
1.0
 40
1.0
 40
1.0
 40
1.0
 10
13.8290461159
 20
7.35539725
 30
0.0
 10
13.8277271494
 20
7.3570189846
 30
0.0
 10
13.8251189637
 20
7.3604536815
 30
0.0
 10
13.8213994686
 20
7.3659838225
 30
0.0
 10
13.81776166
 20
7.3720368979
 30
0.0
 10
13.8142094353
 20
7.3786065702
 30
0.0
 10
13.8107460824
 20
7.385686212
 30
0.0
 10
13.8073752546
 20
7.393268617
 30
0.0
 10
13.8041002855
 20
7.4013459708
 30
0.0
 10
13.8009246768
 20
7.4099099565
 30
0.0
 10
13.7978516572
 20
7.4189516747
 30
0.0
 10
13.7948845284
 20
7.428461729
 30
0.0
 10
13.7920263569
 20
7.4384301869
 30
0.0
 10
13.789280209
 20
7.4488466304
 30
0.0
 10
13.7866489557
 20
7.4597001455
 30
0.0
 10
13.7841354061
 20
7.4709793519
 30
0.0
 10
13.7817422131
 20
7.482672407
 30
0.0
 10
13.7794719141
 20
7.494767027
 30
0.0
 10
13.7773269266
 20
7.5072504955
 30
0.0
 10
13.7753095066
 20
7.520109684
 30
0.0
 10
13.7734218207
 20
7.5333310598
 30
0.0
 10
13.7716658403
 20
7.5469007058
 30
0.0
 10
13.7700434497
 20
7.5608043485
 30
0.0
 10
13.7680409808
 20
7.5799571055
 30
0.0
 10
13.7658948254
 20
7.6046264142
 30
0.0
 10
13.7639003717
 20
7.6350368603
 30
0.0
 10
13.7624709293
 20
7.6664110997
 30
0.0
 10
13.7616126815
 20
7.6986167867
 30
0.0
 10
13.7614255525
 20
7.7203510544
 30
0.0
 10
13.7614255525
 20
7.7313324181
 30
0.0
  0
SPLINE
  5
41F
100
AcDbEntity
  8
0
100
AcDbSpline
 62
7
  6
CONTINUOUS
 70
0
 71
3
 72
51
 73
47
 74
0
 42
0.0000001
 43
0.0000001
 44
0.0000000001
 40
0.0
 40
0.0
 40
0.0
 40
0.0
 40
0.006315867
 40
0.0126706314
 40
0.0191024433
 40
0.025647959
 40
0.0323417891
 40
0.039216105
 40
0.0536138211
 40
0.0611945103
 40
0.0690561997
 40
0.0772172526
 40
0.0856936037
 40
0.0944989194
 40
0.1036449818
 40
0.1131417085
 40
0.1229973841
 40
0.1332189653
 40
0.1438120086
 40
0.1547809469
 40
0.1661292687
 40
0.1778593984
 40
0.1899730025
 40
0.2024710335
 40
0.2153536301
 40
0.2286204171
 40
0.2422704341
 40
0.2707125741
 40
0.3006634297
 40
0.33209859
 40
0.3649877453
 40
0.3992954944
 40
0.4349818799
 40
0.4720027336
 40
0.5103101563
 40
0.5498528892
 40
0.5905765191
 40
0.6324237195
 40
0.6753345875
 40
0.7192468132
 40
0.7640957578
 40
0.8098149508
 40
0.8563358524
 40
0.9035878254
 40
0.9515015618
 40
1.0
 40
1.0
 40
1.0
 40
1.0
 10
13.8995374621
 20
6.9816536619
 30
0.0
 10
13.8980500939
 20
6.9817568024
 30
0.0
 10
13.8950732267
 20
6.9820854645
 30
0.0
 10
13.8906412686
 20
6.9829420745
 30
0.0
 10
13.886238949
 20
6.9841624241
 30
0.0
 10
13.8818688328
 20
6.985745455
 30
0.0
 10
13.8775326001
 20
6.9876902096
 30
0.0
 10
13.8717102655
 20
6.9908112915
 30
0.0
 10
13.8660459704
 20
6.9946318667
 30
0.0
 10
13.8605644495
 20
6.9990594378
 30
0.0
 10
13.8564240154
 20
7.0027923602
 30
0.0
 10
13.8523277956
 20
7.0068780618
 30
0.0
 10
13.8482768547
 20
7.0113151142
 30
0.0
 10
13.8442727584
 20
7.0161015275
 30
0.0
 10
13.8403170598
 20
7.0212354245
 30
0.0
 10
13.8364112609
 20
7.0267146833
 30
0.0
 10
13.8325568288
 20
7.0325370568
 30
0.0
 10
13.8287553614
 20
7.0387002344
 30
0.0
 10
13.8250083109
 20
7.0452016823
 30
0.0
 10
13.8213171616
 20
7.0520387582
 30
0.0
 10
13.8176834722
 20
7.0592087161
 30
0.0
 10
13.8141086417
 20
7.0667086024
 30
0.0
 10
13.8105941415
 20
7.0745353675
 30
0.0
 10
13.8071414525
 20
7.082685833
 30
0.0
 10
13.8037519231
 20
7.091156635
 30
0.0
 10
13.8004269563
 20
7.0999443334
 30
0.0
 10
13.7960211845
 20
7.1122480553
 30
0.0
 10
13.7906987878
 20
7.128403816
 30
0.0
 10
13.7846750751
 20
7.1487382266
 30
0.0
 10
13.7789400505
 20
7.1702440751
 30
0.0
 10
13.7735032031
 20
7.1928860049
 30
0.0
 10
13.7683735778
 20
7.2166270031
 30
0.0
 10
13.7635597423
 20
7.2414281114
 30
0.0
 10
13.7590696924
 20
7.2672485814
 30
0.0
 10
13.7549109001
 20
7.2940459414
 30
0.0
 10
13.7510903156
 20
7.3217760945
 30
0.0
 10
13.7476143113
 20
7.3503933732
 30
0.0
 10
13.7444886563
 20
7.3798506207
 30
0.0
 10
13.7417185659
 20
7.4100992897
 30
0.0
 10
13.7393086825
 20
7.4410895075
 30
0.0
 10
13.7372629955
 20
7.4727701884
 30
0.0
 10
13.7355849217
 20
7.5050890752
 30
0.0
 10
13.7342772828
 20
7.5379927444
 30
0.0
 10
13.73334222
 20
7.5714273391
 30
0.0
 10
13.7327813838
 20
7.6053371197
 30
0.0
 10
13.7326582195
 20
7.6280966372
 30
0.0
 10
13.7326582195
 20
7.639545305
 30
0.0
  0
SPLINE
  5
420
100
AcDbEntity
  8
0
100
AcDbSpline
 62
7
  6
CONTINUOUS
 70
0
 71
3
 72
11
 73
7
 74
0
 42
0.0000001
 43
0.0000001
 44
0.0000000001
 40
0.0
 40
0.0
 40
0.0
 40
0.0
 40
0.2475567361
 40
0.4960982093
 40
0.7465969315
 40
1.0
 40
1.0
 40
1.0
 40
1.0
 10
14.4876494352
 20
7.7620049378
 30
0.0
 10
14.4866319343
 20
7.7620755025
 30
0.0
 10
14.4845876461
 20
7.7621503047
 30
0.0
 10
14.4815108152
 20
7.762062505
 30
0.0
 10
14.4784220439
 20
7.7617748741
 30
0.0
 10
14.4763695782
 20
7.7614522284
 30
0.0
 10
14.4753436292
 20
7.7612587566
 30
0.0
  0
SPLINE
  5
421
100
AcDbEntity
  8
0
100
AcDbSpline
 62
7
  6
CONTINUOUS
 70
0
 71
3
 72
49
 73
45
 74
0
 42
0.0000001
 43
0.0000001
 44
0.0000000001
 40
0.0
 40
0.0
 40
0.0
 40
0.0
 40
0.0070628478
 40
0.0144558389
 40
0.0221882
 40
0.0302671636
 40
0.0386983802
 40
0.0474858928
 40
0.0566325596
 40
0.0661400283
 40
0.076008935
 40
0.0862390754
 40
0.0968293237
 40
0.1077779531
 40
0.119082462
 40
0.1307398108
 40
0.1427464058
 40
0.1550980826
 40
0.1677903131
 40
0.1808180062
 40
0.1941757683
 40
0.2078577635
 40
0.236168908
 40
0.2656986092
 40
0.2963886497
 40
0.3281764789
 40
0.3609956379
 40
0.3947761306
 40
0.4294447854
 40
0.4649255803
 40
0.5011399449
 40
0.5380070482
 40
0.5754440756
 40
0.6133664978
 40
0.6516883476
 40
0.6903224871
 40
0.729180864
 40
0.768174777
 40
0.8072151285
 40
0.8462126505
 40
0.8850783864
 40
0.9237231156
 40
0.9620599679
 40
1.0
 40
1.0
 40
1.0
 40
1.0
 10
14.5150638543
 20
7.8120850575
 30
0.0
 10
14.5132547056
 20
7.8104013014
 30
0.0
 10
14.5096382773
 20
7.8068612815
 30
0.0
 10
14.5043380808
 20
7.8011846264
 30
0.0
 10
14.4990436427
 20
7.7950256404
 30
0.0
 10
14.4937581111
 20
7.7883882247
 30
0.0
 10
14.4884846294
 20
7.7812762061
 30
0.0
 10
14.4832261924
 20
7.7736939172
 30
0.0
 10
14.4779860128
 20
7.7656458348
 30
0.0
 10
14.4727671844
 20
7.7571368093
 30
0.0
 10
14.4675728222
 20
7.7481719588
 30
0.0
 10
14.462406136
 20
7.7387566538
 30
0.0
 10
14.4572701463
 20
7.7288966143
 30
0.0
 10
14.4521680774
 20
7.7185977609
 30
0.0
 10
14.4471029477
 20
7.707866355
 30
0.0
 10
14.4420778736
 20
7.6967088862
 30
0.0
 10
14.4370959348
 20
7.685132118
 30
0.0
 10
14.4321601023
 20
7.6731430915
 30
0.0
 10
14.4272734778
 20
7.660749066
 30
0.0
 10
14.4224389537
 20
7.6479575976
 30
0.0
 10
14.4176595257
 20
7.6347764368
 30
0.0
 10
14.4112917806
 20
7.6164841343
 30
0.0
 10
14.4035035867
 20
7.592696654
 30
0.0
 10
14.3945259206
 20
7.5630447125
 30
0.0
 10
14.3858353047
 20
7.5320420999
 30
0.0
 10
14.3774530326
 20
7.4997642846
 30
0.0
 10
14.369399653
 20
7.4662896923
 30
0.0
 10
14.3616948884
 20
7.4316997741
 30
0.0
 10
14.3543576048
 20
7.3960787165
 30
0.0
 10
14.347405763
 20
7.3595132463
 30
0.0
 10
14.3408563759
 20
7.3220924075
 30
0.0
 10
14.3347254683
 20
7.2839073444
 30
0.0
 10
14.3290280382
 20
7.2450510794
 30
0.0
 10
14.3237780092
 20
7.2056182853
 30
0.0
 10
14.3189882087
 20
7.1657050476
 30
0.0
 10
14.3146703369
 20
7.125408627
 30
0.0
 10
14.3108349381
 20
7.0848272205
 30
0.0
 10
14.3074913758
 20
7.0440597229
 30
0.0
 10
14.3046478141
 20
7.0032054976
 30
0.0
 10
14.3023111651
 20
6.9623640676
 30
0.0
 10
14.3004871485
 20
6.9216351044
 30
0.0
 10
14.2991801249
 20
6.8811175386
 30
0.0
 10
14.2983933605
 20
6.8409105663
 30
0.0
 10
14.2982158278
 20
6.8142192755
 30
0.0
 10
14.2982158278
 20
6.8009432137
 30
0.0
  0
SPLINE
  5
422
100
AcDbEntity
  8
0
100
AcDbSpline
 62
7
  6
CONTINUOUS
 70
0
 71
3
 72
53
 73
49
 74
0
 42
0.0000001
 43
0.0000001
 44
0.0000000001
 40
0.0
 40
0.0
 40
0.0
 40
0.0
 40
0.0528976677
 40
0.1050261154
 40
0.1562620682
 40
0.2064955259
 40
0.2556150124
 40
0.3035132116
 40
0.3500871453
 40
0.3952379271
 40
0.4388717899
 40
0.4809003774
 40
0.5212412771
 40
0.5598189646
 40
0.5965655198
 40
0.6314214644
 40
0.6643371493
 40
0.6952744498
 40
0.7099937604
 40
0.7242104971
 40
0.737924004
 40
0.751135127
 40
0.7638458996
 40
0.7760598767
 40
0.787782582
 40
0.7990212898
 40
0.8097855952
 40
0.8200877931
 40
0.8299428695
 40
0.8393692711
 40
0.8483892268
 40
0.8570289696
 40
0.8732859812
 40
0.8809911015
 40
0.8884703962
 40
0.8957750274
 40
0.9029603127
 40
0.9100847036
 40
0.9172082579
 40
0.9243910825
 40
0.9316916406
 40
0.9391654008
 40
0.9468636792
 40
0.9631033743
 40
0.9717330772
 40
0.9807420931
 40
0.9901570026
 40
1.0
 40
1.0
 40
1.0
 40
1.0
 10
11.2885317411
 20
11.0524778551
 30
0.0
 10
11.2950080925
 20
11.0520287186
 30
0.0
 10
11.3078607689
 20
11.0510499264
 30
0.0
 10
11.3269611574
 20
11.0493263442
 30
0.0
 10
11.3457095427
 20
11.0473611352
 30
0.0
 10
11.3640597642
 20
11.0451592398
 30
0.0
 10
11.3819674882
 20
11.0427259909
 30
0.0
 10
11.3993890188
 20
11.040067386
 30
0.0
 10
11.4162819404
 20
11.0371899542
 30
0.0
 10
11.4326051638
 20
11.0341007311
 30
0.0
 10
11.4483189971
 20
11.0308073331
 30
0.0
 10
11.4633852615
 20
11.0273178548
 30
0.0
 10
11.4777673753
 20
11.0236408389
 30
0.0
 10
11.4914304897
 20
11.0197853309
 30
0.0
 10
11.5043415487
 20
11.0157608124
 30
0.0
 10
11.5164694658
 20
11.0115771246
 30
0.0
 10
11.5277848855
 20
11.0072444752
 30
0.0
 10
11.5366565414
 20
11.0034583602
 30
0.0
 10
11.5433172795
 20
11.0003542184
 30
0.0
 10
11.5480097962
 20
10.9980342075
 30
0.0
 10
11.5524796826
 20
10.9956849236
 30
0.0
 10
11.5567242878
 20
10.9933078217
 30
0.0
 10
11.5607410546
 20
10.9909043116
 30
0.0
 10
11.564527548
 20
10.9884757748
 30
0.0
 10
11.5680815492
 20
10.9860237217
 30
0.0
 10
11.5714009111
 20
10.9835495374
 30
0.0
 10
11.5744836356
 20
10.9810546262
 30
0.0
 10
11.5773279308
 20
10.9785404864
 30
0.0
 10
11.5799320504
 20
10.9760084158
 30
0.0
 10
11.5822943388
 20
10.9734599295
 30
0.0
 10
11.5844136179
 20
10.9708960404
 30
0.0
 10
11.5868628435
 20
10.9675284577
 30
0.0
 10
11.588893076
 20
10.9640608147
 30
0.0
 10
11.590430655
 20
10.9605176644
 30
0.0
 10
11.5913140752
 20
10.957899143
 30
0.0
 10
11.5919469223
 20
10.9552744938
 30
0.0
 10
11.592328329
 20
10.9526454806
 30
0.0
 10
11.5924578807
 20
10.9500142619
 30
0.0
 10
11.5923353305
 20
10.9473830039
 30
0.0
 10
11.5919607796
 20
10.9447539158
 30
0.0
 10
11.5913349348
 20
10.9421291073
 30
0.0
 10
11.5904584162
 20
10.9395103833
 30
0.0
 10
11.5889301916
 20
10.9359671498
 30
0.0
 10
11.586909139
 20
10.9324989406
 30
0.0
 10
11.5844686287
 20
10.9291308351
 30
0.0
 10
11.5823561355
 20
10.9265664833
 30
0.0
 10
11.5800005522
 20
10.9240176404
 30
0.0
 10
11.5783074952
 20
10.9223669141
 30
0.0
 10
11.5774231828
 20
10.9215439742
 30
0.0
  0
SPLINE
  5
423
100
AcDbEntity
  8
0
100
AcDbSpline
 62
7
  6
CONTINUOUS
 70
0
 71
3
 72
59
 73
55
 74
0
 42
0.0000001
 43
0.0000001
 44
0.0000000001
 40
0.0
 40
0.0
 40
0.0
 40
0.0
 40
0.0417736067
 40
0.0840362449
 40
0.1266573936
 40
0.169505022
 40
0.2124462578
 40
0.2553478387
 40
0.2980766664
 40
0.3405003207
 40
0.3824875887
 40
0.4239089935
 40
0.4646373274
 40
0.5045481926
 40
0.5435205532
 40
0.5814373017
 40
0.61818585
 40
0.6360884854
 40
0.6536592458
 40
0.6708855851
 40
0.6877554289
 40
0.7042570743
 40
0.7203793439
 40
0.7361114876
 40
0.7514433427
 40
0.7663652415
 40
0.7808681782
 40
0.7949437266
 40
0.8085842159
 40
0.8217826643
 40
0.8345329677
 40
0.8468298573
 40
0.858669108
 40
0.8700475322
 40
0.8809632182
 40
0.8914155794
 40
0.9014056404
 40
0.9109361662
 40
0.9200120257
 40
0.9286404358
 40
0.9368314387
 40
0.9445983041
 40
0.951958153
 40
0.9589325359
 40
0.9655481815
 40
0.9718376552
 40
0.9778400137
 40
0.9836011573
 40
0.9864084708
 40
0.9891757905
 40
0.9919106587
 40
0.9946209116
 40
0.997314615
 40
1.0
 40
1.0
 40
1.0
 40
1.0
 10
14.1881793629
 20
8.079544968
 30
0.0
 10
14.1881793629
 20
8.063127838
 30
0.0
 10
14.1879232367
 20
8.0301008716
 30
0.0
 10
14.1867909605
 20
7.9803353566
 30
0.0
 10
14.1849116493
 20
7.9301699797
 30
0.0
 10
14.1822914779
 20
7.8797708478
 30
0.0
 10
14.1789390951
 20
7.8293046683
 30
0.0
 10
14.1748655868
 20
7.7789384109
 30
0.0
 10
14.1700844449
 20
7.7288387042
 30
0.0
 10
14.1646115197
 20
7.6791712907
 30
0.0
 10
14.1584649688
 20
7.6301004724
 30
0.0
 10
14.1516651977
 20
7.5817885646
 30
0.0
 10
14.1442347939
 20
7.5343953486
 30
0.0
 10
14.1361984504
 20
7.4880775556
 30
0.0
 10
14.1275828967
 20
7.4429882714
 30
0.0
 10
14.1184167744
 20
7.3992766677
 30
0.0
 10
14.1102758941
 20
7.3638171581
 30
0.0
 10
14.1035007429
 20
7.3362537851
 30
0.0
 10
14.0983453284
 20
7.3161941378
 30
0.0
 10
14.0930759459
 20
7.29658411
 30
0.0
 10
14.087697005
 20
7.2774398958
 30
0.0
 10
14.0822129073
 20
7.2587773318
 30
0.0
 10
14.0766282644
 20
7.2406118362
 30
0.0
 10
14.0709476428
 20
7.2229584273
 30
0.0
 10
14.065175818
 20
7.2058316803
 30
0.0
 10
14.0593175114
 20
7.1892457468
 30
0.0
 10
14.0533776443
 20
7.1732143072
 30
0.0
 10
14.0473610763
 20
7.1577505972
 30
0.0
 10
14.0412728559
 20
7.1428673529
 30
0.0
 10
14.0351179617
 20
7.128576846
 30
0.0
 10
14.0289015492
 20
7.1148908208
 30
0.0
 10
14.0226286939
 20
7.1018205392
 30
0.0
 10
14.0163046332
 20
7.0893767072
 30
0.0
 10
14.0099345122
 20
7.0775695328
 30
0.0
 10
14.003523618
 20
7.0664086398
 30
0.0
 10
13.9970771286
 20
7.0559031409
 30
0.0
 10
13.9906003349
 20
7.0460615388
 30
0.0
 10
13.9840983944
 20
7.0368918178
 30
0.0
 10
13.9775765343
 20
7.0284013348
 30
0.0
 10
13.9710398106
 20
7.0205969368
 30
0.0
 10
13.9644932884
 20
7.0134848499
 30
0.0
 10
13.9579418104
 20
7.0070708387
 30
0.0
 10
13.9513901639
 20
7.001360115
 30
0.0
 10
13.9448428697
 20
6.9963575592
 30
0.0
 10
13.9383044432
 20
6.9920676826
 30
0.0
 10
13.9317790599
 20
6.9884948789
 30
0.0
 10
13.9252718196
 20
6.9856434986
 30
0.0
 10
13.9198202219
 20
6.9838567025
 30
0.0
 10
13.9154893877
 20
6.9828047126
 30
0.0
 10
13.9122777399
 20
6.9822041974
 30
0.0
 10
13.909075827
 20
6.9817857059
 30
0.0
 10
13.9058842624
 20
6.9815493227
 30
0.0
 10
13.9027039439
 20
6.9814951567
 30
0.0
 10
13.9005902967
 20
6.9815806538
 30
0.0
 10
13.8995374621
 20
6.9816536619
 30
0.0
  0
SPLINE
  5
424
100
AcDbEntity
  8
0
100
AcDbSpline
 62
7
  6
CONTINUOUS
 70
0
 71
3
 72
39
 73
35
 74
0
 42
0.0000001
 43
0.0000001
 44
0.0000000001
 40
0.0
 40
0.0
 40
0.0
 40
0.0
 40
0.0958313223
 40
0.1890999066
 40
0.2792396479
 40
0.3229663115
 40
0.3657099292
 40
0.4074081191
 40
0.4480006754
 40
0.4874302648
 40
0.5256424385
 40
0.5625857699
 40
0.5982125807
 40
0.6324786396
 40
0.665344311
 40
0.6967743203
 40
0.7267388303
 40
0.7552139511
 40
0.7821824427
 40
0.807635341
 40
0.8315726205
 40
0.8540058864
 40
0.8749600023
 40
0.8944766962
 40
0.9126183481
 40
0.9294727137
 40
0.94515911
 40
0.9598336921
 40
0.9668557838
 40
0.973702854
 40
0.9804062715
 40
0.9869997015
 40
0.9935186515
 40
1.0
 40
1.0
 40
1.0
 40
1.0
 10
9.0150798692
 20
12.2304919195
 30
0.0
 10
9.0240396862
 20
12.2298705541
 30
0.0
 10
9.0417068187
 20
12.2284473871
 30
0.0
 10
9.0677382229
 20
12.2257307105
 30
0.0
 10
9.088851033
 20
12.2229908226
 30
0.0
 10
9.1052186511
 20
12.2205244825
 30
0.0
 10
9.1170704188
 20
12.218566477
 30
0.0
 10
9.1286027707
 20
12.2164849269
 30
0.0
 10
9.1397964572
 20
12.2142832555
 30
0.0
 10
9.1506327823
 20
12.2119651962
 30
0.0
 10
9.1610936642
 20
12.2095346565
 30
0.0
 10
9.1711616526
 20
12.2069956793
 30
0.0
 10
9.1808199739
 20
12.204352606
 30
0.0
 10
9.1900525408
 20
12.2016097942
 30
0.0
 10
9.1988440151
 20
12.198771933
 30
0.0
 10
9.2071798021
 20
12.1958437251
 30
0.0
 10
9.2150461082
 20
12.1928300956
 30
0.0
 10
9.2224299655
 20
12.1897360947
 30
0.0
 10
9.2293192325
 20
12.1865667911
 30
0.0
 10
9.2357026981
 20
12.1833274955
 30
0.0
 10
9.2415699882
 20
12.1800233486
 30
0.0
 10
9.246911738
 20
12.176659696
 30
0.0
 10
9.2517194422
 20
12.1732416309
 30
0.0
 10
9.2559855364
 20
12.1697741382
 30
0.0
 10
9.2597032682
 20
12.1662619918
 30
0.0
 10
9.2628664449
 20
12.1627092123
 30
0.0
 10
9.2654690403
 20
12.1591204262
 30
0.0
 10
9.2671904608
 20
12.156057563
 30
0.0
 10
9.2682636006
 20
12.1536051474
 30
0.0
 10
9.2689133215
 20
12.1517880948
 30
0.0
 10
9.2694191313
 20
12.1499674576
 30
0.0
 10
9.2697807547
 20
12.1481439951
 30
0.0
 10
9.269997871
 20
12.1463187549
 30
0.0
 10
9.2700461675
 20
12.1450998194
 30
0.0
 10
9.2700461728
 20
12.1444923857
 30
0.0
  0
SPLINE
  5
425
100
AcDbEntity
  8
0
100
AcDbSpline
 62
7
  6
CONTINUOUS
 70
0
 71
3
 72
39
 73
35
 74
0
 42
0.0000001
 43
0.0000001
 44
0.0000000001
 40
0.0
 40
0.0
 40
0.0
 40
0.0
 40
0.0958313223
 40
0.1890999066
 40
0.2792396479
 40
0.3229663115
 40
0.3657099292
 40
0.4074081191
 40
0.4480006754
 40
0.4874302648
 40
0.5256424385
 40
0.5625857699
 40
0.5982125807
 40
0.6324786396
 40
0.665344311
 40
0.6967743203
 40
0.7267388303
 40
0.7552139511
 40
0.7821824427
 40
0.807635341
 40
0.8315726205
 40
0.8540058864
 40
0.8749600023
 40
0.8944766962
 40
0.9126183481
 40
0.9294727137
 40
0.94515911
 40
0.9598336921
 40
0.9668557838
 40
0.973702854
 40
0.9804062715
 40
0.9869997015
 40
0.9935186515
 40
1.0
 40
1.0
 40
1.0
 40
1.0
 10
14.3276722286
 20
11.8620623881
 30
0.0
 10
14.3366320456
 20
11.8614410226
 30
0.0
 10
14.3542991781
 20
11.8600178556
 30
0.0
 10
14.3803305823
 20
11.857301179
 30
0.0
 10
14.4014433924
 20
11.8545612911
 30
0.0
 10
14.4178110104
 20
11.852094951
 30
0.0
 10
14.4296627781
 20
11.8501369456
 30
0.0
 10
14.4411951301
 20
11.8480553954
 30
0.0
 10
14.4523888166
 20
11.845853724
 30
0.0
 10
14.4632251417
 20
11.8435356647
 30
0.0
 10
14.4736860236
 20
11.841105125
 30
0.0
 10
14.483754012
 20
11.8385661479
 30
0.0
 10
14.4934123333
 20
11.8359230745
 30
0.0
 10
14.5026449002
 20
11.8331802627
 30
0.0
 10
14.5114363745
 20
11.8303424015
 30
0.0
 10
14.5197721615
 20
11.8274141936
 30
0.0
 10
14.5276384676
 20
11.8244005641
 30
0.0
 10
14.5350223249
 20
11.8213065632
 30
0.0
 10
14.5419115919
 20
11.8181372597
 30
0.0
 10
14.5482950575
 20
11.814897964
 30
0.0
 10
14.5541623476
 20
11.8115938171
 30
0.0
 10
14.5595040973
 20
11.8082301645
 30
0.0
 10
14.5643118016
 20
11.8048120995
 30
0.0
 10
14.5685778958
 20
11.8013446068
 30
0.0
 10
14.5722956275
 20
11.7978324603
 30
0.0
 10
14.5754588042
 20
11.7942796809
 30
0.0
 10
14.5780613996
 20
11.7906908947
 30
0.0
 10
14.5797828202
 20
11.7876280316
 30
0.0
 10
14.58085596
 20
11.785175616
 30
0.0
 10
14.5815056809
 20
11.7833585633
 30
0.0
 10
14.5820114907
 20
11.7815379262
 30
0.0
 10
14.5823731141
 20
11.7797144636
 30
0.0
 10
14.5825902304
 20
11.7778892234
 30
0.0
 10
14.5826385269
 20
11.7766702879
 30
0.0
 10
14.5826385322
 20
11.7760628542
 30
0.0
  0
SPLINE
  5
426
100
AcDbEntity
  8
0
100
AcDbSpline
 62
7
  6
CONTINUOUS
 70
0
 71
3
 72
60
 73
56
 74
0
 42
0.0000001
 43
0.0000001
 44
0.0000000001
 40
0.0
 40
0.0
 40
0.0
 40
0.0
 40
0.0417737215
 40
0.0840362954
 40
0.1266575307
 40
0.1695051874
 40
0.2124464681
 40
0.2553480875
 40
0.2980769527
 40
0.3405006415
 40
0.3824879411
 40
0.4239093736
 40
0.4646377307
 40
0.5045486136
 40
0.543520985
 40
0.5814377367
 40
0.599965091
 40
0.6181867239
 40
0.6360893624
 40
0.6536601077
 40
0.6708864507
 40
0.6877562714
 40
0.7042579206
 40
0.7203801597
 40
0.7361123056
 40
0.7514441249
 40
0.7663660213
 40
0.7808689196
 40
0.7949444585
 40
0.8085849095
 40
0.8217833396
 40
0.8345336065
 40
0.8468304684
 40
0.8586696849
 40
0.8700480724
 40
0.8809637257
 40
0.8914160437
 40
0.9014060712
 40
0.9109365509
 40
0.9200123738
 40
0.9286407389
 40
0.9368317014
 40
0.9445985263
 40
0.9519583321
 40
0.9589326812
 40
0.9655482848
 40
0.9718377328
 40
0.9778400566
 40
0.9836011837
 40
0.9864084827
 40
0.9891757961
 40
0.9919106627
 40
0.9946209124
 40
0.9973146132
 40
1.0
 40
1.0
 40
1.0
 40
1.0
 10
14.8828491254
 20
10.1994332974
 30
0.0
 10
14.8828491254
 20
10.177232773
 30
0.0
 10
14.8825027747
 20
10.1325712273
 30
0.0
 10
14.8809716118
 20
10.0652745265
 30
0.0
 10
14.8784302663
 20
9.9974371482
 30
0.0
 10
14.8748870589
 20
9.9292836119
 30
0.0
 10
14.8703537049
 20
9.8610394343
 30
0.0
 10
14.8648451864
 20
9.7929303745
 30
0.0
 10
14.8583797522
 20
9.7251817701
 30
0.0
 10
14.8509788348
 20
9.6580177486
 30
0.0
 10
14.8426669889
 20
9.5916604942
 30
0.0
 10
14.8334718085
 20
9.5263294977
 30
0.0
 10
14.8234238355
 20
9.4622408468
 30
0.0
 10
14.8125564709
 20
9.3996064214
 30
0.0
 10
14.8009058275
 20
9.3386334736
 30
0.0
 10
14.7904982363
 20
9.2890009445
 30
0.0
 10
14.7817979003
 20
9.250285065
 30
0.0
 10
14.7751517441
 20
9.222010736
 30
0.0
 10
14.7683400739
 20
9.1942990638
 30
0.0
 10
14.761368517
 20
9.1671729459
 30
0.0
 10
14.7542428744
 20
9.1406548208
 30
0.0
 10
14.7469690188
 20
9.1147666159
 30
0.0
 10
14.739553037
 20
9.0895297302
 30
0.0
 10
14.7320010063
 20
9.0649650296
 30
0.0
 10
14.7243192767
 20
9.0410928042
 30
0.0
 10
14.7165141218
 20
9.0179327859
 30
0.0
 10
14.7085921132
 20
8.9955040867
 30
0.0
 10
14.7005597233
 20
8.9738252333
 30
0.0
 10
14.6924236951
 20
8.9529140957
 30
0.0
 10
14.6841907013
 20
8.9327879247
 30
0.0
 10
14.6758676067
 20
8.9134632884
 30
0.0
 10
14.6674612766
 20
8.8949560918
 30
0.0
 10
14.6589786522
 20
8.8772815453
 30
0.0
 10
14.6504267683
 20
8.8604541388
 30
0.0
 10
14.6418126002
 20
8.844487672
 30
0.0
 10
14.6331433081
 20
8.8293951541
 30
0.0
 10
14.6244258591
 20
8.8151889226
 30
0.0
 10
14.6156674613
 20
8.801880452
 30
0.0
 10
14.6068750256
 20
8.7894805696
 30
0.0
 10
14.5980556848
 20
8.7779991906
 30
0.0
 10
14.5892162209
 20
8.7674456045
 30
0.0
 10
14.5803635209
 20
8.757828209
 30
0.0
 10
14.5715041201
 20
8.7491548048
 30
0.0
 10
14.5626444769
 20
8.7414324586
 30
0.0
 10
14.5537907505
 20
8.7346677174
 30
0.0
 10
14.5449489725
 20
8.7288667767
 30
0.0
 10
14.5361248869
 20
8.7240354327
 30
0.0
 10
14.5273252772
 20
8.7201797729
 30
0.0
 10
14.5199532484
 20
8.7177635598
 30
0.0
 10
14.5140967545
 20
8.7163411353
 30
0.0
 10
14.5097537285
 20
8.7155291304
 30
0.0
 10
14.5054238663
 20
8.7149632412
 30
0.0
 10
14.5011079934
 20
8.7146436473
 30
0.0
 10
14.4968073304
 20
8.7145705303
 30
0.0
 10
14.4939491024
 20
8.7146861761
 30
0.0
 10
14.4925253811
 20
8.7147849143
 30
0.0
  0
SPLINE
  5
427
100
AcDbEntity
  8
0
100
AcDbSpline
 62
7
  6
CONTINUOUS
 70
0
 71
3
 72
50
 73
46
 74
0
 42
0.0000001
 43
0.0000001
 44
0.0000000001
 40
0.0
 40
0.0
 40
0.0
 40
0.0
 40
0.0461353694
 40
0.0917652799
 40
0.136827246
 40
0.1812655566
 40
0.225023257
 40
0.2680447134
 40
0.3102758969
 40
0.3516640685
 40
0.3921580968
 40
0.4317085083
 40
0.4702676503
 40
0.5077898978
 40
0.5442317134
 40
0.5795518472
 40
0.6137116276
 40
0.646675071
 40
0.6784091285
 40
0.7088841078
 40
0.7380739288
 40
0.7659565021
 40
0.7925143753
 40
0.8052929498
 40
0.8177362261
 40
0.8298436208
 40
0.8416150382
 40
0.8530507606
 40
0.8641516521
 40
0.8749191722
 40
0.8853553094
 40
0.8954628164
 40
0.9052452072
 40
0.9147067463
 40
0.9238527135
 40
0.9326893977
 40
0.9412241523
 40
0.9494656827
 40
0.9574240485
 40
0.9651107838
 40
0.9725391802
 40
0.9797242912
 40
0.9866830756
 40
0.9934346031
 40
1.0
 40
1.0
 40
1.0
 40
1.0
 10
14.8210298674
 20
10.2037204775
 30
0.0
 10
14.8210298674
 20
10.2179521611
 30
0.0
 10
14.8208890362
 20
10.2462598236
 30
0.0
 10
14.8202483684
 20
10.288463685
 30
0.0
 10
14.819180144
 20
10.3301352888
 30
0.0
 10
14.8176859462
 20
10.3712159056
 30
0.0
 10
14.8157678599
 20
10.4116488088
 30
0.0
 10
14.813428593
 20
10.4513775689
 30
0.0
 10
14.8106714236
 20
10.490346829
 30
0.0
 10
14.8075002233
 20
10.5285023553
 30
0.0
 10
14.8039194744
 20
10.5657910188
 30
0.0
 10
14.7999341891
 20
10.602160907
 30
0.0
 10
14.7955499524
 20
10.6375614025
 30
0.0
 10
14.7907729568
 20
10.6719432571
 30
0.0
 10
14.7856099034
 20
10.7052586482
 30
0.0
 10
14.7800680166
 20
10.7374612543
 30
0.0
 10
14.774155117
 20
10.768506343
 30
0.0
 10
14.7678795111
 20
10.7983508131
 30
0.0
 10
14.7612499688
 20
10.8269532668
 30
0.0
 10
14.7542758218
 20
10.8542740771
 30
0.0
 10
14.7469668535
 20
10.8802755412
 30
0.0
 10
14.7393332493
 20
10.9049215453
 30
0.0
 10
14.7326269732
 20
10.9245464016
 30
0.0
 10
14.7270958245
 20
10.9395316652
 30
0.0
 10
14.7229262708
 20
10.9502661114
 30
0.0
 10
14.7186836615
 20
10.9606370023
 30
0.0
 10
14.714369495
 20
10.9706407883
 30
0.0
 10
14.7099852105
 20
10.980273984
 30
0.0
 10
14.7055323272
 20
10.9895332658
 30
0.0
 10
14.7010124312
 20
10.9984154653
 30
0.0
 10
14.6964270003
 20
11.0069174895
 30
0.0
 10
14.691777626
 20
11.0150364244
 30
0.0
 10
14.6870659321
 20
11.022769507
 30
0.0
 10
14.6822934288
 20
11.0301140363
 30
0.0
 10
14.6774617596
 20
11.037067516
 30
0.0
 10
14.6725725624
 20
11.0436275853
 30
0.0
 10
14.6676273616
 20
11.049791926
 30
0.0
 10
14.6626278289
 20
11.0555584513
 30
0.0
 10
14.65757559
 20
11.0609251756
 30
0.0
 10
14.6524721747
 20
11.0658901274
 30
0.0
 10
14.6473192613
 20
11.0704515929
 30
0.0
 10
14.642118489
 20
11.0746078826
 30
0.0
 10
14.6368713377
 20
11.0783573505
 30
0.0
 10
14.6315798589
 20
11.0816984236
 30
0.0
 10
14.6279768793
 20
11.0836783162
 30
0.0
 10
14.626171245
 20
11.0845955999
 30
0.0
  0
SPLINE
  5
428
100
AcDbEntity
  8
0
100
AcDbSpline
 62
7
  6
CONTINUOUS
 70
0
 71
3
 72
55
 73
51
 74
0
 42
0.0000001
 43
0.0000001
 44
0.0000000001
 40
0.0
 40
0.0
 40
0.0
 40
0.0
 40
0.0401741257
 40
0.0807984973
 40
0.1217616376
 40
0.1629508622
 40
0.2042527017
 40
0.2455532897
 40
0.2867387652
 40
0.3276956696
 40
0.3683113459
 40
0.4084743396
 40
0.4480748012
 40
0.4870048946
 40
0.5251592094
 40
0.5624351838
 40
0.5987335396
 40
0.6339587348
 40
0.6511403765
 40
0.6680198668
 40
0.6845864977
 40
0.7008299663
 40
0.7167402428
 40
0.7323077471
 40
0.7475232102
 40
0.7623778637
 40
0.7768632963
 40
0.7909716567
 40
0.8046955086
 40
0.8180280478
 40
0.8309629592
 40
0.8434946512
 40
0.8556181191
 40
0.867329201
 40
0.8786244555
 40
0.8895014439
 40
0.8999586346
 40
0.909995721
 40
0.9196135675
 40
0.9288145791
 40
0.937602711
 40
0.9459839102
 40
0.953966218
 40
0.9615603081
 40
0.9687797103
 40
0.9756414557
 40
0.9821664222
 40
0.9883800356
 40
0.9943126322
 40
1.0
 40
1.0
 40
1.0
 40
1.0
 10
14.8210298674
 20
10.2037204775
 30
0.0
 10
14.8210298674
 20
10.1828027469
 30
0.0
 10
14.8207224252
 20
10.1407322661
 30
0.0
 10
14.8193618805
 20
10.0773464574
 30
0.0
 10
14.817102894
 20
10.0134573446
 30
0.0
 10
14.8139520636
 20
9.9492529039
 30
0.0
 10
14.8099186254
 20
9.8849218215
 30
0.0
 10
14.8050144273
 20
9.820653216
 30
0.0
 10
14.7992538946
 20
9.7566360059
 30
0.0
 10
14.7926539865
 20
9.6930583703
 30
0.0
 10
14.7852341474
 20
9.6301071874
 30
0.0
 10
14.7770162496
 20
9.5679674827
 30
0.0
 10
14.76802453
 20
9.5068218815
 30
0.0
 10
14.7582855205
 20
9.4468500621
 30
0.0
 10
14.7478279686
 20
9.3882282421
 30
0.0
 10
14.7366827654
 20
9.3311285755
 30
0.0
 10
14.7248828166
 20
9.2757189162
 30
0.0
 10
14.7144485501
 20
9.2307232152
 30
0.0
 10
14.7057884006
 20
9.1957018053
 30
0.0
 10
14.6992055604
 20
9.1701757953
 30
0.0
 10
14.6924860106
 20
9.1451909301
 30
0.0
 10
14.6856347723
 20
9.1207655408
 30
0.0
 10
14.6786567971
 20
9.0969175831
 30
0.0
 10
14.6715573278
 20
9.0736645624
 30
0.0
 10
14.6643414877
 20
9.0510235645
 30
0.0
 10
14.6570147009
 20
9.0290111991
 30
0.0
 10
14.6495822528
 20
9.0076436351
 30
0.0
 10
14.6420497313
 20
8.9869365336
 30
0.0
 10
14.6344225663
 20
8.9669050973
 30
0.0
 10
14.6267064924
 20
8.9475639882
 30
0.0
 10
14.6189070651
 20
8.9289273962
 30
0.0
 10
14.6110301465
 20
8.9110089352
 30
0.0
 10
14.6030813963
 20
8.8938217372
 30
0.0
 10
14.5950667819
 20
8.8773783207
 30
0.0
 10
14.586992042
 20
8.8616907165
 30
0.0
 10
14.5788632222
 20
8.846770302
 30
0.0
 10
14.5706861078
 20
8.8326279668
 30
0.0
 10
14.5624667865
 20
8.8192739038
 30
0.0
 10
14.5542110472
 20
8.8067178268
 30
0.0
 10
14.5459249676
 20
8.7949687078
 30
0.0
 10
14.5376142788
 20
8.7840350642
 30
0.0
 10
14.529284973
 20
8.7739246305
 30
0.0
 10
14.5209426366
 20
8.7646447414
 30
0.0
 10
14.5125930711
 20
8.7562019283
 30
0.0
 10
14.5042416205
 20
8.7486024394
 30
0.0
 10
14.4958937705
 20
8.7418517449
 30
0.0
 10
14.4875546443
 20
8.7359552784
 30
0.0
 10
14.4792291895
 20
8.7309177003
 30
0.0
 10
14.4709234159
 20
8.7267443326
 30
0.0
 10
14.4652951145
 20
8.724498324
 30
0.0
 10
14.4624958409
 20
8.7235322776
 30
0.0
  0
SPLINE
  5
429
100
AcDbEntity
  8
0
100
AcDbSpline
 62
7
  6
CONTINUOUS
 70
0
 71
3
 72
66
 73
62
 74
0
 42
0.0000001
 43
0.0000001
 44
0.0000000001
 40
0.0
 40
0.0
 40
0.0
 40
0.0
 40
0.0452100958
 40
0.091000882
 40
0.1371884425
 40
0.1835858056
 40
0.2300054417
 40
0.2762595347
 40
0.322161166
 40
0.3675252211
 40
0.4121693755
 40
0.4559150727
 40
0.4985885253
 40
0.5400217374
 40
0.5602229025
 40
0.580054177
 40
0.5994967084
 40
0.6185321414
 40
0.6371428251
 40
0.6553116735
 40
0.67302239
 40
0.6902593674
 40
0.7070078472
 40
0.7232539396
 40
0.7389846648
 40
0.7541881316
 40
0.7688534651
 40
0.7829711258
 40
0.7965327978
 40
0.809531773
 40
0.82196293
 40
0.8338231007
 40
0.8451112681
 40
0.8558288934
 40
0.8659804206
 40
0.8755736355
 40
0.8846205219
 40
0.8931378177
 40
0.9011482117
 40
0.9086812776
 40
0.9157748844
 40
0.9224764009
 40
0.9288437812
 40
0.9319246359
 40
0.9349487804
 40
0.9379264614
 40
0.9408684794
 40
0.9437860667
 40
0.9466907584
 40
0.9495942622
 40
0.9525083005
 40
0.9554444551
 40
0.958414034
 40
0.9614279302
 40
0.9644965064
 40
0.9676295366
 40
0.9708361521
 40
0.9775010352
 40
0.9845526494
 40
0.9920393727
 40
1.0
 40
1.0
 40
1.0
 40
1.0
 10
14.7278550881
 20
10.1137205464
 30
0.0
 10
14.7278550881
 20
10.0960243125
 30
0.0
 10
14.7275394864
 20
10.060403833
 30
0.0
 10
14.7261478444
 20
10.006720863
 30
0.0
 10
14.7238402417
 20
9.9526042015
 30
0.0
 10
14.7206265257
 20
9.8982872861
 30
0.0
 10
14.71652056
 20
9.8440043973
 30
0.0
 10
14.7115400514
 20
9.7899895909
 30
0.0
 10
14.7057065342
 20
9.7364757897
 30
0.0
 10
14.6990452527
 20
9.6836937238
 30
0.0
 10
14.6915850606
 20
9.6318709594
 30
0.0
 10
14.683358307
 20
9.5812308189
 30
0.0
 10
14.6744006625
 20
9.5319917009
 30
0.0
 10
14.6662925965
 20
9.4919732237
 30
0.0
 10
14.6594583227
 20
9.4608261976
 30
0.0
 10
14.6542180109
 20
9.4381433205
 30
0.0
 10
14.648825715
 20
9.4159653992
 30
0.0
 10
14.6432871563
 20
9.3943163269
 30
0.0
 10
14.6376084219
 20
9.3732194385
 30
0.0
 10
14.631795566
 20
9.3526974745
 30
0.0
 10
14.6258549505
 20
9.3327725384
 30
0.0
 10
14.6197929507
 20
9.3134660948
 30
0.0
 10
14.6136161462
 20
9.2947989262
 30
0.0
 10
14.6073312294
 20
9.2767911174
 30
0.0
 10
14.6009449526
 20
9.2594620401
 30
0.0
 10
14.5944642956
 20
9.2428303014
 30
0.0
 10
14.5878961613
 20
9.2269137729
 30
0.0
 10
14.5812477538
 20
9.211729493
 30
0.0
 10
14.5745261275
 20
9.1972937394
 30
0.0
 10
14.5677386152
 20
9.1836219029
 30
0.0
 10
14.560892425
 20
9.1707285664
 30
0.0
 10
14.5539949073
 20
9.1586274063
 30
0.0
 10
14.5470533897
 20
9.1473312094
 30
0.0
 10
14.5400751219
 20
9.1368518819
 30
0.0
 10
14.5330674406
 20
9.1272003331
 30
0.0
 10
14.5260373568
 20
9.118386671
 30
0.0
 10
14.5189919897
 20
9.1104199289
 30
0.0
 10
14.5119379364
 20
9.1033084826
 30
0.0
 10
14.50488175
 20
9.0970597265
 30
0.0
 10
14.4978294987
 20
9.0916806704
 30
0.0
 10
14.4907868057
 20
9.087177772
 30
0.0
 10
14.4837601767
 20
9.0835577119
 30
0.0
 10
14.4778572834
 20
9.0812571045
 30
0.0
 10
14.4731697591
 20
9.0798843439
 30
0.0
 10
14.4697023481
 20
9.0790892553
 30
0.0
 10
14.4662461497
 20
9.0785180444
 30
0.0
 10
14.4628021234
 20
9.0781708928
 30
0.0
 10
14.4593713615
 20
9.0780479537
 30
0.0
 10
14.4559549413
 20
9.0781493509
 30
0.0
 10
14.4525539717
 20
9.0784751371
 30
0.0
 10
14.4491695416
 20
9.0790251093
 30
0.0
 10
14.4458027135
 20
9.0797990357
 30
0.0
 10
14.4424545432
 20
9.0807966693
 30
0.0
 10
14.4391260306
 20
9.0820176046
 30
0.0
 10
14.4358181298
 20
9.0834612964
 30
0.0
 10
14.4325316842
 20
9.0851272817
 30
0.0
 10
14.4281233896
 20
9.0876767722
 30
0.0
 10
14.4226617209
 20
9.0914464849
 30
0.0
 10
14.4162975203
 20
9.0967899057
 30
0.0
 10
14.4100438259
 20
9.1030031358
 30
0.0
 10
14.4060781459
 20
9.1075749339
 30
0.0
 10
14.4041120687
 20
9.109992326
 30
0.0
  0
SPLINE
  5
42A
100
AcDbEntity
  8
0
100
AcDbSpline
 62
7
  6
CONTINUOUS
 70
0
 71
3
 72
57
 73
53
 74
0
 42
0.0000001
 43
0.0000001
 44
0.0000000001
 40
0.0
 40
0.0
 40
0.0
 40
0.0
 40
0.0417736534
 40
0.0840366016
 40
0.1266578211
 40
0.1695056346
 40
0.21244701
 40
0.2553487447
 40
0.2980777184
 40
0.3405015169
 40
0.3824889248
 40
0.4239104649
 40
0.4646389286
 40
0.5045499179
 40
0.5435223959
 40
0.5814392547
 40
0.6181879055
 40
0.6536609025
 40
0.670887291
 40
0.6877571705
 40
0.7042588558
 40
0.7203811606
 40
0.7361133347
 40
0.7514452242
 40
0.7663671439
 40
0.7808701133
 40
0.794945674
 40
0.8085861929
 40
0.8217846464
 40
0.8345349745
 40
0.8468318643
 40
0.858671133
 40
0.8700495541
 40
0.8809652503
 40
0.8914176071
 40
0.9014076696
 40
0.9109381913
 40
0.9200140439
 40
0.9286424511
 40
0.9368334399
 40
0.9446003045
 40
0.9519601344
 40
0.9589345191
 40
0.9655501451
 40
0.9718396237
 40
0.9778419676
 40
0.9836031197
 40
0.9891757627
 40
0.9919106391
 40
0.994620898
 40
0.9973146063
 40
1.0
 40
1.0
 40
1.0
 40
1.0
 10
14.6298755109
 20
10.0990795367
 30
0.0
 10
14.6298755109
 20
10.085087676
 30
0.0
 10
14.6296572171
 20
10.0569396282
 30
0.0
 10
14.6286922141
 20
10.0145257757
 30
0.0
 10
14.6270905133
 20
9.9717710867
 30
0.0
 10
14.6248574108
 20
9.9288172318
 30
0.0
 10
14.6220002532
 20
9.8858062071
 30
0.0
 10
14.6185285029
 20
9.8428803562
 30
0.0
 10
14.6144536521
 20
9.8001816778
 30
0.0
 10
14.6097892125
 20
9.7578514352
 30
0.0
 10
14.6045506585
 20
9.7160296578
 30
0.0
 10
14.5987553816
 20
9.6748546824
 30
0.0
 10
14.5924226319
 20
9.6344626901
 30
0.0
 10
14.5855734569
 20
9.594987246
 30
0.0
 10
14.5782306305
 20
9.556558869
 30
0.0
 10
14.5704185882
 20
9.5193045234
 30
0.0
 10
14.5621633153
 20
9.4833474314
 30
0.0
 10
14.554868193
 20
9.4542864889
 30
0.0
 10
14.5488212375
 20
9.4317824855
 30
0.0
 10
14.5442368794
 20
9.4154663815
 30
0.0
 10
14.5395629272
 20
9.3995607867
 30
0.0
 10
14.5348032753
 20
9.3840788292
 30
0.0
 10
14.5299618205
 20
9.3690333125
 30
0.0
 10
14.5250426464
 20
9.354436656
 30
0.0
 10
14.5200497489
 20
9.3403009247
 30
0.0
 10
14.5149873628
 20
9.3266377722
 30
0.0
 10
14.5098595784
 20
9.3134584871
 30
0.0
 10
14.5046707589
 20
9.3007739135
 30
0.0
 10
14.4994250805
 20
9.2885945234
 30
0.0
 10
14.4941270077
 20
9.2769303107
 30
0.0
 10
14.4887807949
 20
9.2657908908
 30
0.0
 10
14.4833909749
 20
9.25518537
 30
0.0
 10
14.477961869
 20
9.2451224666
 30
0.0
 10
14.4724980389
 20
9.2356103651
 30
0.0
 10
14.4670038527
 20
9.2266568474
 30
0.0
 10
14.4614838515
 20
9.2182691489
 30
0.0
 10
14.4559424149
 20
9.2104540792
 30
0.0
 10
14.450383996
 20
9.2032179124
 30
0.0
 10
14.4448129254
 20
9.1965664679
 30
0.0
 10
14.4392334777
 20
9.1905050838
 30
0.0
 10
14.433649844
 20
9.1850386219
 30
0.0
 10
14.4280660178
 20
9.1801715986
 30
0.0
 10
14.4224859671
 20
9.1759080718
 30
0.0
 10
14.4169133735
 20
9.1722520164
 30
0.0
 10
14.4113521015
 20
9.169207025
 30
0.0
 10
14.4058057355
 20
9.1667769471
 30
0.0
 10
14.4002790713
 20
9.1649652258
 30
0.0
 10
14.3956635053
 20
9.1639675984
 30
0.0
 10
14.3920026724
 20
9.1634892082
 30
0.0
 10
14.389282537
 20
9.1632877419
 30
0.0
 10
14.3865720486
 20
9.1632416586
 30
0.0
 10
14.3847706423
 20
9.1633145435
 30
0.0
 10
14.3838733394
 20
9.1633767724
 30
0.0
  0
SPLINE
  5
42B
100
AcDbEntity
  8
0
100
AcDbSpline
 62
7
  6
CONTINUOUS
 70
0
 71
3
 72
60
 73
56
 74
0
 42
0.0000001
 43
0.0000001
 44
0.0000000001
 40
0.0
 40
0.0
 40
0.0
 40
0.0
 40
0.0532122143
 40
0.1056321538
 40
0.1571421459
 40
0.2076317293
 40
0.2569909326
 40
0.3051141858
 40
0.3518995392
 40
0.3972494003
 40
0.4410709497
 40
0.4832766305
 40
0.523784729
 40
0.5433787454
 40
0.5625207824
 40
0.581202509
 40
0.5994162291
 40
0.6171547456
 40
0.634411397
 40
0.6511802779
 40
0.6674559847
 40
0.6832340122
 40
0.6985105431
 40
0.7132826427
 40
0.7275484149
 40
0.7413068606
 40
0.7545583405
 40
0.767304371
 40
0.7795480187
 40
0.7912940336
 40
0.8025489416
 40
0.8133215884
 40
0.823623106
 40
0.8334675601
 40
0.8428721834
 40
0.8518578147
 40
0.8604495297
 40
0.868676859
 40
0.8765744793
 40
0.8841823291
 40
0.8915458047
 40
0.8987155894
 40
0.9057469747
 40
0.9126989443
 40
0.9196326688
 40
0.9266098549
 40
0.933690958
 40
0.9409336246
 40
0.9483913291
 40
0.9561126614
 40
0.9641407784
 40
0.9725134197
 40
0.9812631496
 40
0.9904175638
 40
1.0
 40
1.0
 40
1.0
 40
1.0
 10
14.7278550881
 20
10.1137205464
 30
0.0
 10
14.7278550881
 20
10.1266724348
 30
0.0
 10
14.727688252
 20
10.1523837154
 30
0.0
 10
14.7269266803
 20
10.1906257678
 30
0.0
 10
14.7256572483
 20
10.2281914007
 30
0.0
 10
14.7238831481
 20
10.26499081
 30
0.0
 10
14.721608597
 20
10.3009368309
 30
0.0
 10
14.7188391227
 20
10.3359438621
 30
0.0
 10
14.7155813975
 20
10.3699287495
 30
0.0
 10
14.7118432913
 20
10.4028107382
 30
0.0
 10
14.7076338381
 20
10.4345117994
 30
0.0
 10
14.7029631588
 20
10.4649565646
 30
0.0
 10
14.698649681
 20
10.4894843592
 30
0.0
 10
14.6949660888
 20
10.5084178552
 30
0.0
 10
14.6921259047
 20
10.52210214
 30
0.0
 10
14.6891792786
 20
10.5354200266
 30
0.0
 10
14.6861279877
 20
10.5483636227
 30
0.0
 10
14.6829738657
 20
10.5609252444
 30
0.0
 10
14.6797187364
 20
10.5730974339
 30
0.0
 10
14.6763646322
 20
10.5848729841
 30
0.0
 10
14.6729134516
 20
10.5962449062
 30
0.0
 10
14.6693673278
 20
10.6072064785
 30
0.0
 10
14.6657283387
 20
10.6177512164
 30
0.0
 10
14.6619986157
 20
10.6278728834
 30
0.0
 10
14.6581804509
 20
10.6375655293
 30
0.0
 10
14.6542759841
 20
10.6468234183
 30
0.0
 10
14.6502876253
 20
10.6556411411
 30
0.0
 10
14.6462176352
 20
10.6640135104
 30
0.0
 10
14.6420683925
 20
10.6719356314
 30
0.0
 10
14.6378423475
 20
10.6794029127
 30
0.0
 10
14.6335417964
 20
10.6864109602
 30
0.0
 10
14.6291692941
 20
10.6929557748
 30
0.0
 10
14.6247271389
 20
10.6990335018
 30
0.0
 10
14.6202177979
 20
10.704640638
 30
0.0
 10
14.6156436633
 20
10.7097739111
 30
0.0
 10
14.6110070035
 20
10.7144301743
 30
0.0
 10
14.6063102776
 20
10.7186066616
 30
0.0
 10
14.6015556723
 20
10.7223004951
 30
0.0
 10
14.5967456562
 20
10.7255091445
 30
0.0
 10
14.5918826655
 20
10.7282300112
 30
0.0
 10
14.5869693787
 20
10.7304605521
 30
0.0
 10
14.5820088871
 20
10.7321985937
 30
0.0
 10
14.5770045565
 20
10.7334418704
 30
0.0
 10
14.5719603142
 20
10.7341890284
 30
0.0
 10
14.5668803058
 20
10.7344390132
 30
0.0
 10
14.5617688588
 20
10.7341917172
 30
0.0
 10
14.5566301483
 20
10.7334478635
 30
0.0
 10
14.5514681246
 20
10.7322085212
 30
0.0
 10
14.5462862651
 20
10.7304756271
 30
0.0
 10
14.5410878152
 20
10.7282509763
 30
0.0
 10
14.5358756556
 20
10.7255368099
 30
0.0
 10
14.5306525376
 20
10.7223353656
 30
0.0
 10
14.5254211819
 20
10.7186488523
 30
0.0
 10
14.5201843119
 20
10.7144799895
 30
0.0
 10
14.5167711964
 20
10.7114517137
 30
0.0
 10
14.5150638543
 20
10.709862708
 30
0.0
  0
SPLINE
  5
42C
100
AcDbEntity
  8
0
100
AcDbSpline
 62
7
  6
CONTINUOUS
 70
0
 71
3
 72
50
 73
46
 74
0
 42
0.0000001
 43
0.0000001
 44
0.0000000001
 40
0.0
 40
0.0
 40
0.0
 40
0.0
 40
0.0484981071
 40
0.0964122279
 40
0.1436641743
 40
0.1901849511
 40
0.2359042066
 40
0.2807531579
 40
0.3246653514
 40
0.3675762377
 40
0.4094234714
 40
0.450147086
 40
0.4896898312
 40
0.5279973132
 40
0.5650181719
 40
0.6007045649
 40
0.6350123927
 40
0.6679015811
 40
0.6993367542
 40
0.7292876931
 40
0.7577298951
 40
0.7846456554
 40
0.7975283127
 40
0.8100263614
 40
0.8221399902
 40
0.8338701763
 40
0.8452185186
 40
0.85618749
 40
0.8667805838
 40
0.8770021922
 40
0.8868579035
 40
0.8963546744
 40
0.9055007717
 40
0.9143061207
 40
0.9227825097
 40
0.9309436026
 40
0.9388053189
 40
0.9463860399
 40
0.9607838117
 40
0.9676581522
 40
0.9743520108
 40
0.9808975346
 40
0.9873293599
 40
0.9936841335
 40
1.0
 40
1.0
 40
1.0
 40
1.0
 10
14.6298755109
 20
10.0990795367
 30
0.0
 10
14.6298755109
 20
10.1088368379
 30
0.0
 10
14.6297705356
 20
10.1282341259
 30
0.0
 10
14.629292561
 20
10.1571344549
 30
0.0
 10
14.6284956384
 20
10.1856298383
 30
0.0
 10
14.6273811647
 20
10.2136726638
 30
0.0
 10
14.6259510039
 20
10.2412171039
 30
0.0
 10
14.6242075361
 20
10.2682176387
 30
0.0
 10
14.6221536507
 20
10.294629701
 30
0.0
 10
14.6197927937
 20
10.3204097699
 30
0.0
 10
14.6171289098
 20
10.3455153381
 30
0.0
 10
14.6141664023
 20
10.3699050206
 30
0.0
 10
14.6109102332
 20
10.3935386384
 30
0.0
 10
14.6073658447
 20
10.4163772721
 30
0.0
 10
14.603539102
 20
10.4383833246
 30
0.0
 10
14.5994364047
 20
10.4595206091
 30
0.0
 10
14.5950646084
 20
10.4797544024
 30
0.0
 10
14.5904309456
 20
10.4990515027
 30
0.0
 10
14.5855431421
 20
10.5173802956
 30
0.0
 10
14.5804093341
 20
10.5347109155
 30
0.0
 10
14.5750379712
 20
10.5510149151
 30
0.0
 10
14.5703046698
 20
10.563905942
 30
0.0
 10
14.5663957781
 20
10.5736750137
 30
0.0
 10
14.5634531281
 20
10.5806214467
 30
0.0
 10
14.5604578244
 20
10.5872919908
 30
0.0
 10
14.5574111226
 20
10.5936839612
 30
0.0
 10
14.5543142279
 20
10.59979473
 30
0.0
 10
14.5511683722
 20
10.6056217973
 30
0.0
 10
14.5479748872
 20
10.6111628289
 30
0.0
 10
14.5447350032
 20
10.6164155514
 30
0.0
 10
14.5414499883
 20
10.6213778211
 30
0.0
 10
14.5381212
 20
10.6260476708
 30
0.0
 10
14.534749876
 20
10.6304231736
 30
0.0
 10
14.5313373047
 20
10.6345025261
 30
0.0
 10
14.5278848106
 20
10.6382841323
 30
0.0
 10
14.524393733
 20
10.6417662992
 30
0.0
 10
14.5208649591
 20
10.6449477886
 30
0.0
 10
14.5161932283
 20
10.6487213281
 30
0.0
 10
14.5113657216
 20
10.6519775472
 30
0.0
 10
14.5064035156
 20
10.6546376007
 30
0.0
 10
14.5027078883
 20
10.6562951307
 30
0.0
 10
14.4989833559
 20
10.6576443089
 30
0.0
 10
14.4952313959
 20
10.6586844273
 30
0.0
 10
14.4914541755
 20
10.6594145689
 30
0.0
 10
14.4889170753
 20
10.6596946762
 30
0.0
 10
14.4876494352
 20
10.6597825884
 30
0.0
  0
SPLINE
  5
42D
100
AcDbEntity
  8
0
100
AcDbSpline
 62
7
  6
CONTINUOUS
 70
0
 71
3
 72
50
 73
46
 74
0
 42
0.0000001
 43
0.0000001
 44
0.0000000001
 40
0.0
 40
0.0
 40
0.0
 40
0.0
 40
0.0461353694
 40
0.0917652799
 40
0.136827246
 40
0.1812655566
 40
0.225023257
 40
0.2680447134
 40
0.3102758969
 40
0.3516640685
 40
0.3921580968
 40
0.4317085083
 40
0.4702676503
 40
0.5077898978
 40
0.5442317134
 40
0.5795518472
 40
0.6137116276
 40
0.646675071
 40
0.6784091285
 40
0.7088841078
 40
0.7380739288
 40
0.7659565021
 40
0.7925143753
 40
0.8052929498
 40
0.8177362261
 40
0.8298436208
 40
0.8416150382
 40
0.8530507606
 40
0.8641516521
 40
0.8749191722
 40
0.8853553094
 40
0.8954628164
 40
0.9052452072
 40
0.9147067463
 40
0.9238527135
 40
0.9326893977
 40
0.9412241523
 40
0.9494656827
 40
0.9574240485
 40
0.9651107838
 40
0.9725391802
 40
0.9797242912
 40
0.9866830756
 40
0.9934346031
 40
1.0
 40
1.0
 40
1.0
 40
1.0
 10
14.8210298674
 20
7.3059428269
 30
0.0
 10
14.8210298674
 20
7.3201745106
 30
0.0
 10
14.8208890362
 20
7.348482173
 30
0.0
 10
14.8202483684
 20
7.3906860344
 30
0.0
 10
14.819180144
 20
7.4323576382
 30
0.0
 10
14.8176859462
 20
7.473438255
 30
0.0
 10
14.8157678599
 20
7.5138711582
 30
0.0
 10
14.813428593
 20
7.5535999183
 30
0.0
 10
14.8106714236
 20
7.5925691784
 30
0.0
 10
14.8075002233
 20
7.6307247047
 30
0.0
 10
14.8039194744
 20
7.6680133682
 30
0.0
 10
14.7999341891
 20
7.7043832565
 30
0.0
 10
14.7955499524
 20
7.7397837519
 30
0.0
 10
14.7907729568
 20
7.7741656066
 30
0.0
 10
14.7856099034
 20
7.8074809976
 30
0.0
 10
14.7800680166
 20
7.8396836037
 30
0.0
 10
14.774155117
 20
7.8707286924
 30
0.0
 10
14.7678795111
 20
7.9005731625
 30
0.0
 10
14.7612499688
 20
7.9291756163
 30
0.0
 10
14.7542758218
 20
7.9564964266
 30
0.0
 10
14.7469668535
 20
7.9824978906
 30
0.0
 10
14.7393332493
 20
8.0071438947
 30
0.0
 10
14.7326269732
 20
8.026768751
 30
0.0
 10
14.7270958245
 20
8.0417540146
 30
0.0
 10
14.7229262708
 20
8.0524884608
 30
0.0
 10
14.7186836615
 20
8.0628593518
 30
0.0
 10
14.714369495
 20
8.0728631377
 30
0.0
 10
14.7099852105
 20
8.0824963334
 30
0.0
 10
14.7055323272
 20
8.0917556152
 30
0.0
 10
14.7010124312
 20
8.1006378147
 30
0.0
 10
14.6964270003
 20
8.109139839
 30
0.0
 10
14.691777626
 20
8.1172587738
 30
0.0
 10
14.6870659321
 20
8.1249918565
 30
0.0
 10
14.6822934288
 20
8.1323363857
 30
0.0
 10
14.6774617596
 20
8.1392898654
 30
0.0
 10
14.6725725624
 20
8.1458499347
 30
0.0
 10
14.6676273616
 20
8.1520142754
 30
0.0
 10
14.6626278289
 20
8.1577808008
 30
0.0
 10
14.65757559
 20
8.163147525
 30
0.0
 10
14.6524721747
 20
8.1681124768
 30
0.0
 10
14.6473192613
 20
8.1726739424
 30
0.0
 10
14.642118489
 20
8.176830232
 30
0.0
 10
14.6368713377
 20
8.1805796999
 30
0.0
 10
14.6315798589
 20
8.1839207731
 30
0.0
 10
14.6279768793
 20
8.1859006657
 30
0.0
 10
14.626171245
 20
8.1868179494
 30
0.0
  0
SPLINE
  5
42E
100
AcDbEntity
  8
0
100
AcDbSpline
 62
7
  6
CONTINUOUS
 70
0
 71
3
 72
55
 73
51
 74
0
 42
0.0000001
 43
0.0000001
 44
0.0000000001
 40
0.0
 40
0.0
 40
0.0
 40
0.0
 40
0.0401741257
 40
0.0807984973
 40
0.1217616376
 40
0.1629508622
 40
0.2042527017
 40
0.2455532897
 40
0.2867387652
 40
0.3276956696
 40
0.3683113459
 40
0.4084743396
 40
0.4480748012
 40
0.4870048946
 40
0.5251592094
 40
0.5624351838
 40
0.5987335396
 40
0.6339587348
 40
0.6511403765
 40
0.6680198668
 40
0.6845864977
 40
0.7008299663
 40
0.7167402428
 40
0.7323077471
 40
0.7475232102
 40
0.7623778637
 40
0.7768632963
 40
0.7909716567
 40
0.8046955086
 40
0.8180280478
 40
0.8309629592
 40
0.8434946512
 40
0.8556181191
 40
0.867329201
 40
0.8786244555
 40
0.8895014439
 40
0.8999586346
 40
0.909995721
 40
0.9196135675
 40
0.9288145791
 40
0.937602711
 40
0.9459839102
 40
0.953966218
 40
0.9615603081
 40
0.9687797103
 40
0.9756414557
 40
0.9821664222
 40
0.9883800356
 40
0.9943126322
 40
1.0
 40
1.0
 40
1.0
 40
1.0
 10
14.8210298674
 20
7.3059428269
 30
0.0
 10
14.8210298674
 20
7.2850250963
 30
0.0
 10
14.8207224252
 20
7.2429546156
 30
0.0
 10
14.8193618805
 20
7.1795688068
 30
0.0
 10
14.817102894
 20
7.115679694
 30
0.0
 10
14.8139520636
 20
7.0514752533
 30
0.0
 10
14.8099186254
 20
6.9871441709
 30
0.0
 10
14.8050144273
 20
6.9228755654
 30
0.0
 10
14.7992538946
 20
6.8588583553
 30
0.0
 10
14.7926539865
 20
6.7952807197
 30
0.0
 10
14.7852341474
 20
6.7323295369
 30
0.0
 10
14.7770162496
 20
6.6701898321
 30
0.0
 10
14.76802453
 20
6.609044231
 30
0.0
 10
14.7582855205
 20
6.5490724115
 30
0.0
 10
14.7478279686
 20
6.4904505916
 30
0.0
 10
14.7366827654
 20
6.4333509249
 30
0.0
 10
14.7248828166
 20
6.3779412656
 30
0.0
 10
14.7144485501
 20
6.3329455646
 30
0.0
 10
14.7057884006
 20
6.2979241547
 30
0.0
 10
14.6992055604
 20
6.2723981448
 30
0.0
 10
14.6924860106
 20
6.2474132795
 30
0.0
 10
14.6856347723
 20
6.2229878903
 30
0.0
 10
14.6786567971
 20
6.1991399325
 30
0.0
 10
14.6715573278
 20
6.1758869118
 30
0.0
 10
14.6643414877
 20
6.1532459139
 30
0.0
 10
14.6570147009
 20
6.1312335486
 30
0.0
 10
14.6495822528
 20
6.1098659846
 30
0.0
 10
14.6420497313
 20
6.089158883
 30
0.0
 10
14.6344225663
 20
6.0691274467
 30
0.0
 10
14.6267064924
 20
6.0497863376
 30
0.0
 10
14.6189070651
 20
6.0311497456
 30
0.0
 10
14.6110301465
 20
6.0132312847
 30
0.0
 10
14.6030813963
 20
5.9960440866
 30
0.0
 10
14.5950667819
 20
5.9796006701
 30
0.0
 10
14.586992042
 20
5.9639130659
 30
0.0
 10
14.5788632222
 20
5.9489926515
 30
0.0
 10
14.5706861078
 20
5.9348503163
 30
0.0
 10
14.5624667865
 20
5.9214962533
 30
0.0
 10
14.5542110472
 20
5.9089401762
 30
0.0
 10
14.5459249676
 20
5.8971910572
 30
0.0
 10
14.5376142788
 20
5.8862574136
 30
0.0
 10
14.529284973
 20
5.8761469799
 30
0.0
 10
14.5209426366
 20
5.8668670908
 30
0.0
 10
14.5125930711
 20
5.8584242778
 30
0.0
 10
14.5042416205
 20
5.8508247888
 30
0.0
 10
14.4958937705
 20
5.8440740943
 30
0.0
 10
14.4875546443
 20
5.8381776278
 30
0.0
 10
14.4792291895
 20
5.8331400497
 30
0.0
 10
14.4709234159
 20
5.828966682
 30
0.0
 10
14.4652951145
 20
5.8267206735
 30
0.0
 10
14.4624958409
 20
5.825754627
 30
0.0
  0
SPLINE
  5
42F
100
AcDbEntity
  8
0
100
AcDbSpline
 62
7
  6
CONTINUOUS
 70
0
 71
3
 72
66
 73
62
 74
0
 42
0.0000001
 43
0.0000001
 44
0.0000000001
 40
0.0
 40
0.0
 40
0.0
 40
0.0
 40
0.0452100958
 40
0.091000882
 40
0.1371884425
 40
0.1835858056
 40
0.2300054417
 40
0.2762595347
 40
0.322161166
 40
0.3675252211
 40
0.4121693755
 40
0.4559150727
 40
0.4985885253
 40
0.5400217374
 40
0.5602229025
 40
0.580054177
 40
0.5994967084
 40
0.6185321414
 40
0.6371428251
 40
0.6553116735
 40
0.67302239
 40
0.6902593674
 40
0.7070078472
 40
0.7232539396
 40
0.7389846648
 40
0.7541881316
 40
0.7688534651
 40
0.7829711258
 40
0.7965327978
 40
0.809531773
 40
0.82196293
 40
0.8338231007
 40
0.8451112681
 40
0.8558288934
 40
0.8659804206
 40
0.8755736355
 40
0.8846205219
 40
0.8931378177
 40
0.9011482117
 40
0.9086812776
 40
0.9157748844
 40
0.9224764009
 40
0.9288437812
 40
0.9319246359
 40
0.9349487804
 40
0.9379264614
 40
0.9408684794
 40
0.9437860667
 40
0.9466907584
 40
0.9495942622
 40
0.9525083005
 40
0.9554444551
 40
0.958414034
 40
0.9614279302
 40
0.9644965064
 40
0.9676295366
 40
0.9708361521
 40
0.9775010352
 40
0.9845526494
 40
0.9920393727
 40
1.0
 40
1.0
 40
1.0
 40
1.0
 10
14.7278550881
 20
7.2159428958
 30
0.0
 10
14.7278550881
 20
7.1982466619
 30
0.0
 10
14.7275394864
 20
7.1626261824
 30
0.0
 10
14.7261478444
 20
7.1089432124
 30
0.0
 10
14.7238402417
 20
7.054826551
 30
0.0
 10
14.7206265257
 20
7.0005096355
 30
0.0
 10
14.71652056
 20
6.9462267467
 30
0.0
 10
14.7115400514
 20
6.8922119403
 30
0.0
 10
14.7057065342
 20
6.8386981391
 30
0.0
 10
14.6990452527
 20
6.7859160732
 30
0.0
 10
14.6915850606
 20
6.7340933088
 30
0.0
 10
14.683358307
 20
6.6834531684
 30
0.0
 10
14.6744006625
 20
6.6342140504
 30
0.0
 10
14.6662925965
 20
6.5941955732
 30
0.0
 10
14.6594583227
 20
6.5630485471
 30
0.0
 10
14.6542180109
 20
6.54036567
 30
0.0
 10
14.648825715
 20
6.5181877487
 30
0.0
 10
14.6432871563
 20
6.4965386764
 30
0.0
 10
14.6376084219
 20
6.4754417879
 30
0.0
 10
14.631795566
 20
6.4549198239
 30
0.0
 10
14.6258549505
 20
6.4349948878
 30
0.0
 10
14.6197929507
 20
6.4156884443
 30
0.0
 10
14.6136161462
 20
6.3970212756
 30
0.0
 10
14.6073312294
 20
6.3790134669
 30
0.0
 10
14.6009449526
 20
6.3616843896
 30
0.0
 10
14.5944642956
 20
6.3450526508
 30
0.0
 10
14.5878961613
 20
6.3291361224
 30
0.0
 10
14.5812477538
 20
6.3139518424
 30
0.0
 10
14.5745261275
 20
6.2995160888
 30
0.0
 10
14.5677386152
 20
6.2858442523
 30
0.0
 10
14.560892425
 20
6.2729509158
 30
0.0
 10
14.5539949073
 20
6.2608497558
 30
0.0
 10
14.5470533897
 20
6.2495535589
 30
0.0
 10
14.5400751219
 20
6.2390742313
 30
0.0
 10
14.5330674406
 20
6.2294226825
 30
0.0
 10
14.5260373568
 20
6.2206090205
 30
0.0
 10
14.5189919897
 20
6.2126422783
 30
0.0
 10
14.5119379364
 20
6.205530832
 30
0.0
 10
14.50488175
 20
6.1992820759
 30
0.0
 10
14.4978294987
 20
6.1939030199
 30
0.0
 10
14.4907868057
 20
6.1894001214
 30
0.0
 10
14.4837601767
 20
6.1857800614
 30
0.0
 10
14.4778572834
 20
6.1834794539
 30
0.0
 10
14.4731697591
 20
6.1821066933
 30
0.0
 10
14.4697023481
 20
6.1813116047
 30
0.0
 10
14.4662461497
 20
6.1807403939
 30
0.0
 10
14.4628021234
 20
6.1803932422
 30
0.0
 10
14.4593713615
 20
6.1802703031
 30
0.0
 10
14.4559549413
 20
6.1803717003
 30
0.0
 10
14.4525539717
 20
6.1806974866
 30
0.0
 10
14.4491695416
 20
6.1812474587
 30
0.0
 10
14.4458027135
 20
6.1820213852
 30
0.0
 10
14.4424545432
 20
6.1830190187
 30
0.0
 10
14.4391260306
 20
6.184239954
 30
0.0
 10
14.4358181298
 20
6.1856836459
 30
0.0
 10
14.4325316842
 20
6.1873496312
 30
0.0
 10
14.4281233896
 20
6.1898991217
 30
0.0
 10
14.4226617209
 20
6.1936688343
 30
0.0
 10
14.4162975203
 20
6.1990122551
 30
0.0
 10
14.4100438259
 20
6.2052254852
 30
0.0
 10
14.4060781459
 20
6.2097972833
 30
0.0
 10
14.4041120687
 20
6.2122146755
 30
0.0
  0
SPLINE
  5
430
100
AcDbEntity
  8
0
100
AcDbSpline
 62
7
  6
CONTINUOUS
 70
0
 71
3
 72
57
 73
53
 74
0
 42
0.0000001
 43
0.0000001
 44
0.0000000001
 40
0.0
 40
0.0
 40
0.0
 40
0.0
 40
0.0417736534
 40
0.0840366016
 40
0.1266578211
 40
0.1695056346
 40
0.21244701
 40
0.2553487447
 40
0.2980777184
 40
0.3405015169
 40
0.3824889248
 40
0.4239104649
 40
0.4646389286
 40
0.5045499179
 40
0.5435223959
 40
0.5814392547
 40
0.6181879055
 40
0.6536609025
 40
0.670887291
 40
0.6877571705
 40
0.7042588558
 40
0.7203811606
 40
0.7361133347
 40
0.7514452242
 40
0.7663671439
 40
0.7808701133
 40
0.794945674
 40
0.8085861929
 40
0.8217846464
 40
0.8345349745
 40
0.8468318643
 40
0.858671133
 40
0.8700495541
 40
0.8809652503
 40
0.8914176071
 40
0.9014076696
 40
0.9109381913
 40
0.9200140439
 40
0.9286424511
 40
0.9368334399
 40
0.9446003045
 40
0.9519601344
 40
0.9589345191
 40
0.9655501451
 40
0.9718396237
 40
0.9778419676
 40
0.9836031197
 40
0.9891757627
 40
0.9919106391
 40
0.994620898
 40
0.9973146063
 40
1.0
 40
1.0
 40
1.0
 40
1.0
 10
14.6298755109
 20
7.2013018862
 30
0.0
 10
14.6298755109
 20
7.1873100254
 30
0.0
 10
14.6296572171
 20
7.1591619777
 30
0.0
 10
14.6286922141
 20
7.1167481251
 30
0.0
 10
14.6270905133
 20
7.0739934361
 30
0.0
 10
14.6248574108
 20
7.0310395812
 30
0.0
 10
14.6220002532
 20
6.9880285565
 30
0.0
 10
14.6185285029
 20
6.9451027057
 30
0.0
 10
14.6144536521
 20
6.9024040272
 30
0.0
 10
14.6097892125
 20
6.8600737847
 30
0.0
 10
14.6045506585
 20
6.8182520072
 30
0.0
 10
14.5987553816
 20
6.7770770318
 30
0.0
 10
14.5924226319
 20
6.7366850395
 30
0.0
 10
14.5855734569
 20
6.6972095954
 30
0.0
 10
14.5782306305
 20
6.6587812184
 30
0.0
 10
14.5704185882
 20
6.6215268728
 30
0.0
 10
14.5621633153
 20
6.5855697808
 30
0.0
 10
14.554868193
 20
6.5565088383
 30
0.0
 10
14.5488212375
 20
6.5340048349
 30
0.0
 10
14.5442368794
 20
6.517688731
 30
0.0
 10
14.5395629272
 20
6.5017831362
 30
0.0
 10
14.5348032753
 20
6.4863011786
 30
0.0
 10
14.5299618205
 20
6.4712556619
 30
0.0
 10
14.5250426464
 20
6.4566590054
 30
0.0
 10
14.5200497489
 20
6.4425232741
 30
0.0
 10
14.5149873628
 20
6.4288601216
 30
0.0
 10
14.5098595784
 20
6.4156808366
 30
0.0
 10
14.5046707589
 20
6.4029962629
 30
0.0
 10
14.4994250805
 20
6.3908168728
 30
0.0
 10
14.4941270077
 20
6.3791526601
 30
0.0
 10
14.4887807949
 20
6.3680132403
 30
0.0
 10
14.4833909749
 20
6.3574077194
 30
0.0
 10
14.477961869
 20
6.347344816
 30
0.0
 10
14.4724980389
 20
6.3378327146
 30
0.0
 10
14.4670038527
 20
6.3288791969
 30
0.0
 10
14.4614838515
 20
6.3204914983
 30
0.0
 10
14.4559424149
 20
6.3126764286
 30
0.0
 10
14.450383996
 20
6.3054402618
 30
0.0
 10
14.4448129254
 20
6.2987888173
 30
0.0
 10
14.4392334777
 20
6.2927274332
 30
0.0
 10
14.433649844
 20
6.2872609713
 30
0.0
 10
14.4280660178
 20
6.2823939481
 30
0.0
 10
14.4224859671
 20
6.2781304213
 30
0.0
 10
14.4169133735
 20
6.2744743659
 30
0.0
 10
14.4113521015
 20
6.2714293744
 30
0.0
 10
14.4058057355
 20
6.2689992965
 30
0.0
 10
14.4002790713
 20
6.2671875752
 30
0.0
 10
14.3956635053
 20
6.2661899478
 30
0.0
 10
14.3920026724
 20
6.2657115576
 30
0.0
 10
14.389282537
 20
6.2655100913
 30
0.0
 10
14.3865720486
 20
6.265464008
 30
0.0
 10
14.3847706423
 20
6.2655368929
 30
0.0
 10
14.3838733394
 20
6.2655991218
 30
0.0
  0
SPLINE
  5
431
100
AcDbEntity
  8
0
100
AcDbSpline
 62
7
  6
CONTINUOUS
 70
0
 71
3
 72
60
 73
56
 74
0
 42
0.0000001
 43
0.0000001
 44
0.0000000001
 40
0.0
 40
0.0
 40
0.0
 40
0.0
 40
0.0532122143
 40
0.1056321538
 40
0.1571421459
 40
0.2076317293
 40
0.2569909326
 40
0.3051141858
 40
0.3518995392
 40
0.3972494003
 40
0.4410709497
 40
0.4832766305
 40
0.523784729
 40
0.5433787454
 40
0.5625207824
 40
0.581202509
 40
0.5994162291
 40
0.6171547456
 40
0.634411397
 40
0.6511802779
 40
0.6674559847
 40
0.6832340122
 40
0.6985105431
 40
0.7132826427
 40
0.7275484149
 40
0.7413068606
 40
0.7545583405
 40
0.767304371
 40
0.7795480187
 40
0.7912940336
 40
0.8025489416
 40
0.8133215884
 40
0.823623106
 40
0.8334675601
 40
0.8428721834
 40
0.8518578147
 40
0.8604495297
 40
0.868676859
 40
0.8765744793
 40
0.8841823291
 40
0.8915458047
 40
0.8987155894
 40
0.9057469747
 40
0.9126989443
 40
0.9196326688
 40
0.9266098549
 40
0.933690958
 40
0.9409336246
 40
0.9483913291
 40
0.9561126614
 40
0.9641407784
 40
0.9725134197
 40
0.9812631496
 40
0.9904175638
 40
1.0
 40
1.0
 40
1.0
 40
1.0
 10
14.7278550881
 20
7.2159428958
 30
0.0
 10
14.7278550881
 20
7.2288947843
 30
0.0
 10
14.727688252
 20
7.2546060648
 30
0.0
 10
14.7269266803
 20
7.2928481172
 30
0.0
 10
14.7256572483
 20
7.3304137501
 30
0.0
 10
14.7238831481
 20
7.3672131594
 30
0.0
 10
14.721608597
 20
7.4031591803
 30
0.0
 10
14.7188391227
 20
7.4381662115
 30
0.0
 10
14.7155813975
 20
7.472151099
 30
0.0
 10
14.7118432913
 20
7.5050330876
 30
0.0
 10
14.7076338381
 20
7.5367341488
 30
0.0
 10
14.7029631588
 20
7.567178914
 30
0.0
 10
14.698649681
 20
7.5917067086
 30
0.0
 10
14.6949660888
 20
7.6106402047
 30
0.0
 10
14.6921259047
 20
7.6243244894
 30
0.0
 10
14.6891792786
 20
7.637642376
 30
0.0
 10
14.6861279877
 20
7.6505859721
 30
0.0
 10
14.6829738657
 20
7.6631475938
 30
0.0
 10
14.6797187364
 20
7.6753197833
 30
0.0
 10
14.6763646322
 20
7.6870953335
 30
0.0
 10
14.6729134516
 20
7.6984672556
 30
0.0
 10
14.6693673278
 20
7.7094288279
 30
0.0
 10
14.6657283387
 20
7.7199735658
 30
0.0
 10
14.6619986157
 20
7.7300952328
 30
0.0
 10
14.6581804509
 20
7.7397878788
 30
0.0
 10
14.6542759841
 20
7.7490457677
 30
0.0
 10
14.6502876253
 20
7.7578634906
 30
0.0
 10
14.6462176352
 20
7.7662358598
 30
0.0
 10
14.6420683925
 20
7.7741579808
 30
0.0
 10
14.6378423475
 20
7.7816252621
 30
0.0
 10
14.6335417964
 20
7.7886333096
 30
0.0
 10
14.6291692941
 20
7.7951781242
 30
0.0
 10
14.6247271389
 20
7.8012558513
 30
0.0
 10
14.6202177979
 20
7.8068629874
 30
0.0
 10
14.6156436633
 20
7.8119962605
 30
0.0
 10
14.6110070035
 20
7.8166525238
 30
0.0
 10
14.6063102776
 20
7.820829011
 30
0.0
 10
14.6015556723
 20
7.8245228445
 30
0.0
 10
14.5967456562
 20
7.827731494
 30
0.0
 10
14.5918826655
 20
7.8304523607
 30
0.0
 10
14.5869693787
 20
7.8326829015
 30
0.0
 10
14.5820088871
 20
7.8344209431
 30
0.0
 10
14.5770045565
 20
7.8356642198
 30
0.0
 10
14.5719603142
 20
7.8364113778
 30
0.0
 10
14.5668803058
 20
7.8366613627
 30
0.0
 10
14.5617688588
 20
7.8364140667
 30
0.0
 10
14.5566301483
 20
7.8356702129
 30
0.0
 10
14.5514681246
 20
7.8344308706
 30
0.0
 10
14.5462862651
 20
7.8326979765
 30
0.0
 10
14.5410878152
 20
7.8304733257
 30
0.0
 10
14.5358756556
 20
7.8277591593
 30
0.0
 10
14.5306525376
 20
7.824557715
 30
0.0
 10
14.5254211819
 20
7.8208712017
 30
0.0
 10
14.5201843119
 20
7.8167023389
 30
0.0
 10
14.5167711964
 20
7.8136740632
 30
0.0
 10
14.5150638543
 20
7.8120850575
 30
0.0
  0
SPLINE
  5
432
100
AcDbEntity
  8
0
100
AcDbSpline
 62
7
  6
CONTINUOUS
 70
0
 71
3
 72
50
 73
46
 74
0
 42
0.0000001
 43
0.0000001
 44
0.0000000001
 40
0.0
 40
0.0
 40
0.0
 40
0.0
 40
0.0484981071
 40
0.0964122279
 40
0.1436641743
 40
0.1901849511
 40
0.2359042066
 40
0.2807531579
 40
0.3246653514
 40
0.3675762377
 40
0.4094234714
 40
0.450147086
 40
0.4896898312
 40
0.5279973132
 40
0.5650181719
 40
0.6007045649
 40
0.6350123927
 40
0.6679015811
 40
0.6993367542
 40
0.7292876931
 40
0.7577298951
 40
0.7846456554
 40
0.7975283127
 40
0.8100263614
 40
0.8221399902
 40
0.8338701763
 40
0.8452185186
 40
0.85618749
 40
0.8667805838
 40
0.8770021922
 40
0.8868579035
 40
0.8963546744
 40
0.9055007717
 40
0.9143061207
 40
0.9227825097
 40
0.9309436026
 40
0.9388053189
 40
0.9463860399
 40
0.9607838117
 40
0.9676581522
 40
0.9743520108
 40
0.9808975346
 40
0.9873293599
 40
0.9936841335
 40
1.0
 40
1.0
 40
1.0
 40
1.0
 10
14.6298755109
 20
7.2013018862
 30
0.0
 10
14.6298755109
 20
7.2110591874
 30
0.0
 10
14.6297705356
 20
7.2304564754
 30
0.0
 10
14.629292561
 20
7.2593568043
 30
0.0
 10
14.6284956384
 20
7.2878521877
 30
0.0
 10
14.6273811647
 20
7.3158950132
 30
0.0
 10
14.6259510039
 20
7.3434394534
 30
0.0
 10
14.6242075361
 20
7.3704399881
 30
0.0
 10
14.6221536507
 20
7.3968520504
 30
0.0
 10
14.6197927937
 20
7.4226321193
 30
0.0
 10
14.6171289098
 20
7.4477376875
 30
0.0
 10
14.6141664023
 20
7.47212737
 30
0.0
 10
14.6109102332
 20
7.4957609878
 30
0.0
 10
14.6073658447
 20
7.5185996216
 30
0.0
 10
14.603539102
 20
7.540605674
 30
0.0
 10
14.5994364047
 20
7.5617429585
 30
0.0
 10
14.5950646084
 20
7.5819767518
 30
0.0
 10
14.5904309456
 20
7.6012738522
 30
0.0
 10
14.5855431421
 20
7.619602645
 30
0.0
 10
14.5804093341
 20
7.6369332649
 30
0.0
 10
14.5750379712
 20
7.6532372645
 30
0.0
 10
14.5703046698
 20
7.6661282914
 30
0.0
 10
14.5663957781
 20
7.6758973631
 30
0.0
 10
14.5634531281
 20
7.6828437961
 30
0.0
 10
14.5604578244
 20
7.6895143403
 30
0.0
 10
14.5574111226
 20
7.6959063106
 30
0.0
 10
14.5543142279
 20
7.7020170794
 30
0.0
 10
14.5511683722
 20
7.7078441467
 30
0.0
 10
14.5479748872
 20
7.7133851783
 30
0.0
 10
14.5447350032
 20
7.7186379008
 30
0.0
 10
14.5414499883
 20
7.7236001705
 30
0.0
 10
14.5381212
 20
7.7282700202
 30
0.0
 10
14.534749876
 20
7.732645523
 30
0.0
 10
14.5313373047
 20
7.7367248755
 30
0.0
 10
14.5278848106
 20
7.7405064818
 30
0.0
 10
14.524393733
 20
7.7439886487
 30
0.0
 10
14.5208649591
 20
7.747170138
 30
0.0
 10
14.5161932283
 20
7.7509436776
 30
0.0
 10
14.5113657216
 20
7.7541998967
 30
0.0
 10
14.5064035156
 20
7.7568599501
 30
0.0
 10
14.5027078883
 20
7.7585174801
 30
0.0
 10
14.4989833559
 20
7.7598666584
 30
0.0
 10
14.4952313959
 20
7.7609067767
 30
0.0
 10
14.4914541755
 20
7.7616369184
 30
0.0
 10
14.4889170753
 20
7.7619170257
 30
0.0
 10
14.4876494352
 20
7.7620049378
 30
0.0
  0
SPLINE
  5
433
100
AcDbEntity
  8
0
100
AcDbSpline
 62
7
  6
CONTINUOUS
 70
0
 71
3
 72
46
 73
42
 74
0
 42
0.0000001
 43
0.0000001
 44
0.0000000001
 40
0.0
 40
0.0
 40
0.0
 40
0.0
 40
0.0901733246
 40
0.1344831624
 40
0.1782036483
 40
0.2212826951
 40
0.2636683778
 40
0.3053106135
 40
0.3461605376
 40
0.3861704763
 40
0.4252943975
 40
0.4634877881
 40
0.5007078591
 40
0.5369137656
 40
0.5720665412
 40
0.6061295042
 40
0.6390682992
 40
0.6708510472
 40
0.7014488218
 40
0.7308356431
 40
0.7589889838
 40
0.7858902065
 40
0.8115248218
 40
0.8358834035
 40
0.8475832242
 40
0.8589631611
 40
0.8700237171
 40
0.8807659898
 40
0.8911916011
 40
0.9013026645
 40
0.9111020062
 40
0.9205931962
 40
0.9297804882
 40
0.938669022
 40
0.9472649635
 40
0.9555754434
 40
0.9636087335
 40
0.9713744748
 40
0.97888364
 40
0.9861486749
 40
1.0
 40
1.0
 40
1.0
 40
1.0
 10
14.1263601049
 20
8.0838321481
 30
0.0
 10
14.1263601049
 20
8.1041358305
 30
0.0
 10
14.1260699628
 20
8.1344176819
 30
0.0
 10
14.1250738563
 20
8.1745306531
 30
0.0
 10
14.1240347288
 20
8.2040339029
 30
0.0
 10
14.1227007455
 20
8.2330915678
 30
0.0
 10
14.1210735692
 20
8.261665641
 30
0.0
 10
14.119155395
 20
8.2897186174
 30
0.0
 10
14.1169487733
 20
8.3172138018
 30
0.0
 10
14.1144565634
 20
8.3441152063
 30
0.0
 10
14.1116821129
 20
8.3703876134
 30
0.0
 10
14.108629057
 20
8.3959966446
 30
0.0
 10
14.1053014105
 20
8.420908797
 30
0.0
 10
14.101703618
 20
8.4450914877
 30
0.0
 10
14.0978403683
 20
8.4685130989
 30
0.0
 10
14.0937167969
 20
8.4911430263
 30
0.0
 10
14.0893383599
 20
8.5129517177
 30
0.0
 10
14.0847107763
 20
8.53391071
 30
0.0
 10
14.0798402203
 20
8.5539926891
 30
0.0
 10
14.0747330665
 20
8.573171515
 30
0.0
 10
14.0693960245
 20
8.5914222482
 30
0.0
 10
14.0638361587
 20
8.6087212992
 30
0.0
 10
14.058060669
 20
8.6250461018
 30
0.0
 10
14.0530088583
 20
8.6379890841
 30
0.0
 10
14.0488565654
 20
8.6478308855
 30
0.0
 10
14.0457350534
 20
8.6548562504
 30
0.0
 10
14.0425653648
 20
8.6616226801
 30
0.0
 10
14.0393485324
 20
8.6681280045
 30
0.0
 10
14.0360856293
 20
8.6743701292
 30
0.0
 10
14.0327776568
 20
8.6803470045
 30
0.0
 10
14.0294256825
 20
8.6860566983
 30
0.0
 10
14.0260308187
 20
8.6914973958
 30
0.0
 10
14.0225941062
 20
8.6966673159
 30
0.0
 10
14.0191166065
 20
8.7015647705
 30
0.0
 10
14.0155994589
 20
8.7061882217
 30
0.0
 10
14.0120437404
 20
8.7105361534
 30
0.0
 10
14.0084504692
 20
8.7146071283
 30
0.0
 10
14.0048208876
 20
8.7183997897
 30
0.0
 10
14.0011557542
 20
8.7219131448
 30
0.0
 10
13.9963013609
 20
8.7261550905
 30
0.0
 10
13.9924944159
 20
8.7290225414
 30
0.0
 10
13.9898998827
 20
8.7307532449
 30
0.0
  0
SPLINE
  5
434
100
AcDbEntity
  8
0
100
AcDbSpline
 62
7
  6
CONTINUOUS
 70
0
 71
3
 72
51
 73
47
 74
0
 42
0.0000001
 43
0.0000001
 44
0.0000000001
 40
0.0
 40
0.0
 40
0.0
 40
0.0
 40
0.039640978
 40
0.0797197567
 40
0.1201300449
 40
0.1607657933
 40
0.2015193738
 40
0.2422831118
 40
0.2829491723
 40
0.3234100896
 40
0.3635590747
 40
0.4032903952
 40
0.4424997362
 40
0.4810845705
 40
0.5189445328
 40
0.5559818023
 40
0.5921014929
 40
0.6272120594
 40
0.6612257244
 40
0.6940589338
 40
0.7256328537
 40
0.7409246414
 40
0.7558744751
 40
0.770474104
 40
0.7847156804
 40
0.7985917803
 40
0.8120955008
 40
0.825220367
 40
0.8379605489
 40
0.8503106843
 40
0.8622661738
 40
0.873822987
 40
0.8849779644
 40
0.8957286943
 40
0.9060737558
 40
0.9160127366
 40
0.9255463861
 40
0.9346768138
 40
0.943407563
 40
0.9517439974
 40
0.9596933506
 40
0.9672652728
 40
0.974471947
 40
0.9813287323
 40
0.9878544263
 40
1.0
 40
1.0
 40
1.0
 40
1.0
 10
14.1263601049
 20
8.0838321481
 30
0.0
 10
14.1263601049
 20
8.0686842083
 30
0.0
 10
14.1261420832
 20
8.0382206245
 30
0.0
 10
14.1251769599
 20
7.9923243152
 30
0.0
 10
14.1235742869
 20
7.9460654216
 30
0.0
 10
14.1213386112
 20
7.8995746865
 30
0.0
 10
14.1184761772
 20
7.852983015
 30
0.0
 10
14.1149950736
 20
7.8064218666
 30
0.0
 10
14.1109051095
 20
7.7600225033
 30
0.0
 10
14.1062178382
 20
7.7139157682
 30
0.0
 10
14.1009465017
 20
7.6682316616
 30
0.0
 10
14.095106003
 20
7.6230989896
 30
0.0
 10
14.0887128612
 20
7.5786449931
 30
0.0
 10
14.0817851663
 20
7.5349949872
 30
0.0
 10
14.0743425302
 20
7.4922720025
 30
0.0
 10
14.066406032
 20
7.4505964351
 30
0.0
 10
14.057998159
 20
7.410085695
 30
0.0
 10
14.0491427425
 20
7.3708538905
 30
0.0
 10
14.0398648988
 20
7.3330114169
 30
0.0
 10
14.030190934
 20
7.2966649141
 30
0.0
 10
14.0217345371
 20
7.2674044049
 30
0.0
 10
14.0147807181
 20
7.2448291823
 30
0.0
 10
14.0095391608
 20
7.2285149716
 30
0.0
 10
14.004219553
 20
7.2126487441
 30
0.0
 10
13.9988256346
 20
7.197241653
 30
0.0
 10
13.993361187
 20
7.1823045515
 30
0.0
 10
13.9878301303
 20
7.1678479355
 30
0.0
 10
13.9822362842
 20
7.1538819862
 30
0.0
 10
13.9765837018
 20
7.1404164961
 30
0.0
 10
13.9708762545
 20
7.1274609457
 30
0.0
 10
13.9651180844
 20
7.1150243952
 30
0.0
 10
13.9593131345
 20
7.1031155881
 30
0.0
 10
13.9534655826
 20
7.0917428317
 30
0.0
 10
13.9475794606
 20
7.0809140925
 30
0.0
 10
13.94165893
 20
7.0706369095
 30
0.0
 10
13.9357081127
 20
7.0609184318
 30
0.0
 10
13.9297311087
 20
7.0517654187
 30
0.0
 10
13.9237321056
 20
7.0431841668
 30
0.0
 10
13.917715105
 20
7.0351806508
 30
0.0
 10
13.9116842936
 20
7.027760293
 30
0.0
 10
13.9056435677
 20
7.020928304
 30
0.0
 10
13.8995969265
 20
7.0146892045
 30
0.0
 10
13.8935484375
 20
7.009047667
 30
0.0
 10
13.8875007561
 20
7.0040067534
 30
0.0
 10
13.8796351966
 20
6.9982320528
 30
0.0
 10
13.8734633003
 20
6.9945836274
 30
0.0
 10
13.869281615
 20
6.9925701866
 30
0.0
  0
SPLINE
  5
435
100
AcDbEntity
  8
0
100
AcDbSpline
 62
7
  6
CONTINUOUS
 70
0
 71
3
 72
62
 73
58
 74
0
 42
0.0000001
 43
0.0000001
 44
0.0000000001
 40
0.0
 40
0.0
 40
0.0
 40
0.0
 40
0.0452101979
 40
0.0910015343
 40
0.1371892739
 40
0.1835869652
 40
0.2300068828
 40
0.2762612697
 40
0.3221631883
 40
0.3675275278
 40
0.4121719622
 40
0.4559179362
 40
0.4985916615
 40
0.54002514
 40
0.5800572262
 40
0.6185347494
 40
0.6371455393
 40
0.6553145166
 40
0.6730253414
 40
0.6902624327
 40
0.7070110263
 40
0.7232572146
 40
0.7389880593
 40
0.7541916054
 40
0.7688570606
 40
0.7829747903
 40
0.7965365785
 40
0.8095356193
 40
0.82196688
 40
0.8338271168
 40
0.8451153726
 40
0.8558330646
 40
0.8659846668
 40
0.8755779454
 40
0.8846249
 40
0.8931422498
 40
0.9011527115
 40
0.9086858172
 40
0.9157794917
 40
0.9224810365
 40
0.9288484798
 40
0.9349508088
 40
0.937928516
 40
0.9408705577
 40
0.9437881603
 40
0.9466928698
 40
0.9495963909
 40
0.9525104447
 40
0.9554466222
 40
0.9584162216
 40
0.9614301267
 40
0.9644987151
 40
0.9708360027
 40
0.9775009061
 40
0.9845525712
 40
0.9920393222
 40
1.0
 40
1.0
 40
1.0
 40
1.0
 10
14.0357735139
 20
7.9963322151
 30
0.0
 10
14.0357735139
 20
7.9850322589
 30
0.0
 10
14.0355719808
 20
7.9622866377
 30
0.0
 10
14.0346833556
 20
7.9280071674
 30
0.0
 10
14.0332098171
 20
7.8934507078
 30
0.0
 10
14.0311576934
 20
7.8587664427
 30
0.0
 10
14.02853581
 20
7.8241038773
 30
0.0
 10
14.0253554872
 20
7.7896125063
 30
0.0
 10
14.0216304703
 20
7.7554410515
 30
0.0
 10
14.0173768815
 20
7.7217368519
 30
0.0
 10
14.0126131463
 20
7.6886452111
 30
0.0
 10
14.0073599185
 20
7.6563087608
 30
0.0
 10
14.0016399894
 20
7.6248668553
 30
0.0
 10
13.995478205
 20
7.5944548832
 30
0.0
 10
13.988901315
 20
7.5652039324
 30
0.0
 10
13.9830353617
 20
7.5416461738
 30
0.0
 10
13.9781461608
 20
7.5234822311
 30
0.0
 10
13.9744343334
 20
7.5103778361
 30
0.0
 10
13.9706409279
 20
7.4976546869
 30
0.0
 10
13.9667700136
 20
7.4853264755
 30
0.0
 10
13.9628257976
 20
7.473406475
 30
0.0
 10
13.9588125256
 20
7.4619075144
 30
0.0
 10
13.9547345638
 20
7.4508419546
 30
0.0
 10
13.9505962885
 20
7.4402216916
 30
0.0
 10
13.9464022109
 20
7.4300581169
 30
0.0
 10
13.9421568115
 20
7.4203621365
 30
0.0
 10
13.9378647229
 20
7.4111441135
 30
0.0
 10
13.9335304998
 20
7.4024139104
 30
0.0
 10
13.9291588645
 20
7.3941808036
 30
0.0
 10
13.9247544053
 20
7.3864535611
 30
0.0
 10
13.9203218884
 20
7.3792403159
 30
0.0
 10
13.9158658753
 20
7.3725486985
 30
0.0
 10
13.9113911015
 20
7.3663856518
 30
0.0
 10
13.9069020051
 20
7.3607576504
 30
0.0
 10
13.902403168
 20
7.3556704408
 30
0.0
 10
13.8978987572
 20
7.351129402
 30
0.0
 10
13.8933930313
 20
7.3471392064
 30
0.0
 10
13.888889726
 20
7.3437044079
 30
0.0
 10
13.884392737
 20
7.3408290262
 30
0.0
 10
13.8799054137
 20
7.3385174138
 30
0.0
 10
13.8754323327
 20
7.3367736467
 30
0.0
 10
13.8716884194
 20
7.3357895318
 30
0.0
 10
13.8687221285
 20
7.3352993266
 30
0.0
 10
13.8665228868
 20
7.3350775879
 30
0.0
 10
13.8643321692
 20
7.3349991258
 30
0.0
 10
13.8621506001
 20
7.3350638948
 30
0.0
 10
13.8599788957
 20
7.3352718838
 30
0.0
 10
13.8578177479
 20
7.335623039
 30
0.0
 10
13.8556678519
 20
7.3361172758
 30
0.0
 10
13.8535298771
 20
7.3367543187
 30
0.0
 10
13.8514043995
 20
7.3375339385
 30
0.0
 10
13.8485578536
 20
7.3387761947
 30
0.0
 10
13.8450229158
 20
7.3407027463
 30
0.0
 10
13.8408913235
 20
7.3435546071
 30
0.0
 10
13.8368271232
 20
7.3469668566
 30
0.0
 10
13.8328338769
 20
7.3509342578
 30
0.0
 10
13.8303015635
 20
7.3538536151
 30
0.0
 10
13.8290461159
 20
7.35539725
 30
0.0
  0
SPLINE
  5
436
100
AcDbEntity
  8
0
100
AcDbSpline
 62
7
  6
CONTINUOUS
 70
0
 71
3
 72
53
 73
49
 74
0
 42
0.0000001
 43
0.0000001
 44
0.0000000001
 40
0.0
 40
0.0
 40
0.0
 40
0.0
 40
0.0417734924
 40
0.0840372957
 40
0.1266584425
 40
0.1695065967
 40
0.2124481812
 40
0.2553501594
 40
0.2980793725
 40
0.3405034033
 40
0.3824910409
 40
0.4239128089
 40
0.4646415021
 40
0.5045527201
 40
0.5435254174
 40
0.5814424789
 40
0.6181913222
 40
0.6536645088
 40
0.6877604124
 40
0.7203839587
 40
0.7361162136
 40
0.7514482011
 40
0.76637019
 40
0.7808732447
 40
0.7949488883
 40
0.8085894626
 40
0.8217880239
 40
0.8345383791
 40
0.846835385
 40
0.8586746751
 40
0.8700531903
 40
0.8809689307
 40
0.8914213457
 40
0.9014114793
 40
0.9109420305
 40
0.9200179576
 40
0.9286463925
 40
0.9368374354
 40
0.9446043449
 40
0.9519642056
 40
0.9589386444
 40
0.9655542932
 40
0.9718438124
 40
0.977846191
 40
0.9836073662
 40
0.9891800518
 40
0.994623076
 40
1.0
 40
1.0
 40
1.0
 40
1.0
 10
13.962288831
 20
7.9853514578
 30
0.0
 10
13.962288831
 20
7.9765833075
 30
0.0
 10
13.9621520233
 20
7.9589438165
 30
0.0
 10
13.961547306
 20
7.9323644853
 30
0.0
 10
13.9605435508
 20
7.9055714605
 30
0.0
 10
13.9591441546
 20
7.87865376
 30
0.0
 10
13.9573536671
 20
7.8517001678
 30
0.0
 10
13.9551780428
 20
7.8247999718
 30
0.0
 10
13.9526244689
 20
7.7980421321
 30
0.0
 10
13.9497014168
 20
7.7715151811
 30
0.0
 10
13.9464185876
 20
7.7453068691
 30
0.0
 10
13.9427868807
 20
7.7195038848
 30
0.0
 10
13.9388183599
 20
7.6941915669
 30
0.0
 10
13.9345262133
 20
7.6694536194
 30
0.0
 10
13.9299247102
 20
7.6453718315
 30
0.0
 10
13.9250291584
 20
7.6220257931
 30
0.0
 10
13.9198558577
 20
7.5994926379
 30
0.0
 10
13.9144220466
 20
7.57784672
 30
0.0
 10
13.9087458112
 20
7.5571595776
 30
0.0
 10
13.9037711512
 20
7.5405814805
 30
0.0
 10
13.8996762578
 20
7.5278558328
 30
0.0
 10
13.8965935715
 20
7.5187085875
 30
0.0
 10
13.8934646834
 20
7.5098501995
 30
0.0
 10
13.8902922561
 20
7.501287957
 30
0.0
 10
13.8870788537
 20
7.4930289371
 30
0.0
 10
13.8838271709
 20
7.4850799427
 30
0.0
 10
13.8805399149
 20
7.4774475159
 30
0.0
 10
13.8772197445
 20
7.4701379542
 30
0.0
 10
13.8738694994
 20
7.4631572371
 30
0.0
 10
13.870491835
 20
7.4565111247
 30
0.0
 10
13.8670896274
 20
7.4502050285
 30
0.0
 10
13.8636656112
 20
7.4442441167
 30
0.0
 10
13.8602225864
 20
7.4386332472
 30
0.0
 10
13.8567634031
 20
7.4333769459
 30
0.0
 10
13.8532907426
 20
7.4284795175
 30
0.0
 10
13.8498074955
 20
7.4239448358
 30
0.0
 10
13.8463162684
 20
7.4197766125
 30
0.0
 10
13.8428198255
 20
7.4159781386
 30
0.0
 10
13.839320751
 20
7.412552485
 30
0.0
 10
13.8358215396
 20
7.4095024987
 30
0.0
 10
13.8323247267
 20
7.4068306647
 30
0.0
 10
13.8288325544
 20
7.4045395597
 30
0.0
 10
13.8253474853
 20
7.402631356
 30
0.0
 10
13.8218718135
 20
7.4011084945
 30
0.0
 10
13.8184082576
 20
7.3999731914
 30
0.0
 10
13.8149596741
 20
7.3992276042
 30
0.0
 10
13.8115302262
 20
7.3988736756
 30
0.0
 10
13.8092533679
 20
7.3988996325
 30
0.0
 10
13.8081274691
 20
7.3989777098
 30
0.0
  0
SPLINE
  5
437
100
AcDbEntity
  8
0
100
AcDbSpline
 62
7
  6
CONTINUOUS
 70
0
 71
3
 72
56
 73
52
 74
0
 42
0.0000001
 43
0.0000001
 44
0.0000000001
 40
0.0
 40
0.0
 40
0.0
 40
0.0
 40
0.0532122383
 40
0.1056338939
 40
0.1571442974
 40
0.2076345477
 40
0.2569944944
 40
0.3051183588
 40
0.3519044024
 40
0.3972549003
 40
0.4410770338
 40
0.4832833022
 40
0.5237919823
 40
0.5625278052
 40
0.5994228876
 40
0.6344175523
 40
0.6511866263
 40
0.6674626241
 40
0.6832408361
 40
0.6985175799
 40
0.7132899389
 40
0.7275558494
 40
0.741314539
 40
0.7545662044
 40
0.7673123898
 40
0.7795562591
 40
0.7913024092
 40
0.8025574896
 40
0.8133303107
 40
0.8236319603
 40
0.8334765627
 40
0.8428813364
 40
0.8518670863
 40
0.860458926
 40
0.8686863952
 40
0.876584107
 40
0.8841920842
 40
0.8915556658
 40
0.8987255402
 40
0.9057570388
 40
0.9127090999
 40
0.9196429201
 40
0.9266201941
 40
0.9337014076
 40
0.9409441498
 40
0.9484019581
 40
0.9641403118
 40
0.9725130838
 40
0.981262914
 40
0.9904174305
 40
1.0
 40
1.0
 40
1.0
 40
1.0
 10
14.0357735139
 20
7.9963322151
 30
0.0
 10
14.0357735139
 20
8.0046025839
 30
0.0
 10
14.0356669676
 20
8.021020667
 30
0.0
 10
14.0351806819
 20
8.0454402775
 30
0.0
 10
14.0343700741
 20
8.069428063
 30
0.0
 10
14.0332372205
 20
8.0929264292
 30
0.0
 10
14.0317847905
 20
8.1158798985
 30
0.0
 10
14.0300163261
 20
8.1382337841
 30
0.0
 10
14.0279361082
 20
8.1599349681
 30
0.0
 10
14.0255491283
 20
8.1809319017
 30
0.0
 10
14.0228611538
 20
8.2011747201
 30
0.0
 10
14.0198786896
 20
8.2206154065
 30
0.0
 10
14.0166089272
 20
8.2392078602
 30
0.0
 10
14.0130597365
 20
8.2569081049
 30
0.0
 10
14.0092396642
 20
8.2736741588
 30
0.0
 10
14.0057910684
 20
8.2870176818
 30
0.0
 10
14.0028940882
 20
8.2971884747
 30
0.0
 10
14.000690346
 20
8.3044500774
 30
0.0
 10
13.9984259367
 20
8.3114496298
 30
0.0
 10
13.9961022394
 20
8.3181830157
 30
0.0
 10
13.9937206462
 20
8.3246462592
 30
0.0
 10
13.9912824973
 20
8.3308355274
 30
0.0
 10
13.988789318
 20
8.336747202
 30
0.0
 10
13.986242533
 20
8.3423777991
 30
0.0
 10
13.9836436031
 20
8.3477240032
 30
0.0
 10
13.9809941238
 20
8.3527827245
 30
0.0
 10
13.9782955389
 20
8.3575509789
 30
0.0
 10
13.9755494141
 20
8.3620260029
 30
0.0
 10
13.9727573472
 20
8.3662052343
 30
0.0
 10
13.9699207786
 20
8.3700861869
 30
0.0
 10
13.9670413251
 20
8.3736666528
 30
0.0
 10
13.9641205036
 20
8.3769445395
 30
0.0
 10
13.9611597382
 20
8.3799178123
 30
0.0
 10
13.9581606207
 20
8.3825847237
 30
0.0
 10
13.955124573
 20
8.3849434724
 30
0.0
 10
13.9520530895
 20
8.3869923339
 30
0.0
 10
13.9489478288
 20
8.3887297906
 30
0.0
 10
13.945810431
 20
8.3901541278
 30
0.0
 10
13.9426428724
 20
8.391263908
 30
0.0
 10
13.9394473612
 20
8.3920579061
 30
0.0
 10
13.9362263255
 20
8.3925349419
 30
0.0
 10
13.9329824762
 20
8.3926945935
 30
0.0
 10
13.9297185259
 20
8.3925367382
 30
0.0
 10
13.9264372293
 20
8.3920616837
 30
0.0
 10
13.9231408598
 20
8.391270321
 30
0.0
 10
13.9186495382
 20
8.3897684157
 30
0.0
 10
13.9142054615
 20
8.3876362335
 30
0.0
 10
13.909849367
 20
8.384965944
 30
0.0
 10
13.9065085121
 20
8.3826117696
 30
0.0
 10
13.903164583
 20
8.3799497887
 30
0.0
 10
13.9009851082
 20
8.378016058
 30
0.0
 10
13.8998948773
 20
8.3770013929
 30
0.0
  0
SPLINE
  5
438
100
AcDbEntity
  8
0
100
AcDbSpline
 62
7
  6
CONTINUOUS
 70
0
 71
3
 72
46
 73
42
 74
0
 42
0.0000001
 43
0.0000001
 44
0.0000000001
 40
0.0
 40
0.0
 40
0.0
 40
0.0
 40
0.0964113762
 40
0.1901828411
 40
0.2359024656
 40
0.2807517279
 40
0.3246641656
 40
0.3675753027
 40
0.4094227648
 40
0.4501466652
 40
0.4896896132
 40
0.5279973331
 40
0.5650184103
 40
0.6007050167
 40
0.6350130594
 40
0.6679024096
 40
0.6993378255
 40
0.7292888919
 40
0.7577312693
 40
0.7846472389
 40
0.8100267424
 40
0.8338692072
 40
0.8452175692
 40
0.8561866391
 40
0.8667798147
 40
0.8770014465
 40
0.8868572247
 40
0.8963540703
 40
0.9055002126
 40
0.9143056041
 40
0.9227820472
 40
0.9309432064
 40
0.9388049549
 40
0.9463857073
 40
0.9607835856
 40
0.9676579446
 40
0.9743518603
 40
0.9808974301
 40
0.9873292782
 40
0.9936840939
 40
1.0
 40
1.0
 40
1.0
 40
1.0
 10
13.962288831
 20
7.9853514578
 30
0.0
 10
13.962288831
 20
7.9975068006
 30
0.0
 10
13.9620313169
 20
8.021485508
 30
0.0
 10
13.961034527
 20
8.0512137997
 30
0.0
 10
13.9598294966
 20
8.0744243068
 30
0.0
 10
13.9587368848
 20
8.0913446683
 30
0.0
 10
13.9574498029
 20
8.1078962279
 30
0.0
 10
13.9559703304
 20
8.124051733
 30
0.0
 10
13.9543009488
 20
8.139784556
 30
0.0
 10
13.9524444663
 20
8.1550687584
 30
0.0
 10
13.9504039161
 20
8.1698791589
 30
0.0
 10
13.9481827744
 20
8.1841913673
 30
0.0
 10
13.9457846796
 20
8.1979818275
 30
0.0
 10
13.9432136548
 20
8.2112278597
 30
0.0
 10
13.9404740044
 20
8.2239077031
 30
0.0
 10
13.9375702224
 20
8.2360005499
 30
0.0
 10
13.9345072275
 20
8.2474866033
 30
0.0
 10
13.9312900182
 20
8.2583470987
 30
0.0
 10
13.9279239629
 20
8.2685643447
 30
0.0
 10
13.9244146003
 20
8.2781218559
 30
0.0
 10
13.9207676022
 20
8.2870040183
 30
0.0
 10
13.9175681499
 20
8.2939413042
 30
0.0
 10
13.9149370928
 20
8.2991329622
 30
0.0
 10
13.9129656884
 20
8.3027846042
 30
0.0
 10
13.9109644504
 20
8.3062569901
 30
0.0
 10
13.9089341035
 20
8.3095486835
 30
0.0
 10
13.9068755009
 20
8.3126583746
 30
0.0
 10
13.9047894672
 20
8.3155848215
 30
0.0
 10
13.9026767657
 20
8.3183267993
 30
0.0
 10
13.9005382189
 20
8.3208831891
 30
0.0
 10
13.8983746544
 20
8.3232529957
 30
0.0
 10
13.8961869233
 20
8.3254351658
 30
0.0
 10
13.8939755514
 20
8.3274288904
 30
0.0
 10
13.8910479226
 20
8.3297936245
 30
0.0
 10
13.8880227125
 20
8.3318342299
 30
0.0
 10
13.8849130351
 20
8.3335011482
 30
0.0
 10
13.882597123
 20
8.3345398955
 30
0.0
 10
13.8802630877
 20
8.3353854035
 30
0.0
 10
13.8779118447
 20
8.3360371563
 30
0.0
 10
13.8755447938
 20
8.3364947291
 30
0.0
 10
13.8739548796
 20
8.3366702977
 30
0.0
 10
13.8731604913
 20
8.3367253859
 30
0.0
  0
SPLINE
  5
439
100
AcDbEntity
  8
0
100
AcDbSpline
 62
7
  6
CONTINUOUS
 70
0
 71
3
 72
51
 73
47
 74
0
 42
0.0000001
 43
0.0000001
 44
0.0000000001
 40
0.0
 40
0.0
 40
0.0
 40
0.0
 40
0.0055575483
 40
0.0111779716
 40
0.01692191
 40
0.0228457685
 40
0.029000541
 40
0.0354309187
 40
0.0421753321
 40
0.0492661787
 40
0.0567301751
 40
0.0645892818
 40
0.072860934
 40
0.0815589354
 40
0.0906938799
 40
0.1002734384
 40
0.1103031157
 40
0.1207861166
 40
0.1317239771
 40
0.1431166596
 40
0.1549625852
 40
0.1672591636
 40
0.1800024627
 40
0.1931876894
 40
0.2068091423
 40
0.2208601567
 40
0.2502201891
 40
0.2812020358
 40
0.3137291498
 40
0.3477165256
 40
0.3830717054
 40
0.4196956132
 40
0.4574832856
 40
0.4963245986
 40
0.5361048951
 40
0.5767055669
 40
0.6180046028
 40
0.6598771293
 40
0.7021959705
 40
0.7448321944
 40
0.7876555817
 40
0.8305351627
 40
0.8733399838
 40
0.9159382941
 40
0.9582023666
 40
1.0
 40
1.0
 40
1.0
 40
1.0
 10
13.894638569
 20
11.7760620537
 30
0.0
 10
13.8946385616
 20
11.7769130439
 30
0.0
 10
13.8947338023
 20
11.7786261339
 30
0.0
 10
13.8951613591
 20
11.781186638
 30
0.0
 10
13.8958729796
 20
11.7837414094
 30
0.0
 10
13.8968671221
 20
11.7862875419
 30
0.0
 10
13.8981423312
 20
11.7888228973
 30
0.0
 10
13.8996967497
 20
11.7913455967
 30
0.0
 10
13.9015286681
 20
11.7938538858
 30
0.0
 10
13.9036363145
 20
11.7963460393
 30
0.0
 10
13.9060177232
 20
11.7988204648
 30
0.0
 10
13.9086709963
 20
11.8012753362
 30
0.0
 10
13.9115938988
 20
11.8037089856
 30
0.0
 10
13.9147841246
 20
11.8061195824
 30
0.0
 10
13.9182391454
 20
11.8085052691
 30
0.0
 10
13.921956166
 20
11.810864285
 30
0.0
 10
13.9259322695
 20
11.813194672
 30
0.0
 10
13.9301642263
 20
11.8154946623
 30
0.0
 10
13.9346486501
 20
11.8177623745
 30
0.0
 10
13.9393819276
 20
11.8199959521
 30
0.0
 10
13.9443602075
 20
11.8221936529
 30
0.0
 10
13.9495794786
 20
11.824353595
 30
0.0
 10
13.9550354776
 20
11.8264740909
 30
0.0
 10
13.9607237717
 20
11.8285533657
 30
0.0
 10
13.9666397342
 20
11.8305897212
 30
0.0
 10
13.9749468248
 20
11.8332849633
 30
0.0
 10
13.9858699018
 20
11.8365247149
 30
0.0
 10
13.9996193554
 20
11.8401611804
 30
0.0
 10
14.0141511474
 20
11.8435890804
 30
0.0
 10
14.0294177857
 20
11.8467970866
 30
0.0
 10
14.0453694984
 20
11.849774562
 30
0.0
 10
14.0619541547
 20
11.8525116451
 30
0.0
 10
14.0791175194
 20
11.8549992857
 30
0.0
 10
14.096803428
 20
11.8572292574
 30
0.0
 10
14.1149539885
 20
11.8591941866
 30
0.0
 10
14.1335097712
 20
11.8608875747
 30
0.0
 10
14.1524100025
 20
11.8623038208
 30
0.0
 10
14.1715927655
 20
11.8634382549
 30
0.0
 10
14.1909952133
 20
11.8642871344
 30
0.0
 10
14.2105537743
 20
11.8648476555
 30
0.0
 10
14.230204359
 20
11.8651179638
 30
0.0
 10
14.2498826062
 20
11.8650971665
 30
0.0
 10
14.2695239242
 20
11.8647853183
 30
0.0
 10
14.289064228
 20
11.8641834982
 30
0.0
 10
14.3084391148
 20
11.8632936192
 30
0.0
 10
14.3212873719
 20
11.8625051794
 30
0.0
 10
14.3276722286
 20
11.8620623881
 30
0.0
  0
SPLINE
  5
43A
100
AcDbEntity
  8
0
100
AcDbSpline
 62
7
  6
CONTINUOUS
 70
0
 71
3
 72
51
 73
47
 74
0
 42
0.0000001
 43
0.0000001
 44
0.0000000001
 40
0.0
 40
0.0
 40
0.0
 40
0.0
 40
0.0055575483
 40
0.0111779716
 40
0.01692191
 40
0.0228457685
 40
0.029000541
 40
0.0354309187
 40
0.0421753321
 40
0.0492661787
 40
0.0567301751
 40
0.0645892818
 40
0.072860934
 40
0.0815589354
 40
0.0906938799
 40
0.1002734384
 40
0.1103031157
 40
0.1207861166
 40
0.1317239771
 40
0.1431166596
 40
0.1549625852
 40
0.1672591636
 40
0.1800024627
 40
0.1931876894
 40
0.2068091423
 40
0.2208601567
 40
0.2502201891
 40
0.2812020358
 40
0.3137291498
 40
0.3477165256
 40
0.3830717054
 40
0.4196956132
 40
0.4574832856
 40
0.4963245986
 40
0.5361048951
 40
0.5767055669
 40
0.6180046028
 40
0.6598771293
 40
0.7021959705
 40
0.7448321944
 40
0.7876555817
 40
0.8305351627
 40
0.8733399838
 40
0.9159382941
 40
0.9582023666
 40
1.0
 40
1.0
 40
1.0
 40
1.0
 10
8.5820462096
 20
12.1444915852
 30
0.0
 10
8.5820462022
 20
12.1453425754
 30
0.0
 10
8.582141443
 20
12.1470556654
 30
0.0
 10
8.5825689997
 20
12.1496161695
 30
0.0
 10
8.5832806202
 20
12.1521709408
 30
0.0
 10
8.5842747627
 20
12.1547170733
 30
0.0
 10
8.5855499718
 20
12.1572524287
 30
0.0
 10
8.5871043903
 20
12.1597751281
 30
0.0
 10
8.5889363088
 20
12.1622834173
 30
0.0
 10
8.5910439551
 20
12.1647755708
 30
0.0
 10
8.5934253638
 20
12.1672499963
 30
0.0
 10
8.5960786369
 20
12.1697048676
 30
0.0
 10
8.5990015395
 20
12.172138517
 30
0.0
 10
8.6021917652
 20
12.1745491139
 30
0.0
 10
8.6056467861
 20
12.1769348006
 30
0.0
 10
8.6093638067
 20
12.1792938165
 30
0.0
 10
8.6133399101
 20
12.1816242035
 30
0.0
 10
8.6175718669
 20
12.1839241937
 30
0.0
 10
8.6220562907
 20
12.186191906
 30
0.0
 10
8.6267895682
 20
12.1884254835
 30
0.0
 10
8.6317678481
 20
12.1906231844
 30
0.0
 10
8.6369871192
 20
12.1927831265
 30
0.0
 10
8.6424431182
 20
12.1949036223
 30
0.0
 10
8.6481314123
 20
12.1969828972
 30
0.0
 10
8.6540473749
 20
12.1990192527
 30
0.0
 10
8.6623544654
 20
12.2017144948
 30
0.0
 10
8.6732775425
 20
12.2049542464
 30
0.0
 10
8.687026996
 20
12.2085907119
 30
0.0
 10
8.701558788
 20
12.2120186119
 30
0.0
 10
8.7168254264
 20
12.215226618
 30
0.0
 10
8.732777139
 20
12.2182040935
 30
0.0
 10
8.7493617953
 20
12.2209411765
 30
0.0
 10
8.76652516
 20
12.2234288172
 30
0.0
 10
8.7842110686
 20
12.2256587889
 30
0.0
 10
8.8023616291
 20
12.2276237181
 30
0.0
 10
8.8209174119
 20
12.2293171062
 30
0.0
 10
8.8398176431
 20
12.2307333523
 30
0.0
 10
8.8590004061
 20
12.2318677864
 30
0.0
 10
8.8784028539
 20
12.2327166659
 30
0.0
 10
8.8979614149
 20
12.233277187
 30
0.0
 10
8.9176119996
 20
12.2335474953
 30
0.0
 10
8.9372902468
 20
12.233526698
 30
0.0
 10
8.9569315649
 20
12.2332148497
 30
0.0
 10
8.9764718686
 20
12.2326130297
 30
0.0
 10
8.9958467554
 20
12.2317231507
 30
0.0
 10
9.0086950126
 20
12.2309347109
 30
0.0
 10
9.0150798692
 20
12.2304919195
 30
0.0
  0
SPLINE
  5
43B
100
AcDbEntity
  8
0
100
AcDbSpline
 62
7
  6
CONTINUOUS
 70
0
 71
3
 72
57
 73
53
 74
0
 42
0.0000001
 43
0.0000001
 44
0.0000000001
 40
0.0
 40
0.0
 40
0.0
 40
0.0
 40
0.0082489934
 40
0.016024775
 40
0.023363707
 40
0.0303111502
 40
0.0369223183
 40
0.0432627796
 40
0.0494080229
 40
0.0554417188
 40
0.061452705
 40
0.0675309122
 40
0.0737630518
 40
0.0802290752
 40
0.0869996102
 40
0.0941351559
 40
0.1016858434
 40
0.1096925274
 40
0.1181875211
 40
0.1271961067
 40
0.1367373156
 40
0.1468251577
 40
0.1574692331
 40
0.1686755262
 40
0.1804469139
 40
0.1927835585
 40
0.2056834049
 40
0.219142251
 40
0.233154283
 40
0.2477119097
 40
0.2628063381
 40
0.2784272612
 40
0.2945634394
 40
0.3112023332
 40
0.3283306355
 40
0.345933935
 40
0.3639971435
 40
0.3825042539
 40
0.4207821347
 40
0.4606270738
 40
0.5018882034
 40
0.5444064113
 40
0.5880154985
 40
0.6325432663
 40
0.6778125614
 40
0.7236422828
 40
0.7698483956
 40
0.816244853
 40
0.862644752
 40
0.9088608102
 40
0.9547075439
 40
1.0
 40
1.0
 40
1.0
 40
1.0
 10
10.7874079183
 20
10.9215448326
 30
0.0
 10
10.7862393065
 20
10.9226323588
 30
0.0
 10
10.7840331629
 20
10.9248156816
 30
0.0
 10
10.781051443
 20
10.928220065
 30
0.0
 10
10.7785017843
 20
10.9316511082
 30
0.0
 10
10.776387745
 20
10.9351057912
 30
0.0
 10
10.7747127534
 20
10.9385811893
 30
0.0
 10
10.7734803513
 20
10.9420738501
 30
0.0
 10
10.772693765
 20
10.9455794842
 30
0.0
 10
10.7723557233
 20
10.949092823
 30
0.0
 10
10.7724673313
 20
10.9526077585
 30
0.0
 10
10.7730283637
 20
10.9561179851
 30
0.0
 10
10.7740365808
 20
10.9596177958
 30
0.0
 10
10.7754891967
 20
10.9631023323
 30
0.0
 10
10.7773825219
 20
10.9665678788
 30
0.0
 10
10.7797132876
 20
10.970011133
 30
0.0
 10
10.78247786
 20
10.9734293722
 30
0.0
 10
10.7856729522
 20
10.9768196334
 30
0.0
 10
10.7892948301
 20
10.9801791579
 30
0.0
 10
10.7933397241
 20
10.9835048035
 30
0.0
 10
10.7978033333
 20
10.9867935357
 30
0.0
 10
10.8026810658
 20
10.9900420573
 30
0.0
 10
10.8079678126
 20
10.9932471372
 30
0.0
 10
10.8136580522
 20
10.9964054513
 30
0.0
 10
10.8197457964
 20
10.9995136846
 30
0.0
 10
10.8262245984
 20
11.0025685796
 30
0.0
 10
10.8330875912
 20
11.0055668217
 30
0.0
 10
10.8403274435
 20
11.0085052707
 30
0.0
 10
10.8479364363
 20
11.0113806722
 30
0.0
 10
10.8559064015
 20
11.0141900268
 30
0.0
 10
10.8642288051
 20
11.0169301857
 30
0.0
 10
10.8728946904
 20
11.019598299
 30
0.0
 10
10.8818947496
 20
11.0221913618
 30
0.0
 10
10.8912192837
 20
11.0247066745
 30
0.0
 10
10.9008582572
 20
11.0271414096
 30
0.0
 10
10.9108012723
 20
11.0294930134
 30
0.0
 10
10.9210376243
 20
11.0317588807
 30
0.0
 10
10.9352219757
 20
11.0346954463
 30
0.0
 10
10.9536072153
 20
11.0381238645
 30
0.0
 10
10.9764158327
 20
11.0418150345
 30
0.0
 10
11.0001134649
 20
11.0451118436
 30
0.0
 10
11.0245978391
 20
11.0479999169
 30
0.0
 10
11.0497634057
 20
11.0504666307
 30
0.0
 10
11.0755015843
 20
11.0525012202
 30
0.0
 10
11.1017013061
 20
11.054094807
 30
0.0
 10
11.1282494867
 20
11.055240442
 30
0.0
 10
11.1550315161
 20
11.0559331268
 30
0.0
 10
11.181931788
 20
11.0561698484
 30
0.0
 10
11.2088341171
 20
11.0559495617
 30
0.0
 10
11.235622469
 20
11.0552732473
 30
0.0
 10
11.2621809782
 20
11.0541438289
 30
0.0
 10
11.2797876632
 20
11.0530842589
 30
0.0
 10
11.2885317411
 20
11.0524778551
 30
0.0
  0
SPLINE
  5
43C
100
AcDbEntity
  8
0
100
AcDbSpline
 62
7
  6
CONTINUOUS
 70
0
 71
3
 72
60
 73
56
 74
0
 42
0.0000001
 43
0.0000001
 44
0.0000000001
 40
0.0
 40
0.0
 40
0.0
 40
0.0
 40
0.0417737215
 40
0.0840362954
 40
0.1266575307
 40
0.1695051874
 40
0.2124464681
 40
0.2553480875
 40
0.2980769527
 40
0.3405006415
 40
0.3824879411
 40
0.4239093736
 40
0.4646377307
 40
0.5045486136
 40
0.543520985
 40
0.5814377367
 40
0.599965091
 40
0.6181867239
 40
0.6360893624
 40
0.6536601077
 40
0.6708864507
 40
0.6877562714
 40
0.7042579206
 40
0.7203801597
 40
0.7361123056
 40
0.7514441249
 40
0.7663660213
 40
0.7808689196
 40
0.7949444585
 40
0.8085849095
 40
0.8217833396
 40
0.8345336065
 40
0.8468304684
 40
0.8586696849
 40
0.8700480724
 40
0.8809637257
 40
0.8914160437
 40
0.9014060712
 40
0.9109365509
 40
0.9200123738
 40
0.9286407389
 40
0.9368317014
 40
0.9445985263
 40
0.9519583321
 40
0.9589326812
 40
0.9655482848
 40
0.9718377328
 40
0.9778400566
 40
0.9836011837
 40
0.9864084827
 40
0.9891757961
 40
0.9919106627
 40
0.9946209124
 40
0.9973146132
 40
1.0
 40
1.0
 40
1.0
 40
1.0
 10
14.8828491254
 20
7.3016556468
 30
0.0
 10
14.8828491254
 20
7.2794551224
 30
0.0
 10
14.8825027747
 20
7.2347935767
 30
0.0
 10
14.8809716118
 20
7.1674968759
 30
0.0
 10
14.8784302663
 20
7.0996594977
 30
0.0
 10
14.8748870589
 20
7.0315059613
 30
0.0
 10
14.8703537049
 20
6.9632617837
 30
0.0
 10
14.8648451864
 20
6.8951527239
 30
0.0
 10
14.8583797522
 20
6.8274041196
 30
0.0
 10
14.8509788348
 20
6.760240098
 30
0.0
 10
14.8426669889
 20
6.6938828436
 30
0.0
 10
14.8334718085
 20
6.6285518472
 30
0.0
 10
14.8234238355
 20
6.5644631963
 30
0.0
 10
14.8125564709
 20
6.5018287709
 30
0.0
 10
14.8009058275
 20
6.440855823
 30
0.0
 10
14.7904982363
 20
6.3912232939
 30
0.0
 10
14.7817979003
 20
6.3525074145
 30
0.0
 10
14.7751517441
 20
6.3242330854
 30
0.0
 10
14.7683400739
 20
6.2965214133
 30
0.0
 10
14.761368517
 20
6.2693952953
 30
0.0
 10
14.7542428744
 20
6.2428771702
 30
0.0
 10
14.7469690188
 20
6.2169889653
 30
0.0
 10
14.739553037
 20
6.1917520796
 30
0.0
 10
14.7320010063
 20
6.167187379
 30
0.0
 10
14.7243192767
 20
6.1433151536
 30
0.0
 10
14.7165141218
 20
6.1201551353
 30
0.0
 10
14.7085921132
 20
6.0977264361
 30
0.0
 10
14.7005597233
 20
6.0760475828
 30
0.0
 10
14.6924236951
 20
6.0551364451
 30
0.0
 10
14.6841907013
 20
6.0350102741
 30
0.0
 10
14.6758676067
 20
6.0156856378
 30
0.0
 10
14.6674612766
 20
5.9971784412
 30
0.0
 10
14.6589786522
 20
5.9795038947
 30
0.0
 10
14.6504267683
 20
5.9626764883
 30
0.0
 10
14.6418126002
 20
5.9467100214
 30
0.0
 10
14.6331433081
 20
5.9316175036
 30
0.0
 10
14.6244258591
 20
5.917411272
 30
0.0
 10
14.6156674613
 20
5.9041028014
 30
0.0
 10
14.6068750256
 20
5.891702919
 30
0.0
 10
14.5980556848
 20
5.88022154
 30
0.0
 10
14.5892162209
 20
5.869667954
 30
0.0
 10
14.5803635209
 20
5.8600505585
 30
0.0
 10
14.5715041201
 20
5.8513771542
 30
0.0
 10
14.5626444769
 20
5.8436548081
 30
0.0
 10
14.5537907505
 20
5.8368900669
 30
0.0
 10
14.5449489725
 20
5.8310891261
 30
0.0
 10
14.5361248869
 20
5.8262577821
 30
0.0
 10
14.5273252772
 20
5.8224021223
 30
0.0
 10
14.5199532484
 20
5.8199859092
 30
0.0
 10
14.5140967545
 20
5.8185634847
 30
0.0
 10
14.5097537285
 20
5.8177514799
 30
0.0
 10
14.5054238663
 20
5.8171855906
 30
0.0
 10
14.5011079934
 20
5.8168659967
 30
0.0
 10
14.4968073304
 20
5.8167928798
 30
0.0
 10
14.4939491024
 20
5.8169085255
 30
0.0
 10
14.4925253811
 20
5.8170072638
 30
0.0
  0
SPLINE
  5
43D
100
AcDbEntity
  8
0
100
AcDbSpline
 62
7
  6
CONTINUOUS
 70
0
 71
3
 72
54
 73
50
 74
0
 42
0.0000001
 43
0.0000001
 44
0.0000000001
 40
0.0
 40
0.0
 40
0.0
 40
0.0
 40
0.0063158427
 40
0.0126705974
 40
0.0191023953
 40
0.0256479035
 40
0.0323417516
 40
0.0392160545
 40
0.0536138127
 40
0.061194488
 40
0.0690562166
 40
0.0772172825
 40
0.0856936302
 40
0.0944989909
 40
0.1036450473
 40
0.113141787
 40
0.1229974971
 40
0.1332190617
 40
0.1438121259
 40
0.1547810799
 40
0.1661293869
 40
0.1778595312
 40
0.189973133
 40
0.2024711534
 40
0.2153537503
 40
0.2286205275
 40
0.2422705277
 40
0.256302183
 40
0.2707135528
 40
0.2855021644
 40
0.300665138
 40
0.316199276
 40
0.3321009043
 40
0.3649900029
 40
0.3992976831
 40
0.4349839512
 40
0.472004695
 40
0.5103120262
 40
0.5498546333
 40
0.5905781015
 40
0.6324251619
 40
0.6753358913
 40
0.7192479428
 40
0.7640967229
 40
0.8098156864
 40
0.8563364658
 40
0.9035883331
 40
0.9515014468
 40
1.0
 40
1.0
 40
1.0
 40
1.0
 10
14.6571840508
 20
11.0890821362
 30
0.0
 10
14.6591953718
 20
11.0889426466
 30
0.0
 10
14.6632209031
 20
11.0884981936
 30
0.0
 10
14.6692140732
 20
11.0873396275
 30
0.0
 10
14.6751671949
 20
11.0856893543
 30
0.0
 10
14.6810767741
 20
11.0835486073
 30
0.0
 10
14.686940472
 20
11.0809185995
 30
0.0
 10
14.6948138917
 20
11.0766980584
 30
0.0
 10
14.7024734393
 20
11.0715313834
 30
0.0
 10
14.7098859944
 20
11.065544106
 30
0.0
 10
14.7154849117
 20
11.0604960551
 30
0.0
 10
14.7210241016
 20
11.0549710248
 30
0.0
 10
14.7265020872
 20
11.0489708897
 30
0.0
 10
14.731916635
 20
11.0424982574
 30
0.0
 10
14.737265833
 20
11.0355558076
 30
0.0
 10
14.7425475098
 20
11.0281463045
 30
0.0
 10
14.7477596925
 20
11.0202728036
 30
0.0
 10
14.7529003311
 20
11.0119384901
 30
0.0
 10
14.7579673164
 20
11.0031467098
 30
0.0
 10
14.7629587228
 20
10.9939010793
 30
0.0
 10
14.7678724617
 20
10.984205321
 30
0.0
 10
14.7727065611
 20
10.9740633939
 30
0.0
 10
14.777459105
 20
10.9634794492
 30
0.0
 10
14.7821280622
 20
10.9524577794
 30
0.0
 10
14.7867116038
 20
10.9410029204
 30
0.0
 10
14.7912078188
 20
10.9291195524
 30
0.0
 10
14.7956148249
 20
10.9168125395
 30
0.0
 10
14.7999308844
 20
10.9040869487
 30
0.0
 10
14.8041541401
 20
10.8909479886
 30
0.0
 10
14.8082828914
 20
10.8774010675
 30
0.0
 10
14.8123154462
 20
10.8634517609
 30
0.0
 10
14.816250098
 20
10.8491057808
 30
0.0
 10
14.8214217426
 20
10.8292333349
 30
0.0
 10
14.8276158828
 20
10.8034369722
 30
0.0
 10
14.8345524971
 20
10.771332809
 30
0.0
 10
14.8410620933
 20
10.7377949682
 30
0.0
 10
14.8471338349
 20
10.7028787163
 30
0.0
 10
14.8527576053
 20
10.6666414302
 30
0.0
 10
14.8579240452
 20
10.6291427754
 30
0.0
 10
14.862624543
 20
10.5904445015
 30
0.0
 10
14.8668512526
 20
10.5506103613
 30
0.0
 10
14.8705971294
 20
10.5097060055
 30
0.0
 10
14.8738559401
 20
10.4677988834
 30
0.0
 10
14.8766222562
 20
10.4249580945
 30
0.0
 10
14.8788914553
 20
10.3812542596
 30
0.0
 10
14.880659719
 20
10.3367596195
 30
0.0
 10
14.8819241719
 20
10.2915471488
 30
0.0
 10
14.8826825842
 20
10.2456920209
 30
0.0
 10
14.8828491254
 20
10.2149150729
 30
0.0
 10
14.8828491254
 20
10.1994332974
 30
0.0
  0
SPLINE
  5
43E
100
AcDbEntity
  8
0
100
AcDbSpline
 62
7
  6
CONTINUOUS
 70
0
 71
3
 72
51
 73
47
 74
0
 42
0.0000001
 43
0.0000001
 44
0.0000000001
 40
0.0
 40
0.0
 40
0.0
 40
0.0
 40
0.006315867
 40
0.0126706314
 40
0.0191024433
 40
0.025647959
 40
0.0323417891
 40
0.039216105
 40
0.0536138211
 40
0.0611945103
 40
0.0690561997
 40
0.0772172526
 40
0.0856936037
 40
0.0944989194
 40
0.1036449818
 40
0.1131417085
 40
0.1229973841
 40
0.1332189653
 40
0.1438120086
 40
0.1547809469
 40
0.1661292687
 40
0.1778593984
 40
0.1899730025
 40
0.2024710335
 40
0.2153536301
 40
0.2286204171
 40
0.2422704341
 40
0.2707125741
 40
0.3006634297
 40
0.33209859
 40
0.3649877453
 40
0.3992954944
 40
0.4349818799
 40
0.4720027336
 40
0.5103101563
 40
0.5498528892
 40
0.5905765191
 40
0.6324237195
 40
0.6753345875
 40
0.7192468132
 40
0.7640957578
 40
0.8098149508
 40
0.8563358524
 40
0.9035878254
 40
0.9515015618
 40
1.0
 40
1.0
 40
1.0
 40
1.0
 10
14.0213001203
 20
8.7374366111
 30
0.0
 10
14.0227874885
 20
8.7373334706
 30
0.0
 10
14.0257643557
 20
8.7370048085
 30
0.0
 10
14.0301963138
 20
8.7361481985
 30
0.0
 10
14.0345986334
 20
8.7349278489
 30
0.0
 10
14.0389687496
 20
8.733344818
 30
0.0
 10
14.0433049824
 20
8.7314000634
 30
0.0
 10
14.0491273169
 20
8.7282789815
 30
0.0
 10
14.054791612
 20
8.7244584063
 30
0.0
 10
14.0602731329
 20
8.7200308352
 30
0.0
 10
14.064413567
 20
8.7162979128
 30
0.0
 10
14.0685097868
 20
8.7122122112
 30
0.0
 10
14.0725607277
 20
8.7077751588
 30
0.0
 10
14.076564824
 20
8.7029887455
 30
0.0
 10
14.0805205226
 20
8.6978548485
 30
0.0
 10
14.0844263215
 20
8.6923755897
 30
0.0
 10
14.0882807536
 20
8.6865532162
 30
0.0
 10
14.092082221
 20
8.6803900385
 30
0.0
 10
14.0958292716
 20
8.6738885907
 30
0.0
 10
14.0995204208
 20
8.6670515148
 30
0.0
 10
14.1031541102
 20
8.6598815569
 30
0.0
 10
14.1067289407
 20
8.6523816706
 30
0.0
 10
14.110243441
 20
8.6445549055
 30
0.0
 10
14.1136961299
 20
8.63640444
 30
0.0
 10
14.1170856593
 20
8.627933638
 30
0.0
 10
14.1204106261
 20
8.6191459396
 30
0.0
 10
14.1248163979
 20
8.6068422176
 30
0.0
 10
14.1301387947
 20
8.5906864569
 30
0.0
 10
14.1361625073
 20
8.5703520463
 30
0.0
 10
14.1418975319
 20
8.5488461979
 30
0.0
 10
14.1473343793
 20
8.5262042681
 30
0.0
 10
14.1524640046
 20
8.5024632699
 30
0.0
 10
14.1572778401
 20
8.4776621616
 30
0.0
 10
14.16176789
 20
8.4518416915
 30
0.0
 10
14.1659266823
 20
8.4250443316
 30
0.0
 10
14.1697472669
 20
8.3973141785
 30
0.0
 10
14.1732232711
 20
8.3686968998
 30
0.0
 10
14.1763489261
 20
8.3392396523
 30
0.0
 10
14.1791190166
 20
8.3089909832
 30
0.0
 10
14.1815288999
 20
8.2780007655
 30
0.0
 10
14.1835745869
 20
8.2463200846
 30
0.0
 10
14.1852526608
 20
8.2140011978
 30
0.0
 10
14.1865602996
 20
8.1810975286
 30
0.0
 10
14.1874953624
 20
8.1476629339
 30
0.0
 10
14.1880561986
 20
8.1137531532
 30
0.0
 10
14.1881793629
 20
8.0909936357
 30
0.0
 10
14.1881793629
 20
8.079544968
 30
0.0
  0
SPLINE
  5
43F
100
AcDbEntity
  8
0
100
AcDbSpline
 62
7
  6
CONTINUOUS
 70
0
 71
3
 72
54
 73
50
 74
0
 42
0.0000001
 43
0.0000001
 44
0.0000000001
 40
0.0
 40
0.0
 40
0.0
 40
0.0
 40
0.0063158427
 40
0.0126705974
 40
0.0191023953
 40
0.0256479035
 40
0.0323417516
 40
0.0392160545
 40
0.0536138127
 40
0.061194488
 40
0.0690562166
 40
0.0772172825
 40
0.0856936302
 40
0.0944989909
 40
0.1036450473
 40
0.113141787
 40
0.1229974971
 40
0.1332190617
 40
0.1438121259
 40
0.1547810799
 40
0.1661293869
 40
0.1778595312
 40
0.189973133
 40
0.2024711534
 40
0.2153537503
 40
0.2286205275
 40
0.2422705277
 40
0.256302183
 40
0.2707135528
 40
0.2855021644
 40
0.300665138
 40
0.316199276
 40
0.3321009043
 40
0.3649900029
 40
0.3992976831
 40
0.4349839512
 40
0.472004695
 40
0.5103120262
 40
0.5498546333
 40
0.5905781015
 40
0.6324251619
 40
0.6753358913
 40
0.7192479428
 40
0.7640967229
 40
0.8098156864
 40
0.8563364658
 40
0.9035883331
 40
0.9515014468
 40
1.0
 40
1.0
 40
1.0
 40
1.0
 10
14.6571840508
 20
8.1913044856
 30
0.0
 10
14.6591953718
 20
8.191164996
 30
0.0
 10
14.6632209031
 20
8.1907205431
 30
0.0
 10
14.6692140732
 20
8.1895619769
 30
0.0
 10
14.6751671949
 20
8.1879117037
 30
0.0
 10
14.6810767741
 20
8.1857709567
 30
0.0
 10
14.686940472
 20
8.1831409489
 30
0.0
 10
14.6948138917
 20
8.1789204078
 30
0.0
 10
14.7024734393
 20
8.1737537328
 30
0.0
 10
14.7098859944
 20
8.1677664554
 30
0.0
 10
14.7154849117
 20
8.1627184045
 30
0.0
 10
14.7210241016
 20
8.1571933743
 30
0.0
 10
14.7265020872
 20
8.1511932391
 30
0.0
 10
14.731916635
 20
8.1447206068
 30
0.0
 10
14.737265833
 20
8.137778157
 30
0.0
 10
14.7425475098
 20
8.1303686539
 30
0.0
 10
14.7477596925
 20
8.122495153
 30
0.0
 10
14.7529003311
 20
8.1141608395
 30
0.0
 10
14.7579673164
 20
8.1053690592
 30
0.0
 10
14.7629587228
 20
8.0961234287
 30
0.0
 10
14.7678724617
 20
8.0864276705
 30
0.0
 10
14.7727065611
 20
8.0762857433
 30
0.0
 10
14.777459105
 20
8.0657017986
 30
0.0
 10
14.7821280622
 20
8.0546801288
 30
0.0
 10
14.7867116038
 20
8.0432252698
 30
0.0
 10
14.7912078188
 20
8.0313419018
 30
0.0
 10
14.7956148249
 20
8.0190348889
 30
0.0
 10
14.7999308844
 20
8.0063092981
 30
0.0
 10
14.8041541401
 20
7.9931703381
 30
0.0
 10
14.8082828914
 20
7.979623417
 30
0.0
 10
14.8123154462
 20
7.9656741103
 30
0.0
 10
14.816250098
 20
7.9513281302
 30
0.0
 10
14.8214217426
 20
7.9314556844
 30
0.0
 10
14.8276158828
 20
7.9056593216
 30
0.0
 10
14.8345524971
 20
7.8735551585
 30
0.0
 10
14.8410620933
 20
7.8400173176
 30
0.0
 10
14.8471338349
 20
7.8051010658
 30
0.0
 10
14.8527576053
 20
7.7688637796
 30
0.0
 10
14.8579240452
 20
7.7313651249
 30
0.0
 10
14.862624543
 20
7.6926668509
 30
0.0
 10
14.8668512526
 20
7.6528327107
 30
0.0
 10
14.8705971294
 20
7.6119283549
 30
0.0
 10
14.8738559401
 20
7.5700212328
 30
0.0
 10
14.8766222562
 20
7.5271804439
 30
0.0
 10
14.8788914553
 20
7.483476609
 30
0.0
 10
14.880659719
 20
7.438981969
 30
0.0
 10
14.8819241719
 20
7.3937694983
 30
0.0
 10
14.8826825842
 20
7.3479143703
 30
0.0
 10
14.8828491254
 20
7.3171374224
 30
0.0
 10
14.8828491254
 20
7.3016556468
 30
0.0
  0
ENDSEC
  0
SECTION
  2
OBJECTS
  0
DICTIONARY
  5
C
100
AcDbDictionary
280
0
281
1
  3
ACAD_GROUP
350
D
  3
ACAD_MLINESTYLE
350
17
  3
ACAD_LAYOUT
350
1A
  3
ACAD_PLOTSETTINGS
350
19
  3
ACAD_PLOTSTYLENAME
350
E
  3
ACAD_IMAGE_DICT
350
       441
  3
ACAD_IMAGE_VARS
350
       442
  3
ACAD_TABLESTYLE
350
       443
  0
IMAGEDEF_REACTOR
  5
440
100
AcDbRasterImageDefReactor
 90
2
330
292
  0
DICTIONARY
  5
D
102
{ACAD_REACTORS
330
C
102
}
100
AcDbDictionary
280
0
281
1
  0
ACDBDICTIONARYWDFLT
  5
E
102
{ACAD_REACTORS
330
C
102
}
100
AcDbDictionary
281
1
  3
Normal
350
F
100
AcDbDictionaryWithDefault
340
F
  0
DICTIONARY
  5
441
330
C
100
AcDbDictionary
281
1
  3
EQV_assy_2_img_1
350
       446
  0
RASTERVARIABLES
  5
442
330
C
100
AcDbRasterVariables
 90
0
 70
0
 71
1
 72
5
  0
DICTIONARY
  5
17
102
{ACAD_REACTORS
330
C
102
}
100
AcDbDictionary
280
0
281
1
  3
Standard
350
18
  0
DICTIONARY
  5
443
330
C
100
AcDbDictionary
281
1
  3
Standard
350
       447
  3
Standard1
350
       448
  0
DICTIONARY
  5
19
102
{ACAD_REACTORS
330
C
102
}
100
AcDbDictionary
281
1
  0
DICTIONARY
  5
1A
102
{ACAD_REACTORS
330
C
102
}
100
AcDbDictionary
281
1
  3
Model
350
444
  3
Layout1
350
445
  0
ACDBPLACEHOLDER
  5
F
102
{ACAD_REACTORS
330
E
102
}
  0
MLINESTYLE
  5
18
102
{ACAD_REACTORS
330
17
102
}
100
AcDbMlineStyle
  2
STANDARD
 70
0
  3

 62
256
 51
90.0
 52
90.0
 71
2
 49
0.5
 62
256
  6
BYLAYER
 49
-0.5
 62
256
  6
BYLAYER
  0
LAYOUT
  5
444
102
{ACAD_REACTORS
330
1A
102
}
100
AcDbPlotSettings
  1

  2
none_device
  4
ANSI_C_(22.00_x_17.00_Inches)
  6

 40
0.0
 41
0.0
 42
0.0
 43
0.0
 44
558.8
 45
431.8
 46
0.0
 47
0.0
 48
0.0
 49
0.0
140
0.0
141
0.0
142
1.0
143
1.0
 70
1024
 72
0
 73
0
 74
0
  7

 75
0
147
1.0
148
0.0
149
0.0
100
AcDbLayout
  1
Model
 70
0
 71
0
 10
0.0
 20
0.0
 11
22.0
 21
17.0
 12
0.0
 22
0.0
 32
0.0
 14
0.0
 24
0.0
 34
0.0
 15
0.0
 25
0.0
 35
0.0
146
0.0
 13
0.0
 23
0.0
 33
0.0
 16
1.0
 26
0.0
 36
0.0
 17
0.0
 27
1.0
 37
0.0
 76
0
330
20F
345
0
346
0
  0
LAYOUT
  5
445
102
{ACAD_REACTORS
330
1A
102
}
100
AcDbPlotSettings
  1

  2
none_device
  4
ANSI_C_(22.00_x_17.00_Inches)
  6

 40
0.0
 41
0.0
 42
0.0
 43
0.0
 44
558.8
 45
431.8
 46
0.0
 47
0.0
 48
0.0
 49
0.0
140
0.0
141
0.0
142
1.0
143
1.0
 70
0
 72
0
 73
0
 74
0
  7

 75
0
147
1.0
148
0.0
149
0.0
100
AcDbLayout
  1
Layout1
 70
0
 71
1
 10
0.0
 20
0.0
 11
22.0
 21
17.0
 12
0.0
 22
0.0
 32
0.0
 14
0.0
 24
0.0
 34
0.0
 15
0.0
 25
0.0
 35
0.0
146
0.0
 13
0.0
 23
0.0
 33
0.0
 16
1.0
 26
0.0
 36
0.0
 17
0.0
 27
1.0
 37
0.0
 76
0
330
210
345
0
346
0
  0
IMAGEDEF
  5
446
102
{ACAD_REACTORS
330
441
330
440
102
}
100
AcDbRasterImageDef
 90
0
  1
EQV_assy_2_img_1.png
 10
369.0
 20
92.0
 11
0.0066666667
 21
0.0066666667
280
1
281
0
  0
TABLESTYLE
  5
447
102
{ACAD_REACTORS
330
443
330
295
330
296
102
}
330
443
100
AcDbTableStyle
  3
Standard
 70
0
 71
0
 40
0.06
 41
0.06
280
1
281
1
  7
Standard
140
0.18
170
1
 62
0
 63
7
283
0
  7
Standard
140
0.18
170
1
 62
0
 63
7
283
0
  7
Standard
140
0.18
170
1
 62
0
 63
7
283
0
  0
TABLESTYLE
  5
448
102
{ACAD_REACTORS
330
443
330
294
102
}
330
443
100
AcDbTableStyle
  3
Standard1
 70
1
 71
0
 40
0.06
 41
0.06
280
1
281
1
  7
Standard
140
0.18
170
1
 62
0
 63
7
283
0
  7
Standard
140
0.18
170
1
 62
0
 63
7
283
0
  7
Standard
140
0.18
170
1
 62
0
 63
7
283
0
  0
ENDSEC
  0
EOF
