999
DXF file: EQU_assy_2.dxf
999
Pro/ENGINEER 2014200 by Parametric Technology Corporation
  0
SECTION
  2
HEADER
  9
$ACADVER
  1
AC1021
  9
$DWGCODEPAGE
  3
ANSI_1252
  9
$EXTMAX
 10
22.0
 20
17.0
 30
0.0
  9
$EXTMIN
 10
0.0
 20
0.0
 30
0.0
  9
$LIMMIN
 10
0.0
 20
0.0
  9
$LIMMAX
 10
22.0
 20
17.0
  9
$VIEWCTR
 10
11.0
 20
8.5
  9
$VIEWSIZE
 40
17.0
  9
$CLAYER
  8
0
  9
$LTSCALE
 40
1.21
  9
$CELTYPE
  6
BYLAYER
  9
$DIMSCALE
 40
1.0
  9
$DIMASZ
 40
0.1875
  9
$DIMEXO
 40
0.0625
  9
$DIMDLI
 40
0.836
  9
$DIMEXE
 40
0.125
  9
$DIMCEN
 40
0.198
  9
$DIMLFAC
 40
1.0
  9
$DIMBLK
  1
_FILLED
  9
$DIMTXT
 40
0.1
  9
$DIMTOL
 70
0
  9
$DIMLIM
 70
0
  9
$DIMTFAC
 40
1.0
  9
$DIMGAP
 40
0.09
  9
$DIMDSEP
 70
46
  9
$AUNITS
 70
0
  9
$PDMODE
 70
3
  9
$PDSIZE
 40
0.3125
  9
$HANDSEED
  5
44D
  9
$TILEMODE
 70
1
  9
$MEASUREMENT
 70
0
  9
$INSUNITS
 70
1
  0
ENDSEC
  0
SECTION
  2
CLASSES
  0
CLASS
  1
ACDBDICTIONARYWDFLT
  2
AcDbDictionaryWithDefault
  3
AutoCAD 2000
 90
0
 91
1
280
0
281
0
  0
CLASS
  1
ACDBPLACEHOLDER
  2
AcDbPlaceHolder
  3
AutoCAD 2000
 90
0
 91
1
280
0
281
0
  0
CLASS
  1
LAYOUT
  2
AcDbLayout
  3
AutoCAD 2000
 90
0
 91
0
280
0
281
0
  0
CLASS
  1
RASTERVARIABLES
  2
AcDbRasterVariables
  3
ISM
 90
0
 91
1
280
0
281
0
  0
CLASS
  1
IMAGEDEF
  2
AcDbRasterImageDef
  3
ISM
 90
0
 91
1
280
0
281
0
  0
CLASS
  1
IMAGEDEF_REACTOR
  2
AcDbRasterImageDefReactor
  3
ISM
 90
0
 91
1
280
0
281
0
  0
CLASS
  1
IMAGE
  2
AcDbRasterImage
  3
ISM
 90
127
 91
1
280
0
281
1
  0
CLASS
  1
TABLESTYLE
  2
AcDbTableStyle
  3
ObjectDBX Classes
 90
2047
 91
1
280
0
281
0
  0
CLASS
  1
ACAD_TABLE
  2
AcDbTable
  3
ObjectDBX Classes
 90
1025
 91
3
280
0
281
1
  0
ENDSEC
  0
SECTION
  2
TABLES
  0
TABLE
  2
VPORT
  5
8
100
AcDbSymbolTable
 70
2
  0
VPORT
  5
1F4
100
AcDbSymbolTableRecord
100
AcDbViewportTableRecord
  2
*ACTIVE
 70
0
 10
0.0
 20
0.0
 11
1.0
 21
1.0
 12
11.0
 22
8.5
 13
0.0
 23
0.0
 14
1.0
 24
1.0
 15
0.0
 25
0.0
 16
0.0
 26
0.0
 36
1.0
 17
0.0
 27
0.0
 37
0.0
 40
17.0
 41
1.2941176471
 42
50.0
 43
0.0
 44
0.0
 50
0.0
 51
0.0
 71
0
 72
100
 73
1
 74
1
 75
0
 76
0
 77
0
 78
0
  0
ENDTAB
  0
TABLE
  2
LTYPE
  5
5
100
AcDbSymbolTable
 70
6
  0
LTYPE
  5
14
100
AcDbSymbolTableRecord
100
AcDbLinetypeTableRecord
  2
BYBLOCK
 70
0
  3

 72
65
 73
0
 40
0.0
  0
LTYPE
  5
15
100
AcDbSymbolTableRecord
100
AcDbLinetypeTableRecord
  2
BYLAYER
 70
0
  3

 72
65
 73
0
 40
0.0
  0
LTYPE
  5
16
100
AcDbSymbolTableRecord
100
AcDbLinetypeTableRecord
  2
CONTINUOUS
 70
64
  3
Solid line
 72
65
 73
0
 40
0.0
  0
LTYPE
  5
1F5
100
AcDbSymbolTableRecord
100
AcDbLinetypeTableRecord
  2
CENTER
 70
64
  3
____ _ ____ _ ____ _ ____ _ ____ _ ____ _ ____
 72
65
 73
4
 40
0.6
 49
0.375
 74
0
 49
-0.075
 74
0
 49
0.075
 74
0
 49
-0.075
 74
0
  0
LTYPE
  5
1F6
100
AcDbSymbolTableRecord
100
AcDbLinetypeTableRecord
  2
HIDDEN
 70
64
  3
- - - - - - - - - - - - - - - - - - - -
 72
65
 73
2
 40
0.2
 49
0.1
 74
0
 49
-0.1
 74
0
  0
LTYPE
  5
1F7
100
AcDbSymbolTableRecord
100
AcDbLinetypeTableRecord
  2
PHANTOM
 70
64
  3
_____ _ _ _____ _ _ _____ _ _ _____
 72
65
 73
6
 40
0.8
 49
0.45
 74
0
 49
-0.05
 74
0
 49
0.1
 74
0
 49
-0.05
 74
0
 49
0.1
 74
0
 49
-0.05
 74
0
  0
LTYPE
  5
1F8
100
AcDbSymbolTableRecord
100
AcDbLinetypeTableRecord
  2
DOT
 70
64
  3
. . . . . . . . . . . . . . . . . . . .
 72
65
 73
2
 40
0.2
 49
0.1
 74
0
 49
-0.1
 74
0
  0
LTYPE
  5
1F9
100
AcDbSymbolTableRecord
100
AcDbLinetypeTableRecord
  2
DASHED
 70
64
  3
- - - - - - - - - - - - - - - - - - - -
 72
65
 73
2
 40
0.2
 49
0.1
 74
0
 49
-0.1
 74
0
  0
ENDTAB
  0
TABLE
  2
LAYER
  5
2
100
AcDbSymbolTable
 70
36
  0
LAYER
  5
10
100
AcDbSymbolTableRecord
100
AcDbLayerTableRecord
  2
0
 70
0
 62
7
  6
CONTINUOUS
370
-3
390
F
  0
LAYER
  5
1FA
100
AcDbSymbolTableRecord
100
AcDbLayerTableRecord
  2
DEFAULT_1
 70
0
 62
7
  6
CENTER
370
-3
390
F
  0
LAYER
  5
1FB
100
AcDbSymbolTableRecord
100
AcDbLayerTableRecord
  2
DEFAULT_2
 70
0
 62
8
  6
HIDDEN
370
-3
390
F
  0
LAYER
  5
1FC
100
AcDbSymbolTableRecord
100
AcDbLayerTableRecord
  2
DEFAULT_3
 70
0
 62
7
  6
PHANTOM
370
-3
390
F
  0
LAYER
  5
1FD
100
AcDbSymbolTableRecord
100
AcDbLayerTableRecord
  2
01___PRT_ALL_DTM_PLN
 70
0
 62
7
  6
CONTINUOUS
370
-3
390
F
  0
LAYER
  5
1FE
100
AcDbSymbolTableRecord
100
AcDbLayerTableRecord
  2
01___PRT_DEF_DTM_PLN
 70
0
 62
7
  6
CONTINUOUS
370
-3
390
F
  0
LAYER
  5
1FF
100
AcDbSymbolTableRecord
100
AcDbLayerTableRecord
  2
02___PRT_ALL_AXES
 70
0
 62
7
  6
CONTINUOUS
370
-3
390
F
  0
LAYER
  5
200
100
AcDbSymbolTableRecord
100
AcDbLayerTableRecord
  2
03___PRT_ALL_CURVES
 70
0
 62
7
  6
CONTINUOUS
370
-3
390
F
  0
LAYER
  5
201
100
AcDbSymbolTableRecord
100
AcDbLayerTableRecord
  2
04___PRT_ALL_DTM_PNT
 70
0
 62
7
  6
CONTINUOUS
370
-3
390
F
  0
LAYER
  5
202
100
AcDbSymbolTableRecord
100
AcDbLayerTableRecord
  2
05___PRT_ALL_DTM_CSYS
 70
0
 62
7
  6
CONTINUOUS
370
-3
390
F
  0
LAYER
  5
203
100
AcDbSymbolTableRecord
100
AcDbLayerTableRecord
  2
05___PRT_DEF_DTM_CSYS
 70
0
 62
7
  6
CONTINUOUS
370
-3
390
F
  0
LAYER
  5
204
100
AcDbSymbolTableRecord
100
AcDbLayerTableRecord
  2
06___PRT_ALL_SURFS
 70
0
 62
7
  6
CONTINUOUS
370
-3
390
F
  0
LAYER
  5
205
100
AcDbSymbolTableRecord
100
AcDbLayerTableRecord
  2
DATUM_PLANES
 70
0
 62
7
  6
CONTINUOUS
370
-3
390
F
  0
LAYER
  5
206
100
AcDbSymbolTableRecord
100
AcDbLayerTableRecord
  2
PORT_AREAS
 70
0
 62
7
  6
CONTINUOUS
370
-3
390
F
  0
LAYER
  5
207
100
AcDbSymbolTableRecord
100
AcDbLayerTableRecord
  2
SUNNBOMCOSMETIC
 70
0
 62
7
  6
CONTINUOUS
370
-3
390
F
  0
LAYER
  5
208
100
AcDbSymbolTableRecord
100
AcDbLayerTableRecord
  2
SUNNBOMSTAMPING
 70
0
 62
7
  6
CONTINUOUS
370
-3
390
F
  0
LAYER
  5
209
100
AcDbSymbolTableRecord
100
AcDbLayerTableRecord
  2
THREADS
 70
0
 62
7
  6
CONTINUOUS
370
-3
390
F
  0
ENDTAB
  0
TABLE
  2
STYLE
  5
3
100
AcDbSymbolTable
 70
1
  0
STYLE
  5
11
100
AcDbSymbolTableRecord
100
AcDbTextStyleTableRecord
  2
STANDARD
 70
0
 40
0.0
 41
0.8
 50
0.0
 71
0
 42
0.2
  3
txt
  4

  0
STYLE
  5
20A
100
AcDbSymbolTableRecord
100
AcDbTextStyleTableRecord
  2
TEXTSTYLE_1
 70
0
 40
0.0
 41
0.8
 50
0.0
 71
0
 42
0.2
  3
gdt
  4

  0
ENDTAB
  0
TABLE
  2
VIEW
  5
6
100
AcDbSymbolTable
 70
0
  0
ENDTAB
  0
TABLE
  2
UCS
  5
7
100
AcDbSymbolTable
 70
0
  0
ENDTAB
  0
TABLE
  2
APPID
  5
9
100
AcDbSymbolTable
 70
1
  0
APPID
  5
20B
100
AcDbSymbolTableRecord
100
AcDbRegAppTableRecord
  2
ACAD
 70
0
  0
ENDTAB
  0
TABLE
  2
BLOCK_RECORD
  5
1
100
AcDbSymbolTable
 70
0
  0
BLOCK_RECORD
  5
20C
100
AcDbSymbolTableRecord
100
AcDbBlockTableRecord
  2
*Model_Space
  0
BLOCK_RECORD
  5
20D
100
AcDbSymbolTableRecord
100
AcDbBlockTableRecord
  2
*Paper_Space
  0
BLOCK_RECORD
  5
20E
100
AcDbSymbolTableRecord
100
AcDbBlockTableRecord
  2
SUN_FIRST_THIRD_ANGLE_BL0
  0
BLOCK_RECORD
  5
20F
100
AcDbSymbolTableRecord
100
AcDbBlockTableRecord
  2
*T1
  0
BLOCK_RECORD
  5
210
100
AcDbSymbolTableRecord
100
AcDbBlockTableRecord
  2
*T2
  0
BLOCK_RECORD
  5
211
100
AcDbSymbolTableRecord
100
AcDbBlockTableRecord
  2
*T3
  0
ENDTAB
  0
TABLE
  2
DIMSTYLE
  5
A
100
AcDbSymbolTable
 70
1
100
AcDbDimStyleTable
 71
0
  0
DIMSTYLE
105
212
100
AcDbSymbolTableRecord
100
AcDbDimStyleTableRecord
  2
STANDARD
 70
0
  3

  4

 40
1.0
 41
0.1875
 42
0.0625
 43
0.38
 44
0.125
 45
0.0
 46
0.0
 47
0.001
 48
0.001
140
0.1
141
0.09
142
0.0
143
25.4
144
1.0
145
0.0
146
1.0
147
0.09
 71
0.0
 72
0.0
 73
1
 74
1
 75
0
 76
0
 77
0
 78
4
170
0
171
2
172
0
173
0
174
0
175
0
176
0
177
0
178
0
270
2
271
3
272
3
273
2
274
2
275
0
280
0
281
0
282
0
283
1
284
4
285
0
286
0
287
3
288
0
340
11
278
46
  0
ENDTAB
  0
ENDSEC
  0
SECTION
  2
BLOCKS
  0
BLOCK
  5
20
100
AcDbEntity
  8
0
100
AcDbBlockBegin
  2
*Model_Space
 70
0
 10
0.0
 20
0.0
 30
0.0
  3
*Model_Space
  1

  0
ENDBLK
  5
21
100
AcDbEntity
  8
0
100
AcDbBlockEnd
  0
BLOCK
  5
1C
100
AcDbEntity
  8
0
100
AcDbBlockBegin
  2
*Paper_Space
 70
0
 10
0.0
 20
0.0
 30
0.0
  3
*Paper_Space
  1

  0
ENDBLK
  5
1D
100
AcDbEntity
  8
0
100
AcDbBlockEnd
  0
BLOCK
  5
213
100
AcDbEntity
  8
0
100
AcDbBlockBegin
 62
2
  6
CONTINUOUS
  2
SUN_FIRST_THIRD_ANGLE_BL0
 70
64
 10
20.4816717061
 20
1.2289683772
  3
SUN_FIRST_THIRD_ANGLE_BL0
  1

  0
TEXT
  5
214
100
AcDbEntity
  8
0
100
AcDbText
 62
2
  6
CONTINUOUS
 10
19.4750896608
 20
1.4136269581
  7
STANDARD
 40
0.08
  1
FIRST ANGLE
 41
0.8
 72
0
100
AcDbText
  0
TEXT
  5
215
100
AcDbEntity
  8
0
100
AcDbText
 62
2
  6
CONTINUOUS
 10
20.7842537513
 20
1.4047600029
  7
STANDARD
 40
0.08
  1
THIRD ANGLE
 41
0.8
 72
0
100
AcDbText
  0
LINE
  5
216
100
AcDbEntity
  8
0
100
AcDbLine
 62
7
  6
CONTINUOUS
 10
19.4767170086
 20
1.1727031207
 11
19.6334271527
 21
1.1717972817
  0
LINE
  5
217
100
AcDbEntity
  8
0
100
AcDbLine
 62
7
  6
CONTINUOUS
 10
19.6596964832
 20
1.1717972817
 11
19.6950230232
 21
1.171593082
  0
LINE
  5
218
100
AcDbEntity
  8
0
100
AcDbLine
 62
7
  6
CONTINUOUS
 10
19.7194818561
 20
1.1708914427
 11
19.8852396156
 21
1.1699333054
  0
LINE
  5
219
100
AcDbEntity
  8
0
100
AcDbLine
 62
7
  6
CONTINUOUS
 10
19.4758111696
 20
1.2723454088
 11
19.88525039
 21
1.3511534004
  0
LINE
  5
21A
100
AcDbEntity
  8
0
100
AcDbLine
 62
7
  6
CONTINUOUS
 10
19.88525039
 20
1.3511534004
 11
19.8831348489
 21
0.9851647912
  0
LINE
  5
21B
100
AcDbEntity
  8
0
100
AcDbLine
 62
7
  6
CONTINUOUS
 10
19.8831348489
 20
0.9851647912
 11
19.4767170086
 21
1.0658141206
  0
LINE
  5
21C
100
AcDbEntity
  8
0
100
AcDbLine
 62
7
  6
CONTINUOUS
 10
19.4767170086
 20
1.0658141206
 11
19.4779056764
 21
1.2714536432
  0
CIRCLE
  5
21D
100
AcDbEntity
  8
0
100
AcDbCircle
 62
7
  6
CONTINUOUS
 10
20.2068232291
 20
1.1717972817
 40
0.175742101
  0
CIRCLE
  5
21E
100
AcDbEntity
  8
0
100
AcDbCircle
 62
7
  6
CONTINUOUS
 10
20.2068232291
 20
1.1717972817
 40
0.1005522074
  0
LINE
  5
21F
100
AcDbEntity
  8
0
100
AcDbLine
 62
7
  6
CONTINUOUS
 10
20.2077290681
 20
1.3756110529
 11
20.2071171714
 21
1.2379342989
  0
LINE
  5
220
100
AcDbEntity
  8
0
100
AcDbLine
 62
7
  6
CONTINUOUS
 10
20.2077290681
 20
1.2016899681
 11
20.2074674401
 21
1.1428236749
  0
LINE
  5
221
100
AcDbEntity
  8
0
100
AcDbLine
 62
7
  6
CONTINUOUS
 10
20.208634907
 20
1.101141841
 11
20.2080230104
 21
0.963465087
  0
LINE
  5
222
100
AcDbEntity
  8
0
100
AcDbLine
 62
7
  6
CONTINUOUS
 10
20.0066328138
 20
1.1745147986
 11
20.1443095678
 21
1.1739029019
  0
LINE
  5
223
100
AcDbEntity
  8
0
100
AcDbLine
 62
7
  6
CONTINUOUS
 10
20.1832714155
 20
1.1727031207
 11
20.238153505
 21
1.172335442
  0
LINE
  5
224
100
AcDbEntity
  8
0
100
AcDbLine
 62
7
  6
CONTINUOUS
 10
20.2756669918
 20
1.1717972817
 11
20.407916871
 21
1.1712095044
  0
CIRCLE
  5
225
100
AcDbEntity
  8
0
100
AcDbCircle
 62
7
  6
CONTINUOUS
 10
20.7509457401
 20
1.1693297793
 40
0.1722024983
  0
CIRCLE
  5
226
100
AcDbEntity
  8
0
100
AcDbCircle
 62
7
  6
CONTINUOUS
 10
20.7509457401
 20
1.1693297793
 40
0.0985164967
  0
LINE
  5
227
100
AcDbEntity
  8
0
100
AcDbLine
 62
7
  6
CONTINUOUS
 10
20.7169767782
 20
1.170462078
 11
20.7825395137
 21
1.1682766535
  0
LINE
  5
228
100
AcDbEntity
  8
0
100
AcDbLine
 62
7
  6
CONTINUOUS
 10
20.8177513651
 20
1.1693297793
 11
20.947965719
 21
1.1693297793
  0
LINE
  5
229
100
AcDbEntity
  8
0
100
AcDbLine
 62
7
  6
CONTINUOUS
 10
20.6875370113
 20
1.170462078
 11
20.5573226574
 21
1.170462078
  0
LINE
  5
22A
100
AcDbEntity
  8
0
100
AcDbLine
 62
7
  6
CONTINUOUS
 10
20.7486811426
 20
1.1987695462
 11
20.7486811426
 21
1.1432869085
  0
LINE
  5
22B
100
AcDbEntity
  8
0
100
AcDbLine
 62
7
  6
CONTINUOUS
 10
20.7498134414
 20
1.1059210505
 11
20.7498134414
 21
0.9757066966
  0
LINE
  5
22C
100
AcDbEntity
  8
0
100
AcDbLine
 62
7
  6
CONTINUOUS
 10
20.7486811426
 20
1.2338708068
 11
20.7486811426
 21
1.3640851607
  0
LINE
  5
22D
100
AcDbEntity
  8
0
100
AcDbLine
 62
7
  6
CONTINUOUS
 10
21.0702539817
 20
1.2701043662
 11
21.4790138229
 21
1.3448360823
  0
LINE
  5
22E
100
AcDbEntity
  8
0
100
AcDbLine
 62
7
  6
CONTINUOUS
 10
21.4790138229
 20
1.3448360823
 11
21.4790138229
 21
0.9779712941
  0
LINE
  5
22F
100
AcDbEntity
  8
0
100
AcDbLine
 62
7
  6
CONTINUOUS
 10
21.4790138229
 20
0.9779712941
 11
21.069121683
 21
1.0617614
  0
LINE
  5
230
100
AcDbEntity
  8
0
100
AcDbLine
 62
7
  6
CONTINUOUS
 10
21.0702539817
 20
1.2701043662
 11
21.069121683
 21
1.0617614
  0
LINE
  5
231
100
AcDbEntity
  8
0
100
AcDbLine
 62
7
  6
CONTINUOUS
 10
21.4790138229
 20
1.1693297793
 11
21.3159628059
 21
1.1693297793
  0
LINE
  5
232
100
AcDbEntity
  8
0
100
AcDbLine
 62
7
  6
CONTINUOUS
 10
21.2876553377
 20
1.1693297793
 11
21.2502894796
 21
1.1693297793
  0
LINE
  5
233
100
AcDbEntity
  8
0
100
AcDbLine
 62
7
  6
CONTINUOUS
 10
21.2208497126
 20
1.1659328831
 11
21.0713862804
 21
1.1659328831
  0
LINE
  5
234
100
AcDbEntity
  8
0
100
AcDbLine
 62
7
  6
CONTINUOUS
 10
20.4796138713
 20
1.5284908897
 11
20.4766766948
 21
0.9294458646
  0
ENDBLK
  5
235
100
AcDbEntity
  8
0
  6
BYBLOCK
 62
0
100
AcDbBlockEnd
  0
BLOCK
  5
236
100
AcDbEntity
  8
0
100
AcDbBlockBegin
  2
*T1
 70
1
 10
0.0
 20
0.0
  3
*T1
  1

  0
LINE
  5
237
100
AcDbEntity
  8
0
100
AcDbLine
 62
2
  6
CONTINUOUS
 10
9.275
 20
0.0
 11
-0.0
 21
0.0
  0
LINE
  5
238
100
AcDbEntity
  8
0
100
AcDbLine
 62
2
  6
CONTINUOUS
 10
9.275
 20
0.0
 11
9.275
 21
1.25
  0
LINE
  5
239
100
AcDbEntity
  8
0
100
AcDbLine
 62
2
  6
CONTINUOUS
 10
9.275
 20
0.625
 11
-0.0
 21
0.625
  0
LINE
  5
23A
100
AcDbEntity
  8
0
100
AcDbLine
 62
2
  6
CONTINUOUS
 10
9.275
 20
1.25
 11
-0.0
 21
1.25
  0
LINE
  5
23B
100
AcDbEntity
  8
0
100
AcDbLine
 62
2
  6
CONTINUOUS
 10
6.8
 20
0.0
 11
6.8
 21
1.25
  0
LINE
  5
23C
100
AcDbEntity
  8
0
100
AcDbLine
 62
2
  6
CONTINUOUS
 10
6.4
 20
0.0
 11
6.4
 21
0.625
  0
LINE
  5
23D
100
AcDbEntity
  8
0
100
AcDbLine
 62
2
  6
CONTINUOUS
 10
5.9
 20
0.0
 11
5.9
 21
0.625
  0
LINE
  5
23E
100
AcDbEntity
  8
0
100
AcDbLine
 62
2
  6
CONTINUOUS
 10
5.2
 20
0.0
 11
5.2
 21
0.625
  0
LINE
  5
23F
100
AcDbEntity
  8
0
100
AcDbLine
 62
2
  6
CONTINUOUS
 10
4.1
 20
0.0
 11
4.1
 21
1.25
  0
LINE
  5
240
100
AcDbEntity
  8
0
100
AcDbLine
 62
2
  6
CONTINUOUS
 10
-0.0
 20
0.0
 11
-0.0
 21
1.25
  0
MTEXT
  5
241
100
AcDbEntity
  8
0
100
AcDbMText
 62
2
  6
CONTINUOUS
  7
STANDARD
 71
2
 72
1
 10
6.6
 20
0.325
 30
0.0
 11
1.0
 21
0.0
 31
0.0
 44
0.9
  1
2
 40
0.125
 41
0.2
  0
MTEXT
  5
242
100
AcDbEntity
  8
0
100
AcDbMText
 62
2
  6
CONTINUOUS
  7
STANDARD
 71
2
 72
1
 10
6.15
 20
0.325
 30
0.0
 11
1.0
 21
0.0
 31
0.0
 44
0.9
  1
C
 40
0.125
 41
0.2
  0
MTEXT
  5
243
100
AcDbEntity
  8
0
100
AcDbMText
 62
2
  6
CONTINUOUS
  7
STANDARD
 71
2
 72
1
 10
5.55
 20
0.325
 30
0.0
 11
1.0
 21
0.0
 31
0.0
 44
0.9
  1
2.000
 40
0.125
 41
1.0
  0
MTEXT
  5
244
100
AcDbEntity
  8
0
100
AcDbMText
 62
2
  6
CONTINUOUS
  7
STANDARD
 71
2
 72
1
 10
4.65
 20
0.325
 30
0.0
 11
1.0
 21
0.0
 31
0.0
 44
0.9
  1
Aug-18-23
 40
0.125
 41
1.8
  0
MTEXT
  5
245
100
AcDbEntity
  8
0
100
AcDbMText
 62
2
  6
CONTINUOUS
  7
STANDARD
 71
2
 72
1
 10
2.05
 20
0.4625
 30
0.0
 11
1.0
 21
0.0
 31
0.0
 44
0.9
  1
T-11A Line mount\P(See Technical Data for Body Features)
 40
0.125
 41
7.6
  0
MTEXT
  5
246
100
AcDbEntity
  8
0
100
AcDbMText
 62
2
  6
CONTINUOUS
  7
STANDARD
 71
1
 72
1
 10
6.45
 20
0.5625
 30
0.0
 11
1.0
 21
0.0
 31
0.0
 44
0.9
  1
SHEET
 40
0.06
 41
0.48
  0
MTEXT
  5
247
100
AcDbEntity
  8
0
100
AcDbMText
 62
2
  6
CONTINUOUS
  7
STANDARD
 71
1
 72
1
 10
5.95
 20
0.5625
 30
0.0
 11
1.0
 21
0.0
 31
0.0
 44
0.9
  1
DWG SIZE
 40
0.06
 41
0.768
  0
MTEXT
  5
248
100
AcDbEntity
  8
0
100
AcDbMText
 62
2
  6
CONTINUOUS
  7
STANDARD
 71
1
 72
1
 10
5.25
 20
0.5625
 30
0.0
 11
1.0
 21
0.0
 31
0.0
 44
0.9
  1
SCALE
 40
0.06
 41
0.48
  0
MTEXT
  5
249
100
AcDbEntity
  8
0
100
AcDbMText
 62
2
  6
CONTINUOUS
  7
STANDARD
 71
1
 72
1
 10
4.15
 20
0.5625
 30
0.0
 11
1.0
 21
0.0
 31
0.0
 44
0.9
  1
DATE
 40
0.06
 41
0.384
  0
MTEXT
  5
24A
100
AcDbEntity
  8
0
100
AcDbMText
 62
2
  6
CONTINUOUS
  7
STANDARD
 71
1
 72
1
 10
0.05
 20
0.5625
 30
0.0
 11
1.0
 21
0.0
 31
0.0
 44
0.9
  1
DESCRIPTION
 40
0.06
 41
1.056
  0
MTEXT
  5
24B
100
AcDbEntity
  8
0
100
AcDbMText
 62
2
  6
CONTINUOUS
  7
STANDARD
 71
2
 72
1
 10
5.45
 20
1.0375
 30
0.0
 11
1.0
 21
0.0
 31
0.0
 44
0.9
  1
ALL DIMENSIONS IN INCH\PVIEWS ARE THIRD ANGLE
 40
0.12
 41
4.224
  0
MTEXT
  5
24C
100
AcDbEntity
  8
0
100
AcDbMText
 62
2
  6
CONTINUOUS
  7
STANDARD
 71
2
 72
1
 10
2.05
 20
0.95
 30
0.0
 11
1.0
 21
0.0
 31
0.0
 44
0.9
  1
EQU
 40
0.125
 41
0.6
  0
MTEXT
  5
24D
100
AcDbEntity
  8
0
100
AcDbMText
 62
2
  6
CONTINUOUS
  7
STANDARD
 71
1
 72
1
 10
0.05
 20
1.1875
 30
0.0
 11
1.0
 21
0.0
 31
0.0
 44
0.9
  1
MODEL
 40
0.06
 41
0.48
  0
ENDBLK
  5
24E
100
AcDbEntity
  8
0
  6
BYBLOCK
 62
0
100
AcDbBlockEnd
  0
BLOCK
  5
24F
100
AcDbEntity
  8
0
100
AcDbBlockBegin
  2
*T2
 70
1
 10
0.0
 20
0.0
  3
*T2
  1

  0
LINE
  5
250
100
AcDbEntity
  8
0
100
AcDbLine
 62
2
  6
CONTINUOUS
 10
0.0
 20
0.0
 11
9.055
 21
0.0
  0
LINE
  5
251
100
AcDbEntity
  8
0
100
AcDbLine
 62
2
  6
CONTINUOUS
 10
0.0
 20
0.0
 11
0.0
 21
-2.844
  0
LINE
  5
252
100
AcDbEntity
  8
0
100
AcDbLine
 62
2
  6
CONTINUOUS
 10
0.0
 20
-0.344
 11
9.055
 21
-0.344
  0
LINE
  5
253
100
AcDbEntity
  8
0
100
AcDbLine
 62
2
  6
CONTINUOUS
 10
0.0
 20
-0.594
 11
9.055
 21
-0.594
  0
LINE
  5
254
100
AcDbEntity
  8
0
100
AcDbLine
 62
2
  6
CONTINUOUS
 10
0.0
 20
-0.844
 11
9.055
 21
-0.844
  0
LINE
  5
255
100
AcDbEntity
  8
0
100
AcDbLine
 62
2
  6
CONTINUOUS
 10
0.0
 20
-1.094
 11
9.055
 21
-1.094
  0
LINE
  5
256
100
AcDbEntity
  8
0
100
AcDbLine
 62
2
  6
CONTINUOUS
 10
0.0
 20
-1.344
 11
9.055
 21
-1.344
  0
LINE
  5
257
100
AcDbEntity
  8
0
100
AcDbLine
 62
2
  6
CONTINUOUS
 10
0.0
 20
-1.594
 11
9.055
 21
-1.594
  0
LINE
  5
258
100
AcDbEntity
  8
0
100
AcDbLine
 62
2
  6
CONTINUOUS
 10
0.0
 20
-1.844
 11
9.055
 21
-1.844
  0
LINE
  5
259
100
AcDbEntity
  8
0
100
AcDbLine
 62
2
  6
CONTINUOUS
 10
0.0
 20
-2.094
 11
9.055
 21
-2.094
  0
LINE
  5
25A
100
AcDbEntity
  8
0
100
AcDbLine
 62
2
  6
CONTINUOUS
 10
0.0
 20
-2.344
 11
9.055
 21
-2.344
  0
LINE
  5
25B
100
AcDbEntity
  8
0
100
AcDbLine
 62
2
  6
CONTINUOUS
 10
0.0
 20
-2.594
 11
9.055
 21
-2.594
  0
LINE
  5
25C
100
AcDbEntity
  8
0
100
AcDbLine
 62
2
  6
CONTINUOUS
 10
0.0
 20
-2.844
 11
9.055
 21
-2.844
  0
LINE
  5
25D
100
AcDbEntity
  8
0
100
AcDbLine
 62
2
  6
CONTINUOUS
 10
3.055
 20
0.0
 11
3.055
 21
-2.844
  0
LINE
  5
25E
100
AcDbEntity
  8
0
100
AcDbLine
 62
2
  6
CONTINUOUS
 10
9.055
 20
0.0
 11
9.055
 21
-2.844
  0
MTEXT
  5
25F
100
AcDbEntity
  8
0
100
AcDbMText
 62
2
  6
CONTINUOUS
  7
STANDARD
 71
2
 72
1
 10
1.5275
 20
-0.0995
 30
0.0
 11
1.0
 21
0.0
 31
0.0
 44
0.9
  1
Technical Data
 40
0.145
 41
3.248
  0
MTEXT
  5
260
100
AcDbEntity
  8
0
100
AcDbMText
 62
2
  6
CONTINUOUS
  7
STANDARD
 71
2
 72
1
 10
4.555
 20
-0.0995
 30
0.0
 11
1.0
 21
0.0
 31
0.0
 44
0.9
  1
U.S. Units
 40
0.145
 41
2.32
  0
MTEXT
  5
261
100
AcDbEntity
  8
0
100
AcDbMText
 62
2
  6
CONTINUOUS
  7
STANDARD
 71
2
 72
1
 10
7.555
 20
-0.0995
 30
0.0
 11
1.0
 21
0.0
 31
0.0
 44
0.9
  1
Metric Units
 40
0.145
 41
2.784
  0
MTEXT
  5
262
100
AcDbEntity
  8
0
100
AcDbMText
 62
2
  6
CONTINUOUS
  7
STANDARD
 71
2
 72
1
 10
1.5275
 20
-0.4065
 30
0.0
 11
1.0
 21
0.0
 31
0.0
 44
0.9
  1
Cavity
 40
0.125
 41
1.2
  0
MTEXT
  5
263
100
AcDbEntity
  8
0
100
AcDbMText
 62
2
  6
CONTINUOUS
  7
STANDARD
 71
2
 72
1
 10
6.055
 20
-0.4065
 30
0.0
 11
1.0
 21
0.0
 31
0.0
 44
0.9
  1
T-11A
 40
0.125
 41
1.0
  0
MTEXT
  5
264
100
AcDbEntity
  8
0
100
AcDbMText
 62
2
  6
CONTINUOUS
  7
STANDARD
 71
2
 72
1
 10
1.5275
 20
-0.6565
 30
0.0
 11
1.0
 21
0.0
 31
0.0
 44
0.9
  1
Body Features
 40
0.125
 41
2.6
  0
MTEXT
  5
265
100
AcDbEntity
  8
0
100
AcDbMText
 62
2
  6
CONTINUOUS
  7
STANDARD
 71
2
 72
1
 10
6.055
 20
-0.6565
 30
0.0
 11
1.0
 21
0.0
 31
0.0
 44
0.9
  1
Cushion lock with make up checks and shuttle
 40
0.125
 41
8.8
  0
MTEXT
  5
266
100
AcDbEntity
  8
0
100
AcDbMText
 62
2
  6
CONTINUOUS
  7
STANDARD
 71
2
 72
1
 10
1.5275
 20
-0.9065
 30
0.0
 11
1.0
 21
0.0
 31
0.0
 44
0.9
  1
Body Type
 40
0.125
 41
1.8
  0
MTEXT
  5
267
100
AcDbEntity
  8
0
100
AcDbMText
 62
2
  6
CONTINUOUS
  7
STANDARD
 71
2
 72
1
 10
6.055
 20
-0.9065
 30
0.0
 11
1.0
 21
0.0
 31
0.0
 44
0.9
  1
Line mount
 40
0.125
 41
2.0
  0
MTEXT
  5
268
100
AcDbEntity
  8
0
100
AcDbMText
 62
2
  6
CONTINUOUS
  7
STANDARD
 71
2
 72
1
 10
1.5275
 20
-1.1565
 30
0.0
 11
1.0
 21
0.0
 31
0.0
 44
0.9
  1
Interface
 40
0.125
 41
1.8
  0
MTEXT
  5
269
100
AcDbEntity
  8
0
100
AcDbMText
 62
2
  6
CONTINUOUS
  7
STANDARD
 71
2
 72
1
 10
6.055
 20
-1.1565
 30
0.0
 11
1.0
 21
0.0
 31
0.0
 44
0.9
  1
None
 40
0.125
 41
0.8
  0
MTEXT
  5
26A
100
AcDbEntity
  8
0
100
AcDbMText
 62
2
  6
CONTINUOUS
  7
STANDARD
 71
2
 72
1
 10
1.5275
 20
-1.4065
 30
0.0
 11
1.0
 21
0.0
 31
0.0
 44
0.9
  1
Open Cavity Quantity
 40
0.125
 41
4.0
  0
MTEXT
  5
26B
100
AcDbEntity
  8
0
100
AcDbMText
 62
2
  6
CONTINUOUS
  7
STANDARD
 71
2
 72
1
 10
6.055
 20
-1.4065
 30
0.0
 11
1.0
 21
0.0
 31
0.0
 44
0.9
  1
2
 40
0.125
 41
0.2
  0
MTEXT
  5
26C
100
AcDbEntity
  8
0
100
AcDbMText
 62
2
  6
CONTINUOUS
  7
STANDARD
 71
2
 72
1
 10
1.5275
 20
-1.6565
 30
0.0
 11
1.0
 21
0.0
 31
0.0
 44
0.9
  1
Weight
 40
0.125
 41
1.2
  0
MTEXT
  5
26D
100
AcDbEntity
  8
0
100
AcDbMText
 62
2
  6
CONTINUOUS
  7
STANDARD
 71
2
 72
1
 10
4.555
 20
-1.6565
 30
0.0
 11
1.0
 21
0.0
 31
0.0
 44
0.9
  1
3.256 lb.
 40
0.125
 41
1.8
  0
MTEXT
  5
26E
100
AcDbEntity
  8
0
100
AcDbMText
 62
2
  6
CONTINUOUS
  7
STANDARD
 71
2
 72
1
 10
7.555
 20
-1.6565
 30
0.0
 11
1.0
 21
0.0
 31
0.0
 44
0.9
  1
1,477 kg.
 40
0.125
 41
1.8
  0
MTEXT
  5
26F
100
AcDbEntity
  8
0
100
AcDbMText
 62
2
  6
CONTINUOUS
  7
STANDARD
 71
2
 72
1
 10
1.5275
 20
-1.9065
 30
0.0
 11
1.0
 21
0.0
 31
0.0
 44
0.9
  1
Mounting Hole Diameter
 40
0.125
 41
4.4
  0
MTEXT
  5
270
100
AcDbEntity
  8
0
100
AcDbMText
 62
2
  6
CONTINUOUS
  7
STANDARD
 71
2
 72
1
 10
4.555
 20
-1.9065
 30
0.0
 11
1.0
 21
0.0
 31
0.0
 44
0.9
  1
.34 in.
 40
0.125
 41
1.4
  0
MTEXT
  5
271
100
AcDbEntity
  8
0
100
AcDbMText
 62
2
  6
CONTINUOUS
  7
STANDARD
 71
2
 72
1
 10
7.555
 20
-1.9065
 30
0.0
 11
1.0
 21
0.0
 31
0.0
 44
0.9
  1
8.6 mm
 40
0.125
 41
1.2
  0
MTEXT
  5
272
100
AcDbEntity
  8
0
100
AcDbMText
 62
2
  6
CONTINUOUS
  7
STANDARD
 71
2
 72
1
 10
1.5275
 20
-2.1565
 30
0.0
 11
1.0
 21
0.0
 31
0.0
 44
0.9
  1
Mounting Hole Depth
 40
0.125
 41
3.8
  0
MTEXT
  5
273
100
AcDbEntity
  8
0
100
AcDbMText
 62
2
  6
CONTINUOUS
  7
STANDARD
 71
2
 72
1
 10
6.055
 20
-2.1565
 30
0.0
 11
1.0
 21
0.0
 31
0.0
 44
0.9
  1
Through
 40
0.125
 41
1.4
  0
MTEXT
  5
274
100
AcDbEntity
  8
0
100
AcDbMText
 62
2
  6
CONTINUOUS
  7
STANDARD
 71
2
 72
1
 10
1.5275
 20
-2.4065
 30
0.0
 11
1.0
 21
0.0
 31
0.0
 44
0.9
  1
Mounting Hole Quantity
 40
0.125
 41
4.4
  0
MTEXT
  5
275
100
AcDbEntity
  8
0
100
AcDbMText
 62
2
  6
CONTINUOUS
  7
STANDARD
 71
2
 72
1
 10
6.055
 20
-2.4065
 30
0.0
 11
1.0
 21
0.0
 31
0.0
 44
0.9
  1
2
 40
0.125
 41
0.2
  0
MTEXT
  5
276
100
AcDbEntity
  8
0
100
AcDbMText
 62
2
  6
CONTINUOUS
  7
STANDARD
 71
2
 72
1
 10
1.5275
 20
-2.6565
 30
0.0
 11
1.0
 21
0.0
 31
0.0
 44
0.9
  1
Includes integral cartridge(s)
 40
0.125
 41
6.0
  0
MTEXT
  5
277
100
AcDbEntity
  8
0
100
AcDbMText
 62
2
  6
CONTINUOUS
  7
STANDARD
 71
2
 72
1
 10
6.055
 20
-2.6565
 30
0.0
 11
1.0
 21
0.0
 31
0.0
 44
0.9
  1
Yes (see Included Components)
 40
0.125
 41
5.8
  0
ENDBLK
  5
278
100
AcDbEntity
  8
0
  6
BYBLOCK
 62
0
100
AcDbBlockEnd
  0
BLOCK
  5
279
100
AcDbEntity
  8
0
100
AcDbBlockBegin
  2
*T3
 70
1
 10
0.0
 20
0.0
  3
*T3
  1

  0
LINE
  5
27A
100
AcDbEntity
  8
0
100
AcDbLine
 62
2
  6
CONTINUOUS
 10
0.0
 20
0.0
 11
4.6
 21
0.0
  0
LINE
  5
27B
100
AcDbEntity
  8
0
100
AcDbLine
 62
2
  6
CONTINUOUS
 10
0.0
 20
0.0
 11
0.0
 21
-1.43775
  0
LINE
  5
27C
100
AcDbEntity
  8
0
100
AcDbLine
 62
2
  6
CONTINUOUS
 10
0.0
 20
-0.34375
 11
4.6
 21
-0.34375
  0
LINE
  5
27D
100
AcDbEntity
  8
0
100
AcDbLine
 62
2
  6
CONTINUOUS
 10
0.0
 20
-0.68775
 11
4.6
 21
-0.68775
  0
LINE
  5
27E
100
AcDbEntity
  8
0
100
AcDbLine
 62
2
  6
CONTINUOUS
 10
0.0
 20
-0.93775
 11
4.6
 21
-0.93775
  0
LINE
  5
27F
100
AcDbEntity
  8
0
100
AcDbLine
 62
2
  6
CONTINUOUS
 10
0.0
 20
-1.18775
 11
4.6
 21
-1.18775
  0
LINE
  5
280
100
AcDbEntity
  8
0
100
AcDbLine
 62
2
  6
CONTINUOUS
 10
0.0
 20
-1.43775
 11
4.6
 21
-1.43775
  0
LINE
  5
281
100
AcDbEntity
  8
0
100
AcDbLine
 62
2
  6
CONTINUOUS
 10
1.3
 20
-0.34375
 11
1.3
 21
-1.43775
  0
LINE
  5
282
100
AcDbEntity
  8
0
100
AcDbLine
 62
2
  6
CONTINUOUS
 10
3.3
 20
-0.34375
 11
3.3
 21
-1.43775
  0
LINE
  5
283
100
AcDbEntity
  8
0
100
AcDbLine
 62
2
  6
CONTINUOUS
 10
4.6
 20
0.0
 11
4.6
 21
-1.43775
  0
MTEXT
  5
284
100
AcDbEntity
  8
0
100
AcDbMText
 62
2
  6
CONTINUOUS
  7
STANDARD
 71
2
 72
1
 10
2.3
 20
-0.099375
 30
0.0
 11
1.0
 21
0.0
 31
0.0
 44
0.9
  1
Port Headings
 40
0.145
 41
3.016
  0
MTEXT
  5
285
100
AcDbEntity
  8
0
100
AcDbMText
 62
2
  6
CONTINUOUS
  7
STANDARD
 71
2
 72
1
 10
0.65
 20
-0.44325
 30
0.0
 11
1.0
 21
0.0
 31
0.0
 44
0.9
  1
Product
 40
0.145
 41
1.624
  0
MTEXT
  5
286
100
AcDbEntity
  8
0
100
AcDbMText
 62
2
  6
CONTINUOUS
  7
STANDARD
 71
2
 72
1
 10
2.3
 20
-0.44325
 30
0.0
 11
1.0
 21
0.0
 31
0.0
 44
0.9
  1
Port
 40
0.145
 41
0.928
  0
MTEXT
  5
287
100
AcDbEntity
  8
0
100
AcDbMText
 62
2
  6
CONTINUOUS
  7
STANDARD
 71
2
 72
1
 10
3.95
 20
-0.44325
 30
0.0
 11
1.0
 21
0.0
 31
0.0
 44
0.9
  1
Size
 40
0.145
 41
0.928
  0
MTEXT
  5
288
100
AcDbEntity
  8
0
100
AcDbMText
 62
2
  6
CONTINUOUS
  7
STANDARD
 71
2
 72
1
 10
0.65
 20
-0.75025
 30
0.0
 11
1.0
 21
0.0
 31
0.0
 44
0.9
  1
EQU
 40
0.125
 41
0.6
  0
MTEXT
  5
289
100
AcDbEntity
  8
0
100
AcDbMText
 62
2
  6
CONTINUOUS
  7
STANDARD
 71
2
 72
1
 10
2.3
 20
-0.75025
 30
0.0
 11
1.0
 21
0.0
 31
0.0
 44
0.9
  1
Ports C1, C2, V1, V2
 40
0.125
 41
4.0
  0
MTEXT
  5
28A
100
AcDbEntity
  8
0
100
AcDbMText
 62
2
  6
CONTINUOUS
  7
STANDARD
 71
2
 72
1
 10
3.95
 20
-0.75025
 30
0.0
 11
1.0
 21
0.0
 31
0.0
 44
0.9
  1
3/8" BSPP
 40
0.125
 41
1.8
  0
MTEXT
  5
28B
100
AcDbEntity
  8
0
100
AcDbMText
 62
2
  6
CONTINUOUS
  7
STANDARD
 71
2
 72
1
 10
0.65
 20
-1.00025
 30
0.0
 11
1.0
 21
0.0
 31
0.0
 44
0.9
  1
EQU
 40
0.125
 41
0.6
  0
MTEXT
  5
28C
100
AcDbEntity
  8
0
100
AcDbMText
 62
2
  6
CONTINUOUS
  7
STANDARD
 71
2
 72
1
 10
2.3
 20
-1.00025
 30
0.0
 11
1.0
 21
0.0
 31
0.0
 44
0.9
  1
Port T
 40
0.125
 41
1.2
  0
MTEXT
  5
28D
100
AcDbEntity
  8
0
100
AcDbMText
 62
2
  6
CONTINUOUS
  7
STANDARD
 71
2
 72
1
 10
3.95
 20
-1.00025
 30
0.0
 11
1.0
 21
0.0
 31
0.0
 44
0.9
  1
1/2" BSPP
 40
0.125
 41
1.8
  0
MTEXT
  5
28E
100
AcDbEntity
  8
0
100
AcDbMText
 62
2
  6
CONTINUOUS
  7
STANDARD
 71
2
 72
1
 10
0.65
 20
-1.25025
 30
0.0
 11
1.0
 21
0.0
 31
0.0
 44
0.9
  1
EQU
 40
0.125
 41
0.6
  0
MTEXT
  5
28F
100
AcDbEntity
  8
0
100
AcDbMText
 62
2
  6
CONTINUOUS
  7
STANDARD
 71
2
 72
1
 10
2.3
 20
-1.25025
 30
0.0
 11
1.0
 21
0.0
 31
0.0
 44
0.9
  1
Port S
 40
0.125
 41
1.2
  0
MTEXT
  5
290
100
AcDbEntity
  8
0
100
AcDbMText
 62
2
  6
CONTINUOUS
  7
STANDARD
 71
2
 72
1
 10
3.95
 20
-1.25025
 30
0.0
 11
1.0
 21
0.0
 31
0.0
 44
0.9
  1
1/4" BSPP
 40
0.125
 41
1.8
  0
ENDBLK
  5
291
100
AcDbEntity
  8
0
  6
BYBLOCK
 62
0
100
AcDbBlockEnd
  0
ENDSEC
  0
SECTION
  2
ENTITIES
  0
IMAGE
  5
292
100
AcDbEntity
  8
0
100
AcDbRasterImage
 62
7
  6
CONTINUOUS
 10
19.2297077316
 20
0.3094318264
 30
0.0
 11
0.0066666667
 21
0.0
 31
0.0
 12
0.0
 22
0.0066666667
 32
0.0
 13
369.0
 23
92.0
340
       44A
 70
9
280
0
281
50
282
50
283
0
360
       444
 71
1
 91
2
 14
-0.5
 24
-0.5
 14
368.5
 24
91.5
  0
INSERT
  5
293
100
AcDbEntity
  8
0
100
AcDbBlockReference
 62
2
  6
CONTINUOUS
  2
SUN_FIRST_THIRD_ANGLE_BL0
 10
20.4816717061
 20
1.2289683772
  0
ACAD_TABLE
  5
294
100
AcDbEntity
  8
0
 62
2
  6
CONTINUOUS
100
AcDbBlockReference
  2
*T1
 10
12.42375
 20
0.30125
 30
0.0
100
AcDbTable
342
       44C
343
20F
 11
1.0
 21
0.0
 31
0.0
 90
6
 91
4
 92
6
 93
20
 94
0
 95
0
 96
0
 70
1
 41
0.0
141
0.525
141
0.1
141
0.525
141
0.1
142
4.1
142
1.1
142
0.7
142
0.5
142
0.4
142
2.475
171
1
172
0
173
0
174
0
175
1
176
1
 91
33
178
0
145
0.0
301
CELL_VALUE
 90
4
  1
T-11A Line mount\P(See Technical Data for Body Features)
304
ACVALUE_END
170
2
140
0.125
171
1
172
0
173
0
174
0
175
1
176
1
 91
33
178
0
145
0.0
301
CELL_VALUE
 90
4
  1
Aug-18-23
304
ACVALUE_END
170
5
140
0.125
171
1
172
0
173
0
174
0
175
1
176
1
 91
33
178
0
145
0.0
301
CELL_VALUE
 90
4
  1
2.000
304
ACVALUE_END
170
5
140
0.125
171
1
172
0
173
0
174
0
175
1
176
1
 91
33
178
0
145
0.0
301
CELL_VALUE
 90
4
  1
C
304
ACVALUE_END
170
5
140
0.125
171
1
172
0
173
0
174
0
175
1
176
1
 91
33
178
0
145
0.0
301
CELL_VALUE
 90
4
  1
2
304
ACVALUE_END
170
5
140
0.125
171
1
172
0
173
0
174
0
175
1
176
1
 91
33
178
0
145
0.0
301
CELL_VALUE
 90
4
  1
 
304
ACVALUE_END
170
1
140
0.125
171
1
172
0
173
0
174
0
175
1
176
1
 91
33
178
0
145
0.0
301
CELL_VALUE
 90
4
  1
DESCRIPTION
304
ACVALUE_END
170
1
140
0.06
171
1
172
0
173
0
174
0
175
1
176
1
 91
33
178
0
145
0.0
301
CELL_VALUE
 90
4
  1
DATE
304
ACVALUE_END
170
1
140
0.06
171
1
172
0
173
0
174
0
175
1
176
1
 91
33
178
0
145
0.0
301
CELL_VALUE
 90
4
  1
SCALE
304
ACVALUE_END
170
1
140
0.06
171
1
172
0
173
0
174
0
175
1
176
1
 91
33
178
0
145
0.0
301
CELL_VALUE
 90
4
  1
DWG SIZE
304
ACVALUE_END
170
1
140
0.06
171
1
172
0
173
0
174
0
175
1
176
1
 91
33
178
0
145
0.0
301
CELL_VALUE
 90
4
  1
SHEET
304
ACVALUE_END
170
1
140
0.06
171
1
172
0
173
0
174
0
175
1
176
1
 91
33
178
0
145
0.0
301
CELL_VALUE
 90
4
  1
 
304
ACVALUE_END
170
1
140
0.125
171
1
172
0
173
0
174
0
175
1
176
1
 91
33
178
0
145
0.0
301
CELL_VALUE
 90
4
  1
EQU
304
ACVALUE_END
170
5
140
0.125
171
1
172
0
173
0
174
0
175
4
176
1
 91
33
178
0
145
0.0
301
CELL_VALUE
 90
4
  1
ALL DIMENSIONS IN INCH\PVIEWS ARE THIRD ANGLE
304
ACVALUE_END
170
5
140
0.12
171
1
172
0
173
1
174
0
175
1
176
1
 91
1
178
0
145
0.0
170
1
171
1
172
0
173
1
174
0
175
1
176
1
 91
1
178
0
145
0.0
170
1
171
1
172
0
173
1
174
0
175
1
176
1
 91
1
178
0
145
0.0
170
5
171
1
172
0
173
0
174
0
175
1
176
1
 91
33
178
0
145
0.0
301
CELL_VALUE
 90
4
  1
 
304
ACVALUE_END
170
1
140
0.125
171
1
172
0
173
0
174
0
175
1
176
1
 91
33
178
0
145
0.0
301
CELL_VALUE
 90
4
  1
MODEL
304
ACVALUE_END
170
1
140
0.06
171
1
172
0
173
0
174
0
175
1
176
1
 91
33
178
0
145
0.0
301
CELL_VALUE
 90
4
  1
 
304
ACVALUE_END
170
1
140
0.125
171
1
172
0
173
0
174
0
175
1
176
1
 91
33
178
0
145
0.0
301
CELL_VALUE
 90
4
  1
 
304
ACVALUE_END
170
1
140
0.125
171
1
172
0
173
0
174
0
175
1
176
1
 91
33
178
0
145
0.0
301
CELL_VALUE
 90
4
  1
 
304
ACVALUE_END
170
1
140
0.125
171
1
172
0
173
0
174
0
175
1
176
1
 91
33
178
0
145
0.0
301
CELL_VALUE
 90
4
  1
 
304
ACVALUE_END
170
1
140
0.125
171
1
172
0
173
0
174
0
175
1
176
1
 91
33
178
0
145
0.0
301
CELL_VALUE
 90
4
  1
 
304
ACVALUE_END
170
1
140
0.125
  0
ACAD_TABLE
  5
295
100
AcDbEntity
  8
0
 62
2
  6
CONTINUOUS
100
AcDbBlockReference
  2
*T2
 10
12.4237499994
 20
16.47875
 30
0.0
100
AcDbTable
342
       44B
343
210
 11
1.0
 21
0.0
 31
0.0
 90
22
 91
11
 92
3
 93
16
 94
0
 95
0
 96
0
 41
0.028
141
0.344
141
0.25
141
0.25
141
0.25
141
0.25
141
0.25
141
0.25
141
0.25
141
0.25
141
0.25
141
0.25
142
3.055
142
3.0
142
3.0
171
1
172
0
173
0
174
0
175
1
176
1
 91
33
178
0
145
0.0
301
CELL_VALUE
 90
4
  1
Technical Data
304
ACVALUE_END
170
5
140
0.145
171
1
172
0
173
0
174
0
175
1
176
1
 91
33
178
0
145
0.0
301
CELL_VALUE
 90
4
  1
U.S. Units
304
ACVALUE_END
170
5
140
0.145
171
1
172
0
173
0
174
0
175
1
176
1
 91
33
178
0
145
0.0
301
CELL_VALUE
 90
4
  1
Metric Units
304
ACVALUE_END
170
5
140
0.145
171
1
172
0
173
0
174
0
175
1
176
1
 91
33
178
0
145
0.0
301
CELL_VALUE
 90
4
  1
Cavity
304
ACVALUE_END
170
5
140
0.125
171
1
172
0
173
0
174
0
175
2
176
1
 91
33
178
0
145
0.0
301
CELL_VALUE
 90
4
  1
T-11A
304
ACVALUE_END
170
5
140
0.125
171
1
172
0
173
1
174
0
175
1
176
1
 91
1
178
0
145
0.0
170
1
171
1
172
0
173
0
174
0
175
1
176
1
 91
33
178
0
145
0.0
301
CELL_VALUE
 90
4
  1
Body Features
304
ACVALUE_END
170
5
140
0.125
171
1
172
0
173
0
174
0
175
2
176
1
 91
33
178
0
145
0.0
301
CELL_VALUE
 90
4
  1
Cushion lock with make up checks and shuttle
304
ACVALUE_END
170
5
140
0.125
171
1
172
0
173
1
174
0
175
1
176
1
 91
1
178
0
145
0.0
170
1
171
1
172
0
173
0
174
0
175
1
176
1
 91
33
178
0
145
0.0
301
CELL_VALUE
 90
4
  1
Body Type
304
ACVALUE_END
170
5
140
0.125
171
1
172
0
173
0
174
0
175
2
176
1
 91
33
178
0
145
0.0
301
CELL_VALUE
 90
4
  1
Line mount
304
ACVALUE_END
170
5
140
0.125
171
1
172
0
173
1
174
0
175
1
176
1
 91
1
178
0
145
0.0
170
1
171
1
172
0
173
0
174
0
175
1
176
1
 91
33
178
0
145
0.0
301
CELL_VALUE
 90
4
  1
Interface
304
ACVALUE_END
170
5
140
0.125
171
1
172
0
173
0
174
0
175
2
176
1
 91
33
178
0
145
0.0
301
CELL_VALUE
 90
4
  1
None
304
ACVALUE_END
170
5
140
0.125
171
1
172
0
173
1
174
0
175
1
176
1
 91
1
178
0
145
0.0
170
1
171
1
172
0
173
0
174
0
175
1
176
1
 91
33
178
0
145
0.0
301
CELL_VALUE
 90
4
  1
Open Cavity Quantity
304
ACVALUE_END
170
5
140
0.125
171
1
172
0
173
0
174
0
175
2
176
1
 91
33
178
0
145
0.0
301
CELL_VALUE
 90
4
  1
2
304
ACVALUE_END
170
5
140
0.125
171
1
172
0
173
1
174
0
175
1
176
1
 91
1
178
0
145
0.0
170
1
171
1
172
0
173
0
174
0
175
1
176
1
 91
33
178
0
145
0.0
301
CELL_VALUE
 90
4
  1
Weight
304
ACVALUE_END
170
5
140
0.125
171
1
172
0
173
0
174
0
175
1
176
1
 91
33
178
0
145
0.0
301
CELL_VALUE
 90
4
  1
3.256 lb.
304
ACVALUE_END
170
5
140
0.125
171
1
172
0
173
0
174
0
175
1
176
1
 91
33
178
0
145
0.0
301
CELL_VALUE
 90
4
  1
1,477 kg.
304
ACVALUE_END
170
5
140
0.125
171
1
172
0
173
0
174
0
175
1
176
1
 91
33
178
0
145
0.0
301
CELL_VALUE
 90
4
  1
Mounting Hole Diameter
304
ACVALUE_END
170
5
140
0.125
171
1
172
0
173
0
174
0
175
1
176
1
 91
33
178
0
145
0.0
301
CELL_VALUE
 90
4
  1
.34 in.
304
ACVALUE_END
170
5
140
0.125
171
1
172
0
173
0
174
0
175
1
176
1
 91
33
178
0
145
0.0
301
CELL_VALUE
 90
4
  1
8.6 mm
304
ACVALUE_END
170
5
140
0.125
171
1
172
0
173
0
174
0
175
1
176
1
 91
33
178
0
145
0.0
301
CELL_VALUE
 90
4
  1
Mounting Hole Depth
304
ACVALUE_END
170
5
140
0.125
171
1
172
0
173
0
174
0
175
2
176
1
 91
33
178
0
145
0.0
301
CELL_VALUE
 90
4
  1
Through
304
ACVALUE_END
170
5
140
0.125
171
1
172
0
173
1
174
0
175
1
176
1
 91
1
178
0
145
0.0
170
1
171
1
172
0
173
0
174
0
175
1
176
1
 91
33
178
0
145
0.0
301
CELL_VALUE
 90
4
  1
Mounting Hole Quantity
304
ACVALUE_END
170
5
140
0.125
171
1
172
0
173
0
174
0
175
2
176
1
 91
33
178
0
145
0.0
301
CELL_VALUE
 90
4
  1
2
304
ACVALUE_END
170
5
140
0.125
171
1
172
0
173
1
174
0
175
1
176
1
 91
1
178
0
145
0.0
170
1
171
1
172
0
173
0
174
0
175
1
176
1
 91
33
178
0
145
0.0
301
CELL_VALUE
 90
4
  1
Includes integral cartridge(s)
304
ACVALUE_END
170
5
140
0.125
171
1
172
0
173
0
174
0
175
2
176
1
 91
33
178
0
145
0.0
301
CELL_VALUE
 90
4
  1
Yes (see Included Components)
304
ACVALUE_END
170
5
140
0.125
171
1
172
0
173
1
174
0
175
1
176
1
 91
1
178
0
145
0.0
170
1
  0
ACAD_TABLE
  5
296
100
AcDbEntity
  8
0
 62
2
  6
CONTINUOUS
100
AcDbBlockReference
  2
*T3
 10
0.52125
 20
1.959
 30
0.0
100
AcDbTable
342
       44B
343
211
 11
1.0
 21
0.0
 31
0.0
 90
22
 91
5
 92
3
 93
16
 94
0
 95
0
 96
0
 41
0.05
141
0.34375
141
0.344
141
0.25
141
0.25
141
0.25
142
1.3
142
2.0
142
1.3
171
1
172
0
173
0
174
0
175
3
176
1
 91
33
178
0
145
0.0
301
CELL_VALUE
 90
4
  1
Port Headings
304
ACVALUE_END
170
5
140
0.145
171
1
172
0
173
1
174
0
175
1
176
1
 91
1
178
0
145
0.0
170
1
171
1
172
0
173
1
174
0
175
1
176
1
 91
1
178
0
145
0.0
170
1
171
1
172
0
173
0
174
0
175
1
176
1
 91
33
178
0
145
0.0
301
CELL_VALUE
 90
4
  1
Product
304
ACVALUE_END
170
5
140
0.145
171
1
172
0
173
0
174
0
175
1
176
1
 91
33
178
0
145
0.0
301
CELL_VALUE
 90
4
  1
Port
304
ACVALUE_END
170
5
140
0.145
171
1
172
0
173
0
174
0
175
1
176
1
 91
33
178
0
145
0.0
301
CELL_VALUE
 90
4
  1
Size
304
ACVALUE_END
170
5
140
0.145
171
1
172
0
173
0
174
0
175
1
176
1
 91
33
178
0
145
0.0
301
CELL_VALUE
 90
4
  1
EQU
304
ACVALUE_END
170
5
140
0.125
171
1
172
0
173
0
174
0
175
1
176
1
 91
33
178
0
145
0.0
301
CELL_VALUE
 90
4
  1
Ports C1, C2, V1, V2
304
ACVALUE_END
170
5
140
0.125
171
1
172
0
173
0
174
0
175
1
176
1
 91
33
178
0
145
0.0
301
CELL_VALUE
 90
4
  1
3/8" BSPP
304
ACVALUE_END
170
5
140
0.125
171
1
172
0
173
0
174
0
175
1
176
1
 91
33
178
0
145
0.0
301
CELL_VALUE
 90
4
  1
EQU
304
ACVALUE_END
170
5
140
0.125
171
1
172
0
173
0
174
0
175
1
176
1
 91
33
178
0
145
0.0
301
CELL_VALUE
 90
4
  1
Port T
304
ACVALUE_END
170
5
140
0.125
171
1
172
0
173
0
174
0
175
1
176
1
 91
33
178
0
145
0.0
301
CELL_VALUE
 90
4
  1
1/2" BSPP
304
ACVALUE_END
170
5
140
0.125
171
1
172
0
173
0
174
0
175
1
176
1
 91
33
178
0
145
0.0
301
CELL_VALUE
 90
4
  1
EQU
304
ACVALUE_END
170
5
140
0.125
171
1
172
0
173
0
174
0
175
1
176
1
 91
33
178
0
145
0.0
301
CELL_VALUE
 90
4
  1
Port S
304
ACVALUE_END
170
5
140
0.125
171
1
172
0
173
0
174
0
175
1
176
1
 91
33
178
0
145
0.0
301
CELL_VALUE
 90
4
  1
1/4" BSPP
304
ACVALUE_END
170
5
140
0.125
  0
MTEXT
  5
297
100
AcDbEntity
  8
0
100
AcDbMText
 62
2
  6
CONTINUOUS
  7
STANDARD
 71
1
 72
1
 10
0.52125
 20
5.75995
 30
0.0
 11
1.0
 21
0.0
 31
0.0
 44
0.6
  3
Notes\P \P1. Important: Carefully consider\P   the maximum system pressure. The\P   pressure rating of the manifold is\P   dependent on the manifold material,\P   with the port type/size a secondary\P   consideration. Manifolds\P   constructed of alu
  3
minum are not\P   rated for pressures higher than\P   3000 psi (210 bar), regardless of\P   the port type/size specified.\P2. This drawing is for reference\P   only. It is generated by an\P   automated process and does not fall\P   under Sun's docume
  1
nt control\P   process.\P3. Items without balloons are\P   shipped loose.
 40
0.1
 41
3.04
  0
LINE
  5
298
100
AcDbEntity
  8
0
100
AcDbLine
 62
7
  6
CONTINUOUS
 10
0.30125
 20
0.30125
 11
0.30125
 21
16.69875
  0
LINE
  5
299
100
AcDbEntity
  8
0
100
AcDbLine
 62
7
  6
CONTINUOUS
 10
0.30125
 20
0.30125
 11
21.69875
 21
0.30125
  0
LINE
  5
29A
100
AcDbEntity
  8
0
100
AcDbLine
 62
7
  6
CONTINUOUS
 10
0.30125
 20
16.69875
 11
21.69875
 21
16.69875
  0
LINE
  5
29B
100
AcDbEntity
  8
0
100
AcDbLine
 62
7
  6
CONTINUOUS
 10
21.69875
 20
0.30125
 11
21.69875
 21
16.69875
  0
LINE
  5
29C
100
AcDbEntity
  8
0
100
AcDbLine
 62
7
  6
CONTINUOUS
 10
8.3957159022
 20
12.3822322324
 11
6.8428029132
 21
10.8822333815
  0
LINE
  5
29D
100
AcDbEntity
  8
0
100
AcDbLine
 62
7
  6
CONTINUOUS
 10
6.8428029132
 20
10.8822333815
 11
6.8428029132
 21
5.0866780803
  0
LINE
  5
29E
100
AcDbEntity
  8
0
100
AcDbLine
 62
7
  6
CONTINUOUS
 10
6.8428029132
 20
5.0866780803
 11
13.6042840978
 21
4.6177677676
  0
LINE
  5
29F
100
AcDbEntity
  8
0
100
AcDbLine
 62
4
  6
CONTINUOUS
 10
8.3496472902
 20
6.2166313263
 11
8.3110102563
 21
6.2482885895
  0
LINE
  5
2A0
100
AcDbEntity
  8
0
100
AcDbLine
 62
4
  6
CONTINUOUS
 10
8.3110102563
 20
6.2482885895
 11
8.2916917384
 21
6.2786061091
  0
LINE
  5
2A1
100
AcDbEntity
  8
0
100
AcDbLine
 62
4
  6
CONTINUOUS
 10
13.1232530153
 20
5.7204073735
 11
13.0652974636
 21
5.7099377168
  0
LINE
  5
2A2
100
AcDbEntity
  8
0
100
AcDbLine
 62
4
  6
CONTINUOUS
 10
8.2916917384
 20
6.1192283419
 11
8.5235139453
 21
6.0307069776
  0
LINE
  5
2A3
100
AcDbEntity
  8
0
100
AcDbLine
 62
4
  6
CONTINUOUS
 10
8.2916917384
 20
6.5683838677
 11
8.5235139453
 21
6.4363958396
  0
LINE
  5
2A4
100
AcDbEntity
  8
0
100
AcDbLine
 62
4
  6
CONTINUOUS
 10
8.3303287741
 20
6.6816154836
 11
8.3110102563
 21
6.6974441153
  0
LINE
  5
2A5
100
AcDbEntity
  8
0
100
AcDbLine
 62
4
  6
CONTINUOUS
 10
8.3110102563
 20
6.6974441153
 11
8.2916917384
 21
6.7277616349
  0
LINE
  5
2A6
100
AcDbEntity
  8
0
100
AcDbLine
 62
4
  6
CONTINUOUS
 10
8.5041954327
 20
6.7709800054
 11
8.5235139453
 21
6.7406624861
  0
LINE
  5
2A7
100
AcDbEntity
  8
0
100
AcDbLine
 62
4
  6
CONTINUOUS
 10
8.2916917384
 20
6.2786061091
 11
8.2916917384
 21
6.3365616609
  0
LINE
  5
2A8
100
AcDbEntity
  8
0
100
AcDbLine
 62
4
  6
CONTINUOUS
 10
8.2916917384
 20
6.7277616349
 11
8.2916917384
 21
6.7567394108
  0
LINE
  5
2A9
100
AcDbEntity
  8
0
100
AcDbLine
 62
4
  6
CONTINUOUS
 10
8.2916917384
 20
9.1164963199
 11
8.2916917384
 21
9.1744518716
  0
LINE
  5
2AA
100
AcDbEntity
  8
0
100
AcDbLine
 62
4
  6
CONTINUOUS
 10
8.2916917384
 20
9.5656518457
 11
8.2916917384
 21
9.5946296216
  0
LINE
  5
2AB
100
AcDbEntity
  8
0
100
AcDbLine
 62
4
  6
CONTINUOUS
 10
8.3689658097
 20
8.9227818018
 11
8.3689658097
 21
8.8358484742
  0
LINE
  5
2AC
100
AcDbEntity
  8
0
100
AcDbLine
 62
4
  6
CONTINUOUS
 10
8.3689658097
 20
6.084891591
 11
8.3689658097
 21
5.9979582634
  0
LINE
  5
2AD
100
AcDbEntity
  8
0
100
AcDbLine
 62
4
  6
CONTINUOUS
 10
8.2916917384
 20
9.5946296216
 11
8.3110102563
 21
9.6222676537
  0
LINE
  5
2AE
100
AcDbEntity
  8
0
100
AcDbLine
 62
4
  6
CONTINUOUS
 10
8.5235139453
 20
9.5495749211
 11
8.5041954327
 21
9.5219368886
  0
LINE
  5
2AF
100
AcDbEntity
  8
0
100
AcDbLine
 62
4
  6
CONTINUOUS
 10
13.1232530153
 20
6.1840517873
 11
13.0652974636
 21
6.1735821305
  0
LINE
  5
2B0
100
AcDbEntity
  8
0
100
AcDbLine
 62
4
  6
CONTINUOUS
 10
8.4076028419
 20
6.1981232072
 11
8.3496472902
 21
6.2166313263
  0
LINE
  5
2B1
100
AcDbEntity
  8
0
100
AcDbLine
 62
4
  6
CONTINUOUS
 10
8.4655583936
 20
6.802637269
 11
8.5041954327
 21
6.7709800054
  0
LINE
  5
2B2
100
AcDbEntity
  8
0
100
AcDbLine
 62
4
  6
CONTINUOUS
 10
8.5235139453
 20
9.5785526969
 11
8.5235139453
 21
9.5495749211
  0
LINE
  5
2B3
100
AcDbEntity
  8
0
100
AcDbLine
 62
4
  6
CONTINUOUS
 10
8.5235139453
 20
9.158374947
 11
8.5235139453
 21
9.1004193953
  0
LINE
  5
2B4
100
AcDbEntity
  8
0
100
AcDbLine
 62
4
  6
CONTINUOUS
 10
8.5235139453
 20
6.7406624861
 11
8.5235139453
 21
6.7116847103
  0
LINE
  5
2B5
100
AcDbEntity
  8
0
100
AcDbLine
 62
4
  6
CONTINUOUS
 10
8.5235139453
 20
6.3204847362
 11
8.5235139453
 21
6.2625291845
  0
LINE
  5
2B6
100
AcDbEntity
  8
0
100
AcDbLine
 62
4
  6
CONTINUOUS
 10
8.5235139453
 20
9.1004193953
 11
8.5041954327
 21
9.0727813628
  0
LINE
  5
2B7
100
AcDbEntity
  8
0
100
AcDbLine
 62
7
  6
CONTINUOUS
 10
8.8234232888
 20
9.6832971829
 11
8.5980250425
 21
9.4655791827
  0
LINE
  5
2B8
100
AcDbEntity
  8
0
100
AcDbLine
 62
4
  6
CONTINUOUS
 10
8.3110102563
 20
9.6222676537
 11
8.3496472902
 21
9.6485659421
  0
LINE
  5
2B9
100
AcDbEntity
  8
0
100
AcDbLine
 62
4
  6
CONTINUOUS
 10
8.5041954327
 20
9.5219368886
 11
8.4848769062
 21
9.508787745
  0
LINE
  5
2BA
100
AcDbEntity
  8
0
100
AcDbLine
 62
4
  6
CONTINUOUS
 10
13.0073419119
 20
6.5543124478
 11
13.0652974636
 21
6.5647821046
  0
LINE
  5
2BB
100
AcDbEntity
  8
0
100
AcDbLine
 62
4
  6
CONTINUOUS
 10
8.2916917384
 20
6.3365616609
 11
8.5235139453
 21
6.3204847362
  0
LINE
  5
2BC
100
AcDbEntity
  8
0
100
AcDbLine
 62
4
  6
CONTINUOUS
 10
8.4076028419
 20
6.8211453881
 11
8.4655583936
 21
6.802637269
  0
LINE
  5
2BD
100
AcDbEntity
  8
0
100
AcDbLine
 62
7
  6
CONTINUOUS
 10
9.5542205214
 20
10.0545422016
 11
9.328822275
 21
9.8368242014
  0
LINE
  5
2BE
100
AcDbEntity
  8
0
100
AcDbLine
 62
7
  6
CONTINUOUS
 10
9.6686394122
 20
10.0466072246
 11
9.4432411658
 21
9.8288892243
  0
LINE
  5
2BF
100
AcDbEntity
  8
02___PRT_ALL_AXES
100
AcDbLine
 62
7
  6
CONTINUOUS
 10
10.8810471445
 20
10.9708779361
 11
10.8818302293
 21
10.9716188526
  0
LINE
  5
2C0
100
AcDbEntity
  8
02___PRT_ALL_AXES
100
AcDbLine
 62
7
  6
CONTINUOUS
 10
10.8220920371
 20
10.9160275169
 11
10.8818248899
 21
10.9716152071
  0
LINE
  5
2C1
100
AcDbEntity
  8
0
100
AcDbLine
 62
4
  6
CONTINUOUS
 10
8.5041954327
 20
9.0727813628
 11
8.4655583936
 21
9.0464830747
  0
LINE
  5
2C2
100
AcDbEntity
  8
0
100
AcDbLine
 62
4
  6
CONTINUOUS
 10
14.2202729175
 20
6.599836898
 11
14.2047437879
 21
6.5993257978
  0
LINE
  5
2C3
100
AcDbEntity
  8
0
100
AcDbLine
 62
4
  6
CONTINUOUS
 10
13.181208567
 20
6.4263436509
 11
12.9493863602
 21
6.4424205755
  0
LINE
  5
2C4
100
AcDbEntity
  8
0
100
AcDbLine
 62
4
  6
CONTINUOUS
 10
13.0652974636
 20
5.7099377168
 11
13.0073419119
 21
5.7284458358
  0
LINE
  5
2C5
100
AcDbEntity
  8
0
100
AcDbLine
 62
4
  6
CONTINUOUS
 10
8.3110102563
 20
9.0861788003
 11
8.2916917384
 21
9.1164963199
  0
LINE
  5
2C6
100
AcDbEntity
  8
0
100
AcDbLine
 62
4
  6
CONTINUOUS
 10
8.5235139453
 20
9.3901971539
 11
8.2916917384
 21
9.2903629751
  0
LINE
  5
2C7
100
AcDbEntity
  8
0
100
AcDbLine
 62
4
  6
CONTINUOUS
 10
8.5235139453
 20
6.0307069776
 11
8.2916917384
 21
5.9743394626
  0
LINE
  5
2C8
100
AcDbEntity
  8
0
100
AcDbLine
 62
4
  6
CONTINUOUS
 10
8.4655583936
 20
6.2085928639
 11
8.4076028419
 21
6.1981232072
  0
LINE
  5
2C9
100
AcDbEntity
  8
0
100
AcDbLine
 62
4
  6
CONTINUOUS
 10
13.0652974636
 20
6.1735821305
 11
13.0073419119
 21
6.1920902496
  0
LINE
  5
2CA
100
AcDbEntity
  8
0
100
AcDbLine
 62
4
  6
CONTINUOUS
 10
8.3110102563
 20
9.5353343261
 11
8.2916917384
 21
9.5656518457
  0
LINE
  5
2CB
100
AcDbEntity
  8
0
100
AcDbLine
 62
4
  6
CONTINUOUS
 10
8.5041954327
 20
9.6088702162
 11
8.5235139453
 21
9.5785526969
  0
LINE
  5
2CC
100
AcDbEntity
  8
0
100
AcDbLine
 62
4
  6
CONTINUOUS
 10
8.2916917384
 20
6.7567394108
 11
8.3110102563
 21
6.7843774429
  0
LINE
  5
2CD
100
AcDbEntity
  8
0
100
AcDbLine
 62
7
  6
CONTINUOUS
 10
10.3994366448
 20
9.5740002855
 11
10.1740383984
 21
9.3562822852
  0
LINE
  5
2CE
100
AcDbEntity
  8
0
100
AcDbLine
 62
4
  6
CONTINUOUS
 10
8.3496472902
 20
6.8106757313
 11
8.4076028419
 21
6.8211453881
  0
LINE
  5
2CF
100
AcDbEntity
  8
0
100
AcDbLine
 62
4
  6
CONTINUOUS
 10
13.0652974636
 20
6.5647821046
 11
13.1232530153
 21
6.5462739855
  0
LINE
  5
2D0
100
AcDbEntity
  8
0
100
AcDbLine
 62
4
  6
CONTINUOUS
 10
13.181208567
 20
5.9626992372
 11
12.9493863602
 21
6.0946872652
  0
LINE
  5
2D1
100
AcDbEntity
  8
0
100
AcDbLine
 62
4
  6
CONTINUOUS
 10
8.3496472902
 20
9.054521537
 11
8.3110102563
 21
9.0861788003
  0
LINE
  5
2D2
100
AcDbEntity
  8
0
100
AcDbLine
 62
4
  6
CONTINUOUS
 10
8.5235139453
 20
6.7116847103
 11
8.5041954327
 21
6.6840466778
  0
LINE
  5
2D3
100
AcDbEntity
  8
0
100
AcDbLine
 62
4
  6
CONTINUOUS
 10
8.5235139453
 20
6.2625291845
 11
8.5041954327
 21
6.234891152
  0
LINE
  5
2D4
100
AcDbEntity
  8
0
100
AcDbLine
 62
7
  6
CONTINUOUS
 10
10.4566460902
 20
9.4709431308
 11
10.2312478438
 21
9.2532251305
  0
LINE
  5
2D5
100
AcDbEntity
  8
0
100
AcDbLine
 62
7
  6
CONTINUOUS
 10
10.9967565268
 20
9.532576011
 11
10.7713582804
 21
9.3148580107
  0
LINE
  5
2D6
100
AcDbEntity
  8
0
100
AcDbLine
 62
4
  6
CONTINUOUS
 10
8.3303287741
 20
9.5195056944
 11
8.3110102563
 21
9.5353343261
  0
LINE
  5
2D7
100
AcDbEntity
  8
0
100
AcDbLine
 62
4
  6
CONTINUOUS
 10
13.0073419119
 20
5.7284458358
 11
12.9687048728
 21
5.7601030995
  0
LINE
  5
2D8
100
AcDbEntity
  8
0
100
AcDbLine
 62
4
  6
CONTINUOUS
 10
8.4655583936
 20
9.6405274798
 11
8.5041954327
 21
9.6088702162
  0
LINE
  5
2D9
100
AcDbEntity
  8
0
100
AcDbLine
 62
7
  6
CONTINUOUS
 10
11.7275537593
 20
9.9038210297
 11
11.5021555129
 21
9.6861030294
  0
LINE
  5
2DA
100
AcDbEntity
  8
0
100
AcDbLine
 62
7
  6
CONTINUOUS
 10
10.4566460902
 20
8.627091173
 11
10.2312478438
 21
8.4093731727
  0
LINE
  5
2DB
100
AcDbEntity
  8
0
100
AcDbLine
 62
7
  6
CONTINUOUS
 10
10.3994366448
 20
8.5319689953
 11
10.1740383984
 21
8.3142509951
  0
LINE
  5
2DC
100
AcDbEntity
  8
0
100
AcDbLine
 62
7
  6
CONTINUOUS
 10
11.8419726501
 20
9.8958860526
 11
11.6165744038
 21
9.6781680524
  0
LINE
  5
2DD
100
AcDbEntity
  8
0
100
AcDbLine
 62
4
  6
CONTINUOUS
 10
8.2916917384
 20
8.9571185527
 11
8.5235139453
 21
8.8685971884
  0
LINE
  5
2DE
100
AcDbEntity
  8
0
100
AcDbLine
 62
4
  6
CONTINUOUS
 10
8.2916917384
 20
9.4062740785
 11
8.5235139453
 21
9.2742860504
  0
LINE
  5
2DF
100
AcDbEntity
  8
0
100
AcDbLine
 62
4
  6
CONTINUOUS
 10
13.1425715314
 20
5.8494676212
 11
13.1618900492
 21
5.8336389896
  0
LINE
  5
2E0
100
AcDbEntity
  8
0
100
AcDbLine
 62
4
  6
CONTINUOUS
 10
13.0073419119
 20
6.1920902496
 11
12.9687048728
 21
6.2237475132
  0
LINE
  5
2E1
100
AcDbEntity
  8
0
100
AcDbLine
 62
4
  6
CONTINUOUS
 10
13.1425715314
 20
6.313112035
 11
13.1618900492
 21
6.2972834033
  0
LINE
  5
2E2
100
AcDbEntity
  8
0
100
AcDbLine
 62
7
  6
CONTINUOUS
 10
8.8234232888
 20
6.7855195324
 11
8.5980250425
 21
6.5678015321
  0
LINE
  5
2E3
100
AcDbEntity
  8
0
100
AcDbLine
 62
7
  6
CONTINUOUS
 10
9.5542205214
 20
7.1567645511
 11
9.328822275
 21
6.9390465508
  0
LINE
  5
2E4
100
AcDbEntity
  8
0
100
AcDbLine
 62
7
  6
CONTINUOUS
 10
9.6686394122
 20
7.148829574
 11
9.4432411658
 21
6.9311115738
  0
LINE
  5
2E5
100
AcDbEntity
  8
0
100
AcDbLine
 62
4
  6
CONTINUOUS
 10
8.3110102563
 20
6.7843774429
 11
8.3496472902
 21
6.8106757313
  0
LINE
  5
2E6
100
AcDbEntity
  8
0
100
AcDbLine
 62
4
  6
CONTINUOUS
 10
13.1232530153
 20
8.6181847938
 11
13.0652974636
 21
8.607715137
  0
LINE
  5
2E7
100
AcDbEntity
  8
0
100
AcDbLine
 62
4
  6
CONTINUOUS
 10
8.4076028419
 20
9.036013418
 11
8.3496472902
 21
9.054521537
  0
LINE
  5
2E8
100
AcDbEntity
  8
0
100
AcDbLine
 62
4
  6
CONTINUOUS
 10
13.1232530153
 20
6.5462739855
 11
13.1618900492
 21
6.5146167222
  0
LINE
  5
2E9
100
AcDbEntity
  8
0
100
AcDbLine
 62
7
  6
CONTINUOUS
 10
11.1262305776
 20
11.0042488109
 11
11.1262305776
 21
10.9035000036
  0
LINE
  5
2EA
100
AcDbEntity
  8
0
100
AcDbLine
 62
7
  6
CONTINUOUS
 10
11.3359173435
 20
10.9897069843
 11
11.3359173435
 21
10.9208942499
  0
LINE
  5
2EB
100
AcDbEntity
  8
0
100
AcDbLine
 62
7
  6
CONTINUOUS
 10
12.5727698827
 20
9.4232791135
 11
12.3473716363
 21
9.2055611132
  0
LINE
  5
2EC
100
AcDbEntity
  8
0
100
AcDbLine
 62
4
  6
CONTINUOUS
 10
8.5041954327
 20
6.6840466778
 11
8.4848769062
 21
6.6708975343
  0
LINE
  5
2ED
100
AcDbEntity
  8
0
100
AcDbLine
 62
4
  6
CONTINUOUS
 10
12.9687048728
 20
9.42579158
 11
13.0073419119
 21
9.4520898681
  0
LINE
  5
2EE
100
AcDbEntity
  8
0
100
AcDbLine
 62
4
  6
CONTINUOUS
 10
12.9493863602
 20
8.8765535821
 11
13.181208567
 21
8.9763877609
  0
LINE
  5
2EF
100
AcDbEntity
  8
0
100
AcDbLine
 62
4
  6
CONTINUOUS
 10
13.1232530153
 20
9.0818292075
 11
13.0652974636
 21
9.0713595508
  0
LINE
  5
2F0
100
AcDbEntity
  8
0
100
AcDbLine
 62
4
  6
CONTINUOUS
 10
8.4076028419
 20
9.6590355989
 11
8.4655583936
 21
9.6405274798
  0
LINE
  5
2F1
100
AcDbEntity
  8
0
100
AcDbLine
 62
4
  6
CONTINUOUS
 10
12.9687048728
 20
5.7601030995
 11
12.9493863602
 21
5.7904206187
  0
LINE
  5
2F2
100
AcDbEntity
  8
0
100
AcDbLine
 62
4
  6
CONTINUOUS
 10
13.1618900492
 20
5.8336389896
 11
13.181208567
 21
5.8033214699
  0
LINE
  5
2F3
100
AcDbEntity
  8
0
100
AcDbLine
 62
7
  6
CONTINUOUS
 10
15.1571970868
 20
11.9133219197
 11
13.6042840978
 21
10.4133230687
  0
LINE
  5
2F4
100
AcDbEntity
  8
0
100
AcDbLine
 62
7
  6
CONTINUOUS
 10
12.6299793281
 20
9.3202219589
 11
12.4045810817
 21
9.1025039586
  0
LINE
  5
2F5
100
AcDbEntity
  8
0
100
AcDbLine
 62
4
  6
CONTINUOUS
 10
8.5041954327
 20
6.234891152
 11
8.4655583936
 21
6.2085928639
  0
LINE
  5
2F6
100
AcDbEntity
  8
0
100
AcDbLine
 62
4
  6
CONTINUOUS
 10
12.9687048728
 20
9.208458261
 11
12.9880233993
 21
9.2216074046
  0
LINE
  5
2F7
100
AcDbEntity
  8
0
100
AcDbLine
 62
4
  6
CONTINUOUS
 10
13.1618900492
 20
9.108127496
 11
13.1232530153
 21
9.0818292075
  0
LINE
  5
2F8
100
AcDbEntity
  8
0
100
AcDbLine
 62
4
  6
CONTINUOUS
 10
13.0073419119
 20
9.4520898681
 11
13.0652974636
 21
9.4625595248
  0
LINE
  5
2F9
100
AcDbEntity
  8
0
100
AcDbLine
 62
4
  6
CONTINUOUS
 10
8.2916917384
 20
9.1744518716
 11
8.5235139453
 21
9.158374947
  0
LINE
  5
2FA
100
AcDbEntity
  8
0
100
AcDbLine
 62
4
  6
CONTINUOUS
 10
13.0652974636
 20
8.607715137
 11
13.0073419119
 21
8.6262232561
  0
LINE
  5
2FB
100
AcDbEntity
  8
0
100
AcDbLine
 62
4
  6
CONTINUOUS
 10
12.9687048728
 20
6.2237475132
 11
12.9493863602
 21
6.2540650325
  0
LINE
  5
2FC
100
AcDbEntity
  8
0
100
AcDbLine
 62
4
  6
CONTINUOUS
 10
13.1618900492
 20
6.2972834033
 11
13.181208567
 21
6.2669658837
  0
LINE
  5
2FD
100
AcDbEntity
  8
0
100
AcDbLine
 62
4
  6
CONTINUOUS
 10
13.1618900492
 20
6.5146167222
 11
13.181208567
 21
6.4842992026
  0
LINE
  5
2FE
100
AcDbEntity
  8
0
100
AcDbLine
 62
4
  6
CONTINUOUS
 10
12.9493863602
 20
9.3981535475
 11
12.9687048728
 21
9.42579158
  0
LINE
  5
2FF
100
AcDbEntity
  8
0
100
AcDbLine
 62
7
  6
CONTINUOUS
 10
10.3994366448
 20
6.6762226349
 11
10.1740383984
 21
6.4585046346
  0
LINE
  5
300
100
AcDbEntity
  8
0
100
AcDbLine
 62
7
  6
CONTINUOUS
 10
10.4566460902
 20
6.5731654803
 11
10.2312478438
 21
6.35544748
  0
LINE
  5
301
100
AcDbEntity
  8
0
100
AcDbLine
 62
7
  6
CONTINUOUS
 10
12.6299793281
 20
8.476370001
 11
12.4045810817
 21
8.2586520007
  0
LINE
  5
302
100
AcDbEntity
  8
0
100
AcDbLine
 62
7
  6
CONTINUOUS
 10
12.5727698827
 20
8.3812478234
 11
12.3473716363
 21
8.1635298231
  0
LINE
  5
303
100
AcDbEntity
  8
0
100
AcDbLine
 62
4
  6
CONTINUOUS
 10
12.9687048728
 20
8.7448138473
 11
12.9880233993
 21
8.7579629909
  0
LINE
  5
304
100
AcDbEntity
  8
0
100
AcDbLine
 62
4
  6
CONTINUOUS
 10
13.1618900492
 20
8.6444830823
 11
13.1232530153
 21
8.6181847938
  0
LINE
  5
305
100
AcDbEntity
  8
0
100
AcDbLine
 62
4
  6
CONTINUOUS
 10
8.5235139453
 20
6.5523069431
 11
8.2916917384
 21
6.4524727643
  0
LINE
  5
306
100
AcDbEntity
  8
0
100
AcDbLine
 62
4
  6
CONTINUOUS
 10
8.5235139453
 20
8.8685971884
 11
8.2916917384
 21
8.8122296734
  0
LINE
  5
307
100
AcDbEntity
  8
0
100
AcDbLine
 62
4
  6
CONTINUOUS
 10
8.4655583936
 20
9.0464830747
 11
8.4076028419
 21
9.036013418
  0
LINE
  5
308
100
AcDbEntity
  8
0
100
AcDbLine
 62
4
  6
CONTINUOUS
 10
14.2202729175
 20
9.5285243547
 11
14.2047437879
 21
9.5280132544
  0
LINE
  5
309
100
AcDbEntity
  8
0
100
AcDbLine
 62
4
  6
CONTINUOUS
 10
13.181208567
 20
9.3241210712
 11
12.9493863602
 21
9.3401979958
  0
LINE
  5
30A
100
AcDbEntity
  8
0
100
AcDbLine
 62
4
  6
CONTINUOUS
 10
13.0652974636
 20
9.0713595508
 11
13.0073419119
 21
9.0898676698
  0
LINE
  5
30B
100
AcDbEntity
  8
0
100
AcDbLine
 62
4
  6
CONTINUOUS
 10
12.9493863602
 20
9.1808202286
 11
12.9687048728
 21
9.208458261
  0
LINE
  5
30C
100
AcDbEntity
  8
0
100
AcDbLine
 62
4
  6
CONTINUOUS
 10
13.181208567
 20
9.1357655281
 11
13.1618900492
 21
9.108127496
  0
LINE
  5
30D
100
AcDbEntity
  8
0
100
AcDbLine
 62
4
  6
CONTINUOUS
 10
12.9493863602
 20
8.7171758149
 11
12.9687048728
 21
8.7448138473
  0
LINE
  5
30E
100
AcDbEntity
  8
0
100
AcDbLine
 62
4
  6
CONTINUOUS
 10
14.1995674127
 20
9.8852354578
 11
14.2099201632
 21
9.8952354475
  0
LINE
  5
30F
100
AcDbEntity
  8
0
100
AcDbLine
 62
7
  6
CONTINUOUS
 10
10.9967565268
 20
6.6347983604
 11
10.7713582804
 21
6.4170803601
  0
LINE
  5
310
100
AcDbEntity
  8
0
100
AcDbLine
 62
4
  6
CONTINUOUS
 10
14.235802047
 20
9.8188132135
 11
14.2513311766
 21
9.8193243137
  0
LINE
  5
311
100
AcDbEntity
  8
0
100
AcDbLine
 62
4
  6
CONTINUOUS
 10
13.0652974636
 20
9.4625595248
 11
13.1232530153
 21
9.4440514057
  0
LINE
  5
312
100
AcDbEntity
  8
0
100
AcDbLine
 62
4
  6
CONTINUOUS
 10
13.181208567
 20
8.8604766574
 11
12.9493863602
 21
8.9924646855
  0
LINE
  5
313
100
AcDbEntity
  8
0
100
AcDbLine
 62
4
  6
CONTINUOUS
 10
13.0073419119
 20
8.6262232561
 11
12.9687048728
 21
8.6578805197
  0
LINE
  5
314
100
AcDbEntity
  8
0
100
AcDbLine
 62
4
  6
CONTINUOUS
 10
13.1425715314
 20
8.7472450415
 11
13.1618900492
 21
8.7314164098
  0
LINE
  5
315
100
AcDbEntity
  8
0
100
AcDbLine
 62
4
  6
CONTINUOUS
 10
13.181208567
 20
8.6721211143
 11
13.1618900492
 21
8.6444830823
  0
LINE
  5
316
100
AcDbEntity
  8
0
100
AcDbLine
 62
7
  6
CONTINUOUS
 10
11.7275537593
 20
7.0060433791
 11
11.5021555129
 21
6.7883253788
  0
LINE
  5
317
100
AcDbEntity
  8
0
100
AcDbLine
 62
7
  6
CONTINUOUS
 10
10.4566460902
 20
5.7293135224
 11
10.2312478438
 21
5.5115955221
  0
LINE
  5
318
100
AcDbEntity
  8
0
100
AcDbLine
 62
7
  6
CONTINUOUS
 10
10.3994366448
 20
5.6341913448
 11
10.1740383984
 21
5.4164733445
  0
LINE
  5
319
100
AcDbEntity
  8
0
100
AcDbLine
 62
7
  6
CONTINUOUS
 10
11.8419726501
 20
6.9981084021
 11
11.6165744038
 21
6.7803904018
  0
LINE
  5
31A
100
AcDbEntity
  8
0
100
AcDbLine
 62
4
  6
CONTINUOUS
 10
8.3496472902
 20
9.6485659421
 11
8.4076028419
 21
9.6590355989
  0
LINE
  5
31B
100
AcDbEntity
  8
0
100
AcDbLine
 62
4
  6
CONTINUOUS
 10
13.0073419119
 20
9.0898676698
 11
12.9687048728
 21
9.1215249335
  0
LINE
  5
31C
100
AcDbEntity
  8
0
100
AcDbLine
 62
4
  6
CONTINUOUS
 10
13.1425715314
 20
9.2108894552
 11
13.1618900492
 21
9.1950608236
  0
LINE
  5
31D
100
AcDbEntity
  8
0
100
AcDbLine
 62
7
  6
CONTINUOUS
 10
10.9727292543
 20
10.9645197602
 11
11.0289146969
 21
10.9102488829
  0
LINE
  5
31E
100
AcDbEntity
  8
0
100
AcDbLine
 62
4
  6
CONTINUOUS
 10
12.9687048728
 20
8.6578805197
 11
12.9493863602
 21
8.688198039
  0
LINE
  5
31F
100
AcDbEntity
  8
0
100
AcDbLine
 62
4
  6
CONTINUOUS
 10
13.6508715122
 20
7.5132149676
 11
13.6560478912
 21
7.5037260781
  0
LINE
  5
320
100
AcDbEntity
  8
0
100
AcDbLine
 62
4
  6
CONTINUOUS
 10
14.2047437879
 20
6.5993257978
 11
14.1943910337
 21
6.6183035803
  0
LINE
  5
321
100
AcDbEntity
  8
0
100
AcDbLine
 62
4
  6
CONTINUOUS
 10
12.9493863602
 20
5.7904206187
 11
12.9493863602
 21
5.8193983946
  0
LINE
  5
322
100
AcDbEntity
  8
0
100
AcDbLine
 62
4
  6
CONTINUOUS
 10
12.9493863602
 20
6.2540650325
 11
12.9493863602
 21
6.2830428083
  0
LINE
  5
323
100
AcDbEntity
  8
0
100
AcDbLine
 62
4
  6
CONTINUOUS
 10
12.9493863602
 20
6.4424205755
 11
12.9493863602
 21
6.5003761272
  0
LINE
  5
324
100
AcDbEntity
  8
0
100
AcDbLine
 62
4
  6
CONTINUOUS
 10
12.9493863602
 20
8.688198039
 11
12.9493863602
 21
8.7171758149
  0
LINE
  5
325
100
AcDbEntity
  8
0
100
AcDbLine
 62
4
  6
CONTINUOUS
 10
12.9493863602
 20
9.1518424527
 11
12.9493863602
 21
9.1808202286
  0
LINE
  5
326
100
AcDbEntity
  8
0
100
AcDbLine
 62
4
  6
CONTINUOUS
 10
12.9493863602
 20
9.3401979958
 11
12.9493863602
 21
9.3981535475
  0
LINE
  5
327
100
AcDbEntity
  8
0
100
AcDbLine
 62
4
  6
CONTINUOUS
 10
13.181208567
 20
9.3820766229
 11
13.181208567
 21
9.3241210712
  0
LINE
  5
328
100
AcDbEntity
  8
0
100
AcDbLine
 62
4
  6
CONTINUOUS
 10
13.181208567
 20
9.1647433039
 11
13.181208567
 21
9.1357655281
  0
LINE
  5
329
100
AcDbEntity
  8
0
100
AcDbLine
 62
4
  6
CONTINUOUS
 10
13.181208567
 20
8.7010988902
 11
13.181208567
 21
8.6721211143
  0
LINE
  5
32A
100
AcDbEntity
  8
0
100
AcDbLine
 62
4
  6
CONTINUOUS
 10
13.181208567
 20
6.4842992026
 11
13.181208567
 21
6.4263436509
  0
LINE
  5
32B
100
AcDbEntity
  8
0
100
AcDbLine
 62
4
  6
CONTINUOUS
 10
13.181208567
 20
6.2669658837
 11
13.181208567
 21
6.2379881078
  0
LINE
  5
32C
100
AcDbEntity
  8
0
100
AcDbLine
 62
4
  6
CONTINUOUS
 10
13.181208567
 20
5.8033214699
 11
13.181208567
 21
5.7743436941
  0
LINE
  5
32D
100
AcDbEntity
  8
0
100
AcDbLine
 62
7
  6
CONTINUOUS
 10
11.2386014628
 20
10.8957070563
 11
11.3921027861
 21
10.935436107
  0
LINE
  5
32E
100
AcDbEntity
  8
0
100
AcDbLine
 62
7
  6
CONTINUOUS
 10
13.6042840978
 20
10.4133230687
 11
6.8428029132
 21
10.8822333815
  0
LINE
  5
32F
100
AcDbEntity
  8
0
100
AcDbLine
 62
4
  6
CONTINUOUS
 10
13.1232530153
 20
9.4440514057
 11
13.1618900492
 21
9.4123941425
  0
LINE
  5
330
100
AcDbEntity
  8
02___PRT_ALL_AXES
100
AcDbLine
 62
7
  6
CONTINUOUS
 10
11.5427400033
 20
10.9160275169
 11
11.4830071505
 21
10.9716152071
  0
LINE
  5
331
100
AcDbEntity
  8
0
100
AcDbLine
 62
7
  6
CONTINUOUS
 10
11.3921027861
 20
10.935436107
 11
11.3359173435
 21
10.9897069843
  0
LINE
  5
332
100
AcDbEntity
  8
0
100
AcDbLine
 62
4
  6
CONTINUOUS
 10
13.1618900492
 20
8.7314164098
 11
13.181208567
 21
8.7010988902
  0
LINE
  5
333
100
AcDbEntity
  8
0
100
AcDbLine
 62
4
  6
CONTINUOUS
 10
12.9687048728
 20
9.1215249335
 11
12.9493863602
 21
9.1518424527
  0
LINE
  5
334
100
AcDbEntity
  8
0
100
AcDbLine
 62
4
  6
CONTINUOUS
 10
13.1618900492
 20
9.1950608236
 11
13.181208567
 21
9.1647433039
  0
LINE
  5
335
100
AcDbEntity
  8
0
100
AcDbLine
 62
4
  6
CONTINUOUS
 10
13.1618900492
 20
9.4123941425
 11
13.181208567
 21
9.3820766229
  0
LINE
  5
336
100
AcDbEntity
  8
0
100
AcDbLine
 62
4
  6
CONTINUOUS
 10
13.6974589018
 20
7.6596371485
 11
13.7026352784
 21
7.6501482568
  0
LINE
  5
337
100
AcDbEntity
  8
0
100
AcDbLine
 62
4
  6
CONTINUOUS
 10
14.2409784232
 20
6.7647257613
 11
14.2461547999
 21
6.7552368695
  0
LINE
  5
338
100
AcDbEntity
  8
0
100
AcDbLine
 62
7
  6
CONTINUOUS
 10
13.6042840978
 20
4.6177677676
 11
13.6042840978
 21
10.4133230687
  0
LINE
  5
339
100
AcDbEntity
  8
0
100
AcDbLine
 62
4
  6
CONTINUOUS
 10
13.6456951369
 20
7.5661705245
 11
13.6456951369
 21
7.5371927486
  0
LINE
  5
33A
100
AcDbEntity
  8
0
100
AcDbLine
 62
4
  6
CONTINUOUS
 10
14.235802047
 20
9.5580132308
 11
14.2202729175
 21
9.5285243547
  0
LINE
  5
33B
100
AcDbEntity
  8
0
100
AcDbLine
 62
4
  6
CONTINUOUS
 10
13.6871061484
 20
7.6496371561
 11
13.6974589018
 21
7.6596371485
  0
LINE
  5
33C
100
AcDbEntity
  8
0
100
AcDbLine
 62
7
  6
CONTINUOUS
 10
12.5727698827
 20
6.5255014629
 11
12.3473716363
 21
6.3077834627
  0
LINE
  5
33D
100
AcDbEntity
  8
0
100
AcDbLine
 62
4
  6
CONTINUOUS
 10
13.6560478912
 20
7.5037260781
 11
13.6612242665
 21
7.508726073
  0
LINE
  5
33E
100
AcDbEntity
  8
0
100
AcDbLine
 62
7
  6
CONTINUOUS
 10
12.6299793281
 20
6.4224443083
 11
12.4045810817
 21
6.204726308
  0
LINE
  5
33F
100
AcDbEntity
  8
0
100
AcDbLine
 62
7
  6
CONTINUOUS
 10
11.1262305776
 20
11.0042488109
 11
10.9727292543
 21
10.9645197602
  0
LINE
  5
340
100
AcDbEntity
  8
0
100
AcDbLine
 62
7
  6
CONTINUOUS
 10
11.0289146969
 20
10.9102488829
 11
11.2386014628
 21
10.8957070563
  0
LINE
  5
341
100
AcDbEntity
  8
0
100
AcDbLine
 62
7
  6
CONTINUOUS
 10
11.3359173435
 20
10.9897069843
 11
11.1262305776
 21
11.0042488109
  0
LINE
  5
342
100
AcDbEntity
  8
0
100
AcDbLine
 62
4
  6
CONTINUOUS
 10
13.6456951369
 20
7.5371927486
 11
13.6508715122
 21
7.5132149676
  0
LINE
  5
343
100
AcDbEntity
  8
0
100
AcDbLine
 62
4
  6
CONTINUOUS
 10
13.7026352784
 20
7.6501482568
 11
13.7078116551
 21
7.6261704772
  0
LINE
  5
344
100
AcDbEntity
  8
0
100
AcDbLine
 62
4
  6
CONTINUOUS
 10
13.7078116551
 20
7.6261704772
 11
13.7078116551
 21
7.5971927013
  0
LINE
  5
345
100
AcDbEntity
  8
0
100
AcDbLine
 62
4
  6
CONTINUOUS
 10
13.6508715122
 20
7.6001482952
 11
13.6456951369
 21
7.5661705245
  0
LINE
  5
346
100
AcDbEntity
  8
0
100
AcDbLine
 62
4
  6
CONTINUOUS
 10
13.6664006417
 20
7.5282149558
 11
13.6819297731
 21
7.6301482733
  0
LINE
  5
347
100
AcDbEntity
  8
0
100
AcDbLine
 62
4
  6
CONTINUOUS
 10
13.7078116551
 20
7.5971927013
 11
13.7026352784
 21
7.5632149292
  0
LINE
  5
348
100
AcDbEntity
  8
0
100
AcDbLine
 62
4
  6
CONTINUOUS
 10
14.1892146584
 20
9.8317688007
 11
14.1943910337
 21
9.8657465714
  0
LINE
  5
349
100
AcDbEntity
  8
0
100
AcDbLine
 62
4
  6
CONTINUOUS
 10
14.1892146584
 20
9.5999465938
 11
14.1943910337
 21
9.6339243645
  0
LINE
  5
34A
100
AcDbEntity
  8
0
100
AcDbLine
 62
4
  6
CONTINUOUS
 10
14.2513311766
 20
9.6309687707
 11
14.2461547999
 21
9.5969909986
  0
LINE
  5
34B
100
AcDbEntity
  8
0
100
AcDbLine
 62
4
  6
CONTINUOUS
 10
14.1943910337
 20
9.8657465714
 11
14.1995674127
 21
9.8852354578
  0
LINE
  5
34C
100
AcDbEntity
  8
0
100
AcDbLine
 62
4
  6
CONTINUOUS
 10
13.6560478912
 20
7.6196371816
 11
13.6508715122
 21
7.6001482952
  0
LINE
  5
34D
100
AcDbEntity
  8
0
100
AcDbLine
 62
4
  6
CONTINUOUS
 10
14.1943910337
 20
9.6339243645
 11
14.1995674127
 21
9.6534132509
  0
LINE
  5
34E
100
AcDbEntity
  8
0
100
AcDbLine
 62
4
  6
CONTINUOUS
 10
13.6819297731
 20
7.6301482733
 11
13.6871061484
 21
7.6496371561
  0
LINE
  5
34F
100
AcDbEntity
  8
0
100
AcDbLine
 62
4
  6
CONTINUOUS
 10
13.6612242665
 20
7.508726073
 11
13.6664006417
 21
7.5282149558
  0
LINE
  5
350
100
AcDbEntity
  8
0
100
AcDbLine
 62
4
  6
CONTINUOUS
 10
13.7026352784
 20
7.5632149292
 11
13.6922825256
 21
7.5242371614
  0
LINE
  5
351
100
AcDbEntity
  8
0
100
AcDbLine
 62
4
  6
CONTINUOUS
 10
14.2461547999
 20
9.5969909986
 11
14.235802047
 21
9.5580132308
  0
LINE
  5
352
100
AcDbEntity
  8
0
100
AcDbLine
 62
4
  6
CONTINUOUS
 10
12.9493863602
 20
6.5003761272
 11
12.9687048728
 21
6.5280141597
  0
LINE
  5
353
100
AcDbEntity
  8
0
100
AcDbLine
 62
4
  6
CONTINUOUS
 10
12.9493863602
 20
6.2830428083
 11
12.9687048728
 21
6.3106808408
  0
LINE
  5
354
100
AcDbEntity
  8
0
100
AcDbLine
 62
4
  6
CONTINUOUS
 10
13.181208567
 20
6.2379881078
 11
13.1618900492
 21
6.2103500757
  0
LINE
  5
355
100
AcDbEntity
  8
0
100
AcDbLine
 62
4
  6
CONTINUOUS
 10
12.9687048728
 20
6.5280141597
 11
13.0073419119
 21
6.5543124478
  0
LINE
  5
356
100
AcDbEntity
  8
0
100
AcDbLine
 62
4
  6
CONTINUOUS
 10
12.9687048728
 20
6.3106808408
 11
12.9880233993
 21
6.3238299843
  0
LINE
  5
357
100
AcDbEntity
  8
0
100
AcDbLine
 62
4
  6
CONTINUOUS
 10
14.1943910337
 20
6.6183035803
 11
14.1892146584
 21
6.6422813613
  0
LINE
  5
358
100
AcDbEntity
  8
0
100
AcDbLine
 62
4
  6
CONTINUOUS
 10
14.2461547999
 20
6.7552368695
 11
14.2513311766
 21
6.7312590899
  0
LINE
  5
359
100
AcDbEntity
  8
0
100
AcDbLine
 62
4
  6
CONTINUOUS
 10
14.1892146584
 20
6.6422813613
 11
14.1892146584
 21
6.6712591372
  0
LINE
  5
35A
100
AcDbEntity
  8
0
100
AcDbLine
 62
4
  6
CONTINUOUS
 10
14.1892146584
 20
9.570968818
 11
14.1892146584
 21
9.5999465938
  0
LINE
  5
35B
100
AcDbEntity
  8
0
100
AcDbLine
 62
4
  6
CONTINUOUS
 10
14.1892146584
 20
9.8027910248
 11
14.1892146584
 21
9.8317688007
  0
LINE
  5
35C
100
AcDbEntity
  8
0
100
AcDbLine
 62
4
  6
CONTINUOUS
 10
14.2513311766
 20
9.6599465465
 11
14.2513311766
 21
9.6309687707
  0
LINE
  5
35D
100
AcDbEntity
  8
0
100
AcDbLine
 62
4
  6
CONTINUOUS
 10
14.2513311766
 20
6.7312590899
 11
14.2513311766
 21
6.702281314
  0
LINE
  5
35E
100
AcDbEntity
  8
0
100
AcDbLine
 62
4
  6
CONTINUOUS
 10
14.2513311766
 20
9.8193243137
 11
14.2513311766
 21
9.9352354172
  0
LINE
  5
35F
100
AcDbEntity
  8
0
100
AcDbLine
 62
4
  6
CONTINUOUS
 10
14.1892146584
 20
6.6712591372
 11
14.1943910337
 21
6.7052369079
  0
LINE
  5
360
100
AcDbEntity
  8
0
100
AcDbLine
 62
4
  6
CONTINUOUS
 10
12.9493863602
 20
5.8193983946
 11
12.9687048728
 21
5.847036427
  0
LINE
  5
361
100
AcDbEntity
  8
0
100
AcDbLine
 62
4
  6
CONTINUOUS
 10
13.181208567
 20
5.7743436941
 11
13.1618900492
 21
5.746705662
  0
LINE
  5
362
100
AcDbEntity
  8
0
100
AcDbLine
 62
7
  6
CONTINUOUS
 10
12.6299793281
 20
5.5785923504
 11
12.4045810817
 21
5.3608743501
  0
LINE
  5
363
100
AcDbEntity
  8
0
100
AcDbLine
 62
7
  6
CONTINUOUS
 10
12.5727698827
 20
5.4834701728
 11
12.3473716363
 21
5.2657521725
  0
LINE
  5
364
100
AcDbEntity
  8
0
100
AcDbLine
 62
4
  6
CONTINUOUS
 10
14.1892146584
 20
6.8885924561
 11
14.2513311766
 21
6.9485924088
  0
LINE
  5
365
100
AcDbEntity
  8
0
100
AcDbLine
 62
4
  6
CONTINUOUS
 10
13.1618900492
 20
6.2103500757
 11
13.1232530153
 21
6.1840517873
  0
LINE
  5
366
100
AcDbEntity
  8
0
100
AcDbLine
 62
4
  6
CONTINUOUS
 10
12.9687048728
 20
5.847036427
 11
12.9880233993
 21
5.8601855706
  0
LINE
  5
367
100
AcDbEntity
  8
0
100
AcDbLine
 62
4
  6
CONTINUOUS
 10
12.9493863602
 20
5.9787761618
 11
13.181208567
 21
6.0786103406
  0
LINE
  5
368
100
AcDbEntity
  8
0
100
AcDbLine
 62
4
  6
CONTINUOUS
 10
14.2047437879
 20
9.5280132544
 11
14.1943910337
 21
9.546991037
  0
LINE
  5
369
100
AcDbEntity
  8
0
100
AcDbLine
 62
4
  6
CONTINUOUS
 10
14.2409784232
 20
9.6934132179
 11
14.2461547999
 21
9.6839243262
  0
LINE
  5
36A
100
AcDbEntity
  8
0
100
AcDbLine
 62
4
  6
CONTINUOUS
 10
14.1995674127
 20
9.7693243543
 11
14.1943910337
 21
9.7788132438
  0
LINE
  5
36B
100
AcDbEntity
  8
0
100
AcDbLine
 62
4
  6
CONTINUOUS
 10
14.1943910337
 20
9.546991037
 11
14.1892146584
 21
9.570968818
  0
LINE
  5
36C
100
AcDbEntity
  8
0
100
AcDbLine
 62
4
  6
CONTINUOUS
 10
14.1943910337
 20
9.7788132438
 11
14.1892146584
 21
9.8027910248
  0
LINE
  5
36D
100
AcDbEntity
  8
0
100
AcDbLine
 62
4
  6
CONTINUOUS
 10
14.2461547999
 20
9.6839243262
 11
14.2513311766
 21
9.6599465465
  0
LINE
  5
36E
100
AcDbEntity
  8
0
100
AcDbLine
 62
4
  6
CONTINUOUS
 10
14.2150965422
 20
9.885746558
 11
14.2254492946
 21
9.8377909978
  0
LINE
  5
36F
100
AcDbEntity
  8
0
100
AcDbLine
 62
4
  6
CONTINUOUS
 10
14.2513311766
 20
6.702281314
 11
14.2461547999
 21
6.668303542
  0
LINE
  5
370
100
AcDbEntity
  8
0
100
AcDbLine
 62
4
  6
CONTINUOUS
 10
14.1943910337
 20
6.7052369079
 11
14.1995674127
 21
6.7247257943
  0
LINE
  5
371
100
AcDbEntity
  8
0
100
AcDbLine
 62
4
  6
CONTINUOUS
 10
14.2461547999
 20
6.668303542
 11
14.235802047
 21
6.6293257741
  0
LINE
  5
372
100
AcDbEntity
  8
0
100
AcDbLine
 62
4
  6
CONTINUOUS
 10
14.235802047
 20
6.6293257741
 11
14.2202729175
 21
6.599836898
  0
LINE
  5
373
100
AcDbEntity
  8
0
100
AcDbLine
 62
4
  6
CONTINUOUS
 10
13.1618900492
 20
5.746705662
 11
13.1232530153
 21
5.7204073735
  0
LINE
  5
374
100
AcDbEntity
  8
0
100
AcDbLine
 62
7
  6
CONTINUOUS
 10
15.1571970868
 20
11.9133219197
 11
8.3957159022
 21
12.3822322324
  0
LINE
  5
375
100
AcDbEntity
  8
0
100
AcDbLine
 62
4
  6
CONTINUOUS
 10
14.2254492946
 20
9.8377909978
 11
14.235802047
 21
9.8188132135
  0
LINE
  5
376
100
AcDbEntity
  8
0
100
AcDbLine
 62
4
  6
CONTINUOUS
 10
14.2099201632
 20
9.8952354475
 11
14.2150965422
 21
9.885746558
  0
LINE
  5
377
100
AcDbEntity
  8
0
100
AcDbLine
 62
7
  6
CONTINUOUS
 10
15.1571970868
 20
6.1177666185
 11
15.1571970868
 21
11.9133219197
  0
LINE
  5
378
100
AcDbEntity
  8
0
100
AcDbLine
 62
7
  6
CONTINUOUS
 10
15.1571970868
 20
6.1177666185
 11
13.6042840978
 21
4.6177677676
  0
ARC
  5
379
100
AcDbEntity
  8
0
100
AcDbCircle
 62
7
  6
CONTINUOUS
 10
9.5266150211
 20
6.1242911352
 40
1.0326887078
100
AcDbArc
 50
25.7640228377
 51
32.3073428428
  0
ARC
  5
37A
100
AcDbEntity
  8
0
100
AcDbCircle
 62
7
  6
CONTINUOUS
 10
9.4708466661
 20
6.0777017417
 40
1.0326887078
100
AcDbArc
 50
205.7640228377
 51
212.3073428428
  0
ARC
  5
37B
100
AcDbEntity
  8
0
100
AcDbCircle
 62
7
  6
CONTINUOUS
 10
9.3012167747
 20
5.9065731349
 40
1.0326887078
100
AcDbArc
 50
25.7640228377
 51
32.3073428428
  0
ARC
  5
37C
100
AcDbEntity
  8
0
100
AcDbCircle
 62
7
  6
CONTINUOUS
 10
11.699948259
 20
5.9735699632
 40
1.0326887078
100
AcDbArc
 50
25.7640228377
 51
32.3073428428
  0
ARC
  5
37D
100
AcDbEntity
  8
0
100
AcDbCircle
 62
7
  6
CONTINUOUS
 10
11.6441799041
 20
5.9269805697
 40
1.0326887078
100
AcDbArc
 50
205.7640228377
 51
212.3073428428
  0
ARC
  5
37E
100
AcDbEntity
  8
0
100
AcDbCircle
 62
7
  6
CONTINUOUS
 10
11.4745500126
 20
5.7558519629
 40
1.0326887078
100
AcDbArc
 50
25.7640228377
 51
32.3073428428
  0
ARC
  5
37F
100
AcDbEntity
  8
0
100
AcDbCircle
 62
7
  6
CONTINUOUS
 10
9.4524309619
 20
6.003612593
 40
0.9584534212
100
AcDbArc
 50
262.590107291
 51
266.0275106487
  0
ARC
  5
380
100
AcDbEntity
  8
0
100
AcDbCircle
 62
7
  6
CONTINUOUS
 10
9.3196324789
 20
5.9806622836
 40
0.9584534212
100
AcDbArc
 50
82.590107291
 51
86.0275106487
  0
ARC
  5
381
100
AcDbEntity
  8
0
100
AcDbCircle
 62
7
  6
CONTINUOUS
 10
11.6257641999
 20
5.852891421
 40
0.9584534212
100
AcDbArc
 50
262.590107291
 51
266.0275106487
  0
ARC
  5
382
100
AcDbEntity
  8
0
100
AcDbCircle
 62
7
  6
CONTINUOUS
 10
11.4929657168
 20
5.8299411116
 40
0.9584534212
100
AcDbArc
 50
82.590107291
 51
86.0275106487
  0
ARC
  5
383
100
AcDbEntity
  8
0
100
AcDbCircle
 62
7
  6
CONTINUOUS
 10
9.5452276662
 20
6.2003564515
 40
0.9564683598
100
AcDbArc
 50
82.5865392113
 51
86.0310787285
  0
ARC
  5
384
100
AcDbEntity
  8
0
100
AcDbCircle
 62
7
  6
CONTINUOUS
 10
11.7185609041
 20
6.0496352795
 40
0.9564683598
100
AcDbArc
 50
82.5865392113
 51
86.0310787284
  0
ARC
  5
385
100
AcDbEntity
  8
0
100
AcDbCircle
 62
7
  6
CONTINUOUS
 10
9.5459155136
 20
6.2102740503
 40
0.9465269363
100
AcDbArc
 50
86.0310634489
 51
89.4972694561
  0
ARC
  5
386
100
AcDbEntity
  8
0
100
AcDbCircle
 62
7
  6
CONTINUOUS
 10
9.4515461736
 20
5.9917188265
 40
0.9465269363
100
AcDbArc
 50
266.0310634489
 51
269.4972694561
  0
ARC
  5
387
100
AcDbEntity
  8
0
100
AcDbCircle
 62
7
  6
CONTINUOUS
 10
9.3205172672
 20
5.9925560501
 40
0.9465269363
100
AcDbArc
 50
86.0310634489
 51
89.4972694561
  0
ARC
  5
388
100
AcDbEntity
  8
0
100
AcDbCircle
 62
7
  6
CONTINUOUS
 10
11.7192487515
 20
6.0595528784
 40
0.9465269363
100
AcDbArc
 50
86.0310634489
 51
89.4972694561
  0
ARC
  5
389
100
AcDbEntity
  8
0
100
AcDbCircle
 62
7
  6
CONTINUOUS
 10
11.6248794116
 20
5.8409976545
 40
0.9465269363
100
AcDbArc
 50
266.0310634489
 51
269.4972694561
  0
ARC
  5
38A
100
AcDbEntity
  8
0
100
AcDbCircle
 62
7
  6
CONTINUOUS
 10
11.4938505051
 20
5.8418348781
 40
0.9465269363
100
AcDbArc
 50
86.0310634489
 51
89.4972694561
  0
ARC
  5
38B
100
AcDbEntity
  8
0
100
AcDbCircle
 62
7
  6
CONTINUOUS
 10
9.6903563132
 20
6.1254192408
 40
0.8626121738
100
AcDbArc
 50
325.2870362755
 51
332.6649360488
  0
ARC
  5
38C
100
AcDbEntity
  8
0
100
AcDbCircle
 62
7
  6
CONTINUOUS
 10
9.307105374
 20
6.076573636
 40
0.8626121738
100
AcDbArc
 50
145.2870362755
 51
152.6649360488
  0
ARC
  5
38D
100
AcDbEntity
  8
0
100
AcDbCircle
 62
7
  6
CONTINUOUS
 10
9.4649580669
 20
5.9077012406
 40
0.8626121738
100
AcDbArc
 50
325.2870362755
 51
332.6649360488
  0
ARC
  5
38E
100
AcDbEntity
  8
0
100
AcDbCircle
 62
7
  6
CONTINUOUS
 10
11.8636895512
 20
5.9746980689
 40
0.8626121738
100
AcDbArc
 50
325.2870362755
 51
332.6649360488
  0
ARC
  5
38F
100
AcDbEntity
  8
0
100
AcDbCircle
 62
7
  6
CONTINUOUS
 10
11.4804386119
 20
5.925852464
 40
0.8626121738
100
AcDbArc
 50
145.2870362755
 51
152.6649360488
  0
ARC
  5
390
100
AcDbEntity
  8
0
100
AcDbCircle
 62
7
  6
CONTINUOUS
 10
11.6382913048
 20
5.7569800686
 40
0.8626121738
100
AcDbArc
 50
325.2870362755
 51
332.6649360488
  0
ARC
  5
391
100
AcDbEntity
  8
0
100
AcDbCircle
 62
7
  6
CONTINUOUS
 10
11.8348250187
 20
6.1619210295
 40
0.8288161989
100
AcDbArc
 50
86.0323821428
 51
88.2163836344
  0
ARC
  5
392
100
AcDbEntity
  8
0
100
AcDbCircle
 62
7
  6
CONTINUOUS
 10
11.8452997297
 20
6.1740079942
 40
0.8267257901
100
AcDbArc
 50
86.0308063163
 51
90.2302411027
  0
ARC
  5
393
100
AcDbEntity
  8
0
100
AcDbCircle
 62
7
  6
CONTINUOUS
 10
11.845364417
 20
6.1832736663
 40
0.8174604591
100
AcDbArc
 50
90.2373847057
 51
91.5303555387
  0
ARC
  5
394
100
AcDbEntity
  8
0
100
AcDbCircle
 62
7
  6
CONTINUOUS
 10
9.8217132991
 20
6.2761041727
 40
0.756825618
100
AcDbArc
 50
329.2842157959
 51
331.973240189
  0
ARC
  5
395
100
AcDbEntity
  8
0
100
AcDbCircle
 62
7
  6
CONTINUOUS
 10
9.8218481316
 20
6.2762758945
 40
0.7568243095
100
AcDbArc
 50
329.2722737638
 51
331.7503052801
  0
ARC
  5
396
100
AcDbEntity
  8
0
100
AcDbCircle
 62
7
  6
CONTINUOUS
 10
9.6846067187
 20
6.4183288604
 40
0.7561352939
100
AcDbArc
 50
116.6853061558
 51
118.1827005096
  0
ARC
  5
397
100
AcDbEntity
  8
0
100
AcDbCircle
 62
7
  6
CONTINUOUS
 10
9.6828619433
 20
6.4215005268
 40
0.7525156114
100
AcDbArc
 50
118.1796552429
 51
121.8992985452
  0
ARC
  5
398
100
AcDbEntity
  8
0
100
AcDbCircle
 62
7
  6
CONTINUOUS
 10
9.6814733705
 20
6.424252359
 40
0.7494678609
100
AcDbArc
 50
116.458241985
 51
132.4326525149
  0
ARC
  5
399
100
AcDbEntity
  8
0
100
AcDbCircle
 62
7
  6
CONTINUOUS
 10
11.8545427931
 20
6.2736980742
 40
0.7491688717
100
AcDbArc
 50
115.4568154934
 51
132.5392488346
  0
ARC
  5
39A
100
AcDbEntity
  8
0
100
AcDbCircle
 62
7
  6
CONTINUOUS
 10
9.6810883025
 20
6.4243616318
 40
0.7491493543
100
AcDbArc
 50
121.8997655024
 51
124.6287569167
  0
ARC
  5
39B
100
AcDbEntity
  8
0
100
AcDbCircle
 62
7
  6
CONTINUOUS
 10
11.8543876038
 20
6.2740868811
 40
0.7487740819
100
AcDbArc
 50
117.9862680632
 51
132.4728303233
  0
ARC
  5
39C
100
AcDbEntity
  8
0
100
AcDbCircle
 62
7
  6
CONTINUOUS
 10
9.6797113115
 20
6.4263214607
 40
0.7467542225
100
AcDbArc
 50
124.6272705245
 51
128.0643911905
  0
ARC
  5
39D
100
AcDbEntity
  8
0
100
AcDbCircle
 62
7
  6
CONTINUOUS
 10
9.6786355205
 20
6.427702811
 40
0.7450033846
100
AcDbArc
 50
128.0647508725
 51
132.4742048099
  0
ARC
  5
39E
100
AcDbEntity
  8
0
100
AcDbCircle
 62
7
  6
CONTINUOUS
 10
9.5266150211
 20
9.0220687857
 40
1.0326887078
100
AcDbArc
 50
25.7640228377
 51
32.3073428428
  0
ARC
  5
39F
100
AcDbEntity
  8
0
100
AcDbCircle
 62
7
  6
CONTINUOUS
 10
9.4708466661
 20
8.9754793922
 40
1.0326887078
100
AcDbArc
 50
205.7640228377
 51
212.3073428428
  0
ARC
  5
3A0
100
AcDbEntity
  8
0
100
AcDbCircle
 62
7
  6
CONTINUOUS
 10
9.3012167747
 20
8.8043507855
 40
1.0326887078
100
AcDbArc
 50
25.7640228377
 51
32.3073428428
  0
ARC
  5
3A1
100
AcDbEntity
  8
0
100
AcDbCircle
 62
7
  6
CONTINUOUS
 10
11.699948259
 20
8.8713476138
 40
1.0326887078
100
AcDbArc
 50
25.7640228377
 51
32.3073428428
  0
ARC
  5
3A2
100
AcDbEntity
  8
0
100
AcDbCircle
 62
7
  6
CONTINUOUS
 10
11.6441799041
 20
8.8247582203
 40
1.0326887078
100
AcDbArc
 50
205.7640228377
 51
212.3073428428
  0
ARC
  5
3A3
100
AcDbEntity
  8
0
100
AcDbCircle
 62
7
  6
CONTINUOUS
 10
11.4745500126
 20
8.6536296135
 40
1.0326887078
100
AcDbArc
 50
25.7640228377
 51
32.3073428428
  0
ARC
  5
3A4
100
AcDbEntity
  8
0
100
AcDbCircle
 62
7
  6
CONTINUOUS
 10
9.4524309619
 20
8.9013902436
 40
0.9584534213
100
AcDbArc
 50
262.590107291
 51
266.0275106487
  0
ARC
  5
3A5
100
AcDbEntity
  8
0
100
AcDbCircle
 62
7
  6
CONTINUOUS
 10
9.3196324789
 20
8.8784399341
 40
0.9584534212
100
AcDbArc
 50
82.590107291
 51
86.0275106487
  0
ARC
  5
3A6
100
AcDbEntity
  8
0
100
AcDbCircle
 62
7
  6
CONTINUOUS
 10
11.6257641998
 20
8.7506690716
 40
0.9584534212
100
AcDbArc
 50
262.590107291
 51
266.0275106487
  0
ARC
  5
3A7
100
AcDbEntity
  8
0
100
AcDbCircle
 62
7
  6
CONTINUOUS
 10
11.4929657168
 20
8.7277187622
 40
0.9584534213
100
AcDbArc
 50
82.590107291
 51
86.0275106487
  0
ARC
  5
3A8
100
AcDbEntity
  8
0
100
AcDbCircle
 62
7
  6
CONTINUOUS
 10
9.5452276662
 20
9.0981341021
 40
0.9564683598
100
AcDbArc
 50
82.5865392113
 51
86.0310787285
  0
ARC
  5
3A9
100
AcDbEntity
  8
0
100
AcDbCircle
 62
7
  6
CONTINUOUS
 10
11.7185609041
 20
8.9474129301
 40
0.9564683598
100
AcDbArc
 50
82.5865392113
 51
86.0310787284
  0
ARC
  5
3AA
100
AcDbEntity
  8
0
100
AcDbCircle
 62
7
  6
CONTINUOUS
 10
9.5459155136
 20
9.1080517009
 40
0.9465269363
100
AcDbArc
 50
86.0310634489
 51
89.4972694561
  0
ARC
  5
3AB
100
AcDbEntity
  8
0
100
AcDbCircle
 62
7
  6
CONTINUOUS
 10
9.4515461736
 20
8.8894964771
 40
0.9465269363
100
AcDbArc
 50
266.0310634489
 51
269.4972694561
  0
ARC
  5
3AC
100
AcDbEntity
  8
0
100
AcDbCircle
 62
7
  6
CONTINUOUS
 10
9.3205172672
 20
8.8903337006
 40
0.9465269363
100
AcDbArc
 50
86.0310634489
 51
89.4972694561
  0
ARC
  5
3AD
100
AcDbEntity
  8
0
100
AcDbCircle
 62
7
  6
CONTINUOUS
 10
11.7192487515
 20
8.9573305289
 40
0.9465269363
100
AcDbArc
 50
86.0310634489
 51
89.4972694561
  0
ARC
  5
3AE
100
AcDbEntity
  8
0
100
AcDbCircle
 62
7
  6
CONTINUOUS
 10
11.6248794116
 20
8.7387753051
 40
0.9465269363
100
AcDbArc
 50
266.0310634489
 51
269.4972694561
  0
ARC
  5
3AF
100
AcDbEntity
  8
0
100
AcDbCircle
 62
7
  6
CONTINUOUS
 10
11.4938505051
 20
8.7396125287
 40
0.9465269363
100
AcDbArc
 50
86.0310634489
 51
89.4972694561
  0
ARC
  5
3B0
100
AcDbEntity
  8
0
100
AcDbCircle
 62
7
  6
CONTINUOUS
 10
9.6903563132
 20
9.0231968914
 40
0.8626121738
100
AcDbArc
 50
325.2870362755
 51
332.6649360488
  0
ARC
  5
3B1
100
AcDbEntity
  8
0
100
AcDbCircle
 62
7
  6
CONTINUOUS
 10
9.307105374
 20
8.9743512866
 40
0.8626121738
100
AcDbArc
 50
145.2870362755
 51
152.6649360488
  0
ARC
  5
3B2
100
AcDbEntity
  8
0
100
AcDbCircle
 62
7
  6
CONTINUOUS
 10
9.4649580669
 20
8.8054788911
 40
0.8626121738
100
AcDbArc
 50
325.2870362755
 51
332.6649360488
  0
ARC
  5
3B3
100
AcDbEntity
  8
0
100
AcDbCircle
 62
7
  6
CONTINUOUS
 10
11.8636895512
 20
8.8724757194
 40
0.8626121738
100
AcDbArc
 50
325.2870362755
 51
332.6649360488
  0
ARC
  5
3B4
100
AcDbEntity
  8
0
100
AcDbCircle
 62
7
  6
CONTINUOUS
 10
11.4804386119
 20
8.8236301146
 40
0.8626121738
100
AcDbArc
 50
145.2870362755
 51
152.6649360488
  0
ARC
  5
3B5
100
AcDbEntity
  8
0
100
AcDbCircle
 62
7
  6
CONTINUOUS
 10
11.6382913048
 20
8.6547577192
 40
0.8626121738
100
AcDbArc
 50
325.2870362755
 51
332.6649360488
  0
ARC
  5
3B6
100
AcDbEntity
  8
0
100
AcDbCircle
 62
7
  6
CONTINUOUS
 10
11.8348250187
 20
9.0596986801
 40
0.8288161989
100
AcDbArc
 50
86.0323821428
 51
88.2163836344
  0
ARC
  5
3B7
100
AcDbEntity
  8
0
100
AcDbCircle
 62
7
  6
CONTINUOUS
 10
11.8452997297
 20
9.0717856448
 40
0.8267257901
100
AcDbArc
 50
86.0308063163
 51
90.2302411027
  0
ARC
  5
3B8
100
AcDbEntity
  8
0
100
AcDbCircle
 62
7
  6
CONTINUOUS
 10
11.845364417
 20
9.0810513169
 40
0.8174604591
100
AcDbArc
 50
90.2373847057
 51
91.5303555387
  0
ARC
  5
3B9
100
AcDbEntity
  8
0
100
AcDbCircle
 62
7
  6
CONTINUOUS
 10
9.8217132991
 20
9.1738818233
 40
0.756825618
100
AcDbArc
 50
329.2842157959
 51
331.9732401889
  0
ARC
  5
3BA
100
AcDbEntity
  8
0
100
AcDbCircle
 62
7
  6
CONTINUOUS
 10
9.8218481316
 20
9.1740535451
 40
0.7568243095
100
AcDbArc
 50
329.2722737638
 51
331.7503052801
  0
ARC
  5
3BB
100
AcDbEntity
  8
0
100
AcDbCircle
 62
7
  6
CONTINUOUS
 10
9.6846067187
 20
9.316106511
 40
0.7561352939
100
AcDbArc
 50
116.6853061557
 51
118.1827005096
  0
ARC
  5
3BC
100
AcDbEntity
  8
0
100
AcDbCircle
 62
7
  6
CONTINUOUS
 10
9.6828619433
 20
9.3192781774
 40
0.7525156114
100
AcDbArc
 50
118.1796552429
 51
121.8992985452
  0
ARC
  5
3BD
100
AcDbEntity
  8
0
100
AcDbCircle
 62
7
  6
CONTINUOUS
 10
9.6814733705
 20
9.3220300096
 40
0.7494678609
100
AcDbArc
 50
116.458241985
 51
132.4326525149
  0
ARC
  5
3BE
100
AcDbEntity
  8
0
100
AcDbCircle
 62
7
  6
CONTINUOUS
 10
11.8545427931
 20
9.1714757247
 40
0.7491688717
100
AcDbArc
 50
115.4568154905
 51
132.5392488317
  0
ARC
  5
3BF
100
AcDbEntity
  8
0
100
AcDbCircle
 62
7
  6
CONTINUOUS
 10
9.6810883025
 20
9.3221392824
 40
0.7491493544
100
AcDbArc
 50
121.8997655024
 51
124.6287569167
  0
ARC
  5
3C0
100
AcDbEntity
  8
0
100
AcDbCircle
 62
7
  6
CONTINUOUS
 10
11.8543876038
 20
9.1718645317
 40
0.7487740819
100
AcDbArc
 50
117.9862680632
 51
132.4728303233
  0
ARC
  5
3C1
100
AcDbEntity
  8
0
100
AcDbCircle
 62
7
  6
CONTINUOUS
 10
9.6797113115
 20
9.3240991113
 40
0.7467542225
100
AcDbArc
 50
124.6272705244
 51
128.0643911905
  0
ARC
  5
3C2
100
AcDbEntity
  8
0
100
AcDbCircle
 62
7
  6
CONTINUOUS
 10
9.6786355205
 20
9.3254804615
 40
0.7450033846
100
AcDbArc
 50
128.0647508725
 51
132.4742048099
  0
ARC
  5
3C3
100
AcDbEntity
  8
0
100
AcDbCircle
 62
7
  6
CONTINUOUS
 10
11.9952496208
 20
6.1252678485
 40
0.7565922608
100
AcDbArc
 50
329.2522496612
 51
331.7710823905
  0
ARC
  5
3C4
100
AcDbEntity
  8
0
100
AcDbCircle
 62
7
  6
CONTINUOUS
 10
11.9959978355
 20
6.125082719
 40
0.755881446
100
AcDbArc
 50
329.2278705086
 51
330.5722035245
  0
ARC
  5
3C5
100
AcDbEntity
  8
0
100
AcDbCircle
 62
7
  6
CONTINUOUS
 10
14.5152305259
 20
7.571592211
 40
0.0380483244
100
AcDbArc
 50
86.066311515
 51
96.75970332
  0
ARC
  5
3C6
100
AcDbEntity
  8
0
100
AcDbCircle
 62
7
  6
CONTINUOUS
 10
14.4374740285
 20
6.4503804265
 40
0.0380468813
100
AcDbArc
 50
255.2483063984
 51
265.9997336137
  0
ARC
  5
3C7
100
AcDbEntity
  8
0
100
AcDbCircle
 62
7
  6
CONTINUOUS
 10
13.8410781522
 20
7.426244584
 40
0.0294812026
100
AcDbArc
 50
259.7098668277
 51
266.0300991031
  0
ARC
  5
3C8
100
AcDbEntity
  8
0
100
AcDbCircle
 62
7
  6
CONTINUOUS
 10
11.9952496208
 20
9.023045499
 40
0.7565922608
100
AcDbArc
 50
329.2522496612
 51
331.7710823905
  0
ARC
  5
3C9
100
AcDbEntity
  8
0
100
AcDbCircle
 62
7
  6
CONTINUOUS
 10
11.9959978356
 20
9.0228603695
 40
0.755881446
100
AcDbArc
 50
329.2278705086
 51
330.5722035245
  0
ARC
  5
3CA
100
AcDbEntity
  8
0
100
AcDbCircle
 62
7
  6
CONTINUOUS
 10
14.5152305259
 20
10.4693698616
 40
0.0380483244
100
AcDbArc
 50
86.0663115149
 51
96.7597033202
  0
ARC
  5
3CB
100
AcDbEntity
  8
0
100
AcDbCircle
 62
7
  6
CONTINUOUS
 10
14.4374740285
 20
9.3481580771
 40
0.0380468813
100
AcDbArc
 50
255.2483063984
 51
265.9997336137
  0
ARC
  5
3CC
100
AcDbEntity
  8
0
100
AcDbCircle
 62
7
  6
CONTINUOUS
 10
13.9020320499
 20
8.3051708699
 40
0.0294814568
100
AcDbArc
 50
86.0359488744
 51
92.26756015
  0
SPLINE
  5
3CD
100
AcDbEntity
  8
02___PRT_ALL_AXES
100
AcDbSpline
 62
7
  6
CONTINUOUS
 70
0
 71
3
 72
57
 73
53
 74
0
 42
0.0000001
 43
0.0000001
 44
0.0000000001
 40
0.0
 40
0.0
 40
0.0
 40
0.0
 40
0.0077394249
 40
0.0160545693
 40
0.0249629626
 40
0.0344759456
 40
0.0445997023
 40
0.0553364647
 40
0.0666851582
 40
0.0786398676
 40
0.0911915998
 40
0.1043297555
 40
0.1180410133
 40
0.1323097401
 40
0.1471194022
 40
0.1624517131
 40
0.1782861621
 40
0.1946016054
 40
0.2113759331
 40
0.2285850851
 40
0.2642079334
 40
0.3012636105
 40
0.3395320061
 40
0.3787823015
 40
0.4187762915
 40
0.4592691932
 40
0.5000125389
 40
0.5407557682
 40
0.5812483211
 40
0.6212417333
 40
0.6604912261
 40
0.6987586002
 40
0.7358130466
 40
0.7714344677
 40
0.7886428357
 40
0.8054163301
 40
0.8217308922
 40
0.8375644221
 40
0.8528957868
 40
0.8677044859
 40
0.8819722187
 40
0.8956824156
 40
0.9088194089
 40
0.9213699263
 40
0.9333235124
 40
0.9446713282
 40
0.9554074151
 40
0.9655301996
 40
0.9750413359
 40
0.9839468618
 40
0.9922598291
 40
1.0
 40
1.0
 40
1.0
 40
1.0
 10
10.8818289436
 20
10.9716189452
 30
0.0
 10
10.8830024619
 20
10.9727107311
 30
0.0
 10
10.8855291738
 20
10.9748774132
 30
0.0
 10
10.8896740603
 20
10.9779725414
 30
0.0
 10
10.894299599
 20
10.981021558
 30
0.0
 10
10.8993980331
 20
10.9840184873
 30
0.0
 10
10.9049609091
 20
10.9869591719
 30
0.0
 10
10.9109795391
 20
10.9898391327
 30
0.0
 10
10.9174446552
 20
10.9926535437
 30
0.0
 10
10.9243457414
 20
10.9953981453
 30
0.0
 10
10.9316714948
 20
10.9980685262
 30
0.0
 10
10.9394100933
 20
11.0006598747
 30
0.0
 10
10.9475488301
 20
11.0031679726
 30
0.0
 10
10.9560742702
 20
11.0055889438
 30
0.0
 10
10.9649725459
 20
11.0079185548
 30
0.0
 10
10.9742290874
 20
11.0101528579
 30
0.0
 10
10.9838285806
 20
11.0122884596
 30
0.0
 10
10.9937552725
 20
11.0143216842
 30
0.0
 10
11.0039929086
 20
11.0162489468
 30
0.0
 10
11.0181988205
 20
11.0187016994
 30
0.0
 10
11.0366105904
 20
11.021468998
 30
0.0
 10
11.0594170455
 20
11.0242858083
 30
0.0
 10
11.0830332327
 20
11.0266163375
 30
0.0
 10
11.107303636
 20
11.0284455211
 30
0.0
 10
11.1320685764
 20
11.0297606765
 30
0.0
 10
11.1571650414
 20
11.0305531801
 30
0.0
 10
11.182427767
 20
11.0308179184
 30
0.0
 10
11.2076904152
 20
11.0305526885
 30
0.0
 10
11.2327866486
 20
11.0297596959
 30
0.0
 10
11.2575512049
 20
11.0284440591
 30
0.0
 10
11.2818210739
 20
11.0266144029
 30
0.0
 10
11.3054365802
 20
11.0242834143
 30
0.0
 10
11.3282422132
 20
11.0214661622
 30
0.0
 10
11.3466532077
 20
11.0186984989
 30
0.0
 10
11.3608584312
 20
11.0162454644
 30
0.0
 10
11.3710955034
 20
11.0143180034
 30
0.0
 10
11.3810215997
 20
11.0122845891
 30
0.0
 10
11.3906204695
 20
11.0101488036
 30
0.0
 10
11.3998763645
 20
11.0079143178
 30
0.0
 10
11.4087739699
 20
11.0055845201
 30
0.0
 10
11.4172987097
 20
11.0031633704
 30
0.0
 10
11.425436702
 20
11.000655119
 30
0.0
 10
11.433174512
 20
10.9980636585
 30
0.0
 10
11.4404994607
 20
10.9953931858
 30
0.0
 10
11.4473997766
 20
10.9926484475
 30
0.0
 10
11.4538641855
 20
10.9898337971
 30
0.0
 10
11.4598820924
 20
10.9869535354
 30
0.0
 10
11.4654440766
 20
10.9840127146
 30
0.0
 10
11.4705412787
 20
10.9810160183
 30
0.0
 10
11.4751654526
 20
10.9779675241
 30
0.0
 10
11.4793093211
 20
10.9748725097
 30
0.0
 10
11.4818354577
 20
10.972705608
 30
0.0
 10
11.483008922
 20
10.9716135372
 30
0.0
  0
SPLINE
  5
3CE
100
AcDbEntity
  8
02___PRT_ALL_AXES
100
AcDbSpline
 62
7
  6
CONTINUOUS
 70
0
 71
3
 72
76
 73
72
 74
0
 42
0.0000001
 43
0.0000001
 44
0.0000000001
 40
0.0
 40
0.0
 40
0.0
 40
0.0
 40
0.0078469442
 40
0.0115236024
 40
0.0150489717
 40
0.0216949607
 40
0.0248528934
 40
0.0279250683
 40
0.0309332431
 40
0.033900678
 40
0.0368516944
 40
0.0398110551
 40
0.0428031977
 40
0.0458516535
 40
0.0489785758
 40
0.0522044011
 40
0.0555475926
 40
0.0590243169
 40
0.0664292471
 40
0.0703833206
 40
0.0745163139
 40
0.0788353706
 40
0.0833461987
 40
0.0880534528
 40
0.0929608954
 40
0.1033862516
 40
0.1146371248
 40
0.1267168622
 40
0.1396220127
 40
0.1533411132
 40
0.1678583221
 40
0.1831533191
 40
0.1992007845
 40
0.2159732764
 40
0.2334394197
 40
0.251565051
 40
0.2703144595
 40
0.2896485545
 40
0.30952696
 40
0.3299076028
 40
0.3719962453
 40
0.3936136553
 40
0.4155492206
 40
0.4377545268
 40
0.460179856
 40
0.5054886995
 40
0.5510704579
 40
0.5965157242
 40
0.6414164779
 40
0.6853711542
 40
0.727989498
 40
0.7486803415
 40
0.768898443
 40
0.788599933
 40
0.8077435844
 40
0.8262892533
 40
0.8441989135
 40
0.8614375703
 40
0.8779715823
 40
0.8937711472
 40
0.9088095833
 40
0.9230628308
 40
0.9365122406
 40
0.94914284
 40
0.9609458389
 40
0.9719210454
 40
0.9820751949
 40
0.9868497256
 40
0.9914259471
 40
0.9958077453
 40
1.0
 40
1.0
 40
1.0
 40
1.0
 10
10.8810471445
 20
10.9708779361
 30
0.0
 10
10.8797835834
 20
10.9696574297
 30
0.0
 10
10.878009036
 20
10.9677757092
 30
0.0
 10
10.8759239981
 20
10.9651267506
 30
0.0
 10
10.8741643446
 20
10.9625725796
 30
0.0
 10
10.8727234556
 20
10.9599440822
 30
0.0
 10
10.8716566634
 20
10.957262956
 30
0.0
 10
10.8710578554
 20
10.9552804335
 30
0.0
 10
10.8706476812
 20
10.9532939268
 30
0.0
 10
10.8704265893
 20
10.9513047406
 30
0.0
 10
10.8703950695
 20
10.9493144328
 30
0.0
 10
10.8705532211
 20
10.947324648
 30
0.0
 10
10.8709005579
 20
10.9453369994
 30
0.0
 10
10.871436546
 20
10.9433530037
 30
0.0
 10
10.8721605685
 20
10.9413740511
 30
0.0
 10
10.8730719967
 20
10.9394014469
 30
0.0
 10
10.8741702072
 20
10.9374363678
 30
0.0
 10
10.8759186489
 20
10.9347720224
 30
0.0
 10
10.8780152335
 20
10.9321834934
 30
0.0
 10
10.880408771
 20
10.9296722978
 30
0.0
 10
10.8824250598
 20
10.9277602723
 30
0.0
 10
10.8846215297
 20
10.9258621202
 30
0.0
 10
10.8869969468
 20
10.9239786457
 30
0.0
 10
10.8895498159
 20
10.922110936
 30
0.0
 10
10.8932636035
 20
10.9195922008
 30
0.0
 10
10.8983539643
 20
10.9165006195
 30
0.0
 10
10.9050248005
 20
10.9129425477
 30
0.0
 10
10.912360837
 20
10.9094728071
 30
0.0
 10
10.9203450122
 20
10.9061003013
 30
0.0
 10
10.9289584614
 20
10.9028322851
 30
0.0
 10
10.9381809382
 20
10.8996769512
 30
0.0
 10
10.9479905781
 20
10.8966421212
 30
0.0
 10
10.9583638913
 20
10.8937345715
 30
0.0
 10
10.9692761833
 20
10.8909619406
 30
0.0
 10
10.9807012607
 20
10.8883306808
 30
0.0
 10
10.9926117122
 20
10.8858469989
 30
0.0
 10
11.004978996
 20
10.8835174343
 30
0.0
 10
11.017773335
 20
10.8813471236
 30
0.0
 10
11.0309640261
 20
10.8793415236
 30
0.0
 10
11.0492337891
 20
10.8768673315
 30
0.0
 10
11.0679461759
 20
10.8747787126
 30
0.0
 10
11.0870425621
 20
10.8730578513
 30
0.0
 10
11.1017224844
 20
10.8719404151
 30
0.0
 10
11.116596675
 20
10.871010733
 30
0.0
 10
11.1367083524
 20
10.8700206635
 30
0.0
 10
11.1620693186
 20
10.8692691455
 30
0.0
 10
11.1925949386
 20
10.8691403582
 30
0.0
 10
11.2230228128
 20
10.8697831522
 30
0.0
 10
11.2530603557
 20
10.8711912491
 30
0.0
 10
11.2824187325
 20
10.8733508098
 30
0.0
 10
11.3063132256
 20
10.8757819207
 30
0.0
 10
11.3248698088
 20
10.8780985739
 30
0.0
 10
11.3383071476
 20
10.8799914282
 30
0.0
 10
11.3513691705
 20
10.8820525595
 30
0.0
 10
11.3640245251
 20
10.8842765236
 30
0.0
 10
11.3762427806
 20
10.8866580921
 30
0.0
 10
11.3879945528
 20
10.8891917298
 30
0.0
 10
11.3992516862
 20
10.8918707505
 30
0.0
 10
11.4099871355
 20
10.8946891608
 30
0.0
 10
11.4201752356
 20
10.8976399482
 30
0.0
 10
11.4297917338
 20
10.9007156993
 30
0.0
 10
11.4388135493
 20
10.903909628
 30
0.0
 10
11.4472193833
 20
10.907213313
 30
0.0
 10
11.4549893731
 20
10.9106189426
 30
0.0
 10
11.4621054641
 20
10.9141189823
 30
0.0
 10
11.4685514819
 20
10.9177048357
 30
0.0
 10
11.4734486577
 20
10.9208196059
 30
0.0
 10
11.4770048204
 20
10.9233552689
 30
0.0
 10
11.4794396666
 20
10.92523375
 30
0.0
 10
11.4816955555
 20
10.927126745
 30
0.0
 10
11.4831098343
 20
10.9284258716
 30
0.0
 10
11.4837848959
 20
10.9290779311
 30
0.0
  0
SPLINE
  5
3CF
100
AcDbEntity
  8
02___PRT_ALL_AXES
100
AcDbSpline
 62
7
  6
CONTINUOUS
 70
0
 71
3
 72
23
 73
19
 74
0
 42
0.0000001
 43
0.0000001
 44
0.0000000001
 40
0.0
 40
0.0
 40
0.0
 40
0.0
 40
0.0749595663
 40
0.1455624035
 40
0.2121533669
 40
0.2751573354
 40
0.3350914922
 40
0.3925761233
 40
0.448322978
 40
0.5031167381
 40
0.557788769
 40
0.6131796647
 40
0.6700951443
 40
0.7292746165
 40
0.7913685774
 40
0.8569119891
 40
0.9263389317
 40
1.0
 40
1.0
 40
1.0
 40
1.0
 10
11.483008922
 20
10.9716135372
 30
0.0
 10
11.4839097656
 20
10.9707751776
 30
0.0
 10
11.4856090691
 20
10.9690919649
 30
0.0
 10
11.4879019159
 20
10.9664658895
 30
0.0
 10
11.4898572187
 20
10.9638190887
 30
0.0
 10
11.491472111
 20
10.9611538607
 30
0.0
 10
11.4927433196
 20
10.9584722874
 30
0.0
 10
11.4936683072
 20
10.9557773578
 30
0.0
 10
11.4942448354
 20
10.9530726114
 30
0.0
 10
11.4944708372
 20
10.9503622637
 30
0.0
 10
11.4943448241
 20
10.9476512205
 30
0.0
 10
11.4938676241
 20
10.9449444858
 30
0.0
 10
11.4930411059
 20
10.9422463582
 30
0.0
 10
11.4918674472
 20
10.9395603982
 30
0.0
 10
11.4903490128
 20
10.936889901
 30
0.0
 10
11.4884894669
 20
10.9342373067
 30
0.0
 10
11.486292293
 20
10.9316053512
 30
0.0
 10
11.4846546751
 20
10.9299180733
 30
0.0
 10
11.4837848959
 20
10.9290779311
 30
0.0
  0
SPLINE
  5
3D0
100
AcDbEntity
  8
0
100
AcDbSpline
 62
7
  6
CONTINUOUS
 70
0
 71
3
 72
20
 73
16
 74
0
 42
0.0000001
 43
0.0000001
 44
0.0000000001
 40
0.0
 40
0.0
 40
0.0
 40
0.0
 40
0.1328004115
 40
0.2663282989
 40
0.3994288484
 40
0.4652765799
 40
0.530307737
 40
0.5942626159
 40
0.6569131493
 40
0.7180845183
 40
0.777666975
 40
0.8356165293
 40
0.89194577
 40
0.9467129545
 40
1.0
 40
1.0
 40
1.0
 40
1.0
 10
10.4566460902
 20
5.7293135224
 30
0.0
 10
10.4606408063
 20
5.7665516547
 30
0.0
 10
10.4679799973
 20
5.8413067993
 30
0.0
 10
10.4765034047
 20
5.9536393788
 30
0.0
 10
10.4810885773
 20
6.0473056864
 30
0.0
 10
10.4829738581
 20
6.1217309961
 30
0.0
 10
10.4834534225
 20
6.1766777833
 30
0.0
 10
10.482989524
 20
6.2307230585
 30
0.0
 10
10.4815949257
 20
6.2836635001
 30
0.0
 10
10.4793072422
 20
6.3353385306
 30
0.0
 10
10.4761839404
 20
6.3856414068
 30
0.0
 10
10.4722955643
 20
6.4345209556
 30
0.0
 10
10.4677187195
 20
6.4819765197
 30
0.0
 10
10.4625301143
 20
6.5280457539
 30
0.0
 10
10.4586612541
 20
6.5582734285
 30
0.0
 10
10.4566460902
 20
6.5731654803
 30
0.0
  0
SPLINE
  5
3D1
100
AcDbEntity
  8
0
100
AcDbSpline
 62
7
  6
CONTINUOUS
 70
0
 71
3
 72
22
 73
18
 74
0
 42
0.0000001
 43
0.0000001
 44
0.0000000001
 40
0.0
 40
0.0
 40
0.0
 40
0.0
 40
0.0578967657
 40
0.1168069543
 40
0.1767552214
 40
0.2377418336
 40
0.2997235166
 40
0.3626077374
 40
0.4262490722
 40
0.4904549483
 40
0.5550006938
 40
0.619651431
 40
0.684185502
 40
0.7484135876
 40
0.8121898087
 40
0.87541344
 40
1.0
 40
1.0
 40
1.0
 40
1.0
 10
10.3994366448
 20
6.6762226349
 30
0.0
 10
10.3869296897
 20
6.6875449531
 30
0.0
 10
10.3615167112
 20
6.7101898195
 30
0.0
 10
10.3224863515
 20
6.7438002916
 30
0.0
 10
10.2821549045
 20
6.7772671582
 30
0.0
 10
10.2404761771
 20
6.8104966927
 30
0.0
 10
10.1974367681
 20
6.8433739797
 30
0.0
 10
10.1530680378
 20
6.8757646732
 30
0.0
 10
10.1074518865
 20
6.9075225942
 30
0.0
 10
10.0607205738
 20
6.938500825
 30
0.0
 10
10.0130483127
 20
6.9685654497
 30
0.0
 10
9.9646357274
 20
6.9976086509
 30
0.0
 10
9.9156905206
 20
7.0255580151
 30
0.0
 10
9.8664090961
 20
7.0523800387
 30
0.0
 10
9.8169626481
 20
7.0780780922
 30
0.0
 10
9.751321406
 20
7.1107281404
 30
0.0
 10
9.7017341045
 20
7.1339068852
 30
0.0
 10
9.6686394122
 20
7.148829574
 30
0.0
  0
SPLINE
  5
3D2
100
AcDbEntity
  8
0
100
AcDbSpline
 62
7
  6
CONTINUOUS
 70
0
 71
3
 72
15
 73
11
 74
0
 42
0.0000001
 43
0.0000001
 44
0.0000000001
 40
0.0
 40
0.0
 40
0.0
 40
0.0
 40
0.1024584527
 40
0.2125880165
 40
0.3308751456
 40
0.4568384937
 40
0.5888694915
 40
0.7247080792
 40
0.8622415245
 40
1.0
 40
1.0
 40
1.0
 40
1.0
 10
9.5542205214
 20
7.1567645511
 30
0.0
 10
9.5285336897
 20
7.1456017582
 30
0.0
 10
9.4753991195
 20
7.1220648611
 30
0.0
 10
9.3932527553
 20
7.0842081401
 30
0.0
 10
9.3059127524
 20
7.042296369
 30
0.0
 10
9.2138769373
 20
6.9963608769
 30
0.0
 10
9.1182575321
 20
6.9468885311
 30
0.0
 10
9.0204898885
 20
6.894707214
 30
0.0
 10
8.9219157043
 20
6.8407275901
 30
0.0
 10
8.8562287737
 20
6.8040086243
 30
0.0
 10
8.8234232888
 20
6.7855195324
 30
0.0
  0
SPLINE
  5
3D3
100
AcDbEntity
  8
0
100
AcDbSpline
 62
7
  6
CONTINUOUS
 70
0
 71
3
 72
19
 73
15
 74
0
 42
0.0000001
 43
0.0000001
 44
0.0000000001
 40
0.0
 40
0.0
 40
0.0
 40
0.0
 40
0.1307115674
 40
0.2609268752
 40
0.3901025973
 40
0.4540950503
 40
0.5175739859
 40
0.580457627
 40
0.6426741367
 40
0.7041661724
 40
0.764894827
 40
0.8248387715
 40
0.8839940512
 40
1.0
 40
1.0
 40
1.0
 40
1.0
 10
8.540815597
 20
6.4726793545
 30
0.0
 10
8.5384370566
 20
6.4359575313
 30
0.0
 10
8.534122523
 20
6.3626241016
 30
0.0
 10
8.5292198783
 20
6.2529053851
 30
0.0
 10
8.5266485814
 20
6.1618955001
 30
0.0
 10
8.5256054636
 20
6.0896491443
 30
0.0
 10
8.5253423824
 20
6.0360589362
 30
0.0
 10
8.5256005554
 20
5.9829686958
 30
0.0
 10
8.5263759396
 20
5.9304429058
 30
0.0
 10
8.5276557567
 20
5.8785338753
 30
0.0
 10
8.5294193296
 20
5.8272792484
 30
0.0
 10
8.5316407189
 20
5.7767009056
 30
0.0
 10
8.5351495414
 20
5.7106049786
 30
0.0
 10
8.5384042753
 20
5.6613970084
 30
0.0
 10
8.540815597
 20
5.6288273966
 30
0.0
  0
SPLINE
  5
3D4
100
AcDbEntity
  8
0
100
AcDbSpline
 62
7
  6
CONTINUOUS
 70
0
 71
3
 72
21
 73
17
 74
0
 42
0.0000001
 43
0.0000001
 44
0.0000000001
 40
0.0
 40
0.0
 40
0.0
 40
0.0
 40
0.1211301163
 40
0.1823712755
 40
0.2440509723
 40
0.306143678
 40
0.3686104373
 40
0.4313997375
 40
0.4944481226
 40
0.5576847246
 40
0.6210354942
 40
0.6844273845
 40
0.7477936645
 40
0.8110760547
 40
0.8742266982
 40
1.0
 40
1.0
 40
1.0
 40
1.0
 10
8.5980250425
 20
5.5257702419
 30
0.0
 10
8.6256864104
 20
5.504014107
 30
0.0
 10
8.6676388162
 20
5.4716437096
 30
0.0
 10
8.7244555832
 20
5.4292239328
 30
0.0
 10
8.7678876232
 20
5.3975523299
 30
0.0
 10
8.8119816102
 20
5.3661905123
 30
0.0
 10
8.8567231059
 20
5.3351897657
 30
0.0
 10
8.9020833776
 20
5.3046021192
 30
0.0
 10
8.9480193585
 20
5.2744762113
 30
0.0
 10
8.9944756352
 20
5.2448544951
 30
0.0
 10
9.0413884249
 20
5.215771459
 30
0.0
 10
9.0886890115
 20
5.1872506198
 30
0.0
 10
9.1363076642
 20
5.1593035566
 30
0.0
 10
9.1841781289
 20
5.1319310893
 30
0.0
 10
9.2481714243
 20
5.0962372784
 30
0.0
 10
9.2965028381
 20
5.0702132842
 30
0.0
 10
9.328822275
 20
5.0531633028
 30
0.0
  0
SPLINE
  5
3D5
100
AcDbEntity
  8
0
100
AcDbSpline
 62
7
  6
CONTINUOUS
 70
0
 71
3
 72
15
 73
11
 74
0
 42
0.0000001
 43
0.0000001
 44
0.0000000001
 40
0.0
 40
0.0
 40
0.0
 40
0.0
 40
0.1128124416
 40
0.2295614621
 40
0.3503736449
 40
0.4750619961
 40
0.6031117921
 40
0.7337880193
 40
0.866309584
 40
1.0
 40
1.0
 40
1.0
 40
1.0
 10
9.4432411658
 20
5.0452283258
 30
0.0
 10
9.4711598037
 20
5.0583025504
 30
0.0
 10
9.5278774609
 20
5.085108226
 30
0.0
 10
9.6141255375
 20
5.1266884379
 30
0.0
 10
9.7029384312
 20
5.1704143197
 30
0.0
 10
9.794136811
 20
5.2162782004
 30
0.0
 10
9.8873527481
 20
5.2641217741
 30
0.0
 10
9.9820992585
 20
5.3136639578
 30
0.0
 10
10.0778727481
 20
5.3645628578
 30
0.0
 10
10.1419169139
 20
5.3990687823
 30
0.0
 10
10.1740383984
 20
5.4164733445
 30
0.0
  0
SPLINE
  5
3D6
100
AcDbEntity
  8
0
100
AcDbSpline
 62
7
  6
CONTINUOUS
 70
0
 71
3
 72
64
 73
60
 74
0
 42
0.0000001
 43
0.0000001
 44
0.0000000001
 40
0.0
 40
0.0
 40
0.0
 40
0.0
 40
0.0311830674
 40
0.0467008478
 40
0.0621656035
 40
0.077580314
 40
0.0929469982
 40
0.1082676194
 40
0.1235450534
 40
0.1387827119
 40
0.1539843784
 40
0.169154114
 40
0.1842963866
 40
0.1994159176
 40
0.2145177079
 40
0.2296068972
 40
0.2446888078
 40
0.2597688009
 40
0.2748522991
 40
0.289944644
 40
0.3050511237
 40
0.320176829
 40
0.3353266945
 40
0.3505053557
 40
0.3657171944
 40
0.3809661934
 40
0.3962560015
 40
0.4115897884
 40
0.4269703324
 40
0.4423998859
 40
0.4578802676
 40
0.4734127351
 40
0.4889980873
 40
0.5046365524
 40
0.5203278953
 40
0.5360713376
 40
0.551865648
 40
0.5677090891
 40
0.5835994915
 40
0.5995342345
 40
0.6155103003
 40
0.6315243016
 40
0.6475725053
 40
0.6636508895
 40
0.6797551433
 40
0.6958807523
 40
0.7120229781
 40
0.7281769781
 40
0.7443377676
 40
0.7605003478
 40
0.7766596612
 40
0.7928107186
 40
0.8089485556
 40
0.841156923
 40
0.8732567742
 40
0.9052155383
 40
0.9370054028
 40
0.968605258
 40
1.0
 40
1.0
 40
1.0
 40
1.0
 10
9.368399084
 20
6.8058018782
 30
0.0
 10
9.3413178585
 20
6.8076799676
 30
0.0
 10
9.3005844003
 20
6.8085171434
 30
0.0
 10
9.2465297893
 20
6.8056025031
 30
0.0
 10
9.2063376942
 20
6.801419615
 30
0.0
 10
9.1665378426
 20
6.7952448382
 30
0.0
 10
9.127222436
 20
6.7870953174
 30
0.0
 10
9.0884877299
 20
6.7769879322
 30
0.0
 10
9.0504267621
 20
6.7649491192
 30
0.0
 10
9.013131802
 20
6.7510060314
 30
0.0
 10
8.9766920886
 20
6.7351938946
 30
0.0
 10
8.9411961524
 20
6.7175492287
 30
0.0
 10
8.9067290597
 20
6.6981157793
 30
0.0
 10
8.873374481
 20
6.6769393522
 30
0.0
 10
8.8412124277
 20
6.6540717672
 30
0.0
 10
8.8103208444
 20
6.6295675931
 30
0.0
 10
8.7807740465
 20
6.6034862453
 30
0.0
 10
8.7526433614
 20
6.575890501
 30
0.0
 10
8.7259967554
 20
6.5468468547
 30
0.0
 10
8.7008981758
 20
6.5164256039
 30
0.0
 10
8.6774086675
 20
6.4846997598
 30
0.0
 10
8.655584102
 20
6.4517463772
 30
0.0
 10
8.6354780552
 20
6.417644355
 30
0.0
 10
8.6171377436
 20
6.3824766315
 30
0.0
 10
8.6006087661
 20
6.3463273261
 30
0.0
 10
8.585929239
 20
6.3092843467
 30
0.0
 10
8.5731363495
 20
6.2714363265
 30
0.0
 10
8.5622587728
 20
6.2328751997
 30
0.0
 10
8.5533248891
 20
6.1936933387
 30
0.0
 10
8.5463537266
 20
6.1539857083
 30
0.0
 10
8.541364509
 20
6.1138475919
 30
0.0
 10
8.5383665362
 20
6.0733760068
 30
0.0
 10
8.5373696156
 20
6.0326682906
 30
0.0
 10
8.5383733352
 20
5.99182256
 30
0.0
 10
8.5413778853
 20
5.950937287
 30
0.0
 10
8.546373279
 20
5.9101107306
 30
0.0
 10
8.5533499729
 20
5.8694415207
 30
0.0
 10
8.5622886175
 20
5.8290271481
 30
0.0
 10
8.5731699471
 20
5.7889654255
 30
0.0
 10
8.5859655119
 20
5.7493522137
 30
0.0
 10
8.6006464369
 20
5.710283508
 30
0.0
 10
8.6171755177
 20
5.6718526893
 30
0.0
 10
8.6355145047
 20
5.6341529178
 30
0.0
 10
8.6556178291
 20
5.5972742795
 30
0.0
 10
8.6774382257
 20
5.5613061353
 30
0.0
 10
8.7009221926
 20
5.5263345146
 30
0.0
 10
8.7260138981
 20
5.4924440412
 30
0.0
 10
8.7526524178
 20
5.4597159467
 30
0.0
 10
8.7807739056
 20
5.4282292187
 30
0.0
 10
8.810310626
 20
5.39805954
 30
0.0
 10
8.8411911563
 20
5.3692795969
 30
0.0
 10
8.8733423883
 20
5.3419583105
 30
0.0
 10
8.9177634848
 20
5.3075905174
 30
0.0
 10
8.9760625791
 20
5.2685924775
 30
0.0
 10
9.0498277708
 20
5.2285716511
 30
0.0
 10
9.1266657139
 20
5.1957287431
 30
0.0
 10
9.2058383333
 20
5.1703831852
 30
0.0
 10
9.2865759571
 20
5.1527813082
 30
0.0
 10
9.3411340277
 20
5.1463001966
 30
0.0
 10
9.368399084
 20
5.1444093586
 30
0.0
  0
SPLINE
  5
3D7
100
AcDbEntity
  8
0
100
AcDbSpline
 62
7
  6
CONTINUOUS
 70
0
 71
3
 72
64
 73
60
 74
0
 42
0.0000001
 43
0.0000001
 44
0.0000000001
 40
0.0
 40
0.0
 40
0.0
 40
0.0
 40
0.0311830674
 40
0.0467008478
 40
0.0621656035
 40
0.077580314
 40
0.0929469982
 40
0.1082676194
 40
0.1235450534
 40
0.1387827119
 40
0.1539843784
 40
0.169154114
 40
0.1842963866
 40
0.1994159176
 40
0.2145177079
 40
0.2296068972
 40
0.2446888078
 40
0.2597688009
 40
0.2748522991
 40
0.289944644
 40
0.3050511237
 40
0.320176829
 40
0.3353266945
 40
0.3505053557
 40
0.3657171944
 40
0.3809661934
 40
0.3962560015
 40
0.4115897884
 40
0.4269703324
 40
0.4423998859
 40
0.4578802676
 40
0.4734127351
 40
0.4889980873
 40
0.5046365524
 40
0.5203278953
 40
0.5360713376
 40
0.551865648
 40
0.5677090891
 40
0.5835994915
 40
0.5995342345
 40
0.6155103003
 40
0.6315243016
 40
0.6475725053
 40
0.6636508895
 40
0.6797551433
 40
0.6958807523
 40
0.7120229781
 40
0.7281769781
 40
0.7443377676
 40
0.7605003478
 40
0.7766596612
 40
0.7928107186
 40
0.8089485556
 40
0.841156923
 40
0.8732567742
 40
0.9052155383
 40
0.9370054028
 40
0.968605258
 40
1.0
 40
1.0
 40
1.0
 40
1.0
 10
9.368399084
 20
5.1444093586
 30
0.0
 10
9.3954803095
 20
5.1425312692
 30
0.0
 10
9.4362137678
 20
5.1416940934
 30
0.0
 10
9.4902683787
 20
5.1446087337
 30
0.0
 10
9.5304604738
 20
5.1487916218
 30
0.0
 10
9.5702603254
 20
5.1549663986
 30
0.0
 10
9.6095757321
 20
5.1631159193
 30
0.0
 10
9.6483104381
 20
5.1732233046
 30
0.0
 10
9.686371406
 20
5.1852621175
 30
0.0
 10
9.723666366
 20
5.1992052054
 30
0.0
 10
9.7601060794
 20
5.2150173421
 30
0.0
 10
9.7956020156
 20
5.2326620081
 30
0.0
 10
9.8300691083
 20
5.2520954575
 30
0.0
 10
9.863423687
 20
5.2732718846
 30
0.0
 10
9.8955857403
 20
5.2961394696
 30
0.0
 10
9.9264773236
 20
5.3206436437
 30
0.0
 10
9.9560241215
 20
5.3467249915
 30
0.0
 10
9.9841548066
 20
5.3743207358
 30
0.0
 10
10.0108014127
 20
5.4033643821
 30
0.0
 10
10.0358999922
 20
5.4337856329
 30
0.0
 10
10.0593895005
 20
5.465511477
 30
0.0
 10
10.0812140661
 20
5.4984648596
 30
0.0
 10
10.1013201128
 20
5.5325668818
 30
0.0
 10
10.1196604245
 20
5.5677346053
 30
0.0
 10
10.1361894019
 20
5.6038839106
 30
0.0
 10
10.150868929
 20
5.6409268901
 30
0.0
 10
10.1636618186
 20
5.6787749103
 30
0.0
 10
10.1745393952
 20
5.7173360371
 30
0.0
 10
10.183473279
 20
5.7565178981
 30
0.0
 10
10.1904444414
 20
5.7962255285
 30
0.0
 10
10.1954336591
 20
5.8363636449
 30
0.0
 10
10.1984316319
 20
5.8768352299
 30
0.0
 10
10.1994285525
 20
5.9175429462
 30
0.0
 10
10.1984248328
 20
5.9583886767
 30
0.0
 10
10.1954202828
 20
5.9992739498
 30
0.0
 10
10.190424889
 20
6.0401005062
 30
0.0
 10
10.1834481951
 20
6.080769716
 30
0.0
 10
10.1745095505
 20
6.1211840886
 30
0.0
 10
10.163628221
 20
6.1612458113
 30
0.0
 10
10.1508326562
 20
6.2008590231
 30
0.0
 10
10.1361517312
 20
6.2399277287
 30
0.0
 10
10.1196226503
 20
6.2783585475
 30
0.0
 10
10.1012836633
 20
6.316058319
 30
0.0
 10
10.0811803389
 20
6.3529369572
 30
0.0
 10
10.0593599423
 20
6.3889051015
 30
0.0
 10
10.0358759755
 20
6.4238767222
 30
0.0
 10
10.01078427
 20
6.4577671956
 30
0.0
 10
9.9841457502
 20
6.4904952901
 30
0.0
 10
9.9560242625
 20
6.5219820181
 30
0.0
 10
9.9264875421
 20
6.5521516968
 30
0.0
 10
9.8956070118
 20
6.5809316398
 30
0.0
 10
9.8634557797
 20
6.6082529263
 30
0.0
 10
9.8190346832
 20
6.6426207194
 30
0.0
 10
9.760735589
 20
6.6816187593
 30
0.0
 10
9.6869703973
 20
6.7216395857
 30
0.0
 10
9.6101324541
 20
6.7544824937
 30
0.0
 10
9.5309598347
 20
6.7798280516
 30
0.0
 10
9.4502222109
 20
6.7974299285
 30
0.0
 10
9.3956641403
 20
6.8039110401
 30
0.0
 10
9.368399084
 20
6.8058018782
 30
0.0
  0
SPLINE
  5
3D8
100
AcDbEntity
  8
0
100
AcDbSpline
 62
7
  6
CONTINUOUS
 70
0
 71
3
 72
19
 73
15
 74
0
 42
0.0000001
 43
0.0000001
 44
0.0000000001
 40
0.0
 40
0.0
 40
0.0
 40
0.0
 40
0.1160059488
 40
0.1751612285
 40
0.235105173
 40
0.2958338276
 40
0.3573258634
 40
0.419542373
 40
0.4824260141
 40
0.5459049497
 40
0.6098974028
 40
0.7390731248
 40
0.8692884326
 40
1.0
 40
1.0
 40
1.0
 40
1.0
 10
10.2312478438
 20
5.5115955221
 30
0.0
 10
10.228836522
 20
5.5441651339
 30
0.0
 10
10.2255817881
 20
5.5933731041
 30
0.0
 10
10.2220729656
 20
5.6594690311
 30
0.0
 10
10.2198515764
 20
5.7100473739
 30
0.0
 10
10.2180880035
 20
5.7613020009
 30
0.0
 10
10.2168081863
 20
5.8132110314
 30
0.0
 10
10.2160328022
 20
5.8657368214
 30
0.0
 10
10.2157746291
 20
5.9188270618
 30
0.0
 10
10.2160377104
 20
5.9724172699
 30
0.0
 10
10.2170808281
 20
6.0446636256
 30
0.0
 10
10.219652125
 20
6.1356735106
 30
0.0
 10
10.2245547698
 20
6.2453922271
 30
0.0
 10
10.2288693034
 20
6.3187256568
 30
0.0
 10
10.2312478438
 20
6.35544748
 30
0.0
  0
SPLINE
  5
3D9
100
AcDbEntity
  8
0
100
AcDbSpline
 62
7
  6
CONTINUOUS
 70
0
 71
3
 72
21
 73
17
 74
0
 42
0.0000001
 43
0.0000001
 44
0.0000000001
 40
0.0
 40
0.0
 40
0.0
 40
0.0
 40
0.1257733018
 40
0.1889239453
 40
0.2522063355
 40
0.3155726155
 40
0.3789645059
 40
0.4423152755
 40
0.5055518774
 40
0.5686002626
 40
0.6313895627
 40
0.693856322
 40
0.7559490278
 40
0.8176287245
 40
0.8788698837
 40
1.0
 40
1.0
 40
1.0
 40
1.0
 10
10.1740383984
 20
6.4585046346
 30
0.0
 10
10.1417189615
 20
6.475554616
 30
0.0
 10
10.0933875477
 20
6.5015786102
 30
0.0
 10
10.0293942522
 20
6.5372724211
 30
0.0
 10
9.9815237876
 20
6.5646448884
 30
0.0
 10
9.9339051348
 20
6.5925919517
 30
0.0
 10
9.8866045482
 20
6.6211127908
 30
0.0
 10
9.8396917586
 20
6.6501958269
 30
0.0
 10
9.7932354818
 20
6.6798175431
 30
0.0
 10
9.747299501
 20
6.709943451
 30
0.0
 10
9.7019392293
 20
6.7405310976
 30
0.0
 10
9.6571977335
 20
6.7715318441
 30
0.0
 10
9.6131037465
 20
6.8028936617
 30
0.0
 10
9.5696717065
 20
6.8345652647
 30
0.0
 10
9.5128549396
 20
6.8769850414
 30
0.0
 10
9.4709025337
 20
6.9093554389
 30
0.0
 10
9.4432411658
 20
6.9311115738
 30
0.0
  0
SPLINE
  5
3DA
100
AcDbEntity
  8
0
100
AcDbSpline
 62
7
  6
CONTINUOUS
 70
0
 71
3
 72
15
 73
11
 74
0
 42
0.0000001
 43
0.0000001
 44
0.0000000001
 40
0.0
 40
0.0
 40
0.0
 40
0.0
 40
0.133690416
 40
0.2662119808
 40
0.3968882079
 40
0.524938004
 40
0.6496263551
 40
0.770438538
 40
0.8871875584
 40
1.0
 40
1.0
 40
1.0
 40
1.0
 10
9.328822275
 20
6.9390465508
 30
0.0
 10
9.2967007906
 20
6.9216419887
 30
0.0
 10
9.2326566247
 20
6.8871360641
 30
0.0
 10
9.1368831351
 20
6.8362371641
 30
0.0
 10
9.0421366247
 20
6.7866949804
 30
0.0
 10
8.9489206876
 20
6.7388514067
 30
0.0
 10
8.8577223078
 20
6.692987526
 30
0.0
 10
8.7689094141
 20
6.6492616442
 30
0.0
 10
8.6826613375
 20
6.6076814323
 30
0.0
 10
8.6259436804
 20
6.5808757567
 30
0.0
 10
8.5980250425
 20
6.5678015321
 30
0.0
  0
SPLINE
  5
3DB
100
AcDbEntity
  8
0
100
AcDbSpline
 62
7
  6
CONTINUOUS
 70
0
 71
3
 72
15
 73
11
 74
0
 42
0.0000001
 43
0.0000001
 44
0.0000000001
 40
0.0
 40
0.0
 40
0.0
 40
0.0
 40
0.1259387151
 40
0.2515500552
 40
0.3768604883
 40
0.5018988711
 40
0.6266970376
 40
0.7512889617
 40
0.8757107437
 40
1.0
 40
1.0
 40
1.0
 40
1.0
 10
11.6334098522
 20
6.9651107403
 30
0.0
 10
11.6211752625
 20
6.9619225474
 30
0.0
 10
11.5968883266
 20
6.9549596728
 30
0.0
 10
11.561060035
 20
6.9427610656
 30
0.0
 10
11.5259574022
 20
6.9288498508
 30
0.0
 10
11.4916594392
 20
6.9132550235
 30
0.0
 10
11.4582405574
 20
6.896012534
 30
0.0
 10
11.4257749237
 20
6.8771583565
 30
0.0
 10
11.3943339288
 20
6.8567363176
 30
0.0
 10
11.3740920369
 20
6.8420970643
 30
0.0
 10
11.3641679619
 20
6.8345338171
 30
0.0
  0
SPLINE
  5
3DC
100
AcDbEntity
  8
0
100
AcDbSpline
 62
7
  6
CONTINUOUS
 70
0
 71
3
 72
35
 73
31
 74
0
 42
0.0000001
 43
0.0000001
 44
0.0000000001
 40
0.0
 40
0.0
 40
0.0
 40
0.0
 40
0.0612906693
 40
0.1229878739
 40
0.1539915337
 40
0.1850872977
 40
0.2162696171
 40
0.2475327476
 40
0.2788701874
 40
0.3102745649
 40
0.3417379897
 40
0.3732520333
 40
0.4048078488
 40
0.4363961973
 40
0.468007577
 40
0.4996322754
 40
0.5312604555
 40
0.562882252
 40
0.5944878596
 40
0.6260676278
 40
0.6576121068
 40
0.6891121837
 40
0.720559106
 40
0.7519446068
 40
0.7832608858
 40
0.8145009644
 40
0.845658577
 40
0.8767276093
 40
0.9385638178
 40
1.0
 40
1.0
 40
1.0
 40
1.0
 10
12.7180396502
 20
6.1056101418
 30
0.0
 10
12.7180396502
 20
6.1327176674
 30
0.0
 10
12.7153581289
 20
6.1871463477
 30
0.0
 10
12.7054257249
 20
6.2546353005
 30
0.0
 10
12.6935964586
 20
6.3081126322
 30
0.0
 10
12.6827791362
 20
6.3479423997
 30
0.0
 10
12.6700573242
 20
6.3873249814
 30
0.0
 10
12.6554622157
 20
6.4261667309
 30
0.0
 10
12.6390288958
 20
6.4643739473
 30
0.0
 10
12.6207967635
 20
6.5018546636
 30
0.0
 10
12.6008101992
 20
6.5385188469
 30
0.0
 10
12.5791166678
 20
6.5742778667
 30
0.0
 10
12.555769341
 20
6.6090462348
 30
0.0
 10
12.5308233397
 20
6.6427395222
 30
0.0
 10
12.5043399489
 20
6.6752775536
 30
0.0
 10
12.4763816367
 20
6.7065809565
 30
0.0
 10
12.4470170092
 20
6.7365755434
 30
0.0
 10
12.4163155061
 20
6.7651878906
 30
0.0
 10
12.3843521648
 20
6.7923503364
 30
0.0
 10
12.3512029192
 20
6.8179963297
 30
0.0
 10
12.3169483725
 20
6.842065169
 30
0.0
 10
12.2816703317
 20
6.8644980116
 30
0.0
 10
12.2454541333
 20
6.8852414822
 30
0.0
 10
12.2083867345
 20
6.9042451745
 30
0.0
 10
12.1705573695
 20
6.9214635073
 30
0.0
 10
12.1320573016
 20
6.9368550722
 30
0.0
 10
12.0929780248
 20
6.9503823364
 30
0.0
 10
12.040318935
 20
6.9658638409
 30
0.0
 10
11.9735183122
 20
6.9804283849
 30
0.0
 10
11.9192797964
 20
6.9868709562
 30
0.0
 10
11.8921730198
 20
6.9887508175
 30
0.0
  0
SPLINE
  5
3DD
100
AcDbEntity
  8
0
100
AcDbSpline
 62
7
  6
CONTINUOUS
 70
0
 71
3
 72
16
 73
12
 74
0
 42
0.0000001
 43
0.0000001
 44
0.0000000001
 40
0.0
 40
0.0
 40
0.0
 40
0.0
 40
0.1236450025
 40
0.1855976618
 40
0.2476386809
 40
0.3719893701
 40
0.496733349
 40
0.6218884842
 40
0.7474788994
 40
0.8735266243
 40
1.0
 40
1.0
 40
1.0
 40
1.0
 10
12.6485618384
 20
5.7788694387
 30
0.0
 10
12.6542756535
 20
5.7915081363
 30
0.0
 10
12.6623382635
 20
5.8107182062
 30
0.0
 10
12.672042212
 20
5.8367503982
 30
0.0
 10
12.6810669847
 20
5.8631101566
 30
0.0
 10
12.6910355234
 20
5.896577882
 30
0.0
 10
12.7008572789
 20
5.9374154687
 30
0.0
 10
12.7085230451
 20
5.9788538257
 30
0.0
 10
12.7140122375
 20
6.0207837259
 30
0.0
 10
12.7173087001
 20
6.0630896917
 30
0.0
 10
12.7180396502
 20
6.0914225911
 30
0.0
 10
12.7180396502
 20
6.1056101418
 30
0.0
  0
SPLINE
  5
3DE
100
AcDbEntity
  8
0
100
AcDbSpline
 62
7
  6
CONTINUOUS
 70
0
 71
3
 72
22
 73
18
 74
0
 42
0.0000001
 43
0.0000001
 44
0.0000000001
 40
0.0
 40
0.0
 40
0.0
 40
0.0
 40
0.0662627889
 40
0.1328022627
 40
0.1995323899
 40
0.2663327743
 40
0.3994321266
 40
0.4652792355
 40
0.5303098426
 40
0.5942641163
 40
0.6569139169
 40
0.7180845853
 40
0.777666605
 40
0.8356161461
 40
0.8919456067
 40
0.9467124961
 40
1.0
 40
1.0
 40
1.0
 40
1.0
 10
12.6299793281
 20
5.5785923504
 30
0.0
 10
12.6319725609
 20
5.5971729616
 30
0.0
 10
12.6357997264
 20
5.634430035
 30
0.0
 10
12.6409899992
 20
5.6904625964
 30
0.0
 10
12.6455707136
 20
5.7467008974
 30
0.0
 10
12.6507570518
 20
5.8217171383
 30
0.0
 10
12.6544218058
 20
5.8965853646
 30
0.0
 10
12.6563072094
 20
5.9710101821
 30
0.0
 10
12.6567867969
 20
6.0259567236
 30
0.0
 10
12.6563228714
 20
6.0800016853
 30
0.0
 10
12.6549282085
 20
6.1329417733
 30
0.0
 10
12.6526404783
 20
6.1846164891
 30
0.0
 10
12.6495172149
 20
6.2349192531
 30
0.0
 10
12.6456288949
 20
6.2837989469
 30
0.0
 10
12.6410520334
 20
6.3312546848
 30
0.0
 10
12.6358633692
 20
6.3773242158
 30
0.0
 10
12.6319945178
 20
6.4075520662
 30
0.0
 10
12.6299793281
 20
6.4224443083
 30
0.0
  0
SPLINE
  5
3DF
100
AcDbEntity
  8
0
100
AcDbSpline
 62
7
  6
CONTINUOUS
 70
0
 71
3
 72
22
 73
18
 74
0
 42
0.0000001
 43
0.0000001
 44
0.0000000001
 40
0.0
 40
0.0
 40
0.0
 40
0.0
 40
0.0578974882
 40
0.1168076123
 40
0.1767563582
 40
0.2377431684
 40
0.2997246356
 40
0.362608436
 40
0.4262493434
 40
0.4904549021
 40
0.5550003489
 40
0.6196506978
 40
0.6841843697
 40
0.7484122155
 40
0.8121886095
 40
0.8754127419
 40
1.0
 40
1.0
 40
1.0
 40
1.0
 10
12.5727698827
 20
6.5255014629
 30
0.0
 10
12.5602627714
 20
6.5368239225
 30
0.0
 10
12.5348496239
 20
6.5594688879
 30
0.0
 10
12.4958190336
 20
6.5930795999
 30
0.0
 10
12.455487449
 20
6.626546582
 30
0.0
 10
12.4138085622
 20
6.6597761333
 30
0.0
 10
12.3707692293
 20
6.6926533092
 30
0.0
 10
12.3264007959
 20
6.7250438835
 30
0.0
 10
12.2807849787
 20
6.7568016914
 30
0.0
 10
12.2340539426
 20
6.7877797911
 30
0.0
 10
12.1863819045
 20
6.8178442229
 30
0.0
 10
12.1379695402
 20
6.8468871787
 30
0.0
 10
12.0890245559
 20
6.8748363286
 30
0.0
 10
12.0397432704
 20
6.9016583231
 30
0.0
 10
11.9902967484
 20
6.9273565106
 30
0.0
 10
11.9246551404
 20
6.9600067234
 30
0.0
 10
11.8750675282
 20
6.9831856295
 30
0.0
 10
11.8419726501
 20
6.9981084021
 30
0.0
  0
SPLINE
  5
3E0
100
AcDbEntity
  8
0
100
AcDbSpline
 62
7
  6
CONTINUOUS
 70
0
 71
3
 72
15
 73
11
 74
0
 42
0.0000001
 43
0.0000001
 44
0.0000000001
 40
0.0
 40
0.0
 40
0.0
 40
0.0
 40
0.1024590394
 40
0.2125892926
 40
0.3308757892
 40
0.4568382862
 40
0.5888686932
 40
0.7247066359
 40
0.8622407571
 40
1.0
 40
1.0
 40
1.0
 40
1.0
 10
11.7275537593
 20
7.0060433791
 30
0.0
 10
11.7018667805
 20
6.9948805223
 30
0.0
 10
11.6487318897
 20
6.9713434874
 30
0.0
 10
11.5665853812
 20
6.9334866587
 30
0.0
 10
11.4792455691
 20
6.8915749926
 30
0.0
 10
11.3872102296
 20
6.8456398165
 30
0.0
 10
11.2915913641
 20
6.796167668
 30
0.0
 10
11.1938238571
 20
6.7439864207
 30
0.0
 10
11.0952494676
 20
6.690006717
 30
0.0
 10
11.0295621944
 20
6.6532875553
 30
0.0
 10
10.9967565268
 20
6.6347983604
 30
0.0
  0
SPLINE
  5
3E1
100
AcDbEntity
  8
0
100
AcDbSpline
 62
7
  6
CONTINUOUS
 70
0
 71
3
 72
20
 73
16
 74
0
 42
0.0000001
 43
0.0000001
 44
0.0000000001
 40
0.0
 40
0.0
 40
0.0
 40
0.0
 40
0.1307118504
 40
0.2609271596
 40
0.3256853614
 40
0.3901038075
 40
0.4540959115
 40
0.5175746912
 40
0.5804579524
 40
0.6426740239
 40
0.7041660739
 40
0.7648946165
 40
0.8248383834
 40
0.8839938085
 40
1.0
 40
1.0
 40
1.0
 40
1.0
 10
10.714148835
 20
6.3219581825
 30
0.0
 10
10.7117702865
 20
6.2852362348
 30
0.0
 10
10.7074556876
 20
6.2119027923
 30
0.0
 10
10.7033627931
 20
6.1203011152
 30
0.0
 10
10.701002519
 20
6.0473126752
 30
0.0
 10
10.6997187615
 20
5.9929448904
 30
0.0
 10
10.6989387023
 20
5.9389277343
 30
0.0
 10
10.698675466
 20
5.8853377364
 30
0.0
 10
10.6989338087
 20
5.8322476983
 30
0.0
 10
10.6997092563
 20
5.7797220739
 30
0.0
 10
10.7009889106
 20
5.7278131261
 30
0.0
 10
10.7027525148
 20
5.6765585144
 30
0.0
 10
10.704973971
 20
5.6259801534
 30
0.0
 10
10.7084827288
 20
5.5598840824
 30
0.0
 10
10.7117375052
 20
5.5106759445
 30
0.0
 10
10.714148835
 20
5.4781062246
 30
0.0
  0
SPLINE
  5
3E2
100
AcDbEntity
  8
0
100
AcDbSpline
 62
7
  6
CONTINUOUS
 70
0
 71
3
 72
21
 73
17
 74
0
 42
0.0000001
 43
0.0000001
 44
0.0000000001
 40
0.0
 40
0.0
 40
0.0
 40
0.0
 40
0.1211305215
 40
0.1823718855
 40
0.2440515074
 40
0.3061441797
 40
0.3686109568
 40
0.4313999269
 40
0.4944480864
 40
0.5576845339
 40
0.6210350022
 40
0.684426846
 40
0.7477930962
 40
0.8110754374
 40
0.8742262746
 40
1.0
 40
1.0
 40
1.0
 40
1.0
 10
10.7713582804
 20
5.37504907
 30
0.0
 10
10.7990197409
 20
5.3532928622
 30
0.0
 10
10.8409722624
 20
5.3209223233
 30
0.0
 10
10.8977892107
 20
5.2785025295
 30
0.0
 10
10.9412212222
 20
5.2468308407
 30
0.0
 10
10.9853151636
 20
5.2154690023
 30
0.0
 10
11.0300566986
 20
5.1844684883
 30
0.0
 10
11.0754167926
 20
5.1538808606
 30
0.0
 10
11.1213524703
 20
5.1237548644
 30
0.0
 10
11.1678087107
 20
5.094133457
 30
0.0
 10
11.2147214175
 20
5.0650505673
 30
0.0
 10
11.2620218017
 20
5.0365296046
 30
0.0
 10
11.3096404462
 20
5.008582597
 30
0.0
 10
11.3575109809
 20
4.9812101856
 30
0.0
 10
11.4215043756
 20
4.9455162137
 30
0.0
 10
11.4698359671
 20
4.9194921697
 30
0.0
 10
11.5021555129
 20
4.9024421308
 30
0.0
  0
SPLINE
  5
3E3
100
AcDbEntity
  8
0
100
AcDbSpline
 62
7
  6
CONTINUOUS
 70
0
 71
3
 72
15
 73
11
 74
0
 42
0.0000001
 43
0.0000001
 44
0.0000000001
 40
0.0
 40
0.0
 40
0.0
 40
0.0
 40
0.1128128137
 40
0.2295619377
 40
0.3503742146
 40
0.4750618339
 40
0.6031113457
 40
0.7337873942
 40
0.8663091291
 40
1.0
 40
1.0
 40
1.0
 40
1.0
 10
11.6165744038
 20
4.8945071538
 30
0.0
 10
11.6444931338
 20
4.9075814216
 30
0.0
 10
11.7012109062
 20
4.9343871571
 30
0.0
 10
11.7874591386
 20
4.9759674051
 30
0.0
 10
11.8762718581
 20
5.0196933095
 30
0.0
 10
11.9674700803
 20
5.0655569432
 30
0.0
 10
12.0606856592
 20
5.1134005002
 30
0.0
 10
12.1554321429
 20
5.1629425618
 30
0.0
 10
12.2512057236
 20
5.2138415508
 30
0.0
 10
12.3152500426
 20
5.2483475512
 30
0.0
 10
12.3473716363
 20
5.2657521725
 30
0.0
  0
SPLINE
  5
3E4
100
AcDbEntity
  8
0
100
AcDbSpline
 62
7
  6
CONTINUOUS
 70
0
 71
3
 72
15
 73
11
 74
0
 42
0.0000001
 43
0.0000001
 44
0.0000000001
 40
0.0
 40
0.0
 40
0.0
 40
0.0
 40
0.1235752096
 40
0.2474950402
 40
0.3717979941
 40
0.4965172206
 40
0.6216760548
 40
0.7472994836
 40
0.8734166375
 40
1.0
 40
1.0
 40
1.0
 40
1.0
 10
12.6470480053
 20
5.7638408946
 30
0.0
 10
12.6537206785
 20
5.7772782188
 30
0.0
 10
12.6662916747
 20
5.8045924274
 30
0.0
 10
12.6827300616
 20
5.8466579845
 30
0.0
 10
12.6967273841
 20
5.8897450759
 30
0.0
 10
12.7082375835
 20
5.9337169888
 30
0.0
 10
12.7172269568
 20
5.978435879
 30
0.0
 10
12.7236664676
 20
6.0237640588
 30
0.0
 10
12.7275349647
 20
6.0695554068
 30
0.0
 10
12.7283924035
 20
6.1002420491
 30
0.0
 10
12.7283924035
 20
6.1156101341
 30
0.0
  0
SPLINE
  5
3E5
100
AcDbEntity
  8
0
100
AcDbSpline
 62
7
  6
CONTINUOUS
 70
0
 71
3
 72
67
 73
63
 74
0
 42
0.0000001
 43
0.0000001
 44
0.0000000001
 40
0.0
 40
0.0
 40
0.0
 40
0.0
 40
0.0156208593
 40
0.0311919602
 40
0.0467088386
 40
0.062173276
 40
0.0775878162
 40
0.0929540716
 40
0.1082742252
 40
0.1235512559
 40
0.1387885557
 40
0.153989822
 40
0.1691591733
 40
0.1843010435
 40
0.1994201892
 40
0.2145215786
 40
0.2296103873
 40
0.2446919059
 40
0.2597715155
 40
0.274854618
 40
0.2899465735
 40
0.3050526605
 40
0.3201779774
 40
0.3353274489
 40
0.3505057208
 40
0.3657171655
 40
0.380965775
 40
0.3962551812
 40
0.4115885727
 40
0.4269687104
 40
0.4423978773
 40
0.4578778561
 40
0.4734099318
 40
0.488994865
 40
0.5203145517
 40
0.5518423775
 40
0.5676854147
 40
0.5835753953
 40
0.5995097291
 40
0.6154853795
 40
0.6314989709
 40
0.64754676
 40
0.6636247272
 40
0.6797285675
 40
0.6958537564
 40
0.7119955667
 40
0.728149142
 40
0.744309521
 40
0.7604716816
 40
0.7766305859
 40
0.7927812171
 40
0.8089186391
 40
0.8250380274
 40
0.8411347282
 40
0.8572042684
 40
0.873242422
 40
0.8892452006
 40
0.9052090392
 40
0.9211307392
 40
0.9370071758
 40
0.9686057956
 40
1.0
 40
1.0
 40
1.0
 40
1.0
 10
11.5417323219
 20
6.6550807063
 30
0.0
 10
11.5281658897
 20
6.6560215415
 30
0.0
 10
11.5010256324
 20
6.6572391671
 30
0.0
 10
11.4603470844
 20
6.6570639755
 30
0.0
 10
11.419861937
 20
6.6548813758
 30
0.0
 10
11.3796715189
 20
6.6506982605
 30
0.0
 10
11.3398709477
 20
6.6445239606
 30
0.0
 10
11.3005556209
 20
6.6363740112
 30
0.0
 10
11.2618208973
 20
6.6262669588
 30
0.0
 10
11.2237601072
 20
6.614227743
 30
0.0
 10
11.1864649349
 20
6.6002851552
 30
0.0
 10
11.1500254091
 20
6.5844725071
 30
0.0
 10
11.1145292329
 20
6.5668283375
 30
0.0
 10
11.08006242
 20
6.5473943858
 30
0.0
 10
11.0467075319
 20
6.5262184683
 30
0.0
 10
11.0145458084
 20
6.5033504079
 30
0.0
 10
10.9836538836
 20
6.4788466685
 30
0.0
 10
10.9541074079
 20
6.4527649305
 30
0.0
 10
10.9259764163
 20
6.4251695034
 30
0.0
 10
10.8993300681
 20
6.3961256098
 30
0.0
 10
10.874231303
 20
6.3657045252
 30
0.0
 10
10.8507418994
 20
6.3339785922
 30
0.0
 10
10.8289173348
 20
6.3010252168
 30
0.0
 10
10.8088111716
 20
6.2669232496
 30
0.0
 10
10.7904711043
 20
6.2317554046
 30
0.0
 10
10.7739417494
 20
6.1956062556
 30
0.0
 10
10.7592627346
 20
6.1585630805
 30
0.0
 10
10.7464692011
 20
6.1207152714
 30
0.0
 10
10.7355923966
 20
6.0821539398
 30
0.0
 10
10.7266576268
 20
6.0429722831
 30
0.0
 10
10.7196874479
 20
6.0032644321
 30
0.0
 10
10.7146971582
 20
5.9631266116
 30
0.0
 10
10.7117003325
 20
5.9226542579
 30
0.0
 10
10.7103673497
 20
5.8682967115
 30
0.0
 10
10.7137332806
 20
5.7999829278
 30
0.0
 10
10.7237237274
 20
5.7320964616
 30
0.0
 10
10.7356221421
 20
5.6783066367
 30
0.0
 10
10.7465028345
 20
5.6382439912
 30
0.0
 10
10.7592989899
 20
5.5986311766
 30
0.0
 10
10.7739794309
 20
5.5595622339
 30
0.0
 10
10.7905088716
 20
5.5211315742
 30
0.0
 10
10.8088476249
 20
5.4834316868
 30
0.0
 10
10.8289510609
 20
5.4465530997
 30
0.0
 10
10.8507714567
 20
5.4105849607
 30
0.0
 10
10.8742553218
 20
5.375613262
 30
0.0
 10
10.899347209
 20
5.3417229344
 30
0.0
 10
10.9259854717
 20
5.3089946255
 30
0.0
 10
10.9541072768
 20
5.277508166
 30
0.0
 10
10.9836436266
 20
5.2473381742
 30
0.0
 10
11.014524675
 20
5.2185585008
 30
0.0
 10
11.0466749389
 20
5.1912372057
 30
0.0
 10
11.0800180393
 20
5.1654412363
 30
0.0
 10
11.1144729025
 20
5.1412316467
 30
0.0
 10
11.1499572464
 20
5.118667618
 30
0.0
 10
11.1863852375
 20
5.0978028394
 30
0.0
 10
11.2236694067
 20
5.078688014
 30
0.0
 10
11.2617199946
 20
5.0613689889
 30
0.0
 10
11.3004452069
 20
5.0458874159
 30
0.0
 10
11.3397530174
 20
5.0322810459
 30
0.0
 10
11.3927200559
 20
5.0167090051
 30
0.0
 10
11.4599113266
 20
5.0020592883
 30
0.0
 10
11.5144670264
 20
4.9955790413
 30
0.0
 10
11.5417323219
 20
4.9936881866
 30
0.0
  0
SPLINE
  5
3E6
100
AcDbEntity
  8
0
100
AcDbSpline
 62
7
  6
CONTINUOUS
 70
0
 71
3
 72
67
 73
63
 74
0
 42
0.0000001
 43
0.0000001
 44
0.0000000001
 40
0.0
 40
0.0
 40
0.0
 40
0.0
 40
0.0156208593
 40
0.0311919602
 40
0.0467088386
 40
0.062173276
 40
0.0775878162
 40
0.0929540716
 40
0.1082742252
 40
0.1235512559
 40
0.1387885557
 40
0.153989822
 40
0.1691591733
 40
0.1843010435
 40
0.1994201892
 40
0.2145215786
 40
0.2296103873
 40
0.2446919059
 40
0.2597715155
 40
0.274854618
 40
0.2899465735
 40
0.3050526605
 40
0.3201779774
 40
0.3353274489
 40
0.3505057208
 40
0.3657171655
 40
0.380965775
 40
0.3962551812
 40
0.4115885727
 40
0.4269687104
 40
0.4423978773
 40
0.4578778561
 40
0.4734099318
 40
0.488994865
 40
0.5203145517
 40
0.5518423775
 40
0.5676854147
 40
0.5835753953
 40
0.5995097291
 40
0.6154853795
 40
0.6314989709
 40
0.64754676
 40
0.6636247272
 40
0.6797285675
 40
0.6958537564
 40
0.7119955667
 40
0.728149142
 40
0.744309521
 40
0.7604716816
 40
0.7766305859
 40
0.7927812171
 40
0.8089186391
 40
0.8250380274
 40
0.8411347282
 40
0.8572042684
 40
0.873242422
 40
0.8892452006
 40
0.9052090392
 40
0.9211307392
 40
0.9370071758
 40
0.9686057956
 40
1.0
 40
1.0
 40
1.0
 40
1.0
 10
11.5417323219
 20
4.9936881866
 30
0.0
 10
11.5552987541
 20
4.9927473513
 30
0.0
 10
11.5824390115
 20
4.9915297258
 30
0.0
 10
11.6231175595
 20
4.9917049173
 30
0.0
 10
11.6636027069
 20
4.9938875171
 30
0.0
 10
11.703793125
 20
4.9980706323
 30
0.0
 10
11.7435936962
 20
5.0042449322
 30
0.0
 10
11.782909023
 20
5.0123948817
 30
0.0
 10
11.8216437466
 20
5.0225019341
 30
0.0
 10
11.8597045367
 20
5.0345411499
 30
0.0
 10
11.896999709
 20
5.0484837377
 30
0.0
 10
11.9334392348
 20
5.0642963857
 30
0.0
 10
11.968935411
 20
5.0819405553
 30
0.0
 10
12.0034022239
 20
5.1013745071
 30
0.0
 10
12.036757112
 20
5.1225504245
 30
0.0
 10
12.0689188355
 20
5.145418485
 30
0.0
 10
12.0998107603
 20
5.1699222244
 30
0.0
 10
12.129357236
 20
5.1960039623
 30
0.0
 10
12.1574882276
 20
5.2235993895
 30
0.0
 10
12.1841345758
 20
5.252643283
 30
0.0
 10
12.2092333409
 20
5.2830643676
 30
0.0
 10
12.2327227445
 20
5.3147903007
 30
0.0
 10
12.254547309
 20
5.347743676
 30
0.0
 10
12.2746534722
 20
5.3818456433
 30
0.0
 10
12.2929935395
 20
5.4170134883
 30
0.0
 10
12.3095228945
 20
5.4531626372
 30
0.0
 10
12.3242019093
 20
5.4902058124
 30
0.0
 10
12.3369954428
 20
5.5280536215
 30
0.0
 10
12.3478722473
 20
5.5666149531
 30
0.0
 10
12.3568070171
 20
5.6057966097
 30
0.0
 10
12.363777196
 20
5.6455044607
 30
0.0
 10
12.3687674857
 20
5.6856422812
 30
0.0
 10
12.3717643114
 20
5.726114635
 30
0.0
 10
12.3730972942
 20
5.7804721814
 30
0.0
 10
12.3697313633
 20
5.848785965
 30
0.0
 10
12.3597409165
 20
5.9166724312
 30
0.0
 10
12.3478425018
 20
5.9704622561
 30
0.0
 10
12.3369618094
 20
6.0105249016
 30
0.0
 10
12.324165654
 20
6.0501377162
 30
0.0
 10
12.309485213
 20
6.0892066589
 30
0.0
 10
12.2929557723
 20
6.1276373187
 30
0.0
 10
12.274617019
 20
6.1653372061
 30
0.0
 10
12.254513583
 20
6.2022157931
 30
0.0
 10
12.2326931872
 20
6.2381839321
 30
0.0
 10
12.209209322
 20
6.2731556309
 30
0.0
 10
12.1841174349
 20
6.3070459585
 30
0.0
 10
12.1574791722
 20
6.3397742673
 30
0.0
 10
12.1293573671
 20
6.3712607268
 30
0.0
 10
12.0998210173
 20
6.4014307187
 30
0.0
 10
12.0689399689
 20
6.430210392
 30
0.0
 10
12.036789705
 20
6.4575316871
 30
0.0
 10
12.0034466046
 20
6.4833276566
 30
0.0
 10
11.9689917414
 20
6.5075372461
 30
0.0
 10
11.9335073975
 20
6.5301012748
 30
0.0
 10
11.8970794064
 20
6.5509660534
 30
0.0
 10
11.8597952372
 20
6.5700808788
 30
0.0
 10
11.8217446493
 20
6.5873999039
 30
0.0
 10
11.783019437
 20
6.602881477
 30
0.0
 10
11.7437116265
 20
6.616487847
 30
0.0
 10
11.690744588
 20
6.6320598877
 30
0.0
 10
11.6235533173
 20
6.6467096045
 30
0.0
 10
11.5689976175
 20
6.6531898516
 30
0.0
 10
11.5417323219
 20
6.6550807063
 30
0.0
  0
SPLINE
  5
3E7
100
AcDbEntity
  8
0
100
AcDbSpline
 62
7
  6
CONTINUOUS
 70
0
 71
3
 72
15
 73
11
 74
0
 42
0.0000001
 43
0.0000001
 44
0.0000000001
 40
0.0
 40
0.0
 40
0.0
 40
0.0
 40
0.1261304062
 40
0.251857918
 40
0.3772174985
 40
0.502247911
 40
0.6269926351
 40
0.751498858
 40
0.8758169754
 40
1.0
 40
1.0
 40
1.0
 40
1.0
 10
11.6728453359
 20
6.9820985163
 30
0.0
 10
11.6582761189
 20
6.9788906441
 30
0.0
 10
11.6293597837
 20
6.9716545693
 30
0.0
 10
11.5867493391
 20
6.958349889
 30
0.0
 10
11.5450986359
 20
6.9426515401
 30
0.0
 10
11.5045367256
 20
6.9246071467
 30
0.0
 10
11.4651865207
 20
6.9042725927
 30
0.0
 10
11.4271684545
 20
6.8817082143
 30
0.0
 10
11.3905993941
 20
6.8569851727
 30
0.0
 10
11.3672476272
 20
6.8391034271
 30
0.0
 10
11.3558550719
 20
6.8298328774
 30
0.0
  0
SPLINE
  5
3E8
100
AcDbEntity
  8
0
100
AcDbSpline
 62
7
  6
CONTINUOUS
 70
0
 71
3
 72
35
 73
31
 74
0
 42
0.0000001
 43
0.0000001
 44
0.0000000001
 40
0.0
 40
0.0
 40
0.0
 40
0.0
 40
0.0612906693
 40
0.1229878739
 40
0.1539915337
 40
0.1850872977
 40
0.2162696171
 40
0.2475327476
 40
0.2788701874
 40
0.3102745649
 40
0.3417379897
 40
0.3732520333
 40
0.4048078488
 40
0.4363961973
 40
0.468007577
 40
0.4996322754
 40
0.5312604555
 40
0.562882252
 40
0.5944878596
 40
0.6260676278
 40
0.6576121068
 40
0.6891121837
 40
0.720559106
 40
0.7519446068
 40
0.7832608858
 40
0.8145009644
 40
0.845658577
 40
0.8767276093
 40
0.9385638178
 40
1.0
 40
1.0
 40
1.0
 40
1.0
 10
12.7283924035
 20
6.1156101341
 30
0.0
 10
12.7283924035
 20
6.1427176597
 30
0.0
 10
12.7257108821
 20
6.1971463401
 30
0.0
 10
12.7157784781
 20
6.2646352929
 30
0.0
 10
12.7039492119
 20
6.3181126245
 30
0.0
 10
12.6931318894
 20
6.3579423921
 30
0.0
 10
12.6804100774
 20
6.3973249737
 30
0.0
 10
12.665814969
 20
6.4361667232
 30
0.0
 10
12.649381649
 20
6.4743739396
 30
0.0
 10
12.6311495167
 20
6.5118546559
 30
0.0
 10
12.6111629525
 20
6.5485188392
 30
0.0
 10
12.589469421
 20
6.584277859
 30
0.0
 10
12.5661220943
 20
6.6190462271
 30
0.0
 10
12.5411760929
 20
6.6527395145
 30
0.0
 10
12.5146927021
 20
6.6852775459
 30
0.0
 10
12.48673439
 20
6.7165809488
 30
0.0
 10
12.4573697624
 20
6.7465755357
 30
0.0
 10
12.4266682593
 20
6.775187883
 30
0.0
 10
12.394704918
 20
6.8023503287
 30
0.0
 10
12.3615556724
 20
6.8279963221
 30
0.0
 10
12.3273011258
 20
6.8520651614
 30
0.0
 10
12.2920230849
 20
6.874498004
 30
0.0
 10
12.2558068866
 20
6.8952414746
 30
0.0
 10
12.2187394877
 20
6.9142451668
 30
0.0
 10
12.1809101228
 20
6.9314634997
 30
0.0
 10
12.1424100549
 20
6.9468550646
 30
0.0
 10
12.103330778
 20
6.9603823287
 30
0.0
 10
12.0506716882
 20
6.9758638333
 30
0.0
 10
11.9838710655
 20
6.9904283773
 30
0.0
 10
11.9296325496
 20
6.9968709485
 30
0.0
 10
11.9025257731
 20
6.9987508099
 30
0.0
  0
SPLINE
  5
3E9
100
AcDbEntity
  8
0
100
AcDbSpline
 62
7
  6
CONTINUOUS
 70
0
 71
3
 72
20
 73
16
 74
0
 42
0.0000001
 43
0.0000001
 44
0.0000000001
 40
0.0
 40
0.0
 40
0.0
 40
0.0
 40
0.1160061915
 40
0.1751616166
 40
0.2351053835
 40
0.2958339261
 40
0.3573259761
 40
0.4195420477
 40
0.4824253089
 40
0.5459040886
 40
0.6098961925
 40
0.6743146387
 40
0.7390728404
 40
0.8692881496
 40
1.0
 40
1.0
 40
1.0
 40
1.0
 10
12.4045810817
 20
5.3608743501
 30
0.0
 10
12.4021697519
 20
5.39344407
 30
0.0
 10
12.3989149756
 20
5.4426522079
 30
0.0
 10
12.3954062178
 20
5.5087482789
 30
0.0
 10
12.3931847615
 20
5.5593266399
 30
0.0
 10
12.3914211574
 20
5.6105812517
 30
0.0
 10
12.3901415031
 20
5.6624901995
 30
0.0
 10
12.3893660554
 20
5.7150158238
 30
0.0
 10
12.3891077127
 20
5.768105862
 30
0.0
 10
12.3893709491
 20
5.8216958599
 30
0.0
 10
12.3901510083
 20
5.875713016
 30
0.0
 10
12.3914347658
 20
5.9300808008
 30
0.0
 10
12.3937950398
 20
6.0030692408
 30
0.0
 10
12.3978879344
 20
6.0946709179
 30
0.0
 10
12.4022025332
 20
6.1680043603
 30
0.0
 10
12.4045810817
 20
6.204726308
 30
0.0
  0
SPLINE
  5
3EA
100
AcDbEntity
  8
0
100
AcDbSpline
 62
7
  6
CONTINUOUS
 70
0
 71
3
 72
21
 73
17
 74
0
 42
0.0000001
 43
0.0000001
 44
0.0000000001
 40
0.0
 40
0.0
 40
0.0
 40
0.0
 40
0.1257737254
 40
0.1889245626
 40
0.2522069038
 40
0.3155731541
 40
0.3789649978
 40
0.4423154662
 40
0.5055519136
 40
0.5686000731
 40
0.6313890432
 40
0.6938558204
 40
0.7559484927
 40
0.8176281145
 40
0.8788694786
 40
1.0
 40
1.0
 40
1.0
 40
1.0
 10
12.3473716363
 20
6.3077834627
 30
0.0
 10
12.3150520905
 20
6.3248335015
 30
0.0
 10
12.266720499
 20
6.3508575455
 30
0.0
 10
12.2027271042
 20
6.3865515174
 30
0.0
 10
12.1548565696
 20
6.4139239289
 30
0.0
 10
12.1072379251
 20
6.4418709364
 30
0.0
 10
12.0599375409
 20
6.4703918992
 30
0.0
 10
12.0130248341
 20
6.4994747889
 30
0.0
 10
11.9665685937
 20
6.5290961962
 30
0.0
 10
11.9206329159
 20
6.5592221924
 30
0.0
 10
11.8752728219
 20
6.5898098201
 30
0.0
 10
11.830531287
 20
6.6208103341
 30
0.0
 10
11.7864373456
 20
6.6521721726
 30
0.0
 10
11.743005334
 20
6.6838438614
 30
0.0
 10
11.6861883858
 20
6.7262636551
 30
0.0
 10
11.6442358643
 20
6.7586341941
 30
0.0
 10
11.6165744038
 20
6.7803904018
 30
0.0
  0
SPLINE
  5
3EB
100
AcDbEntity
  8
0
100
AcDbSpline
 62
7
  6
CONTINUOUS
 70
0
 71
3
 72
15
 73
11
 74
0
 42
0.0000001
 43
0.0000001
 44
0.0000000001
 40
0.0
 40
0.0
 40
0.0
 40
0.0
 40
0.1336908709
 40
0.2662126058
 40
0.3968886543
 40
0.5249381662
 40
0.6496257854
 40
0.7704380623
 40
0.8871871863
 40
1.0
 40
1.0
 40
1.0
 40
1.0
 10
11.5021555129
 20
6.7883253788
 30
0.0
 10
11.4700339192
 20
6.7709207575
 30
0.0
 10
11.4059896002
 20
6.7364147571
 30
0.0
 10
11.3102160195
 20
6.6855157681
 30
0.0
 10
11.2154695358
 20
6.6359737065
 30
0.0
 10
11.1222539569
 20
6.5881301495
 30
0.0
 10
11.0310557347
 20
6.5422665158
 30
0.0
 10
10.9422430152
 20
6.4985406114
 30
0.0
 10
10.8559947828
 20
6.4569603634
 30
0.0
 10
10.7992770104
 20
6.4301546279
 30
0.0
 10
10.7713582804
 20
6.4170803601
 30
0.0
  0
SPLINE
  5
3EC
100
AcDbEntity
  8
0
100
AcDbSpline
 62
7
  6
CONTINUOUS
 70
0
 71
3
 72
20
 73
16
 74
0
 42
0.0000001
 43
0.0000001
 44
0.0000000001
 40
0.0
 40
0.0
 40
0.0
 40
0.0
 40
0.1328004115
 40
0.2663282989
 40
0.3994288484
 40
0.4652765799
 40
0.530307737
 40
0.5942626159
 40
0.6569131493
 40
0.7180845183
 40
0.777666975
 40
0.8356165293
 40
0.89194577
 40
0.9467129545
 40
1.0
 40
1.0
 40
1.0
 40
1.0
 10
10.4566460902
 20
8.627091173
 30
0.0
 10
10.4606408063
 20
8.6643293052
 30
0.0
 10
10.4679799973
 20
8.7390844499
 30
0.0
 10
10.4765034047
 20
8.8514170294
 30
0.0
 10
10.4810885773
 20
8.945083337
 30
0.0
 10
10.4829738581
 20
9.0195086466
 30
0.0
 10
10.4834534225
 20
9.0744554339
 30
0.0
 10
10.482989524
 20
9.128500709
 30
0.0
 10
10.4815949257
 20
9.1814411506
 30
0.0
 10
10.4793072422
 20
9.2331161811
 30
0.0
 10
10.4761839404
 20
9.2834190574
 30
0.0
 10
10.4722955643
 20
9.3322986062
 30
0.0
 10
10.4677187195
 20
9.3797541703
 30
0.0
 10
10.4625301143
 20
9.4258234045
 30
0.0
 10
10.4586612541
 20
9.4560510791
 30
0.0
 10
10.4566460902
 20
9.4709431308
 30
0.0
  0
SPLINE
  5
3ED
100
AcDbEntity
  8
0
100
AcDbSpline
 62
7
  6
CONTINUOUS
 70
0
 71
3
 72
22
 73
18
 74
0
 42
0.0000001
 43
0.0000001
 44
0.0000000001
 40
0.0
 40
0.0
 40
0.0
 40
0.0
 40
0.0578967657
 40
0.1168069543
 40
0.1767552214
 40
0.2377418336
 40
0.2997235166
 40
0.3626077374
 40
0.4262490722
 40
0.4904549483
 40
0.5550006938
 40
0.619651431
 40
0.684185502
 40
0.7484135876
 40
0.8121898087
 40
0.87541344
 40
1.0
 40
1.0
 40
1.0
 40
1.0
 10
10.3994366448
 20
9.5740002855
 30
0.0
 10
10.3869296897
 20
9.5853226037
 30
0.0
 10
10.3615167112
 20
9.6079674701
 30
0.0
 10
10.3224863515
 20
9.6415779421
 30
0.0
 10
10.2821549045
 20
9.6750448088
 30
0.0
 10
10.2404761771
 20
9.7082743433
 30
0.0
 10
10.1974367681
 20
9.7411516303
 30
0.0
 10
10.1530680378
 20
9.7735423237
 30
0.0
 10
10.1074518865
 20
9.8053002447
 30
0.0
 10
10.0607205738
 20
9.8362784756
 30
0.0
 10
10.0130483127
 20
9.8663431002
 30
0.0
 10
9.9646357274
 20
9.8953863015
 30
0.0
 10
9.9156905206
 20
9.9233356656
 30
0.0
 10
9.8664090961
 20
9.9501576893
 30
0.0
 10
9.8169626481
 20
9.9758557428
 30
0.0
 10
9.751321406
 20
10.008505791
 30
0.0
 10
9.7017341045
 20
10.0316845358
 30
0.0
 10
9.6686394122
 20
10.0466072246
 30
0.0
  0
SPLINE
  5
3EE
100
AcDbEntity
  8
0
100
AcDbSpline
 62
7
  6
CONTINUOUS
 70
0
 71
3
 72
15
 73
11
 74
0
 42
0.0000001
 43
0.0000001
 44
0.0000000001
 40
0.0
 40
0.0
 40
0.0
 40
0.0
 40
0.1024584527
 40
0.2125880165
 40
0.3308751456
 40
0.4568384937
 40
0.5888694915
 40
0.7247080792
 40
0.8622415245
 40
1.0
 40
1.0
 40
1.0
 40
1.0
 10
9.5542205214
 20
10.0545422016
 30
0.0
 10
9.5285336897
 20
10.0433794087
 30
0.0
 10
9.4753991195
 20
10.0198425117
 30
0.0
 10
9.3932527553
 20
9.9819857907
 30
0.0
 10
9.3059127524
 20
9.9400740195
 30
0.0
 10
9.2138769373
 20
9.8941385275
 30
0.0
 10
9.1182575321
 20
9.8446661816
 30
0.0
 10
9.0204898885
 20
9.7924848646
 30
0.0
 10
8.9219157043
 20
9.7385052407
 30
0.0
 10
8.8562287737
 20
9.7017862748
 30
0.0
 10
8.8234232888
 20
9.6832971829
 30
0.0
  0
SPLINE
  5
3EF
100
AcDbEntity
  8
0
100
AcDbSpline
 62
7
  6
CONTINUOUS
 70
0
 71
3
 72
19
 73
15
 74
0
 42
0.0000001
 43
0.0000001
 44
0.0000000001
 40
0.0
 40
0.0
 40
0.0
 40
0.0
 40
0.1307115674
 40
0.2609268752
 40
0.3901025973
 40
0.4540950503
 40
0.5175739859
 40
0.580457627
 40
0.6426741367
 40
0.7041661724
 40
0.764894827
 40
0.8248387715
 40
0.8839940512
 40
1.0
 40
1.0
 40
1.0
 40
1.0
 10
8.540815597
 20
9.370457005
 30
0.0
 10
8.5384370566
 20
9.3337351818
 30
0.0
 10
8.534122523
 20
9.2604017521
 30
0.0
 10
8.5292198783
 20
9.1506830356
 30
0.0
 10
8.5266485814
 20
9.0596731506
 30
0.0
 10
8.5256054636
 20
8.9874267949
 30
0.0
 10
8.5253423824
 20
8.9338365868
 30
0.0
 10
8.5256005554
 20
8.8807463464
 30
0.0
 10
8.5263759396
 20
8.8282205564
 30
0.0
 10
8.5276557567
 20
8.7763115259
 30
0.0
 10
8.5294193296
 20
8.7250568989
 30
0.0
 10
8.5316407189
 20
8.6744785562
 30
0.0
 10
8.5351495414
 20
8.6083826291
 30
0.0
 10
8.5384042753
 20
8.5591746589
 30
0.0
 10
8.540815597
 20
8.5266050472
 30
0.0
  0
SPLINE
  5
3F0
100
AcDbEntity
  8
0
100
AcDbSpline
 62
7
  6
CONTINUOUS
 70
0
 71
3
 72
21
 73
17
 74
0
 42
0.0000001
 43
0.0000001
 44
0.0000000001
 40
0.0
 40
0.0
 40
0.0
 40
0.0
 40
0.1211301163
 40
0.1823712755
 40
0.2440509723
 40
0.306143678
 40
0.3686104373
 40
0.4313997375
 40
0.4944481226
 40
0.5576847246
 40
0.6210354942
 40
0.6844273845
 40
0.7477936645
 40
0.8110760547
 40
0.8742266982
 40
1.0
 40
1.0
 40
1.0
 40
1.0
 10
8.5980250425
 20
8.4235478925
 30
0.0
 10
8.6256864104
 20
8.4017917576
 30
0.0
 10
8.6676388162
 20
8.3694213601
 30
0.0
 10
8.7244555832
 20
8.3270015834
 30
0.0
 10
8.7678876232
 20
8.2953299805
 30
0.0
 10
8.8119816102
 20
8.2639681629
 30
0.0
 10
8.8567231059
 20
8.2329674163
 30
0.0
 10
8.9020833776
 20
8.2023797697
 30
0.0
 10
8.9480193585
 20
8.1722538618
 30
0.0
 10
8.9944756352
 20
8.1426321456
 30
0.0
 10
9.0413884249
 20
8.1135491096
 30
0.0
 10
9.0886890115
 20
8.0850282704
 30
0.0
 10
9.1363076642
 20
8.0570812071
 30
0.0
 10
9.1841781289
 20
8.0297087398
 30
0.0
 10
9.2481714243
 20
7.994014929
 30
0.0
 10
9.2965028381
 20
7.9679909348
 30
0.0
 10
9.328822275
 20
7.9509409534
 30
0.0
  0
SPLINE
  5
3F1
100
AcDbEntity
  8
0
100
AcDbSpline
 62
7
  6
CONTINUOUS
 70
0
 71
3
 72
15
 73
11
 74
0
 42
0.0000001
 43
0.0000001
 44
0.0000000001
 40
0.0
 40
0.0
 40
0.0
 40
0.0
 40
0.1128124416
 40
0.2295614621
 40
0.3503736449
 40
0.4750619961
 40
0.6031117921
 40
0.7337880193
 40
0.866309584
 40
1.0
 40
1.0
 40
1.0
 40
1.0
 10
9.4432411658
 20
7.9430059763
 30
0.0
 10
9.4711598037
 20
7.956080201
 30
0.0
 10
9.5278774609
 20
7.9828858766
 30
0.0
 10
9.6141255375
 20
8.0244660885
 30
0.0
 10
9.7029384312
 20
8.0681919703
 30
0.0
 10
9.794136811
 20
8.1140558509
 30
0.0
 10
9.8873527481
 20
8.1618994247
 30
0.0
 10
9.9820992585
 20
8.2114416083
 30
0.0
 10
10.0778727481
 20
8.2623405083
 30
0.0
 10
10.1419169139
 20
8.2968464329
 30
0.0
 10
10.1740383984
 20
8.3142509951
 30
0.0
  0
SPLINE
  5
3F2
100
AcDbEntity
  8
0
100
AcDbSpline
 62
7
  6
CONTINUOUS
 70
0
 71
3
 72
64
 73
60
 74
0
 42
0.0000001
 43
0.0000001
 44
0.0000000001
 40
0.0
 40
0.0
 40
0.0
 40
0.0
 40
0.0311830674
 40
0.0467008478
 40
0.0621656035
 40
0.077580314
 40
0.0929469982
 40
0.1082676194
 40
0.1235450534
 40
0.1387827119
 40
0.1539843784
 40
0.169154114
 40
0.1842963866
 40
0.1994159176
 40
0.2145177079
 40
0.2296068972
 40
0.2446888078
 40
0.2597688009
 40
0.2748522991
 40
0.289944644
 40
0.3050511237
 40
0.320176829
 40
0.3353266945
 40
0.3505053557
 40
0.3657171944
 40
0.3809661934
 40
0.3962560015
 40
0.4115897884
 40
0.4269703324
 40
0.4423998859
 40
0.4578802676
 40
0.4734127351
 40
0.4889980873
 40
0.5046365524
 40
0.5203278953
 40
0.5360713376
 40
0.551865648
 40
0.5677090891
 40
0.5835994915
 40
0.5995342345
 40
0.6155103003
 40
0.6315243016
 40
0.6475725053
 40
0.6636508895
 40
0.6797551433
 40
0.6958807523
 40
0.7120229781
 40
0.7281769781
 40
0.7443377676
 40
0.7605003478
 40
0.7766596612
 40
0.7928107186
 40
0.8089485556
 40
0.841156923
 40
0.8732567742
 40
0.9052155383
 40
0.9370054028
 40
0.968605258
 40
1.0
 40
1.0
 40
1.0
 40
1.0
 10
9.368399084
 20
9.7035795288
 30
0.0
 10
9.3413178585
 20
9.7054576182
 30
0.0
 10
9.3005844003
 20
9.706294794
 30
0.0
 10
9.2465297893
 20
9.7033801537
 30
0.0
 10
9.2063376942
 20
9.6991972656
 30
0.0
 10
9.1665378426
 20
9.6930224888
 30
0.0
 10
9.127222436
 20
9.684872968
 30
0.0
 10
9.0884877299
 20
9.6747655828
 30
0.0
 10
9.0504267621
 20
9.6627267698
 30
0.0
 10
9.013131802
 20
9.6487836819
 30
0.0
 10
8.9766920886
 20
9.6329715452
 30
0.0
 10
8.9411961524
 20
9.6153268792
 30
0.0
 10
8.9067290597
 20
9.5958934298
 30
0.0
 10
8.873374481
 20
9.5747170028
 30
0.0
 10
8.8412124277
 20
9.5518494178
 30
0.0
 10
8.8103208444
 20
9.5273452436
 30
0.0
 10
8.7807740465
 20
9.5012638959
 30
0.0
 10
8.7526433614
 20
9.4736681516
 30
0.0
 10
8.7259967554
 20
9.4446245053
 30
0.0
 10
8.7008981758
 20
9.4142032545
 30
0.0
 10
8.6774086675
 20
9.3824774104
 30
0.0
 10
8.655584102
 20
9.3495240278
 30
0.0
 10
8.6354780552
 20
9.3154220056
 30
0.0
 10
8.6171377436
 20
9.2802542821
 30
0.0
 10
8.6006087661
 20
9.2441049767
 30
0.0
 10
8.585929239
 20
9.2070619973
 30
0.0
 10
8.5731363495
 20
9.1692139771
 30
0.0
 10
8.5622587728
 20
9.1306528503
 30
0.0
 10
8.5533248891
 20
9.0914709892
 30
0.0
 10
8.5463537266
 20
9.0517633588
 30
0.0
 10
8.541364509
 20
9.0116252424
 30
0.0
 10
8.5383665362
 20
8.9711536574
 30
0.0
 10
8.5373696156
 20
8.9304459411
 30
0.0
 10
8.5383733352
 20
8.8896002106
 30
0.0
 10
8.5413778853
 20
8.8487149376
 30
0.0
 10
8.546373279
 20
8.8078883811
 30
0.0
 10
8.5533499729
 20
8.7672191713
 30
0.0
 10
8.5622886175
 20
8.7268047987
 30
0.0
 10
8.5731699471
 20
8.686743076
 30
0.0
 10
8.5859655119
 20
8.6471298643
 30
0.0
 10
8.6006464369
 20
8.6080611586
 30
0.0
 10
8.6171755177
 20
8.5696303399
 30
0.0
 10
8.6355145047
 20
8.5319305683
 30
0.0
 10
8.6556178291
 20
8.4950519301
 30
0.0
 10
8.6774382257
 20
8.4590837859
 30
0.0
 10
8.7009221926
 20
8.4241121652
 30
0.0
 10
8.7260138981
 20
8.3902216918
 30
0.0
 10
8.7526524178
 20
8.3574935972
 30
0.0
 10
8.7807739056
 20
8.3260068693
 30
0.0
 10
8.810310626
 20
8.2958371905
 30
0.0
 10
8.8411911563
 20
8.2670572475
 30
0.0
 10
8.8733423883
 20
8.2397359611
 30
0.0
 10
8.9177634848
 20
8.2053681679
 30
0.0
 10
8.9760625791
 20
8.166370128
 30
0.0
 10
9.0498277708
 20
8.1263493017
 30
0.0
 10
9.1266657139
 20
8.0935063936
 30
0.0
 10
9.2058383333
 20
8.0681608358
 30
0.0
 10
9.2865759571
 20
8.0505589588
 30
0.0
 10
9.3411340277
 20
8.0440778472
 30
0.0
 10
9.368399084
 20
8.0421870091
 30
0.0
  0
SPLINE
  5
3F3
100
AcDbEntity
  8
0
100
AcDbSpline
 62
7
  6
CONTINUOUS
 70
0
 71
3
 72
64
 73
60
 74
0
 42
0.0000001
 43
0.0000001
 44
0.0000000001
 40
0.0
 40
0.0
 40
0.0
 40
0.0
 40
0.0311830674
 40
0.0467008478
 40
0.0621656035
 40
0.077580314
 40
0.0929469982
 40
0.1082676194
 40
0.1235450534
 40
0.1387827119
 40
0.1539843784
 40
0.169154114
 40
0.1842963866
 40
0.1994159176
 40
0.2145177079
 40
0.2296068972
 40
0.2446888078
 40
0.2597688009
 40
0.2748522991
 40
0.289944644
 40
0.3050511237
 40
0.320176829
 40
0.3353266945
 40
0.3505053557
 40
0.3657171944
 40
0.3809661934
 40
0.3962560015
 40
0.4115897884
 40
0.4269703324
 40
0.4423998859
 40
0.4578802676
 40
0.4734127351
 40
0.4889980873
 40
0.5046365524
 40
0.5203278953
 40
0.5360713376
 40
0.551865648
 40
0.5677090891
 40
0.5835994915
 40
0.5995342345
 40
0.6155103003
 40
0.6315243016
 40
0.6475725053
 40
0.6636508895
 40
0.6797551433
 40
0.6958807523
 40
0.7120229781
 40
0.7281769781
 40
0.7443377676
 40
0.7605003478
 40
0.7766596612
 40
0.7928107186
 40
0.8089485556
 40
0.841156923
 40
0.8732567742
 40
0.9052155383
 40
0.9370054028
 40
0.968605258
 40
1.0
 40
1.0
 40
1.0
 40
1.0
 10
9.368399084
 20
8.0421870091
 30
0.0
 10
9.3954803095
 20
8.0403089198
 30
0.0
 10
9.4362137678
 20
8.0394717439
 30
0.0
 10
9.4902683787
 20
8.0423863843
 30
0.0
 10
9.5304604738
 20
8.0465692724
 30
0.0
 10
9.5702603254
 20
8.0527440491
 30
0.0
 10
9.6095757321
 20
8.0608935699
 30
0.0
 10
9.6483104381
 20
8.0710009551
 30
0.0
 10
9.686371406
 20
8.0830397681
 30
0.0
 10
9.723666366
 20
8.096982856
 30
0.0
 10
9.7601060794
 20
8.1127949927
 30
0.0
 10
9.7956020156
 20
8.1304396587
 30
0.0
 10
9.8300691083
 20
8.1498731081
 30
0.0
 10
9.863423687
 20
8.1710495351
 30
0.0
 10
9.8955857403
 20
8.1939171201
 30
0.0
 10
9.9264773236
 20
8.2184212943
 30
0.0
 10
9.9560241215
 20
8.244502642
 30
0.0
 10
9.9841548066
 20
8.2720983863
 30
0.0
 10
10.0108014127
 20
8.3011420326
 30
0.0
 10
10.0358999922
 20
8.3315632834
 30
0.0
 10
10.0593895005
 20
8.3632891275
 30
0.0
 10
10.0812140661
 20
8.3962425101
 30
0.0
 10
10.1013201128
 20
8.4303445323
 30
0.0
 10
10.1196604245
 20
8.4655122558
 30
0.0
 10
10.1361894019
 20
8.5016615612
 30
0.0
 10
10.150868929
 20
8.5387045407
 30
0.0
 10
10.1636618186
 20
8.5765525609
 30
0.0
 10
10.1745393952
 20
8.6151136877
 30
0.0
 10
10.183473279
 20
8.6542955487
 30
0.0
 10
10.1904444414
 20
8.6940031791
 30
0.0
 10
10.1954336591
 20
8.7341412955
 30
0.0
 10
10.1984316319
 20
8.7746128805
 30
0.0
 10
10.1994285525
 20
8.8153205968
 30
0.0
 10
10.1984248328
 20
8.8561663273
 30
0.0
 10
10.1954202828
 20
8.8970516004
 30
0.0
 10
10.190424889
 20
8.9378781568
 30
0.0
 10
10.1834481951
 20
8.9785473666
 30
0.0
 10
10.1745095505
 20
9.0189617392
 30
0.0
 10
10.163628221
 20
9.0590234619
 30
0.0
 10
10.1508326562
 20
9.0986366736
 30
0.0
 10
10.1361517312
 20
9.1377053793
 30
0.0
 10
10.1196226503
 20
9.1761361981
 30
0.0
 10
10.1012836633
 20
9.2138359696
 30
0.0
 10
10.0811803389
 20
9.2507146078
 30
0.0
 10
10.0593599423
 20
9.2866827521
 30
0.0
 10
10.0358759755
 20
9.3216543727
 30
0.0
 10
10.01078427
 20
9.3555448462
 30
0.0
 10
9.9841457502
 20
9.3882729407
 30
0.0
 10
9.9560242625
 20
9.4197596686
 30
0.0
 10
9.9264875421
 20
9.4499293474
 30
0.0
 10
9.8956070118
 20
9.4787092904
 30
0.0
 10
9.8634557797
 20
9.5060305769
 30
0.0
 10
9.8190346832
 20
9.54039837
 30
0.0
 10
9.760735589
 20
9.5793964099
 30
0.0
 10
9.6869703973
 20
9.6194172362
 30
0.0
 10
9.6101324541
 20
9.6522601443
 30
0.0
 10
9.5309598347
 20
9.6776057021
 30
0.0
 10
9.4502222109
 20
9.6952075791
 30
0.0
 10
9.3956641403
 20
9.7016886907
 30
0.0
 10
9.368399084
 20
9.7035795288
 30
0.0
  0
SPLINE
  5
3F4
100
AcDbEntity
  8
0
100
AcDbSpline
 62
7
  6
CONTINUOUS
 70
0
 71
3
 72
19
 73
15
 74
0
 42
0.0000001
 43
0.0000001
 44
0.0000000001
 40
0.0
 40
0.0
 40
0.0
 40
0.0
 40
0.1160059488
 40
0.1751612285
 40
0.235105173
 40
0.2958338276
 40
0.3573258634
 40
0.419542373
 40
0.4824260141
 40
0.5459049497
 40
0.6098974028
 40
0.7390731248
 40
0.8692884326
 40
1.0
 40
1.0
 40
1.0
 40
1.0
 10
10.2312478438
 20
8.4093731727
 30
0.0
 10
10.228836522
 20
8.4419427845
 30
0.0
 10
10.2255817881
 20
8.4911507546
 30
0.0
 10
10.2220729656
 20
8.5572466817
 30
0.0
 10
10.2198515764
 20
8.6078250245
 30
0.0
 10
10.2180880035
 20
8.6590796514
 30
0.0
 10
10.2168081863
 20
8.7109886819
 30
0.0
 10
10.2160328022
 20
8.7635144719
 30
0.0
 10
10.2157746291
 20
8.8166047124
 30
0.0
 10
10.2160377104
 20
8.8701949205
 30
0.0
 10
10.2170808281
 20
8.9424412762
 30
0.0
 10
10.219652125
 20
9.0334511612
 30
0.0
 10
10.2245547698
 20
9.1431698776
 30
0.0
 10
10.2288693034
 20
9.2165033073
 30
0.0
 10
10.2312478438
 20
9.2532251305
 30
0.0
  0
SPLINE
  5
3F5
100
AcDbEntity
  8
0
100
AcDbSpline
 62
7
  6
CONTINUOUS
 70
0
 71
3
 72
21
 73
17
 74
0
 42
0.0000001
 43
0.0000001
 44
0.0000000001
 40
0.0
 40
0.0
 40
0.0
 40
0.0
 40
0.1257733018
 40
0.1889239453
 40
0.2522063355
 40
0.3155726155
 40
0.3789645059
 40
0.4423152755
 40
0.5055518774
 40
0.5686002626
 40
0.6313895627
 40
0.693856322
 40
0.7559490278
 40
0.8176287245
 40
0.8788698837
 40
1.0
 40
1.0
 40
1.0
 40
1.0
 10
10.1740383984
 20
9.3562822852
 30
0.0
 10
10.1417189615
 20
9.3733322666
 30
0.0
 10
10.0933875477
 20
9.3993562608
 30
0.0
 10
10.0293942522
 20
9.4350500717
 30
0.0
 10
9.9815237876
 20
9.462422539
 30
0.0
 10
9.9339051348
 20
9.4903696022
 30
0.0
 10
9.8866045482
 20
9.5188904414
 30
0.0
 10
9.8396917586
 20
9.5479734775
 30
0.0
 10
9.7932354818
 20
9.5775951937
 30
0.0
 10
9.747299501
 20
9.6077211016
 30
0.0
 10
9.7019392293
 20
9.6383087481
 30
0.0
 10
9.6571977335
 20
9.6693094947
 30
0.0
 10
9.6131037465
 20
9.7006713123
 30
0.0
 10
9.5696717065
 20
9.7323429152
 30
0.0
 10
9.5128549396
 20
9.774762692
 30
0.0
 10
9.4709025337
 20
9.8071330894
 30
0.0
 10
9.4432411658
 20
9.8288892243
 30
0.0
  0
SPLINE
  5
3F6
100
AcDbEntity
  8
0
100
AcDbSpline
 62
7
  6
CONTINUOUS
 70
0
 71
3
 72
15
 73
11
 74
0
 42
0.0000001
 43
0.0000001
 44
0.0000000001
 40
0.0
 40
0.0
 40
0.0
 40
0.0
 40
0.133690416
 40
0.2662119808
 40
0.3968882079
 40
0.524938004
 40
0.6496263551
 40
0.770438538
 40
0.8871875584
 40
1.0
 40
1.0
 40
1.0
 40
1.0
 10
9.328822275
 20
9.8368242014
 30
0.0
 10
9.2967007906
 20
9.8194196392
 30
0.0
 10
9.2326566247
 20
9.7849137146
 30
0.0
 10
9.1368831351
 20
9.7340148146
 30
0.0
 10
9.0421366247
 20
9.684472631
 30
0.0
 10
8.9489206876
 20
9.6366290572
 30
0.0
 10
8.8577223078
 20
9.5907651766
 30
0.0
 10
8.7689094141
 20
9.5470392948
 30
0.0
 10
8.6826613375
 20
9.5054590829
 30
0.0
 10
8.6259436804
 20
9.4786534073
 30
0.0
 10
8.5980250425
 20
9.4655791827
 30
0.0
  0
SPLINE
  5
3F7
100
AcDbEntity
  8
0
100
AcDbSpline
 62
7
  6
CONTINUOUS
 70
0
 71
3
 72
15
 73
11
 74
0
 42
0.0000001
 43
0.0000001
 44
0.0000000001
 40
0.0
 40
0.0
 40
0.0
 40
0.0
 40
0.1259387151
 40
0.2515500552
 40
0.3768604883
 40
0.5018988711
 40
0.6266970376
 40
0.7512889617
 40
0.8757107437
 40
1.0
 40
1.0
 40
1.0
 40
1.0
 10
11.6334098522
 20
9.8628883909
 30
0.0
 10
11.6211752625
 20
9.8597001979
 30
0.0
 10
11.5968883266
 20
9.8527373234
 30
0.0
 10
11.561060035
 20
9.8405387162
 30
0.0
 10
11.5259574022
 20
9.8266275014
 30
0.0
 10
11.4916594392
 20
9.811032674
 30
0.0
 10
11.4582405574
 20
9.7937901846
 30
0.0
 10
11.4257749237
 20
9.7749360071
 30
0.0
 10
11.3943339288
 20
9.7545139682
 30
0.0
 10
11.3740920369
 20
9.7398747148
 30
0.0
 10
11.3641679619
 20
9.7323114677
 30
0.0
  0
SPLINE
  5
3F8
100
AcDbEntity
  8
0
100
AcDbSpline
 62
7
  6
CONTINUOUS
 70
0
 71
3
 72
35
 73
31
 74
0
 42
0.0000001
 43
0.0000001
 44
0.0000000001
 40
0.0
 40
0.0
 40
0.0
 40
0.0
 40
0.0612906693
 40
0.1229878739
 40
0.1539915337
 40
0.1850872977
 40
0.2162696171
 40
0.2475327476
 40
0.2788701874
 40
0.3102745649
 40
0.3417379897
 40
0.3732520333
 40
0.4048078488
 40
0.4363961973
 40
0.468007577
 40
0.4996322754
 40
0.5312604555
 40
0.562882252
 40
0.5944878596
 40
0.6260676278
 40
0.6576121068
 40
0.6891121837
 40
0.720559106
 40
0.7519446068
 40
0.7832608858
 40
0.8145009644
 40
0.845658577
 40
0.8767276093
 40
0.9385638178
 40
1.0
 40
1.0
 40
1.0
 40
1.0
 10
12.7180396502
 20
9.0033877923
 30
0.0
 10
12.7180396502
 20
9.0304953179
 30
0.0
 10
12.7153581289
 20
9.0849239983
 30
0.0
 10
12.7054257249
 20
9.1524129511
 30
0.0
 10
12.6935964586
 20
9.2058902827
 30
0.0
 10
12.6827791362
 20
9.2457200503
 30
0.0
 10
12.6700573242
 20
9.2851026319
 30
0.0
 10
12.6554622157
 20
9.3239443814
 30
0.0
 10
12.6390288958
 20
9.3621515979
 30
0.0
 10
12.6207967635
 20
9.3996323142
 30
0.0
 10
12.6008101992
 20
9.4362964974
 30
0.0
 10
12.5791166678
 20
9.4720555173
 30
0.0
 10
12.555769341
 20
9.5068238854
 30
0.0
 10
12.5308233397
 20
9.5405171727
 30
0.0
 10
12.5043399489
 20
9.5730552042
 30
0.0
 10
12.4763816367
 20
9.604358607
 30
0.0
 10
12.4470170092
 20
9.6343531939
 30
0.0
 10
12.4163155061
 20
9.6629655412
 30
0.0
 10
12.3843521648
 20
9.690127987
 30
0.0
 10
12.3512029192
 20
9.7157739803
 30
0.0
 10
12.3169483725
 20
9.7398428196
 30
0.0
 10
12.2816703317
 20
9.7622756622
 30
0.0
 10
12.2454541333
 20
9.7830191328
 30
0.0
 10
12.2083867345
 20
9.8020228251
 30
0.0
 10
12.1705573695
 20
9.8192411579
 30
0.0
 10
12.1320573016
 20
9.8346327228
 30
0.0
 10
12.0929780248
 20
9.848159987
 30
0.0
 10
12.040318935
 20
9.8636414915
 30
0.0
 10
11.9735183122
 20
9.8782060355
 30
0.0
 10
11.9192797964
 20
9.8846486068
 30
0.0
 10
11.8921730198
 20
9.8865284681
 30
0.0
  0
SPLINE
  5
3F9
100
AcDbEntity
  8
0
100
AcDbSpline
 62
7
  6
CONTINUOUS
 70
0
 71
3
 72
16
 73
12
 74
0
 42
0.0000001
 43
0.0000001
 44
0.0000000001
 40
0.0
 40
0.0
 40
0.0
 40
0.0
 40
0.1236450025
 40
0.1855976618
 40
0.2476386809
 40
0.3719893701
 40
0.496733349
 40
0.6218884842
 40
0.7474788994
 40
0.8735266243
 40
1.0
 40
1.0
 40
1.0
 40
1.0
 10
12.6485618384
 20
8.6766470893
 30
0.0
 10
12.6542756535
 20
8.6892857869
 30
0.0
 10
12.6623382635
 20
8.7084958568
 30
0.0
 10
12.672042212
 20
8.7345280488
 30
0.0
 10
12.6810669847
 20
8.7608878072
 30
0.0
 10
12.6910355234
 20
8.7943555326
 30
0.0
 10
12.7008572789
 20
8.8351931193
 30
0.0
 10
12.7085230451
 20
8.8766314762
 30
0.0
 10
12.7140122375
 20
8.9185613765
 30
0.0
 10
12.7173087001
 20
8.9608673423
 30
0.0
 10
12.7180396502
 20
8.9892002417
 30
0.0
 10
12.7180396502
 20
9.0033877923
 30
0.0
  0
SPLINE
  5
3FA
100
AcDbEntity
  8
0
100
AcDbSpline
 62
7
  6
CONTINUOUS
 70
0
 71
3
 72
22
 73
18
 74
0
 42
0.0000001
 43
0.0000001
 44
0.0000000001
 40
0.0
 40
0.0
 40
0.0
 40
0.0
 40
0.0662627889
 40
0.1328022627
 40
0.1995323899
 40
0.2663327743
 40
0.3994321266
 40
0.4652792355
 40
0.5303098426
 40
0.5942641163
 40
0.6569139169
 40
0.7180845853
 40
0.777666605
 40
0.8356161461
 40
0.8919456067
 40
0.9467124961
 40
1.0
 40
1.0
 40
1.0
 40
1.0
 10
12.6299793281
 20
8.476370001
 30
0.0
 10
12.6319725609
 20
8.4949506121
 30
0.0
 10
12.6357997264
 20
8.5322076855
 30
0.0
 10
12.6409899992
 20
8.5882402469
 30
0.0
 10
12.6455707136
 20
8.644478548
 30
0.0
 10
12.6507570518
 20
8.7194947889
 30
0.0
 10
12.6544218058
 20
8.7943630152
 30
0.0
 10
12.6563072094
 20
8.8687878326
 30
0.0
 10
12.6567867969
 20
8.9237343742
 30
0.0
 10
12.6563228714
 20
8.9777793359
 30
0.0
 10
12.6549282085
 20
9.0307194238
 30
0.0
 10
12.6526404783
 20
9.0823941397
 30
0.0
 10
12.6495172149
 20
9.1326969037
 30
0.0
 10
12.6456288949
 20
9.1815765974
 30
0.0
 10
12.6410520334
 20
9.2290323354
 30
0.0
 10
12.6358633692
 20
9.2751018663
 30
0.0
 10
12.6319945178
 20
9.3053297168
 30
0.0
 10
12.6299793281
 20
9.3202219589
 30
0.0
  0
SPLINE
  5
3FB
100
AcDbEntity
  8
0
100
AcDbSpline
 62
7
  6
CONTINUOUS
 70
0
 71
3
 72
22
 73
18
 74
0
 42
0.0000001
 43
0.0000001
 44
0.0000000001
 40
0.0
 40
0.0
 40
0.0
 40
0.0
 40
0.0578974882
 40
0.1168076123
 40
0.1767563582
 40
0.2377431684
 40
0.2997246356
 40
0.362608436
 40
0.4262493434
 40
0.4904549021
 40
0.5550003489
 40
0.6196506978
 40
0.6841843697
 40
0.7484122155
 40
0.8121886095
 40
0.8754127419
 40
1.0
 40
1.0
 40
1.0
 40
1.0
 10
12.5727698827
 20
9.4232791135
 30
0.0
 10
12.5602627714
 20
9.4346015731
 30
0.0
 10
12.5348496239
 20
9.4572465385
 30
0.0
 10
12.4958190336
 20
9.4908572505
 30
0.0
 10
12.455487449
 20
9.5243242325
 30
0.0
 10
12.4138085622
 20
9.5575537839
 30
0.0
 10
12.3707692293
 20
9.5904309598
 30
0.0
 10
12.3264007959
 20
9.622821534
 30
0.0
 10
12.2807849787
 20
9.654579342
 30
0.0
 10
12.2340539426
 20
9.6855574417
 30
0.0
 10
12.1863819045
 20
9.7156218735
 30
0.0
 10
12.1379695402
 20
9.7446648292
 30
0.0
 10
12.0890245559
 20
9.7726139792
 30
0.0
 10
12.0397432704
 20
9.7994359737
 30
0.0
 10
11.9902967484
 20
9.8251341612
 30
0.0
 10
11.9246551404
 20
9.857784374
 30
0.0
 10
11.8750675282
 20
9.8809632801
 30
0.0
 10
11.8419726501
 20
9.8958860526
 30
0.0
  0
SPLINE
  5
3FC
100
AcDbEntity
  8
0
100
AcDbSpline
 62
7
  6
CONTINUOUS
 70
0
 71
3
 72
15
 73
11
 74
0
 42
0.0000001
 43
0.0000001
 44
0.0000000001
 40
0.0
 40
0.0
 40
0.0
 40
0.0
 40
0.1024590394
 40
0.2125892926
 40
0.3308757892
 40
0.4568382862
 40
0.5888686932
 40
0.7247066359
 40
0.8622407571
 40
1.0
 40
1.0
 40
1.0
 40
1.0
 10
11.7275537593
 20
9.9038210297
 30
0.0
 10
11.7018667805
 20
9.8926581729
 30
0.0
 10
11.6487318897
 20
9.869121138
 30
0.0
 10
11.5665853812
 20
9.8312643092
 30
0.0
 10
11.4792455691
 20
9.7893526432
 30
0.0
 10
11.3872102296
 20
9.743417467
 30
0.0
 10
11.2915913641
 20
9.6939453186
 30
0.0
 10
11.1938238571
 20
9.6417640713
 30
0.0
 10
11.0952494676
 20
9.5877843676
 30
0.0
 10
11.0295621944
 20
9.5510652059
 30
0.0
 10
10.9967565268
 20
9.532576011
 30
0.0
  0
SPLINE
  5
3FD
100
AcDbEntity
  8
0
100
AcDbSpline
 62
7
  6
CONTINUOUS
 70
0
 71
3
 72
20
 73
16
 74
0
 42
0.0000001
 43
0.0000001
 44
0.0000000001
 40
0.0
 40
0.0
 40
0.0
 40
0.0
 40
0.1307118504
 40
0.2609271596
 40
0.3256853614
 40
0.3901038075
 40
0.4540959115
 40
0.5175746912
 40
0.5804579524
 40
0.6426740239
 40
0.7041660739
 40
0.7648946165
 40
0.8248383834
 40
0.8839938085
 40
1.0
 40
1.0
 40
1.0
 40
1.0
 10
10.714148835
 20
9.2197358331
 30
0.0
 10
10.7117702865
 20
9.1830138853
 30
0.0
 10
10.7074556876
 20
9.1096804429
 30
0.0
 10
10.7033627931
 20
9.0180787658
 30
0.0
 10
10.701002519
 20
8.9450903258
 30
0.0
 10
10.6997187615
 20
8.890722541
 30
0.0
 10
10.6989387023
 20
8.8367053849
 30
0.0
 10
10.698675466
 20
8.783115387
 30
0.0
 10
10.6989338087
 20
8.7300253488
 30
0.0
 10
10.6997092563
 20
8.6774997245
 30
0.0
 10
10.7009889106
 20
8.6255907767
 30
0.0
 10
10.7027525148
 20
8.574336165
 30
0.0
 10
10.704973971
 20
8.5237578039
 30
0.0
 10
10.7084827288
 20
8.4576617329
 30
0.0
 10
10.7117375052
 20
8.4084535951
 30
0.0
 10
10.714148835
 20
8.3758838752
 30
0.0
  0
SPLINE
  5
3FE
100
AcDbEntity
  8
0
100
AcDbSpline
 62
7
  6
CONTINUOUS
 70
0
 71
3
 72
21
 73
17
 74
0
 42
0.0000001
 43
0.0000001
 44
0.0000000001
 40
0.0
 40
0.0
 40
0.0
 40
0.0
 40
0.1211305215
 40
0.1823718855
 40
0.2440515074
 40
0.3061441797
 40
0.3686109568
 40
0.4313999269
 40
0.4944480864
 40
0.5576845339
 40
0.6210350022
 40
0.684426846
 40
0.7477930962
 40
0.8110754374
 40
0.8742262746
 40
1.0
 40
1.0
 40
1.0
 40
1.0
 10
10.7713582804
 20
8.2728267205
 30
0.0
 10
10.7990197409
 20
8.2510705128
 30
0.0
 10
10.8409722624
 20
8.2186999739
 30
0.0
 10
10.8977892107
 20
8.1762801801
 30
0.0
 10
10.9412212222
 20
8.1446084913
 30
0.0
 10
10.9853151636
 20
8.1132466529
 30
0.0
 10
11.0300566986
 20
8.0822461389
 30
0.0
 10
11.0754167926
 20
8.0516585112
 30
0.0
 10
11.1213524703
 20
8.0215325149
 30
0.0
 10
11.1678087107
 20
7.9919111076
 30
0.0
 10
11.2147214175
 20
7.9628282179
 30
0.0
 10
11.2620218017
 20
7.9343072552
 30
0.0
 10
11.3096404462
 20
7.9063602476
 30
0.0
 10
11.3575109809
 20
7.8789878362
 30
0.0
 10
11.4215043756
 20
7.8432938642
 30
0.0
 10
11.4698359671
 20
7.8172698203
 30
0.0
 10
11.5021555129
 20
7.8002197814
 30
0.0
  0
SPLINE
  5
3FF
100
AcDbEntity
  8
0
100
AcDbSpline
 62
7
  6
CONTINUOUS
 70
0
 71
3
 72
15
 73
11
 74
0
 42
0.0000001
 43
0.0000001
 44
0.0000000001
 40
0.0
 40
0.0
 40
0.0
 40
0.0
 40
0.1128128137
 40
0.2295619377
 40
0.3503742146
 40
0.4750618339
 40
0.6031113457
 40
0.7337873942
 40
0.8663091291
 40
1.0
 40
1.0
 40
1.0
 40
1.0
 10
11.6165744038
 20
7.7922848044
 30
0.0
 10
11.6444931338
 20
7.8053590721
 30
0.0
 10
11.7012109062
 20
7.8321648077
 30
0.0
 10
11.7874591386
 20
7.8737450557
 30
0.0
 10
11.8762718581
 20
7.9174709601
 30
0.0
 10
11.9674700803
 20
7.9633345938
 30
0.0
 10
12.0606856592
 20
8.0111781508
 30
0.0
 10
12.1554321429
 20
8.0607202124
 30
0.0
 10
12.2512057236
 20
8.1116192014
 30
0.0
 10
12.3152500426
 20
8.1461252017
 30
0.0
 10
12.3473716363
 20
8.1635298231
 30
0.0
  0
SPLINE
  5
400
100
AcDbEntity
  8
0
100
AcDbSpline
 62
7
  6
CONTINUOUS
 70
0
 71
3
 72
15
 73
11
 74
0
 42
0.0000001
 43
0.0000001
 44
0.0000000001
 40
0.0
 40
0.0
 40
0.0
 40
0.0
 40
0.1235752096
 40
0.2474950402
 40
0.3717979941
 40
0.4965172206
 40
0.6216760548
 40
0.7472994836
 40
0.8734166375
 40
1.0
 40
1.0
 40
1.0
 40
1.0
 10
12.6470480053
 20
8.6616185452
 30
0.0
 10
12.6537206785
 20
8.6750558694
 30
0.0
 10
12.6662916747
 20
8.7023700779
 30
0.0
 10
12.6827300616
 20
8.7444356351
 30
0.0
 10
12.6967273841
 20
8.7875227265
 30
0.0
 10
12.7082375835
 20
8.8314946393
 30
0.0
 10
12.7172269568
 20
8.8762135295
 30
0.0
 10
12.7236664676
 20
8.9215417094
 30
0.0
 10
12.7275349647
 20
8.9673330573
 30
0.0
 10
12.7283924035
 20
8.9980196996
 30
0.0
 10
12.7283924035
 20
9.0133877847
 30
0.0
  0
SPLINE
  5
401
100
AcDbEntity
  8
0
100
AcDbSpline
 62
7
  6
CONTINUOUS
 70
0
 71
3
 72
67
 73
63
 74
0
 42
0.0000001
 43
0.0000001
 44
0.0000000001
 40
0.0
 40
0.0
 40
0.0
 40
0.0
 40
0.0156208593
 40
0.0311919602
 40
0.0467088386
 40
0.062173276
 40
0.0775878162
 40
0.0929540716
 40
0.1082742252
 40
0.1235512559
 40
0.1387885557
 40
0.153989822
 40
0.1691591733
 40
0.1843010435
 40
0.1994201892
 40
0.2145215786
 40
0.2296103873
 40
0.2446919059
 40
0.2597715155
 40
0.274854618
 40
0.2899465735
 40
0.3050526605
 40
0.3201779774
 40
0.3353274489
 40
0.3505057208
 40
0.3657171655
 40
0.380965775
 40
0.3962551812
 40
0.4115885727
 40
0.4269687104
 40
0.4423978773
 40
0.4578778561
 40
0.4734099318
 40
0.488994865
 40
0.5203145517
 40
0.5518423775
 40
0.5676854147
 40
0.5835753953
 40
0.5995097291
 40
0.6154853795
 40
0.6314989709
 40
0.64754676
 40
0.6636247272
 40
0.6797285675
 40
0.6958537564
 40
0.7119955667
 40
0.728149142
 40
0.744309521
 40
0.7604716816
 40
0.7766305859
 40
0.7927812171
 40
0.8089186391
 40
0.8250380274
 40
0.8411347282
 40
0.8572042684
 40
0.873242422
 40
0.8892452006
 40
0.9052090392
 40
0.9211307392
 40
0.9370071758
 40
0.9686057956
 40
1.0
 40
1.0
 40
1.0
 40
1.0
 10
11.5417323219
 20
9.5528583568
 30
0.0
 10
11.5281658897
 20
9.5537991921
 30
0.0
 10
11.5010256324
 20
9.5550168176
 30
0.0
 10
11.4603470844
 20
9.5548416261
 30
0.0
 10
11.419861937
 20
9.5526590263
 30
0.0
 10
11.3796715189
 20
9.5484759111
 30
0.0
 10
11.3398709477
 20
9.5423016112
 30
0.0
 10
11.3005556209
 20
9.5341516617
 30
0.0
 10
11.2618208973
 20
9.5240446093
 30
0.0
 10
11.2237601072
 20
9.5120053936
 30
0.0
 10
11.1864649349
 20
9.4980628057
 30
0.0
 10
11.1500254091
 20
9.4822501577
 30
0.0
 10
11.1145292329
 20
9.4646059881
 30
0.0
 10
11.08006242
 20
9.4451720363
 30
0.0
 10
11.0467075319
 20
9.4239961189
 30
0.0
 10
11.0145458084
 20
9.4011280585
 30
0.0
 10
10.9836538836
 20
9.376624319
 30
0.0
 10
10.9541074079
 20
9.3505425811
 30
0.0
 10
10.9259764163
 20
9.3229471539
 30
0.0
 10
10.8993300681
 20
9.2939032604
 30
0.0
 10
10.874231303
 20
9.2634821758
 30
0.0
 10
10.8507418994
 20
9.2317562427
 30
0.0
 10
10.8289173348
 20
9.1988028674
 30
0.0
 10
10.8088111716
 20
9.1647009002
 30
0.0
 10
10.7904711043
 20
9.1295330552
 30
0.0
 10
10.7739417494
 20
9.0933839062
 30
0.0
 10
10.7592627346
 20
9.056340731
 30
0.0
 10
10.7464692011
 20
9.0184929219
 30
0.0
 10
10.7355923966
 20
8.9799315904
 30
0.0
 10
10.7266576268
 20
8.9407499337
 30
0.0
 10
10.7196874479
 20
8.9010420827
 30
0.0
 10
10.7146971582
 20
8.8609042622
 30
0.0
 10
10.7117003325
 20
8.8204319084
 30
0.0
 10
10.7103673497
 20
8.7660743621
 30
0.0
 10
10.7137332806
 20
8.6977605784
 30
0.0
 10
10.7237237274
 20
8.6298741122
 30
0.0
 10
10.7356221421
 20
8.5760842873
 30
0.0
 10
10.7465028345
 20
8.5360216418
 30
0.0
 10
10.7592989899
 20
8.4964088272
 30
0.0
 10
10.7739794309
 20
8.4573398845
 30
0.0
 10
10.7905088716
 20
8.4189092248
 30
0.0
 10
10.8088476249
 20
8.3812093373
 30
0.0
 10
10.8289510609
 20
8.3443307503
 30
0.0
 10
10.8507714567
 20
8.3083626113
 30
0.0
 10
10.8742553218
 20
8.2733909125
 30
0.0
 10
10.899347209
 20
8.2395005849
 30
0.0
 10
10.9259854717
 20
8.2067722761
 30
0.0
 10
10.9541072768
 20
8.1752858166
 30
0.0
 10
10.9836436266
 20
8.1451158247
 30
0.0
 10
11.014524675
 20
8.1163361514
 30
0.0
 10
11.0466749389
 20
8.0890148563
 30
0.0
 10
11.0800180393
 20
8.0632188868
 30
0.0
 10
11.1144729025
 20
8.0390092973
 30
0.0
 10
11.1499572464
 20
8.0164452686
 30
0.0
 10
11.1863852375
 20
7.99558049
 30
0.0
 10
11.2236694067
 20
7.9764656646
 30
0.0
 10
11.2617199946
 20
7.9591466395
 30
0.0
 10
11.3004452069
 20
7.9436650664
 30
0.0
 10
11.3397530174
 20
7.9300586964
 30
0.0
 10
11.3927200559
 20
7.9144866557
 30
0.0
 10
11.4599113266
 20
7.8998369389
 30
0.0
 10
11.5144670264
 20
7.8933566918
 30
0.0
 10
11.5417323219
 20
7.8914658372
 30
0.0
  0
SPLINE
  5
402
100
AcDbEntity
  8
0
100
AcDbSpline
 62
7
  6
CONTINUOUS
 70
0
 71
3
 72
67
 73
63
 74
0
 42
0.0000001
 43
0.0000001
 44
0.0000000001
 40
0.0
 40
0.0
 40
0.0
 40
0.0
 40
0.0156208593
 40
0.0311919602
 40
0.0467088386
 40
0.062173276
 40
0.0775878162
 40
0.0929540716
 40
0.1082742252
 40
0.1235512559
 40
0.1387885557
 40
0.153989822
 40
0.1691591733
 40
0.1843010435
 40
0.1994201892
 40
0.2145215786
 40
0.2296103873
 40
0.2446919059
 40
0.2597715155
 40
0.274854618
 40
0.2899465735
 40
0.3050526605
 40
0.3201779774
 40
0.3353274489
 40
0.3505057208
 40
0.3657171655
 40
0.380965775
 40
0.3962551812
 40
0.4115885727
 40
0.4269687104
 40
0.4423978773
 40
0.4578778561
 40
0.4734099318
 40
0.488994865
 40
0.5203145517
 40
0.5518423775
 40
0.5676854147
 40
0.5835753953
 40
0.5995097291
 40
0.6154853795
 40
0.6314989709
 40
0.64754676
 40
0.6636247272
 40
0.6797285675
 40
0.6958537564
 40
0.7119955667
 40
0.728149142
 40
0.744309521
 40
0.7604716816
 40
0.7766305859
 40
0.7927812171
 40
0.8089186391
 40
0.8250380274
 40
0.8411347282
 40
0.8572042684
 40
0.873242422
 40
0.8892452006
 40
0.9052090392
 40
0.9211307392
 40
0.9370071758
 40
0.9686057956
 40
1.0
 40
1.0
 40
1.0
 40
1.0
 10
11.5417323219
 20
7.8914658372
 30
0.0
 10
11.5552987541
 20
7.8905250019
 30
0.0
 10
11.5824390115
 20
7.8893073763
 30
0.0
 10
11.6231175595
 20
7.8894825679
 30
0.0
 10
11.6636027069
 20
7.8916651677
 30
0.0
 10
11.703793125
 20
7.8958482829
 30
0.0
 10
11.7435936962
 20
7.9020225828
 30
0.0
 10
11.782909023
 20
7.9101725323
 30
0.0
 10
11.8216437466
 20
7.9202795847
 30
0.0
 10
11.8597045367
 20
7.9323188004
 30
0.0
 10
11.896999709
 20
7.9462613882
 30
0.0
 10
11.9334392348
 20
7.9620740363
 30
0.0
 10
11.968935411
 20
7.9797182059
 30
0.0
 10
12.0034022239
 20
7.9991521577
 30
0.0
 10
12.036757112
 20
8.0203280751
 30
0.0
 10
12.0689188355
 20
8.0431961355
 30
0.0
 10
12.0998107603
 20
8.0676998749
 30
0.0
 10
12.129357236
 20
8.0937816129
 30
0.0
 10
12.1574882276
 20
8.12137704
 30
0.0
 10
12.1841345758
 20
8.1504209336
 30
0.0
 10
12.2092333409
 20
8.1808420182
 30
0.0
 10
12.2327227445
 20
8.2125679513
 30
0.0
 10
12.254547309
 20
8.2455213266
 30
0.0
 10
12.2746534722
 20
8.2796232938
 30
0.0
 10
12.2929935395
 20
8.3147911388
 30
0.0
 10
12.3095228945
 20
8.3509402878
 30
0.0
 10
12.3242019093
 20
8.3879834629
 30
0.0
 10
12.3369954428
 20
8.4258312721
 30
0.0
 10
12.3478722473
 20
8.4643926036
 30
0.0
 10
12.3568070171
 20
8.5035742603
 30
0.0
 10
12.363777196
 20
8.5432821113
 30
0.0
 10
12.3687674857
 20
8.5834199318
 30
0.0
 10
12.3717643114
 20
8.6238922856
 30
0.0
 10
12.3730972942
 20
8.6782498319
 30
0.0
 10
12.3697313633
 20
8.7465636156
 30
0.0
 10
12.3597409165
 20
8.8144500818
 30
0.0
 10
12.3478425018
 20
8.8682399067
 30
0.0
 10
12.3369618094
 20
8.9083025522
 30
0.0
 10
12.324165654
 20
8.9479153668
 30
0.0
 10
12.309485213
 20
8.9869843095
 30
0.0
 10
12.2929557723
 20
9.0254149692
 30
0.0
 10
12.274617019
 20
9.0631148566
 30
0.0
 10
12.254513583
 20
9.0999934437
 30
0.0
 10
12.2326931872
 20
9.1359615827
 30
0.0
 10
12.209209322
 20
9.1709332814
 30
0.0
 10
12.1841174349
 20
9.2048236091
 30
0.0
 10
12.1574791722
 20
9.2375519179
 30
0.0
 10
12.1293573671
 20
9.2690383774
 30
0.0
 10
12.0998210173
 20
9.2992083693
 30
0.0
 10
12.0689399689
 20
9.3279880426
 30
0.0
 10
12.036789705
 20
9.3553093377
 30
0.0
 10
12.0034466046
 20
9.3811053071
 30
0.0
 10
11.9689917414
 20
9.4053148967
 30
0.0
 10
11.9335073975
 20
9.4278789254
 30
0.0
 10
11.8970794064
 20
9.448743704
 30
0.0
 10
11.8597952372
 20
9.4678585294
 30
0.0
 10
11.8217446493
 20
9.4851775545
 30
0.0
 10
11.783019437
 20
9.5006591276
 30
0.0
 10
11.7437116265
 20
9.5142654975
 30
0.0
 10
11.690744588
 20
9.5298375383
 30
0.0
 10
11.6235533173
 20
9.5444872551
 30
0.0
 10
11.5689976175
 20
9.5509675021
 30
0.0
 10
11.5417323219
 20
9.5528583568
 30
0.0
  0
SPLINE
  5
403
100
AcDbEntity
  8
0
100
AcDbSpline
 62
7
  6
CONTINUOUS
 70
0
 71
3
 72
15
 73
11
 74
0
 42
0.0000001
 43
0.0000001
 44
0.0000000001
 40
0.0
 40
0.0
 40
0.0
 40
0.0
 40
0.1261304062
 40
0.251857918
 40
0.3772174985
 40
0.502247911
 40
0.6269926351
 40
0.751498858
 40
0.8758169754
 40
1.0
 40
1.0
 40
1.0
 40
1.0
 10
11.6728453359
 20
9.8798761669
 30
0.0
 10
11.6582761189
 20
9.8766682947
 30
0.0
 10
11.6293597837
 20
9.8694322199
 30
0.0
 10
11.5867493391
 20
9.8561275395
 30
0.0
 10
11.5450986359
 20
9.8404291907
 30
0.0
 10
11.5045367256
 20
9.8223847973
 30
0.0
 10
11.4651865207
 20
9.8020502433
 30
0.0
 10
11.4271684545
 20
9.7794858648
 30
0.0
 10
11.3905993941
 20
9.7547628232
 30
0.0
 10
11.3672476272
 20
9.7368810777
 30
0.0
 10
11.3558550719
 20
9.727610528
 30
0.0
  0
SPLINE
  5
404
100
AcDbEntity
  8
0
100
AcDbSpline
 62
7
  6
CONTINUOUS
 70
0
 71
3
 72
35
 73
31
 74
0
 42
0.0000001
 43
0.0000001
 44
0.0000000001
 40
0.0
 40
0.0
 40
0.0
 40
0.0
 40
0.0612906693
 40
0.1229878739
 40
0.1539915337
 40
0.1850872977
 40
0.2162696171
 40
0.2475327476
 40
0.2788701874
 40
0.3102745649
 40
0.3417379897
 40
0.3732520333
 40
0.4048078488
 40
0.4363961973
 40
0.468007577
 40
0.4996322754
 40
0.5312604555
 40
0.562882252
 40
0.5944878596
 40
0.6260676278
 40
0.6576121068
 40
0.6891121837
 40
0.720559106
 40
0.7519446068
 40
0.7832608858
 40
0.8145009644
 40
0.845658577
 40
0.8767276093
 40
0.9385638178
 40
1.0
 40
1.0
 40
1.0
 40
1.0
 10
12.7283924035
 20
9.0133877847
 30
0.0
 10
12.7283924035
 20
9.0404953103
 30
0.0
 10
12.7257108821
 20
9.0949239906
 30
0.0
 10
12.7157784781
 20
9.1624129434
 30
0.0
 10
12.7039492119
 20
9.2158902751
 30
0.0
 10
12.6931318894
 20
9.2557200426
 30
0.0
 10
12.6804100774
 20
9.2951026243
 30
0.0
 10
12.665814969
 20
9.3339443738
 30
0.0
 10
12.649381649
 20
9.3721515902
 30
0.0
 10
12.6311495167
 20
9.4096323065
 30
0.0
 10
12.6111629525
 20
9.4462964898
 30
0.0
 10
12.589469421
 20
9.4820555096
 30
0.0
 10
12.5661220943
 20
9.5168238777
 30
0.0
 10
12.5411760929
 20
9.5505171651
 30
0.0
 10
12.5146927021
 20
9.5830551965
 30
0.0
 10
12.48673439
 20
9.6143585994
 30
0.0
 10
12.4573697624
 20
9.6443531863
 30
0.0
 10
12.4266682593
 20
9.6729655335
 30
0.0
 10
12.394704918
 20
9.7001279793
 30
0.0
 10
12.3615556724
 20
9.7257739726
 30
0.0
 10
12.3273011258
 20
9.749842812
 30
0.0
 10
12.2920230849
 20
9.7722756545
 30
0.0
 10
12.2558068866
 20
9.7930191251
 30
0.0
 10
12.2187394877
 20
9.8120228174
 30
0.0
 10
12.1809101228
 20
9.8292411502
 30
0.0
 10
12.1424100549
 20
9.8446327151
 30
0.0
 10
12.103330778
 20
9.8581599793
 30
0.0
 10
12.0506716882
 20
9.8736414838
 30
0.0
 10
11.9838710655
 20
9.8882060278
 30
0.0
 10
11.9296325496
 20
9.8946485991
 30
0.0
 10
11.9025257731
 20
9.8965284604
 30
0.0
  0
SPLINE
  5
405
100
AcDbEntity
  8
0
100
AcDbSpline
 62
7
  6
CONTINUOUS
 70
0
 71
3
 72
20
 73
16
 74
0
 42
0.0000001
 43
0.0000001
 44
0.0000000001
 40
0.0
 40
0.0
 40
0.0
 40
0.0
 40
0.1160061915
 40
0.1751616166
 40
0.2351053835
 40
0.2958339261
 40
0.3573259761
 40
0.4195420477
 40
0.4824253089
 40
0.5459040886
 40
0.6098961925
 40
0.6743146387
 40
0.7390728404
 40
0.8692881496
 40
1.0
 40
1.0
 40
1.0
 40
1.0
 10
12.4045810817
 20
8.2586520007
 30
0.0
 10
12.4021697519
 20
8.2912217206
 30
0.0
 10
12.3989149756
 20
8.3404298585
 30
0.0
 10
12.3954062178
 20
8.4065259295
 30
0.0
 10
12.3931847615
 20
8.4571042905
 30
0.0
 10
12.3914211574
 20
8.5083589022
 30
0.0
 10
12.3901415031
 20
8.56026785
 30
0.0
 10
12.3893660554
 20
8.6127934744
 30
0.0
 10
12.3891077127
 20
8.6658835125
 30
0.0
 10
12.3893709491
 20
8.7194735104
 30
0.0
 10
12.3901510083
 20
8.7734906665
 30
0.0
 10
12.3914347658
 20
8.8278584514
 30
0.0
 10
12.3937950398
 20
8.9008468913
 30
0.0
 10
12.3978879344
 20
8.9924485684
 30
0.0
 10
12.4022025332
 20
9.0657820108
 30
0.0
 10
12.4045810817
 20
9.1025039586
 30
0.0
  0
SPLINE
  5
406
100
AcDbEntity
  8
0
100
AcDbSpline
 62
7
  6
CONTINUOUS
 70
0
 71
3
 72
21
 73
17
 74
0
 42
0.0000001
 43
0.0000001
 44
0.0000000001
 40
0.0
 40
0.0
 40
0.0
 40
0.0
 40
0.1257737254
 40
0.1889245626
 40
0.2522069038
 40
0.3155731541
 40
0.3789649978
 40
0.4423154662
 40
0.5055519136
 40
0.5686000731
 40
0.6313890432
 40
0.6938558204
 40
0.7559484927
 40
0.8176281145
 40
0.8788694786
 40
1.0
 40
1.0
 40
1.0
 40
1.0
 10
12.3473716363
 20
9.2055611132
 30
0.0
 10
12.3150520905
 20
9.2226111521
 30
0.0
 10
12.266720499
 20
9.2486351961
 30
0.0
 10
12.2027271042
 20
9.284329168
 30
0.0
 10
12.1548565696
 20
9.3117015794
 30
0.0
 10
12.1072379251
 20
9.339648587
 30
0.0
 10
12.0599375409
 20
9.3681695497
 30
0.0
 10
12.0130248341
 20
9.3972524394
 30
0.0
 10
11.9665685937
 20
9.4268738468
 30
0.0
 10
11.9206329159
 20
9.456999843
 30
0.0
 10
11.8752728219
 20
9.4875874707
 30
0.0
 10
11.830531287
 20
9.5185879847
 30
0.0
 10
11.7864373456
 20
9.5499498231
 30
0.0
 10
11.743005334
 20
9.5816215119
 30
0.0
 10
11.6861883858
 20
9.6240413057
 30
0.0
 10
11.6442358643
 20
9.6564118446
 30
0.0
 10
11.6165744038
 20
9.6781680524
 30
0.0
  0
SPLINE
  5
407
100
AcDbEntity
  8
0
100
AcDbSpline
 62
7
  6
CONTINUOUS
 70
0
 71
3
 72
15
 73
11
 74
0
 42
0.0000001
 43
0.0000001
 44
0.0000000001
 40
0.0
 40
0.0
 40
0.0
 40
0.0
 40
0.1336908709
 40
0.2662126058
 40
0.3968886543
 40
0.5249381662
 40
0.6496257854
 40
0.7704380623
 40
0.8871871863
 40
1.0
 40
1.0
 40
1.0
 40
1.0
 10
11.5021555129
 20
9.6861030294
 30
0.0
 10
11.4700339192
 20
9.668698408
 30
0.0
 10
11.4059896002
 20
9.6341924077
 30
0.0
 10
11.3102160195
 20
9.5832934187
 30
0.0
 10
11.2154695358
 20
9.5337513571
 30
0.0
 10
11.1222539569
 20
9.4859078001
 30
0.0
 10
11.0310557347
 20
9.4400441664
 30
0.0
 10
10.9422430152
 20
9.396318262
 30
0.0
 10
10.8559947828
 20
9.354738014
 30
0.0
 10
10.7992770104
 20
9.3279322784
 30
0.0
 10
10.7713582804
 20
9.3148580107
 30
0.0
  0
SPLINE
  5
408
100
AcDbEntity
  8
0
100
AcDbSpline
 62
7
  6
CONTINUOUS
 70
0
 71
3
 72
19
 73
15
 74
0
 42
0.0000001
 43
0.0000001
 44
0.0000000001
 40
0.0
 40
0.0
 40
0.0
 40
0.0
 40
0.1267318338
 40
0.2529199597
 40
0.3785785478
 40
0.5037278304
 40
0.5661285532
 40
0.6284136505
 40
0.690588007
 40
0.7526569502
 40
0.8146262552
 40
0.8765020901
 40
0.9382910273
 40
1.0
 40
1.0
 40
1.0
 40
1.0
 10
12.7455759874
 20
6.1262082026
 30
0.0
 10
12.7455759874
 20
6.1090150981
 30
0.0
 10
12.7445113296
 20
6.0746928695
 30
0.0
 10
12.739701851
 20
6.0235258826
 30
0.0
 10
12.7317021469
 20
5.9729757555
 30
0.0
 10
12.7223920416
 20
5.9314842989
 30
0.0
 10
12.7133835732
 20
5.8988044239
 30
0.0
 10
12.7058607181
 20
5.8745910991
 30
0.0
 10
12.6975729182
 20
5.8506767018
 30
0.0
 10
12.6885278749
 20
5.827084091
 30
0.0
 10
12.6787345928
 20
5.803836082
 30
0.0
 10
12.6682022425
 20
5.7809551321
 30
0.0
 10
12.6569413805
 20
5.7584635795
 30
0.0
 10
12.6489502859
 20
5.7437336276
 30
0.0
 10
12.6448374023
 20
5.7364418105
 30
0.0
  0
SPLINE
  5
409
100
AcDbEntity
  8
0
100
AcDbSpline
 62
7
  6
CONTINUOUS
 70
0
 71
3
 72
19
 73
15
 74
0
 42
0.0000001
 43
0.0000001
 44
0.0000000001
 40
0.0
 40
0.0
 40
0.0
 40
0.0
 40
0.1267315004
 40
0.252919423
 40
0.3785779259
 40
0.5037272279
 40
0.5661279892
 40
0.628413143
 40
0.6905875706
 40
0.7526565956
 40
0.8146259895
 40
0.876501916
 40
0.9382909433
 40
1.0
 40
1.0
 40
1.0
 40
1.0
 10
10.5722427494
 20
6.2769293745
 30
0.0
 10
10.5722427494
 20
6.2597403419
 30
0.0
 10
10.5711785956
 20
6.2254262291
 30
0.0
 10
10.5663713969
 20
6.1742712176
 30
0.0
 10
10.5583754762
 20
6.1237326808
 30
0.0
 10
10.5490697603
 20
6.0822504656
 30
0.0
 10
10.5400655204
 20
6.0495776466
 30
0.0
 10
10.5325461855
 20
6.0253694251
 30
0.0
 10
10.5242622506
 20
6.0014599342
 30
0.0
 10
10.5152214101
 20
5.9778720169
 30
0.0
 10
10.5054326607
 20
5.9546284733
 30
0.0
 10
10.494905163
 20
5.9317517461
 30
0.0
 10
10.4836494655
 20
5.9092641581
 30
0.0
 10
10.4756620157
 20
5.8945366691
 30
0.0
 10
10.4715510026
 20
5.887246035
 30
0.0
  0
SPLINE
  5
40A
100
AcDbEntity
  8
0
100
AcDbSpline
 62
7
  6
CONTINUOUS
 70
0
 71
3
 72
19
 73
15
 74
0
 42
0.0000001
 43
0.0000001
 44
0.0000000001
 40
0.0
 40
0.0
 40
0.0
 40
0.0
 40
0.1267318338
 40
0.2529199597
 40
0.3785785478
 40
0.5037278304
 40
0.5661285532
 40
0.6284136505
 40
0.690588007
 40
0.7526569502
 40
0.8146262552
 40
0.8765020901
 40
0.9382910273
 40
1.0
 40
1.0
 40
1.0
 40
1.0
 10
12.7455759874
 20
9.0239858531
 30
0.0
 10
12.7455759874
 20
9.0067927487
 30
0.0
 10
12.7445113296
 20
8.9724705201
 30
0.0
 10
12.739701851
 20
8.9213035331
 30
0.0
 10
12.7317021469
 20
8.870753406
 30
0.0
 10
12.7223920416
 20
8.8292619495
 30
0.0
 10
12.7133835732
 20
8.7965820744
 30
0.0
 10
12.7058607181
 20
8.7723687496
 30
0.0
 10
12.6975729182
 20
8.7484543524
 30
0.0
 10
12.6885278749
 20
8.7248617416
 30
0.0
 10
12.6787345928
 20
8.7016137326
 30
0.0
 10
12.6682022425
 20
8.6787327826
 30
0.0
 10
12.6569413805
 20
8.6562412301
 30
0.0
 10
12.6489502859
 20
8.6415112782
 30
0.0
 10
12.6448374023
 20
8.6342194611
 30
0.0
  0
SPLINE
  5
40B
100
AcDbEntity
  8
0
100
AcDbSpline
 62
7
  6
CONTINUOUS
 70
0
 71
3
 72
19
 73
15
 74
0
 42
0.0000001
 43
0.0000001
 44
0.0000000001
 40
0.0
 40
0.0
 40
0.0
 40
0.0
 40
0.1267315004
 40
0.252919423
 40
0.3785779259
 40
0.5037272279
 40
0.5661279892
 40
0.628413143
 40
0.6905875706
 40
0.7526565956
 40
0.8146259895
 40
0.876501916
 40
0.9382909433
 40
1.0
 40
1.0
 40
1.0
 40
1.0
 10
10.5722427494
 20
9.1747070251
 30
0.0
 10
10.5722427494
 20
9.1575179925
 30
0.0
 10
10.5711785956
 20
9.1232038797
 30
0.0
 10
10.5663713969
 20
9.0720488682
 30
0.0
 10
10.5583754762
 20
9.0215103314
 30
0.0
 10
10.5490697603
 20
8.9800281162
 30
0.0
 10
10.5400655204
 20
8.9473552972
 30
0.0
 10
10.5325461855
 20
8.9231470757
 30
0.0
 10
10.5242622506
 20
8.8992375847
 30
0.0
 10
10.5152214101
 20
8.8756496675
 30
0.0
 10
10.5054326607
 20
8.8524061239
 30
0.0
 10
10.494905163
 20
8.8295293967
 30
0.0
 10
10.4836494655
 20
8.8070418086
 30
0.0
 10
10.4756620157
 20
8.7923143196
 30
0.0
 10
10.4715510026
 20
8.7850236856
 30
0.0
  0
SPLINE
  5
40C
100
AcDbEntity
  8
0
100
AcDbSpline
 62
7
  6
CONTINUOUS
 70
0
 71
3
 72
58
 73
54
 74
0
 42
0.0000001
 43
0.0000001
 44
0.0000000001
 40
0.0
 40
0.0
 40
0.0
 40
0.0
 40
0.0417737373
 40
0.0840364485
 40
0.126657724
 40
0.1695054566
 40
0.2124468032
 40
0.2553484901
 40
0.298077421
 40
0.3405011733
 40
0.3824885338
 40
0.4239100241
 40
0.4646384356
 40
0.5045493696
 40
0.5435217891
 40
0.5814385861
 40
0.6181871714
 40
0.6536600995
 40
0.6708864646
 40
0.6877562952
 40
0.7042579614
 40
0.7203802099
 40
0.7361123688
 40
0.7514441951
 40
0.766366103
 40
0.7808690035
 40
0.7949445543
 40
0.8085850007
 40
0.8217834443
 40
0.8345336989
 40
0.8468305763
 40
0.8586697732
 40
0.8700481773
 40
0.8809638057
 40
0.8914161393
 40
0.9014061401
 40
0.9109366315
 40
0.9200124299
 40
0.9286407999
 40
0.9368317431
 40
0.9445985649
 40
0.9519583582
 40
0.9589326975
 40
0.9655482957
 40
0.9718377309
 40
0.9778400552
 40
0.9836011724
 40
0.9864084712
 40
0.989175789
 40
0.9919106562
 40
0.994620905
 40
0.9973146092
 40
1.0
 40
1.0
 40
1.0
 40
1.0
 10
14.328976826
 20
9.6644337072
 30
0.0
 10
14.328976826
 20
9.6821568108
 30
0.0
 10
14.3292533267
 20
9.7178110291
 30
0.0
 10
14.3304756805
 20
9.7715353354
 30
0.0
 10
14.3325044927
 20
9.8256912998
 30
0.0
 10
14.3353331061
 20
9.8800996291
 30
0.0
 10
14.3389521775
 20
9.9345803302
 30
0.0
 10
14.3433497424
 20
9.9889531598
 30
0.0
 10
14.3485112338
 20
10.0430382297
 30
0.0
 10
14.3544195412
 20
10.0966566128
 30
0.0
 10
14.361055062
 20
10.1496309354
 30
0.0
 10
14.3683957673
 20
10.2017859705
 30
0.0
 10
14.3764172732
 20
10.2529492209
 30
0.0
 10
14.3850929198
 20
10.3029515034
 30
0.0
 10
14.3943938592
 20
10.3516274933
 30
0.0
 10
14.4042891414
 20
10.3988163678
 30
0.0
 10
14.4147458445
 20
10.4443620472
 30
0.0
 10
14.4239863722
 20
10.4811725932
 30
0.0
 10
14.4316458436
 20
10.5096776804
 30
0.0
 10
14.4374527408
 20
10.5303447486
 30
0.0
 10
14.4433730591
 20
10.5504918415
 30
0.0
 10
14.449402008
 20
10.5701023172
 30
0.0
 10
14.455534485
 20
10.5891599749
 30
0.0
 10
14.4617655061
 20
10.6076490617
 30
0.0
 10
14.4680898007
 20
10.6255543221
 30
0.0
 10
14.4745022323
 20
10.642860962
 30
0.0
 10
14.4809973762
 20
10.6595547219
 30
0.0
 10
14.4875699621
 20
10.6756218198
 30
0.0
 10
14.4942144347
 20
10.6910490442
 30
0.0
 10
14.5009254089
 20
10.7058236763
 30
0.0
 10
14.5076972259
 20
10.7199336027
 30
0.0
 10
14.5145244093
 20
10.7333672169
 30
0.0
 10
14.5214012298
 20
10.7461135524
 30
0.0
 10
14.5283221505
 20
10.7581621617
 30
0.0
 10
14.535281416
 20
10.76950327
 30
0.0
 10
14.5422734733
 20
10.7801276311
 30
0.0
 10
14.5492926037
 20
10.7900266966
 30
0.0
 10
14.5563333059
 20
10.7991924502
 30
0.0
 10
14.5633899903
 20
10.8076175772
 30
0.0
 10
14.5704573085
 20
10.8152952778
 30
0.0
 10
14.5775299264
 20
10.822219407
 30
0.0
 10
14.5846027671
 20
10.8283842626
 30
0.0
 10
14.5916708747
 20
10.8337846477
 30
0.0
 10
14.5987294339
 20
10.8384156269
 30
0.0
 10
14.6057738936
 20
10.8422725147
 30
0.0
 10
14.6127987787
 20
10.8453505591
 30
0.0
 10
14.6186840281
 20
10.8472793982
 30
0.0
 10
14.6233593822
 20
10.848414913
 30
0.0
 10
14.6268265012
 20
10.8490631643
 30
0.0
 10
14.6302831175
 20
10.8495149032
 30
0.0
 10
14.6337285662
 20
10.8497699739
 30
0.0
 10
14.6371618683
 20
10.849828338
 30
0.0
 10
14.6394436491
 20
10.8497360165
 30
0.0
 10
14.6405802341
 20
10.8496571878
 30
0.0
  0
SPLINE
  5
40D
100
AcDbEntity
  8
0
100
AcDbSpline
 62
7
  6
CONTINUOUS
 70
0
 71
3
 72
58
 73
54
 74
0
 42
0.0000001
 43
0.0000001
 44
0.0000000001
 40
0.0
 40
0.0
 40
0.0
 40
0.0
 40
0.0417737373
 40
0.0840364485
 40
0.126657724
 40
0.1695054566
 40
0.2124468032
 40
0.2553484901
 40
0.298077421
 40
0.3405011733
 40
0.3824885338
 40
0.4239100241
 40
0.4646384356
 40
0.5045493696
 40
0.5435217891
 40
0.5814385861
 40
0.6181871714
 40
0.6536600995
 40
0.6708864646
 40
0.6877562952
 40
0.7042579614
 40
0.7203802099
 40
0.7361123688
 40
0.7514441951
 40
0.766366103
 40
0.7808690035
 40
0.7949445543
 40
0.8085850007
 40
0.8217834443
 40
0.8345336989
 40
0.8468305763
 40
0.8586697732
 40
0.8700481773
 40
0.8809638057
 40
0.8914161393
 40
0.9014061401
 40
0.9109366315
 40
0.9200124299
 40
0.9286407999
 40
0.9368317431
 40
0.9445985649
 40
0.9519583582
 40
0.9589326975
 40
0.9655482957
 40
0.9718377309
 40
0.9778400552
 40
0.9836011724
 40
0.9864084712
 40
0.989175789
 40
0.9919106562
 40
0.994620905
 40
0.9973146092
 40
1.0
 40
1.0
 40
1.0
 40
1.0
 10
14.328976826
 20
6.7666560566
 30
0.0
 10
14.328976826
 20
6.7843791602
 30
0.0
 10
14.3292533267
 20
6.8200333786
 30
0.0
 10
14.3304756805
 20
6.8737576848
 30
0.0
 10
14.3325044927
 20
6.9279136493
 30
0.0
 10
14.3353331061
 20
6.9823219785
 30
0.0
 10
14.3389521775
 20
7.0368026797
 30
0.0
 10
14.3433497424
 20
7.0911755092
 30
0.0
 10
14.3485112338
 20
7.1452605791
 30
0.0
 10
14.3544195412
 20
7.1988789623
 30
0.0
 10
14.361055062
 20
7.2518532849
 30
0.0
 10
14.3683957673
 20
7.30400832
 30
0.0
 10
14.3764172732
 20
7.3551715703
 30
0.0
 10
14.3850929198
 20
7.4051738528
 30
0.0
 10
14.3943938592
 20
7.4538498427
 30
0.0
 10
14.4042891414
 20
7.5010387173
 30
0.0
 10
14.4147458445
 20
7.5465843966
 30
0.0
 10
14.4239863722
 20
7.5833949426
 30
0.0
 10
14.4316458436
 20
7.6119000298
 30
0.0
 10
14.4374527408
 20
7.632567098
 30
0.0
 10
14.4433730591
 20
7.652714191
 30
0.0
 10
14.449402008
 20
7.6723246666
 30
0.0
 10
14.455534485
 20
7.6913823243
 30
0.0
 10
14.4617655061
 20
7.7098714111
 30
0.0
 10
14.4680898007
 20
7.7277766715
 30
0.0
 10
14.4745022323
 20
7.7450833115
 30
0.0
 10
14.4809973762
 20
7.7617770713
 30
0.0
 10
14.4875699621
 20
7.7778441693
 30
0.0
 10
14.4942144347
 20
7.7932713937
 30
0.0
 10
14.5009254089
 20
7.8080460257
 30
0.0
 10
14.5076972259
 20
7.8221559522
 30
0.0
 10
14.5145244093
 20
7.8355895663
 30
0.0
 10
14.5214012298
 20
7.8483359019
 30
0.0
 10
14.5283221505
 20
7.8603845111
 30
0.0
 10
14.535281416
 20
7.8717256194
 30
0.0
 10
14.5422734733
 20
7.8823499805
 30
0.0
 10
14.5492926037
 20
7.892249046
 30
0.0
 10
14.5563333059
 20
7.9014147997
 30
0.0
 10
14.5633899903
 20
7.9098399266
 30
0.0
 10
14.5704573085
 20
7.9175176272
 30
0.0
 10
14.5775299264
 20
7.9244417565
 30
0.0
 10
14.5846027671
 20
7.9306066121
 30
0.0
 10
14.5916708747
 20
7.9360069971
 30
0.0
 10
14.5987294339
 20
7.9406379763
 30
0.0
 10
14.6057738936
 20
7.9444948641
 30
0.0
 10
14.6127987787
 20
7.9475729086
 30
0.0
 10
14.6186840281
 20
7.9495017477
 30
0.0
 10
14.6233593822
 20
7.9506372624
 30
0.0
 10
14.6268265012
 20
7.9512855138
 30
0.0
 10
14.6302831175
 20
7.9517372526
 30
0.0
 10
14.6337285662
 20
7.9519923234
 30
0.0
 10
14.6371618683
 20
7.9520506874
 30
0.0
 10
14.6394436491
 20
7.951958366
 30
0.0
 10
14.6405802341
 20
7.9518795372
 30
0.0
  0
SPLINE
  5
40E
100
AcDbEntity
  8
0
100
AcDbSpline
 62
7
  6
CONTINUOUS
 70
0
 71
3
 72
59
 73
55
 74
0
 42
0.0000001
 43
0.0000001
 44
0.0000000001
 40
0.0
 40
0.0
 40
0.0
 40
0.0
 40
0.0417736067
 40
0.0840362449
 40
0.1266573936
 40
0.169505022
 40
0.2124462578
 40
0.2553478387
 40
0.2980766664
 40
0.3405003207
 40
0.3824875887
 40
0.4239089935
 40
0.4646373274
 40
0.5045481926
 40
0.5435205532
 40
0.5814373017
 40
0.61818585
 40
0.6360884854
 40
0.6536592458
 40
0.6708855851
 40
0.6877554289
 40
0.7042570743
 40
0.7203793439
 40
0.7361114876
 40
0.7514433427
 40
0.7663652415
 40
0.7808681782
 40
0.7949437266
 40
0.8085842159
 40
0.8217826643
 40
0.8345329677
 40
0.8468298573
 40
0.858669108
 40
0.8700475322
 40
0.8809632182
 40
0.8914155794
 40
0.9014056404
 40
0.9109361662
 40
0.9200120257
 40
0.9286404358
 40
0.9368314387
 40
0.9445983041
 40
0.951958153
 40
0.9589325359
 40
0.9655481815
 40
0.9718376552
 40
0.9778400137
 40
0.9836011573
 40
0.9864084708
 40
0.9891757905
 40
0.9919106587
 40
0.9946209116
 40
0.997314615
 40
1.0
 40
1.0
 40
1.0
 40
1.0
 10
13.7326582195
 20
7.639545305
 30
0.0
 10
13.7326582195
 20
7.6559624349
 30
0.0
 10
13.7329143457
 20
7.6889894014
 30
0.0
 10
13.7340466219
 20
7.7387549164
 30
0.0
 10
13.7359259331
 20
7.7889202933
 30
0.0
 10
13.7385461045
 20
7.8393194252
 30
0.0
 10
13.7418984873
 20
7.8897856047
 30
0.0
 10
13.7459719956
 20
7.9401518621
 30
0.0
 10
13.7507531375
 20
7.9902515688
 30
0.0
 10
13.7562260628
 20
8.0399189823
 30
0.0
 10
13.7623726136
 20
8.0889898006
 30
0.0
 10
13.7691723847
 20
8.1373017084
 30
0.0
 10
13.7766027886
 20
8.1846949244
 30
0.0
 10
13.784639132
 20
8.2310127174
 30
0.0
 10
13.7932546857
 20
8.2761020016
 30
0.0
 10
13.802420808
 20
8.3198136053
 30
0.0
 10
13.8105616883
 20
8.3552731149
 30
0.0
 10
13.8173368395
 20
8.3828364879
 30
0.0
 10
13.822492254
 20
8.4028961352
 30
0.0
 10
13.8277616365
 20
8.422506163
 30
0.0
 10
13.8331405774
 20
8.4416503772
 30
0.0
 10
13.8386246751
 20
8.4603129412
 30
0.0
 10
13.844209318
 20
8.4784784367
 30
0.0
 10
13.8498899396
 20
8.4961318457
 30
0.0
 10
13.8556617645
 20
8.5132585927
 30
0.0
 10
13.861520071
 20
8.5298445262
 30
0.0
 10
13.8674599381
 20
8.5458759658
 30
0.0
 10
13.8734765061
 20
8.5613396758
 30
0.0
 10
13.8795647265
 20
8.5762229201
 30
0.0
 10
13.8857196207
 20
8.5905134269
 30
0.0
 10
13.8919360332
 20
8.6041994522
 30
0.0
 10
13.8982088885
 20
8.6172697338
 30
0.0
 10
13.9045329493
 20
8.6297135658
 30
0.0
 10
13.9109030702
 20
8.6415207402
 30
0.0
 10
13.9173139644
 20
8.6526816332
 30
0.0
 10
13.9237604539
 20
8.6631871321
 30
0.0
 10
13.9302372475
 20
8.6730287342
 30
0.0
 10
13.9367391881
 20
8.6821984551
 30
0.0
 10
13.9432610481
 20
8.6906889381
 30
0.0
 10
13.9497977718
 20
8.6984933362
 30
0.0
 10
13.956344294
 20
8.7056054231
 30
0.0
 10
13.962895772
 20
8.7120194343
 30
0.0
 10
13.9694474185
 20
8.717730158
 30
0.0
 10
13.9759947127
 20
8.7227327138
 30
0.0
 10
13.9825331392
 20
8.7270225903
 30
0.0
 10
13.9890585226
 20
8.7305953941
 30
0.0
 10
13.9955657628
 20
8.7334467744
 30
0.0
 10
14.0010173606
 20
8.7352335705
 30
0.0
 10
14.0053481947
 20
8.7362855604
 30
0.0
 10
14.0085598425
 20
8.7368860756
 30
0.0
 10
14.0117617554
 20
8.7373045671
 30
0.0
 10
14.0149533201
 20
8.7375409503
 30
0.0
 10
14.0181336385
 20
8.7375951163
 30
0.0
 10
14.0202472857
 20
8.7375096192
 30
0.0
 10
14.0213001203
 20
8.7374366111
 30
0.0
  0
SPLINE
  5
40F
100
AcDbEntity
  8
0
100
AcDbSpline
 62
7
  6
CONTINUOUS
 70
0
 71
3
 72
39
 73
35
 74
0
 42
0.0000001
 43
0.0000001
 44
0.0000000001
 40
0.0
 40
0.0
 40
0.0
 40
0.0
 40
0.0958313223
 40
0.1890999066
 40
0.2792396479
 40
0.3229663115
 40
0.3657099292
 40
0.4074081191
 40
0.4480006754
 40
0.4874302648
 40
0.5256424385
 40
0.5625857699
 40
0.5982125807
 40
0.6324786396
 40
0.665344311
 40
0.6967743203
 40
0.7267388303
 40
0.7552139511
 40
0.7821824427
 40
0.807635341
 40
0.8315726205
 40
0.8540058864
 40
0.8749600023
 40
0.8944766962
 40
0.9126183481
 40
0.9294727137
 40
0.94515911
 40
0.9598336921
 40
0.9668557838
 40
0.973702854
 40
0.9804062715
 40
0.9869997015
 40
0.9935186515
 40
1.0
 40
1.0
 40
1.0
 40
1.0
 10
8.8370125132
 20
12.0584920513
 30
0.0
 10
8.8280526962
 20
12.0591134167
 30
0.0
 10
8.8103855637
 20
12.0605365837
 30
0.0
 10
8.7843541595
 20
12.0632532604
 30
0.0
 10
8.7632413494
 20
12.0659931482
 30
0.0
 10
8.7468737313
 20
12.0684594883
 30
0.0
 10
8.7350219636
 20
12.0704174938
 30
0.0
 10
8.7234896117
 20
12.0724990439
 30
0.0
 10
8.7122959252
 20
12.0747007153
 30
0.0
 10
8.7014596001
 20
12.0770187746
 30
0.0
 10
8.6909987182
 20
12.0794493143
 30
0.0
 10
8.6809307298
 20
12.0819882915
 30
0.0
 10
8.6712724085
 20
12.0846313649
 30
0.0
 10
8.6620398416
 20
12.0873741766
 30
0.0
 10
8.6532483673
 20
12.0902120379
 30
0.0
 10
8.6449125803
 20
12.0931402458
 30
0.0
 10
8.6370462742
 20
12.0961538753
 30
0.0
 10
8.6296624169
 20
12.0992478761
 30
0.0
 10
8.6227731499
 20
12.1024171797
 30
0.0
 10
8.6163896843
 20
12.1056564753
 30
0.0
 10
8.6105223942
 20
12.1089606222
 30
0.0
 10
8.6051806444
 20
12.1123242748
 30
0.0
 10
8.6003729402
 20
12.1157423399
 30
0.0
 10
8.596106846
 20
12.1192098326
 30
0.0
 10
8.5923891142
 20
12.1227219791
 30
0.0
 10
8.5892259375
 20
12.1262747585
 30
0.0
 10
8.5866233421
 20
12.1298635446
 30
0.0
 10
8.5849019216
 20
12.1329264078
 30
0.0
 10
8.5838287818
 20
12.1353788234
 30
0.0
 10
8.5831790609
 20
12.1371958761
 30
0.0
 10
8.5826732511
 20
12.1390165132
 30
0.0
 10
8.5823116277
 20
12.1408399757
 30
0.0
 10
8.5820945114
 20
12.1426652159
 30
0.0
 10
8.5820462149
 20
12.1438841515
 30
0.0
 10
8.5820462096
 20
12.1444915852
 30
0.0
  0
SPLINE
  5
410
100
AcDbEntity
  8
0
100
AcDbSpline
 62
7
  6
CONTINUOUS
 70
0
 71
3
 72
39
 73
35
 74
0
 42
0.0000001
 43
0.0000001
 44
0.0000000001
 40
0.0
 40
0.0
 40
0.0
 40
0.0
 40
0.0958313223
 40
0.1890999066
 40
0.2792396479
 40
0.3229663115
 40
0.3657099292
 40
0.4074081191
 40
0.4480006754
 40
0.4874302648
 40
0.5256424385
 40
0.5625857699
 40
0.5982125807
 40
0.6324786396
 40
0.665344311
 40
0.6967743203
 40
0.7267388303
 40
0.7552139511
 40
0.7821824427
 40
0.807635341
 40
0.8315726205
 40
0.8540058864
 40
0.8749600023
 40
0.8944766962
 40
0.9126183481
 40
0.9294727137
 40
0.94515911
 40
0.9598336921
 40
0.9668557838
 40
0.973702854
 40
0.9804062715
 40
0.9869997015
 40
0.9935186515
 40
1.0
 40
1.0
 40
1.0
 40
1.0
 10
14.1496048725
 20
11.6900625198
 30
0.0
 10
14.1406450556
 20
11.6906838852
 30
0.0
 10
14.1229779231
 20
11.6921070522
 30
0.0
 10
14.0969465188
 20
11.6948237289
 30
0.0
 10
14.0758337087
 20
11.6975636168
 30
0.0
 10
14.0594660907
 20
11.7000299569
 30
0.0
 10
14.047614323
 20
11.7019879623
 30
0.0
 10
14.036081971
 20
11.7040695124
 30
0.0
 10
14.0248882846
 20
11.7062711839
 30
0.0
 10
14.0140519594
 20
11.7085892432
 30
0.0
 10
14.0035910775
 20
11.7110197829
 30
0.0
 10
13.9935230892
 20
11.71355876
 30
0.0
 10
13.9838647679
 20
11.7162018334
 30
0.0
 10
13.9746322009
 20
11.7189446452
 30
0.0
 10
13.9658407266
 20
11.7217825064
 30
0.0
 10
13.9575049397
 20
11.7247107143
 30
0.0
 10
13.9496386336
 20
11.7277243438
 30
0.0
 10
13.9422547762
 20
11.7308183446
 30
0.0
 10
13.9353655093
 20
11.7339876482
 30
0.0
 10
13.9289820436
 20
11.7372269438
 30
0.0
 10
13.9231147535
 20
11.7405310908
 30
0.0
 10
13.9177730038
 20
11.7438947433
 30
0.0
 10
13.9129652996
 20
11.7473128084
 30
0.0
 10
13.9086992054
 20
11.7507803011
 30
0.0
 10
13.9049814736
 20
11.7542924476
 30
0.0
 10
13.9018182969
 20
11.757845227
 30
0.0
 10
13.8992157015
 20
11.7614340132
 30
0.0
 10
13.897494281
 20
11.7644968763
 30
0.0
 10
13.8964211411
 20
11.7669492919
 30
0.0
 10
13.8957714203
 20
11.7687663446
 30
0.0
 10
13.8952656104
 20
11.7705869817
 30
0.0
 10
13.8949039871
 20
11.7724104442
 30
0.0
 10
13.8946868708
 20
11.7742356844
 30
0.0
 10
13.8946385743
 20
11.77545462
 30
0.0
 10
13.894638569
 20
11.7760620537
 30
0.0
  0
SPLINE
  5
411
100
AcDbEntity
  8
0
100
AcDbSpline
 62
7
  6
CONTINUOUS
 70
0
 71
3
 72
32
 73
28
 74
0
 42
0.0000001
 43
0.0000001
 44
0.0000000001
 40
0.0
 40
0.0
 40
0.0
 40
0.0
 40
0.0845014063
 40
0.1673014662
 40
0.2480798822
 40
0.3265304968
 40
0.4023578861
 40
0.4752823003
 40
0.5450407274
 40
0.5786567348
 40
0.6113916372
 40
0.6432187565
 40
0.6741126523
 40
0.7040499778
 40
0.7330089936
 40
0.7609702381
 40
0.787916384
 40
0.8138326241
 40
0.8387069867
 40
0.8625304198
 40
0.8852976267
 40
0.9070069313
 40
0.9276616359
 40
0.9472698719
 40
0.9658464314
 40
0.9834129233
 40
1.0
 40
1.0
 40
1.0
 40
1.0
 10
11.0763002993
 20
10.8474780121
 30
0.0
 10
11.06781307
 20
10.8480666034
 30
0.0
 10
11.0510193902
 20
10.849380906
 30
0.0
 10
11.0261577775
 20
10.8517908752
 30
0.0
 10
11.0019524407
 20
10.8546117079
 30
0.0
 10
10.9785052061
 20
10.857831357
 30
0.0
 10
10.95591427
 20
10.8614361701
 30
0.0
 10
10.9342745306
 20
10.8654108105
 30
0.0
 10
10.9169016376
 20
10.8690606231
 30
0.0
 10
10.9035533354
 20
10.8721622885
 30
0.0
 10
10.8939589698
 20
10.8745415195
 30
0.0
 10
10.8846677546
 20
10.8769998101
 30
0.0
 10
10.8756894255
 20
10.8795346785
 30
0.0
 10
10.8670333889
 20
10.8821433695
 30
0.0
 10
10.8587087133
 20
10.8848231935
 30
0.0
 10
10.8507241047
 20
10.8875712887
 30
0.0
 10
10.8430879064
 20
10.890384777
 30
0.0
 10
10.8358080896
 20
10.8932607135
 30
0.0
 10
10.8288922242
 20
10.8961960424
 30
0.0
 10
10.8223475126
 20
10.8991877617
 30
0.0
 10
10.8161807041
 20
10.9022326639
 30
0.0
 10
10.8103982018
 20
10.9053277153
 30
0.0
 10
10.8050058886
 20
10.9084696117
 30
0.0
 10
10.800009356
 20
10.9116553051
 30
0.0
 10
10.7954135493
 20
10.9148815338
 30
0.0
 10
10.7912234167
 20
10.9181451117
 30
0.0
 10
10.78863043
 20
10.9204071465
 30
0.0
 10
10.7874079183
 20
10.9215448326
 30
0.0
  0
SPLINE
  5
412
100
AcDbEntity
  8
0
100
AcDbSpline
 62
7
  6
CONTINUOUS
 70
0
 71
3
 72
23
 73
19
 74
0
 42
0.0000001
 43
0.0000001
 44
0.0000000001
 40
0.0
 40
0.0
 40
0.0
 40
0.0
 40
0.0620139163
 40
0.1240459014
 40
0.1861068922
 40
0.2482076635
 40
0.3103587921
 40
0.372570576
 40
0.4348529956
 40
0.4972156669
 40
0.5596677681
 40
0.6222180262
 40
0.6848746489
 40
0.747645288
 40
0.8105370247
 40
0.8735562978
 40
0.9367089134
 40
1.0
 40
1.0
 40
1.0
 40
1.0
 10
11.3286090301
 20
6.8153053765
 30
0.0
 10
11.3354335976
 20
6.8215928552
 30
0.0
 10
11.3493197343
 20
6.8339172767
 30
0.0
 10
11.3708239084
 20
6.8516208331
 30
0.0
 10
11.3929805684
 20
6.8685227181
 30
0.0
 10
11.4157626103
 20
6.8846024288
 30
0.0
 10
11.4391428006
 20
6.8998407017
 30
0.0
 10
11.4630930575
 20
6.9142191492
 30
0.0
 10
11.4875845298
 20
6.927720659
 30
0.0
 10
11.5125878836
 20
6.9403288532
 30
0.0
 10
11.5380730169
 20
6.9520287152
 30
0.0
 10
11.5640093248
 20
6.9628061932
 30
0.0
 10
11.5903656851
 20
6.9726482519
 30
0.0
 10
11.6171103843
 20
6.9815432576
 30
0.0
 10
11.6442113209
 20
6.9894803685
 30
0.0
 10
11.6716360357
 20
6.9964501808
 30
0.0
 10
11.6993511238
 20
7.0024442964
 30
0.0
 10
11.717979584
 20
7.0057814735
 30
0.0
 10
11.7273298688
 20
7.0072856477
 30
0.0
  0
SPLINE
  5
413
100
AcDbEntity
  8
0
100
AcDbSpline
 62
7
  6
CONTINUOUS
 70
0
 71
3
 72
43
 73
39
 74
0
 42
0.0000001
 43
0.0000001
 44
0.0000000001
 40
0.0
 40
0.0
 40
0.0
 40
0.0
 40
0.0151441571
 40
0.0303165622
 40
0.0455177125
 40
0.0607480204
 40
0.0912942078
 40
0.1219595929
 40
0.1373384977
 40
0.1527470289
 40
0.1681849341
 40
0.1836518767
 40
0.2146681459
 40
0.2457943124
 40
0.2770245715
 40
0.3083518709
 40
0.3397680061
 40
0.371263727
 40
0.402828854
 40
0.4344524024
 40
0.466122714
 40
0.4978275937
 40
0.5295544516
 40
0.5612904468
 40
0.5930226344
 40
0.624738113
 40
0.6564241714
 40
0.6880684347
 40
0.7196590064
 40
0.7511846081
 40
0.7826347131
 40
0.8139996733
 40
0.845270841
 40
0.8764406733
 40
0.9075028514
 40
0.9384523148
 40
0.9692854713
 40
1.0
 40
1.0
 40
1.0
 40
1.0
 10
11.7273298688
 20
7.0072856477
 30
0.0
 10
11.7349223148
 20
7.0085070396
 30
0.0
 10
11.750157544
 20
7.0107330267
 30
0.0
 10
11.7731176656
 20
7.0134167822
 30
0.0
 10
11.7961890765
 20
7.0154466736
 30
0.0
 10
11.8271020916
 20
7.0172805718
 30
0.0
 10
11.8659353082
 20
7.0179266572
 30
0.0
 10
11.9048182379
 20
7.0163816535
 30
0.0
 10
11.935922947
 20
7.0138380795
 30
0.0
 10
11.9592584212
 20
7.0112740358
 30
0.0
 10
11.9825580928
 20
7.0080577851
 30
0.0
 10
12.0135782591
 20
7.002898704
 30
0.0
 10
12.0521744218
 20
6.9948281807
 30
0.0
 10
12.0980070221
 20
6.9825967766
 30
0.0
 10
12.1432591956
 20
6.9678477743
 30
0.0
 10
12.1877874617
 20
6.9506279033
 30
0.0
 10
12.2314518371
 20
6.9309914974
 30
0.0
 10
12.2741147453
 20
6.9090005268
 30
0.0
 10
12.315641858
 20
6.884724348
 30
0.0
 10
12.3559024043
 20
6.8582395
 30
0.0
 10
12.3947696089
 20
6.8296294598
 30
0.0
 10
12.4321210806
 20
6.7989843816
 30
0.0
 10
12.4678391975
 20
6.7664008133
 30
0.0
 10
12.5018114742
 20
6.7319813946
 30
0.0
 10
12.5339309141
 20
6.6958345349
 30
0.0
 10
12.5640963444
 20
6.6580740741
 30
0.0
 10
12.5922127331
 20
6.6188189262
 30
0.0
 10
12.6181914866
 20
6.5781927068
 30
0.0
 10
12.6419507277
 20
6.5363233469
 30
0.0
 10
12.6634155528
 20
6.4933426924
 30
0.0
 10
12.6825182662
 20
6.4493860928
 30
0.0
 10
12.6991985957
 20
6.4045919739
 30
0.0
 10
12.7134038766
 20
6.3591014224
 30
0.0
 10
12.7250892327
 20
6.3130576796
 30
0.0
 10
12.7342176877
 20
6.2666059367
 30
0.0
 10
12.7407603444
 20
6.2198919931
 30
0.0
 10
12.7446963807
 20
6.1730650214
 30
0.0
 10
12.7455759874
 20
6.1418047518
 30
0.0
 10
12.7455759874
 20
6.1262082026
 30
0.0
  0
SPLINE
  5
414
100
AcDbEntity
  8
0
100
AcDbSpline
 62
7
  6
CONTINUOUS
 70
0
 71
3
 72
23
 73
19
 74
0
 42
0.0000001
 43
0.0000001
 44
0.0000000001
 40
0.0
 40
0.0
 40
0.0
 40
0.0
 40
0.0620139835
 40
0.1240460022
 40
0.1861069985
 40
0.2482077526
 40
0.3103588472
 40
0.3725705853
 40
0.434852953
 40
0.4972155716
 40
0.5596676242
 40
0.6222178428
 40
0.6848744396
 40
0.7476450707
 40
0.810536821
 40
0.873556133
 40
0.9367088156
 40
1.0
 40
1.0
 40
1.0
 40
1.0
 10
9.1552009021
 20
6.9659575428
 30
0.0
 10
9.1620261704
 20
6.9722473816
 30
0.0
 10
9.1759138472
 20
6.984576438
 30
0.0
 10
9.1974207344
 20
7.0022866679
 30
0.0
 10
9.2195804902
 20
7.0191949261
 30
0.0
 10
9.2423659938
 20
7.0352806935
 30
0.0
 10
9.2657499962
 20
7.0505246889
 30
0.0
 10
9.2897043969
 20
7.064908511
 30
0.0
 10
9.3142003273
 20
7.0784150323
 30
0.0
 10
9.3392084345
 20
7.0910278613
 30
0.0
 10
9.364698597
 20
7.1027319699
 30
0.0
 10
9.3906401901
 20
7.1135132935
 30
0.0
 10
9.4170020706
 20
7.1233587872
 30
0.0
 10
9.443752504
 20
7.1322568075
 30
0.0
 10
9.4708593674
 20
7.1401965039
 30
0.0
 10
9.4982901793
 20
7.1471684656
 30
0.0
 10
9.5260115125
 20
7.1531642876
 30
0.0
 10
9.5446442109
 20
7.156502302
 30
0.0
 10
9.5539966309
 20
7.1580068197
 30
0.0
  0
SPLINE
  5
415
100
AcDbEntity
  8
0
100
AcDbSpline
 62
7
  6
CONTINUOUS
 70
0
 71
3
 72
43
 73
39
 74
0
 42
0.0000001
 43
0.0000001
 44
0.0000000001
 40
0.0
 40
0.0
 40
0.0
 40
0.0
 40
0.0151441571
 40
0.0303165622
 40
0.0455177125
 40
0.0607480204
 40
0.0912942078
 40
0.1219595929
 40
0.1373384977
 40
0.1527470289
 40
0.1681849341
 40
0.1836518767
 40
0.2146681459
 40
0.2457943124
 40
0.2770245715
 40
0.3083518709
 40
0.3397680061
 40
0.371263727
 40
0.402828854
 40
0.4344524024
 40
0.466122714
 40
0.4978275937
 40
0.5295544516
 40
0.5612904468
 40
0.5930226344
 40
0.624738113
 40
0.6564241714
 40
0.6880684347
 40
0.7196590064
 40
0.7511846081
 40
0.7826347131
 40
0.8139996733
 40
0.845270841
 40
0.8764406733
 40
0.9075028514
 40
0.9384523148
 40
0.9692854713
 40
1.0
 40
1.0
 40
1.0
 40
1.0
 10
9.5539966309
 20
7.1580068197
 30
0.0
 10
9.5615890768
 20
7.1592282115
 30
0.0
 10
9.5768243061
 20
7.1614541986
 30
0.0
 10
9.5997844277
 20
7.1641379541
 30
0.0
 10
9.6228558386
 20
7.1661678456
 30
0.0
 10
9.6537688536
 20
7.1680017438
 30
0.0
 10
9.6926020703
 20
7.1686478292
 30
0.0
 10
9.731485
 20
7.1671028255
 30
0.0
 10
9.7625897091
 20
7.1645592515
 30
0.0
 10
9.7859251833
 20
7.1619952078
 30
0.0
 10
9.8092248549
 20
7.1587789571
 30
0.0
 10
9.8402450211
 20
7.1536198759
 30
0.0
 10
9.8788411839
 20
7.1455493527
 30
0.0
 10
9.9246737842
 20
7.1333179486
 30
0.0
 10
9.9699259576
 20
7.1185689463
 30
0.0
 10
10.0144542238
 20
7.1013490753
 30
0.0
 10
10.0581185992
 20
7.0817126693
 30
0.0
 10
10.1007815074
 20
7.0597216987
 30
0.0
 10
10.1423086201
 20
7.03544552
 30
0.0
 10
10.1825691664
 20
7.008960672
 30
0.0
 10
10.221436371
 20
6.9803506318
 30
0.0
 10
10.2587878427
 20
6.9497055535
 30
0.0
 10
10.2945059596
 20
6.9171219852
 30
0.0
 10
10.3284782363
 20
6.8827025665
 30
0.0
 10
10.3605976762
 20
6.8465557069
 30
0.0
 10
10.3907631065
 20
6.8087952461
 30
0.0
 10
10.4188794952
 20
6.7695400981
 30
0.0
 10
10.4448582487
 20
6.7289138787
 30
0.0
 10
10.4686174898
 20
6.6870445189
 30
0.0
 10
10.4900823149
 20
6.6440638644
 30
0.0
 10
10.5091850283
 20
6.6001072648
 30
0.0
 10
10.5258653578
 20
6.5553131459
 30
0.0
 10
10.5400706387
 20
6.5098225943
 30
0.0
 10
10.5517559948
 20
6.4637788516
 30
0.0
 10
10.5608844498
 20
6.4173271086
 30
0.0
 10
10.5674271065
 20
6.3706131651
 30
0.0
 10
10.5713631428
 20
6.3237861934
 30
0.0
 10
10.5722427494
 20
6.2925259238
 30
0.0
 10
10.5722427494
 20
6.2769293745
 30
0.0
  0
SPLINE
  5
416
100
AcDbEntity
  8
0
100
AcDbSpline
 62
7
  6
CONTINUOUS
 70
0
 71
3
 72
23
 73
19
 74
0
 42
0.0000001
 43
0.0000001
 44
0.0000000001
 40
0.0
 40
0.0
 40
0.0
 40
0.0
 40
0.0620139163
 40
0.1240459014
 40
0.1861068922
 40
0.2482076635
 40
0.3103587921
 40
0.372570576
 40
0.4348529956
 40
0.4972156669
 40
0.5596677681
 40
0.6222180262
 40
0.6848746489
 40
0.747645288
 40
0.8105370247
 40
0.8735562978
 40
0.9367089134
 40
1.0
 40
1.0
 40
1.0
 40
1.0
 10
11.3286090301
 20
9.7130830271
 30
0.0
 10
11.3354335976
 20
9.7193705057
 30
0.0
 10
11.3493197343
 20
9.7316949273
 30
0.0
 10
11.3708239084
 20
9.7493984837
 30
0.0
 10
11.3929805684
 20
9.7663003686
 30
0.0
 10
11.4157626103
 20
9.7823800794
 30
0.0
 10
11.4391428006
 20
9.7976183523
 30
0.0
 10
11.4630930575
 20
9.8119967998
 30
0.0
 10
11.4875845298
 20
9.8254983096
 30
0.0
 10
11.5125878836
 20
9.8381065038
 30
0.0
 10
11.5380730169
 20
9.8498063658
 30
0.0
 10
11.5640093248
 20
9.8605838438
 30
0.0
 10
11.5903656851
 20
9.8704259024
 30
0.0
 10
11.6171103843
 20
9.8793209082
 30
0.0
 10
11.6442113209
 20
9.8872580191
 30
0.0
 10
11.6716360357
 20
9.8942278314
 30
0.0
 10
11.6993511238
 20
9.9002219469
 30
0.0
 10
11.717979584
 20
9.9035591241
 30
0.0
 10
11.7273298688
 20
9.9050632983
 30
0.0
  0
SPLINE
  5
417
100
AcDbEntity
  8
0
100
AcDbSpline
 62
7
  6
CONTINUOUS
 70
0
 71
3
 72
43
 73
39
 74
0
 42
0.0000001
 43
0.0000001
 44
0.0000000001
 40
0.0
 40
0.0
 40
0.0
 40
0.0
 40
0.0151441571
 40
0.0303165622
 40
0.0455177125
 40
0.0607480204
 40
0.0912942078
 40
0.1219595929
 40
0.1373384977
 40
0.1527470289
 40
0.1681849341
 40
0.1836518767
 40
0.2146681459
 40
0.2457943124
 40
0.2770245715
 40
0.3083518709
 40
0.3397680061
 40
0.371263727
 40
0.402828854
 40
0.4344524024
 40
0.466122714
 40
0.4978275937
 40
0.5295544516
 40
0.5612904468
 40
0.5930226344
 40
0.624738113
 40
0.6564241714
 40
0.6880684347
 40
0.7196590064
 40
0.7511846081
 40
0.7826347131
 40
0.8139996733
 40
0.845270841
 40
0.8764406733
 40
0.9075028514
 40
0.9384523148
 40
0.9692854713
 40
1.0
 40
1.0
 40
1.0
 40
1.0
 10
11.7273298688
 20
9.9050632983
 30
0.0
 10
11.7349223148
 20
9.9062846901
 30
0.0
 10
11.750157544
 20
9.9085106772
 30
0.0
 10
11.7731176656
 20
9.9111944327
 30
0.0
 10
11.7961890765
 20
9.9132243242
 30
0.0
 10
11.8271020916
 20
9.9150582224
 30
0.0
 10
11.8659353082
 20
9.9157043078
 30
0.0
 10
11.9048182379
 20
9.9141593041
 30
0.0
 10
11.935922947
 20
9.9116157301
 30
0.0
 10
11.9592584212
 20
9.9090516864
 30
0.0
 10
11.9825580928
 20
9.9058354357
 30
0.0
 10
12.0135782591
 20
9.9006763545
 30
0.0
 10
12.0521744218
 20
9.8926058313
 30
0.0
 10
12.0980070221
 20
9.8803744272
 30
0.0
 10
12.1432591956
 20
9.8656254249
 30
0.0
 10
12.1877874617
 20
9.8484055539
 30
0.0
 10
12.2314518371
 20
9.8287691479
 30
0.0
 10
12.2741147453
 20
9.8067781773
 30
0.0
 10
12.315641858
 20
9.7825019986
 30
0.0
 10
12.3559024043
 20
9.7560171506
 30
0.0
 10
12.3947696089
 20
9.7274071104
 30
0.0
 10
12.4321210806
 20
9.6967620321
 30
0.0
 10
12.4678391975
 20
9.6641784638
 30
0.0
 10
12.5018114742
 20
9.6297590451
 30
0.0
 10
12.5339309141
 20
9.5936121855
 30
0.0
 10
12.5640963444
 20
9.5558517247
 30
0.0
 10
12.5922127331
 20
9.5165965767
 30
0.0
 10
12.6181914866
 20
9.4759703573
 30
0.0
 10
12.6419507277
 20
9.4341009975
 30
0.0
 10
12.6634155528
 20
9.391120343
 30
0.0
 10
12.6825182662
 20
9.3471637434
 30
0.0
 10
12.6991985957
 20
9.3023696245
 30
0.0
 10
12.7134038766
 20
9.2568790729
 30
0.0
 10
12.7250892327
 20
9.2108353302
 30
0.0
 10
12.7342176877
 20
9.1643835872
 30
0.0
 10
12.7407603444
 20
9.1176696437
 30
0.0
 10
12.7446963807
 20
9.070842672
 30
0.0
 10
12.7455759874
 20
9.0395824024
 30
0.0
 10
12.7455759874
 20
9.0239858531
 30
0.0
  0
SPLINE
  5
418
100
AcDbEntity
  8
0
100
AcDbSpline
 62
7
  6
CONTINUOUS
 70
0
 71
3
 72
23
 73
19
 74
0
 42
0.0000001
 43
0.0000001
 44
0.0000000001
 40
0.0
 40
0.0
 40
0.0
 40
0.0
 40
0.0620139835
 40
0.1240460022
 40
0.1861069985
 40
0.2482077526
 40
0.3103588472
 40
0.3725705853
 40
0.434852953
 40
0.4972155716
 40
0.5596676242
 40
0.6222178428
 40
0.6848744396
 40
0.7476450707
 40
0.810536821
 40
0.873556133
 40
0.9367088156
 40
1.0
 40
1.0
 40
1.0
 40
1.0
 10
9.1552009021
 20
9.8637351933
 30
0.0
 10
9.1620261704
 20
9.8700250322
 30
0.0
 10
9.1759138472
 20
9.8823540885
 30
0.0
 10
9.1974207344
 20
9.9000643185
 30
0.0
 10
9.2195804902
 20
9.9169725766
 30
0.0
 10
9.2423659938
 20
9.9330583441
 30
0.0
 10
9.2657499962
 20
9.9483023394
 30
0.0
 10
9.2897043969
 20
9.9626861616
 30
0.0
 10
9.3142003273
 20
9.9761926828
 30
0.0
 10
9.3392084345
 20
9.9888055119
 30
0.0
 10
9.364698597
 20
10.0005096204
 30
0.0
 10
9.3906401901
 20
10.0112909441
 30
0.0
 10
9.4170020706
 20
10.0211364378
 30
0.0
 10
9.443752504
 20
10.0300344581
 30
0.0
 10
9.4708593674
 20
10.0379741545
 30
0.0
 10
9.4982901793
 20
10.0449461162
 30
0.0
 10
9.5260115125
 20
10.0509419381
 30
0.0
 10
9.5446442109
 20
10.0542799525
 30
0.0
 10
9.5539966309
 20
10.0557844703
 30
0.0
  0
SPLINE
  5
419
100
AcDbEntity
  8
0
100
AcDbSpline
 62
7
  6
CONTINUOUS
 70
0
 71
3
 72
43
 73
39
 74
0
 42
0.0000001
 43
0.0000001
 44
0.0000000001
 40
0.0
 40
0.0
 40
0.0
 40
0.0
 40
0.0151441571
 40
0.0303165622
 40
0.0455177125
 40
0.0607480204
 40
0.0912942078
 40
0.1219595929
 40
0.1373384977
 40
0.1527470289
 40
0.1681849341
 40
0.1836518767
 40
0.2146681459
 40
0.2457943124
 40
0.2770245715
 40
0.3083518709
 40
0.3397680061
 40
0.371263727
 40
0.402828854
 40
0.4344524024
 40
0.466122714
 40
0.4978275937
 40
0.5295544516
 40
0.5612904468
 40
0.5930226344
 40
0.624738113
 40
0.6564241714
 40
0.6880684347
 40
0.7196590064
 40
0.7511846081
 40
0.7826347131
 40
0.8139996733
 40
0.845270841
 40
0.8764406733
 40
0.9075028514
 40
0.9384523148
 40
0.9692854713
 40
1.0
 40
1.0
 40
1.0
 40
1.0
 10
9.5539966309
 20
10.0557844703
 30
0.0
 10
9.5615890768
 20
10.0570058621
 30
0.0
 10
9.5768243061
 20
10.0592318492
 30
0.0
 10
9.5997844277
 20
10.0619156047
 30
0.0
 10
9.6228558386
 20
10.0639454962
 30
0.0
 10
9.6537688536
 20
10.0657793944
 30
0.0
 10
9.6926020703
 20
10.0664254798
 30
0.0
 10
9.731485
 20
10.0648804761
 30
0.0
 10
9.7625897091
 20
10.0623369021
 30
0.0
 10
9.7859251833
 20
10.0597728584
 30
0.0
 10
9.8092248549
 20
10.0565566077
 30
0.0
 10
9.8402450211
 20
10.0513975265
 30
0.0
 10
9.8788411839
 20
10.0433270032
 30
0.0
 10
9.9246737842
 20
10.0310955992
 30
0.0
 10
9.9699259576
 20
10.0163465968
 30
0.0
 10
10.0144542238
 20
9.9991267259
 30
0.0
 10
10.0581185992
 20
9.9794903199
 30
0.0
 10
10.1007815074
 20
9.9574993493
 30
0.0
 10
10.1423086201
 20
9.9332231705
 30
0.0
 10
10.1825691664
 20
9.9067383226
 30
0.0
 10
10.221436371
 20
9.8781282824
 30
0.0
 10
10.2587878427
 20
9.8474832041
 30
0.0
 10
10.2945059596
 20
9.8148996358
 30
0.0
 10
10.3284782363
 20
9.7804802171
 30
0.0
 10
10.3605976762
 20
9.7443333574
 30
0.0
 10
10.3907631065
 20
9.7065728967
 30
0.0
 10
10.4188794952
 20
9.6673177487
 30
0.0
 10
10.4448582487
 20
9.6266915293
 30
0.0
 10
10.4686174898
 20
9.5848221694
 30
0.0
 10
10.4900823149
 20
9.541841515
 30
0.0
 10
10.5091850283
 20
9.4978849154
 30
0.0
 10
10.5258653578
 20
9.4530907965
 30
0.0
 10
10.5400706387
 20
9.4076002449
 30
0.0
 10
10.5517559948
 20
9.3615565021
 30
0.0
 10
10.5608844498
 20
9.3151047592
 30
0.0
 10
10.5674271065
 20
9.2683908156
 30
0.0
 10
10.5713631428
 20
9.221563844
 30
0.0
 10
10.5722427494
 20
9.1903035744
 30
0.0
 10
10.5722427494
 20
9.1747070251
 30
0.0
  0
SPLINE
  5
41A
100
AcDbEntity
  8
0
100
AcDbSpline
 62
7
  6
CONTINUOUS
 70
0
 71
3
 72
41
 73
37
 74
0
 42
0.0000001
 43
0.0000001
 44
0.0000000001
 40
0.0
 40
0.0
 40
0.0
 40
0.0
 40
0.0072740305
 40
0.01487064
 40
0.0227982405
 40
0.0310635686
 40
0.0396718928
 40
0.048626936
 40
0.0579313433
 40
0.0675867216
 40
0.0775935611
 40
0.0879516548
 40
0.0986600033
 40
0.1097167858
 40
0.1328649403
 40
0.1573715609
 40
0.1832032107
 40
0.2103196452
 40
0.2386745777
 40
0.2682165571
 40
0.2988894916
 40
0.3306329714
 40
0.3633828412
 40
0.3970715937
 40
0.4316285687
 40
0.4669803254
 40
0.5030510113
 40
0.5397625545
 40
0.5770349139
 40
0.6147864343
 40
0.6529340578
 40
0.6913935297
 40
0.7689053376
 40
0.8466361024
 40
0.9238952768
 40
1.0
 40
1.0
 40
1.0
 40
1.0
 10
11.5774231828
 20
10.9215439742
 30
0.0
 10
11.5765100687
 20
10.9206942316
 30
0.0
 10
11.5746013655
 20
10.9190017387
 30
0.0
 10
11.5715664004
 20
10.9165358925
 30
0.0
 10
11.568300299
 20
10.9140900832
 30
0.0
 10
11.5648050409
 20
10.9116657784
 30
0.0
 10
11.5610826026
 20
10.9092643968
 30
0.0
 10
11.557135211
 20
10.9068872527
 30
0.0
 10
11.5529651539
 20
10.9045357533
 30
0.0
 10
11.5485748595
 20
10.9022113117
 30
0.0
 10
11.5439669399
 20
10.8999152211
 30
0.0
 10
11.5391440883
 20
10.8976488844
 30
0.0
 10
11.5341091365
 20
10.8954136326
 30
0.0
 10
11.52700813
 20
10.8924307856
 30
0.0
 10
11.5176157022
 20
10.8887991087
 30
0.0
 10
11.5057151376
 20
10.8846495136
 30
0.0
 10
11.4930466334
 20
10.8806542437
 30
0.0
 10
11.479640178
 20
10.8768228619
 30
0.0
 10
11.4655273873
 20
10.8731645126
 30
0.0
 10
11.4507416599
 20
10.8696879711
 30
0.0
 10
11.4353180133
 20
10.866401603
 30
0.0
 10
11.4192930383
 20
10.8633132603
 30
0.0
 10
11.4027047755
 20
10.8604303399
 30
0.0
 10
11.3855926144
 20
10.8577597776
 30
0.0
 10
11.3679972157
 20
10.8553079637
 30
0.0
 10
11.3499604063
 20
10.8530807517
 30
0.0
 10
11.3315250627
 20
10.8510834914
 30
0.0
 10
11.31273502
 20
10.8493209767
 30
0.0
 10
11.2936349666
 20
10.8477973981
 30
0.0
 10
11.2742703408
 20
10.8465164133
 30
0.0
 10
11.2546871646
 20
10.8454810864
 30
0.0
 10
11.2282795715
 20
10.844428899
 30
0.0
 10
11.1950671637
 20
10.8437451361
 30
0.0
 10
11.1551945837
 20
10.8439284405
 30
0.0
 10
11.115580622
 20
10.8451118333
 30
0.0
 10
11.0893192837
 20
10.8465751425
 30
0.0
 10
11.0763002993
 20
10.8474780121
 30
0.0
  0
SPLINE
  5
41B
100
AcDbEntity
  8
0
100
AcDbSpline
 62
7
  6
CONTINUOUS
 70
0
 71
3
 72
51
 73
47
 74
0
 42
0.0000001
 43
0.0000001
 44
0.0000000001
 40
0.0
 40
0.0
 40
0.0
 40
0.0
 40
0.0055575483
 40
0.0111779716
 40
0.01692191
 40
0.0228457685
 40
0.029000541
 40
0.0354309187
 40
0.0421753321
 40
0.0492661787
 40
0.0567301751
 40
0.0645892818
 40
0.072860934
 40
0.0815589354
 40
0.0906938799
 40
0.1002734384
 40
0.1103031157
 40
0.1207861166
 40
0.1317239771
 40
0.1431166596
 40
0.1549625852
 40
0.1672591636
 40
0.1800024627
 40
0.1931876894
 40
0.2068091423
 40
0.2208601567
 40
0.2502201891
 40
0.2812020358
 40
0.3137291498
 40
0.3477165256
 40
0.3830717054
 40
0.4196956132
 40
0.4574832856
 40
0.4963245986
 40
0.5361048951
 40
0.5767055669
 40
0.6180046028
 40
0.6598771293
 40
0.7021959705
 40
0.7448321944
 40
0.7876555817
 40
0.8305351627
 40
0.8733399838
 40
0.9159382941
 40
0.9582023666
 40
1.0
 40
1.0
 40
1.0
 40
1.0
 10
14.5826385322
 20
11.7760628542
 30
0.0
 10
14.5826385395
 20
11.775211864
 30
0.0
 10
14.5825432988
 20
11.773498774
 30
0.0
 10
14.5821157421
 20
11.7709382698
 30
0.0
 10
14.5814041215
 20
11.7683834985
 30
0.0
 10
14.5804099791
 20
11.765837366
 30
0.0
 10
14.57913477
 20
11.7633020106
 30
0.0
 10
14.5775803514
 20
11.7607793112
 30
0.0
 10
14.575748433
 20
11.7582710221
 30
0.0
 10
14.5736407866
 20
11.7557788686
 30
0.0
 10
14.571259378
 20
11.7533044431
 30
0.0
 10
14.5686061049
 20
11.7508495717
 30
0.0
 10
14.5656832023
 20
11.7484159223
 30
0.0
 10
14.5624929766
 20
11.7460053254
 30
0.0
 10
14.5590379557
 20
11.7436196388
 30
0.0
 10
14.5553209351
 20
11.7412606229
 30
0.0
 10
14.5513448317
 20
11.7389302358
 30
0.0
 10
14.5471128749
 20
11.7366302456
 30
0.0
 10
14.542628451
 20
11.7343625333
 30
0.0
 10
14.5378951735
 20
11.7321289558
 30
0.0
 10
14.5329168937
 20
11.729931255
 30
0.0
 10
14.5276976226
 20
11.7277713129
 30
0.0
 10
14.5222416235
 20
11.725650817
 30
0.0
 10
14.5165533294
 20
11.7235715422
 30
0.0
 10
14.5106373669
 20
11.7215351867
 30
0.0
 10
14.5023302764
 20
11.7188399446
 30
0.0
 10
14.4914071993
 20
11.715600193
 30
0.0
 10
14.4776577457
 20
11.7119637275
 30
0.0
 10
14.4631259537
 20
11.7085358275
 30
0.0
 10
14.4478593154
 20
11.7053278213
 30
0.0
 10
14.4319076028
 20
11.7023503458
 30
0.0
 10
14.4153229465
 20
11.6996132628
 30
0.0
 10
14.3981595818
 20
11.6971256222
 30
0.0
 10
14.3804736732
 20
11.6948956505
 30
0.0
 10
14.3623231127
 20
11.6929307213
 30
0.0
 10
14.3437673299
 20
11.6912373332
 30
0.0
 10
14.3248670987
 20
11.6898210871
 30
0.0
 10
14.3056843356
 20
11.688686653
 30
0.0
 10
14.2862818879
 20
11.6878377735
 30
0.0
 10
14.2667233269
 20
11.6872772523
 30
0.0
 10
14.2470727422
 20
11.6870069441
 30
0.0
 10
14.2273944949
 20
11.6870277414
 30
0.0
 10
14.2077531769
 20
11.6873395896
 30
0.0
 10
14.1882128732
 20
11.6879414097
 30
0.0
 10
14.1688379863
 20
11.6888312887
 30
0.0
 10
14.1559897292
 20
11.6896197285
 30
0.0
 10
14.1496048725
 20
11.6900625198
 30
0.0
  0
SPLINE
  5
41C
100
AcDbEntity
  8
0
100
AcDbSpline
 62
7
  6
CONTINUOUS
 70
0
 71
3
 72
51
 73
47
 74
0
 42
0.0000001
 43
0.0000001
 44
0.0000000001
 40
0.0
 40
0.0
 40
0.0
 40
0.0
 40
0.0055575483
 40
0.0111779716
 40
0.01692191
 40
0.0228457685
 40
0.029000541
 40
0.0354309187
 40
0.0421753321
 40
0.0492661787
 40
0.0567301751
 40
0.0645892818
 40
0.072860934
 40
0.0815589354
 40
0.0906938799
 40
0.1002734384
 40
0.1103031157
 40
0.1207861166
 40
0.1317239771
 40
0.1431166596
 40
0.1549625852
 40
0.1672591636
 40
0.1800024627
 40
0.1931876894
 40
0.2068091423
 40
0.2208601567
 40
0.2502201891
 40
0.2812020358
 40
0.3137291498
 40
0.3477165256
 40
0.3830717054
 40
0.4196956132
 40
0.4574832856
 40
0.4963245986
 40
0.5361048951
 40
0.5767055669
 40
0.6180046028
 40
0.6598771293
 40
0.7021959705
 40
0.7448321944
 40
0.7876555817
 40
0.8305351627
 40
0.8733399838
 40
0.9159382941
 40
0.9582023666
 40
1.0
 40
1.0
 40
1.0
 40
1.0
 10
9.2700461728
 20
12.1444923857
 30
0.0
 10
9.2700461802
 20
12.1436413955
 30
0.0
 10
9.2699509394
 20
12.1419283054
 30
0.0
 10
9.2695233827
 20
12.1393678013
 30
0.0
 10
9.2688117622
 20
12.13681303
 30
0.0
 10
9.2678176197
 20
12.1342668975
 30
0.0
 10
9.2665424106
 20
12.1317315421
 30
0.0
 10
9.2649879921
 20
12.1292088427
 30
0.0
 10
9.2631560736
 20
12.1267005535
 30
0.0
 10
9.2610484273
 20
12.1242084001
 30
0.0
 10
9.2586670186
 20
12.1217339746
 30
0.0
 10
9.2560137455
 20
12.1192791032
 30
0.0
 10
9.2530908429
 20
12.1168454538
 30
0.0
 10
9.2499006172
 20
12.1144348569
 30
0.0
 10
9.2464455963
 20
12.1120491702
 30
0.0
 10
9.2427285757
 20
12.1096901544
 30
0.0
 10
9.2387524723
 20
12.1073597673
 30
0.0
 10
9.2345205155
 20
12.1050597771
 30
0.0
 10
9.2300360917
 20
12.1027920648
 30
0.0
 10
9.2253028142
 20
12.1005584873
 30
0.0
 10
9.2203245343
 20
12.0983607865
 30
0.0
 10
9.2151052632
 20
12.0962008444
 30
0.0
 10
9.2096492642
 20
12.0940803485
 30
0.0
 10
9.2039609701
 20
12.0920010737
 30
0.0
 10
9.1980450075
 20
12.0899647182
 30
0.0
 10
9.189737917
 20
12.0872694761
 30
0.0
 10
9.1788148399
 20
12.0840297245
 30
0.0
 10
9.1650653864
 20
12.080393259
 30
0.0
 10
9.1505335944
 20
12.076965359
 30
0.0
 10
9.135266956
 20
12.0737573528
 30
0.0
 10
9.1193152434
 20
12.0707798773
 30
0.0
 10
9.1027305871
 20
12.0680427943
 30
0.0
 10
9.0855672224
 20
12.0655551536
 30
0.0
 10
9.0678813138
 20
12.063325182
 30
0.0
 10
9.0497307533
 20
12.0613602527
 30
0.0
 10
9.0311749705
 20
12.0596668646
 30
0.0
 10
9.0122747393
 20
12.0582506185
 30
0.0
 10
8.9930919763
 20
12.0571161845
 30
0.0
 10
8.9736895285
 20
12.056267305
 30
0.0
 10
8.9541309675
 20
12.0557067838
 30
0.0
 10
8.9344803828
 20
12.0554364756
 30
0.0
 10
8.9148021356
 20
12.0554572729
 30
0.0
 10
8.8951608175
 20
12.0557691211
 30
0.0
 10
8.8756205138
 20
12.0563709412
 30
0.0
 10
8.856245627
 20
12.0572608202
 30
0.0
 10
8.8433973698
 20
12.05804926
 30
0.0
 10
8.8370125132
 20
12.0584920513
 30
0.0
  0
SPLINE
  5
41D
100
AcDbEntity
  8
0
100
AcDbSpline
 62
7
  6
CONTINUOUS
 70
0
 71
3
 72
53
 73
49
 74
0
 42
0.0000001
 43
0.0000001
 44
0.0000000001
 40
0.0
 40
0.0
 40
0.0
 40
0.0
 40
0.0063158443
 40
0.0126706032
 40
0.0191024038
 40
0.0256479293
 40
0.0323417853
 40
0.0392160999
 40
0.0536138948
 40
0.0611945917
 40
0.0690563434
 40
0.0772174261
 40
0.0856937972
 40
0.0944991824
 40
0.1036452589
 40
0.1131420192
 40
0.1229977586
 40
0.133219338
 40
0.1438124256
 40
0.1547814115
 40
0.1661297224
 40
0.1778598996
 40
0.1899735277
 40
0.2024715474
 40
0.2153541861
 40
0.2286209712
 40
0.2422709812
 40
0.2563026796
 40
0.2707140367
 40
0.285502677
 40
0.3006656816
 40
0.3321007977
 40
0.3649898962
 40
0.3992976051
 40
0.4349839194
 40
0.4720046713
 40
0.5103119934
 40
0.5498546246
 40
0.5905781197
 40
0.6324251754
 40
0.6753358979
 40
0.7192479639
 40
0.7640967365
 40
0.8098157317
 40
0.8563364697
 40
0.9035882633
 40
0.9515016804
 40
1.0
 40
1.0
 40
1.0
 40
1.0
 10
14.5091291978
 20
8.9542098627
 30
0.0
 10
14.5075235234
 20
8.9543212256
 30
0.0
 10
14.504309872
 20
8.9546760973
 30
0.0
 10
14.49952542
 20
8.9556010295
 30
0.0
 10
14.494772925
 20
8.9569184707
 30
0.0
 10
14.4900552199
 20
8.9586275458
 30
0.0
 10
14.4853741154
 20
8.9607271341
 30
0.0
 10
14.4790886247
 20
8.9640965109
 30
0.0
 10
14.472973874
 20
8.9682212029
 30
0.0
 10
14.4670563013
 20
8.9730009971
 30
0.0
 10
14.4625865907
 20
8.9770309806
 30
0.0
 10
14.4581645516
 20
8.9814417342
 30
0.0
 10
14.4537913822
 20
8.9862317812
 30
0.0
 10
14.4494688552
 20
8.9913990297
 30
0.0
 10
14.4451984948
 20
8.9969413376
 30
0.0
 10
14.440982036
 20
9.0028565024
 30
0.0
 10
14.4368210683
 20
9.0091420912
 30
0.0
 10
14.4327171975
 20
9.0157955437
 30
0.0
 10
14.4286721346
 20
9.0228142067
 30
0.0
 10
14.4246874207
 20
9.0301951895
 30
0.0
 10
14.4207646767
 20
9.0379355027
 30
0.0
 10
14.4169055437
 20
9.0460320156
 30
0.0
 10
14.4131115111
 20
9.0544813935
 30
0.0
 10
14.4093841787
 20
9.0632802059
 30
0.0
 10
14.4057250827
 20
9.0724248553
 30
0.0
 10
14.4021356634
 20
9.0819115788
 30
0.0
 10
14.3986174654
 20
9.0917365081
 30
0.0
 10
14.3951719059
 20
9.1018956024
 30
0.0
 10
14.3918003813
 20
9.1123846808
 30
0.0
 10
14.3885043271
 20
9.1231994625
 30
0.0
 10
14.3841597622
 20
9.1382283685
 30
0.0
 10
14.37893975
 20
9.1578034413
 30
0.0
 10
14.3730704568
 20
9.1822463158
 30
0.0
 10
14.3675328542
 20
9.2078757942
 30
0.0
 10
14.3623361425
 20
9.2346496614
 30
0.0
 10
14.3574889624
 20
9.2625239669
 30
0.0
 10
14.3529993948
 20
9.2914528595
 30
0.0
 10
14.3488749447
 20
9.3213887372
 30
0.0
 10
14.3451224664
 20
9.3522822929
 30
0.0
 10
14.3417482053
 20
9.3840826218
 30
0.0
 10
14.3387577977
 20
9.4167373199
 30
0.0
 10
14.336156242
 20
9.4501925455
 30
0.0
 10
14.3339478466
 20
9.4843931436
 30
0.0
 10
14.332136304
 20
9.5192827126
 30
0.0
 10
14.3307246648
 20
9.5548035789
 30
0.0
 10
14.32971523
 20
9.590897572
 30
0.0
 10
14.3291097842
 20
9.6275045612
 30
0.0
 10
14.328976826
 20
9.6520743812
 30
0.0
 10
14.328976826
 20
9.6644337072
 30
0.0
  0
SPLINE
  5
41E
100
AcDbEntity
  8
0
100
AcDbSpline
 62
7
  6
CONTINUOUS
 70
0
 71
3
 72
35
 73
31
 74
0
 42
0.0000001
 43
0.0000001
 44
0.0000000001
 40
0.0
 40
0.0
 40
0.0
 40
0.0
 40
0.0162142982
 40
0.0334273567
 40
0.0516716566
 40
0.0709707697
 40
0.0913402133
 40
0.1127893072
 40
0.1353215159
 40
0.1589358589
 40
0.1836269519
 40
0.2093860824
 40
0.2362011118
 40
0.2640572896
 40
0.2929371234
 40
0.3228209777
 40
0.3536869764
 40
0.385511416
 40
0.4182687365
 40
0.4519317734
 40
0.4864718131
 40
0.5218587016
 40
0.5580609861
 40
0.5950459189
 40
0.6327796692
 40
0.6712271923
 40
0.750117733
 40
0.8314199733
 40
0.9148215789
 40
1.0
 40
1.0
 40
1.0
 40
1.0
 10
14.4560190157
 20
9.2613385025
 30
0.0
 10
14.4543516423
 20
9.2633886221
 30
0.0
 10
14.4510545103
 20
9.2677306061
 30
0.0
 10
14.4463525017
 20
9.2747215388
 30
0.0
 10
14.4417537702
 20
9.2823735462
 30
0.0
 10
14.4372632217
 20
9.2906786057
 30
0.0
 10
14.4328850239
 20
9.2996283449
 30
0.0
 10
14.4286237925
 20
9.3092136517
 30
0.0
 10
14.4244837367
 20
9.3194246477
 30
0.0
 10
14.4204692945
 20
9.3302508202
 30
0.0
 10
14.4165845308
 20
9.3416809173
 30
0.0
 10
14.4128336406
 20
9.3537030623
 30
0.0
 10
14.4092204758
 20
9.3663046976
 30
0.0
 10
14.4057489398
 20
9.3794726541
 30
0.0
 10
14.4024226328
 20
9.3931931348
 30
0.0
 10
14.3992451366
 20
9.4074517525
 30
0.0
 10
14.3962197732
 20
9.422233538
 30
0.0
 10
14.3933497825
 20
9.4375229603
 30
0.0
 10
14.3906381882
 20
9.4533039469
 30
0.0
 10
14.3880878742
 20
9.4695598983
 30
0.0
 10
14.3857015489
 20
9.4862737103
 30
0.0
 10
14.3834817298
 20
9.5034277897
 30
0.0
 10
14.3814307936
 20
9.521004077
 30
0.0
 10
14.3795508886
 20
9.5389840624
 30
0.0
 10
14.377844029
 20
9.557348824
 30
0.0
 10
14.3757837403
 20
9.5825382991
 30
0.0
 10
14.3736650369
 20
9.6148452692
 30
0.0
 10
14.3718579811
 20
9.6545068722
 30
0.0
 10
14.3707730259
 20
9.6952197496
 30
0.0
 10
14.3705364691
 20
9.7226951068
 30
0.0
 10
14.3705364691
 20
9.7365772437
 30
0.0
  0
SPLINE
  5
41F
100
AcDbEntity
  8
0
100
AcDbSpline
 62
7
  6
CONTINUOUS
 70
0
 71
3
 72
46
 73
42
 74
0
 42
0.0000001
 43
0.0000001
 44
0.0000000001
 40
0.0
 40
0.0
 40
0.0
 40
0.0
 40
0.0070628525
 40
0.0144558395
 40
0.0221882222
 40
0.0302671909
 40
0.0386984018
 40
0.0474859532
 40
0.0566325975
 40
0.0661400947
 40
0.076009028
 40
0.0862391426
 40
0.0968294507
 40
0.1077780673
 40
0.1190825921
 40
0.1307399847
 40
0.1550975227
 40
0.1808168159
 40
0.2078560686
 40
0.2361672711
 40
0.2656970168
 40
0.296387113
 40
0.3281750243
 40
0.3609942482
 40
0.3947747905
 40
0.4294435121
 40
0.4649243965
 40
0.5011388421
 40
0.5380060168
 40
0.5754431241
 40
0.6133656326
 40
0.6516875649
 40
0.6903217866
 40
0.7291802535
 40
0.768174263
 40
0.8072146681
 40
0.8462123338
 40
0.8850781503
 40
0.92372273
 40
0.9620603607
 40
1.0
 40
1.0
 40
1.0
 40
1.0
 10
13.9308045056
 20
8.3748578029
 30
0.0
 10
13.9296492665
 20
8.3737826354
 30
0.0
 10
13.9273399818
 20
8.3715221482
 30
0.0
 10
13.9239555066
 20
8.3678973128
 30
0.0
 10
13.9205747321
 20
8.3639644618
 30
0.0
 10
13.91719963
 20
8.3597261217
 30
0.0
 10
13.9138322077
 20
8.3551847273
 30
0.0
 10
13.9104744403
 20
8.3503430142
 30
0.0
 10
13.9071282662
 20
8.3452039016
 30
0.0
 10
13.903795776
 20
8.3397704226
 30
0.0
 10
13.9004789042
 20
8.3340458802
 30
0.0
 10
13.8971796567
 20
8.3280337169
 30
0.0
 10
13.8939000887
 20
8.3217375342
 30
0.0
 10
13.8906421143
 20
8.3151611738
 30
0.0
 10
13.8874077388
 20
8.3083085871
 30
0.0
 10
13.8830657194
 20
8.2986675148
 30
0.0
 10
13.8777225694
 20
8.2859474475
 30
0.0
 10
13.8715258796
 20
8.2698667663
 30
0.0
 10
13.865469145
 20
8.2527926477
 30
0.0
 10
13.8595671821
 20
8.2347665574
 30
0.0
 10
13.8538344502
 20
8.2158321222
 30
0.0
 10
13.8482850115
 20
8.1960352897
 30
0.0
 10
13.842932483
 20
8.17542414
 30
0.0
 10
13.8377899595
 20
8.1540487955
 30
0.0
 10
13.8328700368
 20
8.1319612595
 30
0.0
 10
13.8281847756
 20
8.1092152798
 30
0.0
 10
13.8237456531
 20
8.0858662326
 30
0.0
 10
13.8195635136
 20
8.0619709874
 30
0.0
 10
13.8156485876
 20
8.0375877477
 30
0.0
 10
13.8120104646
 20
8.0127759079
 30
0.0
 10
13.8086580386
 20
7.9875959202
 30
0.0
 10
13.8055994869
 20
7.962109144
 30
0.0
 10
13.8028422822
 20
7.9363776848
 30
0.0
 10
13.8003931742
 20
7.9104642425
 30
0.0
 10
13.7982581369
 20
7.8844319771
 30
0.0
 10
13.796442359
 20
7.8583443208
 30
0.0
 10
13.7949502736
 20
7.8322648382
 30
0.0
 10
13.7937855464
 20
7.8062572164
 30
0.0
 10
13.7929509312
 20
7.7803844416
 30
0.0
 10
13.7924485572
 20
7.7547101024
 30
0.0
 10
13.7923351808
 20
7.7376662105
 30
0.0
 10
13.7923351808
 20
7.7291888281
 30
0.0
  0
SPLINE
  5
420
100
AcDbEntity
  8
0
100
AcDbSpline
 62
7
  6
CONTINUOUS
 70
0
 71
3
 72
34
 73
30
 74
0
 42
0.0000001
 43
0.0000001
 44
0.0000000001
 40
0.0
 40
0.0
 40
0.0
 40
0.0
 40
0.0162143018
 40
0.0334273793
 40
0.05167169
 40
0.0709708204
 40
0.0913402825
 40
0.1127893927
 40
0.1353216273
 40
0.1589359865
 40
0.1836271123
 40
0.2093862597
 40
0.2362013281
 40
0.2640575244
 40
0.2929374026
 40
0.3228212777
 40
0.3536873255
 40
0.3855117884
 40
0.4182691618
 40
0.4519322263
 40
0.4864723219
 40
0.5218592384
 40
0.5580615815
 40
0.5950465564
 40
0.6712267358
 40
0.750117451
 40
0.8314196152
 40
0.9148217113
 40
1.0
 40
1.0
 40
1.0
 40
1.0
 10
13.8599557442
 20
7.35325366
 30
0.0
 10
13.8586367777
 20
7.3548753946
 30
0.0
 10
13.8560285919
 20
7.3583100915
 30
0.0
 10
13.8523090969
 20
7.3638402325
 30
0.0
 10
13.8486712883
 20
7.3698933079
 30
0.0
 10
13.8451190635
 20
7.3764629802
 30
0.0
 10
13.8416557107
 20
7.383542622
 30
0.0
 10
13.8382848829
 20
7.391125027
 30
0.0
 10
13.8350099138
 20
7.3992023808
 30
0.0
 10
13.831834305
 20
7.4077663665
 30
0.0
 10
13.8287612854
 20
7.4168080847
 30
0.0
 10
13.8257941567
 20
7.426318139
 30
0.0
 10
13.8229359852
 20
7.4362865969
 30
0.0
 10
13.8201898373
 20
7.4467030404
 30
0.0
 10
13.817558584
 20
7.4575565555
 30
0.0
 10
13.8150450344
 20
7.4688357619
 30
0.0
 10
13.8126518414
 20
7.480528817
 30
0.0
 10
13.8103815424
 20
7.492623437
 30
0.0
 10
13.8082365549
 20
7.5051069055
 30
0.0
 10
13.8062191349
 20
7.517966094
 30
0.0
 10
13.804331449
 20
7.5311874698
 30
0.0
 10
13.8025754686
 20
7.5447571158
 30
0.0
 10
13.8009530779
 20
7.5586607585
 30
0.0
 10
13.7989506091
 20
7.5778135155
 30
0.0
 10
13.7968044537
 20
7.6024828242
 30
0.0
 10
13.79481
 20
7.6328932703
 30
0.0
 10
13.7933805576
 20
7.6642675097
 30
0.0
 10
13.7925223098
 20
7.6964731967
 30
0.0
 10
13.7923351808
 20
7.7182074644
 30
0.0
 10
13.7923351808
 20
7.7291888281
 30
0.0
  0
SPLINE
  5
421
100
AcDbEntity
  8
0
100
AcDbSpline
 62
7
  6
CONTINUOUS
 70
0
 71
3
 72
51
 73
47
 74
0
 42
0.0000001
 43
0.0000001
 44
0.0000000001
 40
0.0
 40
0.0
 40
0.0
 40
0.0
 40
0.006315867
 40
0.0126706314
 40
0.0191024433
 40
0.025647959
 40
0.0323417891
 40
0.039216105
 40
0.0536138211
 40
0.0611945103
 40
0.0690561997
 40
0.0772172526
 40
0.0856936037
 40
0.0944989194
 40
0.1036449818
 40
0.1131417085
 40
0.1229973841
 40
0.1332189653
 40
0.1438120086
 40
0.1547809469
 40
0.1661292687
 40
0.1778593984
 40
0.1899730025
 40
0.2024710335
 40
0.2153536301
 40
0.2286204171
 40
0.2422704341
 40
0.2707125741
 40
0.3006634297
 40
0.33209859
 40
0.3649877453
 40
0.3992954944
 40
0.4349818799
 40
0.4720027336
 40
0.5103101563
 40
0.5498528892
 40
0.5905765191
 40
0.6324237195
 40
0.6753345875
 40
0.7192468132
 40
0.7640957578
 40
0.8098149508
 40
0.8563358524
 40
0.9035878254
 40
0.9515015618
 40
1.0
 40
1.0
 40
1.0
 40
1.0
 10
13.8995374621
 20
6.9816536619
 30
0.0
 10
13.8980500939
 20
6.9817568024
 30
0.0
 10
13.8950732267
 20
6.9820854645
 30
0.0
 10
13.8906412686
 20
6.9829420745
 30
0.0
 10
13.886238949
 20
6.9841624241
 30
0.0
 10
13.8818688328
 20
6.985745455
 30
0.0
 10
13.8775326001
 20
6.9876902096
 30
0.0
 10
13.8717102655
 20
6.9908112915
 30
0.0
 10
13.8660459704
 20
6.9946318667
 30
0.0
 10
13.8605644495
 20
6.9990594378
 30
0.0
 10
13.8564240154
 20
7.0027923602
 30
0.0
 10
13.8523277956
 20
7.0068780618
 30
0.0
 10
13.8482768547
 20
7.0113151142
 30
0.0
 10
13.8442727584
 20
7.0161015275
 30
0.0
 10
13.8403170598
 20
7.0212354245
 30
0.0
 10
13.8364112609
 20
7.0267146833
 30
0.0
 10
13.8325568288
 20
7.0325370568
 30
0.0
 10
13.8287553614
 20
7.0387002344
 30
0.0
 10
13.8250083109
 20
7.0452016823
 30
0.0
 10
13.8213171616
 20
7.0520387582
 30
0.0
 10
13.8176834722
 20
7.0592087161
 30
0.0
 10
13.8141086417
 20
7.0667086024
 30
0.0
 10
13.8105941415
 20
7.0745353675
 30
0.0
 10
13.8071414525
 20
7.082685833
 30
0.0
 10
13.8037519231
 20
7.091156635
 30
0.0
 10
13.8004269563
 20
7.0999443334
 30
0.0
 10
13.7960211845
 20
7.1122480553
 30
0.0
 10
13.7906987878
 20
7.128403816
 30
0.0
 10
13.7846750751
 20
7.1487382266
 30
0.0
 10
13.7789400505
 20
7.1702440751
 30
0.0
 10
13.7735032031
 20
7.1928860049
 30
0.0
 10
13.7683735778
 20
7.2166270031
 30
0.0
 10
13.7635597423
 20
7.2414281114
 30
0.0
 10
13.7590696924
 20
7.2672485814
 30
0.0
 10
13.7549109001
 20
7.2940459414
 30
0.0
 10
13.7510903156
 20
7.3217760945
 30
0.0
 10
13.7476143113
 20
7.3503933732
 30
0.0
 10
13.7444886563
 20
7.3798506207
 30
0.0
 10
13.7417185659
 20
7.4100992897
 30
0.0
 10
13.7393086825
 20
7.4410895075
 30
0.0
 10
13.7372629955
 20
7.4727701884
 30
0.0
 10
13.7355849217
 20
7.5050890752
 30
0.0
 10
13.7342772828
 20
7.5379927444
 30
0.0
 10
13.73334222
 20
7.5714273391
 30
0.0
 10
13.7327813838
 20
7.6053371197
 30
0.0
 10
13.7326582195
 20
7.6280966372
 30
0.0
 10
13.7326582195
 20
7.639545305
 30
0.0
  0
SPLINE
  5
422
100
AcDbEntity
  8
0
100
AcDbSpline
 62
7
  6
CONTINUOUS
 70
0
 71
3
 72
48
 73
44
 74
0
 42
0.0000001
 43
0.0000001
 44
0.0000000001
 40
0.0
 40
0.0
 40
0.0
 40
0.0
 40
0.0070629268
 40
0.0144559992
 40
0.0221883994
 40
0.0302674717
 40
0.0386987257
 40
0.0474863192
 40
0.0566330589
 40
0.0661405655
 40
0.076009569
 40
0.0862397427
 40
0.0968300619
 40
0.1077787491
 40
0.119083293
 40
0.1307407152
 40
0.1427473409
 40
0.1550990709
 40
0.1677913442
 40
0.1808190676
 40
0.20785834
 40
0.2361695457
 40
0.2656992903
 40
0.2963893633
 40
0.3281772259
 40
0.3609964047
 40
0.3947768965
 40
0.4294455367
 40
0.4649263157
 40
0.5011406685
 40
0.5380077477
 40
0.5754447325
 40
0.6133671035
 40
0.6516889043
 40
0.6903229946
 40
0.729181313
 40
0.7681751677
 40
0.807215444
 40
0.8462129145
 40
0.8850786
 40
0.9237231426
 40
0.9620602333
 40
1.0
 40
1.0
 40
1.0
 40
1.0
 10
14.5455813954
 20
10.5527991909
 30
0.0
 10
14.5441209936
 20
10.5514399932
 30
0.0
 10
14.5412017333
 20
10.5485823084
 30
0.0
 10
14.5369232931
 20
10.5439998634
 30
0.0
 10
14.5326494423
 20
10.5390281087
 30
0.0
 10
14.5283828852
 20
10.5336700866
 30
0.0
 10
14.5241259488
 20
10.5279290229
 30
0.0
 10
14.5198812295
 20
10.521808304
 30
0.0
 10
14.5156512321
 20
10.515311599
 30
0.0
 10
14.5114384307
 20
10.5084428273
 30
0.0
 10
14.5072454562
 20
10.5012060704
 30
0.0
 10
14.5030747414
 20
10.493605731
 30
0.0
 10
14.498928864
 20
10.4856463712
 30
0.0
 10
14.4948103491
 20
10.4773328002
 30
0.0
 10
14.4907216335
 20
10.4686700693
 30
0.0
 10
14.4866652972
 20
10.4596633977
 30
0.0
 10
14.4826437317
 20
10.4503182721
 30
0.0
 10
14.4786594242
 20
10.440640357
 30
0.0
 10
14.4747148056
 20
10.4306355157
 30
0.0
 10
14.4694460213
 20
10.416694785
 30
0.0
 10
14.462988118
 20
10.3984893043
 30
0.0
 10
14.4555271864
 20
10.3757016801
 30
0.0
 10
14.4482802065
 20
10.3517656741
 30
0.0
 10
14.4412649302
 20
10.3267395168
 30
0.0
 10
14.4344985681
 20
10.3006839478
 30
0.0
 10
14.4279976941
 20
10.2736623301
 30
0.0
 10
14.4217782262
 20
10.2457404037
 30
0.0
 10
14.4158553949
 20
10.2169861262
 30
0.0
 10
14.4102437036
 20
10.1874694962
 30
0.0
 10
14.4049568948
 20
10.1572623908
 30
0.0
 10
14.4000078911
 20
10.1264383915
 30
0.0
 10
14.3954087916
 20
10.0950725931
 30
0.0
 10
14.3911708398
 20
10.0632414129
 30
0.0
 10
14.3873044004
 20
10.0310224071
 30
0.0
 10
14.383818923
 20
9.9984940871
 30
0.0
 10
14.3807229067
 20
9.9657357221
 30
0.0
 10
14.3780239082
 20
9.9328271474
 30
0.0
 10
14.375728511
 20
9.8998485628
 30
0.0
 10
14.3738423141
 20
9.8668803042
 30
0.0
 10
14.3723699346
 20
9.8340028633
 30
0.0
 10
14.371314868
 20
9.8012959868
 30
0.0
 10
14.370679784
 20
9.7688398901
 30
0.0
 10
14.3705364691
 20
9.7472939652
 30
0.0
 10
14.3705364691
 20
9.7365772437
 30
0.0
  0
SPLINE
  5
423
100
AcDbEntity
  8
0
100
AcDbSpline
 62
7
  6
CONTINUOUS
 70
0
 71
3
 72
48
 73
44
 74
0
 42
0.0000001
 43
0.0000001
 44
0.0000000001
 40
0.0
 40
0.0
 40
0.0
 40
0.0
 40
0.0070629268
 40
0.0144559992
 40
0.0221883994
 40
0.0302674717
 40
0.0386987257
 40
0.0474863192
 40
0.0566330589
 40
0.0661405655
 40
0.076009569
 40
0.0862397427
 40
0.0968300619
 40
0.1077787491
 40
0.119083293
 40
0.1307407152
 40
0.1427473409
 40
0.1550990709
 40
0.1677913442
 40
0.1808190676
 40
0.20785834
 40
0.2361695457
 40
0.2656992903
 40
0.2963893633
 40
0.3281772259
 40
0.3609964047
 40
0.3947768965
 40
0.4294455367
 40
0.4649263157
 40
0.5011406685
 40
0.5380077477
 40
0.5754447325
 40
0.6133671035
 40
0.6516889043
 40
0.6903229946
 40
0.729181313
 40
0.7681751677
 40
0.807215444
 40
0.8462129145
 40
0.8850786
 40
0.9237231426
 40
0.9620602333
 40
1.0
 40
1.0
 40
1.0
 40
1.0
 10
14.5455813954
 20
7.6550215403
 30
0.0
 10
14.5441209936
 20
7.6536623426
 30
0.0
 10
14.5412017333
 20
7.6508046578
 30
0.0
 10
14.5369232931
 20
7.6462222128
 30
0.0
 10
14.5326494423
 20
7.6412504581
 30
0.0
 10
14.5283828852
 20
7.6358924361
 30
0.0
 10
14.5241259488
 20
7.6301513723
 30
0.0
 10
14.5198812295
 20
7.6240306534
 30
0.0
 10
14.5156512321
 20
7.6175339484
 30
0.0
 10
14.5114384307
 20
7.6106651767
 30
0.0
 10
14.5072454562
 20
7.6034284198
 30
0.0
 10
14.5030747414
 20
7.5958280804
 30
0.0
 10
14.498928864
 20
7.5878687206
 30
0.0
 10
14.4948103491
 20
7.5795551496
 30
0.0
 10
14.4907216335
 20
7.5708924188
 30
0.0
 10
14.4866652972
 20
7.5618857471
 30
0.0
 10
14.4826437317
 20
7.5525406215
 30
0.0
 10
14.4786594242
 20
7.5428627064
 30
0.0
 10
14.4747148056
 20
7.5328578652
 30
0.0
 10
14.4694460213
 20
7.5189171344
 30
0.0
 10
14.462988118
 20
7.5007116537
 30
0.0
 10
14.4555271864
 20
7.4779240296
 30
0.0
 10
14.4482802065
 20
7.4539880235
 30
0.0
 10
14.4412649302
 20
7.4289618662
 30
0.0
 10
14.4344985681
 20
7.4029062972
 30
0.0
 10
14.4279976941
 20
7.3758846795
 30
0.0
 10
14.4217782262
 20
7.3479627531
 30
0.0
 10
14.4158553949
 20
7.3192084756
 30
0.0
 10
14.4102437036
 20
7.2896918456
 30
0.0
 10
14.4049568948
 20
7.2594847402
 30
0.0
 10
14.4000078911
 20
7.2286607409
 30
0.0
 10
14.3954087916
 20
7.1972949425
 30
0.0
 10
14.3911708398
 20
7.1654637623
 30
0.0
 10
14.3873044004
 20
7.1332447566
 30
0.0
 10
14.383818923
 20
7.1007164365
 30
0.0
 10
14.3807229067
 20
7.0679580715
 30
0.0
 10
14.3780239082
 20
7.0350494968
 30
0.0
 10
14.375728511
 20
7.0020709122
 30
0.0
 10
14.3738423141
 20
6.9691026537
 30
0.0
 10
14.3723699346
 20
6.9362252127
 30
0.0
 10
14.371314868
 20
6.9035183362
 30
0.0
 10
14.370679784
 20
6.8710622396
 30
0.0
 10
14.3705364691
 20
6.8495163147
 30
0.0
 10
14.3705364691
 20
6.8387995931
 30
0.0
  0
SPLINE
  5
424
100
AcDbEntity
  8
0
100
AcDbSpline
 62
7
  6
CONTINUOUS
 70
0
 71
3
 72
35
 73
31
 74
0
 42
0.0000001
 43
0.0000001
 44
0.0000000001
 40
0.0
 40
0.0
 40
0.0
 40
0.0
 40
0.0162142982
 40
0.0334273567
 40
0.0516716566
 40
0.0709707697
 40
0.0913402133
 40
0.1127893072
 40
0.1353215159
 40
0.1589358589
 40
0.1836269519
 40
0.2093860824
 40
0.2362011118
 40
0.2640572896
 40
0.2929371234
 40
0.3228209777
 40
0.3536869764
 40
0.385511416
 40
0.4182687365
 40
0.4519317734
 40
0.4864718131
 40
0.5218587016
 40
0.5580609861
 40
0.5950459189
 40
0.6327796692
 40
0.6712271923
 40
0.750117733
 40
0.8314199733
 40
0.9148215789
 40
1.0
 40
1.0
 40
1.0
 40
1.0
 10
14.4560190157
 20
6.3635608519
 30
0.0
 10
14.4543516423
 20
6.3656109715
 30
0.0
 10
14.4510545103
 20
6.3699529555
 30
0.0
 10
14.4463525017
 20
6.3769438883
 30
0.0
 10
14.4417537702
 20
6.3845958956
 30
0.0
 10
14.4372632217
 20
6.3929009551
 30
0.0
 10
14.4328850239
 20
6.4018506943
 30
0.0
 10
14.4286237925
 20
6.4114360011
 30
0.0
 10
14.4244837367
 20
6.4216469972
 30
0.0
 10
14.4204692945
 20
6.4324731696
 30
0.0
 10
14.4165845308
 20
6.4439032668
 30
0.0
 10
14.4128336406
 20
6.4559254117
 30
0.0
 10
14.4092204758
 20
6.468527047
 30
0.0
 10
14.4057489398
 20
6.4816950035
 30
0.0
 10
14.4024226328
 20
6.4954154842
 30
0.0
 10
14.3992451366
 20
6.509674102
 30
0.0
 10
14.3962197732
 20
6.5244558874
 30
0.0
 10
14.3933497825
 20
6.5397453098
 30
0.0
 10
14.3906381882
 20
6.5555262964
 30
0.0
 10
14.3880878742
 20
6.5717822478
 30
0.0
 10
14.3857015489
 20
6.5884960597
 30
0.0
 10
14.3834817298
 20
6.6056501391
 30
0.0
 10
14.3814307936
 20
6.6232264265
 30
0.0
 10
14.3795508886
 20
6.6412064118
 30
0.0
 10
14.377844029
 20
6.6595711735
 30
0.0
 10
14.3757837403
 20
6.6847606485
 30
0.0
 10
14.3736650369
 20
6.7170676186
 30
0.0
 10
14.3718579811
 20
6.7567292216
 30
0.0
 10
14.3707730259
 20
6.797442099
 30
0.0
 10
14.3705364691
 20
6.8249174562
 30
0.0
 10
14.3705364691
 20
6.8387995931
 30
0.0
  0
SPLINE
  5
425
100
AcDbEntity
  8
0
100
AcDbSpline
 62
7
  6
CONTINUOUS
 70
0
 71
3
 72
53
 73
49
 74
0
 42
0.0000001
 43
0.0000001
 44
0.0000000001
 40
0.0
 40
0.0
 40
0.0
 40
0.0
 40
0.0063158443
 40
0.0126706032
 40
0.0191024038
 40
0.0256479293
 40
0.0323417853
 40
0.0392160999
 40
0.0536138948
 40
0.0611945917
 40
0.0690563434
 40
0.0772174261
 40
0.0856937972
 40
0.0944991824
 40
0.1036452589
 40
0.1131420192
 40
0.1229977586
 40
0.133219338
 40
0.1438124256
 40
0.1547814115
 40
0.1661297224
 40
0.1778598996
 40
0.1899735277
 40
0.2024715474
 40
0.2153541861
 40
0.2286209712
 40
0.2422709812
 40
0.2563026796
 40
0.2707140367
 40
0.285502677
 40
0.3006656816
 40
0.3321007977
 40
0.3649898962
 40
0.3992976051
 40
0.4349839194
 40
0.4720046713
 40
0.5103119934
 40
0.5498546246
 40
0.5905781197
 40
0.6324251754
 40
0.6753358979
 40
0.7192479639
 40
0.7640967365
 40
0.8098157317
 40
0.8563364697
 40
0.9035882633
 40
0.9515016804
 40
1.0
 40
1.0
 40
1.0
 40
1.0
 10
14.5091291978
 20
6.0564322122
 30
0.0
 10
14.5075235234
 20
6.056543575
 30
0.0
 10
14.504309872
 20
6.0568984468
 30
0.0
 10
14.49952542
 20
6.0578233789
 30
0.0
 10
14.494772925
 20
6.0591408201
 30
0.0
 10
14.4900552199
 20
6.0608498953
 30
0.0
 10
14.4853741154
 20
6.0629494835
 30
0.0
 10
14.4790886247
 20
6.0663188603
 30
0.0
 10
14.472973874
 20
6.0704435524
 30
0.0
 10
14.4670563013
 20
6.0752233465
 30
0.0
 10
14.4625865907
 20
6.07925333
 30
0.0
 10
14.4581645516
 20
6.0836640836
 30
0.0
 10
14.4537913822
 20
6.0884541306
 30
0.0
 10
14.4494688552
 20
6.0936213791
 30
0.0
 10
14.4451984948
 20
6.099163687
 30
0.0
 10
14.440982036
 20
6.1050788518
 30
0.0
 10
14.4368210683
 20
6.1113644406
 30
0.0
 10
14.4327171975
 20
6.1180178932
 30
0.0
 10
14.4286721346
 20
6.1250365562
 30
0.0
 10
14.4246874207
 20
6.132417539
 30
0.0
 10
14.4207646767
 20
6.1401578522
 30
0.0
 10
14.4169055437
 20
6.148254365
 30
0.0
 10
14.4131115111
 20
6.156703743
 30
0.0
 10
14.4093841787
 20
6.1655025553
 30
0.0
 10
14.4057250827
 20
6.1746472047
 30
0.0
 10
14.4021356634
 20
6.1841339283
 30
0.0
 10
14.3986174654
 20
6.1939588575
 30
0.0
 10
14.3951719059
 20
6.2041179519
 30
0.0
 10
14.3918003813
 20
6.2146070303
 30
0.0
 10
14.3885043271
 20
6.2254218119
 30
0.0
 10
14.3841597622
 20
6.2404507179
 30
0.0
 10
14.37893975
 20
6.2600257907
 30
0.0
 10
14.3730704568
 20
6.2844686652
 30
0.0
 10
14.3675328542
 20
6.3100981437
 30
0.0
 10
14.3623361425
 20
6.3368720108
 30
0.0
 10
14.3574889624
 20
6.3647463164
 30
0.0
 10
14.3529993948
 20
6.393675209
 30
0.0
 10
14.3488749447
 20
6.4236110866
 30
0.0
 10
14.3451224664
 20
6.4545046423
 30
0.0
 10
14.3417482053
 20
6.4863049712
 30
0.0
 10
14.3387577977
 20
6.5189596693
 30
0.0
 10
14.336156242
 20
6.5524148949
 30
0.0
 10
14.3339478466
 20
6.586615493
 30
0.0
 10
14.332136304
 20
6.621505062
 30
0.0
 10
14.3307246648
 20
6.6570259283
 30
0.0
 10
14.32971523
 20
6.6931199214
 30
0.0
 10
14.3291097842
 20
6.7297269106
 30
0.0
 10
14.328976826
 20
6.7542967306
 30
0.0
 10
14.328976826
 20
6.7666560566
 30
0.0
  0
SPLINE
  5
426
100
AcDbEntity
  8
0
100
AcDbSpline
 62
7
  6
CONTINUOUS
 70
0
 71
3
 72
53
 73
49
 74
0
 42
0.0000001
 43
0.0000001
 44
0.0000000001
 40
0.0
 40
0.0
 40
0.0
 40
0.0
 40
0.0528976677
 40
0.1050261154
 40
0.1562620682
 40
0.2064955259
 40
0.2556150124
 40
0.3035132116
 40
0.3500871453
 40
0.3952379271
 40
0.4388717899
 40
0.4809003774
 40
0.5212412771
 40
0.5598189646
 40
0.5965655198
 40
0.6314214644
 40
0.6643371493
 40
0.6952744498
 40
0.7099937604
 40
0.7242104971
 40
0.737924004
 40
0.751135127
 40
0.7638458996
 40
0.7760598767
 40
0.787782582
 40
0.7990212898
 40
0.8097855952
 40
0.8200877931
 40
0.8299428695
 40
0.8393692711
 40
0.8483892268
 40
0.8570289696
 40
0.8732859812
 40
0.8809911015
 40
0.8884703962
 40
0.8957750274
 40
0.9029603127
 40
0.9100847036
 40
0.9172082579
 40
0.9243910825
 40
0.9316916406
 40
0.9391654008
 40
0.9468636792
 40
0.9631033743
 40
0.9717330772
 40
0.9807420931
 40
0.9901570026
 40
1.0
 40
1.0
 40
1.0
 40
1.0
 10
11.2885317411
 20
11.0524778551
 30
0.0
 10
11.2950080925
 20
11.0520287186
 30
0.0
 10
11.3078607689
 20
11.0510499264
 30
0.0
 10
11.3269611574
 20
11.0493263442
 30
0.0
 10
11.3457095427
 20
11.0473611352
 30
0.0
 10
11.3640597642
 20
11.0451592398
 30
0.0
 10
11.3819674882
 20
11.0427259909
 30
0.0
 10
11.3993890188
 20
11.040067386
 30
0.0
 10
11.4162819404
 20
11.0371899542
 30
0.0
 10
11.4326051638
 20
11.0341007311
 30
0.0
 10
11.4483189971
 20
11.0308073331
 30
0.0
 10
11.4633852615
 20
11.0273178548
 30
0.0
 10
11.4777673753
 20
11.0236408389
 30
0.0
 10
11.4914304897
 20
11.0197853309
 30
0.0
 10
11.5043415487
 20
11.0157608124
 30
0.0
 10
11.5164694658
 20
11.0115771246
 30
0.0
 10
11.5277848855
 20
11.0072444752
 30
0.0
 10
11.5366565414
 20
11.0034583602
 30
0.0
 10
11.5433172795
 20
11.0003542184
 30
0.0
 10
11.5480097962
 20
10.9980342075
 30
0.0
 10
11.5524796826
 20
10.9956849236
 30
0.0
 10
11.5567242878
 20
10.9933078217
 30
0.0
 10
11.5607410546
 20
10.9909043116
 30
0.0
 10
11.564527548
 20
10.9884757748
 30
0.0
 10
11.5680815492
 20
10.9860237217
 30
0.0
 10
11.5714009111
 20
10.9835495374
 30
0.0
 10
11.5744836356
 20
10.9810546262
 30
0.0
 10
11.5773279308
 20
10.9785404864
 30
0.0
 10
11.5799320504
 20
10.9760084158
 30
0.0
 10
11.5822943388
 20
10.9734599295
 30
0.0
 10
11.5844136179
 20
10.9708960404
 30
0.0
 10
11.5868628435
 20
10.9675284577
 30
0.0
 10
11.588893076
 20
10.9640608147
 30
0.0
 10
11.590430655
 20
10.9605176644
 30
0.0
 10
11.5913140752
 20
10.957899143
 30
0.0
 10
11.5919469223
 20
10.9552744938
 30
0.0
 10
11.592328329
 20
10.9526454806
 30
0.0
 10
11.5924578807
 20
10.9500142619
 30
0.0
 10
11.5923353305
 20
10.9473830039
 30
0.0
 10
11.5919607796
 20
10.9447539158
 30
0.0
 10
11.5913349348
 20
10.9421291073
 30
0.0
 10
11.5904584162
 20
10.9395103833
 30
0.0
 10
11.5889301916
 20
10.9359671498
 30
0.0
 10
11.586909139
 20
10.9324989406
 30
0.0
 10
11.5844686287
 20
10.9291308351
 30
0.0
 10
11.5823561355
 20
10.9265664833
 30
0.0
 10
11.5800005522
 20
10.9240176404
 30
0.0
 10
11.5783074952
 20
10.9223669141
 30
0.0
 10
11.5774231828
 20
10.9215439742
 30
0.0
  0
SPLINE
  5
427
100
AcDbEntity
  8
0
100
AcDbSpline
 62
7
  6
CONTINUOUS
 70
0
 71
3
 72
59
 73
55
 74
0
 42
0.0000001
 43
0.0000001
 44
0.0000000001
 40
0.0
 40
0.0
 40
0.0
 40
0.0
 40
0.0417736067
 40
0.0840362449
 40
0.1266573936
 40
0.169505022
 40
0.2124462578
 40
0.2553478387
 40
0.2980766664
 40
0.3405003207
 40
0.3824875887
 40
0.4239089935
 40
0.4646373274
 40
0.5045481926
 40
0.5435205532
 40
0.5814373017
 40
0.61818585
 40
0.6360884854
 40
0.6536592458
 40
0.6708855851
 40
0.6877554289
 40
0.7042570743
 40
0.7203793439
 40
0.7361114876
 40
0.7514433427
 40
0.7663652415
 40
0.7808681782
 40
0.7949437266
 40
0.8085842159
 40
0.8217826643
 40
0.8345329677
 40
0.8468298573
 40
0.858669108
 40
0.8700475322
 40
0.8809632182
 40
0.8914155794
 40
0.9014056404
 40
0.9109361662
 40
0.9200120257
 40
0.9286404358
 40
0.9368314387
 40
0.9445983041
 40
0.951958153
 40
0.9589325359
 40
0.9655481815
 40
0.9718376552
 40
0.9778400137
 40
0.9836011573
 40
0.9864084708
 40
0.9891757905
 40
0.9919106587
 40
0.9946209116
 40
0.997314615
 40
1.0
 40
1.0
 40
1.0
 40
1.0
 10
14.1881793629
 20
8.079544968
 30
0.0
 10
14.1881793629
 20
8.063127838
 30
0.0
 10
14.1879232367
 20
8.0301008716
 30
0.0
 10
14.1867909605
 20
7.9803353566
 30
0.0
 10
14.1849116493
 20
7.9301699797
 30
0.0
 10
14.1822914779
 20
7.8797708478
 30
0.0
 10
14.1789390951
 20
7.8293046683
 30
0.0
 10
14.1748655868
 20
7.7789384109
 30
0.0
 10
14.1700844449
 20
7.7288387042
 30
0.0
 10
14.1646115197
 20
7.6791712907
 30
0.0
 10
14.1584649688
 20
7.6301004724
 30
0.0
 10
14.1516651977
 20
7.5817885646
 30
0.0
 10
14.1442347939
 20
7.5343953486
 30
0.0
 10
14.1361984504
 20
7.4880775556
 30
0.0
 10
14.1275828967
 20
7.4429882714
 30
0.0
 10
14.1184167744
 20
7.3992766677
 30
0.0
 10
14.1102758941
 20
7.3638171581
 30
0.0
 10
14.1035007429
 20
7.3362537851
 30
0.0
 10
14.0983453284
 20
7.3161941378
 30
0.0
 10
14.0930759459
 20
7.29658411
 30
0.0
 10
14.087697005
 20
7.2774398958
 30
0.0
 10
14.0822129073
 20
7.2587773318
 30
0.0
 10
14.0766282644
 20
7.2406118362
 30
0.0
 10
14.0709476428
 20
7.2229584273
 30
0.0
 10
14.065175818
 20
7.2058316803
 30
0.0
 10
14.0593175114
 20
7.1892457468
 30
0.0
 10
14.0533776443
 20
7.1732143072
 30
0.0
 10
14.0473610763
 20
7.1577505972
 30
0.0
 10
14.0412728559
 20
7.1428673529
 30
0.0
 10
14.0351179617
 20
7.128576846
 30
0.0
 10
14.0289015492
 20
7.1148908208
 30
0.0
 10
14.0226286939
 20
7.1018205392
 30
0.0
 10
14.0163046332
 20
7.0893767072
 30
0.0
 10
14.0099345122
 20
7.0775695328
 30
0.0
 10
14.003523618
 20
7.0664086398
 30
0.0
 10
13.9970771286
 20
7.0559031409
 30
0.0
 10
13.9906003349
 20
7.0460615388
 30
0.0
 10
13.9840983944
 20
7.0368918178
 30
0.0
 10
13.9775765343
 20
7.0284013348
 30
0.0
 10
13.9710398106
 20
7.0205969368
 30
0.0
 10
13.9644932884
 20
7.0134848499
 30
0.0
 10
13.9579418104
 20
7.0070708387
 30
0.0
 10
13.9513901639
 20
7.001360115
 30
0.0
 10
13.9448428697
 20
6.9963575592
 30
0.0
 10
13.9383044432
 20
6.9920676826
 30
0.0
 10
13.9317790599
 20
6.9884948789
 30
0.0
 10
13.9252718196
 20
6.9856434986
 30
0.0
 10
13.9198202219
 20
6.9838567025
 30
0.0
 10
13.9154893877
 20
6.9828047126
 30
0.0
 10
13.9122777399
 20
6.9822041974
 30
0.0
 10
13.909075827
 20
6.9817857059
 30
0.0
 10
13.9058842624
 20
6.9815493227
 30
0.0
 10
13.9027039439
 20
6.9814951567
 30
0.0
 10
13.9005902967
 20
6.9815806538
 30
0.0
 10
13.8995374621
 20
6.9816536619
 30
0.0
  0
SPLINE
  5
428
100
AcDbEntity
  8
0
100
AcDbSpline
 62
7
  6
CONTINUOUS
 70
0
 71
3
 72
39
 73
35
 74
0
 42
0.0000001
 43
0.0000001
 44
0.0000000001
 40
0.0
 40
0.0
 40
0.0
 40
0.0
 40
0.0958313223
 40
0.1890999066
 40
0.2792396479
 40
0.3229663115
 40
0.3657099292
 40
0.4074081191
 40
0.4480006754
 40
0.4874302648
 40
0.5256424385
 40
0.5625857699
 40
0.5982125807
 40
0.6324786396
 40
0.665344311
 40
0.6967743203
 40
0.7267388303
 40
0.7552139511
 40
0.7821824427
 40
0.807635341
 40
0.8315726205
 40
0.8540058864
 40
0.8749600023
 40
0.8944766962
 40
0.9126183481
 40
0.9294727137
 40
0.94515911
 40
0.9598336921
 40
0.9668557838
 40
0.973702854
 40
0.9804062715
 40
0.9869997015
 40
0.9935186515
 40
1.0
 40
1.0
 40
1.0
 40
1.0
 10
9.0150798692
 20
12.2304919195
 30
0.0
 10
9.0240396862
 20
12.2298705541
 30
0.0
 10
9.0417068187
 20
12.2284473871
 30
0.0
 10
9.0677382229
 20
12.2257307105
 30
0.0
 10
9.088851033
 20
12.2229908226
 30
0.0
 10
9.1052186511
 20
12.2205244825
 30
0.0
 10
9.1170704188
 20
12.218566477
 30
0.0
 10
9.1286027707
 20
12.2164849269
 30
0.0
 10
9.1397964572
 20
12.2142832555
 30
0.0
 10
9.1506327823
 20
12.2119651962
 30
0.0
 10
9.1610936642
 20
12.2095346565
 30
0.0
 10
9.1711616526
 20
12.2069956793
 30
0.0
 10
9.1808199739
 20
12.204352606
 30
0.0
 10
9.1900525408
 20
12.2016097942
 30
0.0
 10
9.1988440151
 20
12.198771933
 30
0.0
 10
9.2071798021
 20
12.1958437251
 30
0.0
 10
9.2150461082
 20
12.1928300956
 30
0.0
 10
9.2224299655
 20
12.1897360947
 30
0.0
 10
9.2293192325
 20
12.1865667911
 30
0.0
 10
9.2357026981
 20
12.1833274955
 30
0.0
 10
9.2415699882
 20
12.1800233486
 30
0.0
 10
9.246911738
 20
12.176659696
 30
0.0
 10
9.2517194422
 20
12.1732416309
 30
0.0
 10
9.2559855364
 20
12.1697741382
 30
0.0
 10
9.2597032682
 20
12.1662619918
 30
0.0
 10
9.2628664449
 20
12.1627092123
 30
0.0
 10
9.2654690403
 20
12.1591204262
 30
0.0
 10
9.2671904608
 20
12.156057563
 30
0.0
 10
9.2682636006
 20
12.1536051474
 30
0.0
 10
9.2689133215
 20
12.1517880948
 30
0.0
 10
9.2694191313
 20
12.1499674576
 30
0.0
 10
9.2697807547
 20
12.1481439951
 30
0.0
 10
9.269997871
 20
12.1463187549
 30
0.0
 10
9.2700461675
 20
12.1450998194
 30
0.0
 10
9.2700461728
 20
12.1444923857
 30
0.0
  0
SPLINE
  5
429
100
AcDbEntity
  8
0
100
AcDbSpline
 62
7
  6
CONTINUOUS
 70
0
 71
3
 72
39
 73
35
 74
0
 42
0.0000001
 43
0.0000001
 44
0.0000000001
 40
0.0
 40
0.0
 40
0.0
 40
0.0
 40
0.0958313223
 40
0.1890999066
 40
0.2792396479
 40
0.3229663115
 40
0.3657099292
 40
0.4074081191
 40
0.4480006754
 40
0.4874302648
 40
0.5256424385
 40
0.5625857699
 40
0.5982125807
 40
0.6324786396
 40
0.665344311
 40
0.6967743203
 40
0.7267388303
 40
0.7552139511
 40
0.7821824427
 40
0.807635341
 40
0.8315726205
 40
0.8540058864
 40
0.8749600023
 40
0.8944766962
 40
0.9126183481
 40
0.9294727137
 40
0.94515911
 40
0.9598336921
 40
0.9668557838
 40
0.973702854
 40
0.9804062715
 40
0.9869997015
 40
0.9935186515
 40
1.0
 40
1.0
 40
1.0
 40
1.0
 10
14.3276722286
 20
11.8620623881
 30
0.0
 10
14.3366320456
 20
11.8614410226
 30
0.0
 10
14.3542991781
 20
11.8600178556
 30
0.0
 10
14.3803305823
 20
11.857301179
 30
0.0
 10
14.4014433924
 20
11.8545612911
 30
0.0
 10
14.4178110104
 20
11.852094951
 30
0.0
 10
14.4296627781
 20
11.8501369456
 30
0.0
 10
14.4411951301
 20
11.8480553954
 30
0.0
 10
14.4523888166
 20
11.845853724
 30
0.0
 10
14.4632251417
 20
11.8435356647
 30
0.0
 10
14.4736860236
 20
11.841105125
 30
0.0
 10
14.483754012
 20
11.8385661479
 30
0.0
 10
14.4934123333
 20
11.8359230745
 30
0.0
 10
14.5026449002
 20
11.8331802627
 30
0.0
 10
14.5114363745
 20
11.8303424015
 30
0.0
 10
14.5197721615
 20
11.8274141936
 30
0.0
 10
14.5276384676
 20
11.8244005641
 30
0.0
 10
14.5350223249
 20
11.8213065632
 30
0.0
 10
14.5419115919
 20
11.8181372597
 30
0.0
 10
14.5482950575
 20
11.814897964
 30
0.0
 10
14.5541623476
 20
11.8115938171
 30
0.0
 10
14.5595040973
 20
11.8082301645
 30
0.0
 10
14.5643118016
 20
11.8048120995
 30
0.0
 10
14.5685778958
 20
11.8013446068
 30
0.0
 10
14.5722956275
 20
11.7978324603
 30
0.0
 10
14.5754588042
 20
11.7942796809
 30
0.0
 10
14.5780613996
 20
11.7906908947
 30
0.0
 10
14.5797828202
 20
11.7876280316
 30
0.0
 10
14.58085596
 20
11.785175616
 30
0.0
 10
14.5815056809
 20
11.7833585633
 30
0.0
 10
14.5820114907
 20
11.7815379262
 30
0.0
 10
14.5823731141
 20
11.7797144636
 30
0.0
 10
14.5825902304
 20
11.7778892234
 30
0.0
 10
14.5826385269
 20
11.7766702879
 30
0.0
 10
14.5826385322
 20
11.7760628542
 30
0.0
  0
SPLINE
  5
42A
100
AcDbEntity
  8
0
100
AcDbSpline
 62
7
  6
CONTINUOUS
 70
0
 71
3
 72
58
 73
54
 74
0
 42
0.0000001
 43
0.0000001
 44
0.0000000001
 40
0.0
 40
0.0
 40
0.0
 40
0.0
 40
0.0417737373
 40
0.0840364485
 40
0.126657724
 40
0.1695054566
 40
0.2124468032
 40
0.2553484901
 40
0.298077421
 40
0.3405011733
 40
0.3824885338
 40
0.4239100241
 40
0.4646384356
 40
0.5045493696
 40
0.5435217891
 40
0.5814385861
 40
0.6181871714
 40
0.6536600995
 40
0.6708864646
 40
0.6877562952
 40
0.7042579614
 40
0.7203802099
 40
0.7361123688
 40
0.7514441951
 40
0.766366103
 40
0.7808690035
 40
0.7949445543
 40
0.8085850007
 40
0.8217834443
 40
0.8345336989
 40
0.8468305763
 40
0.8586697732
 40
0.8700481773
 40
0.8809638057
 40
0.8914161393
 40
0.9014061401
 40
0.9109366315
 40
0.9200124299
 40
0.9286407999
 40
0.9368317431
 40
0.9445985649
 40
0.9519583582
 40
0.9589326975
 40
0.9655482957
 40
0.9718377309
 40
0.9778400552
 40
0.9836011724
 40
0.9864084712
 40
0.989175789
 40
0.9919106562
 40
0.994620905
 40
0.9973146092
 40
1.0
 40
1.0
 40
1.0
 40
1.0
 10
14.8207326059
 20
10.1394333433
 30
0.0
 10
14.8207326059
 20
10.1217102398
 30
0.0
 10
14.8204561052
 20
10.0860560214
 30
0.0
 10
14.8192337514
 20
10.0323317151
 30
0.0
 10
14.8172049392
 20
9.9781757507
 30
0.0
 10
14.8143763258
 20
9.9237674214
 30
0.0
 10
14.8107572544
 20
9.8692867203
 30
0.0
 10
14.8063596896
 20
9.8149138907
 30
0.0
 10
14.8011981981
 20
9.7608288208
 30
0.0
 10
14.7952898907
 20
9.7072104377
 30
0.0
 10
14.7886543699
 20
9.6542361151
 30
0.0
 10
14.7813136646
 20
9.60208108
 30
0.0
 10
14.7732921587
 20
9.5509178296
 30
0.0
 10
14.7646165122
 20
9.5009155471
 30
0.0
 10
14.7553155727
 20
9.4522395572
 30
0.0
 10
14.7454202905
 20
9.4050506827
 30
0.0
 10
14.7349635874
 20
9.3595050033
 30
0.0
 10
14.7257230597
 20
9.3226944573
 30
0.0
 10
14.7180635883
 20
9.2941893702
 30
0.0
 10
14.7122566911
 20
9.2735223019
 30
0.0
 10
14.7063363728
 20
9.253375209
 30
0.0
 10
14.7003074239
 20
9.2337647333
 30
0.0
 10
14.6941749469
 20
9.2147070756
 30
0.0
 10
14.6879439258
 20
9.1962179888
 30
0.0
 10
14.6816196312
 20
9.1783127285
 30
0.0
 10
14.6752071997
 20
9.1610060885
 30
0.0
 10
14.6687120557
 20
9.1443123287
 30
0.0
 10
14.6621394699
 20
9.1282452307
 30
0.0
 10
14.6554949973
 20
9.1128180063
 30
0.0
 10
14.648784023
 20
9.0980433743
 30
0.0
 10
14.642012206
 20
9.0839334478
 30
0.0
 10
14.6351850226
 20
9.0704998336
 30
0.0
 10
14.6283082021
 20
9.0577534981
 30
0.0
 10
14.6213872814
 20
9.0457048888
 30
0.0
 10
14.6144280159
 20
9.0343637805
 30
0.0
 10
14.6074359586
 20
9.0237394194
 30
0.0
 10
14.6004168282
 20
9.0138403539
 30
0.0
 10
14.593376126
 20
9.0046746003
 30
0.0
 10
14.5863194416
 20
8.9962494734
 30
0.0
 10
14.5792521234
 20
8.9885717727
 30
0.0
 10
14.5721795056
 20
8.9816476435
 30
0.0
 10
14.5651066648
 20
8.9754827879
 30
0.0
 10
14.5580385573
 20
8.9700824028
 30
0.0
 10
14.550979998
 20
8.9654514237
 30
0.0
 10
14.5439355383
 20
8.9615945358
 30
0.0
 10
14.5369106533
 20
8.9585164914
 30
0.0
 10
14.5310254038
 20
8.9565876523
 30
0.0
 10
14.5263500498
 20
8.9554521375
 30
0.0
 10
14.5228829307
 20
8.9548038862
 30
0.0
 10
14.5194263144
 20
8.9543521473
 30
0.0
 10
14.5159808657
 20
8.9540970766
 30
0.0
 10
14.5125475636
 20
8.9540387125
 30
0.0
 10
14.5102657829
 20
8.954131034
 30
0.0
 10
14.5091291978
 20
8.9542098627
 30
0.0
  0
SPLINE
  5
42B
100
AcDbEntity
  8
0
100
AcDbSpline
 62
7
  6
CONTINUOUS
 70
0
 71
3
 72
51
 73
47
 74
0
 42
0.0000001
 43
0.0000001
 44
0.0000000001
 40
0.0
 40
0.0
 40
0.0
 40
0.0
 40
0.0470442707
 40
0.093553771
 40
0.139460081
 40
0.1847026513
 40
0.2292196453
 40
0.2729505462
 40
0.3158367403
 40
0.3578211326
 40
0.3988484196
 40
0.438865207
 40
0.4778202613
 40
0.5156646414
 40
0.5523518069
 40
0.5878379715
 40
0.6220823002
 40
0.6550470735
 40
0.6866981533
 40
0.7170053417
 40
0.7459427001
 40
0.7734892481
 40
0.7867364079
 40
0.799630601
 40
0.8121709389
 40
0.8243570423
 40
0.8361889326
 40
0.8476672726
 40
0.8587933644
 40
0.8695690747
 40
0.8799971019
 40
0.8900809805
 40
0.8998250513
 40
0.9092347594
 40
0.9183166774
 40
0.9270785317
 40
0.935529532
 40
0.9436804207
 40
0.9515435559
 40
0.9591332512
 40
0.9664658319
 40
0.9735597329
 40
0.980435767
 40
0.9871170982
 40
0.9936292247
 40
1.0
 40
1.0
 40
1.0
 40
1.0
 10
14.7898229761
 20
10.1415769334
 30
0.0
 10
14.7898229761
 20
10.1533209303
 30
0.0
 10
14.7897028732
 20
10.1766756176
 30
0.0
 10
14.7891563235
 20
10.2114863741
 30
0.0
 10
14.7882450387
 20
10.2458396297
 30
0.0
 10
14.7869704599
 20
10.2796835948
 30
0.0
 10
14.7853345046
 20
10.3129683477
 30
0.0
 10
14.7833396314
 20
10.3456442447
 30
0.0
 10
14.7809888222
 20
10.3776626125
 30
0.0
 10
14.7782856277
 20
10.4089758324
 30
0.0
 10
14.7752341243
 20
10.4395373042
 30
0.0
 10
14.7718388622
 20
10.4693015549
 30
0.0
 10
14.7681049609
 20
10.4982243208
 30
0.0
 10
14.7640380512
 20
10.5262626025
 30
0.0
 10
14.759644206
 20
10.5533747237
 30
0.0
 10
14.7549300391
 20
10.5795204172
 30
0.0
 10
14.74990266
 20
10.6046608819
 30
0.0
 10
14.7445695799
 20
10.6287588352
 30
0.0
 10
14.7389388078
 20
10.6517785752
 30
0.0
 10
14.7330188185
 20
10.673686136
 30
0.0
 10
14.7268184379
 20
10.6944489981
 30
0.0
 10
14.7213567533
 20
10.7109806104
 30
0.0
 10
14.7168439931
 20
10.7236010751
 30
0.0
 10
14.713439205
 20
10.7326378258
 30
0.0
 10
14.7099713704
 20
10.7413661918
 30
0.0
 10
14.7064417964
 20
10.7497829775
 30
0.0
 10
14.7028517369
 20
10.7578850465
 30
0.0
 10
14.6992025274
 20
10.765669413
 30
0.0
 10
14.6954955586
 20
10.7731332305
 30
0.0
 10
14.6917321248
 20
10.780273721
 30
0.0
 10
14.6879136196
 20
10.7870882673
 30
0.0
 10
14.6840414755
 20
10.7935743955
 30
0.0
 10
14.6801170189
 20
10.7997296866
 30
0.0
 10
14.6761416822
 20
10.8055518987
 30
0.0
 10
14.6721169194
 20
10.8110389311
 30
0.0
 10
14.6680440678
 20
10.8161887151
 30
0.0
 10
14.663924577
 20
10.8209993748
 30
0.0
 10
14.6597598978
 20
10.8254691618
 30
0.0
 10
14.6555513633
 20
10.8295963214
 30
0.0
 10
14.6513004273
 20
10.8333793034
 30
0.0
 10
14.6470085384
 20
10.8368166527
 30
0.0
 10
14.6426770456
 20
10.8399068577
 30
0.0
 10
14.6383074838
 20
10.8426486154
 30
0.0
 10
14.6339012896
 20
10.8450407219
 30
0.0
 10
14.6294603137
 20
10.8470817481
 30
0.0
 10
14.6264484616
 20
10.8482186576
 30
0.0
 10
14.6249409702
 20
10.8487253972
 30
0.0
  0
SPLINE
  5
42C
100
AcDbEntity
  8
0
100
AcDbSpline
 62
7
  6
CONTINUOUS
 70
0
 71
3
 72
54
 73
50
 74
0
 42
0.0000001
 43
0.0000001
 44
0.0000000001
 40
0.0
 40
0.0
 40
0.0
 40
0.0
 40
0.0408033362
 40
0.0820722233
 40
0.1236876809
 40
0.1655298153
 40
0.2074776804
 40
0.2494100355
 40
0.2912056623
 40
0.332743856
 40
0.373904855
 40
0.4145702944
 40
0.4546236548
 40
0.4939507194
 40
0.532440037
 40
0.5699833977
 40
0.6064763235
 40
0.6418185826
 40
0.6759147369
 40
0.6924674256
 40
0.7086752674
 40
0.7245280086
 40
0.7400157183
 40
0.7551290217
 40
0.7698589181
 40
0.7841970267
 40
0.7981354085
 40
0.8116668188
 40
0.8247845458
 40
0.8374826635
 40
0.8497559009
 40
0.8615998931
 40
0.8730110966
 40
0.8839870399
 40
0.8945263022
 40
0.904628772
 40
0.9142957117
 40
0.9235300388
 40
0.9323365049
 40
0.9407220255
 40
0.9486960051
 40
0.9562707473
 40
0.9634619521
 40
0.9702892209
 40
0.9767767006
 40
0.9829536162
 40
0.9888548791
 40
0.9945213618
 40
1.0
 40
1.0
 40
1.0
 40
1.0
 10
14.7898229761
 20
10.1415769334
 30
0.0
 10
14.7898229761
 20
10.1244747063
 30
0.0
 10
14.7895655264
 20
10.0900746196
 30
0.0
 10
14.7884266963
 20
10.0382432463
 30
0.0
 10
14.7865360827
 20
9.9859980838
 30
0.0
 10
14.7838994936
 20
9.9335003662
 30
0.0
 10
14.7805250202
 20
9.8809118164
 30
0.0
 10
14.7764230651
 20
9.8283945575
 30
0.0
 10
14.7716062779
 20
9.7761104482
 30
0.0
 10
14.7660895323
 20
9.7242206388
 30
0.0
 10
14.7598898734
 20
9.6728850521
 30
0.0
 10
14.7530264687
 20
9.6222618927
 30
0.0
 10
14.7455205484
 20
9.5725071535
 30
0.0
 10
14.7373953418
 20
9.5237741318
 30
0.0
 10
14.728676007
 20
9.4762129445
 30
0.0
 10
14.7193895533
 20
9.42997008
 30
0.0
 10
14.7095647661
 20
9.3851878562
 30
0.0
 10
14.6992320962
 20
9.3420042571
 30
0.0
 10
14.6901377243
 20
9.3071253257
 30
0.0
 10
14.682620473
 20
9.2801297447
 30
0.0
 10
14.6769313594
 20
9.2605639298
 30
0.0
 10
14.6711399907
 20
9.2414941577
 30
0.0
 10
14.6652507085
 20
9.2229351043
 30
0.0
 10
14.6592681761
 20
9.2049010484
 30
0.0
 10
14.6531969045
 20
9.187405879
 30
0.0
 10
14.6470416912
 20
9.1704630399
 30
0.0
 10
14.640807182
 20
9.1540855731
 30
0.0
 10
14.6344982949
 20
9.1382860465
 30
0.0
 10
14.6281197959
 20
9.1230766109
 30
0.0
 10
14.6216767024
 20
9.1084689158
 30
0.0
 10
14.615173885
 20
9.094474178
 30
0.0
 10
14.6086164364
 20
9.0811030882
 30
0.0
 10
14.6020093128
 20
9.0683658878
 30
0.0
 10
14.5953576526
 20
9.0562722704
 30
0.0
 10
14.5886664719
 20
9.0448314617
 30
0.0
 10
14.5819409163
 20
9.0340521241
 30
0.0
 10
14.5751860248
 20
9.0239424312
 30
0.0
 10
14.5684068968
 20
9.0145099901
 30
0.0
 10
14.5616085377
 20
9.005761897
 30
0.0
 10
14.5547959246
 20
8.9977047032
 30
0.0
 10
14.5479739462
 20
8.9903444371
 30
0.0
 10
14.541147359
 20
8.9836866528
 30
0.0
 10
14.5343208337
 20
8.9777364024
 30
0.0
 10
14.52749883
 20
8.9724984275
 30
0.0
 10
14.5206857494
 20
8.9679770498
 30
0.0
 10
14.5138859252
 20
8.9641765748
 30
0.0
 10
14.5071035306
 20
8.9611009391
 30
0.0
 10
14.5003442583
 20
8.9587545052
 30
0.0
 10
14.4957922101
 20
8.9576634269
 30
0.0
 10
14.4935338762
 20
8.9572475596
 30
0.0
  0
SPLINE
  5
42D
100
AcDbEntity
  8
0
100
AcDbSpline
 62
7
  6
CONTINUOUS
 70
0
 71
3
 72
64
 73
60
 74
0
 42
0.0000001
 43
0.0000001
 44
0.0000000001
 40
0.0
 40
0.0
 40
0.0
 40
0.0
 40
0.0452101678
 40
0.0910011722
 40
0.1371888434
 40
0.1835863495
 40
0.2300061232
 40
0.2762603525
 40
0.3221621186
 40
0.3675263057
 40
0.4121705903
 40
0.4559164172
 40
0.4985899991
 40
0.5400233384
 40
0.5800552903
 40
0.5994978801
 40
0.618533373
 40
0.6371441099
 40
0.6553130172
 40
0.6730237857
 40
0.6902608165
 40
0.7070093494
 40
0.7232554879
 40
0.738986267
 40
0.7541897748
 40
0.7688551594
 40
0.7829728622
 40
0.7965345754
 40
0.8095336001
 40
0.8219647827
 40
0.8338250125
 40
0.8451131892
 40
0.8558308808
 40
0.8659824056
 40
0.8755756875
 40
0.8846225698
 40
0.8931399233
 40
0.9011503209
 40
0.9086834279
 40
0.9157770493
 40
0.9224785902
 40
0.9288459932
 40
0.9319268633
 40
0.9349510088
 40
0.9379286982
 40
0.9408707294
 40
0.9437883259
 40
0.9466930252
 40
0.9495965375
 40
0.9525105823
 40
0.955446746
 40
0.9584163373
 40
0.9614302388
 40
0.9644988188
 40
0.9708360807
 40
0.9775009731
 40
0.9845526118
 40
0.9920393488
 40
1.0
 40
1.0
 40
1.0
 40
1.0
 10
14.7173537033
 20
10.0715769871
 30
0.0
 10
14.7173537033
 20
10.0572920966
 30
0.0
 10
14.7170989392
 20
10.0285382127
 30
0.0
 10
14.7159755715
 20
9.9852037738
 30
0.0
 10
14.7141128057
 20
9.9415192257
 30
0.0
 10
14.7115186035
 20
9.8976730528
 30
0.0
 10
14.7082041488
 20
9.8538543391
 30
0.0
 10
14.7041837374
 20
9.8102520317
 30
0.0
 10
14.6994747526
 20
9.7670541501
 30
0.0
 10
14.6940975721
 20
9.72444695
 30
0.0
 10
14.6880754904
 20
9.6826141134
 30
0.0
 10
14.6814346142
 20
9.6417359658
 30
0.0
 10
14.6742037646
 20
9.6019886077
 30
0.0
 10
14.666414316
 20
9.5635434209
 30
0.0
 10
14.6594196499
 20
9.5324336982
 30
0.0
 10
14.6535589341
 20
9.5083289243
 30
0.0
 10
14.6490880366
 20
9.4908531577
 30
0.0
 10
14.6445039992
 20
9.4738231428
 30
0.0
 10
14.6398116978
 20
9.4572572194
 30
0.0
 10
14.6350162599
 20
9.4411732353
 30
0.0
 10
14.6301228393
 20
9.4255885157
 30
0.0
 10
14.6251367482
 20
9.4105198368
 30
0.0
 10
14.6200633765
 20
9.3959834137
 30
0.0
 10
14.6149081984
 20
9.3819948796
 30
0.0
 10
14.6096768166
 20
9.3685692605
 30
0.0
 10
14.6043748372
 20
9.3557209756
 30
0.0
 10
14.5990080482
 20
9.3434637853
 30
0.0
 10
14.5935821542
 20
9.3318108266
 30
0.0
 10
14.5881030924
 20
9.3207745186
 30
0.0
 10
14.582576626
 20
9.3103666509
 30
0.0
 10
14.5770087881
 20
9.3005982281
 30
0.0
 10
14.5714053463
 20
9.2914796305
 30
0.0
 10
14.565772347
 20
9.283020383
 30
0.0
 10
14.5601154775
 20
9.2752294087
 30
0.0
 10
14.5544406625
 20
9.2681147188
 30
0.0
 10
14.5487533691
 20
9.2616837809
 30
0.0
 10
14.5430591979
 20
9.2559431608
 30
0.0
 10
14.5373631881
 20
9.2508990298
 30
0.0
 10
14.5316704465
 20
9.2465568543
 30
0.0
 10
14.5259853576
 20
9.2429220121
 30
0.0
 10
14.5203132719
 20
9.23999977
 30
0.0
 10
14.5155482764
 20
9.2381426715
 30
0.0
 10
14.511764385
 20
9.2370344895
 30
0.0
 10
14.5089653799
 20
9.2363927183
 30
0.0
 10
14.5061754392
 20
9.2359316233
 30
0.0
 10
14.5033953246
 20
9.2356513548
 30
0.0
 10
14.5006259124
 20
9.2355521019
 30
0.0
 10
14.4978680813
 20
9.2356339994
 30
0.0
 10
14.4951227211
 20
9.2358969661
 30
0.0
 10
14.4923907074
 20
9.2363408881
 30
0.0
 10
14.489672904
 20
9.2369656332
 30
0.0
 10
14.4869701833
 20
9.2377709691
 30
0.0
 10
14.4842832658
 20
9.2387565548
 30
0.0
 10
14.4806848018
 20
9.2403269557
 30
0.0
 10
14.4762160916
 20
9.2427623893
 30
0.0
 10
14.4709931572
 20
9.2463676075
 30
0.0
 10
14.465855374
 20
9.250681191
 30
0.0
 10
14.4608073257
 20
9.2556966092
 30
0.0
 10
14.4576060904
 20
9.2593871142
 30
0.0
 10
14.4560190157
 20
9.2613385025
 30
0.0
  0
SPLINE
  5
42E
100
AcDbEntity
  8
0
100
AcDbSpline
 62
7
  6
CONTINUOUS
 70
0
 71
3
 72
54
 73
50
 74
0
 42
0.0000001
 43
0.0000001
 44
0.0000000001
 40
0.0
 40
0.0
 40
0.0
 40
0.0
 40
0.0417737003
 40
0.0840371083
 40
0.1266584058
 40
0.169506479
 40
0.2124480466
 40
0.2553499954
 40
0.2980791779
 40
0.340503187
 40
0.3824908042
 40
0.42391255
 40
0.4646412133
 40
0.5045523954
 40
0.5435250601
 40
0.5814421004
 40
0.6181909284
 40
0.6536640988
 40
0.6877599811
 40
0.7042617518
 40
0.720384135
 40
0.7361163834
 40
0.7514483539
 40
0.7663703399
 40
0.7808733861
 40
0.7949490122
 40
0.8085895955
 40
0.8217881215
 40
0.8345384972
 40
0.8468354689
 40
0.8586747685
 40
0.8700532784
 40
0.8809689935
 40
0.8914214371
 40
0.9014115161
 40
0.9109421106
 40
0.9200179887
 40
0.9286464472
 40
0.9368374764
 40
0.9446043697
 40
0.9519642532
 40
0.9589386494
 40
0.9655543338
 40
0.9718438174
 40
0.977846213
 40
0.9836073757
 40
0.9891800572
 40
0.9946230814
 40
1.0
 40
1.0
 40
1.0
 40
1.0
 10
14.6316215733
 20
10.0587661036
 30
0.0
 10
14.6316215733
 20
10.0475726573
 30
0.0
 10
14.6314469332
 20
10.0250541938
 30
0.0
 10
14.6306749402
 20
9.9911231212
 30
0.0
 10
14.6293935665
 20
9.9569193246
 30
0.0
 10
14.6276070915
 20
9.9225562671
 30
0.0
 10
14.6253213619
 20
9.8881474381
 30
0.0
 10
14.6225439648
 20
9.8538067613
 30
0.0
 10
14.6192840858
 20
9.8196478168
 30
0.0
 10
14.6155525369
 20
9.7857836211
 30
0.0
 10
14.6113616957
 20
9.7523261965
 30
0.0
 10
14.6067254748
 20
9.7193862146
 30
0.0
 10
14.6016592737
 20
9.6870726205
 30
0.0
 10
14.5961799313
 20
9.6554922697
 30
0.0
 10
14.5903056692
 20
9.6247495641
 30
0.0
 10
14.5840560303
 20
9.5949461183
 30
0.0
 10
14.5774518248
 20
9.5661803501
 30
0.0
 10
14.5705150296
 20
9.5385473734
 30
0.0
 10
14.5644119803
 20
9.5163041793
 30
0.0
 10
14.5593715181
 20
9.4991511112
 30
0.0
 10
14.5555637825
 20
9.4867655384
 30
0.0
 10
14.5516906187
 20
9.4747291272
 30
0.0
 10
14.547755285
 20
9.4630518004
 30
0.0
 10
14.5437609599
 20
9.4517432168
 30
0.0
 10
14.5397110568
 20
9.440812694
 30
0.0
 10
14.5356088275
 20
9.4302692667
 30
0.0
 10
14.5314577672
 20
9.4201216094
 30
0.0
 10
14.5272612372
 20
9.4103780944
 30
0.0
 10
14.5230227572
 20
9.4010467301
 30
0.0
 10
14.518745818
 20
9.3921351851
 30
0.0
 10
14.5144339225
 20
9.3836507806
 30
0.0
 10
14.5100906845
 20
9.3756004411
 30
0.0
 10
14.5057195695
 20
9.367990779
 30
0.0
 10
14.5013242724
 20
9.3608279427
 30
0.0
 10
14.4969082233
 20
9.3541178062
 30
0.0
 10
14.492475114
 20
9.3478657307
 30
0.0
 10
14.4880283508
 20
9.3420768128
 30
0.0
 10
14.4835715075
 20
9.3367556506
 30
0.0
 10
14.4791079527
 20
9.3319065388
 30
0.0
 10
14.4746410258
 20
9.3275333885
 30
0.0
 10
14.4701740001
 20
9.323639733
 30
0.0
 10
14.4657099117
 20
9.3202289666
 30
0.0
 10
14.461251895
 20
9.3173040485
 30
0.0
 10
14.4568028066
 20
9.3148681436
 30
0.0
 10
14.4523658219
 20
9.3129239857
 30
0.0
 10
14.4479442404
 20
9.3114747029
 30
0.0
 10
14.4435417974
 20
9.3105229004
 30
0.0
 10
14.4391637807
 20
9.3100710197
 30
0.0
 10
14.4362571533
 20
9.3101042214
 30
0.0
 10
14.4348198358
 20
9.3102038885
 30
0.0
  0
SPLINE
  5
42F
100
AcDbEntity
  8
0
100
AcDbSpline
 62
7
  6
CONTINUOUS
 70
0
 71
3
 72
59
 73
55
 74
0
 42
0.0000001
 43
0.0000001
 44
0.0000000001
 40
0.0
 40
0.0
 40
0.0
 40
0.0
 40
0.0532120318
 40
0.1056325195
 40
0.1571424583
 40
0.2076321627
 40
0.2569914717
 40
0.3051147694
 40
0.3519002025
 40
0.3972501412
 40
0.4410717503
 40
0.4832774413
 40
0.5237855322
 40
0.5625208421
 40
0.5812025819
 40
0.5994163127
 40
0.6171547771
 40
0.6344114629
 40
0.6511802872
 40
0.6674559864
 40
0.6832340079
 40
0.698510473
 40
0.7132825784
 40
0.7275482873
 40
0.7413067027
 40
0.7545581572
 40
0.7673041182
 40
0.7795477396
 40
0.7912936939
 40
0.8025485514
 40
0.8133211548
 40
0.823622611
 40
0.8334670132
 40
0.8428715887
 40
0.8518571622
 40
0.8604488289
 40
0.8686761188
 40
0.8765736877
 40
0.8841815154
 40
0.8915449579
 40
0.8987147233
 40
0.9057461074
 40
0.9126980792
 40
0.9196318213
 40
0.9266090413
 40
0.9336901936
 40
0.9409329038
 40
0.9483907028
 40
0.9561120947
 40
0.9641403178
 40
0.9725130778
 40
0.981262886
 40
0.9904174709
 40
1.0
 40
1.0
 40
1.0
 40
1.0
 10
14.7173537033
 20
10.0715769871
 30
0.0
 10
14.7173537033
 20
10.0820321078
 30
0.0
 10
14.7172190206
 20
10.1027871041
 30
0.0
 10
14.7166042635
 20
10.1336573087
 30
0.0
 10
14.715579526
 20
10.1639815461
 30
0.0
 10
14.7141474177
 20
10.1936871781
 30
0.0
 10
14.7123113172
 20
10.2227039474
 30
0.0
 10
14.7100756903
 20
10.2509627275
 30
0.0
 10
14.707445943
 20
10.2783963945
 30
0.0
 10
14.7044284211
 20
10.3049397812
 30
0.0
 10
14.7010304024
 20
10.3305298376
 30
0.0
 10
14.6972600803
 20
10.3551058805
 30
0.0
 10
14.6931265382
 20
10.378609514
 30
0.0
 10
14.6893434591
 20
10.3974765712
 30
0.0
 10
14.6861332399
 20
10.4119860402
 30
0.0
 10
14.6836701354
 20
10.4224345054
 30
0.0
 10
14.6811239859
 20
10.432574611
 30
0.0
 10
14.6784963724
 20
10.4424003635
 30
0.0
 10
14.6757887917
 20
10.4519059251
 30
0.0
 10
14.6730028882
 20
10.4610856685
 30
0.0
 10
14.6701403507
 20
10.4699341661
 30
0.0
 10
14.6672027993
 20
10.478446167
 30
0.0
 10
14.6641920733
 20
10.4866166645
 30
0.0
 10
14.6611098934
 20
10.4944408273
 30
0.0
 10
14.6579580793
 20
10.5019140456
 30
0.0
 10
14.6547385531
 20
10.509031951
 30
0.0
 10
14.6514530922
 20
10.5157903343
 30
0.0
 10
14.6481037035
 20
10.5221852785
 30
0.0
 10
14.6446922821
 20
10.5282130466
 30
0.0
 10
14.6412207308
 20
10.533870109
 30
0.0
 10
14.6376911054
 20
10.539153239
 30
0.0
 10
14.6341052378
 20
10.5440593079
 30
0.0
 10
14.6304651456
 20
10.5485855047
 30
0.0
 10
14.6267727538
 20
10.5527291865
 30
0.0
 10
14.6230298784
 20
10.5564877981
 30
0.0
 10
14.619238521
 20
10.5598591209
 30
0.0
 10
14.6154004535
 20
10.5628408447
 30
0.0
 10
14.6115176271
 20
10.5654308693
 30
0.0
 10
14.6075920764
 20
10.5676271967
 30
0.0
 10
14.6036258948
 20
10.5694276654
 30
0.0
 10
14.5996216169
 20
10.5708305718
 30
0.0
 10
14.5955819641
 20
10.5718341547
 30
0.0
 10
14.5915100732
 20
10.5724371311
 30
0.0
 10
14.5874093267
 20
10.5726389094
 30
0.0
 10
14.5832831942
 20
10.5724391649
 30
0.0
 10
14.5791350665
 20
10.5718385906
 30
0.0
 10
14.57496809
 20
10.5708381334
 30
0.0
 10
14.5707851547
 20
10.56943911
 30
0.0
 10
14.5665887658
 20
10.5676432803
 30
0.0
 10
14.5623813536
 20
10.5654521934
 30
0.0
 10
14.5581651002
 20
10.5628677729
 30
0.0
 10
14.5539421357
 20
10.5598918593
 30
0.0
 10
14.549714821
 20
10.5565264611
 30
0.0
 10
14.5469596191
 20
10.5540819054
 30
0.0
 10
14.5455813954
 20
10.5527991909
 30
0.0
  0
SPLINE
  5
430
100
AcDbEntity
  8
0
100
AcDbSpline
 62
7
  6
CONTINUOUS
 70
0
 71
3
 72
49
 73
45
 74
0
 42
0.0000001
 43
0.0000001
 44
0.0000000001
 40
0.0
 40
0.0
 40
0.0
 40
0.0
 40
0.0484977591
 40
0.0964124095
 40
0.1436644782
 40
0.1901851275
 40
0.2359045137
 40
0.2807535295
 40
0.3246657516
 40
0.3675767279
 40
0.4094239822
 40
0.4501476548
 40
0.489690486
 40
0.527997965
 40
0.565018896
 40
0.6007053598
 40
0.6350131765
 40
0.6679024476
 40
0.6993376667
 40
0.7292885995
 40
0.7577308847
 40
0.7846466668
 40
0.8100260987
 40
0.8221397633
 40
0.8338699797
 40
0.8452183077
 40
0.8561873037
 40
0.8667804243
 40
0.8770020292
 40
0.8868577551
 40
0.8963545465
 40
0.9055006518
 40
0.9143060078
 40
0.9227824095
 40
0.9309435203
 40
0.9388052391
 40
0.9463859654
 40
0.9607837612
 40
0.9676581026
 40
0.974351983
 40
0.9808975113
 40
0.9873293386
 40
0.9936841261
 40
1.0
 40
1.0
 40
1.0
 40
1.0
 10
14.6316215733
 20
10.0587661036
 30
0.0
 10
14.6316215733
 20
10.0665718785
 30
0.0
 10
14.6315375864
 20
10.0820897181
 30
0.0
 10
14.6311552169
 20
10.1052100005
 30
0.0
 10
14.630517678
 20
10.1280063623
 30
0.0
 10
14.6296260868
 20
10.1504406134
 30
0.0
 10
14.628481975
 20
10.1724761488
 30
0.0
 10
14.6270871903
 20
10.1940765842
 30
0.0
 10
14.6254440775
 20
10.2152062357
 30
0.0
 10
14.6235554113
 20
10.2358302884
 30
0.0
 10
14.6214242833
 20
10.255914742
 30
0.0
 10
14.6190542813
 20
10.2754264894
 30
0.0
 10
14.6164493655
 20
10.2943333846
 30
0.0
 10
14.6136138261
 20
10.3126042883
 30
0.0
 10
14.6105524457
 20
10.330209132
 30
0.0
 10
14.6072703013
 20
10.3471189613
 30
0.0
 10
14.6037728338
 20
10.3633059919
 30
0.0
 10
14.6000659267
 20
10.3787436723
 30
0.0
 10
14.5961556863
 20
10.3934067202
 30
0.0
 10
14.5920486157
 20
10.4072711673
 30
0.0
 10
14.5877515471
 20
10.4203145195
 30
0.0
 10
14.58327148
 20
10.4325154069
 30
0.0
 10
14.5793329274
 20
10.442108148
 30
0.0
 10
14.5760874369
 20
10.4493360593
 30
0.0
 10
14.5736500683
 20
10.4544496473
 30
0.0
 10
14.5711725389
 20
10.4593382512
 30
0.0
 10
14.5686558608
 20
10.4639999082
 30
0.0
 10
14.5661010807
 20
10.4684327394
 30
0.0
 10
14.5635091623
 20
10.4726349103
 30
0.0
 10
14.5608811532
 20
10.4766047264
 30
0.0
 10
14.5582181269
 20
10.4803406107
 30
0.0
 10
14.555521065
 20
10.4838410109
 30
0.0
 10
14.5527910066
 20
10.4871044904
 30
0.0
 10
14.5500290106
 20
10.4901297756
 30
0.0
 10
14.5472361548
 20
10.4929155159
 30
0.0
 10
14.5444131305
 20
10.495460701
 30
0.0
 10
14.5406757424
 20
10.4984795253
 30
0.0
 10
14.5368137496
 20
10.5010845202
 30
0.0
 10
14.5328439681
 20
10.5032125343
 30
0.0
 10
14.5298874815
 20
10.5045385915
 30
0.0
 10
14.5269078501
 20
10.5056179256
 30
0.0
 10
14.5239062751
 20
10.5064499872
 30
0.0
 10
14.5208845082
 20
10.507034144
 30
0.0
 10
14.5188548255
 20
10.5072582275
 30
0.0
 10
14.5178407129
 20
10.5073285485
 30
0.0
  0
SPLINE
  5
431
100
AcDbEntity
  8
0
100
AcDbSpline
 62
7
  6
CONTINUOUS
 70
0
 71
3
 72
51
 73
47
 74
0
 42
0.0000001
 43
0.0000001
 44
0.0000000001
 40
0.0
 40
0.0
 40
0.0
 40
0.0
 40
0.0470442707
 40
0.093553771
 40
0.139460081
 40
0.1847026513
 40
0.2292196453
 40
0.2729505462
 40
0.3158367403
 40
0.3578211326
 40
0.3988484196
 40
0.438865207
 40
0.4778202613
 40
0.5156646414
 40
0.5523518069
 40
0.5878379715
 40
0.6220823002
 40
0.6550470735
 40
0.6866981533
 40
0.7170053417
 40
0.7459427001
 40
0.7734892481
 40
0.7867364079
 40
0.799630601
 40
0.8121709389
 40
0.8243570423
 40
0.8361889326
 40
0.8476672726
 40
0.8587933644
 40
0.8695690747
 40
0.8799971019
 40
0.8900809805
 40
0.8998250513
 40
0.9092347594
 40
0.9183166774
 40
0.9270785317
 40
0.935529532
 40
0.9436804207
 40
0.9515435559
 40
0.9591332512
 40
0.9664658319
 40
0.9735597329
 40
0.980435767
 40
0.9871170982
 40
0.9936292247
 40
1.0
 40
1.0
 40
1.0
 40
1.0
 10
14.7898229761
 20
7.2437992829
 30
0.0
 10
14.7898229761
 20
7.2555432797
 30
0.0
 10
14.7897028732
 20
7.278897967
 30
0.0
 10
14.7891563235
 20
7.3137087235
 30
0.0
 10
14.7882450387
 20
7.3480619792
 30
0.0
 10
14.7869704599
 20
7.3819059442
 30
0.0
 10
14.7853345046
 20
7.4151906971
 30
0.0
 10
14.7833396314
 20
7.4478665942
 30
0.0
 10
14.7809888222
 20
7.4798849619
 30
0.0
 10
14.7782856277
 20
7.5111981819
 30
0.0
 10
14.7752341243
 20
7.5417596536
 30
0.0
 10
14.7718388622
 20
7.5715239043
 30
0.0
 10
14.7681049609
 20
7.6004466703
 30
0.0
 10
14.7640380512
 20
7.6284849519
 30
0.0
 10
14.759644206
 20
7.6555970731
 30
0.0
 10
14.7549300391
 20
7.6817427666
 30
0.0
 10
14.74990266
 20
7.7068832313
 30
0.0
 10
14.7445695799
 20
7.7309811846
 30
0.0
 10
14.7389388078
 20
7.7540009246
 30
0.0
 10
14.7330188185
 20
7.7759084854
 30
0.0
 10
14.7268184379
 20
7.7966713475
 30
0.0
 10
14.7213567533
 20
7.8132029598
 30
0.0
 10
14.7168439931
 20
7.8258234245
 30
0.0
 10
14.713439205
 20
7.8348601752
 30
0.0
 10
14.7099713704
 20
7.8435885412
 30
0.0
 10
14.7064417964
 20
7.8520053269
 30
0.0
 10
14.7028517369
 20
7.8601073959
 30
0.0
 10
14.6992025274
 20
7.8678917624
 30
0.0
 10
14.6954955586
 20
7.8753555799
 30
0.0
 10
14.6917321248
 20
7.8824960704
 30
0.0
 10
14.6879136196
 20
7.8893106167
 30
0.0
 10
14.6840414755
 20
7.8957967449
 30
0.0
 10
14.6801170189
 20
7.901952036
 30
0.0
 10
14.6761416822
 20
7.9077742482
 30
0.0
 10
14.6721169194
 20
7.9132612805
 30
0.0
 10
14.6680440678
 20
7.9184110646
 30
0.0
 10
14.663924577
 20
7.9232217242
 30
0.0
 10
14.6597598978
 20
7.9276915112
 30
0.0
 10
14.6555513633
 20
7.9318186709
 30
0.0
 10
14.6513004273
 20
7.9356016528
 30
0.0
 10
14.6470085384
 20
7.9390390021
 30
0.0
 10
14.6426770456
 20
7.9421292071
 30
0.0
 10
14.6383074838
 20
7.9448709648
 30
0.0
 10
14.6339012896
 20
7.9472630713
 30
0.0
 10
14.6294603137
 20
7.9493040975
 30
0.0
 10
14.6264484616
 20
7.9504410071
 30
0.0
 10
14.6249409702
 20
7.9509477466
 30
0.0
  0
SPLINE
  5
432
100
AcDbEntity
  8
0
100
AcDbSpline
 62
7
  6
CONTINUOUS
 70
0
 71
3
 72
54
 73
50
 74
0
 42
0.0000001
 43
0.0000001
 44
0.0000000001
 40
0.0
 40
0.0
 40
0.0
 40
0.0
 40
0.0408033362
 40
0.0820722233
 40
0.1236876809
 40
0.1655298153
 40
0.2074776804
 40
0.2494100355
 40
0.2912056623
 40
0.332743856
 40
0.373904855
 40
0.4145702944
 40
0.4546236548
 40
0.4939507194
 40
0.532440037
 40
0.5699833977
 40
0.6064763235
 40
0.6418185826
 40
0.6759147369
 40
0.6924674256
 40
0.7086752674
 40
0.7245280086
 40
0.7400157183
 40
0.7551290217
 40
0.7698589181
 40
0.7841970267
 40
0.7981354085
 40
0.8116668188
 40
0.8247845458
 40
0.8374826635
 40
0.8497559009
 40
0.8615998931
 40
0.8730110966
 40
0.8839870399
 40
0.8945263022
 40
0.904628772
 40
0.9142957117
 40
0.9235300388
 40
0.9323365049
 40
0.9407220255
 40
0.9486960051
 40
0.9562707473
 40
0.9634619521
 40
0.9702892209
 40
0.9767767006
 40
0.9829536162
 40
0.9888548791
 40
0.9945213618
 40
1.0
 40
1.0
 40
1.0
 40
1.0
 10
14.7898229761
 20
7.2437992829
 30
0.0
 10
14.7898229761
 20
7.2266970557
 30
0.0
 10
14.7895655264
 20
7.1922969691
 30
0.0
 10
14.7884266963
 20
7.1404655957
 30
0.0
 10
14.7865360827
 20
7.0882204332
 30
0.0
 10
14.7838994936
 20
7.0357227157
 30
0.0
 10
14.7805250202
 20
6.9831341659
 30
0.0
 10
14.7764230651
 20
6.9306169069
 30
0.0
 10
14.7716062779
 20
6.8783327976
 30
0.0
 10
14.7660895323
 20
6.8264429883
 30
0.0
 10
14.7598898734
 20
6.7751074015
 30
0.0
 10
14.7530264687
 20
6.7244842422
 30
0.0
 10
14.7455205484
 20
6.6747295029
 30
0.0
 10
14.7373953418
 20
6.6259964812
 30
0.0
 10
14.728676007
 20
6.5784352939
 30
0.0
 10
14.7193895533
 20
6.5321924294
 30
0.0
 10
14.7095647661
 20
6.4874102056
 30
0.0
 10
14.6992320962
 20
6.4442266065
 30
0.0
 10
14.6901377243
 20
6.4093476751
 30
0.0
 10
14.682620473
 20
6.3823520941
 30
0.0
 10
14.6769313594
 20
6.3627862792
 30
0.0
 10
14.6711399907
 20
6.3437165072
 30
0.0
 10
14.6652507085
 20
6.3251574537
 30
0.0
 10
14.6592681761
 20
6.3071233978
 30
0.0
 10
14.6531969045
 20
6.2896282285
 30
0.0
 10
14.6470416912
 20
6.2726853893
 30
0.0
 10
14.640807182
 20
6.2563079226
 30
0.0
 10
14.6344982949
 20
6.2405083959
 30
0.0
 10
14.6281197959
 20
6.2252989603
 30
0.0
 10
14.6216767024
 20
6.2106912652
 30
0.0
 10
14.615173885
 20
6.1966965275
 30
0.0
 10
14.6086164364
 20
6.1833254377
 30
0.0
 10
14.6020093128
 20
6.1705882373
 30
0.0
 10
14.5953576526
 20
6.1584946199
 30
0.0
 10
14.5886664719
 20
6.1470538111
 30
0.0
 10
14.5819409163
 20
6.1362744736
 30
0.0
 10
14.5751860248
 20
6.1261647807
 30
0.0
 10
14.5684068968
 20
6.1167323395
 30
0.0
 10
14.5616085377
 20
6.1079842464
 30
0.0
 10
14.5547959246
 20
6.0999270526
 30
0.0
 10
14.5479739462
 20
6.0925667866
 30
0.0
 10
14.541147359
 20
6.0859090022
 30
0.0
 10
14.5343208337
 20
6.0799587518
 30
0.0
 10
14.52749883
 20
6.0747207769
 30
0.0
 10
14.5206857494
 20
6.0701993993
 30
0.0
 10
14.5138859252
 20
6.0663989242
 30
0.0
 10
14.5071035306
 20
6.0633232886
 30
0.0
 10
14.5003442583
 20
6.0609768546
 30
0.0
 10
14.4957922101
 20
6.0598857763
 30
0.0
 10
14.4935338762
 20
6.059469909
 30
0.0
  0
SPLINE
  5
433
100
AcDbEntity
  8
0
100
AcDbSpline
 62
7
  6
CONTINUOUS
 70
0
 71
3
 72
64
 73
60
 74
0
 42
0.0000001
 43
0.0000001
 44
0.0000000001
 40
0.0
 40
0.0
 40
0.0
 40
0.0
 40
0.0452101678
 40
0.0910011722
 40
0.1371888434
 40
0.1835863495
 40
0.2300061232
 40
0.2762603525
 40
0.3221621186
 40
0.3675263057
 40
0.4121705903
 40
0.4559164172
 40
0.4985899991
 40
0.5400233384
 40
0.5800552903
 40
0.5994978801
 40
0.618533373
 40
0.6371441099
 40
0.6553130172
 40
0.6730237857
 40
0.6902608165
 40
0.7070093494
 40
0.7232554879
 40
0.738986267
 40
0.7541897748
 40
0.7688551594
 40
0.7829728622
 40
0.7965345754
 40
0.8095336001
 40
0.8219647827
 40
0.8338250125
 40
0.8451131892
 40
0.8558308808
 40
0.8659824056
 40
0.8755756875
 40
0.8846225698
 40
0.8931399233
 40
0.9011503209
 40
0.9086834279
 40
0.9157770493
 40
0.9224785902
 40
0.9288459932
 40
0.9319268633
 40
0.9349510088
 40
0.9379286982
 40
0.9408707294
 40
0.9437883259
 40
0.9466930252
 40
0.9495965375
 40
0.9525105823
 40
0.955446746
 40
0.9584163373
 40
0.9614302388
 40
0.9644988188
 40
0.9708360807
 40
0.9775009731
 40
0.9845526118
 40
0.9920393488
 40
1.0
 40
1.0
 40
1.0
 40
1.0
 10
14.7173537033
 20
7.1737993365
 30
0.0
 10
14.7173537033
 20
7.1595144461
 30
0.0
 10
14.7170989392
 20
7.1307605621
 30
0.0
 10
14.7159755715
 20
7.0874261233
 30
0.0
 10
14.7141128057
 20
7.0437415752
 30
0.0
 10
14.7115186035
 20
6.9998954022
 30
0.0
 10
14.7082041488
 20
6.9560766885
 30
0.0
 10
14.7041837374
 20
6.9124743811
 30
0.0
 10
14.6994747526
 20
6.8692764995
 30
0.0
 10
14.6940975721
 20
6.8266692994
 30
0.0
 10
14.6880754904
 20
6.7848364629
 30
0.0
 10
14.6814346142
 20
6.7439583152
 30
0.0
 10
14.6742037646
 20
6.7042109571
 30
0.0
 10
14.666414316
 20
6.6657657704
 30
0.0
 10
14.6594196499
 20
6.6346560476
 30
0.0
 10
14.6535589341
 20
6.6105512738
 30
0.0
 10
14.6490880366
 20
6.5930755072
 30
0.0
 10
14.6445039992
 20
6.5760454923
 30
0.0
 10
14.6398116978
 20
6.5594795688
 30
0.0
 10
14.6350162599
 20
6.5433955847
 30
0.0
 10
14.6301228393
 20
6.5278108652
 30
0.0
 10
14.6251367482
 20
6.5127421862
 30
0.0
 10
14.6200633765
 20
6.4982057632
 30
0.0
 10
14.6149081984
 20
6.484217229
 30
0.0
 10
14.6096768166
 20
6.4707916099
 30
0.0
 10
14.6043748372
 20
6.457943325
 30
0.0
 10
14.5990080482
 20
6.4456861347
 30
0.0
 10
14.5935821542
 20
6.434033176
 30
0.0
 10
14.5881030924
 20
6.422996868
 30
0.0
 10
14.582576626
 20
6.4125890003
 30
0.0
 10
14.5770087881
 20
6.4028205775
 30
0.0
 10
14.5714053463
 20
6.3937019799
 30
0.0
 10
14.565772347
 20
6.3852427324
 30
0.0
 10
14.5601154775
 20
6.3774517581
 30
0.0
 10
14.5544406625
 20
6.3703370683
 30
0.0
 10
14.5487533691
 20
6.3639061304
 30
0.0
 10
14.5430591979
 20
6.3581655103
 30
0.0
 10
14.5373631881
 20
6.3531213792
 30
0.0
 10
14.5316704465
 20
6.3487792037
 30
0.0
 10
14.5259853576
 20
6.3451443615
 30
0.0
 10
14.5203132719
 20
6.3422221194
 30
0.0
 10
14.5155482764
 20
6.3403650209
 30
0.0
 10
14.511764385
 20
6.3392568389
 30
0.0
 10
14.5089653799
 20
6.3386150677
 30
0.0
 10
14.5061754392
 20
6.3381539727
 30
0.0
 10
14.5033953246
 20
6.3378737043
 30
0.0
 10
14.5006259124
 20
6.3377744513
 30
0.0
 10
14.4978680813
 20
6.3378563488
 30
0.0
 10
14.4951227211
 20
6.3381193155
 30
0.0
 10
14.4923907074
 20
6.3385632376
 30
0.0
 10
14.489672904
 20
6.3391879826
 30
0.0
 10
14.4869701833
 20
6.3399933185
 30
0.0
 10
14.4842832658
 20
6.3409789042
 30
0.0
 10
14.4806848018
 20
6.3425493051
 30
0.0
 10
14.4762160916
 20
6.3449847387
 30
0.0
 10
14.4709931572
 20
6.3485899569
 30
0.0
 10
14.465855374
 20
6.3529035405
 30
0.0
 10
14.4608073257
 20
6.3579189586
 30
0.0
 10
14.4576060904
 20
6.3616094636
 30
0.0
 10
14.4560190157
 20
6.3635608519
 30
0.0
  0
SPLINE
  5
434
100
AcDbEntity
  8
0
100
AcDbSpline
 62
7
  6
CONTINUOUS
 70
0
 71
3
 72
54
 73
50
 74
0
 42
0.0000001
 43
0.0000001
 44
0.0000000001
 40
0.0
 40
0.0
 40
0.0
 40
0.0
 40
0.0417737003
 40
0.0840371083
 40
0.1266584058
 40
0.169506479
 40
0.2124480466
 40
0.2553499954
 40
0.2980791779
 40
0.340503187
 40
0.3824908042
 40
0.42391255
 40
0.4646412133
 40
0.5045523954
 40
0.5435250601
 40
0.5814421004
 40
0.6181909284
 40
0.6536640988
 40
0.6877599811
 40
0.7042617518
 40
0.720384135
 40
0.7361163834
 40
0.7514483539
 40
0.7663703399
 40
0.7808733861
 40
0.7949490122
 40
0.8085895955
 40
0.8217881215
 40
0.8345384972
 40
0.8468354689
 40
0.8586747685
 40
0.8700532784
 40
0.8809689935
 40
0.8914214371
 40
0.9014115161
 40
0.9109421106
 40
0.9200179887
 40
0.9286464472
 40
0.9368374764
 40
0.9446043697
 40
0.9519642532
 40
0.9589386494
 40
0.9655543338
 40
0.9718438174
 40
0.977846213
 40
0.9836073757
 40
0.9891800572
 40
0.9946230814
 40
1.0
 40
1.0
 40
1.0
 40
1.0
 10
14.6316215733
 20
7.160988453
 30
0.0
 10
14.6316215733
 20
7.1497950068
 30
0.0
 10
14.6314469332
 20
7.1272765432
 30
0.0
 10
14.6306749402
 20
7.0933454707
 30
0.0
 10
14.6293935665
 20
7.059141674
 30
0.0
 10
14.6276070915
 20
7.0247786166
 30
0.0
 10
14.6253213619
 20
6.9903697876
 30
0.0
 10
14.6225439648
 20
6.9560291107
 30
0.0
 10
14.6192840858
 20
6.9218701663
 30
0.0
 10
14.6155525369
 20
6.8880059705
 30
0.0
 10
14.6113616957
 20
6.8545485459
 30
0.0
 10
14.6067254748
 20
6.821608564
 30
0.0
 10
14.6016592737
 20
6.7892949699
 30
0.0
 10
14.5961799313
 20
6.7577146191
 30
0.0
 10
14.5903056692
 20
6.7269719135
 30
0.0
 10
14.5840560303
 20
6.6971684677
 30
0.0
 10
14.5774518248
 20
6.6684026996
 30
0.0
 10
14.5705150296
 20
6.6407697228
 30
0.0
 10
14.5644119803
 20
6.6185265287
 30
0.0
 10
14.5593715181
 20
6.6013734607
 30
0.0
 10
14.5555637825
 20
6.5889878879
 30
0.0
 10
14.5516906187
 20
6.5769514767
 30
0.0
 10
14.547755285
 20
6.5652741498
 30
0.0
 10
14.5437609599
 20
6.5539655662
 30
0.0
 10
14.5397110568
 20
6.5430350434
 30
0.0
 10
14.5356088275
 20
6.5324916161
 30
0.0
 10
14.5314577672
 20
6.5223439588
 30
0.0
 10
14.5272612372
 20
6.5126004439
 30
0.0
 10
14.5230227572
 20
6.5032690796
 30
0.0
 10
14.518745818
 20
6.4943575345
 30
0.0
 10
14.5144339225
 20
6.48587313
 30
0.0
 10
14.5100906845
 20
6.4778227905
 30
0.0
 10
14.5057195695
 20
6.4702131284
 30
0.0
 10
14.5013242724
 20
6.4630502922
 30
0.0
 10
14.4969082233
 20
6.4563401557
 30
0.0
 10
14.492475114
 20
6.4500880802
 30
0.0
 10
14.4880283508
 20
6.4442991623
 30
0.0
 10
14.4835715075
 20
6.438978
 30
0.0
 10
14.4791079527
 20
6.4341288882
 30
0.0
 10
14.4746410258
 20
6.4297557379
 30
0.0
 10
14.4701740001
 20
6.4258620824
 30
0.0
 10
14.4657099117
 20
6.422451316
 30
0.0
 10
14.461251895
 20
6.4195263979
 30
0.0
 10
14.4568028066
 20
6.4170904931
 30
0.0
 10
14.4523658219
 20
6.4151463351
 30
0.0
 10
14.4479442404
 20
6.4136970523
 30
0.0
 10
14.4435417974
 20
6.4127452498
 30
0.0
 10
14.4391637807
 20
6.4122933691
 30
0.0
 10
14.4362571533
 20
6.4123265709
 30
0.0
 10
14.4348198358
 20
6.4124262379
 30
0.0
  0
SPLINE
  5
435
100
AcDbEntity
  8
0
100
AcDbSpline
 62
7
  6
CONTINUOUS
 70
0
 71
3
 72
59
 73
55
 74
0
 42
0.0000001
 43
0.0000001
 44
0.0000000001
 40
0.0
 40
0.0
 40
0.0
 40
0.0
 40
0.0532120318
 40
0.1056325195
 40
0.1571424583
 40
0.2076321627
 40
0.2569914717
 40
0.3051147694
 40
0.3519002025
 40
0.3972501412
 40
0.4410717503
 40
0.4832774413
 40
0.5237855322
 40
0.5625208421
 40
0.5812025819
 40
0.5994163127
 40
0.6171547771
 40
0.6344114629
 40
0.6511802872
 40
0.6674559864
 40
0.6832340079
 40
0.698510473
 40
0.7132825784
 40
0.7275482873
 40
0.7413067027
 40
0.7545581572
 40
0.7673041182
 40
0.7795477396
 40
0.7912936939
 40
0.8025485514
 40
0.8133211548
 40
0.823622611
 40
0.8334670132
 40
0.8428715887
 40
0.8518571622
 40
0.8604488289
 40
0.8686761188
 40
0.8765736877
 40
0.8841815154
 40
0.8915449579
 40
0.8987147233
 40
0.9057461074
 40
0.9126980792
 40
0.9196318213
 40
0.9266090413
 40
0.9336901936
 40
0.9409329038
 40
0.9483907028
 40
0.9561120947
 40
0.9641403178
 40
0.9725130778
 40
0.981262886
 40
0.9904174709
 40
1.0
 40
1.0
 40
1.0
 40
1.0
 10
14.7173537033
 20
7.1737993365
 30
0.0
 10
14.7173537033
 20
7.1842544573
 30
0.0
 10
14.7172190206
 20
7.2050094535
 30
0.0
 10
14.7166042635
 20
7.2358796581
 30
0.0
 10
14.715579526
 20
7.2662038955
 30
0.0
 10
14.7141474177
 20
7.2959095275
 30
0.0
 10
14.7123113172
 20
7.3249262969
 30
0.0
 10
14.7100756903
 20
7.3531850769
 30
0.0
 10
14.707445943
 20
7.3806187439
 30
0.0
 10
14.7044284211
 20
7.4071621307
 30
0.0
 10
14.7010304024
 20
7.4327521871
 30
0.0
 10
14.6972600803
 20
7.4573282299
 30
0.0
 10
14.6931265382
 20
7.4808318634
 30
0.0
 10
14.6893434591
 20
7.4996989206
 30
0.0
 10
14.6861332399
 20
7.5142083896
 30
0.0
 10
14.6836701354
 20
7.5246568549
 30
0.0
 10
14.6811239859
 20
7.5347969604
 30
0.0
 10
14.6784963724
 20
7.5446227129
 30
0.0
 10
14.6757887917
 20
7.5541282745
 30
0.0
 10
14.6730028882
 20
7.5633080179
 30
0.0
 10
14.6701403507
 20
7.5721565155
 30
0.0
 10
14.6672027993
 20
7.5806685165
 30
0.0
 10
14.6641920733
 20
7.5888390139
 30
0.0
 10
14.6611098934
 20
7.5966631767
 30
0.0
 10
14.6579580793
 20
7.604136395
 30
0.0
 10
14.6547385531
 20
7.6112543004
 30
0.0
 10
14.6514530922
 20
7.6180126837
 30
0.0
 10
14.6481037035
 20
7.6244076279
 30
0.0
 10
14.6446922821
 20
7.630435396
 30
0.0
 10
14.6412207308
 20
7.6360924584
 30
0.0
 10
14.6376911054
 20
7.6413755884
 30
0.0
 10
14.6341052378
 20
7.6462816573
 30
0.0
 10
14.6304651456
 20
7.6508078542
 30
0.0
 10
14.6267727538
 20
7.654951536
 30
0.0
 10
14.6230298784
 20
7.6587101475
 30
0.0
 10
14.619238521
 20
7.6620814703
 30
0.0
 10
14.6154004535
 20
7.6650631941
 30
0.0
 10
14.6115176271
 20
7.6676532187
 30
0.0
 10
14.6075920764
 20
7.6698495461
 30
0.0
 10
14.6036258948
 20
7.6716500149
 30
0.0
 10
14.5996216169
 20
7.6730529212
 30
0.0
 10
14.5955819641
 20
7.6740565041
 30
0.0
 10
14.5915100732
 20
7.6746594805
 30
0.0
 10
14.5874093267
 20
7.6748612589
 30
0.0
 10
14.5832831942
 20
7.6746615143
 30
0.0
 10
14.5791350665
 20
7.67406094
 30
0.0
 10
14.57496809
 20
7.6730604829
 30
0.0
 10
14.5707851547
 20
7.6716614594
 30
0.0
 10
14.5665887658
 20
7.6698656297
 30
0.0
 10
14.5623813536
 20
7.6676745428
 30
0.0
 10
14.5581651002
 20
7.6650901224
 30
0.0
 10
14.5539421357
 20
7.6621142088
 30
0.0
 10
14.549714821
 20
7.6587488105
 30
0.0
 10
14.5469596191
 20
7.6563042548
 30
0.0
 10
14.5455813954
 20
7.6550215403
 30
0.0
  0
SPLINE
  5
436
100
AcDbEntity
  8
0
100
AcDbSpline
 62
7
  6
CONTINUOUS
 70
0
 71
3
 72
49
 73
45
 74
0
 42
0.0000001
 43
0.0000001
 44
0.0000000001
 40
0.0
 40
0.0
 40
0.0
 40
0.0
 40
0.0484977591
 40
0.0964124095
 40
0.1436644782
 40
0.1901851275
 40
0.2359045137
 40
0.2807535295
 40
0.3246657516
 40
0.3675767279
 40
0.4094239822
 40
0.4501476548
 40
0.489690486
 40
0.527997965
 40
0.565018896
 40
0.6007053598
 40
0.6350131765
 40
0.6679024476
 40
0.6993376667
 40
0.7292885995
 40
0.7577308847
 40
0.7846466668
 40
0.8100260987
 40
0.8221397633
 40
0.8338699797
 40
0.8452183077
 40
0.8561873037
 40
0.8667804243
 40
0.8770020292
 40
0.8868577551
 40
0.8963545465
 40
0.9055006518
 40
0.9143060078
 40
0.9227824095
 40
0.9309435203
 40
0.9388052391
 40
0.9463859654
 40
0.9607837612
 40
0.9676581026
 40
0.974351983
 40
0.9808975113
 40
0.9873293386
 40
0.9936841261
 40
1.0
 40
1.0
 40
1.0
 40
1.0
 10
14.6316215733
 20
7.160988453
 30
0.0
 10
14.6316215733
 20
7.1687942279
 30
0.0
 10
14.6315375864
 20
7.1843120675
 30
0.0
 10
14.6311552169
 20
7.2074323499
 30
0.0
 10
14.630517678
 20
7.2302287117
 30
0.0
 10
14.6296260868
 20
7.2526629629
 30
0.0
 10
14.628481975
 20
7.2746984983
 30
0.0
 10
14.6270871903
 20
7.2962989336
 30
0.0
 10
14.6254440775
 20
7.3174285851
 30
0.0
 10
14.6235554113
 20
7.3380526378
 30
0.0
 10
14.6214242833
 20
7.3581370914
 30
0.0
 10
14.6190542813
 20
7.3776488388
 30
0.0
 10
14.6164493655
 20
7.396555734
 30
0.0
 10
14.6136138261
 20
7.4148266378
 30
0.0
 10
14.6105524457
 20
7.4324314814
 30
0.0
 10
14.6072703013
 20
7.4493413107
 30
0.0
 10
14.6037728338
 20
7.4655283413
 30
0.0
 10
14.6000659267
 20
7.4809660218
 30
0.0
 10
14.5961556863
 20
7.4956290697
 30
0.0
 10
14.5920486157
 20
7.5094935167
 30
0.0
 10
14.5877515471
 20
7.5225368689
 30
0.0
 10
14.58327148
 20
7.5347377563
 30
0.0
 10
14.5793329274
 20
7.5443304974
 30
0.0
 10
14.5760874369
 20
7.5515584087
 30
0.0
 10
14.5736500683
 20
7.5566719967
 30
0.0
 10
14.5711725389
 20
7.5615606006
 30
0.0
 10
14.5686558608
 20
7.5662222577
 30
0.0
 10
14.5661010807
 20
7.5706550888
 30
0.0
 10
14.5635091623
 20
7.5748572597
 30
0.0
 10
14.5608811532
 20
7.5788270759
 30
0.0
 10
14.5582181269
 20
7.5825629601
 30
0.0
 10
14.555521065
 20
7.5860633603
 30
0.0
 10
14.5527910066
 20
7.5893268399
 30
0.0
 10
14.5500290106
 20
7.592352125
 30
0.0
 10
14.5472361548
 20
7.5951378653
 30
0.0
 10
14.5444131305
 20
7.5976830504
 30
0.0
 10
14.5406757424
 20
7.6007018747
 30
0.0
 10
14.5368137496
 20
7.6033068697
 30
0.0
 10
14.5328439681
 20
7.6054348837
 30
0.0
 10
14.5298874815
 20
7.606760941
 30
0.0
 10
14.5269078501
 20
7.6078402751
 30
0.0
 10
14.5239062751
 20
7.6086723366
 30
0.0
 10
14.5208845082
 20
7.6092564935
 30
0.0
 10
14.5188548255
 20
7.609480577
 30
0.0
 10
14.5178407129
 20
7.6095508979
 30
0.0
  0
SPLINE
  5
437
100
AcDbEntity
  8
0
100
AcDbSpline
 62
7
  6
CONTINUOUS
 70
0
 71
3
 72
51
 73
47
 74
0
 42
0.0000001
 43
0.0000001
 44
0.0000000001
 40
0.0
 40
0.0
 40
0.0
 40
0.0
 40
0.0469538049
 40
0.0933760722
 40
0.1391985574
 40
0.1843612865
 40
0.2288030626
 40
0.272463761
 40
0.3152852396
 40
0.3572108862
 40
0.3981857824
 40
0.4381569302
 40
0.477073495
 40
0.5148868246
 40
0.5515506802
 40
0.5870215778
 40
0.6212588341
 40
0.6542248989
 40
0.6858857981
 40
0.7162112928
 40
0.7451754147
 40
0.772757124
 40
0.7860248635
 40
0.7989416782
 40
0.8115065468
 40
0.8237190048
 40
0.8355791043
 40
0.847087333
 40
0.8582448679
 40
0.8690535638
 40
0.879515888
 40
0.8896351918
 40
0.8994157378
 40
0.9088626621
 40
0.9179822694
 40
0.9267821075
 40
0.9352709692
 40
0.9434592094
 40
0.9513588663
 40
0.9589836974
 40
0.966349492
 40
0.9734741946
 40
0.9803779229
 40
0.9870831746
 40
0.9936148283
 40
1.0
 40
1.0
 40
1.0
 40
1.0
 10
14.1572697332
 20
8.0816885581
 30
0.0
 10
14.1572697332
 20
8.0925320091
 30
0.0
 10
14.1571591931
 20
8.1140963347
 30
0.0
 10
14.1566561938
 20
8.1462393137
 30
0.0
 10
14.155817515
 20
8.1779615743
 30
0.0
 10
14.1546444718
 20
8.20921556
 30
0.0
 10
14.1531388347
 20
8.2399554955
 30
0.0
 10
14.1513028338
 20
8.2701358393
 30
0.0
 10
14.1491391966
 20
8.2997119145
 30
0.0
 10
14.1466511885
 20
8.3286400238
 30
0.0
 10
14.1438425149
 20
8.3568773947
 30
0.0
 10
14.1407173382
 20
8.3843822847
 30
0.0
 10
14.137280365
 20
8.4111140567
 30
0.0
 10
14.1335367142
 20
8.4370332214
 30
0.0
 10
14.1294919418
 20
8.4621015032
 30
0.0
 10
14.125152131
 20
8.4862819148
 30
0.0
 10
14.1205237425
 20
8.5095387946
 30
0.0
 10
14.11561365
 20
8.5318378763
 30
0.0
 10
14.1104292246
 20
8.5531463435
 30
0.0
 10
14.104978168
 20
8.5734329411
 30
0.0
 10
14.0992685471
 20
8.5926677453
 30
0.0
 10
14.0942393348
 20
8.6079888063
 30
0.0
 10
14.0900837039
 20
8.6196899803
 30
0.0
 10
14.0869480008
 20
8.6280718326
 30
0.0
 10
14.0837541026
 20
8.6361702859
 30
0.0
 10
14.0805031803
 20
8.6439823822
 30
0.0
 10
14.0771964737
 20
8.6515052678
 30
0.0
 10
14.0738351369
 20
8.6587361589
 30
0.0
 10
14.0704204156
 20
8.6656724123
 30
0.0
 10
14.0669535979
 20
8.6723115142
 30
0.0
 10
14.0634358826
 20
8.6786510082
 30
0.0
 10
14.0598685535
 20
8.6846885864
 30
0.0
 10
14.0562529389
 20
8.6904220798
 30
0.0
 10
14.0525902655
 20
8.6958493628
 30
0.0
 10
14.0488818374
 20
8.7009684625
 30
0.0
 10
14.0451290031
 20
8.7057775534
 30
0.0
 10
14.0413329978
 20
8.7102748291
 30
0.0
 10
14.0374951259
 20
8.7144586326
 30
0.0
 10
14.033616737
 20
8.7183274581
 30
0.0
 10
14.0296990642
 20
8.7218797776
 30
0.0
 10
14.0257434138
 20
8.7251141981
 30
0.0
 10
14.0217511421
 20
8.7280294778
 30
0.0
 10
14.0177235498
 20
8.7306242893
 30
0.0
 10
14.0136619355
 20
8.7328974672
 30
0.0
 10
14.0095680773
 20
8.7348478791
 30
0.0
 10
14.0067903149
 20
8.7359432424
 30
0.0
 10
14.0053998099
 20
8.7364340498
 30
0.0
  0
SPLINE
  5
438
100
AcDbEntity
  8
0
100
AcDbSpline
 62
7
  6
CONTINUOUS
 70
0
 71
3
 72
54
 73
50
 74
0
 42
0.0000001
 43
0.0000001
 44
0.0000000001
 40
0.0
 40
0.0
 40
0.0
 40
0.0
 40
0.0407074347
 40
0.0818782073
 40
0.1233942616
 40
0.1651369869
 40
0.2069865169
 40
0.24882278
 40
0.2905256845
 40
0.3319756481
 40
0.373054005
 40
0.4136434562
 40
0.4536285098
 40
0.4928959304
 40
0.5313351948
 40
0.5688389584
 40
0.6053035372
 40
0.6406294128
 40
0.6747217681
 40
0.6912774184
 40
0.7074915913
 40
0.7233539958
 40
0.7388548297
 40
0.7539846462
 40
0.7687345675
 40
0.7830961082
 40
0.7970614361
 40
0.8106231727
 40
0.8237746822
 40
0.8365098781
 40
0.8488235182
 40
0.8607110496
 40
0.8721688904
 40
0.8831943467
 40
0.8937858694
 40
0.9039430738
 40
0.9136669737
 40
0.9229601338
 40
0.9318268966
 40
0.9402736968
 40
0.9483093136
 40
0.9559453711
 40
0.963196656
 40
0.9700818016
 40
0.9766236826
 40
0.9828501948
 40
0.9887946136
 40
0.9944961701
 40
1.0
 40
1.0
 40
1.0
 40
1.0
 10
14.1572697332
 20
8.0816885581
 30
0.0
 10
14.1572697332
 20
8.0659032244
 30
0.0
 10
14.1570329582
 20
8.0341524258
 30
0.0
 10
14.1559855289
 20
7.9863131162
 30
0.0
 10
14.1542466059
 20
7.9380921549
 30
0.0
 10
14.1518215084
 20
7.8896373483
 30
0.0
 10
14.1487176146
 20
7.8410968651
 30
0.0
 10
14.1449444314
 20
7.7926193056
 30
0.0
 10
14.1405135084
 20
7.7443530102
 30
0.0
 10
14.1354384317
 20
7.6964456923
 30
0.0
 10
14.1297347694
 20
7.6490439519
 30
0.0
 10
14.1234200299
 20
7.6022928344
 30
0.0
 10
14.1165136067
 20
7.556335379
 30
0.0
 10
14.109036721
 20
7.5113121795
 30
0.0
 10
14.1010123583
 20
7.4673609424
 30
0.0
 10
14.0924651963
 20
7.4246160793
 30
0.0
 10
14.0834215418
 20
7.3832082118
 30
0.0
 10
14.073909214
 20
7.3432640272
 30
0.0
 10
14.0655365718
 20
7.3109911979
 30
0.0
 10
14.0586152712
 20
7.2860041157
 30
0.0
 10
14.053376341
 20
7.2678876028
 30
0.0
 10
14.0480427582
 20
7.2502255718
 30
0.0
 10
14.0426186648
 20
7.2330315028
 30
0.0
 10
14.0371081379
 20
7.2163185515
 30
0.0
 10
14.0315155016
 20
7.200099475
 30
0.0
 10
14.0258449373
 20
7.1843866763
 30
0.0
 10
14.0201009059
 20
7.1691921348
 30
0.0
 10
14.0142876942
 20
7.1545274638
 30
0.0
 10
14.0084098724
 20
7.1404038246
 30
0.0
 10
14.0024718287
 20
7.1268320012
 30
0.0
 10
13.9964782136
 20
7.1138223003
 30
0.0
 10
13.99043351
 20
7.1013846361
 30
0.0
 10
13.9843424166
 20
7.089528427
 30
0.0
 10
13.9782094994
 20
7.0782626774
 30
0.0
 10
13.972039469
 20
7.0675958873
 30
0.0
 10
13.9658369534
 20
7.0575361118
 30
0.0
 10
13.9596066305
 20
7.0480909088
 30
0.0
 10
13.953353154
 20
7.0392673488
 30
0.0
 10
13.9470811111
 20
7.0310720372
 30
0.0
 10
13.9407951213
 20
7.0235110406
 30
0.0
 10
13.9344996043
 20
7.0165900338
 30
0.0
 10
13.9281990576
 20
7.0103141053
 30
0.0
 10
13.9218976469
 20
7.004688093
 30
0.0
 10
13.915599662
 20
6.9997162383
 30
0.0
 10
13.9093089725
 20
6.9954027678
 30
0.0
 10
13.9030297594
 20
6.9917513833
 30
0.0
 10
13.8967656221
 20
6.9887660169
 30
0.0
 10
13.8905218696
 20
6.9864503156
 30
0.0
 10
13.8863122962
 20
6.9853388471
 30
0.0
 10
13.8842230844
 20
6.9849027148
 30
0.0
  0
SPLINE
  5
439
100
AcDbEntity
  8
0
100
AcDbSpline
 62
7
  6
CONTINUOUS
 70
0
 71
3
 72
62
 73
58
 74
0
 42
0.0000001
 43
0.0000001
 44
0.0000000001
 40
0.0
 40
0.0
 40
0.0
 40
0.0
 40
0.0452101979
 40
0.0910015343
 40
0.1371892739
 40
0.1835869652
 40
0.2300068828
 40
0.2762612697
 40
0.3221631883
 40
0.3675275278
 40
0.4121719622
 40
0.4559179362
 40
0.4985916615
 40
0.54002514
 40
0.5800572262
 40
0.6185347494
 40
0.6371455393
 40
0.6553145166
 40
0.6730253414
 40
0.6902624327
 40
0.7070110263
 40
0.7232572146
 40
0.7389880593
 40
0.7541916054
 40
0.7688570606
 40
0.7829747903
 40
0.7965365785
 40
0.8095356193
 40
0.82196688
 40
0.8338271168
 40
0.8451153726
 40
0.8558330646
 40
0.8659846668
 40
0.8755779454
 40
0.8846249
 40
0.8931422498
 40
0.9011527115
 40
0.9086858172
 40
0.9157794917
 40
0.9224810365
 40
0.9288484798
 40
0.9349508088
 40
0.937928516
 40
0.9408705577
 40
0.9437881603
 40
0.9466928698
 40
0.9495963909
 40
0.9525104447
 40
0.9554466222
 40
0.9584162216
 40
0.9614301267
 40
0.9644987151
 40
0.9708360027
 40
0.9775009061
 40
0.9845525712
 40
0.9920393222
 40
1.0
 40
1.0
 40
1.0
 40
1.0
 10
14.0666831422
 20
7.9941886251
 30
0.0
 10
14.0666831422
 20
7.9828886689
 30
0.0
 10
14.0664816091
 20
7.9601430477
 30
0.0
 10
14.0655929838
 20
7.9258635774
 30
0.0
 10
14.0641194454
 20
7.8913071178
 30
0.0
 10
14.0620673216
 20
7.8566228527
 30
0.0
 10
14.0594454383
 20
7.8219602873
 30
0.0
 10
14.0562651154
 20
7.7874689163
 30
0.0
 10
14.0525400986
 20
7.7532974615
 30
0.0
 10
14.0482865098
 20
7.7195932619
 30
0.0
 10
14.0435227745
 20
7.6865016211
 30
0.0
 10
14.0382695468
 20
7.6541651708
 30
0.0
 10
14.0325496177
 20
7.6227232653
 30
0.0
 10
14.0263878333
 20
7.5923112932
 30
0.0
 10
14.0198109433
 20
7.5630603424
 30
0.0
 10
14.01394499
 20
7.5395025838
 30
0.0
 10
14.009055789
 20
7.5213386411
 30
0.0
 10
14.0053439617
 20
7.5082342461
 30
0.0
 10
14.0015505562
 20
7.4955110969
 30
0.0
 10
13.9976796419
 20
7.4831828855
 30
0.0
 10
13.9937354258
 20
7.471262885
 30
0.0
 10
13.9897221539
 20
7.4597639244
 30
0.0
 10
13.9856441921
 20
7.4486983646
 30
0.0
 10
13.9815059168
 20
7.4380781016
 30
0.0
 10
13.9773118391
 20
7.4279145269
 30
0.0
 10
13.9730664398
 20
7.4182185465
 30
0.0
 10
13.9687743512
 20
7.4090005235
 30
0.0
 10
13.9644401281
 20
7.4002703204
 30
0.0
 10
13.9600684928
 20
7.3920372136
 30
0.0
 10
13.9556640336
 20
7.3843099711
 30
0.0
 10
13.9512315167
 20
7.3770967259
 30
0.0
 10
13.9467755036
 20
7.3704051085
 30
0.0
 10
13.9423007297
 20
7.3642420618
 30
0.0
 10
13.9378116334
 20
7.3586140604
 30
0.0
 10
13.9333127963
 20
7.3535268508
 30
0.0
 10
13.9288083855
 20
7.348985812
 30
0.0
 10
13.9243026595
 20
7.3449956164
 30
0.0
 10
13.9197993543
 20
7.3415608179
 30
0.0
 10
13.9153023653
 20
7.3386854362
 30
0.0
 10
13.910815042
 20
7.3363738238
 30
0.0
 10
13.906341961
 20
7.3346300567
 30
0.0
 10
13.9025980476
 20
7.3336459418
 30
0.0
 10
13.8996317568
 20
7.3331557366
 30
0.0
 10
13.897432515
 20
7.3329339979
 30
0.0
 10
13.8952417974
 20
7.3328555358
 30
0.0
 10
13.8930602284
 20
7.3329203048
 30
0.0
 10
13.890888524
 20
7.3331282938
 30
0.0
 10
13.8887273761
 20
7.333479449
 30
0.0
 10
13.8865774802
 20
7.3339736858
 30
0.0
 10
13.8844395054
 20
7.3346107287
 30
0.0
 10
13.8823140278
 20
7.3353903485
 30
0.0
 10
13.8794674819
 20
7.3366326047
 30
0.0
 10
13.8759325441
 20
7.3385591563
 30
0.0
 10
13.8718009517
 20
7.3414110171
 30
0.0
 10
13.8677367515
 20
7.3448232666
 30
0.0
 10
13.8637435052
 20
7.3487906678
 30
0.0
 10
13.8612111918
 20
7.3517100251
 30
0.0
 10
13.8599557442
 20
7.35325366
 30
0.0
  0
SPLINE
  5
43A
100
AcDbEntity
  8
0
100
AcDbSpline
 62
7
  6
CONTINUOUS
 70
0
 71
3
 72
53
 73
49
 74
0
 42
0.0000001
 43
0.0000001
 44
0.0000000001
 40
0.0
 40
0.0
 40
0.0
 40
0.0
 40
0.0417734924
 40
0.0840372957
 40
0.1266584425
 40
0.1695065967
 40
0.2124481812
 40
0.2553501594
 40
0.2980793725
 40
0.3405034033
 40
0.3824910409
 40
0.4239128089
 40
0.4646415021
 40
0.5045527201
 40
0.5435254174
 40
0.5814424789
 40
0.6181913222
 40
0.6536645088
 40
0.6877604124
 40
0.7203839587
 40
0.7361162136
 40
0.7514482011
 40
0.76637019
 40
0.7808732447
 40
0.7949488883
 40
0.8085894626
 40
0.8217880239
 40
0.8345383791
 40
0.846835385
 40
0.8586746751
 40
0.8700531903
 40
0.8809689307
 40
0.8914213457
 40
0.9014114793
 40
0.9109420305
 40
0.9200179576
 40
0.9286463925
 40
0.9368374354
 40
0.9446043449
 40
0.9519642056
 40
0.9589386444
 40
0.9655542932
 40
0.9718438124
 40
0.977846191
 40
0.9836073662
 40
0.9891800518
 40
0.994623076
 40
1.0
 40
1.0
 40
1.0
 40
1.0
 10
13.9931984593
 20
7.9832078678
 30
0.0
 10
13.9931984593
 20
7.9744397175
 30
0.0
 10
13.9930616516
 20
7.9568002265
 30
0.0
 10
13.9924569342
 20
7.9302208953
 30
0.0
 10
13.9914531791
 20
7.9034278705
 30
0.0
 10
13.9900537829
 20
7.87651017
 30
0.0
 10
13.9882632953
 20
7.8495565777
 30
0.0
 10
13.9860876711
 20
7.8226563818
 30
0.0
 10
13.9835340972
 20
7.7958985421
 30
0.0
 10
13.9806110451
 20
7.7693715911
 30
0.0
 10
13.9773282158
 20
7.7431632791
 30
0.0
 10
13.973696509
 20
7.7173602948
 30
0.0
 10
13.9697279882
 20
7.6920479769
 30
0.0
 10
13.9654358416
 20
7.6673100294
 30
0.0
 10
13.9608343385
 20
7.6432282415
 30
0.0
 10
13.9559387867
 20
7.6198822031
 30
0.0
 10
13.950765486
 20
7.5973490479
 30
0.0
 10
13.9453316748
 20
7.57570313
 30
0.0
 10
13.9396554395
 20
7.5550159876
 30
0.0
 10
13.9346807795
 20
7.5384378905
 30
0.0
 10
13.9305858861
 20
7.5257122428
 30
0.0
 10
13.9275031998
 20
7.5165649975
 30
0.0
 10
13.9243743117
 20
7.5077066095
 30
0.0
 10
13.9212018844
 20
7.499144367
 30
0.0
 10
13.917988482
 20
7.4908853471
 30
0.0
 10
13.9147367992
 20
7.4829363527
 30
0.0
 10
13.9114495432
 20
7.4753039259
 30
0.0
 10
13.9081293728
 20
7.4679943642
 30
0.0
 10
13.9047791277
 20
7.4610136471
 30
0.0
 10
13.9014014633
 20
7.4543675347
 30
0.0
 10
13.8979992557
 20
7.4480614385
 30
0.0
 10
13.8945752395
 20
7.4421005267
 30
0.0
 10
13.8911322147
 20
7.4364896572
 30
0.0
 10
13.8876730313
 20
7.4312333559
 30
0.0
 10
13.8842003708
 20
7.4263359274
 30
0.0
 10
13.8807171237
 20
7.4218012458
 30
0.0
 10
13.8772258966
 20
7.4176330225
 30
0.0
 10
13.8737294538
 20
7.4138345486
 30
0.0
 10
13.8702303793
 20
7.410408895
 30
0.0
 10
13.8667311679
 20
7.4073589087
 30
0.0
 10
13.863234355
 20
7.4046870747
 30
0.0
 10
13.8597421827
 20
7.4023959697
 30
0.0
 10
13.8562571135
 20
7.400487766
 30
0.0
 10
13.8527814418
 20
7.3989649045
 30
0.0
 10
13.8493178858
 20
7.3978296014
 30
0.0
 10
13.8458693024
 20
7.3970840142
 30
0.0
 10
13.8424398544
 20
7.3967300856
 30
0.0
 10
13.8401629961
 20
7.3967560425
 30
0.0
 10
13.8390370973
 20
7.3968341198
 30
0.0
  0
SPLINE
  5
43B
100
AcDbEntity
  8
0
100
AcDbSpline
 62
7
  6
CONTINUOUS
 70
0
 71
3
 72
56
 73
52
 74
0
 42
0.0000001
 43
0.0000001
 44
0.0000000001
 40
0.0
 40
0.0
 40
0.0
 40
0.0
 40
0.0532122383
 40
0.1056338939
 40
0.1571442974
 40
0.2076345477
 40
0.2569944944
 40
0.3051183588
 40
0.3519044024
 40
0.3972549003
 40
0.4410770338
 40
0.4832833022
 40
0.5237919823
 40
0.5625278052
 40
0.5994228876
 40
0.6344175523
 40
0.6511866263
 40
0.6674626241
 40
0.6832408361
 40
0.6985175799
 40
0.7132899389
 40
0.7275558494
 40
0.741314539
 40
0.7545662044
 40
0.7673123898
 40
0.7795562591
 40
0.7913024092
 40
0.8025574896
 40
0.8133303107
 40
0.8236319603
 40
0.8334765627
 40
0.8428813364
 40
0.8518670863
 40
0.860458926
 40
0.8686863952
 40
0.876584107
 40
0.8841920842
 40
0.8915556658
 40
0.8987255402
 40
0.9057570388
 40
0.9127090999
 40
0.9196429201
 40
0.9266201941
 40
0.9337014076
 40
0.9409441498
 40
0.9484019581
 40
0.9641403118
 40
0.9725130838
 40
0.981262914
 40
0.9904174305
 40
1.0
 40
1.0
 40
1.0
 40
1.0
 10
14.0666831422
 20
7.9941886251
 30
0.0
 10
14.0666831422
 20
8.0024589939
 30
0.0
 10
14.0665765959
 20
8.018877077
 30
0.0
 10
14.0660903102
 20
8.0432966875
 30
0.0
 10
14.0652797024
 20
8.067284473
 30
0.0
 10
14.0641468488
 20
8.0907828392
 30
0.0
 10
14.0626944188
 20
8.1137363085
 30
0.0
 10
14.0609259543
 20
8.1360901941
 30
0.0
 10
14.0588457365
 20
8.1577913781
 30
0.0
 10
14.0564587566
 20
8.1787883117
 30
0.0
 10
14.0537707821
 20
8.1990311301
 30
0.0
 10
14.0507883179
 20
8.2184718165
 30
0.0
 10
14.0475185554
 20
8.2370642702
 30
0.0
 10
14.0439693647
 20
8.2547645149
 30
0.0
 10
14.0401492925
 20
8.2715305688
 30
0.0
 10
14.0367006967
 20
8.2848740918
 30
0.0
 10
14.0338037164
 20
8.2950448847
 30
0.0
 10
14.0315999743
 20
8.3023064874
 30
0.0
 10
14.029335565
 20
8.3093060398
 30
0.0
 10
14.0270118677
 20
8.3160394257
 30
0.0
 10
14.0246302744
 20
8.3225026692
 30
0.0
 10
14.0221921256
 20
8.3286919374
 30
0.0
 10
14.0196989463
 20
8.334603612
 30
0.0
 10
14.0171521612
 20
8.3402342091
 30
0.0
 10
14.0145532314
 20
8.3455804132
 30
0.0
 10
14.011903752
 20
8.3506391345
 30
0.0
 10
14.0092051672
 20
8.3554073889
 30
0.0
 10
14.0064590424
 20
8.3598824129
 30
0.0
 10
14.0036669755
 20
8.3640616443
 30
0.0
 10
14.0008304069
 20
8.3679425969
 30
0.0
 10
13.9979509534
 20
8.3715230628
 30
0.0
 10
13.9950301319
 20
8.3748009495
 30
0.0
 10
13.9920693665
 20
8.3777742223
 30
0.0
 10
13.989070249
 20
8.3804411337
 30
0.0
 10
13.9860342013
 20
8.3827998824
 30
0.0
 10
13.9829627178
 20
8.3848487439
 30
0.0
 10
13.9798574571
 20
8.3865862006
 30
0.0
 10
13.9767200593
 20
8.3880105378
 30
0.0
 10
13.9735525006
 20
8.389120318
 30
0.0
 10
13.9703569895
 20
8.3899143161
 30
0.0
 10
13.9671359538
 20
8.3903913519
 30
0.0
 10
13.9638921044
 20
8.3905510035
 30
0.0
 10
13.9606281542
 20
8.3903931482
 30
0.0
 10
13.9573468576
 20
8.3899180937
 30
0.0
 10
13.9540504881
 20
8.389126731
 30
0.0
 10
13.9495591664
 20
8.3876248257
 30
0.0
 10
13.9451150898
 20
8.3854926435
 30
0.0
 10
13.9407589953
 20
8.382822354
 30
0.0
 10
13.9374181403
 20
8.3804681796
 30
0.0
 10
13.9340742113
 20
8.3778061987
 30
0.0
 10
13.9318947365
 20
8.375872468
 30
0.0
 10
13.9308045056
 20
8.3748578029
 30
0.0
  0
SPLINE
  5
43C
100
AcDbEntity
  8
0
100
AcDbSpline
 62
7
  6
CONTINUOUS
 70
0
 71
3
 72
57
 73
53
 74
0
 42
0.0000001
 43
0.0000001
 44
0.0000000001
 40
0.0
 40
0.0
 40
0.0
 40
0.0
 40
0.0082489934
 40
0.016024775
 40
0.023363707
 40
0.0303111502
 40
0.0369223183
 40
0.0432627796
 40
0.0494080229
 40
0.0554417188
 40
0.061452705
 40
0.0675309122
 40
0.0737630518
 40
0.0802290752
 40
0.0869996102
 40
0.0941351559
 40
0.1016858434
 40
0.1096925274
 40
0.1181875211
 40
0.1271961067
 40
0.1367373156
 40
0.1468251577
 40
0.1574692331
 40
0.1686755262
 40
0.1804469139
 40
0.1927835585
 40
0.2056834049
 40
0.219142251
 40
0.233154283
 40
0.2477119097
 40
0.2628063381
 40
0.2784272612
 40
0.2945634394
 40
0.3112023332
 40
0.3283306355
 40
0.345933935
 40
0.3639971435
 40
0.3825042539
 40
0.4207821347
 40
0.4606270738
 40
0.5018882034
 40
0.5444064113
 40
0.5880154985
 40
0.6325432663
 40
0.6778125614
 40
0.7236422828
 40
0.7698483956
 40
0.816244853
 40
0.862644752
 40
0.9088608102
 40
0.9547075439
 40
1.0
 40
1.0
 40
1.0
 40
1.0
 10
10.7874079183
 20
10.9215448326
 30
0.0
 10
10.7862393065
 20
10.9226323588
 30
0.0
 10
10.7840331629
 20
10.9248156816
 30
0.0
 10
10.781051443
 20
10.928220065
 30
0.0
 10
10.7785017843
 20
10.9316511082
 30
0.0
 10
10.776387745
 20
10.9351057912
 30
0.0
 10
10.7747127534
 20
10.9385811893
 30
0.0
 10
10.7734803513
 20
10.9420738501
 30
0.0
 10
10.772693765
 20
10.9455794842
 30
0.0
 10
10.7723557233
 20
10.949092823
 30
0.0
 10
10.7724673313
 20
10.9526077585
 30
0.0
 10
10.7730283637
 20
10.9561179851
 30
0.0
 10
10.7740365808
 20
10.9596177958
 30
0.0
 10
10.7754891967
 20
10.9631023323
 30
0.0
 10
10.7773825219
 20
10.9665678788
 30
0.0
 10
10.7797132876
 20
10.970011133
 30
0.0
 10
10.78247786
 20
10.9734293722
 30
0.0
 10
10.7856729522
 20
10.9768196334
 30
0.0
 10
10.7892948301
 20
10.9801791579
 30
0.0
 10
10.7933397241
 20
10.9835048035
 30
0.0
 10
10.7978033333
 20
10.9867935357
 30
0.0
 10
10.8026810658
 20
10.9900420573
 30
0.0
 10
10.8079678126
 20
10.9932471372
 30
0.0
 10
10.8136580522
 20
10.9964054513
 30
0.0
 10
10.8197457964
 20
10.9995136846
 30
0.0
 10
10.8262245984
 20
11.0025685796
 30
0.0
 10
10.8330875912
 20
11.0055668217
 30
0.0
 10
10.8403274435
 20
11.0085052707
 30
0.0
 10
10.8479364363
 20
11.0113806722
 30
0.0
 10
10.8559064015
 20
11.0141900268
 30
0.0
 10
10.8642288051
 20
11.0169301857
 30
0.0
 10
10.8728946904
 20
11.019598299
 30
0.0
 10
10.8818947496
 20
11.0221913618
 30
0.0
 10
10.8912192837
 20
11.0247066745
 30
0.0
 10
10.9008582572
 20
11.0271414096
 30
0.0
 10
10.9108012723
 20
11.0294930134
 30
0.0
 10
10.9210376243
 20
11.0317588807
 30
0.0
 10
10.9352219757
 20
11.0346954463
 30
0.0
 10
10.9536072153
 20
11.0381238645
 30
0.0
 10
10.9764158327
 20
11.0418150345
 30
0.0
 10
11.0001134649
 20
11.0451118436
 30
0.0
 10
11.0245978391
 20
11.0479999169
 30
0.0
 10
11.0497634057
 20
11.0504666307
 30
0.0
 10
11.0755015843
 20
11.0525012202
 30
0.0
 10
11.1017013061
 20
11.054094807
 30
0.0
 10
11.1282494867
 20
11.055240442
 30
0.0
 10
11.1550315161
 20
11.0559331268
 30
0.0
 10
11.181931788
 20
11.0561698484
 30
0.0
 10
11.2088341171
 20
11.0559495617
 30
0.0
 10
11.235622469
 20
11.0552732473
 30
0.0
 10
11.2621809782
 20
11.0541438289
 30
0.0
 10
11.2797876632
 20
11.0530842589
 30
0.0
 10
11.2885317411
 20
11.0524778551
 30
0.0
  0
SPLINE
  5
43D
100
AcDbEntity
  8
0
100
AcDbSpline
 62
7
  6
CONTINUOUS
 70
0
 71
3
 72
46
 73
42
 74
0
 42
0.0000001
 43
0.0000001
 44
0.0000000001
 40
0.0
 40
0.0
 40
0.0
 40
0.0
 40
0.0964113762
 40
0.1901828411
 40
0.2359024656
 40
0.2807517279
 40
0.3246641656
 40
0.3675753027
 40
0.4094227648
 40
0.4501466652
 40
0.4896896132
 40
0.5279973331
 40
0.5650184103
 40
0.6007050167
 40
0.6350130594
 40
0.6679024096
 40
0.6993378255
 40
0.7292888919
 40
0.7577312693
 40
0.7846472389
 40
0.8100267424
 40
0.8338692072
 40
0.8452175692
 40
0.8561866391
 40
0.8667798147
 40
0.8770014465
 40
0.8868572247
 40
0.8963540703
 40
0.9055002126
 40
0.9143056041
 40
0.9227820472
 40
0.9309432064
 40
0.9388049549
 40
0.9463857073
 40
0.9607835856
 40
0.9676579446
 40
0.9743518603
 40
0.9808974301
 40
0.9873292782
 40
0.9936840939
 40
1.0
 40
1.0
 40
1.0
 40
1.0
 10
13.9931984593
 20
7.9832078678
 30
0.0
 10
13.9931984593
 20
7.9953632106
 30
0.0
 10
13.9929409452
 20
8.019341918
 30
0.0
 10
13.9919441553
 20
8.0490702097
 30
0.0
 10
13.9907391248
 20
8.0722807168
 30
0.0
 10
13.9896465131
 20
8.0892010783
 30
0.0
 10
13.9883594312
 20
8.1057526378
 30
0.0
 10
13.9868799587
 20
8.121908143
 30
0.0
 10
13.985210577
 20
8.137640966
 30
0.0
 10
13.9833540945
 20
8.1529251684
 30
0.0
 10
13.9813135444
 20
8.1677355689
 30
0.0
 10
13.9790924026
 20
8.1820477773
 30
0.0
 10
13.9766943078
 20
8.1958382375
 30
0.0
 10
13.9741232831
 20
8.2090842697
 30
0.0
 10
13.9713836327
 20
8.2217641131
 30
0.0
 10
13.9684798507
 20
8.2338569599
 30
0.0
 10
13.9654168558
 20
8.2453430133
 30
0.0
 10
13.9621996465
 20
8.2562035087
 30
0.0
 10
13.9588335911
 20
8.2664207547
 30
0.0
 10
13.9553242285
 20
8.2759782659
 30
0.0
 10
13.9516772305
 20
8.2848604283
 30
0.0
 10
13.9484777782
 20
8.2917977142
 30
0.0
 10
13.9458467211
 20
8.2969893722
 30
0.0
 10
13.9438753166
 20
8.3006410142
 30
0.0
 10
13.9418740787
 20
8.3041134001
 30
0.0
 10
13.9398437318
 20
8.3074050935
 30
0.0
 10
13.9377851292
 20
8.3105147846
 30
0.0
 10
13.9356990954
 20
8.3134412315
 30
0.0
 10
13.933586394
 20
8.3161832092
 30
0.0
 10
13.9314478472
 20
8.3187395991
 30
0.0
 10
13.9292842827
 20
8.3211094057
 30
0.0
 10
13.9270965516
 20
8.3232915758
 30
0.0
 10
13.9248851797
 20
8.3252853004
 30
0.0
 10
13.9219575508
 20
8.3276500345
 30
0.0
 10
13.9189323408
 20
8.3296906399
 30
0.0
 10
13.9158226633
 20
8.3313575582
 30
0.0
 10
13.9135067513
 20
8.3323963055
 30
0.0
 10
13.911172716
 20
8.3332418135
 30
0.0
 10
13.9088214729
 20
8.3338935663
 30
0.0
 10
13.9064544221
 20
8.3343511391
 30
0.0
 10
13.9048645079
 20
8.3345267077
 30
0.0
 10
13.9040701196
 20
8.3345817959
 30
0.0
  0
SPLINE
  5
43E
100
AcDbEntity
  8
0
100
AcDbSpline
 62
7
  6
CONTINUOUS
 70
0
 71
3
 72
51
 73
47
 74
0
 42
0.0000001
 43
0.0000001
 44
0.0000000001
 40
0.0
 40
0.0
 40
0.0
 40
0.0
 40
0.0055575483
 40
0.0111779716
 40
0.01692191
 40
0.0228457685
 40
0.029000541
 40
0.0354309187
 40
0.0421753321
 40
0.0492661787
 40
0.0567301751
 40
0.0645892818
 40
0.072860934
 40
0.0815589354
 40
0.0906938799
 40
0.1002734384
 40
0.1103031157
 40
0.1207861166
 40
0.1317239771
 40
0.1431166596
 40
0.1549625852
 40
0.1672591636
 40
0.1800024627
 40
0.1931876894
 40
0.2068091423
 40
0.2208601567
 40
0.2502201891
 40
0.2812020358
 40
0.3137291498
 40
0.3477165256
 40
0.3830717054
 40
0.4196956132
 40
0.4574832856
 40
0.4963245986
 40
0.5361048951
 40
0.5767055669
 40
0.6180046028
 40
0.6598771293
 40
0.7021959705
 40
0.7448321944
 40
0.7876555817
 40
0.8305351627
 40
0.8733399838
 40
0.9159382941
 40
0.9582023666
 40
1.0
 40
1.0
 40
1.0
 40
1.0
 10
13.894638569
 20
11.7760620537
 30
0.0
 10
13.8946385616
 20
11.7769130439
 30
0.0
 10
13.8947338023
 20
11.7786261339
 30
0.0
 10
13.8951613591
 20
11.781186638
 30
0.0
 10
13.8958729796
 20
11.7837414094
 30
0.0
 10
13.8968671221
 20
11.7862875419
 30
0.0
 10
13.8981423312
 20
11.7888228973
 30
0.0
 10
13.8996967497
 20
11.7913455967
 30
0.0
 10
13.9015286681
 20
11.7938538858
 30
0.0
 10
13.9036363145
 20
11.7963460393
 30
0.0
 10
13.9060177232
 20
11.7988204648
 30
0.0
 10
13.9086709963
 20
11.8012753362
 30
0.0
 10
13.9115938988
 20
11.8037089856
 30
0.0
 10
13.9147841246
 20
11.8061195824
 30
0.0
 10
13.9182391454
 20
11.8085052691
 30
0.0
 10
13.921956166
 20
11.810864285
 30
0.0
 10
13.9259322695
 20
11.813194672
 30
0.0
 10
13.9301642263
 20
11.8154946623
 30
0.0
 10
13.9346486501
 20
11.8177623745
 30
0.0
 10
13.9393819276
 20
11.8199959521
 30
0.0
 10
13.9443602075
 20
11.8221936529
 30
0.0
 10
13.9495794786
 20
11.824353595
 30
0.0
 10
13.9550354776
 20
11.8264740909
 30
0.0
 10
13.9607237717
 20
11.8285533657
 30
0.0
 10
13.9666397342
 20
11.8305897212
 30
0.0
 10
13.9749468248
 20
11.8332849633
 30
0.0
 10
13.9858699018
 20
11.8365247149
 30
0.0
 10
13.9996193554
 20
11.8401611804
 30
0.0
 10
14.0141511474
 20
11.8435890804
 30
0.0
 10
14.0294177857
 20
11.8467970866
 30
0.0
 10
14.0453694984
 20
11.849774562
 30
0.0
 10
14.0619541547
 20
11.8525116451
 30
0.0
 10
14.0791175194
 20
11.8549992857
 30
0.0
 10
14.096803428
 20
11.8572292574
 30
0.0
 10
14.1149539885
 20
11.8591941866
 30
0.0
 10
14.1335097712
 20
11.8608875747
 30
0.0
 10
14.1524100025
 20
11.8623038208
 30
0.0
 10
14.1715927655
 20
11.8634382549
 30
0.0
 10
14.1909952133
 20
11.8642871344
 30
0.0
 10
14.2105537743
 20
11.8648476555
 30
0.0
 10
14.230204359
 20
11.8651179638
 30
0.0
 10
14.2498826062
 20
11.8650971665
 30
0.0
 10
14.2695239242
 20
11.8647853183
 30
0.0
 10
14.289064228
 20
11.8641834982
 30
0.0
 10
14.3084391148
 20
11.8632936192
 30
0.0
 10
14.3212873719
 20
11.8625051794
 30
0.0
 10
14.3276722286
 20
11.8620623881
 30
0.0
  0
SPLINE
  5
43F
100
AcDbEntity
  8
0
100
AcDbSpline
 62
7
  6
CONTINUOUS
 70
0
 71
3
 72
51
 73
47
 74
0
 42
0.0000001
 43
0.0000001
 44
0.0000000001
 40
0.0
 40
0.0
 40
0.0
 40
0.0
 40
0.0055575483
 40
0.0111779716
 40
0.01692191
 40
0.0228457685
 40
0.029000541
 40
0.0354309187
 40
0.0421753321
 40
0.0492661787
 40
0.0567301751
 40
0.0645892818
 40
0.072860934
 40
0.0815589354
 40
0.0906938799
 40
0.1002734384
 40
0.1103031157
 40
0.1207861166
 40
0.1317239771
 40
0.1431166596
 40
0.1549625852
 40
0.1672591636
 40
0.1800024627
 40
0.1931876894
 40
0.2068091423
 40
0.2208601567
 40
0.2502201891
 40
0.2812020358
 40
0.3137291498
 40
0.3477165256
 40
0.3830717054
 40
0.4196956132
 40
0.4574832856
 40
0.4963245986
 40
0.5361048951
 40
0.5767055669
 40
0.6180046028
 40
0.6598771293
 40
0.7021959705
 40
0.7448321944
 40
0.7876555817
 40
0.8305351627
 40
0.8733399838
 40
0.9159382941
 40
0.9582023666
 40
1.0
 40
1.0
 40
1.0
 40
1.0
 10
8.5820462096
 20
12.1444915852
 30
0.0
 10
8.5820462022
 20
12.1453425754
 30
0.0
 10
8.582141443
 20
12.1470556654
 30
0.0
 10
8.5825689997
 20
12.1496161695
 30
0.0
 10
8.5832806202
 20
12.1521709408
 30
0.0
 10
8.5842747627
 20
12.1547170733
 30
0.0
 10
8.5855499718
 20
12.1572524287
 30
0.0
 10
8.5871043903
 20
12.1597751281
 30
0.0
 10
8.5889363088
 20
12.1622834173
 30
0.0
 10
8.5910439551
 20
12.1647755708
 30
0.0
 10
8.5934253638
 20
12.1672499963
 30
0.0
 10
8.5960786369
 20
12.1697048676
 30
0.0
 10
8.5990015395
 20
12.172138517
 30
0.0
 10
8.6021917652
 20
12.1745491139
 30
0.0
 10
8.6056467861
 20
12.1769348006
 30
0.0
 10
8.6093638067
 20
12.1792938165
 30
0.0
 10
8.6133399101
 20
12.1816242035
 30
0.0
 10
8.6175718669
 20
12.1839241937
 30
0.0
 10
8.6220562907
 20
12.186191906
 30
0.0
 10
8.6267895682
 20
12.1884254835
 30
0.0
 10
8.6317678481
 20
12.1906231844
 30
0.0
 10
8.6369871192
 20
12.1927831265
 30
0.0
 10
8.6424431182
 20
12.1949036223
 30
0.0
 10
8.6481314123
 20
12.1969828972
 30
0.0
 10
8.6540473749
 20
12.1990192527
 30
0.0
 10
8.6623544654
 20
12.2017144948
 30
0.0
 10
8.6732775425
 20
12.2049542464
 30
0.0
 10
8.687026996
 20
12.2085907119
 30
0.0
 10
8.701558788
 20
12.2120186119
 30
0.0
 10
8.7168254264
 20
12.215226618
 30
0.0
 10
8.732777139
 20
12.2182040935
 30
0.0
 10
8.7493617953
 20
12.2209411765
 30
0.0
 10
8.76652516
 20
12.2234288172
 30
0.0
 10
8.7842110686
 20
12.2256587889
 30
0.0
 10
8.8023616291
 20
12.2276237181
 30
0.0
 10
8.8209174119
 20
12.2293171062
 30
0.0
 10
8.8398176431
 20
12.2307333523
 30
0.0
 10
8.8590004061
 20
12.2318677864
 30
0.0
 10
8.8784028539
 20
12.2327166659
 30
0.0
 10
8.8979614149
 20
12.233277187
 30
0.0
 10
8.9176119996
 20
12.2335474953
 30
0.0
 10
8.9372902468
 20
12.233526698
 30
0.0
 10
8.9569315649
 20
12.2332148497
 30
0.0
 10
8.9764718686
 20
12.2326130297
 30
0.0
 10
8.9958467554
 20
12.2317231507
 30
0.0
 10
9.0086950126
 20
12.2309347109
 30
0.0
 10
9.0150798692
 20
12.2304919195
 30
0.0
  0
SPLINE
  5
440
100
AcDbEntity
  8
0
100
AcDbSpline
 62
7
  6
CONTINUOUS
 70
0
 71
3
 72
51
 73
47
 74
0
 42
0.0000001
 43
0.0000001
 44
0.0000000001
 40
0.0
 40
0.0
 40
0.0
 40
0.0
 40
0.006315867
 40
0.0126706314
 40
0.0191024433
 40
0.025647959
 40
0.0323417891
 40
0.039216105
 40
0.0536138211
 40
0.0611945103
 40
0.0690561997
 40
0.0772172526
 40
0.0856936037
 40
0.0944989194
 40
0.1036449818
 40
0.1131417085
 40
0.1229973841
 40
0.1332189653
 40
0.1438120086
 40
0.1547809469
 40
0.1661292687
 40
0.1778593984
 40
0.1899730025
 40
0.2024710335
 40
0.2153536301
 40
0.2286204171
 40
0.2422704341
 40
0.2707125741
 40
0.3006634297
 40
0.33209859
 40
0.3649877453
 40
0.3992954944
 40
0.4349818799
 40
0.4720027336
 40
0.5103101563
 40
0.5498528892
 40
0.5905765191
 40
0.6324237195
 40
0.6753345875
 40
0.7192468132
 40
0.7640957578
 40
0.8098149508
 40
0.8563358524
 40
0.9035878254
 40
0.9515015618
 40
1.0
 40
1.0
 40
1.0
 40
1.0
 10
14.0213001203
 20
8.7374366111
 30
0.0
 10
14.0227874885
 20
8.7373334706
 30
0.0
 10
14.0257643557
 20
8.7370048085
 30
0.0
 10
14.0301963138
 20
8.7361481985
 30
0.0
 10
14.0345986334
 20
8.7349278489
 30
0.0
 10
14.0389687496
 20
8.733344818
 30
0.0
 10
14.0433049824
 20
8.7314000634
 30
0.0
 10
14.0491273169
 20
8.7282789815
 30
0.0
 10
14.054791612
 20
8.7244584063
 30
0.0
 10
14.0602731329
 20
8.7200308352
 30
0.0
 10
14.064413567
 20
8.7162979128
 30
0.0
 10
14.0685097868
 20
8.7122122112
 30
0.0
 10
14.0725607277
 20
8.7077751588
 30
0.0
 10
14.076564824
 20
8.7029887455
 30
0.0
 10
14.0805205226
 20
8.6978548485
 30
0.0
 10
14.0844263215
 20
8.6923755897
 30
0.0
 10
14.0882807536
 20
8.6865532162
 30
0.0
 10
14.092082221
 20
8.6803900385
 30
0.0
 10
14.0958292716
 20
8.6738885907
 30
0.0
 10
14.0995204208
 20
8.6670515148
 30
0.0
 10
14.1031541102
 20
8.6598815569
 30
0.0
 10
14.1067289407
 20
8.6523816706
 30
0.0
 10
14.110243441
 20
8.6445549055
 30
0.0
 10
14.1136961299
 20
8.63640444
 30
0.0
 10
14.1170856593
 20
8.627933638
 30
0.0
 10
14.1204106261
 20
8.6191459396
 30
0.0
 10
14.1248163979
 20
8.6068422176
 30
0.0
 10
14.1301387947
 20
8.5906864569
 30
0.0
 10
14.1361625073
 20
8.5703520463
 30
0.0
 10
14.1418975319
 20
8.5488461979
 30
0.0
 10
14.1473343793
 20
8.5262042681
 30
0.0
 10
14.1524640046
 20
8.5024632699
 30
0.0
 10
14.1572778401
 20
8.4776621616
 30
0.0
 10
14.16176789
 20
8.4518416915
 30
0.0
 10
14.1659266823
 20
8.4250443316
 30
0.0
 10
14.1697472669
 20
8.3973141785
 30
0.0
 10
14.1732232711
 20
8.3686968998
 30
0.0
 10
14.1763489261
 20
8.3392396523
 30
0.0
 10
14.1791190166
 20
8.3089909832
 30
0.0
 10
14.1815288999
 20
8.2780007655
 30
0.0
 10
14.1835745869
 20
8.2463200846
 30
0.0
 10
14.1852526608
 20
8.2140011978
 30
0.0
 10
14.1865602996
 20
8.1810975286
 30
0.0
 10
14.1874953624
 20
8.1476629339
 30
0.0
 10
14.1880561986
 20
8.1137531532
 30
0.0
 10
14.1881793629
 20
8.0909936357
 30
0.0
 10
14.1881793629
 20
8.079544968
 30
0.0
  0
SPLINE
  5
441
100
AcDbEntity
  8
0
100
AcDbSpline
 62
7
  6
CONTINUOUS
 70
0
 71
3
 72
58
 73
54
 74
0
 42
0.0000001
 43
0.0000001
 44
0.0000000001
 40
0.0
 40
0.0
 40
0.0
 40
0.0
 40
0.0417737373
 40
0.0840364485
 40
0.126657724
 40
0.1695054566
 40
0.2124468032
 40
0.2553484901
 40
0.298077421
 40
0.3405011733
 40
0.3824885338
 40
0.4239100241
 40
0.4646384356
 40
0.5045493696
 40
0.5435217891
 40
0.5814385861
 40
0.6181871714
 40
0.6536600995
 40
0.6708864646
 40
0.6877562952
 40
0.7042579614
 40
0.7203802099
 40
0.7361123688
 40
0.7514441951
 40
0.766366103
 40
0.7808690035
 40
0.7949445543
 40
0.8085850007
 40
0.8217834443
 40
0.8345336989
 40
0.8468305763
 40
0.8586697732
 40
0.8700481773
 40
0.8809638057
 40
0.8914161393
 40
0.9014061401
 40
0.9109366315
 40
0.9200124299
 40
0.9286407999
 40
0.9368317431
 40
0.9445985649
 40
0.9519583582
 40
0.9589326975
 40
0.9655482957
 40
0.9718377309
 40
0.9778400552
 40
0.9836011724
 40
0.9864084712
 40
0.989175789
 40
0.9919106562
 40
0.994620905
 40
0.9973146092
 40
1.0
 40
1.0
 40
1.0
 40
1.0
 10
14.8207326059
 20
7.2416556928
 30
0.0
 10
14.8207326059
 20
7.2239325892
 30
0.0
 10
14.8204561052
 20
7.1882783708
 30
0.0
 10
14.8192337514
 20
7.1345540645
 30
0.0
 10
14.8172049392
 20
7.0803981001
 30
0.0
 10
14.8143763258
 20
7.0259897708
 30
0.0
 10
14.8107572544
 20
6.9715090697
 30
0.0
 10
14.8063596896
 20
6.9171362401
 30
0.0
 10
14.8011981981
 20
6.8630511703
 30
0.0
 10
14.7952898907
 20
6.8094327871
 30
0.0
 10
14.7886543699
 20
6.7564584645
 30
0.0
 10
14.7813136646
 20
6.7043034294
 30
0.0
 10
14.7732921587
 20
6.653140179
 30
0.0
 10
14.7646165122
 20
6.6031378966
 30
0.0
 10
14.7553155727
 20
6.5544619067
 30
0.0
 10
14.7454202905
 20
6.5072730321
 30
0.0
 10
14.7349635874
 20
6.4617273528
 30
0.0
 10
14.7257230597
 20
6.4249168068
 30
0.0
 10
14.7180635883
 20
6.3964117196
 30
0.0
 10
14.7122566911
 20
6.3757446514
 30
0.0
 10
14.7063363728
 20
6.3555975584
 30
0.0
 10
14.7003074239
 20
6.3359870828
 30
0.0
 10
14.6941749469
 20
6.316929425
 30
0.0
 10
14.6879439258
 20
6.2984403383
 30
0.0
 10
14.6816196312
 20
6.2805350779
 30
0.0
 10
14.6752071997
 20
6.2632284379
 30
0.0
 10
14.6687120557
 20
6.2465346781
 30
0.0
 10
14.6621394699
 20
6.2304675801
 30
0.0
 10
14.6554949973
 20
6.2150403557
 30
0.0
 10
14.648784023
 20
6.2002657237
 30
0.0
 10
14.642012206
 20
6.1861557972
 30
0.0
 10
14.6351850226
 20
6.1727221831
 30
0.0
 10
14.6283082021
 20
6.1599758475
 30
0.0
 10
14.6213872814
 20
6.1479272382
 30
0.0
 10
14.6144280159
 20
6.13658613
 30
0.0
 10
14.6074359586
 20
6.1259617688
 30
0.0
 10
14.6004168282
 20
6.1160627033
 30
0.0
 10
14.593376126
 20
6.1068969497
 30
0.0
 10
14.5863194416
 20
6.0984718228
 30
0.0
 10
14.5792521234
 20
6.0907941222
 30
0.0
 10
14.5721795056
 20
6.0838699929
 30
0.0
 10
14.5651066648
 20
6.0777051373
 30
0.0
 10
14.5580385573
 20
6.0723047522
 30
0.0
 10
14.550979998
 20
6.0676737731
 30
0.0
 10
14.5439355383
 20
6.0638168852
 30
0.0
 10
14.5369106533
 20
6.0607388408
 30
0.0
 10
14.5310254038
 20
6.0588100017
 30
0.0
 10
14.5263500498
 20
6.057674487
 30
0.0
 10
14.5228829307
 20
6.0570262356
 30
0.0
 10
14.5194263144
 20
6.0565744968
 30
0.0
 10
14.5159808657
 20
6.056319426
 30
0.0
 10
14.5125475636
 20
6.056261062
 30
0.0
 10
14.5102657829
 20
6.0563533834
 30
0.0
 10
14.5091291978
 20
6.0564322122
 30
0.0
  0
SPLINE
  5
442
100
AcDbEntity
  8
0
100
AcDbSpline
 62
7
  6
CONTINUOUS
 70
0
 71
3
 72
53
 73
49
 74
0
 42
0.0000001
 43
0.0000001
 44
0.0000000001
 40
0.0
 40
0.0
 40
0.0
 40
0.0
 40
0.0063158443
 40
0.0126706032
 40
0.0191024038
 40
0.0256479293
 40
0.0323417853
 40
0.0392160999
 40
0.0536138948
 40
0.0611945917
 40
0.0690563434
 40
0.0772174261
 40
0.0856937972
 40
0.0944991824
 40
0.1036452589
 40
0.1131420192
 40
0.1229977586
 40
0.133219338
 40
0.1438124256
 40
0.1547814115
 40
0.1661297224
 40
0.1778598996
 40
0.1899735277
 40
0.2024715474
 40
0.2153541861
 40
0.2286209712
 40
0.2422709812
 40
0.2563026796
 40
0.2707140367
 40
0.285502677
 40
0.3006656816
 40
0.3321007977
 40
0.3649898962
 40
0.3992976051
 40
0.4349839194
 40
0.4720046713
 40
0.5103119934
 40
0.5498546246
 40
0.5905781197
 40
0.6324251754
 40
0.6753358979
 40
0.7192479639
 40
0.7640967365
 40
0.8098157317
 40
0.8563364697
 40
0.9035882633
 40
0.9515016804
 40
1.0
 40
1.0
 40
1.0
 40
1.0
 10
14.6405802341
 20
10.8496571878
 30
0.0
 10
14.6421859085
 20
10.849545825
 30
0.0
 10
14.6453995599
 20
10.8491909532
 30
0.0
 10
14.650184012
 20
10.848266021
 30
0.0
 10
14.6549365069
 20
10.8469485798
 30
0.0
 10
14.659654212
 20
10.8452395047
 30
0.0
 10
14.6643353165
 20
10.8431399165
 30
0.0
 10
14.6706208072
 20
10.8397705396
 30
0.0
 10
14.6767355579
 20
10.8356458476
 30
0.0
 10
14.6826531306
 20
10.8308660534
 30
0.0
 10
14.6871228412
 20
10.82683607
 30
0.0
 10
14.6915448803
 20
10.8224253163
 30
0.0
 10
14.6959180497
 20
10.8176352694
 30
0.0
 10
14.7002405767
 20
10.8124680208
 30
0.0
 10
14.7045109371
 20
10.8069257129
 30
0.0
 10
14.7087273959
 20
10.8010105481
 30
0.0
 10
14.7128883636
 20
10.7947249593
 30
0.0
 10
14.7169922344
 20
10.7880715068
 30
0.0
 10
14.7210372974
 20
10.7810528438
 30
0.0
 10
14.7250220112
 20
10.773671861
 30
0.0
 10
14.7289447552
 20
10.7659315478
 30
0.0
 10
14.7328038882
 20
10.7578350349
 30
0.0
 10
14.7365979209
 20
10.749385657
 30
0.0
 10
14.7403252533
 20
10.7405868447
 30
0.0
 10
14.7439843493
 20
10.7314421953
 30
0.0
 10
14.7475737685
 20
10.7219554717
 30
0.0
 10
14.7510919666
 20
10.7121305424
 30
0.0
 10
14.754537526
 20
10.7019714481
 30
0.0
 10
14.7579090507
 20
10.6914823697
 30
0.0
 10
14.7612051048
 20
10.680667588
 30
0.0
 10
14.7655496698
 20
10.665638682
 30
0.0
 10
14.7707696819
 20
10.6460636093
 30
0.0
 10
14.7766389751
 20
10.6216207347
 30
0.0
 10
14.7821765777
 20
10.5959912563
 30
0.0
 10
14.7873732894
 20
10.5692173891
 30
0.0
 10
14.7922204696
 20
10.5413430836
 30
0.0
 10
14.7967100371
 20
10.512414191
 30
0.0
 10
14.8008344872
 20
10.4824783133
 30
0.0
 10
14.8045869655
 20
10.4515847576
 30
0.0
 10
14.8079612266
 20
10.4197844288
 30
0.0
 10
14.8109516342
 20
10.3871297307
 30
0.0
 10
14.8135531899
 20
10.353674505
 30
0.0
 10
14.8157615853
 20
10.3194739069
 30
0.0
 10
14.8175731279
 20
10.2845843379
 30
0.0
 10
14.8189847672
 20
10.2490634716
 30
0.0
 10
14.8199942019
 20
10.2129694785
 30
0.0
 10
14.8205996477
 20
10.1763624894
 30
0.0
 10
14.8207326059
 20
10.1517926693
 30
0.0
 10
14.8207326059
 20
10.1394333433
 30
0.0
  0
SPLINE
  5
443
100
AcDbEntity
  8
0
100
AcDbSpline
 62
7
  6
CONTINUOUS
 70
0
 71
3
 72
53
 73
49
 74
0
 42
0.0000001
 43
0.0000001
 44
0.0000000001
 40
0.0
 40
0.0
 40
0.0
 40
0.0
 40
0.0063158443
 40
0.0126706032
 40
0.0191024038
 40
0.0256479293
 40
0.0323417853
 40
0.0392160999
 40
0.0536138948
 40
0.0611945917
 40
0.0690563434
 40
0.0772174261
 40
0.0856937972
 40
0.0944991824
 40
0.1036452589
 40
0.1131420192
 40
0.1229977586
 40
0.133219338
 40
0.1438124256
 40
0.1547814115
 40
0.1661297224
 40
0.1778598996
 40
0.1899735277
 40
0.2024715474
 40
0.2153541861
 40
0.2286209712
 40
0.2422709812
 40
0.2563026796
 40
0.2707140367
 40
0.285502677
 40
0.3006656816
 40
0.3321007977
 40
0.3649898962
 40
0.3992976051
 40
0.4349839194
 40
0.4720046713
 40
0.5103119934
 40
0.5498546246
 40
0.5905781197
 40
0.6324251754
 40
0.6753358979
 40
0.7192479639
 40
0.7640967365
 40
0.8098157317
 40
0.8563364697
 40
0.9035882633
 40
0.9515016804
 40
1.0
 40
1.0
 40
1.0
 40
1.0
 10
14.6405802341
 20
7.9518795372
 30
0.0
 10
14.6421859085
 20
7.9517681744
 30
0.0
 10
14.6453995599
 20
7.9514133026
 30
0.0
 10
14.650184012
 20
7.9504883704
 30
0.0
 10
14.6549365069
 20
7.9491709293
 30
0.0
 10
14.659654212
 20
7.9474618541
 30
0.0
 10
14.6643353165
 20
7.9453622659
 30
0.0
 10
14.6706208072
 20
7.9419928891
 30
0.0
 10
14.6767355579
 20
7.937868197
 30
0.0
 10
14.6826531306
 20
7.9330884029
 30
0.0
 10
14.6871228412
 20
7.9290584194
 30
0.0
 10
14.6915448803
 20
7.9246476657
 30
0.0
 10
14.6959180497
 20
7.9198576188
 30
0.0
 10
14.7002405767
 20
7.9146903703
 30
0.0
 10
14.7045109371
 20
7.9091480624
 30
0.0
 10
14.7087273959
 20
7.9032328976
 30
0.0
 10
14.7128883636
 20
7.8969473087
 30
0.0
 10
14.7169922344
 20
7.8902938562
 30
0.0
 10
14.7210372974
 20
7.8832751932
 30
0.0
 10
14.7250220112
 20
7.8758942104
 30
0.0
 10
14.7289447552
 20
7.8681538972
 30
0.0
 10
14.7328038882
 20
7.8600573843
 30
0.0
 10
14.7365979209
 20
7.8516080064
 30
0.0
 10
14.7403252533
 20
7.8428091941
 30
0.0
 10
14.7439843493
 20
7.8336645447
 30
0.0
 10
14.7475737685
 20
7.8241778211
 30
0.0
 10
14.7510919666
 20
7.8143528919
 30
0.0
 10
14.754537526
 20
7.8041937975
 30
0.0
 10
14.7579090507
 20
7.7937047191
 30
0.0
 10
14.7612051048
 20
7.7828899375
 30
0.0
 10
14.7655496698
 20
7.7678610315
 30
0.0
 10
14.7707696819
 20
7.7482859587
 30
0.0
 10
14.7766389751
 20
7.7238430842
 30
0.0
 10
14.7821765777
 20
7.6982136057
 30
0.0
 10
14.7873732894
 20
7.6714397386
 30
0.0
 10
14.7922204696
 20
7.643565433
 30
0.0
 10
14.7967100371
 20
7.6146365404
 30
0.0
 10
14.8008344872
 20
7.5847006628
 30
0.0
 10
14.8045869655
 20
7.5538071071
 30
0.0
 10
14.8079612266
 20
7.5220067782
 30
0.0
 10
14.8109516342
 20
7.4893520801
 30
0.0
 10
14.8135531899
 20
7.4558968544
 30
0.0
 10
14.8157615853
 20
7.4216962564
 30
0.0
 10
14.8175731279
 20
7.3868066873
 30
0.0
 10
14.8189847672
 20
7.3512858211
 30
0.0
 10
14.8199942019
 20
7.315191828
 30
0.0
 10
14.8205996477
 20
7.2785848388
 30
0.0
 10
14.8207326059
 20
7.2540150188
 30
0.0
 10
14.8207326059
 20
7.2416556928
 30
0.0
  0
ENDSEC
  0
SECTION
  2
OBJECTS
  0
DICTIONARY
  5
C
100
AcDbDictionary
280
0
281
1
  3
ACAD_GROUP
350
D
  3
ACAD_MLINESTYLE
350
17
  3
ACAD_LAYOUT
350
1A
  3
ACAD_PLOTSETTINGS
350
19
  3
ACAD_PLOTSTYLENAME
350
E
  3
ACAD_IMAGE_DICT
350
       445
  3
ACAD_IMAGE_VARS
350
       446
  3
ACAD_TABLESTYLE
350
       447
  0
IMAGEDEF_REACTOR
  5
444
100
AcDbRasterImageDefReactor
 90
2
330
292
  0
DICTIONARY
  5
D
102
{ACAD_REACTORS
330
C
102
}
100
AcDbDictionary
280
0
281
1
  0
ACDBDICTIONARYWDFLT
  5
E
102
{ACAD_REACTORS
330
C
102
}
100
AcDbDictionary
281
1
  3
Normal
350
F
100
AcDbDictionaryWithDefault
340
F
  0
DICTIONARY
  5
445
330
C
100
AcDbDictionary
281
1
  3
EQU_assy_2_img_1
350
       44A
  0
RASTERVARIABLES
  5
446
330
C
100
AcDbRasterVariables
 90
0
 70
0
 71
1
 72
5
  0
DICTIONARY
  5
17
102
{ACAD_REACTORS
330
C
102
}
100
AcDbDictionary
280
0
281
1
  3
Standard
350
18
  0
DICTIONARY
  5
447
330
C
100
AcDbDictionary
281
1
  3
Standard
350
       44B
  3
Standard1
350
       44C
  0
DICTIONARY
  5
19
102
{ACAD_REACTORS
330
C
102
}
100
AcDbDictionary
281
1
  0
DICTIONARY
  5
1A
102
{ACAD_REACTORS
330
C
102
}
100
AcDbDictionary
281
1
  3
Model
350
448
  3
Layout1
350
449
  0
ACDBPLACEHOLDER
  5
F
102
{ACAD_REACTORS
330
E
102
}
  0
MLINESTYLE
  5
18
102
{ACAD_REACTORS
330
17
102
}
100
AcDbMlineStyle
  2
STANDARD
 70
0
  3

 62
256
 51
90.0
 52
90.0
 71
2
 49
0.5
 62
256
  6
BYLAYER
 49
-0.5
 62
256
  6
BYLAYER
  0
LAYOUT
  5
448
102
{ACAD_REACTORS
330
1A
102
}
100
AcDbPlotSettings
  1

  2
none_device
  4
ANSI_C_(22.00_x_17.00_Inches)
  6

 40
0.0
 41
0.0
 42
0.0
 43
0.0
 44
558.8
 45
431.8
 46
0.0
 47
0.0
 48
0.0
 49
0.0
140
0.0
141
0.0
142
1.0
143
1.0
 70
1024
 72
0
 73
0
 74
0
  7

 75
0
147
1.0
148
0.0
149
0.0
100
AcDbLayout
  1
Model
 70
0
 71
0
 10
0.0
 20
0.0
 11
22.0
 21
17.0
 12
0.0
 22
0.0
 32
0.0
 14
0.0
 24
0.0
 34
0.0
 15
0.0
 25
0.0
 35
0.0
146
0.0
 13
0.0
 23
0.0
 33
0.0
 16
1.0
 26
0.0
 36
0.0
 17
0.0
 27
1.0
 37
0.0
 76
0
330
20C
345
0
346
0
  0
LAYOUT
  5
449
102
{ACAD_REACTORS
330
1A
102
}
100
AcDbPlotSettings
  1

  2
none_device
  4
ANSI_C_(22.00_x_17.00_Inches)
  6

 40
0.0
 41
0.0
 42
0.0
 43
0.0
 44
558.8
 45
431.8
 46
0.0
 47
0.0
 48
0.0
 49
0.0
140
0.0
141
0.0
142
1.0
143
1.0
 70
0
 72
0
 73
0
 74
0
  7

 75
0
147
1.0
148
0.0
149
0.0
100
AcDbLayout
  1
Layout1
 70
0
 71
1
 10
0.0
 20
0.0
 11
22.0
 21
17.0
 12
0.0
 22
0.0
 32
0.0
 14
0.0
 24
0.0
 34
0.0
 15
0.0
 25
0.0
 35
0.0
146
0.0
 13
0.0
 23
0.0
 33
0.0
 16
1.0
 26
0.0
 36
0.0
 17
0.0
 27
1.0
 37
0.0
 76
0
330
20D
345
0
346
0
  0
IMAGEDEF
  5
44A
102
{ACAD_REACTORS
330
445
330
444
102
}
100
AcDbRasterImageDef
 90
0
  1
EQU_assy_2_img_1.png
 10
369.0
 20
92.0
 11
0.0066666667
 21
0.0066666667
280
1
281
0
  0
TABLESTYLE
  5
44B
102
{ACAD_REACTORS
330
447
330
295
330
296
102
}
330
447
100
AcDbTableStyle
  3
Standard
 70
0
 71
0
 40
0.06
 41
0.06
280
1
281
1
  7
Standard
140
0.18
170
1
 62
0
 63
7
283
0
  7
Standard
140
0.18
170
1
 62
0
 63
7
283
0
  7
Standard
140
0.18
170
1
 62
0
 63
7
283
0
  0
TABLESTYLE
  5
44C
102
{ACAD_REACTORS
330
447
330
294
102
}
330
447
100
AcDbTableStyle
  3
Standard1
 70
1
 71
0
 40
0.06
 41
0.06
280
1
281
1
  7
Standard
140
0.18
170
1
 62
0
 63
7
283
0
  7
Standard
140
0.18
170
1
 62
0
 63
7
283
0
  7
Standard
140
0.18
170
1
 62
0
 63
7
283
0
  0
ENDSEC
  0
EOF
